  0
SECTION
  2
HEADER
  9
$ACADVER
  1
AC1015
  9
$ACADMAINTVER
 70
    20
  9
$DWGCODEPAGE
  3
ANSI_932
  9
$INSBASE
 10
0.0
 20
0.0
 30
0.0
  9
$EXTMIN
 10
9.999999064246818
 20
9.999999806846743
 30
0.0
  9
$EXTMAX
 10
469.2542223584355
 20
331.0706513337963
 30
0.0
  9
$LIMMIN
 10
0.0000015376081137
 20
-0.0000001931532552
  9
$LIMMAX
 10
495.0000015376081
 20
341.2499998068465
  9
$ORTHOMODE
 70
     0
  9
$REGENMODE
 70
     1
  9
$FILLMODE
 70
     1
  9
$QTEXTMODE
 70
     0
  9
$MIRRTEXT
 70
     1
  9
$LTSCALE
 40
1.0
  9
$ATTMODE
 70
     1
  9
$TEXTSIZE
 40
2.5
  9
$TRACEWID
 40
1.0
  9
$TEXTSTYLE
  7
STANDARD
  9
$CLAYER
  8
0
  9
$CELTYPE
  6
BYLAYER
  9
$CECOLOR
 62
   256
  9
$CELTSCALE
 40
1.0
  9
$DISPSILH
 70
     0
  9
$DIMSCALE
 40
1.0
  9
$DIMASZ
 40
3.0
  9
$DIMEXO
 40
1.0
  9
$DIMDLI
 40
10.0
  9
$DIMRND
 40
0.0
  9
$DIMDLE
 40
0.0
  9
$DIMEXE
 40
1.0
  9
$DIMTP
 40
0.0
  9
$DIMTM
 40
0.0
  9
$DIMTXT
 40
3.2
  9
$DIMCEN
 40
0.0
  9
$DIMTSZ
 40
0.0
  9
$DIMTOL
 70
     0
  9
$DIMLIM
 70
     0
  9
$DIMTIH
 70
     0
  9
$DIMTOH
 70
     0
  9
$DIMSE1
 70
     0
  9
$DIMSE2
 70
     0
  9
$DIMTAD
 70
     3
  9
$DIMZIN
 70
     8
  9
$DIMBLK
  1

  9
$DIMASO
 70
     1
  9
$DIMSHO
 70
     1
  9
$DIMPOST
  1

  9
$DIMAPOST
  1

  9
$DIMALT
 70
     0
  9
$DIMALTD
 70
     2
  9
$DIMALTF
 40
25.4
  9
$DIMLFAC
 40
1.0
  9
$DIMTOFL
 70
     1
  9
$DIMTVP
 40
0.0
  9
$DIMTIX
 70
     0
  9
$DIMSOXD
 70
     0
  9
$DIMSAH
 70
     1
  9
$DIMBLK1
  1
OPEN
  9
$DIMBLK2
  1
OPEN
  9
$DIMSTYLE
  2
STANDARD
  9
$DIMCLRD
 70
     0
  9
$DIMCLRE
 70
     0
  9
$DIMCLRT
 70
     0
  9
$DIMTFAC
 40
1.0
  9
$DIMGAP
 40
1.0
  9
$DIMJUST
 70
     0
  9
$DIMSD1
 70
     0
  9
$DIMSD2
 70
     0
  9
$DIMTOLJ
 70
     1
  9
$DIMTZIN
 70
     0
  9
$DIMALTZ
 70
     0
  9
$DIMALTTZ
 70
     0
  9
$DIMUPT
 70
     0
  9
$DIMDEC
 70
     4
  9
$DIMTDEC
 70
     4
  9
$DIMALTU
 70
     2
  9
$DIMALTTD
 70
     2
  9
$DIMTXSTY
  7
STANDARD
  9
$DIMAUNIT
 70
     0
  9
$DIMADEC
 70
     0
  9
$DIMALTRND
 40
0.0
  9
$DIMAZIN
 70
     0
  9
$DIMDSEP
 70
    46
  9
$DIMATFIT
 70
     3
  9
$DIMFRAC
 70
     0
  9
$DIMLDRBLK
  1
OPEN
  9
$DIMLUNIT
 70
     2
  9
$DIMLWD
 70
    -2
  9
$DIMLWE
 70
    -2
  9
$DIMTMOVE
 70
     0
  9
$LUNITS
 70
     2
  9
$LUPREC
 70
     4
  9
$SKETCHINC
 40
1.0
  9
$FILLETRAD
 40
0.0
  9
$AUNITS
 70
     0
  9
$AUPREC
 70
     0
  9
$MENU
  1
.
  9
$ELEVATION
 40
0.0
  9
$PELEVATION
 40
0.0
  9
$THICKNESS
 40
0.0
  9
$LIMCHECK
 70
     0
  9
$CHAMFERA
 40
10.0
  9
$CHAMFERB
 40
10.0
  9
$CHAMFERC
 40
20.0
  9
$CHAMFERD
 40
0.0
  9
$SKPOLY
 70
     0
  9
$TDCREATE
 40
2453252.556664132
  9
$TDUCREATE
 40
2453252.181664132
  9
$TDUPDATE
 40
2457192.689601204
  9
$TDUUPDATE
 40
2457192.314601204
  9
$TDINDWG
 40
0.2414991898
  9
$TDUSRTIMER
 40
0.2414991782
  9
$USRTIMER
 70
     1
  9
$ANGBASE
 50
0.0
  9
$ANGDIR
 70
     0
  9
$PDMODE
 70
     0
  9
$PDSIZE
 40
0.0
  9
$PLINEWID
 40
0.0
  9
$SPLFRAME
 70
     0
  9
$SPLINETYPE
 70
     6
  9
$SPLINESEGS
 70
     8
  9
$HANDSEED
  5
1448
  9
$SURFTAB1
 70
     6
  9
$SURFTAB2
 70
     6
  9
$SURFTYPE
 70
     6
  9
$SURFU
 70
     6
  9
$SURFV
 70
     6
  9
$UCSBASE
  2

  9
$UCSNAME
  2

  9
$UCSORG
 10
0.0
 20
0.0
 30
0.0
  9
$UCSXDIR
 10
1.0
 20
0.0
 30
0.0
  9
$UCSYDIR
 10
0.0
 20
1.0
 30
0.0
  9
$UCSORTHOREF
  2

  9
$UCSORTHOVIEW
 70
     0
  9
$UCSORGTOP
 10
0.0
 20
0.0
 30
0.0
  9
$UCSORGBOTTOM
 10
0.0
 20
0.0
 30
0.0
  9
$UCSORGLEFT
 10
0.0
 20
0.0
 30
0.0
  9
$UCSORGRIGHT
 10
0.0
 20
0.0
 30
0.0
  9
$UCSORGFRONT
 10
0.0
 20
0.0
 30
0.0
  9
$UCSORGBACK
 10
0.0
 20
0.0
 30
0.0
  9
$PUCSBASE
  2

  9
$PUCSNAME
  2

  9
$PUCSORG
 10
0.0
 20
0.0
 30
0.0
  9
$PUCSXDIR
 10
1.0
 20
0.0
 30
0.0
  9
$PUCSYDIR
 10
0.0
 20
1.0
 30
0.0
  9
$PUCSORTHOREF
  2

  9
$PUCSORTHOVIEW
 70
     0
  9
$PUCSORGTOP
 10
0.0
 20
0.0
 30
0.0
  9
$PUCSORGBOTTOM
 10
0.0
 20
0.0
 30
0.0
  9
$PUCSORGLEFT
 10
0.0
 20
0.0
 30
0.0
  9
$PUCSORGRIGHT
 10
0.0
 20
0.0
 30
0.0
  9
$PUCSORGFRONT
 10
0.0
 20
0.0
 30
0.0
  9
$PUCSORGBACK
 10
0.0
 20
0.0
 30
0.0
  9
$USERI1
 70
     0
  9
$USERI2
 70
     0
  9
$USERI3
 70
     0
  9
$USERI4
 70
     0
  9
$USERI5
 70
     0
  9
$USERR1
 40
0.0
  9
$USERR2
 40
0.0
  9
$USERR3
 40
0.0
  9
$USERR4
 40
0.0
  9
$USERR5
 40
0.0
  9
$WORLDVIEW
 70
     1
  9
$SHADEDGE
 70
     3
  9
$SHADEDIF
 70
    70
  9
$TILEMODE
 70
     1
  9
$MAXACTVP
 70
    48
  9
$PINSBASE
 10
0.0
 20
0.0
 30
0.0
  9
$PLIMCHECK
 70
     0
  9
$PEXTMIN
 10
1.000000000000000E+20
 20
1.000000000000000E+20
 30
1.000000000000000E+20
  9
$PEXTMAX
 10
-1.000000000000000E+20
 20
-1.000000000000000E+20
 30
-1.000000000000000E+20
  9
$PLIMMIN
 10
0.0
 20
0.0
  9
$PLIMMAX
 10
420.0
 20
297.0
  9
$UNITMODE
 70
     0
  9
$VISRETAIN
 70
     1
  9
$PLINEGEN
 70
     0
  9
$PSLTSCALE
 70
     1
  9
$TREEDEPTH
 70
  3020
  9
$CMLSTYLE
  2
STANDARD
  9
$CMLJUST
 70
     0
  9
$CMLSCALE
 40
20.0
  9
$PROXYGRAPHICS
 70
     1
  9
$MEASUREMENT
 70
     0
  9
$CELWEIGHT
370
    -1
  9
$ENDCAPS
280
     0
  9
$JOINSTYLE
280
     0
  9
$LWDISPLAY
290
     0
  9
$INSUNITS
 70
     0
  9
$HYPERLINKBASE
  1

  9
$STYLESHEET
  1

  9
$XEDIT
290
     1
  9
$CEPSNTYPE
380
     0
  9
$PSTYLEMODE
290
     1
  9
$FINGERPRINTGUID
  2
{5D697691-7A99-4D8D-87A4-2ECE4AC1E1FD}
  9
$VERSIONGUID
  2
{0EB1CBD2-14BC-4E0D-AB30-C59474B86651}
  9
$EXTNAMES
290
     1
  9
$PSVPSCALE
 40
0.0
  9
$OLESTARTUP
290
     0
  0
ENDSEC
  0
SECTION
  2
CLASSES
  0
CLASS
  1
ACDBDICTIONARYWDFLT
  2
AcDbDictionaryWithDefault
  3
ObjectDBX Classes
 90
        0
280
     0
281
     0
  0
CLASS
  1
ACDBPLACEHOLDER
  2
AcDbPlaceHolder
  3
ObjectDBX Classes
 90
        0
280
     0
281
     0
  0
CLASS
  1
LAYOUT
  2
AcDbLayout
  3
ObjectDBX Classes
 90
        0
280
     0
281
     0
  0
CLASS
  1
DICTIONARYVAR
  2
AcDbDictionaryVar
  3
ObjectDBX Classes
 90
        0
280
     0
281
     0
  0
CLASS
  1
MATERIAL
  2
AcDbMaterial
  3
ObjectDBX Classes
 90
     1153
280
     0
281
     0
  0
CLASS
  1
VISUALSTYLE
  2
AcDbVisualStyle
  3
ObjectDBX Classes
 90
     4095
280
     0
281
     0
  0
CLASS
  1
TABLESTYLE
  2
AcDbTableStyle
  3
ObjectDBX Classes
 90
     4095
280
     0
281
     0
  0
CLASS
  1
SCALE
  2
AcDbScale
  3
ObjectDBX Classes
 90
     1153
280
     0
281
     0
  0
CLASS
  1
MLEADERSTYLE
  2
AcDbMLeaderStyle
  3
ACDB_MLEADERSTYLE_CLASS
 90
     4095
280
     0
281
     0
  0
CLASS
  1
ACDBSECTIONVIEWSTYLE
  2
AcDbSectionViewStyle
  3
ObjectDBX Classes
 90
     1025
280
     0
281
     0
  0
CLASS
  1
ACDBDETAILVIEWSTYLE
  2
AcDbDetailViewStyle
  3
ObjectDBX Classes
 90
     1025
280
     0
281
     0
  0
CLASS
  1
CELLSTYLEMAP
  2
AcDbCellStyleMap
  3
ObjectDBX Classes
 90
     1152
280
     0
281
     0
  0
ENDSEC
  0
SECTION
  2
TABLES
  0
TABLE
  2
VPORT
  5
8
330
0
100
AcDbSymbolTable
 70
     1
  0
VPORT
  5
1394
330
8
100
AcDbSymbolTableRecord
100
AcDbViewportTableRecord
  2
*ACTIVE
 70
     0
 10
0.0
 20
0.0
 11
1.0
 21
1.0
 12
363.2144548367423
 22
170.5338770203425
 13
0.0
 23
0.0
 14
10.0
 24
10.0
 15
10.0
 25
10.0
 16
0.0
 26
0.0
 36
1.0
 17
0.0
 27
0.0
 37
0.0
 40
323.6284122732466
 41
2.35006605019815
 42
50.0
 43
0.0
 44
0.0
 50
0.0
 51
0.0
 71
     0
 72
   100
 73
     1
 74
     0
 75
     0
 76
     0
 77
     0
 78
     0
281
     0
 65
     1
110
0.0
120
0.0
130
0.0
111
1.0
121
0.0
131
0.0
112
0.0
122
1.0
132
0.0
 79
     0
146
0.0
1001
ACAD_NAV_VCDISPLAY
1070
     3
  0
ENDTAB
  0
TABLE
  2
LTYPE
  5
5
330
0
100
AcDbSymbolTable
 70
     4
  0
LTYPE
  5
12
330
5
100
AcDbSymbolTableRecord
100
AcDbLinetypeTableRecord
  2
BYBLOCK
 70
     0
  3

 72
    65
 73
     0
 40
0.0
  0
LTYPE
  5
13
330
5
100
AcDbSymbolTableRecord
100
AcDbLinetypeTableRecord
  2
BYLAYER
 70
     0
  3

 72
    65
 73
     0
 40
0.0
  0
LTYPE
  5
14
330
5
100
AcDbSymbolTableRecord
100
AcDbLinetypeTableRecord
  2
CONTINUOUS
 70
     0
  3
Solid line
 72
    65
 73
     0
 40
0.0
  0
LTYPE
  5
62
330
5
100
AcDbSymbolTableRecord
100
AcDbLinetypeTableRecord
  2
DASHED
 70
     0
  3
Dashed __ __ __ __ __ __ __ __ __ __ __ __ __ _
 72
    65
 73
     2
 40
19.04999999999998
 49
12.7
 74
     0
 49
-6.349999999999997
 74
     0
  0
LTYPE
  5
63
330
5
100
AcDbSymbolTableRecord
100
AcDbLinetypeTableRecord
  2
CENTER
 70
     0
  3
Center ____ _ ____ _ ____ _ ____ _ ____ _ ____
 72
    65
 73
     4
 40
50.8
 49
31.75
 74
     0
 49
-6.349999999999997
 74
     0
 49
6.349999999999997
 74
     0
 49
-6.349999999999997
 74
     0
  0
LTYPE
  5
64
330
5
100
AcDbSymbolTableRecord
100
AcDbLinetypeTableRecord
  2
PHANTOM
 70
     0
  3
Phantom ______  __  __  ______  __  __  ______
 72
    65
 73
     6
 40
63.5
 49
31.75
 74
     0
 49
-6.349999999999997
 74
     0
 49
6.349999999999997
 74
     0
 49
-6.349999999999997
 74
     0
 49
6.349999999999997
 74
     0
 49
-6.349999999999997
 74
     0
  0
ENDTAB
  0
TABLE
  2
LAYER
  5
2
330
0
100
AcDbSymbolTable
 70
     8
  0
LAYER
  5
E
102
{ACAD_XDICTIONARY
360
13EC
102
}
330
2
100
AcDbSymbolTableRecord
100
AcDbLayerTableRecord
  2
0
 70
     0
 62
     7
  6
CONTINUOUS
370
    -3
390
139B
  0
LAYER
  5
65
102
{ACAD_XDICTIONARY
360
13EE
102
}
330
2
100
AcDbSymbolTableRecord
100
AcDbLayerTableRecord
  2
4
 70
     0
 62
     1
  6
CENTER
370
    -3
390
139B
  0
LAYER
  5
66
102
{ACAD_XDICTIONARY
360
13F0
102
}
330
2
100
AcDbSymbolTableRecord
100
AcDbLayerTableRecord
  2
5
 70
     0
 62
     6
  6
PHANTOM
370
    -3
390
139B
  0
LAYER
  5
67
102
{ACAD_XDICTIONARY
360
13F2
102
}
330
2
100
AcDbSymbolTableRecord
100
AcDbLayerTableRecord
  2
1
 70
     0
 62
     7
  6
CONTINUOUS
370
    -3
390
139B
  0
LAYER
  5
68
102
{ACAD_XDICTIONARY
360
13F4
102
}
330
2
100
AcDbSymbolTableRecord
100
AcDbLayerTableRecord
  2
2
 70
     0
 62
     4
  6
CONTINUOUS
370
    -3
390
139B
  0
LAYER
  5
69
102
{ACAD_XDICTIONARY
360
13F6
102
}
330
2
100
AcDbSymbolTableRecord
100
AcDbLayerTableRecord
  2
3
 70
     0
 62
     2
  6
DASHED
370
    -3
390
139B
  0
LAYER
  5
6A
102
{ACAD_XDICTIONARY
360
13F8
102
}
330
2
100
AcDbSymbolTableRecord
100
AcDbLayerTableRecord
  2
6
 70
     0
 62
     5
  6
CONTINUOUS
370
    -3
390
139B
  0
LAYER
  5
6B
102
{ACAD_XDICTIONARY
360
13FA
102
}
330
2
100
AcDbSymbolTableRecord
100
AcDbLayerTableRecord
  2
7
 70
     0
 62
     3
  6
CONTINUOUS
370
    -3
390
139B
  0
ENDTAB
  0
TABLE
  2
STYLE
  5
3
330
0
100
AcDbSymbolTable
 70
     1
  0
STYLE
  5
F
330
3
100
AcDbSymbolTableRecord
100
AcDbTextStyleTableRecord
  2
STANDARD
 70
     0
 40
0.0
 41
1.0
 50
0.0
 71
     0
 42
2.5
  3
simplex.shx
  4

  0
ENDTAB
  0
TABLE
  2
VIEW
  5
6
330
0
100
AcDbSymbolTable
 70
     0
  0
ENDTAB
  0
TABLE
  2
UCS
  5
7
330
0
100
AcDbSymbolTable
 70
     0
  0
ENDTAB
  0
TABLE
  2
APPID
  5
9
330
0
100
AcDbSymbolTable
 70
     5
  0
APPID
  5
10
330
9
100
AcDbSymbolTableRecord
100
AcDbRegAppTableRecord
  2
ACAD
 70
     0
  0
APPID
  5
3E
330
9
100
AcDbSymbolTableRecord
100
AcDbRegAppTableRecord
  2
CONTENTTABDATA
 70
     0
  0
APPID
  5
3F
330
9
100
AcDbSymbolTableRecord
100
AcDbRegAppTableRecord
  2
CONTENTCURRENTTAB
 70
     0
  0
APPID
  5
1406
330
9
100
AcDbSymbolTableRecord
100
AcDbRegAppTableRecord
  2
ACAD_NAV_VCDISPLAY
 70
     0
  0
APPID
  5
143F
330
9
100
AcDbSymbolTableRecord
100
AcDbRegAppTableRecord
  2
ACAD_MLEADERVER
 70
     0
  0
ENDTAB
  0
TABLE
  2
DIMSTYLE
  5
A
330
0
100
AcDbSymbolTable
 70
     1
100
AcDbDimStyleTable
 71
     0
  0
DIMSTYLE
105
1D
330
A
100
AcDbSymbolTableRecord
100
AcDbDimStyleTableRecord
  2
STANDARD
 70
     0
 41
3.0
 42
1.0
 43
10.0
 44
1.0
 73
     0
 74
     0
 77
     3
 78
     8
140
3.2
141
0.0
147
1.0
172
     1
173
     1
340
F
341
2E
343
2E
344
2E
  0
ENDTAB
  0
TABLE
  2
BLOCK_RECORD
  5
1
330
0
100
AcDbSymbolTable
 70
     1
  0
BLOCK_RECORD
  5
18
102
{ACAD_XDICTIONARY
360
137E
102
}
330
1
100
AcDbSymbolTableRecord
100
AcDbBlockTableRecord
  2
*MODEL_SPACE
340
13E9
  0
BLOCK_RECORD
  5
15
102
{ACAD_XDICTIONARY
360
137C
102
}
330
1
100
AcDbSymbolTableRecord
100
AcDbBlockTableRecord
  2
*PAPER_SPACE
340
13EA
  0
BLOCK_RECORD
  5
2E
330
1
100
AcDbSymbolTableRecord
100
AcDbBlockTableRecord
  2
_OPEN
340
0
  0
ENDTAB
  0
ENDSEC
  0
SECTION
  2
BLOCKS
  0
BLOCK
  5
19
330
18
100
AcDbEntity
  8
0
100
AcDbBlockBegin
  2
*MODEL_SPACE
 70
     0
 10
0.0
 20
0.0
 30
0.0
  3
*MODEL_SPACE
  1

  0
ENDBLK
  5
1A
330
18
100
AcDbEntity
  8
0
100
AcDbBlockEnd
  0
BLOCK
  5
16
330
15
100
AcDbEntity
 67
     1
  8
0
100
AcDbBlockBegin
  2
*PAPER_SPACE
 70
     0
 10
0.0
 20
0.0
 30
0.0
  3
*PAPER_SPACE
  1

  0
ENDBLK
  5
17
330
15
100
AcDbEntity
 67
     1
  8
0
100
AcDbBlockEnd
  0
BLOCK
  5
2F
330
2E
100
AcDbEntity
  8
0
100
AcDbBlockBegin
  2
_OPEN
 70
     0
 10
0.0
 20
0.0
 30
0.0
  3
_OPEN
  1

  0
LINE
  5
30
330
2E
100
AcDbEntity
  8
0
  6
ByBlock
 62
     0
100
AcDbLine
 10
-1.0
 20
0.1666666666666666
 30
0.0
 11
0.0
 21
0.0
 31
0.0
  0
LINE
  5
31
330
2E
100
AcDbEntity
  8
0
  6
ByBlock
 62
     0
100
AcDbLine
 10
0.0
 20
0.0
 30
0.0
 11
-1.0
 21
-0.1666666666666666
 31
0.0
  0
LINE
  5
32
330
2E
100
AcDbEntity
  8
0
  6
ByBlock
 62
     0
100
AcDbLine
 10
0.0
 20
0.0
 30
0.0
 11
-1.0
 21
0.0
 31
0.0
  0
ENDBLK
  5
33
330
2E
100
AcDbEntity
  8
0
100
AcDbBlockEnd
  0
ENDSEC
  0
SECTION
  2
ENTITIES
  0
CIRCLE
  5
155
330
18
100
AcDbEntity
  8
1
  6
Continuous
100
AcDbCircle
 10
143.837150842414
 20
316.0029813337962
 30
0.0
 40
4.400000099999997
  0
ARC
  5
156
330
18
100
AcDbEntity
  8
1
  6
Continuous
100
AcDbCircle
 10
140.8371508424139
 20
321.0029813337963
 30
0.0
 40
4.5
100
AcDbArc
 50
89.99998199999998
 51
179.99996
  0
LINE
  5
157
330
18
100
AcDbEntity
  8
4
  6
CENTER
 48
0.2
100
AcDbLine
 10
137.8371508424139
 20
316.0029813337962
 30
0.0
 11
149.8371508424139
 21
316.0029813337962
 31
0.0
  0
LINE
  5
158
330
18
100
AcDbEntity
  8
4
  6
CENTER
 48
0.2
100
AcDbLine
 10
137.8371508424139
 20
288.0029813337963
 30
0.0
 11
149.8371508424139
 21
288.0029813337963
 31
0.0
  0
ARC
  5
159
330
18
100
AcDbEntity
  8
1
  6
Continuous
100
AcDbCircle
 10
140.8371508424139
 20
283.0029813337961
 30
0.0
 40
4.5
100
AcDbArc
 50
179.9999799999999
 51
269.9999700000002
  0
CIRCLE
  5
15A
330
18
100
AcDbEntity
  8
1
  6
Continuous
100
AcDbCircle
 10
143.837150842414
 20
288.0029813337963
 30
0.0
 40
4.400000099999997
  0
LINE
  5
15B
330
18
100
AcDbEntity
  8
4
  6
CENTER
 48
0.5
100
AcDbLine
 10
131.2247876892055
 20
302.0029813337963
 30
0.0
 11
211.6309919988878
 21
302.0029813337963
 31
0.0
  0
LINE
  5
15C
330
18
100
AcDbEntity
  8
1
  6
Continuous
100
AcDbLine
 10
136.3371508424139
 20
223.6900436402995
 30
0.0
 11
145.7330398424139
 21
223.6900436402995
 31
0.0
  0
LINE
  5
15F
330
18
100
AcDbEntity
  8
4
  6
CENTER
 48
0.5
100
AcDbLine
 10
128.8371508424139
 20
170.1900436402994
 30
0.0
 11
213.837150842414
 21
170.1900436402994
 31
0.0
  0
LINE
  5
160
330
18
100
AcDbEntity
  8
1
  6
Continuous
100
AcDbLine
 10
136.3371508424139
 20
225.6900436402995
 30
0.0
 11
136.3371508424139
 21
223.6900436402995
 31
0.0
  0
LINE
  5
161
330
18
100
AcDbEntity
  8
1
  6
Continuous
100
AcDbLine
 10
67.12861508440311
 20
225.6900436402995
 30
0.0
 11
67.12861508440311
 21
223.3900446402996
 31
0.0
  0
LINE
  5
162
330
18
100
AcDbEntity
  8
4
  6
CENTER
 48
0.2
100
AcDbLine
 10
57.62861508440312
 20
229.7750426402996
 30
0.0
 11
57.62861508440312
 21
218.8550446402996
 31
0.0
  0
LINE
  5
163
330
18
100
AcDbEntity
  8
4
  6
CENTER
 48
0.2
100
AcDbLine
 10
29.62861508440322
 20
229.7750426402996
 30
0.0
 11
29.62861508440322
 21
218.8550446402996
 31
0.0
  0
LINE
  5
164
330
18
100
AcDbEntity
  8
4
  6
CENTER
 48
0.5
100
AcDbLine
 10
43.62861508440309
 20
233.9116642792834
 30
0.0
 11
43.62861508440309
 21
129.5234936402996
 31
0.0
  0
LINE
  5
165
330
18
100
AcDbEntity
  8
1
  6
Continuous
100
AcDbLine
 10
20.12861508440323
 20
225.6900436402995
 30
0.0
 11
20.12861508440323
 21
223.3900446402996
 31
0.0
  0
LINE
  5
16A
330
18
100
AcDbEntity
  8
4
  6
CENTER
 48
0.5
100
AcDbLine
 10
12.41481508440324
 20
170.1900436402994
 30
0.0
 11
73.6441870844032
 21
170.1900436402994
 31
0.0
  0
TEXT
  5
16C
330
18
100
AcDbEntity
  8
1
  6
Continuous
 48
0.25
100
AcDbText
 10
9.99999906424682
 20
10.00000056761564
 30
0.0
 40
1.399999999999999
  1
LAYER
100
AcDbText
  0
TEXT
  5
16D
330
18
100
AcDbEntity
  8
7
  6
Continuous
 48
0.25
100
AcDbText
 10
9.99999906424682
 20
18.00000056761564
 30
0.0
 40
3.0
  1
TYPE No.TCA-320SR-UB75
100
AcDbText
  0
TEXT
  5
16E
330
18
100
AcDbEntity
  8
7
  6
Continuous
 48
0.25
100
AcDbText
 10
9.99999906424682
 20
26.00000056761564
 30
0.0
 40
3.0
  1
CODE No.19182
100
AcDbText
  0
TEXT
  5
16F
330
18
100
AcDbEntity
  8
2
  6
Continuous
 48
0.25
100
AcDbText
 10
19.97951006424682
 20
9.999999806846743
 30
0.0
 40
1.399999999999999
  1
2
100
AcDbText
  0
TEXT
  5
170
330
18
100
AcDbEntity
  8
1
  6
Continuous
 48
0.25
100
AcDbText
 10
17.97951006424682
 20
9.999999806846743
 30
0.0
 40
1.399999999999999
  1
1
100
AcDbText
  0
TEXT
  5
171
330
18
100
AcDbEntity
  8
3
  6
DASHED
 48
0.25
100
AcDbText
 10
21.97951006424682
 20
9.999999806846743
 30
0.0
 40
1.399999999999999
  1
3
100
AcDbText
  0
TEXT
  5
172
330
18
100
AcDbEntity
  8
5
  6
PHANTOM
 48
0.25
100
AcDbText
 10
25.97951006424682
 20
9.999999806846743
 30
0.0
 40
1.399999999999999
  1
5
100
AcDbText
  0
TEXT
  5
173
330
18
100
AcDbEntity
  8
4
  6
CENTER
 48
0.25
100
AcDbText
 10
23.97951006424682
 20
9.999999806846743
 30
0.0
 40
1.399999999999999
  1
4
100
AcDbText
  0
TEXT
  5
174
330
18
100
AcDbEntity
  8
7
  6
Continuous
 48
0.25
100
AcDbText
 10
29.97951006424682
 20
9.999999806846743
 30
0.0
 40
1.399999999999999
  1
7
100
AcDbText
  0
TEXT
  5
175
330
18
100
AcDbEntity
  8
6
  6
Continuous
 48
0.25
100
AcDbText
 10
27.97951006424682
 20
9.999999806846743
 30
0.0
 40
1.399999999999999
  1
6
100
AcDbText
  0
ARC
  5
177
330
18
100
AcDbEntity
  8
1
  6
Continuous
100
AcDbCircle
 10
10.66468508440322
 20
179.7653116402996
 30
0.0
 40
15.0
100
AcDbArc
 50
359.7478299999997
 51
24.19209300000001
  0
ARC
  5
178
330
18
100
AcDbEntity
  8
1
  6
Continuous
100
AcDbCircle
 10
10.36469508440325
 20
179.7653116402996
 30
0.0
 40
17.299999
100
AcDbArc
 50
359.7478399999998
 51
26.49364799999998
  0
LINE
  5
183
330
18
100
AcDbEntity
  8
1
  6
Continuous
100
AcDbLine
 10
18.62862808440319
 20
166.8150436402996
 30
0.0
 11
18.62862808440319
 21
173.5650436402995
 31
0.0
  0
LINE
  5
184
330
18
100
AcDbEntity
  8
1
  6
Continuous
100
AcDbLine
 10
19.2536280844033
 20
166.1900436402994
 30
0.0
 11
19.2536280844033
 21
174.1900436402995
 31
0.0
  0
LINE
  5
189
330
18
100
AcDbEntity
  8
2
  6
Continuous
100
AcDbLine
 10
18.62862808440319
 20
166.8150436402996
 30
0.0
 11
20.6286280844033
 21
166.8150436402996
 31
0.0
  0
LINE
  5
18A
330
18
100
AcDbEntity
  8
1
  6
Continuous
100
AcDbLine
 10
19.2536280844033
 20
166.1900436402994
 30
0.0
 11
20.6286280844033
 21
166.1900436402994
 31
0.0
  0
LINE
  5
18B
330
18
100
AcDbEntity
  8
1
  6
Continuous
100
AcDbLine
 10
19.2536280844033
 20
166.1900396402995
 30
0.0
 11
18.62862808440319
 21
166.8150396402995
 31
0.0
  0
LINE
  5
18E
330
18
100
AcDbEntity
  8
2
  6
Continuous
100
AcDbLine
 10
18.62862808440319
 20
173.5650436402995
 30
0.0
 11
20.6286280844033
 21
173.5650436402995
 31
0.0
  0
LINE
  5
18F
330
18
100
AcDbEntity
  8
1
  6
Continuous
100
AcDbLine
 10
19.2536280844033
 20
174.1900436402995
 30
0.0
 11
20.6286280844033
 21
174.1900436402995
 31
0.0
  0
LINE
  5
190
330
18
100
AcDbEntity
  8
1
  6
Continuous
100
AcDbLine
 10
18.62862808440319
 20
173.5650436402995
 30
0.0
 11
19.2536280844033
 21
174.1900456402996
 31
0.0
  0
LINE
  5
194
330
18
100
AcDbEntity
  8
1
  6
Continuous
100
AcDbLine
 10
25.62861508440311
 20
161.1900436402994
 30
0.0
 11
27.62861508440312
 21
161.1900436402994
 31
0.0
  0
LINE
  5
19A
330
18
100
AcDbEntity
  8
1
  6
Continuous
100
AcDbLine
 10
25.26664608440319
 20
192.6502606402996
 30
0.0
 11
25.52966908440316
 21
223.6900416402995
 31
0.0
  0
LINE
  5
19B
330
18
100
AcDbEntity
  8
1
  6
Continuous
100
AcDbLine
 10
21.04221508440321
 20
212.6982628402996
 30
0.0
 11
21.19949508440321
 21
194.8800756402994
 31
0.0
  0
LINE
  5
19C
330
18
100
AcDbEntity
  8
1
  6
Continuous
100
AcDbLine
 10
24.32767408440315
 20
191.8808076402996
 30
0.0
 11
22.18839508440316
 21
220.4890746402996
 31
0.0
  0
LINE
  5
19D
330
18
100
AcDbEntity
  8
1
  6
Continuous
100
AcDbLine
 10
20.12853508440321
 20
223.3900446402996
 30
0.0
 11
22.83187508440323
 21
191.7559996402996
 31
0.0
  0
ARC
  5
19E
330
18
100
AcDbEntity
  8
1
  6
Continuous
100
AcDbCircle
 10
31.19918708440319
 20
194.9683446402996
 30
0.0
 40
10.0
100
AcDbArc
 50
180.5057299999998
 51
218.18057
  0
ARC
  5
19F
330
18
100
AcDbEntity
  8
1
  6
Continuous
100
AcDbCircle
 10
33.26603608440324
 20
192.5446116402994
 30
0.0
 40
8.0
100
AcDbArc
 50
179.2433799999995
 51
215.0516299999996
  0
ARC
  5
1A1
330
18
100
AcDbEntity
  8
1
  6
Continuous
100
AcDbCircle
 10
15.38206508440316
 20
183.6988286402996
 30
0.0
 40
12.3
100
AcDbArc
 50
359.7089399999999
 51
17.39698400000011
  0
ARC
  5
1A2
330
18
100
AcDbEntity
  8
1
  6
Continuous
100
AcDbCircle
 10
40.7665090844032
 20
193.2886346402996
 30
0.0
 40
18.0
100
AcDbArc
 50
184.8844399999999
 51
204.1921299999999
  0
ARC
  5
1A4
330
18
100
AcDbEntity
  8
1
  6
Continuous
100
AcDbCircle
 10
41.95760208440321
 20
195.5126066402995
 30
0.0
 40
18.0
100
AcDbArc
 50
191.64025
 51
206.4936799999999
  0
LINE
  5
1A5
330
18
100
AcDbEntity
  8
1
  6
Continuous
100
AcDbLine
 10
27.11930008440321
 20
187.3763836402996
 30
0.0
 11
26.7168410844032
 21
187.9500496402996
 31
0.0
  0
ARC
  5
1A6
330
18
100
AcDbEntity
  8
1
  6
Continuous
100
AcDbCircle
 10
18.20364508440319
 20
220.1414776402995
 30
0.0
 40
4.0
100
AcDbArc
 50
4.985314099999851
 51
61.61166000000011
  0
ARC
  5
1A8
330
18
100
AcDbEntity
  8
1
  6
Continuous
100
AcDbCircle
 10
28.12861508440322
 20
225.9400436402995
 30
0.0
 40
3.75
100
AcDbArc
 50
225.9939600000002
 51
269.9999599999999
  0
ARC
  5
1AC
330
18
100
AcDbEntity
  8
1
  6
Continuous
100
AcDbCircle
 10
76.5925360844032
 20
179.7653116402996
 30
0.0
 40
15.0
100
AcDbArc
 50
155.8078699999998
 51
180.2520899999999
  0
ARC
  5
1AD
330
18
100
AcDbEntity
  8
1
  6
Continuous
100
AcDbCircle
 10
76.89253908440315
 20
179.7653116402996
 30
0.0
 40
17.299999
100
AcDbArc
 50
153.5063200000001
 51
180.2521099999998
  0
LINE
  5
1B5
330
18
100
AcDbEntity
  8
1
  6
Continuous
100
AcDbLine
 10
65.62861508440311
 20
176.1900436402996
 30
0.0
 11
65.62861508440311
 21
164.1900436402995
 31
0.0
  0
LINE
  5
1B6
330
18
100
AcDbEntity
  8
1
  6
Continuous
100
AcDbLine
 10
59.62861508440312
 20
161.1900436402996
 30
0.0
 11
61.6286150844031
 21
161.1900436402994
 31
0.0
  0
ARC
  5
1B8
330
18
100
AcDbEntity
  8
1
  6
Continuous
100
AcDbCircle
 10
64.12861508440311
 20
165.1900436402994
 30
0.0
 40
1.5
100
AcDbArc
 50
0.0
 51
89.99998199999998
  0
ARC
  5
1B9
330
18
100
AcDbEntity
  8
1
  6
Continuous
100
AcDbCircle
 10
64.12861508440311
 20
164.1900436402995
 30
0.0
 40
1.5
100
AcDbArc
 50
269.9999599999999
 51
0.0
  0
ARC
  5
1BA
330
18
100
AcDbEntity
  8
1
  6
Continuous
100
AcDbCircle
 10
63.1286150844031
 20
164.1900436402995
 30
0.0
 40
1.5
100
AcDbArc
 50
180.0
 51
269.9999399999995
  0
LINE
  5
1BB
330
18
100
AcDbEntity
  8
1
  6
Continuous
100
AcDbLine
 10
64.12861508440311
 20
162.6900436402995
 30
0.0
 11
63.1286150844031
 21
162.6900436402995
 31
0.0
  0
ARC
  5
1BC
330
18
100
AcDbEntity
  8
1
  6
Continuous
100
AcDbCircle
 10
64.12861508440311
 20
168.6900436402996
 30
0.0
 40
1.5
100
AcDbArc
 50
269.9999599999999
 51
0.0
  0
LINE
  5
1BD
330
18
100
AcDbEntity
  8
1
  6
Continuous
100
AcDbLine
 10
64.12861508440311
 20
167.1900436402995
 30
0.0
 11
63.1286150844031
 21
167.1900436402995
 31
0.0
  0
LINE
  5
1BE
330
18
100
AcDbEntity
  8
1
  6
Continuous
100
AcDbLine
 10
64.12861508440311
 20
166.6900436402996
 30
0.0
 11
63.1286150844031
 21
166.6900436402996
 31
0.0
  0
ARC
  5
1BF
330
18
100
AcDbEntity
  8
1
  6
Continuous
100
AcDbCircle
 10
63.1286150844031
 20
165.1900436402994
 30
0.0
 40
1.5
100
AcDbArc
 50
89.99998199999998
 51
180.0
  0
ARC
  5
1C0
330
18
100
AcDbEntity
  8
1
  6
Continuous
100
AcDbCircle
 10
63.1286150844031
 20
168.6900436402996
 30
0.0
 40
1.5
100
AcDbArc
 50
180.0
 51
269.9999399999995
  0
ARC
  5
1C2
330
18
100
AcDbEntity
  8
1
  6
Continuous
100
AcDbCircle
 10
64.12861508440311
 20
175.1900436402995
 30
0.0
 40
1.5
100
AcDbArc
 50
269.9999599999999
 51
0.0
  0
ARC
  5
1C3
330
18
100
AcDbEntity
  8
1
  6
Continuous
100
AcDbCircle
 10
64.12861508440311
 20
171.6900436402996
 30
0.0
 40
1.5
100
AcDbArc
 50
0.0
 51
89.99998199999998
  0
ARC
  5
1C4
330
18
100
AcDbEntity
  8
1
  6
Continuous
100
AcDbCircle
 10
63.1286150844031
 20
175.1900436402995
 30
0.0
 40
1.5
100
AcDbArc
 50
179.9999899999995
 51
269.9999499999996
  0
ARC
  5
1C5
330
18
100
AcDbEntity
  8
1
  6
Continuous
100
AcDbCircle
 10
63.1286150844031
 20
171.6900436402996
 30
0.0
 40
1.5
100
AcDbArc
 50
89.99998199999998
 51
180.0
  0
LINE
  5
1C6
330
18
100
AcDbEntity
  8
1
  6
Continuous
100
AcDbLine
 10
64.12861508440311
 20
173.6900436402994
 30
0.0
 11
63.1286150844031
 21
173.6900436402994
 31
0.0
  0
LINE
  5
1C7
330
18
100
AcDbEntity
  8
1
  6
Continuous
100
AcDbLine
 10
64.12861508440311
 20
173.1900436402995
 30
0.0
 11
63.1286150844031
 21
173.1900436402995
 31
0.0
  0
ARC
  5
1C8
330
18
100
AcDbEntity
  8
1
  6
Continuous
100
AcDbCircle
 10
64.12861508440311
 20
176.1900436402996
 30
0.0
 40
1.5
100
AcDbArc
 50
0.0
 51
89.99998199999998
  0
ARC
  5
1C9
330
18
100
AcDbEntity
  8
1
  6
Continuous
100
AcDbCircle
 10
63.1286150844031
 20
176.1900436402996
 30
0.0
 40
1.5
100
AcDbArc
 50
89.99998199999998
 51
180.0000100000002
  0
LINE
  5
1CA
330
18
100
AcDbEntity
  8
1
  6
Continuous
100
AcDbLine
 10
64.12861508440311
 20
177.6900436402994
 30
0.0
 11
63.1286150844031
 21
177.6900436402994
 31
0.0
  0
LINE
  5
1CB
330
18
100
AcDbEntity
  8
1
  6
Continuous
100
AcDbLine
 10
66.21496408440314
 20
212.6979829402996
 30
0.0
 11
66.05768508440315
 21
194.8800876402995
 31
0.0
  0
LINE
  5
1CC
330
18
100
AcDbEntity
  8
1
  6
Continuous
100
AcDbLine
 10
61.99055708440312
 20
192.6502746402996
 30
0.0
 11
61.72753408440326
 21
223.6900436402995
 31
0.0
  0
LINE
  5
1CD
330
18
100
AcDbEntity
  8
1
  6
Continuous
100
AcDbLine
 10
62.9295110844032
 20
191.8808276402996
 30
0.0
 11
65.06879308440307
 21
220.4890776402995
 31
0.0
  0
LINE
  5
1CE
330
18
100
AcDbEntity
  8
1
  6
Continuous
100
AcDbLine
 10
67.12865708440313
 20
223.3900426402996
 30
0.0
 11
64.42536008440311
 21
191.7560236402996
 31
0.0
  0
ARC
  5
1CF
330
18
100
AcDbEntity
  8
1
  6
Continuous
100
AcDbCircle
 10
56.05804308440315
 20
194.9683446402996
 30
0.0
 40
10.0
100
AcDbArc
 50
321.8194199999998
 51
359.4942499999998
  0
ARC
  5
1D0
330
18
100
AcDbEntity
  8
1
  6
Continuous
100
AcDbCircle
 10
53.9911940844031
 20
192.5446116402994
 30
0.0
 40
8.0
100
AcDbArc
 50
324.9483300000001
 51
0.7565823500000444
  0
ARC
  5
1D1
330
18
100
AcDbEntity
  8
1
  6
Continuous
100
AcDbCircle
 10
71.87516708440324
 20
183.6988286402996
 30
0.0
 40
12.3
100
AcDbArc
 50
162.60298
 51
180.2910299999998
  0
LINE
  5
1D4
330
18
100
AcDbEntity
  8
1
  6
Continuous
100
AcDbLine
 10
60.13788108440325
 20
187.3763876402996
 30
0.0
 11
60.54033908440306
 21
187.9500536402996
 31
0.0
  0
ARC
  5
1D5
330
18
100
AcDbEntity
  8
1
  6
Continuous
100
AcDbCircle
 10
46.49072108440328
 20
193.2886346402996
 30
0.0
 40
18.0
100
AcDbArc
 50
335.8078499999998
 51
355.1156399999999
  0
ARC
  5
1D6
330
18
100
AcDbEntity
  8
1
  6
Continuous
100
AcDbCircle
 10
45.29962808440323
 20
195.5126066402995
 30
0.0
 40
18.0
100
AcDbArc
 50
333.5062999999999
 51
348.3597299999996
  0
LINE
  5
1D8
330
18
100
AcDbEntity
  8
1
  6
Continuous
100
AcDbLine
 10
67.12861508440311
 20
223.6900436402995
 30
0.0
 11
20.12861508440323
 21
223.6900436402995
 31
0.0
  0
LINE
  5
1D9
330
18
100
AcDbEntity
  8
1
  6
Continuous
100
AcDbLine
 10
59.1286150844031
 20
222.1900436402996
 30
0.0
 11
28.12861508440322
 21
222.1900436402996
 31
0.0
  0
ARC
  5
1DB
330
18
100
AcDbEntity
  8
1
  6
Continuous
100
AcDbCircle
 10
59.1286150844031
 20
225.9400436402995
 30
0.0
 40
3.75
100
AcDbArc
 50
270.0000200000004
 51
314.0060200000003
  0
ARC
  5
1DC
330
18
100
AcDbEntity
  8
1
  6
Continuous
100
AcDbCircle
 10
69.0535880844032
 20
220.1414776402995
 30
0.0
 40
4.0
100
AcDbArc
 50
118.7666199999999
 51
175.01465
  0
LINE
  5
1DF
330
18
100
AcDbEntity
  8
1
  6
Continuous
100
AcDbLine
 10
136.3371508424139
 20
283.0029813337961
 30
0.0
 11
136.3371508424139
 21
321.0029813337963
 31
0.0
  0
LINE
  5
1E0
330
18
100
AcDbEntity
  8
1
  6
Continuous
100
AcDbLine
 10
67.12861508440311
 20
225.6900436402995
 30
0.0
 11
20.12861508440323
 21
225.6900436402995
 31
0.0
  0
LINE
  5
1E5
330
18
100
AcDbEntity
  8
1
  6
Continuous
100
AcDbLine
 10
206.3371508424141
 20
225.6900436402995
 30
0.0
 11
206.3371508424141
 21
223.6900436402995
 31
0.0
  0
LINE
  5
1E6
330
18
100
AcDbEntity
  8
4
  6
CENTER
 48
0.2
100
AcDbLine
 10
198.837150842414
 20
229.7750426402996
 30
0.0
 11
198.837150842414
 21
218.8550446402996
 31
0.0
  0
ARC
  5
1E7
330
18
100
AcDbEntity
  8
1
  6
Continuous
100
AcDbCircle
 10
198.3371508424139
 20
222.6900436402996
 30
0.0
 40
3.0
100
AcDbArc
 50
89.99998199999998
 51
164.58073
  0
LINE
  5
1E8
330
18
100
AcDbEntity
  8
4
  6
CENTER
 48
0.2
100
AcDbLine
 10
143.837150842414
 20
229.7750426402996
 30
0.0
 11
143.837150842414
 21
218.8550446402996
 31
0.0
  0
ARC
  5
1E9
330
18
100
AcDbEntity
  8
1
  6
Continuous
100
AcDbCircle
 10
144.3371508424139
 20
222.6900436402996
 30
0.0
 40
3.0
100
AcDbArc
 50
15.41930399999979
 51
89.99998199999998
  0
LINE
  5
1EA
330
18
100
AcDbEntity
  8
4
  6
CENTER
 48
0.5
100
AcDbLine
 10
171.3371508424138
 20
233.229605093834
 30
0.0
 11
171.3371508424138
 21
128.1900436402995
 31
0.0
  0
LINE
  5
1EB
330
18
100
AcDbEntity
  8
1
  6
Continuous
100
AcDbLine
 10
206.3371508424141
 20
223.6900436402995
 30
0.0
 11
196.9412618424138
 21
223.6900436402995
 31
0.0
  0
LINE
  5
1ED
330
18
100
AcDbEntity
  8
1
  6
Continuous
100
AcDbLine
 10
195.4562988424139
 20
223.5271136402996
 30
0.0
 11
179.0194248424139
 21
166.9578656402996
 31
0.0
  0
LINE
  5
1EE
330
18
100
AcDbEntity
  8
1
  6
Continuous
100
AcDbLine
 10
147.2180068424139
 20
223.5271106402996
 30
0.0
 11
163.6548768424139
 21
166.9578696402997
 31
0.0
  0
ARC
  5
1F0
330
18
100
AcDbEntity
  8
1
  6
Continuous
100
AcDbCircle
 10
171.3371508424138
 20
170.1900436402994
 30
0.0
 40
7.5
100
AcDbArc
 50
81.03948399999987
 51
98.96051400000031
  0
CIRCLE
  5
1F1
330
18
100
AcDbEntity
  8
1
  6
Continuous
100
AcDbCircle
 10
171.3371508424138
 20
170.1900436402994
 30
0.0
 40
2.299999999999998
  0
ARC
  5
1F2
330
18
100
AcDbEntity
  8
1
  6
Continuous
100
AcDbCircle
 10
171.3371508424138
 20
170.1900436402994
 30
0.0
 40
7.5
100
AcDbArc
 50
261.0394499999999
 51
278.9605599999999
  0
ARC
  5
1F3
330
18
100
AcDbEntity
  8
1
  6
Continuous
100
AcDbCircle
 10
171.3371508424138
 20
169.1900436402995
 30
0.0
 40
8.0
100
AcDbArc
 50
196.20186
 51
343.7981500000002
  0
CIRCLE
  5
1F4
330
18
100
AcDbEntity
  8
1
  6
Continuous
100
AcDbCircle
 10
171.3371508424138
 20
170.1900436402994
 30
0.0
 40
6.3000002
  0
LINE
  5
1F5
330
18
100
AcDbEntity
  8
1
  6
Continuous
100
AcDbLine
 10
164.337150842414
 20
172.8826326402996
 30
0.0
 11
164.337150842414
 21
167.4974626402995
 31
0.0
  0
LINE
  5
1F6
330
18
100
AcDbEntity
  8
1
  6
Continuous
100
AcDbLine
 10
165.5053098424139
 20
165.4741206402996
 30
0.0
 11
170.1689918424138
 21
162.7815396402995
 31
0.0
  0
ARC
  5
1F7
330
18
100
AcDbEntity
  8
1
  6
Continuous
100
AcDbCircle
 10
171.3371508424138
 20
170.1900436402994
 30
0.0
 40
7.5
100
AcDbArc
 50
201.0394399999999
 51
218.9605299999999
  0
LINE
  5
1F8
330
18
100
AcDbEntity
  8
1
  6
Continuous
100
AcDbLine
 10
165.5052948424138
 20
174.9059196402996
 30
0.0
 11
170.168998842414
 21
177.5985076402996
 31
0.0
  0
ARC
  5
1F9
330
18
100
AcDbEntity
  8
1
  6
Continuous
100
AcDbCircle
 10
171.3371508424138
 20
170.1900436402994
 30
0.0
 40
7.5
100
AcDbArc
 50
141.03953
 51
158.96056
  0
LINE
  5
1FA
330
18
100
AcDbEntity
  8
1
  6
Continuous
100
AcDbLine
 10
178.3371508424139
 20
172.8826326402996
 30
0.0
 11
178.3371508424139
 21
167.4974626402995
 31
0.0
  0
LINE
  5
1FB
330
18
100
AcDbEntity
  8
1
  6
Continuous
100
AcDbLine
 10
172.505317842414
 20
162.7815846402994
 30
0.0
 11
177.1689988424139
 21
165.4741626402996
 31
0.0
  0
ARC
  5
1FC
330
18
100
AcDbEntity
  8
1
  6
Continuous
100
AcDbCircle
 10
171.3371508424138
 20
170.1900436402994
 30
0.0
 40
7.5
100
AcDbArc
 50
321.0394400000001
 51
338.9605400000001
  0
LINE
  5
1FD
330
18
100
AcDbEntity
  8
1
  6
Continuous
100
AcDbLine
 10
172.505302842414
 20
177.5985046402996
 30
0.0
 11
177.1689918424138
 21
174.9059226402996
 31
0.0
  0
ARC
  5
1FE
330
18
100
AcDbEntity
  8
1
  6
Continuous
100
AcDbCircle
 10
171.3371508424138
 20
170.1900436402994
 30
0.0
 40
7.5
100
AcDbArc
 50
21.03945999999992
 51
38.96051599999968
  0
ARC
  5
1FF
330
18
100
AcDbEntity
  8
1
  6
Continuous
100
AcDbCircle
 10
171.3371508424138
 20
173.6900436402994
 30
0.0
 40
14.0
100
AcDbArc
 50
41.40962399999964
 51
138.5903699999997
  0
ARC
  5
200
330
18
100
AcDbEntity
  8
1
  6
Continuous
100
AcDbCircle
 10
171.3371508424138
 20
177.1900436402995
 30
0.0
 40
15.0
100
AcDbArc
 50
48.18968600000014
 51
89.99998199999998
  0
LINE
  5
201
330
18
100
AcDbEntity
  8
1
  6
Continuous
100
AcDbLine
 10
158.8371508424138
 20
220.1900436402996
 30
0.0
 11
158.8371508424138
 21
189.1900436402995
 31
0.0
  0
ARC
  5
202
330
18
100
AcDbEntity
  8
1
  6
Continuous
100
AcDbCircle
 10
171.3371508424138
 20
177.1900436402995
 30
0.0
 40
15.0
100
AcDbArc
 50
89.99998199999998
 51
131.8103199999997
  0
ARC
  5
203
330
18
100
AcDbEntity
  8
1
  6
Continuous
100
AcDbCircle
 10
145.7330398424139
 20
221.6900436402995
 30
0.0
 40
2.0
100
AcDbArc
 50
30.4389939999999
 51
89.99998199999998
  0
LINE
  5
204
330
18
100
AcDbEntity
  8
1
  6
Continuous
100
AcDbLine
 10
183.8371508424138
 20
220.1900436402996
 30
0.0
 11
183.8371508424138
 21
189.1900436402995
 31
0.0
  0
ARC
  5
205
330
18
100
AcDbEntity
  8
1
  6
Continuous
100
AcDbCircle
 10
196.9412618424138
 20
221.6900436402995
 30
0.0
 40
2.0
100
AcDbArc
 50
89.99998199999998
 51
149.5610799999998
  0
LINE
  5
207
330
18
100
AcDbEntity
  8
1
  6
Continuous
100
AcDbLine
 10
206.3371508424141
 20
283.0029813337961
 30
0.0
 11
206.3371508424141
 21
321.0029813337963
 31
0.0
  0
LINE
  5
208
330
18
100
AcDbEntity
  8
4
  6
CENTER
 48
0.2
100
AcDbLine
 10
198.837150842414
 20
282.0029813337963
 30
0.0
 11
198.837150842414
 21
294.0029813337963
 31
0.0
  0
LINE
  5
209
330
18
100
AcDbEntity
  8
4
  6
CENTER
 48
0.2
100
AcDbLine
 10
143.837150842414
 20
282.0029813337963
 30
0.0
 11
143.837150842414
 21
294.0029813337963
 31
0.0
  0
CIRCLE
  5
20A
330
18
100
AcDbEntity
  8
1
  6
Continuous
100
AcDbCircle
 10
198.837150842414
 20
288.0029813337963
 30
0.0
 40
4.400000099999997
  0
LINE
  5
20B
330
18
100
AcDbEntity
  8
4
  6
CENTER
 48
0.5
100
AcDbLine
 10
171.3371508424138
 20
331.0706513337963
 30
0.0
 11
171.3371508424138
 21
275.35174465406
 31
0.0
  0
CIRCLE
  5
20C
330
18
100
AcDbEntity
  8
1
  6
Continuous
100
AcDbCircle
 10
171.3371508424138
 20
302.0029813337963
 30
0.0
 40
14.0
  0
CIRCLE
  5
20D
330
18
100
AcDbEntity
  8
1
  6
Continuous
100
AcDbCircle
 10
171.3371508424138
 20
302.0029813337963
 30
0.0
 40
16.5
  0
ARC
  5
20E
330
18
100
AcDbEntity
  8
1
  6
Continuous
100
AcDbCircle
 10
201.837150842414
 20
283.0029813337961
 30
0.0
 40
4.5
100
AcDbArc
 50
269.9999599999999
 51
359.9999499999999
  0
LINE
  5
20F
330
18
100
AcDbEntity
  8
4
  6
CENTER
 48
0.2
100
AcDbLine
 10
204.837150842414
 20
288.0029813337963
 30
0.0
 11
192.8371508424138
 21
288.0029813337963
 31
0.0
  0
LINE
  5
210
330
18
100
AcDbEntity
  8
1
  6
Continuous
100
AcDbLine
 10
206.3371508424141
 20
225.6900436402995
 30
0.0
 11
136.3371508424139
 21
225.6900436402995
 31
0.0
  0
ARC
  5
211
330
18
100
AcDbEntity
  8
1
  6
Continuous
100
AcDbCircle
 10
171.3371508424138
 20
307.5553913337963
 30
0.0
 40
28.252407
100
AcDbArc
 50
269.9999599999999
 51
289.0732499999998
  0
LINE
  5
212
330
18
100
AcDbEntity
  8
1
  6
Continuous
100
AcDbLine
 10
146.3371428424139
 20
278.5029963337963
 30
0.0
 11
156.3367198424139
 21
281.0853483337963
 31
0.0
  0
LINE
  5
213
330
18
100
AcDbEntity
  8
1
  6
Continuous
100
AcDbLine
 10
140.8371508424139
 20
278.5029813337962
 30
0.0
 11
146.337146842414
 21
278.5029813337962
 31
0.0
  0
ARC
  5
214
330
18
100
AcDbEntity
  8
1
  6
Continuous
100
AcDbCircle
 10
171.3371508424138
 20
307.5553913337963
 30
0.0
 40
28.252407
100
AcDbArc
 50
250.9266699999996
 51
269.9999599999999
  0
ARC
  5
215
330
18
100
AcDbEntity
  8
1
  6
Continuous
100
AcDbCircle
 10
158.8371508424138
 20
271.4029833337963
 30
0.0
 40
10.0
100
AcDbArc
 50
70.92667900000042
 51
104.4799999999996
  0
LINE
  5
216
330
18
100
AcDbEntity
  8
1
  6
Continuous
100
AcDbLine
 10
196.3371658424138
 20
278.5029963337963
 30
0.0
 11
186.3375938424139
 21
281.0853483337963
 31
0.0
  0
ARC
  5
217
330
18
100
AcDbEntity
  8
1
  6
Continuous
100
AcDbCircle
 10
183.8371508424138
 20
271.4029833337963
 30
0.0
 40
10.0
100
AcDbArc
 50
75.51989899999971
 51
109.0732199999997
  0
LINE
  5
218
330
18
100
AcDbEntity
  8
1
  6
Continuous
100
AcDbLine
 10
201.837150842414
 20
278.5029813337962
 30
0.0
 11
196.3371508424138
 21
278.5029813337962
 31
0.0
  0
ARC
  5
21A
330
18
100
AcDbEntity
  8
1
  6
Continuous
100
AcDbCircle
 10
201.837150842414
 20
321.0029813337963
 30
0.0
 40
4.5
100
AcDbArc
 50
0.0
 51
89.99998199999998
  0
LINE
  5
21B
330
18
100
AcDbEntity
  8
4
  6
CENTER
 48
0.2
100
AcDbLine
 10
204.837150842414
 20
316.0029813337962
 30
0.0
 11
192.8371508424138
 21
316.0029813337962
 31
0.0
  0
CIRCLE
  5
21C
330
18
100
AcDbEntity
  8
1
  6
Continuous
100
AcDbCircle
 10
198.837150842414
 20
316.0029813337962
 30
0.0
 40
4.400000099999997
  0
LINE
  5
21D
330
18
100
AcDbEntity
  8
1
  6
Continuous
100
AcDbLine
 10
167.9621508424139
 20
327.0089013337963
 30
0.0
 11
174.7121508424139
 21
327.0089013337963
 31
0.0
  0
LINE
  5
21E
330
18
100
AcDbEntity
  8
1
  6
Continuous
100
AcDbLine
 10
167.3371508424139
 20
326.3839013337963
 30
0.0
 11
175.3371508424138
 21
326.3839013337963
 31
0.0
  0
ARC
  5
21F
330
18
100
AcDbEntity
  8
1
  6
Continuous
100
AcDbCircle
 10
171.3371508424138
 20
296.4505713337961
 30
0.0
 40
28.252407
100
AcDbArc
 50
70.92669199999993
 51
89.99998199999998
  0
CIRCLE
  5
221
330
18
100
AcDbEntity
  8
1
  6
Continuous
100
AcDbCircle
 10
171.3371508424138
 20
302.0029813337963
 30
0.0
 40
6.5
  0
LINE
  5
222
330
18
100
AcDbEntity
  8
4
  6
CENTER
 48
0.2
100
AcDbLine
 10
143.837150842414
 20
322.0029813337963
 30
0.0
 11
143.837150842414
 21
310.0029813337962
 31
0.0
  0
LINE
  5
223
330
18
100
AcDbEntity
  8
1
  6
Continuous
100
AcDbLine
 10
146.3371588424139
 20
325.5030113337962
 30
0.0
 11
156.3367348424139
 21
322.9206613337962
 31
0.0
  0
LINE
  5
224
330
18
100
AcDbEntity
  8
1
  6
Continuous
100
AcDbLine
 10
140.8371508424139
 20
325.5029813337963
 30
0.0
 11
146.337146842414
 21
325.5029813337963
 31
0.0
  0
ARC
  5
225
330
18
100
AcDbEntity
  8
1
  6
Continuous
100
AcDbCircle
 10
158.8371508424138
 20
332.6029913337963
 30
0.0
 40
10.0
100
AcDbArc
 50
255.5199399999998
 51
289.0732700000004
  0
ARC
  5
226
330
18
100
AcDbEntity
  8
1
  6
Continuous
100
AcDbCircle
 10
171.3371508424138
 20
296.4505713337961
 30
0.0
 40
28.252407
100
AcDbArc
 50
89.99998199999998
 51
109.0732700000003
  0
LINE
  5
227
330
18
100
AcDbEntity
  8
1
  6
Continuous
100
AcDbLine
 10
167.9621508424139
 20
327.0089013337963
 30
0.0
 11
167.3371588424139
 21
326.3839013337963
 31
0.0
  0
LINE
  5
229
330
18
100
AcDbEntity
  8
1
  6
Continuous
100
AcDbLine
 10
167.3371508424139
 20
326.3839013337963
 30
0.0
 11
167.3371508424139
 21
325.0089013337963
 31
0.0
  0
LINE
  5
22C
330
18
100
AcDbEntity
  8
2
  6
Continuous
100
AcDbLine
 10
167.9621508424139
 20
327.0089013337963
 30
0.0
 11
167.9621508424139
 21
325.0089013337963
 31
0.0
  0
LINE
  5
22D
330
18
100
AcDbEntity
  8
4
  6
CENTER
 48
0.2
100
AcDbLine
 10
198.837150842414
 20
322.0029813337963
 30
0.0
 11
198.837150842414
 21
310.0029813337962
 31
0.0
  0
LINE
  5
22E
330
18
100
AcDbEntity
  8
1
  6
Continuous
100
AcDbLine
 10
196.3371508424138
 20
325.5030413337963
 30
0.0
 11
186.3375628424138
 21
322.9206913337963
 31
0.0
  0
ARC
  5
22F
330
18
100
AcDbEntity
  8
1
  6
Continuous
100
AcDbCircle
 10
183.8371508424138
 20
332.6029913337963
 30
0.0
 40
10.0
100
AcDbArc
 50
250.9267099999999
 51
284.4800399999998
  0
LINE
  5
231
330
18
100
AcDbEntity
  8
1
  6
Continuous
100
AcDbLine
 10
175.3371508424138
 20
326.3839013337963
 30
0.0
 11
175.3371508424138
 21
325.0089013337963
 31
0.0
  0
LINE
  5
232
330
18
100
AcDbEntity
  8
2
  6
Continuous
100
AcDbLine
 10
174.7121508424139
 20
327.0089013337963
 30
0.0
 11
174.7121508424139
 21
325.0089013337963
 31
0.0
  0
LINE
  5
233
330
18
100
AcDbEntity
  8
1
  6
Continuous
100
AcDbLine
 10
175.3371508424138
 20
326.3838913337963
 30
0.0
 11
174.7121508424139
 21
327.0088913337963
 31
0.0
  0
LINE
  5
236
330
18
100
AcDbEntity
  8
1
  6
Continuous
100
AcDbLine
 10
201.837150842414
 20
325.5029813337963
 30
0.0
 11
196.3371508424138
 21
325.5029813337963
 31
0.0
  0
LINE
  5
662
330
18
100
AcDbEntity
  8
4
  6
CENTER
 48
0.5
100
AcDbLine
 10
426.7542223584356
 20
233.229605093834
 30
0.0
 11
426.7542223584356
 21
128.1900436402995
 31
0.0
  0
ARC
  5
665
330
18
100
AcDbEntity
  8
1
  6
Continuous
100
AcDbCircle
 10
426.7542223584356
 20
169.1900436402995
 30
0.0
 40
8.0
100
AcDbArc
 50
196.2018499999999
 51
343.7981399999999
  0
LINE
  5
66E
330
18
100
AcDbEntity
  8
4
  6
CENTER
 48
0.5
100
AcDbLine
 10
469.2542223584355
 20
170.1900436402994
 30
0.0
 11
384.2542223584355
 21
170.1900436402994
 31
0.0
  0
LINE
  5
66F
330
18
100
AcDbEntity
  8
1
  6
Continuous
100
AcDbLine
 10
461.7542223584355
 20
225.6900436402995
 30
0.0
 11
391.7542223584353
 21
225.6900436402995
 31
0.0
  0
LINE
  5
670
330
18
100
AcDbEntity
  8
1
  6
Continuous
100
AcDbLine
 10
450.8733663584355
 20
223.5271106402996
 30
0.0
 11
434.4364963584355
 21
166.9578696402997
 31
0.0
  0
LINE
  5
671
330
18
100
AcDbEntity
  8
1
  6
Continuous
100
AcDbLine
 10
461.7542223584355
 20
223.6900436402995
 30
0.0
 11
452.3583333584356
 21
223.6900436402995
 31
0.0
  0
LINE
  5
672
330
18
100
AcDbEntity
  8
1
  6
Continuous
100
AcDbLine
 10
461.7542223584355
 20
225.6900436402995
 30
0.0
 11
461.7542223584355
 21
223.6900436402995
 31
0.0
  0
LINE
  5
673
330
18
100
AcDbEntity
  8
4
  6
CENTER
 48
0.2
100
AcDbLine
 10
454.2542223584355
 20
229.7750426402996
 30
0.0
 11
454.2542223584355
 21
218.8550446402996
 31
0.0
  0
ARC
  5
674
330
18
100
AcDbEntity
  8
1
  6
Continuous
100
AcDbCircle
 10
453.7542223584355
 20
222.6900436402996
 30
0.0
 40
3.0
100
AcDbArc
 50
90.00001800000005
 51
164.5806960000001
  0
ARC
  5
675
330
18
100
AcDbEntity
  8
1
  6
Continuous
100
AcDbCircle
 10
452.3583333584356
 20
221.6900436402995
 30
0.0
 40
2.0
100
AcDbArc
 50
90.00001800000005
 51
149.5610060000001
  0
LINE
  5
676
330
18
100
AcDbEntity
  8
1
  6
Continuous
100
AcDbLine
 10
402.6350743584355
 20
223.5271136402996
 30
0.0
 11
419.0719483584356
 21
166.9578656402996
 31
0.0
  0
LINE
  5
677
330
18
100
AcDbEntity
  8
1
  6
Continuous
100
AcDbLine
 10
439.2542223584356
 20
220.1900436402996
 30
0.0
 11
439.2542223584356
 21
189.1900436402995
 31
0.0
  0
LINE
  5
678
330
18
100
AcDbEntity
  8
1
  6
Continuous
100
AcDbLine
 10
414.2542223584356
 20
220.1900436402996
 30
0.0
 11
414.2542223584356
 21
189.1900436402995
 31
0.0
  0
ARC
  5
67A
330
18
100
AcDbEntity
  8
1
  6
Continuous
100
AcDbCircle
 10
426.7542223584356
 20
173.6900436402994
 30
0.0
 40
14.0
100
AcDbArc
 50
41.40963000000016
 51
138.5903760000003
  0
ARC
  5
682
330
18
100
AcDbEntity
  8
1
  6
Continuous
100
AcDbCircle
 10
426.7542223584356
 20
177.1900436402995
 30
0.0
 40
15.0
100
AcDbArc
 50
48.18968000000028
 51
90.00001800000005
  0
ARC
  5
683
330
18
100
AcDbEntity
  8
1
  6
Continuous
100
AcDbCircle
 10
426.7542223584356
 20
177.1900436402995
 30
0.0
 40
15.0
100
AcDbArc
 50
90.00001800000005
 51
131.8103139999997
  0
LINE
  5
685
330
18
100
AcDbEntity
  8
1
  6
Continuous
100
AcDbLine
 10
391.7542223584353
 20
223.6900436402995
 30
0.0
 11
401.1501113584357
 21
223.6900436402995
 31
0.0
  0
LINE
  5
686
330
18
100
AcDbEntity
  8
4
  6
CENTER
 48
0.2
100
AcDbLine
 10
399.2542223584355
 20
229.7750426402996
 30
0.0
 11
399.2542223584355
 21
218.8550446402996
 31
0.0
  0
ARC
  5
687
330
18
100
AcDbEntity
  8
1
  6
Continuous
100
AcDbCircle
 10
399.7542223584355
 20
222.6900436402996
 30
0.0
 40
3.0
100
AcDbArc
 50
15.41926999999993
 51
90.00001800000005
  0
ARC
  5
688
330
18
100
AcDbEntity
  8
1
  6
Continuous
100
AcDbCircle
 10
401.1501113584357
 20
221.6900436402995
 30
0.0
 40
2.0
100
AcDbArc
 50
30.4389200000001
 51
90.00001800000005
  0
LINE
  5
689
330
18
100
AcDbEntity
  8
1
  6
Continuous
100
AcDbLine
 10
391.7542223584353
 20
225.6900436402995
 30
0.0
 11
391.7542223584353
 21
223.6900436402995
 31
0.0
  0
CIRCLE
  5
6F7
330
18
100
AcDbEntity
  8
2
  6
Continuous
100
AcDbCircle
 10
426.7542223584355
 20
170.1900436402994
 30
0.0
 40
3.375
  0
CIRCLE
  5
6F8
330
18
100
AcDbEntity
  8
1
  6
Continuous
100
AcDbCircle
 10
426.7542223584355
 20
170.1900436402994
 30
0.0
 40
4.0
  0
LINE
  5
704
330
18
100
AcDbEntity
  8
4
  6
CENTER
 48
0.5
100
AcDbLine
 10
171.3371508424138
 20
30.34899740033739
 30
0.0
 11
171.3371508424138
 21
86.06790408007361
 31
0.0
  0
LINE
  5
706
330
18
100
AcDbEntity
  8
1
  6
Continuous
100
AcDbLine
 10
146.3371588424139
 20
35.91663740033743
 30
0.0
 11
156.3367348424139
 21
38.49898740033746
 31
0.0
  0
LINE
  5
707
330
18
100
AcDbEntity
  8
1
  6
Continuous
100
AcDbLine
 10
146.3371428424139
 20
82.91665240033742
 30
0.0
 11
156.3367198424139
 21
80.3343004003374
 31
0.0
  0
LINE
  5
708
330
18
100
AcDbEntity
  8
4
  6
CENTER
 48
0.5
100
AcDbLine
 10
131.2247876892055
 20
59.41666740033742
 30
0.0
 11
211.6309919988878
 21
59.41666740033742
 31
0.0
  0
ARC
  5
70B
330
18
100
AcDbEntity
  8
1
  6
Continuous
100
AcDbCircle
 10
143.837150842414
 20
73.41666740033741
 30
0.0
 40
4.400000099999997
100
AcDbArc
 50
353.4750213047959
 51
186.524978695204
  0
LINE
  5
70C
330
18
100
AcDbEntity
  8
4
  6
CENTER
 48
0.2
100
AcDbLine
 10
143.837150842414
 20
79.41666740033742
 30
0.0
 11
143.837150842414
 21
67.41666740033742
 31
0.0
  0
LINE
  5
70D
330
18
100
AcDbEntity
  8
1
  6
Continuous
100
AcDbLine
 10
136.3371508424139
 20
78.41666740033741
 30
0.0
 11
136.3371508424139
 21
72.91666740033744
 31
0.0
  0
ARC
  5
70E
330
18
100
AcDbEntity
  8
1
  6
Continuous
100
AcDbCircle
 10
140.8371508424139
 20
78.41666740033741
 30
0.0
 40
4.5
100
AcDbArc
 50
90.00002999999979
 51
180.0000199999999
  0
LINE
  5
70F
330
18
100
AcDbEntity
  8
1
  6
Continuous
100
AcDbLine
 10
140.8371508424139
 20
82.91666740033742
 30
0.0
 11
146.337146842414
 21
82.91666740033742
 31
0.0
  0
LINE
  5
711
330
18
100
AcDbEntity
  8
1
  6
Continuous
100
AcDbLine
 10
136.3371508424139
 20
40.41666740033742
 30
0.0
 11
136.3371508424139
 21
45.9166674003374
 31
0.0
  0
LINE
  5
714
330
18
100
AcDbEntity
  8
4
  6
CENTER
 48
0.2
100
AcDbLine
 10
137.8371508424139
 20
73.41666740033741
 30
0.0
 11
149.8371508424139
 21
73.41666740033741
 31
0.0
  0
ARC
  5
715
330
18
100
AcDbEntity
  8
1
  6
Continuous
100
AcDbCircle
 10
140.8371508424139
 20
40.41666740033742
 30
0.0
 40
4.5
100
AcDbArc
 50
180.0000399999999
 51
270.0000179999999
  0
ARC
  5
717
330
18
100
AcDbEntity
  8
1
  6
Continuous
100
AcDbCircle
 10
143.837150842414
 20
45.41666740033742
 30
0.0
 40
4.400000099999997
100
AcDbArc
 50
173.4750213047954
 51
6.524978695204486
  0
LINE
  5
718
330
18
100
AcDbEntity
  8
4
  6
CENTER
 48
0.2
100
AcDbLine
 10
143.837150842414
 20
39.41666740033742
 30
0.0
 11
143.837150842414
 21
51.41666740033741
 31
0.0
  0
LINE
  5
719
330
18
100
AcDbEntity
  8
4
  6
CENTER
 48
0.2
100
AcDbLine
 10
137.8371508424139
 20
45.41666740033742
 30
0.0
 11
149.8371508424139
 21
45.41666740033742
 31
0.0
  0
LINE
  5
71A
330
18
100
AcDbEntity
  8
1
  6
Continuous
100
AcDbLine
 10
140.8371508424139
 20
35.9166674003374
 30
0.0
 11
146.337146842414
 21
35.9166674003374
 31
0.0
  0
LINE
  5
71B
330
18
100
AcDbEntity
  8
4
  6
CENTER
 48
0.2
100
AcDbLine
 10
198.837150842414
 20
79.41666740033742
 30
0.0
 11
198.837150842414
 21
67.41666740033742
 31
0.0
  0
ARC
  5
71C
330
18
100
AcDbEntity
  8
1
  6
Continuous
100
AcDbCircle
 10
198.837150842414
 20
73.41666740033741
 30
0.0
 40
4.400000099999997
100
AcDbArc
 50
353.4750213047959
 51
186.524978695204
  0
LINE
  5
71D
330
18
100
AcDbEntity
  8
1
  6
Continuous
100
AcDbLine
 10
206.3371508424141
 20
78.41666740033741
 30
0.0
 11
206.3371508424141
 21
72.91666740033744
 31
0.0
  0
ARC
  5
71E
330
18
100
AcDbEntity
  8
1
  6
Continuous
100
AcDbCircle
 10
183.8371508424138
 20
90.01666540033737
 30
0.0
 40
10.0
100
AcDbArc
 50
250.9267800000003
 51
284.4801010000002
  0
ARC
  5
720
330
18
100
AcDbEntity
  8
1
  6
Continuous
100
AcDbCircle
 10
158.8371508424138
 20
90.01666540033737
 30
0.0
 40
10.0
100
AcDbArc
 50
255.5200000000002
 51
289.0733209999995
  0
ARC
  5
721
330
18
100
AcDbEntity
  8
1
  6
Continuous
100
AcDbCircle
 10
171.3371508424138
 20
53.8642574003374
 30
0.0
 40
28.252407
100
AcDbArc
 50
70.9267500000002
 51
75.71285753474483
  0
LINE
  5
722
330
18
100
AcDbEntity
  8
1
  6
Continuous
100
AcDbLine
 10
201.837150842414
 20
82.91666740033742
 30
0.0
 11
196.3372239265095
 21
82.91666740033745
 31
0.0
  0
LINE
  5
723
330
18
100
AcDbEntity
  8
1
  6
Continuous
100
AcDbLine
 10
196.3372239265095
 20
82.91666740033745
 30
0.0
 11
186.3375938424139
 21
80.3343004003374
 31
0.0
  0
ARC
  5
724
330
18
100
AcDbEntity
  8
1
  6
Continuous
100
AcDbCircle
 10
201.837150842414
 20
78.41666740033741
 30
0.0
 40
4.5
100
AcDbArc
 50
0.0000500000001608
 51
90.00003999999995
  0
ARC
  5
725
330
18
100
AcDbEntity
  8
1
  6
Continuous
100
AcDbCircle
 10
183.8371508424138
 20
28.81665740033742
 30
0.0
 40
10.0
100
AcDbArc
 50
75.51996000000014
 51
109.0732899999999
  0
ARC
  5
72A
330
18
100
AcDbEntity
  8
1
  6
Continuous
100
AcDbCircle
 10
171.3371508424138
 20
64.96907740033742
 30
0.0
 40
28.252407
100
AcDbArc
 50
250.9267299999995
 51
256.6988722078521
  0
LINE
  5
72C
330
18
100
AcDbEntity
  8
1
  6
Continuous
100
AcDbLine
 10
167.3371508424139
 20
35.04162742033776
 30
0.0
 11
175.3371508424138
 21
35.04162742033776
 31
0.0
  0
LINE
  5
72D
330
18
100
AcDbEntity
  8
1
  6
Continuous
100
AcDbLine
 10
167.9621508424139
 20
34.41662742033776
 30
0.0
 11
174.7121508424139
 21
34.41662742033776
 31
0.0
  0
ARC
  5
72E
330
18
100
AcDbEntity
  8
1
  6
Continuous
100
AcDbCircle
 10
158.8371508424138
 20
28.81665740033742
 30
0.0
 40
10.0
100
AcDbArc
 50
70.92672999999964
 51
104.48006
  0
LINE
  5
72F
330
18
100
AcDbEntity
  8
2
  6
Continuous
100
AcDbLine
 10
167.9621508424139
 20
34.41662742033776
 30
0.0
 11
167.9621508424139
 21
36.41662742033776
 31
0.0
  0
LINE
  5
732
330
18
100
AcDbEntity
  8
1
  6
Continuous
100
AcDbLine
 10
167.3371508424139
 20
35.04162742033776
 30
0.0
 11
167.3371508424139
 21
36.41662742033776
 31
0.0
  0
LINE
  5
733
330
18
100
AcDbEntity
  8
1
  6
Continuous
100
AcDbLine
 10
167.9621508424139
 20
34.41662742033776
 30
0.0
 11
167.3371588424139
 21
35.04162742033776
 31
0.0
  0
ARC
  5
735
330
18
100
AcDbEntity
  8
1
  6
Continuous
100
AcDbCircle
 10
171.3371508424138
 20
64.96907740033742
 30
0.0
 40
28.252407
100
AcDbArc
 50
283.3011277921478
 51
289.0733080000001
  0
LINE
  5
736
330
18
100
AcDbEntity
  8
1
  6
Continuous
100
AcDbLine
 10
175.3371508424138
 20
35.04163742033773
 30
0.0
 11
174.7121508424139
 21
34.41663742033773
 31
0.0
  0
LINE
  5
737
330
18
100
AcDbEntity
  8
2
  6
Continuous
100
AcDbLine
 10
174.7121508424139
 20
34.41662742033776
 30
0.0
 11
174.7121508424139
 21
36.41662742033776
 31
0.0
  0
LINE
  5
738
330
18
100
AcDbEntity
  8
1
  6
Continuous
100
AcDbLine
 10
175.3371508424138
 20
35.04162742033776
 30
0.0
 11
175.3371508424138
 21
36.41662742033776
 31
0.0
  0
LINE
  5
73C
330
18
100
AcDbEntity
  8
1
  6
Continuous
100
AcDbLine
 10
206.3371508424141
 20
40.41666740033742
 30
0.0
 11
206.3371508424141
 21
45.9166674003374
 31
0.0
  0
LINE
  5
73D
330
18
100
AcDbEntity
  8
4
  6
CENTER
 48
0.2
100
AcDbLine
 10
204.837150842414
 20
73.41666740033741
 30
0.0
 11
192.837150842414
 21
73.41666740033741
 31
0.0
  0
LINE
  5
740
330
18
100
AcDbEntity
  8
1
  6
Continuous
100
AcDbLine
 10
201.837150842414
 20
35.9166674003374
 30
0.0
 11
196.3371508424138
 21
35.9166674003374
 31
0.0
  0
LINE
  5
741
330
18
100
AcDbEntity
  8
4
  6
CENTER
 48
0.2
100
AcDbLine
 10
204.837150842414
 20
45.41666740033742
 30
0.0
 11
192.837150842414
 21
45.41666740033742
 31
0.0
  0
ARC
  5
742
330
18
100
AcDbEntity
  8
1
  6
Continuous
100
AcDbCircle
 10
198.837150842414
 20
45.41666740033742
 30
0.0
 40
4.400000099999997
100
AcDbArc
 50
173.4750213047956
 51
6.524978695204302
  0
LINE
  5
743
330
18
100
AcDbEntity
  8
4
  6
CENTER
 48
0.2
100
AcDbLine
 10
198.837150842414
 20
39.41666740033742
 30
0.0
 11
198.837150842414
 21
51.41666740033741
 31
0.0
  0
LINE
  5
744
330
18
100
AcDbEntity
  8
1
  6
Continuous
100
AcDbLine
 10
196.3371508424138
 20
35.9166074003374
 30
0.0
 11
186.3375628424138
 21
38.49895740033741
 31
0.0
  0
ARC
  5
746
330
18
100
AcDbEntity
  8
1
  6
Continuous
100
AcDbCircle
 10
201.837150842414
 20
40.41666740033742
 30
0.0
 40
4.5
100
AcDbArc
 50
270.0000179999999
 51
0.0
  0
LINE
  5
823
330
18
100
AcDbEntity
  8
1
  6
Continuous
100
AcDbLine
 10
182.6228210761481
 20
77.41667738033737
 30
0.0
 11
160.0514806086798
 21
77.41667738033737
 31
0.0
  0
LINE
  5
824
330
18
100
AcDbEntity
  8
1
  6
Continuous
100
AcDbLine
 10
178.037150842414
 20
81.41666740033739
 30
0.0
 11
164.637150842414
 21
81.41666740033741
 31
0.0
  0
ARC
  5
825
330
18
100
AcDbEntity
  8
1
  6
Continuous
100
AcDbCircle
 10
175.6690008424139
 20
78.91666740033741
 30
0.0
 40
1.5
100
AcDbArc
 50
270.0000029999976
 51
0.0000100000009873
  0
ARC
  5
826
330
18
100
AcDbEntity
  8
1
  6
Continuous
100
AcDbCircle
 10
175.6690008424139
 20
79.91666740033763
 30
0.0
 40
1.5
100
AcDbArc
 50
359.999989999999
 51
90.0
  0
LINE
  5
827
330
18
100
AcDbEntity
  8
1
  6
Continuous
100
AcDbLine
 10
177.169000842414
 20
79.91666740033763
 30
0.0
 11
177.169000842414
 21
78.91666740033741
 31
0.0
  0
LINE
  5
828
330
18
100
AcDbEntity
  8
1
  6
Continuous
100
AcDbLine
 10
178.3371508424139
 20
81.11666740033767
 30
0.0
 11
178.3371508424139
 21
77.71667740033755
 31
0.0
  0
ARC
  5
829
330
18
100
AcDbEntity
  8
1
  6
Continuous
100
AcDbCircle
 10
178.037150842414
 20
81.11666740033767
 30
0.0
 40
0.30000001
100
AcDbArc
 50
359.999989999999
 51
90.0
  0
ARC
  5
82A
330
18
100
AcDbEntity
  8
1
  6
Continuous
100
AcDbCircle
 10
178.037150842414
 20
77.71667740033755
 30
0.0
 40
0.30000001
100
AcDbArc
 50
270.0000029999976
 51
0.0000100000009873
  0
ARC
  5
82B
330
18
100
AcDbEntity
  8
1
  6
Continuous
100
AcDbCircle
 10
164.637150842414
 20
77.71667740033755
 30
0.0
 40
0.30000001
100
AcDbArc
 50
180.0
 51
270.0000029999976
  0
ARC
  5
82C
330
18
100
AcDbEntity
  8
1
  6
Continuous
100
AcDbCircle
 10
167.0053008424138
 20
78.91666740033741
 30
0.0
 40
1.5
100
AcDbArc
 50
180.0
 51
270.0000029999976
  0
ARC
  5
82D
330
18
100
AcDbEntity
  8
1
  6
Continuous
100
AcDbCircle
 10
164.637150842414
 20
81.11666740033767
 30
0.0
 40
0.30000001
100
AcDbArc
 50
90.0
 51
180.0
  0
ARC
  5
82E
330
18
100
AcDbEntity
  8
1
  6
Continuous
100
AcDbCircle
 10
167.0053008424138
 20
79.91666740033763
 30
0.0
 40
1.5
100
AcDbArc
 50
90.0
 51
180.0
  0
LINE
  5
82F
330
18
100
AcDbEntity
  8
1
  6
Continuous
100
AcDbLine
 10
164.3371508424139
 20
81.11666740033768
 30
0.0
 11
164.3371508424139
 21
77.71667740033755
 31
0.0
  0
LINE
  5
830
330
18
100
AcDbEntity
  8
1
  6
Continuous
100
AcDbLine
 10
165.5053008424139
 20
79.91666740033764
 30
0.0
 11
165.5053008424139
 21
78.91666740033741
 31
0.0
  0
ARC
  5
831
330
18
100
AcDbEntity
  8
1
  6
Continuous
100
AcDbCircle
 10
168.669000842414
 20
78.91666740033741
 30
0.0
 40
1.5
100
AcDbArc
 50
270.0000029999976
 51
0.0000100000009873
  0
ARC
  5
832
330
18
100
AcDbEntity
  8
1
  6
Continuous
100
AcDbCircle
 10
174.0053008424139
 20
78.91666740033741
 30
0.0
 40
1.5
100
AcDbArc
 50
180.0
 51
270.0000029999976
  0
ARC
  5
833
330
18
100
AcDbEntity
  8
1
  6
Continuous
100
AcDbCircle
 10
168.669000842414
 20
79.91666740033763
 30
0.0
 40
1.5
100
AcDbArc
 50
359.999989999999
 51
90.0
  0
ARC
  5
834
330
18
100
AcDbEntity
  8
1
  6
Continuous
100
AcDbCircle
 10
174.0053008424139
 20
79.91666740033763
 30
0.0
 40
1.5
100
AcDbArc
 50
90.0
 51
180.0
  0
LINE
  5
835
330
18
100
AcDbEntity
  8
1
  6
Continuous
100
AcDbLine
 10
172.5053008424139
 20
79.91666740033764
 30
0.0
 11
172.5053008424139
 21
78.91666740033741
 31
0.0
  0
LINE
  5
836
330
18
100
AcDbEntity
  8
1
  6
Continuous
100
AcDbLine
 10
170.1690008424139
 20
79.91666740033764
 30
0.0
 11
170.1690008424139
 21
78.91666740033741
 31
0.0
  0
ARC
  5
84E
330
18
100
AcDbEntity
  8
1
  6
Continuous
100
AcDbCircle
 10
171.3371508424138
 20
53.8642574003374
 30
0.0
 40
28.252407
100
AcDbArc
 50
104.2871424652545
 51
109.0733300000003
  0
ARC
  5
84F
330
18
100
AcDbEntity
  8
1
  6
Continuous
100
AcDbCircle
 10
171.3371508424138
 20
53.8642574003374
 30
0.0
 40
28.252407
100
AcDbArc
 50
77.2191779892702
 51
102.7808220107296
  0
LINE
  5
858
330
18
100
AcDbEntity
  8
1
  6
Continuous
100
AcDbLine
 10
61.6286150844031
 20
176.1900436402996
 30
0.0
 11
61.6286150844031
 21
161.1900436402994
 31
0.0
  0
LINE
  5
859
330
18
100
AcDbEntity
  8
1
  6
Continuous
100
AcDbLine
 10
59.62861508440312
 20
176.1900436402996
 30
0.0
 11
59.62861508440312
 21
161.1900436402996
 31
0.0
  0
LINE
  5
85A
330
18
100
AcDbEntity
  8
1
  6
Continuous
100
AcDbLine
 10
61.592681271003
 20
179.6993148455602
 30
0.0
 11
61.6286150844031
 21
176.1900433785003
 31
0.0
  0
LINE
  5
85B
330
18
100
AcDbEntity
  8
1
  6
Continuous
100
AcDbLine
 10
59.62861508440312
 20
176.1900436402996
 30
0.0
 11
59.59270755950933
 21
179.6891893026528
 31
0.0
  0
LINE
  5
85C
330
18
100
AcDbEntity
  8
1
  6
Continuous
100
AcDbLine
 10
59.59270755950933
 20
179.6891893026528
 30
0.0
 11
59.57532575791582
 21
183.6363518987754
 31
0.0
  0
LINE
  5
85E
330
18
100
AcDbEntity
  8
1
  6
Continuous
100
AcDbLine
 10
25.62861508440311
 20
161.1900436402994
 30
0.0
 11
25.62861508440311
 21
176.1900436402996
 31
0.0
  0
LINE
  5
863
330
18
100
AcDbEntity
  8
1
  6
Continuous
100
AcDbLine
 10
27.62861508440312
 20
161.1900436402994
 30
0.0
 11
27.62861508440312
 21
176.1900436402996
 31
0.0
  0
LINE
  5
865
330
18
100
AcDbEntity
  8
1
  6
Continuous
100
AcDbLine
 10
25.66453980563982
 20
179.6992939018118
 30
0.0
 11
25.62861508440311
 21
176.1900436402996
 31
0.0
  0
LINE
  5
866
330
18
100
AcDbEntity
  8
1
  6
Continuous
100
AcDbLine
 10
27.62861508440312
 20
176.1900436402996
 30
0.0
 11
27.66452654286126
 21
179.6891742057018
 31
0.0
  0
LINE
  5
867
330
18
100
AcDbEntity
  8
1
  6
Continuous
100
AcDbLine
 10
27.66452654286126
 20
179.6891742057018
 30
0.0
 11
27.6819063781761
 21
183.6363454585935
 31
0.0
  0
LINE
  5
86C
330
18
100
AcDbEntity
  8
1
  6
Continuous
100
AcDbLine
 10
160.8192261890403
 20
75.41666740033742
 30
0.0
 11
181.8550754957874
 21
75.41666740033742
 31
0.0
  0
LINE
  5
87D
330
18
100
AcDbEntity
  8
1
  6
Continuous
100
AcDbLine
 10
184.208049083977
 20
76.18193166255567
 30
0.0
 11
186.3509370189865
 21
77.7406861087489
 31
0.0
  0
LINE
  5
87E
330
18
100
AcDbEntity
  8
1
  6
Continuous
100
AcDbLine
 10
186.3509370189865
 20
77.7406861087489
 30
0.0
 11
197.1986293537873
 21
82.425022080805
 31
0.0
  0
LINE
  5
87F
330
18
100
AcDbEntity
  8
1
  6
Continuous
100
AcDbLine
 10
183.6184326965273
 20
77.68210034216187
 30
0.0
 11
186.3509370189865
 21
79.25050174279308
 31
0.0
  0
LINE
  5
880
330
18
100
AcDbEntity
  8
1
  6
Continuous
100
AcDbLine
 10
186.3509370189865
 20
79.25050174279308
 30
0.0
 11
195.6696669285445
 21
82.67161891196534
 31
0.0
  0
ARC
  5
8CF
330
18
100
AcDbEntity
  8
1
  6
Continuous
100
AcDbCircle
 10
182.6228210761481
 20
79.41667738033737
 30
0.0
 40
2.0
100
AcDbArc
 50
270.0
 51
299.8549394350668
  0
ARC
  5
8D0
330
18
100
AcDbEntity
  8
1
  6
Continuous
100
AcDbCircle
 10
181.8550754957874
 20
79.41666740033742
 30
0.0
 40
4.0
100
AcDbArc
 50
270.0
 51
306.0324531681883
  0
ARC
  5
8D1
330
18
100
AcDbEntity
  8
1
  6
Continuous
100
AcDbCircle
 10
197.0481948192029
 20
78.91666740033746
 30
0.0
 40
4.0
100
AcDbArc
 50
89.99999999999927
 51
110.1593316352114
  0
ARC
  5
8D2
330
18
100
AcDbEntity
  8
1
  6
Continuous
100
AcDbCircle
 10
199.5772904717634
 20
76.91666740033745
 30
0.0
 40
6.0
100
AcDbArc
 50
89.99999999999948
 51
113.3560331409739
  0
ARC
  5
8D3
330
18
100
AcDbEntity
  8
1
  6
Continuous
100
AcDbCircle
 10
160.8192261890403
 20
79.41666740033742
 30
0.0
 40
4.0
100
AcDbArc
 50
233.9675468318116
 51
270.0
  0
ARC
  5
8D4
330
18
100
AcDbEntity
  8
1
  6
Continuous
100
AcDbCircle
 10
160.0514806086798
 20
79.41667738033737
 30
0.0
 40
2.0
100
AcDbArc
 50
240.1450605649329
 51
270.0
  0
LINE
  5
8D5
330
18
100
AcDbEntity
  8
1
  6
Continuous
100
AcDbLine
 10
158.4662526008507
 20
76.18193166255567
 30
0.0
 11
156.3233646658411
 21
77.7406861087489
 31
0.0
  0
LINE
  5
8D6
330
18
100
AcDbEntity
  8
1
  6
Continuous
100
AcDbLine
 10
159.0558689883003
 20
77.68210034216187
 30
0.0
 11
156.3233646658411
 21
79.25050174279308
 31
0.0
  0
LINE
  5
8D7
330
18
100
AcDbEntity
  8
1
  6
Continuous
100
AcDbLine
 10
156.3233646658411
 20
79.25050174279308
 30
0.0
 11
147.0046347562834
 21
82.67161891196534
 31
0.0
  0
LINE
  5
8D8
330
18
100
AcDbEntity
  8
1
  6
Continuous
100
AcDbLine
 10
156.3233646658411
 20
77.7406861087489
 30
0.0
 11
145.4756723310405
 21
82.425022080805
 31
0.0
  0
ARC
  5
8D9
330
18
100
AcDbEntity
  8
1
  6
Continuous
100
AcDbCircle
 10
143.0970112130644
 20
76.91666740033745
 30
0.0
 40
6.0
100
AcDbArc
 50
66.64396685902609
 51
90.00000000000047
  0
ARC
  5
8DA
330
18
100
AcDbEntity
  8
1
  6
Continuous
100
AcDbCircle
 10
145.6261068656248
 20
78.91666740033746
 30
0.0
 40
4.0
100
AcDbArc
 50
69.84066836478854
 51
90.00000000000074
  0
LINE
  5
8DB
330
18
100
AcDbEntity
  8
1
  6
Continuous
100
AcDbLine
 10
160.8192261890403
 20
43.4166674003374
 30
0.0
 11
181.8550754957874
 21
43.4166674003374
 31
0.0
  0
LINE
  5
8DC
330
18
100
AcDbEntity
  8
1
  6
Continuous
100
AcDbLine
 10
182.6228210761481
 20
41.41665742033747
 30
0.0
 11
160.0514806086798
 21
41.41665742033747
 31
0.0
  0
ARC
  5
8DD
330
18
100
AcDbEntity
  8
1
  6
Continuous
100
AcDbCircle
 10
160.0514806086798
 20
39.41665742033745
 30
0.0
 40
2.0
100
AcDbArc
 50
90.00000000000005
 51
119.8549394350669
  0
ARC
  5
8DE
330
18
100
AcDbEntity
  8
1
  6
Continuous
100
AcDbCircle
 10
160.8192261890403
 20
39.41666740033742
 30
0.0
 40
4.0
100
AcDbArc
 50
90.00000000000005
 51
126.0324531681884
  0
LINE
  5
8DF
330
18
100
AcDbEntity
  8
1
  6
Continuous
100
AcDbLine
 10
158.4662526008507
 20
42.65140313811914
 30
0.0
 11
156.3233646658411
 21
41.09264869192593
 31
0.0
  0
LINE
  5
8E0
330
18
100
AcDbEntity
  8
1
  6
Continuous
100
AcDbLine
 10
156.3233646658411
 20
41.09264869192593
 30
0.0
 11
145.4756723310405
 21
36.40831271986986
 31
0.0
  0
LINE
  5
8E1
330
18
100
AcDbEntity
  8
1
  6
Continuous
100
AcDbLine
 10
159.0558689883003
 20
41.15123445851295
 30
0.0
 11
156.3233646658411
 21
39.58283305788174
 31
0.0
  0
LINE
  5
8E2
330
18
100
AcDbEntity
  8
1
  6
Continuous
100
AcDbLine
 10
156.3233646658411
 20
39.58283305788174
 30
0.0
 11
147.0046347562834
 21
36.1617158887095
 31
0.0
  0
ARC
  5
8E3
330
18
100
AcDbEntity
  8
1
  6
Continuous
100
AcDbCircle
 10
143.0970112130644
 20
41.9166674003374
 30
0.0
 40
6.0
100
AcDbArc
 50
269.9999999999993
 51
293.3560331409739
  0
ARC
  5
8E4
330
18
100
AcDbEntity
  8
1
  6
Continuous
100
AcDbCircle
 10
145.6261068656248
 20
39.91666740033736
 30
0.0
 40
4.0
100
AcDbArc
 50
269.9999999999992
 51
290.1593316352113
  0
ARC
  5
8E5
330
18
100
AcDbEntity
  8
1
  6
Continuous
100
AcDbCircle
 10
199.5772904717634
 20
41.9166674003374
 30
0.0
 40
6.0
100
AcDbArc
 50
246.643966859026
 51
270.0000000000005
  0
ARC
  5
8E6
330
18
100
AcDbEntity
  8
1
  6
Continuous
100
AcDbCircle
 10
197.0481948192029
 20
39.91666740033736
 30
0.0
 40
4.0
100
AcDbArc
 50
249.8406683647885
 51
270.0000000000007
  0
LINE
  5
8E7
330
18
100
AcDbEntity
  8
1
  6
Continuous
100
AcDbLine
 10
186.3509370189865
 20
41.09264869192593
 30
0.0
 11
197.1986293537873
 21
36.40831271986986
 31
0.0
  0
LINE
  5
8E8
330
18
100
AcDbEntity
  8
1
  6
Continuous
100
AcDbLine
 10
186.3509370189865
 20
39.58283305788174
 30
0.0
 11
195.6696669285445
 21
36.1617158887095
 31
0.0
  0
LINE
  5
8E9
330
18
100
AcDbEntity
  8
1
  6
Continuous
100
AcDbLine
 10
183.6184326965273
 20
41.15123445851295
 30
0.0
 11
186.3509370189865
 21
39.58283305788174
 31
0.0
  0
LINE
  5
8EA
330
18
100
AcDbEntity
  8
1
  6
Continuous
100
AcDbLine
 10
184.208049083977
 20
42.65140313811914
 30
0.0
 11
186.3509370189865
 21
41.09264869192593
 31
0.0
  0
ARC
  5
8EB
330
18
100
AcDbEntity
  8
1
  6
Continuous
100
AcDbCircle
 10
181.8550754957874
 20
39.41666740033742
 30
0.0
 40
4.0
100
AcDbArc
 50
53.96754683181161
 51
90.00000000000005
  0
ARC
  5
8EC
330
18
100
AcDbEntity
  8
1
  6
Continuous
100
AcDbCircle
 10
182.6228210761481
 20
39.41665742033745
 30
0.0
 40
2.0
100
AcDbArc
 50
60.14506056493304
 51
90.00000000000005
  0
LINE
  5
910
330
18
100
AcDbEntity
  8
1
  6
Continuous
100
AcDbLine
 10
317.0456866004248
 20
161.1900436402994
 30
0.0
 11
317.0456866004248
 21
176.1900436402996
 31
0.0
  0
LINE
  5
911
330
18
100
AcDbEntity
  8
1
  6
Continuous
100
AcDbLine
 10
315.0456866004248
 20
161.1900436402994
 30
0.0
 11
315.0456866004248
 21
176.1900436402996
 31
0.0
  0
LINE
  5
912
330
18
100
AcDbEntity
  8
1
  6
Continuous
100
AcDbLine
 10
323.4206736004246
 20
166.1900436402994
 30
0.0
 11
323.4206736004246
 21
174.1900436402995
 31
0.0
  0
LINE
  5
915
330
18
100
AcDbEntity
  8
1
  6
Continuous
100
AcDbLine
 10
323.4206736004246
 20
166.1900396402995
 30
0.0
 11
324.0456736004246
 21
166.8150396402995
 31
0.0
  0
LINE
  5
917
330
18
100
AcDbEntity
  8
1
  6
Continuous
100
AcDbLine
 10
283.0456866004248
 20
176.1900436402996
 30
0.0
 11
283.0456866004248
 21
161.1900436402996
 31
0.0
  0
LINE
  5
918
330
18
100
AcDbEntity
  8
1
  6
Continuous
100
AcDbLine
 10
281.0456866004248
 20
176.1900436402996
 30
0.0
 11
281.0456866004248
 21
161.1900436402994
 31
0.0
  0
LINE
  5
919
330
18
100
AcDbEntity
  8
1
  6
Continuous
100
AcDbLine
 10
277.0456866004248
 20
176.1900436402996
 30
0.0
 11
277.0456866004248
 21
164.1900436402995
 31
0.0
  0
ARC
  5
91A
330
18
100
AcDbEntity
  8
1
  6
Continuous
100
AcDbCircle
 10
278.5456866004248
 20
165.1900436402994
 30
0.0
 40
1.5
100
AcDbArc
 50
90.00001800000005
 51
180.0
  0
ARC
  5
91B
330
18
100
AcDbEntity
  8
1
  6
Continuous
100
AcDbCircle
 10
279.5456866004248
 20
165.1900436402994
 30
0.0
 40
1.5
100
AcDbArc
 50
0.000000000000007
 51
90.00001800000005
  0
LINE
  5
921
330
18
100
AcDbEntity
  8
4
  6
CENTER
 48
0.5
100
AcDbLine
 10
299.0456866004246
 20
233.9116642792834
 30
0.0
 11
299.0456866004246
 21
129.5234936402996
 31
0.0
  0
LINE
  5
925
330
18
100
AcDbEntity
  8
1
  6
Continuous
100
AcDbLine
 10
323.4206736004246
 20
166.1900436402994
 30
0.0
 11
322.0456736004245
 21
166.1900436402994
 31
0.0
  0
LINE
  5
927
330
18
100
AcDbEntity
  8
1
  6
Continuous
100
AcDbLine
 10
317.0456866004248
 20
161.1900436402994
 30
0.0
 11
315.0456866004248
 21
161.1900436402994
 31
0.0
  0
LINE
  5
92A
330
18
100
AcDbEntity
  8
1
  6
Continuous
100
AcDbLine
 10
283.0456866004248
 20
161.1900436402996
 30
0.0
 11
281.0456866004248
 21
161.1900436402994
 31
0.0
  0
ARC
  5
933
330
18
100
AcDbEntity
  8
1
  6
Continuous
100
AcDbCircle
 10
278.5456866004248
 20
164.1900436402995
 30
0.0
 40
1.5
100
AcDbArc
 50
180.0
 51
270.0000399999999
  0
LINE
  5
934
330
18
100
AcDbEntity
  8
1
  6
Continuous
100
AcDbLine
 10
278.5456866004248
 20
162.6900436402995
 30
0.0
 11
279.5456866004248
 21
162.6900436402995
 31
0.0
  0
ARC
  5
935
330
18
100
AcDbEntity
  8
1
  6
Continuous
100
AcDbCircle
 10
279.5456866004248
 20
164.1900436402995
 30
0.0
 40
1.5
100
AcDbArc
 50
270.0000600000003
 51
0.000000000000007
  0
LINE
  5
936
330
18
100
AcDbEntity
  8
1
  6
Continuous
100
AcDbLine
 10
275.5456866004247
 20
225.6900436402995
 30
0.0
 11
322.5456866004246
 21
225.6900436402995
 31
0.0
  0
LINE
  5
937
330
18
100
AcDbEntity
  8
1
  6
Continuous
100
AcDbLine
 10
283.5456866004248
 20
222.1900436402996
 30
0.0
 11
314.5456866004246
 21
222.1900436402996
 31
0.0
  0
LINE
  5
938
330
18
100
AcDbEntity
  8
1
  6
Continuous
100
AcDbLine
 10
275.5456866004247
 20
223.6900436402995
 30
0.0
 11
322.5456866004246
 21
223.6900436402995
 31
0.0
  0
LINE
  5
93A
330
18
100
AcDbEntity
  8
4
  6
CENTER
 48
0.5
100
AcDbLine
 10
330.2594866004247
 20
170.1900436402994
 30
0.0
 11
269.0301146004245
 21
170.1900436402994
 31
0.0
  0
LINE
  5
93B
330
18
100
AcDbEntity
  8
1
  6
Continuous
100
AcDbLine
 10
322.5457666004247
 20
223.3900446402996
 30
0.0
 11
319.8424266004246
 21
191.7559996402996
 31
0.0
  0
LINE
  5
93C
330
18
100
AcDbEntity
  8
1
  6
Continuous
100
AcDbLine
 10
318.3466276004247
 20
191.8808076402996
 30
0.0
 11
320.4859066004246
 21
220.4890746402996
 31
0.0
  0
LINE
  5
93D
330
18
100
AcDbEntity
  8
1
  6
Continuous
100
AcDbLine
 10
321.6320866004247
 20
212.6982628402996
 30
0.0
 11
321.4748066004247
 21
194.8800756402994
 31
0.0
  0
LINE
  5
93E
330
18
100
AcDbEntity
  8
1
  6
Continuous
100
AcDbLine
 10
317.4076556004246
 20
192.6502606402996
 30
0.0
 11
317.1446326004247
 21
223.6900416402995
 31
0.0
  0
LINE
  5
93F
330
18
100
AcDbEntity
  8
1
  6
Continuous
100
AcDbLine
 10
315.5550016004247
 20
187.3763836402996
 30
0.0
 11
315.9574606004246
 21
187.9500496402996
 31
0.0
  0
ARC
  5
940
330
18
100
AcDbEntity
  8
1
  6
Continuous
100
AcDbCircle
 10
300.7166996004247
 20
195.5126066402995
 30
0.0
 40
18.0
100
AcDbArc
 50
333.5063200000001
 51
348.3597499999998
  0
ARC
  5
941
330
18
100
AcDbEntity
  8
1
  6
Continuous
100
AcDbCircle
 10
301.9077926004246
 20
193.2886346402996
 30
0.0
 40
18.0
100
AcDbArc
 50
335.80787
 51
355.11556
  0
LINE
  5
942
330
18
100
AcDbEntity
  8
1
  6
Continuous
100
AcDbLine
 10
315.0456866004248
 20
176.1900436402996
 30
0.0
 11
315.0097751419667
 21
179.6891742057018
 31
0.0
  0
LINE
  5
943
330
18
100
AcDbEntity
  8
1
  6
Continuous
100
AcDbLine
 10
317.0097618791881
 20
179.6992939018118
 30
0.0
 11
317.0456866004248
 21
176.1900436402996
 31
0.0
  0
LINE
  5
94A
330
18
100
AcDbEntity
  8
1
  6
Continuous
100
AcDbLine
 10
324.0456736004246
 20
166.8150436402996
 30
0.0
 11
324.0456736004246
 21
173.5650436402995
 31
0.0
  0
LINE
  5
94C
330
18
100
AcDbEntity
  8
2
  6
Continuous
100
AcDbLine
 10
324.0456736004246
 20
166.8150436402996
 30
0.0
 11
322.0456736004245
 21
166.8150436402996
 31
0.0
  0
LINE
  5
94D
330
18
100
AcDbEntity
  8
2
  6
Continuous
100
AcDbLine
 10
324.0456736004246
 20
173.5650436402995
 30
0.0
 11
322.0456736004245
 21
173.5650436402995
 31
0.0
  0
LINE
  5
94E
330
18
100
AcDbEntity
  8
1
  6
Continuous
100
AcDbLine
 10
323.4206736004246
 20
174.1900436402995
 30
0.0
 11
322.0456736004245
 21
174.1900436402995
 31
0.0
  0
LINE
  5
94F
330
18
100
AcDbEntity
  8
1
  6
Continuous
100
AcDbLine
 10
324.0456736004246
 20
173.5650436402995
 30
0.0
 11
323.4206736004246
 21
174.1900456402996
 31
0.0
  0
LINE
  5
953
330
18
100
AcDbEntity
  8
1
  6
Continuous
100
AcDbLine
 10
315.0097751419667
 20
179.6891742057018
 30
0.0
 11
314.9923953066517
 21
183.6363454585935
 31
0.0
  0
ARC
  5
954
330
18
100
AcDbEntity
  8
1
  6
Continuous
100
AcDbCircle
 10
327.2922366004247
 20
183.6988286402996
 30
0.0
 40
12.3
100
AcDbArc
 50
162.6030159999998
 51
180.2910599999999
  0
ARC
  5
955
330
18
100
AcDbEntity
  8
1
  6
Continuous
100
AcDbCircle
 10
332.3096066004247
 20
179.7653116402996
 30
0.0
 40
17.299999
100
AcDbArc
 50
153.506352
 51
180.25216
  0
ARC
  5
956
330
18
100
AcDbEntity
  8
1
  6
Continuous
100
AcDbCircle
 10
332.0096166004247
 20
179.7653116402996
 30
0.0
 40
15.0
100
AcDbArc
 50
155.8079069999999
 51
180.25217
  0
ARC
  5
957
330
18
100
AcDbEntity
  8
1
  6
Continuous
100
AcDbCircle
 10
311.4751146004247
 20
194.9683446402996
 30
0.0
 40
10.0
100
AcDbArc
 50
321.8194299999999
 51
359.4942700000002
  0
ARC
  5
958
330
18
100
AcDbEntity
  8
1
  6
Continuous
100
AcDbCircle
 10
309.4082656004246
 20
192.5446116402994
 30
0.0
 40
8.0
100
AcDbArc
 50
324.9483700000002
 51
0.7566200000002589
  0
ARC
  5
959
330
18
100
AcDbEntity
  8
1
  6
Continuous
100
AcDbCircle
 10
324.4706566004247
 20
220.1414776402995
 30
0.0
 40
4.0
100
AcDbArc
 50
118.3883399999997
 51
175.0146859
  0
LINE
  5
95A
330
18
100
AcDbEntity
  8
1
  6
Continuous
100
AcDbLine
 10
322.5456866004246
 20
225.6900436402995
 30
0.0
 11
322.5456866004246
 21
223.3900446402996
 31
0.0
  0
ARC
  5
95B
330
18
100
AcDbEntity
  8
1
  6
Continuous
100
AcDbCircle
 10
314.5456866004246
 20
225.9400436402995
 30
0.0
 40
3.75
100
AcDbArc
 50
270.0000399999999
 51
314.0060399999997
  0
LINE
  5
95C
330
18
100
AcDbEntity
  8
1
  6
Continuous
100
AcDbLine
 10
275.5456446004246
 20
223.3900426402996
 30
0.0
 11
278.2489416004248
 21
191.7560236402996
 31
0.0
  0
LINE
  5
95D
330
18
100
AcDbEntity
  8
1
  6
Continuous
100
AcDbLine
 10
279.7447906004245
 20
191.8808276402996
 30
0.0
 11
277.6055086004248
 21
220.4890776402995
 31
0.0
  0
LINE
  5
95E
330
18
100
AcDbEntity
  8
1
  6
Continuous
100
AcDbLine
 10
280.6837446004248
 20
192.6502746402996
 30
0.0
 11
280.9467676004246
 21
223.6900436402995
 31
0.0
  0
LINE
  5
95F
330
18
100
AcDbEntity
  8
1
  6
Continuous
100
AcDbLine
 10
276.4593376004248
 20
212.6979829402996
 30
0.0
 11
276.6166166004246
 21
194.8800876402995
 31
0.0
  0
LINE
  5
960
330
18
100
AcDbEntity
  8
1
  6
Continuous
100
AcDbLine
 10
282.5364206004246
 20
187.3763876402996
 30
0.0
 11
282.1339626004247
 21
187.9500536402996
 31
0.0
  0
ARC
  5
961
330
18
100
AcDbEntity
  8
1
  6
Continuous
100
AcDbCircle
 10
265.7817626004247
 20
179.7653116402996
 30
0.0
 40
17.299999
100
AcDbArc
 50
359.7478900000002
 51
26.49367999999988
  0
LINE
  5
963
330
18
100
AcDbEntity
  8
1
  6
Continuous
100
AcDbLine
 10
283.0456866004248
 20
176.1900436402996
 30
0.0
 11
283.0815941253186
 21
179.6891893026528
 31
0.0
  0
LINE
  5
965
330
18
100
AcDbEntity
  8
1
  6
Continuous
100
AcDbLine
 10
283.0815941253186
 20
179.6891893026528
 30
0.0
 11
283.0989759269121
 21
183.6363518987754
 31
0.0
  0
ARC
  5
968
330
18
100
AcDbEntity
  8
1
  6
Continuous
100
AcDbCircle
 10
270.7991346004245
 20
183.6988286402996
 30
0.0
 40
12.3
100
AcDbArc
 50
359.7089700000001
 51
17.39701999999986
  0
ARC
  5
96D
330
18
100
AcDbEntity
  8
1
  6
Continuous
100
AcDbCircle
 10
297.3746736004246
 20
195.5126066402995
 30
0.0
 40
18.0
100
AcDbArc
 50
191.64027
 51
206.4937
  0
ARC
  5
96E
330
18
100
AcDbEntity
  8
1
  6
Continuous
100
AcDbCircle
 10
296.1835806004247
 20
193.2886346402996
 30
0.0
 40
18.0
100
AcDbArc
 50
184.8843600000001
 51
204.1921500000002
  0
LINE
  5
96F
330
18
100
AcDbEntity
  8
1
  6
Continuous
100
AcDbLine
 10
281.0816204138248
 20
179.6993148455602
 30
0.0
 11
281.0456866004248
 21
176.1900433785003
 31
0.0
  0
ARC
  5
970
330
18
100
AcDbEntity
  8
1
  6
Continuous
100
AcDbCircle
 10
278.5456866004248
 20
176.1900436402996
 30
0.0
 40
1.5
100
AcDbArc
 50
90.00001800000005
 51
180.0
  0
ARC
  5
971
330
18
100
AcDbEntity
  8
1
  6
Continuous
100
AcDbCircle
 10
279.5456866004248
 20
176.1900436402996
 30
0.0
 40
1.5
100
AcDbArc
 50
359.9999899999998
 51
90.00001800000005
  0
ARC
  5
972
330
18
100
AcDbEntity
  8
1
  6
Continuous
100
AcDbCircle
 10
278.5456866004248
 20
168.6900436402996
 30
0.0
 40
1.5
100
AcDbArc
 50
180.0
 51
270.0000399999999
  0
LINE
  5
973
330
18
100
AcDbEntity
  8
1
  6
Continuous
100
AcDbLine
 10
278.5456866004248
 20
167.1900436402995
 30
0.0
 11
279.5456866004248
 21
167.1900436402995
 31
0.0
  0
LINE
  5
974
330
18
100
AcDbEntity
  8
1
  6
Continuous
100
AcDbLine
 10
278.5456866004248
 20
166.6900436402996
 30
0.0
 11
279.5456866004248
 21
166.6900436402996
 31
0.0
  0
ARC
  5
975
330
18
100
AcDbEntity
  8
1
  6
Continuous
100
AcDbCircle
 10
278.5456866004248
 20
175.1900436402995
 30
0.0
 40
1.5
100
AcDbArc
 50
180.0
 51
270.0000399999999
  0
ARC
  5
976
330
18
100
AcDbEntity
  8
1
  6
Continuous
100
AcDbCircle
 10
278.5456866004248
 20
171.6900436402996
 30
0.0
 40
1.5
100
AcDbArc
 50
90.00001800000005
 51
180.0
  0
ARC
  5
977
330
18
100
AcDbEntity
  8
1
  6
Continuous
100
AcDbCircle
 10
279.5456866004248
 20
175.1900436402995
 30
0.0
 40
1.5
100
AcDbArc
 50
270.0000500000001
 51
0.0000100000001992
  0
LINE
  5
978
330
18
100
AcDbEntity
  8
1
  6
Continuous
100
AcDbLine
 10
278.5456866004248
 20
173.6900436402994
 30
0.0
 11
279.5456866004248
 21
173.6900436402994
 31
0.0
  0
LINE
  5
979
330
18
100
AcDbEntity
  8
1
  6
Continuous
100
AcDbLine
 10
278.5456866004248
 20
173.1900436402995
 30
0.0
 11
279.5456866004248
 21
173.1900436402995
 31
0.0
  0
ARC
  5
97A
330
18
100
AcDbEntity
  8
1
  6
Continuous
100
AcDbCircle
 10
279.5456866004248
 20
168.6900436402996
 30
0.0
 40
1.5
100
AcDbArc
 50
270.0000600000003
 51
0.000000000000007
  0
ARC
  5
97B
330
18
100
AcDbEntity
  8
1
  6
Continuous
100
AcDbCircle
 10
279.5456866004248
 20
171.6900436402996
 30
0.0
 40
1.5
100
AcDbArc
 50
0.000000000000007
 51
90.00001800000005
  0
LINE
  5
97C
330
18
100
AcDbEntity
  8
1
  6
Continuous
100
AcDbLine
 10
278.5456866004248
 20
177.6900436402994
 30
0.0
 11
279.5456866004248
 21
177.6900436402994
 31
0.0
  0
ARC
  5
97D
330
18
100
AcDbEntity
  8
1
  6
Continuous
100
AcDbCircle
 10
266.0817656004247
 20
179.7653116402996
 30
0.0
 40
15.0
100
AcDbArc
 50
359.74791
 51
24.1921300000002
  0
ARC
  5
97E
330
18
100
AcDbEntity
  8
1
  6
Continuous
100
AcDbCircle
 10
288.6831076004248
 20
192.5446116402994
 30
0.0
 40
8.0
100
AcDbArc
 50
179.2434176499999
 51
215.0516699999998
  0
ARC
  5
97F
330
18
100
AcDbEntity
  8
1
  6
Continuous
100
AcDbCircle
 10
286.6162586004247
 20
194.9683446402996
 30
0.0
 40
10.0
100
AcDbArc
 50
180.50575
 51
218.1805799999999
  0
ARC
  5
980
330
18
100
AcDbEntity
  8
1
  6
Continuous
100
AcDbCircle
 10
283.5456866004248
 20
225.9400436402995
 30
0.0
 40
3.75
100
AcDbArc
 50
225.9939799999997
 51
269.9999799999996
  0
LINE
  5
982
330
18
100
AcDbEntity
  8
4
  6
CENTER
 48
0.2
100
AcDbLine
 10
313.0456866004247
 20
229.7750426402996
 30
0.0
 11
313.0456866004247
 21
218.8550446402996
 31
0.0
  0
LINE
  5
983
330
18
100
AcDbEntity
  8
4
  6
CENTER
 48
0.2
100
AcDbLine
 10
285.0456866004248
 20
229.7750426402996
 30
0.0
 11
285.0456866004248
 21
218.8550446402996
 31
0.0
  0
ARC
  5
985
330
18
100
AcDbEntity
  8
1
  6
Continuous
100
AcDbCircle
 10
273.6207136004245
 20
220.1414776402995
 30
0.0
 40
4.0
100
AcDbArc
 50
4.985349999999909
 51
61.23337999999994
  0
LINE
  5
986
330
18
100
AcDbEntity
  8
1
  6
Continuous
100
AcDbLine
 10
275.5456866004247
 20
225.6900436402995
 30
0.0
 11
275.5456866004247
 21
223.3900446402996
 31
0.0
  0
LINE
  5
FC9
330
18
100
AcDbEntity
  8
1
  6
Continuous
100
AcDbLine
 10
20.62861508440312
 20
164.3256904402995
 30
0.0
 11
20.62861508440312
 21
176.0543853402996
 31
0.0
  0
ARC
  5
FCB
330
18
100
AcDbEntity
  8
1
  6
Continuous
100
AcDbCircle
 10
25.3918825844031
 20
164.7650444402995
 30
0.0
 40
4.363269299999998
100
AcDbArc
 50
155.2749389999979
 51
204.7250400000016
  0
LINE
  5
FCC
330
18
100
AcDbEntity
  8
1
  6
Continuous
100
AcDbLine
 10
21.42861818440303
 20
162.9400436402995
 30
0.0
 11
24.82861198440298
 21
162.9400436402995
 31
0.0
  0
ARC
  5
FCD
330
18
100
AcDbEntity
  8
1
  6
Continuous
100
AcDbCircle
 10
24.76128358440304
 20
163.9377743402994
 30
0.0
 40
1.0
100
AcDbArc
 50
273.8605100000061
 51
330.1500000000033
  0
LINE
  5
FCE
330
18
100
AcDbEntity
  8
1
  6
Continuous
100
AcDbLine
 10
21.42867438440304
 20
162.9400779402995
 30
0.0
 11
20.62866988440294
 21
164.3257233402996
 31
0.0
  0
LINE
  5
FCF
330
18
100
AcDbEntity
  8
1
  6
Continuous
100
AcDbLine
 10
21.42861818440303
 20
177.4400436402995
 30
0.0
 11
24.82861198440298
 21
177.4400436402995
 31
0.0
  0
LINE
  5
FD0
330
18
100
AcDbEntity
  8
1
  6
Continuous
100
AcDbLine
 10
21.42861818440303
 20
173.7900421402996
 30
0.0
 11
24.82860438440309
 21
173.7900421402996
 31
0.0
  0
LINE
  5
FD1
330
18
100
AcDbEntity
  8
1
  6
Continuous
100
AcDbLine
 10
21.42861818440303
 20
166.5900451402996
 30
0.0
 11
24.82860438440309
 21
166.5900451402996
 31
0.0
  0
ARC
  5
FD3
330
18
100
AcDbEntity
  8
1
  6
Continuous
100
AcDbCircle
 10
24.76128358440304
 20
176.4423129402996
 30
0.0
 40
1.0
100
AcDbArc
 50
29.84999999999644
 51
86.1394929999985
  0
ARC
  5
FD4
330
18
100
AcDbEntity
  8
1
  6
Continuous
100
AcDbCircle
 10
24.76128358440304
 20
174.7877733402996
 30
0.0
 40
1.0
100
AcDbArc
 50
266.1397700000037
 51
330.1499900000032
  0
ARC
  5
FD5
330
18
100
AcDbEntity
  8
1
  6
Continuous
100
AcDbCircle
 10
24.62881818440303
 20
167.5698842402996
 30
0.0
 40
1.0
100
AcDbArc
 50
281.5245799999999
 51
1.155210000004073
  0
ARC
  5
FD6
330
18
100
AcDbEntity
  8
1
  6
Continuous
100
AcDbCircle
 10
24.76128358440304
 20
165.5923139402996
 30
0.0
 40
1.0
100
AcDbArc
 50
29.85000999999672
 51
93.86022899999934
  0
ARC
  5
FD8
330
18
100
AcDbEntity
  8
1
  6
Continuous
100
AcDbCircle
 10
24.62881818440303
 20
172.8102030402994
 30
0.0
 40
1.0
100
AcDbArc
 50
358.8447899999958
 51
78.47542999999574
  0
LINE
  5
FD9
330
18
100
AcDbEntity
  8
1
  6
Continuous
100
AcDbLine
 10
21.428582884403
 20
177.4400493402995
 30
0.0
 11
20.62858218440294
 21
176.0544025402996
 31
0.0
  0
ARC
  5
FDA
330
18
100
AcDbEntity
  8
1
  6
Continuous
100
AcDbCircle
 10
25.3918825844031
 20
175.6150428402996
 30
0.0
 40
4.363265
100
AcDbArc
 50
155.2749389999979
 51
204.7250299999989
  0
ARC
  5
FDB
330
18
100
AcDbEntity
  8
1
  6
Continuous
100
AcDbCircle
 10
37.42854908440301
 20
170.1900436402994
 30
0.0
 40
16.399935
100
AcDbArc
 50
167.3195809999997
 51
192.6803999999995
  0
LINE
  5
FDD
330
18
100
AcDbEntity
  8
1
  6
Continuous
100
AcDbLine
 10
420.6267233584354
 20
166.2222025402995
 30
0.0
 11
426.3817213584355
 21
162.8995534402996
 31
0.0
  0
LINE
  5
FDE
330
18
100
AcDbEntity
  8
1
  6
Continuous
100
AcDbLine
 10
427.1267233584356
 20
162.8995544402996
 30
0.0
 11
432.8817213584356
 21
166.2222036402996
 31
0.0
  0
CIRCLE
  5
FDF
330
18
100
AcDbEntity
  8
1
  6
Continuous
100
AcDbCircle
 10
426.7542223584355
 20
170.1900436402994
 30
0.0
 40
6.400000099999997
  0
ARC
  5
FE0
330
18
100
AcDbEntity
  8
1
  6
Continuous
100
AcDbCircle
 10
426.7542223584355
 20
170.1900436402994
 30
0.0
 40
7.3000002
100
AcDbArc
 50
267.0750600000002
 51
272.9249299999986
  0
LINE
  5
FE1
330
18
100
AcDbEntity
  8
1
  6
Continuous
100
AcDbLine
 10
423.3338613584355
 20
173.1142785402996
 30
0.0
 11
423.0703353584356
 21
173.5707206402996
 31
0.0
  0
ARC
  5
FE2
330
18
100
AcDbEntity
  8
1
  6
Continuous
100
AcDbCircle
 10
426.7542223584355
 20
170.1900436402994
 30
0.0
 40
5.0
100
AcDbArc
 50
102.5423900000058
 51
137.4576000000045
  0
LINE
  5
FE3
330
18
100
AcDbEntity
  8
1
  6
Continuous
100
AcDbLine
 10
423.3338613584355
 20
167.2658087402997
 30
0.0
 11
423.0703353584356
 21
166.8093666402995
 31
0.0
  0
LINE
  5
FE4
330
18
100
AcDbEntity
  8
1
  6
Continuous
100
AcDbLine
 10
420.6267233584354
 20
174.1578847402996
 30
0.0
 11
426.3817213584355
 21
177.4805338402996
 31
0.0
  0
CIRCLE
  5
FE6
330
18
100
AcDbEntity
  8
1
  6
Continuous
100
AcDbCircle
 10
426.7542223584355
 20
170.1900436402994
 30
0.0
 40
4.5
  0
ARC
  5
FE7
330
18
100
AcDbEntity
  8
1
  6
Continuous
100
AcDbCircle
 10
426.7542223584355
 20
170.1900436402994
 30
0.0
 40
5.0
100
AcDbArc
 50
222.5423999999953
 51
257.457609999994
  0
ARC
  5
FE8
330
18
100
AcDbEntity
  8
1
  6
Continuous
100
AcDbCircle
 10
426.7542223584355
 20
170.1900436402994
 30
0.0
 40
7.3000002
100
AcDbArc
 50
147.0750599999981
 51
152.9249300000014
  0
ARC
  5
FE9
330
18
100
AcDbEntity
  8
1
  6
Continuous
100
AcDbCircle
 10
426.7542223584355
 20
170.1900436402994
 30
0.0
 40
7.3000002
100
AcDbArc
 50
207.0750699999984
 51
212.9249400000019
  0
LINE
  5
FEA
330
18
100
AcDbEntity
  8
1
  6
Continuous
100
AcDbLine
 10
420.2542223584355
 20
173.5126931402995
 30
0.0
 11
420.2542223584355
 21
166.8673941402995
 31
0.0
  0
ARC
  5
FEB
330
18
100
AcDbEntity
  8
1
  6
Continuous
100
AcDbCircle
 10
426.7542223584355
 20
170.1900436402994
 30
0.0
 40
7.3000002
100
AcDbArc
 50
27.07506599999929
 51
32.92493400000118
  0
ARC
  5
FEC
330
18
100
AcDbEntity
  8
1
  6
Continuous
100
AcDbCircle
 10
426.7542223584355
 20
170.1900436402994
 30
0.0
 40
7.3000002
100
AcDbArc
 50
87.07507000000139
 51
92.92493499999912
  0
LINE
  5
FED
330
18
100
AcDbEntity
  8
1
  6
Continuous
100
AcDbLine
 10
427.1267233584356
 20
177.4805328402996
 30
0.0
 11
432.8817213584356
 21
174.1578836402996
 31
0.0
  0
ARC
  5
FEE
330
18
100
AcDbEntity
  8
1
  6
Continuous
100
AcDbCircle
 10
426.7542223584355
 20
170.1900436402994
 30
0.0
 40
7.3000002
100
AcDbArc
 50
327.0750699999986
 51
332.9249300000014
  0
ARC
  5
FEF
330
18
100
AcDbEntity
  8
1
  6
Continuous
100
AcDbCircle
 10
426.7542223584355
 20
170.1900436402994
 30
0.0
 40
5.0
100
AcDbArc
 50
342.5423999999988
 51
17.4576030000056
  0
LINE
  5
FF0
330
18
100
AcDbEntity
  8
1
  6
Continuous
100
AcDbLine
 10
430.9968633584356
 20
171.6900436402996
 30
0.0
 11
431.5239173584355
 21
171.6900436402996
 31
0.0
  0
LINE
  5
FF1
330
18
100
AcDbEntity
  8
1
  6
Continuous
100
AcDbLine
 10
430.9968633584356
 20
168.6900436402996
 30
0.0
 11
431.5239173584355
 21
168.6900436402996
 31
0.0
  0
LINE
  5
FF2
330
18
100
AcDbEntity
  8
1
  6
Continuous
100
AcDbLine
 10
433.2542223584355
 20
173.5126931402995
 30
0.0
 11
433.2542223584355
 21
166.8673941402995
 31
0.0
  0
LINE
  5
FF3
330
18
100
AcDbEntity
  8
1
  6
Continuous
100
AcDbLine
 10
425.9319373584355
 20
174.6142785402996
 30
0.0
 11
425.6684103584357
 21
175.0707203402996
 31
0.0
  0
LINE
  5
FF4
330
18
100
AcDbEntity
  8
1
  6
Continuous
100
AcDbLine
 10
425.9319373584355
 20
165.7658087402995
 30
0.0
 11
425.6684103584357
 21
165.3093669402997
 31
0.0
  0
LINE
  5
FF6
330
18
100
AcDbEntity
  8
1
  6
Continuous
100
AcDbLine
 10
164.8371508424139
 20
36.78365360216429
 30
0.0
 11
164.8371508424139
 21
40.48199752033821
 31
0.0
  0
LINE
  5
FF7
330
18
100
AcDbEntity
  8
1
  6
Continuous
100
AcDbLine
 10
171.3371536949921
 20
37.21666397466441
 30
0.0
 11
171.3371536949921
 21
40.61665017466447
 31
0.0
  0
LINE
  5
FF9
330
18
100
AcDbEntity
  8
1
  6
Continuous
100
AcDbLine
 10
177.8371508424139
 20
36.78365360216441
 30
0.0
 11
177.8371508424139
 21
40.48199752033639
 31
0.0
  0
ARC
  5
FFA
330
18
100
AcDbEntity
  8
1
  6
Continuous
100
AcDbCircle
 10
168.0860162768131
 20
50.22884117565292
 30
0.0
 40
13.41218555531533
100
AcDbArc
 50
255.9716747596946
 51
284.0283252403052
  0
LINE
  5
FFB
330
18
100
AcDbEntity
  8
1
  6
Continuous
100
AcDbLine
 10
165.4727976424138
 20
36.41665742033757
 30
0.0
 11
177.201492542414
 21
36.41665742033757
 31
0.0
  0
LINE
  5
FFC
330
18
100
AcDbEntity
  8
1
  6
Continuous
100
AcDbLine
 10
164.8371508424139
 20
36.78365360216429
 30
0.0
 11
165.4728091424138
 21
36.41665742033757
 31
0.0
  0
LINE
  5
FFD
330
18
100
AcDbEntity
  8
1
  6
Continuous
100
AcDbLine
 10
177.8371508424139
 20
36.78365360216441
 30
0.0
 11
177.201492542414
 21
36.41665742033757
 31
0.0
  0
ARC
  5
FFE
330
18
100
AcDbEntity
  8
1
  6
Continuous
100
AcDbCircle
 10
174.5882854080146
 20
50.22884117565292
 30
0.0
 40
13.41218555531533
100
AcDbArc
 50
255.9716747596946
 51
284.0283252403052
  0
ARC
  5
1000
330
18
100
AcDbEntity
  8
1
  6
Continuous
100
AcDbCircle
 10
165.8348817112124
 20
40.54932592033746
 30
0.0
 40
1.0
100
AcDbArc
 50
119.8500099999957
 51
183.8605536375327
  0
ARC
  5
1001
330
18
100
AcDbEntity
  8
1
  6
Continuous
100
AcDbCircle
 10
170.3371479898355
 20
40.54932592033746
 30
0.0
 40
1.0
100
AcDbArc
 50
0.0
 51
60.14999000000429
  0
ARC
  5
1002
330
18
100
AcDbEntity
  8
1
  6
Continuous
100
AcDbCircle
 10
172.3371536949921
 20
40.54932592033746
 30
0.0
 40
1.0
100
AcDbArc
 50
119.8500099999957
 51
180.0
  0
ARC
  5
1003
330
18
100
AcDbEntity
  8
1
  6
Continuous
100
AcDbCircle
 10
176.8394199736154
 20
40.54932592033746
 30
0.0
 40
1.0
100
AcDbArc
 50
356.1394463623626
 51
60.14999000000429
  0
ARC
  5
1004
330
18
100
AcDbEntity
  8
1
  6
Continuous
100
AcDbCircle
 10
305.2457526004249
 20
170.1900436402994
 30
0.0
 40
16.399935
100
AcDbArc
 50
347.3196000000003
 51
12.6804190000001
  0
LINE
  5
1006
330
18
100
AcDbEntity
  8
1
  6
Continuous
100
AcDbLine
 10
322.0456866004248
 20
164.3256904402995
 30
0.0
 11
322.0456866004248
 21
176.0543853402996
 31
0.0
  0
LINE
  5
1008
330
18
100
AcDbEntity
  8
1
  6
Continuous
100
AcDbLine
 10
321.2456273004248
 20
162.9400779402995
 30
0.0
 11
322.045631800425
 21
164.3257233402996
 31
0.0
  0
ARC
  5
1009
330
18
100
AcDbEntity
  8
1
  6
Continuous
100
AcDbCircle
 10
317.9130181004249
 20
165.5923139402996
 30
0.0
 40
1.0
100
AcDbArc
 50
86.13977100000067
 51
150.1499900000033
  0
ARC
  5
100A
330
18
100
AcDbEntity
  8
1
  6
Continuous
100
AcDbCircle
 10
318.0454835004248
 20
167.5698842402996
 30
0.0
 40
1.0
100
AcDbArc
 50
178.8447899999959
 51
258.4754200000001
  0
LINE
  5
100B
330
18
100
AcDbEntity
  8
1
  6
Continuous
100
AcDbLine
 10
321.2456835004248
 20
166.5900451402996
 30
0.0
 11
317.8456973004248
 21
166.5900451402996
 31
0.0
  0
ARC
  5
100C
330
18
100
AcDbEntity
  8
1
  6
Continuous
100
AcDbCircle
 10
317.9130181004249
 20
163.9377743402994
 30
0.0
 40
1.0
100
AcDbArc
 50
209.8499999999964
 51
266.1394899999939
  0
LINE
  5
100D
330
18
100
AcDbEntity
  8
1
  6
Continuous
100
AcDbLine
 10
321.2456835004248
 20
162.9400436402995
 30
0.0
 11
317.8456897004248
 21
162.9400436402995
 31
0.0
  0
ARC
  5
100E
330
18
100
AcDbEntity
  8
1
  6
Continuous
100
AcDbCircle
 10
317.2824191004248
 20
164.7650444402995
 30
0.0
 40
4.363269299999998
100
AcDbArc
 50
335.2749599999983
 51
24.72506100000203
  0
LINE
  5
1010
330
18
100
AcDbEntity
  8
1
  6
Continuous
100
AcDbLine
 10
321.2457188004248
 20
177.4400493402995
 30
0.0
 11
322.0457195004248
 21
176.0544025402996
 31
0.0
  0
ARC
  5
1011
330
18
100
AcDbEntity
  8
1
  6
Continuous
100
AcDbCircle
 10
317.2824191004248
 20
175.6150428402996
 30
0.0
 40
4.363265
100
AcDbArc
 50
335.2749700000011
 51
24.72506100000203
  0
ARC
  5
1012
330
18
100
AcDbEntity
  8
1
  6
Continuous
100
AcDbCircle
 10
318.0454835004248
 20
172.8102030402994
 30
0.0
 40
1.0
100
AcDbArc
 50
101.5245700000041
 51
181.155210000004
  0
ARC
  5
1013
330
18
100
AcDbEntity
  8
1
  6
Continuous
100
AcDbCircle
 10
317.9130181004249
 20
174.7877733402996
 30
0.0
 40
1.0
100
AcDbArc
 50
209.8500099999966
 51
273.8602299999961
  0
ARC
  5
1014
330
18
100
AcDbEntity
  8
1
  6
Continuous
100
AcDbCircle
 10
317.9130181004249
 20
176.4423129402996
 30
0.0
 40
1.0
100
AcDbArc
 50
93.86050700000151
 51
150.1500000000035
  0
LINE
  5
1015
330
18
100
AcDbEntity
  8
1
  6
Continuous
100
AcDbLine
 10
321.2456835004248
 20
173.7900421402996
 30
0.0
 11
317.8456973004248
 21
173.7900421402996
 31
0.0
  0
LINE
  5
1016
330
18
100
AcDbEntity
  8
1
  6
Continuous
100
AcDbLine
 10
321.2456835004248
 20
177.4400436402995
 30
0.0
 11
317.8456897004248
 21
177.4400436402995
 31
0.0
  0
LINE
  5
1017
330
18
100
AcDbEntity
  8
1
  6
Continuous
100
AcDbLine
 10
164.8371508424139
 20
324.6419051519693
 30
0.0
 11
164.8371508424139
 21
323.9450889926613
 31
0.0
  0
LINE
  5
101A
330
18
100
AcDbEntity
  8
1
  6
Continuous
100
AcDbLine
 10
177.837150842414
 20
324.6419051519696
 30
0.0
 11
177.8371508424139
 21
323.9450889926613
 31
0.0
  0
LINE
  5
101B
330
18
100
AcDbEntity
  8
1
  6
Continuous
100
AcDbLine
 10
177.201504042414
 20
325.0089013337963
 30
0.0
 11
165.4728091424138
 21
325.0089013337963
 31
0.0
  0
ARC
  5
101C
330
18
100
AcDbEntity
  8
1
  6
Continuous
100
AcDbCircle
 10
174.5882854080146
 20
311.1967175784808
 30
0.0
 40
13.41218555531533
100
AcDbArc
 50
75.97167475969469
 51
93.08308941873079
  0
LINE
  5
101D
330
18
100
AcDbEntity
  8
1
  6
Continuous
100
AcDbLine
 10
177.837150842414
 20
324.6419051519696
 30
0.0
 11
177.201492542414
 21
325.0089013337963
 31
0.0
  0
ARC
  5
101E
330
18
100
AcDbEntity
  8
1
  6
Continuous
100
AcDbCircle
 10
168.0860162768131
 20
311.1967175784808
 30
0.0
 40
13.41218555531533
100
AcDbArc
 50
86.91691058126933
 51
104.0283252403052
  0
LINE
  5
101F
330
18
100
AcDbEntity
  8
1
  6
Continuous
100
AcDbLine
 10
164.8371508424139
 20
324.6419051519693
 30
0.0
 11
165.4728091424138
 21
325.0089013337963
 31
0.0
  0
ARC
  5
120D
330
18
100
AcDbEntity
  8
1
  6
Continuous
100
AcDbCircle
 10
171.3371508424138
 20
170.1900436402994
 30
0.0
 40
37.5
100
AcDbArc
 50
118.9563421314768
 51
61.04365423562186
  0
ARC
  5
120E
330
18
100
AcDbEntity
  8
1
  6
Continuous
100
AcDbCircle
 10
171.3371508424138
 20
170.1900436402994
 30
0.0
 40
33.0
100
AcDbArc
 50
120.7314080206844
 51
59.26858808601505
  0
ARC
  5
128A
330
18
100
AcDbEntity
  8
1
  6
Continuous
100
AcDbCircle
 10
171.3371508424138
 20
170.1900436402994
 30
0.0
 40
12.94999999999999
100
AcDbArc
 50
145.9419753701803
 51
34.05801619471656
  0
ARC
  5
128B
330
18
100
AcDbEntity
  8
1
  6
Continuous
100
AcDbCircle
 10
171.3371508424138
 20
170.1900436402994
 30
0.0
 40
28.0
100
AcDbArc
 50
123.4001258601647
 51
56.59986984690107
  0
ARC
  5
12A6
330
18
100
AcDbEntity
  8
1
  6
Continuous
100
AcDbCircle
 10
426.7542223584355
 20
170.1900436402994
 30
0.0
 40
37.5
100
AcDbArc
 50
118.9563421314768
 51
61.04365423562186
  0
ARC
  5
12A7
330
18
100
AcDbEntity
  8
1
  6
Continuous
100
AcDbCircle
 10
426.7542223584355
 20
170.1900436402994
 30
0.0
 40
33.0
100
AcDbArc
 50
120.7314080206844
 51
59.26858808601505
  0
ARC
  5
12A8
330
18
100
AcDbEntity
  8
1
  6
Continuous
100
AcDbCircle
 10
426.7542223584355
 20
170.1900436402994
 30
0.0
 40
28.0
100
AcDbArc
 50
123.4001258601647
 51
56.59986984690107
  0
ARC
  5
12A9
330
18
100
AcDbEntity
  8
1
  6
Continuous
100
AcDbCircle
 10
426.7542223584355
 20
170.1900436402994
 30
0.0
 40
12.94999999999999
100
AcDbArc
 50
145.9419753701803
 51
34.05801619471656
  0
LINE
  5
12AE
330
18
100
AcDbEntity
  8
1
  6
Continuous
100
AcDbLine
 10
57.12861508440312
 20
205.626659958854
 30
0.0
 11
57.12861508440312
 21
134.7534273217454
 31
0.0
  0
LINE
  5
12AF
330
18
100
AcDbEntity
  8
1
  6
Continuous
100
AcDbLine
 10
30.12861508440312
 20
205.626659958854
 30
0.0
 11
30.12861508440312
 21
134.7534273217454
 31
0.0
  0
ARC
  5
12B0
330
18
100
AcDbEntity
  8
1
  6
Continuous
100
AcDbCircle
 10
43.62861508440309
 20
207.6900436402996
 30
0.0
 40
75.0
100
AcDbArc
 50
260.2750313250082
 51
279.7249686749916
  0
ARC
  5
12B1
330
18
100
AcDbEntity
  8
1
  6
Continuous
100
AcDbCircle
 10
31.12861508440312
 20
134.7534273217454
 30
0.0
 40
1.0
100
AcDbArc
 50
180.0
 51
260.2750313250082
  0
ARC
  5
12B2
330
18
100
AcDbEntity
  8
1
  6
Continuous
100
AcDbCircle
 10
56.1286150844031
 20
134.7534273217454
 30
0.0
 40
1.0
100
AcDbArc
 50
279.7249686749916
 51
0.0
  0
LINE
  5
12B3
330
18
100
AcDbEntity
  8
1
  6
Continuous
100
AcDbLine
 10
28.62861508440312
 20
170.1900436402994
 30
0.0
 11
28.62861508440312
 21
181.4400436402996
 31
0.0
  0
LINE
  5
12B4
330
18
100
AcDbEntity
  8
1
  6
Continuous
100
AcDbLine
 10
28.62861508440312
 20
170.1900436402994
 30
0.0
 11
28.62861508440312
 21
158.9400436402994
 31
0.0
  0
LINE
  5
12B5
330
18
100
AcDbEntity
  8
1
  6
Continuous
100
AcDbLine
 10
29.97892608440315
 20
157.2363001402995
 30
0.0
 11
30.12861508440312
 21
157.2011835456843
 31
0.0
  0
ARC
  5
12B6
330
18
100
AcDbEntity
  8
1
  6
Continuous
100
AcDbCircle
 10
30.37861508440311
 20
158.9400436402994
 30
0.0
 40
1.75
100
AcDbArc
 50
179.9999799999995
 51
256.7972200000006
  0
LINE
  5
12B7
330
18
100
AcDbEntity
  8
1
  6
Continuous
100
AcDbLine
 10
27.62861508440312
 20
166.1900436402994
 30
0.0
 11
28.62861508440323
 21
166.1900436402994
 31
0.0
  0
LINE
  5
12B8
330
18
100
AcDbEntity
  8
1
  6
Continuous
100
AcDbLine
 10
29.97892608440315
 20
183.1437871402996
 30
0.0
 11
30.12861508440312
 21
183.178903734915
 31
0.0
  0
ARC
  5
12B9
330
18
100
AcDbEntity
  8
1
  6
Continuous
100
AcDbCircle
 10
30.37861508440311
 20
181.4400436402996
 30
0.0
 40
1.75
100
AcDbArc
 50
103.2027799999992
 51
180.0000200000003
  0
LINE
  5
12BA
330
18
100
AcDbEntity
  8
1
  6
Continuous
100
AcDbLine
 10
27.62861508440312
 20
174.1900436402995
 30
0.0
 11
28.62861508440323
 21
174.1900436402995
 31
0.0
  0
LINE
  5
12BB
330
18
100
AcDbEntity
  8
1
  6
Continuous
100
AcDbLine
 10
58.6286150844031
 20
181.4400436402996
 30
0.0
 11
58.6286150844031
 21
170.1900436402994
 31
0.0
  0
LINE
  5
12BC
330
18
100
AcDbEntity
  8
1
  6
Continuous
100
AcDbLine
 10
58.6286150844031
 20
158.9400436402994
 30
0.0
 11
58.6286150844031
 21
170.1900436402994
 31
0.0
  0
ARC
  5
12BD
330
18
100
AcDbEntity
  8
1
  6
Continuous
100
AcDbCircle
 10
56.8786150844031
 20
158.9400436402994
 30
0.0
 40
1.75
100
AcDbArc
 50
283.2026599999987
 51
359.9999599999991
  0
LINE
  5
12BE
330
18
100
AcDbEntity
  8
1
  6
Continuous
100
AcDbLine
 10
57.27831108440311
 20
157.2363006402995
 30
0.0
 11
57.12861508440312
 21
157.2011822427545
 31
0.0
  0
LINE
  5
12BF
330
18
100
AcDbEntity
  8
1
  6
Continuous
100
AcDbLine
 10
58.6286150844031
 20
166.1900436402994
 30
0.0
 11
59.62861508440312
 21
166.1900436402994
 31
0.0
  0
LINE
  5
12C0
330
18
100
AcDbEntity
  8
1
  6
Continuous
100
AcDbLine
 10
57.27831108440311
 20
183.1437866402995
 30
0.0
 11
57.12861508440312
 21
183.1789050378445
 31
0.0
  0
ARC
  5
12C1
330
18
100
AcDbEntity
  8
1
  6
Continuous
100
AcDbCircle
 10
56.8786150844031
 20
181.4400436402996
 30
0.0
 40
1.75
100
AcDbArc
 50
0.0000399999991404
 51
76.79733999999804
  0
LINE
  5
12C2
330
18
100
AcDbEntity
  8
1
  6
Continuous
100
AcDbLine
 10
58.6286150844031
 20
174.1900436402995
 30
0.0
 11
59.62861508440312
 21
174.1900436402995
 31
0.0
  0
ARC
  5
12C3
330
18
100
AcDbEntity
  8
1
  6
Continuous
100
AcDbCircle
 10
43.62861508440309
 20
132.6900436402995
 30
0.0
 40
75.0
100
AcDbArc
 50
80.27503132500823
 51
99.72496867499174
  0
ARC
  5
12C4
330
18
100
AcDbEntity
  8
1
  6
Continuous
100
AcDbCircle
 10
31.12861508440312
 20
205.6266599588539
 30
0.0
 40
1.0
100
AcDbArc
 50
99.72496867499174
 51
179.999999999999
  0
ARC
  5
12C5
330
18
100
AcDbEntity
  8
1
  6
Continuous
100
AcDbCircle
 10
56.1286150844031
 20
205.6266599588539
 30
0.0
 40
1.0
100
AcDbArc
 50
0.0000000000008142
 51
80.27503132500823
  0
LINE
  5
12C6
330
18
100
AcDbEntity
  8
1
  6
Continuous
100
AcDbLine
 10
312.5456866004248
 20
205.626659958854
 30
0.0
 11
312.5456866004248
 21
134.7534273217454
 31
0.0
  0
LINE
  5
12C7
330
18
100
AcDbEntity
  8
1
  6
Continuous
100
AcDbLine
 10
285.5456866004248
 20
205.626659958854
 30
0.0
 11
285.5456866004248
 21
134.7534273217454
 31
0.0
  0
ARC
  5
12C8
330
18
100
AcDbEntity
  8
1
  6
Continuous
100
AcDbCircle
 10
299.0456866004246
 20
207.6900436402996
 30
0.0
 40
75.0
100
AcDbArc
 50
260.2750313250082
 51
279.7249686749916
  0
ARC
  5
12C9
330
18
100
AcDbEntity
  8
1
  6
Continuous
100
AcDbCircle
 10
286.5456866004246
 20
134.7534273217454
 30
0.0
 40
1.0
100
AcDbArc
 50
180.0
 51
260.2750313250082
  0
ARC
  5
12CA
330
18
100
AcDbEntity
  8
1
  6
Continuous
100
AcDbCircle
 10
311.5456866004246
 20
134.7534273217454
 30
0.0
 40
1.0
100
AcDbArc
 50
279.7249686749916
 51
0.0
  0
LINE
  5
12CB
330
18
100
AcDbEntity
  8
1
  6
Continuous
100
AcDbLine
 10
284.0456866004247
 20
170.1900436402994
 30
0.0
 11
284.0456866004247
 21
181.4400436402996
 31
0.0
  0
LINE
  5
12CC
330
18
100
AcDbEntity
  8
1
  6
Continuous
100
AcDbLine
 10
284.0456866004247
 20
170.1900436402994
 30
0.0
 11
284.0456866004247
 21
158.9400436402994
 31
0.0
  0
LINE
  5
12CD
330
18
100
AcDbEntity
  8
1
  6
Continuous
100
AcDbLine
 10
285.3959976004247
 20
157.2363001402995
 30
0.0
 11
285.5456866004248
 21
157.2011835456843
 31
0.0
  0
ARC
  5
12CE
330
18
100
AcDbEntity
  8
1
  6
Continuous
100
AcDbCircle
 10
285.7956866004247
 20
158.9400436402994
 30
0.0
 40
1.75
100
AcDbArc
 50
179.9999799999995
 51
256.7972200000006
  0
LINE
  5
12CF
330
18
100
AcDbEntity
  8
1
  6
Continuous
100
AcDbLine
 10
283.0456866004248
 20
166.1900436402994
 30
0.0
 11
284.0456866004248
 21
166.1900436402994
 31
0.0
  0
LINE
  5
12D0
330
18
100
AcDbEntity
  8
1
  6
Continuous
100
AcDbLine
 10
285.3959976004247
 20
183.1437871402996
 30
0.0
 11
285.5456866004248
 21
183.178903734915
 31
0.0
  0
ARC
  5
12D1
330
18
100
AcDbEntity
  8
1
  6
Continuous
100
AcDbCircle
 10
285.7956866004247
 20
181.4400436402996
 30
0.0
 40
1.75
100
AcDbArc
 50
103.2027799999992
 51
180.0000200000003
  0
LINE
  5
12D2
330
18
100
AcDbEntity
  8
1
  6
Continuous
100
AcDbLine
 10
283.0456866004248
 20
174.1900436402995
 30
0.0
 11
284.0456866004248
 21
174.1900436402995
 31
0.0
  0
LINE
  5
12D3
330
18
100
AcDbEntity
  8
1
  6
Continuous
100
AcDbLine
 10
314.0456866004248
 20
181.4400436402996
 30
0.0
 11
314.0456866004248
 21
170.1900436402994
 31
0.0
  0
LINE
  5
12D4
330
18
100
AcDbEntity
  8
1
  6
Continuous
100
AcDbLine
 10
314.0456866004248
 20
158.9400436402994
 30
0.0
 11
314.0456866004248
 21
170.1900436402994
 31
0.0
  0
ARC
  5
12D5
330
18
100
AcDbEntity
  8
1
  6
Continuous
100
AcDbCircle
 10
312.2956866004248
 20
158.9400436402994
 30
0.0
 40
1.75
100
AcDbArc
 50
283.2026599999987
 51
359.9999599999991
  0
LINE
  5
12D6
330
18
100
AcDbEntity
  8
1
  6
Continuous
100
AcDbLine
 10
312.6953826004247
 20
157.2363006402995
 30
0.0
 11
312.5456866004248
 21
157.2011822427545
 31
0.0
  0
LINE
  5
12D7
330
18
100
AcDbEntity
  8
1
  6
Continuous
100
AcDbLine
 10
314.0456866004248
 20
166.1900436402994
 30
0.0
 11
315.0456866004248
 21
166.1900436402994
 31
0.0
  0
LINE
  5
12D8
330
18
100
AcDbEntity
  8
1
  6
Continuous
100
AcDbLine
 10
312.6953826004247
 20
183.1437866402995
 30
0.0
 11
312.5456866004248
 21
183.1789050378445
 31
0.0
  0
ARC
  5
12D9
330
18
100
AcDbEntity
  8
1
  6
Continuous
100
AcDbCircle
 10
312.2956866004248
 20
181.4400436402996
 30
0.0
 40
1.75
100
AcDbArc
 50
0.0000399999991404
 51
76.79733999999804
  0
LINE
  5
12DA
330
18
100
AcDbEntity
  8
1
  6
Continuous
100
AcDbLine
 10
314.0456866004248
 20
174.1900436402995
 30
0.0
 11
315.0456866004247
 21
174.1900436402995
 31
0.0
  0
ARC
  5
12DB
330
18
100
AcDbEntity
  8
1
  6
Continuous
100
AcDbCircle
 10
299.0456866004246
 20
132.6900436402995
 30
0.0
 40
75.0
100
AcDbArc
 50
80.27503132500823
 51
99.72496867499174
  0
ARC
  5
12DC
330
18
100
AcDbEntity
  8
1
  6
Continuous
100
AcDbCircle
 10
286.5456866004246
 20
205.6266599588539
 30
0.0
 40
1.0
100
AcDbArc
 50
99.72496867499174
 51
179.999999999999
  0
ARC
  5
12DD
330
18
100
AcDbEntity
  8
1
  6
Continuous
100
AcDbCircle
 10
311.5456866004246
 20
205.6266599588539
 30
0.0
 40
1.0
100
AcDbArc
 50
0.0000000000008142
 51
80.27503132500823
  0
LINE
  5
12DE
330
18
100
AcDbEntity
  8
1
  6
Continuous
100
AcDbLine
 10
206.7737671609681
 20
45.9166674003374
 30
0.0
 11
135.9005345238595
 21
45.91666740033743
 31
0.0
  0
LINE
  5
12DF
330
18
100
AcDbEntity
  8
1
  6
Continuous
100
AcDbLine
 10
206.7737671609681
 20
72.91666740033744
 30
0.0
 11
135.9005345238595
 21
72.91666740033744
 31
0.0
  0
ARC
  5
12E0
330
18
100
AcDbEntity
  8
1
  6
Continuous
100
AcDbCircle
 10
208.837150842414
 20
59.41666740033742
 30
0.0
 40
75.0
100
AcDbArc
 50
170.2750313250081
 51
189.7249686749916
  0
ARC
  5
12E1
330
18
100
AcDbEntity
  8
1
  6
Continuous
100
AcDbCircle
 10
135.9005345238595
 20
71.91666740033745
 30
0.0
 40
1.0
100
AcDbArc
 50
89.99999999999998
 51
170.2750313250081
  0
ARC
  5
12E2
330
18
100
AcDbEntity
  8
1
  6
Continuous
100
AcDbCircle
 10
135.9005345238595
 20
46.91666740033743
 30
0.0
 40
1.0
100
AcDbArc
 50
189.7249686749916
 51
270.0
  0
LINE
  5
12E3
330
18
100
AcDbEntity
  8
1
  6
Continuous
100
AcDbLine
 10
171.3371508424138
 20
74.41666740033745
 30
0.0
 11
182.5871508424139
 21
74.41666740033745
 31
0.0
  0
LINE
  5
12E4
330
18
100
AcDbEntity
  8
1
  6
Continuous
100
AcDbLine
 10
171.3371508424138
 20
74.41666740033745
 30
0.0
 11
160.0871508424139
 21
74.41666740033745
 31
0.0
  0
LINE
  5
12E5
330
18
100
AcDbEntity
  8
1
  6
Continuous
100
AcDbLine
 10
158.3834073424139
 20
73.06635640033739
 30
0.0
 11
158.3482907477985
 21
72.91666740033744
 31
0.0
  0
ARC
  5
12E6
330
18
100
AcDbEntity
  8
1
  6
Continuous
100
AcDbCircle
 10
160.0871508424139
 20
72.66666740033741
 30
0.0
 40
1.75
100
AcDbArc
 50
89.9999799999996
 51
166.7972200000007
  0
LINE
  5
12E7
330
18
100
AcDbEntity
  8
1
  6
Continuous
100
AcDbLine
 10
167.3371508424139
 20
75.41666740033742
 30
0.0
 11
167.3371508424139
 21
74.41666740033731
 31
0.0
  0
LINE
  5
12E8
330
18
100
AcDbEntity
  8
1
  6
Continuous
100
AcDbLine
 10
184.2908943424139
 20
73.06635640033739
 30
0.0
 11
184.3260109370293
 21
72.91666740033744
 31
0.0
  0
ARC
  5
12E9
330
18
100
AcDbEntity
  8
1
  6
Continuous
100
AcDbCircle
 10
182.5871508424139
 20
72.66666740033741
 30
0.0
 40
1.75
100
AcDbArc
 50
13.20277999999929
 51
90.00002000000037
  0
LINE
  5
12EA
330
18
100
AcDbEntity
  8
1
  6
Continuous
100
AcDbLine
 10
175.3371508424138
 20
75.41666740033742
 30
0.0
 11
175.3371508424138
 21
74.41666740033731
 31
0.0
  0
LINE
  5
12EB
330
18
100
AcDbEntity
  8
1
  6
Continuous
100
AcDbLine
 10
182.5871508424139
 20
44.4166674003374
 30
0.0
 11
171.3371508424138
 21
44.4166674003374
 31
0.0
  0
LINE
  5
12EC
330
18
100
AcDbEntity
  8
1
  6
Continuous
100
AcDbLine
 10
160.0871508424139
 20
44.41666740033743
 30
0.0
 11
171.3371508424138
 21
44.4166674003374
 31
0.0
  0
ARC
  5
12ED
330
18
100
AcDbEntity
  8
1
  6
Continuous
100
AcDbCircle
 10
160.0871508424139
 20
46.16666740033742
 30
0.0
 40
1.75
100
AcDbArc
 50
193.2026599999987
 51
269.9999599999991
  0
LINE
  5
12EE
330
18
100
AcDbEntity
  8
1
  6
Continuous
100
AcDbLine
 10
158.3834078424139
 20
45.76697140033743
 30
0.0
 11
158.3482894448688
 21
45.91666740033743
 31
0.0
  0
LINE
  5
12EF
330
18
100
AcDbEntity
  8
1
  6
Continuous
100
AcDbLine
 10
167.3371508424139
 20
44.41666740033743
 30
0.0
 11
167.3371508424139
 21
43.4166674003374
 31
0.0
  0
LINE
  5
12F0
330
18
100
AcDbEntity
  8
1
  6
Continuous
100
AcDbLine
 10
184.2908938424139
 20
45.76697140033739
 30
0.0
 11
184.3260122399589
 21
45.9166674003374
 31
0.0
  0
ARC
  5
12F1
330
18
100
AcDbEntity
  8
1
  6
Continuous
100
AcDbCircle
 10
182.5871508424139
 20
46.16666740033742
 30
0.0
 40
1.75
100
AcDbArc
 50
270.0000399999991
 51
346.797339999998
  0
LINE
  5
12F2
330
18
100
AcDbEntity
  8
1
  6
Continuous
100
AcDbLine
 10
175.3371508424138
 20
44.4166674003374
 30
0.0
 11
175.3371508424138
 21
43.4166674003374
 31
0.0
  0
ARC
  5
12F3
330
18
100
AcDbEntity
  8
1
  6
Continuous
100
AcDbCircle
 10
133.8371508424138
 20
59.41666740033743
 30
0.0
 40
75.0
100
AcDbArc
 50
350.2750313250081
 51
9.724968674991735
  0
ARC
  5
12F4
330
18
100
AcDbEntity
  8
1
  6
Continuous
100
AcDbCircle
 10
206.7737671609681
 20
71.91666740033742
 30
0.0
 40
1.0
100
AcDbArc
 50
9.724968674991735
 51
89.99999999999918
  0
ARC
  5
12F5
330
18
100
AcDbEntity
  8
1
  6
Continuous
100
AcDbCircle
 10
206.7737671609681
 20
46.91666740033741
 30
0.0
 40
1.0
100
AcDbArc
 50
270.0000000000008
 51
350.2750313250081
  0
ARC
  5
135C
330
18
100
AcDbEntity
  8
1
  6
Continuous
100
AcDbCircle
 10
208.837150842414
 20
302.0029813337963
 30
0.0
 40
75.0
100
AcDbArc
 50
170.2750313250081
 51
189.7249686749916
  0
ARC
  5
135D
330
18
100
AcDbEntity
  8
1
  6
Continuous
100
AcDbCircle
 10
135.9005345238595
 20
289.5029813337961
 30
0.0
 40
1.0
100
AcDbArc
 50
189.7249686749916
 51
270.0
  0
ARC
  5
135E
330
18
100
AcDbEntity
  8
1
  6
Continuous
100
AcDbCircle
 10
135.9005345238595
 20
314.5029813337963
 30
0.0
 40
1.0
100
AcDbArc
 50
89.99999999999998
 51
170.2750313250081
  0
LINE
  5
135F
330
18
100
AcDbEntity
  8
1
  6
Continuous
100
AcDbLine
 10
206.7737671609681
 20
288.5029813337963
 30
0.0
 11
206.3371508424141
 21
288.5029813337963
 31
0.0
  0
LINE
  5
1360
330
18
100
AcDbEntity
  8
1
  6
Continuous
100
AcDbLine
 10
206.7737671609681
 20
315.5029813337963
 30
0.0
 11
206.3371508424141
 21
315.5029813337963
 31
0.0
  0
ARC
  5
1361
330
18
100
AcDbEntity
  8
1
  6
Continuous
100
AcDbCircle
 10
133.8371508424138
 20
302.0029813337963
 30
0.0
 40
75.0
100
AcDbArc
 50
350.2750313250081
 51
9.724968674991735
  0
ARC
  5
1362
330
18
100
AcDbEntity
  8
1
  6
Continuous
100
AcDbCircle
 10
206.7737671609681
 20
289.5029813337961
 30
0.0
 40
1.0
100
AcDbArc
 50
270.0000000000008
 51
350.2750313250081
  0
ARC
  5
1363
330
18
100
AcDbEntity
  8
1
  6
Continuous
100
AcDbCircle
 10
206.7737671609681
 20
314.5029813337963
 30
0.0
 40
1.0
100
AcDbArc
 50
9.724968674991735
 51
89.99999999999918
  0
LINE
  5
1364
330
18
100
AcDbEntity
  8
1
  6
Continuous
100
AcDbLine
 10
136.3371508424139
 20
315.5029813337963
 30
0.0
 11
135.9005345238595
 21
315.5029813337963
 31
0.0
  0
LINE
  5
1365
330
18
100
AcDbEntity
  8
1
  6
Continuous
100
AcDbLine
 10
136.3371508424139
 20
288.5029813337963
 30
0.0
 11
135.9005345238595
 21
288.5029813337963
 31
0.0
  0
ENDSEC
  0
SECTION
  2
OBJECTS
  0
DICTIONARY
  5
C
330
0
100
AcDbDictionary
281
     1
  3
ACAD_CIP_PREVIOUS_PRODUCT_INFO
350
13EB
  3
ACAD_COLOR
350
13CE
  3
ACAD_DETAILVIEWSTYLE
350
13E7
  3
ACAD_GROUP
350
D
  3
ACAD_LAYOUT
350
5D
  3
ACAD_MATERIAL
350
139C
  3
ACAD_MLEADERSTYLE
350
13E3
  3
ACAD_MLINESTYLE
350
1B
  3
ACAD_PLOTSETTINGS
350
5E
  3
ACAD_PLOTSTYLENAME
350
139A
  3
ACAD_SCALELIST
350
13D1
  3
ACAD_SECTIONVIEWSTYLE
350
13E5
  3
ACAD_TABLESTYLE
350
13CF
  3
ACAD_VISUALSTYLE
350
13B5
  3
ACDB_RECOMPOSE_DATA
350
1409
  3
AcDbVariableDictionary
350
13FC
  3
CONTENTDICTIONARY
350
3D
  3
DWGPROPS
350
140A
  0
DICTIONARY
  5
13EC
330
E
100
AcDbDictionary
280
     1
281
     1
  3
ADSK_XREC_LAYER_RECONCILED
360
13ED
  0
DICTIONARY
  5
13EE
330
65
100
AcDbDictionary
280
     1
281
     1
  3
ADSK_XREC_LAYER_RECONCILED
360
13EF
  0
DICTIONARY
  5
13F0
330
66
100
AcDbDictionary
280
     1
281
     1
  3
ADSK_XREC_LAYER_RECONCILED
360
13F1
  0
DICTIONARY
  5
13F2
330
67
100
AcDbDictionary
280
     1
281
     1
  3
ADSK_XREC_LAYER_RECONCILED
360
13F3
  0
DICTIONARY
  5
13F4
330
68
100
AcDbDictionary
280
     1
281
     1
  3
ADSK_XREC_LAYER_RECONCILED
360
13F5
  0
DICTIONARY
  5
13F6
330
69
100
AcDbDictionary
280
     1
281
     1
  3
ADSK_XREC_LAYER_RECONCILED
360
13F7
  0
DICTIONARY
  5
13F8
330
6A
100
AcDbDictionary
280
     1
281
     1
  3
ADSK_XREC_LAYER_RECONCILED
360
13F9
  0
DICTIONARY
  5
13FA
330
6B
100
AcDbDictionary
280
     1
281
     1
  3
ADSK_XREC_LAYER_RECONCILED
360
13FB
  0
DICTIONARY
  5
137E
330
18
100
AcDbDictionary
281
     1
  3
ACAD_LAYOUTSELFREF
350
1396
  0
DICTIONARY
  5
137C
330
15
100
AcDbDictionary
281
     1
  3
ACAD_LAYOUTSELFREF
350
1395
  0
XRECORD
  5
13EB
102
{ACAD_REACTORS
330
C
102
}
330
C
100
AcDbXrecord
280
     1
300
ACDLT
300
2014
300
ACDLT_F_S
  0
DICTIONARY
  5
13CE
102
{ACAD_REACTORS
330
C
102
}
330
C
100
AcDbDictionary
281
     1
  0
DICTIONARY
  5
13E7
102
{ACAD_REACTORS
330
C
102
}
330
C
100
AcDbDictionary
281
     1
  3
Imperial24
350
13E8
  0
DICTIONARY
  5
D
102
{ACAD_REACTORS
330
C
102
}
330
C
100
AcDbDictionary
281
     1
  0
DICTIONARY
  5
5D
102
{ACAD_REACTORS
330
C
102
}
330
C
100
AcDbDictionary
281
     1
  3
Model
350
13E9
  3
レイアウト1
350
13EA
  0
DICTIONARY
  5
139C
102
{ACAD_REACTORS
330
C
102
}
330
C
100
AcDbDictionary
281
     1
  3
ByBlock
350
13A5
  3
ByLayer
350
139D
  3
Global
350
13AD
  0
DICTIONARY
  5
13E3
102
{ACAD_REACTORS
330
C
102
}
330
C
100
AcDbDictionary
281
     1
  3
Standard
350
13E4
  0
DICTIONARY
  5
1B
102
{ACAD_REACTORS
330
C
102
}
330
C
100
AcDbDictionary
281
     1
  3
STANDARD
350
1C
  0
DICTIONARY
  5
5E
102
{ACAD_REACTORS
330
C
102
}
330
C
100
AcDbDictionary
281
     1
  0
ACDBDICTIONARYWDFLT
  5
139A
102
{ACAD_REACTORS
330
C
102
}
330
C
100
AcDbDictionary
281
     1
  3
Normal
350
139B
100
AcDbDictionaryWithDefault
340
139B
  0
DICTIONARY
  5
13D1
102
{ACAD_REACTORS
330
C
102
}
330
C
100
AcDbDictionary
281
     1
  3
A0
350
13D2
  3
A1
350
13D3
  3
A2
350
13D4
  3
A3
350
13D5
  3
A4
350
13D6
  3
A5
350
13D7
  3
A6
350
13D8
  3
A7
350
13D9
  3
A8
350
13DA
  3
A9
350
13DB
  3
B0
350
13DC
  3
B1
350
13DD
  3
B2
350
13DE
  3
B3
350
13DF
  3
B4
350
13E0
  3
B5
350
13E1
  3
B6
350
13E2
  0
DICTIONARY
  5
13E5
102
{ACAD_REACTORS
330
C
102
}
330
C
100
AcDbDictionary
281
     1
  3
Imperial24
350
13E6
  0
DICTIONARY
  5
13CF
102
{ACAD_REACTORS
330
C
102
}
330
C
100
AcDbDictionary
281
     1
  3
Standard
350
13D0
  0
DICTIONARY
  5
13B5
102
{ACAD_REACTORS
330
C
102
}
330
C
100
AcDbDictionary
281
     1
  3
2dWireframe
350
13BB
  3
Basic
350
13BA
  3
Brighten
350
13C1
  3
ColorChange
350
13C5
  3
Conceptual
350
13BE
  3
Dim
350
13C0
  3
EdgeColorOff
350
13CD
  3
Facepattern
350
13C4
  3
Flat
350
13B6
  3
FlatWithEdges
350
13B7
  3
Gouraud
350
13B8
  3
GouraudWithEdges
350
13B9
  3
Hidden
350
13BD
  3
JitterOff
350
13CB
  3
Linepattern
350
13C3
  3
OverhangOff
350
13CC
  3
Realistic
350
13BF
  3
Shaded
350
13CA
  3
Shaded with edges
350
13C9
  3
Shades of Gray
350
13C6
  3
Sketchy
350
13C7
  3
Thicken
350
13C2
  3
Wireframe
350
13BC
  3
X-Ray
350
13C8
  0
XRECORD
  5
1409
102
{ACAD_REACTORS
330
C
102
}
330
C
100
AcDbXrecord
280
     1
 90
        1
330
13D0
  0
DICTIONARY
  5
13FC
102
{ACAD_REACTORS
330
C
102
}
330
C
100
AcDbDictionary
281
     1
  3
CANNOSCALE
350
1401
  3
CMLEADERSTYLE
350
13FE
  3
CTABLESTYLE
350
13FD
  3
CVIEWDETAILSTYLE
350
13FF
  3
CVIEWSECTIONSTYLE
350
1400
  3
DIMASSOC
350
1404
  3
INDEXCTL
350
1403
  3
SORTENTS
350
1402
  3
XCLIPFRAME
350
1405
  0
DICTIONARY
  5
3D
102
{ACAD_REACTORS
330
C
102
}
330
C
100
AcDbDictionary
281
     1
  0
XRECORD
  5
140A
102
{ACAD_REACTORS
330
C
102
}
330
C
100
AcDbXrecord
280
     1
  1
DWGPROPS COOKIE
  2

  3

  4

  6

  7

  8
Yoshitsune
  9

300
=
301
=
302
=
303
=
304
=
305
=
306
=
307
=
308
=
309
=
 40
0.2414985185185185
 41
2453252.556664132
 42
2457192.689601204
  1

 90
        0
  0
XRECORD
  5
13ED
102
{ACAD_REACTORS
330
13EC
102
}
330
13EC
100
AcDbXrecord
280
     1
290
     1
  0
XRECORD
  5
13EF
102
{ACAD_REACTORS
330
13EE
102
}
330
13EE
100
AcDbXrecord
280
     1
290
     1
  0
XRECORD
  5
13F1
102
{ACAD_REACTORS
330
13F0
102
}
330
13F0
100
AcDbXrecord
280
     1
290
     1
  0
XRECORD
  5
13F3
102
{ACAD_REACTORS
330
13F2
102
}
330
13F2
100
AcDbXrecord
280
     1
290
     1
  0
XRECORD
  5
13F5
102
{ACAD_REACTORS
330
13F4
102
}
330
13F4
100
AcDbXrecord
280
     1
290
     1
  0
XRECORD
  5
13F7
102
{ACAD_REACTORS
330
13F6
102
}
330
13F6
100
AcDbXrecord
280
     1
290
     1
  0
XRECORD
  5
13F9
102
{ACAD_REACTORS
330
13F8
102
}
330
13F8
100
AcDbXrecord
280
     1
290
     1
  0
XRECORD
  5
13FB
102
{ACAD_REACTORS
330
13FA
102
}
330
13FA
100
AcDbXrecord
280
     1
290
     1
  0
XRECORD
  5
1396
102
{ACAD_REACTORS
330
137E
102
}
330
137E
100
AcDbXrecord
280
     1
340
18
  0
XRECORD
  5
1395
102
{ACAD_REACTORS
330
137C
102
}
330
137C
100
AcDbXrecord
280
     1
340
15
  0
ACDBDETAILVIEWSTYLE
  5
13E8
102
{ACAD_XDICTIONARY
360
1442
102
}
102
{ACAD_REACTORS
330
13E7
102
}
330
13E7
100
AcDbModelDocViewStyle
 70
     0
  3
Imperial24
290
     0
100
AcDbDetailViewStyle
 70
     0
 71
     0
 90
        3
 71
     1
340
F
 40
0.24
340
0
 40
0.24
300

 40
0.36
280
     3
 71
     2
340
14
 90
       25
 71
     3
340
F
 40
0.24
 90
        1
 40
0.75
 90
        1
300
%<\AcVar ViewType \f "%tc1">% %<\AcVar ViewDetailId>%\PSCALE %<\AcVar ViewScale \f "%sn">%
 71
     4
340
14
 90
       25
340
14
 90
       25
280
     0
  0
LAYOUT
  5
13E9
102
{ACAD_XDICTIONARY
360
1444
102
}
102
{ACAD_REACTORS
330
5D
102
}
330
5D
100
AcDbPlotSettings
  1

  2
Canon LBP9100C
  4

  6

 40
0.0
 41
0.0
 42
0.0
 43
0.0
 44
0.0
 45
0.0
 46
0.0
 47
0.0
 48
0.0
 49
0.0
140
0.0
141
0.0
142
1.0
143
1.0
 70
  1712
 72
     0
 73
     0
 74
     0
  7

 75
     0
147
1.0
148
0.0
149
0.0
100
AcDbLayout
  1
Model
 70
     1
 71
     0
 10
0.0
 20
0.0
 11
12.0
 21
9.0
 12
0.0
 22
0.0
 32
0.0
 14
0.0
 24
0.0
 34
0.0
 15
0.0
 25
0.0
 35
0.0
146
0.0
 13
0.0
 23
0.0
 33
0.0
 16
1.0
 26
0.0
 36
0.0
 17
0.0
 27
1.0
 37
0.0
 76
     0
330
18
331
1394
  0
LAYOUT
  5
13EA
102
{ACAD_XDICTIONARY
360
1446
102
}
102
{ACAD_REACTORS
330
5D
102
}
330
5D
100
AcDbPlotSettings
  1

  2
Canon LBP9100C
  4

  6

 40
0.0
 41
0.0
 42
0.0
 43
0.0
 44
0.0
 45
0.0
 46
0.0
 47
0.0
 48
0.0
 49
0.0
140
0.0
141
0.0
142
1.0
143
1.0
 70
   688
 72
     0
 73
     0
 74
     5
  7

 75
    16
147
1.0
148
0.0
149
0.0
100
AcDbLayout
  1
レイアウト1
 70
     1
 71
     1
 10
0.0
 20
0.0
 11
420.0
 21
297.0
 12
0.0
 22
0.0
 32
0.0
 14
1.000000000000000E+20
 24
1.000000000000000E+20
 34
1.000000000000000E+20
 15
-1.000000000000000E+20
 25
-1.000000000000000E+20
 35
-1.000000000000000E+20
146
0.0
 13
0.0
 23
0.0
 33
0.0
 16
1.0
 26
0.0
 36
0.0
 17
0.0
 27
1.0
 37
0.0
 76
     0
330
15
  0
MATERIAL
  5
13A5
102
{ACAD_XDICTIONARY
360
13A6
102
}
102
{ACAD_REACTORS
330
139C
102
}
330
139C
100
AcDbMaterial
  1
ByBlock
 72
     0
 43
0.0208333333333333
 43
0.0
 43
0.0
 43
0.0
 43
0.0
 43
0.0208333333333333
 43
0.0
 43
0.0
 43
0.0
 43
0.0
 43
1.0
 43
0.0
 43
0.0
 43
0.0
 43
0.0
 43
1.0
 77
     0
 47
0.0208333333333333
 47
0.0
 47
0.0
 47
0.0
 47
0.0
 47
0.0208333333333333
 47
0.0
 47
0.0
 47
0.0
 47
0.0
 47
1.0
 47
0.0
 47
0.0
 47
0.0
 47
0.0
 47
1.0
171
     0
 49
0.0208333333333333
 49
0.0
 49
0.0
 49
0.0
 49
0.0
 49
0.0208333333333333
 49
0.0
 49
0.0
 49
0.0
 49
0.0
 49
1.0
 49
0.0
 49
0.0
 49
0.0
 49
0.0
 49
1.0
175
     0
142
0.0208333333333333
142
0.0
142
0.0
142
0.0
142
0.0
142
0.0208333333333333
142
0.0
142
0.0
142
0.0
142
0.0
142
1.0
142
0.0
142
0.0
142
0.0
142
0.0
142
1.0
179
     0
144
0.0208333333333333
144
0.0
144
0.0
144
0.0
144
0.0
144
0.0208333333333333
144
0.0
144
0.0
144
0.0
144
0.0
144
1.0
144
0.0
144
0.0
144
0.0
144
0.0
144
1.0
147
0.0208333333333333
147
0.0
147
0.0
147
0.0
147
0.0
147
0.0208333333333333
147
0.0
147
0.0
147
0.0
147
0.0
147
1.0
147
0.0
147
0.0
147
0.0
147
0.0
147
1.0
  0
MATERIAL
  5
139D
102
{ACAD_XDICTIONARY
360
139E
102
}
102
{ACAD_REACTORS
330
139C
102
}
330
139C
100
AcDbMaterial
  1
ByLayer
 72
     0
 43
0.0208333333333333
 43
0.0
 43
0.0
 43
0.0
 43
0.0
 43
0.0208333333333333
 43
0.0
 43
0.0
 43
0.0
 43
0.0
 43
1.0
 43
0.0
 43
0.0
 43
0.0
 43
0.0
 43
1.0
 77
     0
 47
0.0208333333333333
 47
0.0
 47
0.0
 47
0.0
 47
0.0
 47
0.0208333333333333
 47
0.0
 47
0.0
 47
0.0
 47
0.0
 47
1.0
 47
0.0
 47
0.0
 47
0.0
 47
0.0
 47
1.0
171
     0
 49
0.0208333333333333
 49
0.0
 49
0.0
 49
0.0
 49
0.0
 49
0.0208333333333333
 49
0.0
 49
0.0
 49
0.0
 49
0.0
 49
1.0
 49
0.0
 49
0.0
 49
0.0
 49
0.0
 49
1.0
175
     0
142
0.0208333333333333
142
0.0
142
0.0
142
0.0
142
0.0
142
0.0208333333333333
142
0.0
142
0.0
142
0.0
142
0.0
142
1.0
142
0.0
142
0.0
142
0.0
142
0.0
142
1.0
179
     0
144
0.0208333333333333
144
0.0
144
0.0
144
0.0
144
0.0
144
0.0208333333333333
144
0.0
144
0.0
144
0.0
144
0.0
144
1.0
144
0.0
144
0.0
144
0.0
144
0.0
144
1.0
147
0.0208333333333333
147
0.0
147
0.0
147
0.0
147
0.0
147
0.0208333333333333
147
0.0
147
0.0
147
0.0
147
0.0
147
1.0
147
0.0
147
0.0
147
0.0
147
0.0
147
1.0
  0
MATERIAL
  5
13AD
102
{ACAD_XDICTIONARY
360
13AE
102
}
102
{ACAD_REACTORS
330
139C
102
}
330
139C
100
AcDbMaterial
  1
Global
 72
     0
 43
0.0208333333333333
 43
0.0
 43
0.0
 43
0.0
 43
0.0
 43
0.0208333333333333
 43
0.0
 43
0.0
 43
0.0
 43
0.0
 43
1.0
 43
0.0
 43
0.0
 43
0.0
 43
0.0
 43
1.0
 77
     0
 47
0.0208333333333333
 47
0.0
 47
0.0
 47
0.0
 47
0.0
 47
0.0208333333333333
 47
0.0
 47
0.0
 47
0.0
 47
0.0
 47
1.0
 47
0.0
 47
0.0
 47
0.0
 47
0.0
 47
1.0
171
     0
 49
0.0208333333333333
 49
0.0
 49
0.0
 49
0.0
 49
0.0
 49
0.0208333333333333
 49
0.0
 49
0.0
 49
0.0
 49
0.0
 49
1.0
 49
0.0
 49
0.0
 49
0.0
 49
0.0
 49
1.0
175
     0
142
0.0208333333333333
142
0.0
142
0.0
142
0.0
142
0.0
142
0.0208333333333333
142
0.0
142
0.0
142
0.0
142
0.0
142
1.0
142
0.0
142
0.0
142
0.0
142
0.0
142
1.0
179
     0
144
0.0208333333333333
144
0.0
144
0.0
144
0.0
144
0.0
144
0.0208333333333333
144
0.0
144
0.0
144
0.0
144
0.0
144
1.0
144
0.0
144
0.0
144
0.0
144
0.0
144
1.0
147
0.0208333333333333
147
0.0
147
0.0
147
0.0
147
0.0
147
0.0208333333333333
147
0.0
147
0.0
147
0.0
147
0.0
147
1.0
147
0.0
147
0.0
147
0.0
147
0.0
147
1.0
  0
MLEADERSTYLE
  5
13E4
102
{ACAD_REACTORS
330
13E3
102
}
330
13E3
100
AcDbMLeaderStyle
170
     2
171
     1
172
     0
 90
        2
 40
0.0
 41
0.0
173
     1
 91
-1056964608
340
12
 92
       -2
290
     1
 42
0.09
291
     1
 43
0.36
  3
Standard
 44
0.18
300

342
F
174
     1
178
     6
175
     1
176
     0
 93
-1056964608
 45
0.18
292
     0
297
     0
 46
0.18
 94
-1056964608
 47
1.0
 49
1.0
140
1.0
293
     1
141
0.0
294
     1
177
     0
142
1.0
295
     0
296
     0
143
0.125
1001
ACAD_MLEADERVER
1070
     2
  0
MLINESTYLE
  5
1C
102
{ACAD_REACTORS
330
1B
102
}
330
1B
100
AcDbMlineStyle
  2
STANDARD
 70
     0
  3

 62
   256
 51
90.0
 52
90.0
 71
     2
 49
0.5
 62
   256
  6
BYLAYER
 49
-0.5
 62
   256
  6
BYLAYER
  0
ACDBPLACEHOLDER
  5
139B
102
{ACAD_REACTORS
330
139A
102
}
330
139A
  0
SCALE
  5
13D2
102
{ACAD_REACTORS
330
13D1
102
}
330
13D1
100
AcDbScale
 70
     0
300
1:1
140
1.0
141
1.0
290
     1
  0
SCALE
  5
13D3
102
{ACAD_REACTORS
330
13D1
102
}
330
13D1
100
AcDbScale
 70
     0
300
1/128" = 1'-0"
140
0.0078125
141
12.0
290
     0
  0
SCALE
  5
13D4
102
{ACAD_REACTORS
330
13D1
102
}
330
13D1
100
AcDbScale
 70
     0
300
1/64" = 1'-0"
140
0.015625
141
12.0
290
     0
  0
SCALE
  5
13D5
102
{ACAD_REACTORS
330
13D1
102
}
330
13D1
100
AcDbScale
 70
     0
300
1/32" = 1'-0"
140
0.03125
141
12.0
290
     0
  0
SCALE
  5
13D6
102
{ACAD_REACTORS
330
13D1
102
}
330
13D1
100
AcDbScale
 70
     0
300
1/16" = 1'-0"
140
0.0625
141
12.0
290
     0
  0
SCALE
  5
13D7
102
{ACAD_REACTORS
330
13D1
102
}
330
13D1
100
AcDbScale
 70
     0
300
3/32" = 1'-0"
140
0.09375
141
12.0
290
     0
  0
SCALE
  5
13D8
102
{ACAD_REACTORS
330
13D1
102
}
330
13D1
100
AcDbScale
 70
     0
300
1/8" = 1'-0"
140
0.125
141
12.0
290
     0
  0
SCALE
  5
13D9
102
{ACAD_REACTORS
330
13D1
102
}
330
13D1
100
AcDbScale
 70
     0
300
3/16" = 1'-0"
140
0.1875
141
12.0
290
     0
  0
SCALE
  5
13DA
102
{ACAD_REACTORS
330
13D1
102
}
330
13D1
100
AcDbScale
 70
     0
300
1/4" = 1'-0"
140
0.25
141
12.0
290
     0
  0
SCALE
  5
13DB
102
{ACAD_REACTORS
330
13D1
102
}
330
13D1
100
AcDbScale
 70
     0
300
3/8" = 1'-0"
140
0.375
141
12.0
290
     0
  0
SCALE
  5
13DC
102
{ACAD_REACTORS
330
13D1
102
}
330
13D1
100
AcDbScale
 70
     0
300
1/2" = 1'-0"
140
0.5
141
12.0
290
     0
  0
SCALE
  5
13DD
102
{ACAD_REACTORS
330
13D1
102
}
330
13D1
100
AcDbScale
 70
     0
300
3/4" = 1'-0"
140
0.75
141
12.0
290
     0
  0
SCALE
  5
13DE
102
{ACAD_REACTORS
330
13D1
102
}
330
13D1
100
AcDbScale
 70
     0
300
1" = 1'-0"
140
1.0
141
12.0
290
     0
  0
SCALE
  5
13DF
102
{ACAD_REACTORS
330
13D1
102
}
330
13D1
100
AcDbScale
 70
     0
300
1-1/2" = 1'-0"
140
1.5
141
12.0
290
     0
  0
SCALE
  5
13E0
102
{ACAD_REACTORS
330
13D1
102
}
330
13D1
100
AcDbScale
 70
     0
300
3" = 1'-0"
140
3.0
141
12.0
290
     0
  0
SCALE
  5
13E1
102
{ACAD_REACTORS
330
13D1
102
}
330
13D1
100
AcDbScale
 70
     0
300
6" = 1'-0"
140
6.0
141
12.0
290
     0
  0
SCALE
  5
13E2
102
{ACAD_REACTORS
330
13D1
102
}
330
13D1
100
AcDbScale
 70
     0
300
1'-0" = 1'-0"
140
12.0
141
12.0
290
     0
  0
ACDBSECTIONVIEWSTYLE
  5
13E6
102
{ACAD_XDICTIONARY
360
1440
102
}
102
{ACAD_REACTORS
330
13E5
102
}
330
13E5
100
AcDbModelDocViewStyle
 70
     0
  3
Imperial24
290
     0
100
AcDbSectionViewStyle
 70
     0
 71
     0
 90
       78
 71
     1
340
F
 40
0.24
340
0
340
0
 40
0.24
300
I, O, Q, S, X, Z
 40
0.48
 90
        3
 40
0.18
 90
        1
 71
     2
340
14
 90
       25
340
14
 90
       50
 40
0.24
 40
0.0
 40
0.24
 71
     3
340
F
 40
0.24
 90
        1
 40
0.75
 90
        1
300
%<\AcVar ViewType \f "%tc1">% %<\AcVar ViewSectionStartId>%-%<\AcVar ViewSectionEndId>%\PSCALE %<\AcVar ViewScale \f "%sn">%
 71
     4
300
ANSI31
 40
1.0
 90
        0
290
     0
290
     0
 90
        6
 40
0.0
 40
1.570796326794896
 40
0.2617993877991494
 40
1.308996938995747
 40
-0.2617993877991494
 40
1.832595714594046
  0
TABLESTYLE
  5
13D0
102
{ACAD_XDICTIONARY
360
1407
102
}
102
{ACAD_REACTORS
330
13CF
102
}
330
13CF
100
AcDbTableStyle
  3
Standard
 70
     0
 71
     0
 40
0.06
 41
0.06
280
     0
281
     0
  7
STANDARD
140
0.18
170
     2
 62
     0
 63
     7
283
     0
274
    -2
284
     1
 64
     0
275
    -2
285
     1
 65
     0
276
    -2
286
     1
 66
     0
277
    -2
287
     1
 67
     0
278
    -2
288
     1
 68
     0
279
    -2
289
     1
 69
     0
  7
STANDARD
140
0.25
170
     5
 62
     0
 63
     7
283
     0
274
    -2
284
     1
 64
     0
275
    -2
285
     1
 65
     0
276
    -2
286
     1
 66
     0
277
    -2
287
     1
 67
     0
278
    -2
288
     1
 68
     0
279
    -2
289
     1
 69
     0
  7
STANDARD
140
0.18
170
     5
 62
     0
 63
     7
283
     0
274
    -2
284
     1
 64
     0
275
    -2
285
     1
 65
     0
276
    -2
286
     1
 66
     0
277
    -2
287
     1
 67
     0
278
    -2
288
     1
 68
     0
279
    -2
289
     1
 69
     0
  0
VISUALSTYLE
  5
13BB
102
{ACAD_XDICTIONARY
360
1418
102
}
102
{ACAD_REACTORS
330
13B5
102
}
330
13B5
100
AcDbVisualStyle
  2
2dWireframe
 70
     4
 71
     0
 72
     2
 73
     0
 90
        0
 40
-0.6
 41
-30.0
 62
     5
 63
     7
 74
     1
 91
        4
 64
     7
 65
   257
 75
     1
175
     1
 42
1.0
 92
        0
 66
   257
 43
1.0
 76
     1
 77
     6
 78
     2
 67
     7
 79
     5
170
     0
171
     0
290
     0
174
     0
 93
        1
 44
0.0
173
     0
291
     0
 45
0.0
1001
ACAD
1000
AcDbSavedByObjectVersion
1070
     0
  0
VISUALSTYLE
  5
13BA
102
{ACAD_XDICTIONARY
360
1416
102
}
102
{ACAD_REACTORS
330
13B5
102
}
330
13B5
100
AcDbVisualStyle
  2
Basic
 70
     7
 71
     1
 72
     0
 73
     1
 90
        0
 40
-0.6
 41
-30.0
 62
     5
 63
     7
 74
     0
 91
        4
 64
     7
 65
   257
 75
     1
175
     1
 42
1.0
 92
        8
 66
     7
 43
1.0
 76
     1
 77
     6
 78
     2
 67
     7
 79
     5
170
     0
171
     0
290
     0
174
     0
 93
        1
 44
0.0
173
     0
291
     1
 45
0.0
1001
ACAD
1000
AcDbSavedByObjectVersion
1070
     0
  0
VISUALSTYLE
  5
13C1
102
{ACAD_XDICTIONARY
360
1424
102
}
102
{ACAD_REACTORS
330
13B5
102
}
330
13B5
100
AcDbVisualStyle
  2
Brighten
 70
    12
 71
     2
 72
     2
 73
     0
 90
        0
 40
-0.6
 41
-30.0
 62
     5
 63
     7
 74
     1
 91
        4
 64
     7
 65
   257
 75
     1
175
     1
 42
1.0
 92
        8
 66
     7
 43
1.0
 76
     1
 77
     6
 78
     2
 67
     7
 79
     5
170
     0
171
     0
290
     0
174
     0
 93
        1
 44
50.0
173
     0
291
     1
 45
0.0
1001
ACAD
1000
AcDbSavedByObjectVersion
1070
     0
  0
VISUALSTYLE
  5
13C5
102
{ACAD_XDICTIONARY
360
142C
102
}
102
{ACAD_REACTORS
330
13B5
102
}
330
13B5
100
AcDbVisualStyle
  2
ColorChange
 70
    16
 71
     2
 72
     2
 73
     3
 90
        0
 40
-0.6
 41
-30.0
 62
     5
 63
     8
 74
     1
 91
        4
 64
     7
 65
   257
 75
     1
175
     1
 42
1.0
 92
        8
 66
     8
 43
1.0
 76
     1
 77
     6
 78
     2
 67
     7
 79
     5
170
     0
171
     0
290
     0
174
     0
 93
        1
 44
0.0
173
     0
291
     1
 45
0.0
1001
ACAD
1000
AcDbSavedByObjectVersion
1070
     0
  0
VISUALSTYLE
  5
13BE
102
{ACAD_XDICTIONARY
360
141E
102
}
102
{ACAD_REACTORS
330
13B5
102
}
330
13B5
100
AcDbVisualStyle
  2
Conceptual
 70
     9
 71
     3
 72
     2
 73
     0
 90
        0
 40
-0.6
 41
-30.0
 62
     5
 63
     7
 74
     2
 91
        2
 64
     7
 65
   257
 75
     1
175
     1
 42
179.0
 92
        8
 66
     7
 43
1.0
 76
     1
 77
     6
 78
     2
 67
     7
 79
     3
170
     0
171
     0
290
     0
174
     0
 93
        1
 44
0.0
173
     0
291
     0
 45
0.0
1001
ACAD
1000
AcDbSavedByObjectVersion
1070
     0
  0
VISUALSTYLE
  5
13C0
102
{ACAD_XDICTIONARY
360
1422
102
}
102
{ACAD_REACTORS
330
13B5
102
}
330
13B5
100
AcDbVisualStyle
  2
Dim
 70
    11
 71
     2
 72
     2
 73
     0
 90
        0
 40
-0.6
 41
-30.0
 62
     5
 63
     7
 74
     1
 91
        4
 64
     7
 65
   257
 75
     1
175
     1
 42
1.0
 92
        8
 66
     7
 43
1.0
 76
     1
 77
     6
 78
     2
 67
     7
 79
     5
170
     0
171
     0
290
     0
174
     0
 93
        1
 44
-50.0
173
     0
291
     1
 45
0.0
1001
ACAD
1000
AcDbSavedByObjectVersion
1070
     0
  0
VISUALSTYLE
  5
13CD
102
{ACAD_XDICTIONARY
360
143C
102
}
102
{ACAD_REACTORS
330
13B5
102
}
330
13B5
100
AcDbVisualStyle
  2
EdgeColorOff
 70
    22
 71
     2
 72
     2
 73
     0
 90
        0
 40
-0.6
 41
-30.0
 62
     5
 63
     7
 74
     1
 91
        4
 64
     7
 65
   257
 75
     1
175
     1
 42
1.0
 92
        8
 66
     7
 43
1.0
 76
     1
 77
     6
 78
     2
 67
     7
 79
     5
170
     0
171
     0
290
     0
174
     0
 93
        1
 44
0.0
173
     0
291
     1
 45
0.0
1001
ACAD
1000
AcDbSavedByObjectVersion
1070
     0
  0
VISUALSTYLE
  5
13C4
102
{ACAD_XDICTIONARY
360
142A
102
}
102
{ACAD_REACTORS
330
13B5
102
}
330
13B5
100
AcDbVisualStyle
  2
Facepattern
 70
    15
 71
     2
 72
     2
 73
     0
 90
        0
 40
-0.6
 41
-30.0
 62
     5
 63
     7
 74
     1
 91
        4
 64
     7
 65
   257
 75
     1
175
     1
 42
1.0
 92
        8
 66
     7
 43
1.0
 76
     1
 77
     6
 78
     2
 67
     7
 79
     5
170
     0
171
     0
290
     0
174
     0
 93
        1
 44
0.0
173
     0
291
     1
 45
0.0
1001
ACAD
1000
AcDbSavedByObjectVersion
1070
     0
  0
VISUALSTYLE
  5
13B6
102
{ACAD_XDICTIONARY
360
140E
102
}
102
{ACAD_REACTORS
330
13B5
102
}
330
13B5
100
AcDbVisualStyle
  2
Flat
 70
     0
 71
     2
 72
     1
 73
     1
 90
        2
 40
-0.6
 41
30.0
 62
     5
 63
     7
 74
     0
 91
        0
 64
     7
 65
   257
 75
     1
175
     1
 42
1.0
 92
        8
 66
     7
 43
1.0
 76
     1
 77
     6
 78
     2
 67
     7
 79
     5
170
     0
171
     0
290
     0
174
     0
 93
       13
 44
0.0
173
     0
291
     1
 45
0.0
1001
ACAD
1000
AcDbSavedByObjectVersion
1070
     0
  0
VISUALSTYLE
  5
13B7
102
{ACAD_XDICTIONARY
360
1410
102
}
102
{ACAD_REACTORS
330
13B5
102
}
330
13B5
100
AcDbVisualStyle
  2
FlatWithEdges
 70
     1
 71
     2
 72
     1
 73
     1
 90
        2
 40
-0.6
 41
30.0
 62
     5
 63
     7
 74
     1
 91
        0
 64
     7
 65
   257
 75
     1
175
     1
 42
1.0
 92
        0
 66
   257
 43
1.0
 76
     1
 77
     6
 78
     2
 67
     7
 79
     5
170
     0
171
     0
290
     0
174
     0
 93
       13
 44
0.0
173
     0
291
     1
 45
0.0
1001
ACAD
1000
AcDbSavedByObjectVersion
1070
     0
  0
VISUALSTYLE
  5
13B8
102
{ACAD_XDICTIONARY
360
1412
102
}
102
{ACAD_REACTORS
330
13B5
102
}
330
13B5
100
AcDbVisualStyle
  2
Gouraud
 70
     2
 71
     2
 72
     2
 73
     1
 90
        2
 40
-0.6
 41
30.0
 62
     5
 63
     7
 74
     0
 91
        0
 64
     7
 65
   257
 75
     1
175
     1
 42
1.0
 92
        0
 66
     7
 43
1.0
 76
     1
 77
     6
 78
     2
 67
     7
 79
     5
170
     0
171
     0
290
     0
174
     0
 93
       13
 44
0.0
173
     0
291
     1
 45
0.0
1001
ACAD
1000
AcDbSavedByObjectVersion
1070
     0
  0
VISUALSTYLE
  5
13B9
102
{ACAD_XDICTIONARY
360
1414
102
}
102
{ACAD_REACTORS
330
13B5
102
}
330
13B5
100
AcDbVisualStyle
  2
GouraudWithEdges
 70
     3
 71
     2
 72
     2
 73
     1
 90
        2
 40
-0.6
 41
30.0
 62
     5
 63
     7
 74
     1
 91
        0
 64
     7
 65
   257
 75
     1
175
     1
 42
1.0
 92
        0
 66
   257
 43
1.0
 76
     1
 77
     6
 78
     2
 67
     7
 79
     5
170
     0
171
     0
290
     0
174
     0
 93
       13
 44
0.0
173
     0
291
     1
 45
0.0
1001
ACAD
1000
AcDbSavedByObjectVersion
1070
     0
  0
VISUALSTYLE
  5
13BD
102
{ACAD_XDICTIONARY
360
141C
102
}
102
{ACAD_REACTORS
330
13B5
102
}
330
13B5
100
AcDbVisualStyle
  2
Hidden
 70
     6
 71
     1
 72
     2
 73
     2
 90
        0
 40
-0.6
 41
-30.0
 62
     5
 63
     7
 74
     2
 91
        2
 64
     7
 65
   257
 75
     2
175
     1
 42
40.0
 92
        0
 66
   257
 43
1.0
 76
     1
 77
     6
 78
     2
 67
     7
 79
     3
170
     0
171
     0
290
     0
174
     0
 93
        1
 44
0.0
173
     0
291
     0
 45
0.0
1001
ACAD
1000
AcDbSavedByObjectVersion
1070
     0
  0
VISUALSTYLE
  5
13CB
102
{ACAD_XDICTIONARY
360
1438
102
}
102
{ACAD_REACTORS
330
13B5
102
}
330
13B5
100
AcDbVisualStyle
  2
JitterOff
 70
    20
 71
     2
 72
     2
 73
     0
 90
        0
 40
-0.6
 41
-30.0
 62
     5
 63
     7
 74
     1
 91
        4
 64
     7
 65
   257
 75
     1
175
     1
 42
1.0
 92
       10
 66
     7
 43
1.0
 76
     1
 77
     6
 78
     2
 67
     7
 79
     5
170
     0
171
     0
290
     0
174
     0
 93
        1
 44
0.0
173
     0
291
     1
 45
0.0
1001
ACAD
1000
AcDbSavedByObjectVersion
1070
     0
  0
VISUALSTYLE
  5
13C3
102
{ACAD_XDICTIONARY
360
1428
102
}
102
{ACAD_REACTORS
330
13B5
102
}
330
13B5
100
AcDbVisualStyle
  2
Linepattern
 70
    14
 71
     2
 72
     2
 73
     0
 90
        0
 40
-0.6
 41
-30.0
 62
     5
 63
     7
 74
     1
 91
        4
 64
     7
 65
   257
 75
     7
175
     7
 42
1.0
 92
        8
 66
     7
 43
1.0
 76
     1
 77
     6
 78
     2
 67
     7
 79
     5
170
     0
171
     0
290
     0
174
     0
 93
        1
 44
0.0
173
     0
291
     1
 45
0.0
1001
ACAD
1000
AcDbSavedByObjectVersion
1070
     0
  0
VISUALSTYLE
  5
13CC
102
{ACAD_XDICTIONARY
360
143A
102
}
102
{ACAD_REACTORS
330
13B5
102
}
330
13B5
100
AcDbVisualStyle
  2
OverhangOff
 70
    21
 71
     2
 72
     2
 73
     0
 90
        0
 40
-0.6
 41
-30.0
 62
     5
 63
     7
 74
     1
 91
        4
 64
     7
 65
   257
 75
     1
175
     1
 42
1.0
 92
        9
 66
     7
 43
1.0
 76
     1
 77
     6
 78
     2
 67
     7
 79
     5
170
     0
171
     0
290
     0
174
     0
 93
        1
 44
0.0
173
     0
291
     1
 45
0.0
1001
ACAD
1000
AcDbSavedByObjectVersion
1070
     0
  0
VISUALSTYLE
  5
13BF
102
{ACAD_XDICTIONARY
360
1420
102
}
102
{ACAD_REACTORS
330
13B5
102
}
330
13B5
100
AcDbVisualStyle
  2
Realistic
 70
     8
 71
     2
 72
     3
 73
     0
 90
        2
 40
-0.6
 41
30.0
 62
     5
 63
     7
 74
     0
 91
        0
 64
     7
 65
   257
 75
     1
175
     1
 42
1.0
 92
        8
 66
   257
 43
1.0
 76
     1
 77
     6
 78
     2
 67
     7
 79
     3
170
     0
171
     0
290
     0
174
     0
 93
       13
 44
0.0
173
     0
291
     0
 45
0.0
1001
ACAD
1000
AcDbSavedByObjectVersion
1070
     0
  0
VISUALSTYLE
  5
13CA
102
{ACAD_XDICTIONARY
360
1436
102
}
102
{ACAD_REACTORS
330
13B5
102
}
330
13B5
100
AcDbVisualStyle
  2
Shaded
 70
    27
 71
     2
 72
     2
 73
     1
 90
        2
 40
-0.6
 41
30.0
 62
     5
 63
     7
 74
     0
 91
        4
 64
     7
 65
   257
 75
     1
175
     1
 42
1.0
 92
        8
 66
   257
 43
1.0
 76
     1
 77
     6
 78
     2
 67
     8
 79
     3
170
     0
171
     0
290
     0
174
     0
 93
        5
 44
0.0
173
     0
291
     0
 45
0.0
1001
ACAD
1000
AcDbSavedByObjectVersion
1070
     0
  0
VISUALSTYLE
  5
13C9
102
{ACAD_XDICTIONARY
360
1434
102
}
102
{ACAD_REACTORS
330
13B5
102
}
330
13B5
100
AcDbVisualStyle
  2
Shaded with edges
 70
    26
 71
     2
 72
     2
 73
     1
 90
        2
 40
-0.6
 41
30.0
 62
     5
 63
     7
 74
     1
 91
       10
 64
     7
 65
   257
 75
     2
175
     1
 42
1.0
 92
        8
 66
   257
 43
1.0
 76
     1
 77
     6
 78
     2
 67
     7
 79
     3
170
     0
171
     0
290
     0
174
     0
 93
        5
 44
0.0
173
     0
291
     0
 45
0.0
1001
ACAD
1000
AcDbSavedByObjectVersion
1070
     0
  0
VISUALSTYLE
  5
13C6
102
{ACAD_XDICTIONARY
360
142E
102
}
102
{ACAD_REACTORS
330
13B5
102
}
330
13B5
100
AcDbVisualStyle
  2
Shades of Gray
 70
    23
 71
     2
 72
     2
 73
     3
 90
        0
 40
-0.6
 41
-30.0
 62
     5
 63
     7
 74
     2
 91
        2
 64
     7
 65
     7
 75
     1
175
     1
 42
40.0
 92
        8
 66
     7
 43
1.0
 76
     1
 77
     6
 78
     2
 67
     7
 79
     3
170
     0
171
     0
290
     0
174
     0
 93
        1
 44
0.0
173
     0
291
     0
 45
0.0
1001
ACAD
1000
AcDbSavedByObjectVersion
1070
     0
  0
VISUALSTYLE
  5
13C7
102
{ACAD_XDICTIONARY
360
1430
102
}
102
{ACAD_REACTORS
330
13B5
102
}
330
13B5
100
AcDbVisualStyle
  2
Sketchy
 70
    24
 71
     1
 72
     2
 73
     2
 90
        0
 40
-0.6
 41
-30.0
 62
     5
 63
     7
 74
     2
 91
        2
 64
     7
 65
     7
 75
     1
175
     1
 42
40.0
 92
       11
 66
     7
 43
1.0
 76
     1
 77
     6
 78
     2
 67
     7
 79
     6
170
     0
171
     0
290
     0
174
     0
 93
        1
 44
0.0
173
     0
291
     0
 45
0.0
1001
ACAD
1000
AcDbSavedByObjectVersion
1070
     0
  0
VISUALSTYLE
  5
13C2
102
{ACAD_XDICTIONARY
360
1426
102
}
102
{ACAD_REACTORS
330
13B5
102
}
330
13B5
100
AcDbVisualStyle
  2
Thicken
 70
    13
 71
     2
 72
     2
 73
     0
 90
        0
 40
-0.6
 41
-30.0
 62
     5
 63
     7
 74
     1
 91
        4
 64
     7
 65
   257
 75
     1
175
     1
 42
1.0
 92
       12
 66
     7
 43
1.0
 76
     1
 77
     6
 78
     2
 67
     7
 79
     5
170
     0
171
     0
290
     0
174
     0
 93
        1
 44
0.0
173
     0
291
     1
 45
0.0
1001
ACAD
1000
AcDbSavedByObjectVersion
1070
     0
  0
VISUALSTYLE
  5
13BC
102
{ACAD_XDICTIONARY
360
141A
102
}
102
{ACAD_REACTORS
330
13B5
102
}
330
13B5
100
AcDbVisualStyle
  2
Wireframe
 70
     5
 71
     0
 72
     2
 73
     0
 90
        0
 40
-0.6
 41
-30.0
 62
     5
 63
     7
 74
     1
 91
        4
 64
     7
 65
   257
 75
     1
175
     1
 42
1.0
 92
        0
 66
   257
 43
1.0
 76
     1
 77
     6
 78
     2
 67
     7
 79
     3
170
     0
171
     0
290
     0
174
     0
 93
        1
 44
0.0
173
     0
291
     0
 45
0.0
1001
ACAD
1000
AcDbSavedByObjectVersion
1070
     0
  0
VISUALSTYLE
  5
13C8
102
{ACAD_XDICTIONARY
360
1432
102
}
102
{ACAD_REACTORS
330
13B5
102
}
330
13B5
100
AcDbVisualStyle
  2
X-Ray
 70
    25
 71
     2
 72
     2
 73
     1
 90
        1
 40
0.5
 41
-30.0
 62
     5
 63
     7
 74
     1
 91
        0
 64
     7
 65
   257
 75
     1
175
     1
 42
1.0
 92
        8
 66
     7
 43
1.0
 76
     1
 77
     6
 78
     2
 67
     7
 79
     3
170
     0
171
     0
290
     0
174
     0
 93
       13
 44
0.0
173
     0
291
     0
 45
0.0
1001
ACAD
1000
AcDbSavedByObjectVersion
1070
     0
  0
DICTIONARYVAR
  5
1401
102
{ACAD_REACTORS
330
13FC
102
}
330
13FC
100
DictionaryVariables
280
     0
  1
1:1
  0
DICTIONARYVAR
  5
13FE
102
{ACAD_REACTORS
330
13FC
102
}
330
13FC
100
DictionaryVariables
280
     0
  1
STANDARD
  0
DICTIONARYVAR
  5
13FD
102
{ACAD_REACTORS
330
13FC
102
}
330
13FC
100
DictionaryVariables
280
     0
  1
STANDARD
  0
DICTIONARYVAR
  5
13FF
102
{ACAD_REACTORS
330
13FC
102
}
330
13FC
100
DictionaryVariables
280
     0
  1
Imperial24
  0
DICTIONARYVAR
  5
1400
102
{ACAD_REACTORS
330
13FC
102
}
330
13FC
100
DictionaryVariables
280
     0
  1
Imperial24
  0
DICTIONARYVAR
  5
1404
102
{ACAD_REACTORS
330
13FC
102
}
330
13FC
100
DictionaryVariables
280
     0
  1
1
  0
DICTIONARYVAR
  5
1403
102
{ACAD_REACTORS
330
13FC
102
}
330
13FC
100
DictionaryVariables
280
     0
  1
0
  0
DICTIONARYVAR
  5
1402
102
{ACAD_REACTORS
330
13FC
102
}
330
13FC
100
DictionaryVariables
280
     0
  1
127
  0
DICTIONARYVAR
  5
1405
102
{ACAD_REACTORS
330
13FC
102
}
330
13FC
100
DictionaryVariables
280
     0
  1
2
  0
DICTIONARY
  5
1442
330
13E8
100
AcDbDictionary
280
     1
281
     1
  3
ACAD_XREC_ROUNDTRIP
360
1443
  0
DICTIONARY
  5
1444
330
13E9
100
AcDbDictionary
280
     1
281
     1
  3
ACAD_XREC_ROUNDTRIP
360
1445
  0
DICTIONARY
  5
1446
330
13EA
100
AcDbDictionary
280
     1
281
     1
  3
ACAD_XREC_ROUNDTRIP
360
1447
  0
DICTIONARY
  5
13A6
330
13A5
100
AcDbDictionary
280
     1
281
     1
  3
ACAD_XREC_ROUNDTRIP
360
140C
  3
BUMPTILE
360
13A8
  3
DIFFUSETILE
360
13A7
  3
OPACITYTILE
360
13AB
  3
REFLECTIONTILE
360
13AA
  3
REFRACTIONTILE
360
13AC
  3
SPECULARTILE
360
13A9
  0
DICTIONARY
  5
139E
330
139D
100
AcDbDictionary
280
     1
281
     1
  3
ACAD_XREC_ROUNDTRIP
360
140B
  3
BUMPTILE
360
13A0
  3
DIFFUSETILE
360
139F
  3
OPACITYTILE
360
13A3
  3
REFLECTIONTILE
360
13A2
  3
REFRACTIONTILE
360
13A4
  3
SPECULARTILE
360
13A1
  0
DICTIONARY
  5
13AE
330
13AD
100
AcDbDictionary
280
     1
281
     1
  3
ACAD_XREC_ROUNDTRIP
360
140D
  3
BUMPTILE
360
13B0
  3
DIFFUSETILE
360
13AF
  3
OPACITYTILE
360
13B3
  3
REFLECTIONTILE
360
13B2
  3
REFRACTIONTILE
360
13B4
  3
SPECULARTILE
360
13B1
  0
DICTIONARY
  5
1440
330
13E6
100
AcDbDictionary
280
     1
281
     1
  3
ACAD_XREC_ROUNDTRIP
360
1441
  0
DICTIONARY
  5
1407
330
13D0
100
AcDbDictionary
280
     1
281
     1
  3
ACAD_ROUNDTRIP_2008_TABLESTYLE_CELLSTYLEMAP
360
1408
  3
ACAD_XREC_ROUNDTRIP
360
143E
  0
DICTIONARY
  5
1418
330
13BB
100
AcDbDictionary
280
     1
281
     1
  3
ACAD_XREC_ROUNDTRIP
360
1419
  0
DICTIONARY
  5
1416
330
13BA
100
AcDbDictionary
280
     1
281
     1
  3
ACAD_XREC_ROUNDTRIP
360
1417
  0
DICTIONARY
  5
1424
330
13C1
100
AcDbDictionary
280
     1
281
     1
  3
ACAD_XREC_ROUNDTRIP
360
1425
  0
DICTIONARY
  5
142C
330
13C5
100
AcDbDictionary
280
     1
281
     1
  3
ACAD_XREC_ROUNDTRIP
360
142D
  0
DICTIONARY
  5
141E
330
13BE
100
AcDbDictionary
280
     1
281
     1
  3
ACAD_XREC_ROUNDTRIP
360
141F
  0
DICTIONARY
  5
1422
330
13C0
100
AcDbDictionary
280
     1
281
     1
  3
ACAD_XREC_ROUNDTRIP
360
1423
  0
DICTIONARY
  5
143C
330
13CD
100
AcDbDictionary
280
     1
281
     1
  3
ACAD_XREC_ROUNDTRIP
360
143D
  0
DICTIONARY
  5
142A
330
13C4
100
AcDbDictionary
280
     1
281
     1
  3
ACAD_XREC_ROUNDTRIP
360
142B
  0
DICTIONARY
  5
140E
330
13B6
100
AcDbDictionary
280
     1
281
     1
  3
ACAD_XREC_ROUNDTRIP
360
140F
  0
DICTIONARY
  5
1410
330
13B7
100
AcDbDictionary
280
     1
281
     1
  3
ACAD_XREC_ROUNDTRIP
360
1411
  0
DICTIONARY
  5
1412
330
13B8
100
AcDbDictionary
280
     1
281
     1
  3
ACAD_XREC_ROUNDTRIP
360
1413
  0
DICTIONARY
  5
1414
330
13B9
100
AcDbDictionary
280
     1
281
     1
  3
ACAD_XREC_ROUNDTRIP
360
1415
  0
DICTIONARY
  5
141C
330
13BD
100
AcDbDictionary
280
     1
281
     1
  3
ACAD_XREC_ROUNDTRIP
360
141D
  0
DICTIONARY
  5
1438
330
13CB
100
AcDbDictionary
280
     1
281
     1
  3
ACAD_XREC_ROUNDTRIP
360
1439
  0
DICTIONARY
  5
1428
330
13C3
100
AcDbDictionary
280
     1
281
     1
  3
ACAD_XREC_ROUNDTRIP
360
1429
  0
DICTIONARY
  5
143A
330
13CC
100
AcDbDictionary
280
     1
281
     1
  3
ACAD_XREC_ROUNDTRIP
360
143B
  0
DICTIONARY
  5
1420
330
13BF
100
AcDbDictionary
280
     1
281
     1
  3
ACAD_XREC_ROUNDTRIP
360
1421
  0
DICTIONARY
  5
1436
330
13CA
100
AcDbDictionary
280
     1
281
     1
  3
ACAD_XREC_ROUNDTRIP
360
1437
  0
DICTIONARY
  5
1434
330
13C9
100
AcDbDictionary
280
     1
281
     1
  3
ACAD_XREC_ROUNDTRIP
360
1435
  0
DICTIONARY
  5
142E
330
13C6
100
AcDbDictionary
280
     1
281
     1
  3
ACAD_XREC_ROUNDTRIP
360
142F
  0
DICTIONARY
  5
1430
330
13C7
100
AcDbDictionary
280
     1
281
     1
  3
ACAD_XREC_ROUNDTRIP
360
1431
  0
DICTIONARY
  5
1426
330
13C2
100
AcDbDictionary
280
     1
281
     1
  3
ACAD_XREC_ROUNDTRIP
360
1427
  0
DICTIONARY
  5
141A
330
13BC
100
AcDbDictionary
280
     1
281
     1
  3
ACAD_XREC_ROUNDTRIP
360
141B
  0
DICTIONARY
  5
1432
330
13C8
100
AcDbDictionary
280
     1
281
     1
  3
ACAD_XREC_ROUNDTRIP
360
1433
  0
XRECORD
  5
1443
102
{ACAD_REACTORS
330
1442
102
}
330
1442
100
AcDbXrecord
280
     1
102
DISPLAYNAME
  1
Imperial24
102
FLAGS
 90
        0
  0
XRECORD
  5
1445
102
{ACAD_REACTORS
330
1444
102
}
330
1444
100
AcDbXrecord
280
     1
102
SHADEPLOT
 70
     0
102
SHADEPLOTRESLEVEL
 70
     2
102
SHADEPLOTCUSTOMDPI
 70
   300
  0
XRECORD
  5
1447
102
{ACAD_REACTORS
330
1446
102
}
330
1446
100
AcDbXrecord
280
     1
102
SHADEPLOT
 70
     0
102
SHADEPLOTRESLEVEL
 70
     2
102
SHADEPLOTCUSTOMDPI
 70
   300
  0
XRECORD
  5
140C
102
{ACAD_REACTORS
330
13A6
102
}
330
13A6
100
AcDbXrecord
280
     1
102
MATERIAL
148
0.0
149
0.0
149
0.0
 93
        0
 94
      127
282
     0
 72
     0
 77
     0
171
     0
175
     0
179
     0
273
     0
  0
XRECORD
  5
13A8
102
{ACAD_REACTORS
330
13A6
102
}
330
13A6
100
AcDbXrecord
280
     1
270
     1
271
     1
  0
XRECORD
  5
13A7
102
{ACAD_REACTORS
330
13A6
102
}
330
13A6
100
AcDbXrecord
280
     1
270
     1
271
     1
  0
XRECORD
  5
13AB
102
{ACAD_REACTORS
330
13A6
102
}
330
13A6
100
AcDbXrecord
280
     1
270
     1
271
     1
  0
XRECORD
  5
13AA
102
{ACAD_REACTORS
330
13A6
102
}
330
13A6
100
AcDbXrecord
280
     1
270
     1
271
     1
  0
XRECORD
  5
13AC
102
{ACAD_REACTORS
330
13A6
102
}
330
13A6
100
AcDbXrecord
280
     1
270
     1
271
     1
  0
XRECORD
  5
13A9
102
{ACAD_REACTORS
330
13A6
102
}
330
13A6
100
AcDbXrecord
280
     1
270
     1
271
     1
  0
XRECORD
  5
140B
102
{ACAD_REACTORS
330
139E
102
}
330
139E
100
AcDbXrecord
280
     1
102
MATERIAL
148
0.0
149
0.0
149
0.0
 93
        0
 94
      127
282
     0
 72
     0
 77
     0
171
     0
175
     0
179
     0
273
     0
  0
XRECORD
  5
13A0
102
{ACAD_REACTORS
330
139E
102
}
330
139E
100
AcDbXrecord
280
     1
270
     1
271
     1
  0
XRECORD
  5
139F
102
{ACAD_REACTORS
330
139E
102
}
330
139E
100
AcDbXrecord
280
     1
270
     1
271
     1
  0
XRECORD
  5
13A3
102
{ACAD_REACTORS
330
139E
102
}
330
139E
100
AcDbXrecord
280
     1
270
     1
271
     1
  0
XRECORD
  5
13A2
102
{ACAD_REACTORS
330
139E
102
}
330
139E
100
AcDbXrecord
280
     1
270
     1
271
     1
  0
XRECORD
  5
13A4
102
{ACAD_REACTORS
330
139E
102
}
330
139E
100
AcDbXrecord
280
     1
270
     1
271
     1
  0
XRECORD
  5
13A1
102
{ACAD_REACTORS
330
139E
102
}
330
139E
100
AcDbXrecord
280
     1
270
     1
271
     1
  0
XRECORD
  5
140D
102
{ACAD_REACTORS
330
13AE
102
}
330
13AE
100
AcDbXrecord
280
     1
102
MATERIAL
148
0.0
149
0.0
149
0.0
 93
        0
 94
      127
282
     0
 72
     0
 77
     0
171
     0
175
     0
179
     0
273
     0
  0
XRECORD
  5
13B0
102
{ACAD_REACTORS
330
13AE
102
}
330
13AE
100
AcDbXrecord
280
     1
270
     1
271
     1
  0
XRECORD
  5
13AF
102
{ACAD_REACTORS
330
13AE
102
}
330
13AE
100
AcDbXrecord
280
     1
270
     1
271
     1
  0
XRECORD
  5
13B3
102
{ACAD_REACTORS
330
13AE
102
}
330
13AE
100
AcDbXrecord
280
     1
270
     1
271
     1
  0
XRECORD
  5
13B2
102
{ACAD_REACTORS
330
13AE
102
}
330
13AE
100
AcDbXrecord
280
     1
270
     1
271
     1
  0
XRECORD
  5
13B4
102
{ACAD_REACTORS
330
13AE
102
}
330
13AE
100
AcDbXrecord
280
     1
270
     1
271
     1
  0
XRECORD
  5
13B1
102
{ACAD_REACTORS
330
13AE
102
}
330
13AE
100
AcDbXrecord
280
     1
270
     1
271
     1
  0
XRECORD
  5
1441
102
{ACAD_REACTORS
330
1440
102
}
330
1440
100
AcDbXrecord
280
     1
102
DISPLAYNAME
  1
Imperial24
102
FLAGS
 90
        0
  0
CELLSTYLEMAP
  5
1408
102
{ACAD_REACTORS
330
1407
102
}
330
1407
100
AcDbCellStyleMap
 90
        3
300
CELLSTYLE
  1
TABLEFORMAT_BEGIN
 90
        5
170
     1
 91
        0
 92
    32768
 62
   257
 93
        1
300
CONTENTFORMAT
  1
CONTENTFORMAT_BEGIN
 90
        0
 91
        0
 92
      512
 93
        0
300

 40
0.0
140
1.0
 94
        5
 62
     0
340
F
144
0.25
309
CONTENTFORMAT_END
171
     0
 94
        0
309
TABLEFORMAT_END
  1
CELLSTYLE_BEGIN
 90
        1
 91
        1
300
_TITLE
309
CELLSTYLE_END
300
CELLSTYLE
  1
TABLEFORMAT_BEGIN
 90
        5
170
     1
 91
        0
 92
        0
 62
   257
 93
        1
300
CONTENTFORMAT
  1
CONTENTFORMAT_BEGIN
 90
        0
 91
        0
 92
      512
 93
        0
300

 40
0.0
140
1.0
 94
        5
 62
     0
340
F
144
0.18
309
CONTENTFORMAT_END
171
     0
 94
        0
309
TABLEFORMAT_END
  1
CELLSTYLE_BEGIN
 90
        2
 91
        1
300
_HEADER
309
CELLSTYLE_END
300
CELLSTYLE
  1
TABLEFORMAT_BEGIN
 90
        5
170
     1
 91
        0
 92
        0
 62
   257
 93
        1
300
CONTENTFORMAT
  1
CONTENTFORMAT_BEGIN
 90
        0
 91
        0
 92
      512
 93
        0
300

 40
0.0
140
1.0
 94
        2
 62
     0
340
F
144
0.18
309
CONTENTFORMAT_END
171
     0
 94
        0
309
TABLEFORMAT_END
  1
CELLSTYLE_BEGIN
 90
        3
 91
        2
300
_DATA
309
CELLSTYLE_END
  0
XRECORD
  5
143E
102
{ACAD_REACTORS
330
1407
102
}
330
1407
100
AcDbXrecord
280
     1
102
ACAD_ROUNDTRIP_PRE2007_TABLESTYLE
 90
      512
 91
        0
  1

 92
      512
 93
        0
  2

 94
      512
 95
        0
  3

  0
XRECORD
  5
1419
102
{ACAD_REACTORS
330
1418
102
}
330
1418
100
AcDbXrecord
280
     1
102
RTVSPost2010Prop28
280
     1
102
RTVSPost2010PropOp28
 70
     1
102
RTVSPost2010Prop29
280
     1
102
RTVSPost2010PropOp29
 70
     1
102
RTVSPost2010Prop30
280
     0
102
RTVSPost2010PropOp30
 70
     1
102
RTVSPost2010Prop31
280
     0
102
RTVSPost2010PropOp31
 70
     1
102
RTVSPost2010Prop32
280
     0
102
RTVSPost2010PropOp32
 70
     1
102
RTVSPost2010Prop33
280
     0
102
RTVSPost2010PropOp33
 70
     1
102
RTVSPost2010Prop34
280
     0
102
RTVSPost2010PropOp34
 70
     1
102
RTVSPost2010Prop35
280
     0
102
RTVSPost2010PropOp35
 70
     1
102
RTVSPost2010Prop36
280
     0
102
RTVSPost2010PropOp36
 70
     1
102
RTVSPost2010Prop37
 90
       50
102
RTVSPost2010PropOp37
 70
     1
102
RTVSPost2010Prop38
140
0.0
102
RTVSPost2010PropOp38
 70
     1
102
RTVSPost2010Prop39
140
1.0
102
RTVSPost2010PropOp39
 70
     1
102
RTVSPost2010Prop40
 90
        0
102
RTVSPost2010PropOp40
 70
     1
102
RTVSPost2010Prop41ColorIndex
 90
       18
102
RTVSPost2010Prop41ColorRGB
 90
        0
102
RTVSPost2010PropOp41
 70
     1
102
RTVSPost2010Prop42
 90
       50
102
RTVSPost2010PropOp42
 70
     1
102
RTVSPost2010Prop43
 90
        3
102
RTVSPost2010PropOp43
 70
     1
102
RTVSPost2010Prop44ColorIndex
 90
        5
102
RTVSPost2010Prop44ColorRGB
 90
      255
102
RTVSPost2010PropOp44
 70
     1
102
RTVSPost2010Prop45
280
     0
102
RTVSPost2010PropOp45
 70
     1
102
RTVSPost2010Prop46
 90
       50
102
RTVSPost2010PropOp46
 70
     1
102
RTVSPost2010Prop47
 90
       50
102
RTVSPost2010PropOp47
 70
     1
102
RTVSPost2010Prop48
 90
       50
102
RTVSPost2010PropOp48
 70
     1
102
RTVSPost2010Prop49
280
     0
102
RTVSPost2010PropOp49
 70
     1
102
RTVSPost2010Prop50
 90
       50
102
RTVSPost2010PropOp50
 70
     1
102
RTVSPost2010Prop51ColorIndex
 90
      256
102
RTVSPost2010Prop51ColorRGB
 90
-16777216
102
RTVSPost2010PropOp51
 70
     0
102
RTVSPost2010Prop52
140
1.0
102
RTVSPost2010PropOp52
 70
     0
102
RTVSPost2010Prop53
 90
        2
102
RTVSPost2010PropOp53
 70
     1
102
RTVSPost2010Prop54
  1
strokes_ogs.tif
102
RTVSPost2010PropOp54
 70
     1
102
RTVSPost2010Prop55
280
     0
102
RTVSPost2010PropOp55
 70
     1
102
RTVSPost2010Prop56
140
1.0
102
RTVSPost2010PropOp56
 70
     1
102
RTVSPost2010Prop57
140
1.0
102
RTVSPost2010PropOp57
 70
     1
102
RTVSPropertyOp0
 70
     1
102
RTVSPropertyOp1
 70
     1
102
RTVSPropertyOp2
 70
     1
102
RTVSPropertyOp3
 70
     1
102
RTVSPropertyOp4
 70
     1
102
RTVSPropertyOp5
 70
     1
102
RTVSPropertyOp6
 70
     1
102
RTVSPropertyOp7
 70
     1
102
RTVSPropertyOp8
 70
     1
102
RTVSPropertyOp9
 70
     1
102
RTVSPropertyOp10
 70
     1
102
RTVSPropertyOp11
 70
     1
102
RTVSPropertyOp12
 70
     1
102
RTVSPropertyOp13
 70
     1
102
RTVSPropertyOp14
 70
     1
102
RTVSPropertyOp15
 70
     1
102
RTVSPropertyOp16
 70
     1
102
RTVSPropertyOp17
 70
     1
102
RTVSPropertyOp18
 70
     1
102
RTVSPropertyOp19
 70
     1
102
RTVSPropertyOp20
 70
     1
102
RTVSPropertyOp21
 70
     1
102
RTVSPropertyOp22
 70
     1
102
RTVSPropertyOp23
 70
     1
102
RTVSPropertyOp24
 70
     1
102
RTVSPropertyOp25
 70
     1
102
RTVSPropertyOp26
 70
     1
102
RTVSPropertyOp27
 70
     1
102
RTVSPropertyOp28
 70
     1
102
RTVSPropertyOp29
 70
     1
102
RTVSPropertyOp30
 70
     1
102
RTVSPropertyOp31
 70
     1
102
RTVSPropertyOp32
 70
     1
102
RTVSPropertyOp33
 70
     1
102
RTVSPropertyOp34
 70
     1
102
RTVSPropertyOp35
 70
     1
102
RTVSPropertyOp36
 70
     1
102
RTVSPropertyOp37
 70
     1
102
RTVSPropertyOp38
 70
     1
102
RTVSPropertyOp39
 70
     1
102
RTVSPropertyOp40
 70
     1
102
RTVSPropertyOp41
 70
     1
102
RTVSPropertyOp42
 70
     1
102
RTVSPropertyOp43
 70
     1
102
RTVSPropertyOp44
 70
     1
102
RTVSPropertyOp45
 70
     1
102
RTVSPropertyOp46
 70
     1
102
RTVSPropertyOp47
 70
     1
102
RTVSPropertyOp48
 70
     1
102
RTVSPropertyOp49
 70
     1
102
RTVSPropertyOp50
 70
     1
102
RTVSPropertyOp51
 70
     0
102
RTVSPropertyOp52
 70
     0
102
RTVSPropertyOp53
 70
     1
102
RTVSPropertyOp54
 70
     1
102
RTVSPropertyOp55
 70
     1
102
RTVSPropertyOp56
 70
     1
102
RTVSPropertyOp57
 70
     1
102
RTVSPropertyOp58
 70
     1
102
RTVSPropertyOp59
 70
     1
102
RTVSPropertyOp60
 70
     1
102
RTVSPropertyOp61
 70
     1
102
RTVSPropertyOp62
 70
     1
  0
XRECORD
  5
1417
102
{ACAD_REACTORS
330
1416
102
}
330
1416
100
AcDbXrecord
280
     1
102
RTVSPost2010Prop28
280
     0
102
RTVSPost2010PropOp28
 70
     1
102
RTVSPost2010Prop29
280
     1
102
RTVSPost2010PropOp29
 70
     1
102
RTVSPost2010Prop30
280
     1
102
RTVSPost2010PropOp30
 70
     1
102
RTVSPost2010Prop31
280
     0
102
RTVSPost2010PropOp31
 70
     1
102
RTVSPost2010Prop32
280
     0
102
RTVSPost2010PropOp32
 70
     1
102
RTVSPost2010Prop33
280
     0
102
RTVSPost2010PropOp33
 70
     1
102
RTVSPost2010Prop34
280
     0
102
RTVSPost2010PropOp34
 70
     1
102
RTVSPost2010Prop35
280
     0
102
RTVSPost2010PropOp35
 70
     1
102
RTVSPost2010Prop36
280
     0
102
RTVSPost2010PropOp36
 70
     1
102
RTVSPost2010Prop37
 90
       50
102
RTVSPost2010PropOp37
 70
     1
102
RTVSPost2010Prop38
140
0.0
102
RTVSPost2010PropOp38
 70
     1
102
RTVSPost2010Prop39
140
1.0
102
RTVSPost2010PropOp39
 70
     1
102
RTVSPost2010Prop40
 90
        0
102
RTVSPost2010PropOp40
 70
     1
102
RTVSPost2010Prop41ColorIndex
 90
       18
102
RTVSPost2010Prop41ColorRGB
 90
        0
102
RTVSPost2010PropOp41
 70
     1
102
RTVSPost2010Prop42
 90
       50
102
RTVSPost2010PropOp42
 70
     1
102
RTVSPost2010Prop43
 90
        3
102
RTVSPost2010PropOp43
 70
     1
102
RTVSPost2010Prop44ColorIndex
 90
        5
102
RTVSPost2010Prop44ColorRGB
 90
      255
102
RTVSPost2010PropOp44
 70
     1
102
RTVSPost2010Prop45
280
     0
102
RTVSPost2010PropOp45
 70
     1
102
RTVSPost2010Prop46
 90
       50
102
RTVSPost2010PropOp46
 70
     1
102
RTVSPost2010Prop47
 90
       50
102
RTVSPost2010PropOp47
 70
     1
102
RTVSPost2010Prop48
 90
       50
102
RTVSPost2010PropOp48
 70
     1
102
RTVSPost2010Prop49
280
     0
102
RTVSPost2010PropOp49
 70
     1
102
RTVSPost2010Prop50
 90
       50
102
RTVSPost2010PropOp50
 70
     1
102
RTVSPost2010Prop51ColorIndex
 90
      256
102
RTVSPost2010Prop51ColorRGB
 90
-16777216
102
RTVSPost2010PropOp51
 70
     0
102
RTVSPost2010Prop52
140
1.0
102
RTVSPost2010PropOp52
 70
     0
102
RTVSPost2010Prop53
 90
        2
102
RTVSPost2010PropOp53
 70
     1
102
RTVSPost2010Prop54
  1
strokes_ogs.tif
102
RTVSPost2010PropOp54
 70
     1
102
RTVSPost2010Prop55
280
     0
102
RTVSPost2010PropOp55
 70
     1
102
RTVSPost2010Prop56
140
1.0
102
RTVSPost2010PropOp56
 70
     1
102
RTVSPost2010Prop57
140
1.0
102
RTVSPost2010PropOp57
 70
     1
102
RTVSPropertyOp0
 70
     1
102
RTVSPropertyOp1
 70
     1
102
RTVSPropertyOp2
 70
     1
102
RTVSPropertyOp3
 70
     1
102
RTVSPropertyOp4
 70
     1
102
RTVSPropertyOp5
 70
     1
102
RTVSPropertyOp6
 70
     1
102
RTVSPropertyOp7
 70
     1
102
RTVSPropertyOp8
 70
     1
102
RTVSPropertyOp9
 70
     1
102
RTVSPropertyOp10
 70
     1
102
RTVSPropertyOp11
 70
     1
102
RTVSPropertyOp12
 70
     1
102
RTVSPropertyOp13
 70
     1
102
RTVSPropertyOp14
 70
     1
102
RTVSPropertyOp15
 70
     1
102
RTVSPropertyOp16
 70
     1
102
RTVSPropertyOp17
 70
     1
102
RTVSPropertyOp18
 70
     1
102
RTVSPropertyOp19
 70
     1
102
RTVSPropertyOp20
 70
     1
102
RTVSPropertyOp21
 70
     1
102
RTVSPropertyOp22
 70
     1
102
RTVSPropertyOp23
 70
     1
102
RTVSPropertyOp24
 70
     1
102
RTVSPropertyOp25
 70
     1
102
RTVSPropertyOp26
 70
     1
102
RTVSPropertyOp27
 70
     1
102
RTVSPropertyOp28
 70
     1
102
RTVSPropertyOp29
 70
     1
102
RTVSPropertyOp30
 70
     1
102
RTVSPropertyOp31
 70
     1
102
RTVSPropertyOp32
 70
     1
102
RTVSPropertyOp33
 70
     1
102
RTVSPropertyOp34
 70
     1
102
RTVSPropertyOp35
 70
     1
102
RTVSPropertyOp36
 70
     1
102
RTVSPropertyOp37
 70
     1
102
RTVSPropertyOp38
 70
     1
102
RTVSPropertyOp39
 70
     1
102
RTVSPropertyOp40
 70
     1
102
RTVSPropertyOp41
 70
     1
102
RTVSPropertyOp42
 70
     1
102
RTVSPropertyOp43
 70
     1
102
RTVSPropertyOp44
 70
     1
102
RTVSPropertyOp45
 70
     1
102
RTVSPropertyOp46
 70
     1
102
RTVSPropertyOp47
 70
     1
102
RTVSPropertyOp48
 70
     1
102
RTVSPropertyOp49
 70
     1
102
RTVSPropertyOp50
 70
     1
102
RTVSPropertyOp51
 70
     0
102
RTVSPropertyOp52
 70
     0
102
RTVSPropertyOp53
 70
     1
102
RTVSPropertyOp54
 70
     1
102
RTVSPropertyOp55
 70
     1
102
RTVSPropertyOp56
 70
     1
102
RTVSPropertyOp57
 70
     1
102
RTVSPropertyOp58
 70
     1
102
RTVSPropertyOp59
 70
     1
102
RTVSPropertyOp60
 70
     1
102
RTVSPropertyOp61
 70
     1
102
RTVSPropertyOp62
 70
     1
  0
XRECORD
  5
1425
102
{ACAD_REACTORS
330
1424
102
}
330
1424
100
AcDbXrecord
280
     1
102
RTVSPost2010Prop28
280
     0
102
RTVSPost2010PropOp28
 70
     1
102
RTVSPost2010Prop29
280
     1
102
RTVSPost2010PropOp29
 70
     1
102
RTVSPost2010Prop30
280
     1
102
RTVSPost2010PropOp30
 70
     1
102
RTVSPost2010Prop31
280
     0
102
RTVSPost2010PropOp31
 70
     1
102
RTVSPost2010Prop32
280
     0
102
RTVSPost2010PropOp32
 70
     1
102
RTVSPost2010Prop33
280
     0
102
RTVSPost2010PropOp33
 70
     1
102
RTVSPost2010Prop34
280
     0
102
RTVSPost2010PropOp34
 70
     1
102
RTVSPost2010Prop35
280
     0
102
RTVSPost2010PropOp35
 70
     1
102
RTVSPost2010Prop36
280
     0
102
RTVSPost2010PropOp36
 70
     1
102
RTVSPost2010Prop37
 90
       50
102
RTVSPost2010PropOp37
 70
     1
102
RTVSPost2010Prop38
140
0.0
102
RTVSPost2010PropOp38
 70
     1
102
RTVSPost2010Prop39
140
1.0
102
RTVSPost2010PropOp39
 70
     1
102
RTVSPost2010Prop40
 90
        0
102
RTVSPost2010PropOp40
 70
     1
102
RTVSPost2010Prop41ColorIndex
 90
       18
102
RTVSPost2010Prop41ColorRGB
 90
        0
102
RTVSPost2010PropOp41
 70
     1
102
RTVSPost2010Prop42
 90
       50
102
RTVSPost2010PropOp42
 70
     1
102
RTVSPost2010Prop43
 90
        3
102
RTVSPost2010PropOp43
 70
     1
102
RTVSPost2010Prop44ColorIndex
 90
        5
102
RTVSPost2010Prop44ColorRGB
 90
      255
102
RTVSPost2010PropOp44
 70
     1
102
RTVSPost2010Prop45
280
     0
102
RTVSPost2010PropOp45
 70
     1
102
RTVSPost2010Prop46
 90
       50
102
RTVSPost2010PropOp46
 70
     1
102
RTVSPost2010Prop47
 90
       50
102
RTVSPost2010PropOp47
 70
     1
102
RTVSPost2010Prop48
 90
       50
102
RTVSPost2010PropOp48
 70
     1
102
RTVSPost2010Prop49
280
     0
102
RTVSPost2010PropOp49
 70
     1
102
RTVSPost2010Prop50
 90
       50
102
RTVSPost2010PropOp50
 70
     1
102
RTVSPost2010Prop51ColorIndex
 90
      256
102
RTVSPost2010Prop51ColorRGB
 90
-16777216
102
RTVSPost2010PropOp51
 70
     0
102
RTVSPost2010Prop52
140
1.0
102
RTVSPost2010PropOp52
 70
     0
102
RTVSPost2010Prop53
 90
        2
102
RTVSPost2010PropOp53
 70
     1
102
RTVSPost2010Prop54
  1
strokes_ogs.tif
102
RTVSPost2010PropOp54
 70
     1
102
RTVSPost2010Prop55
280
     0
102
RTVSPost2010PropOp55
 70
     1
102
RTVSPost2010Prop56
140
1.0
102
RTVSPost2010PropOp56
 70
     1
102
RTVSPost2010Prop57
140
1.0
102
RTVSPost2010PropOp57
 70
     1
102
RTVSPropertyOp0
 70
     1
102
RTVSPropertyOp1
 70
     1
102
RTVSPropertyOp2
 70
     1
102
RTVSPropertyOp3
 70
     1
102
RTVSPropertyOp4
 70
     1
102
RTVSPropertyOp5
 70
     1
102
RTVSPropertyOp6
 70
     1
102
RTVSPropertyOp7
 70
     1
102
RTVSPropertyOp8
 70
     1
102
RTVSPropertyOp9
 70
     1
102
RTVSPropertyOp10
 70
     1
102
RTVSPropertyOp11
 70
     1
102
RTVSPropertyOp12
 70
     1
102
RTVSPropertyOp13
 70
     1
102
RTVSPropertyOp14
 70
     1
102
RTVSPropertyOp15
 70
     1
102
RTVSPropertyOp16
 70
     1
102
RTVSPropertyOp17
 70
     1
102
RTVSPropertyOp18
 70
     1
102
RTVSPropertyOp19
 70
     1
102
RTVSPropertyOp20
 70
     1
102
RTVSPropertyOp21
 70
     1
102
RTVSPropertyOp22
 70
     1
102
RTVSPropertyOp23
 70
     1
102
RTVSPropertyOp24
 70
     1
102
RTVSPropertyOp25
 70
     1
102
RTVSPropertyOp26
 70
     1
102
RTVSPropertyOp27
 70
     1
102
RTVSPropertyOp28
 70
     1
102
RTVSPropertyOp29
 70
     1
102
RTVSPropertyOp30
 70
     1
102
RTVSPropertyOp31
 70
     1
102
RTVSPropertyOp32
 70
     1
102
RTVSPropertyOp33
 70
     1
102
RTVSPropertyOp34
 70
     1
102
RTVSPropertyOp35
 70
     1
102
RTVSPropertyOp36
 70
     1
102
RTVSPropertyOp37
 70
     1
102
RTVSPropertyOp38
 70
     1
102
RTVSPropertyOp39
 70
     1
102
RTVSPropertyOp40
 70
     1
102
RTVSPropertyOp41
 70
     1
102
RTVSPropertyOp42
 70
     1
102
RTVSPropertyOp43
 70
     1
102
RTVSPropertyOp44
 70
     1
102
RTVSPropertyOp45
 70
     1
102
RTVSPropertyOp46
 70
     1
102
RTVSPropertyOp47
 70
     1
102
RTVSPropertyOp48
 70
     1
102
RTVSPropertyOp49
 70
     1
102
RTVSPropertyOp50
 70
     1
102
RTVSPropertyOp51
 70
     0
102
RTVSPropertyOp52
 70
     0
102
RTVSPropertyOp53
 70
     1
102
RTVSPropertyOp54
 70
     1
102
RTVSPropertyOp55
 70
     1
102
RTVSPropertyOp56
 70
     1
102
RTVSPropertyOp57
 70
     1
102
RTVSPropertyOp58
 70
     1
102
RTVSPropertyOp59
 70
     1
102
RTVSPropertyOp60
 70
     1
102
RTVSPropertyOp61
 70
     1
102
RTVSPropertyOp62
 70
     1
  0
XRECORD
  5
142D
102
{ACAD_REACTORS
330
142C
102
}
330
142C
100
AcDbXrecord
280
     1
102
RTVSPost2010Prop28
280
     0
102
RTVSPost2010PropOp28
 70
     1
102
RTVSPost2010Prop29
280
     1
102
RTVSPost2010PropOp29
 70
     1
102
RTVSPost2010Prop30
280
     1
102
RTVSPost2010PropOp30
 70
     1
102
RTVSPost2010Prop31
280
     0
102
RTVSPost2010PropOp31
 70
     1
102
RTVSPost2010Prop32
280
     0
102
RTVSPost2010PropOp32
 70
     1
102
RTVSPost2010Prop33
280
     0
102
RTVSPost2010PropOp33
 70
     1
102
RTVSPost2010Prop34
280
     0
102
RTVSPost2010PropOp34
 70
     1
102
RTVSPost2010Prop35
280
     0
102
RTVSPost2010PropOp35
 70
     1
102
RTVSPost2010Prop36
280
     0
102
RTVSPost2010PropOp36
 70
     1
102
RTVSPost2010Prop37
 90
       50
102
RTVSPost2010PropOp37
 70
     1
102
RTVSPost2010Prop38
140
0.0
102
RTVSPost2010PropOp38
 70
     1
102
RTVSPost2010Prop39
140
1.0
102
RTVSPost2010PropOp39
 70
     1
102
RTVSPost2010Prop40
 90
        0
102
RTVSPost2010PropOp40
 70
     1
102
RTVSPost2010Prop41ColorIndex
 90
       18
102
RTVSPost2010Prop41ColorRGB
 90
        0
102
RTVSPost2010PropOp41
 70
     1
102
RTVSPost2010Prop42
 90
       50
102
RTVSPost2010PropOp42
 70
     1
102
RTVSPost2010Prop43
 90
        3
102
RTVSPost2010PropOp43
 70
     1
102
RTVSPost2010Prop44ColorIndex
 90
        5
102
RTVSPost2010Prop44ColorRGB
 90
      255
102
RTVSPost2010PropOp44
 70
     1
102
RTVSPost2010Prop45
280
     0
102
RTVSPost2010PropOp45
 70
     1
102
RTVSPost2010Prop46
 90
       50
102
RTVSPost2010PropOp46
 70
     1
102
RTVSPost2010Prop47
 90
       50
102
RTVSPost2010PropOp47
 70
     1
102
RTVSPost2010Prop48
 90
       50
102
RTVSPost2010PropOp48
 70
     1
102
RTVSPost2010Prop49
280
     0
102
RTVSPost2010PropOp49
 70
     1
102
RTVSPost2010Prop50
 90
       50
102
RTVSPost2010PropOp50
 70
     1
102
RTVSPost2010Prop51ColorIndex
 90
      256
102
RTVSPost2010Prop51ColorRGB
 90
-16777216
102
RTVSPost2010PropOp51
 70
     0
102
RTVSPost2010Prop52
140
1.0
102
RTVSPost2010PropOp52
 70
     0
102
RTVSPost2010Prop53
 90
        2
102
RTVSPost2010PropOp53
 70
     1
102
RTVSPost2010Prop54
  1
strokes_ogs.tif
102
RTVSPost2010PropOp54
 70
     1
102
RTVSPost2010Prop55
280
     0
102
RTVSPost2010PropOp55
 70
     1
102
RTVSPost2010Prop56
140
1.0
102
RTVSPost2010PropOp56
 70
     1
102
RTVSPost2010Prop57
140
1.0
102
RTVSPost2010PropOp57
 70
     1
102
RTVSPropertyOp0
 70
     1
102
RTVSPropertyOp1
 70
     1
102
RTVSPropertyOp2
 70
     1
102
RTVSPropertyOp3
 70
     1
102
RTVSPropertyOp4
 70
     1
102
RTVSPropertyOp5
 70
     1
102
RTVSPropertyOp6
 70
     1
102
RTVSPropertyOp7
 70
     1
102
RTVSPropertyOp8
 70
     1
102
RTVSPropertyOp9
 70
     1
102
RTVSPropertyOp10
 70
     1
102
RTVSPropertyOp11
 70
     1
102
RTVSPropertyOp12
 70
     1
102
RTVSPropertyOp13
 70
     1
102
RTVSPropertyOp14
 70
     1
102
RTVSPropertyOp15
 70
     1
102
RTVSPropertyOp16
 70
     1
102
RTVSPropertyOp17
 70
     1
102
RTVSPropertyOp18
 70
     1
102
RTVSPropertyOp19
 70
     1
102
RTVSPropertyOp20
 70
     1
102
RTVSPropertyOp21
 70
     1
102
RTVSPropertyOp22
 70
     1
102
RTVSPropertyOp23
 70
     1
102
RTVSPropertyOp24
 70
     1
102
RTVSPropertyOp25
 70
     1
102
RTVSPropertyOp26
 70
     1
102
RTVSPropertyOp27
 70
     1
102
RTVSPropertyOp28
 70
     1
102
RTVSPropertyOp29
 70
     1
102
RTVSPropertyOp30
 70
     1
102
RTVSPropertyOp31
 70
     1
102
RTVSPropertyOp32
 70
     1
102
RTVSPropertyOp33
 70
     1
102
RTVSPropertyOp34
 70
     1
102
RTVSPropertyOp35
 70
     1
102
RTVSPropertyOp36
 70
     1
102
RTVSPropertyOp37
 70
     1
102
RTVSPropertyOp38
 70
     1
102
RTVSPropertyOp39
 70
     1
102
RTVSPropertyOp40
 70
     1
102
RTVSPropertyOp41
 70
     1
102
RTVSPropertyOp42
 70
     1
102
RTVSPropertyOp43
 70
     1
102
RTVSPropertyOp44
 70
     1
102
RTVSPropertyOp45
 70
     1
102
RTVSPropertyOp46
 70
     1
102
RTVSPropertyOp47
 70
     1
102
RTVSPropertyOp48
 70
     1
102
RTVSPropertyOp49
 70
     1
102
RTVSPropertyOp50
 70
     1
102
RTVSPropertyOp51
 70
     0
102
RTVSPropertyOp52
 70
     0
102
RTVSPropertyOp53
 70
     1
102
RTVSPropertyOp54
 70
     1
102
RTVSPropertyOp55
 70
     1
102
RTVSPropertyOp56
 70
     1
102
RTVSPropertyOp57
 70
     1
102
RTVSPropertyOp58
 70
     1
102
RTVSPropertyOp59
 70
     1
102
RTVSPropertyOp60
 70
     1
102
RTVSPropertyOp61
 70
     1
102
RTVSPropertyOp62
 70
     1
  0
XRECORD
  5
141F
102
{ACAD_REACTORS
330
141E
102
}
330
141E
100
AcDbXrecord
280
     1
102
RTVSPost2010Prop28
280
     0
102
RTVSPost2010PropOp28
 70
     1
102
RTVSPost2010Prop29
280
     1
102
RTVSPost2010PropOp29
 70
     1
102
RTVSPost2010Prop30
280
     1
102
RTVSPost2010PropOp30
 70
     1
102
RTVSPost2010Prop31
280
     0
102
RTVSPost2010PropOp31
 70
     1
102
RTVSPost2010Prop32
280
     0
102
RTVSPost2010PropOp32
 70
     1
102
RTVSPost2010Prop33
280
     0
102
RTVSPost2010PropOp33
 70
     1
102
RTVSPost2010Prop34
280
     0
102
RTVSPost2010PropOp34
 70
     1
102
RTVSPost2010Prop35
280
     0
102
RTVSPost2010PropOp35
 70
     1
102
RTVSPost2010Prop36
280
     0
102
RTVSPost2010PropOp36
 70
     1
102
RTVSPost2010Prop37
 90
       50
102
RTVSPost2010PropOp37
 70
     1
102
RTVSPost2010Prop38
140
0.0
102
RTVSPost2010PropOp38
 70
     1
102
RTVSPost2010Prop39
140
1.0
102
RTVSPost2010PropOp39
 70
     1
102
RTVSPost2010Prop40
 90
        0
102
RTVSPost2010PropOp40
 70
     1
102
RTVSPost2010Prop41ColorIndex
 90
       18
102
RTVSPost2010Prop41ColorRGB
 90
        0
102
RTVSPost2010PropOp41
 70
     1
102
RTVSPost2010Prop42
 90
       50
102
RTVSPost2010PropOp42
 70
     1
102
RTVSPost2010Prop43
 90
        3
102
RTVSPost2010PropOp43
 70
     1
102
RTVSPost2010Prop44ColorIndex
 90
        5
102
RTVSPost2010Prop44ColorRGB
 90
      255
102
RTVSPost2010PropOp44
 70
     1
102
RTVSPost2010Prop45
280
     0
102
RTVSPost2010PropOp45
 70
     1
102
RTVSPost2010Prop46
 90
       50
102
RTVSPost2010PropOp46
 70
     1
102
RTVSPost2010Prop47
 90
       50
102
RTVSPost2010PropOp47
 70
     1
102
RTVSPost2010Prop48
 90
       50
102
RTVSPost2010PropOp48
 70
     1
102
RTVSPost2010Prop49
280
     0
102
RTVSPost2010PropOp49
 70
     1
102
RTVSPost2010Prop50
 90
       50
102
RTVSPost2010PropOp50
 70
     1
102
RTVSPost2010Prop51ColorIndex
 90
      256
102
RTVSPost2010Prop51ColorRGB
 90
-16777216
102
RTVSPost2010PropOp51
 70
     0
102
RTVSPost2010Prop52
140
1.0
102
RTVSPost2010PropOp52
 70
     0
102
RTVSPost2010Prop53
 90
        2
102
RTVSPost2010PropOp53
 70
     1
102
RTVSPost2010Prop54
  1
strokes_ogs.tif
102
RTVSPost2010PropOp54
 70
     1
102
RTVSPost2010Prop55
280
     0
102
RTVSPost2010PropOp55
 70
     1
102
RTVSPost2010Prop56
140
1.0
102
RTVSPost2010PropOp56
 70
     1
102
RTVSPost2010Prop57
140
1.0
102
RTVSPost2010PropOp57
 70
     1
102
RTVSPropertyOp0
 70
     1
102
RTVSPropertyOp1
 70
     1
102
RTVSPropertyOp2
 70
     1
102
RTVSPropertyOp3
 70
     1
102
RTVSPropertyOp4
 70
     1
102
RTVSPropertyOp5
 70
     1
102
RTVSPropertyOp6
 70
     1
102
RTVSPropertyOp7
 70
     1
102
RTVSPropertyOp8
 70
     1
102
RTVSPropertyOp9
 70
     1
102
RTVSPropertyOp10
 70
     1
102
RTVSPropertyOp11
 70
     1
102
RTVSPropertyOp12
 70
     1
102
RTVSPropertyOp13
 70
     1
102
RTVSPropertyOp14
 70
     1
102
RTVSPropertyOp15
 70
     1
102
RTVSPropertyOp16
 70
     1
102
RTVSPropertyOp17
 70
     1
102
RTVSPropertyOp18
 70
     1
102
RTVSPropertyOp19
 70
     1
102
RTVSPropertyOp20
 70
     1
102
RTVSPropertyOp21
 70
     1
102
RTVSPropertyOp22
 70
     1
102
RTVSPropertyOp23
 70
     1
102
RTVSPropertyOp24
 70
     1
102
RTVSPropertyOp25
 70
     1
102
RTVSPropertyOp26
 70
     1
102
RTVSPropertyOp27
 70
     1
102
RTVSPropertyOp28
 70
     1
102
RTVSPropertyOp29
 70
     1
102
RTVSPropertyOp30
 70
     1
102
RTVSPropertyOp31
 70
     1
102
RTVSPropertyOp32
 70
     1
102
RTVSPropertyOp33
 70
     1
102
RTVSPropertyOp34
 70
     1
102
RTVSPropertyOp35
 70
     1
102
RTVSPropertyOp36
 70
     1
102
RTVSPropertyOp37
 70
     1
102
RTVSPropertyOp38
 70
     1
102
RTVSPropertyOp39
 70
     1
102
RTVSPropertyOp40
 70
     1
102
RTVSPropertyOp41
 70
     1
102
RTVSPropertyOp42
 70
     1
102
RTVSPropertyOp43
 70
     1
102
RTVSPropertyOp44
 70
     1
102
RTVSPropertyOp45
 70
     1
102
RTVSPropertyOp46
 70
     1
102
RTVSPropertyOp47
 70
     1
102
RTVSPropertyOp48
 70
     1
102
RTVSPropertyOp49
 70
     1
102
RTVSPropertyOp50
 70
     1
102
RTVSPropertyOp51
 70
     0
102
RTVSPropertyOp52
 70
     0
102
RTVSPropertyOp53
 70
     1
102
RTVSPropertyOp54
 70
     1
102
RTVSPropertyOp55
 70
     1
102
RTVSPropertyOp56
 70
     1
102
RTVSPropertyOp57
 70
     1
102
RTVSPropertyOp58
 70
     1
102
RTVSPropertyOp59
 70
     1
102
RTVSPropertyOp60
 70
     1
102
RTVSPropertyOp61
 70
     1
102
RTVSPropertyOp62
 70
     1
  0
XRECORD
  5
1423
102
{ACAD_REACTORS
330
1422
102
}
330
1422
100
AcDbXrecord
280
     1
102
RTVSPost2010Prop28
280
     0
102
RTVSPost2010PropOp28
 70
     1
102
RTVSPost2010Prop29
280
     1
102
RTVSPost2010PropOp29
 70
     1
102
RTVSPost2010Prop30
280
     1
102
RTVSPost2010PropOp30
 70
     1
102
RTVSPost2010Prop31
280
     0
102
RTVSPost2010PropOp31
 70
     1
102
RTVSPost2010Prop32
280
     0
102
RTVSPost2010PropOp32
 70
     1
102
RTVSPost2010Prop33
280
     0
102
RTVSPost2010PropOp33
 70
     1
102
RTVSPost2010Prop34
280
     0
102
RTVSPost2010PropOp34
 70
     1
102
RTVSPost2010Prop35
280
     0
102
RTVSPost2010PropOp35
 70
     1
102
RTVSPost2010Prop36
280
     0
102
RTVSPost2010PropOp36
 70
     1
102
RTVSPost2010Prop37
 90
       50
102
RTVSPost2010PropOp37
 70
     1
102
RTVSPost2010Prop38
140
0.0
102
RTVSPost2010PropOp38
 70
     1
102
RTVSPost2010Prop39
140
1.0
102
RTVSPost2010PropOp39
 70
     1
102
RTVSPost2010Prop40
 90
        0
102
RTVSPost2010PropOp40
 70
     1
102
RTVSPost2010Prop41ColorIndex
 90
       18
102
RTVSPost2010Prop41ColorRGB
 90
        0
102
RTVSPost2010PropOp41
 70
     1
102
RTVSPost2010Prop42
 90
       50
102
RTVSPost2010PropOp42
 70
     1
102
RTVSPost2010Prop43
 90
        3
102
RTVSPost2010PropOp43
 70
     1
102
RTVSPost2010Prop44ColorIndex
 90
        5
102
RTVSPost2010Prop44ColorRGB
 90
      255
102
RTVSPost2010PropOp44
 70
     1
102
RTVSPost2010Prop45
280
     0
102
RTVSPost2010PropOp45
 70
     1
102
RTVSPost2010Prop46
 90
       50
102
RTVSPost2010PropOp46
 70
     1
102
RTVSPost2010Prop47
 90
       50
102
RTVSPost2010PropOp47
 70
     1
102
RTVSPost2010Prop48
 90
       50
102
RTVSPost2010PropOp48
 70
     1
102
RTVSPost2010Prop49
280
     0
102
RTVSPost2010PropOp49
 70
     1
102
RTVSPost2010Prop50
 90
       50
102
RTVSPost2010PropOp50
 70
     1
102
RTVSPost2010Prop51ColorIndex
 90
      256
102
RTVSPost2010Prop51ColorRGB
 90
-16777216
102
RTVSPost2010PropOp51
 70
     0
102
RTVSPost2010Prop52
140
1.0
102
RTVSPost2010PropOp52
 70
     0
102
RTVSPost2010Prop53
 90
        2
102
RTVSPost2010PropOp53
 70
     1
102
RTVSPost2010Prop54
  1
strokes_ogs.tif
102
RTVSPost2010PropOp54
 70
     1
102
RTVSPost2010Prop55
280
     0
102
RTVSPost2010PropOp55
 70
     1
102
RTVSPost2010Prop56
140
1.0
102
RTVSPost2010PropOp56
 70
     1
102
RTVSPost2010Prop57
140
1.0
102
RTVSPost2010PropOp57
 70
     1
102
RTVSPropertyOp0
 70
     1
102
RTVSPropertyOp1
 70
     1
102
RTVSPropertyOp2
 70
     1
102
RTVSPropertyOp3
 70
     1
102
RTVSPropertyOp4
 70
     1
102
RTVSPropertyOp5
 70
     1
102
RTVSPropertyOp6
 70
     1
102
RTVSPropertyOp7
 70
     1
102
RTVSPropertyOp8
 70
     1
102
RTVSPropertyOp9
 70
     1
102
RTVSPropertyOp10
 70
     1
102
RTVSPropertyOp11
 70
     1
102
RTVSPropertyOp12
 70
     1
102
RTVSPropertyOp13
 70
     1
102
RTVSPropertyOp14
 70
     1
102
RTVSPropertyOp15
 70
     1
102
RTVSPropertyOp16
 70
     1
102
RTVSPropertyOp17
 70
     1
102
RTVSPropertyOp18
 70
     1
102
RTVSPropertyOp19
 70
     1
102
RTVSPropertyOp20
 70
     1
102
RTVSPropertyOp21
 70
     1
102
RTVSPropertyOp22
 70
     1
102
RTVSPropertyOp23
 70
     1
102
RTVSPropertyOp24
 70
     1
102
RTVSPropertyOp25
 70
     1
102
RTVSPropertyOp26
 70
     1
102
RTVSPropertyOp27
 70
     1
102
RTVSPropertyOp28
 70
     1
102
RTVSPropertyOp29
 70
     1
102
RTVSPropertyOp30
 70
     1
102
RTVSPropertyOp31
 70
     1
102
RTVSPropertyOp32
 70
     1
102
RTVSPropertyOp33
 70
     1
102
RTVSPropertyOp34
 70
     1
102
RTVSPropertyOp35
 70
     1
102
RTVSPropertyOp36
 70
     1
102
RTVSPropertyOp37
 70
     1
102
RTVSPropertyOp38
 70
     1
102
RTVSPropertyOp39
 70
     1
102
RTVSPropertyOp40
 70
     1
102
RTVSPropertyOp41
 70
     1
102
RTVSPropertyOp42
 70
     1
102
RTVSPropertyOp43
 70
     1
102
RTVSPropertyOp44
 70
     1
102
RTVSPropertyOp45
 70
     1
102
RTVSPropertyOp46
 70
     1
102
RTVSPropertyOp47
 70
     1
102
RTVSPropertyOp48
 70
     1
102
RTVSPropertyOp49
 70
     1
102
RTVSPropertyOp50
 70
     1
102
RTVSPropertyOp51
 70
     0
102
RTVSPropertyOp52
 70
     0
102
RTVSPropertyOp53
 70
     1
102
RTVSPropertyOp54
 70
     1
102
RTVSPropertyOp55
 70
     1
102
RTVSPropertyOp56
 70
     1
102
RTVSPropertyOp57
 70
     1
102
RTVSPropertyOp58
 70
     1
102
RTVSPropertyOp59
 70
     1
102
RTVSPropertyOp60
 70
     1
102
RTVSPropertyOp61
 70
     1
102
RTVSPropertyOp62
 70
     1
  0
XRECORD
  5
143D
102
{ACAD_REACTORS
330
143C
102
}
330
143C
100
AcDbXrecord
280
     1
102
RTVSPost2010Prop28
280
     0
102
RTVSPost2010PropOp28
 70
     1
102
RTVSPost2010Prop29
280
     1
102
RTVSPost2010PropOp29
 70
     1
102
RTVSPost2010Prop30
280
     1
102
RTVSPost2010PropOp30
 70
     1
102
RTVSPost2010Prop31
280
     0
102
RTVSPost2010PropOp31
 70
     1
102
RTVSPost2010Prop32
280
     0
102
RTVSPost2010PropOp32
 70
     1
102
RTVSPost2010Prop33
280
     0
102
RTVSPost2010PropOp33
 70
     1
102
RTVSPost2010Prop34
280
     0
102
RTVSPost2010PropOp34
 70
     1
102
RTVSPost2010Prop35
280
     0
102
RTVSPost2010PropOp35
 70
     1
102
RTVSPost2010Prop36
280
     0
102
RTVSPost2010PropOp36
 70
     1
102
RTVSPost2010Prop37
 90
       50
102
RTVSPost2010PropOp37
 70
     0
102
RTVSPost2010Prop38
140
0.0
102
RTVSPost2010PropOp38
 70
     0
102
RTVSPost2010Prop39
140
1.0
102
RTVSPost2010PropOp39
 70
     0
102
RTVSPost2010Prop40
 90
        0
102
RTVSPost2010PropOp40
 70
     0
102
RTVSPost2010Prop41ColorIndex
 90
       18
102
RTVSPost2010Prop41ColorRGB
 90
        0
102
RTVSPost2010PropOp41
 70
     0
102
RTVSPost2010Prop42
 90
       50
102
RTVSPost2010PropOp42
 70
     0
102
RTVSPost2010Prop43
 90
        3
102
RTVSPost2010PropOp43
 70
     0
102
RTVSPost2010Prop44ColorIndex
 90
        5
102
RTVSPost2010Prop44ColorRGB
 90
      255
102
RTVSPost2010PropOp44
 70
     0
102
RTVSPost2010Prop45
280
     0
102
RTVSPost2010PropOp45
 70
     1
102
RTVSPost2010Prop46
 90
       50
102
RTVSPost2010PropOp46
 70
     0
102
RTVSPost2010Prop47
 90
       50
102
RTVSPost2010PropOp47
 70
     0
102
RTVSPost2010Prop48
 90
       50
102
RTVSPost2010PropOp48
 70
     0
102
RTVSPost2010Prop49
280
     0
102
RTVSPost2010PropOp49
 70
     1
102
RTVSPost2010Prop50
 90
       50
102
RTVSPost2010PropOp50
 70
     0
102
RTVSPost2010Prop51ColorIndex
 90
      256
102
RTVSPost2010Prop51ColorRGB
 90
-16777216
102
RTVSPost2010PropOp51
 70
     0
102
RTVSPost2010Prop52
140
1.0
102
RTVSPost2010PropOp52
 70
     0
102
RTVSPost2010Prop53
 90
        2
102
RTVSPost2010PropOp53
 70
     0
102
RTVSPost2010Prop54
  1
strokes_ogs.tif
102
RTVSPost2010PropOp54
 70
     0
102
RTVSPost2010Prop55
280
     0
102
RTVSPost2010PropOp55
 70
     1
102
RTVSPost2010Prop56
140
1.0
102
RTVSPost2010PropOp56
 70
     0
102
RTVSPost2010Prop57
140
1.0
102
RTVSPost2010PropOp57
 70
     0
102
RTVSPropertyOp0
 70
     0
102
RTVSPropertyOp1
 70
     0
102
RTVSPropertyOp2
 70
     0
102
RTVSPropertyOp3
 70
     0
102
RTVSPropertyOp4
 70
     0
102
RTVSPropertyOp5
 70
     0
102
RTVSPropertyOp6
 70
     0
102
RTVSPropertyOp7
 70
     0
102
RTVSPropertyOp8
 70
     0
102
RTVSPropertyOp9
 70
     0
102
RTVSPropertyOp10
 70
     0
102
RTVSPropertyOp11
 70
     0
102
RTVSPropertyOp12
 70
     0
102
RTVSPropertyOp13
 70
     0
102
RTVSPropertyOp14
 70
     2
102
RTVSPropertyOp15
 70
     0
102
RTVSPropertyOp16
 70
     0
102
RTVSPropertyOp17
 70
     0
102
RTVSPropertyOp18
 70
     0
102
RTVSPropertyOp19
 70
     0
102
RTVSPropertyOp20
 70
     0
102
RTVSPropertyOp21
 70
     0
102
RTVSPropertyOp22
 70
     0
102
RTVSPropertyOp23
 70
     0
102
RTVSPropertyOp24
 70
     0
102
RTVSPropertyOp25
 70
     0
102
RTVSPropertyOp26
 70
     0
102
RTVSPropertyOp27
 70
     0
102
RTVSPropertyOp28
 70
     1
102
RTVSPropertyOp29
 70
     1
102
RTVSPropertyOp30
 70
     1
102
RTVSPropertyOp31
 70
     1
102
RTVSPropertyOp32
 70
     1
102
RTVSPropertyOp33
 70
     1
102
RTVSPropertyOp34
 70
     1
102
RTVSPropertyOp35
 70
     1
102
RTVSPropertyOp36
 70
     1
102
RTVSPropertyOp37
 70
     0
102
RTVSPropertyOp38
 70
     0
102
RTVSPropertyOp39
 70
     0
102
RTVSPropertyOp40
 70
     0
102
RTVSPropertyOp41
 70
     0
102
RTVSPropertyOp42
 70
     0
102
RTVSPropertyOp43
 70
     0
102
RTVSPropertyOp44
 70
     0
102
RTVSPropertyOp45
 70
     1
102
RTVSPropertyOp46
 70
     0
102
RTVSPropertyOp47
 70
     0
102
RTVSPropertyOp48
 70
     0
102
RTVSPropertyOp49
 70
     1
102
RTVSPropertyOp50
 70
     0
102
RTVSPropertyOp51
 70
     0
102
RTVSPropertyOp52
 70
     0
102
RTVSPropertyOp53
 70
     0
102
RTVSPropertyOp54
 70
     0
102
RTVSPropertyOp55
 70
     1
102
RTVSPropertyOp56
 70
     0
102
RTVSPropertyOp57
 70
     0
102
RTVSPropertyOp58
 70
     0
102
RTVSPropertyOp59
 70
     0
102
RTVSPropertyOp60
 70
     0
102
RTVSPropertyOp61
 70
     0
102
RTVSPropertyOp62
 70
     0
  0
XRECORD
  5
142B
102
{ACAD_REACTORS
330
142A
102
}
330
142A
100
AcDbXrecord
280
     1
102
RTVSPost2010Prop28
280
     0
102
RTVSPost2010PropOp28
 70
     1
102
RTVSPost2010Prop29
280
     1
102
RTVSPost2010PropOp29
 70
     1
102
RTVSPost2010Prop30
280
     1
102
RTVSPost2010PropOp30
 70
     1
102
RTVSPost2010Prop31
280
     0
102
RTVSPost2010PropOp31
 70
     1
102
RTVSPost2010Prop32
280
     0
102
RTVSPost2010PropOp32
 70
     1
102
RTVSPost2010Prop33
280
     0
102
RTVSPost2010PropOp33
 70
     1
102
RTVSPost2010Prop34
280
     0
102
RTVSPost2010PropOp34
 70
     1
102
RTVSPost2010Prop35
280
     0
102
RTVSPost2010PropOp35
 70
     1
102
RTVSPost2010Prop36
280
     0
102
RTVSPost2010PropOp36
 70
     1
102
RTVSPost2010Prop37
 90
       50
102
RTVSPost2010PropOp37
 70
     1
102
RTVSPost2010Prop38
140
0.0
102
RTVSPost2010PropOp38
 70
     1
102
RTVSPost2010Prop39
140
1.0
102
RTVSPost2010PropOp39
 70
     1
102
RTVSPost2010Prop40
 90
        0
102
RTVSPost2010PropOp40
 70
     1
102
RTVSPost2010Prop41ColorIndex
 90
       18
102
RTVSPost2010Prop41ColorRGB
 90
        0
102
RTVSPost2010PropOp41
 70
     1
102
RTVSPost2010Prop42
 90
       50
102
RTVSPost2010PropOp42
 70
     1
102
RTVSPost2010Prop43
 90
        3
102
RTVSPost2010PropOp43
 70
     1
102
RTVSPost2010Prop44ColorIndex
 90
        5
102
RTVSPost2010Prop44ColorRGB
 90
      255
102
RTVSPost2010PropOp44
 70
     1
102
RTVSPost2010Prop45
280
     0
102
RTVSPost2010PropOp45
 70
     1
102
RTVSPost2010Prop46
 90
       50
102
RTVSPost2010PropOp46
 70
     1
102
RTVSPost2010Prop47
 90
       50
102
RTVSPost2010PropOp47
 70
     1
102
RTVSPost2010Prop48
 90
       50
102
RTVSPost2010PropOp48
 70
     1
102
RTVSPost2010Prop49
280
     0
102
RTVSPost2010PropOp49
 70
     1
102
RTVSPost2010Prop50
 90
       50
102
RTVSPost2010PropOp50
 70
     1
102
RTVSPost2010Prop51ColorIndex
 90
      256
102
RTVSPost2010Prop51ColorRGB
 90
-16777216
102
RTVSPost2010PropOp51
 70
     0
102
RTVSPost2010Prop52
140
1.0
102
RTVSPost2010PropOp52
 70
     0
102
RTVSPost2010Prop53
 90
        2
102
RTVSPost2010PropOp53
 70
     1
102
RTVSPost2010Prop54
  1
strokes_ogs.tif
102
RTVSPost2010PropOp54
 70
     1
102
RTVSPost2010Prop55
280
     0
102
RTVSPost2010PropOp55
 70
     1
102
RTVSPost2010Prop56
140
1.0
102
RTVSPost2010PropOp56
 70
     1
102
RTVSPost2010Prop57
140
1.0
102
RTVSPost2010PropOp57
 70
     1
102
RTVSPropertyOp0
 70
     1
102
RTVSPropertyOp1
 70
     1
102
RTVSPropertyOp2
 70
     1
102
RTVSPropertyOp3
 70
     1
102
RTVSPropertyOp4
 70
     1
102
RTVSPropertyOp5
 70
     1
102
RTVSPropertyOp6
 70
     1
102
RTVSPropertyOp7
 70
     1
102
RTVSPropertyOp8
 70
     1
102
RTVSPropertyOp9
 70
     1
102
RTVSPropertyOp10
 70
     1
102
RTVSPropertyOp11
 70
     1
102
RTVSPropertyOp12
 70
     1
102
RTVSPropertyOp13
 70
     1
102
RTVSPropertyOp14
 70
     1
102
RTVSPropertyOp15
 70
     1
102
RTVSPropertyOp16
 70
     1
102
RTVSPropertyOp17
 70
     1
102
RTVSPropertyOp18
 70
     1
102
RTVSPropertyOp19
 70
     1
102
RTVSPropertyOp20
 70
     1
102
RTVSPropertyOp21
 70
     1
102
RTVSPropertyOp22
 70
     1
102
RTVSPropertyOp23
 70
     1
102
RTVSPropertyOp24
 70
     1
102
RTVSPropertyOp25
 70
     1
102
RTVSPropertyOp26
 70
     1
102
RTVSPropertyOp27
 70
     1
102
RTVSPropertyOp28
 70
     1
102
RTVSPropertyOp29
 70
     1
102
RTVSPropertyOp30
 70
     1
102
RTVSPropertyOp31
 70
     1
102
RTVSPropertyOp32
 70
     1
102
RTVSPropertyOp33
 70
     1
102
RTVSPropertyOp34
 70
     1
102
RTVSPropertyOp35
 70
     1
102
RTVSPropertyOp36
 70
     1
102
RTVSPropertyOp37
 70
     1
102
RTVSPropertyOp38
 70
     1
102
RTVSPropertyOp39
 70
     1
102
RTVSPropertyOp40
 70
     1
102
RTVSPropertyOp41
 70
     1
102
RTVSPropertyOp42
 70
     1
102
RTVSPropertyOp43
 70
     1
102
RTVSPropertyOp44
 70
     1
102
RTVSPropertyOp45
 70
     1
102
RTVSPropertyOp46
 70
     1
102
RTVSPropertyOp47
 70
     1
102
RTVSPropertyOp48
 70
     1
102
RTVSPropertyOp49
 70
     1
102
RTVSPropertyOp50
 70
     1
102
RTVSPropertyOp51
 70
     0
102
RTVSPropertyOp52
 70
     0
102
RTVSPropertyOp53
 70
     1
102
RTVSPropertyOp54
 70
     1
102
RTVSPropertyOp55
 70
     1
102
RTVSPropertyOp56
 70
     1
102
RTVSPropertyOp57
 70
     1
102
RTVSPropertyOp58
 70
     1
102
RTVSPropertyOp59
 70
     1
102
RTVSPropertyOp60
 70
     1
102
RTVSPropertyOp61
 70
     1
102
RTVSPropertyOp62
 70
     1
  0
XRECORD
  5
140F
102
{ACAD_REACTORS
330
140E
102
}
330
140E
100
AcDbXrecord
280
     1
102
RTVSPost2010Prop28
280
     0
102
RTVSPost2010PropOp28
 70
     1
102
RTVSPost2010Prop29
280
     1
102
RTVSPost2010PropOp29
 70
     1
102
RTVSPost2010Prop30
280
     1
102
RTVSPost2010PropOp30
 70
     1
102
RTVSPost2010Prop31
280
     0
102
RTVSPost2010PropOp31
 70
     1
102
RTVSPost2010Prop32
280
     0
102
RTVSPost2010PropOp32
 70
     1
102
RTVSPost2010Prop33
280
     0
102
RTVSPost2010PropOp33
 70
     1
102
RTVSPost2010Prop34
280
     0
102
RTVSPost2010PropOp34
 70
     1
102
RTVSPost2010Prop35
280
     0
102
RTVSPost2010PropOp35
 70
     1
102
RTVSPost2010Prop36
280
     0
102
RTVSPost2010PropOp36
 70
     1
102
RTVSPost2010Prop37
 90
       50
102
RTVSPost2010PropOp37
 70
     1
102
RTVSPost2010Prop38
140
0.0
102
RTVSPost2010PropOp38
 70
     1
102
RTVSPost2010Prop39
140
1.0
102
RTVSPost2010PropOp39
 70
     1
102
RTVSPost2010Prop40
 90
        0
102
RTVSPost2010PropOp40
 70
     1
102
RTVSPost2010Prop41ColorIndex
 90
       18
102
RTVSPost2010Prop41ColorRGB
 90
        0
102
RTVSPost2010PropOp41
 70
     1
102
RTVSPost2010Prop42
 90
       50
102
RTVSPost2010PropOp42
 70
     1
102
RTVSPost2010Prop43
 90
        3
102
RTVSPost2010PropOp43
 70
     1
102
RTVSPost2010Prop44ColorIndex
 90
        5
102
RTVSPost2010Prop44ColorRGB
 90
      255
102
RTVSPost2010PropOp44
 70
     1
102
RTVSPost2010Prop45
280
     0
102
RTVSPost2010PropOp45
 70
     1
102
RTVSPost2010Prop46
 90
       50
102
RTVSPost2010PropOp46
 70
     1
102
RTVSPost2010Prop47
 90
       50
102
RTVSPost2010PropOp47
 70
     1
102
RTVSPost2010Prop48
 90
       50
102
RTVSPost2010PropOp48
 70
     1
102
RTVSPost2010Prop49
280
     0
102
RTVSPost2010PropOp49
 70
     1
102
RTVSPost2010Prop50
 90
       50
102
RTVSPost2010PropOp50
 70
     1
102
RTVSPost2010Prop51ColorIndex
 90
      256
102
RTVSPost2010Prop51ColorRGB
 90
-16777216
102
RTVSPost2010PropOp51
 70
     0
102
RTVSPost2010Prop52
140
1.0
102
RTVSPost2010PropOp52
 70
     0
102
RTVSPost2010Prop53
 90
        2
102
RTVSPost2010PropOp53
 70
     1
102
RTVSPost2010Prop54
  1
strokes_ogs.tif
102
RTVSPost2010PropOp54
 70
     1
102
RTVSPost2010Prop55
280
     0
102
RTVSPost2010PropOp55
 70
     1
102
RTVSPost2010Prop56
140
1.0
102
RTVSPost2010PropOp56
 70
     1
102
RTVSPost2010Prop57
140
1.0
102
RTVSPost2010PropOp57
 70
     1
102
RTVSPropertyOp0
 70
     1
102
RTVSPropertyOp1
 70
     1
102
RTVSPropertyOp2
 70
     1
102
RTVSPropertyOp3
 70
     1
102
RTVSPropertyOp4
 70
     1
102
RTVSPropertyOp5
 70
     1
102
RTVSPropertyOp6
 70
     1
102
RTVSPropertyOp7
 70
     1
102
RTVSPropertyOp8
 70
     1
102
RTVSPropertyOp9
 70
     1
102
RTVSPropertyOp10
 70
     1
102
RTVSPropertyOp11
 70
     1
102
RTVSPropertyOp12
 70
     1
102
RTVSPropertyOp13
 70
     1
102
RTVSPropertyOp14
 70
     1
102
RTVSPropertyOp15
 70
     1
102
RTVSPropertyOp16
 70
     1
102
RTVSPropertyOp17
 70
     1
102
RTVSPropertyOp18
 70
     1
102
RTVSPropertyOp19
 70
     1
102
RTVSPropertyOp20
 70
     1
102
RTVSPropertyOp21
 70
     1
102
RTVSPropertyOp22
 70
     1
102
RTVSPropertyOp23
 70
     1
102
RTVSPropertyOp24
 70
     1
102
RTVSPropertyOp25
 70
     1
102
RTVSPropertyOp26
 70
     1
102
RTVSPropertyOp27
 70
     1
102
RTVSPropertyOp28
 70
     1
102
RTVSPropertyOp29
 70
     1
102
RTVSPropertyOp30
 70
     1
102
RTVSPropertyOp31
 70
     1
102
RTVSPropertyOp32
 70
     1
102
RTVSPropertyOp33
 70
     1
102
RTVSPropertyOp34
 70
     1
102
RTVSPropertyOp35
 70
     1
102
RTVSPropertyOp36
 70
     1
102
RTVSPropertyOp37
 70
     1
102
RTVSPropertyOp38
 70
     1
102
RTVSPropertyOp39
 70
     1
102
RTVSPropertyOp40
 70
     1
102
RTVSPropertyOp41
 70
     1
102
RTVSPropertyOp42
 70
     1
102
RTVSPropertyOp43
 70
     1
102
RTVSPropertyOp44
 70
     1
102
RTVSPropertyOp45
 70
     1
102
RTVSPropertyOp46
 70
     1
102
RTVSPropertyOp47
 70
     1
102
RTVSPropertyOp48
 70
     1
102
RTVSPropertyOp49
 70
     1
102
RTVSPropertyOp50
 70
     1
102
RTVSPropertyOp51
 70
     0
102
RTVSPropertyOp52
 70
     0
102
RTVSPropertyOp53
 70
     1
102
RTVSPropertyOp54
 70
     1
102
RTVSPropertyOp55
 70
     1
102
RTVSPropertyOp56
 70
     1
102
RTVSPropertyOp57
 70
     1
102
RTVSPropertyOp58
 70
     1
102
RTVSPropertyOp59
 70
     1
102
RTVSPropertyOp60
 70
     1
102
RTVSPropertyOp61
 70
     1
102
RTVSPropertyOp62
 70
     1
  0
XRECORD
  5
1411
102
{ACAD_REACTORS
330
1410
102
}
330
1410
100
AcDbXrecord
280
     1
102
RTVSPost2010Prop28
280
     0
102
RTVSPost2010PropOp28
 70
     1
102
RTVSPost2010Prop29
280
     1
102
RTVSPost2010PropOp29
 70
     1
102
RTVSPost2010Prop30
280
     1
102
RTVSPost2010PropOp30
 70
     1
102
RTVSPost2010Prop31
280
     0
102
RTVSPost2010PropOp31
 70
     1
102
RTVSPost2010Prop32
280
     0
102
RTVSPost2010PropOp32
 70
     1
102
RTVSPost2010Prop33
280
     0
102
RTVSPost2010PropOp33
 70
     1
102
RTVSPost2010Prop34
280
     0
102
RTVSPost2010PropOp34
 70
     1
102
RTVSPost2010Prop35
280
     0
102
RTVSPost2010PropOp35
 70
     1
102
RTVSPost2010Prop36
280
     0
102
RTVSPost2010PropOp36
 70
     1
102
RTVSPost2010Prop37
 90
       50
102
RTVSPost2010PropOp37
 70
     1
102
RTVSPost2010Prop38
140
0.0
102
RTVSPost2010PropOp38
 70
     1
102
RTVSPost2010Prop39
140
1.0
102
RTVSPost2010PropOp39
 70
     1
102
RTVSPost2010Prop40
 90
        0
102
RTVSPost2010PropOp40
 70
     1
102
RTVSPost2010Prop41ColorIndex
 90
       18
102
RTVSPost2010Prop41ColorRGB
 90
        0
102
RTVSPost2010PropOp41
 70
     1
102
RTVSPost2010Prop42
 90
       50
102
RTVSPost2010PropOp42
 70
     1
102
RTVSPost2010Prop43
 90
        3
102
RTVSPost2010PropOp43
 70
     1
102
RTVSPost2010Prop44ColorIndex
 90
        5
102
RTVSPost2010Prop44ColorRGB
 90
      255
102
RTVSPost2010PropOp44
 70
     1
102
RTVSPost2010Prop45
280
     0
102
RTVSPost2010PropOp45
 70
     1
102
RTVSPost2010Prop46
 90
       50
102
RTVSPost2010PropOp46
 70
     1
102
RTVSPost2010Prop47
 90
       50
102
RTVSPost2010PropOp47
 70
     1
102
RTVSPost2010Prop48
 90
       50
102
RTVSPost2010PropOp48
 70
     1
102
RTVSPost2010Prop49
280
     0
102
RTVSPost2010PropOp49
 70
     1
102
RTVSPost2010Prop50
 90
       50
102
RTVSPost2010PropOp50
 70
     1
102
RTVSPost2010Prop51ColorIndex
 90
      256
102
RTVSPost2010Prop51ColorRGB
 90
-16777216
102
RTVSPost2010PropOp51
 70
     0
102
RTVSPost2010Prop52
140
1.0
102
RTVSPost2010PropOp52
 70
     0
102
RTVSPost2010Prop53
 90
        2
102
RTVSPost2010PropOp53
 70
     1
102
RTVSPost2010Prop54
  1
strokes_ogs.tif
102
RTVSPost2010PropOp54
 70
     1
102
RTVSPost2010Prop55
280
     0
102
RTVSPost2010PropOp55
 70
     1
102
RTVSPost2010Prop56
140
1.0
102
RTVSPost2010PropOp56
 70
     1
102
RTVSPost2010Prop57
140
1.0
102
RTVSPost2010PropOp57
 70
     1
102
RTVSPropertyOp0
 70
     1
102
RTVSPropertyOp1
 70
     1
102
RTVSPropertyOp2
 70
     1
102
RTVSPropertyOp3
 70
     1
102
RTVSPropertyOp4
 70
     1
102
RTVSPropertyOp5
 70
     1
102
RTVSPropertyOp6
 70
     1
102
RTVSPropertyOp7
 70
     1
102
RTVSPropertyOp8
 70
     1
102
RTVSPropertyOp9
 70
     1
102
RTVSPropertyOp10
 70
     1
102
RTVSPropertyOp11
 70
     1
102
RTVSPropertyOp12
 70
     1
102
RTVSPropertyOp13
 70
     1
102
RTVSPropertyOp14
 70
     1
102
RTVSPropertyOp15
 70
     1
102
RTVSPropertyOp16
 70
     1
102
RTVSPropertyOp17
 70
     1
102
RTVSPropertyOp18
 70
     1
102
RTVSPropertyOp19
 70
     1
102
RTVSPropertyOp20
 70
     1
102
RTVSPropertyOp21
 70
     1
102
RTVSPropertyOp22
 70
     1
102
RTVSPropertyOp23
 70
     1
102
RTVSPropertyOp24
 70
     1
102
RTVSPropertyOp25
 70
     1
102
RTVSPropertyOp26
 70
     1
102
RTVSPropertyOp27
 70
     1
102
RTVSPropertyOp28
 70
     1
102
RTVSPropertyOp29
 70
     1
102
RTVSPropertyOp30
 70
     1
102
RTVSPropertyOp31
 70
     1
102
RTVSPropertyOp32
 70
     1
102
RTVSPropertyOp33
 70
     1
102
RTVSPropertyOp34
 70
     1
102
RTVSPropertyOp35
 70
     1
102
RTVSPropertyOp36
 70
     1
102
RTVSPropertyOp37
 70
     1
102
RTVSPropertyOp38
 70
     1
102
RTVSPropertyOp39
 70
     1
102
RTVSPropertyOp40
 70
     1
102
RTVSPropertyOp41
 70
     1
102
RTVSPropertyOp42
 70
     1
102
RTVSPropertyOp43
 70
     1
102
RTVSPropertyOp44
 70
     1
102
RTVSPropertyOp45
 70
     1
102
RTVSPropertyOp46
 70
     1
102
RTVSPropertyOp47
 70
     1
102
RTVSPropertyOp48
 70
     1
102
RTVSPropertyOp49
 70
     1
102
RTVSPropertyOp50
 70
     1
102
RTVSPropertyOp51
 70
     0
102
RTVSPropertyOp52
 70
     0
102
RTVSPropertyOp53
 70
     1
102
RTVSPropertyOp54
 70
     1
102
RTVSPropertyOp55
 70
     1
102
RTVSPropertyOp56
 70
     1
102
RTVSPropertyOp57
 70
     1
102
RTVSPropertyOp58
 70
     1
102
RTVSPropertyOp59
 70
     1
102
RTVSPropertyOp60
 70
     1
102
RTVSPropertyOp61
 70
     1
102
RTVSPropertyOp62
 70
     1
  0
XRECORD
  5
1413
102
{ACAD_REACTORS
330
1412
102
}
330
1412
100
AcDbXrecord
280
     1
102
RTVSPost2010Prop28
280
     0
102
RTVSPost2010PropOp28
 70
     1
102
RTVSPost2010Prop29
280
     1
102
RTVSPost2010PropOp29
 70
     1
102
RTVSPost2010Prop30
280
     1
102
RTVSPost2010PropOp30
 70
     1
102
RTVSPost2010Prop31
280
     0
102
RTVSPost2010PropOp31
 70
     1
102
RTVSPost2010Prop32
280
     0
102
RTVSPost2010PropOp32
 70
     1
102
RTVSPost2010Prop33
280
     0
102
RTVSPost2010PropOp33
 70
     1
102
RTVSPost2010Prop34
280
     0
102
RTVSPost2010PropOp34
 70
     1
102
RTVSPost2010Prop35
280
     0
102
RTVSPost2010PropOp35
 70
     1
102
RTVSPost2010Prop36
280
     0
102
RTVSPost2010PropOp36
 70
     1
102
RTVSPost2010Prop37
 90
       50
102
RTVSPost2010PropOp37
 70
     1
102
RTVSPost2010Prop38
140
0.0
102
RTVSPost2010PropOp38
 70
     1
102
RTVSPost2010Prop39
140
1.0
102
RTVSPost2010PropOp39
 70
     1
102
RTVSPost2010Prop40
 90
        0
102
RTVSPost2010PropOp40
 70
     1
102
RTVSPost2010Prop41ColorIndex
 90
       18
102
RTVSPost2010Prop41ColorRGB
 90
        0
102
RTVSPost2010PropOp41
 70
     1
102
RTVSPost2010Prop42
 90
       50
102
RTVSPost2010PropOp42
 70
     1
102
RTVSPost2010Prop43
 90
        3
102
RTVSPost2010PropOp43
 70
     1
102
RTVSPost2010Prop44ColorIndex
 90
        5
102
RTVSPost2010Prop44ColorRGB
 90
      255
102
RTVSPost2010PropOp44
 70
     1
102
RTVSPost2010Prop45
280
     0
102
RTVSPost2010PropOp45
 70
     1
102
RTVSPost2010Prop46
 90
       50
102
RTVSPost2010PropOp46
 70
     1
102
RTVSPost2010Prop47
 90
       50
102
RTVSPost2010PropOp47
 70
     1
102
RTVSPost2010Prop48
 90
       50
102
RTVSPost2010PropOp48
 70
     1
102
RTVSPost2010Prop49
280
     0
102
RTVSPost2010PropOp49
 70
     1
102
RTVSPost2010Prop50
 90
       50
102
RTVSPost2010PropOp50
 70
     1
102
RTVSPost2010Prop51ColorIndex
 90
      256
102
RTVSPost2010Prop51ColorRGB
 90
-16777216
102
RTVSPost2010PropOp51
 70
     0
102
RTVSPost2010Prop52
140
1.0
102
RTVSPost2010PropOp52
 70
     0
102
RTVSPost2010Prop53
 90
        2
102
RTVSPost2010PropOp53
 70
     1
102
RTVSPost2010Prop54
  1
strokes_ogs.tif
102
RTVSPost2010PropOp54
 70
     1
102
RTVSPost2010Prop55
280
     0
102
RTVSPost2010PropOp55
 70
     1
102
RTVSPost2010Prop56
140
1.0
102
RTVSPost2010PropOp56
 70
     1
102
RTVSPost2010Prop57
140
1.0
102
RTVSPost2010PropOp57
 70
     1
102
RTVSPropertyOp0
 70
     1
102
RTVSPropertyOp1
 70
     1
102
RTVSPropertyOp2
 70
     1
102
RTVSPropertyOp3
 70
     1
102
RTVSPropertyOp4
 70
     1
102
RTVSPropertyOp5
 70
     1
102
RTVSPropertyOp6
 70
     1
102
RTVSPropertyOp7
 70
     1
102
RTVSPropertyOp8
 70
     1
102
RTVSPropertyOp9
 70
     1
102
RTVSPropertyOp10
 70
     1
102
RTVSPropertyOp11
 70
     1
102
RTVSPropertyOp12
 70
     1
102
RTVSPropertyOp13
 70
     1
102
RTVSPropertyOp14
 70
     1
102
RTVSPropertyOp15
 70
     1
102
RTVSPropertyOp16
 70
     1
102
RTVSPropertyOp17
 70
     1
102
RTVSPropertyOp18
 70
     1
102
RTVSPropertyOp19
 70
     1
102
RTVSPropertyOp20
 70
     1
102
RTVSPropertyOp21
 70
     1
102
RTVSPropertyOp22
 70
     1
102
RTVSPropertyOp23
 70
     1
102
RTVSPropertyOp24
 70
     1
102
RTVSPropertyOp25
 70
     1
102
RTVSPropertyOp26
 70
     1
102
RTVSPropertyOp27
 70
     1
102
RTVSPropertyOp28
 70
     1
102
RTVSPropertyOp29
 70
     1
102
RTVSPropertyOp30
 70
     1
102
RTVSPropertyOp31
 70
     1
102
RTVSPropertyOp32
 70
     1
102
RTVSPropertyOp33
 70
     1
102
RTVSPropertyOp34
 70
     1
102
RTVSPropertyOp35
 70
     1
102
RTVSPropertyOp36
 70
     1
102
RTVSPropertyOp37
 70
     1
102
RTVSPropertyOp38
 70
     1
102
RTVSPropertyOp39
 70
     1
102
RTVSPropertyOp40
 70
     1
102
RTVSPropertyOp41
 70
     1
102
RTVSPropertyOp42
 70
     1
102
RTVSPropertyOp43
 70
     1
102
RTVSPropertyOp44
 70
     1
102
RTVSPropertyOp45
 70
     1
102
RTVSPropertyOp46
 70
     1
102
RTVSPropertyOp47
 70
     1
102
RTVSPropertyOp48
 70
     1
102
RTVSPropertyOp49
 70
     1
102
RTVSPropertyOp50
 70
     1
102
RTVSPropertyOp51
 70
     0
102
RTVSPropertyOp52
 70
     0
102
RTVSPropertyOp53
 70
     1
102
RTVSPropertyOp54
 70
     1
102
RTVSPropertyOp55
 70
     1
102
RTVSPropertyOp56
 70
     1
102
RTVSPropertyOp57
 70
     1
102
RTVSPropertyOp58
 70
     1
102
RTVSPropertyOp59
 70
     1
102
RTVSPropertyOp60
 70
     1
102
RTVSPropertyOp61
 70
     1
102
RTVSPropertyOp62
 70
     1
  0
XRECORD
  5
1415
102
{ACAD_REACTORS
330
1414
102
}
330
1414
100
AcDbXrecord
280
     1
102
RTVSPost2010Prop28
280
     0
102
RTVSPost2010PropOp28
 70
     1
102
RTVSPost2010Prop29
280
     1
102
RTVSPost2010PropOp29
 70
     1
102
RTVSPost2010Prop30
280
     1
102
RTVSPost2010PropOp30
 70
     1
102
RTVSPost2010Prop31
280
     0
102
RTVSPost2010PropOp31
 70
     1
102
RTVSPost2010Prop32
280
     0
102
RTVSPost2010PropOp32
 70
     1
102
RTVSPost2010Prop33
280
     0
102
RTVSPost2010PropOp33
 70
     1
102
RTVSPost2010Prop34
280
     0
102
RTVSPost2010PropOp34
 70
     1
102
RTVSPost2010Prop35
280
     0
102
RTVSPost2010PropOp35
 70
     1
102
RTVSPost2010Prop36
280
     0
102
RTVSPost2010PropOp36
 70
     1
102
RTVSPost2010Prop37
 90
       50
102
RTVSPost2010PropOp37
 70
     1
102
RTVSPost2010Prop38
140
0.0
102
RTVSPost2010PropOp38
 70
     1
102
RTVSPost2010Prop39
140
1.0
102
RTVSPost2010PropOp39
 70
     1
102
RTVSPost2010Prop40
 90
        0
102
RTVSPost2010PropOp40
 70
     1
102
RTVSPost2010Prop41ColorIndex
 90
       18
102
RTVSPost2010Prop41ColorRGB
 90
        0
102
RTVSPost2010PropOp41
 70
     1
102
RTVSPost2010Prop42
 90
       50
102
RTVSPost2010PropOp42
 70
     1
102
RTVSPost2010Prop43
 90
        3
102
RTVSPost2010PropOp43
 70
     1
102
RTVSPost2010Prop44ColorIndex
 90
        5
102
RTVSPost2010Prop44ColorRGB
 90
      255
102
RTVSPost2010PropOp44
 70
     1
102
RTVSPost2010Prop45
280
     0
102
RTVSPost2010PropOp45
 70
     1
102
RTVSPost2010Prop46
 90
       50
102
RTVSPost2010PropOp46
 70
     1
102
RTVSPost2010Prop47
 90
       50
102
RTVSPost2010PropOp47
 70
     1
102
RTVSPost2010Prop48
 90
       50
102
RTVSPost2010PropOp48
 70
     1
102
RTVSPost2010Prop49
280
     0
102
RTVSPost2010PropOp49
 70
     1
102
RTVSPost2010Prop50
 90
       50
102
RTVSPost2010PropOp50
 70
     1
102
RTVSPost2010Prop51ColorIndex
 90
      256
102
RTVSPost2010Prop51ColorRGB
 90
-16777216
102
RTVSPost2010PropOp51
 70
     0
102
RTVSPost2010Prop52
140
1.0
102
RTVSPost2010PropOp52
 70
     0
102
RTVSPost2010Prop53
 90
        2
102
RTVSPost2010PropOp53
 70
     1
102
RTVSPost2010Prop54
  1
strokes_ogs.tif
102
RTVSPost2010PropOp54
 70
     1
102
RTVSPost2010Prop55
280
     0
102
RTVSPost2010PropOp55
 70
     1
102
RTVSPost2010Prop56
140
1.0
102
RTVSPost2010PropOp56
 70
     1
102
RTVSPost2010Prop57
140
1.0
102
RTVSPost2010PropOp57
 70
     1
102
RTVSPropertyOp0
 70
     1
102
RTVSPropertyOp1
 70
     1
102
RTVSPropertyOp2
 70
     1
102
RTVSPropertyOp3
 70
     1
102
RTVSPropertyOp4
 70
     1
102
RTVSPropertyOp5
 70
     1
102
RTVSPropertyOp6
 70
     1
102
RTVSPropertyOp7
 70
     1
102
RTVSPropertyOp8
 70
     1
102
RTVSPropertyOp9
 70
     1
102
RTVSPropertyOp10
 70
     1
102
RTVSPropertyOp11
 70
     1
102
RTVSPropertyOp12
 70
     1
102
RTVSPropertyOp13
 70
     1
102
RTVSPropertyOp14
 70
     1
102
RTVSPropertyOp15
 70
     1
102
RTVSPropertyOp16
 70
     1
102
RTVSPropertyOp17
 70
     1
102
RTVSPropertyOp18
 70
     1
102
RTVSPropertyOp19
 70
     1
102
RTVSPropertyOp20
 70
     1
102
RTVSPropertyOp21
 70
     1
102
RTVSPropertyOp22
 70
     1
102
RTVSPropertyOp23
 70
     1
102
RTVSPropertyOp24
 70
     1
102
RTVSPropertyOp25
 70
     1
102
RTVSPropertyOp26
 70
     1
102
RTVSPropertyOp27
 70
     1
102
RTVSPropertyOp28
 70
     1
102
RTVSPropertyOp29
 70
     1
102
RTVSPropertyOp30
 70
     1
102
RTVSPropertyOp31
 70
     1
102
RTVSPropertyOp32
 70
     1
102
RTVSPropertyOp33
 70
     1
102
RTVSPropertyOp34
 70
     1
102
RTVSPropertyOp35
 70
     1
102
RTVSPropertyOp36
 70
     1
102
RTVSPropertyOp37
 70
     1
102
RTVSPropertyOp38
 70
     1
102
RTVSPropertyOp39
 70
     1
102
RTVSPropertyOp40
 70
     1
102
RTVSPropertyOp41
 70
     1
102
RTVSPropertyOp42
 70
     1
102
RTVSPropertyOp43
 70
     1
102
RTVSPropertyOp44
 70
     1
102
RTVSPropertyOp45
 70
     1
102
RTVSPropertyOp46
 70
     1
102
RTVSPropertyOp47
 70
     1
102
RTVSPropertyOp48
 70
     1
102
RTVSPropertyOp49
 70
     1
102
RTVSPropertyOp50
 70
     1
102
RTVSPropertyOp51
 70
     0
102
RTVSPropertyOp52
 70
     0
102
RTVSPropertyOp53
 70
     1
102
RTVSPropertyOp54
 70
     1
102
RTVSPropertyOp55
 70
     1
102
RTVSPropertyOp56
 70
     1
102
RTVSPropertyOp57
 70
     1
102
RTVSPropertyOp58
 70
     1
102
RTVSPropertyOp59
 70
     1
102
RTVSPropertyOp60
 70
     1
102
RTVSPropertyOp61
 70
     1
102
RTVSPropertyOp62
 70
     1
  0
XRECORD
  5
141D
102
{ACAD_REACTORS
330
141C
102
}
330
141C
100
AcDbXrecord
280
     1
102
RTVSPost2010Prop28
280
     0
102
RTVSPost2010PropOp28
 70
     1
102
RTVSPost2010Prop29
280
     1
102
RTVSPost2010PropOp29
 70
     1
102
RTVSPost2010Prop30
280
     1
102
RTVSPost2010PropOp30
 70
     1
102
RTVSPost2010Prop31
280
     0
102
RTVSPost2010PropOp31
 70
     1
102
RTVSPost2010Prop32
280
     0
102
RTVSPost2010PropOp32
 70
     1
102
RTVSPost2010Prop33
280
     0
102
RTVSPost2010PropOp33
 70
     1
102
RTVSPost2010Prop34
280
     0
102
RTVSPost2010PropOp34
 70
     1
102
RTVSPost2010Prop35
280
     0
102
RTVSPost2010PropOp35
 70
     1
102
RTVSPost2010Prop36
280
     0
102
RTVSPost2010PropOp36
 70
     1
102
RTVSPost2010Prop37
 90
       50
102
RTVSPost2010PropOp37
 70
     1
102
RTVSPost2010Prop38
140
0.0
102
RTVSPost2010PropOp38
 70
     1
102
RTVSPost2010Prop39
140
1.0
102
RTVSPost2010PropOp39
 70
     1
102
RTVSPost2010Prop40
 90
        0
102
RTVSPost2010PropOp40
 70
     1
102
RTVSPost2010Prop41ColorIndex
 90
       18
102
RTVSPost2010Prop41ColorRGB
 90
        0
102
RTVSPost2010PropOp41
 70
     1
102
RTVSPost2010Prop42
 90
       50
102
RTVSPost2010PropOp42
 70
     1
102
RTVSPost2010Prop43
 90
        3
102
RTVSPost2010PropOp43
 70
     1
102
RTVSPost2010Prop44ColorIndex
 90
        5
102
RTVSPost2010Prop44ColorRGB
 90
      255
102
RTVSPost2010PropOp44
 70
     1
102
RTVSPost2010Prop45
280
     0
102
RTVSPost2010PropOp45
 70
     1
102
RTVSPost2010Prop46
 90
       50
102
RTVSPost2010PropOp46
 70
     1
102
RTVSPost2010Prop47
 90
       50
102
RTVSPost2010PropOp47
 70
     1
102
RTVSPost2010Prop48
 90
       50
102
RTVSPost2010PropOp48
 70
     1
102
RTVSPost2010Prop49
280
     0
102
RTVSPost2010PropOp49
 70
     1
102
RTVSPost2010Prop50
 90
       50
102
RTVSPost2010PropOp50
 70
     1
102
RTVSPost2010Prop51ColorIndex
 90
      256
102
RTVSPost2010Prop51ColorRGB
 90
-16777216
102
RTVSPost2010PropOp51
 70
     0
102
RTVSPost2010Prop52
140
1.0
102
RTVSPost2010PropOp52
 70
     0
102
RTVSPost2010Prop53
 90
        2
102
RTVSPost2010PropOp53
 70
     1
102
RTVSPost2010Prop54
  1
strokes_ogs.tif
102
RTVSPost2010PropOp54
 70
     1
102
RTVSPost2010Prop55
280
     0
102
RTVSPost2010PropOp55
 70
     1
102
RTVSPost2010Prop56
140
1.0
102
RTVSPost2010PropOp56
 70
     1
102
RTVSPost2010Prop57
140
1.0
102
RTVSPost2010PropOp57
 70
     1
102
RTVSPropertyOp0
 70
     1
102
RTVSPropertyOp1
 70
     1
102
RTVSPropertyOp2
 70
     1
102
RTVSPropertyOp3
 70
     1
102
RTVSPropertyOp4
 70
     1
102
RTVSPropertyOp5
 70
     1
102
RTVSPropertyOp6
 70
     1
102
RTVSPropertyOp7
 70
     1
102
RTVSPropertyOp8
 70
     1
102
RTVSPropertyOp9
 70
     1
102
RTVSPropertyOp10
 70
     1
102
RTVSPropertyOp11
 70
     1
102
RTVSPropertyOp12
 70
     1
102
RTVSPropertyOp13
 70
     1
102
RTVSPropertyOp14
 70
     1
102
RTVSPropertyOp15
 70
     1
102
RTVSPropertyOp16
 70
     1
102
RTVSPropertyOp17
 70
     1
102
RTVSPropertyOp18
 70
     1
102
RTVSPropertyOp19
 70
     1
102
RTVSPropertyOp20
 70
     1
102
RTVSPropertyOp21
 70
     1
102
RTVSPropertyOp22
 70
     1
102
RTVSPropertyOp23
 70
     1
102
RTVSPropertyOp24
 70
     1
102
RTVSPropertyOp25
 70
     1
102
RTVSPropertyOp26
 70
     1
102
RTVSPropertyOp27
 70
     1
102
RTVSPropertyOp28
 70
     1
102
RTVSPropertyOp29
 70
     1
102
RTVSPropertyOp30
 70
     1
102
RTVSPropertyOp31
 70
     1
102
RTVSPropertyOp32
 70
     1
102
RTVSPropertyOp33
 70
     1
102
RTVSPropertyOp34
 70
     1
102
RTVSPropertyOp35
 70
     1
102
RTVSPropertyOp36
 70
     1
102
RTVSPropertyOp37
 70
     1
102
RTVSPropertyOp38
 70
     1
102
RTVSPropertyOp39
 70
     1
102
RTVSPropertyOp40
 70
     1
102
RTVSPropertyOp41
 70
     1
102
RTVSPropertyOp42
 70
     1
102
RTVSPropertyOp43
 70
     1
102
RTVSPropertyOp44
 70
     1
102
RTVSPropertyOp45
 70
     1
102
RTVSPropertyOp46
 70
     1
102
RTVSPropertyOp47
 70
     1
102
RTVSPropertyOp48
 70
     1
102
RTVSPropertyOp49
 70
     1
102
RTVSPropertyOp50
 70
     1
102
RTVSPropertyOp51
 70
     0
102
RTVSPropertyOp52
 70
     0
102
RTVSPropertyOp53
 70
     1
102
RTVSPropertyOp54
 70
     1
102
RTVSPropertyOp55
 70
     1
102
RTVSPropertyOp56
 70
     1
102
RTVSPropertyOp57
 70
     1
102
RTVSPropertyOp58
 70
     1
102
RTVSPropertyOp59
 70
     1
102
RTVSPropertyOp60
 70
     1
102
RTVSPropertyOp61
 70
     1
102
RTVSPropertyOp62
 70
     1
  0
XRECORD
  5
1439
102
{ACAD_REACTORS
330
1438
102
}
330
1438
100
AcDbXrecord
280
     1
102
RTVSPost2010Prop28
280
     0
102
RTVSPost2010PropOp28
 70
     1
102
RTVSPost2010Prop29
280
     1
102
RTVSPost2010PropOp29
 70
     1
102
RTVSPost2010Prop30
280
     1
102
RTVSPost2010PropOp30
 70
     1
102
RTVSPost2010Prop31
280
     0
102
RTVSPost2010PropOp31
 70
     1
102
RTVSPost2010Prop32
280
     0
102
RTVSPost2010PropOp32
 70
     1
102
RTVSPost2010Prop33
280
     0
102
RTVSPost2010PropOp33
 70
     1
102
RTVSPost2010Prop34
280
     0
102
RTVSPost2010PropOp34
 70
     1
102
RTVSPost2010Prop35
280
     0
102
RTVSPost2010PropOp35
 70
     1
102
RTVSPost2010Prop36
280
     0
102
RTVSPost2010PropOp36
 70
     1
102
RTVSPost2010Prop37
 90
       50
102
RTVSPost2010PropOp37
 70
     0
102
RTVSPost2010Prop38
140
0.0
102
RTVSPost2010PropOp38
 70
     0
102
RTVSPost2010Prop39
140
1.0
102
RTVSPost2010PropOp39
 70
     0
102
RTVSPost2010Prop40
 90
        0
102
RTVSPost2010PropOp40
 70
     0
102
RTVSPost2010Prop41ColorIndex
 90
       18
102
RTVSPost2010Prop41ColorRGB
 90
        0
102
RTVSPost2010PropOp41
 70
     0
102
RTVSPost2010Prop42
 90
       50
102
RTVSPost2010PropOp42
 70
     0
102
RTVSPost2010Prop43
 90
        3
102
RTVSPost2010PropOp43
 70
     0
102
RTVSPost2010Prop44ColorIndex
 90
        5
102
RTVSPost2010Prop44ColorRGB
 90
      255
102
RTVSPost2010PropOp44
 70
     0
102
RTVSPost2010Prop45
280
     0
102
RTVSPost2010PropOp45
 70
     1
102
RTVSPost2010Prop46
 90
       50
102
RTVSPost2010PropOp46
 70
     0
102
RTVSPost2010Prop47
 90
       50
102
RTVSPost2010PropOp47
 70
     0
102
RTVSPost2010Prop48
 90
       50
102
RTVSPost2010PropOp48
 70
     0
102
RTVSPost2010Prop49
280
     0
102
RTVSPost2010PropOp49
 70
     1
102
RTVSPost2010Prop50
 90
       50
102
RTVSPost2010PropOp50
 70
     0
102
RTVSPost2010Prop51ColorIndex
 90
      256
102
RTVSPost2010Prop51ColorRGB
 90
-16777216
102
RTVSPost2010PropOp51
 70
     0
102
RTVSPost2010Prop52
140
1.0
102
RTVSPost2010PropOp52
 70
     0
102
RTVSPost2010Prop53
 90
        2
102
RTVSPost2010PropOp53
 70
     0
102
RTVSPost2010Prop54
  1
strokes_ogs.tif
102
RTVSPost2010PropOp54
 70
     0
102
RTVSPost2010Prop55
280
     0
102
RTVSPost2010PropOp55
 70
     1
102
RTVSPost2010Prop56
140
1.0
102
RTVSPost2010PropOp56
 70
     0
102
RTVSPost2010Prop57
140
1.0
102
RTVSPost2010PropOp57
 70
     0
102
RTVSPropertyOp0
 70
     0
102
RTVSPropertyOp1
 70
     0
102
RTVSPropertyOp2
 70
     0
102
RTVSPropertyOp3
 70
     0
102
RTVSPropertyOp4
 70
     0
102
RTVSPropertyOp5
 70
     0
102
RTVSPropertyOp6
 70
     0
102
RTVSPropertyOp7
 70
     0
102
RTVSPropertyOp8
 70
     0
102
RTVSPropertyOp9
 70
     0
102
RTVSPropertyOp10
 70
     0
102
RTVSPropertyOp11
 70
     0
102
RTVSPropertyOp12
 70
     0
102
RTVSPropertyOp13
 70
     0
102
RTVSPropertyOp14
 70
     2
102
RTVSPropertyOp15
 70
     0
102
RTVSPropertyOp16
 70
     0
102
RTVSPropertyOp17
 70
     0
102
RTVSPropertyOp18
 70
     0
102
RTVSPropertyOp19
 70
     0
102
RTVSPropertyOp20
 70
     0
102
RTVSPropertyOp21
 70
     0
102
RTVSPropertyOp22
 70
     0
102
RTVSPropertyOp23
 70
     0
102
RTVSPropertyOp24
 70
     0
102
RTVSPropertyOp25
 70
     0
102
RTVSPropertyOp26
 70
     0
102
RTVSPropertyOp27
 70
     0
102
RTVSPropertyOp28
 70
     1
102
RTVSPropertyOp29
 70
     1
102
RTVSPropertyOp30
 70
     1
102
RTVSPropertyOp31
 70
     1
102
RTVSPropertyOp32
 70
     1
102
RTVSPropertyOp33
 70
     1
102
RTVSPropertyOp34
 70
     1
102
RTVSPropertyOp35
 70
     1
102
RTVSPropertyOp36
 70
     1
102
RTVSPropertyOp37
 70
     0
102
RTVSPropertyOp38
 70
     0
102
RTVSPropertyOp39
 70
     0
102
RTVSPropertyOp40
 70
     0
102
RTVSPropertyOp41
 70
     0
102
RTVSPropertyOp42
 70
     0
102
RTVSPropertyOp43
 70
     0
102
RTVSPropertyOp44
 70
     0
102
RTVSPropertyOp45
 70
     1
102
RTVSPropertyOp46
 70
     0
102
RTVSPropertyOp47
 70
     0
102
RTVSPropertyOp48
 70
     0
102
RTVSPropertyOp49
 70
     1
102
RTVSPropertyOp50
 70
     0
102
RTVSPropertyOp51
 70
     0
102
RTVSPropertyOp52
 70
     0
102
RTVSPropertyOp53
 70
     0
102
RTVSPropertyOp54
 70
     0
102
RTVSPropertyOp55
 70
     1
102
RTVSPropertyOp56
 70
     0
102
RTVSPropertyOp57
 70
     0
102
RTVSPropertyOp58
 70
     0
102
RTVSPropertyOp59
 70
     0
102
RTVSPropertyOp60
 70
     0
102
RTVSPropertyOp61
 70
     0
102
RTVSPropertyOp62
 70
     0
  0
XRECORD
  5
1429
102
{ACAD_REACTORS
330
1428
102
}
330
1428
100
AcDbXrecord
280
     1
102
RTVSPost2010Prop28
280
     0
102
RTVSPost2010PropOp28
 70
     1
102
RTVSPost2010Prop29
280
     1
102
RTVSPost2010PropOp29
 70
     1
102
RTVSPost2010Prop30
280
     1
102
RTVSPost2010PropOp30
 70
     1
102
RTVSPost2010Prop31
280
     0
102
RTVSPost2010PropOp31
 70
     1
102
RTVSPost2010Prop32
280
     0
102
RTVSPost2010PropOp32
 70
     1
102
RTVSPost2010Prop33
280
     0
102
RTVSPost2010PropOp33
 70
     1
102
RTVSPost2010Prop34
280
     0
102
RTVSPost2010PropOp34
 70
     1
102
RTVSPost2010Prop35
280
     0
102
RTVSPost2010PropOp35
 70
     1
102
RTVSPost2010Prop36
280
     0
102
RTVSPost2010PropOp36
 70
     1
102
RTVSPost2010Prop37
 90
       50
102
RTVSPost2010PropOp37
 70
     1
102
RTVSPost2010Prop38
140
0.0
102
RTVSPost2010PropOp38
 70
     1
102
RTVSPost2010Prop39
140
1.0
102
RTVSPost2010PropOp39
 70
     1
102
RTVSPost2010Prop40
 90
        0
102
RTVSPost2010PropOp40
 70
     1
102
RTVSPost2010Prop41ColorIndex
 90
       18
102
RTVSPost2010Prop41ColorRGB
 90
        0
102
RTVSPost2010PropOp41
 70
     1
102
RTVSPost2010Prop42
 90
       50
102
RTVSPost2010PropOp42
 70
     1
102
RTVSPost2010Prop43
 90
        3
102
RTVSPost2010PropOp43
 70
     1
102
RTVSPost2010Prop44ColorIndex
 90
        5
102
RTVSPost2010Prop44ColorRGB
 90
      255
102
RTVSPost2010PropOp44
 70
     1
102
RTVSPost2010Prop45
280
     0
102
RTVSPost2010PropOp45
 70
     1
102
RTVSPost2010Prop46
 90
       50
102
RTVSPost2010PropOp46
 70
     1
102
RTVSPost2010Prop47
 90
       50
102
RTVSPost2010PropOp47
 70
     1
102
RTVSPost2010Prop48
 90
       50
102
RTVSPost2010PropOp48
 70
     1
102
RTVSPost2010Prop49
280
     0
102
RTVSPost2010PropOp49
 70
     1
102
RTVSPost2010Prop50
 90
       50
102
RTVSPost2010PropOp50
 70
     1
102
RTVSPost2010Prop51ColorIndex
 90
      256
102
RTVSPost2010Prop51ColorRGB
 90
-16777216
102
RTVSPost2010PropOp51
 70
     0
102
RTVSPost2010Prop52
140
1.0
102
RTVSPost2010PropOp52
 70
     0
102
RTVSPost2010Prop53
 90
        2
102
RTVSPost2010PropOp53
 70
     1
102
RTVSPost2010Prop54
  1
strokes_ogs.tif
102
RTVSPost2010PropOp54
 70
     1
102
RTVSPost2010Prop55
280
     0
102
RTVSPost2010PropOp55
 70
     1
102
RTVSPost2010Prop56
140
1.0
102
RTVSPost2010PropOp56
 70
     1
102
RTVSPost2010Prop57
140
1.0
102
RTVSPost2010PropOp57
 70
     1
102
RTVSPropertyOp0
 70
     1
102
RTVSPropertyOp1
 70
     1
102
RTVSPropertyOp2
 70
     1
102
RTVSPropertyOp3
 70
     1
102
RTVSPropertyOp4
 70
     1
102
RTVSPropertyOp5
 70
     1
102
RTVSPropertyOp6
 70
     1
102
RTVSPropertyOp7
 70
     1
102
RTVSPropertyOp8
 70
     1
102
RTVSPropertyOp9
 70
     1
102
RTVSPropertyOp10
 70
     1
102
RTVSPropertyOp11
 70
     1
102
RTVSPropertyOp12
 70
     1
102
RTVSPropertyOp13
 70
     1
102
RTVSPropertyOp14
 70
     1
102
RTVSPropertyOp15
 70
     1
102
RTVSPropertyOp16
 70
     1
102
RTVSPropertyOp17
 70
     1
102
RTVSPropertyOp18
 70
     1
102
RTVSPropertyOp19
 70
     1
102
RTVSPropertyOp20
 70
     1
102
RTVSPropertyOp21
 70
     1
102
RTVSPropertyOp22
 70
     1
102
RTVSPropertyOp23
 70
     1
102
RTVSPropertyOp24
 70
     1
102
RTVSPropertyOp25
 70
     1
102
RTVSPropertyOp26
 70
     1
102
RTVSPropertyOp27
 70
     1
102
RTVSPropertyOp28
 70
     1
102
RTVSPropertyOp29
 70
     1
102
RTVSPropertyOp30
 70
     1
102
RTVSPropertyOp31
 70
     1
102
RTVSPropertyOp32
 70
     1
102
RTVSPropertyOp33
 70
     1
102
RTVSPropertyOp34
 70
     1
102
RTVSPropertyOp35
 70
     1
102
RTVSPropertyOp36
 70
     1
102
RTVSPropertyOp37
 70
     1
102
RTVSPropertyOp38
 70
     1
102
RTVSPropertyOp39
 70
     1
102
RTVSPropertyOp40
 70
     1
102
RTVSPropertyOp41
 70
     1
102
RTVSPropertyOp42
 70
     1
102
RTVSPropertyOp43
 70
     1
102
RTVSPropertyOp44
 70
     1
102
RTVSPropertyOp45
 70
     1
102
RTVSPropertyOp46
 70
     1
102
RTVSPropertyOp47
 70
     1
102
RTVSPropertyOp48
 70
     1
102
RTVSPropertyOp49
 70
     1
102
RTVSPropertyOp50
 70
     1
102
RTVSPropertyOp51
 70
     0
102
RTVSPropertyOp52
 70
     0
102
RTVSPropertyOp53
 70
     1
102
RTVSPropertyOp54
 70
     1
102
RTVSPropertyOp55
 70
     1
102
RTVSPropertyOp56
 70
     1
102
RTVSPropertyOp57
 70
     1
102
RTVSPropertyOp58
 70
     1
102
RTVSPropertyOp59
 70
     1
102
RTVSPropertyOp60
 70
     1
102
RTVSPropertyOp61
 70
     1
102
RTVSPropertyOp62
 70
     1
  0
XRECORD
  5
143B
102
{ACAD_REACTORS
330
143A
102
}
330
143A
100
AcDbXrecord
280
     1
102
RTVSPost2010Prop28
280
     0
102
RTVSPost2010PropOp28
 70
     1
102
RTVSPost2010Prop29
280
     1
102
RTVSPost2010PropOp29
 70
     1
102
RTVSPost2010Prop30
280
     1
102
RTVSPost2010PropOp30
 70
     1
102
RTVSPost2010Prop31
280
     0
102
RTVSPost2010PropOp31
 70
     1
102
RTVSPost2010Prop32
280
     0
102
RTVSPost2010PropOp32
 70
     1
102
RTVSPost2010Prop33
280
     0
102
RTVSPost2010PropOp33
 70
     1
102
RTVSPost2010Prop34
280
     0
102
RTVSPost2010PropOp34
 70
     1
102
RTVSPost2010Prop35
280
     0
102
RTVSPost2010PropOp35
 70
     1
102
RTVSPost2010Prop36
280
     0
102
RTVSPost2010PropOp36
 70
     1
102
RTVSPost2010Prop37
 90
       50
102
RTVSPost2010PropOp37
 70
     0
102
RTVSPost2010Prop38
140
0.0
102
RTVSPost2010PropOp38
 70
     0
102
RTVSPost2010Prop39
140
1.0
102
RTVSPost2010PropOp39
 70
     0
102
RTVSPost2010Prop40
 90
        0
102
RTVSPost2010PropOp40
 70
     0
102
RTVSPost2010Prop41ColorIndex
 90
       18
102
RTVSPost2010Prop41ColorRGB
 90
        0
102
RTVSPost2010PropOp41
 70
     0
102
RTVSPost2010Prop42
 90
       50
102
RTVSPost2010PropOp42
 70
     0
102
RTVSPost2010Prop43
 90
        3
102
RTVSPost2010PropOp43
 70
     0
102
RTVSPost2010Prop44ColorIndex
 90
        5
102
RTVSPost2010Prop44ColorRGB
 90
      255
102
RTVSPost2010PropOp44
 70
     0
102
RTVSPost2010Prop45
280
     0
102
RTVSPost2010PropOp45
 70
     1
102
RTVSPost2010Prop46
 90
       50
102
RTVSPost2010PropOp46
 70
     0
102
RTVSPost2010Prop47
 90
       50
102
RTVSPost2010PropOp47
 70
     0
102
RTVSPost2010Prop48
 90
       50
102
RTVSPost2010PropOp48
 70
     0
102
RTVSPost2010Prop49
280
     0
102
RTVSPost2010PropOp49
 70
     1
102
RTVSPost2010Prop50
 90
       50
102
RTVSPost2010PropOp50
 70
     0
102
RTVSPost2010Prop51ColorIndex
 90
      256
102
RTVSPost2010Prop51ColorRGB
 90
-16777216
102
RTVSPost2010PropOp51
 70
     0
102
RTVSPost2010Prop52
140
1.0
102
RTVSPost2010PropOp52
 70
     0
102
RTVSPost2010Prop53
 90
        2
102
RTVSPost2010PropOp53
 70
     0
102
RTVSPost2010Prop54
  1
strokes_ogs.tif
102
RTVSPost2010PropOp54
 70
     0
102
RTVSPost2010Prop55
280
     0
102
RTVSPost2010PropOp55
 70
     1
102
RTVSPost2010Prop56
140
1.0
102
RTVSPost2010PropOp56
 70
     0
102
RTVSPost2010Prop57
140
1.0
102
RTVSPost2010PropOp57
 70
     0
102
RTVSPropertyOp0
 70
     0
102
RTVSPropertyOp1
 70
     0
102
RTVSPropertyOp2
 70
     0
102
RTVSPropertyOp3
 70
     0
102
RTVSPropertyOp4
 70
     0
102
RTVSPropertyOp5
 70
     0
102
RTVSPropertyOp6
 70
     0
102
RTVSPropertyOp7
 70
     0
102
RTVSPropertyOp8
 70
     0
102
RTVSPropertyOp9
 70
     0
102
RTVSPropertyOp10
 70
     0
102
RTVSPropertyOp11
 70
     0
102
RTVSPropertyOp12
 70
     0
102
RTVSPropertyOp13
 70
     0
102
RTVSPropertyOp14
 70
     2
102
RTVSPropertyOp15
 70
     0
102
RTVSPropertyOp16
 70
     0
102
RTVSPropertyOp17
 70
     0
102
RTVSPropertyOp18
 70
     0
102
RTVSPropertyOp19
 70
     0
102
RTVSPropertyOp20
 70
     0
102
RTVSPropertyOp21
 70
     0
102
RTVSPropertyOp22
 70
     0
102
RTVSPropertyOp23
 70
     0
102
RTVSPropertyOp24
 70
     0
102
RTVSPropertyOp25
 70
     0
102
RTVSPropertyOp26
 70
     0
102
RTVSPropertyOp27
 70
     0
102
RTVSPropertyOp28
 70
     1
102
RTVSPropertyOp29
 70
     1
102
RTVSPropertyOp30
 70
     1
102
RTVSPropertyOp31
 70
     1
102
RTVSPropertyOp32
 70
     1
102
RTVSPropertyOp33
 70
     1
102
RTVSPropertyOp34
 70
     1
102
RTVSPropertyOp35
 70
     1
102
RTVSPropertyOp36
 70
     1
102
RTVSPropertyOp37
 70
     0
102
RTVSPropertyOp38
 70
     0
102
RTVSPropertyOp39
 70
     0
102
RTVSPropertyOp40
 70
     0
102
RTVSPropertyOp41
 70
     0
102
RTVSPropertyOp42
 70
     0
102
RTVSPropertyOp43
 70
     0
102
RTVSPropertyOp44
 70
     0
102
RTVSPropertyOp45
 70
     1
102
RTVSPropertyOp46
 70
     0
102
RTVSPropertyOp47
 70
     0
102
RTVSPropertyOp48
 70
     0
102
RTVSPropertyOp49
 70
     1
102
RTVSPropertyOp50
 70
     0
102
RTVSPropertyOp51
 70
     0
102
RTVSPropertyOp52
 70
     0
102
RTVSPropertyOp53
 70
     0
102
RTVSPropertyOp54
 70
     0
102
RTVSPropertyOp55
 70
     1
102
RTVSPropertyOp56
 70
     0
102
RTVSPropertyOp57
 70
     0
102
RTVSPropertyOp58
 70
     0
102
RTVSPropertyOp59
 70
     0
102
RTVSPropertyOp60
 70
     0
102
RTVSPropertyOp61
 70
     0
102
RTVSPropertyOp62
 70
     0
  0
XRECORD
  5
1421
102
{ACAD_REACTORS
330
1420
102
}
330
1420
100
AcDbXrecord
280
     1
102
RTVSPost2010Prop28
280
     0
102
RTVSPost2010PropOp28
 70
     1
102
RTVSPost2010Prop29
280
     1
102
RTVSPost2010PropOp29
 70
     1
102
RTVSPost2010Prop30
280
     1
102
RTVSPost2010PropOp30
 70
     1
102
RTVSPost2010Prop31
280
     0
102
RTVSPost2010PropOp31
 70
     1
102
RTVSPost2010Prop32
280
     0
102
RTVSPost2010PropOp32
 70
     1
102
RTVSPost2010Prop33
280
     0
102
RTVSPost2010PropOp33
 70
     1
102
RTVSPost2010Prop34
280
     0
102
RTVSPost2010PropOp34
 70
     1
102
RTVSPost2010Prop35
280
     0
102
RTVSPost2010PropOp35
 70
     1
102
RTVSPost2010Prop36
280
     0
102
RTVSPost2010PropOp36
 70
     1
102
RTVSPost2010Prop37
 90
       50
102
RTVSPost2010PropOp37
 70
     1
102
RTVSPost2010Prop38
140
0.0
102
RTVSPost2010PropOp38
 70
     1
102
RTVSPost2010Prop39
140
1.0
102
RTVSPost2010PropOp39
 70
     1
102
RTVSPost2010Prop40
 90
        0
102
RTVSPost2010PropOp40
 70
     1
102
RTVSPost2010Prop41ColorIndex
 90
       18
102
RTVSPost2010Prop41ColorRGB
 90
        0
102
RTVSPost2010PropOp41
 70
     1
102
RTVSPost2010Prop42
 90
       50
102
RTVSPost2010PropOp42
 70
     1
102
RTVSPost2010Prop43
 90
        3
102
RTVSPost2010PropOp43
 70
     1
102
RTVSPost2010Prop44ColorIndex
 90
        5
102
RTVSPost2010Prop44ColorRGB
 90
      255
102
RTVSPost2010PropOp44
 70
     1
102
RTVSPost2010Prop45
280
     0
102
RTVSPost2010PropOp45
 70
     1
102
RTVSPost2010Prop46
 90
       50
102
RTVSPost2010PropOp46
 70
     1
102
RTVSPost2010Prop47
 90
       50
102
RTVSPost2010PropOp47
 70
     1
102
RTVSPost2010Prop48
 90
       50
102
RTVSPost2010PropOp48
 70
     1
102
RTVSPost2010Prop49
280
     0
102
RTVSPost2010PropOp49
 70
     1
102
RTVSPost2010Prop50
 90
       50
102
RTVSPost2010PropOp50
 70
     1
102
RTVSPost2010Prop51ColorIndex
 90
      256
102
RTVSPost2010Prop51ColorRGB
 90
-16777216
102
RTVSPost2010PropOp51
 70
     0
102
RTVSPost2010Prop52
140
1.0
102
RTVSPost2010PropOp52
 70
     0
102
RTVSPost2010Prop53
 90
        2
102
RTVSPost2010PropOp53
 70
     1
102
RTVSPost2010Prop54
  1
strokes_ogs.tif
102
RTVSPost2010PropOp54
 70
     1
102
RTVSPost2010Prop55
280
     0
102
RTVSPost2010PropOp55
 70
     1
102
RTVSPost2010Prop56
140
1.0
102
RTVSPost2010PropOp56
 70
     1
102
RTVSPost2010Prop57
140
1.0
102
RTVSPost2010PropOp57
 70
     1
102
RTVSPropertyOp0
 70
     1
102
RTVSPropertyOp1
 70
     1
102
RTVSPropertyOp2
 70
     1
102
RTVSPropertyOp3
 70
     1
102
RTVSPropertyOp4
 70
     1
102
RTVSPropertyOp5
 70
     1
102
RTVSPropertyOp6
 70
     1
102
RTVSPropertyOp7
 70
     1
102
RTVSPropertyOp8
 70
     1
102
RTVSPropertyOp9
 70
     1
102
RTVSPropertyOp10
 70
     1
102
RTVSPropertyOp11
 70
     1
102
RTVSPropertyOp12
 70
     1
102
RTVSPropertyOp13
 70
     1
102
RTVSPropertyOp14
 70
     1
102
RTVSPropertyOp15
 70
     1
102
RTVSPropertyOp16
 70
     1
102
RTVSPropertyOp17
 70
     1
102
RTVSPropertyOp18
 70
     1
102
RTVSPropertyOp19
 70
     1
102
RTVSPropertyOp20
 70
     1
102
RTVSPropertyOp21
 70
     1
102
RTVSPropertyOp22
 70
     1
102
RTVSPropertyOp23
 70
     1
102
RTVSPropertyOp24
 70
     1
102
RTVSPropertyOp25
 70
     1
102
RTVSPropertyOp26
 70
     1
102
RTVSPropertyOp27
 70
     1
102
RTVSPropertyOp28
 70
     1
102
RTVSPropertyOp29
 70
     1
102
RTVSPropertyOp30
 70
     1
102
RTVSPropertyOp31
 70
     1
102
RTVSPropertyOp32
 70
     1
102
RTVSPropertyOp33
 70
     1
102
RTVSPropertyOp34
 70
     1
102
RTVSPropertyOp35
 70
     1
102
RTVSPropertyOp36
 70
     1
102
RTVSPropertyOp37
 70
     1
102
RTVSPropertyOp38
 70
     1
102
RTVSPropertyOp39
 70
     1
102
RTVSPropertyOp40
 70
     1
102
RTVSPropertyOp41
 70
     1
102
RTVSPropertyOp42
 70
     1
102
RTVSPropertyOp43
 70
     1
102
RTVSPropertyOp44
 70
     1
102
RTVSPropertyOp45
 70
     1
102
RTVSPropertyOp46
 70
     1
102
RTVSPropertyOp47
 70
     1
102
RTVSPropertyOp48
 70
     1
102
RTVSPropertyOp49
 70
     1
102
RTVSPropertyOp50
 70
     1
102
RTVSPropertyOp51
 70
     0
102
RTVSPropertyOp52
 70
     0
102
RTVSPropertyOp53
 70
     1
102
RTVSPropertyOp54
 70
     1
102
RTVSPropertyOp55
 70
     1
102
RTVSPropertyOp56
 70
     1
102
RTVSPropertyOp57
 70
     1
102
RTVSPropertyOp58
 70
     1
102
RTVSPropertyOp59
 70
     1
102
RTVSPropertyOp60
 70
     1
102
RTVSPropertyOp61
 70
     1
102
RTVSPropertyOp62
 70
     1
  0
XRECORD
  5
1437
102
{ACAD_REACTORS
330
1436
102
}
330
1436
100
AcDbXrecord
280
     1
102
RTVSPost2010Prop28
280
     0
102
RTVSPost2010PropOp28
 70
     1
102
RTVSPost2010Prop29
280
     1
102
RTVSPost2010PropOp29
 70
     1
102
RTVSPost2010Prop30
280
     1
102
RTVSPost2010PropOp30
 70
     1
102
RTVSPost2010Prop31
280
     0
102
RTVSPost2010PropOp31
 70
     1
102
RTVSPost2010Prop32
280
     0
102
RTVSPost2010PropOp32
 70
     1
102
RTVSPost2010Prop33
280
     0
102
RTVSPost2010PropOp33
 70
     1
102
RTVSPost2010Prop34
280
     0
102
RTVSPost2010PropOp34
 70
     1
102
RTVSPost2010Prop35
280
     0
102
RTVSPost2010PropOp35
 70
     1
102
RTVSPost2010Prop36
280
     0
102
RTVSPost2010PropOp36
 70
     1
102
RTVSPost2010Prop37
 90
       50
102
RTVSPost2010PropOp37
 70
     1
102
RTVSPost2010Prop38
140
0.0
102
RTVSPost2010PropOp38
 70
     1
102
RTVSPost2010Prop39
140
1.0
102
RTVSPost2010PropOp39
 70
     1
102
RTVSPost2010Prop40
 90
        0
102
RTVSPost2010PropOp40
 70
     1
102
RTVSPost2010Prop41ColorIndex
 90
       18
102
RTVSPost2010Prop41ColorRGB
 90
        0
102
RTVSPost2010PropOp41
 70
     1
102
RTVSPost2010Prop42
 90
       50
102
RTVSPost2010PropOp42
 70
     1
102
RTVSPost2010Prop43
 90
        3
102
RTVSPost2010PropOp43
 70
     1
102
RTVSPost2010Prop44ColorIndex
 90
        5
102
RTVSPost2010Prop44ColorRGB
 90
      255
102
RTVSPost2010PropOp44
 70
     1
102
RTVSPost2010Prop45
280
     0
102
RTVSPost2010PropOp45
 70
     1
102
RTVSPost2010Prop46
 90
       50
102
RTVSPost2010PropOp46
 70
     1
102
RTVSPost2010Prop47
 90
       50
102
RTVSPost2010PropOp47
 70
     1
102
RTVSPost2010Prop48
 90
       50
102
RTVSPost2010PropOp48
 70
     1
102
RTVSPost2010Prop49
280
     0
102
RTVSPost2010PropOp49
 70
     1
102
RTVSPost2010Prop50
 90
       50
102
RTVSPost2010PropOp50
 70
     1
102
RTVSPost2010Prop51ColorIndex
 90
      256
102
RTVSPost2010Prop51ColorRGB
 90
-16777216
102
RTVSPost2010PropOp51
 70
     0
102
RTVSPost2010Prop52
140
1.0
102
RTVSPost2010PropOp52
 70
     0
102
RTVSPost2010Prop53
 90
        2
102
RTVSPost2010PropOp53
 70
     1
102
RTVSPost2010Prop54
  1
strokes_ogs.tif
102
RTVSPost2010PropOp54
 70
     1
102
RTVSPost2010Prop55
280
     0
102
RTVSPost2010PropOp55
 70
     1
102
RTVSPost2010Prop56
140
1.0
102
RTVSPost2010PropOp56
 70
     1
102
RTVSPost2010Prop57
140
1.0
102
RTVSPost2010PropOp57
 70
     1
102
RTVSPropertyOp0
 70
     1
102
RTVSPropertyOp1
 70
     1
102
RTVSPropertyOp2
 70
     1
102
RTVSPropertyOp3
 70
     1
102
RTVSPropertyOp4
 70
     1
102
RTVSPropertyOp5
 70
     1
102
RTVSPropertyOp6
 70
     1
102
RTVSPropertyOp7
 70
     1
102
RTVSPropertyOp8
 70
     1
102
RTVSPropertyOp9
 70
     1
102
RTVSPropertyOp10
 70
     1
102
RTVSPropertyOp11
 70
     1
102
RTVSPropertyOp12
 70
     1
102
RTVSPropertyOp13
 70
     1
102
RTVSPropertyOp14
 70
     1
102
RTVSPropertyOp15
 70
     1
102
RTVSPropertyOp16
 70
     1
102
RTVSPropertyOp17
 70
     1
102
RTVSPropertyOp18
 70
     1
102
RTVSPropertyOp19
 70
     1
102
RTVSPropertyOp20
 70
     1
102
RTVSPropertyOp21
 70
     1
102
RTVSPropertyOp22
 70
     1
102
RTVSPropertyOp23
 70
     1
102
RTVSPropertyOp24
 70
     1
102
RTVSPropertyOp25
 70
     1
102
RTVSPropertyOp26
 70
     1
102
RTVSPropertyOp27
 70
     1
102
RTVSPropertyOp28
 70
     1
102
RTVSPropertyOp29
 70
     1
102
RTVSPropertyOp30
 70
     1
102
RTVSPropertyOp31
 70
     1
102
RTVSPropertyOp32
 70
     1
102
RTVSPropertyOp33
 70
     1
102
RTVSPropertyOp34
 70
     1
102
RTVSPropertyOp35
 70
     1
102
RTVSPropertyOp36
 70
     1
102
RTVSPropertyOp37
 70
     1
102
RTVSPropertyOp38
 70
     1
102
RTVSPropertyOp39
 70
     1
102
RTVSPropertyOp40
 70
     1
102
RTVSPropertyOp41
 70
     1
102
RTVSPropertyOp42
 70
     1
102
RTVSPropertyOp43
 70
     1
102
RTVSPropertyOp44
 70
     1
102
RTVSPropertyOp45
 70
     1
102
RTVSPropertyOp46
 70
     1
102
RTVSPropertyOp47
 70
     1
102
RTVSPropertyOp48
 70
     1
102
RTVSPropertyOp49
 70
     1
102
RTVSPropertyOp50
 70
     1
102
RTVSPropertyOp51
 70
     0
102
RTVSPropertyOp52
 70
     0
102
RTVSPropertyOp53
 70
     1
102
RTVSPropertyOp54
 70
     1
102
RTVSPropertyOp55
 70
     1
102
RTVSPropertyOp56
 70
     1
102
RTVSPropertyOp57
 70
     1
102
RTVSPropertyOp58
 70
     1
102
RTVSPropertyOp59
 70
     1
102
RTVSPropertyOp60
 70
     1
102
RTVSPropertyOp61
 70
     1
102
RTVSPropertyOp62
 70
     1
  0
XRECORD
  5
1435
102
{ACAD_REACTORS
330
1434
102
}
330
1434
100
AcDbXrecord
280
     1
102
RTVSPost2010Prop28
280
     0
102
RTVSPost2010PropOp28
 70
     1
102
RTVSPost2010Prop29
280
     1
102
RTVSPost2010PropOp29
 70
     1
102
RTVSPost2010Prop30
280
     1
102
RTVSPost2010PropOp30
 70
     1
102
RTVSPost2010Prop31
280
     0
102
RTVSPost2010PropOp31
 70
     1
102
RTVSPost2010Prop32
280
     0
102
RTVSPost2010PropOp32
 70
     1
102
RTVSPost2010Prop33
280
     0
102
RTVSPost2010PropOp33
 70
     1
102
RTVSPost2010Prop34
280
     0
102
RTVSPost2010PropOp34
 70
     1
102
RTVSPost2010Prop35
280
     0
102
RTVSPost2010PropOp35
 70
     1
102
RTVSPost2010Prop36
280
     0
102
RTVSPost2010PropOp36
 70
     1
102
RTVSPost2010Prop37
 90
       50
102
RTVSPost2010PropOp37
 70
     1
102
RTVSPost2010Prop38
140
0.0
102
RTVSPost2010PropOp38
 70
     1
102
RTVSPost2010Prop39
140
1.0
102
RTVSPost2010PropOp39
 70
     1
102
RTVSPost2010Prop40
 90
        0
102
RTVSPost2010PropOp40
 70
     1
102
RTVSPost2010Prop41ColorIndex
 90
       18
102
RTVSPost2010Prop41ColorRGB
 90
        0
102
RTVSPost2010PropOp41
 70
     1
102
RTVSPost2010Prop42
 90
       50
102
RTVSPost2010PropOp42
 70
     1
102
RTVSPost2010Prop43
 90
        3
102
RTVSPost2010PropOp43
 70
     1
102
RTVSPost2010Prop44ColorIndex
 90
        5
102
RTVSPost2010Prop44ColorRGB
 90
      255
102
RTVSPost2010PropOp44
 70
     1
102
RTVSPost2010Prop45
280
     0
102
RTVSPost2010PropOp45
 70
     1
102
RTVSPost2010Prop46
 90
       50
102
RTVSPost2010PropOp46
 70
     1
102
RTVSPost2010Prop47
 90
       50
102
RTVSPost2010PropOp47
 70
     1
102
RTVSPost2010Prop48
 90
       50
102
RTVSPost2010PropOp48
 70
     1
102
RTVSPost2010Prop49
280
     0
102
RTVSPost2010PropOp49
 70
     1
102
RTVSPost2010Prop50
 90
       50
102
RTVSPost2010PropOp50
 70
     1
102
RTVSPost2010Prop51ColorIndex
 90
      256
102
RTVSPost2010Prop51ColorRGB
 90
-16777216
102
RTVSPost2010PropOp51
 70
     0
102
RTVSPost2010Prop52
140
1.0
102
RTVSPost2010PropOp52
 70
     0
102
RTVSPost2010Prop53
 90
        2
102
RTVSPost2010PropOp53
 70
     1
102
RTVSPost2010Prop54
  1
strokes_ogs.tif
102
RTVSPost2010PropOp54
 70
     1
102
RTVSPost2010Prop55
280
     0
102
RTVSPost2010PropOp55
 70
     1
102
RTVSPost2010Prop56
140
1.0
102
RTVSPost2010PropOp56
 70
     1
102
RTVSPost2010Prop57
140
1.0
102
RTVSPost2010PropOp57
 70
     1
102
RTVSPropertyOp0
 70
     1
102
RTVSPropertyOp1
 70
     1
102
RTVSPropertyOp2
 70
     1
102
RTVSPropertyOp3
 70
     1
102
RTVSPropertyOp4
 70
     1
102
RTVSPropertyOp5
 70
     1
102
RTVSPropertyOp6
 70
     1
102
RTVSPropertyOp7
 70
     1
102
RTVSPropertyOp8
 70
     1
102
RTVSPropertyOp9
 70
     1
102
RTVSPropertyOp10
 70
     1
102
RTVSPropertyOp11
 70
     1
102
RTVSPropertyOp12
 70
     1
102
RTVSPropertyOp13
 70
     1
102
RTVSPropertyOp14
 70
     1
102
RTVSPropertyOp15
 70
     1
102
RTVSPropertyOp16
 70
     1
102
RTVSPropertyOp17
 70
     1
102
RTVSPropertyOp18
 70
     1
102
RTVSPropertyOp19
 70
     1
102
RTVSPropertyOp20
 70
     1
102
RTVSPropertyOp21
 70
     1
102
RTVSPropertyOp22
 70
     1
102
RTVSPropertyOp23
 70
     1
102
RTVSPropertyOp24
 70
     1
102
RTVSPropertyOp25
 70
     1
102
RTVSPropertyOp26
 70
     1
102
RTVSPropertyOp27
 70
     1
102
RTVSPropertyOp28
 70
     1
102
RTVSPropertyOp29
 70
     1
102
RTVSPropertyOp30
 70
     1
102
RTVSPropertyOp31
 70
     1
102
RTVSPropertyOp32
 70
     1
102
RTVSPropertyOp33
 70
     1
102
RTVSPropertyOp34
 70
     1
102
RTVSPropertyOp35
 70
     1
102
RTVSPropertyOp36
 70
     1
102
RTVSPropertyOp37
 70
     1
102
RTVSPropertyOp38
 70
     1
102
RTVSPropertyOp39
 70
     1
102
RTVSPropertyOp40
 70
     1
102
RTVSPropertyOp41
 70
     1
102
RTVSPropertyOp42
 70
     1
102
RTVSPropertyOp43
 70
     1
102
RTVSPropertyOp44
 70
     1
102
RTVSPropertyOp45
 70
     1
102
RTVSPropertyOp46
 70
     1
102
RTVSPropertyOp47
 70
     1
102
RTVSPropertyOp48
 70
     1
102
RTVSPropertyOp49
 70
     1
102
RTVSPropertyOp50
 70
     1
102
RTVSPropertyOp51
 70
     0
102
RTVSPropertyOp52
 70
     0
102
RTVSPropertyOp53
 70
     1
102
RTVSPropertyOp54
 70
     1
102
RTVSPropertyOp55
 70
     1
102
RTVSPropertyOp56
 70
     1
102
RTVSPropertyOp57
 70
     1
102
RTVSPropertyOp58
 70
     1
102
RTVSPropertyOp59
 70
     1
102
RTVSPropertyOp60
 70
     1
102
RTVSPropertyOp61
 70
     1
102
RTVSPropertyOp62
 70
     1
  0
XRECORD
  5
142F
102
{ACAD_REACTORS
330
142E
102
}
330
142E
100
AcDbXrecord
280
     1
102
RTVSPost2010Prop28
280
     0
102
RTVSPost2010PropOp28
 70
     1
102
RTVSPost2010Prop29
280
     1
102
RTVSPost2010PropOp29
 70
     1
102
RTVSPost2010Prop30
280
     1
102
RTVSPost2010PropOp30
 70
     1
102
RTVSPost2010Prop31
280
     0
102
RTVSPost2010PropOp31
 70
     1
102
RTVSPost2010Prop32
280
     0
102
RTVSPost2010PropOp32
 70
     1
102
RTVSPost2010Prop33
280
     0
102
RTVSPost2010PropOp33
 70
     1
102
RTVSPost2010Prop34
280
     0
102
RTVSPost2010PropOp34
 70
     1
102
RTVSPost2010Prop35
280
     0
102
RTVSPost2010PropOp35
 70
     1
102
RTVSPost2010Prop36
280
     0
102
RTVSPost2010PropOp36
 70
     1
102
RTVSPost2010Prop37
 90
       50
102
RTVSPost2010PropOp37
 70
     1
102
RTVSPost2010Prop38
140
0.0
102
RTVSPost2010PropOp38
 70
     1
102
RTVSPost2010Prop39
140
1.0
102
RTVSPost2010PropOp39
 70
     1
102
RTVSPost2010Prop40
 90
        0
102
RTVSPost2010PropOp40
 70
     1
102
RTVSPost2010Prop41ColorIndex
 90
       18
102
RTVSPost2010Prop41ColorRGB
 90
        0
102
RTVSPost2010PropOp41
 70
     1
102
RTVSPost2010Prop42
 90
       50
102
RTVSPost2010PropOp42
 70
     1
102
RTVSPost2010Prop43
 90
        3
102
RTVSPost2010PropOp43
 70
     1
102
RTVSPost2010Prop44ColorIndex
 90
        5
102
RTVSPost2010Prop44ColorRGB
 90
      255
102
RTVSPost2010PropOp44
 70
     1
102
RTVSPost2010Prop45
280
     0
102
RTVSPost2010PropOp45
 70
     1
102
RTVSPost2010Prop46
 90
       50
102
RTVSPost2010PropOp46
 70
     1
102
RTVSPost2010Prop47
 90
       50
102
RTVSPost2010PropOp47
 70
     1
102
RTVSPost2010Prop48
 90
       50
102
RTVSPost2010PropOp48
 70
     1
102
RTVSPost2010Prop49
280
     0
102
RTVSPost2010PropOp49
 70
     1
102
RTVSPost2010Prop50
 90
       50
102
RTVSPost2010PropOp50
 70
     1
102
RTVSPost2010Prop51ColorIndex
 90
      256
102
RTVSPost2010Prop51ColorRGB
 90
-16777216
102
RTVSPost2010PropOp51
 70
     0
102
RTVSPost2010Prop52
140
1.0
102
RTVSPost2010PropOp52
 70
     0
102
RTVSPost2010Prop53
 90
        2
102
RTVSPost2010PropOp53
 70
     1
102
RTVSPost2010Prop54
  1
strokes_ogs.tif
102
RTVSPost2010PropOp54
 70
     1
102
RTVSPost2010Prop55
280
     0
102
RTVSPost2010PropOp55
 70
     1
102
RTVSPost2010Prop56
140
1.0
102
RTVSPost2010PropOp56
 70
     1
102
RTVSPost2010Prop57
140
1.0
102
RTVSPost2010PropOp57
 70
     1
102
RTVSPropertyOp0
 70
     1
102
RTVSPropertyOp1
 70
     1
102
RTVSPropertyOp2
 70
     1
102
RTVSPropertyOp3
 70
     1
102
RTVSPropertyOp4
 70
     1
102
RTVSPropertyOp5
 70
     1
102
RTVSPropertyOp6
 70
     1
102
RTVSPropertyOp7
 70
     1
102
RTVSPropertyOp8
 70
     1
102
RTVSPropertyOp9
 70
     1
102
RTVSPropertyOp10
 70
     1
102
RTVSPropertyOp11
 70
     1
102
RTVSPropertyOp12
 70
     1
102
RTVSPropertyOp13
 70
     1
102
RTVSPropertyOp14
 70
     1
102
RTVSPropertyOp15
 70
     1
102
RTVSPropertyOp16
 70
     1
102
RTVSPropertyOp17
 70
     1
102
RTVSPropertyOp18
 70
     1
102
RTVSPropertyOp19
 70
     1
102
RTVSPropertyOp20
 70
     1
102
RTVSPropertyOp21
 70
     1
102
RTVSPropertyOp22
 70
     1
102
RTVSPropertyOp23
 70
     1
102
RTVSPropertyOp24
 70
     1
102
RTVSPropertyOp25
 70
     1
102
RTVSPropertyOp26
 70
     1
102
RTVSPropertyOp27
 70
     1
102
RTVSPropertyOp28
 70
     1
102
RTVSPropertyOp29
 70
     1
102
RTVSPropertyOp30
 70
     1
102
RTVSPropertyOp31
 70
     1
102
RTVSPropertyOp32
 70
     1
102
RTVSPropertyOp33
 70
     1
102
RTVSPropertyOp34
 70
     1
102
RTVSPropertyOp35
 70
     1
102
RTVSPropertyOp36
 70
     1
102
RTVSPropertyOp37
 70
     1
102
RTVSPropertyOp38
 70
     1
102
RTVSPropertyOp39
 70
     1
102
RTVSPropertyOp40
 70
     1
102
RTVSPropertyOp41
 70
     1
102
RTVSPropertyOp42
 70
     1
102
RTVSPropertyOp43
 70
     1
102
RTVSPropertyOp44
 70
     1
102
RTVSPropertyOp45
 70
     1
102
RTVSPropertyOp46
 70
     1
102
RTVSPropertyOp47
 70
     1
102
RTVSPropertyOp48
 70
     1
102
RTVSPropertyOp49
 70
     1
102
RTVSPropertyOp50
 70
     1
102
RTVSPropertyOp51
 70
     0
102
RTVSPropertyOp52
 70
     0
102
RTVSPropertyOp53
 70
     1
102
RTVSPropertyOp54
 70
     1
102
RTVSPropertyOp55
 70
     1
102
RTVSPropertyOp56
 70
     1
102
RTVSPropertyOp57
 70
     1
102
RTVSPropertyOp58
 70
     1
102
RTVSPropertyOp59
 70
     1
102
RTVSPropertyOp60
 70
     1
102
RTVSPropertyOp61
 70
     1
102
RTVSPropertyOp62
 70
     1
  0
XRECORD
  5
1431
102
{ACAD_REACTORS
330
1430
102
}
330
1430
100
AcDbXrecord
280
     1
102
RTVSPost2010Prop28
280
     0
102
RTVSPost2010PropOp28
 70
     1
102
RTVSPost2010Prop29
280
     1
102
RTVSPost2010PropOp29
 70
     1
102
RTVSPost2010Prop30
280
     1
102
RTVSPost2010PropOp30
 70
     1
102
RTVSPost2010Prop31
280
     0
102
RTVSPost2010PropOp31
 70
     1
102
RTVSPost2010Prop32
280
     0
102
RTVSPost2010PropOp32
 70
     1
102
RTVSPost2010Prop33
280
     0
102
RTVSPost2010PropOp33
 70
     1
102
RTVSPost2010Prop34
280
     0
102
RTVSPost2010PropOp34
 70
     1
102
RTVSPost2010Prop35
280
     0
102
RTVSPost2010PropOp35
 70
     1
102
RTVSPost2010Prop36
280
     0
102
RTVSPost2010PropOp36
 70
     1
102
RTVSPost2010Prop37
 90
       50
102
RTVSPost2010PropOp37
 70
     1
102
RTVSPost2010Prop38
140
0.0
102
RTVSPost2010PropOp38
 70
     1
102
RTVSPost2010Prop39
140
1.0
102
RTVSPost2010PropOp39
 70
     1
102
RTVSPost2010Prop40
 90
        0
102
RTVSPost2010PropOp40
 70
     1
102
RTVSPost2010Prop41ColorIndex
 90
       18
102
RTVSPost2010Prop41ColorRGB
 90
        0
102
RTVSPost2010PropOp41
 70
     1
102
RTVSPost2010Prop42
 90
       50
102
RTVSPost2010PropOp42
 70
     1
102
RTVSPost2010Prop43
 90
        3
102
RTVSPost2010PropOp43
 70
     1
102
RTVSPost2010Prop44ColorIndex
 90
        5
102
RTVSPost2010Prop44ColorRGB
 90
      255
102
RTVSPost2010PropOp44
 70
     1
102
RTVSPost2010Prop45
280
     0
102
RTVSPost2010PropOp45
 70
     1
102
RTVSPost2010Prop46
 90
       50
102
RTVSPost2010PropOp46
 70
     1
102
RTVSPost2010Prop47
 90
       50
102
RTVSPost2010PropOp47
 70
     1
102
RTVSPost2010Prop48
 90
       50
102
RTVSPost2010PropOp48
 70
     1
102
RTVSPost2010Prop49
280
     0
102
RTVSPost2010PropOp49
 70
     1
102
RTVSPost2010Prop50
 90
       50
102
RTVSPost2010PropOp50
 70
     1
102
RTVSPost2010Prop51ColorIndex
 90
      256
102
RTVSPost2010Prop51ColorRGB
 90
-16777216
102
RTVSPost2010PropOp51
 70
     0
102
RTVSPost2010Prop52
140
1.0
102
RTVSPost2010PropOp52
 70
     0
102
RTVSPost2010Prop53
 90
        2
102
RTVSPost2010PropOp53
 70
     1
102
RTVSPost2010Prop54
  1
strokes_ogs.tif
102
RTVSPost2010PropOp54
 70
     1
102
RTVSPost2010Prop55
280
     0
102
RTVSPost2010PropOp55
 70
     1
102
RTVSPost2010Prop56
140
1.0
102
RTVSPost2010PropOp56
 70
     1
102
RTVSPost2010Prop57
140
1.0
102
RTVSPost2010PropOp57
 70
     1
102
RTVSPropertyOp0
 70
     1
102
RTVSPropertyOp1
 70
     1
102
RTVSPropertyOp2
 70
     1
102
RTVSPropertyOp3
 70
     1
102
RTVSPropertyOp4
 70
     1
102
RTVSPropertyOp5
 70
     1
102
RTVSPropertyOp6
 70
     1
102
RTVSPropertyOp7
 70
     1
102
RTVSPropertyOp8
 70
     1
102
RTVSPropertyOp9
 70
     1
102
RTVSPropertyOp10
 70
     1
102
RTVSPropertyOp11
 70
     1
102
RTVSPropertyOp12
 70
     1
102
RTVSPropertyOp13
 70
     1
102
RTVSPropertyOp14
 70
     1
102
RTVSPropertyOp15
 70
     1
102
RTVSPropertyOp16
 70
     1
102
RTVSPropertyOp17
 70
     1
102
RTVSPropertyOp18
 70
     1
102
RTVSPropertyOp19
 70
     1
102
RTVSPropertyOp20
 70
     1
102
RTVSPropertyOp21
 70
     1
102
RTVSPropertyOp22
 70
     1
102
RTVSPropertyOp23
 70
     1
102
RTVSPropertyOp24
 70
     1
102
RTVSPropertyOp25
 70
     1
102
RTVSPropertyOp26
 70
     1
102
RTVSPropertyOp27
 70
     1
102
RTVSPropertyOp28
 70
     1
102
RTVSPropertyOp29
 70
     1
102
RTVSPropertyOp30
 70
     1
102
RTVSPropertyOp31
 70
     1
102
RTVSPropertyOp32
 70
     1
102
RTVSPropertyOp33
 70
     1
102
RTVSPropertyOp34
 70
     1
102
RTVSPropertyOp35
 70
     1
102
RTVSPropertyOp36
 70
     1
102
RTVSPropertyOp37
 70
     1
102
RTVSPropertyOp38
 70
     1
102
RTVSPropertyOp39
 70
     1
102
RTVSPropertyOp40
 70
     1
102
RTVSPropertyOp41
 70
     1
102
RTVSPropertyOp42
 70
     1
102
RTVSPropertyOp43
 70
     1
102
RTVSPropertyOp44
 70
     1
102
RTVSPropertyOp45
 70
     1
102
RTVSPropertyOp46
 70
     1
102
RTVSPropertyOp47
 70
     1
102
RTVSPropertyOp48
 70
     1
102
RTVSPropertyOp49
 70
     1
102
RTVSPropertyOp50
 70
     1
102
RTVSPropertyOp51
 70
     0
102
RTVSPropertyOp52
 70
     0
102
RTVSPropertyOp53
 70
     1
102
RTVSPropertyOp54
 70
     1
102
RTVSPropertyOp55
 70
     1
102
RTVSPropertyOp56
 70
     1
102
RTVSPropertyOp57
 70
     1
102
RTVSPropertyOp58
 70
     1
102
RTVSPropertyOp59
 70
     1
102
RTVSPropertyOp60
 70
     1
102
RTVSPropertyOp61
 70
     1
102
RTVSPropertyOp62
 70
     1
  0
XRECORD
  5
1427
102
{ACAD_REACTORS
330
1426
102
}
330
1426
100
AcDbXrecord
280
     1
102
RTVSPost2010Prop28
280
     0
102
RTVSPost2010PropOp28
 70
     1
102
RTVSPost2010Prop29
280
     1
102
RTVSPost2010PropOp29
 70
     1
102
RTVSPost2010Prop30
280
     1
102
RTVSPost2010PropOp30
 70
     1
102
RTVSPost2010Prop31
280
     0
102
RTVSPost2010PropOp31
 70
     1
102
RTVSPost2010Prop32
280
     0
102
RTVSPost2010PropOp32
 70
     1
102
RTVSPost2010Prop33
280
     0
102
RTVSPost2010PropOp33
 70
     1
102
RTVSPost2010Prop34
280
     0
102
RTVSPost2010PropOp34
 70
     1
102
RTVSPost2010Prop35
280
     0
102
RTVSPost2010PropOp35
 70
     1
102
RTVSPost2010Prop36
280
     0
102
RTVSPost2010PropOp36
 70
     1
102
RTVSPost2010Prop37
 90
       50
102
RTVSPost2010PropOp37
 70
     1
102
RTVSPost2010Prop38
140
0.0
102
RTVSPost2010PropOp38
 70
     1
102
RTVSPost2010Prop39
140
1.0
102
RTVSPost2010PropOp39
 70
     1
102
RTVSPost2010Prop40
 90
        0
102
RTVSPost2010PropOp40
 70
     1
102
RTVSPost2010Prop41ColorIndex
 90
       18
102
RTVSPost2010Prop41ColorRGB
 90
        0
102
RTVSPost2010PropOp41
 70
     1
102
RTVSPost2010Prop42
 90
       50
102
RTVSPost2010PropOp42
 70
     1
102
RTVSPost2010Prop43
 90
        3
102
RTVSPost2010PropOp43
 70
     1
102
RTVSPost2010Prop44ColorIndex
 90
        5
102
RTVSPost2010Prop44ColorRGB
 90
      255
102
RTVSPost2010PropOp44
 70
     1
102
RTVSPost2010Prop45
280
     0
102
RTVSPost2010PropOp45
 70
     1
102
RTVSPost2010Prop46
 90
       50
102
RTVSPost2010PropOp46
 70
     1
102
RTVSPost2010Prop47
 90
       50
102
RTVSPost2010PropOp47
 70
     1
102
RTVSPost2010Prop48
 90
       50
102
RTVSPost2010PropOp48
 70
     1
102
RTVSPost2010Prop49
280
     0
102
RTVSPost2010PropOp49
 70
     1
102
RTVSPost2010Prop50
 90
       50
102
RTVSPost2010PropOp50
 70
     1
102
RTVSPost2010Prop51ColorIndex
 90
      256
102
RTVSPost2010Prop51ColorRGB
 90
-16777216
102
RTVSPost2010PropOp51
 70
     0
102
RTVSPost2010Prop52
140
1.0
102
RTVSPost2010PropOp52
 70
     0
102
RTVSPost2010Prop53
 90
        2
102
RTVSPost2010PropOp53
 70
     1
102
RTVSPost2010Prop54
  1
strokes_ogs.tif
102
RTVSPost2010PropOp54
 70
     1
102
RTVSPost2010Prop55
280
     0
102
RTVSPost2010PropOp55
 70
     1
102
RTVSPost2010Prop56
140
1.0
102
RTVSPost2010PropOp56
 70
     1
102
RTVSPost2010Prop57
140
1.0
102
RTVSPost2010PropOp57
 70
     1
102
RTVSPropertyOp0
 70
     1
102
RTVSPropertyOp1
 70
     1
102
RTVSPropertyOp2
 70
     1
102
RTVSPropertyOp3
 70
     1
102
RTVSPropertyOp4
 70
     1
102
RTVSPropertyOp5
 70
     1
102
RTVSPropertyOp6
 70
     1
102
RTVSPropertyOp7
 70
     1
102
RTVSPropertyOp8
 70
     1
102
RTVSPropertyOp9
 70
     1
102
RTVSPropertyOp10
 70
     1
102
RTVSPropertyOp11
 70
     1
102
RTVSPropertyOp12
 70
     1
102
RTVSPropertyOp13
 70
     1
102
RTVSPropertyOp14
 70
     1
102
RTVSPropertyOp15
 70
     1
102
RTVSPropertyOp16
 70
     1
102
RTVSPropertyOp17
 70
     1
102
RTVSPropertyOp18
 70
     1
102
RTVSPropertyOp19
 70
     1
102
RTVSPropertyOp20
 70
     1
102
RTVSPropertyOp21
 70
     1
102
RTVSPropertyOp22
 70
     1
102
RTVSPropertyOp23
 70
     1
102
RTVSPropertyOp24
 70
     1
102
RTVSPropertyOp25
 70
     1
102
RTVSPropertyOp26
 70
     1
102
RTVSPropertyOp27
 70
     1
102
RTVSPropertyOp28
 70
     1
102
RTVSPropertyOp29
 70
     1
102
RTVSPropertyOp30
 70
     1
102
RTVSPropertyOp31
 70
     1
102
RTVSPropertyOp32
 70
     1
102
RTVSPropertyOp33
 70
     1
102
RTVSPropertyOp34
 70
     1
102
RTVSPropertyOp35
 70
     1
102
RTVSPropertyOp36
 70
     1
102
RTVSPropertyOp37
 70
     1
102
RTVSPropertyOp38
 70
     1
102
RTVSPropertyOp39
 70
     1
102
RTVSPropertyOp40
 70
     1
102
RTVSPropertyOp41
 70
     1
102
RTVSPropertyOp42
 70
     1
102
RTVSPropertyOp43
 70
     1
102
RTVSPropertyOp44
 70
     1
102
RTVSPropertyOp45
 70
     1
102
RTVSPropertyOp46
 70
     1
102
RTVSPropertyOp47
 70
     1
102
RTVSPropertyOp48
 70
     1
102
RTVSPropertyOp49
 70
     1
102
RTVSPropertyOp50
 70
     1
102
RTVSPropertyOp51
 70
     0
102
RTVSPropertyOp52
 70
     0
102
RTVSPropertyOp53
 70
     1
102
RTVSPropertyOp54
 70
     1
102
RTVSPropertyOp55
 70
     1
102
RTVSPropertyOp56
 70
     1
102
RTVSPropertyOp57
 70
     1
102
RTVSPropertyOp58
 70
     1
102
RTVSPropertyOp59
 70
     1
102
RTVSPropertyOp60
 70
     1
102
RTVSPropertyOp61
 70
     1
102
RTVSPropertyOp62
 70
     1
  0
XRECORD
  5
141B
102
{ACAD_REACTORS
330
141A
102
}
330
141A
100
AcDbXrecord
280
     1
102
RTVSPost2010Prop28
280
     0
102
RTVSPost2010PropOp28
 70
     1
102
RTVSPost2010Prop29
280
     1
102
RTVSPost2010PropOp29
 70
     1
102
RTVSPost2010Prop30
280
     1
102
RTVSPost2010PropOp30
 70
     1
102
RTVSPost2010Prop31
280
     0
102
RTVSPost2010PropOp31
 70
     1
102
RTVSPost2010Prop32
280
     0
102
RTVSPost2010PropOp32
 70
     1
102
RTVSPost2010Prop33
280
     0
102
RTVSPost2010PropOp33
 70
     1
102
RTVSPost2010Prop34
280
     0
102
RTVSPost2010PropOp34
 70
     1
102
RTVSPost2010Prop35
280
     0
102
RTVSPost2010PropOp35
 70
     1
102
RTVSPost2010Prop36
280
     0
102
RTVSPost2010PropOp36
 70
     1
102
RTVSPost2010Prop37
 90
       50
102
RTVSPost2010PropOp37
 70
     1
102
RTVSPost2010Prop38
140
0.0
102
RTVSPost2010PropOp38
 70
     1
102
RTVSPost2010Prop39
140
1.0
102
RTVSPost2010PropOp39
 70
     1
102
RTVSPost2010Prop40
 90
        0
102
RTVSPost2010PropOp40
 70
     1
102
RTVSPost2010Prop41ColorIndex
 90
       18
102
RTVSPost2010Prop41ColorRGB
 90
        0
102
RTVSPost2010PropOp41
 70
     1
102
RTVSPost2010Prop42
 90
       50
102
RTVSPost2010PropOp42
 70
     1
102
RTVSPost2010Prop43
 90
        3
102
RTVSPost2010PropOp43
 70
     1
102
RTVSPost2010Prop44ColorIndex
 90
        5
102
RTVSPost2010Prop44ColorRGB
 90
      255
102
RTVSPost2010PropOp44
 70
     1
102
RTVSPost2010Prop45
280
     0
102
RTVSPost2010PropOp45
 70
     1
102
RTVSPost2010Prop46
 90
       50
102
RTVSPost2010PropOp46
 70
     1
102
RTVSPost2010Prop47
 90
       50
102
RTVSPost2010PropOp47
 70
     1
102
RTVSPost2010Prop48
 90
       50
102
RTVSPost2010PropOp48
 70
     1
102
RTVSPost2010Prop49
280
     0
102
RTVSPost2010PropOp49
 70
     1
102
RTVSPost2010Prop50
 90
       50
102
RTVSPost2010PropOp50
 70
     1
102
RTVSPost2010Prop51ColorIndex
 90
      256
102
RTVSPost2010Prop51ColorRGB
 90
-16777216
102
RTVSPost2010PropOp51
 70
     0
102
RTVSPost2010Prop52
140
1.0
102
RTVSPost2010PropOp52
 70
     0
102
RTVSPost2010Prop53
 90
        2
102
RTVSPost2010PropOp53
 70
     1
102
RTVSPost2010Prop54
  1
strokes_ogs.tif
102
RTVSPost2010PropOp54
 70
     1
102
RTVSPost2010Prop55
280
     0
102
RTVSPost2010PropOp55
 70
     1
102
RTVSPost2010Prop56
140
1.0
102
RTVSPost2010PropOp56
 70
     1
102
RTVSPost2010Prop57
140
1.0
102
RTVSPost2010PropOp57
 70
     1
102
RTVSPropertyOp0
 70
     1
102
RTVSPropertyOp1
 70
     1
102
RTVSPropertyOp2
 70
     1
102
RTVSPropertyOp3
 70
     1
102
RTVSPropertyOp4
 70
     1
102
RTVSPropertyOp5
 70
     1
102
RTVSPropertyOp6
 70
     1
102
RTVSPropertyOp7
 70
     1
102
RTVSPropertyOp8
 70
     1
102
RTVSPropertyOp9
 70
     1
102
RTVSPropertyOp10
 70
     1
102
RTVSPropertyOp11
 70
     1
102
RTVSPropertyOp12
 70
     1
102
RTVSPropertyOp13
 70
     1
102
RTVSPropertyOp14
 70
     1
102
RTVSPropertyOp15
 70
     1
102
RTVSPropertyOp16
 70
     1
102
RTVSPropertyOp17
 70
     1
102
RTVSPropertyOp18
 70
     1
102
RTVSPropertyOp19
 70
     1
102
RTVSPropertyOp20
 70
     1
102
RTVSPropertyOp21
 70
     1
102
RTVSPropertyOp22
 70
     1
102
RTVSPropertyOp23
 70
     1
102
RTVSPropertyOp24
 70
     1
102
RTVSPropertyOp25
 70
     1
102
RTVSPropertyOp26
 70
     1
102
RTVSPropertyOp27
 70
     1
102
RTVSPropertyOp28
 70
     1
102
RTVSPropertyOp29
 70
     1
102
RTVSPropertyOp30
 70
     1
102
RTVSPropertyOp31
 70
     1
102
RTVSPropertyOp32
 70
     1
102
RTVSPropertyOp33
 70
     1
102
RTVSPropertyOp34
 70
     1
102
RTVSPropertyOp35
 70
     1
102
RTVSPropertyOp36
 70
     1
102
RTVSPropertyOp37
 70
     1
102
RTVSPropertyOp38
 70
     1
102
RTVSPropertyOp39
 70
     1
102
RTVSPropertyOp40
 70
     1
102
RTVSPropertyOp41
 70
     1
102
RTVSPropertyOp42
 70
     1
102
RTVSPropertyOp43
 70
     1
102
RTVSPropertyOp44
 70
     1
102
RTVSPropertyOp45
 70
     1
102
RTVSPropertyOp46
 70
     1
102
RTVSPropertyOp47
 70
     1
102
RTVSPropertyOp48
 70
     1
102
RTVSPropertyOp49
 70
     1
102
RTVSPropertyOp50
 70
     1
102
RTVSPropertyOp51
 70
     0
102
RTVSPropertyOp52
 70
     0
102
RTVSPropertyOp53
 70
     1
102
RTVSPropertyOp54
 70
     1
102
RTVSPropertyOp55
 70
     1
102
RTVSPropertyOp56
 70
     1
102
RTVSPropertyOp57
 70
     1
102
RTVSPropertyOp58
 70
     1
102
RTVSPropertyOp59
 70
     1
102
RTVSPropertyOp60
 70
     1
102
RTVSPropertyOp61
 70
     1
102
RTVSPropertyOp62
 70
     1
  0
XRECORD
  5
1433
102
{ACAD_REACTORS
330
1432
102
}
330
1432
100
AcDbXrecord
280
     1
102
RTVSPost2010Prop28
280
     0
102
RTVSPost2010PropOp28
 70
     1
102
RTVSPost2010Prop29
280
     1
102
RTVSPost2010PropOp29
 70
     1
102
RTVSPost2010Prop30
280
     1
102
RTVSPost2010PropOp30
 70
     1
102
RTVSPost2010Prop31
280
     0
102
RTVSPost2010PropOp31
 70
     1
102
RTVSPost2010Prop32
280
     0
102
RTVSPost2010PropOp32
 70
     1
102
RTVSPost2010Prop33
280
     0
102
RTVSPost2010PropOp33
 70
     1
102
RTVSPost2010Prop34
280
     0
102
RTVSPost2010PropOp34
 70
     1
102
RTVSPost2010Prop35
280
     0
102
RTVSPost2010PropOp35
 70
     1
102
RTVSPost2010Prop36
280
     0
102
RTVSPost2010PropOp36
 70
     1
102
RTVSPost2010Prop37
 90
       50
102
RTVSPost2010PropOp37
 70
     1
102
RTVSPost2010Prop38
140
0.0
102
RTVSPost2010PropOp38
 70
     1
102
RTVSPost2010Prop39
140
1.0
102
RTVSPost2010PropOp39
 70
     1
102
RTVSPost2010Prop40
 90
        0
102
RTVSPost2010PropOp40
 70
     1
102
RTVSPost2010Prop41ColorIndex
 90
       18
102
RTVSPost2010Prop41ColorRGB
 90
        0
102
RTVSPost2010PropOp41
 70
     1
102
RTVSPost2010Prop42
 90
       50
102
RTVSPost2010PropOp42
 70
     1
102
RTVSPost2010Prop43
 90
        3
102
RTVSPost2010PropOp43
 70
     1
102
RTVSPost2010Prop44ColorIndex
 90
        5
102
RTVSPost2010Prop44ColorRGB
 90
      255
102
RTVSPost2010PropOp44
 70
     1
102
RTVSPost2010Prop45
280
     0
102
RTVSPost2010PropOp45
 70
     1
102
RTVSPost2010Prop46
 90
       50
102
RTVSPost2010PropOp46
 70
     1
102
RTVSPost2010Prop47
 90
       50
102
RTVSPost2010PropOp47
 70
     1
102
RTVSPost2010Prop48
 90
       50
102
RTVSPost2010PropOp48
 70
     1
102
RTVSPost2010Prop49
280
     0
102
RTVSPost2010PropOp49
 70
     1
102
RTVSPost2010Prop50
 90
       50
102
RTVSPost2010PropOp50
 70
     1
102
RTVSPost2010Prop51ColorIndex
 90
      256
102
RTVSPost2010Prop51ColorRGB
 90
-16777216
102
RTVSPost2010PropOp51
 70
     0
102
RTVSPost2010Prop52
140
1.0
102
RTVSPost2010PropOp52
 70
     0
102
RTVSPost2010Prop53
 90
        2
102
RTVSPost2010PropOp53
 70
     1
102
RTVSPost2010Prop54
  1
strokes_ogs.tif
102
RTVSPost2010PropOp54
 70
     1
102
RTVSPost2010Prop55
280
     0
102
RTVSPost2010PropOp55
 70
     1
102
RTVSPost2010Prop56
140
1.0
102
RTVSPost2010PropOp56
 70
     1
102
RTVSPost2010Prop57
140
1.0
102
RTVSPost2010PropOp57
 70
     1
102
RTVSPropertyOp0
 70
     1
102
RTVSPropertyOp1
 70
     1
102
RTVSPropertyOp2
 70
     1
102
RTVSPropertyOp3
 70
     1
102
RTVSPropertyOp4
 70
     1
102
RTVSPropertyOp5
 70
     1
102
RTVSPropertyOp6
 70
     1
102
RTVSPropertyOp7
 70
     1
102
RTVSPropertyOp8
 70
     1
102
RTVSPropertyOp9
 70
     1
102
RTVSPropertyOp10
 70
     1
102
RTVSPropertyOp11
 70
     1
102
RTVSPropertyOp12
 70
     1
102
RTVSPropertyOp13
 70
     1
102
RTVSPropertyOp14
 70
     1
102
RTVSPropertyOp15
 70
     1
102
RTVSPropertyOp16
 70
     1
102
RTVSPropertyOp17
 70
     1
102
RTVSPropertyOp18
 70
     1
102
RTVSPropertyOp19
 70
     1
102
RTVSPropertyOp20
 70
     1
102
RTVSPropertyOp21
 70
     1
102
RTVSPropertyOp22
 70
     1
102
RTVSPropertyOp23
 70
     1
102
RTVSPropertyOp24
 70
     1
102
RTVSPropertyOp25
 70
     1
102
RTVSPropertyOp26
 70
     1
102
RTVSPropertyOp27
 70
     1
102
RTVSPropertyOp28
 70
     1
102
RTVSPropertyOp29
 70
     1
102
RTVSPropertyOp30
 70
     1
102
RTVSPropertyOp31
 70
     1
102
RTVSPropertyOp32
 70
     1
102
RTVSPropertyOp33
 70
     1
102
RTVSPropertyOp34
 70
     1
102
RTVSPropertyOp35
 70
     1
102
RTVSPropertyOp36
 70
     1
102
RTVSPropertyOp37
 70
     1
102
RTVSPropertyOp38
 70
     1
102
RTVSPropertyOp39
 70
     1
102
RTVSPropertyOp40
 70
     1
102
RTVSPropertyOp41
 70
     1
102
RTVSPropertyOp42
 70
     1
102
RTVSPropertyOp43
 70
     1
102
RTVSPropertyOp44
 70
     1
102
RTVSPropertyOp45
 70
     1
102
RTVSPropertyOp46
 70
     1
102
RTVSPropertyOp47
 70
     1
102
RTVSPropertyOp48
 70
     1
102
RTVSPropertyOp49
 70
     1
102
RTVSPropertyOp50
 70
     1
102
RTVSPropertyOp51
 70
     0
102
RTVSPropertyOp52
 70
     0
102
RTVSPropertyOp53
 70
     1
102
RTVSPropertyOp54
 70
     1
102
RTVSPropertyOp55
 70
     1
102
RTVSPropertyOp56
 70
     1
102
RTVSPropertyOp57
 70
     1
102
RTVSPropertyOp58
 70
     1
102
RTVSPropertyOp59
 70
     1
102
RTVSPropertyOp60
 70
     1
102
RTVSPropertyOp61
 70
     1
102
RTVSPropertyOp62
 70
     1
  0
ENDSEC
  0
EOF
