  0
SECTION
  2
HEADER
  9
$ACADVER
  1
AC1015
  9
$ACADMAINTVER
 70
    20
  9
$DWGCODEPAGE
  3
ANSI_932
  9
$INSBASE
 10
0.0
 20
0.0
 30
0.0
  9
$EXTMIN
 10
9.9999975266385
 20
10.0
 30
0.0
  9
$EXTMAX
 10
551.3353717080498
 20
366.4300214416857
 30
0.0
  9
$LIMMIN
 10
-0.000000802687282
 20
-0.0000014797112726
  9
$LIMMAX
 10
594.9999991973127
 20
410.1893924596823
  9
$ORTHOMODE
 70
     1
  9
$REGENMODE
 70
     1
  9
$FILLMODE
 70
     1
  9
$QTEXTMODE
 70
     0
  9
$MIRRTEXT
 70
     1
  9
$LTSCALE
 40
0.5
  9
$ATTMODE
 70
     1
  9
$TEXTSIZE
 40
2.5
  9
$TRACEWID
 40
1.0
  9
$TEXTSTYLE
  7
STANDARD
  9
$CLAYER
  8
0
  9
$CELTYPE
  6
BYLAYER
  9
$CECOLOR
 62
   256
  9
$CELTSCALE
 40
1.0
  9
$DISPSILH
 70
     0
  9
$DIMSCALE
 40
1.0
  9
$DIMASZ
 40
3.0
  9
$DIMEXO
 40
1.0
  9
$DIMDLI
 40
10.0
  9
$DIMRND
 40
0.0
  9
$DIMDLE
 40
0.0
  9
$DIMEXE
 40
1.0
  9
$DIMTP
 40
0.0
  9
$DIMTM
 40
0.0
  9
$DIMTXT
 40
3.2
  9
$DIMCEN
 40
0.0
  9
$DIMTSZ
 40
0.0
  9
$DIMTOL
 70
     0
  9
$DIMLIM
 70
     0
  9
$DIMTIH
 70
     0
  9
$DIMTOH
 70
     0
  9
$DIMSE1
 70
     0
  9
$DIMSE2
 70
     0
  9
$DIMTAD
 70
     3
  9
$DIMZIN
 70
     8
  9
$DIMBLK
  1

  9
$DIMASO
 70
     1
  9
$DIMSHO
 70
     1
  9
$DIMPOST
  1

  9
$DIMAPOST
  1

  9
$DIMALT
 70
     0
  9
$DIMALTD
 70
     2
  9
$DIMALTF
 40
25.4
  9
$DIMLFAC
 40
1.0
  9
$DIMTOFL
 70
     1
  9
$DIMTVP
 40
0.0
  9
$DIMTIX
 70
     0
  9
$DIMSOXD
 70
     0
  9
$DIMSAH
 70
     1
  9
$DIMBLK1
  1
OPEN
  9
$DIMBLK2
  1
OPEN
  9
$DIMSTYLE
  2
STANDARD
  9
$DIMCLRD
 70
     0
  9
$DIMCLRE
 70
     0
  9
$DIMCLRT
 70
     0
  9
$DIMTFAC
 40
1.0
  9
$DIMGAP
 40
1.0
  9
$DIMJUST
 70
     0
  9
$DIMSD1
 70
     0
  9
$DIMSD2
 70
     0
  9
$DIMTOLJ
 70
     1
  9
$DIMTZIN
 70
     0
  9
$DIMALTZ
 70
     0
  9
$DIMALTTZ
 70
     0
  9
$DIMUPT
 70
     0
  9
$DIMDEC
 70
     4
  9
$DIMTDEC
 70
     4
  9
$DIMALTU
 70
     2
  9
$DIMALTTD
 70
     2
  9
$DIMTXSTY
  7
STANDARD
  9
$DIMAUNIT
 70
     0
  9
$DIMADEC
 70
     0
  9
$DIMALTRND
 40
0.0
  9
$DIMAZIN
 70
     0
  9
$DIMDSEP
 70
    46
  9
$DIMATFIT
 70
     3
  9
$DIMFRAC
 70
     0
  9
$DIMLDRBLK
  1
OPEN
  9
$DIMLUNIT
 70
     2
  9
$DIMLWD
 70
    -2
  9
$DIMLWE
 70
    -2
  9
$DIMTMOVE
 70
     0
  9
$LUNITS
 70
     2
  9
$LUPREC
 70
     4
  9
$SKETCHINC
 40
1.0
  9
$FILLETRAD
 40
7.0
  9
$AUNITS
 70
     0
  9
$AUPREC
 70
     0
  9
$MENU
  1
.
  9
$ELEVATION
 40
0.0
  9
$PELEVATION
 40
0.0
  9
$THICKNESS
 40
0.0
  9
$LIMCHECK
 70
     0
  9
$CHAMFERA
 40
10.0
  9
$CHAMFERB
 40
10.0
  9
$CHAMFERC
 40
20.0
  9
$CHAMFERD
 40
0.0
  9
$SKPOLY
 70
     0
  9
$TDCREATE
 40
2452990.665052443
  9
$TDUCREATE
 40
2452990.290052443
  9
$TDUPDATE
 40
2457192.689687558
  9
$TDUUPDATE
 40
2457192.314687558
  9
$TDINDWG
 40
0.3749599884
  9
$TDUSRTIMER
 40
0.3749596065
  9
$USRTIMER
 70
     1
  9
$ANGBASE
 50
0.0
  9
$ANGDIR
 70
     0
  9
$PDMODE
 70
     0
  9
$PDSIZE
 40
0.0
  9
$PLINEWID
 40
0.0
  9
$SPLFRAME
 70
     0
  9
$SPLINETYPE
 70
     6
  9
$SPLINESEGS
 70
     8
  9
$HANDSEED
  5
1494
  9
$SURFTAB1
 70
     6
  9
$SURFTAB2
 70
     6
  9
$SURFTYPE
 70
     6
  9
$SURFU
 70
     6
  9
$SURFV
 70
     6
  9
$UCSBASE
  2

  9
$UCSNAME
  2

  9
$UCSORG
 10
0.0
 20
0.0
 30
0.0
  9
$UCSXDIR
 10
1.0
 20
0.0
 30
0.0
  9
$UCSYDIR
 10
0.0
 20
1.0
 30
0.0
  9
$UCSORTHOREF
  2

  9
$UCSORTHOVIEW
 70
     0
  9
$UCSORGTOP
 10
0.0
 20
0.0
 30
0.0
  9
$UCSORGBOTTOM
 10
0.0
 20
0.0
 30
0.0
  9
$UCSORGLEFT
 10
0.0
 20
0.0
 30
0.0
  9
$UCSORGRIGHT
 10
0.0
 20
0.0
 30
0.0
  9
$UCSORGFRONT
 10
0.0
 20
0.0
 30
0.0
  9
$UCSORGBACK
 10
0.0
 20
0.0
 30
0.0
  9
$PUCSBASE
  2

  9
$PUCSNAME
  2

  9
$PUCSORG
 10
0.0
 20
0.0
 30
0.0
  9
$PUCSXDIR
 10
1.0
 20
0.0
 30
0.0
  9
$PUCSYDIR
 10
0.0
 20
1.0
 30
0.0
  9
$PUCSORTHOREF
  2

  9
$PUCSORTHOVIEW
 70
     0
  9
$PUCSORGTOP
 10
0.0
 20
0.0
 30
0.0
  9
$PUCSORGBOTTOM
 10
0.0
 20
0.0
 30
0.0
  9
$PUCSORGLEFT
 10
0.0
 20
0.0
 30
0.0
  9
$PUCSORGRIGHT
 10
0.0
 20
0.0
 30
0.0
  9
$PUCSORGFRONT
 10
0.0
 20
0.0
 30
0.0
  9
$PUCSORGBACK
 10
0.0
 20
0.0
 30
0.0
  9
$USERI1
 70
     0
  9
$USERI2
 70
     0
  9
$USERI3
 70
     0
  9
$USERI4
 70
     0
  9
$USERI5
 70
     0
  9
$USERR1
 40
0.0
  9
$USERR2
 40
0.0
  9
$USERR3
 40
0.0
  9
$USERR4
 40
0.0
  9
$USERR5
 40
0.0
  9
$WORLDVIEW
 70
     1
  9
$SHADEDGE
 70
     3
  9
$SHADEDIF
 70
    70
  9
$TILEMODE
 70
     1
  9
$MAXACTVP
 70
    48
  9
$PINSBASE
 10
0.0
 20
0.0
 30
0.0
  9
$PLIMCHECK
 70
     0
  9
$PEXTMIN
 10
1.000000000000000E+20
 20
1.000000000000000E+20
 30
1.000000000000000E+20
  9
$PEXTMAX
 10
-1.000000000000000E+20
 20
-1.000000000000000E+20
 30
-1.000000000000000E+20
  9
$PLIMMIN
 10
0.0
 20
0.0
  9
$PLIMMAX
 10
420.0
 20
297.0
  9
$UNITMODE
 70
     0
  9
$VISRETAIN
 70
     1
  9
$PLINEGEN
 70
     0
  9
$PSLTSCALE
 70
     1
  9
$TREEDEPTH
 70
  3020
  9
$CMLSTYLE
  2
STANDARD
  9
$CMLJUST
 70
     0
  9
$CMLSCALE
 40
20.0
  9
$PROXYGRAPHICS
 70
     1
  9
$MEASUREMENT
 70
     0
  9
$CELWEIGHT
370
    -1
  9
$ENDCAPS
280
     0
  9
$JOINSTYLE
280
     0
  9
$LWDISPLAY
290
     0
  9
$INSUNITS
 70
     0
  9
$HYPERLINKBASE
  1

  9
$STYLESHEET
  1

  9
$XEDIT
290
     1
  9
$CEPSNTYPE
380
     0
  9
$PSTYLEMODE
290
     1
  9
$FINGERPRINTGUID
  2
{AE08AEAD-64F5-437E-BCFC-90D641DDF0CC}
  9
$VERSIONGUID
  2
{519971A5-92BF-4107-9180-E7F62A164EA3}
  9
$EXTNAMES
290
     1
  9
$PSVPSCALE
 40
0.0
  9
$OLESTARTUP
290
     0
  0
ENDSEC
  0
SECTION
  2
CLASSES
  0
CLASS
  1
ACDBDICTIONARYWDFLT
  2
AcDbDictionaryWithDefault
  3
ObjectDBX Classes
 90
        0
280
     0
281
     0
  0
CLASS
  1
ACDBPLACEHOLDER
  2
AcDbPlaceHolder
  3
ObjectDBX Classes
 90
        0
280
     0
281
     0
  0
CLASS
  1
LAYOUT
  2
AcDbLayout
  3
ObjectDBX Classes
 90
        0
280
     0
281
     0
  0
CLASS
  1
DICTIONARYVAR
  2
AcDbDictionaryVar
  3
ObjectDBX Classes
 90
        0
280
     0
281
     0
  0
CLASS
  1
MATERIAL
  2
AcDbMaterial
  3
ObjectDBX Classes
 90
     1153
280
     0
281
     0
  0
CLASS
  1
VISUALSTYLE
  2
AcDbVisualStyle
  3
ObjectDBX Classes
 90
     4095
280
     0
281
     0
  0
CLASS
  1
TABLESTYLE
  2
AcDbTableStyle
  3
ObjectDBX Classes
 90
     4095
280
     0
281
     0
  0
CLASS
  1
SCALE
  2
AcDbScale
  3
ObjectDBX Classes
 90
     1153
280
     0
281
     0
  0
CLASS
  1
MLEADERSTYLE
  2
AcDbMLeaderStyle
  3
ACDB_MLEADERSTYLE_CLASS
 90
     4095
280
     0
281
     0
  0
CLASS
  1
ACDBSECTIONVIEWSTYLE
  2
AcDbSectionViewStyle
  3
ObjectDBX Classes
 90
     1025
280
     0
281
     0
  0
CLASS
  1
ACDBDETAILVIEWSTYLE
  2
AcDbDetailViewStyle
  3
ObjectDBX Classes
 90
     1025
280
     0
281
     0
  0
CLASS
  1
CELLSTYLEMAP
  2
AcDbCellStyleMap
  3
ObjectDBX Classes
 90
     1152
280
     0
281
     0
  0
ENDSEC
  0
SECTION
  2
TABLES
  0
TABLE
  2
VPORT
  5
8
330
0
100
AcDbSymbolTable
 70
     1
  0
VPORT
  5
13E0
330
8
100
AcDbSymbolTableRecord
100
AcDbViewportTableRecord
  2
*ACTIVE
 70
     0
 10
0.0
 20
0.0
 11
1.0
 21
1.0
 12
417.8676700003704
 22
188.2110616269225
 13
0.0
 23
0.0
 14
10.0
 24
10.0
 15
10.0
 25
10.0
 16
0.0
 26
0.0
 36
1.0
 17
0.0
 27
0.0
 37
0.0
 40
359.2952946438825
 41
2.35006605019815
 42
50.0
 43
0.0
 44
0.0
 50
0.0
 51
0.0
 71
     0
 72
   100
 73
     1
 74
     0
 75
     0
 76
     0
 77
     0
 78
     0
281
     0
 65
     1
110
0.0
120
0.0
130
0.0
111
1.0
121
0.0
131
0.0
112
0.0
122
1.0
132
0.0
 79
     0
146
0.0
1001
ACAD_NAV_VCDISPLAY
1070
     3
  0
ENDTAB
  0
TABLE
  2
LTYPE
  5
5
330
0
100
AcDbSymbolTable
 70
     4
  0
LTYPE
  5
12
330
5
100
AcDbSymbolTableRecord
100
AcDbLinetypeTableRecord
  2
BYBLOCK
 70
     0
  3

 72
    65
 73
     0
 40
0.0
  0
LTYPE
  5
13
330
5
100
AcDbSymbolTableRecord
100
AcDbLinetypeTableRecord
  2
BYLAYER
 70
     0
  3

 72
    65
 73
     0
 40
0.0
  0
LTYPE
  5
14
330
5
100
AcDbSymbolTableRecord
100
AcDbLinetypeTableRecord
  2
CONTINUOUS
 70
     0
  3
Solid line
 72
    65
 73
     0
 40
0.0
  0
LTYPE
  5
4B
330
5
100
AcDbSymbolTableRecord
100
AcDbLinetypeTableRecord
  2
DASHED
 70
     0
  3
Dashed __ __ __ __ __ __ __ __ __ __ __ __ __ _
 72
    65
 73
     2
 40
19.04999999999998
 49
12.7
 74
     0
 49
-6.349999999999997
 74
     0
  0
LTYPE
  5
4C
330
5
100
AcDbSymbolTableRecord
100
AcDbLinetypeTableRecord
  2
CENTER
 70
     0
  3
Center ____ _ ____ _ ____ _ ____ _ ____ _ ____
 72
    65
 73
     4
 40
50.8
 49
31.75
 74
     0
 49
-6.349999999999997
 74
     0
 49
6.349999999999997
 74
     0
 49
-6.349999999999997
 74
     0
  0
LTYPE
  5
4D
330
5
100
AcDbSymbolTableRecord
100
AcDbLinetypeTableRecord
  2
PHANTOM
 70
     0
  3
Phantom ______  __  __  ______  __  __  ______
 72
    65
 73
     6
 40
63.5
 49
31.75
 74
     0
 49
-6.349999999999997
 74
     0
 49
6.349999999999997
 74
     0
 49
-6.349999999999997
 74
     0
 49
6.349999999999997
 74
     0
 49
-6.349999999999997
 74
     0
  0
ENDTAB
  0
TABLE
  2
LAYER
  5
2
330
0
100
AcDbSymbolTable
 70
     8
  0
LAYER
  5
E
102
{ACAD_XDICTIONARY
360
1438
102
}
330
2
100
AcDbSymbolTableRecord
100
AcDbLayerTableRecord
  2
0
 70
     0
 62
     7
  6
CONTINUOUS
370
    -3
390
13E7
  0
LAYER
  5
4E
102
{ACAD_XDICTIONARY
360
143A
102
}
330
2
100
AcDbSymbolTableRecord
100
AcDbLayerTableRecord
  2
4
 70
     0
 62
     1
  6
CENTER
370
    -3
390
13E7
  0
LAYER
  5
4F
102
{ACAD_XDICTIONARY
360
143C
102
}
330
2
100
AcDbSymbolTableRecord
100
AcDbLayerTableRecord
  2
5
 70
     0
 62
     6
  6
PHANTOM
370
    -3
390
13E7
  0
LAYER
  5
50
102
{ACAD_XDICTIONARY
360
143E
102
}
330
2
100
AcDbSymbolTableRecord
100
AcDbLayerTableRecord
  2
1
 70
     0
 62
     7
  6
CONTINUOUS
370
    -3
390
13E7
  0
LAYER
  5
51
102
{ACAD_XDICTIONARY
360
1440
102
}
330
2
100
AcDbSymbolTableRecord
100
AcDbLayerTableRecord
  2
2
 70
     0
 62
     4
  6
CONTINUOUS
370
    -3
390
13E7
  0
LAYER
  5
52
102
{ACAD_XDICTIONARY
360
1442
102
}
330
2
100
AcDbSymbolTableRecord
100
AcDbLayerTableRecord
  2
3
 70
     0
 62
     2
  6
DASHED
370
    -3
390
13E7
  0
LAYER
  5
53
102
{ACAD_XDICTIONARY
360
1444
102
}
330
2
100
AcDbSymbolTableRecord
100
AcDbLayerTableRecord
  2
6
 70
     0
 62
     5
  6
CONTINUOUS
370
    -3
390
13E7
  0
LAYER
  5
54
102
{ACAD_XDICTIONARY
360
1446
102
}
330
2
100
AcDbSymbolTableRecord
100
AcDbLayerTableRecord
  2
7
 70
     0
 62
     3
  6
CONTINUOUS
370
    -3
390
13E7
  0
ENDTAB
  0
TABLE
  2
STYLE
  5
3
330
0
100
AcDbSymbolTable
 70
     1
  0
STYLE
  5
F
330
3
100
AcDbSymbolTableRecord
100
AcDbTextStyleTableRecord
  2
STANDARD
 70
     0
 40
0.0
 41
1.0
 50
0.0
 71
     0
 42
2.5
  3
simplex.shx
  4

  0
ENDTAB
  0
TABLE
  2
VIEW
  5
6
330
0
100
AcDbSymbolTable
 70
     0
  0
ENDTAB
  0
TABLE
  2
UCS
  5
7
330
0
100
AcDbSymbolTable
 70
     0
  0
ENDTAB
  0
TABLE
  2
APPID
  5
9
330
0
100
AcDbSymbolTable
 70
     5
  0
APPID
  5
10
330
9
100
AcDbSymbolTableRecord
100
AcDbRegAppTableRecord
  2
ACAD
 70
     0
  0
APPID
  5
3E
330
9
100
AcDbSymbolTableRecord
100
AcDbRegAppTableRecord
  2
CONTENTTABDATA
 70
     0
  0
APPID
  5
3F
330
9
100
AcDbSymbolTableRecord
100
AcDbRegAppTableRecord
  2
CONTENTCURRENTTAB
 70
     0
  0
APPID
  5
1452
330
9
100
AcDbSymbolTableRecord
100
AcDbRegAppTableRecord
  2
ACAD_NAV_VCDISPLAY
 70
     0
  0
APPID
  5
148B
330
9
100
AcDbSymbolTableRecord
100
AcDbRegAppTableRecord
  2
ACAD_MLEADERVER
 70
     0
  0
ENDTAB
  0
TABLE
  2
DIMSTYLE
  5
A
330
0
100
AcDbSymbolTable
 70
     1
100
AcDbDimStyleTable
 71
     0
  0
DIMSTYLE
105
1D
330
A
100
AcDbSymbolTableRecord
100
AcDbDimStyleTableRecord
  2
STANDARD
 70
     0
 41
3.0
 42
1.0
 43
10.0
 44
1.0
 73
     0
 74
     0
 77
     3
 78
     8
140
3.2
141
0.0
147
1.0
172
     1
173
     1
340
F
341
2E
343
2E
344
2E
  0
ENDTAB
  0
TABLE
  2
BLOCK_RECORD
  5
1
330
0
100
AcDbSymbolTable
 70
     1
  0
BLOCK_RECORD
  5
18
102
{ACAD_XDICTIONARY
360
13C3
102
}
330
1
100
AcDbSymbolTableRecord
100
AcDbBlockTableRecord
  2
*MODEL_SPACE
340
1435
  0
BLOCK_RECORD
  5
15
102
{ACAD_XDICTIONARY
360
13C1
102
}
330
1
100
AcDbSymbolTableRecord
100
AcDbBlockTableRecord
  2
*PAPER_SPACE
340
1436
  0
BLOCK_RECORD
  5
2E
330
1
100
AcDbSymbolTableRecord
100
AcDbBlockTableRecord
  2
_OPEN
340
0
  0
ENDTAB
  0
ENDSEC
  0
SECTION
  2
BLOCKS
  0
BLOCK
  5
19
330
18
100
AcDbEntity
  8
0
100
AcDbBlockBegin
  2
*MODEL_SPACE
 70
     0
 10
0.0
 20
0.0
 30
0.0
  3
*MODEL_SPACE
  1

  0
ENDBLK
  5
1A
330
18
100
AcDbEntity
  8
0
100
AcDbBlockEnd
  0
BLOCK
  5
16
330
15
100
AcDbEntity
 67
     1
  8
0
100
AcDbBlockBegin
  2
*PAPER_SPACE
 70
     0
 10
0.0
 20
0.0
 30
0.0
  3
*PAPER_SPACE
  1

  0
ENDBLK
  5
17
330
15
100
AcDbEntity
 67
     1
  8
0
100
AcDbBlockEnd
  0
BLOCK
  5
2F
330
2E
100
AcDbEntity
  8
0
100
AcDbBlockBegin
  2
_OPEN
 70
     0
 10
0.0
 20
0.0
 30
0.0
  3
_OPEN
  1

  0
LINE
  5
30
330
2E
100
AcDbEntity
  8
0
  6
ByBlock
 62
     0
100
AcDbLine
 10
-1.0
 20
0.1666666666666666
 30
0.0
 11
0.0
 21
0.0
 31
0.0
  0
LINE
  5
31
330
2E
100
AcDbEntity
  8
0
  6
ByBlock
 62
     0
100
AcDbLine
 10
0.0
 20
0.0
 30
0.0
 11
-1.0
 21
-0.1666666666666666
 31
0.0
  0
LINE
  5
32
330
2E
100
AcDbEntity
  8
0
  6
ByBlock
 62
     0
100
AcDbLine
 10
0.0
 20
0.0
 30
0.0
 11
-1.0
 21
0.0
 31
0.0
  0
ENDBLK
  5
33
330
2E
100
AcDbEntity
  8
0
100
AcDbBlockEnd
  0
ENDSEC
  0
SECTION
  2
ENTITIES
  0
TEXT
  5
63
330
18
100
AcDbEntity
  8
4
  6
CENTER
 48
0.25
100
AcDbText
 10
23.97950852663849
 20
10.0
 30
0.0
 40
1.399999999999999
  1
4
100
AcDbText
  0
TEXT
  5
64
330
18
100
AcDbEntity
  8
7
  6
Continuous
 48
0.25
100
AcDbText
 10
9.999997526638502
 20
26.0000007607689
 30
0.0
 40
3.0
  1
CODE No.19141
100
AcDbText
  0
TEXT
  5
65
330
18
100
AcDbEntity
  8
7
  6
Continuous
 48
0.25
100
AcDbText
 10
9.999997526638502
 20
18.00000076076889
 30
0.0
 40
3.0
  1
TYPE No.TCA-320S-R65
100
AcDbText
  0
TEXT
  5
66
330
18
100
AcDbEntity
  8
1
  6
Continuous
 48
0.25
100
AcDbText
 10
9.999997526638502
 20
10.00000076076889
 30
0.0
 40
1.399999999999999
  1
LAYER
100
AcDbText
  0
TEXT
  5
67
330
18
100
AcDbEntity
  8
2
  6
Continuous
 48
0.25
100
AcDbText
 10
19.9795085266385
 20
10.0
 30
0.0
 40
1.399999999999999
  1
2
100
AcDbText
  0
TEXT
  5
68
330
18
100
AcDbEntity
  8
3
  6
DASHED
 48
0.25
100
AcDbText
 10
21.97950852663849
 20
10.0
 30
0.0
 40
1.399999999999999
  1
3
100
AcDbText
  0
TEXT
  5
69
330
18
100
AcDbEntity
  8
1
  6
Continuous
 48
0.25
100
AcDbText
 10
17.9795085266385
 20
10.0
 30
0.0
 40
1.399999999999999
  1
1
100
AcDbText
  0
TEXT
  5
6A
330
18
100
AcDbEntity
  8
5
  6
PHANTOM
 48
0.25
100
AcDbText
 10
25.97950852663849
 20
10.0
 30
0.0
 40
1.399999999999999
  1
5
100
AcDbText
  0
TEXT
  5
6B
330
18
100
AcDbEntity
  8
6
  6
Continuous
 48
0.25
100
AcDbText
 10
27.97950852663849
 20
10.0
 30
0.0
 40
1.399999999999999
  1
6
100
AcDbText
  0
TEXT
  5
6C
330
18
100
AcDbEntity
  8
7
  6
Continuous
 48
0.25
100
AcDbText
 10
29.9795085266385
 20
10.0
 30
0.0
 40
1.399999999999999
  1
7
100
AcDbText
  0
ARC
  5
1B0
330
18
100
AcDbEntity
  8
1
  6
Continuous
100
AcDbCircle
 10
184.5682474462939
 20
192.5129688709759
 30
0.0
 40
32.5
100
AcDbArc
 50
100.5815799999996
 51
30.24518000000016
  0
LINE
  5
1B1
330
18
100
AcDbEntity
  8
4
  6
CENTER
100
AcDbLine
 10
222.0682474462939
 20
192.5129688709759
 30
0.0
 11
147.0682454462939
 21
192.5129688709759
 31
0.0
  0
ARC
  5
1B2
330
18
100
AcDbEntity
  8
1
  6
Continuous
100
AcDbCircle
 10
27.06824744629397
 20
233.9069618709759
 30
0.0
 40
3.0
100
AcDbArc
 50
90.00000300000015
 51
178.6160299999998
  0
ARC
  5
1B3
330
18
100
AcDbEntity
  8
1
  6
Continuous
100
AcDbCircle
 10
26.06824744629397
 20
241.3129618709758
 30
0.0
 40
3.0
100
AcDbArc
 50
213.0681
 51
269.9999599999999
  0
ARC
  5
1B4
330
18
100
AcDbEntity
  8
1
  6
Continuous
100
AcDbCircle
 10
28.22115744629396
 20
242.0129628709759
 30
0.0
 40
3.0
100
AcDbArc
 50
194.8123899999999
 51
270.0
  0
LINE
  5
1B7
330
18
100
AcDbEntity
  8
1
  6
Continuous
100
AcDbLine
 10
19.56824744629398
 20
243.0129628709759
 30
0.0
 11
77.56824744629398
 21
243.0129628709759
 31
0.0
  0
LINE
  5
1B8
330
18
100
AcDbEntity
  8
1
  6
Continuous
100
AcDbLine
 10
19.56824744629398
 20
245.0129628709759
 30
0.0
 11
77.56824744629398
 21
245.0129628709759
 31
0.0
  0
LINE
  5
1B9
330
18
100
AcDbEntity
  8
4
  6
CENTER
100
AcDbLine
 10
21.05127744629396
 20
192.5129688709759
 30
0.0
 11
73.97162844629395
 21
192.5129688709759
 31
0.0
  0
ARC
  5
1BA
330
18
100
AcDbEntity
  8
1
  6
Continuous
100
AcDbCircle
 10
59.53156544629393
 20
211.2942939709759
 30
0.0
 40
36.0
100
AcDbArc
 50
178.6160299999998
 51
200.3847999999999
  0
LINE
  5
1BC
330
18
100
AcDbEntity
  8
1
  6
Continuous
100
AcDbLine
 10
24.19326744629398
 20
188.5129688709758
 30
0.0
 11
24.19326744629398
 21
196.5129688709758
 31
0.0
  0
LINE
  5
1BD
330
18
100
AcDbEntity
  8
1
  6
Continuous
100
AcDbLine
 10
23.56826744629398
 20
189.1379688709758
 30
0.0
 11
23.56826744629398
 21
195.8879688709759
 31
0.0
  0
LINE
  5
1BE
330
18
100
AcDbEntity
  8
1
  6
Continuous
100
AcDbLine
 10
24.19326744629398
 20
188.5129648709759
 30
0.0
 11
23.56826744629398
 21
189.1379668709759
 31
0.0
  0
LINE
  5
1BF
330
18
100
AcDbEntity
  8
1
  6
Continuous
100
AcDbLine
 10
24.19326744629398
 20
188.5129688709758
 30
0.0
 11
25.56826744629399
 21
188.5129688709758
 31
0.0
  0
LINE
  5
1C0
330
18
100
AcDbEntity
  8
2
  6
Continuous
100
AcDbLine
 10
23.56826744629398
 20
189.1379688709758
 30
0.0
 11
25.56826744629399
 21
189.1379688709758
 31
0.0
  0
LINE
  5
1C1
330
18
100
AcDbEntity
  8
1
  6
Continuous
100
AcDbLine
 10
23.56826744629398
 20
195.8879688709759
 30
0.0
 11
24.19325744629398
 21
196.5129668709757
 31
0.0
  0
LINE
  5
1C2
330
18
100
AcDbEntity
  8
1
  6
Continuous
100
AcDbLine
 10
24.19326744629398
 20
196.5129688709758
 30
0.0
 11
25.56826744629399
 21
196.5129688709758
 31
0.0
  0
LINE
  5
1C3
330
18
100
AcDbEntity
  8
2
  6
Continuous
100
AcDbLine
 10
23.56826744629398
 20
195.8879688709759
 30
0.0
 11
25.56826744629399
 21
195.8879688709759
 31
0.0
  0
LINE
  5
1C4
330
18
100
AcDbEntity
  8
1
  6
Continuous
100
AcDbLine
 10
24.06911744629397
 20
233.9794188709759
 30
0.0
 11
23.54206744629397
 21
212.1637840709758
 31
0.0
  0
LINE
  5
1C5
330
18
100
AcDbEntity
  8
1
  6
Continuous
100
AcDbLine
 10
19.56824744629398
 20
245.0129628709759
 30
0.0
 11
19.56824744629398
 21
243.0129628709759
 31
0.0
  0
ARC
  5
1C6
330
18
100
AcDbEntity
  8
1
  6
Continuous
100
AcDbCircle
 10
20.56824744629398
 20
241.5129628709759
 30
0.0
 40
1.5
100
AcDbArc
 50
33.06801899999995
 51
90.00000300000015
  0
ARC
  5
1C7
330
18
100
AcDbEntity
  8
1
  6
Continuous
100
AcDbCircle
 10
24.08365744629398
 20
242.0129628709759
 30
0.0
 40
1.0
100
AcDbArc
 50
14.812389
 51
90.00000300000015
  0
LINE
  5
1C8
330
18
100
AcDbEntity
  8
1
  6
Continuous
100
AcDbLine
 10
25.05043744629398
 20
242.2686158709759
 30
0.0
 11
25.32085744629398
 21
241.2459988709759
 31
0.0
  0
LINE
  5
1C9
330
18
100
AcDbEntity
  8
1
  6
Continuous
100
AcDbLine
 10
23.55417744629396
 20
239.6760598709759
 30
0.0
 11
21.82527744629396
 21
242.3314158709759
 31
0.0
  0
ARC
  5
1CA
330
18
100
AcDbEntity
  8
1
  6
Continuous
100
AcDbCircle
 10
59.56824744629392
 20
163.2903788709759
 30
0.0
 40
2.0
100
AcDbArc
 50
283.24804
 51
359.9999499999999
  0
ARC
  5
1CB
330
18
100
AcDbEntity
  8
1
  6
Continuous
100
AcDbCircle
 10
37.56824744629398
 20
163.2903788709759
 30
0.0
 40
2.0
100
AcDbArc
 50
179.9999799999999
 51
256.75189
  0
LINE
  5
1CC
330
18
100
AcDbEntity
  8
4
  6
CENTER
100
AcDbLine
 10
48.56824744629392
 20
251.0129628709758
 30
0.0
 11
48.56824744629392
 21
156.8329548709759
 31
0.0
  0
ARC
  5
1CD
330
18
100
AcDbEntity
  8
1
  6
Continuous
100
AcDbCircle
 10
48.56824744629392
 20
210.0129676709759
 30
0.0
 40
50.0
100
AcDbArc
 50
269.9999599999999
 51
283.2479600000003
  0
ARC
  5
1CE
330
18
100
AcDbEntity
  8
1
  6
Continuous
100
AcDbCircle
 10
48.56824744629392
 20
210.0129676709759
 30
0.0
 40
50.0
100
AcDbArc
 50
256.7519599999999
 51
269.9999599999999
  0
ARC
  5
1CF
330
18
100
AcDbEntity
  8
1
  6
Continuous
100
AcDbCircle
 10
37.60492944629396
 20
211.2942939709759
 30
0.0
 40
36.0
100
AcDbArc
 50
336.2976999999996
 51
1.383970100000187
  0
LINE
  5
1D0
330
18
100
AcDbEntity
  8
1
  6
Continuous
100
AcDbLine
 10
61.56824744629393
 20
221.7355513709758
 30
0.0
 11
61.56824744629318
 21
163.2903771256465
 31
0.0
  0
LINE
  5
1D1
330
18
100
AcDbEntity
  8
1
  6
Continuous
100
AcDbLine
 10
35.56824744629398
 20
221.7355513709758
 30
0.0
 11
35.56824744629398
 21
163.2903788709759
 31
0.0
  0
LINE
  5
1D2
330
18
100
AcDbEntity
  8
1
  6
Continuous
100
AcDbLine
 10
32.56824744629398
 20
228.5617137709758
 30
0.0
 11
32.56824744629398
 21
181.5129668709759
 31
0.0
  0
LINE
  5
1D3
330
18
100
AcDbEntity
  8
1
  6
Continuous
100
AcDbLine
 10
64.56824744629392
 20
228.5617137709758
 30
0.0
 11
64.56824744629392
 21
181.5129668709759
 31
0.0
  0
LINE
  5
1D4
330
18
100
AcDbEntity
  8
1
  6
Continuous
100
AcDbLine
 10
66.56824744629393
 20
228.0622792709759
 30
0.0
 11
66.56824744629393
 21
181.5129668709759
 31
0.0
  0
LINE
  5
1D5
330
18
100
AcDbEntity
  8
1
  6
Continuous
100
AcDbLine
 10
30.56824744629397
 20
228.0622792709759
 30
0.0
 11
30.56824744629397
 21
181.5129668709759
 31
0.0
  0
LINE
  5
1DA
330
18
100
AcDbEntity
  8
1
  6
Continuous
100
AcDbLine
 10
33.56824744629398
 20
177.6629678709757
 30
0.0
 11
33.56824744629398
 21
207.3629658709758
 31
0.0
  0
ARC
  5
1DB
330
18
100
AcDbEntity
  8
1
  6
Continuous
100
AcDbCircle
 10
34.56824744629398
 20
177.6629678709757
 30
0.0
 40
1.0
100
AcDbArc
 50
179.9999799999999
 51
269.9999700000002
  0
LINE
  5
1DD
330
18
100
AcDbEntity
  8
1
  6
Continuous
100
AcDbLine
 10
30.56824744629397
 20
181.5129668709759
 30
0.0
 11
32.56824744629398
 21
181.5129668709759
 31
0.0
  0
LINE
  5
1DE
330
18
100
AcDbEntity
  8
1
  6
Continuous
100
AcDbLine
 10
35.56824744629398
 20
176.6629678709757
 30
0.0
 11
34.56824744629398
 21
176.6629678709757
 31
0.0
  0
LINE
  5
1E5
330
18
100
AcDbEntity
  8
1
  6
Continuous
100
AcDbLine
 10
32.56824744629398
 20
188.5129688709758
 30
0.0
 11
33.56824744629398
 21
188.5129688709758
 31
0.0
  0
LINE
  5
1E7
330
18
100
AcDbEntity
  8
1
  6
Continuous
100
AcDbLine
 10
32.56824744629398
 20
196.5129688709758
 30
0.0
 11
33.56824744629398
 21
196.5129688709758
 31
0.0
  0
ARC
  5
1E8
330
18
100
AcDbEntity
  8
1
  6
Continuous
100
AcDbCircle
 10
34.56824744629398
 20
207.3629658709758
 30
0.0
 40
1.0
100
AcDbArc
 50
90.00003699999981
 51
180.0000199999999
  0
LINE
  5
1EB
330
18
100
AcDbEntity
  8
1
  6
Continuous
100
AcDbLine
 10
35.56824744629398
 20
208.3629678709759
 30
0.0
 11
34.56824744629398
 21
208.3629678709759
 31
0.0
  0
ARC
  5
1EC
330
18
100
AcDbEntity
  8
1
  6
Continuous
100
AcDbCircle
 10
68.06820144629392
 20
186.5129668709759
 30
0.0
 40
1.5
100
AcDbArc
 50
179.9999799999999
 51
269.9999700000002
  0
LINE
  5
1EE
330
18
100
AcDbEntity
  8
1
  6
Continuous
100
AcDbLine
 10
63.56824744629392
 20
177.6629678709757
 30
0.0
 11
63.56824744629392
 21
207.3629658709758
 31
0.0
  0
ARC
  5
1F0
330
18
100
AcDbEntity
  8
1
  6
Continuous
100
AcDbCircle
 10
62.56824744629392
 20
177.6629678709757
 30
0.0
 40
1.0
100
AcDbArc
 50
269.9999599999999
 51
359.9999499999999
  0
LINE
  5
1F1
330
18
100
AcDbEntity
  8
1
  6
Continuous
100
AcDbLine
 10
61.56824744629393
 20
176.6629678709757
 30
0.0
 11
62.56824744629392
 21
176.6629678709757
 31
0.0
  0
LINE
  5
1F2
330
18
100
AcDbEntity
  8
1
  6
Continuous
100
AcDbLine
 10
64.56824744629392
 20
181.5129668709759
 30
0.0
 11
66.56824744629393
 21
181.5129668709759
 31
0.0
  0
ARC
  5
1F4
330
18
100
AcDbEntity
  8
1
  6
Continuous
100
AcDbCircle
 10
68.06820144629392
 20
197.5129688709758
 30
0.0
 40
1.5
100
AcDbArc
 50
179.9999799999999
 51
269.9999700000002
  0
ARC
  5
1F8
330
18
100
AcDbEntity
  8
1
  6
Continuous
100
AcDbCircle
 10
68.06820144629392
 20
194.0129688709759
 30
0.0
 40
1.5
100
AcDbArc
 50
89.99998199999998
 51
179.99996
  0
ARC
  5
1F9
330
18
100
AcDbEntity
  8
1
  6
Continuous
100
AcDbCircle
 10
68.06820144629392
 20
187.5129668709756
 30
0.0
 40
1.5
100
AcDbArc
 50
89.99998199999998
 51
179.99996
  0
ARC
  5
1FA
330
18
100
AcDbEntity
  8
1
  6
Continuous
100
AcDbCircle
 10
68.06820144629392
 20
191.0129688709758
 30
0.0
 40
1.5
100
AcDbArc
 50
179.9999799999999
 51
269.9999700000002
  0
LINE
  5
1FB
330
18
100
AcDbEntity
  8
1
  6
Continuous
100
AcDbLine
 10
63.56824744629392
 20
188.5129688709758
 30
0.0
 11
64.56825544629396
 21
188.5129688709758
 31
0.0
  0
LINE
  5
1FC
330
18
100
AcDbEntity
  8
1
  6
Continuous
100
AcDbLine
 10
63.56824744629392
 20
196.5129688709758
 30
0.0
 11
64.56825544629396
 21
196.5129688709758
 31
0.0
  0
ARC
  5
204
330
18
100
AcDbEntity
  8
1
  6
Continuous
100
AcDbCircle
 10
68.06820144629392
 20
198.5129688709758
 30
0.0
 40
1.5
100
AcDbArc
 50
89.99998199999998
 51
179.99996
  0
ARC
  5
205
330
18
100
AcDbEntity
  8
1
  6
Continuous
100
AcDbCircle
 10
62.56824744629392
 20
207.3629658709758
 30
0.0
 40
1.0
100
AcDbArc
 50
0.000054641512953
 51
90.00003699999981
  0
LINE
  5
206
330
18
100
AcDbEntity
  8
1
  6
Continuous
100
AcDbLine
 10
61.56824744629393
 20
208.3629678709759
 30
0.0
 11
62.56824744629392
 21
208.3629678709759
 31
0.0
  0
ARC
  5
209
330
18
100
AcDbEntity
  8
1
  6
Continuous
100
AcDbCircle
 10
48.56824744629392
 20
175.0129668709756
 30
0.0
 40
50.0
100
AcDbArc
 50
76.75203799999976
 51
90.00003699999981
  0
ARC
  5
20A
330
18
100
AcDbEntity
  8
1
  6
Continuous
100
AcDbCircle
 10
48.56824744629392
 20
423.4569628709758
 30
0.0
 40
190.0
100
AcDbArc
 50
270.0
 51
275.1343499999998
  0
ARC
  5
20B
330
18
100
AcDbEntity
  8
1
  6
Continuous
100
AcDbCircle
 10
48.56824744629392
 20
488.3538428709758
 30
0.0
 40
257.19513
100
AcDbArc
 50
270.0
 51
273.1884699999997
  0
ARC
  5
20C
330
18
100
AcDbEntity
  8
1
  6
Continuous
100
AcDbCircle
 10
48.56824744629392
 20
486.3842428709758
 30
0.0
 40
257.19513
100
AcDbArc
 50
270.0
 51
273.2292999999996
  0
ARC
  5
20D
330
18
100
AcDbEntity
  8
1
  6
Continuous
100
AcDbCircle
 10
48.56824744629392
 20
-108.1839071290239
 30
0.0
 40
335.8408499999999
100
AcDbArc
 50
87.26930000000017
 51
92.73069800000014
  0
LINE
  5
20E
330
18
100
AcDbEntity
  8
1
  6
Continuous
100
AcDbLine
 10
70.06824744629392
 20
236.9069618709759
 30
0.0
 11
27.06824744629397
 21
236.9069618709759
 31
0.0
  0
LINE
  5
211
330
18
100
AcDbEntity
  8
1
  6
Continuous
100
AcDbLine
 10
71.06824744629392
 20
238.3129618709758
 30
0.0
 11
26.06824744629397
 21
238.3129618709758
 31
0.0
  0
ARC
  5
212
330
18
100
AcDbEntity
  8
1
  6
Continuous
100
AcDbCircle
 10
34.06824744629398
 20
228.0622792709759
 30
0.0
 40
3.5
100
AcDbArc
 50
86.81153400000011
 51
180.0000100000002
  0
ARC
  5
213
330
18
100
AcDbEntity
  8
1
  6
Continuous
100
AcDbCircle
 10
48.56824744629392
 20
175.0129668709756
 30
0.0
 40
50.0
100
AcDbArc
 50
90.00003699999981
 51
103.24804
  0
ARC
  5
214
330
18
100
AcDbEntity
  8
1
  6
Continuous
100
AcDbCircle
 10
48.56824744629392
 20
486.3842428709758
 30
0.0
 40
257.19513
100
AcDbArc
 50
266.7706899999998
 51
270.0
  0
ARC
  5
215
330
18
100
AcDbEntity
  8
1
  6
Continuous
100
AcDbCircle
 10
48.56824744629392
 20
488.3538428709758
 30
0.0
 40
257.19513
100
AcDbArc
 50
266.8115399999998
 51
270.0
  0
ARC
  5
216
330
18
100
AcDbEntity
  8
1
  6
Continuous
100
AcDbCircle
 10
33.99538644629398
 20
228.0998978709757
 30
0.0
 40
1.5
100
AcDbArc
 50
86.77069599999965
 51
162.06867
  0
ARC
  5
217
330
18
100
AcDbEntity
  8
1
  6
Continuous
100
AcDbCircle
 10
37.56824744629398
 20
221.7355513709758
 30
0.0
 40
2.0
100
AcDbArc
 50
103.2481099999996
 51
180.0000199999999
  0
ARC
  5
218
330
18
100
AcDbEntity
  8
1
  6
Continuous
100
AcDbCircle
 10
48.56824744629392
 20
423.4569628709758
 30
0.0
 40
190.0
100
AcDbArc
 50
264.86565
 51
270.0
  0
LINE
  5
21B
330
18
100
AcDbEntity
  8
4
  6
CENTER
100
AcDbLine
 10
27.56824744629398
 20
247.3871998709759
 30
0.0
 11
27.56824744629398
 21
240.5619888709759
 31
0.0
  0
ARC
  5
21C
330
18
100
AcDbEntity
  8
1
  6
Continuous
100
AcDbCircle
 10
35.16824544629398
 20
238.7849618709759
 30
0.0
 40
2.778000099999998
100
AcDbArc
 50
189.7823799999999
 51
222.5338800000002
  0
ARC
  5
21D
330
18
100
AcDbEntity
  8
1
  6
Continuous
100
AcDbCircle
 10
32.66824544629398
 20
238.7849618709759
 30
0.0
 40
2.778000099999998
100
AcDbArc
 50
189.7823799999999
 51
222.5338800000002
  0
ARC
  5
21E
330
18
100
AcDbEntity
  8
1
  6
Continuous
100
AcDbCircle
 10
31.16824544629398
 20
238.7849618709759
 30
0.0
 40
2.778000099999998
100
AcDbArc
 50
189.7823799999999
 51
222.5338800000002
  0
ARC
  5
21F
330
18
100
AcDbEntity
  8
1
  6
Continuous
100
AcDbCircle
 10
30.06824744629398
 20
242.0129628709759
 30
0.0
 40
1.0
100
AcDbArc
 50
90.00000300000015
 51
172.3953100000001
  0
ARC
  5
220
330
18
100
AcDbEntity
  8
1
  6
Continuous
100
AcDbCircle
 10
28.22115744629396
 20
239.5129628709759
 30
0.0
 40
0.5
100
AcDbArc
 50
270.0
 51
352.3953099999997
  0
LINE
  5
221
330
18
100
AcDbEntity
  8
1
  6
Continuous
100
AcDbLine
 10
28.71676144629399
 20
239.4467928709758
 30
0.0
 11
29.07704444629398
 21
242.1453008709759
 31
0.0
  0
ARC
  5
222
330
18
100
AcDbEntity
  8
1
  6
Continuous
100
AcDbCircle
 10
38.66824544629395
 20
238.7849618709759
 30
0.0
 40
2.778000099999998
100
AcDbArc
 50
189.7823799999999
 51
222.5338800000002
  0
ARC
  5
223
330
18
100
AcDbEntity
  8
1
  6
Continuous
100
AcDbCircle
 10
43.168245446294
 20
238.7849618709759
 30
0.0
 40
2.778000099999998
100
AcDbArc
 50
189.7823799999999
 51
222.5338800000002
  0
ARC
  5
224
330
18
100
AcDbEntity
  8
1
  6
Continuous
100
AcDbCircle
 10
38.66824544629395
 20
238.7849618709759
 30
0.0
 40
2.778000099999998
100
AcDbArc
 50
317.4661199999996
 51
324.0896000000003
  0
ARC
  5
225
330
18
100
AcDbEntity
  8
1
  6
Continuous
100
AcDbCircle
 10
43.168245446294
 20
238.7849618709759
 30
0.0
 40
2.778000099999998
100
AcDbArc
 50
317.4661199999996
 51
346.3905399999999
  0
ARC
  5
226
330
18
100
AcDbEntity
  8
1
  6
Continuous
100
AcDbCircle
 10
48.56824744629392
 20
238.7849618709759
 30
0.0
 40
2.778000099999998
100
AcDbArc
 50
189.7823799999999
 51
222.5338800000002
  0
ARC
  5
227
330
18
100
AcDbEntity
  8
1
  6
Continuous
100
AcDbCircle
 10
48.56824744629392
 20
238.7849618709759
 30
0.0
 40
2.778000099999998
100
AcDbArc
 50
317.4661199999996
 51
350.21762
  0
ARC
  5
228
330
18
100
AcDbEntity
  8
1
  6
Continuous
100
AcDbCircle
 10
53.96824944629395
 20
238.7849618709759
 30
0.0
 40
2.778000099999998
100
AcDbArc
 50
317.4661199999996
 51
350.21762
  0
ARC
  5
229
330
18
100
AcDbEntity
  8
1
  6
Continuous
100
AcDbCircle
 10
53.96824944629395
 20
238.7849618709759
 30
0.0
 40
2.778000099999998
100
AcDbArc
 50
193.60946
 51
222.5338800000002
  0
ARC
  5
22A
330
18
100
AcDbEntity
  8
1
  6
Continuous
100
AcDbCircle
 10
58.46824944629395
 20
238.7849618709759
 30
0.0
 40
2.778000099999998
100
AcDbArc
 50
215.9104000000004
 51
222.5338800000002
  0
ARC
  5
22B
330
18
100
AcDbEntity
  8
1
  6
Continuous
100
AcDbCircle
 10
63.06824744629392
 20
228.0622792709759
 30
0.0
 40
3.5
100
AcDbArc
 50
0.0
 51
93.1884649999999
  0
LINE
  5
22C
330
18
100
AcDbEntity
  8
1
  6
Continuous
100
AcDbLine
 10
73.06737044629392
 20
233.9794188709759
 30
0.0
 11
73.59442744629394
 21
212.1637831709757
 31
0.0
  0
ARC
  5
22D
330
18
100
AcDbEntity
  8
1
  6
Continuous
100
AcDbCircle
 10
59.56824744629392
 20
221.7355513709758
 30
0.0
 40
2.0
100
AcDbArc
 50
0.000054641512953
 51
76.75196300000012
  0
ARC
  5
22E
330
18
100
AcDbEntity
  8
1
  6
Continuous
100
AcDbCircle
 10
63.14110844629396
 20
228.0998978709757
 30
0.0
 40
1.5
100
AcDbArc
 50
17.93133099999987
 51
93.22930900000015
  0
LINE
  5
22F
330
18
100
AcDbEntity
  8
1
  6
Continuous
100
AcDbLine
 10
75.31121344629394
 20
242.3314098709759
 30
0.0
 11
73.58231944629392
 21
239.6760548709759
 31
0.0
  0
LINE
  5
230
330
18
100
AcDbEntity
  8
4
  6
CENTER
100
AcDbLine
 10
69.56824744629392
 20
247.3871998709759
 30
0.0
 11
69.56824744629392
 21
240.4051228709759
 31
0.0
  0
ARC
  5
231
330
18
100
AcDbEntity
  8
1
  6
Continuous
100
AcDbCircle
 10
64.46824944629395
 20
238.7849618709759
 30
0.0
 40
2.778000099999998
100
AcDbArc
 50
317.4661199999996
 51
350.21762
  0
ARC
  5
232
330
18
100
AcDbEntity
  8
1
  6
Continuous
100
AcDbCircle
 10
58.46824944629395
 20
238.7849618709759
 30
0.0
 40
2.778000099999998
100
AcDbArc
 50
317.4661199999996
 51
350.21762
  0
ARC
  5
233
330
18
100
AcDbEntity
  8
1
  6
Continuous
100
AcDbCircle
 10
61.96824944629395
 20
238.7849618709759
 30
0.0
 40
2.778000099999998
100
AcDbArc
 50
317.4661199999996
 51
350.21762
  0
ARC
  5
234
330
18
100
AcDbEntity
  8
1
  6
Continuous
100
AcDbCircle
 10
65.96824944629395
 20
238.7849618709759
 30
0.0
 40
2.778000099999998
100
AcDbArc
 50
317.4661199999996
 51
350.21762
  0
ARC
  5
235
330
18
100
AcDbEntity
  8
1
  6
Continuous
100
AcDbCircle
 10
70.06824744629392
 20
233.9069618709759
 30
0.0
 40
3.0
100
AcDbArc
 50
1.383970100000187
 51
90.00000300000015
  0
ARC
  5
236
330
18
100
AcDbEntity
  8
1
  6
Continuous
100
AcDbCircle
 10
68.91533944629395
 20
242.0129628709759
 30
0.0
 40
3.0
100
AcDbArc
 50
270.0
 51
345.18761
  0
ARC
  5
237
330
18
100
AcDbEntity
  8
1
  6
Continuous
100
AcDbCircle
 10
67.06824744629392
 20
242.0129628709759
 30
0.0
 40
1.0
100
AcDbArc
 50
7.604693300000017
 51
89.99999600000005
  0
ARC
  5
238
330
18
100
AcDbEntity
  8
1
  6
Continuous
100
AcDbCircle
 10
68.91533944629395
 20
239.5129628709759
 30
0.0
 40
0.5
100
AcDbArc
 50
187.6046899999998
 51
270.0
  0
LINE
  5
239
330
18
100
AcDbEntity
  8
1
  6
Continuous
100
AcDbLine
 10
68.41973344629393
 20
239.4467928709758
 30
0.0
 11
68.05945044629391
 21
242.1453008709759
 31
0.0
  0
ARC
  5
23A
330
18
100
AcDbEntity
  8
1
  6
Continuous
100
AcDbCircle
 10
71.06824744629392
 20
241.3129618709758
 30
0.0
 40
3.0
100
AcDbArc
 50
269.9999799999996
 51
326.9318999999998
  0
ARC
  5
23B
330
18
100
AcDbEntity
  8
1
  6
Continuous
100
AcDbCircle
 10
73.05283644629395
 20
242.0129628709759
 30
0.0
 40
1.0
100
AcDbArc
 50
89.99999600000005
 51
165.18761
  0
LINE
  5
23C
330
18
100
AcDbEntity
  8
1
  6
Continuous
100
AcDbLine
 10
72.08606544629396
 20
242.2686178709759
 30
0.0
 11
71.81564244629395
 21
241.2459988709759
 31
0.0
  0
LINE
  5
23D
330
18
100
AcDbEntity
  8
1
  6
Continuous
100
AcDbLine
 10
77.56824744629398
 20
245.0129628709759
 30
0.0
 11
77.56824744629398
 21
243.0129628709759
 31
0.0
  0
ARC
  5
23E
330
18
100
AcDbEntity
  8
1
  6
Continuous
100
AcDbCircle
 10
76.56824744629398
 20
241.5129628709759
 30
0.0
 40
1.5
100
AcDbArc
 50
89.99994800000029
 51
146.9319899999999
  0
LINE
  5
23F
330
18
100
AcDbEntity
  8
4
  6
CENTER
100
AcDbLine
 10
184.5682474462939
 20
229.9069676709759
 30
0.0
 11
184.5682474462939
 21
154.9069678709759
 31
0.0
  0
LINE
  5
240
330
18
100
AcDbEntity
  8
1
  6
Continuous
100
AcDbLine
 10
192.9982324462939
 20
185.4464688709757
 30
0.0
 11
225.7762324462939
 21
224.5490427709759
 31
0.0
  0
LINE
  5
241
330
18
100
AcDbEntity
  8
1
  6
Continuous
100
AcDbLine
 10
235.0682474462939
 20
236.9069618709759
 30
0.0
 11
192.0682486312289
 21
236.9069618709759
 31
0.0
  0
LINE
  5
242
330
18
100
AcDbEntity
  8
1
  6
Continuous
100
AcDbLine
 10
248.5682474462938
 20
245.0129628709759
 30
0.0
 11
178.5682474462938
 21
245.0129628709759
 31
0.0
  0
LINE
  5
243
330
18
100
AcDbEntity
  8
1
  6
Continuous
100
AcDbLine
 10
248.5682474462938
 20
243.0129628709759
 30
0.0
 11
178.5682474462938
 21
243.0129628709759
 31
0.0
  0
LINE
  5
244
330
18
100
AcDbEntity
  8
1
  6
Continuous
100
AcDbLine
 10
236.0682474462938
 20
238.3129618709758
 30
0.0
 11
191.0682474462938
 21
238.3129618709758
 31
0.0
  0
ARC
  5
245
330
18
100
AcDbEntity
  8
1
  6
Continuous
100
AcDbCircle
 10
184.5682474462939
 20
192.5129688709759
 30
0.0
 40
25.0
100
AcDbArc
 50
106.9022899999996
 51
23.92446900000002
  0
LINE
  5
246
330
18
100
AcDbEntity
  8
1
  6
Continuous
100
AcDbLine
 10
173.7097994462939
 20
194.2719618709759
 30
0.0
 11
179.2290024462939
 21
228.3425698709759
 31
0.0
  0
LINE
  5
247
330
18
100
AcDbEntity
  8
1
  6
Continuous
100
AcDbLine
 10
197.0682474462939
 20
234.1710058709759
 30
0.0
 11
197.0682474462939
 21
192.7086378709759
 31
0.0
  0
LINE
  5
248
330
18
100
AcDbEntity
  8
4
  6
CENTER
100
AcDbLine
 10
213.5682474462938
 20
251.0129628709758
 30
0.0
 11
213.5682474462938
 21
202.7462848709759
 31
0.0
  0
ARC
  5
249
330
18
100
AcDbEntity
  8
1
  6
Continuous
100
AcDbCircle
 10
184.5682474462939
 20
192.5129688709759
 30
0.0
 40
15.84999999999999
100
AcDbArc
 50
124.74649
 51
6.080271699999856
  0
ARC
  5
24A
330
18
100
AcDbEntity
  8
1
  6
Continuous
100
AcDbCircle
 10
184.5682474462939
 20
192.5129688709759
 30
0.0
 40
11.0
100
AcDbArc
 50
170.7984199999999
 51
320.0283499999997
  0
CIRCLE
  5
24B
330
18
100
AcDbEntity
  8
1
  6
Continuous
100
AcDbCircle
 10
184.5682474462939
 20
192.5129688709759
 30
0.0
 40
6.3000002
  0
LINE
  5
24C
330
18
100
AcDbEntity
  8
1
  6
Continuous
100
AcDbLine
 10
185.7364104462939
 20
185.1044968709759
 30
0.0
 11
190.4000954462938
 21
187.7970738709759
 31
0.0
  0
LINE
  5
24D
330
18
100
AcDbEntity
  8
1
  6
Continuous
100
AcDbLine
 10
185.7363994462939
 20
199.9214328709756
 30
0.0
 11
190.4000884462939
 21
197.2288498709759
 31
0.0
  0
LINE
  5
24E
330
18
100
AcDbEntity
  8
1
  6
Continuous
100
AcDbLine
 10
178.7364034462939
 20
187.7970658709759
 30
0.0
 11
183.4000844462939
 21
185.1044888709759
 31
0.0
  0
ARC
  5
24F
330
18
100
AcDbEntity
  8
1
  6
Continuous
100
AcDbCircle
 10
184.5682474462939
 20
192.5129688709759
 30
0.0
 40
7.5
100
AcDbArc
 50
261.0394499999999
 51
278.9605599999999
  0
ARC
  5
250
330
18
100
AcDbEntity
  8
1
  6
Continuous
100
AcDbCircle
 10
184.5682474462939
 20
192.5129688709759
 30
0.0
 40
7.5
100
AcDbArc
 50
141.03953
 51
158.96056
  0
LINE
  5
251
330
18
100
AcDbEntity
  8
1
  6
Continuous
100
AcDbLine
 10
177.5682474462938
 20
195.2055498709759
 30
0.0
 11
177.5682474462938
 21
189.8203878709757
 31
0.0
  0
ARC
  5
252
330
18
100
AcDbEntity
  8
1
  6
Continuous
100
AcDbCircle
 10
184.5682474462939
 20
192.5129688709759
 30
0.0
 40
7.5
100
AcDbArc
 50
201.0394399999999
 51
218.9605299999999
  0
CIRCLE
  5
253
330
18
100
AcDbEntity
  8
1
  6
Continuous
100
AcDbCircle
 10
184.5682474462939
 20
192.5129688709759
 30
0.0
 40
2.299999999999998
  0
LINE
  5
254
330
18
100
AcDbEntity
  8
1
  6
Continuous
100
AcDbLine
 10
178.7363994462938
 20
197.2288438709757
 30
0.0
 11
183.4000994462939
 21
199.9214308709758
 31
0.0
  0
ARC
  5
255
330
18
100
AcDbEntity
  8
1
  6
Continuous
100
AcDbCircle
 10
184.5682474462939
 20
192.5129688709759
 30
0.0
 40
7.5
100
AcDbArc
 50
81.03948399999987
 51
98.96051400000034
  0
ARC
  5
256
330
18
100
AcDbEntity
  8
1
  6
Continuous
100
AcDbCircle
 10
184.5682474462939
 20
192.5129688709759
 30
0.0
 40
7.5
100
AcDbArc
 50
21.03945999999991
 51
38.96051599999968
  0
LINE
  5
257
330
18
100
AcDbEntity
  8
1
  6
Continuous
100
AcDbLine
 10
191.568247446294
 20
195.2055498709759
 30
0.0
 11
191.568247446294
 21
189.8203878709757
 31
0.0
  0
ARC
  5
258
330
18
100
AcDbEntity
  8
1
  6
Continuous
100
AcDbCircle
 10
184.5682474462939
 20
192.5129688709759
 30
0.0
 40
7.5
100
AcDbArc
 50
321.0394400000001
 51
338.9605400000001
  0
ARC
  5
259
330
18
100
AcDbEntity
  8
1
  6
Continuous
100
AcDbCircle
 10
193.0800884462938
 20
233.0370548709759
 30
0.0
 40
4.0
100
AcDbArc
 50
104.65275
 51
169.11415
  0
ARC
  5
25A
330
18
100
AcDbEntity
  8
1
  6
Continuous
100
AcDbCircle
 10
189.0836584462938
 20
242.0129628709759
 30
0.0
 40
1.0
100
AcDbArc
 50
14.812389
 51
90.00000300000015
  0
ARC
  5
25B
330
18
100
AcDbEntity
  8
1
  6
Continuous
100
AcDbCircle
 10
191.0682474462938
 20
241.3129618709758
 30
0.0
 40
3.0
100
AcDbArc
 50
213.0681
 51
269.9999599999999
  0
LINE
  5
25C
330
18
100
AcDbEntity
  8
1
  6
Continuous
100
AcDbLine
 10
176.0682474462939
 20
231.1587268709756
 30
0.0
 11
194.2045844462938
 21
234.3566528709759
 31
0.0
  0
ARC
  5
25F
330
18
100
AcDbEntity
  8
1
  6
Continuous
100
AcDbCircle
 10
176.7611714462939
 20
228.7423415709759
 30
0.0
 40
2.5
100
AcDbArc
 50
350.7111899999999
 51
100.0000000000001
  0
LINE
  5
260
330
18
100
AcDbEntity
  8
1
  6
Continuous
100
AcDbLine
 10
176.4155454462939
 20
229.1891112709758
 30
0.0
 11
178.0670954462939
 21
229.4803243709758
 31
0.0
  0
LINE
  5
261
330
18
100
AcDbEntity
  8
1
  6
Continuous
100
AcDbLine
 10
176.0682474462939
 20
231.1587268709756
 30
0.0
 11
176.4155454462939
 21
229.1891112709758
 31
0.0
  0
ARC
  5
262
330
18
100
AcDbEntity
  8
1
  6
Continuous
100
AcDbCircle
 10
178.2407444462939
 20
228.4955163709759
 30
0.0
 40
1.0
100
AcDbArc
 50
350.67352
 51
100.0000000000001
  0
LINE
  5
263
330
18
100
AcDbEntity
  8
1
  6
Continuous
100
AcDbLine
 10
178.5682474462938
 20
243.0129628709759
 30
0.0
 11
178.5682474462938
 21
245.0129628709759
 31
0.0
  0
LINE
  5
264
330
18
100
AcDbEntity
  8
4
  6
CENTER
100
AcDbLine
 10
186.0682474462938
 20
247.3871998709759
 30
0.0
 11
186.0682474462938
 21
240.5619888709759
 31
0.0
  0
ARC
  5
265
330
18
100
AcDbEntity
  8
1
  6
Continuous
100
AcDbCircle
 10
188.6610624462939
 20
233.8868938709758
 30
0.0
 40
0.5
100
AcDbArc
 50
280.0
 51
349.1141499999995
  0
ARC
  5
266
330
18
100
AcDbEntity
  8
1
  6
Continuous
100
AcDbCircle
 10
185.5682474462938
 20
241.5129628709759
 30
0.0
 40
1.5
100
AcDbArc
 50
33.06801899999995
 51
90.00000300000015
  0
LINE
  5
267
330
18
100
AcDbEntity
  8
1
  6
Continuous
100
AcDbLine
 10
188.5541784462939
 20
239.6760578709759
 30
0.0
 11
186.8252854462939
 21
242.3314138709759
 31
0.0
  0
ARC
  5
26A
330
18
100
AcDbEntity
  8
1
  6
Continuous
100
AcDbCircle
 10
200.1682454462939
 20
238.7849618709759
 30
0.0
 40
2.778000099999998
100
AcDbArc
 50
189.7823799999999
 51
222.5338800000002
  0
ARC
  5
26B
330
18
100
AcDbEntity
  8
1
  6
Continuous
100
AcDbCircle
 10
196.1682454462938
 20
238.7849618709759
 30
0.0
 40
2.778000099999998
100
AcDbArc
 50
189.7823799999999
 51
222.5338800000002
  0
ARC
  5
26C
330
18
100
AcDbEntity
  8
1
  6
Continuous
100
AcDbCircle
 10
197.6682454462938
 20
238.7849618709759
 30
0.0
 40
2.778000099999998
100
AcDbArc
 50
189.7823799999999
 51
222.5338800000002
  0
ARC
  5
26D
330
18
100
AcDbEntity
  8
1
  6
Continuous
100
AcDbCircle
 10
195.0682474462938
 20
242.0129628709759
 30
0.0
 40
1.0
100
AcDbArc
 50
90.00000300000015
 51
172.3953100000001
  0
LINE
  5
26E
330
18
100
AcDbEntity
  8
1
  6
Continuous
100
AcDbLine
 10
193.7167614462939
 20
239.4467928709758
 30
0.0
 11
194.0770444462939
 21
242.1453008709759
 31
0.0
  0
ARC
  5
26F
330
18
100
AcDbEntity
  8
1
  6
Continuous
100
AcDbCircle
 10
193.2211554462939
 20
239.5129628709759
 30
0.0
 40
0.5
100
AcDbArc
 50
270.0
 51
352.3953099999997
  0
ARC
  5
270
330
18
100
AcDbEntity
  8
1
  6
Continuous
100
AcDbCircle
 10
193.2211554462939
 20
242.0129628709759
 30
0.0
 40
3.0
100
AcDbArc
 50
194.8123899999999
 51
270.0
  0
LINE
  5
271
330
18
100
AcDbEntity
  8
1
  6
Continuous
100
AcDbLine
 10
190.0504254462939
 20
242.2686158709759
 30
0.0
 11
190.3208524462939
 21
241.2459968709757
 31
0.0
  0
ARC
  5
272
330
18
100
AcDbEntity
  8
1
  6
Continuous
100
AcDbCircle
 10
208.1682454462939
 20
238.7849618709759
 30
0.0
 40
2.778000099999998
100
AcDbArc
 50
189.7823799999999
 51
222.5338800000002
  0
ARC
  5
273
330
18
100
AcDbEntity
  8
1
  6
Continuous
100
AcDbCircle
 10
203.6682454462939
 20
238.7849618709759
 30
0.0
 40
2.778000099999998
100
AcDbArc
 50
189.7823799999999
 51
222.5338800000002
  0
ARC
  5
274
330
18
100
AcDbEntity
  8
1
  6
Continuous
100
AcDbCircle
 10
203.6682454462939
 20
238.7849618709759
 30
0.0
 40
2.778000099999998
100
AcDbArc
 50
317.4661199999996
 51
324.0896000000003
  0
ARC
  5
275
330
18
100
AcDbEntity
  8
1
  6
Continuous
100
AcDbCircle
 10
208.1682454462939
 20
238.7849618709759
 30
0.0
 40
2.778000099999998
100
AcDbArc
 50
317.4661199999996
 51
346.3905399999999
  0
ARC
  5
276
330
18
100
AcDbEntity
  8
1
  6
Continuous
100
AcDbCircle
 10
213.5682474462938
 20
238.7849618709759
 30
0.0
 40
2.778000099999998
100
AcDbArc
 50
189.7823799999999
 51
222.5338800000002
  0
ARC
  5
277
330
18
100
AcDbEntity
  8
1
  6
Continuous
100
AcDbCircle
 10
218.9682494462938
 20
238.7849618709759
 30
0.0
 40
2.778000099999998
100
AcDbArc
 50
317.4661199999996
 51
350.21762
  0
ARC
  5
278
330
18
100
AcDbEntity
  8
1
  6
Continuous
100
AcDbCircle
 10
218.9682494462938
 20
238.7849618709759
 30
0.0
 40
2.778000099999998
100
AcDbArc
 50
193.60946
 51
222.5338800000002
  0
ARC
  5
279
330
18
100
AcDbEntity
  8
1
  6
Continuous
100
AcDbCircle
 10
213.5682474462938
 20
238.7849618709759
 30
0.0
 40
2.778000099999998
100
AcDbArc
 50
317.4661199999996
 51
350.21762
  0
ARC
  5
27A
330
18
100
AcDbEntity
  8
1
  6
Continuous
100
AcDbCircle
 10
223.4682494462938
 20
238.7849618709759
 30
0.0
 40
2.778000099999998
100
AcDbArc
 50
215.9104000000004
 51
222.5338800000002
  0
LINE
  5
27B
330
18
100
AcDbEntity
  8
1
  6
Continuous
100
AcDbLine
 10
238.5682374462939
 20
227.6569614709758
 30
0.0
 11
238.0590274462938
 21
234.1418058709757
 31
0.0
  0
LINE
  5
27C
330
18
100
AcDbEntity
  8
1
  6
Continuous
100
AcDbLine
 10
230.5927974462938
 20
227.0307102709757
 30
0.0
 11
238.5682374462939
 21
227.6569614709758
 31
0.0
  0
ARC
  5
27D
330
18
100
AcDbEntity
  8
1
  6
Continuous
100
AcDbCircle
 10
231.1407774462939
 20
220.0521894029758
 30
0.0
 40
7.0
100
AcDbArc
 50
94.4897930000004
 51
140.0283400000001
  0
LINE
  5
27E
330
18
100
AcDbEntity
  8
1
  6
Continuous
100
AcDbLine
 10
240.3112174462939
 20
242.3314138709759
 30
0.0
 11
238.5823174462939
 21
239.6760578709759
 31
0.0
  0
ARC
  5
27F
330
18
100
AcDbEntity
  8
1
  6
Continuous
100
AcDbCircle
 10
223.4682494462938
 20
238.7849618709759
 30
0.0
 40
2.778000099999998
100
AcDbArc
 50
317.4661199999996
 51
350.21762
  0
ARC
  5
280
330
18
100
AcDbEntity
  8
1
  6
Continuous
100
AcDbCircle
 10
226.9682494462939
 20
238.7849618709759
 30
0.0
 40
2.778000099999998
100
AcDbArc
 50
317.4661199999996
 51
350.21762
  0
ARC
  5
281
330
18
100
AcDbEntity
  8
1
  6
Continuous
100
AcDbCircle
 10
229.4682474462939
 20
238.7849618709759
 30
0.0
 40
2.778000099999998
100
AcDbArc
 50
317.4661199999996
 51
350.21762
  0
ARC
  5
282
330
18
100
AcDbEntity
  8
1
  6
Continuous
100
AcDbCircle
 10
230.9682474462939
 20
238.7849618709759
 30
0.0
 40
2.778000099999998
100
AcDbArc
 50
317.4661199999996
 51
350.21762
  0
ARC
  5
283
330
18
100
AcDbEntity
  8
1
  6
Continuous
100
AcDbCircle
 10
235.0682474462939
 20
233.9069618709759
 30
0.0
 40
3.0
100
AcDbArc
 50
4.489795000000173
 51
90.00000300000015
  0
ARC
  5
284
330
18
100
AcDbEntity
  8
1
  6
Continuous
100
AcDbCircle
 10
233.9153374462938
 20
242.0129628709759
 30
0.0
 40
3.0
100
AcDbArc
 50
270.0
 51
345.18761
  0
ARC
  5
285
330
18
100
AcDbEntity
  8
1
  6
Continuous
100
AcDbCircle
 10
232.0682474462938
 20
242.0129628709759
 30
0.0
 40
1.0
100
AcDbArc
 50
7.604693300000017
 51
89.99999600000005
  0
ARC
  5
286
330
18
100
AcDbEntity
  8
1
  6
Continuous
100
AcDbCircle
 10
233.9153374462938
 20
239.5129628709759
 30
0.0
 40
0.5
100
AcDbArc
 50
187.6046899999998
 51
270.0
  0
LINE
  5
287
330
18
100
AcDbEntity
  8
1
  6
Continuous
100
AcDbLine
 10
233.4197374462938
 20
239.4467928709758
 30
0.0
 11
233.0594474462939
 21
242.1453008709759
 31
0.0
  0
ARC
  5
288
330
18
100
AcDbEntity
  8
1
  6
Continuous
100
AcDbCircle
 10
238.0528374462939
 20
242.0129628709759
 30
0.0
 40
1.0
100
AcDbArc
 50
89.99999600000005
 51
165.18761
  0
ARC
  5
289
330
18
100
AcDbEntity
  8
1
  6
Continuous
100
AcDbCircle
 10
236.0682474462938
 20
241.3129618709758
 30
0.0
 40
3.0
100
AcDbArc
 50
269.9999799999996
 51
326.9318999999998
  0
LINE
  5
28A
330
18
100
AcDbEntity
  8
1
  6
Continuous
100
AcDbLine
 10
237.0860574462939
 20
242.2686178709759
 30
0.0
 11
236.8156374462939
 21
241.2459988709759
 31
0.0
  0
LINE
  5
28B
330
18
100
AcDbEntity
  8
1
  6
Continuous
100
AcDbLine
 10
248.5682474462938
 20
243.0129628709759
 30
0.0
 11
248.5682474462938
 21
245.0129628709759
 31
0.0
  0
LINE
  5
28C
330
18
100
AcDbEntity
  8
4
  6
CENTER
100
AcDbLine
 10
241.0682374462939
 20
247.3871998709759
 30
0.0
 11
241.0682374462939
 21
240.5619888709759
 31
0.0
  0
ARC
  5
28D
330
18
100
AcDbEntity
  8
1
  6
Continuous
100
AcDbCircle
 10
241.5682474462939
 20
241.5129628709759
 30
0.0
 40
1.5
100
AcDbArc
 50
89.99994800000029
 51
146.9319899999999
  0
LINE
  5
28E
330
18
100
AcDbEntity
  8
1
  6
Continuous
100
AcDbLine
 10
155.3456584462939
 20
348.0129628709757
 30
0.0
 11
177.9497014462939
 21
348.0129628709757
 31
0.0
  0
LINE
  5
28F
330
18
100
AcDbEntity
  8
1
  6
Continuous
100
AcDbLine
 10
155.3456584462939
 20
322.0129628709758
 30
0.0
 11
177.9497014462939
 21
322.0129628709758
 31
0.0
  0
LINE
  5
290
330
18
100
AcDbEntity
  8
4
  6
CENTER
100
AcDbLine
 10
145.3380644462939
 20
335.0129628709758
 30
0.0
 11
250.1657174462939
 21
335.0129628709758
 31
0.0
  0
ARC
  5
291
330
18
100
AcDbEntity
  8
1
  6
Continuous
100
AcDbCircle
 10
155.3456584462939
 20
346.0129628709758
 30
0.0
 40
2.0
100
AcDbArc
 50
89.99997499999992
 51
166.7518999999998
  0
ARC
  5
292
330
18
100
AcDbEntity
  8
1
  6
Continuous
100
AcDbCircle
 10
202.0682474462939
 20
335.0129628709758
 30
0.0
 40
50.0
100
AcDbArc
 50
179.99996
 51
193.24796
  0
ARC
  5
293
330
18
100
AcDbEntity
  8
1
  6
Continuous
100
AcDbCircle
 10
155.3456584462939
 20
324.0129628709758
 30
0.0
 40
2.0
100
AcDbArc
 50
193.2480299999999
 51
269.9999399999995
  0
ARC
  5
294
330
18
100
AcDbEntity
  8
1
  6
Continuous
100
AcDbCircle
 10
202.0682474462939
 20
335.0129628709758
 30
0.0
 40
50.0
100
AcDbArc
 50
166.7519699999999
 51
179.99996
  0
ARC
  5
295
330
18
100
AcDbEntity
  8
1
  6
Continuous
100
AcDbCircle
 10
221.9210234462939
 20
335.0129628709758
 30
0.0
 40
45.852779
100
AcDbArc
 50
158.7253699999999
 51
201.2746399999999
  0
CIRCLE
  5
296
330
18
100
AcDbEntity
  8
1
  6
Continuous
100
AcDbCircle
 10
213.5682474462938
 20
335.0129628709758
 30
0.0
 40
21.49999999999999
  0
CIRCLE
  5
297
330
18
100
AcDbEntity
  8
1
  6
Continuous
100
AcDbCircle
 10
213.5682474462938
 20
335.0129628709758
 30
0.0
 40
23.5
  0
ARC
  5
298
330
18
100
AcDbEntity
  8
1
  6
Continuous
100
AcDbCircle
 10
350.0262374462938
 20
335.0129628709758
 30
0.0
 40
103.46132
100
AcDbArc
 50
168.71589
 51
191.2840400000001
  0
ARC
  5
299
330
18
100
AcDbEntity
  8
1
  6
Continuous
100
AcDbCircle
 10
77.11023944629393
 20
335.0129628709758
 30
0.0
 40
103.46132
100
AcDbArc
 50
348.7159299999998
 51
11.2840680000001
  0
LINE
  5
29A
330
18
100
AcDbEntity
  8
4
  6
CENTER
100
AcDbLine
 10
186.0682474462938
 20
364.8129628709758
 30
0.0
 11
186.0682474462938
 21
347.2129728709759
 31
0.0
  0
LINE
  5
29B
330
18
100
AcDbEntity
  8
4
  6
CENTER
100
AcDbLine
 10
241.0682374462939
 20
364.8129628709758
 30
0.0
 11
241.0682374462939
 21
347.2129728709759
 31
0.0
  0
LINE
  5
29C
330
18
100
AcDbEntity
  8
4
  6
CENTER
100
AcDbLine
 10
213.5682474462938
 20
366.4300214416857
 30
0.0
 11
213.5682474462938
 21
302.2608362627841
 31
0.0
  0
CIRCLE
  5
29D
330
18
100
AcDbEntity
  8
1
  6
Continuous
100
AcDbCircle
 10
213.5682474462938
 20
335.0129628709758
 30
0.0
 40
9.5
  0
CIRCLE
  5
29E
330
18
100
AcDbEntity
  8
1
  6
Continuous
100
AcDbCircle
 10
213.5682474462938
 20
335.0129628709758
 30
0.0
 40
12.0
  0
LINE
  5
29F
330
18
100
AcDbEntity
  8
1
  6
Continuous
100
AcDbLine
 10
187.5682394462939
 20
306.0129628709758
 30
0.0
 11
239.5682374462939
 21
306.0129628709758
 31
0.0
  0
CIRCLE
  5
2A0
330
18
100
AcDbEntity
  8
1
  6
Continuous
100
AcDbCircle
 10
186.0682474462938
 20
314.0129628709758
 30
0.0
 40
4.400000099999997
  0
LINE
  5
2A1
330
18
100
AcDbEntity
  8
4
  6
CENTER
100
AcDbLine
 10
194.8682354462938
 20
314.0129628709758
 30
0.0
 11
177.2682404462939
 21
314.0129628709758
 31
0.0
  0
LINE
  5
2A2
330
18
100
AcDbEntity
  8
1
  6
Continuous
100
AcDbLine
 10
169.7182494462938
 20
320.0129628709758
 30
0.0
 11
178.5911584462939
 21
320.0129628709758
 31
0.0
  0
ARC
  5
2A3
330
18
100
AcDbEntity
  8
1
  6
Continuous
100
AcDbCircle
 10
169.7182494462938
 20
321.0129628709758
 30
0.0
 40
1.0
100
AcDbArc
 50
179.99996
 51
269.9999499999996
  0
LINE
  5
2A4
330
18
100
AcDbEntity
  8
1
  6
Continuous
100
AcDbLine
 10
168.7182494462938
 20
322.0129628709758
 30
0.0
 11
168.7182494462938
 21
321.0129628709758
 31
0.0
  0
ARC
  5
2A5
330
18
100
AcDbEntity
  8
1
  6
Continuous
100
AcDbCircle
 10
187.5682474462939
 20
315.0129628709758
 30
0.0
 40
9.0
100
AcDbArc
 50
181.5575799999999
 51
270.0000200000004
  0
LINE
  5
2A6
330
18
100
AcDbEntity
  8
4
  6
CENTER
100
AcDbLine
 10
186.0682474462938
 20
305.2129748709758
 30
0.0
 11
186.0682474462938
 21
322.8129658709757
 31
0.0
  0
LINE
  5
2A7
330
18
100
AcDbEntity
  8
1
  6
Continuous
100
AcDbLine
 10
173.7097994462939
 20
319.0129628709758
 30
0.0
 11
173.7097994462939
 21
317.0129628709758
 31
0.0
  0
LINE
  5
2A8
330
18
100
AcDbEntity
  8
1
  6
Continuous
100
AcDbLine
 10
178.9937234462938
 20
317.0129628709758
 30
0.0
 11
173.7097994462939
 21
317.0129628709758
 31
0.0
  0
ARC
  5
2A9
330
18
100
AcDbEntity
  8
1
  6
Continuous
100
AcDbCircle
 10
178.2611714462938
 20
318.0129628709758
 30
0.0
 40
1.0
100
AcDbArc
 50
17.48851199999984
 51
21.27463900000022
  0
ARC
  5
2AA
330
18
100
AcDbEntity
  8
1
  6
Continuous
100
AcDbCircle
 10
178.2611714462938
 20
318.0129628709758
 30
0.0
 40
1.0
100
AcDbArc
 50
270.0
 51
323.4309000000001
  0
LINE
  5
2AB
330
18
100
AcDbEntity
  8
1
  6
Continuous
100
AcDbLine
 10
178.9503694462938
 20
319.0129628709758
 30
0.0
 11
173.7097994462939
 21
319.0129628709758
 31
0.0
  0
CIRCLE
  5
2AC
330
18
100
AcDbEntity
  8
1
  6
Continuous
100
AcDbCircle
 10
241.0682374462939
 20
314.0129628709758
 30
0.0
 40
4.400000099999997
  0
LINE
  5
2AD
330
18
100
AcDbEntity
  8
4
  6
CENTER
100
AcDbLine
 10
232.2682474462939
 20
314.0129628709758
 30
0.0
 11
249.8682374462938
 21
314.0129628709758
 31
0.0
  0
ARC
  5
2AE
330
18
100
AcDbEntity
  8
1
  6
Continuous
100
AcDbCircle
 10
239.5682374462939
 20
315.0129628709758
 30
0.0
 40
9.0
100
AcDbArc
 50
270.0000200000004
 51
358.44251
  0
LINE
  5
2AF
330
18
100
AcDbEntity
  8
4
  6
CENTER
100
AcDbLine
 10
241.0682374462939
 20
305.2129748709758
 30
0.0
 11
241.0682374462939
 21
322.8129658709757
 31
0.0
  0
LINE
  5
2B0
330
18
100
AcDbEntity
  8
1
  6
Continuous
100
AcDbLine
 10
187.5682394462939
 20
364.0129628709758
 30
0.0
 11
239.5682374462939
 21
364.0129628709758
 31
0.0
  0
CIRCLE
  5
2B1
330
18
100
AcDbEntity
  8
1
  6
Continuous
100
AcDbCircle
 10
186.0682474462938
 20
356.0129628709758
 30
0.0
 40
4.400000099999997
  0
LINE
  5
2B2
330
18
100
AcDbEntity
  8
4
  6
CENTER
100
AcDbLine
 10
194.8682354462938
 20
356.0129628709758
 30
0.0
 11
177.2682404462939
 21
356.0129628709758
 31
0.0
  0
LINE
  5
2B3
330
18
100
AcDbEntity
  8
1
  6
Continuous
100
AcDbLine
 10
169.7182494462938
 20
350.0129628709757
 30
0.0
 11
178.5911584462939
 21
350.0129628709757
 31
0.0
  0
ARC
  5
2B4
330
18
100
AcDbEntity
  8
1
  6
Continuous
100
AcDbCircle
 10
169.7182494462938
 20
349.0129628709758
 30
0.0
 40
1.0
100
AcDbArc
 50
89.99997499999992
 51
179.9999799999999
  0
LINE
  5
2B5
330
18
100
AcDbEntity
  8
1
  6
Continuous
100
AcDbLine
 10
168.7182494462938
 20
348.0129628709757
 30
0.0
 11
168.7182494462938
 21
349.0129628709758
 31
0.0
  0
ARC
  5
2B6
330
18
100
AcDbEntity
  8
1
  6
Continuous
100
AcDbCircle
 10
187.5682474462939
 20
355.0129628709758
 30
0.0
 40
9.0
100
AcDbArc
 50
89.99998199999998
 51
180.0
  0
LINE
  5
2B7
330
18
100
AcDbEntity
  8
1
  6
Continuous
100
AcDbLine
 10
178.9503694462938
 20
351.0129628709758
 30
0.0
 11
173.7097994462939
 21
351.0129628709758
 31
0.0
  0
LINE
  5
2B8
330
18
100
AcDbEntity
  8
1
  6
Continuous
100
AcDbLine
 10
178.9937234462938
 20
353.0129628709758
 30
0.0
 11
173.7097994462939
 21
353.0129628709758
 31
0.0
  0
LINE
  5
2B9
330
18
100
AcDbEntity
  8
1
  6
Continuous
100
AcDbLine
 10
173.7097994462939
 20
353.0129628709758
 30
0.0
 11
173.7097994462939
 21
351.0129628709758
 31
0.0
  0
ARC
  5
2BA
330
18
100
AcDbEntity
  8
1
  6
Continuous
100
AcDbCircle
 10
178.2611714462938
 20
352.0129628709758
 30
0.0
 40
1.0
100
AcDbArc
 50
36.56910300000003
 51
90.00000300000015
  0
ARC
  5
2BB
330
18
100
AcDbEntity
  8
1
  6
Continuous
100
AcDbCircle
 10
178.2611714462938
 20
352.0129628709758
 30
0.0
 40
1.0
100
AcDbArc
 50
338.7253599999999
 51
342.51149
  0
CIRCLE
  5
2BC
330
18
100
AcDbEntity
  8
1
  6
Continuous
100
AcDbCircle
 10
241.0682374462939
 20
356.0129628709758
 30
0.0
 40
4.400000099999997
  0
LINE
  5
2BD
330
18
100
AcDbEntity
  8
4
  6
CENTER
100
AcDbLine
 10
232.2682474462939
 20
356.0129628709758
 30
0.0
 11
249.8682374462938
 21
356.0129628709758
 31
0.0
  0
ARC
  5
2BE
330
18
100
AcDbEntity
  8
1
  6
Continuous
100
AcDbCircle
 10
239.5682374462939
 20
355.0129628709758
 30
0.0
 40
9.0
100
AcDbArc
 50
1.557487299999831
 51
89.99998199999998
  0
LINE
  5
2CC
330
18
100
AcDbEntity
  8
4
  6
CENTER
100
AcDbLine
 10
184.5682474462939
 20
365.0129628709758
 30
0.0
 11
184.5682474462939
 21
305.0129708709757
 31
0.0
  0
LINE
  5
842
330
18
100
AcDbEntity
  8
1
  6
Continuous
100
AcDbLine
 10
336.2018085771719
 20
163.2903788709759
 30
0.0
 11
336.2018085771719
 21
221.7355513709758
 31
0.0
  0
LINE
  5
843
330
18
100
AcDbEntity
  8
1
  6
Continuous
100
AcDbLine
 10
334.2018085771718
 20
177.6629678709757
 30
0.0
 11
334.2018085771718
 21
207.3629658709758
 31
0.0
  0
LINE
  5
844
330
18
100
AcDbEntity
  8
1
  6
Continuous
100
AcDbLine
 10
364.2018085771717
 20
177.6629678709757
 30
0.0
 11
364.2018085771718
 21
207.3629658709758
 31
0.0
  0
LINE
  5
845
330
18
100
AcDbEntity
  8
1
  6
Continuous
100
AcDbLine
 10
362.2018085771717
 20
163.2903788709759
 30
0.0
 11
362.2018085771717
 21
221.7355513709758
 31
0.0
  0
LINE
  5
846
330
18
100
AcDbEntity
  8
4
  6
CENTER
100
AcDbLine
 10
349.2018085771718
 20
251.0129628709758
 30
0.0
 11
349.2018085771718
 21
156.8329548709759
 31
0.0
  0
ARC
  5
847
330
18
100
AcDbEntity
  8
1
  6
Continuous
100
AcDbCircle
 10
349.2018085771718
 20
210.0129676709759
 30
0.0
 40
50.0
100
AcDbArc
 50
256.7520399999995
 51
270.0000399999999
  0
ARC
  5
848
330
18
100
AcDbEntity
  8
1
  6
Continuous
100
AcDbCircle
 10
349.2018085771718
 20
210.0129676709759
 30
0.0
 40
50.0
100
AcDbArc
 50
270.0000399999999
 51
283.24804
  0
ARC
  5
849
330
18
100
AcDbEntity
  8
1
  6
Continuous
100
AcDbCircle
 10
360.2018085771717
 20
163.2903788709759
 30
0.0
 40
2.0
100
AcDbArc
 50
283.2481099999997
 51
0.0000199999999843
  0
LINE
  5
84A
330
18
100
AcDbEntity
  8
1
  6
Continuous
100
AcDbLine
 10
362.2018085771717
 20
176.6629678709757
 30
0.0
 11
363.2018085771718
 21
176.6629678709757
 31
0.0
  0
ARC
  5
84B
330
18
100
AcDbEntity
  8
1
  6
Continuous
100
AcDbCircle
 10
363.2018085771718
 20
177.6629678709757
 30
0.0
 40
1.0
100
AcDbArc
 50
270.0000299999997
 51
0.0000199999999843
  0
ARC
  5
84C
330
18
100
AcDbEntity
  8
1
  6
Continuous
100
AcDbCircle
 10
338.2018085771719
 20
163.2903788709759
 30
0.0
 40
2.0
100
AcDbArc
 50
180.00005
 51
256.7519599999999
  0
ARC
  5
84D
330
18
100
AcDbEntity
  8
1
  6
Continuous
100
AcDbCircle
 10
335.2018085771718
 20
177.6629678709757
 30
0.0
 40
1.0
100
AcDbArc
 50
180.00005
 51
270.0000399999999
  0
LINE
  5
84E
330
18
100
AcDbEntity
  8
1
  6
Continuous
100
AcDbLine
 10
336.2018085771719
 20
176.6629678709757
 30
0.0
 11
335.2018085771718
 21
176.6629678709757
 31
0.0
  0
LINE
  5
84F
330
18
100
AcDbEntity
  8
1
  6
Continuous
100
AcDbLine
 10
326.7018085771718
 20
238.3129618709758
 30
0.0
 11
371.7018085771718
 21
238.3129618709758
 31
0.0
  0
LINE
  5
850
330
18
100
AcDbEntity
  8
1
  6
Continuous
100
AcDbLine
 10
320.2018085771718
 20
243.0129628709759
 30
0.0
 11
378.2018085771718
 21
243.0129628709759
 31
0.0
  0
LINE
  5
851
330
18
100
AcDbEntity
  8
1
  6
Continuous
100
AcDbLine
 10
320.2018085771718
 20
245.0129628709759
 30
0.0
 11
378.2018085771718
 21
245.0129628709759
 31
0.0
  0
LINE
  5
852
330
18
100
AcDbEntity
  8
1
  6
Continuous
100
AcDbLine
 10
327.7018085771719
 20
236.9069618709759
 30
0.0
 11
370.7018085771717
 21
236.9069618709759
 31
0.0
  0
ARC
  5
853
330
18
100
AcDbEntity
  8
1
  6
Continuous
100
AcDbCircle
 10
349.2018085771718
 20
-108.1839071290239
 30
0.0
 40
335.8408499999999
100
AcDbArc
 50
87.14367289076736
 51
92.85632710923259
  0
ARC
  5
857
330
18
100
AcDbEntity
  8
1
  6
Continuous
100
AcDbCircle
 10
349.2018085771718
 20
175.0129668709756
 30
0.0
 40
50.0
100
AcDbArc
 50
89.99996300000018
 51
103.2479620000002
  0
LINE
  5
858
330
18
100
AcDbEntity
  8
4
  6
CENTER
100
AcDbLine
 10
376.7187785771718
 20
192.5129688709759
 30
0.0
 11
323.7984275771718
 21
192.5129688709759
 31
0.0
  0
ARC
  5
859
330
18
100
AcDbEntity
  8
1
  6
Continuous
100
AcDbCircle
 10
360.2018085771717
 20
221.7355513709758
 30
0.0
 40
2.0
100
AcDbArc
 50
359.9999799999998
 51
76.75189000000031
  0
LINE
  5
85A
330
18
100
AcDbEntity
  8
1
  6
Continuous
100
AcDbLine
 10
367.2018085771718
 20
189.913783910856
 30
0.0
 11
367.2018085771718
 21
181.5129668709759
 31
0.0
  0
LINE
  5
85B
330
18
100
AcDbEntity
  8
1
  6
Continuous
100
AcDbLine
 10
365.2018085771718
 20
226.8705121766156
 30
0.0
 11
365.2018085771718
 21
181.5129668709759
 31
0.0
  0
LINE
  5
85C
330
18
100
AcDbEntity
  8
1
  6
Continuous
100
AcDbLine
 10
373.7009385771719
 20
233.9794188709759
 30
0.0
 11
374.2279885771718
 21
212.1637840709758
 31
0.0
  0
LINE
  5
85D
330
18
100
AcDbEntity
  8
2
  6
Continuous
100
AcDbLine
 10
374.2017885771717
 20
195.8879688709759
 30
0.0
 11
372.2017885771717
 21
195.8879688709759
 31
0.0
  0
LINE
  5
85E
330
18
100
AcDbEntity
  8
1
  6
Continuous
100
AcDbLine
 10
373.5767885771717
 20
196.5129688709758
 30
0.0
 11
372.2017885771717
 21
196.5129688709758
 31
0.0
  0
LINE
  5
85F
330
18
100
AcDbEntity
  8
2
  6
Continuous
100
AcDbLine
 10
374.2017885771717
 20
189.1379688709758
 30
0.0
 11
372.2017885771717
 21
189.1379688709758
 31
0.0
  0
LINE
  5
860
330
18
100
AcDbEntity
  8
1
  6
Continuous
100
AcDbLine
 10
373.5767885771717
 20
188.5129688709758
 30
0.0
 11
372.2017885771717
 21
188.5129688709758
 31
0.0
  0
ARC
  5
861
330
18
100
AcDbEntity
  8
1
  6
Continuous
100
AcDbCircle
 10
338.2384905771719
 20
211.2942939709759
 30
0.0
 40
36.0
100
AcDbArc
 50
323.5655270184865
 51
1.383970000000019
  0
LINE
  5
862
330
18
100
AcDbEntity
  8
1
  6
Continuous
100
AcDbLine
 10
374.2017885771717
 20
189.1379688709758
 30
0.0
 11
374.2017885771717
 21
195.8879688709759
 31
0.0
  0
LINE
  5
863
330
18
100
AcDbEntity
  8
1
  6
Continuous
100
AcDbLine
 10
373.5767885771717
 20
188.5129688709758
 30
0.0
 11
373.5767885771717
 21
196.5129688709758
 31
0.0
  0
LINE
  5
864
330
18
100
AcDbEntity
  8
1
  6
Continuous
100
AcDbLine
 10
373.5767885771717
 20
188.5129648709759
 30
0.0
 11
374.2017885771717
 21
189.1379668709759
 31
0.0
  0
LINE
  5
865
330
18
100
AcDbEntity
  8
1
  6
Continuous
100
AcDbLine
 10
374.2017885771717
 20
195.8879688709759
 30
0.0
 11
373.5767985771717
 21
196.5129668709757
 31
0.0
  0
LINE
  5
86A
330
18
100
AcDbEntity
  8
1
  6
Continuous
100
AcDbLine
 10
372.2017885771717
 20
186.6486138709759
 30
0.0
 11
372.2017885771717
 21
198.3773098709759
 31
0.0
  0
LINE
  5
86B
330
18
100
AcDbEntity
  8
1
  6
Continuous
100
AcDbLine
 10
367.2018085771718
 20
181.5129668709759
 30
0.0
 11
365.2018085771718
 21
181.5129668709759
 31
0.0
  0
LINE
  5
872
330
18
100
AcDbEntity
  8
1
  6
Continuous
100
AcDbLine
 10
365.2018085771718
 20
188.5129688709758
 30
0.0
 11
364.2018085771717
 21
188.5129688709758
 31
0.0
  0
LINE
  5
879
330
18
100
AcDbEntity
  8
1
  6
Continuous
100
AcDbLine
 10
365.2018085771718
 20
196.5129688709758
 30
0.0
 11
364.2018085771717
 21
196.5129688709758
 31
0.0
  0
LINE
  5
87A
330
18
100
AcDbEntity
  8
1
  6
Continuous
100
AcDbLine
 10
362.2018085771717
 20
208.3629678709759
 30
0.0
 11
363.2018085771718
 21
208.3629678709759
 31
0.0
  0
ARC
  5
87B
330
18
100
AcDbEntity
  8
1
  6
Continuous
100
AcDbCircle
 10
363.2018085771718
 20
207.3629658709758
 30
0.0
 40
1.0
100
AcDbArc
 50
359.9999799999998
 51
89.99996300000018
  0
ARC
  5
87C
330
18
100
AcDbEntity
  8
1
  6
Continuous
100
AcDbCircle
 10
373.6863985771717
 20
242.0129628709759
 30
0.0
 40
1.0
100
AcDbArc
 50
89.99999699999987
 51
165.187611
  0
ARC
  5
87F
330
18
100
AcDbEntity
  8
1
  6
Continuous
100
AcDbCircle
 10
371.7018085771718
 20
241.3129618709758
 30
0.0
 40
3.0
100
AcDbArc
 50
270.0000399999999
 51
326.9318999999998
  0
ARC
  5
880
330
18
100
AcDbEntity
  8
1
  6
Continuous
100
AcDbCircle
 10
370.7018085771717
 20
233.9069618709759
 30
0.0
 40
3.0
100
AcDbArc
 50
1.383970000000019
 51
89.99999699999987
  0
LINE
  5
881
330
18
100
AcDbEntity
  8
1
  6
Continuous
100
AcDbLine
 10
378.2018085771718
 20
245.0129628709759
 30
0.0
 11
378.2018085771718
 21
243.0129628709759
 31
0.0
  0
LINE
  5
882
330
18
100
AcDbEntity
  8
1
  6
Continuous
100
AcDbLine
 10
374.2158785771718
 20
239.6760598709759
 30
0.0
 11
375.9447785771718
 21
242.3314158709759
 31
0.0
  0
ARC
  5
883
330
18
100
AcDbEntity
  8
1
  6
Continuous
100
AcDbCircle
 10
377.2018085771717
 20
241.5129628709759
 30
0.0
 40
1.5
100
AcDbArc
 50
89.99999699999987
 51
146.931981
  0
LINE
  5
884
330
18
100
AcDbEntity
  8
4
  6
CENTER
100
AcDbLine
 10
370.2018085771717
 20
247.3871998709759
 30
0.0
 11
370.2018085771717
 21
240.5619888709759
 31
0.0
  0
ARC
  5
88A
330
18
100
AcDbEntity
  8
1
  6
Continuous
100
AcDbCircle
 10
349.2018085771718
 20
175.0129668709756
 30
0.0
 40
50.0
100
AcDbArc
 50
76.75195999999991
 51
89.99996300000018
  0
LINE
  5
88D
330
18
100
AcDbEntity
  8
1
  6
Continuous
100
AcDbLine
 10
369.0532945771717
 20
239.4467928709758
 30
0.0
 11
368.6930115771717
 21
242.1453008709759
 31
0.0
  0
ARC
  5
88E
330
18
100
AcDbEntity
  8
1
  6
Continuous
100
AcDbCircle
 10
369.5488985771717
 20
239.5129628709759
 30
0.0
 40
0.5
100
AcDbArc
 50
187.6046900000002
 51
270.0
  0
ARC
  5
88F
330
18
100
AcDbEntity
  8
1
  6
Continuous
100
AcDbCircle
 10
367.7018085771718
 20
242.0129628709759
 30
0.0
 40
1.0
100
AcDbArc
 50
7.604689999999886
 51
89.99999699999987
  0
ARC
  5
890
330
18
100
AcDbEntity
  8
1
  6
Continuous
100
AcDbCircle
 10
366.6018105771717
 20
238.7849618709759
 30
0.0
 40
2.778000099999998
100
AcDbArc
 50
317.4661199999998
 51
350.21762
  0
ARC
  5
891
330
18
100
AcDbEntity
  8
1
  6
Continuous
100
AcDbCircle
 10
365.1018105771717
 20
238.7849618709759
 30
0.0
 40
2.778000099999998
100
AcDbArc
 50
317.4661199999998
 51
350.21762
  0
LINE
  5
892
330
18
100
AcDbEntity
  8
1
  6
Continuous
100
AcDbLine
 10
372.7196185771717
 20
242.2686158709759
 30
0.0
 11
372.4491985771718
 21
241.2459988709759
 31
0.0
  0
ARC
  5
893
330
18
100
AcDbEntity
  8
1
  6
Continuous
100
AcDbCircle
 10
369.5488985771717
 20
242.0129628709759
 30
0.0
 40
3.0
100
AcDbArc
 50
270.0
 51
345.18761
  0
ARC
  5
894
330
18
100
AcDbEntity
  8
1
  6
Continuous
100
AcDbCircle
 10
359.1018105771717
 20
238.7849618709759
 30
0.0
 40
2.778000099999998
100
AcDbArc
 50
317.4661199999998
 51
350.21762
  0
ARC
  5
895
330
18
100
AcDbEntity
  8
1
  6
Continuous
100
AcDbCircle
 10
362.6018105771717
 20
238.7849618709759
 30
0.0
 40
2.778000099999998
100
AcDbArc
 50
317.4661199999998
 51
350.21762
  0
ARC
  5
896
330
18
100
AcDbEntity
  8
1
  6
Continuous
100
AcDbCircle
 10
349.2018085771718
 20
238.7849618709759
 30
0.0
 40
2.778000099999998
100
AcDbArc
 50
317.4661199999998
 51
350.21762
  0
ARC
  5
897
330
18
100
AcDbEntity
  8
1
  6
Continuous
100
AcDbCircle
 10
354.6018105771717
 20
238.7849618709759
 30
0.0
 40
2.778000099999998
100
AcDbArc
 50
193.60946
 51
222.5338800000002
  0
ARC
  5
898
330
18
100
AcDbEntity
  8
1
  6
Continuous
100
AcDbCircle
 10
359.1018105771717
 20
238.7849618709759
 30
0.0
 40
2.778000099999998
100
AcDbArc
 50
215.9103999999995
 51
222.5338800000002
  0
ARC
  5
899
330
18
100
AcDbEntity
  8
1
  6
Continuous
100
AcDbCircle
 10
354.6018105771717
 20
238.7849618709759
 30
0.0
 40
2.778000099999998
100
AcDbArc
 50
317.4661199999998
 51
350.21762
  0
ARC
  5
89A
330
18
100
AcDbEntity
  8
1
  6
Continuous
100
AcDbCircle
 10
343.8018065771717
 20
238.7849618709759
 30
0.0
 40
2.778000099999998
100
AcDbArc
 50
317.4661199999998
 51
346.3905399999999
  0
ARC
  5
89B
330
18
100
AcDbEntity
  8
1
  6
Continuous
100
AcDbCircle
 10
349.2018085771718
 20
238.7849618709759
 30
0.0
 40
2.778000099999998
100
AcDbArc
 50
189.7823799999999
 51
222.5338800000002
  0
ARC
  5
89C
330
18
100
AcDbEntity
  8
1
  6
Continuous
100
AcDbCircle
 10
338.2018085771719
 20
221.7355513709758
 30
0.0
 40
2.0
100
AcDbArc
 50
103.2480369999997
 51
179.999945358487
  0
LINE
  5
89D
330
18
100
AcDbEntity
  8
1
  6
Continuous
100
AcDbLine
 10
324.7026855771718
 20
233.9794188709759
 30
0.0
 11
324.1756285771718
 21
212.1637831709757
 31
0.0
  0
LINE
  5
89E
330
18
100
AcDbEntity
  8
1
  6
Continuous
100
AcDbLine
 10
331.2018085771719
 20
189.913783910856
 30
0.0
 11
331.2018085771719
 21
181.5129668709759
 31
0.0
  0
LINE
  5
89F
330
18
100
AcDbEntity
  8
1
  6
Continuous
100
AcDbLine
 10
333.2018085771718
 20
226.8705121766156
 30
0.0
 11
333.2018085771718
 21
181.5129668709759
 31
0.0
  0
ARC
  5
8A2
330
18
100
AcDbEntity
  8
1
  6
Continuous
100
AcDbCircle
 10
360.1651265771717
 20
211.2942939709759
 30
0.0
 40
36.0
100
AcDbArc
 50
178.6160298999998
 51
216.4344729815134
  0
LINE
  5
8A9
330
18
100
AcDbEntity
  8
1
  6
Continuous
100
AcDbLine
 10
334.2018085771718
 20
188.5129688709758
 30
0.0
 11
333.2018005771718
 21
188.5129688709758
 31
0.0
  0
LINE
  5
8AC
330
18
100
AcDbEntity
  8
1
  6
Continuous
100
AcDbLine
 10
333.2018085771718
 20
181.5129668709759
 30
0.0
 11
331.2018085771719
 21
181.5129668709759
 31
0.0
  0
LINE
  5
8B5
330
18
100
AcDbEntity
  8
1
  6
Continuous
100
AcDbLine
 10
334.2018085771718
 20
196.5129688709758
 30
0.0
 11
333.2018005771718
 21
196.5129688709758
 31
0.0
  0
ARC
  5
8B9
330
18
100
AcDbEntity
  8
1
  6
Continuous
100
AcDbCircle
 10
335.2018085771718
 20
207.3629658709758
 30
0.0
 40
1.0
100
AcDbArc
 50
89.99996300000018
 51
179.999945358487
  0
LINE
  5
8BA
330
18
100
AcDbEntity
  8
1
  6
Continuous
100
AcDbLine
 10
336.2018085771719
 20
208.3629678709759
 30
0.0
 11
335.2018085771718
 21
208.3629678709759
 31
0.0
  0
LINE
  5
8BB
330
18
100
AcDbEntity
  8
1
  6
Continuous
100
AcDbLine
 10
320.2018085771718
 20
245.0129628709759
 30
0.0
 11
320.2018085771718
 21
243.0129628709759
 31
0.0
  0
LINE
  5
8BC
330
18
100
AcDbEntity
  8
4
  6
CENTER
100
AcDbLine
 10
328.2018085771718
 20
247.3871998709759
 30
0.0
 11
328.2018085771718
 21
240.4051228709759
 31
0.0
  0
ARC
  5
8BD
330
18
100
AcDbEntity
  8
1
  6
Continuous
100
AcDbCircle
 10
328.8547165771718
 20
242.0129628709759
 30
0.0
 40
3.0
100
AcDbArc
 50
194.8123899999999
 51
270.0
  0
ARC
  5
8BE
330
18
100
AcDbEntity
  8
1
  6
Continuous
100
AcDbCircle
 10
327.7018085771719
 20
233.9069618709759
 30
0.0
 40
3.0
100
AcDbArc
 50
89.99999699999987
 51
178.6160298999998
  0
ARC
  5
8C1
330
18
100
AcDbEntity
  8
1
  6
Continuous
100
AcDbCircle
 10
339.3018065771718
 20
238.7849618709759
 30
0.0
 40
2.778000099999998
100
AcDbArc
 50
189.7823799999999
 51
222.5338800000002
  0
ARC
  5
8C2
330
18
100
AcDbEntity
  8
1
  6
Continuous
100
AcDbCircle
 10
339.3018065771718
 20
238.7849618709759
 30
0.0
 40
2.778000099999998
100
AcDbArc
 50
317.4661199999998
 51
324.0895999999995
  0
ARC
  5
8C3
330
18
100
AcDbEntity
  8
1
  6
Continuous
100
AcDbCircle
 10
343.8018065771717
 20
238.7849618709759
 30
0.0
 40
2.778000099999998
100
AcDbArc
 50
189.7823799999999
 51
222.5338800000002
  0
LINE
  5
8C4
330
18
100
AcDbEntity
  8
1
  6
Continuous
100
AcDbLine
 10
329.3503225771718
 20
239.4467928709758
 30
0.0
 11
329.7106055771718
 21
242.1453008709759
 31
0.0
  0
ARC
  5
8C5
330
18
100
AcDbEntity
  8
1
  6
Continuous
100
AcDbCircle
 10
328.8547165771718
 20
239.5129628709759
 30
0.0
 40
0.5
100
AcDbArc
 50
270.0
 51
352.3953100000002
  0
ARC
  5
8C6
330
18
100
AcDbEntity
  8
1
  6
Continuous
100
AcDbCircle
 10
330.7018085771718
 20
242.0129628709759
 30
0.0
 40
1.0
100
AcDbArc
 50
90.00000399999995
 51
172.3953067
  0
ARC
  5
8C7
330
18
100
AcDbEntity
  8
1
  6
Continuous
100
AcDbCircle
 10
331.8018065771718
 20
238.7849618709759
 30
0.0
 40
2.778000099999998
100
AcDbArc
 50
189.7823799999999
 51
222.5338800000002
  0
ARC
  5
8C8
330
18
100
AcDbEntity
  8
1
  6
Continuous
100
AcDbCircle
 10
335.8018065771718
 20
238.7849618709759
 30
0.0
 40
2.778000099999998
100
AcDbArc
 50
189.7823799999999
 51
222.5338800000002
  0
ARC
  5
8C9
330
18
100
AcDbEntity
  8
1
  6
Continuous
100
AcDbCircle
 10
333.3018065771718
 20
238.7849618709759
 30
0.0
 40
2.778000099999998
100
AcDbArc
 50
189.7823799999999
 51
222.5338800000002
  0
ARC
  5
8CA
330
18
100
AcDbEntity
  8
1
  6
Continuous
100
AcDbCircle
 10
321.2018085771719
 20
241.5129628709759
 30
0.0
 40
1.5
100
AcDbArc
 50
33.06801000000008
 51
90.0000519999997
  0
LINE
  5
8CB
330
18
100
AcDbEntity
  8
1
  6
Continuous
100
AcDbLine
 10
325.6839905771718
 20
242.2686178709759
 30
0.0
 11
325.9544135771718
 21
241.2459988709759
 31
0.0
  0
ARC
  5
8CC
330
18
100
AcDbEntity
  8
1
  6
Continuous
100
AcDbCircle
 10
324.7172195771718
 20
242.0129628709759
 30
0.0
 40
1.0
100
AcDbArc
 50
14.81238999999995
 51
90.00000399999995
  0
ARC
  5
8CD
330
18
100
AcDbEntity
  8
1
  6
Continuous
100
AcDbCircle
 10
326.7018085771718
 20
241.3129618709758
 30
0.0
 40
3.0
100
AcDbArc
 50
213.0681
 51
270.0000200000004
  0
LINE
  5
8CE
330
18
100
AcDbEntity
  8
1
  6
Continuous
100
AcDbLine
 10
322.4588425771719
 20
242.3314098709759
 30
0.0
 11
324.1877365771718
 21
239.6760548709759
 31
0.0
  0
ARC
  5
8CF
330
18
100
AcDbEntity
  8
1
  6
Continuous
100
AcDbCircle
 10
360.1651265771717
 20
211.2942939709759
 30
0.0
 40
34.0
100
AcDbArc
 50
180.0
 51
216.4344729815133
  0
ARC
  5
8D0
330
18
100
AcDbEntity
  8
1
  6
Continuous
100
AcDbCircle
 10
331.2018085771719
 20
189.913783910856
 30
0.0
 40
2.0
100
AcDbArc
 50
0.0
 51
36.43447298151357
  0
ARC
  5
8D5
330
18
100
AcDbEntity
  8
1
  6
Continuous
100
AcDbCircle
 10
338.2384905771719
 20
211.2942939709759
 30
0.0
 40
34.0
100
AcDbArc
 50
323.5655270184865
 51
0.0
  0
ARC
  5
8D6
330
18
100
AcDbEntity
  8
1
  6
Continuous
100
AcDbCircle
 10
367.2018085771718
 20
189.913783910856
 30
0.0
 40
2.0
100
AcDbArc
 50
143.5655270184873
 51
180.0
  0
ARC
  5
8DB
330
18
100
AcDbEntity
  8
1
  6
Continuous
100
AcDbCircle
 10
347.8313972249502
 20
211.2942937795324
 30
0.0
 40
21.66627064777832
100
AcDbArc
 50
138.361117225484
 51
180.0000008893413
  0
ARC
  5
8DD
330
18
100
AcDbEntity
  8
1
  6
Continuous
100
AcDbCircle
 10
335.3759039140723
 20
222.3679229808229
 30
0.0
 40
5.0
100
AcDbArc
 50
92.39509946362799
 51
138.3611172254838
  0
ARC
  5
8DE
330
18
100
AcDbEntity
  8
1
  6
Continuous
100
AcDbCircle
 10
350.5722199293936
 20
211.2942937795324
 30
0.0
 40
21.66627064777832
100
AcDbArc
 50
359.9999991106586
 51
41.63888277451579
  0
ARC
  5
8DF
330
18
100
AcDbEntity
  8
1
  6
Continuous
100
AcDbCircle
 10
363.0277132402714
 20
222.3679229808229
 30
0.0
 40
5.0
100
AcDbArc
 50
41.63888277451564
 51
87.60490053637068
  0
ARC
  5
8E0
330
18
100
AcDbEntity
  8
1
  6
Continuous
100
AcDbCircle
 10
347.8313972249502
 20
211.2942937795324
 30
0.0
 40
23.66627064777831
100
AcDbArc
 50
144.0763607890635
 51
180.0000008893413
  0
ARC
  5
8E1
330
18
100
AcDbEntity
  8
1
  6
Continuous
100
AcDbCircle
 10
350.5722199293936
 20
211.2942937795324
 30
0.0
 40
23.66627064777831
100
AcDbArc
 50
359.9999991106586
 51
35.92363921093645
  0
ARC
  5
8E2
330
18
100
AcDbEntity
  8
1
  6
Continuous
100
AcDbCircle
 10
365.6881592695472
 20
222.2459163881191
 30
0.0
 40
5.0
100
AcDbArc
 50
35.92363921093639
 51
87.14367289076724
  0
ARC
  5
8E3
330
18
100
AcDbEntity
  8
1
  6
Continuous
100
AcDbCircle
 10
332.7154578847963
 20
222.2459163881191
 30
0.0
 40
5.0
100
AcDbArc
 50
92.85632710923144
 51
144.0763607890635
  0
ARC
  5
8E4
330
18
100
AcDbEntity
  8
1
  6
Continuous
100
AcDbCircle
 10
456.8353697080498
 20
241.5129628709759
 30
0.0
 40
1.5
100
AcDbArc
 50
33.06801000000008
 51
90.0000519999997
  0
LINE
  5
8E5
330
18
100
AcDbEntity
  8
1
  6
Continuous
100
AcDbLine
 10
449.8353697080498
 20
243.0129628709759
 30
0.0
 11
519.8353697080498
 21
243.0129628709759
 31
0.0
  0
LINE
  5
8E6
330
18
100
AcDbEntity
  8
1
  6
Continuous
100
AcDbLine
 10
449.8353697080498
 20
245.0129628709759
 30
0.0
 11
519.8353697080498
 21
245.0129628709759
 31
0.0
  0
ARC
  5
8E7
330
18
100
AcDbEntity
  8
1
  6
Continuous
100
AcDbCircle
 10
513.8353697080498
 20
192.5129688709759
 30
0.0
 40
11.0
100
AcDbArc
 50
219.97165
 51
9.201580000000056
  0
ARC
  5
8E8
330
18
100
AcDbEntity
  8
1
  6
Continuous
100
AcDbCircle
 10
513.8353697080498
 20
192.5129688709759
 30
0.0
 40
15.84999999999999
100
AcDbArc
 50
173.9197283
 51
55.25350999999986
  0
ARC
  5
8E9
330
18
100
AcDbEntity
  8
1
  6
Continuous
100
AcDbCircle
 10
513.8353697080498
 20
192.5129688709759
 30
0.0
 40
25.0
100
AcDbArc
 50
156.0755309999999
 51
73.09771000000026
  0
LINE
  5
8EA
330
18
100
AcDbEntity
  8
4
  6
CENTER
100
AcDbLine
 10
513.8353697080498
 20
229.9069676709759
 30
0.0
 11
513.8353697080498
 21
154.9069678709759
 31
0.0
  0
ARC
  5
8EB
330
18
100
AcDbEntity
  8
1
  6
Continuous
100
AcDbCircle
 10
513.8353697080498
 20
192.5129688709759
 30
0.0
 40
32.5
100
AcDbArc
 50
149.7548199999997
 51
79.41842000000028
  0
ARC
  5
8EC
330
18
100
AcDbEntity
  8
1
  6
Continuous
100
AcDbCircle
 10
520.1628727080498
 20
228.4955163709759
 30
0.0
 40
1.0
100
AcDbArc
 50
79.9999999999998
 51
189.3264799999999
  0
ARC
  5
8ED
330
18
100
AcDbEntity
  8
1
  6
Continuous
100
AcDbCircle
 10
521.6424457080498
 20
228.7423415709759
 30
0.0
 40
2.5
100
AcDbArc
 50
79.9999999999998
 51
189.2888099999999
  0
LINE
  5
8F0
330
18
100
AcDbEntity
  8
1
  6
Continuous
100
AcDbLine
 10
522.3353697080498
 20
231.1587268709756
 30
0.0
 11
504.1990327080497
 21
234.3566528709759
 31
0.0
  0
LINE
  5
8F4
330
18
100
AcDbEntity
  8
1
  6
Continuous
100
AcDbLine
 10
524.6938177080498
 20
194.2719618709759
 30
0.0
 11
519.1746147080498
 21
228.3425698709759
 31
0.0
  0
LINE
  5
8F5
330
18
100
AcDbEntity
  8
4
  6
CENTER
100
AcDbLine
 10
476.3353697080498
 20
192.5129688709759
 30
0.0
 11
551.3353717080498
 21
192.5129688709759
 31
0.0
  0
LINE
  5
8F9
330
18
100
AcDbEntity
  8
1
  6
Continuous
100
AcDbLine
 10
519.8353697080498
 20
243.0129628709759
 30
0.0
 11
519.8353697080498
 21
245.0129628709759
 31
0.0
  0
LINE
  5
8FA
330
18
100
AcDbEntity
  8
1
  6
Continuous
100
AcDbLine
 10
522.3353697080498
 20
231.1587268709756
 30
0.0
 11
521.9880717080497
 21
229.1891112709758
 31
0.0
  0
LINE
  5
8FB
330
18
100
AcDbEntity
  8
1
  6
Continuous
100
AcDbLine
 10
521.9880717080497
 20
229.1891112709758
 30
0.0
 11
520.3365217080499
 21
229.4803243709758
 31
0.0
  0
LINE
  5
8FC
330
18
100
AcDbEntity
  8
4
  6
CENTER
100
AcDbLine
 10
484.8353697080498
 20
251.0129628709758
 30
0.0
 11
484.8353697080498
 21
202.7462848709759
 31
0.0
  0
LINE
  5
8FD
330
18
100
AcDbEntity
  8
1
  6
Continuous
100
AcDbLine
 10
501.3353697080498
 20
234.1710058709759
 30
0.0
 11
501.3353697080498
 21
192.7086378709759
 31
0.0
  0
LINE
  5
8FE
330
18
100
AcDbEntity
  8
1
  6
Continuous
100
AcDbLine
 10
505.4053847080498
 20
185.4464688709757
 30
0.0
 11
472.6273847080499
 21
224.5490427709759
 31
0.0
  0
LINE
  5
907
330
18
100
AcDbEntity
  8
1
  6
Continuous
100
AcDbLine
 10
507.3353697080498
 20
238.3129618709758
 30
0.0
 11
462.3353697080498
 21
238.3129618709758
 31
0.0
  0
LINE
  5
908
330
18
100
AcDbEntity
  8
1
  6
Continuous
100
AcDbLine
 10
506.3353697080498
 20
236.9069618709759
 30
0.0
 11
463.3353697080498
 21
236.9069618709759
 31
0.0
  0
LINE
  5
909
330
18
100
AcDbEntity
  8
4
  6
CENTER
100
AcDbLine
 10
512.3353697080498
 20
247.3871998709759
 30
0.0
 11
512.3353697080498
 21
240.5619888709759
 31
0.0
  0
ARC
  5
90A
330
18
100
AcDbEntity
  8
1
  6
Continuous
100
AcDbCircle
 10
503.3353697080498
 20
242.0129628709759
 30
0.0
 40
1.0
100
AcDbArc
 50
7.604689999999886
 51
89.99999699999987
  0
LINE
  5
90B
330
18
100
AcDbEntity
  8
1
  6
Continuous
100
AcDbLine
 10
509.8494387080498
 20
239.6760578709759
 30
0.0
 11
511.5783317080498
 21
242.3314138709759
 31
0.0
  0
ARC
  5
90C
330
18
100
AcDbEntity
  8
1
  6
Continuous
100
AcDbCircle
 10
512.8353697080497
 20
241.5129628709759
 30
0.0
 40
1.5
100
AcDbArc
 50
89.99999699999987
 51
146.931981
  0
LINE
  5
90D
330
18
100
AcDbEntity
  8
1
  6
Continuous
100
AcDbLine
 10
508.3531917080498
 20
242.2686158709759
 30
0.0
 11
508.0827647080496
 21
241.2459968709757
 31
0.0
  0
ARC
  5
90E
330
18
100
AcDbEntity
  8
1
  6
Continuous
100
AcDbCircle
 10
505.1824617080498
 20
242.0129628709759
 30
0.0
 40
3.0
100
AcDbArc
 50
270.0
 51
345.18761
  0
ARC
  5
90F
330
18
100
AcDbEntity
  8
1
  6
Continuous
100
AcDbCircle
 10
505.1824617080498
 20
239.5129628709759
 30
0.0
 40
0.5
100
AcDbArc
 50
187.6046900000002
 51
270.0
  0
LINE
  5
910
330
18
100
AcDbEntity
  8
1
  6
Continuous
100
AcDbLine
 10
504.6868557080498
 20
239.4467928709758
 30
0.0
 11
504.3265727080498
 21
242.1453008709759
 31
0.0
  0
ARC
  5
911
330
18
100
AcDbEntity
  8
1
  6
Continuous
100
AcDbCircle
 10
502.2353717080497
 20
238.7849618709759
 30
0.0
 40
2.778000099999998
100
AcDbArc
 50
317.4661199999998
 51
350.21762
  0
ARC
  5
912
330
18
100
AcDbEntity
  8
1
  6
Continuous
100
AcDbCircle
 10
509.7425547080498
 20
233.8868938709758
 30
0.0
 40
0.5
100
AcDbArc
 50
190.8858500000004
 51
259.9999999999998
  0
ARC
  5
913
330
18
100
AcDbEntity
  8
1
  6
Continuous
100
AcDbCircle
 10
507.3353697080498
 20
241.3129618709758
 30
0.0
 40
3.0
100
AcDbArc
 50
270.0000399999999
 51
326.9318999999998
  0
ARC
  5
914
330
18
100
AcDbEntity
  8
1
  6
Continuous
100
AcDbCircle
 10
509.3199587080498
 20
242.0129628709759
 30
0.0
 40
1.0
100
AcDbArc
 50
89.99999699999987
 51
165.187611
  0
ARC
  5
915
330
18
100
AcDbEntity
  8
1
  6
Continuous
100
AcDbCircle
 10
505.3235287080498
 20
233.0370548709759
 30
0.0
 40
4.0
100
AcDbArc
 50
10.88584999999997
 51
75.34724999999986
  0
ARC
  5
916
330
18
100
AcDbEntity
  8
1
  6
Continuous
100
AcDbCircle
 10
494.7353717080495
 20
238.7849618709759
 30
0.0
 40
2.778000099999998
100
AcDbArc
 50
317.4661199999998
 51
350.21762
  0
ARC
  5
917
330
18
100
AcDbEntity
  8
1
  6
Continuous
100
AcDbCircle
 10
500.7353717080498
 20
238.7849618709759
 30
0.0
 40
2.778000099999998
100
AcDbArc
 50
317.4661199999998
 51
350.21762
  0
ARC
  5
918
330
18
100
AcDbEntity
  8
1
  6
Continuous
100
AcDbCircle
 10
498.2353717080497
 20
238.7849618709759
 30
0.0
 40
2.778000099999998
100
AcDbArc
 50
317.4661199999998
 51
350.21762
  0
ARC
  5
919
330
18
100
AcDbEntity
  8
1
  6
Continuous
100
AcDbCircle
 10
494.7353717080495
 20
238.7849618709759
 30
0.0
 40
2.778000099999998
100
AcDbArc
 50
215.9103999999995
 51
222.5338800000002
  0
ARC
  5
91A
330
18
100
AcDbEntity
  8
1
  6
Continuous
100
AcDbCircle
 10
490.2353717080496
 20
238.7849618709759
 30
0.0
 40
2.778000099999998
100
AcDbArc
 50
317.4661199999998
 51
350.21762
  0
ARC
  5
91B
330
18
100
AcDbEntity
  8
1
  6
Continuous
100
AcDbCircle
 10
474.9353677080498
 20
238.7849618709759
 30
0.0
 40
2.778000099999998
100
AcDbArc
 50
189.7823799999999
 51
222.5338800000002
  0
ARC
  5
91C
330
18
100
AcDbEntity
  8
1
  6
Continuous
100
AcDbCircle
 10
467.2628397080496
 20
220.0521894029758
 30
0.0
 40
7.0
100
AcDbArc
 50
39.97165999999987
 51
85.51020699999961
  0
ARC
  5
91F
330
18
100
AcDbEntity
  8
1
  6
Continuous
100
AcDbCircle
 10
484.8353697080498
 20
238.7849618709759
 30
0.0
 40
2.778000099999998
100
AcDbArc
 50
189.7823799999999
 51
222.5338800000002
  0
ARC
  5
920
330
18
100
AcDbEntity
  8
1
  6
Continuous
100
AcDbCircle
 10
479.4353677080498
 20
238.7849618709759
 30
0.0
 40
2.778000099999998
100
AcDbArc
 50
317.4661199999998
 51
346.3905399999999
  0
ARC
  5
921
330
18
100
AcDbEntity
  8
1
  6
Continuous
100
AcDbCircle
 10
484.8353697080498
 20
238.7849618709759
 30
0.0
 40
2.778000099999998
100
AcDbArc
 50
317.4661199999998
 51
350.21762
  0
ARC
  5
922
330
18
100
AcDbEntity
  8
1
  6
Continuous
100
AcDbCircle
 10
490.2353717080496
 20
238.7849618709759
 30
0.0
 40
2.778000099999998
100
AcDbArc
 50
193.60946
 51
222.5338800000002
  0
ARC
  5
923
330
18
100
AcDbEntity
  8
1
  6
Continuous
100
AcDbCircle
 10
474.9353677080498
 20
238.7849618709759
 30
0.0
 40
2.778000099999998
100
AcDbArc
 50
317.4661199999998
 51
324.0895999999995
  0
ARC
  5
924
330
18
100
AcDbEntity
  8
1
  6
Continuous
100
AcDbCircle
 10
479.4353677080498
 20
238.7849618709759
 30
0.0
 40
2.778000099999998
100
AcDbArc
 50
189.7823799999999
 51
222.5338800000002
  0
LINE
  5
925
330
18
100
AcDbEntity
  8
1
  6
Continuous
100
AcDbLine
 10
459.8353797080498
 20
227.6569614709758
 30
0.0
 11
460.3445897080498
 21
234.1418058709757
 31
0.0
  0
LINE
  5
926
330
18
100
AcDbEntity
  8
1
  6
Continuous
100
AcDbLine
 10
467.8108197080498
 20
227.0307102709757
 30
0.0
 11
459.8353797080498
 21
227.6569614709758
 31
0.0
  0
LINE
  5
927
330
18
100
AcDbEntity
  8
1
  6
Continuous
100
AcDbLine
 10
464.9838797080498
 20
239.4467928709758
 30
0.0
 11
465.3441697080498
 21
242.1453008709759
 31
0.0
  0
ARC
  5
928
330
18
100
AcDbEntity
  8
1
  6
Continuous
100
AcDbCircle
 10
467.4353697080498
 20
238.7849618709759
 30
0.0
 40
2.778000099999998
100
AcDbArc
 50
189.7823799999999
 51
222.5338800000002
  0
ARC
  5
929
330
18
100
AcDbEntity
  8
1
  6
Continuous
100
AcDbCircle
 10
466.3353697080498
 20
242.0129628709759
 30
0.0
 40
1.0
100
AcDbArc
 50
90.00000399999995
 51
172.3953067
  0
ARC
  5
92A
330
18
100
AcDbEntity
  8
1
  6
Continuous
100
AcDbCircle
 10
468.9353697080498
 20
238.7849618709759
 30
0.0
 40
2.778000099999998
100
AcDbArc
 50
189.7823799999999
 51
222.5338800000002
  0
ARC
  5
92B
330
18
100
AcDbEntity
  8
1
  6
Continuous
100
AcDbCircle
 10
471.4353677080498
 20
238.7849618709759
 30
0.0
 40
2.778000099999998
100
AcDbArc
 50
189.7823799999999
 51
222.5338800000002
  0
LINE
  5
92C
330
18
100
AcDbEntity
  8
1
  6
Continuous
100
AcDbLine
 10
461.3175597080497
 20
242.2686178709759
 30
0.0
 11
461.5879797080498
 21
241.2459988709759
 31
0.0
  0
ARC
  5
92D
330
18
100
AcDbEntity
  8
1
  6
Continuous
100
AcDbCircle
 10
462.3353697080498
 20
241.3129618709758
 30
0.0
 40
3.0
100
AcDbArc
 50
213.0681
 51
270.0000200000004
  0
ARC
  5
92E
330
18
100
AcDbEntity
  8
1
  6
Continuous
100
AcDbCircle
 10
460.3507797080498
 20
242.0129628709759
 30
0.0
 40
1.0
100
AcDbArc
 50
14.81238999999995
 51
90.00000399999995
  0
ARC
  5
92F
330
18
100
AcDbEntity
  8
1
  6
Continuous
100
AcDbCircle
 10
464.4882797080498
 20
239.5129628709759
 30
0.0
 40
0.5
100
AcDbArc
 50
270.0
 51
352.3953100000002
  0
ARC
  5
930
330
18
100
AcDbEntity
  8
1
  6
Continuous
100
AcDbCircle
 10
464.4882797080498
 20
242.0129628709759
 30
0.0
 40
3.0
100
AcDbArc
 50
194.8123899999999
 51
270.0
  0
ARC
  5
931
330
18
100
AcDbEntity
  8
1
  6
Continuous
100
AcDbCircle
 10
463.3353697080498
 20
233.9069618709759
 30
0.0
 40
3.0
100
AcDbArc
 50
89.99999699999987
 51
175.5102049999998
  0
LINE
  5
932
330
18
100
AcDbEntity
  8
1
  6
Continuous
100
AcDbLine
 10
458.0923997080498
 20
242.3314138709759
 30
0.0
 11
459.8212997080499
 21
239.6760578709759
 31
0.0
  0
LINE
  5
933
330
18
100
AcDbEntity
  8
4
  6
CENTER
100
AcDbLine
 10
457.3353797080498
 20
247.3871998709759
 30
0.0
 11
457.3353797080498
 21
240.5619888709759
 31
0.0
  0
LINE
  5
934
330
18
100
AcDbEntity
  8
1
  6
Continuous
100
AcDbLine
 10
449.8353697080498
 20
243.0129628709759
 30
0.0
 11
449.8353697080498
 21
245.0129628709759
 31
0.0
  0
CIRCLE
  5
937
330
18
100
AcDbEntity
  8
2
  6
Continuous
100
AcDbCircle
 10
513.8353697080498
 20
192.5129688709759
 30
0.0
 40
3.375
  0
CIRCLE
  5
938
330
18
100
AcDbEntity
  8
1
  6
Continuous
100
AcDbCircle
 10
513.8353697080498
 20
192.5129688709759
 30
0.0
 40
4.0
  0
ARC
  5
AA1
330
18
100
AcDbEntity
  8
1
  6
Continuous
100
AcDbCircle
 10
239.5682374462939
 20
50.3063278372598
 30
0.0
 40
9.0
100
AcDbArc
 50
270.0000179999999
 51
358.4425127000002
  0
LINE
  5
AA2
330
18
100
AcDbEntity
  8
4
  6
CENTER
100
AcDbLine
 10
232.2682474462939
 20
49.3063278372598
 30
0.0
 11
249.8682374462938
 21
49.3063278372598
 31
0.0
  0
CIRCLE
  5
AA3
330
18
100
AcDbEntity
  8
1
  6
Continuous
100
AcDbCircle
 10
241.0682374462939
 20
49.3063278372598
 30
0.0
 40
4.400000099999997
  0
ARC
  5
AA4
330
18
100
AcDbEntity
  8
1
  6
Continuous
100
AcDbCircle
 10
239.5682374462939
 20
90.30632783725978
 30
0.0
 40
9.0
100
AcDbArc
 50
1.557489999999965
 51
89.99997999999962
  0
LINE
  5
AA5
330
18
100
AcDbEntity
  8
4
  6
CENTER
100
AcDbLine
 10
232.2682474462939
 20
91.30632783725978
 30
0.0
 11
249.8682374462938
 21
91.30632783725978
 31
0.0
  0
CIRCLE
  5
AA6
330
18
100
AcDbEntity
  8
1
  6
Continuous
100
AcDbCircle
 10
241.0682374462939
 20
91.30632783725978
 30
0.0
 40
4.400000099999997
  0
LINE
  5
AA7
330
18
100
AcDbEntity
  8
4
  6
CENTER
100
AcDbLine
 10
145.3380644462939
 20
70.3063278372598
 30
0.0
 11
250.1657174462939
 21
70.3063278372598
 31
0.0
  0
LINE
  5
AA8
330
18
100
AcDbEntity
  8
4
  6
CENTER
100
AcDbLine
 10
184.5682474462939
 20
40.30632783725978
 30
0.0
 11
184.5682474462939
 21
100.3063198372597
 31
0.0
  0
ARC
  5
AA9
330
18
100
AcDbEntity
  8
1
  6
Continuous
100
AcDbCircle
 10
169.7182494462938
 20
56.3063278372598
 30
0.0
 40
1.0
100
AcDbArc
 50
180.0000199999999
 51
270.0000249999999
  0
LINE
  5
AAA
330
18
100
AcDbEntity
  8
4
  6
CENTER
100
AcDbLine
 10
213.5682474462938
 20
38.88926926655011
 30
0.0
 11
213.5682474462938
 21
103.0584544454514
 31
0.0
  0
LINE
  5
AAB
330
18
100
AcDbEntity
  8
4
  6
CENTER
100
AcDbLine
 10
186.0682474462938
 20
40.50632783725979
 30
0.0
 11
186.0682474462938
 21
58.10631783725978
 31
0.0
  0
ARC
  5
AAF
330
18
100
AcDbEntity
  8
1
  6
Continuous
100
AcDbCircle
 10
221.9210234462939
 20
70.3063278372598
 30
0.0
 40
45.852779
100
AcDbArc
 50
159.577330449743
 51
160.9050910041285
  0
ARC
  5
AB0
330
18
100
AcDbEntity
  8
1
  6
Continuous
100
AcDbCircle
 10
187.5682474462939
 20
90.30632783725978
 30
0.0
 40
9.0
100
AcDbArc
 50
89.99997999999962
 51
167.1604767570985
  0
LINE
  5
AB1
330
18
100
AcDbEntity
  8
4
  6
CENTER
100
AcDbLine
 10
194.8682354462938
 20
91.30632783725978
 30
0.0
 11
177.2682404462939
 21
91.30632783725978
 31
0.0
  0
ARC
  5
AB2
330
18
100
AcDbEntity
  8
1
  6
Continuous
100
AcDbCircle
 10
202.0682474462939
 20
70.3063278372598
 30
0.0
 40
50.0
100
AcDbArc
 50
166.7520399999999
 51
193.252303594896
  0
LINE
  5
AB3
330
18
100
AcDbEntity
  8
1
  6
Continuous
100
AcDbLine
 10
155.3456584462939
 20
83.30632783725979
 30
0.0
 11
213.7908385406891
 21
83.30632783725873
 31
0.0
  0
ARC
  5
AB4
330
18
100
AcDbEntity
  8
1
  6
Continuous
100
AcDbCircle
 10
155.3456584462939
 20
81.3063278372598
 30
0.0
 40
2.0
100
AcDbArc
 50
90.00006000000034
 51
166.7519699999999
  0
LINE
  5
AB5
330
18
100
AcDbEntity
  8
1
  6
Continuous
100
AcDbLine
 10
173.7097994462939
 20
86.30632783725991
 30
0.0
 11
173.7097994462939
 21
88.30632783725979
 31
0.0
  0
LINE
  5
AB7
330
18
100
AcDbEntity
  8
1
  6
Continuous
100
AcDbLine
 10
194.3069027372631
 20
88.30632783725979
 30
0.0
 11
173.7097994462939
 21
88.30632783725979
 31
0.0
  0
LINE
  5
AB8
330
18
100
AcDbEntity
  8
1
  6
Continuous
100
AcDbLine
 10
169.7182494462938
 20
85.3063278372598
 30
0.0
 11
199.418245446294
 21
85.3063278372598
 31
0.0
  0
LINE
  5
AB9
330
18
100
AcDbEntity
  8
1
  6
Continuous
100
AcDbLine
 10
168.7182494462938
 20
83.30632783725979
 30
0.0
 11
168.7182494462938
 21
84.3063278372599
 31
0.0
  0
ARC
  5
ABA
330
18
100
AcDbEntity
  8
1
  6
Continuous
100
AcDbCircle
 10
169.7182494462938
 20
84.3063278372599
 30
0.0
 40
1.0
100
AcDbArc
 50
90.00005000000015
 51
180.0000399999999
  0
LINE
  5
ABB
330
18
100
AcDbEntity
  8
1
  6
Continuous
100
AcDbLine
 10
194.3069027372634
 20
86.30632783725991
 30
0.0
 11
173.7097994462939
 21
86.30632783725991
 31
0.0
  0
LINE
  5
ABC
330
18
100
AcDbEntity
  8
1
  6
Continuous
100
AcDbLine
 10
155.3456584462939
 20
57.3063278372599
 30
0.0
 11
213.7908364462939
 21
57.3063278372599
 31
0.0
  0
ARC
  5
ABE
330
18
100
AcDbEntity
  8
1
  6
Continuous
100
AcDbCircle
 10
155.3456584462939
 20
59.3063278372599
 30
0.0
 40
2.0
100
AcDbArc
 50
193.2481
 51
270.0000249999999
  0
LINE
  5
ABF
330
18
100
AcDbEntity
  8
1
  6
Continuous
100
AcDbLine
 10
169.7182494462938
 20
55.3063278372599
 30
0.0
 11
199.418245446294
 21
55.3063278372599
 31
0.0
  0
LINE
  5
AC0
330
18
100
AcDbEntity
  8
1
  6
Continuous
100
AcDbLine
 10
168.7182494462938
 20
57.3063278372599
 30
0.0
 11
168.7182494462938
 21
56.3063278372598
 31
0.0
  0
LINE
  5
AC1
330
18
100
AcDbEntity
  8
4
  6
CENTER
100
AcDbLine
 10
186.0682474462938
 20
100.1063158372597
 30
0.0
 11
186.0682474462938
 21
82.50632483725985
 31
0.0
  0
LINE
  5
AC2
330
18
100
AcDbEntity
  8
1
  6
Continuous
100
AcDbLine
 10
187.5682394462939
 20
99.30632783725979
 30
0.0
 11
239.5682374462939
 21
99.30632783725979
 31
0.0
  0
ARC
  5
AC5
330
18
100
AcDbEntity
  8
1
  6
Continuous
100
AcDbCircle
 10
186.0682474462938
 20
91.30632783725978
 30
0.0
 40
4.400000099999997
100
AcDbArc
 50
13.13642503361837
 51
166.8635749663815
  0
ARC
  5
AC7
330
18
100
AcDbEntity
  8
1
  6
Continuous
100
AcDbCircle
 10
187.5682474462939
 20
50.3063278372598
 30
0.0
 40
9.0
100
AcDbArc
 50
199.4710855870983
 51
270.0000179999999
  0
LINE
  5
AC8
330
18
100
AcDbEntity
  8
4
  6
CENTER
100
AcDbLine
 10
194.8682354462938
 20
49.3063278372598
 30
0.0
 11
177.2682404462939
 21
49.3063278372598
 31
0.0
  0
LINE
  5
ACA
330
18
100
AcDbEntity
  8
1
  6
Continuous
100
AcDbLine
 10
173.7097994462939
 20
52.3063278372598
 30
0.0
 11
173.7097994462939
 21
54.3063278372598
 31
0.0
  0
LINE
  5
ACB
330
18
100
AcDbEntity
  8
1
  6
Continuous
100
AcDbLine
 10
194.3069027372631
 20
52.3063278372598
 30
0.0
 11
173.7097994462939
 21
52.3063278372598
 31
0.0
  0
LINE
  5
ACC
330
18
100
AcDbEntity
  8
1
  6
Continuous
100
AcDbLine
 10
194.3069027372631
 20
54.3063278372598
 30
0.0
 11
173.7097994462939
 21
54.3063278372598
 31
0.0
  0
LINE
  5
ACD
330
18
100
AcDbEntity
  8
1
  6
Continuous
100
AcDbLine
 10
187.5682394462939
 20
41.3063278372598
 30
0.0
 11
239.5682374462939
 21
41.3063278372598
 31
0.0
  0
LINE
  5
AD0
330
18
100
AcDbEntity
  8
4
  6
CENTER
100
AcDbLine
 10
241.0682374462939
 20
40.50632783725979
 30
0.0
 11
241.0682374462939
 21
58.10631783725978
 31
0.0
  0
ARC
  5
AD1
330
18
100
AcDbEntity
  8
1
  6
Continuous
100
AcDbCircle
 10
350.0262374462938
 20
70.3063278372598
 30
0.0
 40
103.46132
100
AcDbArc
 50
168.7159599999997
 51
191.2841099999999
  0
LINE
  5
AD2
330
18
100
AcDbEntity
  8
4
  6
CENTER
100
AcDbLine
 10
241.0682374462939
 20
100.1063158372597
 30
0.0
 11
241.0682374462939
 21
82.50632483725985
 31
0.0
  0
ARC
  5
AD3
330
18
100
AcDbEntity
  8
1
  6
Continuous
100
AcDbCircle
 10
167.0682474462938
 20
70.3063278372598
 30
0.0
 40
50.0
100
AcDbArc
 50
346.7476964051039
 51
13.24796000000007
  0
ARC
  5
AD4
330
18
100
AcDbEntity
  8
1
  6
Continuous
100
AcDbCircle
 10
213.7908364462939
 20
59.3063278372599
 30
0.0
 40
2.0
100
AcDbArc
 50
269.9999749999999
 51
346.7518999999999
  0
ARC
  5
AD5
330
18
100
AcDbEntity
  8
1
  6
Continuous
100
AcDbCircle
 10
213.7908364462939
 20
81.3063278372598
 30
0.0
 40
2.0
100
AcDbArc
 50
13.24802999999994
 51
89.99993999999965
  0
ARC
  5
AD6
330
18
100
AcDbEntity
  8
1
  6
Continuous
100
AcDbCircle
 10
199.418245446294
 20
56.3063278372598
 30
0.0
 40
1.0
100
AcDbArc
 50
269.9999749999999
 51
359.9999799999998
  0
LINE
  5
AD7
330
18
100
AcDbEntity
  8
1
  6
Continuous
100
AcDbLine
 10
200.4182454462939
 20
57.3063278372599
 30
0.0
 11
200.4182454462939
 21
56.3063278372598
 31
0.0
  0
LINE
  5
AD8
330
18
100
AcDbEntity
  8
1
  6
Continuous
100
AcDbLine
 10
200.4182454462939
 20
83.30632783725979
 30
0.0
 11
200.4182454462939
 21
84.3063278372599
 31
0.0
  0
ARC
  5
AD9
330
18
100
AcDbEntity
  8
1
  6
Continuous
100
AcDbCircle
 10
199.418245446294
 20
84.3063278372599
 30
0.0
 40
1.0
100
AcDbArc
 50
359.9999599999999
 51
89.99994999999984
  0
ARC
  5
ADA
330
18
100
AcDbEntity
  8
1
  6
Continuous
100
AcDbCircle
 10
221.9210234462939
 20
70.3063278372598
 30
0.0
 40
45.852779
100
AcDbArc
 50
199.0949089958712
 51
200.4226695502568
  0
ARC
  5
ADE
330
18
100
AcDbEntity
  8
1
  6
Continuous
100
AcDbCircle
 10
213.5682474462938
 20
70.3063278372598
 30
0.0
 40
24.99999000000002
100
AcDbArc
 50
230.0555176158376
 51
129.9444823841622
  0
ARC
  5
AE0
330
18
100
AcDbEntity
  8
1
  6
Continuous
100
AcDbCircle
 10
213.5682474462938
 20
70.3063278372598
 30
0.0
 40
22.99999000000001
100
AcDbArc
 50
230.0555176158376
 51
129.9444823841618
  0
ARC
  5
AE1
330
18
100
AcDbEntity
  8
1
  6
Continuous
100
AcDbCircle
 10
194.3069027372631
 20
93.30632783725979
 30
0.0
 40
5.0
100
AcDbArc
 50
269.9999999999997
 51
309.9444823841622
  0
ARC
  5
AE2
330
18
100
AcDbEntity
  8
1
  6
Continuous
100
AcDbCircle
 10
194.3069027372631
 20
47.3063278372598
 30
0.0
 40
5.0
100
AcDbArc
 50
50.0555176158377
 51
90.0000000000003
  0
ARC
  5
AE3
330
18
100
AcDbEntity
  8
1
  6
Continuous
100
AcDbCircle
 10
194.3069027372631
 20
47.3063278372598
 30
0.0
 40
7.0
100
AcDbArc
 50
50.05551761583781
 51
90.0
  0
ARC
  5
AE4
330
18
100
AcDbEntity
  8
1
  6
Continuous
100
AcDbCircle
 10
194.3069027372634
 20
93.30632783725993
 30
0.0
 40
7.0
100
AcDbArc
 50
270.0
 51
309.9444823841618
  0
ARC
  5
AE6
330
18
100
AcDbEntity
  8
1
  6
Continuous
100
AcDbCircle
 10
213.5682474462938
 20
70.3063278372598
 30
0.0
 40
28.0
100
AcDbArc
 50
220.00520088486
 51
139.9947991151397
  0
ARC
  5
AE7
330
18
100
AcDbEntity
  8
1
  6
Continuous
100
AcDbCircle
 10
213.5682474462938
 20
70.3063278372598
 30
0.0
 40
18.0
100
AcDbArc
 50
226.2382573073197
 51
133.7617426926837
  0
ARC
  5
AE8
330
18
100
AcDbEntity
  8
1
  6
Continuous
100
AcDbCircle
 10
213.5682474462938
 20
70.3063278372598
 30
0.0
 40
7.5
100
AcDbArc
 50
293.8024380525063
 51
66.19756194749348
  0
LINE
  5
B00
330
18
100
AcDbEntity
  8
1
  6
Continuous
100
AcDbLine
 10
188.5682474462939
 20
85.3063278372598
 30
0.0
 11
188.5682474462939
 21
86.30632783725991
 31
0.0
  0
LINE
  5
B01
330
18
100
AcDbEntity
  8
1
  6
Continuous
100
AcDbLine
 10
180.5682474462938
 20
85.3063278372598
 30
0.0
 11
180.5682474462938
 21
86.30632783725991
 31
0.0
  0
ARC
  5
B03
330
18
100
AcDbEntity
  8
1
  6
Continuous
100
AcDbCircle
 10
181.9000974462938
 20
90.80631785726007
 30
0.0
 40
1.5
100
AcDbArc
 50
359.999989999999
 51
90.0
  0
ARC
  5
B04
330
18
100
AcDbEntity
  8
1
  6
Continuous
100
AcDbCircle
 10
181.9000974462938
 20
89.80631785725984
 30
0.0
 40
1.5
100
AcDbArc
 50
270.0000029999976
 51
0.0000100000009873
  0
LINE
  5
B05
330
18
100
AcDbEntity
  8
1
  6
Continuous
100
AcDbLine
 10
191.2682474462939
 20
92.30631785725984
 30
0.0
 11
177.868247446294
 21
92.30631785725984
 31
0.0
  0
ARC
  5
B07
330
18
100
AcDbEntity
  8
1
  6
Continuous
100
AcDbCircle
 10
191.2682474462939
 20
88.60632785726
 30
0.0
 40
0.30000001
100
AcDbArc
 50
270.0000029999976
 51
0.0000100000009873
  0
ARC
  5
B08
330
18
100
AcDbEntity
  8
1
  6
Continuous
100
AcDbCircle
 10
191.2682474462939
 20
92.00631785726013
 30
0.0
 40
0.30000001
100
AcDbArc
 50
359.999989999999
 51
90.0
  0
LINE
  5
B09
330
18
100
AcDbEntity
  8
1
  6
Continuous
100
AcDbLine
 10
191.568247446294
 20
92.00631785726013
 30
0.0
 11
191.568247446294
 21
88.60632785726
 31
0.0
  0
LINE
  5
B0A
330
18
100
AcDbEntity
  8
1
  6
Continuous
100
AcDbLine
 10
183.400097446294
 20
90.80631785726007
 30
0.0
 11
183.400097446294
 21
89.80631785725984
 31
0.0
  0
LINE
  5
B0B
330
18
100
AcDbEntity
  8
1
  6
Continuous
100
AcDbLine
 10
185.7363974462939
 20
90.80631785726007
 30
0.0
 11
185.7363974462939
 21
89.80631785725984
 31
0.0
  0
LINE
  5
B0C
330
18
100
AcDbEntity
  8
1
  6
Continuous
100
AcDbLine
 10
190.4000974462939
 20
90.80631785726007
 30
0.0
 11
190.4000974462939
 21
89.80631785725984
 31
0.0
  0
ARC
  5
B0D
330
18
100
AcDbEntity
  8
1
  6
Continuous
100
AcDbCircle
 10
187.2363974462939
 20
90.80631785726007
 30
0.0
 40
1.5
100
AcDbArc
 50
90.0
 51
180.0
  0
ARC
  5
B0E
330
18
100
AcDbEntity
  8
1
  6
Continuous
100
AcDbCircle
 10
188.9000974462939
 20
90.80631785726007
 30
0.0
 40
1.5
100
AcDbArc
 50
359.999989999999
 51
90.0
  0
ARC
  5
B0F
330
18
100
AcDbEntity
  8
1
  6
Continuous
100
AcDbCircle
 10
187.2363974462939
 20
89.80631785725984
 30
0.0
 40
1.5
100
AcDbArc
 50
180.0
 51
270.0000029999976
  0
ARC
  5
B10
330
18
100
AcDbEntity
  8
1
  6
Continuous
100
AcDbCircle
 10
188.9000974462939
 20
89.80631785725984
 30
0.0
 40
1.5
100
AcDbArc
 50
270.0000029999976
 51
0.0000100000009873
  0
LINE
  5
B11
330
18
100
AcDbEntity
  8
1
  6
Continuous
100
AcDbLine
 10
178.7363974462939
 20
90.80631785726007
 30
0.0
 11
178.7363974462939
 21
89.80631785725984
 31
0.0
  0
LINE
  5
B12
330
18
100
AcDbEntity
  8
1
  6
Continuous
100
AcDbLine
 10
177.5682474462938
 20
92.00631785726013
 30
0.0
 11
177.5682474462938
 21
88.60632785726
 31
0.0
  0
ARC
  5
B13
330
18
100
AcDbEntity
  8
1
  6
Continuous
100
AcDbCircle
 10
180.2363974462939
 20
90.80631785726007
 30
0.0
 40
1.5
100
AcDbArc
 50
90.0
 51
180.0
  0
ARC
  5
B14
330
18
100
AcDbEntity
  8
1
  6
Continuous
100
AcDbCircle
 10
177.868247446294
 20
92.00631785726013
 30
0.0
 40
0.30000001
100
AcDbArc
 50
90.0
 51
180.0
  0
ARC
  5
B15
330
18
100
AcDbEntity
  8
1
  6
Continuous
100
AcDbCircle
 10
180.2363974462939
 20
89.80631785725984
 30
0.0
 40
1.5
100
AcDbArc
 50
180.0
 51
270.0000029999976
  0
ARC
  5
B16
330
18
100
AcDbEntity
  8
1
  6
Continuous
100
AcDbCircle
 10
177.868247446294
 20
88.60632785726
 30
0.0
 40
0.30000001
100
AcDbArc
 50
180.0
 51
270.0000029999976
  0
LINE
  5
B1B
330
18
100
AcDbEntity
  8
1
  6
Continuous
100
AcDbLine
 10
188.5682274462939
 20
45.93134783725997
 30
0.0
 11
180.5682274462939
 21
45.93134783725997
 31
0.0
  0
LINE
  5
B1C
330
18
100
AcDbEntity
  8
1
  6
Continuous
100
AcDbLine
 10
187.9432274462939
 20
45.30634783725997
 30
0.0
 11
181.1932274462939
 21
45.30634783725997
 31
0.0
  0
LINE
  5
B24
330
18
100
AcDbEntity
  8
1
  6
Continuous
100
AcDbLine
 10
187.9432274462939
 20
45.30634783725997
 30
0.0
 11
188.5682274462939
 21
45.93134783725997
 31
0.0
  0
LINE
  5
B25
330
18
100
AcDbEntity
  8
2
  6
Continuous
100
AcDbLine
 10
187.9432274462939
 20
45.30634783725997
 30
0.0
 11
187.9432274462939
 21
47.30634783725998
 31
0.0
  0
LINE
  5
B26
330
18
100
AcDbEntity
  8
1
  6
Continuous
100
AcDbLine
 10
188.5682274462939
 20
45.93134783725997
 30
0.0
 11
188.5682274462939
 21
47.30634783725998
 31
0.0
  0
LINE
  5
B2A
330
18
100
AcDbEntity
  8
1
  6
Continuous
100
AcDbLine
 10
180.5682274462939
 20
45.93134783725997
 30
0.0
 11
180.5682274462939
 21
47.30634783725998
 31
0.0
  0
LINE
  5
B2B
330
18
100
AcDbEntity
  8
2
  6
Continuous
100
AcDbLine
 10
181.1932274462939
 20
45.30634783725997
 30
0.0
 11
181.1932274462939
 21
47.30634783725998
 31
0.0
  0
LINE
  5
B2C
330
18
100
AcDbEntity
  8
1
  6
Continuous
100
AcDbLine
 10
180.5682474462938
 20
45.93134783725997
 30
0.0
 11
181.1932474462938
 21
45.30634783725997
 31
0.0
  0
LINE
  5
B2D
330
18
100
AcDbEntity
  8
1
  6
Continuous
100
AcDbLine
 10
180.5682474462938
 20
55.3063278372598
 30
0.0
 11
180.5682474462938
 21
54.30632783725968
 31
0.0
  0
LINE
  5
B2E
330
18
100
AcDbEntity
  8
1
  6
Continuous
100
AcDbLine
 10
188.5682474462939
 20
55.3063278372598
 30
0.0
 11
188.5682474462939
 21
54.30632783725968
 31
0.0
  0
ARC
  5
B2F
330
18
100
AcDbEntity
  8
1
  6
Continuous
100
AcDbCircle
 10
186.0682474462938
 20
49.3063278372598
 30
0.0
 40
4.400000099999997
100
AcDbArc
 50
245.3793946890721
 51
294.6206053109273
  0
ARC
  5
D1F
330
18
100
AcDbEntity
  8
1
  6
Continuous
100
AcDbCircle
 10
69.06829344629392
 20
198.5129688709758
 30
0.0
 40
1.5
100
AcDbArc
 50
0.0000399999999616
 51
90.00001800000005
  0
ARC
  5
D20
330
18
100
AcDbEntity
  8
1
  6
Continuous
100
AcDbCircle
 10
69.06829344629392
 20
197.5129688709758
 30
0.0
 40
1.5
100
AcDbArc
 50
270.0000299999997
 51
0.0000199999999843
  0
ARC
  5
D21
330
18
100
AcDbEntity
  8
1
  6
Continuous
100
AcDbCircle
 10
69.06829344629392
 20
194.0129688709759
 30
0.0
 40
1.5
100
AcDbArc
 50
0.0000399999999616
 51
90.00001800000005
  0
ARC
  5
D22
330
18
100
AcDbEntity
  8
1
  6
Continuous
100
AcDbCircle
 10
69.06829344629392
 20
191.0129688709758
 30
0.0
 40
1.5
100
AcDbArc
 50
270.0000299999997
 51
0.0000199999999843
  0
ARC
  5
D23
330
18
100
AcDbEntity
  8
1
  6
Continuous
100
AcDbCircle
 10
69.06829344629392
 20
187.5129668709756
 30
0.0
 40
1.5
100
AcDbArc
 50
0.0000399999999616
 51
90.00001800000005
  0
ARC
  5
D24
330
18
100
AcDbEntity
  8
1
  6
Continuous
100
AcDbCircle
 10
69.06829344629392
 20
186.5129668709759
 30
0.0
 40
1.5
100
AcDbArc
 50
270.0000299999997
 51
0.0000199999999843
  0
LINE
  5
D25
330
18
100
AcDbEntity
  8
1
  6
Continuous
100
AcDbLine
 10
70.56829344629353
 20
198.5129699181734
 30
0.0
 11
70.56829344629386
 21
186.5129673945745
 31
0.0
  0
LINE
  5
D2F
330
18
100
AcDbEntity
  8
1
  6
Continuous
100
AcDbLine
 10
68.06820191753286
 20
200.0129688709757
 30
0.0
 11
69.06829297505503
 21
200.0129688709757
 31
0.0
  0
LINE
  5
D30
330
18
100
AcDbEntity
  8
1
  6
Continuous
100
AcDbLine
 10
68.06820066089574
 20
196.0129688709761
 30
0.0
 11
69.0682942316921
 21
196.0129688709761
 31
0.0
  0
LINE
  5
D31
330
18
100
AcDbEntity
  8
1
  6
Continuous
100
AcDbLine
 10
68.06820191753286
 20
195.5129688709757
 30
0.0
 11
69.06829297505503
 21
195.5129688709757
 31
0.0
  0
LINE
  5
D32
330
18
100
AcDbEntity
  8
1
  6
Continuous
100
AcDbLine
 10
68.06820066089574
 20
189.5129688709761
 30
0.0
 11
69.0682942316921
 21
189.5129688709761
 31
0.0
  0
LINE
  5
D33
330
18
100
AcDbEntity
  8
1
  6
Continuous
100
AcDbLine
 10
68.06820191753286
 20
189.0129668709756
 30
0.0
 11
69.06829297505503
 21
189.0129668709756
 31
0.0
  0
LINE
  5
D34
330
18
100
AcDbEntity
  8
1
  6
Continuous
100
AcDbLine
 10
68.06820066089574
 20
185.0129668709761
 30
0.0
 11
69.0682942316921
 21
185.0129668709761
 31
0.0
  0
LINE
  5
E68
330
18
100
AcDbEntity
  8
1
  6
Continuous
100
AcDbLine
 10
327.2017625771723
 20
186.5129678237783
 30
0.0
 11
327.201762577172
 21
196.823059268867
 31
0.0
  0
ARC
  5
E69
330
18
100
AcDbEntity
  8
1
  6
Continuous
100
AcDbCircle
 10
328.7017625771718
 20
194.0129688709759
 30
0.0
 40
1.5
100
AcDbArc
 50
121.5256185134869
 51
180.0000200000003
  0
LINE
  5
E72
330
18
100
AcDbEntity
  8
1
  6
Continuous
100
AcDbLine
 10
329.7018541059329
 20
189.5129688709759
 30
0.0
 11
328.7017630484108
 21
189.5129688709759
 31
0.0
  0
LINE
  5
E73
330
18
100
AcDbEntity
  8
1
  6
Continuous
100
AcDbLine
 10
329.70185536257
 20
189.0129688709756
 30
0.0
 11
328.7017617917737
 21
189.0129688709756
 31
0.0
  0
LINE
  5
E74
330
18
100
AcDbEntity
  8
1
  6
Continuous
100
AcDbLine
 10
329.7018541059329
 20
185.0129688709759
 30
0.0
 11
328.7017630484108
 21
185.0129688709759
 31
0.0
  0
ARC
  5
E75
330
18
100
AcDbEntity
  8
1
  6
Continuous
100
AcDbCircle
 10
328.7017625771718
 20
191.0129688709758
 30
0.0
 40
1.5
100
AcDbArc
 50
180.0000400000006
 51
270.0000179999992
  0
ARC
  5
E76
330
18
100
AcDbEntity
  8
1
  6
Continuous
100
AcDbCircle
 10
328.7017625771718
 20
187.5129688709759
 30
0.0
 40
1.5
100
AcDbArc
 50
90.00002999999976
 51
180.0000200000003
  0
ARC
  5
E77
330
18
100
AcDbEntity
  8
1
  6
Continuous
100
AcDbCircle
 10
328.7017625771718
 20
186.5129688709759
 30
0.0
 40
1.5
100
AcDbArc
 50
180.0000400000006
 51
270.0000179999992
  0
ARC
  5
E78
330
18
100
AcDbEntity
  8
1
  6
Continuous
100
AcDbCircle
 10
329.7018545771718
 20
186.5129688709759
 30
0.0
 40
1.5
100
AcDbArc
 50
269.9999820000006
 51
359.9999599999991
  0
ARC
  5
E79
330
18
100
AcDbEntity
  8
1
  6
Continuous
100
AcDbCircle
 10
329.7018545771718
 20
191.0129688709758
 30
0.0
 40
1.5
100
AcDbArc
 50
269.9999820000006
 51
328.1906129579878
  0
ARC
  5
E7A
330
18
100
AcDbEntity
  8
1
  6
Continuous
100
AcDbCircle
 10
329.7018545771718
 20
187.5129688709759
 30
0.0
 40
1.5
100
AcDbArc
 50
359.9999799999995
 51
89.99997000000023
  0
ARC
  5
1366
330
18
100
AcDbEntity
  8
1
  6
Continuous
100
AcDbCircle
 10
367.4385210771716
 20
187.0879696709758
 30
0.0
 40
4.363269299999998
100
AcDbArc
 50
335.2749599999969
 51
24.72506100000128
  0
LINE
  5
1367
330
18
100
AcDbEntity
  8
1
  6
Continuous
100
AcDbLine
 10
371.4017854771717
 20
185.2629688709759
 30
0.0
 11
368.0017916771718
 21
185.2629688709759
 31
0.0
  0
ARC
  5
1368
330
18
100
AcDbEntity
  8
1
  6
Continuous
100
AcDbCircle
 10
368.0691200771717
 20
186.2606995709757
 30
0.0
 40
1.0
100
AcDbArc
 50
209.8499999999956
 51
266.1394899999939
  0
LINE
  5
1369
330
18
100
AcDbEntity
  8
1
  6
Continuous
100
AcDbLine
 10
371.4017292771718
 20
185.2630031709757
 30
0.0
 11
372.2017337771718
 21
186.6486485709759
 31
0.0
  0
LINE
  5
136B
330
18
100
AcDbEntity
  8
1
  6
Continuous
100
AcDbLine
 10
371.4017854771717
 20
196.1129673709759
 30
0.0
 11
370.8809065824882
 21
196.1129673709759
 31
0.0
  0
LINE
  5
136C
330
18
100
AcDbEntity
  8
1
  6
Continuous
100
AcDbLine
 10
371.4017854771717
 20
188.9129703709756
 30
0.0
 11
368.0017992771717
 21
188.9129703709756
 31
0.0
  0
ARC
  5
1370
330
18
100
AcDbEntity
  8
1
  6
Continuous
100
AcDbCircle
 10
368.2015854771717
 20
189.8928094709759
 30
0.0
 40
1.0
100
AcDbArc
 50
178.8447899999959
 51
258.4754200000003
  0
ARC
  5
1371
330
18
100
AcDbEntity
  8
1
  6
Continuous
100
AcDbCircle
 10
368.0691200771717
 20
187.9152391709759
 30
0.0
 40
1.0
100
AcDbArc
 50
86.13977100000067
 51
150.1499900000046
  0
LINE
  5
1374
330
18
100
AcDbEntity
  8
1
  6
Continuous
100
AcDbLine
 10
371.98397154966
 20
198.754656259485
 30
0.0
 11
372.2018214771718
 21
198.3773277709759
 31
0.0
  0
ARC
  5
1375
330
18
100
AcDbEntity
  8
1
  6
Continuous
100
AcDbCircle
 10
367.4385210771716
 20
197.9379680709758
 30
0.0
 40
4.363265
100
AcDbArc
 50
335.2749700000011
 51
4.057696429773041
  0
ARC
  5
1376
330
18
100
AcDbEntity
  8
1
  6
Continuous
100
AcDbCircle
 10
355.4018545771718
 20
192.5129688709759
 30
0.0
 40
16.399935
100
AcDbArc
 50
347.3196000000003
 51
12.68041900000089
  0
ARC
  5
1377
330
18
100
AcDbEntity
  8
1
  6
Continuous
100
AcDbCircle
 10
513.8353697080498
 20
192.5129688709758
 30
0.0
 40
7.3000002
100
AcDbArc
 50
27.07506599999929
 51
32.92493399999981
  0
ARC
  5
1378
330
18
100
AcDbEntity
  8
1
  6
Continuous
100
AcDbCircle
 10
513.8353697080498
 20
192.5129688709758
 30
0.0
 40
7.3000002
100
AcDbArc
 50
327.0750699999986
 51
332.9249300000028
  0
CIRCLE
  5
137A
330
18
100
AcDbEntity
  8
1
  6
Continuous
100
AcDbCircle
 10
513.8353697080498
 20
192.5129688709758
 30
0.0
 40
6.400000099999997
  0
LINE
  5
137B
330
18
100
AcDbEntity
  8
1
  6
Continuous
100
AcDbLine
 10
507.7078707080498
 20
188.5451277709758
 30
0.0
 11
513.46286870805
 21
185.2224786709756
 31
0.0
  0
LINE
  5
137C
330
18
100
AcDbEntity
  8
1
  6
Continuous
100
AcDbLine
 10
514.2078707080498
 20
185.2224796709757
 30
0.0
 11
519.9628687080498
 21
188.5451288709757
 31
0.0
  0
ARC
  5
137D
330
18
100
AcDbEntity
  8
1
  6
Continuous
100
AcDbCircle
 10
513.8353697080498
 20
192.5129688709758
 30
0.0
 40
7.3000002
100
AcDbArc
 50
267.0750600000004
 51
272.9249299999987
  0
LINE
  5
137E
330
18
100
AcDbEntity
  8
1
  6
Continuous
100
AcDbLine
 10
507.7078707080498
 20
196.4808099709758
 30
0.0
 11
513.46286870805
 21
199.8034590709758
 31
0.0
  0
ARC
  5
137F
330
18
100
AcDbEntity
  8
1
  6
Continuous
100
AcDbCircle
 10
513.8353697080498
 20
192.5129688709758
 30
0.0
 40
7.3000002
100
AcDbArc
 50
147.0750599999986
 51
152.9249300000028
  0
ARC
  5
1380
330
18
100
AcDbEntity
  8
1
  6
Continuous
100
AcDbCircle
 10
513.8353697080498
 20
192.5129688709758
 30
0.0
 40
7.3000002
100
AcDbArc
 50
207.0750699999971
 51
212.9249400000011
  0
LINE
  5
1381
330
18
100
AcDbEntity
  8
1
  6
Continuous
100
AcDbLine
 10
507.3353697080498
 20
195.8356183709758
 30
0.0
 11
507.3353697080498
 21
189.1903193709758
 31
0.0
  0
ARC
  5
1382
330
18
100
AcDbEntity
  8
1
  6
Continuous
100
AcDbCircle
 10
513.8353697080498
 20
192.5129688709758
 30
0.0
 40
7.3000002
100
AcDbArc
 50
87.07507000000132
 51
92.92493499999904
  0
LINE
  5
1383
330
18
100
AcDbEntity
  8
1
  6
Continuous
100
AcDbLine
 10
514.2078707080498
 20
199.8034580709758
 30
0.0
 11
519.9628687080498
 21
196.4808088709758
 31
0.0
  0
ARC
  5
1384
330
18
100
AcDbEntity
  8
1
  6
Continuous
100
AcDbCircle
 10
513.8353697080498
 20
192.5129688709758
 30
0.0
 40
5.0
100
AcDbArc
 50
342.5423999999988
 51
17.45760300000481
  0
LINE
  5
1385
330
18
100
AcDbEntity
  8
1
  6
Continuous
100
AcDbLine
 10
518.0780107080498
 20
194.0129688709758
 30
0.0
 11
518.60506470805
 21
194.0129688709758
 31
0.0
  0
LINE
  5
1386
330
18
100
AcDbEntity
  8
1
  6
Continuous
100
AcDbLine
 10
518.0780107080498
 20
191.0129688709758
 30
0.0
 11
518.60506470805
 21
191.0129688709758
 31
0.0
  0
LINE
  5
1387
330
18
100
AcDbEntity
  8
1
  6
Continuous
100
AcDbLine
 10
510.4150087080498
 20
195.4372037709758
 30
0.0
 11
510.1514827080499
 21
195.8936458709757
 31
0.0
  0
ARC
  5
1388
330
18
100
AcDbEntity
  8
1
  6
Continuous
100
AcDbCircle
 10
513.8353697080498
 20
192.5129688709758
 30
0.0
 40
5.0
100
AcDbArc
 50
102.542390000006
 51
137.4576000000053
  0
LINE
  5
1389
330
18
100
AcDbEntity
  8
1
  6
Continuous
100
AcDbLine
 10
510.4150087080498
 20
189.5887339709758
 30
0.0
 11
510.1514827080499
 21
189.1322918709757
 31
0.0
  0
LINE
  5
138A
330
18
100
AcDbEntity
  8
1
  6
Continuous
100
AcDbLine
 10
513.0130847080498
 20
196.9372037709758
 30
0.0
 11
512.74955770805
 21
197.3936455709758
 31
0.0
  0
LINE
  5
138B
330
18
100
AcDbEntity
  8
1
  6
Continuous
100
AcDbLine
 10
513.0130847080498
 20
188.0887339709758
 30
0.0
 11
512.74955770805
 21
187.6322921709758
 31
0.0
  0
CIRCLE
  5
138E
330
18
100
AcDbEntity
  8
1
  6
Continuous
100
AcDbCircle
 10
513.8353697080498
 20
192.5129688709759
 30
0.0
 40
4.5
  0
ARC
  5
138F
330
18
100
AcDbEntity
  8
1
  6
Continuous
100
AcDbCircle
 10
513.8353697080498
 20
192.5129688709758
 30
0.0
 40
5.0
100
AcDbArc
 50
222.5423999999946
 51
257.4576099999938
  0
LINE
  5
1390
330
18
100
AcDbEntity
  8
1
  6
Continuous
100
AcDbLine
 10
520.3353697080498
 20
195.8356183709758
 30
0.0
 11
520.3353697080498
 21
189.1903193709758
 31
0.0
  0
LINE
  5
1391
330
18
100
AcDbEntity
  8
1
  6
Continuous
100
AcDbLine
 10
191.0682474462938
 20
47.67332401908674
 30
0.0
 11
190.4325891462939
 21
47.30632783725989
 31
0.0
  0
ARC
  5
1392
330
18
100
AcDbEntity
  8
1
  6
Continuous
100
AcDbCircle
 10
190.0705165774954
 20
51.43899633725983
 30
0.0
 40
1.0
100
AcDbArc
 50
356.1394463623626
 51
60.14999000000472
  0
ARC
  5
1393
330
18
100
AcDbEntity
  8
1
  6
Continuous
100
AcDbCircle
 10
187.8193820118946
 20
61.11851159257525
 30
0.0
 40
13.41218555531533
100
AcDbArc
 50
255.9716747596946
 51
284.0283252403052
  0
LINE
  5
1394
330
18
100
AcDbEntity
  8
1
  6
Continuous
100
AcDbLine
 10
178.0682474462938
 20
47.67332401908663
 30
0.0
 11
178.0682474462938
 21
51.37166793726056
 31
0.0
  0
LINE
  5
1395
330
18
100
AcDbEntity
  8
1
  6
Continuous
100
AcDbLine
 10
184.5682502988721
 20
48.10633439158674
 30
0.0
 11
184.5682502988721
 21
51.50632059158681
 31
0.0
  0
ARC
  5
1397
330
18
100
AcDbEntity
  8
1
  6
Continuous
100
AcDbCircle
 10
181.3171128806931
 20
61.11851159257525
 30
0.0
 40
13.41218555531533
100
AcDbArc
 50
255.9716747596946
 51
284.0283252403052
  0
LINE
  5
1398
330
18
100
AcDbEntity
  8
1
  6
Continuous
100
AcDbLine
 10
178.7038942462938
 20
47.30632783725989
 30
0.0
 11
190.4325891462939
 21
47.30632783725989
 31
0.0
  0
LINE
  5
1399
330
18
100
AcDbEntity
  8
1
  6
Continuous
100
AcDbLine
 10
178.0682474462938
 20
47.67332401908663
 30
0.0
 11
178.7039057462939
 21
47.30632783725989
 31
0.0
  0
ARC
  5
139B
330
18
100
AcDbEntity
  8
1
  6
Continuous
100
AcDbCircle
 10
179.0659783150923
 20
51.43899633725983
 30
0.0
 40
1.0
100
AcDbArc
 50
119.8500099999953
 51
183.8605536375327
  0
ARC
  5
139C
330
18
100
AcDbEntity
  8
1
  6
Continuous
100
AcDbCircle
 10
183.5682445937156
 20
51.43899633725983
 30
0.0
 40
1.0
100
AcDbArc
 50
0.0
 51
60.14999000000472
  0
ARC
  5
139D
330
18
100
AcDbEntity
  8
1
  6
Continuous
100
AcDbCircle
 10
185.5682502988721
 20
51.43899633725983
 30
0.0
 40
1.0
100
AcDbArc
 50
119.8500099999953
 51
180.0
  0
LINE
  5
139E
330
18
100
AcDbEntity
  8
1
  6
Continuous
100
AcDbLine
 10
191.0682474462938
 20
47.67332401908674
 30
0.0
 11
191.0682474462938
 21
51.37166793725874
 31
0.0
  0
ARC
  5
139F
330
18
100
AcDbEntity
  8
1
  6
Continuous
100
AcDbCircle
 10
186.0682474462938
 20
49.3063278372598
 30
0.0
 40
4.400000099999997
100
AcDbArc
 50
295.7591760976518
 51
332.9646012610159
  0
ARC
  5
13A0
330
18
100
AcDbEntity
  8
1
  6
Continuous
100
AcDbCircle
 10
30.33153494629397
 20
187.0879696709758
 30
0.0
 40
4.363269299999998
100
AcDbArc
 50
155.2749389999986
 51
204.725040000003
  0
LINE
  5
13A1
330
18
100
AcDbEntity
  8
1
  6
Continuous
100
AcDbLine
 10
25.56826744629399
 20
186.6486138709759
 30
0.0
 11
25.56826744629399
 21
198.3773098709759
 31
0.0
  0
LINE
  5
13A2
330
18
100
AcDbEntity
  8
1
  6
Continuous
100
AcDbLine
 10
26.36827054629389
 20
185.2629688709759
 30
0.0
 11
29.76826434629384
 21
185.2629688709759
 31
0.0
  0
LINE
  5
13A3
330
18
100
AcDbEntity
  8
1
  6
Continuous
100
AcDbLine
 10
26.36832674629391
 20
185.2630031709757
 30
0.0
 11
25.5683222462938
 21
186.6486485709759
 31
0.0
  0
ARC
  5
13A4
330
18
100
AcDbEntity
  8
1
  6
Continuous
100
AcDbCircle
 10
29.70093594629389
 20
186.2606995709757
 30
0.0
 40
1.0
100
AcDbArc
 50
273.8605100000061
 51
330.1500000000042
  0
ARC
  5
13A6
330
18
100
AcDbEntity
  8
1
  6
Continuous
100
AcDbCircle
 10
30.33153494629397
 20
197.9379680709758
 30
0.0
 40
4.363265
100
AcDbArc
 50
155.2841244409557
 51
204.7250299999989
  0
LINE
  5
13A7
330
18
100
AcDbEntity
  8
1
  6
Continuous
100
AcDbLine
 10
26.36827054629389
 20
188.9129703709756
 30
0.0
 11
29.76825674629395
 21
188.9129703709756
 31
0.0
  0
ARC
  5
13A8
330
18
100
AcDbEntity
  8
1
  6
Continuous
100
AcDbCircle
 10
42.36820144629388
 20
192.5129688709759
 30
0.0
 40
16.399935
100
AcDbArc
 50
167.319580999999
 51
192.6803999999995
  0
ARC
  5
13A9
330
18
100
AcDbEntity
  8
1
  6
Continuous
100
AcDbCircle
 10
29.70093594629389
 20
187.9152391709759
 30
0.0
 40
1.0
100
AcDbArc
 50
29.85000999999531
 51
93.86022899999934
  0
ARC
  5
13AA
330
18
100
AcDbEntity
  8
1
  6
Continuous
100
AcDbCircle
 10
29.56847054629389
 20
189.8928094709759
 30
0.0
 40
1.0
100
AcDbArc
 50
281.5245799999996
 51
1.155210000004073
  0
LINE
  5
13AB
330
18
100
AcDbEntity
  8
1
  6
Continuous
100
AcDbLine
 10
25.78608447380577
 20
198.754656259485
 30
0.0
 11
25.5682345462938
 21
198.3773277709759
 31
0.0
  0
ARC
  5
13AE
330
18
100
AcDbEntity
  8
1
  6
Continuous
100
AcDbCircle
 10
29.70093594629389
 20
198.7652381709759
 30
0.0
 40
1.0
100
AcDbArc
 50
29.84999999999571
 51
86.13948999999392
  0
LINE
  5
13AF
330
18
100
AcDbEntity
  8
1
  6
Continuous
100
AcDbLine
 10
26.36832674629391
 20
199.7629345709759
 30
0.0
 11
25.5683222462938
 21
198.3772891709756
 31
0.0
  0
LINE
  5
13B0
330
18
100
AcDbEntity
  8
1
  6
Continuous
100
AcDbLine
 10
26.36827054629389
 20
199.7629688709759
 30
0.0
 11
29.76826434629384
 21
199.7629688709759
 31
0.0
  0
ARC
  5
13B1
330
18
100
AcDbEntity
  8
1
  6
Continuous
100
AcDbCircle
 10
29.56847054629389
 20
195.1331282709757
 30
0.0
 40
1.0
100
AcDbArc
 50
358.8447899999958
 51
78.47542000000031
  0
ARC
  5
13B2
330
18
100
AcDbEntity
  8
1
  6
Continuous
100
AcDbCircle
 10
29.70093594629389
 20
197.1106985709758
 30
0.0
 40
1.0
100
AcDbArc
 50
266.1397710000006
 51
330.1499900000046
  0
LINE
  5
13B3
330
18
100
AcDbEntity
  8
1
  6
Continuous
100
AcDbLine
 10
26.36827054629389
 20
196.1129673709759
 30
0.0
 11
29.76825674629395
 21
196.1129673709759
 31
0.0
  0
ENDSEC
  0
SECTION
  2
OBJECTS
  0
DICTIONARY
  5
C
330
0
100
AcDbDictionary
281
     1
  3
ACAD_CIP_PREVIOUS_PRODUCT_INFO
350
1437
  3
ACAD_COLOR
350
141A
  3
ACAD_DETAILVIEWSTYLE
350
1433
  3
ACAD_GROUP
350
D
  3
ACAD_LAYOUT
350
94
  3
ACAD_MATERIAL
350
13E8
  3
ACAD_MLEADERSTYLE
350
142F
  3
ACAD_MLINESTYLE
350
1B
  3
ACAD_PLOTSETTINGS
350
95
  3
ACAD_PLOTSTYLENAME
350
13E6
  3
ACAD_SCALELIST
350
141D
  3
ACAD_SECTIONVIEWSTYLE
350
1431
  3
ACAD_TABLESTYLE
350
141B
  3
ACAD_VISUALSTYLE
350
1401
  3
ACDB_RECOMPOSE_DATA
350
1455
  3
AcDbVariableDictionary
350
1448
  3
CONTENTDICTIONARY
350
3D
  3
DWGPROPS
350
1456
  0
DICTIONARY
  5
1438
330
E
100
AcDbDictionary
280
     1
281
     1
  3
ADSK_XREC_LAYER_RECONCILED
360
1439
  0
DICTIONARY
  5
143A
330
4E
100
AcDbDictionary
280
     1
281
     1
  3
ADSK_XREC_LAYER_RECONCILED
360
143B
  0
DICTIONARY
  5
143C
330
4F
100
AcDbDictionary
280
     1
281
     1
  3
ADSK_XREC_LAYER_RECONCILED
360
143D
  0
DICTIONARY
  5
143E
330
50
100
AcDbDictionary
280
     1
281
     1
  3
ADSK_XREC_LAYER_RECONCILED
360
143F
  0
DICTIONARY
  5
1440
330
51
100
AcDbDictionary
280
     1
281
     1
  3
ADSK_XREC_LAYER_RECONCILED
360
1441
  0
DICTIONARY
  5
1442
330
52
100
AcDbDictionary
280
     1
281
     1
  3
ADSK_XREC_LAYER_RECONCILED
360
1443
  0
DICTIONARY
  5
1444
330
53
100
AcDbDictionary
280
     1
281
     1
  3
ADSK_XREC_LAYER_RECONCILED
360
1445
  0
DICTIONARY
  5
1446
330
54
100
AcDbDictionary
280
     1
281
     1
  3
ADSK_XREC_LAYER_RECONCILED
360
1447
  0
DICTIONARY
  5
13C3
330
18
100
AcDbDictionary
281
     1
  3
ACAD_LAYOUTSELFREF
350
13E2
  0
DICTIONARY
  5
13C1
330
15
100
AcDbDictionary
281
     1
  3
ACAD_LAYOUTSELFREF
350
13E1
  0
XRECORD
  5
1437
102
{ACAD_REACTORS
330
C
102
}
330
C
100
AcDbXrecord
280
     1
300
ACDLT
300
2014
300
ACDLT_F_S
  0
DICTIONARY
  5
141A
102
{ACAD_REACTORS
330
C
102
}
330
C
100
AcDbDictionary
281
     1
  0
DICTIONARY
  5
1433
102
{ACAD_REACTORS
330
C
102
}
330
C
100
AcDbDictionary
281
     1
  3
Imperial24
350
1434
  0
DICTIONARY
  5
D
102
{ACAD_REACTORS
330
C
102
}
330
C
100
AcDbDictionary
281
     1
  0
DICTIONARY
  5
94
102
{ACAD_REACTORS
330
C
102
}
330
C
100
AcDbDictionary
281
     1
  3
Model
350
1435
  3
レイアウト1
350
1436
  0
DICTIONARY
  5
13E8
102
{ACAD_REACTORS
330
C
102
}
330
C
100
AcDbDictionary
281
     1
  3
ByBlock
350
13F1
  3
ByLayer
350
13E9
  3
Global
350
13F9
  0
DICTIONARY
  5
142F
102
{ACAD_REACTORS
330
C
102
}
330
C
100
AcDbDictionary
281
     1
  3
Standard
350
1430
  0
DICTIONARY
  5
1B
102
{ACAD_REACTORS
330
C
102
}
330
C
100
AcDbDictionary
281
     1
  3
STANDARD
350
1C
  0
DICTIONARY
  5
95
102
{ACAD_REACTORS
330
C
102
}
330
C
100
AcDbDictionary
281
     1
  0
ACDBDICTIONARYWDFLT
  5
13E6
102
{ACAD_REACTORS
330
C
102
}
330
C
100
AcDbDictionary
281
     1
  3
Normal
350
13E7
100
AcDbDictionaryWithDefault
340
13E7
  0
DICTIONARY
  5
141D
102
{ACAD_REACTORS
330
C
102
}
330
C
100
AcDbDictionary
281
     1
  3
A0
350
141E
  3
A1
350
141F
  3
A2
350
1420
  3
A3
350
1421
  3
A4
350
1422
  3
A5
350
1423
  3
A6
350
1424
  3
A7
350
1425
  3
A8
350
1426
  3
A9
350
1427
  3
B0
350
1428
  3
B1
350
1429
  3
B2
350
142A
  3
B3
350
142B
  3
B4
350
142C
  3
B5
350
142D
  3
B6
350
142E
  0
DICTIONARY
  5
1431
102
{ACAD_REACTORS
330
C
102
}
330
C
100
AcDbDictionary
281
     1
  3
Imperial24
350
1432
  0
DICTIONARY
  5
141B
102
{ACAD_REACTORS
330
C
102
}
330
C
100
AcDbDictionary
281
     1
  3
Standard
350
141C
  0
DICTIONARY
  5
1401
102
{ACAD_REACTORS
330
C
102
}
330
C
100
AcDbDictionary
281
     1
  3
2dWireframe
350
1407
  3
Basic
350
1406
  3
Brighten
350
140D
  3
ColorChange
350
1411
  3
Conceptual
350
140A
  3
Dim
350
140C
  3
EdgeColorOff
350
1419
  3
Facepattern
350
1410
  3
Flat
350
1402
  3
FlatWithEdges
350
1403
  3
Gouraud
350
1404
  3
GouraudWithEdges
350
1405
  3
Hidden
350
1409
  3
JitterOff
350
1417
  3
Linepattern
350
140F
  3
OverhangOff
350
1418
  3
Realistic
350
140B
  3
Shaded
350
1416
  3
Shaded with edges
350
1415
  3
Shades of Gray
350
1412
  3
Sketchy
350
1413
  3
Thicken
350
140E
  3
Wireframe
350
1408
  3
X-Ray
350
1414
  0
XRECORD
  5
1455
102
{ACAD_REACTORS
330
C
102
}
330
C
100
AcDbXrecord
280
     1
 90
        1
330
141C
  0
DICTIONARY
  5
1448
102
{ACAD_REACTORS
330
C
102
}
330
C
100
AcDbDictionary
281
     1
  3
CANNOSCALE
350
144D
  3
CMLEADERSTYLE
350
144A
  3
CTABLESTYLE
350
1449
  3
CVIEWDETAILSTYLE
350
144B
  3
CVIEWSECTIONSTYLE
350
144C
  3
DIMASSOC
350
1450
  3
INDEXCTL
350
144F
  3
SORTENTS
350
144E
  3
XCLIPFRAME
350
1451
  0
DICTIONARY
  5
3D
102
{ACAD_REACTORS
330
C
102
}
330
C
100
AcDbDictionary
281
     1
  0
XRECORD
  5
1456
102
{ACAD_REACTORS
330
C
102
}
330
C
100
AcDbXrecord
280
     1
  1
DWGPROPS COOKIE
  2

  3

  4

  6

  7

  8
Yoshitsune
  9

300
=
301
=
302
=
303
=
304
=
305
=
306
=
307
=
308
=
309
=
 40
0.3749593287037037
 41
2452990.665052443
 42
2457192.689687558
  1

 90
        0
  0
XRECORD
  5
1439
102
{ACAD_REACTORS
330
1438
102
}
330
1438
100
AcDbXrecord
280
     1
290
     1
  0
XRECORD
  5
143B
102
{ACAD_REACTORS
330
143A
102
}
330
143A
100
AcDbXrecord
280
     1
290
     1
  0
XRECORD
  5
143D
102
{ACAD_REACTORS
330
143C
102
}
330
143C
100
AcDbXrecord
280
     1
290
     1
  0
XRECORD
  5
143F
102
{ACAD_REACTORS
330
143E
102
}
330
143E
100
AcDbXrecord
280
     1
290
     1
  0
XRECORD
  5
1441
102
{ACAD_REACTORS
330
1440
102
}
330
1440
100
AcDbXrecord
280
     1
290
     1
  0
XRECORD
  5
1443
102
{ACAD_REACTORS
330
1442
102
}
330
1442
100
AcDbXrecord
280
     1
290
     1
  0
XRECORD
  5
1445
102
{ACAD_REACTORS
330
1444
102
}
330
1444
100
AcDbXrecord
280
     1
290
     1
  0
XRECORD
  5
1447
102
{ACAD_REACTORS
330
1446
102
}
330
1446
100
AcDbXrecord
280
     1
290
     1
  0
XRECORD
  5
13E2
102
{ACAD_REACTORS
330
13C3
102
}
330
13C3
100
AcDbXrecord
280
     1
340
18
  0
XRECORD
  5
13E1
102
{ACAD_REACTORS
330
13C1
102
}
330
13C1
100
AcDbXrecord
280
     1
340
15
  0
ACDBDETAILVIEWSTYLE
  5
1434
102
{ACAD_XDICTIONARY
360
148E
102
}
102
{ACAD_REACTORS
330
1433
102
}
330
1433
100
AcDbModelDocViewStyle
 70
     0
  3
Imperial24
290
     0
100
AcDbDetailViewStyle
 70
     0
 71
     0
 90
        3
 71
     1
340
F
 40
0.24
340
0
 40
0.24
300

 40
0.36
280
     3
 71
     2
340
14
 90
       25
 71
     3
340
F
 40
0.24
 90
        1
 40
0.75
 90
        1
300
%<\AcVar ViewType \f "%tc1">% %<\AcVar ViewDetailId>%\PSCALE %<\AcVar ViewScale \f "%sn">%
 71
     4
340
14
 90
       25
340
14
 90
       25
280
     0
  0
LAYOUT
  5
1435
102
{ACAD_XDICTIONARY
360
1490
102
}
102
{ACAD_REACTORS
330
94
102
}
330
94
100
AcDbPlotSettings
  1

  2
Canon LBP9100C
  4

  6

 40
0.0
 41
0.0
 42
0.0
 43
0.0
 44
0.0
 45
0.0
 46
0.0
 47
0.0
 48
0.0
 49
0.0
140
0.0
141
0.0
142
1.0
143
1.0
 70
  1712
 72
     0
 73
     0
 74
     0
  7

 75
     0
147
1.0
148
0.0
149
0.0
100
AcDbLayout
  1
Model
 70
     1
 71
     0
 10
0.0
 20
0.0
 11
12.0
 21
9.0
 12
0.0
 22
0.0
 32
0.0
 14
0.0
 24
0.0
 34
0.0
 15
0.0
 25
0.0
 35
0.0
146
0.0
 13
0.0
 23
0.0
 33
0.0
 16
1.0
 26
0.0
 36
0.0
 17
0.0
 27
1.0
 37
0.0
 76
     0
330
18
331
13E0
  0
LAYOUT
  5
1436
102
{ACAD_XDICTIONARY
360
1492
102
}
102
{ACAD_REACTORS
330
94
102
}
330
94
100
AcDbPlotSettings
  1

  2
Canon LBP9100C
  4

  6

 40
0.0
 41
0.0
 42
0.0
 43
0.0
 44
0.0
 45
0.0
 46
0.0
 47
0.0
 48
0.0
 49
0.0
140
0.0
141
0.0
142
1.0
143
1.0
 70
   688
 72
     0
 73
     0
 74
     5
  7

 75
    16
147
1.0
148
0.0
149
0.0
100
AcDbLayout
  1
レイアウト1
 70
     1
 71
     1
 10
0.0
 20
0.0
 11
420.0
 21
297.0
 12
0.0
 22
0.0
 32
0.0
 14
1.000000000000000E+20
 24
1.000000000000000E+20
 34
1.000000000000000E+20
 15
-1.000000000000000E+20
 25
-1.000000000000000E+20
 35
-1.000000000000000E+20
146
0.0
 13
0.0
 23
0.0
 33
0.0
 16
1.0
 26
0.0
 36
0.0
 17
0.0
 27
1.0
 37
0.0
 76
     0
330
15
  0
MATERIAL
  5
13F1
102
{ACAD_XDICTIONARY
360
13F2
102
}
102
{ACAD_REACTORS
330
13E8
102
}
330
13E8
100
AcDbMaterial
  1
ByBlock
 72
     0
 43
0.0208333333333333
 43
0.0
 43
0.0
 43
0.0
 43
0.0
 43
0.0208333333333333
 43
0.0
 43
0.0
 43
0.0
 43
0.0
 43
1.0
 43
0.0
 43
0.0
 43
0.0
 43
0.0
 43
1.0
 77
     0
 47
0.0208333333333333
 47
0.0
 47
0.0
 47
0.0
 47
0.0
 47
0.0208333333333333
 47
0.0
 47
0.0
 47
0.0
 47
0.0
 47
1.0
 47
0.0
 47
0.0
 47
0.0
 47
0.0
 47
1.0
171
     0
 49
0.0208333333333333
 49
0.0
 49
0.0
 49
0.0
 49
0.0
 49
0.0208333333333333
 49
0.0
 49
0.0
 49
0.0
 49
0.0
 49
1.0
 49
0.0
 49
0.0
 49
0.0
 49
0.0
 49
1.0
175
     0
142
0.0208333333333333
142
0.0
142
0.0
142
0.0
142
0.0
142
0.0208333333333333
142
0.0
142
0.0
142
0.0
142
0.0
142
1.0
142
0.0
142
0.0
142
0.0
142
0.0
142
1.0
179
     0
144
0.0208333333333333
144
0.0
144
0.0
144
0.0
144
0.0
144
0.0208333333333333
144
0.0
144
0.0
144
0.0
144
0.0
144
1.0
144
0.0
144
0.0
144
0.0
144
0.0
144
1.0
147
0.0208333333333333
147
0.0
147
0.0
147
0.0
147
0.0
147
0.0208333333333333
147
0.0
147
0.0
147
0.0
147
0.0
147
1.0
147
0.0
147
0.0
147
0.0
147
0.0
147
1.0
  0
MATERIAL
  5
13E9
102
{ACAD_XDICTIONARY
360
13EA
102
}
102
{ACAD_REACTORS
330
13E8
102
}
330
13E8
100
AcDbMaterial
  1
ByLayer
 72
     0
 43
0.0208333333333333
 43
0.0
 43
0.0
 43
0.0
 43
0.0
 43
0.0208333333333333
 43
0.0
 43
0.0
 43
0.0
 43
0.0
 43
1.0
 43
0.0
 43
0.0
 43
0.0
 43
0.0
 43
1.0
 77
     0
 47
0.0208333333333333
 47
0.0
 47
0.0
 47
0.0
 47
0.0
 47
0.0208333333333333
 47
0.0
 47
0.0
 47
0.0
 47
0.0
 47
1.0
 47
0.0
 47
0.0
 47
0.0
 47
0.0
 47
1.0
171
     0
 49
0.0208333333333333
 49
0.0
 49
0.0
 49
0.0
 49
0.0
 49
0.0208333333333333
 49
0.0
 49
0.0
 49
0.0
 49
0.0
 49
1.0
 49
0.0
 49
0.0
 49
0.0
 49
0.0
 49
1.0
175
     0
142
0.0208333333333333
142
0.0
142
0.0
142
0.0
142
0.0
142
0.0208333333333333
142
0.0
142
0.0
142
0.0
142
0.0
142
1.0
142
0.0
142
0.0
142
0.0
142
0.0
142
1.0
179
     0
144
0.0208333333333333
144
0.0
144
0.0
144
0.0
144
0.0
144
0.0208333333333333
144
0.0
144
0.0
144
0.0
144
0.0
144
1.0
144
0.0
144
0.0
144
0.0
144
0.0
144
1.0
147
0.0208333333333333
147
0.0
147
0.0
147
0.0
147
0.0
147
0.0208333333333333
147
0.0
147
0.0
147
0.0
147
0.0
147
1.0
147
0.0
147
0.0
147
0.0
147
0.0
147
1.0
  0
MATERIAL
  5
13F9
102
{ACAD_XDICTIONARY
360
13FA
102
}
102
{ACAD_REACTORS
330
13E8
102
}
330
13E8
100
AcDbMaterial
  1
Global
 72
     0
 43
0.0208333333333333
 43
0.0
 43
0.0
 43
0.0
 43
0.0
 43
0.0208333333333333
 43
0.0
 43
0.0
 43
0.0
 43
0.0
 43
1.0
 43
0.0
 43
0.0
 43
0.0
 43
0.0
 43
1.0
 77
     0
 47
0.0208333333333333
 47
0.0
 47
0.0
 47
0.0
 47
0.0
 47
0.0208333333333333
 47
0.0
 47
0.0
 47
0.0
 47
0.0
 47
1.0
 47
0.0
 47
0.0
 47
0.0
 47
0.0
 47
1.0
171
     0
 49
0.0208333333333333
 49
0.0
 49
0.0
 49
0.0
 49
0.0
 49
0.0208333333333333
 49
0.0
 49
0.0
 49
0.0
 49
0.0
 49
1.0
 49
0.0
 49
0.0
 49
0.0
 49
0.0
 49
1.0
175
     0
142
0.0208333333333333
142
0.0
142
0.0
142
0.0
142
0.0
142
0.0208333333333333
142
0.0
142
0.0
142
0.0
142
0.0
142
1.0
142
0.0
142
0.0
142
0.0
142
0.0
142
1.0
179
     0
144
0.0208333333333333
144
0.0
144
0.0
144
0.0
144
0.0
144
0.0208333333333333
144
0.0
144
0.0
144
0.0
144
0.0
144
1.0
144
0.0
144
0.0
144
0.0
144
0.0
144
1.0
147
0.0208333333333333
147
0.0
147
0.0
147
0.0
147
0.0
147
0.0208333333333333
147
0.0
147
0.0
147
0.0
147
0.0
147
1.0
147
0.0
147
0.0
147
0.0
147
0.0
147
1.0
  0
MLEADERSTYLE
  5
1430
102
{ACAD_REACTORS
330
142F
102
}
330
142F
100
AcDbMLeaderStyle
170
     2
171
     1
172
     0
 90
        2
 40
0.0
 41
0.0
173
     1
 91
-1056964608
340
12
 92
       -2
290
     1
 42
0.09
291
     1
 43
0.36
  3
Standard
 44
0.18
300

342
F
174
     1
178
     6
175
     1
176
     0
 93
-1056964608
 45
0.18
292
     0
297
     0
 46
0.18
 94
-1056964608
 47
1.0
 49
1.0
140
1.0
293
     1
141
0.0
294
     1
177
     0
142
1.0
295
     0
296
     0
143
0.125
1001
ACAD_MLEADERVER
1070
     2
  0
MLINESTYLE
  5
1C
102
{ACAD_REACTORS
330
1B
102
}
330
1B
100
AcDbMlineStyle
  2
STANDARD
 70
     0
  3

 62
   256
 51
90.0
 52
90.0
 71
     2
 49
0.5
 62
   256
  6
BYLAYER
 49
-0.5
 62
   256
  6
BYLAYER
  0
ACDBPLACEHOLDER
  5
13E7
102
{ACAD_REACTORS
330
13E6
102
}
330
13E6
  0
SCALE
  5
141E
102
{ACAD_REACTORS
330
141D
102
}
330
141D
100
AcDbScale
 70
     0
300
1:1
140
1.0
141
1.0
290
     1
  0
SCALE
  5
141F
102
{ACAD_REACTORS
330
141D
102
}
330
141D
100
AcDbScale
 70
     0
300
1/128" = 1'-0"
140
0.0078125
141
12.0
290
     0
  0
SCALE
  5
1420
102
{ACAD_REACTORS
330
141D
102
}
330
141D
100
AcDbScale
 70
     0
300
1/64" = 1'-0"
140
0.015625
141
12.0
290
     0
  0
SCALE
  5
1421
102
{ACAD_REACTORS
330
141D
102
}
330
141D
100
AcDbScale
 70
     0
300
1/32" = 1'-0"
140
0.03125
141
12.0
290
     0
  0
SCALE
  5
1422
102
{ACAD_REACTORS
330
141D
102
}
330
141D
100
AcDbScale
 70
     0
300
1/16" = 1'-0"
140
0.0625
141
12.0
290
     0
  0
SCALE
  5
1423
102
{ACAD_REACTORS
330
141D
102
}
330
141D
100
AcDbScale
 70
     0
300
3/32" = 1'-0"
140
0.09375
141
12.0
290
     0
  0
SCALE
  5
1424
102
{ACAD_REACTORS
330
141D
102
}
330
141D
100
AcDbScale
 70
     0
300
1/8" = 1'-0"
140
0.125
141
12.0
290
     0
  0
SCALE
  5
1425
102
{ACAD_REACTORS
330
141D
102
}
330
141D
100
AcDbScale
 70
     0
300
3/16" = 1'-0"
140
0.1875
141
12.0
290
     0
  0
SCALE
  5
1426
102
{ACAD_REACTORS
330
141D
102
}
330
141D
100
AcDbScale
 70
     0
300
1/4" = 1'-0"
140
0.25
141
12.0
290
     0
  0
SCALE
  5
1427
102
{ACAD_REACTORS
330
141D
102
}
330
141D
100
AcDbScale
 70
     0
300
3/8" = 1'-0"
140
0.375
141
12.0
290
     0
  0
SCALE
  5
1428
102
{ACAD_REACTORS
330
141D
102
}
330
141D
100
AcDbScale
 70
     0
300
1/2" = 1'-0"
140
0.5
141
12.0
290
     0
  0
SCALE
  5
1429
102
{ACAD_REACTORS
330
141D
102
}
330
141D
100
AcDbScale
 70
     0
300
3/4" = 1'-0"
140
0.75
141
12.0
290
     0
  0
SCALE
  5
142A
102
{ACAD_REACTORS
330
141D
102
}
330
141D
100
AcDbScale
 70
     0
300
1" = 1'-0"
140
1.0
141
12.0
290
     0
  0
SCALE
  5
142B
102
{ACAD_REACTORS
330
141D
102
}
330
141D
100
AcDbScale
 70
     0
300
1-1/2" = 1'-0"
140
1.5
141
12.0
290
     0
  0
SCALE
  5
142C
102
{ACAD_REACTORS
330
141D
102
}
330
141D
100
AcDbScale
 70
     0
300
3" = 1'-0"
140
3.0
141
12.0
290
     0
  0
SCALE
  5
142D
102
{ACAD_REACTORS
330
141D
102
}
330
141D
100
AcDbScale
 70
     0
300
6" = 1'-0"
140
6.0
141
12.0
290
     0
  0
SCALE
  5
142E
102
{ACAD_REACTORS
330
141D
102
}
330
141D
100
AcDbScale
 70
     0
300
1'-0" = 1'-0"
140
12.0
141
12.0
290
     0
  0
ACDBSECTIONVIEWSTYLE
  5
1432
102
{ACAD_XDICTIONARY
360
148C
102
}
102
{ACAD_REACTORS
330
1431
102
}
330
1431
100
AcDbModelDocViewStyle
 70
     0
  3
Imperial24
290
     0
100
AcDbSectionViewStyle
 70
     0
 71
     0
 90
       78
 71
     1
340
F
 40
0.24
340
0
340
0
 40
0.24
300
I, O, Q, S, X, Z
 40
0.48
 90
        3
 40
0.18
 90
        1
 71
     2
340
14
 90
       25
340
14
 90
       50
 40
0.24
 40
0.0
 40
0.24
 71
     3
340
F
 40
0.24
 90
        1
 40
0.75
 90
        1
300
%<\AcVar ViewType \f "%tc1">% %<\AcVar ViewSectionStartId>%-%<\AcVar ViewSectionEndId>%\PSCALE %<\AcVar ViewScale \f "%sn">%
 71
     4
300
ANSI31
 40
1.0
 90
        0
290
     0
290
     0
 90
        6
 40
0.0
 40
1.570796326794896
 40
0.2617993877991494
 40
1.308996938995747
 40
-0.2617993877991494
 40
1.832595714594046
  0
TABLESTYLE
  5
141C
102
{ACAD_XDICTIONARY
360
1453
102
}
102
{ACAD_REACTORS
330
141B
102
}
330
141B
100
AcDbTableStyle
  3
Standard
 70
     0
 71
     0
 40
0.06
 41
0.06
280
     0
281
     0
  7
STANDARD
140
0.18
170
     2
 62
     0
 63
     7
283
     0
274
    -2
284
     1
 64
     0
275
    -2
285
     1
 65
     0
276
    -2
286
     1
 66
     0
277
    -2
287
     1
 67
     0
278
    -2
288
     1
 68
     0
279
    -2
289
     1
 69
     0
  7
STANDARD
140
0.25
170
     5
 62
     0
 63
     7
283
     0
274
    -2
284
     1
 64
     0
275
    -2
285
     1
 65
     0
276
    -2
286
     1
 66
     0
277
    -2
287
     1
 67
     0
278
    -2
288
     1
 68
     0
279
    -2
289
     1
 69
     0
  7
STANDARD
140
0.18
170
     5
 62
     0
 63
     7
283
     0
274
    -2
284
     1
 64
     0
275
    -2
285
     1
 65
     0
276
    -2
286
     1
 66
     0
277
    -2
287
     1
 67
     0
278
    -2
288
     1
 68
     0
279
    -2
289
     1
 69
     0
  0
VISUALSTYLE
  5
1407
102
{ACAD_XDICTIONARY
360
1464
102
}
102
{ACAD_REACTORS
330
1401
102
}
330
1401
100
AcDbVisualStyle
  2
2dWireframe
 70
     4
 71
     0
 72
     2
 73
     0
 90
        0
 40
-0.6
 41
-30.0
 62
     5
 63
     7
 74
     1
 91
        4
 64
     7
 65
   257
 75
     1
175
     1
 42
1.0
 92
        0
 66
   257
 43
1.0
 76
     1
 77
     6
 78
     2
 67
     7
 79
     5
170
     0
171
     0
290
     0
174
     0
 93
        1
 44
0.0
173
     0
291
     0
 45
0.0
1001
ACAD
1000
AcDbSavedByObjectVersion
1070
     0
  0
VISUALSTYLE
  5
1406
102
{ACAD_XDICTIONARY
360
1462
102
}
102
{ACAD_REACTORS
330
1401
102
}
330
1401
100
AcDbVisualStyle
  2
Basic
 70
     7
 71
     1
 72
     0
 73
     1
 90
        0
 40
-0.6
 41
-30.0
 62
     5
 63
     7
 74
     0
 91
        4
 64
     7
 65
   257
 75
     1
175
     1
 42
1.0
 92
        8
 66
     7
 43
1.0
 76
     1
 77
     6
 78
     2
 67
     7
 79
     5
170
     0
171
     0
290
     0
174
     0
 93
        1
 44
0.0
173
     0
291
     1
 45
0.0
1001
ACAD
1000
AcDbSavedByObjectVersion
1070
     0
  0
VISUALSTYLE
  5
140D
102
{ACAD_XDICTIONARY
360
1470
102
}
102
{ACAD_REACTORS
330
1401
102
}
330
1401
100
AcDbVisualStyle
  2
Brighten
 70
    12
 71
     2
 72
     2
 73
     0
 90
        0
 40
-0.6
 41
-30.0
 62
     5
 63
     7
 74
     1
 91
        4
 64
     7
 65
   257
 75
     1
175
     1
 42
1.0
 92
        8
 66
     7
 43
1.0
 76
     1
 77
     6
 78
     2
 67
     7
 79
     5
170
     0
171
     0
290
     0
174
     0
 93
        1
 44
50.0
173
     0
291
     1
 45
0.0
1001
ACAD
1000
AcDbSavedByObjectVersion
1070
     0
  0
VISUALSTYLE
  5
1411
102
{ACAD_XDICTIONARY
360
1478
102
}
102
{ACAD_REACTORS
330
1401
102
}
330
1401
100
AcDbVisualStyle
  2
ColorChange
 70
    16
 71
     2
 72
     2
 73
     3
 90
        0
 40
-0.6
 41
-30.0
 62
     5
 63
     8
 74
     1
 91
        4
 64
     7
 65
   257
 75
     1
175
     1
 42
1.0
 92
        8
 66
     8
 43
1.0
 76
     1
 77
     6
 78
     2
 67
     7
 79
     5
170
     0
171
     0
290
     0
174
     0
 93
        1
 44
0.0
173
     0
291
     1
 45
0.0
1001
ACAD
1000
AcDbSavedByObjectVersion
1070
     0
  0
VISUALSTYLE
  5
140A
102
{ACAD_XDICTIONARY
360
146A
102
}
102
{ACAD_REACTORS
330
1401
102
}
330
1401
100
AcDbVisualStyle
  2
Conceptual
 70
     9
 71
     3
 72
     2
 73
     0
 90
        0
 40
-0.6
 41
-30.0
 62
     5
 63
     7
 74
     2
 91
        2
 64
     7
 65
   257
 75
     1
175
     1
 42
179.0
 92
        8
 66
     7
 43
1.0
 76
     1
 77
     6
 78
     2
 67
     7
 79
     3
170
     0
171
     0
290
     0
174
     0
 93
        1
 44
0.0
173
     0
291
     0
 45
0.0
1001
ACAD
1000
AcDbSavedByObjectVersion
1070
     0
  0
VISUALSTYLE
  5
140C
102
{ACAD_XDICTIONARY
360
146E
102
}
102
{ACAD_REACTORS
330
1401
102
}
330
1401
100
AcDbVisualStyle
  2
Dim
 70
    11
 71
     2
 72
     2
 73
     0
 90
        0
 40
-0.6
 41
-30.0
 62
     5
 63
     7
 74
     1
 91
        4
 64
     7
 65
   257
 75
     1
175
     1
 42
1.0
 92
        8
 66
     7
 43
1.0
 76
     1
 77
     6
 78
     2
 67
     7
 79
     5
170
     0
171
     0
290
     0
174
     0
 93
        1
 44
-50.0
173
     0
291
     1
 45
0.0
1001
ACAD
1000
AcDbSavedByObjectVersion
1070
     0
  0
VISUALSTYLE
  5
1419
102
{ACAD_XDICTIONARY
360
1488
102
}
102
{ACAD_REACTORS
330
1401
102
}
330
1401
100
AcDbVisualStyle
  2
EdgeColorOff
 70
    22
 71
     2
 72
     2
 73
     0
 90
        0
 40
-0.6
 41
-30.0
 62
     5
 63
     7
 74
     1
 91
        4
 64
     7
 65
   257
 75
     1
175
     1
 42
1.0
 92
        8
 66
     7
 43
1.0
 76
     1
 77
     6
 78
     2
 67
     7
 79
     5
170
     0
171
     0
290
     0
174
     0
 93
        1
 44
0.0
173
     0
291
     1
 45
0.0
1001
ACAD
1000
AcDbSavedByObjectVersion
1070
     0
  0
VISUALSTYLE
  5
1410
102
{ACAD_XDICTIONARY
360
1476
102
}
102
{ACAD_REACTORS
330
1401
102
}
330
1401
100
AcDbVisualStyle
  2
Facepattern
 70
    15
 71
     2
 72
     2
 73
     0
 90
        0
 40
-0.6
 41
-30.0
 62
     5
 63
     7
 74
     1
 91
        4
 64
     7
 65
   257
 75
     1
175
     1
 42
1.0
 92
        8
 66
     7
 43
1.0
 76
     1
 77
     6
 78
     2
 67
     7
 79
     5
170
     0
171
     0
290
     0
174
     0
 93
        1
 44
0.0
173
     0
291
     1
 45
0.0
1001
ACAD
1000
AcDbSavedByObjectVersion
1070
     0
  0
VISUALSTYLE
  5
1402
102
{ACAD_XDICTIONARY
360
145A
102
}
102
{ACAD_REACTORS
330
1401
102
}
330
1401
100
AcDbVisualStyle
  2
Flat
 70
     0
 71
     2
 72
     1
 73
     1
 90
        2
 40
-0.6
 41
30.0
 62
     5
 63
     7
 74
     0
 91
        0
 64
     7
 65
   257
 75
     1
175
     1
 42
1.0
 92
        8
 66
     7
 43
1.0
 76
     1
 77
     6
 78
     2
 67
     7
 79
     5
170
     0
171
     0
290
     0
174
     0
 93
       13
 44
0.0
173
     0
291
     1
 45
0.0
1001
ACAD
1000
AcDbSavedByObjectVersion
1070
     0
  0
VISUALSTYLE
  5
1403
102
{ACAD_XDICTIONARY
360
145C
102
}
102
{ACAD_REACTORS
330
1401
102
}
330
1401
100
AcDbVisualStyle
  2
FlatWithEdges
 70
     1
 71
     2
 72
     1
 73
     1
 90
        2
 40
-0.6
 41
30.0
 62
     5
 63
     7
 74
     1
 91
        0
 64
     7
 65
   257
 75
     1
175
     1
 42
1.0
 92
        0
 66
   257
 43
1.0
 76
     1
 77
     6
 78
     2
 67
     7
 79
     5
170
     0
171
     0
290
     0
174
     0
 93
       13
 44
0.0
173
     0
291
     1
 45
0.0
1001
ACAD
1000
AcDbSavedByObjectVersion
1070
     0
  0
VISUALSTYLE
  5
1404
102
{ACAD_XDICTIONARY
360
145E
102
}
102
{ACAD_REACTORS
330
1401
102
}
330
1401
100
AcDbVisualStyle
  2
Gouraud
 70
     2
 71
     2
 72
     2
 73
     1
 90
        2
 40
-0.6
 41
30.0
 62
     5
 63
     7
 74
     0
 91
        0
 64
     7
 65
   257
 75
     1
175
     1
 42
1.0
 92
        0
 66
     7
 43
1.0
 76
     1
 77
     6
 78
     2
 67
     7
 79
     5
170
     0
171
     0
290
     0
174
     0
 93
       13
 44
0.0
173
     0
291
     1
 45
0.0
1001
ACAD
1000
AcDbSavedByObjectVersion
1070
     0
  0
VISUALSTYLE
  5
1405
102
{ACAD_XDICTIONARY
360
1460
102
}
102
{ACAD_REACTORS
330
1401
102
}
330
1401
100
AcDbVisualStyle
  2
GouraudWithEdges
 70
     3
 71
     2
 72
     2
 73
     1
 90
        2
 40
-0.6
 41
30.0
 62
     5
 63
     7
 74
     1
 91
        0
 64
     7
 65
   257
 75
     1
175
     1
 42
1.0
 92
        0
 66
   257
 43
1.0
 76
     1
 77
     6
 78
     2
 67
     7
 79
     5
170
     0
171
     0
290
     0
174
     0
 93
       13
 44
0.0
173
     0
291
     1
 45
0.0
1001
ACAD
1000
AcDbSavedByObjectVersion
1070
     0
  0
VISUALSTYLE
  5
1409
102
{ACAD_XDICTIONARY
360
1468
102
}
102
{ACAD_REACTORS
330
1401
102
}
330
1401
100
AcDbVisualStyle
  2
Hidden
 70
     6
 71
     1
 72
     2
 73
     2
 90
        0
 40
-0.6
 41
-30.0
 62
     5
 63
     7
 74
     2
 91
        2
 64
     7
 65
   257
 75
     2
175
     1
 42
40.0
 92
        0
 66
   257
 43
1.0
 76
     1
 77
     6
 78
     2
 67
     7
 79
     3
170
     0
171
     0
290
     0
174
     0
 93
        1
 44
0.0
173
     0
291
     0
 45
0.0
1001
ACAD
1000
AcDbSavedByObjectVersion
1070
     0
  0
VISUALSTYLE
  5
1417
102
{ACAD_XDICTIONARY
360
1484
102
}
102
{ACAD_REACTORS
330
1401
102
}
330
1401
100
AcDbVisualStyle
  2
JitterOff
 70
    20
 71
     2
 72
     2
 73
     0
 90
        0
 40
-0.6
 41
-30.0
 62
     5
 63
     7
 74
     1
 91
        4
 64
     7
 65
   257
 75
     1
175
     1
 42
1.0
 92
       10
 66
     7
 43
1.0
 76
     1
 77
     6
 78
     2
 67
     7
 79
     5
170
     0
171
     0
290
     0
174
     0
 93
        1
 44
0.0
173
     0
291
     1
 45
0.0
1001
ACAD
1000
AcDbSavedByObjectVersion
1070
     0
  0
VISUALSTYLE
  5
140F
102
{ACAD_XDICTIONARY
360
1474
102
}
102
{ACAD_REACTORS
330
1401
102
}
330
1401
100
AcDbVisualStyle
  2
Linepattern
 70
    14
 71
     2
 72
     2
 73
     0
 90
        0
 40
-0.6
 41
-30.0
 62
     5
 63
     7
 74
     1
 91
        4
 64
     7
 65
   257
 75
     7
175
     7
 42
1.0
 92
        8
 66
     7
 43
1.0
 76
     1
 77
     6
 78
     2
 67
     7
 79
     5
170
     0
171
     0
290
     0
174
     0
 93
        1
 44
0.0
173
     0
291
     1
 45
0.0
1001
ACAD
1000
AcDbSavedByObjectVersion
1070
     0
  0
VISUALSTYLE
  5
1418
102
{ACAD_XDICTIONARY
360
1486
102
}
102
{ACAD_REACTORS
330
1401
102
}
330
1401
100
AcDbVisualStyle
  2
OverhangOff
 70
    21
 71
     2
 72
     2
 73
     0
 90
        0
 40
-0.6
 41
-30.0
 62
     5
 63
     7
 74
     1
 91
        4
 64
     7
 65
   257
 75
     1
175
     1
 42
1.0
 92
        9
 66
     7
 43
1.0
 76
     1
 77
     6
 78
     2
 67
     7
 79
     5
170
     0
171
     0
290
     0
174
     0
 93
        1
 44
0.0
173
     0
291
     1
 45
0.0
1001
ACAD
1000
AcDbSavedByObjectVersion
1070
     0
  0
VISUALSTYLE
  5
140B
102
{ACAD_XDICTIONARY
360
146C
102
}
102
{ACAD_REACTORS
330
1401
102
}
330
1401
100
AcDbVisualStyle
  2
Realistic
 70
     8
 71
     2
 72
     3
 73
     0
 90
        2
 40
-0.6
 41
30.0
 62
     5
 63
     7
 74
     0
 91
        0
 64
     7
 65
   257
 75
     1
175
     1
 42
1.0
 92
        8
 66
   257
 43
1.0
 76
     1
 77
     6
 78
     2
 67
     7
 79
     3
170
     0
171
     0
290
     0
174
     0
 93
       13
 44
0.0
173
     0
291
     0
 45
0.0
1001
ACAD
1000
AcDbSavedByObjectVersion
1070
     0
  0
VISUALSTYLE
  5
1416
102
{ACAD_XDICTIONARY
360
1482
102
}
102
{ACAD_REACTORS
330
1401
102
}
330
1401
100
AcDbVisualStyle
  2
Shaded
 70
    27
 71
     2
 72
     2
 73
     1
 90
        2
 40
-0.6
 41
30.0
 62
     5
 63
     7
 74
     0
 91
        4
 64
     7
 65
   257
 75
     1
175
     1
 42
1.0
 92
        8
 66
   257
 43
1.0
 76
     1
 77
     6
 78
     2
 67
     8
 79
     3
170
     0
171
     0
290
     0
174
     0
 93
        5
 44
0.0
173
     0
291
     0
 45
0.0
1001
ACAD
1000
AcDbSavedByObjectVersion
1070
     0
  0
VISUALSTYLE
  5
1415
102
{ACAD_XDICTIONARY
360
1480
102
}
102
{ACAD_REACTORS
330
1401
102
}
330
1401
100
AcDbVisualStyle
  2
Shaded with edges
 70
    26
 71
     2
 72
     2
 73
     1
 90
        2
 40
-0.6
 41
30.0
 62
     5
 63
     7
 74
     1
 91
       10
 64
     7
 65
   257
 75
     2
175
     1
 42
1.0
 92
        8
 66
   257
 43
1.0
 76
     1
 77
     6
 78
     2
 67
     7
 79
     3
170
     0
171
     0
290
     0
174
     0
 93
        5
 44
0.0
173
     0
291
     0
 45
0.0
1001
ACAD
1000
AcDbSavedByObjectVersion
1070
     0
  0
VISUALSTYLE
  5
1412
102
{ACAD_XDICTIONARY
360
147A
102
}
102
{ACAD_REACTORS
330
1401
102
}
330
1401
100
AcDbVisualStyle
  2
Shades of Gray
 70
    23
 71
     2
 72
     2
 73
     3
 90
        0
 40
-0.6
 41
-30.0
 62
     5
 63
     7
 74
     2
 91
        2
 64
     7
 65
     7
 75
     1
175
     1
 42
40.0
 92
        8
 66
     7
 43
1.0
 76
     1
 77
     6
 78
     2
 67
     7
 79
     3
170
     0
171
     0
290
     0
174
     0
 93
        1
 44
0.0
173
     0
291
     0
 45
0.0
1001
ACAD
1000
AcDbSavedByObjectVersion
1070
     0
  0
VISUALSTYLE
  5
1413
102
{ACAD_XDICTIONARY
360
147C
102
}
102
{ACAD_REACTORS
330
1401
102
}
330
1401
100
AcDbVisualStyle
  2
Sketchy
 70
    24
 71
     1
 72
     2
 73
     2
 90
        0
 40
-0.6
 41
-30.0
 62
     5
 63
     7
 74
     2
 91
        2
 64
     7
 65
     7
 75
     1
175
     1
 42
40.0
 92
       11
 66
     7
 43
1.0
 76
     1
 77
     6
 78
     2
 67
     7
 79
     6
170
     0
171
     0
290
     0
174
     0
 93
        1
 44
0.0
173
     0
291
     0
 45
0.0
1001
ACAD
1000
AcDbSavedByObjectVersion
1070
     0
  0
VISUALSTYLE
  5
140E
102
{ACAD_XDICTIONARY
360
1472
102
}
102
{ACAD_REACTORS
330
1401
102
}
330
1401
100
AcDbVisualStyle
  2
Thicken
 70
    13
 71
     2
 72
     2
 73
     0
 90
        0
 40
-0.6
 41
-30.0
 62
     5
 63
     7
 74
     1
 91
        4
 64
     7
 65
   257
 75
     1
175
     1
 42
1.0
 92
       12
 66
     7
 43
1.0
 76
     1
 77
     6
 78
     2
 67
     7
 79
     5
170
     0
171
     0
290
     0
174
     0
 93
        1
 44
0.0
173
     0
291
     1
 45
0.0
1001
ACAD
1000
AcDbSavedByObjectVersion
1070
     0
  0
VISUALSTYLE
  5
1408
102
{ACAD_XDICTIONARY
360
1466
102
}
102
{ACAD_REACTORS
330
1401
102
}
330
1401
100
AcDbVisualStyle
  2
Wireframe
 70
     5
 71
     0
 72
     2
 73
     0
 90
        0
 40
-0.6
 41
-30.0
 62
     5
 63
     7
 74
     1
 91
        4
 64
     7
 65
   257
 75
     1
175
     1
 42
1.0
 92
        0
 66
   257
 43
1.0
 76
     1
 77
     6
 78
     2
 67
     7
 79
     3
170
     0
171
     0
290
     0
174
     0
 93
        1
 44
0.0
173
     0
291
     0
 45
0.0
1001
ACAD
1000
AcDbSavedByObjectVersion
1070
     0
  0
VISUALSTYLE
  5
1414
102
{ACAD_XDICTIONARY
360
147E
102
}
102
{ACAD_REACTORS
330
1401
102
}
330
1401
100
AcDbVisualStyle
  2
X-Ray
 70
    25
 71
     2
 72
     2
 73
     1
 90
        1
 40
0.5
 41
-30.0
 62
     5
 63
     7
 74
     1
 91
        0
 64
     7
 65
   257
 75
     1
175
     1
 42
1.0
 92
        8
 66
     7
 43
1.0
 76
     1
 77
     6
 78
     2
 67
     7
 79
     3
170
     0
171
     0
290
     0
174
     0
 93
       13
 44
0.0
173
     0
291
     0
 45
0.0
1001
ACAD
1000
AcDbSavedByObjectVersion
1070
     0
  0
DICTIONARYVAR
  5
144D
102
{ACAD_REACTORS
330
1448
102
}
330
1448
100
DictionaryVariables
280
     0
  1
1:1
  0
DICTIONARYVAR
  5
144A
102
{ACAD_REACTORS
330
1448
102
}
330
1448
100
DictionaryVariables
280
     0
  1
STANDARD
  0
DICTIONARYVAR
  5
1449
102
{ACAD_REACTORS
330
1448
102
}
330
1448
100
DictionaryVariables
280
     0
  1
STANDARD
  0
DICTIONARYVAR
  5
144B
102
{ACAD_REACTORS
330
1448
102
}
330
1448
100
DictionaryVariables
280
     0
  1
Imperial24
  0
DICTIONARYVAR
  5
144C
102
{ACAD_REACTORS
330
1448
102
}
330
1448
100
DictionaryVariables
280
     0
  1
Imperial24
  0
DICTIONARYVAR
  5
1450
102
{ACAD_REACTORS
330
1448
102
}
330
1448
100
DictionaryVariables
280
     0
  1
1
  0
DICTIONARYVAR
  5
144F
102
{ACAD_REACTORS
330
1448
102
}
330
1448
100
DictionaryVariables
280
     0
  1
0
  0
DICTIONARYVAR
  5
144E
102
{ACAD_REACTORS
330
1448
102
}
330
1448
100
DictionaryVariables
280
     0
  1
127
  0
DICTIONARYVAR
  5
1451
102
{ACAD_REACTORS
330
1448
102
}
330
1448
100
DictionaryVariables
280
     0
  1
2
  0
DICTIONARY
  5
148E
330
1434
100
AcDbDictionary
280
     1
281
     1
  3
ACAD_XREC_ROUNDTRIP
360
148F
  0
DICTIONARY
  5
1490
330
1435
100
AcDbDictionary
280
     1
281
     1
  3
ACAD_XREC_ROUNDTRIP
360
1491
  0
DICTIONARY
  5
1492
330
1436
100
AcDbDictionary
280
     1
281
     1
  3
ACAD_XREC_ROUNDTRIP
360
1493
  0
DICTIONARY
  5
13F2
330
13F1
100
AcDbDictionary
280
     1
281
     1
  3
ACAD_XREC_ROUNDTRIP
360
1458
  3
BUMPTILE
360
13F4
  3
DIFFUSETILE
360
13F3
  3
OPACITYTILE
360
13F7
  3
REFLECTIONTILE
360
13F6
  3
REFRACTIONTILE
360
13F8
  3
SPECULARTILE
360
13F5
  0
DICTIONARY
  5
13EA
330
13E9
100
AcDbDictionary
280
     1
281
     1
  3
ACAD_XREC_ROUNDTRIP
360
1457
  3
BUMPTILE
360
13EC
  3
DIFFUSETILE
360
13EB
  3
OPACITYTILE
360
13EF
  3
REFLECTIONTILE
360
13EE
  3
REFRACTIONTILE
360
13F0
  3
SPECULARTILE
360
13ED
  0
DICTIONARY
  5
13FA
330
13F9
100
AcDbDictionary
280
     1
281
     1
  3
ACAD_XREC_ROUNDTRIP
360
1459
  3
BUMPTILE
360
13FC
  3
DIFFUSETILE
360
13FB
  3
OPACITYTILE
360
13FF
  3
REFLECTIONTILE
360
13FE
  3
REFRACTIONTILE
360
1400
  3
SPECULARTILE
360
13FD
  0
DICTIONARY
  5
148C
330
1432
100
AcDbDictionary
280
     1
281
     1
  3
ACAD_XREC_ROUNDTRIP
360
148D
  0
DICTIONARY
  5
1453
330
141C
100
AcDbDictionary
280
     1
281
     1
  3
ACAD_ROUNDTRIP_2008_TABLESTYLE_CELLSTYLEMAP
360
1454
  3
ACAD_XREC_ROUNDTRIP
360
148A
  0
DICTIONARY
  5
1464
330
1407
100
AcDbDictionary
280
     1
281
     1
  3
ACAD_XREC_ROUNDTRIP
360
1465
  0
DICTIONARY
  5
1462
330
1406
100
AcDbDictionary
280
     1
281
     1
  3
ACAD_XREC_ROUNDTRIP
360
1463
  0
DICTIONARY
  5
1470
330
140D
100
AcDbDictionary
280
     1
281
     1
  3
ACAD_XREC_ROUNDTRIP
360
1471
  0
DICTIONARY
  5
1478
330
1411
100
AcDbDictionary
280
     1
281
     1
  3
ACAD_XREC_ROUNDTRIP
360
1479
  0
DICTIONARY
  5
146A
330
140A
100
AcDbDictionary
280
     1
281
     1
  3
ACAD_XREC_ROUNDTRIP
360
146B
  0
DICTIONARY
  5
146E
330
140C
100
AcDbDictionary
280
     1
281
     1
  3
ACAD_XREC_ROUNDTRIP
360
146F
  0
DICTIONARY
  5
1488
330
1419
100
AcDbDictionary
280
     1
281
     1
  3
ACAD_XREC_ROUNDTRIP
360
1489
  0
DICTIONARY
  5
1476
330
1410
100
AcDbDictionary
280
     1
281
     1
  3
ACAD_XREC_ROUNDTRIP
360
1477
  0
DICTIONARY
  5
145A
330
1402
100
AcDbDictionary
280
     1
281
     1
  3
ACAD_XREC_ROUNDTRIP
360
145B
  0
DICTIONARY
  5
145C
330
1403
100
AcDbDictionary
280
     1
281
     1
  3
ACAD_XREC_ROUNDTRIP
360
145D
  0
DICTIONARY
  5
145E
330
1404
100
AcDbDictionary
280
     1
281
     1
  3
ACAD_XREC_ROUNDTRIP
360
145F
  0
DICTIONARY
  5
1460
330
1405
100
AcDbDictionary
280
     1
281
     1
  3
ACAD_XREC_ROUNDTRIP
360
1461
  0
DICTIONARY
  5
1468
330
1409
100
AcDbDictionary
280
     1
281
     1
  3
ACAD_XREC_ROUNDTRIP
360
1469
  0
DICTIONARY
  5
1484
330
1417
100
AcDbDictionary
280
     1
281
     1
  3
ACAD_XREC_ROUNDTRIP
360
1485
  0
DICTIONARY
  5
1474
330
140F
100
AcDbDictionary
280
     1
281
     1
  3
ACAD_XREC_ROUNDTRIP
360
1475
  0
DICTIONARY
  5
1486
330
1418
100
AcDbDictionary
280
     1
281
     1
  3
ACAD_XREC_ROUNDTRIP
360
1487
  0
DICTIONARY
  5
146C
330
140B
100
AcDbDictionary
280
     1
281
     1
  3
ACAD_XREC_ROUNDTRIP
360
146D
  0
DICTIONARY
  5
1482
330
1416
100
AcDbDictionary
280
     1
281
     1
  3
ACAD_XREC_ROUNDTRIP
360
1483
  0
DICTIONARY
  5
1480
330
1415
100
AcDbDictionary
280
     1
281
     1
  3
ACAD_XREC_ROUNDTRIP
360
1481
  0
DICTIONARY
  5
147A
330
1412
100
AcDbDictionary
280
     1
281
     1
  3
ACAD_XREC_ROUNDTRIP
360
147B
  0
DICTIONARY
  5
147C
330
1413
100
AcDbDictionary
280
     1
281
     1
  3
ACAD_XREC_ROUNDTRIP
360
147D
  0
DICTIONARY
  5
1472
330
140E
100
AcDbDictionary
280
     1
281
     1
  3
ACAD_XREC_ROUNDTRIP
360
1473
  0
DICTIONARY
  5
1466
330
1408
100
AcDbDictionary
280
     1
281
     1
  3
ACAD_XREC_ROUNDTRIP
360
1467
  0
DICTIONARY
  5
147E
330
1414
100
AcDbDictionary
280
     1
281
     1
  3
ACAD_XREC_ROUNDTRIP
360
147F
  0
XRECORD
  5
148F
102
{ACAD_REACTORS
330
148E
102
}
330
148E
100
AcDbXrecord
280
     1
102
DISPLAYNAME
  1
Imperial24
102
FLAGS
 90
        0
  0
XRECORD
  5
1491
102
{ACAD_REACTORS
330
1490
102
}
330
1490
100
AcDbXrecord
280
     1
102
SHADEPLOT
 70
     0
102
SHADEPLOTRESLEVEL
 70
     2
102
SHADEPLOTCUSTOMDPI
 70
   300
  0
XRECORD
  5
1493
102
{ACAD_REACTORS
330
1492
102
}
330
1492
100
AcDbXrecord
280
     1
102
SHADEPLOT
 70
     0
102
SHADEPLOTRESLEVEL
 70
     2
102
SHADEPLOTCUSTOMDPI
 70
   300
  0
XRECORD
  5
1458
102
{ACAD_REACTORS
330
13F2
102
}
330
13F2
100
AcDbXrecord
280
     1
102
MATERIAL
148
0.0
149
0.0
149
0.0
 93
        0
 94
      127
282
     0
 72
     0
 77
     0
171
     0
175
     0
179
     0
273
     0
  0
XRECORD
  5
13F4
102
{ACAD_REACTORS
330
13F2
102
}
330
13F2
100
AcDbXrecord
280
     1
270
     1
271
     1
  0
XRECORD
  5
13F3
102
{ACAD_REACTORS
330
13F2
102
}
330
13F2
100
AcDbXrecord
280
     1
270
     1
271
     1
  0
XRECORD
  5
13F7
102
{ACAD_REACTORS
330
13F2
102
}
330
13F2
100
AcDbXrecord
280
     1
270
     1
271
     1
  0
XRECORD
  5
13F6
102
{ACAD_REACTORS
330
13F2
102
}
330
13F2
100
AcDbXrecord
280
     1
270
     1
271
     1
  0
XRECORD
  5
13F8
102
{ACAD_REACTORS
330
13F2
102
}
330
13F2
100
AcDbXrecord
280
     1
270
     1
271
     1
  0
XRECORD
  5
13F5
102
{ACAD_REACTORS
330
13F2
102
}
330
13F2
100
AcDbXrecord
280
     1
270
     1
271
     1
  0
XRECORD
  5
1457
102
{ACAD_REACTORS
330
13EA
102
}
330
13EA
100
AcDbXrecord
280
     1
102
MATERIAL
148
0.0
149
0.0
149
0.0
 93
        0
 94
      127
282
     0
 72
     0
 77
     0
171
     0
175
     0
179
     0
273
     0
  0
XRECORD
  5
13EC
102
{ACAD_REACTORS
330
13EA
102
}
330
13EA
100
AcDbXrecord
280
     1
270
     1
271
     1
  0
XRECORD
  5
13EB
102
{ACAD_REACTORS
330
13EA
102
}
330
13EA
100
AcDbXrecord
280
     1
270
     1
271
     1
  0
XRECORD
  5
13EF
102
{ACAD_REACTORS
330
13EA
102
}
330
13EA
100
AcDbXrecord
280
     1
270
     1
271
     1
  0
XRECORD
  5
13EE
102
{ACAD_REACTORS
330
13EA
102
}
330
13EA
100
AcDbXrecord
280
     1
270
     1
271
     1
  0
XRECORD
  5
13F0
102
{ACAD_REACTORS
330
13EA
102
}
330
13EA
100
AcDbXrecord
280
     1
270
     1
271
     1
  0
XRECORD
  5
13ED
102
{ACAD_REACTORS
330
13EA
102
}
330
13EA
100
AcDbXrecord
280
     1
270
     1
271
     1
  0
XRECORD
  5
1459
102
{ACAD_REACTORS
330
13FA
102
}
330
13FA
100
AcDbXrecord
280
     1
102
MATERIAL
148
0.0
149
0.0
149
0.0
 93
        0
 94
      127
282
     0
 72
     0
 77
     0
171
     0
175
     0
179
     0
273
     0
  0
XRECORD
  5
13FC
102
{ACAD_REACTORS
330
13FA
102
}
330
13FA
100
AcDbXrecord
280
     1
270
     1
271
     1
  0
XRECORD
  5
13FB
102
{ACAD_REACTORS
330
13FA
102
}
330
13FA
100
AcDbXrecord
280
     1
270
     1
271
     1
  0
XRECORD
  5
13FF
102
{ACAD_REACTORS
330
13FA
102
}
330
13FA
100
AcDbXrecord
280
     1
270
     1
271
     1
  0
XRECORD
  5
13FE
102
{ACAD_REACTORS
330
13FA
102
}
330
13FA
100
AcDbXrecord
280
     1
270
     1
271
     1
  0
XRECORD
  5
1400
102
{ACAD_REACTORS
330
13FA
102
}
330
13FA
100
AcDbXrecord
280
     1
270
     1
271
     1
  0
XRECORD
  5
13FD
102
{ACAD_REACTORS
330
13FA
102
}
330
13FA
100
AcDbXrecord
280
     1
270
     1
271
     1
  0
XRECORD
  5
148D
102
{ACAD_REACTORS
330
148C
102
}
330
148C
100
AcDbXrecord
280
     1
102
DISPLAYNAME
  1
Imperial24
102
FLAGS
 90
        0
  0
CELLSTYLEMAP
  5
1454
102
{ACAD_REACTORS
330
1453
102
}
330
1453
100
AcDbCellStyleMap
 90
        3
300
CELLSTYLE
  1
TABLEFORMAT_BEGIN
 90
        5
170
     1
 91
        0
 92
    32768
 62
   257
 93
        1
300
CONTENTFORMAT
  1
CONTENTFORMAT_BEGIN
 90
        0
 91
        0
 92
      512
 93
        0
300

 40
0.0
140
1.0
 94
        5
 62
     0
340
F
144
0.25
309
CONTENTFORMAT_END
171
     0
 94
        0
309
TABLEFORMAT_END
  1
CELLSTYLE_BEGIN
 90
        1
 91
        1
300
_TITLE
309
CELLSTYLE_END
300
CELLSTYLE
  1
TABLEFORMAT_BEGIN
 90
        5
170
     1
 91
        0
 92
        0
 62
   257
 93
        1
300
CONTENTFORMAT
  1
CONTENTFORMAT_BEGIN
 90
        0
 91
        0
 92
      512
 93
        0
300

 40
0.0
140
1.0
 94
        5
 62
     0
340
F
144
0.18
309
CONTENTFORMAT_END
171
     0
 94
        0
309
TABLEFORMAT_END
  1
CELLSTYLE_BEGIN
 90
        2
 91
        1
300
_HEADER
309
CELLSTYLE_END
300
CELLSTYLE
  1
TABLEFORMAT_BEGIN
 90
        5
170
     1
 91
        0
 92
        0
 62
   257
 93
        1
300
CONTENTFORMAT
  1
CONTENTFORMAT_BEGIN
 90
        0
 91
        0
 92
      512
 93
        0
300

 40
0.0
140
1.0
 94
        2
 62
     0
340
F
144
0.18
309
CONTENTFORMAT_END
171
     0
 94
        0
309
TABLEFORMAT_END
  1
CELLSTYLE_BEGIN
 90
        3
 91
        2
300
_DATA
309
CELLSTYLE_END
  0
XRECORD
  5
148A
102
{ACAD_REACTORS
330
1453
102
}
330
1453
100
AcDbXrecord
280
     1
102
ACAD_ROUNDTRIP_PRE2007_TABLESTYLE
 90
      512
 91
        0
  1

 92
      512
 93
        0
  2

 94
      512
 95
        0
  3

  0
XRECORD
  5
1465
102
{ACAD_REACTORS
330
1464
102
}
330
1464
100
AcDbXrecord
280
     1
102
RTVSPost2010Prop28
280
     1
102
RTVSPost2010PropOp28
 70
     1
102
RTVSPost2010Prop29
280
     1
102
RTVSPost2010PropOp29
 70
     1
102
RTVSPost2010Prop30
280
     0
102
RTVSPost2010PropOp30
 70
     1
102
RTVSPost2010Prop31
280
     0
102
RTVSPost2010PropOp31
 70
     1
102
RTVSPost2010Prop32
280
     0
102
RTVSPost2010PropOp32
 70
     1
102
RTVSPost2010Prop33
280
     0
102
RTVSPost2010PropOp33
 70
     1
102
RTVSPost2010Prop34
280
     0
102
RTVSPost2010PropOp34
 70
     1
102
RTVSPost2010Prop35
280
     0
102
RTVSPost2010PropOp35
 70
     1
102
RTVSPost2010Prop36
280
     0
102
RTVSPost2010PropOp36
 70
     1
102
RTVSPost2010Prop37
 90
       50
102
RTVSPost2010PropOp37
 70
     1
102
RTVSPost2010Prop38
140
0.0
102
RTVSPost2010PropOp38
 70
     1
102
RTVSPost2010Prop39
140
1.0
102
RTVSPost2010PropOp39
 70
     1
102
RTVSPost2010Prop40
 90
        0
102
RTVSPost2010PropOp40
 70
     1
102
RTVSPost2010Prop41ColorIndex
 90
       18
102
RTVSPost2010Prop41ColorRGB
 90
        0
102
RTVSPost2010PropOp41
 70
     1
102
RTVSPost2010Prop42
 90
       50
102
RTVSPost2010PropOp42
 70
     1
102
RTVSPost2010Prop43
 90
        3
102
RTVSPost2010PropOp43
 70
     1
102
RTVSPost2010Prop44ColorIndex
 90
        5
102
RTVSPost2010Prop44ColorRGB
 90
      255
102
RTVSPost2010PropOp44
 70
     1
102
RTVSPost2010Prop45
280
     0
102
RTVSPost2010PropOp45
 70
     1
102
RTVSPost2010Prop46
 90
       50
102
RTVSPost2010PropOp46
 70
     1
102
RTVSPost2010Prop47
 90
       50
102
RTVSPost2010PropOp47
 70
     1
102
RTVSPost2010Prop48
 90
       50
102
RTVSPost2010PropOp48
 70
     1
102
RTVSPost2010Prop49
280
     0
102
RTVSPost2010PropOp49
 70
     1
102
RTVSPost2010Prop50
 90
       50
102
RTVSPost2010PropOp50
 70
     1
102
RTVSPost2010Prop51ColorIndex
 90
      256
102
RTVSPost2010Prop51ColorRGB
 90
-16777216
102
RTVSPost2010PropOp51
 70
     0
102
RTVSPost2010Prop52
140
1.0
102
RTVSPost2010PropOp52
 70
     0
102
RTVSPost2010Prop53
 90
        2
102
RTVSPost2010PropOp53
 70
     1
102
RTVSPost2010Prop54
  1
strokes_ogs.tif
102
RTVSPost2010PropOp54
 70
     1
102
RTVSPost2010Prop55
280
     0
102
RTVSPost2010PropOp55
 70
     1
102
RTVSPost2010Prop56
140
1.0
102
RTVSPost2010PropOp56
 70
     1
102
RTVSPost2010Prop57
140
1.0
102
RTVSPost2010PropOp57
 70
     1
102
RTVSPropertyOp0
 70
     1
102
RTVSPropertyOp1
 70
     1
102
RTVSPropertyOp2
 70
     1
102
RTVSPropertyOp3
 70
     1
102
RTVSPropertyOp4
 70
     1
102
RTVSPropertyOp5
 70
     1
102
RTVSPropertyOp6
 70
     1
102
RTVSPropertyOp7
 70
     1
102
RTVSPropertyOp8
 70
     1
102
RTVSPropertyOp9
 70
     1
102
RTVSPropertyOp10
 70
     1
102
RTVSPropertyOp11
 70
     1
102
RTVSPropertyOp12
 70
     1
102
RTVSPropertyOp13
 70
     1
102
RTVSPropertyOp14
 70
     1
102
RTVSPropertyOp15
 70
     1
102
RTVSPropertyOp16
 70
     1
102
RTVSPropertyOp17
 70
     1
102
RTVSPropertyOp18
 70
     1
102
RTVSPropertyOp19
 70
     1
102
RTVSPropertyOp20
 70
     1
102
RTVSPropertyOp21
 70
     1
102
RTVSPropertyOp22
 70
     1
102
RTVSPropertyOp23
 70
     1
102
RTVSPropertyOp24
 70
     1
102
RTVSPropertyOp25
 70
     1
102
RTVSPropertyOp26
 70
     1
102
RTVSPropertyOp27
 70
     1
102
RTVSPropertyOp28
 70
     1
102
RTVSPropertyOp29
 70
     1
102
RTVSPropertyOp30
 70
     1
102
RTVSPropertyOp31
 70
     1
102
RTVSPropertyOp32
 70
     1
102
RTVSPropertyOp33
 70
     1
102
RTVSPropertyOp34
 70
     1
102
RTVSPropertyOp35
 70
     1
102
RTVSPropertyOp36
 70
     1
102
RTVSPropertyOp37
 70
     1
102
RTVSPropertyOp38
 70
     1
102
RTVSPropertyOp39
 70
     1
102
RTVSPropertyOp40
 70
     1
102
RTVSPropertyOp41
 70
     1
102
RTVSPropertyOp42
 70
     1
102
RTVSPropertyOp43
 70
     1
102
RTVSPropertyOp44
 70
     1
102
RTVSPropertyOp45
 70
     1
102
RTVSPropertyOp46
 70
     1
102
RTVSPropertyOp47
 70
     1
102
RTVSPropertyOp48
 70
     1
102
RTVSPropertyOp49
 70
     1
102
RTVSPropertyOp50
 70
     1
102
RTVSPropertyOp51
 70
     0
102
RTVSPropertyOp52
 70
     0
102
RTVSPropertyOp53
 70
     1
102
RTVSPropertyOp54
 70
     1
102
RTVSPropertyOp55
 70
     1
102
RTVSPropertyOp56
 70
     1
102
RTVSPropertyOp57
 70
     1
102
RTVSPropertyOp58
 70
     1
102
RTVSPropertyOp59
 70
     1
102
RTVSPropertyOp60
 70
     1
102
RTVSPropertyOp61
 70
     1
102
RTVSPropertyOp62
 70
     1
  0
XRECORD
  5
1463
102
{ACAD_REACTORS
330
1462
102
}
330
1462
100
AcDbXrecord
280
     1
102
RTVSPost2010Prop28
280
     0
102
RTVSPost2010PropOp28
 70
     1
102
RTVSPost2010Prop29
280
     1
102
RTVSPost2010PropOp29
 70
     1
102
RTVSPost2010Prop30
280
     1
102
RTVSPost2010PropOp30
 70
     1
102
RTVSPost2010Prop31
280
     0
102
RTVSPost2010PropOp31
 70
     1
102
RTVSPost2010Prop32
280
     0
102
RTVSPost2010PropOp32
 70
     1
102
RTVSPost2010Prop33
280
     0
102
RTVSPost2010PropOp33
 70
     1
102
RTVSPost2010Prop34
280
     0
102
RTVSPost2010PropOp34
 70
     1
102
RTVSPost2010Prop35
280
     0
102
RTVSPost2010PropOp35
 70
     1
102
RTVSPost2010Prop36
280
     0
102
RTVSPost2010PropOp36
 70
     1
102
RTVSPost2010Prop37
 90
       50
102
RTVSPost2010PropOp37
 70
     1
102
RTVSPost2010Prop38
140
0.0
102
RTVSPost2010PropOp38
 70
     1
102
RTVSPost2010Prop39
140
1.0
102
RTVSPost2010PropOp39
 70
     1
102
RTVSPost2010Prop40
 90
        0
102
RTVSPost2010PropOp40
 70
     1
102
RTVSPost2010Prop41ColorIndex
 90
       18
102
RTVSPost2010Prop41ColorRGB
 90
        0
102
RTVSPost2010PropOp41
 70
     1
102
RTVSPost2010Prop42
 90
       50
102
RTVSPost2010PropOp42
 70
     1
102
RTVSPost2010Prop43
 90
        3
102
RTVSPost2010PropOp43
 70
     1
102
RTVSPost2010Prop44ColorIndex
 90
        5
102
RTVSPost2010Prop44ColorRGB
 90
      255
102
RTVSPost2010PropOp44
 70
     1
102
RTVSPost2010Prop45
280
     0
102
RTVSPost2010PropOp45
 70
     1
102
RTVSPost2010Prop46
 90
       50
102
RTVSPost2010PropOp46
 70
     1
102
RTVSPost2010Prop47
 90
       50
102
RTVSPost2010PropOp47
 70
     1
102
RTVSPost2010Prop48
 90
       50
102
RTVSPost2010PropOp48
 70
     1
102
RTVSPost2010Prop49
280
     0
102
RTVSPost2010PropOp49
 70
     1
102
RTVSPost2010Prop50
 90
       50
102
RTVSPost2010PropOp50
 70
     1
102
RTVSPost2010Prop51ColorIndex
 90
      256
102
RTVSPost2010Prop51ColorRGB
 90
-16777216
102
RTVSPost2010PropOp51
 70
     0
102
RTVSPost2010Prop52
140
1.0
102
RTVSPost2010PropOp52
 70
     0
102
RTVSPost2010Prop53
 90
        2
102
RTVSPost2010PropOp53
 70
     1
102
RTVSPost2010Prop54
  1
strokes_ogs.tif
102
RTVSPost2010PropOp54
 70
     1
102
RTVSPost2010Prop55
280
     0
102
RTVSPost2010PropOp55
 70
     1
102
RTVSPost2010Prop56
140
1.0
102
RTVSPost2010PropOp56
 70
     1
102
RTVSPost2010Prop57
140
1.0
102
RTVSPost2010PropOp57
 70
     1
102
RTVSPropertyOp0
 70
     1
102
RTVSPropertyOp1
 70
     1
102
RTVSPropertyOp2
 70
     1
102
RTVSPropertyOp3
 70
     1
102
RTVSPropertyOp4
 70
     1
102
RTVSPropertyOp5
 70
     1
102
RTVSPropertyOp6
 70
     1
102
RTVSPropertyOp7
 70
     1
102
RTVSPropertyOp8
 70
     1
102
RTVSPropertyOp9
 70
     1
102
RTVSPropertyOp10
 70
     1
102
RTVSPropertyOp11
 70
     1
102
RTVSPropertyOp12
 70
     1
102
RTVSPropertyOp13
 70
     1
102
RTVSPropertyOp14
 70
     1
102
RTVSPropertyOp15
 70
     1
102
RTVSPropertyOp16
 70
     1
102
RTVSPropertyOp17
 70
     1
102
RTVSPropertyOp18
 70
     1
102
RTVSPropertyOp19
 70
     1
102
RTVSPropertyOp20
 70
     1
102
RTVSPropertyOp21
 70
     1
102
RTVSPropertyOp22
 70
     1
102
RTVSPropertyOp23
 70
     1
102
RTVSPropertyOp24
 70
     1
102
RTVSPropertyOp25
 70
     1
102
RTVSPropertyOp26
 70
     1
102
RTVSPropertyOp27
 70
     1
102
RTVSPropertyOp28
 70
     1
102
RTVSPropertyOp29
 70
     1
102
RTVSPropertyOp30
 70
     1
102
RTVSPropertyOp31
 70
     1
102
RTVSPropertyOp32
 70
     1
102
RTVSPropertyOp33
 70
     1
102
RTVSPropertyOp34
 70
     1
102
RTVSPropertyOp35
 70
     1
102
RTVSPropertyOp36
 70
     1
102
RTVSPropertyOp37
 70
     1
102
RTVSPropertyOp38
 70
     1
102
RTVSPropertyOp39
 70
     1
102
RTVSPropertyOp40
 70
     1
102
RTVSPropertyOp41
 70
     1
102
RTVSPropertyOp42
 70
     1
102
RTVSPropertyOp43
 70
     1
102
RTVSPropertyOp44
 70
     1
102
RTVSPropertyOp45
 70
     1
102
RTVSPropertyOp46
 70
     1
102
RTVSPropertyOp47
 70
     1
102
RTVSPropertyOp48
 70
     1
102
RTVSPropertyOp49
 70
     1
102
RTVSPropertyOp50
 70
     1
102
RTVSPropertyOp51
 70
     0
102
RTVSPropertyOp52
 70
     0
102
RTVSPropertyOp53
 70
     1
102
RTVSPropertyOp54
 70
     1
102
RTVSPropertyOp55
 70
     1
102
RTVSPropertyOp56
 70
     1
102
RTVSPropertyOp57
 70
     1
102
RTVSPropertyOp58
 70
     1
102
RTVSPropertyOp59
 70
     1
102
RTVSPropertyOp60
 70
     1
102
RTVSPropertyOp61
 70
     1
102
RTVSPropertyOp62
 70
     1
  0
XRECORD
  5
1471
102
{ACAD_REACTORS
330
1470
102
}
330
1470
100
AcDbXrecord
280
     1
102
RTVSPost2010Prop28
280
     0
102
RTVSPost2010PropOp28
 70
     1
102
RTVSPost2010Prop29
280
     1
102
RTVSPost2010PropOp29
 70
     1
102
RTVSPost2010Prop30
280
     1
102
RTVSPost2010PropOp30
 70
     1
102
RTVSPost2010Prop31
280
     0
102
RTVSPost2010PropOp31
 70
     1
102
RTVSPost2010Prop32
280
     0
102
RTVSPost2010PropOp32
 70
     1
102
RTVSPost2010Prop33
280
     0
102
RTVSPost2010PropOp33
 70
     1
102
RTVSPost2010Prop34
280
     0
102
RTVSPost2010PropOp34
 70
     1
102
RTVSPost2010Prop35
280
     0
102
RTVSPost2010PropOp35
 70
     1
102
RTVSPost2010Prop36
280
     0
102
RTVSPost2010PropOp36
 70
     1
102
RTVSPost2010Prop37
 90
       50
102
RTVSPost2010PropOp37
 70
     1
102
RTVSPost2010Prop38
140
0.0
102
RTVSPost2010PropOp38
 70
     1
102
RTVSPost2010Prop39
140
1.0
102
RTVSPost2010PropOp39
 70
     1
102
RTVSPost2010Prop40
 90
        0
102
RTVSPost2010PropOp40
 70
     1
102
RTVSPost2010Prop41ColorIndex
 90
       18
102
RTVSPost2010Prop41ColorRGB
 90
        0
102
RTVSPost2010PropOp41
 70
     1
102
RTVSPost2010Prop42
 90
       50
102
RTVSPost2010PropOp42
 70
     1
102
RTVSPost2010Prop43
 90
        3
102
RTVSPost2010PropOp43
 70
     1
102
RTVSPost2010Prop44ColorIndex
 90
        5
102
RTVSPost2010Prop44ColorRGB
 90
      255
102
RTVSPost2010PropOp44
 70
     1
102
RTVSPost2010Prop45
280
     0
102
RTVSPost2010PropOp45
 70
     1
102
RTVSPost2010Prop46
 90
       50
102
RTVSPost2010PropOp46
 70
     1
102
RTVSPost2010Prop47
 90
       50
102
RTVSPost2010PropOp47
 70
     1
102
RTVSPost2010Prop48
 90
       50
102
RTVSPost2010PropOp48
 70
     1
102
RTVSPost2010Prop49
280
     0
102
RTVSPost2010PropOp49
 70
     1
102
RTVSPost2010Prop50
 90
       50
102
RTVSPost2010PropOp50
 70
     1
102
RTVSPost2010Prop51ColorIndex
 90
      256
102
RTVSPost2010Prop51ColorRGB
 90
-16777216
102
RTVSPost2010PropOp51
 70
     0
102
RTVSPost2010Prop52
140
1.0
102
RTVSPost2010PropOp52
 70
     0
102
RTVSPost2010Prop53
 90
        2
102
RTVSPost2010PropOp53
 70
     1
102
RTVSPost2010Prop54
  1
strokes_ogs.tif
102
RTVSPost2010PropOp54
 70
     1
102
RTVSPost2010Prop55
280
     0
102
RTVSPost2010PropOp55
 70
     1
102
RTVSPost2010Prop56
140
1.0
102
RTVSPost2010PropOp56
 70
     1
102
RTVSPost2010Prop57
140
1.0
102
RTVSPost2010PropOp57
 70
     1
102
RTVSPropertyOp0
 70
     1
102
RTVSPropertyOp1
 70
     1
102
RTVSPropertyOp2
 70
     1
102
RTVSPropertyOp3
 70
     1
102
RTVSPropertyOp4
 70
     1
102
RTVSPropertyOp5
 70
     1
102
RTVSPropertyOp6
 70
     1
102
RTVSPropertyOp7
 70
     1
102
RTVSPropertyOp8
 70
     1
102
RTVSPropertyOp9
 70
     1
102
RTVSPropertyOp10
 70
     1
102
RTVSPropertyOp11
 70
     1
102
RTVSPropertyOp12
 70
     1
102
RTVSPropertyOp13
 70
     1
102
RTVSPropertyOp14
 70
     1
102
RTVSPropertyOp15
 70
     1
102
RTVSPropertyOp16
 70
     1
102
RTVSPropertyOp17
 70
     1
102
RTVSPropertyOp18
 70
     1
102
RTVSPropertyOp19
 70
     1
102
RTVSPropertyOp20
 70
     1
102
RTVSPropertyOp21
 70
     1
102
RTVSPropertyOp22
 70
     1
102
RTVSPropertyOp23
 70
     1
102
RTVSPropertyOp24
 70
     1
102
RTVSPropertyOp25
 70
     1
102
RTVSPropertyOp26
 70
     1
102
RTVSPropertyOp27
 70
     1
102
RTVSPropertyOp28
 70
     1
102
RTVSPropertyOp29
 70
     1
102
RTVSPropertyOp30
 70
     1
102
RTVSPropertyOp31
 70
     1
102
RTVSPropertyOp32
 70
     1
102
RTVSPropertyOp33
 70
     1
102
RTVSPropertyOp34
 70
     1
102
RTVSPropertyOp35
 70
     1
102
RTVSPropertyOp36
 70
     1
102
RTVSPropertyOp37
 70
     1
102
RTVSPropertyOp38
 70
     1
102
RTVSPropertyOp39
 70
     1
102
RTVSPropertyOp40
 70
     1
102
RTVSPropertyOp41
 70
     1
102
RTVSPropertyOp42
 70
     1
102
RTVSPropertyOp43
 70
     1
102
RTVSPropertyOp44
 70
     1
102
RTVSPropertyOp45
 70
     1
102
RTVSPropertyOp46
 70
     1
102
RTVSPropertyOp47
 70
     1
102
RTVSPropertyOp48
 70
     1
102
RTVSPropertyOp49
 70
     1
102
RTVSPropertyOp50
 70
     1
102
RTVSPropertyOp51
 70
     0
102
RTVSPropertyOp52
 70
     0
102
RTVSPropertyOp53
 70
     1
102
RTVSPropertyOp54
 70
     1
102
RTVSPropertyOp55
 70
     1
102
RTVSPropertyOp56
 70
     1
102
RTVSPropertyOp57
 70
     1
102
RTVSPropertyOp58
 70
     1
102
RTVSPropertyOp59
 70
     1
102
RTVSPropertyOp60
 70
     1
102
RTVSPropertyOp61
 70
     1
102
RTVSPropertyOp62
 70
     1
  0
XRECORD
  5
1479
102
{ACAD_REACTORS
330
1478
102
}
330
1478
100
AcDbXrecord
280
     1
102
RTVSPost2010Prop28
280
     0
102
RTVSPost2010PropOp28
 70
     1
102
RTVSPost2010Prop29
280
     1
102
RTVSPost2010PropOp29
 70
     1
102
RTVSPost2010Prop30
280
     1
102
RTVSPost2010PropOp30
 70
     1
102
RTVSPost2010Prop31
280
     0
102
RTVSPost2010PropOp31
 70
     1
102
RTVSPost2010Prop32
280
     0
102
RTVSPost2010PropOp32
 70
     1
102
RTVSPost2010Prop33
280
     0
102
RTVSPost2010PropOp33
 70
     1
102
RTVSPost2010Prop34
280
     0
102
RTVSPost2010PropOp34
 70
     1
102
RTVSPost2010Prop35
280
     0
102
RTVSPost2010PropOp35
 70
     1
102
RTVSPost2010Prop36
280
     0
102
RTVSPost2010PropOp36
 70
     1
102
RTVSPost2010Prop37
 90
       50
102
RTVSPost2010PropOp37
 70
     1
102
RTVSPost2010Prop38
140
0.0
102
RTVSPost2010PropOp38
 70
     1
102
RTVSPost2010Prop39
140
1.0
102
RTVSPost2010PropOp39
 70
     1
102
RTVSPost2010Prop40
 90
        0
102
RTVSPost2010PropOp40
 70
     1
102
RTVSPost2010Prop41ColorIndex
 90
       18
102
RTVSPost2010Prop41ColorRGB
 90
        0
102
RTVSPost2010PropOp41
 70
     1
102
RTVSPost2010Prop42
 90
       50
102
RTVSPost2010PropOp42
 70
     1
102
RTVSPost2010Prop43
 90
        3
102
RTVSPost2010PropOp43
 70
     1
102
RTVSPost2010Prop44ColorIndex
 90
        5
102
RTVSPost2010Prop44ColorRGB
 90
      255
102
RTVSPost2010PropOp44
 70
     1
102
RTVSPost2010Prop45
280
     0
102
RTVSPost2010PropOp45
 70
     1
102
RTVSPost2010Prop46
 90
       50
102
RTVSPost2010PropOp46
 70
     1
102
RTVSPost2010Prop47
 90
       50
102
RTVSPost2010PropOp47
 70
     1
102
RTVSPost2010Prop48
 90
       50
102
RTVSPost2010PropOp48
 70
     1
102
RTVSPost2010Prop49
280
     0
102
RTVSPost2010PropOp49
 70
     1
102
RTVSPost2010Prop50
 90
       50
102
RTVSPost2010PropOp50
 70
     1
102
RTVSPost2010Prop51ColorIndex
 90
      256
102
RTVSPost2010Prop51ColorRGB
 90
-16777216
102
RTVSPost2010PropOp51
 70
     0
102
RTVSPost2010Prop52
140
1.0
102
RTVSPost2010PropOp52
 70
     0
102
RTVSPost2010Prop53
 90
        2
102
RTVSPost2010PropOp53
 70
     1
102
RTVSPost2010Prop54
  1
strokes_ogs.tif
102
RTVSPost2010PropOp54
 70
     1
102
RTVSPost2010Prop55
280
     0
102
RTVSPost2010PropOp55
 70
     1
102
RTVSPost2010Prop56
140
1.0
102
RTVSPost2010PropOp56
 70
     1
102
RTVSPost2010Prop57
140
1.0
102
RTVSPost2010PropOp57
 70
     1
102
RTVSPropertyOp0
 70
     1
102
RTVSPropertyOp1
 70
     1
102
RTVSPropertyOp2
 70
     1
102
RTVSPropertyOp3
 70
     1
102
RTVSPropertyOp4
 70
     1
102
RTVSPropertyOp5
 70
     1
102
RTVSPropertyOp6
 70
     1
102
RTVSPropertyOp7
 70
     1
102
RTVSPropertyOp8
 70
     1
102
RTVSPropertyOp9
 70
     1
102
RTVSPropertyOp10
 70
     1
102
RTVSPropertyOp11
 70
     1
102
RTVSPropertyOp12
 70
     1
102
RTVSPropertyOp13
 70
     1
102
RTVSPropertyOp14
 70
     1
102
RTVSPropertyOp15
 70
     1
102
RTVSPropertyOp16
 70
     1
102
RTVSPropertyOp17
 70
     1
102
RTVSPropertyOp18
 70
     1
102
RTVSPropertyOp19
 70
     1
102
RTVSPropertyOp20
 70
     1
102
RTVSPropertyOp21
 70
     1
102
RTVSPropertyOp22
 70
     1
102
RTVSPropertyOp23
 70
     1
102
RTVSPropertyOp24
 70
     1
102
RTVSPropertyOp25
 70
     1
102
RTVSPropertyOp26
 70
     1
102
RTVSPropertyOp27
 70
     1
102
RTVSPropertyOp28
 70
     1
102
RTVSPropertyOp29
 70
     1
102
RTVSPropertyOp30
 70
     1
102
RTVSPropertyOp31
 70
     1
102
RTVSPropertyOp32
 70
     1
102
RTVSPropertyOp33
 70
     1
102
RTVSPropertyOp34
 70
     1
102
RTVSPropertyOp35
 70
     1
102
RTVSPropertyOp36
 70
     1
102
RTVSPropertyOp37
 70
     1
102
RTVSPropertyOp38
 70
     1
102
RTVSPropertyOp39
 70
     1
102
RTVSPropertyOp40
 70
     1
102
RTVSPropertyOp41
 70
     1
102
RTVSPropertyOp42
 70
     1
102
RTVSPropertyOp43
 70
     1
102
RTVSPropertyOp44
 70
     1
102
RTVSPropertyOp45
 70
     1
102
RTVSPropertyOp46
 70
     1
102
RTVSPropertyOp47
 70
     1
102
RTVSPropertyOp48
 70
     1
102
RTVSPropertyOp49
 70
     1
102
RTVSPropertyOp50
 70
     1
102
RTVSPropertyOp51
 70
     0
102
RTVSPropertyOp52
 70
     0
102
RTVSPropertyOp53
 70
     1
102
RTVSPropertyOp54
 70
     1
102
RTVSPropertyOp55
 70
     1
102
RTVSPropertyOp56
 70
     1
102
RTVSPropertyOp57
 70
     1
102
RTVSPropertyOp58
 70
     1
102
RTVSPropertyOp59
 70
     1
102
RTVSPropertyOp60
 70
     1
102
RTVSPropertyOp61
 70
     1
102
RTVSPropertyOp62
 70
     1
  0
XRECORD
  5
146B
102
{ACAD_REACTORS
330
146A
102
}
330
146A
100
AcDbXrecord
280
     1
102
RTVSPost2010Prop28
280
     0
102
RTVSPost2010PropOp28
 70
     1
102
RTVSPost2010Prop29
280
     1
102
RTVSPost2010PropOp29
 70
     1
102
RTVSPost2010Prop30
280
     1
102
RTVSPost2010PropOp30
 70
     1
102
RTVSPost2010Prop31
280
     0
102
RTVSPost2010PropOp31
 70
     1
102
RTVSPost2010Prop32
280
     0
102
RTVSPost2010PropOp32
 70
     1
102
RTVSPost2010Prop33
280
     0
102
RTVSPost2010PropOp33
 70
     1
102
RTVSPost2010Prop34
280
     0
102
RTVSPost2010PropOp34
 70
     1
102
RTVSPost2010Prop35
280
     0
102
RTVSPost2010PropOp35
 70
     1
102
RTVSPost2010Prop36
280
     0
102
RTVSPost2010PropOp36
 70
     1
102
RTVSPost2010Prop37
 90
       50
102
RTVSPost2010PropOp37
 70
     1
102
RTVSPost2010Prop38
140
0.0
102
RTVSPost2010PropOp38
 70
     1
102
RTVSPost2010Prop39
140
1.0
102
RTVSPost2010PropOp39
 70
     1
102
RTVSPost2010Prop40
 90
        0
102
RTVSPost2010PropOp40
 70
     1
102
RTVSPost2010Prop41ColorIndex
 90
       18
102
RTVSPost2010Prop41ColorRGB
 90
        0
102
RTVSPost2010PropOp41
 70
     1
102
RTVSPost2010Prop42
 90
       50
102
RTVSPost2010PropOp42
 70
     1
102
RTVSPost2010Prop43
 90
        3
102
RTVSPost2010PropOp43
 70
     1
102
RTVSPost2010Prop44ColorIndex
 90
        5
102
RTVSPost2010Prop44ColorRGB
 90
      255
102
RTVSPost2010PropOp44
 70
     1
102
RTVSPost2010Prop45
280
     0
102
RTVSPost2010PropOp45
 70
     1
102
RTVSPost2010Prop46
 90
       50
102
RTVSPost2010PropOp46
 70
     1
102
RTVSPost2010Prop47
 90
       50
102
RTVSPost2010PropOp47
 70
     1
102
RTVSPost2010Prop48
 90
       50
102
RTVSPost2010PropOp48
 70
     1
102
RTVSPost2010Prop49
280
     0
102
RTVSPost2010PropOp49
 70
     1
102
RTVSPost2010Prop50
 90
       50
102
RTVSPost2010PropOp50
 70
     1
102
RTVSPost2010Prop51ColorIndex
 90
      256
102
RTVSPost2010Prop51ColorRGB
 90
-16777216
102
RTVSPost2010PropOp51
 70
     0
102
RTVSPost2010Prop52
140
1.0
102
RTVSPost2010PropOp52
 70
     0
102
RTVSPost2010Prop53
 90
        2
102
RTVSPost2010PropOp53
 70
     1
102
RTVSPost2010Prop54
  1
strokes_ogs.tif
102
RTVSPost2010PropOp54
 70
     1
102
RTVSPost2010Prop55
280
     0
102
RTVSPost2010PropOp55
 70
     1
102
RTVSPost2010Prop56
140
1.0
102
RTVSPost2010PropOp56
 70
     1
102
RTVSPost2010Prop57
140
1.0
102
RTVSPost2010PropOp57
 70
     1
102
RTVSPropertyOp0
 70
     1
102
RTVSPropertyOp1
 70
     1
102
RTVSPropertyOp2
 70
     1
102
RTVSPropertyOp3
 70
     1
102
RTVSPropertyOp4
 70
     1
102
RTVSPropertyOp5
 70
     1
102
RTVSPropertyOp6
 70
     1
102
RTVSPropertyOp7
 70
     1
102
RTVSPropertyOp8
 70
     1
102
RTVSPropertyOp9
 70
     1
102
RTVSPropertyOp10
 70
     1
102
RTVSPropertyOp11
 70
     1
102
RTVSPropertyOp12
 70
     1
102
RTVSPropertyOp13
 70
     1
102
RTVSPropertyOp14
 70
     1
102
RTVSPropertyOp15
 70
     1
102
RTVSPropertyOp16
 70
     1
102
RTVSPropertyOp17
 70
     1
102
RTVSPropertyOp18
 70
     1
102
RTVSPropertyOp19
 70
     1
102
RTVSPropertyOp20
 70
     1
102
RTVSPropertyOp21
 70
     1
102
RTVSPropertyOp22
 70
     1
102
RTVSPropertyOp23
 70
     1
102
RTVSPropertyOp24
 70
     1
102
RTVSPropertyOp25
 70
     1
102
RTVSPropertyOp26
 70
     1
102
RTVSPropertyOp27
 70
     1
102
RTVSPropertyOp28
 70
     1
102
RTVSPropertyOp29
 70
     1
102
RTVSPropertyOp30
 70
     1
102
RTVSPropertyOp31
 70
     1
102
RTVSPropertyOp32
 70
     1
102
RTVSPropertyOp33
 70
     1
102
RTVSPropertyOp34
 70
     1
102
RTVSPropertyOp35
 70
     1
102
RTVSPropertyOp36
 70
     1
102
RTVSPropertyOp37
 70
     1
102
RTVSPropertyOp38
 70
     1
102
RTVSPropertyOp39
 70
     1
102
RTVSPropertyOp40
 70
     1
102
RTVSPropertyOp41
 70
     1
102
RTVSPropertyOp42
 70
     1
102
RTVSPropertyOp43
 70
     1
102
RTVSPropertyOp44
 70
     1
102
RTVSPropertyOp45
 70
     1
102
RTVSPropertyOp46
 70
     1
102
RTVSPropertyOp47
 70
     1
102
RTVSPropertyOp48
 70
     1
102
RTVSPropertyOp49
 70
     1
102
RTVSPropertyOp50
 70
     1
102
RTVSPropertyOp51
 70
     0
102
RTVSPropertyOp52
 70
     0
102
RTVSPropertyOp53
 70
     1
102
RTVSPropertyOp54
 70
     1
102
RTVSPropertyOp55
 70
     1
102
RTVSPropertyOp56
 70
     1
102
RTVSPropertyOp57
 70
     1
102
RTVSPropertyOp58
 70
     1
102
RTVSPropertyOp59
 70
     1
102
RTVSPropertyOp60
 70
     1
102
RTVSPropertyOp61
 70
     1
102
RTVSPropertyOp62
 70
     1
  0
XRECORD
  5
146F
102
{ACAD_REACTORS
330
146E
102
}
330
146E
100
AcDbXrecord
280
     1
102
RTVSPost2010Prop28
280
     0
102
RTVSPost2010PropOp28
 70
     1
102
RTVSPost2010Prop29
280
     1
102
RTVSPost2010PropOp29
 70
     1
102
RTVSPost2010Prop30
280
     1
102
RTVSPost2010PropOp30
 70
     1
102
RTVSPost2010Prop31
280
     0
102
RTVSPost2010PropOp31
 70
     1
102
RTVSPost2010Prop32
280
     0
102
RTVSPost2010PropOp32
 70
     1
102
RTVSPost2010Prop33
280
     0
102
RTVSPost2010PropOp33
 70
     1
102
RTVSPost2010Prop34
280
     0
102
RTVSPost2010PropOp34
 70
     1
102
RTVSPost2010Prop35
280
     0
102
RTVSPost2010PropOp35
 70
     1
102
RTVSPost2010Prop36
280
     0
102
RTVSPost2010PropOp36
 70
     1
102
RTVSPost2010Prop37
 90
       50
102
RTVSPost2010PropOp37
 70
     1
102
RTVSPost2010Prop38
140
0.0
102
RTVSPost2010PropOp38
 70
     1
102
RTVSPost2010Prop39
140
1.0
102
RTVSPost2010PropOp39
 70
     1
102
RTVSPost2010Prop40
 90
        0
102
RTVSPost2010PropOp40
 70
     1
102
RTVSPost2010Prop41ColorIndex
 90
       18
102
RTVSPost2010Prop41ColorRGB
 90
        0
102
RTVSPost2010PropOp41
 70
     1
102
RTVSPost2010Prop42
 90
       50
102
RTVSPost2010PropOp42
 70
     1
102
RTVSPost2010Prop43
 90
        3
102
RTVSPost2010PropOp43
 70
     1
102
RTVSPost2010Prop44ColorIndex
 90
        5
102
RTVSPost2010Prop44ColorRGB
 90
      255
102
RTVSPost2010PropOp44
 70
     1
102
RTVSPost2010Prop45
280
     0
102
RTVSPost2010PropOp45
 70
     1
102
RTVSPost2010Prop46
 90
       50
102
RTVSPost2010PropOp46
 70
     1
102
RTVSPost2010Prop47
 90
       50
102
RTVSPost2010PropOp47
 70
     1
102
RTVSPost2010Prop48
 90
       50
102
RTVSPost2010PropOp48
 70
     1
102
RTVSPost2010Prop49
280
     0
102
RTVSPost2010PropOp49
 70
     1
102
RTVSPost2010Prop50
 90
       50
102
RTVSPost2010PropOp50
 70
     1
102
RTVSPost2010Prop51ColorIndex
 90
      256
102
RTVSPost2010Prop51ColorRGB
 90
-16777216
102
RTVSPost2010PropOp51
 70
     0
102
RTVSPost2010Prop52
140
1.0
102
RTVSPost2010PropOp52
 70
     0
102
RTVSPost2010Prop53
 90
        2
102
RTVSPost2010PropOp53
 70
     1
102
RTVSPost2010Prop54
  1
strokes_ogs.tif
102
RTVSPost2010PropOp54
 70
     1
102
RTVSPost2010Prop55
280
     0
102
RTVSPost2010PropOp55
 70
     1
102
RTVSPost2010Prop56
140
1.0
102
RTVSPost2010PropOp56
 70
     1
102
RTVSPost2010Prop57
140
1.0
102
RTVSPost2010PropOp57
 70
     1
102
RTVSPropertyOp0
 70
     1
102
RTVSPropertyOp1
 70
     1
102
RTVSPropertyOp2
 70
     1
102
RTVSPropertyOp3
 70
     1
102
RTVSPropertyOp4
 70
     1
102
RTVSPropertyOp5
 70
     1
102
RTVSPropertyOp6
 70
     1
102
RTVSPropertyOp7
 70
     1
102
RTVSPropertyOp8
 70
     1
102
RTVSPropertyOp9
 70
     1
102
RTVSPropertyOp10
 70
     1
102
RTVSPropertyOp11
 70
     1
102
RTVSPropertyOp12
 70
     1
102
RTVSPropertyOp13
 70
     1
102
RTVSPropertyOp14
 70
     1
102
RTVSPropertyOp15
 70
     1
102
RTVSPropertyOp16
 70
     1
102
RTVSPropertyOp17
 70
     1
102
RTVSPropertyOp18
 70
     1
102
RTVSPropertyOp19
 70
     1
102
RTVSPropertyOp20
 70
     1
102
RTVSPropertyOp21
 70
     1
102
RTVSPropertyOp22
 70
     1
102
RTVSPropertyOp23
 70
     1
102
RTVSPropertyOp24
 70
     1
102
RTVSPropertyOp25
 70
     1
102
RTVSPropertyOp26
 70
     1
102
RTVSPropertyOp27
 70
     1
102
RTVSPropertyOp28
 70
     1
102
RTVSPropertyOp29
 70
     1
102
RTVSPropertyOp30
 70
     1
102
RTVSPropertyOp31
 70
     1
102
RTVSPropertyOp32
 70
     1
102
RTVSPropertyOp33
 70
     1
102
RTVSPropertyOp34
 70
     1
102
RTVSPropertyOp35
 70
     1
102
RTVSPropertyOp36
 70
     1
102
RTVSPropertyOp37
 70
     1
102
RTVSPropertyOp38
 70
     1
102
RTVSPropertyOp39
 70
     1
102
RTVSPropertyOp40
 70
     1
102
RTVSPropertyOp41
 70
     1
102
RTVSPropertyOp42
 70
     1
102
RTVSPropertyOp43
 70
     1
102
RTVSPropertyOp44
 70
     1
102
RTVSPropertyOp45
 70
     1
102
RTVSPropertyOp46
 70
     1
102
RTVSPropertyOp47
 70
     1
102
RTVSPropertyOp48
 70
     1
102
RTVSPropertyOp49
 70
     1
102
RTVSPropertyOp50
 70
     1
102
RTVSPropertyOp51
 70
     0
102
RTVSPropertyOp52
 70
     0
102
RTVSPropertyOp53
 70
     1
102
RTVSPropertyOp54
 70
     1
102
RTVSPropertyOp55
 70
     1
102
RTVSPropertyOp56
 70
     1
102
RTVSPropertyOp57
 70
     1
102
RTVSPropertyOp58
 70
     1
102
RTVSPropertyOp59
 70
     1
102
RTVSPropertyOp60
 70
     1
102
RTVSPropertyOp61
 70
     1
102
RTVSPropertyOp62
 70
     1
  0
XRECORD
  5
1489
102
{ACAD_REACTORS
330
1488
102
}
330
1488
100
AcDbXrecord
280
     1
102
RTVSPost2010Prop28
280
     0
102
RTVSPost2010PropOp28
 70
     1
102
RTVSPost2010Prop29
280
     1
102
RTVSPost2010PropOp29
 70
     1
102
RTVSPost2010Prop30
280
     1
102
RTVSPost2010PropOp30
 70
     1
102
RTVSPost2010Prop31
280
     0
102
RTVSPost2010PropOp31
 70
     1
102
RTVSPost2010Prop32
280
     0
102
RTVSPost2010PropOp32
 70
     1
102
RTVSPost2010Prop33
280
     0
102
RTVSPost2010PropOp33
 70
     1
102
RTVSPost2010Prop34
280
     0
102
RTVSPost2010PropOp34
 70
     1
102
RTVSPost2010Prop35
280
     0
102
RTVSPost2010PropOp35
 70
     1
102
RTVSPost2010Prop36
280
     0
102
RTVSPost2010PropOp36
 70
     1
102
RTVSPost2010Prop37
 90
       50
102
RTVSPost2010PropOp37
 70
     0
102
RTVSPost2010Prop38
140
0.0
102
RTVSPost2010PropOp38
 70
     0
102
RTVSPost2010Prop39
140
1.0
102
RTVSPost2010PropOp39
 70
     0
102
RTVSPost2010Prop40
 90
        0
102
RTVSPost2010PropOp40
 70
     0
102
RTVSPost2010Prop41ColorIndex
 90
       18
102
RTVSPost2010Prop41ColorRGB
 90
        0
102
RTVSPost2010PropOp41
 70
     0
102
RTVSPost2010Prop42
 90
       50
102
RTVSPost2010PropOp42
 70
     0
102
RTVSPost2010Prop43
 90
        3
102
RTVSPost2010PropOp43
 70
     0
102
RTVSPost2010Prop44ColorIndex
 90
        5
102
RTVSPost2010Prop44ColorRGB
 90
      255
102
RTVSPost2010PropOp44
 70
     0
102
RTVSPost2010Prop45
280
     0
102
RTVSPost2010PropOp45
 70
     1
102
RTVSPost2010Prop46
 90
       50
102
RTVSPost2010PropOp46
 70
     0
102
RTVSPost2010Prop47
 90
       50
102
RTVSPost2010PropOp47
 70
     0
102
RTVSPost2010Prop48
 90
       50
102
RTVSPost2010PropOp48
 70
     0
102
RTVSPost2010Prop49
280
     0
102
RTVSPost2010PropOp49
 70
     1
102
RTVSPost2010Prop50
 90
       50
102
RTVSPost2010PropOp50
 70
     0
102
RTVSPost2010Prop51ColorIndex
 90
      256
102
RTVSPost2010Prop51ColorRGB
 90
-16777216
102
RTVSPost2010PropOp51
 70
     0
102
RTVSPost2010Prop52
140
1.0
102
RTVSPost2010PropOp52
 70
     0
102
RTVSPost2010Prop53
 90
        2
102
RTVSPost2010PropOp53
 70
     0
102
RTVSPost2010Prop54
  1
strokes_ogs.tif
102
RTVSPost2010PropOp54
 70
     0
102
RTVSPost2010Prop55
280
     0
102
RTVSPost2010PropOp55
 70
     1
102
RTVSPost2010Prop56
140
1.0
102
RTVSPost2010PropOp56
 70
     0
102
RTVSPost2010Prop57
140
1.0
102
RTVSPost2010PropOp57
 70
     0
102
RTVSPropertyOp0
 70
     0
102
RTVSPropertyOp1
 70
     0
102
RTVSPropertyOp2
 70
     0
102
RTVSPropertyOp3
 70
     0
102
RTVSPropertyOp4
 70
     0
102
RTVSPropertyOp5
 70
     0
102
RTVSPropertyOp6
 70
     0
102
RTVSPropertyOp7
 70
     0
102
RTVSPropertyOp8
 70
     0
102
RTVSPropertyOp9
 70
     0
102
RTVSPropertyOp10
 70
     0
102
RTVSPropertyOp11
 70
     0
102
RTVSPropertyOp12
 70
     0
102
RTVSPropertyOp13
 70
     0
102
RTVSPropertyOp14
 70
     2
102
RTVSPropertyOp15
 70
     0
102
RTVSPropertyOp16
 70
     0
102
RTVSPropertyOp17
 70
     0
102
RTVSPropertyOp18
 70
     0
102
RTVSPropertyOp19
 70
     0
102
RTVSPropertyOp20
 70
     0
102
RTVSPropertyOp21
 70
     0
102
RTVSPropertyOp22
 70
     0
102
RTVSPropertyOp23
 70
     0
102
RTVSPropertyOp24
 70
     0
102
RTVSPropertyOp25
 70
     0
102
RTVSPropertyOp26
 70
     0
102
RTVSPropertyOp27
 70
     0
102
RTVSPropertyOp28
 70
     1
102
RTVSPropertyOp29
 70
     1
102
RTVSPropertyOp30
 70
     1
102
RTVSPropertyOp31
 70
     1
102
RTVSPropertyOp32
 70
     1
102
RTVSPropertyOp33
 70
     1
102
RTVSPropertyOp34
 70
     1
102
RTVSPropertyOp35
 70
     1
102
RTVSPropertyOp36
 70
     1
102
RTVSPropertyOp37
 70
     0
102
RTVSPropertyOp38
 70
     0
102
RTVSPropertyOp39
 70
     0
102
RTVSPropertyOp40
 70
     0
102
RTVSPropertyOp41
 70
     0
102
RTVSPropertyOp42
 70
     0
102
RTVSPropertyOp43
 70
     0
102
RTVSPropertyOp44
 70
     0
102
RTVSPropertyOp45
 70
     1
102
RTVSPropertyOp46
 70
     0
102
RTVSPropertyOp47
 70
     0
102
RTVSPropertyOp48
 70
     0
102
RTVSPropertyOp49
 70
     1
102
RTVSPropertyOp50
 70
     0
102
RTVSPropertyOp51
 70
     0
102
RTVSPropertyOp52
 70
     0
102
RTVSPropertyOp53
 70
     0
102
RTVSPropertyOp54
 70
     0
102
RTVSPropertyOp55
 70
     1
102
RTVSPropertyOp56
 70
     0
102
RTVSPropertyOp57
 70
     0
102
RTVSPropertyOp58
 70
     0
102
RTVSPropertyOp59
 70
     0
102
RTVSPropertyOp60
 70
     0
102
RTVSPropertyOp61
 70
     0
102
RTVSPropertyOp62
 70
     0
  0
XRECORD
  5
1477
102
{ACAD_REACTORS
330
1476
102
}
330
1476
100
AcDbXrecord
280
     1
102
RTVSPost2010Prop28
280
     0
102
RTVSPost2010PropOp28
 70
     1
102
RTVSPost2010Prop29
280
     1
102
RTVSPost2010PropOp29
 70
     1
102
RTVSPost2010Prop30
280
     1
102
RTVSPost2010PropOp30
 70
     1
102
RTVSPost2010Prop31
280
     0
102
RTVSPost2010PropOp31
 70
     1
102
RTVSPost2010Prop32
280
     0
102
RTVSPost2010PropOp32
 70
     1
102
RTVSPost2010Prop33
280
     0
102
RTVSPost2010PropOp33
 70
     1
102
RTVSPost2010Prop34
280
     0
102
RTVSPost2010PropOp34
 70
     1
102
RTVSPost2010Prop35
280
     0
102
RTVSPost2010PropOp35
 70
     1
102
RTVSPost2010Prop36
280
     0
102
RTVSPost2010PropOp36
 70
     1
102
RTVSPost2010Prop37
 90
       50
102
RTVSPost2010PropOp37
 70
     1
102
RTVSPost2010Prop38
140
0.0
102
RTVSPost2010PropOp38
 70
     1
102
RTVSPost2010Prop39
140
1.0
102
RTVSPost2010PropOp39
 70
     1
102
RTVSPost2010Prop40
 90
        0
102
RTVSPost2010PropOp40
 70
     1
102
RTVSPost2010Prop41ColorIndex
 90
       18
102
RTVSPost2010Prop41ColorRGB
 90
        0
102
RTVSPost2010PropOp41
 70
     1
102
RTVSPost2010Prop42
 90
       50
102
RTVSPost2010PropOp42
 70
     1
102
RTVSPost2010Prop43
 90
        3
102
RTVSPost2010PropOp43
 70
     1
102
RTVSPost2010Prop44ColorIndex
 90
        5
102
RTVSPost2010Prop44ColorRGB
 90
      255
102
RTVSPost2010PropOp44
 70
     1
102
RTVSPost2010Prop45
280
     0
102
RTVSPost2010PropOp45
 70
     1
102
RTVSPost2010Prop46
 90
       50
102
RTVSPost2010PropOp46
 70
     1
102
RTVSPost2010Prop47
 90
       50
102
RTVSPost2010PropOp47
 70
     1
102
RTVSPost2010Prop48
 90
       50
102
RTVSPost2010PropOp48
 70
     1
102
RTVSPost2010Prop49
280
     0
102
RTVSPost2010PropOp49
 70
     1
102
RTVSPost2010Prop50
 90
       50
102
RTVSPost2010PropOp50
 70
     1
102
RTVSPost2010Prop51ColorIndex
 90
      256
102
RTVSPost2010Prop51ColorRGB
 90
-16777216
102
RTVSPost2010PropOp51
 70
     0
102
RTVSPost2010Prop52
140
1.0
102
RTVSPost2010PropOp52
 70
     0
102
RTVSPost2010Prop53
 90
        2
102
RTVSPost2010PropOp53
 70
     1
102
RTVSPost2010Prop54
  1
strokes_ogs.tif
102
RTVSPost2010PropOp54
 70
     1
102
RTVSPost2010Prop55
280
     0
102
RTVSPost2010PropOp55
 70
     1
102
RTVSPost2010Prop56
140
1.0
102
RTVSPost2010PropOp56
 70
     1
102
RTVSPost2010Prop57
140
1.0
102
RTVSPost2010PropOp57
 70
     1
102
RTVSPropertyOp0
 70
     1
102
RTVSPropertyOp1
 70
     1
102
RTVSPropertyOp2
 70
     1
102
RTVSPropertyOp3
 70
     1
102
RTVSPropertyOp4
 70
     1
102
RTVSPropertyOp5
 70
     1
102
RTVSPropertyOp6
 70
     1
102
RTVSPropertyOp7
 70
     1
102
RTVSPropertyOp8
 70
     1
102
RTVSPropertyOp9
 70
     1
102
RTVSPropertyOp10
 70
     1
102
RTVSPropertyOp11
 70
     1
102
RTVSPropertyOp12
 70
     1
102
RTVSPropertyOp13
 70
     1
102
RTVSPropertyOp14
 70
     1
102
RTVSPropertyOp15
 70
     1
102
RTVSPropertyOp16
 70
     1
102
RTVSPropertyOp17
 70
     1
102
RTVSPropertyOp18
 70
     1
102
RTVSPropertyOp19
 70
     1
102
RTVSPropertyOp20
 70
     1
102
RTVSPropertyOp21
 70
     1
102
RTVSPropertyOp22
 70
     1
102
RTVSPropertyOp23
 70
     1
102
RTVSPropertyOp24
 70
     1
102
RTVSPropertyOp25
 70
     1
102
RTVSPropertyOp26
 70
     1
102
RTVSPropertyOp27
 70
     1
102
RTVSPropertyOp28
 70
     1
102
RTVSPropertyOp29
 70
     1
102
RTVSPropertyOp30
 70
     1
102
RTVSPropertyOp31
 70
     1
102
RTVSPropertyOp32
 70
     1
102
RTVSPropertyOp33
 70
     1
102
RTVSPropertyOp34
 70
     1
102
RTVSPropertyOp35
 70
     1
102
RTVSPropertyOp36
 70
     1
102
RTVSPropertyOp37
 70
     1
102
RTVSPropertyOp38
 70
     1
102
RTVSPropertyOp39
 70
     1
102
RTVSPropertyOp40
 70
     1
102
RTVSPropertyOp41
 70
     1
102
RTVSPropertyOp42
 70
     1
102
RTVSPropertyOp43
 70
     1
102
RTVSPropertyOp44
 70
     1
102
RTVSPropertyOp45
 70
     1
102
RTVSPropertyOp46
 70
     1
102
RTVSPropertyOp47
 70
     1
102
RTVSPropertyOp48
 70
     1
102
RTVSPropertyOp49
 70
     1
102
RTVSPropertyOp50
 70
     1
102
RTVSPropertyOp51
 70
     0
102
RTVSPropertyOp52
 70
     0
102
RTVSPropertyOp53
 70
     1
102
RTVSPropertyOp54
 70
     1
102
RTVSPropertyOp55
 70
     1
102
RTVSPropertyOp56
 70
     1
102
RTVSPropertyOp57
 70
     1
102
RTVSPropertyOp58
 70
     1
102
RTVSPropertyOp59
 70
     1
102
RTVSPropertyOp60
 70
     1
102
RTVSPropertyOp61
 70
     1
102
RTVSPropertyOp62
 70
     1
  0
XRECORD
  5
145B
102
{ACAD_REACTORS
330
145A
102
}
330
145A
100
AcDbXrecord
280
     1
102
RTVSPost2010Prop28
280
     0
102
RTVSPost2010PropOp28
 70
     1
102
RTVSPost2010Prop29
280
     1
102
RTVSPost2010PropOp29
 70
     1
102
RTVSPost2010Prop30
280
     1
102
RTVSPost2010PropOp30
 70
     1
102
RTVSPost2010Prop31
280
     0
102
RTVSPost2010PropOp31
 70
     1
102
RTVSPost2010Prop32
280
     0
102
RTVSPost2010PropOp32
 70
     1
102
RTVSPost2010Prop33
280
     0
102
RTVSPost2010PropOp33
 70
     1
102
RTVSPost2010Prop34
280
     0
102
RTVSPost2010PropOp34
 70
     1
102
RTVSPost2010Prop35
280
     0
102
RTVSPost2010PropOp35
 70
     1
102
RTVSPost2010Prop36
280
     0
102
RTVSPost2010PropOp36
 70
     1
102
RTVSPost2010Prop37
 90
       50
102
RTVSPost2010PropOp37
 70
     1
102
RTVSPost2010Prop38
140
0.0
102
RTVSPost2010PropOp38
 70
     1
102
RTVSPost2010Prop39
140
1.0
102
RTVSPost2010PropOp39
 70
     1
102
RTVSPost2010Prop40
 90
        0
102
RTVSPost2010PropOp40
 70
     1
102
RTVSPost2010Prop41ColorIndex
 90
       18
102
RTVSPost2010Prop41ColorRGB
 90
        0
102
RTVSPost2010PropOp41
 70
     1
102
RTVSPost2010Prop42
 90
       50
102
RTVSPost2010PropOp42
 70
     1
102
RTVSPost2010Prop43
 90
        3
102
RTVSPost2010PropOp43
 70
     1
102
RTVSPost2010Prop44ColorIndex
 90
        5
102
RTVSPost2010Prop44ColorRGB
 90
      255
102
RTVSPost2010PropOp44
 70
     1
102
RTVSPost2010Prop45
280
     0
102
RTVSPost2010PropOp45
 70
     1
102
RTVSPost2010Prop46
 90
       50
102
RTVSPost2010PropOp46
 70
     1
102
RTVSPost2010Prop47
 90
       50
102
RTVSPost2010PropOp47
 70
     1
102
RTVSPost2010Prop48
 90
       50
102
RTVSPost2010PropOp48
 70
     1
102
RTVSPost2010Prop49
280
     0
102
RTVSPost2010PropOp49
 70
     1
102
RTVSPost2010Prop50
 90
       50
102
RTVSPost2010PropOp50
 70
     1
102
RTVSPost2010Prop51ColorIndex
 90
      256
102
RTVSPost2010Prop51ColorRGB
 90
-16777216
102
RTVSPost2010PropOp51
 70
     0
102
RTVSPost2010Prop52
140
1.0
102
RTVSPost2010PropOp52
 70
     0
102
RTVSPost2010Prop53
 90
        2
102
RTVSPost2010PropOp53
 70
     1
102
RTVSPost2010Prop54
  1
strokes_ogs.tif
102
RTVSPost2010PropOp54
 70
     1
102
RTVSPost2010Prop55
280
     0
102
RTVSPost2010PropOp55
 70
     1
102
RTVSPost2010Prop56
140
1.0
102
RTVSPost2010PropOp56
 70
     1
102
RTVSPost2010Prop57
140
1.0
102
RTVSPost2010PropOp57
 70
     1
102
RTVSPropertyOp0
 70
     1
102
RTVSPropertyOp1
 70
     1
102
RTVSPropertyOp2
 70
     1
102
RTVSPropertyOp3
 70
     1
102
RTVSPropertyOp4
 70
     1
102
RTVSPropertyOp5
 70
     1
102
RTVSPropertyOp6
 70
     1
102
RTVSPropertyOp7
 70
     1
102
RTVSPropertyOp8
 70
     1
102
RTVSPropertyOp9
 70
     1
102
RTVSPropertyOp10
 70
     1
102
RTVSPropertyOp11
 70
     1
102
RTVSPropertyOp12
 70
     1
102
RTVSPropertyOp13
 70
     1
102
RTVSPropertyOp14
 70
     1
102
RTVSPropertyOp15
 70
     1
102
RTVSPropertyOp16
 70
     1
102
RTVSPropertyOp17
 70
     1
102
RTVSPropertyOp18
 70
     1
102
RTVSPropertyOp19
 70
     1
102
RTVSPropertyOp20
 70
     1
102
RTVSPropertyOp21
 70
     1
102
RTVSPropertyOp22
 70
     1
102
RTVSPropertyOp23
 70
     1
102
RTVSPropertyOp24
 70
     1
102
RTVSPropertyOp25
 70
     1
102
RTVSPropertyOp26
 70
     1
102
RTVSPropertyOp27
 70
     1
102
RTVSPropertyOp28
 70
     1
102
RTVSPropertyOp29
 70
     1
102
RTVSPropertyOp30
 70
     1
102
RTVSPropertyOp31
 70
     1
102
RTVSPropertyOp32
 70
     1
102
RTVSPropertyOp33
 70
     1
102
RTVSPropertyOp34
 70
     1
102
RTVSPropertyOp35
 70
     1
102
RTVSPropertyOp36
 70
     1
102
RTVSPropertyOp37
 70
     1
102
RTVSPropertyOp38
 70
     1
102
RTVSPropertyOp39
 70
     1
102
RTVSPropertyOp40
 70
     1
102
RTVSPropertyOp41
 70
     1
102
RTVSPropertyOp42
 70
     1
102
RTVSPropertyOp43
 70
     1
102
RTVSPropertyOp44
 70
     1
102
RTVSPropertyOp45
 70
     1
102
RTVSPropertyOp46
 70
     1
102
RTVSPropertyOp47
 70
     1
102
RTVSPropertyOp48
 70
     1
102
RTVSPropertyOp49
 70
     1
102
RTVSPropertyOp50
 70
     1
102
RTVSPropertyOp51
 70
     0
102
RTVSPropertyOp52
 70
     0
102
RTVSPropertyOp53
 70
     1
102
RTVSPropertyOp54
 70
     1
102
RTVSPropertyOp55
 70
     1
102
RTVSPropertyOp56
 70
     1
102
RTVSPropertyOp57
 70
     1
102
RTVSPropertyOp58
 70
     1
102
RTVSPropertyOp59
 70
     1
102
RTVSPropertyOp60
 70
     1
102
RTVSPropertyOp61
 70
     1
102
RTVSPropertyOp62
 70
     1
  0
XRECORD
  5
145D
102
{ACAD_REACTORS
330
145C
102
}
330
145C
100
AcDbXrecord
280
     1
102
RTVSPost2010Prop28
280
     0
102
RTVSPost2010PropOp28
 70
     1
102
RTVSPost2010Prop29
280
     1
102
RTVSPost2010PropOp29
 70
     1
102
RTVSPost2010Prop30
280
     1
102
RTVSPost2010PropOp30
 70
     1
102
RTVSPost2010Prop31
280
     0
102
RTVSPost2010PropOp31
 70
     1
102
RTVSPost2010Prop32
280
     0
102
RTVSPost2010PropOp32
 70
     1
102
RTVSPost2010Prop33
280
     0
102
RTVSPost2010PropOp33
 70
     1
102
RTVSPost2010Prop34
280
     0
102
RTVSPost2010PropOp34
 70
     1
102
RTVSPost2010Prop35
280
     0
102
RTVSPost2010PropOp35
 70
     1
102
RTVSPost2010Prop36
280
     0
102
RTVSPost2010PropOp36
 70
     1
102
RTVSPost2010Prop37
 90
       50
102
RTVSPost2010PropOp37
 70
     1
102
RTVSPost2010Prop38
140
0.0
102
RTVSPost2010PropOp38
 70
     1
102
RTVSPost2010Prop39
140
1.0
102
RTVSPost2010PropOp39
 70
     1
102
RTVSPost2010Prop40
 90
        0
102
RTVSPost2010PropOp40
 70
     1
102
RTVSPost2010Prop41ColorIndex
 90
       18
102
RTVSPost2010Prop41ColorRGB
 90
        0
102
RTVSPost2010PropOp41
 70
     1
102
RTVSPost2010Prop42
 90
       50
102
RTVSPost2010PropOp42
 70
     1
102
RTVSPost2010Prop43
 90
        3
102
RTVSPost2010PropOp43
 70
     1
102
RTVSPost2010Prop44ColorIndex
 90
        5
102
RTVSPost2010Prop44ColorRGB
 90
      255
102
RTVSPost2010PropOp44
 70
     1
102
RTVSPost2010Prop45
280
     0
102
RTVSPost2010PropOp45
 70
     1
102
RTVSPost2010Prop46
 90
       50
102
RTVSPost2010PropOp46
 70
     1
102
RTVSPost2010Prop47
 90
       50
102
RTVSPost2010PropOp47
 70
     1
102
RTVSPost2010Prop48
 90
       50
102
RTVSPost2010PropOp48
 70
     1
102
RTVSPost2010Prop49
280
     0
102
RTVSPost2010PropOp49
 70
     1
102
RTVSPost2010Prop50
 90
       50
102
RTVSPost2010PropOp50
 70
     1
102
RTVSPost2010Prop51ColorIndex
 90
      256
102
RTVSPost2010Prop51ColorRGB
 90
-16777216
102
RTVSPost2010PropOp51
 70
     0
102
RTVSPost2010Prop52
140
1.0
102
RTVSPost2010PropOp52
 70
     0
102
RTVSPost2010Prop53
 90
        2
102
RTVSPost2010PropOp53
 70
     1
102
RTVSPost2010Prop54
  1
strokes_ogs.tif
102
RTVSPost2010PropOp54
 70
     1
102
RTVSPost2010Prop55
280
     0
102
RTVSPost2010PropOp55
 70
     1
102
RTVSPost2010Prop56
140
1.0
102
RTVSPost2010PropOp56
 70
     1
102
RTVSPost2010Prop57
140
1.0
102
RTVSPost2010PropOp57
 70
     1
102
RTVSPropertyOp0
 70
     1
102
RTVSPropertyOp1
 70
     1
102
RTVSPropertyOp2
 70
     1
102
RTVSPropertyOp3
 70
     1
102
RTVSPropertyOp4
 70
     1
102
RTVSPropertyOp5
 70
     1
102
RTVSPropertyOp6
 70
     1
102
RTVSPropertyOp7
 70
     1
102
RTVSPropertyOp8
 70
     1
102
RTVSPropertyOp9
 70
     1
102
RTVSPropertyOp10
 70
     1
102
RTVSPropertyOp11
 70
     1
102
RTVSPropertyOp12
 70
     1
102
RTVSPropertyOp13
 70
     1
102
RTVSPropertyOp14
 70
     1
102
RTVSPropertyOp15
 70
     1
102
RTVSPropertyOp16
 70
     1
102
RTVSPropertyOp17
 70
     1
102
RTVSPropertyOp18
 70
     1
102
RTVSPropertyOp19
 70
     1
102
RTVSPropertyOp20
 70
     1
102
RTVSPropertyOp21
 70
     1
102
RTVSPropertyOp22
 70
     1
102
RTVSPropertyOp23
 70
     1
102
RTVSPropertyOp24
 70
     1
102
RTVSPropertyOp25
 70
     1
102
RTVSPropertyOp26
 70
     1
102
RTVSPropertyOp27
 70
     1
102
RTVSPropertyOp28
 70
     1
102
RTVSPropertyOp29
 70
     1
102
RTVSPropertyOp30
 70
     1
102
RTVSPropertyOp31
 70
     1
102
RTVSPropertyOp32
 70
     1
102
RTVSPropertyOp33
 70
     1
102
RTVSPropertyOp34
 70
     1
102
RTVSPropertyOp35
 70
     1
102
RTVSPropertyOp36
 70
     1
102
RTVSPropertyOp37
 70
     1
102
RTVSPropertyOp38
 70
     1
102
RTVSPropertyOp39
 70
     1
102
RTVSPropertyOp40
 70
     1
102
RTVSPropertyOp41
 70
     1
102
RTVSPropertyOp42
 70
     1
102
RTVSPropertyOp43
 70
     1
102
RTVSPropertyOp44
 70
     1
102
RTVSPropertyOp45
 70
     1
102
RTVSPropertyOp46
 70
     1
102
RTVSPropertyOp47
 70
     1
102
RTVSPropertyOp48
 70
     1
102
RTVSPropertyOp49
 70
     1
102
RTVSPropertyOp50
 70
     1
102
RTVSPropertyOp51
 70
     0
102
RTVSPropertyOp52
 70
     0
102
RTVSPropertyOp53
 70
     1
102
RTVSPropertyOp54
 70
     1
102
RTVSPropertyOp55
 70
     1
102
RTVSPropertyOp56
 70
     1
102
RTVSPropertyOp57
 70
     1
102
RTVSPropertyOp58
 70
     1
102
RTVSPropertyOp59
 70
     1
102
RTVSPropertyOp60
 70
     1
102
RTVSPropertyOp61
 70
     1
102
RTVSPropertyOp62
 70
     1
  0
XRECORD
  5
145F
102
{ACAD_REACTORS
330
145E
102
}
330
145E
100
AcDbXrecord
280
     1
102
RTVSPost2010Prop28
280
     0
102
RTVSPost2010PropOp28
 70
     1
102
RTVSPost2010Prop29
280
     1
102
RTVSPost2010PropOp29
 70
     1
102
RTVSPost2010Prop30
280
     1
102
RTVSPost2010PropOp30
 70
     1
102
RTVSPost2010Prop31
280
     0
102
RTVSPost2010PropOp31
 70
     1
102
RTVSPost2010Prop32
280
     0
102
RTVSPost2010PropOp32
 70
     1
102
RTVSPost2010Prop33
280
     0
102
RTVSPost2010PropOp33
 70
     1
102
RTVSPost2010Prop34
280
     0
102
RTVSPost2010PropOp34
 70
     1
102
RTVSPost2010Prop35
280
     0
102
RTVSPost2010PropOp35
 70
     1
102
RTVSPost2010Prop36
280
     0
102
RTVSPost2010PropOp36
 70
     1
102
RTVSPost2010Prop37
 90
       50
102
RTVSPost2010PropOp37
 70
     1
102
RTVSPost2010Prop38
140
0.0
102
RTVSPost2010PropOp38
 70
     1
102
RTVSPost2010Prop39
140
1.0
102
RTVSPost2010PropOp39
 70
     1
102
RTVSPost2010Prop40
 90
        0
102
RTVSPost2010PropOp40
 70
     1
102
RTVSPost2010Prop41ColorIndex
 90
       18
102
RTVSPost2010Prop41ColorRGB
 90
        0
102
RTVSPost2010PropOp41
 70
     1
102
RTVSPost2010Prop42
 90
       50
102
RTVSPost2010PropOp42
 70
     1
102
RTVSPost2010Prop43
 90
        3
102
RTVSPost2010PropOp43
 70
     1
102
RTVSPost2010Prop44ColorIndex
 90
        5
102
RTVSPost2010Prop44ColorRGB
 90
      255
102
RTVSPost2010PropOp44
 70
     1
102
RTVSPost2010Prop45
280
     0
102
RTVSPost2010PropOp45
 70
     1
102
RTVSPost2010Prop46
 90
       50
102
RTVSPost2010PropOp46
 70
     1
102
RTVSPost2010Prop47
 90
       50
102
RTVSPost2010PropOp47
 70
     1
102
RTVSPost2010Prop48
 90
       50
102
RTVSPost2010PropOp48
 70
     1
102
RTVSPost2010Prop49
280
     0
102
RTVSPost2010PropOp49
 70
     1
102
RTVSPost2010Prop50
 90
       50
102
RTVSPost2010PropOp50
 70
     1
102
RTVSPost2010Prop51ColorIndex
 90
      256
102
RTVSPost2010Prop51ColorRGB
 90
-16777216
102
RTVSPost2010PropOp51
 70
     0
102
RTVSPost2010Prop52
140
1.0
102
RTVSPost2010PropOp52
 70
     0
102
RTVSPost2010Prop53
 90
        2
102
RTVSPost2010PropOp53
 70
     1
102
RTVSPost2010Prop54
  1
strokes_ogs.tif
102
RTVSPost2010PropOp54
 70
     1
102
RTVSPost2010Prop55
280
     0
102
RTVSPost2010PropOp55
 70
     1
102
RTVSPost2010Prop56
140
1.0
102
RTVSPost2010PropOp56
 70
     1
102
RTVSPost2010Prop57
140
1.0
102
RTVSPost2010PropOp57
 70
     1
102
RTVSPropertyOp0
 70
     1
102
RTVSPropertyOp1
 70
     1
102
RTVSPropertyOp2
 70
     1
102
RTVSPropertyOp3
 70
     1
102
RTVSPropertyOp4
 70
     1
102
RTVSPropertyOp5
 70
     1
102
RTVSPropertyOp6
 70
     1
102
RTVSPropertyOp7
 70
     1
102
RTVSPropertyOp8
 70
     1
102
RTVSPropertyOp9
 70
     1
102
RTVSPropertyOp10
 70
     1
102
RTVSPropertyOp11
 70
     1
102
RTVSPropertyOp12
 70
     1
102
RTVSPropertyOp13
 70
     1
102
RTVSPropertyOp14
 70
     1
102
RTVSPropertyOp15
 70
     1
102
RTVSPropertyOp16
 70
     1
102
RTVSPropertyOp17
 70
     1
102
RTVSPropertyOp18
 70
     1
102
RTVSPropertyOp19
 70
     1
102
RTVSPropertyOp20
 70
     1
102
RTVSPropertyOp21
 70
     1
102
RTVSPropertyOp22
 70
     1
102
RTVSPropertyOp23
 70
     1
102
RTVSPropertyOp24
 70
     1
102
RTVSPropertyOp25
 70
     1
102
RTVSPropertyOp26
 70
     1
102
RTVSPropertyOp27
 70
     1
102
RTVSPropertyOp28
 70
     1
102
RTVSPropertyOp29
 70
     1
102
RTVSPropertyOp30
 70
     1
102
RTVSPropertyOp31
 70
     1
102
RTVSPropertyOp32
 70
     1
102
RTVSPropertyOp33
 70
     1
102
RTVSPropertyOp34
 70
     1
102
RTVSPropertyOp35
 70
     1
102
RTVSPropertyOp36
 70
     1
102
RTVSPropertyOp37
 70
     1
102
RTVSPropertyOp38
 70
     1
102
RTVSPropertyOp39
 70
     1
102
RTVSPropertyOp40
 70
     1
102
RTVSPropertyOp41
 70
     1
102
RTVSPropertyOp42
 70
     1
102
RTVSPropertyOp43
 70
     1
102
RTVSPropertyOp44
 70
     1
102
RTVSPropertyOp45
 70
     1
102
RTVSPropertyOp46
 70
     1
102
RTVSPropertyOp47
 70
     1
102
RTVSPropertyOp48
 70
     1
102
RTVSPropertyOp49
 70
     1
102
RTVSPropertyOp50
 70
     1
102
RTVSPropertyOp51
 70
     0
102
RTVSPropertyOp52
 70
     0
102
RTVSPropertyOp53
 70
     1
102
RTVSPropertyOp54
 70
     1
102
RTVSPropertyOp55
 70
     1
102
RTVSPropertyOp56
 70
     1
102
RTVSPropertyOp57
 70
     1
102
RTVSPropertyOp58
 70
     1
102
RTVSPropertyOp59
 70
     1
102
RTVSPropertyOp60
 70
     1
102
RTVSPropertyOp61
 70
     1
102
RTVSPropertyOp62
 70
     1
  0
XRECORD
  5
1461
102
{ACAD_REACTORS
330
1460
102
}
330
1460
100
AcDbXrecord
280
     1
102
RTVSPost2010Prop28
280
     0
102
RTVSPost2010PropOp28
 70
     1
102
RTVSPost2010Prop29
280
     1
102
RTVSPost2010PropOp29
 70
     1
102
RTVSPost2010Prop30
280
     1
102
RTVSPost2010PropOp30
 70
     1
102
RTVSPost2010Prop31
280
     0
102
RTVSPost2010PropOp31
 70
     1
102
RTVSPost2010Prop32
280
     0
102
RTVSPost2010PropOp32
 70
     1
102
RTVSPost2010Prop33
280
     0
102
RTVSPost2010PropOp33
 70
     1
102
RTVSPost2010Prop34
280
     0
102
RTVSPost2010PropOp34
 70
     1
102
RTVSPost2010Prop35
280
     0
102
RTVSPost2010PropOp35
 70
     1
102
RTVSPost2010Prop36
280
     0
102
RTVSPost2010PropOp36
 70
     1
102
RTVSPost2010Prop37
 90
       50
102
RTVSPost2010PropOp37
 70
     1
102
RTVSPost2010Prop38
140
0.0
102
RTVSPost2010PropOp38
 70
     1
102
RTVSPost2010Prop39
140
1.0
102
RTVSPost2010PropOp39
 70
     1
102
RTVSPost2010Prop40
 90
        0
102
RTVSPost2010PropOp40
 70
     1
102
RTVSPost2010Prop41ColorIndex
 90
       18
102
RTVSPost2010Prop41ColorRGB
 90
        0
102
RTVSPost2010PropOp41
 70
     1
102
RTVSPost2010Prop42
 90
       50
102
RTVSPost2010PropOp42
 70
     1
102
RTVSPost2010Prop43
 90
        3
102
RTVSPost2010PropOp43
 70
     1
102
RTVSPost2010Prop44ColorIndex
 90
        5
102
RTVSPost2010Prop44ColorRGB
 90
      255
102
RTVSPost2010PropOp44
 70
     1
102
RTVSPost2010Prop45
280
     0
102
RTVSPost2010PropOp45
 70
     1
102
RTVSPost2010Prop46
 90
       50
102
RTVSPost2010PropOp46
 70
     1
102
RTVSPost2010Prop47
 90
       50
102
RTVSPost2010PropOp47
 70
     1
102
RTVSPost2010Prop48
 90
       50
102
RTVSPost2010PropOp48
 70
     1
102
RTVSPost2010Prop49
280
     0
102
RTVSPost2010PropOp49
 70
     1
102
RTVSPost2010Prop50
 90
       50
102
RTVSPost2010PropOp50
 70
     1
102
RTVSPost2010Prop51ColorIndex
 90
      256
102
RTVSPost2010Prop51ColorRGB
 90
-16777216
102
RTVSPost2010PropOp51
 70
     0
102
RTVSPost2010Prop52
140
1.0
102
RTVSPost2010PropOp52
 70
     0
102
RTVSPost2010Prop53
 90
        2
102
RTVSPost2010PropOp53
 70
     1
102
RTVSPost2010Prop54
  1
strokes_ogs.tif
102
RTVSPost2010PropOp54
 70
     1
102
RTVSPost2010Prop55
280
     0
102
RTVSPost2010PropOp55
 70
     1
102
RTVSPost2010Prop56
140
1.0
102
RTVSPost2010PropOp56
 70
     1
102
RTVSPost2010Prop57
140
1.0
102
RTVSPost2010PropOp57
 70
     1
102
RTVSPropertyOp0
 70
     1
102
RTVSPropertyOp1
 70
     1
102
RTVSPropertyOp2
 70
     1
102
RTVSPropertyOp3
 70
     1
102
RTVSPropertyOp4
 70
     1
102
RTVSPropertyOp5
 70
     1
102
RTVSPropertyOp6
 70
     1
102
RTVSPropertyOp7
 70
     1
102
RTVSPropertyOp8
 70
     1
102
RTVSPropertyOp9
 70
     1
102
RTVSPropertyOp10
 70
     1
102
RTVSPropertyOp11
 70
     1
102
RTVSPropertyOp12
 70
     1
102
RTVSPropertyOp13
 70
     1
102
RTVSPropertyOp14
 70
     1
102
RTVSPropertyOp15
 70
     1
102
RTVSPropertyOp16
 70
     1
102
RTVSPropertyOp17
 70
     1
102
RTVSPropertyOp18
 70
     1
102
RTVSPropertyOp19
 70
     1
102
RTVSPropertyOp20
 70
     1
102
RTVSPropertyOp21
 70
     1
102
RTVSPropertyOp22
 70
     1
102
RTVSPropertyOp23
 70
     1
102
RTVSPropertyOp24
 70
     1
102
RTVSPropertyOp25
 70
     1
102
RTVSPropertyOp26
 70
     1
102
RTVSPropertyOp27
 70
     1
102
RTVSPropertyOp28
 70
     1
102
RTVSPropertyOp29
 70
     1
102
RTVSPropertyOp30
 70
     1
102
RTVSPropertyOp31
 70
     1
102
RTVSPropertyOp32
 70
     1
102
RTVSPropertyOp33
 70
     1
102
RTVSPropertyOp34
 70
     1
102
RTVSPropertyOp35
 70
     1
102
RTVSPropertyOp36
 70
     1
102
RTVSPropertyOp37
 70
     1
102
RTVSPropertyOp38
 70
     1
102
RTVSPropertyOp39
 70
     1
102
RTVSPropertyOp40
 70
     1
102
RTVSPropertyOp41
 70
     1
102
RTVSPropertyOp42
 70
     1
102
RTVSPropertyOp43
 70
     1
102
RTVSPropertyOp44
 70
     1
102
RTVSPropertyOp45
 70
     1
102
RTVSPropertyOp46
 70
     1
102
RTVSPropertyOp47
 70
     1
102
RTVSPropertyOp48
 70
     1
102
RTVSPropertyOp49
 70
     1
102
RTVSPropertyOp50
 70
     1
102
RTVSPropertyOp51
 70
     0
102
RTVSPropertyOp52
 70
     0
102
RTVSPropertyOp53
 70
     1
102
RTVSPropertyOp54
 70
     1
102
RTVSPropertyOp55
 70
     1
102
RTVSPropertyOp56
 70
     1
102
RTVSPropertyOp57
 70
     1
102
RTVSPropertyOp58
 70
     1
102
RTVSPropertyOp59
 70
     1
102
RTVSPropertyOp60
 70
     1
102
RTVSPropertyOp61
 70
     1
102
RTVSPropertyOp62
 70
     1
  0
XRECORD
  5
1469
102
{ACAD_REACTORS
330
1468
102
}
330
1468
100
AcDbXrecord
280
     1
102
RTVSPost2010Prop28
280
     0
102
RTVSPost2010PropOp28
 70
     1
102
RTVSPost2010Prop29
280
     1
102
RTVSPost2010PropOp29
 70
     1
102
RTVSPost2010Prop30
280
     1
102
RTVSPost2010PropOp30
 70
     1
102
RTVSPost2010Prop31
280
     0
102
RTVSPost2010PropOp31
 70
     1
102
RTVSPost2010Prop32
280
     0
102
RTVSPost2010PropOp32
 70
     1
102
RTVSPost2010Prop33
280
     0
102
RTVSPost2010PropOp33
 70
     1
102
RTVSPost2010Prop34
280
     0
102
RTVSPost2010PropOp34
 70
     1
102
RTVSPost2010Prop35
280
     0
102
RTVSPost2010PropOp35
 70
     1
102
RTVSPost2010Prop36
280
     0
102
RTVSPost2010PropOp36
 70
     1
102
RTVSPost2010Prop37
 90
       50
102
RTVSPost2010PropOp37
 70
     1
102
RTVSPost2010Prop38
140
0.0
102
RTVSPost2010PropOp38
 70
     1
102
RTVSPost2010Prop39
140
1.0
102
RTVSPost2010PropOp39
 70
     1
102
RTVSPost2010Prop40
 90
        0
102
RTVSPost2010PropOp40
 70
     1
102
RTVSPost2010Prop41ColorIndex
 90
       18
102
RTVSPost2010Prop41ColorRGB
 90
        0
102
RTVSPost2010PropOp41
 70
     1
102
RTVSPost2010Prop42
 90
       50
102
RTVSPost2010PropOp42
 70
     1
102
RTVSPost2010Prop43
 90
        3
102
RTVSPost2010PropOp43
 70
     1
102
RTVSPost2010Prop44ColorIndex
 90
        5
102
RTVSPost2010Prop44ColorRGB
 90
      255
102
RTVSPost2010PropOp44
 70
     1
102
RTVSPost2010Prop45
280
     0
102
RTVSPost2010PropOp45
 70
     1
102
RTVSPost2010Prop46
 90
       50
102
RTVSPost2010PropOp46
 70
     1
102
RTVSPost2010Prop47
 90
       50
102
RTVSPost2010PropOp47
 70
     1
102
RTVSPost2010Prop48
 90
       50
102
RTVSPost2010PropOp48
 70
     1
102
RTVSPost2010Prop49
280
     0
102
RTVSPost2010PropOp49
 70
     1
102
RTVSPost2010Prop50
 90
       50
102
RTVSPost2010PropOp50
 70
     1
102
RTVSPost2010Prop51ColorIndex
 90
      256
102
RTVSPost2010Prop51ColorRGB
 90
-16777216
102
RTVSPost2010PropOp51
 70
     0
102
RTVSPost2010Prop52
140
1.0
102
RTVSPost2010PropOp52
 70
     0
102
RTVSPost2010Prop53
 90
        2
102
RTVSPost2010PropOp53
 70
     1
102
RTVSPost2010Prop54
  1
strokes_ogs.tif
102
RTVSPost2010PropOp54
 70
     1
102
RTVSPost2010Prop55
280
     0
102
RTVSPost2010PropOp55
 70
     1
102
RTVSPost2010Prop56
140
1.0
102
RTVSPost2010PropOp56
 70
     1
102
RTVSPost2010Prop57
140
1.0
102
RTVSPost2010PropOp57
 70
     1
102
RTVSPropertyOp0
 70
     1
102
RTVSPropertyOp1
 70
     1
102
RTVSPropertyOp2
 70
     1
102
RTVSPropertyOp3
 70
     1
102
RTVSPropertyOp4
 70
     1
102
RTVSPropertyOp5
 70
     1
102
RTVSPropertyOp6
 70
     1
102
RTVSPropertyOp7
 70
     1
102
RTVSPropertyOp8
 70
     1
102
RTVSPropertyOp9
 70
     1
102
RTVSPropertyOp10
 70
     1
102
RTVSPropertyOp11
 70
     1
102
RTVSPropertyOp12
 70
     1
102
RTVSPropertyOp13
 70
     1
102
RTVSPropertyOp14
 70
     1
102
RTVSPropertyOp15
 70
     1
102
RTVSPropertyOp16
 70
     1
102
RTVSPropertyOp17
 70
     1
102
RTVSPropertyOp18
 70
     1
102
RTVSPropertyOp19
 70
     1
102
RTVSPropertyOp20
 70
     1
102
RTVSPropertyOp21
 70
     1
102
RTVSPropertyOp22
 70
     1
102
RTVSPropertyOp23
 70
     1
102
RTVSPropertyOp24
 70
     1
102
RTVSPropertyOp25
 70
     1
102
RTVSPropertyOp26
 70
     1
102
RTVSPropertyOp27
 70
     1
102
RTVSPropertyOp28
 70
     1
102
RTVSPropertyOp29
 70
     1
102
RTVSPropertyOp30
 70
     1
102
RTVSPropertyOp31
 70
     1
102
RTVSPropertyOp32
 70
     1
102
RTVSPropertyOp33
 70
     1
102
RTVSPropertyOp34
 70
     1
102
RTVSPropertyOp35
 70
     1
102
RTVSPropertyOp36
 70
     1
102
RTVSPropertyOp37
 70
     1
102
RTVSPropertyOp38
 70
     1
102
RTVSPropertyOp39
 70
     1
102
RTVSPropertyOp40
 70
     1
102
RTVSPropertyOp41
 70
     1
102
RTVSPropertyOp42
 70
     1
102
RTVSPropertyOp43
 70
     1
102
RTVSPropertyOp44
 70
     1
102
RTVSPropertyOp45
 70
     1
102
RTVSPropertyOp46
 70
     1
102
RTVSPropertyOp47
 70
     1
102
RTVSPropertyOp48
 70
     1
102
RTVSPropertyOp49
 70
     1
102
RTVSPropertyOp50
 70
     1
102
RTVSPropertyOp51
 70
     0
102
RTVSPropertyOp52
 70
     0
102
RTVSPropertyOp53
 70
     1
102
RTVSPropertyOp54
 70
     1
102
RTVSPropertyOp55
 70
     1
102
RTVSPropertyOp56
 70
     1
102
RTVSPropertyOp57
 70
     1
102
RTVSPropertyOp58
 70
     1
102
RTVSPropertyOp59
 70
     1
102
RTVSPropertyOp60
 70
     1
102
RTVSPropertyOp61
 70
     1
102
RTVSPropertyOp62
 70
     1
  0
XRECORD
  5
1485
102
{ACAD_REACTORS
330
1484
102
}
330
1484
100
AcDbXrecord
280
     1
102
RTVSPost2010Prop28
280
     0
102
RTVSPost2010PropOp28
 70
     1
102
RTVSPost2010Prop29
280
     1
102
RTVSPost2010PropOp29
 70
     1
102
RTVSPost2010Prop30
280
     1
102
RTVSPost2010PropOp30
 70
     1
102
RTVSPost2010Prop31
280
     0
102
RTVSPost2010PropOp31
 70
     1
102
RTVSPost2010Prop32
280
     0
102
RTVSPost2010PropOp32
 70
     1
102
RTVSPost2010Prop33
280
     0
102
RTVSPost2010PropOp33
 70
     1
102
RTVSPost2010Prop34
280
     0
102
RTVSPost2010PropOp34
 70
     1
102
RTVSPost2010Prop35
280
     0
102
RTVSPost2010PropOp35
 70
     1
102
RTVSPost2010Prop36
280
     0
102
RTVSPost2010PropOp36
 70
     1
102
RTVSPost2010Prop37
 90
       50
102
RTVSPost2010PropOp37
 70
     0
102
RTVSPost2010Prop38
140
0.0
102
RTVSPost2010PropOp38
 70
     0
102
RTVSPost2010Prop39
140
1.0
102
RTVSPost2010PropOp39
 70
     0
102
RTVSPost2010Prop40
 90
        0
102
RTVSPost2010PropOp40
 70
     0
102
RTVSPost2010Prop41ColorIndex
 90
       18
102
RTVSPost2010Prop41ColorRGB
 90
        0
102
RTVSPost2010PropOp41
 70
     0
102
RTVSPost2010Prop42
 90
       50
102
RTVSPost2010PropOp42
 70
     0
102
RTVSPost2010Prop43
 90
        3
102
RTVSPost2010PropOp43
 70
     0
102
RTVSPost2010Prop44ColorIndex
 90
        5
102
RTVSPost2010Prop44ColorRGB
 90
      255
102
RTVSPost2010PropOp44
 70
     0
102
RTVSPost2010Prop45
280
     0
102
RTVSPost2010PropOp45
 70
     1
102
RTVSPost2010Prop46
 90
       50
102
RTVSPost2010PropOp46
 70
     0
102
RTVSPost2010Prop47
 90
       50
102
RTVSPost2010PropOp47
 70
     0
102
RTVSPost2010Prop48
 90
       50
102
RTVSPost2010PropOp48
 70
     0
102
RTVSPost2010Prop49
280
     0
102
RTVSPost2010PropOp49
 70
     1
102
RTVSPost2010Prop50
 90
       50
102
RTVSPost2010PropOp50
 70
     0
102
RTVSPost2010Prop51ColorIndex
 90
      256
102
RTVSPost2010Prop51ColorRGB
 90
-16777216
102
RTVSPost2010PropOp51
 70
     0
102
RTVSPost2010Prop52
140
1.0
102
RTVSPost2010PropOp52
 70
     0
102
RTVSPost2010Prop53
 90
        2
102
RTVSPost2010PropOp53
 70
     0
102
RTVSPost2010Prop54
  1
strokes_ogs.tif
102
RTVSPost2010PropOp54
 70
     0
102
RTVSPost2010Prop55
280
     0
102
RTVSPost2010PropOp55
 70
     1
102
RTVSPost2010Prop56
140
1.0
102
RTVSPost2010PropOp56
 70
     0
102
RTVSPost2010Prop57
140
1.0
102
RTVSPost2010PropOp57
 70
     0
102
RTVSPropertyOp0
 70
     0
102
RTVSPropertyOp1
 70
     0
102
RTVSPropertyOp2
 70
     0
102
RTVSPropertyOp3
 70
     0
102
RTVSPropertyOp4
 70
     0
102
RTVSPropertyOp5
 70
     0
102
RTVSPropertyOp6
 70
     0
102
RTVSPropertyOp7
 70
     0
102
RTVSPropertyOp8
 70
     0
102
RTVSPropertyOp9
 70
     0
102
RTVSPropertyOp10
 70
     0
102
RTVSPropertyOp11
 70
     0
102
RTVSPropertyOp12
 70
     0
102
RTVSPropertyOp13
 70
     0
102
RTVSPropertyOp14
 70
     2
102
RTVSPropertyOp15
 70
     0
102
RTVSPropertyOp16
 70
     0
102
RTVSPropertyOp17
 70
     0
102
RTVSPropertyOp18
 70
     0
102
RTVSPropertyOp19
 70
     0
102
RTVSPropertyOp20
 70
     0
102
RTVSPropertyOp21
 70
     0
102
RTVSPropertyOp22
 70
     0
102
RTVSPropertyOp23
 70
     0
102
RTVSPropertyOp24
 70
     0
102
RTVSPropertyOp25
 70
     0
102
RTVSPropertyOp26
 70
     0
102
RTVSPropertyOp27
 70
     0
102
RTVSPropertyOp28
 70
     1
102
RTVSPropertyOp29
 70
     1
102
RTVSPropertyOp30
 70
     1
102
RTVSPropertyOp31
 70
     1
102
RTVSPropertyOp32
 70
     1
102
RTVSPropertyOp33
 70
     1
102
RTVSPropertyOp34
 70
     1
102
RTVSPropertyOp35
 70
     1
102
RTVSPropertyOp36
 70
     1
102
RTVSPropertyOp37
 70
     0
102
RTVSPropertyOp38
 70
     0
102
RTVSPropertyOp39
 70
     0
102
RTVSPropertyOp40
 70
     0
102
RTVSPropertyOp41
 70
     0
102
RTVSPropertyOp42
 70
     0
102
RTVSPropertyOp43
 70
     0
102
RTVSPropertyOp44
 70
     0
102
RTVSPropertyOp45
 70
     1
102
RTVSPropertyOp46
 70
     0
102
RTVSPropertyOp47
 70
     0
102
RTVSPropertyOp48
 70
     0
102
RTVSPropertyOp49
 70
     1
102
RTVSPropertyOp50
 70
     0
102
RTVSPropertyOp51
 70
     0
102
RTVSPropertyOp52
 70
     0
102
RTVSPropertyOp53
 70
     0
102
RTVSPropertyOp54
 70
     0
102
RTVSPropertyOp55
 70
     1
102
RTVSPropertyOp56
 70
     0
102
RTVSPropertyOp57
 70
     0
102
RTVSPropertyOp58
 70
     0
102
RTVSPropertyOp59
 70
     0
102
RTVSPropertyOp60
 70
     0
102
RTVSPropertyOp61
 70
     0
102
RTVSPropertyOp62
 70
     0
  0
XRECORD
  5
1475
102
{ACAD_REACTORS
330
1474
102
}
330
1474
100
AcDbXrecord
280
     1
102
RTVSPost2010Prop28
280
     0
102
RTVSPost2010PropOp28
 70
     1
102
RTVSPost2010Prop29
280
     1
102
RTVSPost2010PropOp29
 70
     1
102
RTVSPost2010Prop30
280
     1
102
RTVSPost2010PropOp30
 70
     1
102
RTVSPost2010Prop31
280
     0
102
RTVSPost2010PropOp31
 70
     1
102
RTVSPost2010Prop32
280
     0
102
RTVSPost2010PropOp32
 70
     1
102
RTVSPost2010Prop33
280
     0
102
RTVSPost2010PropOp33
 70
     1
102
RTVSPost2010Prop34
280
     0
102
RTVSPost2010PropOp34
 70
     1
102
RTVSPost2010Prop35
280
     0
102
RTVSPost2010PropOp35
 70
     1
102
RTVSPost2010Prop36
280
     0
102
RTVSPost2010PropOp36
 70
     1
102
RTVSPost2010Prop37
 90
       50
102
RTVSPost2010PropOp37
 70
     1
102
RTVSPost2010Prop38
140
0.0
102
RTVSPost2010PropOp38
 70
     1
102
RTVSPost2010Prop39
140
1.0
102
RTVSPost2010PropOp39
 70
     1
102
RTVSPost2010Prop40
 90
        0
102
RTVSPost2010PropOp40
 70
     1
102
RTVSPost2010Prop41ColorIndex
 90
       18
102
RTVSPost2010Prop41ColorRGB
 90
        0
102
RTVSPost2010PropOp41
 70
     1
102
RTVSPost2010Prop42
 90
       50
102
RTVSPost2010PropOp42
 70
     1
102
RTVSPost2010Prop43
 90
        3
102
RTVSPost2010PropOp43
 70
     1
102
RTVSPost2010Prop44ColorIndex
 90
        5
102
RTVSPost2010Prop44ColorRGB
 90
      255
102
RTVSPost2010PropOp44
 70
     1
102
RTVSPost2010Prop45
280
     0
102
RTVSPost2010PropOp45
 70
     1
102
RTVSPost2010Prop46
 90
       50
102
RTVSPost2010PropOp46
 70
     1
102
RTVSPost2010Prop47
 90
       50
102
RTVSPost2010PropOp47
 70
     1
102
RTVSPost2010Prop48
 90
       50
102
RTVSPost2010PropOp48
 70
     1
102
RTVSPost2010Prop49
280
     0
102
RTVSPost2010PropOp49
 70
     1
102
RTVSPost2010Prop50
 90
       50
102
RTVSPost2010PropOp50
 70
     1
102
RTVSPost2010Prop51ColorIndex
 90
      256
102
RTVSPost2010Prop51ColorRGB
 90
-16777216
102
RTVSPost2010PropOp51
 70
     0
102
RTVSPost2010Prop52
140
1.0
102
RTVSPost2010PropOp52
 70
     0
102
RTVSPost2010Prop53
 90
        2
102
RTVSPost2010PropOp53
 70
     1
102
RTVSPost2010Prop54
  1
strokes_ogs.tif
102
RTVSPost2010PropOp54
 70
     1
102
RTVSPost2010Prop55
280
     0
102
RTVSPost2010PropOp55
 70
     1
102
RTVSPost2010Prop56
140
1.0
102
RTVSPost2010PropOp56
 70
     1
102
RTVSPost2010Prop57
140
1.0
102
RTVSPost2010PropOp57
 70
     1
102
RTVSPropertyOp0
 70
     1
102
RTVSPropertyOp1
 70
     1
102
RTVSPropertyOp2
 70
     1
102
RTVSPropertyOp3
 70
     1
102
RTVSPropertyOp4
 70
     1
102
RTVSPropertyOp5
 70
     1
102
RTVSPropertyOp6
 70
     1
102
RTVSPropertyOp7
 70
     1
102
RTVSPropertyOp8
 70
     1
102
RTVSPropertyOp9
 70
     1
102
RTVSPropertyOp10
 70
     1
102
RTVSPropertyOp11
 70
     1
102
RTVSPropertyOp12
 70
     1
102
RTVSPropertyOp13
 70
     1
102
RTVSPropertyOp14
 70
     1
102
RTVSPropertyOp15
 70
     1
102
RTVSPropertyOp16
 70
     1
102
RTVSPropertyOp17
 70
     1
102
RTVSPropertyOp18
 70
     1
102
RTVSPropertyOp19
 70
     1
102
RTVSPropertyOp20
 70
     1
102
RTVSPropertyOp21
 70
     1
102
RTVSPropertyOp22
 70
     1
102
RTVSPropertyOp23
 70
     1
102
RTVSPropertyOp24
 70
     1
102
RTVSPropertyOp25
 70
     1
102
RTVSPropertyOp26
 70
     1
102
RTVSPropertyOp27
 70
     1
102
RTVSPropertyOp28
 70
     1
102
RTVSPropertyOp29
 70
     1
102
RTVSPropertyOp30
 70
     1
102
RTVSPropertyOp31
 70
     1
102
RTVSPropertyOp32
 70
     1
102
RTVSPropertyOp33
 70
     1
102
RTVSPropertyOp34
 70
     1
102
RTVSPropertyOp35
 70
     1
102
RTVSPropertyOp36
 70
     1
102
RTVSPropertyOp37
 70
     1
102
RTVSPropertyOp38
 70
     1
102
RTVSPropertyOp39
 70
     1
102
RTVSPropertyOp40
 70
     1
102
RTVSPropertyOp41
 70
     1
102
RTVSPropertyOp42
 70
     1
102
RTVSPropertyOp43
 70
     1
102
RTVSPropertyOp44
 70
     1
102
RTVSPropertyOp45
 70
     1
102
RTVSPropertyOp46
 70
     1
102
RTVSPropertyOp47
 70
     1
102
RTVSPropertyOp48
 70
     1
102
RTVSPropertyOp49
 70
     1
102
RTVSPropertyOp50
 70
     1
102
RTVSPropertyOp51
 70
     0
102
RTVSPropertyOp52
 70
     0
102
RTVSPropertyOp53
 70
     1
102
RTVSPropertyOp54
 70
     1
102
RTVSPropertyOp55
 70
     1
102
RTVSPropertyOp56
 70
     1
102
RTVSPropertyOp57
 70
     1
102
RTVSPropertyOp58
 70
     1
102
RTVSPropertyOp59
 70
     1
102
RTVSPropertyOp60
 70
     1
102
RTVSPropertyOp61
 70
     1
102
RTVSPropertyOp62
 70
     1
  0
XRECORD
  5
1487
102
{ACAD_REACTORS
330
1486
102
}
330
1486
100
AcDbXrecord
280
     1
102
RTVSPost2010Prop28
280
     0
102
RTVSPost2010PropOp28
 70
     1
102
RTVSPost2010Prop29
280
     1
102
RTVSPost2010PropOp29
 70
     1
102
RTVSPost2010Prop30
280
     1
102
RTVSPost2010PropOp30
 70
     1
102
RTVSPost2010Prop31
280
     0
102
RTVSPost2010PropOp31
 70
     1
102
RTVSPost2010Prop32
280
     0
102
RTVSPost2010PropOp32
 70
     1
102
RTVSPost2010Prop33
280
     0
102
RTVSPost2010PropOp33
 70
     1
102
RTVSPost2010Prop34
280
     0
102
RTVSPost2010PropOp34
 70
     1
102
RTVSPost2010Prop35
280
     0
102
RTVSPost2010PropOp35
 70
     1
102
RTVSPost2010Prop36
280
     0
102
RTVSPost2010PropOp36
 70
     1
102
RTVSPost2010Prop37
 90
       50
102
RTVSPost2010PropOp37
 70
     0
102
RTVSPost2010Prop38
140
0.0
102
RTVSPost2010PropOp38
 70
     0
102
RTVSPost2010Prop39
140
1.0
102
RTVSPost2010PropOp39
 70
     0
102
RTVSPost2010Prop40
 90
        0
102
RTVSPost2010PropOp40
 70
     0
102
RTVSPost2010Prop41ColorIndex
 90
       18
102
RTVSPost2010Prop41ColorRGB
 90
        0
102
RTVSPost2010PropOp41
 70
     0
102
RTVSPost2010Prop42
 90
       50
102
RTVSPost2010PropOp42
 70
     0
102
RTVSPost2010Prop43
 90
        3
102
RTVSPost2010PropOp43
 70
     0
102
RTVSPost2010Prop44ColorIndex
 90
        5
102
RTVSPost2010Prop44ColorRGB
 90
      255
102
RTVSPost2010PropOp44
 70
     0
102
RTVSPost2010Prop45
280
     0
102
RTVSPost2010PropOp45
 70
     1
102
RTVSPost2010Prop46
 90
       50
102
RTVSPost2010PropOp46
 70
     0
102
RTVSPost2010Prop47
 90
       50
102
RTVSPost2010PropOp47
 70
     0
102
RTVSPost2010Prop48
 90
       50
102
RTVSPost2010PropOp48
 70
     0
102
RTVSPost2010Prop49
280
     0
102
RTVSPost2010PropOp49
 70
     1
102
RTVSPost2010Prop50
 90
       50
102
RTVSPost2010PropOp50
 70
     0
102
RTVSPost2010Prop51ColorIndex
 90
      256
102
RTVSPost2010Prop51ColorRGB
 90
-16777216
102
RTVSPost2010PropOp51
 70
     0
102
RTVSPost2010Prop52
140
1.0
102
RTVSPost2010PropOp52
 70
     0
102
RTVSPost2010Prop53
 90
        2
102
RTVSPost2010PropOp53
 70
     0
102
RTVSPost2010Prop54
  1
strokes_ogs.tif
102
RTVSPost2010PropOp54
 70
     0
102
RTVSPost2010Prop55
280
     0
102
RTVSPost2010PropOp55
 70
     1
102
RTVSPost2010Prop56
140
1.0
102
RTVSPost2010PropOp56
 70
     0
102
RTVSPost2010Prop57
140
1.0
102
RTVSPost2010PropOp57
 70
     0
102
RTVSPropertyOp0
 70
     0
102
RTVSPropertyOp1
 70
     0
102
RTVSPropertyOp2
 70
     0
102
RTVSPropertyOp3
 70
     0
102
RTVSPropertyOp4
 70
     0
102
RTVSPropertyOp5
 70
     0
102
RTVSPropertyOp6
 70
     0
102
RTVSPropertyOp7
 70
     0
102
RTVSPropertyOp8
 70
     0
102
RTVSPropertyOp9
 70
     0
102
RTVSPropertyOp10
 70
     0
102
RTVSPropertyOp11
 70
     0
102
RTVSPropertyOp12
 70
     0
102
RTVSPropertyOp13
 70
     0
102
RTVSPropertyOp14
 70
     2
102
RTVSPropertyOp15
 70
     0
102
RTVSPropertyOp16
 70
     0
102
RTVSPropertyOp17
 70
     0
102
RTVSPropertyOp18
 70
     0
102
RTVSPropertyOp19
 70
     0
102
RTVSPropertyOp20
 70
     0
102
RTVSPropertyOp21
 70
     0
102
RTVSPropertyOp22
 70
     0
102
RTVSPropertyOp23
 70
     0
102
RTVSPropertyOp24
 70
     0
102
RTVSPropertyOp25
 70
     0
102
RTVSPropertyOp26
 70
     0
102
RTVSPropertyOp27
 70
     0
102
RTVSPropertyOp28
 70
     1
102
RTVSPropertyOp29
 70
     1
102
RTVSPropertyOp30
 70
     1
102
RTVSPropertyOp31
 70
     1
102
RTVSPropertyOp32
 70
     1
102
RTVSPropertyOp33
 70
     1
102
RTVSPropertyOp34
 70
     1
102
RTVSPropertyOp35
 70
     1
102
RTVSPropertyOp36
 70
     1
102
RTVSPropertyOp37
 70
     0
102
RTVSPropertyOp38
 70
     0
102
RTVSPropertyOp39
 70
     0
102
RTVSPropertyOp40
 70
     0
102
RTVSPropertyOp41
 70
     0
102
RTVSPropertyOp42
 70
     0
102
RTVSPropertyOp43
 70
     0
102
RTVSPropertyOp44
 70
     0
102
RTVSPropertyOp45
 70
     1
102
RTVSPropertyOp46
 70
     0
102
RTVSPropertyOp47
 70
     0
102
RTVSPropertyOp48
 70
     0
102
RTVSPropertyOp49
 70
     1
102
RTVSPropertyOp50
 70
     0
102
RTVSPropertyOp51
 70
     0
102
RTVSPropertyOp52
 70
     0
102
RTVSPropertyOp53
 70
     0
102
RTVSPropertyOp54
 70
     0
102
RTVSPropertyOp55
 70
     1
102
RTVSPropertyOp56
 70
     0
102
RTVSPropertyOp57
 70
     0
102
RTVSPropertyOp58
 70
     0
102
RTVSPropertyOp59
 70
     0
102
RTVSPropertyOp60
 70
     0
102
RTVSPropertyOp61
 70
     0
102
RTVSPropertyOp62
 70
     0
  0
XRECORD
  5
146D
102
{ACAD_REACTORS
330
146C
102
}
330
146C
100
AcDbXrecord
280
     1
102
RTVSPost2010Prop28
280
     0
102
RTVSPost2010PropOp28
 70
     1
102
RTVSPost2010Prop29
280
     1
102
RTVSPost2010PropOp29
 70
     1
102
RTVSPost2010Prop30
280
     1
102
RTVSPost2010PropOp30
 70
     1
102
RTVSPost2010Prop31
280
     0
102
RTVSPost2010PropOp31
 70
     1
102
RTVSPost2010Prop32
280
     0
102
RTVSPost2010PropOp32
 70
     1
102
RTVSPost2010Prop33
280
     0
102
RTVSPost2010PropOp33
 70
     1
102
RTVSPost2010Prop34
280
     0
102
RTVSPost2010PropOp34
 70
     1
102
RTVSPost2010Prop35
280
     0
102
RTVSPost2010PropOp35
 70
     1
102
RTVSPost2010Prop36
280
     0
102
RTVSPost2010PropOp36
 70
     1
102
RTVSPost2010Prop37
 90
       50
102
RTVSPost2010PropOp37
 70
     1
102
RTVSPost2010Prop38
140
0.0
102
RTVSPost2010PropOp38
 70
     1
102
RTVSPost2010Prop39
140
1.0
102
RTVSPost2010PropOp39
 70
     1
102
RTVSPost2010Prop40
 90
        0
102
RTVSPost2010PropOp40
 70
     1
102
RTVSPost2010Prop41ColorIndex
 90
       18
102
RTVSPost2010Prop41ColorRGB
 90
        0
102
RTVSPost2010PropOp41
 70
     1
102
RTVSPost2010Prop42
 90
       50
102
RTVSPost2010PropOp42
 70
     1
102
RTVSPost2010Prop43
 90
        3
102
RTVSPost2010PropOp43
 70
     1
102
RTVSPost2010Prop44ColorIndex
 90
        5
102
RTVSPost2010Prop44ColorRGB
 90
      255
102
RTVSPost2010PropOp44
 70
     1
102
RTVSPost2010Prop45
280
     0
102
RTVSPost2010PropOp45
 70
     1
102
RTVSPost2010Prop46
 90
       50
102
RTVSPost2010PropOp46
 70
     1
102
RTVSPost2010Prop47
 90
       50
102
RTVSPost2010PropOp47
 70
     1
102
RTVSPost2010Prop48
 90
       50
102
RTVSPost2010PropOp48
 70
     1
102
RTVSPost2010Prop49
280
     0
102
RTVSPost2010PropOp49
 70
     1
102
RTVSPost2010Prop50
 90
       50
102
RTVSPost2010PropOp50
 70
     1
102
RTVSPost2010Prop51ColorIndex
 90
      256
102
RTVSPost2010Prop51ColorRGB
 90
-16777216
102
RTVSPost2010PropOp51
 70
     0
102
RTVSPost2010Prop52
140
1.0
102
RTVSPost2010PropOp52
 70
     0
102
RTVSPost2010Prop53
 90
        2
102
RTVSPost2010PropOp53
 70
     1
102
RTVSPost2010Prop54
  1
strokes_ogs.tif
102
RTVSPost2010PropOp54
 70
     1
102
RTVSPost2010Prop55
280
     0
102
RTVSPost2010PropOp55
 70
     1
102
RTVSPost2010Prop56
140
1.0
102
RTVSPost2010PropOp56
 70
     1
102
RTVSPost2010Prop57
140
1.0
102
RTVSPost2010PropOp57
 70
     1
102
RTVSPropertyOp0
 70
     1
102
RTVSPropertyOp1
 70
     1
102
RTVSPropertyOp2
 70
     1
102
RTVSPropertyOp3
 70
     1
102
RTVSPropertyOp4
 70
     1
102
RTVSPropertyOp5
 70
     1
102
RTVSPropertyOp6
 70
     1
102
RTVSPropertyOp7
 70
     1
102
RTVSPropertyOp8
 70
     1
102
RTVSPropertyOp9
 70
     1
102
RTVSPropertyOp10
 70
     1
102
RTVSPropertyOp11
 70
     1
102
RTVSPropertyOp12
 70
     1
102
RTVSPropertyOp13
 70
     1
102
RTVSPropertyOp14
 70
     1
102
RTVSPropertyOp15
 70
     1
102
RTVSPropertyOp16
 70
     1
102
RTVSPropertyOp17
 70
     1
102
RTVSPropertyOp18
 70
     1
102
RTVSPropertyOp19
 70
     1
102
RTVSPropertyOp20
 70
     1
102
RTVSPropertyOp21
 70
     1
102
RTVSPropertyOp22
 70
     1
102
RTVSPropertyOp23
 70
     1
102
RTVSPropertyOp24
 70
     1
102
RTVSPropertyOp25
 70
     1
102
RTVSPropertyOp26
 70
     1
102
RTVSPropertyOp27
 70
     1
102
RTVSPropertyOp28
 70
     1
102
RTVSPropertyOp29
 70
     1
102
RTVSPropertyOp30
 70
     1
102
RTVSPropertyOp31
 70
     1
102
RTVSPropertyOp32
 70
     1
102
RTVSPropertyOp33
 70
     1
102
RTVSPropertyOp34
 70
     1
102
RTVSPropertyOp35
 70
     1
102
RTVSPropertyOp36
 70
     1
102
RTVSPropertyOp37
 70
     1
102
RTVSPropertyOp38
 70
     1
102
RTVSPropertyOp39
 70
     1
102
RTVSPropertyOp40
 70
     1
102
RTVSPropertyOp41
 70
     1
102
RTVSPropertyOp42
 70
     1
102
RTVSPropertyOp43
 70
     1
102
RTVSPropertyOp44
 70
     1
102
RTVSPropertyOp45
 70
     1
102
RTVSPropertyOp46
 70
     1
102
RTVSPropertyOp47
 70
     1
102
RTVSPropertyOp48
 70
     1
102
RTVSPropertyOp49
 70
     1
102
RTVSPropertyOp50
 70
     1
102
RTVSPropertyOp51
 70
     0
102
RTVSPropertyOp52
 70
     0
102
RTVSPropertyOp53
 70
     1
102
RTVSPropertyOp54
 70
     1
102
RTVSPropertyOp55
 70
     1
102
RTVSPropertyOp56
 70
     1
102
RTVSPropertyOp57
 70
     1
102
RTVSPropertyOp58
 70
     1
102
RTVSPropertyOp59
 70
     1
102
RTVSPropertyOp60
 70
     1
102
RTVSPropertyOp61
 70
     1
102
RTVSPropertyOp62
 70
     1
  0
XRECORD
  5
1483
102
{ACAD_REACTORS
330
1482
102
}
330
1482
100
AcDbXrecord
280
     1
102
RTVSPost2010Prop28
280
     0
102
RTVSPost2010PropOp28
 70
     1
102
RTVSPost2010Prop29
280
     1
102
RTVSPost2010PropOp29
 70
     1
102
RTVSPost2010Prop30
280
     1
102
RTVSPost2010PropOp30
 70
     1
102
RTVSPost2010Prop31
280
     0
102
RTVSPost2010PropOp31
 70
     1
102
RTVSPost2010Prop32
280
     0
102
RTVSPost2010PropOp32
 70
     1
102
RTVSPost2010Prop33
280
     0
102
RTVSPost2010PropOp33
 70
     1
102
RTVSPost2010Prop34
280
     0
102
RTVSPost2010PropOp34
 70
     1
102
RTVSPost2010Prop35
280
     0
102
RTVSPost2010PropOp35
 70
     1
102
RTVSPost2010Prop36
280
     0
102
RTVSPost2010PropOp36
 70
     1
102
RTVSPost2010Prop37
 90
       50
102
RTVSPost2010PropOp37
 70
     1
102
RTVSPost2010Prop38
140
0.0
102
RTVSPost2010PropOp38
 70
     1
102
RTVSPost2010Prop39
140
1.0
102
RTVSPost2010PropOp39
 70
     1
102
RTVSPost2010Prop40
 90
        0
102
RTVSPost2010PropOp40
 70
     1
102
RTVSPost2010Prop41ColorIndex
 90
       18
102
RTVSPost2010Prop41ColorRGB
 90
        0
102
RTVSPost2010PropOp41
 70
     1
102
RTVSPost2010Prop42
 90
       50
102
RTVSPost2010PropOp42
 70
     1
102
RTVSPost2010Prop43
 90
        3
102
RTVSPost2010PropOp43
 70
     1
102
RTVSPost2010Prop44ColorIndex
 90
        5
102
RTVSPost2010Prop44ColorRGB
 90
      255
102
RTVSPost2010PropOp44
 70
     1
102
RTVSPost2010Prop45
280
     0
102
RTVSPost2010PropOp45
 70
     1
102
RTVSPost2010Prop46
 90
       50
102
RTVSPost2010PropOp46
 70
     1
102
RTVSPost2010Prop47
 90
       50
102
RTVSPost2010PropOp47
 70
     1
102
RTVSPost2010Prop48
 90
       50
102
RTVSPost2010PropOp48
 70
     1
102
RTVSPost2010Prop49
280
     0
102
RTVSPost2010PropOp49
 70
     1
102
RTVSPost2010Prop50
 90
       50
102
RTVSPost2010PropOp50
 70
     1
102
RTVSPost2010Prop51ColorIndex
 90
      256
102
RTVSPost2010Prop51ColorRGB
 90
-16777216
102
RTVSPost2010PropOp51
 70
     0
102
RTVSPost2010Prop52
140
1.0
102
RTVSPost2010PropOp52
 70
     0
102
RTVSPost2010Prop53
 90
        2
102
RTVSPost2010PropOp53
 70
     1
102
RTVSPost2010Prop54
  1
strokes_ogs.tif
102
RTVSPost2010PropOp54
 70
     1
102
RTVSPost2010Prop55
280
     0
102
RTVSPost2010PropOp55
 70
     1
102
RTVSPost2010Prop56
140
1.0
102
RTVSPost2010PropOp56
 70
     1
102
RTVSPost2010Prop57
140
1.0
102
RTVSPost2010PropOp57
 70
     1
102
RTVSPropertyOp0
 70
     1
102
RTVSPropertyOp1
 70
     1
102
RTVSPropertyOp2
 70
     1
102
RTVSPropertyOp3
 70
     1
102
RTVSPropertyOp4
 70
     1
102
RTVSPropertyOp5
 70
     1
102
RTVSPropertyOp6
 70
     1
102
RTVSPropertyOp7
 70
     1
102
RTVSPropertyOp8
 70
     1
102
RTVSPropertyOp9
 70
     1
102
RTVSPropertyOp10
 70
     1
102
RTVSPropertyOp11
 70
     1
102
RTVSPropertyOp12
 70
     1
102
RTVSPropertyOp13
 70
     1
102
RTVSPropertyOp14
 70
     1
102
RTVSPropertyOp15
 70
     1
102
RTVSPropertyOp16
 70
     1
102
RTVSPropertyOp17
 70
     1
102
RTVSPropertyOp18
 70
     1
102
RTVSPropertyOp19
 70
     1
102
RTVSPropertyOp20
 70
     1
102
RTVSPropertyOp21
 70
     1
102
RTVSPropertyOp22
 70
     1
102
RTVSPropertyOp23
 70
     1
102
RTVSPropertyOp24
 70
     1
102
RTVSPropertyOp25
 70
     1
102
RTVSPropertyOp26
 70
     1
102
RTVSPropertyOp27
 70
     1
102
RTVSPropertyOp28
 70
     1
102
RTVSPropertyOp29
 70
     1
102
RTVSPropertyOp30
 70
     1
102
RTVSPropertyOp31
 70
     1
102
RTVSPropertyOp32
 70
     1
102
RTVSPropertyOp33
 70
     1
102
RTVSPropertyOp34
 70
     1
102
RTVSPropertyOp35
 70
     1
102
RTVSPropertyOp36
 70
     1
102
RTVSPropertyOp37
 70
     1
102
RTVSPropertyOp38
 70
     1
102
RTVSPropertyOp39
 70
     1
102
RTVSPropertyOp40
 70
     1
102
RTVSPropertyOp41
 70
     1
102
RTVSPropertyOp42
 70
     1
102
RTVSPropertyOp43
 70
     1
102
RTVSPropertyOp44
 70
     1
102
RTVSPropertyOp45
 70
     1
102
RTVSPropertyOp46
 70
     1
102
RTVSPropertyOp47
 70
     1
102
RTVSPropertyOp48
 70
     1
102
RTVSPropertyOp49
 70
     1
102
RTVSPropertyOp50
 70
     1
102
RTVSPropertyOp51
 70
     0
102
RTVSPropertyOp52
 70
     0
102
RTVSPropertyOp53
 70
     1
102
RTVSPropertyOp54
 70
     1
102
RTVSPropertyOp55
 70
     1
102
RTVSPropertyOp56
 70
     1
102
RTVSPropertyOp57
 70
     1
102
RTVSPropertyOp58
 70
     1
102
RTVSPropertyOp59
 70
     1
102
RTVSPropertyOp60
 70
     1
102
RTVSPropertyOp61
 70
     1
102
RTVSPropertyOp62
 70
     1
  0
XRECORD
  5
1481
102
{ACAD_REACTORS
330
1480
102
}
330
1480
100
AcDbXrecord
280
     1
102
RTVSPost2010Prop28
280
     0
102
RTVSPost2010PropOp28
 70
     1
102
RTVSPost2010Prop29
280
     1
102
RTVSPost2010PropOp29
 70
     1
102
RTVSPost2010Prop30
280
     1
102
RTVSPost2010PropOp30
 70
     1
102
RTVSPost2010Prop31
280
     0
102
RTVSPost2010PropOp31
 70
     1
102
RTVSPost2010Prop32
280
     0
102
RTVSPost2010PropOp32
 70
     1
102
RTVSPost2010Prop33
280
     0
102
RTVSPost2010PropOp33
 70
     1
102
RTVSPost2010Prop34
280
     0
102
RTVSPost2010PropOp34
 70
     1
102
RTVSPost2010Prop35
280
     0
102
RTVSPost2010PropOp35
 70
     1
102
RTVSPost2010Prop36
280
     0
102
RTVSPost2010PropOp36
 70
     1
102
RTVSPost2010Prop37
 90
       50
102
RTVSPost2010PropOp37
 70
     1
102
RTVSPost2010Prop38
140
0.0
102
RTVSPost2010PropOp38
 70
     1
102
RTVSPost2010Prop39
140
1.0
102
RTVSPost2010PropOp39
 70
     1
102
RTVSPost2010Prop40
 90
        0
102
RTVSPost2010PropOp40
 70
     1
102
RTVSPost2010Prop41ColorIndex
 90
       18
102
RTVSPost2010Prop41ColorRGB
 90
        0
102
RTVSPost2010PropOp41
 70
     1
102
RTVSPost2010Prop42
 90
       50
102
RTVSPost2010PropOp42
 70
     1
102
RTVSPost2010Prop43
 90
        3
102
RTVSPost2010PropOp43
 70
     1
102
RTVSPost2010Prop44ColorIndex
 90
        5
102
RTVSPost2010Prop44ColorRGB
 90
      255
102
RTVSPost2010PropOp44
 70
     1
102
RTVSPost2010Prop45
280
     0
102
RTVSPost2010PropOp45
 70
     1
102
RTVSPost2010Prop46
 90
       50
102
RTVSPost2010PropOp46
 70
     1
102
RTVSPost2010Prop47
 90
       50
102
RTVSPost2010PropOp47
 70
     1
102
RTVSPost2010Prop48
 90
       50
102
RTVSPost2010PropOp48
 70
     1
102
RTVSPost2010Prop49
280
     0
102
RTVSPost2010PropOp49
 70
     1
102
RTVSPost2010Prop50
 90
       50
102
RTVSPost2010PropOp50
 70
     1
102
RTVSPost2010Prop51ColorIndex
 90
      256
102
RTVSPost2010Prop51ColorRGB
 90
-16777216
102
RTVSPost2010PropOp51
 70
     0
102
RTVSPost2010Prop52
140
1.0
102
RTVSPost2010PropOp52
 70
     0
102
RTVSPost2010Prop53
 90
        2
102
RTVSPost2010PropOp53
 70
     1
102
RTVSPost2010Prop54
  1
strokes_ogs.tif
102
RTVSPost2010PropOp54
 70
     1
102
RTVSPost2010Prop55
280
     0
102
RTVSPost2010PropOp55
 70
     1
102
RTVSPost2010Prop56
140
1.0
102
RTVSPost2010PropOp56
 70
     1
102
RTVSPost2010Prop57
140
1.0
102
RTVSPost2010PropOp57
 70
     1
102
RTVSPropertyOp0
 70
     1
102
RTVSPropertyOp1
 70
     1
102
RTVSPropertyOp2
 70
     1
102
RTVSPropertyOp3
 70
     1
102
RTVSPropertyOp4
 70
     1
102
RTVSPropertyOp5
 70
     1
102
RTVSPropertyOp6
 70
     1
102
RTVSPropertyOp7
 70
     1
102
RTVSPropertyOp8
 70
     1
102
RTVSPropertyOp9
 70
     1
102
RTVSPropertyOp10
 70
     1
102
RTVSPropertyOp11
 70
     1
102
RTVSPropertyOp12
 70
     1
102
RTVSPropertyOp13
 70
     1
102
RTVSPropertyOp14
 70
     1
102
RTVSPropertyOp15
 70
     1
102
RTVSPropertyOp16
 70
     1
102
RTVSPropertyOp17
 70
     1
102
RTVSPropertyOp18
 70
     1
102
RTVSPropertyOp19
 70
     1
102
RTVSPropertyOp20
 70
     1
102
RTVSPropertyOp21
 70
     1
102
RTVSPropertyOp22
 70
     1
102
RTVSPropertyOp23
 70
     1
102
RTVSPropertyOp24
 70
     1
102
RTVSPropertyOp25
 70
     1
102
RTVSPropertyOp26
 70
     1
102
RTVSPropertyOp27
 70
     1
102
RTVSPropertyOp28
 70
     1
102
RTVSPropertyOp29
 70
     1
102
RTVSPropertyOp30
 70
     1
102
RTVSPropertyOp31
 70
     1
102
RTVSPropertyOp32
 70
     1
102
RTVSPropertyOp33
 70
     1
102
RTVSPropertyOp34
 70
     1
102
RTVSPropertyOp35
 70
     1
102
RTVSPropertyOp36
 70
     1
102
RTVSPropertyOp37
 70
     1
102
RTVSPropertyOp38
 70
     1
102
RTVSPropertyOp39
 70
     1
102
RTVSPropertyOp40
 70
     1
102
RTVSPropertyOp41
 70
     1
102
RTVSPropertyOp42
 70
     1
102
RTVSPropertyOp43
 70
     1
102
RTVSPropertyOp44
 70
     1
102
RTVSPropertyOp45
 70
     1
102
RTVSPropertyOp46
 70
     1
102
RTVSPropertyOp47
 70
     1
102
RTVSPropertyOp48
 70
     1
102
RTVSPropertyOp49
 70
     1
102
RTVSPropertyOp50
 70
     1
102
RTVSPropertyOp51
 70
     0
102
RTVSPropertyOp52
 70
     0
102
RTVSPropertyOp53
 70
     1
102
RTVSPropertyOp54
 70
     1
102
RTVSPropertyOp55
 70
     1
102
RTVSPropertyOp56
 70
     1
102
RTVSPropertyOp57
 70
     1
102
RTVSPropertyOp58
 70
     1
102
RTVSPropertyOp59
 70
     1
102
RTVSPropertyOp60
 70
     1
102
RTVSPropertyOp61
 70
     1
102
RTVSPropertyOp62
 70
     1
  0
XRECORD
  5
147B
102
{ACAD_REACTORS
330
147A
102
}
330
147A
100
AcDbXrecord
280
     1
102
RTVSPost2010Prop28
280
     0
102
RTVSPost2010PropOp28
 70
     1
102
RTVSPost2010Prop29
280
     1
102
RTVSPost2010PropOp29
 70
     1
102
RTVSPost2010Prop30
280
     1
102
RTVSPost2010PropOp30
 70
     1
102
RTVSPost2010Prop31
280
     0
102
RTVSPost2010PropOp31
 70
     1
102
RTVSPost2010Prop32
280
     0
102
RTVSPost2010PropOp32
 70
     1
102
RTVSPost2010Prop33
280
     0
102
RTVSPost2010PropOp33
 70
     1
102
RTVSPost2010Prop34
280
     0
102
RTVSPost2010PropOp34
 70
     1
102
RTVSPost2010Prop35
280
     0
102
RTVSPost2010PropOp35
 70
     1
102
RTVSPost2010Prop36
280
     0
102
RTVSPost2010PropOp36
 70
     1
102
RTVSPost2010Prop37
 90
       50
102
RTVSPost2010PropOp37
 70
     1
102
RTVSPost2010Prop38
140
0.0
102
RTVSPost2010PropOp38
 70
     1
102
RTVSPost2010Prop39
140
1.0
102
RTVSPost2010PropOp39
 70
     1
102
RTVSPost2010Prop40
 90
        0
102
RTVSPost2010PropOp40
 70
     1
102
RTVSPost2010Prop41ColorIndex
 90
       18
102
RTVSPost2010Prop41ColorRGB
 90
        0
102
RTVSPost2010PropOp41
 70
     1
102
RTVSPost2010Prop42
 90
       50
102
RTVSPost2010PropOp42
 70
     1
102
RTVSPost2010Prop43
 90
        3
102
RTVSPost2010PropOp43
 70
     1
102
RTVSPost2010Prop44ColorIndex
 90
        5
102
RTVSPost2010Prop44ColorRGB
 90
      255
102
RTVSPost2010PropOp44
 70
     1
102
RTVSPost2010Prop45
280
     0
102
RTVSPost2010PropOp45
 70
     1
102
RTVSPost2010Prop46
 90
       50
102
RTVSPost2010PropOp46
 70
     1
102
RTVSPost2010Prop47
 90
       50
102
RTVSPost2010PropOp47
 70
     1
102
RTVSPost2010Prop48
 90
       50
102
RTVSPost2010PropOp48
 70
     1
102
RTVSPost2010Prop49
280
     0
102
RTVSPost2010PropOp49
 70
     1
102
RTVSPost2010Prop50
 90
       50
102
RTVSPost2010PropOp50
 70
     1
102
RTVSPost2010Prop51ColorIndex
 90
      256
102
RTVSPost2010Prop51ColorRGB
 90
-16777216
102
RTVSPost2010PropOp51
 70
     0
102
RTVSPost2010Prop52
140
1.0
102
RTVSPost2010PropOp52
 70
     0
102
RTVSPost2010Prop53
 90
        2
102
RTVSPost2010PropOp53
 70
     1
102
RTVSPost2010Prop54
  1
strokes_ogs.tif
102
RTVSPost2010PropOp54
 70
     1
102
RTVSPost2010Prop55
280
     0
102
RTVSPost2010PropOp55
 70
     1
102
RTVSPost2010Prop56
140
1.0
102
RTVSPost2010PropOp56
 70
     1
102
RTVSPost2010Prop57
140
1.0
102
RTVSPost2010PropOp57
 70
     1
102
RTVSPropertyOp0
 70
     1
102
RTVSPropertyOp1
 70
     1
102
RTVSPropertyOp2
 70
     1
102
RTVSPropertyOp3
 70
     1
102
RTVSPropertyOp4
 70
     1
102
RTVSPropertyOp5
 70
     1
102
RTVSPropertyOp6
 70
     1
102
RTVSPropertyOp7
 70
     1
102
RTVSPropertyOp8
 70
     1
102
RTVSPropertyOp9
 70
     1
102
RTVSPropertyOp10
 70
     1
102
RTVSPropertyOp11
 70
     1
102
RTVSPropertyOp12
 70
     1
102
RTVSPropertyOp13
 70
     1
102
RTVSPropertyOp14
 70
     1
102
RTVSPropertyOp15
 70
     1
102
RTVSPropertyOp16
 70
     1
102
RTVSPropertyOp17
 70
     1
102
RTVSPropertyOp18
 70
     1
102
RTVSPropertyOp19
 70
     1
102
RTVSPropertyOp20
 70
     1
102
RTVSPropertyOp21
 70
     1
102
RTVSPropertyOp22
 70
     1
102
RTVSPropertyOp23
 70
     1
102
RTVSPropertyOp24
 70
     1
102
RTVSPropertyOp25
 70
     1
102
RTVSPropertyOp26
 70
     1
102
RTVSPropertyOp27
 70
     1
102
RTVSPropertyOp28
 70
     1
102
RTVSPropertyOp29
 70
     1
102
RTVSPropertyOp30
 70
     1
102
RTVSPropertyOp31
 70
     1
102
RTVSPropertyOp32
 70
     1
102
RTVSPropertyOp33
 70
     1
102
RTVSPropertyOp34
 70
     1
102
RTVSPropertyOp35
 70
     1
102
RTVSPropertyOp36
 70
     1
102
RTVSPropertyOp37
 70
     1
102
RTVSPropertyOp38
 70
     1
102
RTVSPropertyOp39
 70
     1
102
RTVSPropertyOp40
 70
     1
102
RTVSPropertyOp41
 70
     1
102
RTVSPropertyOp42
 70
     1
102
RTVSPropertyOp43
 70
     1
102
RTVSPropertyOp44
 70
     1
102
RTVSPropertyOp45
 70
     1
102
RTVSPropertyOp46
 70
     1
102
RTVSPropertyOp47
 70
     1
102
RTVSPropertyOp48
 70
     1
102
RTVSPropertyOp49
 70
     1
102
RTVSPropertyOp50
 70
     1
102
RTVSPropertyOp51
 70
     0
102
RTVSPropertyOp52
 70
     0
102
RTVSPropertyOp53
 70
     1
102
RTVSPropertyOp54
 70
     1
102
RTVSPropertyOp55
 70
     1
102
RTVSPropertyOp56
 70
     1
102
RTVSPropertyOp57
 70
     1
102
RTVSPropertyOp58
 70
     1
102
RTVSPropertyOp59
 70
     1
102
RTVSPropertyOp60
 70
     1
102
RTVSPropertyOp61
 70
     1
102
RTVSPropertyOp62
 70
     1
  0
XRECORD
  5
147D
102
{ACAD_REACTORS
330
147C
102
}
330
147C
100
AcDbXrecord
280
     1
102
RTVSPost2010Prop28
280
     0
102
RTVSPost2010PropOp28
 70
     1
102
RTVSPost2010Prop29
280
     1
102
RTVSPost2010PropOp29
 70
     1
102
RTVSPost2010Prop30
280
     1
102
RTVSPost2010PropOp30
 70
     1
102
RTVSPost2010Prop31
280
     0
102
RTVSPost2010PropOp31
 70
     1
102
RTVSPost2010Prop32
280
     0
102
RTVSPost2010PropOp32
 70
     1
102
RTVSPost2010Prop33
280
     0
102
RTVSPost2010PropOp33
 70
     1
102
RTVSPost2010Prop34
280
     0
102
RTVSPost2010PropOp34
 70
     1
102
RTVSPost2010Prop35
280
     0
102
RTVSPost2010PropOp35
 70
     1
102
RTVSPost2010Prop36
280
     0
102
RTVSPost2010PropOp36
 70
     1
102
RTVSPost2010Prop37
 90
       50
102
RTVSPost2010PropOp37
 70
     1
102
RTVSPost2010Prop38
140
0.0
102
RTVSPost2010PropOp38
 70
     1
102
RTVSPost2010Prop39
140
1.0
102
RTVSPost2010PropOp39
 70
     1
102
RTVSPost2010Prop40
 90
        0
102
RTVSPost2010PropOp40
 70
     1
102
RTVSPost2010Prop41ColorIndex
 90
       18
102
RTVSPost2010Prop41ColorRGB
 90
        0
102
RTVSPost2010PropOp41
 70
     1
102
RTVSPost2010Prop42
 90
       50
102
RTVSPost2010PropOp42
 70
     1
102
RTVSPost2010Prop43
 90
        3
102
RTVSPost2010PropOp43
 70
     1
102
RTVSPost2010Prop44ColorIndex
 90
        5
102
RTVSPost2010Prop44ColorRGB
 90
      255
102
RTVSPost2010PropOp44
 70
     1
102
RTVSPost2010Prop45
280
     0
102
RTVSPost2010PropOp45
 70
     1
102
RTVSPost2010Prop46
 90
       50
102
RTVSPost2010PropOp46
 70
     1
102
RTVSPost2010Prop47
 90
       50
102
RTVSPost2010PropOp47
 70
     1
102
RTVSPost2010Prop48
 90
       50
102
RTVSPost2010PropOp48
 70
     1
102
RTVSPost2010Prop49
280
     0
102
RTVSPost2010PropOp49
 70
     1
102
RTVSPost2010Prop50
 90
       50
102
RTVSPost2010PropOp50
 70
     1
102
RTVSPost2010Prop51ColorIndex
 90
      256
102
RTVSPost2010Prop51ColorRGB
 90
-16777216
102
RTVSPost2010PropOp51
 70
     0
102
RTVSPost2010Prop52
140
1.0
102
RTVSPost2010PropOp52
 70
     0
102
RTVSPost2010Prop53
 90
        2
102
RTVSPost2010PropOp53
 70
     1
102
RTVSPost2010Prop54
  1
strokes_ogs.tif
102
RTVSPost2010PropOp54
 70
     1
102
RTVSPost2010Prop55
280
     0
102
RTVSPost2010PropOp55
 70
     1
102
RTVSPost2010Prop56
140
1.0
102
RTVSPost2010PropOp56
 70
     1
102
RTVSPost2010Prop57
140
1.0
102
RTVSPost2010PropOp57
 70
     1
102
RTVSPropertyOp0
 70
     1
102
RTVSPropertyOp1
 70
     1
102
RTVSPropertyOp2
 70
     1
102
RTVSPropertyOp3
 70
     1
102
RTVSPropertyOp4
 70
     1
102
RTVSPropertyOp5
 70
     1
102
RTVSPropertyOp6
 70
     1
102
RTVSPropertyOp7
 70
     1
102
RTVSPropertyOp8
 70
     1
102
RTVSPropertyOp9
 70
     1
102
RTVSPropertyOp10
 70
     1
102
RTVSPropertyOp11
 70
     1
102
RTVSPropertyOp12
 70
     1
102
RTVSPropertyOp13
 70
     1
102
RTVSPropertyOp14
 70
     1
102
RTVSPropertyOp15
 70
     1
102
RTVSPropertyOp16
 70
     1
102
RTVSPropertyOp17
 70
     1
102
RTVSPropertyOp18
 70
     1
102
RTVSPropertyOp19
 70
     1
102
RTVSPropertyOp20
 70
     1
102
RTVSPropertyOp21
 70
     1
102
RTVSPropertyOp22
 70
     1
102
RTVSPropertyOp23
 70
     1
102
RTVSPropertyOp24
 70
     1
102
RTVSPropertyOp25
 70
     1
102
RTVSPropertyOp26
 70
     1
102
RTVSPropertyOp27
 70
     1
102
RTVSPropertyOp28
 70
     1
102
RTVSPropertyOp29
 70
     1
102
RTVSPropertyOp30
 70
     1
102
RTVSPropertyOp31
 70
     1
102
RTVSPropertyOp32
 70
     1
102
RTVSPropertyOp33
 70
     1
102
RTVSPropertyOp34
 70
     1
102
RTVSPropertyOp35
 70
     1
102
RTVSPropertyOp36
 70
     1
102
RTVSPropertyOp37
 70
     1
102
RTVSPropertyOp38
 70
     1
102
RTVSPropertyOp39
 70
     1
102
RTVSPropertyOp40
 70
     1
102
RTVSPropertyOp41
 70
     1
102
RTVSPropertyOp42
 70
     1
102
RTVSPropertyOp43
 70
     1
102
RTVSPropertyOp44
 70
     1
102
RTVSPropertyOp45
 70
     1
102
RTVSPropertyOp46
 70
     1
102
RTVSPropertyOp47
 70
     1
102
RTVSPropertyOp48
 70
     1
102
RTVSPropertyOp49
 70
     1
102
RTVSPropertyOp50
 70
     1
102
RTVSPropertyOp51
 70
     0
102
RTVSPropertyOp52
 70
     0
102
RTVSPropertyOp53
 70
     1
102
RTVSPropertyOp54
 70
     1
102
RTVSPropertyOp55
 70
     1
102
RTVSPropertyOp56
 70
     1
102
RTVSPropertyOp57
 70
     1
102
RTVSPropertyOp58
 70
     1
102
RTVSPropertyOp59
 70
     1
102
RTVSPropertyOp60
 70
     1
102
RTVSPropertyOp61
 70
     1
102
RTVSPropertyOp62
 70
     1
  0
XRECORD
  5
1473
102
{ACAD_REACTORS
330
1472
102
}
330
1472
100
AcDbXrecord
280
     1
102
RTVSPost2010Prop28
280
     0
102
RTVSPost2010PropOp28
 70
     1
102
RTVSPost2010Prop29
280
     1
102
RTVSPost2010PropOp29
 70
     1
102
RTVSPost2010Prop30
280
     1
102
RTVSPost2010PropOp30
 70
     1
102
RTVSPost2010Prop31
280
     0
102
RTVSPost2010PropOp31
 70
     1
102
RTVSPost2010Prop32
280
     0
102
RTVSPost2010PropOp32
 70
     1
102
RTVSPost2010Prop33
280
     0
102
RTVSPost2010PropOp33
 70
     1
102
RTVSPost2010Prop34
280
     0
102
RTVSPost2010PropOp34
 70
     1
102
RTVSPost2010Prop35
280
     0
102
RTVSPost2010PropOp35
 70
     1
102
RTVSPost2010Prop36
280
     0
102
RTVSPost2010PropOp36
 70
     1
102
RTVSPost2010Prop37
 90
       50
102
RTVSPost2010PropOp37
 70
     1
102
RTVSPost2010Prop38
140
0.0
102
RTVSPost2010PropOp38
 70
     1
102
RTVSPost2010Prop39
140
1.0
102
RTVSPost2010PropOp39
 70
     1
102
RTVSPost2010Prop40
 90
        0
102
RTVSPost2010PropOp40
 70
     1
102
RTVSPost2010Prop41ColorIndex
 90
       18
102
RTVSPost2010Prop41ColorRGB
 90
        0
102
RTVSPost2010PropOp41
 70
     1
102
RTVSPost2010Prop42
 90
       50
102
RTVSPost2010PropOp42
 70
     1
102
RTVSPost2010Prop43
 90
        3
102
RTVSPost2010PropOp43
 70
     1
102
RTVSPost2010Prop44ColorIndex
 90
        5
102
RTVSPost2010Prop44ColorRGB
 90
      255
102
RTVSPost2010PropOp44
 70
     1
102
RTVSPost2010Prop45
280
     0
102
RTVSPost2010PropOp45
 70
     1
102
RTVSPost2010Prop46
 90
       50
102
RTVSPost2010PropOp46
 70
     1
102
RTVSPost2010Prop47
 90
       50
102
RTVSPost2010PropOp47
 70
     1
102
RTVSPost2010Prop48
 90
       50
102
RTVSPost2010PropOp48
 70
     1
102
RTVSPost2010Prop49
280
     0
102
RTVSPost2010PropOp49
 70
     1
102
RTVSPost2010Prop50
 90
       50
102
RTVSPost2010PropOp50
 70
     1
102
RTVSPost2010Prop51ColorIndex
 90
      256
102
RTVSPost2010Prop51ColorRGB
 90
-16777216
102
RTVSPost2010PropOp51
 70
     0
102
RTVSPost2010Prop52
140
1.0
102
RTVSPost2010PropOp52
 70
     0
102
RTVSPost2010Prop53
 90
        2
102
RTVSPost2010PropOp53
 70
     1
102
RTVSPost2010Prop54
  1
strokes_ogs.tif
102
RTVSPost2010PropOp54
 70
     1
102
RTVSPost2010Prop55
280
     0
102
RTVSPost2010PropOp55
 70
     1
102
RTVSPost2010Prop56
140
1.0
102
RTVSPost2010PropOp56
 70
     1
102
RTVSPost2010Prop57
140
1.0
102
RTVSPost2010PropOp57
 70
     1
102
RTVSPropertyOp0
 70
     1
102
RTVSPropertyOp1
 70
     1
102
RTVSPropertyOp2
 70
     1
102
RTVSPropertyOp3
 70
     1
102
RTVSPropertyOp4
 70
     1
102
RTVSPropertyOp5
 70
     1
102
RTVSPropertyOp6
 70
     1
102
RTVSPropertyOp7
 70
     1
102
RTVSPropertyOp8
 70
     1
102
RTVSPropertyOp9
 70
     1
102
RTVSPropertyOp10
 70
     1
102
RTVSPropertyOp11
 70
     1
102
RTVSPropertyOp12
 70
     1
102
RTVSPropertyOp13
 70
     1
102
RTVSPropertyOp14
 70
     1
102
RTVSPropertyOp15
 70
     1
102
RTVSPropertyOp16
 70
     1
102
RTVSPropertyOp17
 70
     1
102
RTVSPropertyOp18
 70
     1
102
RTVSPropertyOp19
 70
     1
102
RTVSPropertyOp20
 70
     1
102
RTVSPropertyOp21
 70
     1
102
RTVSPropertyOp22
 70
     1
102
RTVSPropertyOp23
 70
     1
102
RTVSPropertyOp24
 70
     1
102
RTVSPropertyOp25
 70
     1
102
RTVSPropertyOp26
 70
     1
102
RTVSPropertyOp27
 70
     1
102
RTVSPropertyOp28
 70
     1
102
RTVSPropertyOp29
 70
     1
102
RTVSPropertyOp30
 70
     1
102
RTVSPropertyOp31
 70
     1
102
RTVSPropertyOp32
 70
     1
102
RTVSPropertyOp33
 70
     1
102
RTVSPropertyOp34
 70
     1
102
RTVSPropertyOp35
 70
     1
102
RTVSPropertyOp36
 70
     1
102
RTVSPropertyOp37
 70
     1
102
RTVSPropertyOp38
 70
     1
102
RTVSPropertyOp39
 70
     1
102
RTVSPropertyOp40
 70
     1
102
RTVSPropertyOp41
 70
     1
102
RTVSPropertyOp42
 70
     1
102
RTVSPropertyOp43
 70
     1
102
RTVSPropertyOp44
 70
     1
102
RTVSPropertyOp45
 70
     1
102
RTVSPropertyOp46
 70
     1
102
RTVSPropertyOp47
 70
     1
102
RTVSPropertyOp48
 70
     1
102
RTVSPropertyOp49
 70
     1
102
RTVSPropertyOp50
 70
     1
102
RTVSPropertyOp51
 70
     0
102
RTVSPropertyOp52
 70
     0
102
RTVSPropertyOp53
 70
     1
102
RTVSPropertyOp54
 70
     1
102
RTVSPropertyOp55
 70
     1
102
RTVSPropertyOp56
 70
     1
102
RTVSPropertyOp57
 70
     1
102
RTVSPropertyOp58
 70
     1
102
RTVSPropertyOp59
 70
     1
102
RTVSPropertyOp60
 70
     1
102
RTVSPropertyOp61
 70
     1
102
RTVSPropertyOp62
 70
     1
  0
XRECORD
  5
1467
102
{ACAD_REACTORS
330
1466
102
}
330
1466
100
AcDbXrecord
280
     1
102
RTVSPost2010Prop28
280
     0
102
RTVSPost2010PropOp28
 70
     1
102
RTVSPost2010Prop29
280
     1
102
RTVSPost2010PropOp29
 70
     1
102
RTVSPost2010Prop30
280
     1
102
RTVSPost2010PropOp30
 70
     1
102
RTVSPost2010Prop31
280
     0
102
RTVSPost2010PropOp31
 70
     1
102
RTVSPost2010Prop32
280
     0
102
RTVSPost2010PropOp32
 70
     1
102
RTVSPost2010Prop33
280
     0
102
RTVSPost2010PropOp33
 70
     1
102
RTVSPost2010Prop34
280
     0
102
RTVSPost2010PropOp34
 70
     1
102
RTVSPost2010Prop35
280
     0
102
RTVSPost2010PropOp35
 70
     1
102
RTVSPost2010Prop36
280
     0
102
RTVSPost2010PropOp36
 70
     1
102
RTVSPost2010Prop37
 90
       50
102
RTVSPost2010PropOp37
 70
     1
102
RTVSPost2010Prop38
140
0.0
102
RTVSPost2010PropOp38
 70
     1
102
RTVSPost2010Prop39
140
1.0
102
RTVSPost2010PropOp39
 70
     1
102
RTVSPost2010Prop40
 90
        0
102
RTVSPost2010PropOp40
 70
     1
102
RTVSPost2010Prop41ColorIndex
 90
       18
102
RTVSPost2010Prop41ColorRGB
 90
        0
102
RTVSPost2010PropOp41
 70
     1
102
RTVSPost2010Prop42
 90
       50
102
RTVSPost2010PropOp42
 70
     1
102
RTVSPost2010Prop43
 90
        3
102
RTVSPost2010PropOp43
 70
     1
102
RTVSPost2010Prop44ColorIndex
 90
        5
102
RTVSPost2010Prop44ColorRGB
 90
      255
102
RTVSPost2010PropOp44
 70
     1
102
RTVSPost2010Prop45
280
     0
102
RTVSPost2010PropOp45
 70
     1
102
RTVSPost2010Prop46
 90
       50
102
RTVSPost2010PropOp46
 70
     1
102
RTVSPost2010Prop47
 90
       50
102
RTVSPost2010PropOp47
 70
     1
102
RTVSPost2010Prop48
 90
       50
102
RTVSPost2010PropOp48
 70
     1
102
RTVSPost2010Prop49
280
     0
102
RTVSPost2010PropOp49
 70
     1
102
RTVSPost2010Prop50
 90
       50
102
RTVSPost2010PropOp50
 70
     1
102
RTVSPost2010Prop51ColorIndex
 90
      256
102
RTVSPost2010Prop51ColorRGB
 90
-16777216
102
RTVSPost2010PropOp51
 70
     0
102
RTVSPost2010Prop52
140
1.0
102
RTVSPost2010PropOp52
 70
     0
102
RTVSPost2010Prop53
 90
        2
102
RTVSPost2010PropOp53
 70
     1
102
RTVSPost2010Prop54
  1
strokes_ogs.tif
102
RTVSPost2010PropOp54
 70
     1
102
RTVSPost2010Prop55
280
     0
102
RTVSPost2010PropOp55
 70
     1
102
RTVSPost2010Prop56
140
1.0
102
RTVSPost2010PropOp56
 70
     1
102
RTVSPost2010Prop57
140
1.0
102
RTVSPost2010PropOp57
 70
     1
102
RTVSPropertyOp0
 70
     1
102
RTVSPropertyOp1
 70
     1
102
RTVSPropertyOp2
 70
     1
102
RTVSPropertyOp3
 70
     1
102
RTVSPropertyOp4
 70
     1
102
RTVSPropertyOp5
 70
     1
102
RTVSPropertyOp6
 70
     1
102
RTVSPropertyOp7
 70
     1
102
RTVSPropertyOp8
 70
     1
102
RTVSPropertyOp9
 70
     1
102
RTVSPropertyOp10
 70
     1
102
RTVSPropertyOp11
 70
     1
102
RTVSPropertyOp12
 70
     1
102
RTVSPropertyOp13
 70
     1
102
RTVSPropertyOp14
 70
     1
102
RTVSPropertyOp15
 70
     1
102
RTVSPropertyOp16
 70
     1
102
RTVSPropertyOp17
 70
     1
102
RTVSPropertyOp18
 70
     1
102
RTVSPropertyOp19
 70
     1
102
RTVSPropertyOp20
 70
     1
102
RTVSPropertyOp21
 70
     1
102
RTVSPropertyOp22
 70
     1
102
RTVSPropertyOp23
 70
     1
102
RTVSPropertyOp24
 70
     1
102
RTVSPropertyOp25
 70
     1
102
RTVSPropertyOp26
 70
     1
102
RTVSPropertyOp27
 70
     1
102
RTVSPropertyOp28
 70
     1
102
RTVSPropertyOp29
 70
     1
102
RTVSPropertyOp30
 70
     1
102
RTVSPropertyOp31
 70
     1
102
RTVSPropertyOp32
 70
     1
102
RTVSPropertyOp33
 70
     1
102
RTVSPropertyOp34
 70
     1
102
RTVSPropertyOp35
 70
     1
102
RTVSPropertyOp36
 70
     1
102
RTVSPropertyOp37
 70
     1
102
RTVSPropertyOp38
 70
     1
102
RTVSPropertyOp39
 70
     1
102
RTVSPropertyOp40
 70
     1
102
RTVSPropertyOp41
 70
     1
102
RTVSPropertyOp42
 70
     1
102
RTVSPropertyOp43
 70
     1
102
RTVSPropertyOp44
 70
     1
102
RTVSPropertyOp45
 70
     1
102
RTVSPropertyOp46
 70
     1
102
RTVSPropertyOp47
 70
     1
102
RTVSPropertyOp48
 70
     1
102
RTVSPropertyOp49
 70
     1
102
RTVSPropertyOp50
 70
     1
102
RTVSPropertyOp51
 70
     0
102
RTVSPropertyOp52
 70
     0
102
RTVSPropertyOp53
 70
     1
102
RTVSPropertyOp54
 70
     1
102
RTVSPropertyOp55
 70
     1
102
RTVSPropertyOp56
 70
     1
102
RTVSPropertyOp57
 70
     1
102
RTVSPropertyOp58
 70
     1
102
RTVSPropertyOp59
 70
     1
102
RTVSPropertyOp60
 70
     1
102
RTVSPropertyOp61
 70
     1
102
RTVSPropertyOp62
 70
     1
  0
XRECORD
  5
147F
102
{ACAD_REACTORS
330
147E
102
}
330
147E
100
AcDbXrecord
280
     1
102
RTVSPost2010Prop28
280
     0
102
RTVSPost2010PropOp28
 70
     1
102
RTVSPost2010Prop29
280
     1
102
RTVSPost2010PropOp29
 70
     1
102
RTVSPost2010Prop30
280
     1
102
RTVSPost2010PropOp30
 70
     1
102
RTVSPost2010Prop31
280
     0
102
RTVSPost2010PropOp31
 70
     1
102
RTVSPost2010Prop32
280
     0
102
RTVSPost2010PropOp32
 70
     1
102
RTVSPost2010Prop33
280
     0
102
RTVSPost2010PropOp33
 70
     1
102
RTVSPost2010Prop34
280
     0
102
RTVSPost2010PropOp34
 70
     1
102
RTVSPost2010Prop35
280
     0
102
RTVSPost2010PropOp35
 70
     1
102
RTVSPost2010Prop36
280
     0
102
RTVSPost2010PropOp36
 70
     1
102
RTVSPost2010Prop37
 90
       50
102
RTVSPost2010PropOp37
 70
     1
102
RTVSPost2010Prop38
140
0.0
102
RTVSPost2010PropOp38
 70
     1
102
RTVSPost2010Prop39
140
1.0
102
RTVSPost2010PropOp39
 70
     1
102
RTVSPost2010Prop40
 90
        0
102
RTVSPost2010PropOp40
 70
     1
102
RTVSPost2010Prop41ColorIndex
 90
       18
102
RTVSPost2010Prop41ColorRGB
 90
        0
102
RTVSPost2010PropOp41
 70
     1
102
RTVSPost2010Prop42
 90
       50
102
RTVSPost2010PropOp42
 70
     1
102
RTVSPost2010Prop43
 90
        3
102
RTVSPost2010PropOp43
 70
     1
102
RTVSPost2010Prop44ColorIndex
 90
        5
102
RTVSPost2010Prop44ColorRGB
 90
      255
102
RTVSPost2010PropOp44
 70
     1
102
RTVSPost2010Prop45
280
     0
102
RTVSPost2010PropOp45
 70
     1
102
RTVSPost2010Prop46
 90
       50
102
RTVSPost2010PropOp46
 70
     1
102
RTVSPost2010Prop47
 90
       50
102
RTVSPost2010PropOp47
 70
     1
102
RTVSPost2010Prop48
 90
       50
102
RTVSPost2010PropOp48
 70
     1
102
RTVSPost2010Prop49
280
     0
102
RTVSPost2010PropOp49
 70
     1
102
RTVSPost2010Prop50
 90
       50
102
RTVSPost2010PropOp50
 70
     1
102
RTVSPost2010Prop51ColorIndex
 90
      256
102
RTVSPost2010Prop51ColorRGB
 90
-16777216
102
RTVSPost2010PropOp51
 70
     0
102
RTVSPost2010Prop52
140
1.0
102
RTVSPost2010PropOp52
 70
     0
102
RTVSPost2010Prop53
 90
        2
102
RTVSPost2010PropOp53
 70
     1
102
RTVSPost2010Prop54
  1
strokes_ogs.tif
102
RTVSPost2010PropOp54
 70
     1
102
RTVSPost2010Prop55
280
     0
102
RTVSPost2010PropOp55
 70
     1
102
RTVSPost2010Prop56
140
1.0
102
RTVSPost2010PropOp56
 70
     1
102
RTVSPost2010Prop57
140
1.0
102
RTVSPost2010PropOp57
 70
     1
102
RTVSPropertyOp0
 70
     1
102
RTVSPropertyOp1
 70
     1
102
RTVSPropertyOp2
 70
     1
102
RTVSPropertyOp3
 70
     1
102
RTVSPropertyOp4
 70
     1
102
RTVSPropertyOp5
 70
     1
102
RTVSPropertyOp6
 70
     1
102
RTVSPropertyOp7
 70
     1
102
RTVSPropertyOp8
 70
     1
102
RTVSPropertyOp9
 70
     1
102
RTVSPropertyOp10
 70
     1
102
RTVSPropertyOp11
 70
     1
102
RTVSPropertyOp12
 70
     1
102
RTVSPropertyOp13
 70
     1
102
RTVSPropertyOp14
 70
     1
102
RTVSPropertyOp15
 70
     1
102
RTVSPropertyOp16
 70
     1
102
RTVSPropertyOp17
 70
     1
102
RTVSPropertyOp18
 70
     1
102
RTVSPropertyOp19
 70
     1
102
RTVSPropertyOp20
 70
     1
102
RTVSPropertyOp21
 70
     1
102
RTVSPropertyOp22
 70
     1
102
RTVSPropertyOp23
 70
     1
102
RTVSPropertyOp24
 70
     1
102
RTVSPropertyOp25
 70
     1
102
RTVSPropertyOp26
 70
     1
102
RTVSPropertyOp27
 70
     1
102
RTVSPropertyOp28
 70
     1
102
RTVSPropertyOp29
 70
     1
102
RTVSPropertyOp30
 70
     1
102
RTVSPropertyOp31
 70
     1
102
RTVSPropertyOp32
 70
     1
102
RTVSPropertyOp33
 70
     1
102
RTVSPropertyOp34
 70
     1
102
RTVSPropertyOp35
 70
     1
102
RTVSPropertyOp36
 70
     1
102
RTVSPropertyOp37
 70
     1
102
RTVSPropertyOp38
 70
     1
102
RTVSPropertyOp39
 70
     1
102
RTVSPropertyOp40
 70
     1
102
RTVSPropertyOp41
 70
     1
102
RTVSPropertyOp42
 70
     1
102
RTVSPropertyOp43
 70
     1
102
RTVSPropertyOp44
 70
     1
102
RTVSPropertyOp45
 70
     1
102
RTVSPropertyOp46
 70
     1
102
RTVSPropertyOp47
 70
     1
102
RTVSPropertyOp48
 70
     1
102
RTVSPropertyOp49
 70
     1
102
RTVSPropertyOp50
 70
     1
102
RTVSPropertyOp51
 70
     0
102
RTVSPropertyOp52
 70
     0
102
RTVSPropertyOp53
 70
     1
102
RTVSPropertyOp54
 70
     1
102
RTVSPropertyOp55
 70
     1
102
RTVSPropertyOp56
 70
     1
102
RTVSPropertyOp57
 70
     1
102
RTVSPropertyOp58
 70
     1
102
RTVSPropertyOp59
 70
     1
102
RTVSPropertyOp60
 70
     1
102
RTVSPropertyOp61
 70
     1
102
RTVSPropertyOp62
 70
     1
  0
ENDSEC
  0
EOF
