  0
SECTION
  2
HEADER
  9
$ACADVER
  1
AC1015
  9
$ACADMAINTVER
 70
    20
  9
$DWGCODEPAGE
  3
ANSI_932
  9
$INSBASE
 10
0.0
 20
0.0
 30
0.0
  9
$EXTMIN
 10
10.0
 20
9.999999999999998
 30
0.0
  9
$EXTMAX
 10
497.2202229999998
 20
425.8716089999998
 30
0.0
  9
$LIMMIN
 10
0.0
 20
0.0
  9
$LIMMAX
 10
650.104
 20
448.177758
  9
$ORTHOMODE
 70
     1
  9
$REGENMODE
 70
     1
  9
$FILLMODE
 70
     1
  9
$QTEXTMODE
 70
     0
  9
$MIRRTEXT
 70
     1
  9
$LTSCALE
 40
20.0
  9
$ATTMODE
 70
     1
  9
$TEXTSIZE
 40
5.0
  9
$TRACEWID
 40
1.0
  9
$TEXTSTYLE
  7
STANDARD
  9
$CLAYER
  8
0
  9
$CELTYPE
  6
BYLAYER
  9
$CECOLOR
 62
   256
  9
$CELTSCALE
 40
1.0
  9
$DISPSILH
 70
     0
  9
$DIMSCALE
 40
1.0
  9
$DIMASZ
 40
2.5
  9
$DIMEXO
 40
1.0
  9
$DIMDLI
 40
10.0
  9
$DIMRND
 40
0.0
  9
$DIMDLE
 40
0.0
  9
$DIMEXE
 40
1.0
  9
$DIMTP
 40
0.0
  9
$DIMTM
 40
0.0
  9
$DIMTXT
 40
3.2
  9
$DIMCEN
 40
0.0
  9
$DIMTSZ
 40
0.0
  9
$DIMTOL
 70
     0
  9
$DIMLIM
 70
     0
  9
$DIMTIH
 70
     0
  9
$DIMTOH
 70
     0
  9
$DIMSE1
 70
     0
  9
$DIMSE2
 70
     0
  9
$DIMTAD
 70
     3
  9
$DIMZIN
 70
     8
  9
$DIMBLK
  1

  9
$DIMASO
 70
     1
  9
$DIMSHO
 70
     1
  9
$DIMPOST
  1

  9
$DIMAPOST
  1

  9
$DIMALT
 70
     0
  9
$DIMALTD
 70
     2
  9
$DIMALTF
 40
25.4
  9
$DIMLFAC
 40
1.0
  9
$DIMTOFL
 70
     1
  9
$DIMTVP
 40
0.0
  9
$DIMTIX
 70
     0
  9
$DIMSOXD
 70
     0
  9
$DIMSAH
 70
     1
  9
$DIMBLK1
  1

  9
$DIMBLK2
  1

  9
$DIMSTYLE
  2
STANDARD
  9
$DIMCLRD
 70
     0
  9
$DIMCLRE
 70
     0
  9
$DIMCLRT
 70
     0
  9
$DIMTFAC
 40
1.0
  9
$DIMGAP
 40
1.0
  9
$DIMJUST
 70
     0
  9
$DIMSD1
 70
     0
  9
$DIMSD2
 70
     0
  9
$DIMTOLJ
 70
     1
  9
$DIMTZIN
 70
     0
  9
$DIMALTZ
 70
     0
  9
$DIMALTTZ
 70
     0
  9
$DIMUPT
 70
     0
  9
$DIMDEC
 70
     4
  9
$DIMTDEC
 70
     4
  9
$DIMALTU
 70
     2
  9
$DIMALTTD
 70
     2
  9
$DIMTXSTY
  7
STANDARD
  9
$DIMAUNIT
 70
     0
  9
$DIMADEC
 70
     0
  9
$DIMALTRND
 40
0.0
  9
$DIMAZIN
 70
     0
  9
$DIMDSEP
 70
    46
  9
$DIMATFIT
 70
     3
  9
$DIMFRAC
 70
     0
  9
$DIMLDRBLK
  1

  9
$DIMLUNIT
 70
     2
  9
$DIMLWD
 70
    -2
  9
$DIMLWE
 70
    -2
  9
$DIMTMOVE
 70
     0
  9
$LUNITS
 70
     2
  9
$LUPREC
 70
     4
  9
$SKETCHINC
 40
1.0
  9
$FILLETRAD
 40
2.0
  9
$AUNITS
 70
     0
  9
$AUPREC
 70
     2
  9
$MENU
  1
.
  9
$ELEVATION
 40
0.0
  9
$PELEVATION
 40
0.0
  9
$THICKNESS
 40
0.0
  9
$LIMCHECK
 70
     0
  9
$CHAMFERA
 40
10.0
  9
$CHAMFERB
 40
10.0
  9
$CHAMFERC
 40
0.0
  9
$CHAMFERD
 40
0.0
  9
$SKPOLY
 70
     0
  9
$TDCREATE
 40
2451301.424560880
  9
$TDUCREATE
 40
2451301.049560880
  9
$TDUPDATE
 40
2457192.689814791
  9
$TDUUPDATE
 40
2457192.314814792
  9
$TDINDWG
 40
0.0255037500
  9
$TDUSRTIMER
 40
0.0255035532
  9
$USRTIMER
 70
     1
  9
$ANGBASE
 50
0.0
  9
$ANGDIR
 70
     0
  9
$PDMODE
 70
     0
  9
$PDSIZE
 40
0.0
  9
$PLINEWID
 40
0.0
  9
$SPLFRAME
 70
     0
  9
$SPLINETYPE
 70
     6
  9
$SPLINESEGS
 70
     8
  9
$HANDSEED
  5
AB7F
  9
$SURFTAB1
 70
     6
  9
$SURFTAB2
 70
     6
  9
$SURFTYPE
 70
     6
  9
$SURFU
 70
     6
  9
$SURFV
 70
     6
  9
$UCSBASE
  2

  9
$UCSNAME
  2

  9
$UCSORG
 10
0.0
 20
0.0
 30
0.0
  9
$UCSXDIR
 10
1.0
 20
0.0
 30
0.0
  9
$UCSYDIR
 10
0.0
 20
1.0
 30
0.0
  9
$UCSORTHOREF
  2

  9
$UCSORTHOVIEW
 70
     0
  9
$UCSORGTOP
 10
0.0
 20
0.0
 30
0.0
  9
$UCSORGBOTTOM
 10
0.0
 20
0.0
 30
0.0
  9
$UCSORGLEFT
 10
0.0
 20
0.0
 30
0.0
  9
$UCSORGRIGHT
 10
0.0
 20
0.0
 30
0.0
  9
$UCSORGFRONT
 10
0.0
 20
0.0
 30
0.0
  9
$UCSORGBACK
 10
0.0
 20
0.0
 30
0.0
  9
$PUCSBASE
  2

  9
$PUCSNAME
  2

  9
$PUCSORG
 10
0.0
 20
0.0
 30
0.0
  9
$PUCSXDIR
 10
1.0
 20
0.0
 30
0.0
  9
$PUCSYDIR
 10
0.0
 20
1.0
 30
0.0
  9
$PUCSORTHOREF
  2

  9
$PUCSORTHOVIEW
 70
     0
  9
$PUCSORGTOP
 10
0.0
 20
0.0
 30
0.0
  9
$PUCSORGBOTTOM
 10
0.0
 20
0.0
 30
0.0
  9
$PUCSORGLEFT
 10
0.0
 20
0.0
 30
0.0
  9
$PUCSORGRIGHT
 10
0.0
 20
0.0
 30
0.0
  9
$PUCSORGFRONT
 10
0.0
 20
0.0
 30
0.0
  9
$PUCSORGBACK
 10
0.0
 20
0.0
 30
0.0
  9
$USERI1
 70
     0
  9
$USERI2
 70
     0
  9
$USERI3
 70
     0
  9
$USERI4
 70
     0
  9
$USERI5
 70
     0
  9
$USERR1
 40
0.0
  9
$USERR2
 40
0.0
  9
$USERR3
 40
0.0
  9
$USERR4
 40
0.0
  9
$USERR5
 40
0.0
  9
$WORLDVIEW
 70
     1
  9
$SHADEDGE
 70
     3
  9
$SHADEDIF
 70
    70
  9
$TILEMODE
 70
     1
  9
$MAXACTVP
 70
    16
  9
$PINSBASE
 10
0.0
 20
0.0
 30
0.0
  9
$PLIMCHECK
 70
     0
  9
$PEXTMIN
 10
1.000000000000000E+20
 20
1.000000000000000E+20
 30
1.000000000000000E+20
  9
$PEXTMAX
 10
-1.000000000000000E+20
 20
-1.000000000000000E+20
 30
-1.000000000000000E+20
  9
$PLIMMIN
 10
0.0
 20
0.0
  9
$PLIMMAX
 10
420.0
 20
297.0
  9
$UNITMODE
 70
     0
  9
$VISRETAIN
 70
     0
  9
$PLINEGEN
 70
     0
  9
$PSLTSCALE
 70
     0
  9
$TREEDEPTH
 70
  3020
  9
$CMLSTYLE
  2
STANDARD
  9
$CMLJUST
 70
     0
  9
$CMLSCALE
 40
1.0
  9
$PROXYGRAPHICS
 70
     1
  9
$MEASUREMENT
 70
     0
  9
$CELWEIGHT
370
    -1
  9
$ENDCAPS
280
     0
  9
$JOINSTYLE
280
     0
  9
$LWDISPLAY
290
     0
  9
$INSUNITS
 70
     0
  9
$HYPERLINKBASE
  1

  9
$STYLESHEET
  1

  9
$XEDIT
290
     1
  9
$CEPSNTYPE
380
     0
  9
$PSTYLEMODE
290
     1
  9
$FINGERPRINTGUID
  2
{72DE4348-77BB-44B1-891B-F8019F7F8B0C}
  9
$VERSIONGUID
  2
{7403DAB6-1F96-454C-88F2-88DE78F5EF50}
  9
$EXTNAMES
290
     1
  9
$PSVPSCALE
 40
0.0
  9
$OLESTARTUP
290
     0
  0
ENDSEC
  0
SECTION
  2
CLASSES
  0
CLASS
  1
ACDBDICTIONARYWDFLT
  2
AcDbDictionaryWithDefault
  3
ObjectDBX Classes
 90
        0
280
     0
281
     0
  0
CLASS
  1
ACDBPLACEHOLDER
  2
AcDbPlaceHolder
  3
ObjectDBX Classes
 90
        0
280
     0
281
     0
  0
CLASS
  1
LAYOUT
  2
AcDbLayout
  3
ObjectDBX Classes
 90
        0
280
     0
281
     0
  0
CLASS
  1
DICTIONARYVAR
  2
AcDbDictionaryVar
  3
ObjectDBX Classes
 90
        0
280
     0
281
     0
  0
CLASS
  1
MATERIAL
  2
AcDbMaterial
  3
ObjectDBX Classes
 90
     1153
280
     0
281
     0
  0
CLASS
  1
VISUALSTYLE
  2
AcDbVisualStyle
  3
ObjectDBX Classes
 90
     4095
280
     0
281
     0
  0
CLASS
  1
TABLESTYLE
  2
AcDbTableStyle
  3
ObjectDBX Classes
 90
     4095
280
     0
281
     0
  0
CLASS
  1
SCALE
  2
AcDbScale
  3
ObjectDBX Classes
 90
     1153
280
     0
281
     0
  0
CLASS
  1
MLEADERSTYLE
  2
AcDbMLeaderStyle
  3
ACDB_MLEADERSTYLE_CLASS
 90
     4095
280
     0
281
     0
  0
CLASS
  1
ACDBSECTIONVIEWSTYLE
  2
AcDbSectionViewStyle
  3
ObjectDBX Classes
 90
     1025
280
     0
281
     0
  0
CLASS
  1
ACDBDETAILVIEWSTYLE
  2
AcDbDetailViewStyle
  3
ObjectDBX Classes
 90
     1025
280
     0
281
     0
  0
CLASS
  1
CELLSTYLEMAP
  2
AcDbCellStyleMap
  3
ObjectDBX Classes
 90
     1152
280
     0
281
     0
  0
ENDSEC
  0
SECTION
  2
TABLES
  0
TABLE
  2
VPORT
  5
A576
330
0
100
AcDbSymbolTable
 70
     1
  0
VPORT
  5
AACA
330
A576
100
AcDbSymbolTableRecord
100
AcDbViewportTableRecord
  2
*ACTIVE
 70
     0
 10
0.0
 20
0.0
 11
1.0
 21
1.0
 12
413.7192162755443
 22
217.9340951516864
 13
0.0
 23
0.0
 14
10.0
 24
10.0
 15
10.0
 25
10.0
 16
0.0
 26
0.0
 36
1.0
 17
0.0
 27
0.0
 37
0.0
 40
419.2103168919245
 41
2.35006605019815
 42
50.0
 43
0.0
 44
0.0
 50
0.0
 51
0.0
 71
     0
 72
   100
 73
     1
 74
     0
 75
     0
 76
     0
 77
     0
 78
     0
281
     0
 65
     1
110
0.0
120
0.0
130
0.0
111
1.0
121
0.0
131
0.0
112
0.0
122
1.0
132
0.0
 79
     0
146
0.0
1001
ACAD_NAV_VCDISPLAY
1070
     3
  0
ENDTAB
  0
TABLE
  2
LTYPE
  5
A573
330
0
100
AcDbSymbolTable
 70
     4
  0
LTYPE
  5
A581
330
A573
100
AcDbSymbolTableRecord
100
AcDbLinetypeTableRecord
  2
BYBLOCK
 70
     0
  3

 72
    65
 73
     0
 40
0.0
  0
LTYPE
  5
A582
330
A573
100
AcDbSymbolTableRecord
100
AcDbLinetypeTableRecord
  2
BYLAYER
 70
     0
  3

 72
    65
 73
     0
 40
0.0
  0
LTYPE
  5
A583
330
A573
100
AcDbSymbolTableRecord
100
AcDbLinetypeTableRecord
  2
CONTINUOUS
 70
     0
  3
Solid line
 72
    65
 73
     0
 40
0.0
  0
LTYPE
  5
A591
330
A573
100
AcDbSymbolTableRecord
100
AcDbLinetypeTableRecord
  2
DASHED
 70
     0
  3
__ __ __ __ __ __ __ __ __ __ __ __ __ __ __ __
 72
    65
 73
     2
 40
0.75
 49
0.5
 74
     0
 49
-0.25
 74
     0
  0
LTYPE
  5
A592
330
A573
100
AcDbSymbolTableRecord
100
AcDbLinetypeTableRecord
  2
CENTER
 70
     0
  3
____ _ ____ _ ____ _ ____ _ ____ _ ____ _ ____ 
 72
    65
 73
     4
 40
2.0
 49
1.25
 74
     0
 49
-0.25
 74
     0
 49
0.25
 74
     0
 49
-0.25
 74
     0
  0
LTYPE
  5
A593
330
A573
100
AcDbSymbolTableRecord
100
AcDbLinetypeTableRecord
  2
PHANTOM
 70
     0
  3
______  __  __  ______  __  __  ______  __  __ 
 72
    65
 73
     6
 40
2.5
 49
1.25
 74
     0
 49
-0.25
 74
     0
 49
0.25
 74
     0
 49
-0.25
 74
     0
 49
0.25
 74
     0
 49
-0.25
 74
     0
  0
ENDTAB
  0
TABLE
  2
LAYER
  5
A570
330
0
100
AcDbSymbolTable
 70
     8
  0
LAYER
  5
A57E
102
{ACAD_XDICTIONARY
360
AB23
102
}
330
A570
100
AcDbSymbolTableRecord
100
AcDbLayerTableRecord
  2
0
 70
     0
 62
     7
  6
CONTINUOUS
370
    -3
390
AAD1
  0
LAYER
  5
A594
102
{ACAD_XDICTIONARY
360
AB25
102
}
330
A570
100
AcDbSymbolTableRecord
100
AcDbLayerTableRecord
  2
4
 70
     0
 62
     1
  6
CENTER
370
    -3
390
AAD1
  0
LAYER
  5
A595
102
{ACAD_XDICTIONARY
360
AB27
102
}
330
A570
100
AcDbSymbolTableRecord
100
AcDbLayerTableRecord
  2
5
 70
     0
 62
     6
  6
PHANTOM
370
    -3
390
AAD1
  0
LAYER
  5
A596
102
{ACAD_XDICTIONARY
360
AB29
102
}
330
A570
100
AcDbSymbolTableRecord
100
AcDbLayerTableRecord
  2
1
 70
     0
 62
     7
  6
CONTINUOUS
370
    -3
390
AAD1
  0
LAYER
  5
A597
102
{ACAD_XDICTIONARY
360
AB2B
102
}
330
A570
100
AcDbSymbolTableRecord
100
AcDbLayerTableRecord
  2
2
 70
     0
 62
     4
  6
CONTINUOUS
370
    -3
390
AAD1
  0
LAYER
  5
A598
102
{ACAD_XDICTIONARY
360
AB2D
102
}
330
A570
100
AcDbSymbolTableRecord
100
AcDbLayerTableRecord
  2
3
 70
     0
 62
     2
  6
DASHED
370
    -3
390
AAD1
  0
LAYER
  5
A599
102
{ACAD_XDICTIONARY
360
AB2F
102
}
330
A570
100
AcDbSymbolTableRecord
100
AcDbLayerTableRecord
  2
6
 70
     0
 62
     5
  6
CONTINUOUS
370
    -3
390
AAD1
  0
LAYER
  5
A59A
102
{ACAD_XDICTIONARY
360
AB31
102
}
330
A570
100
AcDbSymbolTableRecord
100
AcDbLayerTableRecord
  2
7
 70
     0
 62
     3
  6
CONTINUOUS
370
    -3
390
AAD1
  0
ENDTAB
  0
TABLE
  2
STYLE
  5
A571
330
0
100
AcDbSymbolTable
 70
     1
  0
STYLE
  5
A57F
330
A571
100
AcDbSymbolTableRecord
100
AcDbTextStyleTableRecord
  2
STANDARD
 70
     0
 40
0.0
 41
1.0
 50
0.0
 71
     0
 42
5.0
  3
txt
  4

  0
ENDTAB
  0
TABLE
  2
VIEW
  5
A574
330
0
100
AcDbSymbolTable
 70
     0
  0
ENDTAB
  0
TABLE
  2
UCS
  5
A575
330
0
100
AcDbSymbolTable
 70
     0
  0
ENDTAB
  0
TABLE
  2
APPID
  5
A577
330
0
100
AcDbSymbolTable
 70
     3
  0
APPID
  5
A580
330
A577
100
AcDbSymbolTableRecord
100
AcDbRegAppTableRecord
  2
ACAD
 70
     0
  0
APPID
  5
AB3D
330
A577
100
AcDbSymbolTableRecord
100
AcDbRegAppTableRecord
  2
ACAD_NAV_VCDISPLAY
 70
     0
  0
APPID
  5
AB76
330
A577
100
AcDbSymbolTableRecord
100
AcDbRegAppTableRecord
  2
ACAD_MLEADERVER
 70
     0
  0
ENDTAB
  0
TABLE
  2
DIMSTYLE
  5
A578
330
0
100
AcDbSymbolTable
 70
     1
100
AcDbDimStyleTable
 71
     0
  0
DIMSTYLE
105
A59C
330
A578
100
AcDbSymbolTableRecord
100
AcDbDimStyleTableRecord
  2
STANDARD
 70
     0
 41
2.5
 42
1.0
 43
10.0
 44
1.0
 73
     0
 74
     0
 77
     3
 78
     8
140
3.2
141
0.0
147
1.0
172
     1
173
     1
284
     8
285
     8
286
     8
340
A57F
  0
ENDTAB
  0
TABLE
  2
BLOCK_RECORD
  5
A56F
330
0
100
AcDbSymbolTable
 70
     0
  0
BLOCK_RECORD
  5
A58C
102
{ACAD_XDICTIONARY
360
A938
102
}
330
A56F
100
AcDbSymbolTableRecord
100
AcDbBlockTableRecord
  2
*MODEL_SPACE
340
AB1F
  0
BLOCK_RECORD
  5
A588
102
{ACAD_XDICTIONARY
360
A936
102
}
330
A56F
100
AcDbSymbolTableRecord
100
AcDbBlockTableRecord
  2
*PAPER_SPACE
340
AB20
  0
ENDTAB
  0
ENDSEC
  0
SECTION
  2
BLOCKS
  0
BLOCK
  5
A58D
330
A58C
100
AcDbEntity
  8
0
100
AcDbBlockBegin
  2
*MODEL_SPACE
 70
     0
 10
0.0
 20
0.0
 30
0.0
  3
*MODEL_SPACE
  1

  0
ENDBLK
  5
A58E
330
A58C
100
AcDbEntity
  8
0
100
AcDbBlockEnd
  0
BLOCK
  5
A589
330
A588
100
AcDbEntity
 67
     1
  8
0
100
AcDbBlockBegin
  2
*PAPER_SPACE
 70
     0
 10
0.0
 20
0.0
 30
0.0
  3
*PAPER_SPACE
  1

  0
ENDBLK
  5
A58A
330
A588
100
AcDbEntity
 67
     1
  8
0
100
AcDbBlockEnd
  0
ENDSEC
  0
SECTION
  2
ENTITIES
  0
TEXT
  5
A5A4
330
A58C
100
AcDbEntity
  8
7
  6
Continuous
100
AcDbText
 10
10.0
 20
18.0
 30
0.0
 40
3.0
  1
TYPE No.TCA-415EA-N100
100
AcDbText
  0
TEXT
  5
A5A5
330
A58C
100
AcDbEntity
  8
7
  6
Continuous
100
AcDbText
 10
10.0
 20
26.0
 30
0.0
 40
3.0
  1
CODE No.9786
100
AcDbText
  0
TEXT
  5
A5A6
330
A58C
100
AcDbEntity
  8
1
  6
Continuous
100
AcDbText
 10
10.0
 20
10.0
 30
0.0
 40
1.399999999999999
  1
LAYER
100
AcDbText
  0
TEXT
  5
A5A7
330
A58C
100
AcDbEntity
  8
1
  6
Continuous
100
AcDbText
 10
17.97951099999998
 20
10.04873699999998
 30
0.0
 40
1.399999999999999
  1
1
100
AcDbText
  0
TEXT
  5
A5A8
330
A58C
100
AcDbEntity
  8
7
  6
Continuous
100
AcDbText
 10
29.97951099999999
 20
10.04873699999998
 30
0.0
 40
1.399999999999999
  1
7
100
AcDbText
  0
TEXT
  5
A5A9
330
A58C
100
AcDbEntity
  8
4
  6
CENTER
100
AcDbText
 10
23.97951099999999
 20
10.04873699999998
 30
0.0
 40
1.399999999999999
  1
4
100
AcDbText
  0
TEXT
  5
A5AA
330
A58C
100
AcDbEntity
  8
3
  6
DASHED
100
AcDbText
 10
21.979511
 20
10.04873699999998
 30
0.0
 40
1.399999999999999
  1
3
100
AcDbText
  0
TEXT
  5
A5AB
330
A58C
100
AcDbEntity
  8
2
  6
Continuous
100
AcDbText
 10
19.97951099999998
 20
10.04873699999998
 30
0.0
 40
1.399999999999999
  1
2
100
AcDbText
  0
TEXT
  5
A5AC
330
A58C
100
AcDbEntity
  8
6
  6
Continuous
100
AcDbText
 10
27.979511
 20
10.04873699999998
 30
0.0
 40
1.399999999999999
  1
6
100
AcDbText
  0
TEXT
  5
A5AD
330
A58C
100
AcDbEntity
  8
5
  6
PHANTOM
100
AcDbText
 10
25.97951099999999
 20
10.04873699999998
 30
0.0
 40
1.399999999999999
  1
5
100
AcDbText
  0
LINE
  5
A5AE
330
A58C
100
AcDbEntity
  8
4
  6
CENTER
100
AcDbLine
 10
57.22022299999999
 20
317.8716129999999
 30
0.0
 11
57.22022299999999
 21
141.871609
 31
0.0
  0
LINE
  5
A5AF
330
A58C
100
AcDbEntity
  8
4
  6
CENTER
100
AcDbLine
 10
30.720231
 20
196.871609
 30
0.0
 11
94.42223199999999
 21
196.871609
 31
0.0
  0
LINE
  5
A5B0
330
A58C
100
AcDbEntity
  8
1
  6
Continuous
100
AcDbLine
 10
73.220223
 20
250.97366
 30
0.0
 11
73.220223
 21
185.871609
 31
0.0
  0
LINE
  5
A5B1
330
A58C
100
AcDbEntity
  8
1
  6
Continuous
100
AcDbLine
 10
41.220223
 20
250.97366
 30
0.0
 11
41.220223
 21
203.304796
 31
0.0
  0
LINE
  5
A5B2
330
A58C
100
AcDbEntity
  8
1
  6
Continuous
100
AcDbLine
 10
38.920233
 20
185.871609
 30
0.0
 11
41.220223
 21
185.871609
 31
0.0
  0
LINE
  5
A5B3
330
A58C
100
AcDbEntity
  8
1
  6
Continuous
100
AcDbLine
 10
75.520218
 20
185.871609
 30
0.0
 11
73.220223
 21
185.871609
 31
0.0
  0
LINE
  5
A5B4
330
A58C
100
AcDbEntity
  8
1
  6
Continuous
100
AcDbLine
 10
32.22022299999999
 20
255.9716009999999
 30
0.0
 11
32.22022299999999
 21
229.5590939999999
 31
0.0
  0
LINE
  5
A5B5
330
A58C
100
AcDbEntity
  8
1
  6
Continuous
100
AcDbLine
 10
82.220223
 20
255.9716009999999
 30
0.0
 11
82.220223
 21
229.5590939999999
 31
0.0
  0
LINE
  5
A5B6
330
A58C
100
AcDbEntity
  8
4
  6
CENTER
100
AcDbLine
 10
222.220223
 20
317.8716129999999
 30
0.0
 11
222.220223
 21
214.6049389999999
 31
0.0
  0
LINE
  5
A5B7
330
A58C
100
AcDbEntity
  8
1
  6
Continuous
100
AcDbLine
 10
243.1957099999999
 20
252.071608
 30
0.0
 11
247.220223
 21
252.071608
 31
0.0
  0
LINE
  5
A5B8
330
A58C
100
AcDbEntity
  8
4
  6
CENTER
100
AcDbLine
 10
135.220223
 20
196.871609
 30
0.0
 11
245.220223
 21
196.871609
 31
0.0
  0
LINE
  5
A5B9
330
A58C
100
AcDbEntity
  8
4
  6
CENTER
100
AcDbLine
 10
190.220223
 20
256.3725949999999
 30
0.0
 11
190.220223
 21
141.871609
 31
0.0
  0
LINE
  5
A5BA
330
A58C
100
AcDbEntity
  8
1
  6
Continuous
100
AcDbLine
 10
201.220223
 20
251.771612
 30
0.0
 11
201.220223
 21
209.0701759999999
 31
0.0
  0
LINE
  5
A5BB
330
A58C
100
AcDbEntity
  8
1
  6
Continuous
100
AcDbLine
 10
206.4499159999999
 20
203.0798669999998
 30
0.0
 11
230.178239
 21
244.524497
 31
0.0
  0
LINE
  5
A5BC
330
A58C
100
AcDbEntity
  8
1
  6
Continuous
100
AcDbLine
 10
184.9122559999999
 20
250.8315
 30
0.0
 11
181.143984
 21
215.4958759999999
 31
0.0
  0
LINE
  5
A5BD
330
A58C
100
AcDbEntity
  8
4
  6
CENTER
100
AcDbLine
 10
222.220223
 20
425.8716089999998
 30
0.0
 11
222.220223
 21
365.8716089999999
 31
0.0
  0
LINE
  5
A5BE
330
A58C
100
AcDbEntity
  8
1
  6
Continuous
100
AcDbLine
 10
180.931713
 20
253.371624
 30
0.0
 11
199.823926
 21
256.70283
 31
0.0
  0
LINE
  5
A5BF
330
A58C
100
AcDbEntity
  8
1
  6
Continuous
100
AcDbLine
 10
180.931713
 20
253.371624
 30
0.0
 11
181.331104
 21
251.1065659999999
 31
0.0
  0
LINE
  5
A5C0
330
A58C
100
AcDbEntity
  8
1
  6
Continuous
100
AcDbLine
 10
181.331104
 20
251.1065659999999
 30
0.0
 11
183.701828
 21
251.524589
 31
0.0
  0
LINE
  5
A5C1
330
A58C
100
AcDbEntity
  8
1
  6
Continuous
100
AcDbLine
 10
87.42223199999996
 20
201.9736219999999
 30
0.0
 11
87.42223199999996
 21
191.7695959999998
 31
0.0
  0
LINE
  5
A5C2
330
A58C
100
AcDbEntity
  8
1
  6
Continuous
100
AcDbLine
 10
85.947282
 20
193.621609
 30
0.0
 11
82.897172
 21
193.621609
 31
0.0
  0
LINE
  5
A5C3
330
A58C
100
AcDbEntity
  8
1
  6
Continuous
100
AcDbLine
 10
85.973742
 20
200.121609
 30
0.0
 11
82.87071199999997
 21
200.121609
 31
0.0
  0
LINE
  5
A5C4
330
A58C
100
AcDbEntity
  8
1
  6
Continuous
100
AcDbLine
 10
86.024232
 20
190.3716089999998
 30
0.0
 11
82.820222
 21
190.3716089999998
 31
0.0
  0
LINE
  5
A5C5
330
A58C
100
AcDbEntity
  8
1
  6
Continuous
100
AcDbLine
 10
86.024232
 20
203.3716089999999
 30
0.0
 11
82.820222
 21
203.3716089999999
 31
0.0
  0
LINE
  5
A5C6
330
A58C
100
AcDbEntity
  8
1
  6
Continuous
100
AcDbLine
 10
86.024232
 20
190.371613
 30
0.0
 11
87.42223199999996
 21
191.7696
 31
0.0
  0
LINE
  5
A5C7
330
A58C
100
AcDbEntity
  8
1
  6
Continuous
100
AcDbLine
 10
87.42221200000001
 20
201.973625
 30
0.0
 11
86.024232
 21
203.371613
 31
0.0
  0
LINE
  5
A5C8
330
A58C
100
AcDbEntity
  8
1
  6
Continuous
100
AcDbLine
 10
35.720231
 20
201.121609
 30
0.0
 11
35.720231
 21
192.621609
 31
0.0
  0
LINE
  5
A5C9
330
A58C
100
AcDbEntity
  8
1
  6
Continuous
100
AcDbLine
 10
38.920228
 20
190.621609
 30
0.0
 11
37.720231
 21
190.621609
 31
0.0
  0
LINE
  5
A5CA
330
A58C
100
AcDbEntity
  8
1
  6
Continuous
100
AcDbLine
 10
38.920228
 20
203.121609
 30
0.0
 11
37.720231
 21
203.121609
 31
0.0
  0
LINE
  5
A5CB
330
A58C
100
AcDbEntity
  8
1
  6
Continuous
100
AcDbLine
 10
75.520218
 20
250.9432789999999
 30
0.0
 11
75.520218
 21
183.979137
 31
0.0
  0
LINE
  5
A5CC
330
A58C
100
AcDbEntity
  8
1
  6
Continuous
100
AcDbLine
 10
38.920233
 20
250.9432789999999
 30
0.0
 11
38.920233
 21
202.224775
 31
0.0
  0
LINE
  5
A5CD
330
A58C
100
AcDbEntity
  8
1
  6
Continuous
100
AcDbLine
 10
201.220223
 20
260.9716049999998
 30
0.0
 11
242.2202229999999
 21
260.9716049999998
 31
0.0
  0
LINE
  5
A5CE
330
A58C
100
AcDbEntity
  8
1
  6
Continuous
100
AcDbLine
 10
37.22022299999999
 20
260.9716009999999
 30
0.0
 11
77.220223
 21
260.9716009999999
 31
0.0
  0
LINE
  5
A5CF
330
A58C
100
AcDbEntity
  8
1
  6
Continuous
100
AcDbLine
 10
72.220223
 20
200.871609
 30
0.0
 11
73.22023100000001
 21
200.871609
 31
0.0
  0
LINE
  5
A5D0
330
A58C
100
AcDbEntity
  8
1
  6
Continuous
100
AcDbLine
 10
72.220223
 20
192.871609
 30
0.0
 11
73.22023100000001
 21
192.871609
 31
0.0
  0
ARC
  5
A5D1
330
A58C
100
AcDbEntity
  8
1
  6
Continuous
100
AcDbCircle
 10
57.22022299999999
 20
379.571619
 30
0.0
 40
126.2
100
AcDbArc
 50
263.34848
 51
276.6515
  0
ARC
  5
A5D2
330
A58C
100
AcDbEntity
  8
1
  6
Continuous
100
AcDbCircle
 10
243.1957099999999
 20
237.071608
 30
0.0
 40
15.0
100
AcDbArc
 50
89.99998199999996
 51
150.2075699999998
  0
ARC
  5
A5D3
330
A58C
100
AcDbEntity
  8
1
  6
Continuous
100
AcDbCircle
 10
182.426352
 20
251.096602
 30
0.0
 40
2.5
100
AcDbArc
 50
353.9128499999998
 51
100.0000199999999
  0
ARC
  5
A5D4
330
A58C
100
AcDbEntity
  8
1
  6
Continuous
100
AcDbCircle
 10
57.22022299999999
 20
384.573819
 30
0.0
 40
128.4999999999998
100
AcDbArc
 50
262.8473099999999
 51
277.1526699999999
  0
ARC
  5
A5D5
330
A58C
100
AcDbEntity
  8
1
  6
Continuous
100
AcDbCircle
 10
183.8754769999999
 20
250.539781
 30
0.0
 40
1.0
100
AcDbArc
 50
353.9128499999998
 51
100.00003
  0
ARC
  5
A5D6
330
A58C
100
AcDbEntity
  8
1
  6
Continuous
100
AcDbCircle
 10
57.22022299999999
 20
379.601999
 30
0.0
 40
128.4999999999998
100
AcDbArc
 50
263.34847
 51
276.6515
  0
ARC
  5
A5D7
330
A58C
100
AcDbEntity
  8
1
  6
Continuous
100
AcDbCircle
 10
72.220223
 20
250.97366
 30
0.0
 40
1.0
100
AcDbArc
 50
0.0
 51
96.65148000000002
  0
ARC
  5
A5D8
330
A58C
100
AcDbEntity
  8
1
  6
Continuous
100
AcDbCircle
 10
42.22022299999999
 20
250.97366
 30
0.0
 40
1.0
100
AcDbArc
 50
83.348539
 51
179.9999599999999
  0
ARC
  5
A5D9
330
A58C
100
AcDbEntity
  8
1
  6
Continuous
100
AcDbCircle
 10
74.42223199999998
 20
196.871609
 30
0.0
 40
12.0
100
AcDbArc
 50
344.28617
 51
15.71384
  0
ARC
  5
A5DA
330
A58C
100
AcDbEntity
  8
1
  6
Continuous
100
AcDbCircle
 10
71.218211
 20
196.87161
 30
0.0
 40
12.0
100
AcDbArc
 50
344.286135
 51
15.713856
  0
ARC
  5
A5DB
330
A58C
100
AcDbEntity
  8
1
  6
Continuous
100
AcDbCircle
 10
83.17223199999999
 20
201.813237
 30
0.0
 40
3.25
100
AcDbArc
 50
328.6342499999999
 51
28.65275
  0
ARC
  5
A5DC
330
A58C
100
AcDbEntity
  8
1
  6
Continuous
100
AcDbCircle
 10
79.96821099999998
 20
201.813237
 30
0.0
 40
3.25
100
AcDbArc
 50
328.6341949999998
 51
55.26029799999999
  0
ARC
  5
A5DD
330
A58C
100
AcDbEntity
  8
1
  6
Continuous
100
AcDbCircle
 10
79.96821
 20
191.929981
 30
0.0
 40
3.25
100
AcDbArc
 50
304.7397219999998
 51
31.365788
  0
ARC
  5
A5DE
330
A58C
100
AcDbEntity
  8
1
  6
Continuous
100
AcDbCircle
 10
83.17223199999999
 20
191.929981
 30
0.0
 40
3.25
100
AcDbArc
 50
331.3472699999998
 51
31.36577
  0
ARC
  5
A5DF
330
A58C
100
AcDbEntity
  8
1
  6
Continuous
100
AcDbCircle
 10
37.720231
 20
201.121609
 30
0.0
 40
2.0
100
AcDbArc
 50
90.00001800000005
 51
180.0
  0
ARC
  5
A5E0
330
A58C
100
AcDbEntity
  8
1
  6
Continuous
100
AcDbCircle
 10
37.720231
 20
192.621609
 30
0.0
 40
2.0
100
AcDbArc
 50
180.0
 51
269.99998
  0
ARC
  5
A5E1
330
A58C
100
AcDbEntity
  8
1
  6
Continuous
100
AcDbCircle
 10
92.220223
 20
229.5590939999999
 30
0.0
 40
60.0
100
AcDbArc
 50
179.9999799999999
 51
205.8780899999999
  0
ARC
  5
A5E2
330
A58C
100
AcDbEntity
  8
1
  6
Continuous
100
AcDbCircle
 10
72.22021499999998
 20
250.9432789999999
 30
0.0
 40
3.299999999999998
100
AcDbArc
 50
0.0
 51
96.65153400000001
  0
ARC
  5
A5E3
330
A58C
100
AcDbEntity
  8
1
  6
Continuous
100
AcDbCircle
 10
42.220243
 20
250.9432789999999
 30
0.0
 40
3.299999999999998
100
AcDbArc
 50
83.348484
 51
179.9999599999999
  0
ARC
  5
A5E4
330
A58C
100
AcDbEntity
  8
1
  6
Continuous
100
AcDbCircle
 10
240.020218
 20
262.4496119999998
 30
0.0
 40
2.778
100
AcDbArc
 50
327.85663
 51
350.09193
  0
ARC
  5
A5E5
330
A58C
100
AcDbEntity
  8
1
  6
Continuous
100
AcDbCircle
 10
222.220208
 20
262.4496119999998
 30
0.0
 40
2.778
100
AcDbArc
 50
327.8565799999999
 51
350.09193
  0
ARC
  5
A5E6
330
A58C
100
AcDbEntity
  8
1
  6
Continuous
100
AcDbCircle
 10
227.7081229999998
 20
262.4496119999998
 30
0.0
 40
2.778
100
AcDbArc
 50
189.90804
 51
212.1434
  0
ARC
  5
A5E7
330
A58C
100
AcDbEntity
  8
1
  6
Continuous
100
AcDbCircle
 10
236.5973359999999
 20
262.4496119999998
 30
0.0
 40
2.778
100
AcDbArc
 50
327.85663
 51
350.09193
  0
ARC
  5
A5E8
330
A58C
100
AcDbEntity
  8
1
  6
Continuous
100
AcDbCircle
 10
239.1325769999999
 20
262.4496119999998
 30
0.0
 40
2.778
100
AcDbArc
 50
327.85663
 51
350.09193
  0
ARC
  5
A5E9
330
A58C
100
AcDbEntity
  8
1
  6
Continuous
100
AcDbCircle
 10
204.420197
 20
262.4496119999998
 30
0.0
 40
2.778
100
AcDbArc
 50
189.9080999999999
 51
212.1433699999999
  0
ARC
  5
A5EA
330
A58C
100
AcDbEntity
  8
1
  6
Continuous
100
AcDbCircle
 10
222.220208
 20
262.4496119999998
 30
0.0
 40
2.778
100
AcDbArc
 50
189.9080999999999
 51
212.1434
  0
ARC
  5
A5EB
330
A58C
100
AcDbEntity
  8
1
  6
Continuous
100
AcDbCircle
 10
216.732293
 20
262.4496119999998
 30
0.0
 40
2.778
100
AcDbArc
 50
189.9080999999999
 51
212.1434
  0
ARC
  5
A5EC
330
A58C
100
AcDbEntity
  8
1
  6
Continuous
100
AcDbCircle
 10
211.7790529999997
 20
262.4496119999998
 30
0.0
 40
2.778
100
AcDbArc
 50
189.9080999999999
 51
212.1434
  0
ARC
  5
A5ED
330
A58C
100
AcDbEntity
  8
1
  6
Continuous
100
AcDbCircle
 10
207.843079
 20
262.4496119999998
 30
0.0
 40
2.778
100
AcDbArc
 50
189.9080999999999
 51
212.1434
  0
ARC
  5
A5EE
330
A58C
100
AcDbEntity
  8
1
  6
Continuous
100
AcDbCircle
 10
205.307839
 20
262.4496119999998
 30
0.0
 40
2.778
100
AcDbArc
 50
189.9080999999999
 51
212.1433699999999
  0
ARC
  5
A5EF
330
A58C
100
AcDbEntity
  8
1
  6
Continuous
100
AcDbCircle
 10
216.732293
 20
262.4496119999998
 30
0.0
 40
2.778
100
AcDbArc
 50
327.8565799999999
 51
350.0919899999999
  0
ARC
  5
A5F0
330
A58C
100
AcDbEntity
  8
1
  6
Continuous
100
AcDbCircle
 10
227.7081229999998
 20
262.4496119999998
 30
0.0
 40
2.778
100
AcDbArc
 50
327.8565799999999
 51
350.09193
  0
ARC
  5
A5F1
330
A58C
100
AcDbEntity
  8
1
  6
Continuous
100
AcDbCircle
 10
232.661362
 20
262.4496119999998
 30
0.0
 40
2.778
100
AcDbArc
 50
327.8565799999999
 51
350.09193
  0
ARC
  5
A5F2
330
A58C
100
AcDbEntity
  8
1
  6
Continuous
100
AcDbCircle
 10
201.220223
 20
255.971604
 30
0.0
 40
5.0
100
AcDbArc
 50
89.99998199999996
 51
178.90034
  0
ARC
  5
A5F3
330
A58C
100
AcDbEntity
  8
1
  6
Continuous
100
AcDbCircle
 10
46.779063
 20
262.4496119999998
 30
0.0
 40
2.778
100
AcDbArc
 50
327.8564799999998
 51
333.0638399999999
  0
ARC
  5
A5F4
330
A58C
100
AcDbEntity
  8
1
  6
Continuous
100
AcDbCircle
 10
67.661355
 20
262.4496119999998
 30
0.0
 40
2.778
100
AcDbArc
 50
327.8564799999998
 51
350.09193
  0
ARC
  5
A5F5
330
A58C
100
AcDbEntity
  8
1
  6
Continuous
100
AcDbCircle
 10
77.220223
 20
255.9716009999999
 30
0.0
 40
5.0
100
AcDbArc
 50
0.0
 51
89.99998199999996
  0
ARC
  5
A5F6
330
A58C
100
AcDbEntity
  8
1
  6
Continuous
100
AcDbCircle
 10
37.22022299999999
 20
255.9716009999999
 30
0.0
 40
5.0
100
AcDbArc
 50
89.99998199999996
 51
179.9999599999999
  0
ARC
  5
A5F7
330
A58C
100
AcDbEntity
  8
1
  6
Continuous
100
AcDbCircle
 10
62.708123
 20
262.4496119999998
 30
0.0
 40
2.778
100
AcDbArc
 50
327.8564799999998
 51
350.09193
  0
ARC
  5
A5F8
330
A58C
100
AcDbEntity
  8
1
  6
Continuous
100
AcDbCircle
 10
75.020218
 20
262.4496119999998
 30
0.0
 40
2.778
100
AcDbArc
 50
327.80113
 51
350.09193
  0
ARC
  5
A5F9
330
A58C
100
AcDbEntity
  8
1
  6
Continuous
100
AcDbCircle
 10
57.220203
 20
262.4496119999998
 30
0.0
 40
2.778
100
AcDbArc
 50
327.8564799999998
 51
350.09193
  0
ARC
  5
A5FA
330
A58C
100
AcDbEntity
  8
1
  6
Continuous
100
AcDbCircle
 10
62.708123
 20
262.4496119999998
 30
0.0
 40
2.778
100
AcDbArc
 50
189.90804
 51
212.14351
  0
ARC
  5
A5FB
330
A58C
100
AcDbEntity
  8
1
  6
Continuous
100
AcDbCircle
 10
67.661355
 20
262.4496119999998
 30
0.0
 40
2.778
100
AcDbArc
 50
206.9362
 51
212.14351
  0
ARC
  5
A5FC
330
A58C
100
AcDbEntity
  8
1
  6
Continuous
100
AcDbCircle
 10
71.597329
 20
262.4496119999998
 30
0.0
 40
2.778
100
AcDbArc
 50
327.8564799999998
 51
350.09193
  0
ARC
  5
A5FD
330
A58C
100
AcDbEntity
  8
1
  6
Continuous
100
AcDbCircle
 10
74.13257699999999
 20
262.4496119999998
 30
0.0
 40
2.778
100
AcDbArc
 50
327.8564799999998
 51
350.09193
  0
ARC
  5
A5FE
330
A58C
100
AcDbEntity
  8
1
  6
Continuous
100
AcDbCircle
 10
39.420203
 20
262.4496119999998
 30
0.0
 40
2.778
100
AcDbArc
 50
189.9080999999999
 51
212.14351
  0
ARC
  5
A5FF
330
A58C
100
AcDbEntity
  8
1
  6
Continuous
100
AcDbCircle
 10
57.220203
 20
262.4496119999998
 30
0.0
 40
2.778
100
AcDbArc
 50
189.9080999999999
 51
212.14351
  0
ARC
  5
A600
330
A58C
100
AcDbEntity
  8
1
  6
Continuous
100
AcDbCircle
 10
51.732293
 20
262.4496119999998
 30
0.0
 40
2.778
100
AcDbArc
 50
189.9080999999999
 51
212.14351
  0
ARC
  5
A601
330
A58C
100
AcDbEntity
  8
1
  6
Continuous
100
AcDbCircle
 10
46.779063
 20
262.4496119999998
 30
0.0
 40
2.778
100
AcDbArc
 50
189.9080999999999
 51
212.14351
  0
ARC
  5
A602
330
A58C
100
AcDbEntity
  8
1
  6
Continuous
100
AcDbCircle
 10
42.843083
 20
262.4496119999998
 30
0.0
 40
2.778
100
AcDbArc
 50
189.9080999999999
 51
212.14351
  0
ARC
  5
A603
330
A58C
100
AcDbEntity
  8
1
  6
Continuous
100
AcDbCircle
 10
40.30784299999999
 20
262.4496119999998
 30
0.0
 40
2.778
100
AcDbArc
 50
189.9080999999999
 51
212.14351
  0
ARC
  5
A604
330
A58C
100
AcDbEntity
  8
1
  6
Continuous
100
AcDbCircle
 10
51.732293
 20
262.4496119999998
 30
0.0
 40
2.778
100
AcDbArc
 50
327.8564799999998
 51
350.0919899999999
  0
LINE
  5
A605
330
A58C
100
AcDbEntity
  8
1
  6
Continuous
100
AcDbLine
 10
247.220223
 20
255.971605
 30
0.0
 11
247.220223
 21
252.071608
 31
0.0
  0
ARC
  5
A606
330
A58C
100
AcDbEntity
  8
1
  6
Continuous
100
AcDbCircle
 10
242.2202229999999
 20
255.971605
 30
0.0
 40
5.0
100
AcDbArc
 50
0.0
 51
90.0
  0
LINE
  5
A607
330
A58C
100
AcDbEntity
  8
4
  6
CENTER
100
AcDbLine
 10
190.220223
 20
422.3716009999998
 30
0.0
 11
190.220223
 21
358.669614
 31
0.0
  0
LINE
  5
A60B
330
A58C
100
AcDbEntity
  8
1
  6
Continuous
100
AcDbLine
 10
179.220223
 20
89.87160899999997
 30
0.0
 11
203.6808049999999
 21
89.87160899999997
 31
0.0
  0
LINE
  5
A60C
330
A58C
100
AcDbEntity
  8
1
  6
Continuous
100
AcDbLine
 10
179.220223
 20
92.171604
 30
0.0
 11
203.680799
 21
92.171604
 31
0.0
  0
LINE
  5
A60D
330
A58C
100
AcDbEntity
  8
1
  6
Continuous
100
AcDbLine
 10
174.720206
 20
57.87160899999999
 30
0.0
 11
205.720239
 21
57.87160899999999
 31
0.0
  0
LINE
  5
A60E
330
A58C
100
AcDbEntity
  8
1
  6
Continuous
100
AcDbLine
 10
179.220223
 20
55.57161899999999
 30
0.0
 11
202.940902
 21
55.57161899999999
 31
0.0
  0
LINE
  5
A60F
330
A58C
100
AcDbEntity
  8
1
  6
Continuous
100
AcDbLine
 10
196.470223
 20
55.571614
 30
0.0
 11
196.470223
 21
54.371617
 31
0.0
  0
LINE
  5
A610
330
A58C
100
AcDbEntity
  8
1
  6
Continuous
100
AcDbLine
 10
183.970223
 20
55.571614
 30
0.0
 11
183.970223
 21
54.371617
 31
0.0
  0
LINE
  5
A611
330
A58C
100
AcDbEntity
  8
1
  6
Continuous
100
AcDbLine
 10
186.220223
 20
88.87160899999996
 30
0.0
 11
186.220223
 21
89.87161699999999
 31
0.0
  0
LINE
  5
A612
330
A58C
100
AcDbEntity
  8
1
  6
Continuous
100
AcDbLine
 10
194.220223
 20
88.87160899999996
 30
0.0
 11
194.220223
 21
89.87161699999999
 31
0.0
  0
LINE
  5
A613
330
A58C
100
AcDbEntity
  8
1
  6
Continuous
100
AcDbLine
 10
185.970223
 20
52.371617
 30
0.0
 11
194.470223
 21
52.371617
 31
0.0
  0
ARC
  5
A614
330
A58C
100
AcDbEntity
  8
1
  6
Continuous
100
AcDbCircle
 10
185.970223
 20
54.371617
 30
0.0
 40
2.0
100
AcDbArc
 50
180.0000179999999
 51
270.0
  0
ARC
  5
A615
330
A58C
100
AcDbEntity
  8
1
  6
Continuous
100
AcDbCircle
 10
194.470223
 20
54.371617
 30
0.0
 40
2.0
100
AcDbArc
 50
270.0
 51
359.9999799999998
  0
LINE
  5
A616
330
A58C
100
AcDbEntity
  8
1
  6
Continuous
100
AcDbLine
 10
179.220223
 20
92.171604
 30
0.0
 11
179.220223
 21
89.87160899999997
 31
0.0
  0
LINE
  5
A617
330
A58C
100
AcDbEntity
  8
1
  6
Continuous
100
AcDbLine
 10
179.220223
 20
57.87160899999999
 30
0.0
 11
179.220223
 21
55.57161899999999
 31
0.0
  0
ARC
  5
A618
330
A58C
100
AcDbEntity
  8
1
  6
Continuous
100
AcDbCircle
 10
224.8902839999999
 20
73.86203899999998
 30
0.0
 40
43.958572
100
AcDbArc
 50
158.641841
 51
160.0348759999999
  0
ARC
  5
A619
330
A58C
100
AcDbEntity
  8
1
  6
Continuous
100
AcDbCircle
 10
222.220223
 20
73.87160899999997
 30
0.0
 40
25.0
100
AcDbArc
 50
230.2610529999999
 51
65.11944799999999
  0
ARC
  5
A61A
330
A58C
100
AcDbEntity
  8
1
  6
Continuous
100
AcDbCircle
 10
222.220223
 20
73.87160899999997
 30
0.0
 40
22.7
100
AcDbArc
 50
230.2610839999999
 51
64.56380300000001
  0
ARC
  5
A61B
330
A58C
100
AcDbEntity
  8
1
  6
Continuous
100
AcDbCircle
 10
222.220223
 20
73.87160899999997
 30
0.0
 40
17.0
100
AcDbArc
 50
231.425669
 51
312.667925
  0
ARC
  5
A61C
330
A58C
100
AcDbEntity
  8
1
  6
Continuous
100
AcDbCircle
 10
222.220223
 20
73.87160899999997
 30
0.0
 40
20.69999999999998
100
AcDbArc
 50
227.415458
 51
323.606027
  0
ARC
  5
A61D
330
A58C
100
AcDbEntity
  8
1
  6
Continuous
100
AcDbCircle
 10
222.220223
 20
73.87160899999997
 30
0.0
 40
17.0
100
AcDbArc
 50
47.33207500000001
 51
73.50070599999998
  0
ARC
  5
A61E
330
A58C
100
AcDbEntity
  8
1
  6
Continuous
100
AcDbCircle
 10
222.220223
 20
73.87160899999997
 30
0.0
 40
20.69999999999998
100
AcDbArc
 50
36.39397299999999
 51
61.90051999999998
  0
ARC
  5
A61F
330
A58C
100
AcDbEntity
  8
1
  6
Continuous
100
AcDbCircle
 10
222.220223
 20
73.87160899999997
 30
0.0
 40
20.69999999999998
100
AcDbArc
 50
326.9866819999998
 51
33.01331799999999
  0
CIRCLE
  5
A620
330
A58C
100
AcDbEntity
  8
2
  6
Continuous
100
AcDbCircle
 10
190.220223
 20
196.871609
 30
0.0
 40
3.3235
  0
CIRCLE
  5
A621
330
A58C
100
AcDbEntity
  8
1
  6
Continuous
100
AcDbCircle
 10
190.220223
 20
196.871609
 30
0.0
 40
4.0
  0
ARC
  5
A622
330
A58C
100
AcDbEntity
  8
1
  6
Continuous
100
AcDbCircle
 10
187.220223
 20
93.617644
 30
0.0
 40
6.841600999999998
100
AcDbArc
 50
63.992176
 51
134.8075649999999
  0
ARC
  5
A623
330
A58C
100
AcDbEntity
  8
1
  6
Continuous
100
AcDbCircle
 10
187.220223
 20
97.23200300000002
 30
0.0
 40
6.841600999999998
100
AcDbArc
 50
63.992176
 51
116.007824
  0
LINE
  5
A624
330
A58C
100
AcDbEntity
  8
1
  6
Continuous
100
AcDbLine
 10
187.470223
 20
104.073604
 30
0.0
 11
192.970223
 21
104.073604
 31
0.0
  0
LINE
  5
A625
330
A58C
100
AcDbEntity
  8
1
  6
Continuous
100
AcDbLine
 10
184.220223
 20
99.76642400000001
 30
0.0
 11
184.220223
 21
103.3807829999997
 31
0.0
  0
LINE
  5
A626
330
A58C
100
AcDbEntity
  8
1
  6
Continuous
100
AcDbLine
 10
190.220223
 20
99.07360400000001
 30
0.0
 11
190.220223
 21
103.3807829999997
 31
0.0
  0
LINE
  5
A627
330
A58C
100
AcDbEntity
  8
1
  6
Continuous
100
AcDbLine
 10
196.220223
 20
99.76642400000001
 30
0.0
 11
196.220223
 21
103.3807829999997
 31
0.0
  0
ARC
  5
A628
330
A58C
100
AcDbEntity
  8
1
  6
Continuous
100
AcDbCircle
 10
193.220223
 20
93.617644
 30
0.0
 40
6.841600999999998
100
AcDbArc
 50
45.19243499999999
 51
116.007824
  0
ARC
  5
A629
330
A58C
100
AcDbEntity
  8
1
  6
Continuous
100
AcDbCircle
 10
193.220223
 20
97.23200300000002
 30
0.0
 40
6.841600999999998
100
AcDbArc
 50
63.992176
 51
116.007824
  0
LINE
  5
A62A
330
A58C
100
AcDbEntity
  8
4
  6
CENTER
100
AcDbLine
 10
322.3198
 20
317.8716129999999
 30
0.0
 11
322.3198
 21
141.8716249999999
 31
0.0
  0
LINE
  5
A62B
330
A58C
100
AcDbEntity
  8
1
  6
Continuous
100
AcDbLine
 10
297.3198
 20
255.9716169999999
 30
0.0
 11
297.3198
 21
231.823477
 31
0.0
  0
LINE
  5
A62C
330
A58C
100
AcDbEntity
  8
1
  6
Continuous
100
AcDbLine
 10
304.0198049999998
 20
201.845008
 30
0.0
 11
304.0198049999998
 21
191.936222
 31
0.0
  0
LINE
  5
A62D
330
A58C
100
AcDbEntity
  8
1
  6
Continuous
100
AcDbLine
 10
306.3197999999998
 20
250.973676
 30
0.0
 11
306.3197999999998
 21
185.871625
 31
0.0
  0
LINE
  5
A62E
330
A58C
100
AcDbEntity
  8
1
  6
Continuous
100
AcDbLine
 10
340.6197899999999
 20
201.844997
 30
0.0
 11
340.6197899999999
 21
197.975582
 31
0.0
  0
LINE
  5
A62F
330
A58C
100
AcDbEntity
  8
1
  6
Continuous
100
AcDbLine
 10
338.3198
 20
250.973676
 30
0.0
 11
338.3198
 21
198.1983119999999
 31
0.0
  0
LINE
  5
A631
330
A58C
100
AcDbEntity
  8
1
  6
Continuous
100
AcDbLine
 10
340.6197899999999
 20
185.871625
 30
0.0
 11
338.3198
 21
185.871625
 31
0.0
  0
LINE
  5
A632
330
A58C
100
AcDbEntity
  8
1
  6
Continuous
100
AcDbLine
 10
343.819792
 20
201.1216249999999
 30
0.0
 11
343.819792
 21
192.6216249999999
 31
0.0
  0
LINE
  5
A633
330
A58C
100
AcDbEntity
  8
1
  6
Continuous
100
AcDbLine
 10
307.3198
 20
192.8716249999999
 30
0.0
 11
306.319792
 21
192.8716249999999
 31
0.0
  0
LINE
  5
A634
330
A58C
100
AcDbEntity
  8
1
  6
Continuous
100
AcDbLine
 10
340.619795
 20
190.6216249999999
 30
0.0
 11
341.819792
 21
190.6216249999999
 31
0.0
  0
LINE
  5
A635
330
A58C
100
AcDbEntity
  8
1
  6
Continuous
100
AcDbLine
 10
304.0198049999998
 20
185.871625
 30
0.0
 11
306.3197999999998
 21
185.871625
 31
0.0
  0
ARC
  5
A636
330
A58C
100
AcDbEntity
  8
1
  6
Continuous
100
AcDbCircle
 10
341.819792
 20
192.6216249999999
 30
0.0
 40
2.0
100
AcDbArc
 50
270.00002
 51
0.0
  0
ARC
  5
A637
330
A58C
100
AcDbEntity
  8
1
  6
Continuous
100
AcDbCircle
 10
341.819792
 20
201.1216249999999
 30
0.0
 40
2.0
100
AcDbArc
 50
0.0
 51
90.0
  0
LINE
  5
A638
330
A58C
100
AcDbEntity
  8
1
  6
Continuous
100
AcDbLine
 10
307.3198
 20
200.8716249999999
 30
0.0
 11
306.319792
 21
200.8716249999999
 31
0.0
  0
LINE
  5
A639
330
A58C
100
AcDbEntity
  8
1
  6
Continuous
100
AcDbLine
 10
342.3197999999998
 20
260.971617
 30
0.0
 11
302.3197999999998
 21
260.971617
 31
0.0
  0
ARC
  5
A63A
330
A58C
100
AcDbEntity
  8
1
  6
Continuous
100
AcDbCircle
 10
342.3197999999998
 20
255.9716169999999
 30
0.0
 40
5.0
100
AcDbArc
 50
0.00004
 51
90.00001800000005
  0
ARC
  5
A63B
330
A58C
100
AcDbEntity
  8
1
  6
Continuous
100
AcDbCircle
 10
339.2321799999998
 20
262.4496279999998
 30
0.0
 40
2.778
100
AcDbArc
 50
327.85649
 51
350.0919
  0
ARC
  5
A63C
330
A58C
100
AcDbEntity
  8
1
  6
Continuous
100
AcDbCircle
 10
336.6969399999998
 20
262.4496279999998
 30
0.0
 40
2.778
100
AcDbArc
 50
327.85649
 51
350.0919
  0
ARC
  5
A63D
330
A58C
100
AcDbEntity
  8
1
  6
Continuous
100
AcDbCircle
 10
332.76096
 20
262.4496279999998
 30
0.0
 40
2.778
100
AcDbArc
 50
327.85649
 51
350.0919
  0
ARC
  5
A63E
330
A58C
100
AcDbEntity
  8
1
  6
Continuous
100
AcDbCircle
 10
340.11982
 20
262.4496279999998
 30
0.0
 40
2.778
100
AcDbArc
 50
327.85649
 51
350.0919
  0
ARC
  5
A63F
330
A58C
100
AcDbEntity
  8
1
  6
Continuous
100
AcDbCircle
 10
327.80773
 20
262.4496279999998
 30
0.0
 40
2.778
100
AcDbArc
 50
327.85649
 51
350.0919
  0
ARC
  5
A640
330
A58C
100
AcDbEntity
  8
1
  6
Continuous
100
AcDbCircle
 10
332.76096
 20
262.4496279999998
 30
0.0
 40
2.778
100
AcDbArc
 50
206.93616
 51
212.14352
  0
ARC
  5
A641
330
A58C
100
AcDbEntity
  8
1
  6
Continuous
100
AcDbCircle
 10
316.8319
 20
262.4496279999998
 30
0.0
 40
2.778
100
AcDbArc
 50
327.85649
 51
350.0919599999999
  0
ARC
  5
A642
330
A58C
100
AcDbEntity
  8
1
  6
Continuous
100
AcDbCircle
 10
322.31982
 20
262.4496279999998
 30
0.0
 40
2.778
100
AcDbArc
 50
189.90807
 51
212.14352
  0
ARC
  5
A643
330
A58C
100
AcDbEntity
  8
1
  6
Continuous
100
AcDbCircle
 10
327.80773
 20
262.4496279999998
 30
0.0
 40
2.778
100
AcDbArc
 50
189.9080099999999
 51
212.14352
  0
ARC
  5
A644
330
A58C
100
AcDbEntity
  8
1
  6
Continuous
100
AcDbCircle
 10
322.31982
 20
262.4496279999998
 30
0.0
 40
2.778
100
AcDbArc
 50
327.85649
 51
350.0919
  0
ARC
  5
A645
330
A58C
100
AcDbEntity
  8
1
  6
Continuous
100
AcDbCircle
 10
302.3197999999998
 20
255.9716169999999
 30
0.0
 40
5.0
100
AcDbArc
 50
90.00001800000005
 51
180.0
  0
ARC
  5
A646
330
A58C
100
AcDbEntity
  8
1
  6
Continuous
100
AcDbCircle
 10
305.4074459999998
 20
262.4496279999998
 30
0.0
 40
2.778
100
AcDbArc
 50
189.90807
 51
212.14352
  0
ARC
  5
A647
330
A58C
100
AcDbEntity
  8
1
  6
Continuous
100
AcDbCircle
 10
307.942694
 20
262.4496279999998
 30
0.0
 40
2.778
100
AcDbArc
 50
189.90807
 51
212.14352
  0
ARC
  5
A648
330
A58C
100
AcDbEntity
  8
1
  6
Continuous
100
AcDbCircle
 10
311.8786679999999
 20
262.4496279999998
 30
0.0
 40
2.778
100
AcDbArc
 50
327.85649
 51
333.0638
  0
ARC
  5
A649
330
A58C
100
AcDbEntity
  8
1
  6
Continuous
100
AcDbCircle
 10
304.5198049999999
 20
262.4496279999998
 30
0.0
 40
2.778
100
AcDbArc
 50
189.90807
 51
212.19887
  0
ARC
  5
A64A
330
A58C
100
AcDbEntity
  8
1
  6
Continuous
100
AcDbCircle
 10
316.8319
 20
262.4496279999998
 30
0.0
 40
2.778
100
AcDbArc
 50
189.90807
 51
212.14352
  0
ARC
  5
A64B
330
A58C
100
AcDbEntity
  8
1
  6
Continuous
100
AcDbCircle
 10
311.8786679999999
 20
262.4496279999998
 30
0.0
 40
2.778
100
AcDbArc
 50
189.90807
 51
212.14352
  0
LINE
  5
A64C
330
A58C
100
AcDbEntity
  8
1
  6
Continuous
100
AcDbLine
 10
347.3198
 20
255.9716169999999
 30
0.0
 11
347.3198
 21
231.823477
 31
0.0
  0
LINE
  5
A64D
330
A58C
100
AcDbEntity
  8
4
  6
CENTER
100
AcDbLine
 10
442.2202229999999
 20
256.3725949999999
 30
0.0
 11
442.2202229999999
 21
141.871609
 31
0.0
  0
LINE
  5
A64E
330
A58C
100
AcDbEntity
  8
4
  6
CENTER
100
AcDbLine
 10
497.2202229999998
 20
196.871609
 30
0.0
 11
387.2202229999999
 21
196.871609
 31
0.0
  0
LINE
  5
A64F
330
A58C
100
AcDbEntity
  8
1
  6
Continuous
100
AcDbLine
 10
432.6795119999998
 20
191.3966819999999
 30
0.0
 11
432.215865
 21
192.2065
 31
0.0
  0
LINE
  5
A650
330
A58C
100
AcDbEntity
  8
1
  6
Continuous
100
AcDbLine
 10
447.52819
 20
250.8315
 30
0.0
 11
452.758545
 21
201.785709
 31
0.0
  0
LINE
  5
A651
330
A58C
100
AcDbEntity
  8
1
  6
Continuous
100
AcDbLine
 10
431.2202229999998
 20
251.771612
 30
0.0
 11
431.2202229999998
 21
199.371609
 31
0.0
  0
LINE
  5
A652
330
A58C
100
AcDbEntity
  8
4
  6
CENTER
100
AcDbLine
 10
410.2202229999998
 20
317.8716129999999
 30
0.0
 11
410.2202229999998
 21
214.6049389999999
 31
0.0
  0
ARC
  5
A653
330
A58C
100
AcDbEntity
  8
1
  6
Continuous
100
AcDbCircle
 10
442.2202229999999
 20
196.871609
 30
0.0
 40
11.0
100
AcDbArc
 50
209.7924799999999
 51
6.08713
  0
LINE
  5
A654
330
A58C
100
AcDbEntity
  8
1
  6
Continuous
100
AcDbLine
 10
431.2202229999998
 20
260.9716049999998
 30
0.0
 11
390.2202229999998
 21
260.9716049999998
 31
0.0
  0
ARC
  5
A655
330
A58C
100
AcDbEntity
  8
1
  6
Continuous
100
AcDbCircle
 10
431.2202229999998
 20
255.971604
 30
0.0
 40
5.0
100
AcDbArc
 50
1.09966
 51
90.00001800000005
  0
ARC
  5
A656
330
A58C
100
AcDbEntity
  8
1
  6
Continuous
100
AcDbCircle
 10
450.014094
 20
251.096602
 30
0.0
 40
2.5
100
AcDbArc
 50
79.99997999999997
 51
186.08715
  0
LINE
  5
A657
330
A58C
100
AcDbEntity
  8
1
  6
Continuous
100
AcDbLine
 10
451.508732
 20
253.371624
 30
0.0
 11
432.61652
 21
256.70283
 31
0.0
  0
ARC
  5
A658
330
A58C
100
AcDbEntity
  8
1
  6
Continuous
100
AcDbCircle
 10
448.564969
 20
250.539781
 30
0.0
 40
1.0
100
AcDbArc
 50
79.99996999999997
 51
186.08715
  0
LINE
  5
A659
330
A58C
100
AcDbEntity
  8
1
  6
Continuous
100
AcDbLine
 10
451.1093419999999
 20
251.1065659999999
 30
0.0
 11
448.7386169999998
 21
251.524589
 31
0.0
  0
LINE
  5
A65A
330
A58C
100
AcDbEntity
  8
1
  6
Continuous
100
AcDbLine
 10
451.508732
 20
253.371624
 30
0.0
 11
451.1093419999999
 21
251.1065659999999
 31
0.0
  0
ARC
  5
A65B
330
A58C
100
AcDbEntity
  8
1
  6
Continuous
100
AcDbCircle
 10
389.2447359999999
 20
237.071608
 30
0.0
 40
15.0
100
AcDbArc
 50
29.79243
 51
90.00001800000005
  0
ARC
  5
A65C
330
A58C
100
AcDbEntity
  8
1
  6
Continuous
100
AcDbCircle
 10
427.1326069999998
 20
262.4496119999998
 30
0.0
 40
2.778
100
AcDbArc
 50
327.85663
 51
350.0919
  0
ARC
  5
A65D
330
A58C
100
AcDbEntity
  8
1
  6
Continuous
100
AcDbCircle
 10
424.597367
 20
262.4496119999998
 30
0.0
 40
2.778
100
AcDbArc
 50
327.8566
 51
350.0919
  0
ARC
  5
A65E
330
A58C
100
AcDbEntity
  8
1
  6
Continuous
100
AcDbCircle
 10
420.6613929999998
 20
262.4496119999998
 30
0.0
 40
2.778
100
AcDbArc
 50
327.8566
 51
350.0919
  0
ARC
  5
A65F
330
A58C
100
AcDbEntity
  8
1
  6
Continuous
100
AcDbCircle
 10
415.708153
 20
262.4496119999998
 30
0.0
 40
2.778
100
AcDbArc
 50
327.8566
 51
350.0919
  0
ARC
  5
A660
330
A58C
100
AcDbEntity
  8
1
  6
Continuous
100
AcDbCircle
 10
428.0202489999998
 20
262.4496119999998
 30
0.0
 40
2.778
100
AcDbArc
 50
327.85663
 51
350.0919
  0
ARC
  5
A661
330
A58C
100
AcDbEntity
  8
1
  6
Continuous
100
AcDbCircle
 10
404.7323229999998
 20
262.4496119999998
 30
0.0
 40
2.778
100
AcDbArc
 50
189.90807
 51
212.1434199999999
  0
ARC
  5
A662
330
A58C
100
AcDbEntity
  8
1
  6
Continuous
100
AcDbCircle
 10
415.708153
 20
262.4496119999998
 30
0.0
 40
2.778
100
AcDbArc
 50
189.9080099999999
 51
212.1434199999999
  0
ARC
  5
A663
330
A58C
100
AcDbEntity
  8
1
  6
Continuous
100
AcDbCircle
 10
410.2202379999998
 20
262.4496119999998
 30
0.0
 40
2.778
100
AcDbArc
 50
327.8566
 51
350.0919
  0
ARC
  5
A664
330
A58C
100
AcDbEntity
  8
1
  6
Continuous
100
AcDbCircle
 10
404.7323229999998
 20
262.4496119999998
 30
0.0
 40
2.778
100
AcDbArc
 50
327.8566
 51
350.0919599999999
  0
ARC
  5
A665
330
A58C
100
AcDbEntity
  8
1
  6
Continuous
100
AcDbCircle
 10
410.2202379999998
 20
262.4496119999998
 30
0.0
 40
2.778
100
AcDbArc
 50
189.90807
 51
212.1434199999999
  0
ARC
  5
A666
330
A58C
100
AcDbEntity
  8
1
  6
Continuous
100
AcDbCircle
 10
390.2202229999998
 20
255.971605
 30
0.0
 40
5.0
100
AcDbArc
 50
90.0
 51
180.0
  0
LINE
  5
A667
330
A58C
100
AcDbEntity
  8
1
  6
Continuous
100
AcDbLine
 10
385.2202229999999
 20
255.971605
 30
0.0
 11
385.2202229999999
 21
252.071608
 31
0.0
  0
LINE
  5
A668
330
A58C
100
AcDbEntity
  8
1
  6
Continuous
100
AcDbLine
 10
389.2447359999999
 20
252.071608
 30
0.0
 11
385.2202229999999
 21
252.071608
 31
0.0
  0
ARC
  5
A669
330
A58C
100
AcDbEntity
  8
1
  6
Continuous
100
AcDbCircle
 10
399.779084
 20
262.4496119999998
 30
0.0
 40
2.778
100
AcDbArc
 50
189.90807
 51
212.1434199999999
  0
ARC
  5
A66A
330
A58C
100
AcDbEntity
  8
1
  6
Continuous
100
AcDbCircle
 10
393.3078689999999
 20
262.4496119999998
 30
0.0
 40
2.778
100
AcDbArc
 50
189.90807
 51
212.1433699999999
  0
ARC
  5
A66B
330
A58C
100
AcDbEntity
  8
1
  6
Continuous
100
AcDbCircle
 10
395.84311
 20
262.4496119999998
 30
0.0
 40
2.778
100
AcDbArc
 50
189.90807
 51
212.1433699999999
  0
ARC
  5
A66C
330
A58C
100
AcDbEntity
  8
1
  6
Continuous
100
AcDbCircle
 10
392.4202279999999
 20
262.4496119999998
 30
0.0
 40
2.778
100
AcDbArc
 50
189.90807
 51
212.1433699999999
  0
LINE
  5
A66D
330
A58C
100
AcDbEntity
  8
1
  6
Continuous
100
AcDbLine
 10
190.220223
 20
203.3716029999999
 30
0.0
 11
184.5910619999999
 21
200.1216059999999
 31
0.0
  0
LINE
  5
A66E
330
A58C
100
AcDbEntity
  8
1
  6
Continuous
100
AcDbLine
 10
184.5910619999999
 20
200.1216059999999
 30
0.0
 11
184.5910619999999
 21
193.621611
 31
0.0
  0
LINE
  5
A66F
330
A58C
100
AcDbEntity
  8
1
  6
Continuous
100
AcDbLine
 10
184.5910619999999
 20
193.621611
 30
0.0
 11
190.220223
 21
190.371614
 31
0.0
  0
LINE
  5
A670
330
A58C
100
AcDbEntity
  8
1
  6
Continuous
100
AcDbLine
 10
190.220223
 20
190.371614
 30
0.0
 11
195.8493829999999
 21
193.621611
 31
0.0
  0
LINE
  5
A671
330
A58C
100
AcDbEntity
  8
1
  6
Continuous
100
AcDbLine
 10
195.8493829999999
 20
193.621611
 30
0.0
 11
195.8493829999999
 21
200.1216059999999
 31
0.0
  0
LINE
  5
A672
330
A58C
100
AcDbEntity
  8
1
  6
Continuous
100
AcDbLine
 10
195.8493829999999
 20
200.1216059999999
 30
0.0
 11
190.220223
 21
203.3716029999999
 31
0.0
  0
LINE
  5
A673
330
A58C
100
AcDbEntity
  8
1
  6
Continuous
100
AcDbLine
 10
88.22223199999998
 20
192.871609
 30
0.0
 11
87.42223199999996
 21
192.871609
 31
0.0
  0
LINE
  5
A674
330
A58C
100
AcDbEntity
  8
2
  6
Continuous
100
AcDbLine
 10
88.89873199999998
 20
193.548109
 30
0.0
 11
87.42223199999996
 21
193.548109
 31
0.0
  0
LINE
  5
A675
330
A58C
100
AcDbEntity
  8
1
  6
Continuous
100
AcDbLine
 10
88.22223199999998
 20
200.871609
 30
0.0
 11
87.42223199999996
 21
200.871609
 31
0.0
  0
LINE
  5
A676
330
A58C
100
AcDbEntity
  8
2
  6
Continuous
100
AcDbLine
 10
88.89873199999998
 20
200.1951089999999
 30
0.0
 11
87.42223199999996
 21
200.1951089999999
 31
0.0
  0
LINE
  5
A677
330
A58C
100
AcDbEntity
  8
1
  6
Continuous
100
AcDbLine
 10
89.42223199999999
 20
194.071609
 30
0.0
 11
88.22223199999998
 21
192.871609
 31
0.0
  0
LINE
  5
A678
330
A58C
100
AcDbEntity
  8
1
  6
Continuous
100
AcDbLine
 10
88.22223199999998
 20
192.871609
 30
0.0
 11
88.22223199999998
 21
200.871609
 31
0.0
  0
LINE
  5
A679
330
A58C
100
AcDbEntity
  8
1
  6
Continuous
100
AcDbLine
 10
89.42223199999999
 20
199.6716089999999
 30
0.0
 11
88.22223199999998
 21
200.871609
 31
0.0
  0
LINE
  5
A67A
330
A58C
100
AcDbEntity
  8
1
  6
Continuous
100
AcDbLine
 10
89.42223199999999
 20
194.071609
 30
0.0
 11
89.42223199999999
 21
199.6716089999999
 31
0.0
  0
LINE
  5
A67B
330
A58C
100
AcDbEntity
  8
1
  6
Continuous
100
AcDbLine
 10
194.220223
 20
104.873604
 30
0.0
 11
194.220223
 21
104.073604
 31
0.0
  0
LINE
  5
A67C
330
A58C
100
AcDbEntity
  8
2
  6
Continuous
100
AcDbLine
 10
193.5437229999998
 20
105.550104
 30
0.0
 11
193.5437229999998
 21
104.073604
 31
0.0
  0
LINE
  5
A67D
330
A58C
100
AcDbEntity
  8
1
  6
Continuous
100
AcDbLine
 10
186.220223
 20
104.873604
 30
0.0
 11
186.220223
 21
104.073604
 31
0.0
  0
LINE
  5
A67E
330
A58C
100
AcDbEntity
  8
2
  6
Continuous
100
AcDbLine
 10
186.896723
 20
105.550104
 30
0.0
 11
186.896723
 21
104.073604
 31
0.0
  0
LINE
  5
A67F
330
A58C
100
AcDbEntity
  8
1
  6
Continuous
100
AcDbLine
 10
193.0202229999999
 20
106.073604
 30
0.0
 11
194.220223
 21
104.873604
 31
0.0
  0
LINE
  5
A680
330
A58C
100
AcDbEntity
  8
1
  6
Continuous
100
AcDbLine
 10
194.220223
 20
104.873604
 30
0.0
 11
186.220223
 21
104.873604
 31
0.0
  0
LINE
  5
A681
330
A58C
100
AcDbEntity
  8
1
  6
Continuous
100
AcDbLine
 10
187.4202229999999
 20
106.073604
 30
0.0
 11
186.220223
 21
104.873604
 31
0.0
  0
LINE
  5
A682
330
A58C
100
AcDbEntity
  8
1
  6
Continuous
100
AcDbLine
 10
193.0202229999999
 20
106.073604
 30
0.0
 11
187.4202229999999
 21
106.073604
 31
0.0
  0
CIRCLE
  5
A683
330
A58C
100
AcDbEntity
  8
1
  6
Continuous
100
AcDbCircle
 10
190.220223
 20
196.871609
 30
0.0
 40
2.799999999999998
  0
CIRCLE
  5
A684
330
A58C
100
AcDbEntity
  8
1
  6
Continuous
100
AcDbCircle
 10
190.220223
 20
196.871609
 30
0.0
 40
5.102012999999998
  0
ARC
  5
A685
330
A58C
100
AcDbEntity
  8
1
  6
Continuous
100
AcDbCircle
 10
366.7375599999999
 20
231.823477
 30
0.0
 40
69.417761
100
AcDbArc
 50
164.295714
 51
205.1964439999999
  0
ARC
  5
A686
330
A58C
100
AcDbEntity
  8
1
  6
Continuous
100
AcDbCircle
 10
277.9020389999999
 20
231.823477
 30
0.0
 40
69.417761
100
AcDbArc
 50
334.8035469999998
 51
15.70428599999999
  0
LINE
  5
A687
330
A58C
100
AcDbEntity
  8
1
  6
Continuous
100
AcDbLine
 10
341.1082819999998
 20
203.1216249999999
 30
0.0
 11
341.819792
 21
203.1216249999999
 31
0.0
  0
ARC
  5
A688
330
A58C
100
AcDbEntity
  8
1
  6
Continuous
100
AcDbCircle
 10
277.9020389999999
 20
231.823477
 30
0.0
 40
67.117761
100
AcDbArc
 50
334.8035659999998
 51
17.55857599999999
  0
ARC
  5
A689
330
A58C
100
AcDbEntity
  8
1
  6
Continuous
100
AcDbCircle
 10
366.7375599999999
 20
231.823477
 30
0.0
 40
67.117761
100
AcDbArc
 50
162.441424
 51
205.196434
  0
ARC
  5
A68A
330
A58C
100
AcDbEntity
  8
1
  6
Continuous
100
AcDbCircle
 10
322.3198
 20
379.6020149999998
 30
0.0
 40
128.4999999999998
100
AcDbArc
 50
263.34847
 51
276.6515
  0
ARC
  5
A68B
330
A58C
100
AcDbEntity
  8
1
  6
Continuous
100
AcDbCircle
 10
307.3198
 20
250.973676
 30
0.0
 40
1.0
100
AcDbArc
 50
83.348539
 51
179.9999599999999
  0
ARC
  5
A68C
330
A58C
100
AcDbEntity
  8
1
  6
Continuous
100
AcDbCircle
 10
337.3197999999998
 20
250.973676
 30
0.0
 40
1.0
100
AcDbArc
 50
0.00004
 51
96.65146100000001
  0
LINE
  5
A68D
330
A58C
100
AcDbEntity
  8
1
  6
Continuous
100
AcDbLine
 10
301.8364029999998
 20
252.071608
 30
0.0
 11
342.803196
 21
252.071608
 31
0.0
  0
ARC
  5
A68E
330
A58C
100
AcDbEntity
  8
1
  6
Continuous
100
AcDbCircle
 10
342.803196
 20
250.071608
 30
0.0
 40
2.0
100
AcDbArc
 50
15.70428599999999
 51
90.0
  0
ARC
  5
A68F
330
A58C
100
AcDbEntity
  8
1
  6
Continuous
100
AcDbCircle
 10
301.8364029999998
 20
250.071608
 30
0.0
 40
2.0
100
AcDbArc
 50
90.0
 51
164.295714
  0
ARC
  5
A690
330
A58C
100
AcDbEntity
  8
1
  6
Continuous
100
AcDbCircle
 10
203.6808049999999
 20
96.17160900000001
 30
0.0
 40
6.299999999999998
100
AcDbArc
 50
270.0
 51
309.738916
  0
ARC
  5
A691
330
A58C
100
AcDbEntity
  8
1
  6
Continuous
100
AcDbCircle
 10
203.6808049999999
 20
51.571609
 30
0.0
 40
6.299999999999998
100
AcDbArc
 50
50.261084
 51
57.58579499999999
  0
ARC
  5
A692
330
A58C
100
AcDbEntity
  8
1
  6
Continuous
100
AcDbCircle
 10
203.680793
 20
51.571619
 30
0.0
 40
4.0
100
AcDbArc
 50
50.26105300000001
 51
68.288744
  0
ARC
  5
A693
330
A58C
100
AcDbEntity
  8
1
  6
Continuous
100
AcDbCircle
 10
303.0197999999998
 20
201.8450179999999
 30
0.0
 40
3.299999999999998
100
AcDbArc
 50
0.0
 51
25.196434
  0
ARC
  5
A694
330
A58C
100
AcDbEntity
  8
1
  6
Continuous
100
AcDbCircle
 10
341.6198
 20
201.8450179999999
 30
0.0
 40
3.299999999999998
100
AcDbArc
 50
154.803566
 51
180.0
  0
LINE
  5
A695
330
A58C
100
AcDbEntity
  8
1
  6
Continuous
100
AcDbLine
 10
291.5198199999998
 20
201.980709
 30
0.0
 11
302.1310409999998
 21
201.980709
 31
0.0
  0
LINE
  5
A696
330
A58C
100
AcDbEntity
  8
1
  6
Continuous
100
AcDbLine
 10
292.838301
 20
213.7464249999999
 30
0.0
 11
299.7148349999998
 21
213.7464249999999
 31
0.0
  0
ARC
  5
A697
330
A58C
100
AcDbEntity
  8
1
  6
Continuous
100
AcDbCircle
 10
289.8698109999999
 20
202.7801469999999
 30
0.0
 40
19.97969399999998
100
AcDbArc
 50
245.1419
 51
294.8581019999998
  0
ARC
  5
A698
330
A58C
100
AcDbEntity
  8
1
  6
Continuous
100
AcDbCircle
 10
289.8698109999999
 20
204.8184159999999
 30
0.0
 40
19.97969399999998
100
AcDbArc
 50
245.1419
 51
294.8581019999998
  0
ARC
  5
A699
330
A58C
100
AcDbEntity
  8
1
  6
Continuous
100
AcDbCircle
 10
293.7698199999998
 20
210.725414
 30
0.0
 40
19.97969399999998
100
AcDbArc
 50
79.72191099999998
 51
114.8581139999999
  0
LINE
  5
A69A
330
A58C
100
AcDbEntity
  8
1
  6
Continuous
100
AcDbLine
 10
77.82022099999998
 20
183.537181
 30
0.0
 11
77.82022099999998
 21
223.9180409999999
 31
0.0
  0
LINE
  5
A69B
330
A58C
100
AcDbEntity
  8
1
  6
Continuous
100
AcDbLine
 10
98.89019799999999
 20
191.936573
 30
0.0
 11
89.23230699999995
 21
200.8317219999999
 31
0.0
  0
LINE
  5
A69C
330
A58C
100
AcDbEntity
  8
1
  6
Continuous
100
AcDbLine
 10
77.46900899999999
 20
182.2286489999999
 30
0.0
 11
80.02775600000003
 21
182.2286489999999
 31
0.0
  0
LINE
  5
A6B0
330
A58C
100
AcDbEntity
  8
1
  6
Continuous
100
AcDbLine
 10
75.520218
 20
191.936229
 30
0.0
 11
73.520218
 21
191.936229
 31
0.0
  0
LINE
  5
A6B1
330
A58C
100
AcDbEntity
  8
1
  6
Continuous
100
AcDbLine
 10
73.520218
 20
191.936229
 30
0.0
 11
73.520218
 21
186.886516
 31
0.0
  0
LINE
  5
A6B2
330
A58C
100
AcDbEntity
  8
1
  6
Continuous
100
AcDbLine
 10
75.520218
 20
189.89793
 30
0.0
 11
73.520218
 21
189.89793
 31
0.0
  0
LINE
  5
A6B3
330
A58C
100
AcDbEntity
  8
1
  6
Continuous
100
AcDbLine
 10
75.520218
 20
186.886516
 30
0.0
 11
73.520218
 21
186.886516
 31
0.0
  0
LINE
  5
A6B4
330
A58C
100
AcDbEntity
  8
1
  6
Continuous
100
AcDbLine
 10
75.520218
 20
183.979137
 30
0.0
 11
77.82022099999998
 21
183.979137
 31
0.0
  0
LINE
  5
A6CA
330
A58C
100
AcDbEntity
  8
1
  6
Continuous
100
AcDbLine
 10
89.42223199999999
 20
198.618537
 30
0.0
 11
98.890205
 21
189.8982879999999
 31
0.0
  0
ARC
  5
A6CB
330
A58C
100
AcDbEntity
  8
1
  6
Continuous
100
AcDbCircle
 10
89.67022699999999
 20
202.780132
 30
0.0
 40
19.97969399999998
100
AcDbArc
 50
246.5527779999999
 51
294.8581159999998
  0
LINE
  5
A6CC
330
A58C
100
AcDbEntity
  8
1
  6
Continuous
100
AcDbLine
 10
79.42022699999998
 20
180.1423139999999
 30
0.0
 11
79.42022699999998
 21
182.2286489999999
 31
0.0
  0
LINE
  5
A6CD
330
A58C
100
AcDbEntity
  8
1
  6
Continuous
100
AcDbLine
 10
79.42022699999998
 20
180.1423139999999
 30
0.0
 11
81.72022199999998
 21
180.1423139999999
 31
0.0
  0
LINE
  5
A6CE
330
A58C
100
AcDbEntity
  8
1
  6
Continuous
100
AcDbLine
 10
81.72022199999998
 20
180.1423139999999
 30
0.0
 11
81.72022199999998
 21
188.4716089999997
 31
0.0
  0
ARC
  5
A6CF
330
A58C
100
AcDbEntity
  8
1
  6
Continuous
100
AcDbCircle
 10
81.22013800000003
 20
181.949474
 30
0.0
 40
0.5
100
AcDbArc
 50
359.999997
 51
111.2173639999999
  0
LINE
  5
A6D0
330
A58C
100
AcDbEntity
  8
1
  6
Continuous
100
AcDbLine
 10
99.92022699999999
 20
187.549236
 30
0.0
 11
99.92022699999999
 21
189.5875049999999
 31
0.0
  0
ARC
  5
A6D1
330
A58C
100
AcDbEntity
  8
1
  6
Continuous
100
AcDbCircle
 10
96.726646
 20
187.549236
 30
0.0
 40
3.193579
100
AcDbArc
 50
294.8581019999998
 51
47.354091
  0
ARC
  5
A6D2
330
A58C
100
AcDbEntity
  8
1
  6
Continuous
100
AcDbCircle
 10
96.726646
 20
189.5875049999999
 30
0.0
 40
3.193579
100
AcDbArc
 50
359.999997
 51
47.354176
  0
LINE
  5
A6D3
330
A58C
100
AcDbEntity
  8
1
  6
Continuous
100
AcDbLine
 10
87.63788599999998
 20
210.967754
 30
0.0
 11
77.82022099999998
 21
210.967754
 31
0.0
  0
ARC
  5
A6D4
330
A58C
100
AcDbEntity
  8
1
  6
Continuous
100
AcDbCircle
 10
85.770218
 20
210.725414
 30
0.0
 40
19.97969399999998
100
AcDbArc
 50
65.14189800000001
 51
114.8580999999998
  0
ARC
  5
A6D5
330
A58C
100
AcDbEntity
  8
1
  6
Continuous
100
AcDbCircle
 10
85.770218
 20
208.6871449999999
 30
0.0
 40
19.97969399999998
100
AcDbArc
 50
65.14189800000001
 51
114.8580999999998
  0
LINE
  5
A6D6
330
A58C
100
AcDbEntity
  8
1
  6
Continuous
100
AcDbLine
 10
73.520218
 20
217.233867
 30
0.0
 11
73.520218
 21
222.0519519999998
 31
0.0
  0
LINE
  5
A6D7
330
A58C
100
AcDbEntity
  8
1
  6
Continuous
100
AcDbLine
 10
75.520218
 20
220.0136829999999
 30
0.0
 11
73.520218
 21
220.0136829999999
 31
0.0
  0
LINE
  5
A6D8
330
A58C
100
AcDbEntity
  8
1
  6
Continuous
100
AcDbLine
 10
75.520218
 20
217.233867
 30
0.0
 11
73.520218
 21
217.233867
 31
0.0
  0
LINE
  5
A6D9
330
A58C
100
AcDbEntity
  8
1
  6
Continuous
100
AcDbLine
 10
75.520218
 20
208.2555649999999
 30
0.0
 11
77.82022099999998
 21
208.2555649999999
 31
0.0
  0
LINE
  5
A6DA
330
A58C
100
AcDbEntity
  8
1
  6
Continuous
100
AcDbLine
 10
75.520218
 20
222.0519519999998
 30
0.0
 11
73.520218
 21
222.0519519999998
 31
0.0
  0
LINE
  5
A6DB
330
A58C
100
AcDbEntity
  8
1
  6
Continuous
100
AcDbLine
 10
75.520218
 20
223.9180409999999
 30
0.0
 11
77.82022099999998
 21
223.9180409999999
 31
0.0
  0
ARC
  5
A6DC
330
A58C
100
AcDbEntity
  8
1
  6
Continuous
100
AcDbCircle
 10
78.71379799999998
 20
225.95631
 30
0.0
 40
3.193579
100
AcDbArc
 50
114.8580999999998
 51
180.000005
  0
ARC
  5
A6DD
330
A58C
100
AcDbEntity
  8
1
  6
Continuous
100
AcDbCircle
 10
78.71379799999998
 20
223.9180409999999
 30
0.0
 40
3.193579
100
AcDbArc
 50
114.8580999999998
 51
180.000005
  0
LINE
  5
A6DE
330
A58C
100
AcDbEntity
  8
1
  6
Continuous
100
AcDbLine
 10
87.63789399999996
 20
210.967769
 30
0.0
 11
95.440521
 21
222.0832169999999
 31
0.0
  0
ARC
  5
A6DF
330
A58C
100
AcDbEntity
  8
1
  6
Continuous
100
AcDbCircle
 10
96.00692700000001
 20
208.187267
 30
0.0
 40
10.0
100
AcDbArc
 50
207.5165319999999
 51
227.4797379999999
  0
ARC
  5
A6E0
330
A58C
100
AcDbEntity
  8
1
  6
Continuous
100
AcDbCircle
 10
116.76458
 20
219.000652
 30
0.0
 40
33.40532299999999
100
AcDbArc
 50
195.562253
 51
207.5165319999999
  0
ARC
  5
A6E1
330
A58C
100
AcDbEntity
  8
1
  6
Continuous
100
AcDbCircle
 10
91.87738799999999
 20
209.2263599999999
 30
0.0
 40
7.346719999999997
100
AcDbArc
 50
175.5108769999999
 51
197.296189
  0
ARC
  5
A6E2
330
A58C
100
AcDbEntity
  8
1
  6
Continuous
100
AcDbCircle
 10
86.91598499999996
 20
209.615886
 30
0.0
 40
2.370054
100
AcDbArc
 50
145.2214469999999
 51
175.5108769999999
  0
ARC
  5
A6E3
330
A58C
100
AcDbEntity
  8
1
  6
Continuous
100
AcDbCircle
 10
116.7580339999999
 20
216.9739799999999
 30
0.0
 40
33.40532299999999
100
AcDbArc
 50
196.4368179999999
 51
204.7987319999998
  0
ARC
  5
A6E4
330
A58C
100
AcDbEntity
  8
1
  6
Continuous
100
AcDbCircle
 10
92.826637
 20
225.95631
 30
0.0
 40
3.193579
100
AcDbArc
 50
359.999997
 51
65.14189800000001
  0
ARC
  5
A6E5
330
A58C
100
AcDbEntity
  8
1
  6
Continuous
100
AcDbCircle
 10
92.826637
 20
223.9180409999999
 30
0.0
 40
3.193579
100
AcDbArc
 50
324.932596
 51
65.14189800000001
  0
LINE
  5
A6E6
330
A58C
100
AcDbEntity
  8
1
  6
Continuous
100
AcDbLine
 10
96.02021800000001
 20
223.9180409999999
 30
0.0
 11
96.02021800000001
 21
225.95631
 31
0.0
  0
LINE
  5
A6E7
330
A58C
100
AcDbEntity
  8
1
  6
Continuous
100
AcDbLine
 10
232.73842
 20
96.07161300000001
 30
0.0
 11
232.73842
 21
98.37161600000001
 31
0.0
  0
LINE
  5
A6E8
330
A58C
100
AcDbEntity
  8
1
  6
Continuous
100
AcDbLine
 10
205.930757
 20
102.7659639999999
 30
0.0
 11
205.930757
 21
95.67151200000001
 31
0.0
  0
LINE
  5
A6E9
330
A58C
100
AcDbEntity
  8
1
  6
Continuous
100
AcDbLine
 10
183.775667
 20
103.711887
 30
0.0
 11
183.775667
 21
99.52886499999999
 31
0.0
  0
LINE
  5
A6EA
330
A58C
100
AcDbEntity
  8
1
  6
Continuous
100
AcDbLine
 10
206.368441
 20
94.47160700000001
 30
0.0
 11
213.4580709999999
 21
98.37160799999999
 31
0.0
  0
ARC
  5
A6EB
330
A58C
100
AcDbEntity
  8
1
  6
Continuous
100
AcDbCircle
 10
230.702349
 20
104.4423249999999
 30
0.0
 40
8.370708999999997
100
AcDbArc
 50
284.077735
 51
318.452482
  0
ARC
  5
A6EC
330
A58C
100
AcDbEntity
  8
1
  6
Continuous
100
AcDbCircle
 10
229.636766
 20
104.4423249999999
 30
0.0
 40
8.370708999999997
100
AcDbArc
 50
291.7487679999998
 51
318.452482
  0
ARC
  5
A6ED
330
A58C
100
AcDbEntity
  8
1
  6
Continuous
100
AcDbCircle
 10
162.1902479999999
 20
102.4216039999999
 30
0.0
 40
11.20420599999998
100
AcDbArc
 50
138.4524829999998
 51
221.5475129999999
  0
LINE
  5
A6EE
330
A58C
100
AcDbEntity
  8
1
  6
Continuous
100
AcDbLine
 10
206.9593069999998
 20
92.171604
 30
0.0
 11
155.9916399999998
 21
92.171604
 31
0.0
  0
LINE
  5
A6EF
330
A58C
100
AcDbEntity
  8
1
  6
Continuous
100
AcDbLine
 10
206.368441
 20
94.47160700000001
 30
0.0
 11
155.9916399999998
 21
94.47160700000001
 31
0.0
  0
LINE
  5
A6F0
330
A58C
100
AcDbEntity
  8
1
  6
Continuous
100
AcDbLine
 10
173.92087
 20
90.17160399999999
 30
0.0
 11
167.5380269999998
 21
90.17160399999999
 31
0.0
  0
LINE
  5
A6F1
330
A58C
100
AcDbEntity
  8
1
  6
Continuous
100
AcDbLine
 10
155.9916399999998
 20
92.171604
 30
0.0
 11
155.9916399999998
 21
94.47160700000001
 31
0.0
  0
ARC
  5
A6F2
330
A58C
100
AcDbEntity
  8
1
  6
Continuous
100
AcDbCircle
 10
160.0696429999999
 20
100.542316
 30
0.0
 40
8.370708999999997
100
AcDbArc
 50
221.547517
 51
240.844905
  0
LINE
  5
A6F3
330
A58C
100
AcDbEntity
  8
1
  6
Continuous
100
AcDbLine
 10
167.5380269999998
 20
92.171604
 30
0.0
 11
167.5380269999998
 21
90.17160399999999
 31
0.0
  0
LINE
  5
A6F4
330
A58C
100
AcDbEntity
  8
1
  6
Continuous
100
AcDbLine
 10
172.855287
 20
92.171604
 30
0.0
 11
172.855287
 21
90.17160399999999
 31
0.0
  0
LINE
  5
A6F5
330
A58C
100
AcDbEntity
  8
1
  6
Continuous
100
AcDbLine
 10
165.843599
 20
92.171604
 30
0.0
 11
165.843599
 21
94.47160700000001
 31
0.0
  0
LINE
  5
A6F6
330
A58C
100
AcDbEntity
  8
1
  6
Continuous
100
AcDbLine
 10
173.92087
 20
92.171604
 30
0.0
 11
173.92087
 21
90.17160399999999
 31
0.0
  0
LINE
  5
A6F7
330
A58C
100
AcDbEntity
  8
1
  6
Continuous
100
AcDbLine
 10
175.152422
 20
92.171604
 30
0.0
 11
175.152422
 21
94.47160700000001
 31
0.0
  0
LINE
  5
A6F8
330
A58C
100
AcDbEntity
  8
1
  6
Continuous
100
AcDbLine
 10
199.079927
 20
92.171604
 30
0.0
 11
199.079927
 21
94.47160700000001
 31
0.0
  0
LINE
  5
A6F9
330
A58C
100
AcDbEntity
  8
1
  6
Continuous
100
AcDbLine
 10
232.73842
 20
96.07161300000001
 30
0.0
 11
214.048952
 21
96.07161300000001
 31
0.0
  0
LINE
  5
A6FA
330
A58C
100
AcDbEntity
  8
1
  6
Continuous
100
AcDbLine
 10
206.9593069999998
 20
92.171604
 30
0.0
 11
214.048937
 21
96.071605
 31
0.0
  0
LINE
  5
A6FB
330
A58C
100
AcDbEntity
  8
1
  6
Continuous
100
AcDbLine
 10
225.1440909999999
 20
90.17160399999999
 30
0.0
 11
231.9700029999999
 21
90.17160399999999
 31
0.0
  0
LINE
  5
A6FC
330
A58C
100
AcDbEntity
  8
1
  6
Continuous
100
AcDbLine
 10
231.9700029999999
 20
96.07161300000001
 30
0.0
 11
231.9700029999999
 21
90.17160399999999
 31
0.0
  0
LINE
  5
A6FD
330
A58C
100
AcDbEntity
  8
1
  6
Continuous
100
AcDbLine
 10
225.1440909999999
 20
96.07161300000001
 30
0.0
 11
225.1440909999999
 21
90.17160399999999
 31
0.0
  0
LINE
  5
A6FE
330
A58C
100
AcDbEntity
  8
1
  6
Continuous
100
AcDbLine
 10
230.9044209999999
 20
96.07161300000001
 30
0.0
 11
230.9044209999999
 21
90.17160399999999
 31
0.0
  0
LINE
  5
A6FF
330
A58C
100
AcDbEntity
  8
5
  6
PHANTOM
100
AcDbLine
 10
204.8035329999999
 20
210.3261929999999
 30
0.0
 11
209.4878809999999
 21
196.7847319999999
 31
0.0
  0
ARC
  5
A700
330
A58C
100
AcDbEntity
  8
1
  6
Continuous
100
AcDbCircle
 10
196.882631
 20
113.1372409999999
 30
0.0
 40
12.391586
100
AcDbArc
 50
266.9357189999999
 51
316.9144149999999
  0
ARC
  5
A701
330
A58C
100
AcDbEntity
  8
5
  6
PHANTOM
100
AcDbCircle
 10
197.6306199999999
 20
220.597848
 30
0.0
 40
10.0
100
AcDbArc
 50
258.754791
 51
289.0818689999998
  0
ARC
  5
A702
330
A58C
100
AcDbEntity
  8
5
  6
PHANTOM
100
AcDbCircle
 10
191.930344
 20
191.9280159999999
 30
0.0
 40
21.531025
100
AcDbArc
 50
78.75481999999998
 51
139.408898
  0
ARC
  5
A703
330
A58C
100
AcDbEntity
  8
5
  6
PHANTOM
100
AcDbCircle
 10
201.147834
 20
210.442791
 30
0.0
 40
16.003084
100
AcDbArc
 50
284.5521969999998
 51
338.274872
  0
ARC
  5
A704
330
A58C
100
AcDbEntity
  8
5
  6
PHANTOM
100
AcDbCircle
 10
187.6559959999999
 20
204.284208
 30
0.0
 40
19.84358
100
AcDbArc
 50
246.213143
 51
331.9505819999998
  0
ARC
  5
A705
330
A58C
100
AcDbEntity
  8
5
  6
PHANTOM
100
AcDbCircle
 10
173.242635
 20
200.7896479999998
 30
0.0
 40
16.003084
100
AcDbArc
 50
239.888825
 51
293.6114939999999
  0
LINE
  5
A706
330
A58C
100
AcDbEntity
  8
1
  6
Continuous
100
AcDbLine
 10
163.3284659999999
 20
112.0111999999999
 30
0.0
 11
183.8311629999997
 21
104.7833669999999
 31
0.0
  0
LINE
  5
A707
330
A58C
100
AcDbEntity
  8
1
  6
Continuous
100
AcDbLine
 10
164.394155
 20
112.011154
 30
0.0
 11
184.896761
 21
104.7833589999999
 31
0.0
  0
ARC
  5
A708
330
A58C
100
AcDbEntity
  8
1
  6
Continuous
100
AcDbCircle
 10
160.0696429999999
 20
104.3008909999999
 30
0.0
 40
8.370708999999997
100
AcDbArc
 50
67.088265
 51
138.4524829999998
  0
ARC
  5
A709
330
A58C
100
AcDbEntity
  8
1
  6
Continuous
100
AcDbCircle
 10
161.1352249999999
 20
104.3008909999999
 30
0.0
 40
8.370708999999997
100
AcDbArc
 50
67.08746999999999
 51
90.00000300000001
  0
LINE
  5
A70A
330
A58C
100
AcDbEntity
  8
1
  6
Continuous
100
AcDbLine
 10
160.0696429999999
 20
112.671604
 30
0.0
 11
161.1352249999999
 21
112.671604
 31
0.0
  0
ARC
  5
A70B
330
A58C
100
AcDbEntity
  8
1
  6
Continuous
100
AcDbCircle
 10
206.3827379999999
 20
148.038372
 30
0.0
 40
48.297459
100
AcDbArc
 50
243.5851219999999
 51
245.6616009999999
  0
ARC
  5
A70C
330
A58C
100
AcDbEntity
  8
1
  6
Continuous
100
AcDbCircle
 10
205.317156
 20
148.038387
 30
0.0
 40
48.297459
100
AcDbArc
 50
243.5851219999999
 51
246.0387809999999
  0
ARC
  5
A70D
330
A58C
100
AcDbEntity
  8
1
  6
Continuous
100
AcDbCircle
 10
197.9482289999999
 20
113.137226
 30
0.0
 40
12.391586
100
AcDbArc
 50
261.9839819999999
 51
267.5354399999998
  0
LINE
  5
A70E
330
A58C
100
AcDbEntity
  8
5
  6
PHANTOM
100
AcDbLine
 10
140.1709639999999
 20
190.1395729999999
 30
0.0
 11
173.002306
 21
201.496792
 31
0.0
  0
LINE
  5
A70F
330
A58C
100
AcDbEntity
  8
5
  6
PHANTOM
100
AcDbLine
 10
139.4190519999999
 20
192.313195
 30
0.0
 11
172.250404
 21
203.670426
 31
0.0
  0
LINE
  5
A710
330
A58C
100
AcDbEntity
  8
5
  6
PHANTOM
100
AcDbLine
 10
157.822028
 20
196.245651
 30
0.0
 11
158.802807
 21
193.410423
 31
0.0
  0
ARC
  5
A711
330
A58C
100
AcDbEntity
  8
5
  6
PHANTOM
100
AcDbCircle
 10
157.942441
 20
197.3814909999999
 30
0.0
 40
12.45549699999999
100
AcDbArc
 50
203.844424
 51
260.2368699999999
  0
LINE
  5
A712
330
A58C
100
AcDbEntity
  8
5
  6
PHANTOM
100
AcDbLine
 10
163.492334
 20
198.207162
 30
0.0
 11
164.4731129999998
 21
195.371934
 31
0.0
  0
LINE
  5
A713
330
A58C
100
AcDbEntity
  8
5
  6
PHANTOM
100
AcDbLine
 10
158.8027649999999
 20
193.410378
 30
0.0
 11
164.473125
 21
195.371902
 31
0.0
  0
LINE
  5
A714
330
A58C
100
AcDbEntity
  8
5
  6
PHANTOM
100
AcDbLine
 10
165.2142109999997
 20
186.946109
 30
0.0
 11
155.8302939999999
 21
185.106371
 31
0.0
  0
LINE
  5
A715
330
A58C
100
AcDbEntity
  8
5
  6
PHANTOM
100
AcDbLine
 10
140.1708649999999
 20
190.139645
 30
0.0
 11
139.418953
 21
192.3132679999999
 31
0.0
  0
ARC
  5
A716
330
A58C
100
AcDbEntity
  8
5
  6
PHANTOM
100
AcDbCircle
 10
191.930344
 20
191.9280159999999
 30
0.0
 40
19.23102399999998
100
AcDbArc
 50
78.7548
 51
139.408925
  0
ARC
  5
A717
330
A58C
100
AcDbEntity
  8
5
  6
PHANTOM
100
AcDbCircle
 10
169.733105
 20
210.9473589999999
 30
0.0
 40
10.0
100
AcDbArc
 50
289.0818689999998
 51
319.40892
  0
ARC
  5
A718
330
A58C
100
AcDbEntity
  8
5
  6
PHANTOM
100
AcDbCircle
 10
169.733105
 20
210.9473589999999
 30
0.0
 40
7.7
100
AcDbArc
 50
289.0818689999998
 51
319.4089
  0
LINE
  5
A719
330
A58C
100
AcDbEntity
  8
5
  6
PHANTOM
100
AcDbLine
 10
200.147909
 20
213.3209029999999
 30
0.0
 11
232.9792459999999
 21
224.6781279999999
 31
0.0
  0
LINE
  5
A71A
330
A58C
100
AcDbEntity
  8
5
  6
PHANTOM
100
AcDbLine
 10
200.8998319999999
 20
211.1472919999999
 30
0.0
 11
233.731158
 21
222.5045059999999
 31
0.0
  0
ARC
  5
A72E
330
A58C
100
AcDbEntity
  8
1
  6
Continuous
100
AcDbCircle
 10
230.702349
 20
108.2009009999999
 30
0.0
 40
8.370708999999997
100
AcDbArc
 50
41.54751799999998
 51
90.00000300000001
  0
ARC
  5
A72F
330
A58C
100
AcDbEntity
  8
1
  6
Continuous
100
AcDbCircle
 10
227.516161
 20
106.3216129999997
 30
0.0
 40
11.20420599999998
100
AcDbArc
 50
318.452482
 51
41.54751799999998
  0
LINE
  5
A730
330
A58C
100
AcDbEntity
  8
1
  6
Continuous
100
AcDbLine
 10
232.73842
 20
98.37161600000001
 30
0.0
 11
213.4580859999998
 21
98.37161600000001
 31
0.0
  0
LINE
  5
A731
330
A58C
100
AcDbEntity
  8
1
  6
Continuous
100
AcDbLine
 10
205.9311689999999
 20
104.671749
 30
0.0
 11
225.5900899999998
 21
115.528461
 31
0.0
  0
LINE
  5
A732
330
A58C
100
AcDbEntity
  8
1
  6
Continuous
100
AcDbLine
 10
229.636766
 20
116.5716129999997
 30
0.0
 11
230.702349
 21
116.5716129999997
 31
0.0
  0
ARC
  5
A733
330
A58C
100
AcDbEntity
  8
1
  6
Continuous
100
AcDbCircle
 10
229.636766
 20
108.2009009999999
 30
0.0
 40
8.370708999999997
100
AcDbArc
 50
41.54751799999998
 51
118.9098639999997
  0
LINE
  5
A734
330
A58C
100
AcDbEntity
  8
5
  6
PHANTOM
100
AcDbLine
 10
216.014214
 20
204.5191879999999
 30
0.0
 11
224.5291009999998
 21
208.871126
 31
0.0
  0
LINE
  5
A735
330
A58C
100
AcDbEntity
  8
5
  6
PHANTOM
100
AcDbLine
 10
215.2147379999999
 20
210.8084999999999
 30
0.0
 11
221.357571
 21
212.9334669999999
 31
0.0
  0
LINE
  5
A736
330
A58C
100
AcDbEntity
  8
5
  6
PHANTOM
100
AcDbLine
 10
212.36397
 20
212.9415499999999
 30
0.0
 11
215.6033649999999
 21
203.57712
 31
0.0
  0
LINE
  5
A737
330
A58C
100
AcDbEntity
  8
5
  6
PHANTOM
100
AcDbLine
 10
213.5801079999999
 20
215.533842
 30
0.0
 11
215.214731
 21
210.808527
 31
0.0
  0
LINE
  5
A738
330
A58C
100
AcDbEntity
  8
5
  6
PHANTOM
100
AcDbLine
 10
219.7230059999998
 20
217.6588329999999
 30
0.0
 11
221.3576129999999
 21
212.9335119999999
 31
0.0
  0
ARC
  5
A739
330
A58C
100
AcDbEntity
  8
5
  6
PHANTOM
100
AcDbCircle
 10
215.283512
 20
217.2172859999998
 30
0.0
 40
12.45549699999999
100
AcDbArc
 50
317.9268299999999
 51
14.31928
  0
ARC
  5
A73A
330
A58C
100
AcDbEntity
  8
1
  6
Continuous
100
AcDbCircle
 10
228.5817429999999
 20
106.3216129999997
 30
0.0
 40
11.20420599999998
100
AcDbArc
 50
318.452482
 51
41.54751799999998
  0
ARC
  5
A73B
330
A58C
100
AcDbEntity
  8
1
  6
Continuous
100
AcDbCircle
 10
282.8133839999998
 20
187.5492429999999
 30
0.0
 40
3.193579
100
AcDbArc
 50
179.9999909999999
 51
245.1419099999999
  0
ARC
  5
A73C
330
A58C
100
AcDbEntity
  8
1
  6
Continuous
100
AcDbCircle
 10
282.8133839999998
 20
189.587513
 30
0.0
 40
3.193579
100
AcDbArc
 50
132.738812
 51
245.1419099999999
  0
LINE
  5
A73D
330
A58C
100
AcDbEntity
  8
5
  6
PHANTOM
100
AcDbLine
 10
233.7316729999999
 20
222.5047959999999
 30
0.0
 11
232.979766
 21
224.6784139999999
 31
0.0
  0
LINE
  5
A73E
330
A58C
100
AcDbEntity
  8
1
  6
Continuous
100
AcDbLine
 10
291.5198049999998
 20
201.980724
 30
0.0
 11
280.646025
 21
191.9330399999997
 31
0.0
  0
LINE
  5
A73F
330
A58C
100
AcDbEntity
  8
1
  6
Continuous
100
AcDbLine
 10
279.6198109999999
 20
189.587513
 30
0.0
 11
279.6198109999999
 21
187.5492429999999
 31
0.0
  0
ARC
  5
A740
330
A58C
100
AcDbEntity
  8
5
  6
PHANTOM
100
AcDbCircle
 10
197.6306199999999
 20
220.597848
 30
0.0
 40
7.7
100
AcDbArc
 50
258.754818
 51
289.0818689999998
  0
ARC
  5
A741
330
A58C
100
AcDbEntity
  8
1
  6
Continuous
100
AcDbCircle
 10
286.7133929999998
 20
225.9563249999999
 30
0.0
 40
3.193579
100
AcDbArc
 50
114.858087
 51
215.0990769999999
  0
LINE
  5
A742
330
A58C
100
AcDbEntity
  8
1
  6
Continuous
100
AcDbLine
 10
291.5198199999998
 20
213.563121
 30
0.0
 11
284.100539
 21
224.120037
 31
0.0
  0
LINE
  5
A743
330
A58C
100
AcDbEntity
  8
1
  6
Continuous
100
AcDbLine
 10
291.5198049999998
 20
211.5248369999999
 30
0.0
 11
284.100524
 21
222.081768
 31
0.0
  0
LINE
  5
A744
330
A58C
100
AcDbEntity
  8
1
  6
Continuous
100
AcDbLine
 10
283.5198199999998
 20
225.9563249999999
 30
0.0
 11
283.5198199999998
 21
223.918056
 31
0.0
  0
ARC
  5
A745
330
A58C
100
AcDbEntity
  8
1
  6
Continuous
100
AcDbCircle
 10
286.7133929999998
 20
223.918056
 30
0.0
 40
3.193579
100
AcDbArc
 50
179.9999909999999
 51
215.0990769999999
  0
LINE
  5
A759
330
A58C
100
AcDbEntity
  8
1
  6
Continuous
100
AcDbLine
 10
168.6036239999999
 20
373.071614
 30
0.0
 11
168.6036239999999
 21
379.571614
 31
0.0
  0
LINE
  5
A75A
330
A58C
100
AcDbEntity
  8
1
  6
Continuous
100
AcDbLine
 10
297.8197919999999
 20
180.139385
 30
0.0
 11
297.8197919999999
 21
184.450227
 31
0.0
  0
LINE
  5
A75B
330
A58C
100
AcDbEntity
  8
1
  6
Continuous
100
AcDbLine
 10
300.1198109999999
 20
180.139385
 30
0.0
 11
300.1198109999999
 21
188.9248
 31
0.0
  0
LINE
  5
A75C
330
A58C
100
AcDbEntity
  8
1
  6
Continuous
100
AcDbLine
 10
304.0198049999998
 20
182.228656
 30
0.0
 11
304.0198049999998
 21
186.886524
 31
0.0
  0
LINE
  5
A75D
330
A58C
100
AcDbEntity
  8
1
  6
Continuous
100
AcDbLine
 10
300.1198109999999
 20
180.139385
 30
0.0
 11
297.8197919999999
 21
180.139385
 31
0.0
  0
LINE
  5
A75E
330
A58C
100
AcDbEntity
  8
1
  6
Continuous
100
AcDbLine
 10
304.0198049999998
 20
182.2286489999999
 30
0.0
 11
300.1198109999999
 21
180.1393769999999
 31
0.0
  0
LINE
  5
A75F
330
A58C
100
AcDbEntity
  8
1
  6
Continuous
100
AcDbLine
 10
298.695067
 20
188.9248
 30
0.0
 11
306.0198049999999
 21
188.9248
 31
0.0
  0
LINE
  5
A760
330
A58C
100
AcDbEntity
  8
1
  6
Continuous
100
AcDbLine
 10
298.6198109999999
 20
191.936222
 30
0.0
 11
306.0198049999999
 21
191.936222
 31
0.0
  0
LINE
  5
A761
330
A58C
100
AcDbEntity
  8
1
  6
Continuous
100
AcDbLine
 10
306.0198049999999
 20
191.936222
 30
0.0
 11
306.0198049999999
 21
186.886524
 31
0.0
  0
LINE
  5
A762
330
A58C
100
AcDbEntity
  8
1
  6
Continuous
100
AcDbLine
 10
300.1198109999999
 20
186.886524
 30
0.0
 11
306.0198049999999
 21
186.886524
 31
0.0
  0
LINE
  5
A763
330
A58C
100
AcDbEntity
  8
1
  6
Continuous
100
AcDbLine
 10
300.1198109999999
 20
191.936222
 30
0.0
 11
300.1198109999999
 21
194.546695
 31
0.0
  0
ARC
  5
A764
330
A58C
100
AcDbEntity
  8
1
  6
Continuous
100
AcDbCircle
 10
296.9262379999999
 20
189.587513
 30
0.0
 40
3.193579
100
AcDbArc
 50
294.8581019999998
 51
348.0232389999998
  0
ARC
  5
A765
330
A58C
100
AcDbEntity
  8
1
  6
Continuous
100
AcDbCircle
 10
296.9262379999999
 20
187.5492429999999
 30
0.0
 40
3.193579
100
AcDbArc
 50
294.8581019999998
 51
348.0232389999998
  0
LINE
  5
A779
330
A58C
100
AcDbEntity
  8
5
  6
PHANTOM
100
AcDbLine
 10
196.8765409999998
 20
203.9358449999999
 30
0.0
 11
195.452303
 21
203.443164
 31
0.0
  0
LINE
  5
A77A
330
A58C
100
AcDbEntity
  8
5
  6
PHANTOM
100
AcDbLine
 10
199.818808
 20
195.430372
 30
0.0
 11
198.394571
 21
194.9376909999998
 31
0.0
  0
ARC
  5
A77B
330
A58C
100
AcDbEntity
  8
5
  6
PHANTOM
100
AcDbCircle
 10
198.347674
 20
199.683109
 30
0.0
 40
4.5
100
AcDbArc
 50
289.081852
 51
109.081852
  0
ARC
  5
A77C
330
A58C
100
AcDbEntity
  8
5
  6
PHANTOM
100
AcDbCircle
 10
182.092771
 20
194.060109
 30
0.0
 40
4.5
100
AcDbArc
 50
109.081852
 51
289.081852
  0
LINE
  5
A77D
330
A58C
100
AcDbEntity
  8
5
  6
PHANTOM
100
AcDbLine
 10
182.045875
 20
198.805527
 30
0.0
 11
180.621638
 21
198.3128449999999
 31
0.0
  0
LINE
  5
A77E
330
A58C
100
AcDbEntity
  8
5
  6
PHANTOM
100
AcDbLine
 10
184.9881419999999
 20
190.3000539999999
 30
0.0
 11
183.563905
 21
189.8073729999999
 31
0.0
  0
ARC
  5
A77F
330
A58C
100
AcDbEntity
  8
1
  6
Continuous
100
AcDbCircle
 10
197.841574
 20
192.8872629999999
 30
0.0
 40
4.5
100
AcDbArc
 50
242.3999989999999
 51
62.39999899999999
  0
ARC
  5
A780
330
A58C
100
AcDbEntity
  8
1
  6
Continuous
100
AcDbCircle
 10
187.796712
 20
192.235855
 30
0.0
 40
19.23102399999998
100
AcDbArc
 50
32.072946
 51
92.72707200000001
  0
ARC
  5
A781
330
A58C
100
AcDbEntity
  8
1
  6
Continuous
100
AcDbCircle
 10
207.590886
 20
198.231658
 30
0.0
 40
16.003084
100
AcDbArc
 50
237.870344
 51
291.5930189999999
  0
ARC
  5
A782
330
A58C
100
AcDbEntity
  8
1
  6
Continuous
100
AcDbCircle
 10
187.796712
 20
192.235855
 30
0.0
 40
21.531025
100
AcDbArc
 50
32.072967
 51
92.727044
  0
ARC
  5
A783
330
A58C
100
AcDbEntity
  8
1
  6
Continuous
100
AcDbCircle
 10
168.447057
 20
220.7052909999999
 30
0.0
 40
12.45549699999999
100
AcDbArc
 50
157.1625709999999
 51
213.555017
  0
LINE
  5
A784
330
A58C
100
AcDbEntity
  8
1
  6
Continuous
100
AcDbLine
 10
167.5380599999997
 20
220.013656
 30
0.0
 11
166.1481369999999
 21
217.3549799999999
 31
0.0
  0
LINE
  5
A785
330
A58C
100
AcDbEntity
  8
1
  6
Continuous
100
AcDbLine
 10
152.0516399999999
 20
230.7049859999999
 30
0.0
 11
182.8385669999999
 21
214.60997
 31
0.0
  0
LINE
  5
A786
330
A58C
100
AcDbEntity
  8
1
  6
Continuous
100
AcDbLine
 10
150.986058
 20
228.666717
 30
0.0
 11
181.7729689999999
 21
212.5717009999999
 31
0.0
  0
LINE
  5
A787
330
A58C
100
AcDbEntity
  8
1
  6
Continuous
100
AcDbLine
 10
166.148076
 20
217.3549799999999
 30
0.0
 11
171.465337
 21
214.5751799999999
 31
0.0
  0
ARC
  5
A788
330
A58C
100
AcDbEntity
  8
1
  6
Continuous
100
AcDbCircle
 10
181.42336
 20
211.9117119999999
 30
0.0
 40
16.003084
100
AcDbArc
 50
193.206972
 51
246.9296399999999
  0
LINE
  5
A789
330
A58C
100
AcDbEntity
  8
1
  6
Continuous
100
AcDbLine
 10
165.843526
 20
208.255493
 30
0.0
 11
158.0671889999998
 21
213.8206629999999
 31
0.0
  0
ARC
  5
A78A
330
A58C
100
AcDbEntity
  8
1
  6
Continuous
100
AcDbCircle
 10
182.5988719999998
 20
200.855955
 30
0.0
 40
4.5
100
AcDbArc
 50
62.39999899999999
 51
242.3999989999999
  0
LINE
  5
A78B
330
A58C
100
AcDbEntity
  8
1
  6
Continuous
100
AcDbLine
 10
199.9264059999999
 20
196.8751789999998
 30
0.0
 11
198.590856
 21
197.573387
 31
0.0
  0
ARC
  5
A78C
330
A58C
100
AcDbEntity
  8
1
  6
Continuous
100
AcDbCircle
 10
193.8541149999998
 20
203.822631
 30
0.0
 40
19.84358
100
AcDbArc
 50
199.5312899999999
 51
285.2687279999999
  0
LINE
  5
A78D
330
A58C
100
AcDbEntity
  8
1
  6
Continuous
100
AcDbLine
 10
181.8495889999999
 20
196.1698299999999
 30
0.0
 11
180.5140399999999
 21
196.8680389999999
 31
0.0
  0
LINE
  5
A78E
330
A58C
100
AcDbEntity
  8
1
  6
Continuous
100
AcDbLine
 10
195.756741
 20
188.899347
 30
0.0
 11
194.4211919999999
 21
189.5975549999997
 31
0.0
  0
LINE
  5
A78F
330
A58C
100
AcDbEntity
  8
1
  6
Continuous
100
AcDbLine
 10
186.0192539999999
 20
204.1456629999999
 30
0.0
 11
184.683704
 21
204.843871
 31
0.0
  0
ARC
  5
A790
330
A58C
100
AcDbEntity
  8
1
  6
Continuous
100
AcDbCircle
 10
186.4059489999999
 20
221.4337759999999
 30
0.0
 40
7.7
100
AcDbArc
 50
242.4000159999999
 51
272.7270459999999
  0
ARC
  5
A791
330
A58C
100
AcDbEntity
  8
1
  6
Continuous
100
AcDbCircle
 10
186.4059489999999
 20
221.4337759999999
 30
0.0
 40
10.0
100
AcDbArc
 50
242.4000159999999
 51
272.7270669999999
  0
LINE
  5
A792
330
A58C
100
AcDbEntity
  8
1
  6
Continuous
100
AcDbLine
 10
172.855275
 20
217.2338859999999
 30
0.0
 11
171.4653519999997
 21
214.57521
 31
0.0
  0
LINE
  5
A793
330
A58C
100
AcDbEntity
  8
1
  6
Continuous
100
AcDbLine
 10
150.9860429999999
 20
228.6668389999999
 30
0.0
 11
152.051625
 21
230.7051079999999
 31
0.0
  0
ARC
  5
A794
330
A58C
100
AcDbEntity
  8
1
  6
Continuous
100
AcDbCircle
 10
222.2174729999999
 20
192.5948019999999
 30
0.0
 40
12.45549699999999
100
AcDbArc
 50
271.244977
 51
327.637426
  0
LINE
  5
A795
330
A58C
100
AcDbEntity
  8
1
  6
Continuous
100
AcDbLine
 10
207.933308
 20
198.8954159999999
 30
0.0
 11
238.720204
 21
182.800407
 31
0.0
  0
LINE
  5
A796
330
A58C
100
AcDbEntity
  8
1
  6
Continuous
100
AcDbLine
 10
208.9988759999999
 20
200.9336849999999
 30
0.0
 11
239.785787
 21
184.8386759999999
 31
0.0
  0
LINE
  5
A797
330
A58C
100
AcDbEntity
  8
1
  6
Continuous
100
AcDbLine
 10
213.480199
 20
183.351661
 30
0.0
 11
222.4881029999999
 21
180.1422499999999
 31
0.0
  0
LINE
  5
A798
330
A58C
100
AcDbEntity
  8
1
  6
Continuous
100
AcDbLine
 10
217.1036879999999
 20
191.7855679999999
 30
0.0
 11
212.512929
 21
183.0042719999999
 31
0.0
  0
LINE
  5
A799
330
A58C
100
AcDbEntity
  8
1
  6
Continuous
100
AcDbLine
 10
210.0140429999999
 20
195.4919429999999
 30
0.0
 11
203.375569
 21
182.7937159999999
 31
0.0
  0
LINE
  5
A79A
330
A58C
100
AcDbEntity
  8
1
  6
Continuous
100
AcDbLine
 10
225.584432
 20
189.667747
 30
0.0
 11
223.267918
 21
185.2366789999999
 31
0.0
  0
LINE
  5
A79B
330
A58C
100
AcDbEntity
  8
1
  6
Continuous
100
AcDbLine
 10
219.824056
 20
192.679199
 30
0.0
 11
217.507558
 21
188.2481229999999
 31
0.0
  0
LINE
  5
A79C
330
A58C
100
AcDbEntity
  8
1
  6
Continuous
100
AcDbLine
 10
217.507543
 20
188.2481
 30
0.0
 11
223.267857
 21
185.2366789999999
 31
0.0
  0
ARC
  5
A79D
330
A58C
100
AcDbEntity
  8
1
  6
Continuous
100
AcDbCircle
 10
212.566274
 20
207.7574919999999
 30
0.0
 40
7.7
100
AcDbArc
 50
212.0729649999999
 51
242.4000159999999
  0
ARC
  5
A79E
330
A58C
100
AcDbEntity
  8
1
  6
Continuous
100
AcDbCircle
 10
212.566274
 20
207.7574919999999
 30
0.0
 40
10.0
100
AcDbArc
 50
212.0729379999999
 51
242.4000159999999
  0
LINE
  5
A79F
330
A58C
100
AcDbEntity
  8
1
  6
Continuous
100
AcDbLine
 10
238.7207689999999
 20
182.800231
 30
0.0
 11
239.7863509999999
 21
184.8384929999998
 31
0.0
  0
ARC
  5
A7A0
330
A58C
100
AcDbEntity
  8
1
  6
Continuous
100
AcDbCircle
 10
341.6197899999999
 20
201.844997
 30
0.0
 40
1.0
100
AcDbArc
 50
154.803547
 51
180.0
  0
ARC
  5
A7A1
330
A58C
100
AcDbEntity
  8
1
  6
Continuous
100
AcDbCircle
 10
303.0198049999999
 20
201.845008
 30
0.0
 40
1.0
100
AcDbArc
 50
0.0
 51
25.196444
  0
LINE
  5
A7A2
330
A58C
100
AcDbEntity
  8
1
  6
Continuous
100
AcDbLine
 10
75.520218
 20
183.979137
 30
0.0
 11
75.52022499999998
 21
183.4250289999999
 31
0.0
  0
CIRCLE
  5
A7A3
330
A58C
100
AcDbEntity
  8
1
  6
Continuous
100
AcDbCircle
 10
442.2202229999999
 20
196.871609
 30
0.0
 40
1.5
  0
CIRCLE
  5
A7A4
330
A58C
100
AcDbEntity
  8
1
  6
Continuous
100
AcDbCircle
 10
442.2202229999999
 20
196.871609
 30
0.0
 40
6.25
  0
LINE
  5
A7A5
330
A58C
100
AcDbEntity
  8
1
  6
Continuous
100
AcDbLine
 10
80.82022100000001
 20
188.4716089999997
 30
0.0
 11
80.82022100000001
 21
205.271609
 31
0.0
  0
LINE
  5
A7A6
330
A58C
100
AcDbEntity
  8
1
  6
Continuous
100
AcDbLine
 10
80.82022100000001
 20
198.99079
 30
0.0
 11
77.82022099999998
 21
193.3256489999999
 31
0.0
  0
LINE
  5
A7A7
330
A58C
100
AcDbEntity
  8
1
  6
Continuous
100
AcDbLine
 10
77.82022099999998
 20
192.4417359999999
 30
0.0
 11
80.82022100000001
 21
192.271609
 31
0.0
  0
ARC
  5
A7A8
330
A58C
100
AcDbEntity
  8
1
  6
Continuous
100
AcDbCircle
 10
76.32022099999997
 20
201.113314
 30
0.0
 40
4.5
100
AcDbArc
 50
289.471221
 51
70.528779
  0
ARC
  5
A7A9
330
A58C
100
AcDbEntity
  8
1
  6
Continuous
100
AcDbCircle
 10
76.32022099999997
 20
192.629903
 30
0.0
 40
4.5
100
AcDbArc
 50
289.471221
 51
0.0
  0
LINE
  5
A7AA
330
A58C
100
AcDbEntity
  8
1
  6
Continuous
100
AcDbLine
 10
81.82022100000002
 20
188.4716089999997
 30
0.0
 11
81.82022100000002
 21
205.271609
 31
0.0
  0
LINE
  5
A7AB
330
A58C
100
AcDbEntity
  8
1
  6
Continuous
100
AcDbLine
 10
80.82022100000001
 20
205.271609
 30
0.0
 11
81.82022100000002
 21
205.271609
 31
0.0
  0
LINE
  5
A7AC
330
A58C
100
AcDbEntity
  8
1
  6
Continuous
100
AcDbLine
 10
80.82022100000001
 20
188.4716089999997
 30
0.0
 11
81.82022100000002
 21
188.4716089999997
 31
0.0
  0
LINE
  5
A7AD
330
A58C
100
AcDbEntity
  8
1
  6
Continuous
100
AcDbLine
 10
80.82022100000001
 20
192.871609
 30
0.0
 11
77.82022099999998
 21
192.871609
 31
0.0
  0
LINE
  5
A7AE
330
A58C
100
AcDbEntity
  8
1
  6
Continuous
100
AcDbLine
 10
80.82022100000001
 20
193.548109
 30
0.0
 11
77.93802499999998
 21
193.548109
 31
0.0
  0
ARC
  5
A7AF
330
A58C
100
AcDbEntity
  8
1
  6
Continuous
100
AcDbCircle
 10
222.220223
 20
73.87160899999997
 30
0.0
 40
20.69999999999998
100
AcDbArc
 50
81.87983599999999
 51
142.852807
  0
ARC
  5
A7B0
330
A58C
100
AcDbEntity
  8
1
  6
Continuous
100
AcDbCircle
 10
222.220223
 20
73.87160899999997
 30
0.0
 40
22.7
100
AcDbArc
 50
102.0478149999999
 51
129.7389159999999
  0
ARC
  5
A7B1
330
A58C
100
AcDbEntity
  8
1
  6
Continuous
100
AcDbCircle
 10
222.220223
 20
73.87160899999997
 30
0.0
 40
17.0
100
AcDbArc
 50
80.09632899999997
 51
132.6679249999999
  0
LINE
  5
A7B2
330
A58C
100
AcDbEntity
  8
1
  6
Continuous
100
AcDbLine
 10
198.620223
 20
97.47160700000002
 30
0.0
 11
181.8202229999999
 21
97.47160700000002
 31
0.0
  0
LINE
  5
A7B3
330
A58C
100
AcDbEntity
  8
1
  6
Continuous
100
AcDbLine
 10
198.620223
 20
98.47160700000001
 30
0.0
 11
181.8202229999999
 21
98.47160700000001
 31
0.0
  0
LINE
  5
A7B4
330
A58C
100
AcDbEntity
  8
1
  6
Continuous
100
AcDbLine
 10
198.620223
 20
97.47160700000002
 30
0.0
 11
198.620223
 21
98.47160700000001
 31
0.0
  0
LINE
  5
A7B5
330
A58C
100
AcDbEntity
  8
1
  6
Continuous
100
AcDbLine
 10
181.8202229999999
 20
97.47160700000002
 30
0.0
 11
181.8202229999999
 21
98.47160700000001
 31
0.0
  0
ARC
  5
A7B6
330
A58C
100
AcDbEntity
  8
1
  6
Continuous
100
AcDbCircle
 10
182.853597
 20
92.971607
 30
0.0
 40
4.5
100
AcDbArc
 50
19.47122099999998
 51
160.528779
  0
ARC
  5
A7B7
330
A58C
100
AcDbEntity
  8
1
  6
Continuous
100
AcDbCircle
 10
197.586849
 20
92.971607
 30
0.0
 40
4.5
100
AcDbArc
 50
19.47122099999998
 51
90.0
  0
LINE
  5
A7B8
330
A58C
100
AcDbEntity
  8
1
  6
Continuous
100
AcDbLine
 10
188.9807749999999
 20
94.47160700000001
 30
0.0
 11
194.296759
 21
97.47160700000002
 31
0.0
  0
LINE
  5
A7B9
330
A58C
100
AcDbEntity
  8
1
  6
Continuous
100
AcDbLine
 10
187.290006
 20
94.47160700000001
 30
0.0
 11
186.1436859999997
 21
97.47160700000002
 31
0.0
  0
LINE
  5
A7BA
330
A58C
100
AcDbEntity
  8
2
  6
Continuous
100
AcDbLine
 10
193.5437229999998
 20
97.47160700000002
 30
0.0
 11
193.5437229999998
 21
97.04664100000002
 31
0.0
  0
LINE
  5
A7BB
330
A58C
100
AcDbEntity
  8
1
  6
Continuous
100
AcDbLine
 10
194.220223
 20
97.47160700000002
 30
0.0
 11
194.220223
 21
97.428415
 31
0.0
  0
LINE
  5
A7BC
330
A58C
100
AcDbEntity
  8
2
  6
Continuous
100
AcDbLine
 10
186.896723
 20
97.47160700000002
 30
0.0
 11
186.896723
 21
95.500857
 31
0.0
  0
LINE
  5
A7BD
330
A58C
100
AcDbEntity
  8
1
  6
Continuous
100
AcDbLine
 10
186.220223
 20
97.47160700000002
 30
0.0
 11
186.220223
 21
97.27130600000002
 31
0.0
  0
ARC
  5
A7BE
330
A58C
100
AcDbEntity
  8
1
  6
Continuous
100
AcDbCircle
 10
187.220223
 20
372.511214
 30
0.0
 40
6.841600999999998
100
AcDbArc
 50
263.77393
 51
296.0078240000001
  0
LINE
  5
A7BF
330
A58C
100
AcDbEntity
  8
1
  6
Continuous
100
AcDbLine
 10
193.0202229999999
 20
106.073604
 30
0.0
 11
187.4202229999999
 21
106.073604
 31
0.0
  0
LINE
  5
A7C0
330
A58C
100
AcDbEntity
  8
1
  6
Continuous
100
AcDbLine
 10
187.4202229999999
 20
363.669614
 30
0.0
 11
186.220223
 21
364.869614
 31
0.0
  0
LINE
  5
A7C1
330
A58C
100
AcDbEntity
  8
1
  6
Continuous
100
AcDbLine
 10
194.220223
 20
364.869614
 30
0.0
 11
186.220223
 21
364.869614
 31
0.0
  0
LINE
  5
A7C2
330
A58C
100
AcDbEntity
  8
1
  6
Continuous
100
AcDbLine
 10
193.0202229999999
 20
363.669614
 30
0.0
 11
194.220223
 21
364.869614
 31
0.0
  0
LINE
  5
A7C3
330
A58C
100
AcDbEntity
  8
2
  6
Continuous
100
AcDbLine
 10
186.896723
 20
364.193114
 30
0.0
 11
186.896723
 21
365.669614
 31
0.0
  0
LINE
  5
A7C4
330
A58C
100
AcDbEntity
  8
1
  6
Continuous
100
AcDbLine
 10
186.220223
 20
364.869614
 30
0.0
 11
186.220223
 21
365.592348
 31
0.0
  0
LINE
  5
A7C5
330
A58C
100
AcDbEntity
  8
2
  6
Continuous
100
AcDbLine
 10
193.5437229999998
 20
364.193114
 30
0.0
 11
193.5437229999998
 21
365.669614
 31
0.0
  0
LINE
  5
A7C6
330
A58C
100
AcDbEntity
  8
1
  6
Continuous
100
AcDbLine
 10
194.220223
 20
364.869614
 30
0.0
 11
194.220223
 21
365.669614
 31
0.0
  0
ARC
  5
A7C7
330
A58C
100
AcDbEntity
  8
1
  6
Continuous
100
AcDbCircle
 10
193.220223
 20
372.511214
 30
0.0
 40
6.841600999999998
100
AcDbArc
 50
243.992176
 51
296.0078240000001
  0
LINE
  5
A7C8
330
A58C
100
AcDbEntity
  8
1
  6
Continuous
100
AcDbLine
 10
187.470223
 20
365.669614
 30
0.0
 11
192.970223
 21
365.669614
 31
0.0
  0
LINE
  5
A7C9
330
A58C
100
AcDbEntity
  8
1
  6
Continuous
100
AcDbLine
 10
190.220223
 20
366.8716089999999
 30
0.0
 11
190.220223
 21
366.362434
 31
0.0
  0
LINE
  5
A7CA
330
A58C
100
AcDbEntity
  8
1
  6
Continuous
100
AcDbLine
 10
196.220223
 20
368.8764029999999
 30
0.0
 11
196.220223
 21
366.362434
 31
0.0
  0
LINE
  5
A7CB
330
A58C
100
AcDbEntity
  8
1
  6
Continuous
100
AcDbLine
 10
187.4202229999999
 20
363.669614
 30
0.0
 11
193.0202229999999
 21
363.669614
 31
0.0
  0
ARC
  5
A7CC
330
A58C
100
AcDbEntity
  8
1
  6
Continuous
100
AcDbCircle
 10
442.2202229999999
 20
196.871609
 30
0.0
 40
16.5
100
AcDbArc
 50
205.0
 51
355.0
  0
ARC
  5
A7CD
330
A58C
100
AcDbEntity
  8
1
  6
Continuous
100
AcDbCircle
 10
442.2202229999999
 20
196.871609
 30
0.0
 40
18.0
100
AcDbArc
 50
157.462327
 51
58.417258
  0
ARC
  5
A7CE
330
A58C
100
AcDbEntity
  8
1
  6
Continuous
100
AcDbCircle
 10
442.2202229999999
 20
196.871609
 30
0.0
 40
21.4
100
AcDbArc
 50
150.72433
 51
65.15526
  0
LINE
  5
A7CF
330
A58C
100
AcDbEntity
  8
1
  6
Continuous
100
AcDbLine
 10
458.5337629999998
 20
204.478737
 30
0.0
 11
452.189608
 21
201.52041
 31
0.0
  0
LINE
  5
A7D0
330
A58C
100
AcDbEntity
  8
1
  6
Continuous
100
AcDbLine
 10
460.1517269999998
 20
195.302805
 30
0.0
 11
453.178365
 21
195.9128959999999
 31
0.0
  0
ARC
  5
A7D1
330
A58C
100
AcDbEntity
  8
1
  6
Continuous
100
AcDbCircle
 10
442.2202229999999
 20
196.871609
 30
0.0
 40
11.0
100
AcDbArc
 50
175.0
 51
205.0
  0
ARC
  5
A7D2
330
A58C
100
AcDbEntity
  8
1
  6
Continuous
100
AcDbCircle
 10
442.2202229999999
 20
196.871609
 30
0.0
 40
11.0
100
AcDbArc
 50
355.0
 51
25.0
  0
LINE
  5
A7D3
330
A58C
100
AcDbEntity
  8
1
  6
Continuous
100
AcDbLine
 10
431.2620809999998
 20
197.8303219999999
 30
0.0
 11
424.2887179999998
 21
198.440412
 31
0.0
  0
LINE
  5
A7D4
330
A58C
100
AcDbEntity
  8
1
  6
Continuous
100
AcDbLine
 10
432.250837
 20
192.222808
 30
0.0
 11
425.906683
 21
189.26448
 31
0.0
  0
ARC
  5
A7D5
330
A58C
100
AcDbEntity
  8
1
  6
Continuous
100
AcDbCircle
 10
442.2202229999999
 20
196.871609
 30
0.0
 40
13.5
100
AcDbArc
 50
175.0
 51
205.0
  0
ARC
  5
A7D6
330
A58C
100
AcDbEntity
  8
1
  6
Continuous
100
AcDbCircle
 10
442.2202229999999
 20
196.871609
 30
0.0
 40
13.5
100
AcDbArc
 50
355.0
 51
25.0
  0
ARC
  5
A7D7
330
A58C
100
AcDbEntity
  8
1
  6
Continuous
100
AcDbCircle
 10
442.2202229999999
 20
196.871609
 30
0.0
 40
16.5
100
AcDbArc
 50
25.0
 51
54.27683
  0
LINE
  5
A7D8
330
A58C
100
AcDbEntity
  8
1
  6
Continuous
100
AcDbLine
 10
428.846691
 20
198.0912059999998
 30
0.0
 11
402.2622059999998
 21
244.524497
 31
0.0
  0
ARC
  5
A7D9
330
A58C
100
AcDbEntity
  8
1
  6
Continuous
100
AcDbCircle
 10
442.2202229999999
 20
196.871609
 30
0.0
 40
16.5
100
AcDbArc
 50
161.602751
 51
175.0
  0
ARC
  5
A7DA
330
A58C
100
AcDbEntity
  8
1
  6
Continuous
100
AcDbCircle
 10
335.8197999999998
 20
212.371642
 30
0.0
 40
2.5
100
AcDbArc
 50
0.0
 51
90.0
  0
ARC
  5
A7DB
330
A58C
100
AcDbEntity
  8
1
  6
Continuous
100
AcDbCircle
 10
335.8197999999998
 20
181.3716089999998
 30
0.0
 40
2.5
100
AcDbArc
 50
270.0
 51
0.0
  0
LINE
  5
A7DC
330
A58C
100
AcDbEntity
  8
1
  6
Continuous
100
AcDbLine
 10
342.1197899999999
 20
197.8303219999999
 30
0.0
 11
342.1197899999999
 21
192.2065
 31
0.0
  0
LINE
  5
A7DD
330
A58C
100
AcDbEntity
  8
1
  6
Continuous
100
AcDbLine
 10
335.8197999999998
 20
198.440412
 30
0.0
 11
342.1197899999999
 21
197.8303219999999
 31
0.0
  0
LINE
  5
A7DE
330
A58C
100
AcDbEntity
  8
1
  6
Continuous
100
AcDbLine
 10
335.8197999999998
 20
189.26448
 30
0.0
 11
342.1197899999999
 21
192.2065
 31
0.0
  0
LINE
  5
A7DF
330
A58C
100
AcDbEntity
  8
1
  6
Continuous
100
AcDbLine
 10
338.3198
 20
190.4319499999997
 30
0.0
 11
338.3198
 21
181.3716089999998
 31
0.0
  0
LINE
  5
A7E0
330
A58C
100
AcDbEntity
  8
1
  6
Continuous
100
AcDbLine
 10
340.6197899999999
 20
191.5060179999999
 30
0.0
 11
340.6197899999999
 21
185.871625
 31
0.0
  0
ARC
  5
A7E1
330
A58C
100
AcDbEntity
  8
1
  6
Continuous
100
AcDbCircle
 10
43.720223
 20
181.3715919999999
 30
0.0
 40
2.5
100
AcDbArc
 50
180.0
 51
270.0
  0
ARC
  5
A7E2
330
A58C
100
AcDbEntity
  8
1
  6
Continuous
100
AcDbCircle
 10
43.720223
 20
212.371625
 30
0.0
 40
2.5
100
AcDbArc
 50
90.0
 51
180.0
  0
LINE
  5
A7E3
330
A58C
100
AcDbEntity
  8
1
  6
Continuous
100
AcDbLine
 10
37.420233
 20
201.52041
 30
0.0
 11
37.420233
 21
195.9128959999999
 31
0.0
  0
LINE
  5
A7E4
330
A58C
100
AcDbEntity
  8
1
  6
Continuous
100
AcDbLine
 10
43.720223
 20
204.478737
 30
0.0
 11
37.420233
 21
201.52041
 31
0.0
  0
LINE
  5
A7E5
330
A58C
100
AcDbEntity
  8
1
  6
Continuous
100
AcDbLine
 10
43.720223
 20
195.302805
 30
0.0
 11
37.420233
 21
195.9128959999999
 31
0.0
  0
LINE
  5
A7E6
330
A58C
100
AcDbEntity
  8
1
  6
Continuous
100
AcDbLine
 10
38.920233
 20
195.767636
 30
0.0
 11
38.920233
 21
185.871609
 31
0.0
  0
LINE
  5
A7E7
330
A58C
100
AcDbEntity
  8
1
  6
Continuous
100
AcDbLine
 10
41.220223
 20
195.544905
 30
0.0
 11
41.220223
 21
181.3715919999999
 31
0.0
  0
ARC
  5
A7E8
330
A58C
100
AcDbEntity
  8
1
  6
Continuous
100
AcDbCircle
 10
205.720239
 20
60.37160899999999
 30
0.0
 40
2.5
100
AcDbArc
 50
270.0
 51
0.0
  0
ARC
  5
A7E9
330
A58C
100
AcDbEntity
  8
1
  6
Continuous
100
AcDbCircle
 10
174.720206
 20
60.37160899999999
 30
0.0
 40
2.5
100
AcDbArc
 50
180.0
 51
270.0
  0
LINE
  5
A7EA
330
A58C
100
AcDbEntity
  8
1
  6
Continuous
100
AcDbLine
 10
175.4417169999999
 20
54.07161899999999
 30
0.0
 11
179.262081
 21
54.07161899999999
 31
0.0
  0
LINE
  5
A7EB
330
A58C
100
AcDbEntity
  8
1
  6
Continuous
100
AcDbLine
 10
200.1896079999999
 20
54.07161899999999
 30
0.0
 11
200.1896079999999
 21
55.07161899999999
 31
0.0
  0
LINE
  5
A7EC
330
A58C
100
AcDbEntity
  8
1
  6
Continuous
100
AcDbLine
 10
176.0336619999999
 20
55.07161899999999
 30
0.0
 11
179.262081
 21
55.07161899999999
 31
0.0
  0
LINE
  5
A7ED
330
A58C
100
AcDbEntity
  8
1
  6
Continuous
100
AcDbLine
 10
200.1896079999999
 20
54.07161899999999
 30
0.0
 11
202.9887389999999
 21
54.07161899999999
 31
0.0
  0
LINE
  5
A7EE
330
A58C
100
AcDbEntity
  8
1
  6
Continuous
100
AcDbLine
 10
200.1896079999999
 20
55.07161899999999
 30
0.0
 11
202.0325339999998
 21
55.07161899999999
 31
0.0
  0
LINE
  5
A7EF
330
A58C
100
AcDbEntity
  8
1
  6
Continuous
100
AcDbLine
 10
179.262081
 20
54.07161899999999
 30
0.0
 11
179.262081
 21
55.07161899999999
 31
0.0
  0
LINE
  5
A7F0
330
A58C
100
AcDbEntity
  8
1
  6
Continuous
100
AcDbLine
 10
176.7715939999999
 20
54.07161899999999
 30
0.0
 11
176.7715939999999
 21
55.07161899999999
 31
0.0
  0
ARC
  5
A7F1
330
A58C
100
AcDbEntity
  8
5
  6
PHANTOM
100
AcDbCircle
 10
149.106052
 20
366.403729
 30
0.0
 40
9.315139999999999
100
AcDbArc
 50
223.3824569999999
 51
270.0
  0
ARC
  5
A7F2
330
A58C
100
AcDbEntity
  8
5
  6
PHANTOM
100
AcDbCircle
 10
150.0952449999997
 20
367.3385899999999
 30
0.0
 40
10.676194
100
AcDbArc
 50
136.6175429999999
 51
223.3824569999999
  0
ARC
  5
A7F3
330
A58C
100
AcDbEntity
  8
5
  6
PHANTOM
100
AcDbCircle
 10
149.106052
 20
368.27345
 30
0.0
 40
9.315139999999999
100
AcDbArc
 50
90.0
 51
136.6175429999999
  0
ARC
  5
A7F4
330
A58C
100
AcDbEntity
  8
5
  6
PHANTOM
100
AcDbCircle
 10
150.0952449999997
 20
102.4216039999999
 30
0.0
 40
10.676194
100
AcDbArc
 50
136.6175429999999
 51
223.3824569999999
  0
ARC
  5
A7F5
330
A58C
100
AcDbEntity
  8
5
  6
PHANTOM
100
AcDbCircle
 10
149.106052
 20
103.356464
 30
0.0
 40
9.315139999999999
100
AcDbArc
 50
90.0
 51
136.6175429999999
  0
ARC
  5
A7F6
330
A58C
100
AcDbEntity
  8
5
  6
PHANTOM
100
AcDbCircle
 10
149.106052
 20
101.486743
 30
0.0
 40
9.315139999999999
100
AcDbArc
 50
223.3824569999999
 51
270.0
  0
LINE
  5
A7F7
330
A58C
100
AcDbEntity
  8
5
  6
PHANTOM
100
AcDbLine
 10
398.708773
 20
222.5047959999999
 30
0.0
 11
399.460679
 21
224.6784139999999
 31
0.0
  0
LINE
  5
A7F8
330
A58C
100
AcDbEntity
  8
5
  6
PHANTOM
100
AcDbLine
 10
400.440722
 20
224.3392859999999
 30
0.0
 11
399.4612
 21
224.6781279999999
 31
0.0
  0
LINE
  5
A7F9
330
A58C
100
AcDbEntity
  8
5
  6
PHANTOM
100
AcDbLine
 10
399.191429
 20
222.3377209999999
 30
0.0
 11
398.709288
 21
222.5045059999999
 31
0.0
  0
LINE
  5
A7FA
330
A58C
100
AcDbEntity
  8
1
  6
Continuous
100
AcDbLine
 10
481.454403
 20
228.6668389999999
 30
0.0
 11
480.388821
 21
230.7051079999999
 31
0.0
  0
LINE
  5
A7FB
330
A58C
100
AcDbEntity
  8
1
  6
Continuous
100
AcDbLine
 10
480.388805
 20
230.7049859999999
 30
0.0
 11
479.4702649999998
 21
230.224785
 31
0.0
  0
LINE
  5
A7FC
330
A58C
100
AcDbEntity
  8
1
  6
Continuous
100
AcDbLine
 10
481.454388
 20
228.666717
 30
0.0
 11
481.002255
 21
228.430348
 31
0.0
  0
LINE
  5
A7FD
330
A58C
100
AcDbEntity
  8
5
  6
PHANTOM
100
AcDbLine
 10
492.2695809999998
 20
190.139645
 30
0.0
 11
493.0214929999998
 21
192.3132679999999
 31
0.0
  0
LINE
  5
A7FE
330
A58C
100
AcDbEntity
  8
5
  6
PHANTOM
100
AcDbLine
 10
492.269481
 20
190.1395729999999
 30
0.0
 11
491.787324
 21
190.3063629999999
 31
0.0
  0
LINE
  5
A7FF
330
A58C
100
AcDbEntity
  8
5
  6
PHANTOM
100
AcDbLine
 10
493.0213939999998
 20
192.313195
 30
0.0
 11
492.0418569999998
 21
192.6520419999999
 31
0.0
  0
LINE
  5
A800
330
A58C
100
AcDbEntity
  8
1
  6
Continuous
100
AcDbLine
 10
393.5731859999998
 20
185.31887
 30
0.0
 11
392.654659
 21
184.8386759999999
 31
0.0
  0
LINE
  5
A801
330
A58C
100
AcDbEntity
  8
1
  6
Continuous
100
AcDbLine
 10
394.1723589999999
 20
183.0367689999999
 30
0.0
 11
393.7202409999999
 21
182.800407
 31
0.0
  0
LINE
  5
A802
330
A58C
100
AcDbEntity
  8
1
  6
Continuous
100
AcDbLine
 10
393.7196769999998
 20
182.800231
 30
0.0
 11
392.6540950000001
 21
184.8384929999998
 31
0.0
  0
LINE
  5
A803
330
A58C
100
AcDbEntity
  8
1
  6
Continuous
100
AcDbLine
 10
204.2790989999998
 20
54.54355699999999
 30
0.0
 11
207.510582
 21
57.272359
 31
0.0
  0
LINE
  5
A804
330
A58C
100
AcDbEntity
  8
1
  6
Continuous
100
AcDbLine
 10
202.743402
 20
54.33998199999999
 30
0.0
 11
206.533763
 21
57.87160899999999
 31
0.0
  0
LINE
  5
A805
330
A58C
100
AcDbEntity
  8
1
  6
Continuous
100
AcDbLine
 10
202.74995
 20
55.374974
 30
0.0
 11
205.174301
 21
57.87160899999999
 31
0.0
  0
LINE
  5
A806
330
A58C
100
AcDbEntity
  8
1
  6
Continuous
100
AcDbLine
 10
206.533763
 20
57.87160899999999
 30
0.0
 11
206.533763
 21
58.007676
 31
0.0
  0
LINE
  5
A807
330
A58C
100
AcDbEntity
  8
1
  6
Continuous
100
AcDbLine
 10
208.220223
 20
58.80041999999999
 30
0.0
 11
208.220223
 21
60.37160899999999
 31
0.0
  0
ARC
  5
A808
330
A58C
100
AcDbEntity
  8
1
  6
Continuous
100
AcDbCircle
 10
202.0325339999998
 20
56.07161899999999
 30
0.0
 40
1.0
100
AcDbArc
 50
270.0
 51
315.8415499999998
  0
ARC
  5
A809
330
A58C
100
AcDbEntity
  8
1
  6
Continuous
100
AcDbCircle
 10
202.061707
 20
55.07161899999999
 30
0.0
 40
1.0
100
AcDbArc
 50
270.0
 51
312.976204
  0
ARC
  5
A80A
330
A58C
100
AcDbEntity
  8
1
  6
Continuous
100
AcDbCircle
 10
202.9887389999999
 20
56.07161899999999
 30
0.0
 40
2.0
100
AcDbArc
 50
270.0
 51
310.17916
  0
ARC
  5
A80B
330
A58C
100
AcDbEntity
  8
1
  6
Continuous
100
AcDbCircle
 10
206.220223
 20
58.80041999999999
 30
0.0
 40
2.0
100
AcDbArc
 50
310.17916
 51
0.0
  0
LINE
  5
A80C
330
A58C
100
AcDbEntity
  8
1
  6
Continuous
100
AcDbLine
 10
179.262081
 20
54.07161899999999
 30
0.0
 11
179.262081
 21
55.07161899999999
 31
0.0
  0
LINE
  5
A80D
330
A58C
100
AcDbEntity
  8
1
  6
Continuous
100
AcDbLine
 10
172.554575
 20
59.12259200000001
 30
0.0
 11
173.5097419999999
 21
55.55444300000001
 31
0.0
  0
LINE
  5
A80E
330
A58C
100
AcDbEntity
  8
1
  6
Continuous
100
AcDbLine
 10
174.514335
 20
57.88009999999999
 30
0.0
 11
175.067674
 21
55.813031
 31
0.0
  0
LINE
  5
A80F
330
A58C
100
AcDbEntity
  8
1
  6
Continuous
100
AcDbLine
 10
176.019785
 20
57.88009999999999
 30
0.0
 11
176.7715939999999
 21
55.07161899999999
 31
0.0
  0
ARC
  5
A810
330
A58C
100
AcDbEntity
  8
1
  6
Continuous
100
AcDbCircle
 10
176.0336619999999
 20
56.07161899999999
 30
0.0
 40
1.0
100
AcDbArc
 50
194.986275
 51
270.0
  0
ARC
  5
A811
330
A58C
100
AcDbEntity
  8
1
  6
Continuous
100
AcDbCircle
 10
175.4417169999999
 20
56.07161899999999
 30
0.0
 40
2.0
100
AcDbArc
 50
194.986275
 51
270.0
  0
CIRCLE
  5
A812
330
A58C
100
AcDbEntity
  8
1
  6
Continuous
100
AcDbCircle
 10
190.220223
 20
196.871609
 30
0.0
 40
8.4
  0
LINE
  5
A813
330
A58C
100
AcDbEntity
  8
1
  6
Continuous
100
AcDbLine
 10
428.470287
 20
267.7716019999999
 30
0.0
 11
391.9702200000001
 21
267.7716019999999
 31
0.0
  0
LINE
  5
A814
330
A58C
100
AcDbEntity
  8
1
  6
Continuous
100
AcDbLine
 10
398.82022
 20
272.8716129999999
 30
0.0
 11
421.62022
 21
272.8716129999999
 31
0.0
  0
LINE
  5
A815
330
A58C
100
AcDbEntity
  8
1
  6
Continuous
100
AcDbLine
 10
432.72022
 20
265.7716019999999
 30
0.0
 11
387.7202199999999
 21
265.7716019999999
 31
0.0
  0
LINE
  5
A816
330
A58C
100
AcDbEntity
  8
1
  6
Continuous
100
AcDbLine
 10
432.320236
 20
261.9716069999999
 30
0.0
 11
388.1202099999999
 21
261.9716069999999
 31
0.0
  0
LINE
  5
A817
330
A58C
100
AcDbEntity
  8
1
  6
Continuous
100
AcDbLine
 10
398.82022
 20
272.8716129999999
 30
0.0
 11
398.82022
 21
267.7716019999999
 31
0.0
  0
ARC
  5
A818
330
A58C
100
AcDbEntity
  8
1
  6
Continuous
100
AcDbCircle
 10
392.19616
 20
261.77586
 30
0.0
 40
6.0
100
AcDbArc
 50
92.158028
 51
138.2442
  0
LINE
  5
A819
330
A58C
100
AcDbEntity
  8
1
  6
Continuous
100
AcDbLine
 10
388.1202399999999
 20
261.9716029999997
 30
0.0
 11
387.7202399999998
 21
263.27161
 31
0.0
  0
LINE
  5
A81A
330
A58C
100
AcDbEntity
  8
1
  6
Continuous
100
AcDbLine
 10
387.7202199999999
 20
265.7716019999999
 30
0.0
 11
387.7202199999999
 21
263.2716019999999
 31
0.0
  0
LINE
  5
A81B
330
A58C
100
AcDbEntity
  8
2
  6
Continuous
100
AcDbLine
 10
403.30272
 20
274.746558
 30
0.0
 11
403.30272
 21
311.9541129999999
 31
0.0
  0
LINE
  5
A81C
330
A58C
100
AcDbEntity
  8
1
  6
Continuous
100
AcDbLine
 10
402.2202199999998
 20
272.8716129999999
 30
0.0
 11
402.2202199999998
 21
310.8716129999999
 31
0.0
  0
LINE
  5
A81D
330
A58C
100
AcDbEntity
  8
2
  6
Continuous
100
AcDbLine
 10
417.13772
 20
274.746558
 30
0.0
 11
417.13772
 21
311.9541129999999
 31
0.0
  0
LINE
  5
A81E
330
A58C
100
AcDbEntity
  8
1
  6
Continuous
100
AcDbLine
 10
418.2202199999998
 20
272.8716129999999
 30
0.0
 11
418.2202199999998
 21
310.8716129999999
 31
0.0
  0
LINE
  5
A81F
330
A58C
100
AcDbEntity
  8
2
  6
Continuous
100
AcDbLine
 10
329.237304
 20
274.7465739999999
 30
0.0
 11
330.3198039999998
 21
272.8716289999999
 31
0.0
  0
LINE
  5
A820
330
A58C
100
AcDbEntity
  8
1
  6
Continuous
100
AcDbLine
 10
330.3198039999998
 20
272.8716289999999
 30
0.0
 11
330.3198039999998
 21
310.8716289999998
 31
0.0
  0
LINE
  5
A821
330
A58C
100
AcDbEntity
  8
2
  6
Continuous
100
AcDbLine
 10
315.402304
 20
274.7465739999999
 30
0.0
 11
314.3198039999998
 21
272.8716289999999
 31
0.0
  0
LINE
  5
A822
330
A58C
100
AcDbEntity
  8
1
  6
Continuous
100
AcDbLine
 10
314.3198039999998
 20
272.8716289999999
 30
0.0
 11
314.3198039999998
 21
310.8716289999998
 31
0.0
  0
ARC
  5
A823
330
A58C
100
AcDbEntity
  8
1
  6
Continuous
100
AcDbCircle
 10
428.2442829999998
 20
261.77586
 30
0.0
 40
6.0
100
AcDbArc
 50
41.75575999999996
 51
87.841936
  0
LINE
  5
A824
330
A58C
100
AcDbEntity
  8
1
  6
Continuous
100
AcDbLine
 10
402.2202199999998
 20
274.746558
 30
0.0
 11
418.2202199999998
 21
274.746558
 31
0.0
  0
LINE
  5
A825
330
A58C
100
AcDbEntity
  8
1
  6
Continuous
100
AcDbLine
 10
410.2202199999998
 20
272.8716129999999
 30
0.0
 11
410.2202199999998
 21
267.7716019999999
 31
0.0
  0
LINE
  5
A826
330
A58C
100
AcDbEntity
  8
2
  6
Continuous
100
AcDbLine
 10
403.30272
 20
274.746558
 30
0.0
 11
402.2202199999998
 21
272.8716129999999
 31
0.0
  0
LINE
  5
A827
330
A58C
100
AcDbEntity
  8
1
  6
Continuous
100
AcDbLine
 10
421.62022
 20
272.8716129999999
 30
0.0
 11
421.62022
 21
267.7716019999999
 31
0.0
  0
LINE
  5
A828
330
A58C
100
AcDbEntity
  8
2
  6
Continuous
100
AcDbLine
 10
417.13772
 20
274.746558
 30
0.0
 11
418.2202199999998
 21
272.8716129999999
 31
0.0
  0
LINE
  5
A829
330
A58C
100
AcDbEntity
  8
1
  6
Continuous
100
AcDbLine
 10
432.3202339999999
 20
261.971599
 30
0.0
 11
432.7202349999998
 21
263.2716019999999
 31
0.0
  0
LINE
  5
A82A
330
A58C
100
AcDbEntity
  8
1
  6
Continuous
100
AcDbLine
 10
432.72022
 20
265.7716019999999
 30
0.0
 11
432.72022
 21
263.2716019999999
 31
0.0
  0
LINE
  5
A82B
330
A58C
100
AcDbEntity
  8
1
  6
Continuous
100
AcDbLine
 10
340.347668
 20
267.7716259999999
 30
0.0
 11
304.0698039999998
 21
267.7716259999999
 31
0.0
  0
LINE
  5
A82C
330
A58C
100
AcDbEntity
  8
1
  6
Continuous
100
AcDbLine
 10
344.8198039999998
 20
265.7716259999999
 30
0.0
 11
299.8198039999998
 21
265.7716259999999
 31
0.0
  0
LINE
  5
A82D
330
A58C
100
AcDbEntity
  8
1
  6
Continuous
100
AcDbLine
 10
309.319749
 20
272.871626
 30
0.0
 11
335.319859
 21
272.871626
 31
0.0
  0
LINE
  5
A82E
330
A58C
100
AcDbEntity
  8
1
  6
Continuous
100
AcDbLine
 10
344.419795
 20
261.971623
 30
0.0
 11
300.219804
 21
261.971623
 31
0.0
  0
ARC
  5
A82F
330
A58C
100
AcDbEntity
  8
1
  6
Continuous
100
AcDbCircle
 10
304.295743
 20
261.7758789999999
 30
0.0
 40
6.0
100
AcDbArc
 50
92.158028
 51
138.2442
  0
LINE
  5
A830
330
A58C
100
AcDbEntity
  8
1
  6
Continuous
100
AcDbLine
 10
300.2198
 20
261.9716189999999
 30
0.0
 11
299.8198
 21
263.2716219999999
 31
0.0
  0
LINE
  5
A831
330
A58C
100
AcDbEntity
  8
1
  6
Continuous
100
AcDbLine
 10
299.8198039999998
 20
265.7716259999999
 30
0.0
 11
299.8198039999998
 21
263.2716259999999
 31
0.0
  0
LINE
  5
A832
330
A58C
100
AcDbEntity
  8
1
  6
Continuous
100
AcDbLine
 10
315.680276
 20
272.871626
 30
0.0
 11
315.680276
 21
267.7716229999999
 31
0.0
  0
LINE
  5
A833
330
A58C
100
AcDbEntity
  8
1
  6
Continuous
100
AcDbLine
 10
309.319749
 20
272.871626
 30
0.0
 11
309.319749
 21
267.7716229999999
 31
0.0
  0
LINE
  5
A834
330
A58C
100
AcDbEntity
  8
1
  6
Continuous
100
AcDbLine
 10
328.9593319999998
 20
272.871626
 30
0.0
 11
328.9593319999998
 21
267.7716229999999
 31
0.0
  0
LINE
  5
A835
330
A58C
100
AcDbEntity
  8
1
  6
Continuous
100
AcDbLine
 10
335.319859
 20
272.871626
 30
0.0
 11
335.319859
 21
267.7716229999999
 31
0.0
  0
ARC
  5
A836
330
A58C
100
AcDbEntity
  8
1
  6
Continuous
100
AcDbCircle
 10
340.347668
 20
261.7716259999999
 30
0.0
 40
6.0
100
AcDbArc
 50
41.810315
 51
90.0
  0
LINE
  5
A837
330
A58C
100
AcDbEntity
  8
1
  6
Continuous
100
AcDbLine
 10
344.419795
 20
261.971627
 30
0.0
 11
344.8197959999998
 21
263.2716259999999
 31
0.0
  0
LINE
  5
A838
330
A58C
100
AcDbEntity
  8
1
  6
Continuous
100
AcDbLine
 10
344.8198039999998
 20
265.7716259999999
 30
0.0
 11
344.8198039999998
 21
263.2716259999999
 31
0.0
  0
LINE
  5
A839
330
A58C
100
AcDbEntity
  8
1
  6
Continuous
100
AcDbLine
 10
402.2202199999998
 20
310.8716129999999
 30
0.0
 11
418.2202199999998
 21
310.8716129999999
 31
0.0
  0
LINE
  5
A83A
330
A58C
100
AcDbEntity
  8
1
  6
Continuous
100
AcDbLine
 10
404.22022
 20
312.8716129999999
 30
0.0
 11
416.22022
 21
312.8716129999999
 31
0.0
  0
LINE
  5
A83B
330
A58C
100
AcDbEntity
  8
1
  6
Continuous
100
AcDbLine
 10
402.2202199999998
 20
310.8716129999999
 30
0.0
 11
404.22022
 21
312.8716129999999
 31
0.0
  0
LINE
  5
A83C
330
A58C
100
AcDbEntity
  8
1
  6
Continuous
100
AcDbLine
 10
416.22022
 20
312.8716129999999
 30
0.0
 11
418.2202199999998
 21
310.8716129999999
 31
0.0
  0
LINE
  5
A83D
330
A58C
100
AcDbEntity
  8
1
  6
Continuous
100
AcDbLine
 10
316.3198039999998
 20
312.8716289999998
 30
0.0
 11
328.3198039999998
 21
312.8716289999998
 31
0.0
  0
LINE
  5
A83E
330
A58C
100
AcDbEntity
  8
1
  6
Continuous
100
AcDbLine
 10
314.3198039999998
 20
274.7465739999999
 30
0.0
 11
330.3198039999998
 21
274.7465739999999
 31
0.0
  0
LINE
  5
A83F
330
A58C
100
AcDbEntity
  8
1
  6
Continuous
100
AcDbLine
 10
314.3198039999998
 20
310.8716289999998
 30
0.0
 11
330.3198039999998
 21
310.8716289999998
 31
0.0
  0
LINE
  5
A840
330
A58C
100
AcDbEntity
  8
2
  6
Continuous
100
AcDbLine
 10
315.402304
 20
274.7465739999999
 30
0.0
 11
315.402304
 21
311.954129
 31
0.0
  0
LINE
  5
A841
330
A58C
100
AcDbEntity
  8
1
  6
Continuous
100
AcDbLine
 10
314.3198039999998
 20
310.8716289999998
 30
0.0
 11
316.3198039999998
 21
312.8716289999998
 31
0.0
  0
LINE
  5
A842
330
A58C
100
AcDbEntity
  8
2
  6
Continuous
100
AcDbLine
 10
329.237304
 20
274.7465739999999
 30
0.0
 11
329.237304
 21
311.954129
 31
0.0
  0
LINE
  5
A843
330
A58C
100
AcDbEntity
  8
1
  6
Continuous
100
AcDbLine
 10
328.3198039999998
 20
312.8716289999998
 30
0.0
 11
330.3198039999998
 21
310.8716289999998
 31
0.0
  0
LINE
  5
A844
330
A58C
100
AcDbEntity
  8
1
  6
Continuous
100
AcDbLine
 10
179.220223
 20
414.171609
 30
0.0
 11
203.6808049999999
 21
414.171609
 31
0.0
  0
LINE
  5
A845
330
A58C
100
AcDbEntity
  8
1
  6
Continuous
100
AcDbLine
 10
173.9208849999999
 20
377.5716089999999
 30
0.0
 11
203.6808049999999
 21
377.5716089999999
 31
0.0
  0
LINE
  5
A846
330
A58C
100
AcDbEntity
  8
4
  6
CENTER
100
AcDbLine
 10
135.2202229999998
 20
395.8716089999999
 30
0.0
 11
252.2202229999999
 21
395.8716089999999
 31
0.0
  0
ARC
  5
A847
330
A58C
100
AcDbEntity
  8
1
  6
Continuous
100
AcDbCircle
 10
339.3518849999998
 20
395.8716089999999
 30
0.0
 40
158.420172
100
AcDbArc
 50
173.3666359999998
 51
186.633364
  0
LINE
  5
A848
330
A58C
100
AcDbEntity
  8
1
  6
Continuous
100
AcDbLine
 10
179.220223
 20
414.171609
 30
0.0
 11
179.220223
 21
411.8716089999998
 31
0.0
  0
LINE
  5
A849
330
A58C
100
AcDbEntity
  8
1
  6
Continuous
100
AcDbLine
 10
179.220223
 20
411.8716089999998
 30
0.0
 11
181.741762
 21
411.8716089999998
 31
0.0
  0
LINE
  5
A84A
330
A58C
100
AcDbEntity
  8
1
  6
Continuous
100
AcDbLine
 10
179.220223
 20
411.8716089999998
 30
0.0
 11
181.741762
 21
411.8716089999998
 31
0.0
  0
LINE
  5
A84B
330
A58C
100
AcDbEntity
  8
1
  6
Continuous
100
AcDbLine
 10
179.220223
 20
411.8716089999998
 30
0.0
 11
179.220223
 21
414.171609
 31
0.0
  0
LINE
  5
A84C
330
A58C
100
AcDbEntity
  8
1
  6
Continuous
100
AcDbLine
 10
233.620223
 20
389.453402
 30
0.0
 11
233.620223
 21
402.2898159999998
 31
0.0
  0
LINE
  5
A84D
330
A58C
100
AcDbEntity
  8
1
  6
Continuous
100
AcDbLine
 10
210.8202229999998
 20
389.453402
 30
0.0
 11
210.8202229999998
 21
402.2898159999998
 31
0.0
  0
CIRCLE
  5
A84E
330
A58C
100
AcDbEntity
  8
1
  6
Continuous
100
AcDbCircle
 10
222.220223
 20
395.8716089999999
 30
0.0
 40
8.0
  0
CIRCLE
  5
A84F
330
A58C
100
AcDbEntity
  8
2
  6
Continuous
100
AcDbCircle
 10
222.220223
 20
395.8716089999999
 30
0.0
 40
6.9175
  0
CIRCLE
  5
A850
330
A58C
100
AcDbEntity
  8
1
  6
Continuous
100
AcDbCircle
 10
222.220223
 20
395.8716089999999
 30
0.0
 40
6.0
  0
CIRCLE
  5
A851
330
A58C
100
AcDbEntity
  8
1
  6
Continuous
100
AcDbCircle
 10
222.220223
 20
395.8716089999999
 30
0.0
 40
18.25
  0
CIRCLE
  5
A852
330
A58C
100
AcDbEntity
  8
1
  6
Continuous
100
AcDbCircle
 10
222.220223
 20
395.8716089999999
 30
0.0
 40
22.5
  0
ARC
  5
A853
330
A58C
100
AcDbEntity
  8
1
  6
Continuous
100
AcDbCircle
 10
222.220223
 20
395.8716089999999
 30
0.0
 40
25.0
100
AcDbArc
 50
230.2610839999999
 51
129.7389159999999
  0
ARC
  5
A854
330
A58C
100
AcDbEntity
  8
1
  6
Continuous
100
AcDbCircle
 10
222.220223
 20
395.8716089999999
 30
0.0
 40
25.0
100
AcDbArc
 50
142.6027479999999
 51
217.3972519999999
  0
LINE
  5
A855
330
A58C
100
AcDbEntity
  8
1
  6
Continuous
100
AcDbLine
 10
233.620223
 20
389.453402
 30
0.0
 11
222.220223
 21
382.8716089999998
 31
0.0
  0
ARC
  5
A856
330
A58C
100
AcDbEntity
  8
1
  6
Continuous
100
AcDbCircle
 10
203.6808049999999
 20
373.5716089999999
 30
0.0
 40
4.0
100
AcDbArc
 50
50.261084
 51
90.0
  0
LINE
  5
A857
330
A58C
100
AcDbEntity
  8
1
  6
Continuous
100
AcDbLine
 10
210.8202229999998
 20
389.453402
 30
0.0
 11
222.220223
 21
382.8716089999998
 31
0.0
  0
LINE
  5
A858
330
A58C
100
AcDbEntity
  8
1
  6
Continuous
100
AcDbLine
 10
222.220223
 20
408.871609
 30
0.0
 11
233.620223
 21
402.2898159999998
 31
0.0
  0
ARC
  5
A859
330
A58C
100
AcDbEntity
  8
1
  6
Continuous
100
AcDbCircle
 10
203.6808049999999
 20
418.171609
 30
0.0
 40
4.0
100
AcDbArc
 50
270.0
 51
309.738916
  0
LINE
  5
A85A
330
A58C
100
AcDbEntity
  8
1
  6
Continuous
100
AcDbLine
 10
222.220223
 20
408.871609
 30
0.0
 11
210.8202229999998
 21
402.2898159999998
 31
0.0
  0
LINE
  5
A85B
330
A58C
100
AcDbEntity
  8
2
  6
Continuous
100
AcDbLine
 10
215.3027199999999
 20
274.746558
 30
0.0
 11
215.3027199999999
 21
311.9541129999999
 31
0.0
  0
LINE
  5
A85C
330
A58C
100
AcDbEntity
  8
1
  6
Continuous
100
AcDbLine
 10
214.22022
 20
272.8716129999999
 30
0.0
 11
214.22022
 21
310.8716129999999
 31
0.0
  0
LINE
  5
A85D
330
A58C
100
AcDbEntity
  8
2
  6
Continuous
100
AcDbLine
 10
229.13772
 20
274.746558
 30
0.0
 11
229.13772
 21
311.9541129999999
 31
0.0
  0
LINE
  5
A85E
330
A58C
100
AcDbEntity
  8
1
  6
Continuous
100
AcDbLine
 10
230.2202199999999
 20
272.8716129999999
 30
0.0
 11
230.2202199999999
 21
310.8716129999999
 31
0.0
  0
LINE
  5
A85F
330
A58C
100
AcDbEntity
  8
1
  6
Continuous
100
AcDbLine
 10
210.82022
 20
272.8716129999999
 30
0.0
 11
233.6202199999999
 21
272.8716129999999
 31
0.0
  0
LINE
  5
A860
330
A58C
100
AcDbEntity
  8
1
  6
Continuous
100
AcDbLine
 10
214.22022
 20
274.746558
 30
0.0
 11
230.2202199999999
 21
274.746558
 31
0.0
  0
LINE
  5
A861
330
A58C
100
AcDbEntity
  8
1
  6
Continuous
100
AcDbLine
 10
240.470287
 20
267.7716019999999
 30
0.0
 11
203.9702199999999
 21
267.7716019999999
 31
0.0
  0
LINE
  5
A862
330
A58C
100
AcDbEntity
  8
1
  6
Continuous
100
AcDbLine
 10
244.7202199999999
 20
265.7716019999999
 30
0.0
 11
199.7202199999999
 21
265.7716019999999
 31
0.0
  0
LINE
  5
A863
330
A58C
100
AcDbEntity
  8
1
  6
Continuous
100
AcDbLine
 10
244.3202359999999
 20
261.9716069999999
 30
0.0
 11
200.1202099999999
 21
261.9716069999999
 31
0.0
  0
LINE
  5
A864
330
A58C
100
AcDbEntity
  8
1
  6
Continuous
100
AcDbLine
 10
210.82022
 20
272.8716129999999
 30
0.0
 11
210.82022
 21
267.7716019999999
 31
0.0
  0
LINE
  5
A865
330
A58C
100
AcDbEntity
  8
1
  6
Continuous
100
AcDbLine
 10
200.1202399999999
 20
261.9716029999997
 30
0.0
 11
199.7202399999999
 21
263.27161
 31
0.0
  0
LINE
  5
A866
330
A58C
100
AcDbEntity
  8
1
  6
Continuous
100
AcDbLine
 10
199.7202199999999
 20
265.7716019999999
 30
0.0
 11
199.7202199999999
 21
263.2716019999999
 31
0.0
  0
ARC
  5
A867
330
A58C
100
AcDbEntity
  8
1
  6
Continuous
100
AcDbCircle
 10
204.19616
 20
261.77586
 30
0.0
 40
6.0
100
AcDbArc
 50
92.158028
 51
138.2442
  0
LINE
  5
A868
330
A58C
100
AcDbEntity
  8
1
  6
Continuous
100
AcDbLine
 10
222.22022
 20
272.8716129999999
 30
0.0
 11
222.22022
 21
267.7716019999999
 31
0.0
  0
LINE
  5
A869
330
A58C
100
AcDbEntity
  8
2
  6
Continuous
100
AcDbLine
 10
215.3027199999999
 20
274.746558
 30
0.0
 11
214.22022
 21
272.8716129999999
 31
0.0
  0
ARC
  5
A86A
330
A58C
100
AcDbEntity
  8
1
  6
Continuous
100
AcDbCircle
 10
240.244283
 20
261.77586
 30
0.0
 40
6.0
100
AcDbArc
 50
41.75575999999996
 51
87.841936
  0
LINE
  5
A86B
330
A58C
100
AcDbEntity
  8
1
  6
Continuous
100
AcDbLine
 10
233.6202199999999
 20
272.8716129999999
 30
0.0
 11
233.6202199999999
 21
267.7716019999999
 31
0.0
  0
LINE
  5
A86C
330
A58C
100
AcDbEntity
  8
2
  6
Continuous
100
AcDbLine
 10
229.13772
 20
274.746558
 30
0.0
 11
230.2202199999999
 21
272.8716129999999
 31
0.0
  0
LINE
  5
A86D
330
A58C
100
AcDbEntity
  8
1
  6
Continuous
100
AcDbLine
 10
244.320234
 20
261.971599
 30
0.0
 11
244.7202349999999
 21
263.2716019999999
 31
0.0
  0
LINE
  5
A86E
330
A58C
100
AcDbEntity
  8
1
  6
Continuous
100
AcDbLine
 10
244.7202199999999
 20
265.7716019999999
 30
0.0
 11
244.7202199999999
 21
263.2716019999999
 31
0.0
  0
LINE
  5
A86F
330
A58C
100
AcDbEntity
  8
1
  6
Continuous
100
AcDbLine
 10
214.22022
 20
310.8716129999999
 30
0.0
 11
230.2202199999999
 21
310.8716129999999
 31
0.0
  0
LINE
  5
A870
330
A58C
100
AcDbEntity
  8
1
  6
Continuous
100
AcDbLine
 10
216.22022
 20
312.8716129999999
 30
0.0
 11
228.2202199999999
 21
312.8716129999999
 31
0.0
  0
LINE
  5
A871
330
A58C
100
AcDbEntity
  8
1
  6
Continuous
100
AcDbLine
 10
214.22022
 20
310.8716129999999
 30
0.0
 11
216.22022
 21
312.8716129999999
 31
0.0
  0
LINE
  5
A872
330
A58C
100
AcDbEntity
  8
1
  6
Continuous
100
AcDbLine
 10
228.2202199999999
 20
312.8716129999999
 30
0.0
 11
230.2202199999999
 21
310.8716129999999
 31
0.0
  0
LINE
  5
A873
330
A58C
100
AcDbEntity
  8
1
  6
Continuous
100
AcDbLine
 10
75.248091
 20
267.77161
 30
0.0
 11
38.970227
 21
267.77161
 31
0.0
  0
LINE
  5
A874
330
A58C
100
AcDbEntity
  8
1
  6
Continuous
100
AcDbLine
 10
79.72022700000002
 20
265.77161
 30
0.0
 11
34.720227
 21
265.77161
 31
0.0
  0
LINE
  5
A875
330
A58C
100
AcDbEntity
  8
1
  6
Continuous
100
AcDbLine
 10
79.32021800000002
 20
261.9716069999999
 30
0.0
 11
35.120227
 21
261.9716069999999
 31
0.0
  0
ARC
  5
A876
330
A58C
100
AcDbEntity
  8
1
  6
Continuous
100
AcDbCircle
 10
39.19616599999999
 20
261.775863
 30
0.0
 40
6.0
100
AcDbArc
 50
92.158028
 51
138.2442
  0
LINE
  5
A877
330
A58C
100
AcDbEntity
  8
1
  6
Continuous
100
AcDbLine
 10
35.12022299999999
 20
261.9716029999997
 30
0.0
 11
34.72022299999999
 21
263.271606
 31
0.0
  0
LINE
  5
A878
330
A58C
100
AcDbEntity
  8
1
  6
Continuous
100
AcDbLine
 10
34.720227
 20
265.77161
 30
0.0
 11
34.720227
 21
263.27161
 31
0.0
  0
LINE
  5
A879
330
A58C
100
AcDbEntity
  8
1
  6
Continuous
100
AcDbLine
 10
65.22022699999999
 20
272.8716129999999
 30
0.0
 11
65.22022699999999
 21
310.8716129999999
 31
0.0
  0
LINE
  5
A87A
330
A58C
100
AcDbEntity
  8
1
  6
Continuous
100
AcDbLine
 10
49.220227
 20
272.8716129999999
 30
0.0
 11
49.220227
 21
310.8716129999999
 31
0.0
  0
LINE
  5
A87B
330
A58C
100
AcDbEntity
  8
2
  6
Continuous
100
AcDbLine
 10
50.30272700000001
 20
274.746558
 30
0.0
 11
50.30272700000001
 21
311.9541129999999
 31
0.0
  0
LINE
  5
A87C
330
A58C
100
AcDbEntity
  8
2
  6
Continuous
100
AcDbLine
 10
64.13772699999999
 20
274.746558
 30
0.0
 11
64.13772699999999
 21
311.9541129999999
 31
0.0
  0
LINE
  5
A87D
330
A58C
100
AcDbEntity
  8
1
  6
Continuous
100
AcDbLine
 10
44.22017199999999
 20
272.8716099999999
 30
0.0
 11
70.220282
 21
272.8716099999999
 31
0.0
  0
LINE
  5
A87E
330
A58C
100
AcDbEntity
  8
1
  6
Continuous
100
AcDbLine
 10
49.220227
 20
274.746558
 30
0.0
 11
65.22022699999999
 21
274.746558
 31
0.0
  0
LINE
  5
A87F
330
A58C
100
AcDbEntity
  8
1
  6
Continuous
100
AcDbLine
 10
50.58069899999999
 20
272.8716099999999
 30
0.0
 11
50.58069899999999
 21
267.7716069999998
 31
0.0
  0
LINE
  5
A880
330
A58C
100
AcDbEntity
  8
1
  6
Continuous
100
AcDbLine
 10
44.22017199999999
 20
272.8716099999999
 30
0.0
 11
44.22017199999999
 21
267.7716069999998
 31
0.0
  0
LINE
  5
A881
330
A58C
100
AcDbEntity
  8
2
  6
Continuous
100
AcDbLine
 10
50.30272700000001
 20
274.746558
 30
0.0
 11
49.220227
 21
272.8716129999999
 31
0.0
  0
LINE
  5
A882
330
A58C
100
AcDbEntity
  8
1
  6
Continuous
100
AcDbLine
 10
70.220282
 20
272.8716099999999
 30
0.0
 11
70.220282
 21
267.7716069999998
 31
0.0
  0
LINE
  5
A883
330
A58C
100
AcDbEntity
  8
2
  6
Continuous
100
AcDbLine
 10
64.13772699999999
 20
274.746558
 30
0.0
 11
65.22022699999999
 21
272.8716129999999
 31
0.0
  0
LINE
  5
A884
330
A58C
100
AcDbEntity
  8
1
  6
Continuous
100
AcDbLine
 10
63.859755
 20
272.8716099999999
 30
0.0
 11
63.859755
 21
267.7716069999998
 31
0.0
  0
ARC
  5
A885
330
A58C
100
AcDbEntity
  8
1
  6
Continuous
100
AcDbCircle
 10
75.248091
 20
261.7716099999999
 30
0.0
 40
6.0
100
AcDbArc
 50
41.810315
 51
90.0
  0
LINE
  5
A886
330
A58C
100
AcDbEntity
  8
1
  6
Continuous
100
AcDbLine
 10
79.32021800000002
 20
261.971611
 30
0.0
 11
79.720219
 21
263.27161
 31
0.0
  0
LINE
  5
A887
330
A58C
100
AcDbEntity
  8
1
  6
Continuous
100
AcDbLine
 10
79.72022700000002
 20
265.77161
 30
0.0
 11
79.72022700000002
 21
263.27161
 31
0.0
  0
LINE
  5
A888
330
A58C
100
AcDbEntity
  8
1
  6
Continuous
100
AcDbLine
 10
51.220227
 20
312.8716129999999
 30
0.0
 11
63.220227
 21
312.8716129999999
 31
0.0
  0
LINE
  5
A889
330
A58C
100
AcDbEntity
  8
1
  6
Continuous
100
AcDbLine
 10
49.220227
 20
310.8716129999999
 30
0.0
 11
65.22022699999999
 21
310.8716129999999
 31
0.0
  0
LINE
  5
A88A
330
A58C
100
AcDbEntity
  8
1
  6
Continuous
100
AcDbLine
 10
49.220227
 20
310.8716129999999
 30
0.0
 11
51.220227
 21
312.8716129999999
 31
0.0
  0
LINE
  5
A88B
330
A58C
100
AcDbEntity
  8
1
  6
Continuous
100
AcDbLine
 10
63.220227
 20
312.8716129999999
 30
0.0
 11
65.22022699999999
 21
310.8716129999999
 31
0.0
  0
LINE
  5
A88C
330
A58C
100
AcDbEntity
  8
1
  6
Continuous
100
AcDbLine
 10
205.930757
 20
365.0715990000001
 30
0.0
 11
225.590135
 21
354.214741
 31
0.0
  0
LINE
  5
A88D
330
A58C
100
AcDbEntity
  8
1
  6
Continuous
100
AcDbLine
 10
163.9677899999998
 20
357.5654339999999
 30
0.0
 11
184.841265
 21
364.932225
 31
0.0
  0
LINE
  5
A88E
330
A58C
100
AcDbEntity
  8
1
  6
Continuous
100
AcDbLine
 10
206.995699
 20
365.072316
 30
0.0
 11
226.6556259999999
 21
354.214802
 31
0.0
  0
ARC
  5
A88F
330
A58C
100
AcDbEntity
  8
1
  6
Continuous
100
AcDbCircle
 10
163.255846
 20
367.321614
 30
0.0
 40
11.20420599999998
100
AcDbArc
 50
138.4524829999998
 51
221.5475129999999
  0
ARC
  5
A890
330
A58C
100
AcDbEntity
  8
1
  6
Continuous
100
AcDbCircle
 10
162.1902639999998
 20
367.321614
 30
0.0
 40
11.20420599999998
100
AcDbArc
 50
138.4524829999998
 51
221.5475129999999
  0
ARC
  5
A891
330
A58C
100
AcDbEntity
  8
1
  6
Continuous
100
AcDbCircle
 10
228.581758
 20
363.421605
 30
0.0
 40
11.20420599999998
100
AcDbArc
 50
318.452482
 51
41.54751799999998
  0
ARC
  5
A892
330
A58C
100
AcDbEntity
  8
1
  6
Continuous
100
AcDbCircle
 10
161.1352399999999
 20
365.4423259999999
 30
0.0
 40
8.370708999999997
100
AcDbArc
 50
221.547517
 51
289.7786679999999
  0
ARC
  5
A893
330
A58C
100
AcDbEntity
  8
1
  6
Continuous
100
AcDbCircle
 10
160.069658
 20
365.4423259999999
 30
0.0
 40
8.370708999999997
100
AcDbArc
 50
221.547517
 51
273.6493129999999
  0
LINE
  5
A894
330
A58C
100
AcDbEntity
  8
1
  6
Continuous
100
AcDbLine
 10
229.6367819999999
 20
353.1716049999998
 30
0.0
 11
230.702364
 21
353.1716049999998
 31
0.0
  0
ARC
  5
A895
330
A58C
100
AcDbEntity
  8
1
  6
Continuous
100
AcDbCircle
 10
230.702364
 20
361.5423169999999
 30
0.0
 40
8.370708999999997
100
AcDbArc
 50
241.0895889999999
 51
318.452482
  0
ARC
  5
A896
330
A58C
100
AcDbEntity
  8
1
  6
Continuous
100
AcDbCircle
 10
229.6367819999999
 20
361.5423169999999
 30
0.0
 40
8.370708999999997
100
AcDbArc
 50
241.090368
 51
273.6493129999999
  0
LINE
  5
A897
330
A58C
100
AcDbEntity
  8
1
  6
Continuous
100
AcDbLine
 10
167.6036239999999
 20
377.571614
 30
0.0
 11
155.991655
 21
377.571614
 31
0.0
  0
LINE
  5
A898
330
A58C
100
AcDbEntity
  8
1
  6
Continuous
100
AcDbLine
 10
155.991655
 20
377.571614
 30
0.0
 11
155.991655
 21
376.5110819999999
 31
0.0
  0
ARC
  5
A899
330
A58C
100
AcDbEntity
  8
1
  6
Continuous
100
AcDbCircle
 10
161.1352399999999
 20
369.2009169999999
 30
0.0
 40
8.370708999999997
100
AcDbArc
 50
90.00000300000001
 51
138.4524829999998
  0
ARC
  5
A89A
330
A58C
100
AcDbEntity
  8
1
  6
Continuous
100
AcDbCircle
 10
160.069658
 20
369.2009169999999
 30
0.0
 40
8.370708999999997
100
AcDbArc
 50
90.00000300000001
 51
138.4524829999998
  0
LINE
  5
A89B
330
A58C
100
AcDbEntity
  8
1
  6
Continuous
100
AcDbLine
 10
173.9208849999999
 20
373.071614
 30
0.0
 11
173.9208849999999
 21
379.571614
 31
0.0
  0
LINE
  5
A89C
330
A58C
100
AcDbEntity
  8
1
  6
Continuous
100
AcDbLine
 10
173.9208849999999
 20
379.571614
 30
0.0
 11
167.5380419999999
 21
379.571614
 31
0.0
  0
LINE
  5
A89D
330
A58C
100
AcDbEntity
  8
1
  6
Continuous
100
AcDbLine
 10
167.5380419999999
 20
377.571614
 30
0.0
 11
167.5380419999999
 21
379.571614
 31
0.0
  0
ARC
  5
A89E
330
A58C
100
AcDbEntity
  8
1
  6
Continuous
100
AcDbCircle
 10
167.6036239999999
 20
376.571614
 30
0.0
 40
1.0
100
AcDbArc
 50
0.0
 51
90.00000300000001
  0
ARC
  5
A89F
330
A58C
100
AcDbEntity
  8
1
  6
Continuous
100
AcDbCircle
 10
196.882463
 20
356.605214
 30
0.0
 40
12.391586
100
AcDbArc
 50
43.097111
 51
87.57070199999999
  0
ARC
  5
A8A0
330
A58C
100
AcDbEntity
  8
1
  6
Continuous
100
AcDbCircle
 10
197.948061
 20
356.6058699999999
 30
0.0
 40
12.391586
100
AcDbArc
 50
43.097111
 51
103.5861029999999
  0
LINE
  5
A8A1
330
A58C
100
AcDbEntity
  8
1
  6
Continuous
100
AcDbLine
 10
184.841265
 20
364.932209
 30
0.0
 11
184.841265
 21
375.134953
 31
0.0
  0
ARC
  5
A8A2
330
A58C
100
AcDbEntity
  8
1
  6
Continuous
100
AcDbCircle
 10
206.3825699999999
 20
321.704716
 30
0.0
 40
48.297459
100
AcDbArc
 50
103.5861029999999
 51
116.4881929999999
  0
LINE
  5
A8A3
330
A58C
100
AcDbEntity
  8
1
  6
Continuous
100
AcDbLine
 10
206.9963549999999
 20
365.071614
 30
0.0
 11
206.9963549999999
 21
375.315175
 31
0.0
  0
ARC
  5
A8A4
330
A58C
100
AcDbEntity
  8
1
  6
Continuous
100
AcDbCircle
 10
230.702364
 20
365.3009079999998
 30
0.0
 40
8.370708999999997
100
AcDbArc
 50
41.54751799999998
 51
73.743707
  0
LINE
  5
A8A5
330
A58C
100
AcDbEntity
  8
1
  6
Continuous
100
AcDbLine
 10
200.1896079999999
 20
414.671599
 30
0.0
 11
202.0325339999998
 21
414.671599
 31
0.0
  0
LINE
  5
A8A6
330
A58C
100
AcDbEntity
  8
1
  6
Continuous
100
AcDbLine
 10
200.1896079999999
 20
415.671599
 30
0.0
 11
202.9887389999999
 21
415.671599
 31
0.0
  0
LINE
  5
A8A7
330
A58C
100
AcDbEntity
  8
1
  6
Continuous
100
AcDbLine
 10
179.220223
 20
377.571619
 30
0.0
 11
202.940902
 21
377.571619
 31
0.0
  0
LINE
  5
A8A8
330
A58C
100
AcDbEntity
  8
1
  6
Continuous
100
AcDbLine
 10
174.720206
 20
411.8716089999998
 30
0.0
 11
179.220223
 21
411.8716089999998
 31
0.0
  0
ARC
  5
A8A9
330
A58C
100
AcDbEntity
  8
1
  6
Continuous
100
AcDbCircle
 10
185.970223
 20
415.371601
 30
0.0
 40
2.0
100
AcDbArc
 50
90.0
 51
179.999982
  0
ARC
  5
A8AA
330
A58C
100
AcDbEntity
  8
1
  6
Continuous
100
AcDbCircle
 10
175.4417169999999
 20
413.6715989999998
 30
0.0
 40
2.0
100
AcDbArc
 50
90.0
 51
165.013725
  0
ARC
  5
A8AB
330
A58C
100
AcDbEntity
  8
1
  6
Continuous
100
AcDbCircle
 10
176.0336619999999
 20
413.6715989999998
 30
0.0
 40
1.0
100
AcDbArc
 50
90.0
 51
165.013725
  0
LINE
  5
A8AC
330
A58C
100
AcDbEntity
  8
1
  6
Continuous
100
AcDbLine
 10
176.019785
 20
411.8631179999998
 30
0.0
 11
176.7715939999999
 21
414.671599
 31
0.0
  0
LINE
  5
A8AD
330
A58C
100
AcDbEntity
  8
1
  6
Continuous
100
AcDbLine
 10
174.514335
 20
411.8631179999998
 30
0.0
 11
175.067674
 21
413.9301859999998
 31
0.0
  0
LINE
  5
A8AE
330
A58C
100
AcDbEntity
  8
1
  6
Continuous
100
AcDbLine
 10
172.554575
 20
410.620625
 30
0.0
 11
173.5097419999999
 21
414.188774
 31
0.0
  0
LINE
  5
A8AF
330
A58C
100
AcDbEntity
  8
1
  6
Continuous
100
AcDbLine
 10
179.262081
 20
415.671599
 30
0.0
 11
179.262081
 21
414.671599
 31
0.0
  0
LINE
  5
A8B0
330
A58C
100
AcDbEntity
  8
1
  6
Continuous
100
AcDbLine
 10
176.7715939999999
 20
415.671599
 30
0.0
 11
176.7715939999999
 21
414.671599
 31
0.0
  0
LINE
  5
A8B1
330
A58C
100
AcDbEntity
  8
1
  6
Continuous
100
AcDbLine
 10
179.262081
 20
415.671599
 30
0.0
 11
179.262081
 21
414.671599
 31
0.0
  0
LINE
  5
A8B2
330
A58C
100
AcDbEntity
  8
1
  6
Continuous
100
AcDbLine
 10
176.0336619999999
 20
414.671599
 30
0.0
 11
179.262081
 21
414.671599
 31
0.0
  0
LINE
  5
A8B3
330
A58C
100
AcDbEntity
  8
1
  6
Continuous
100
AcDbLine
 10
175.4417169999999
 20
415.671599
 30
0.0
 11
179.262081
 21
415.671599
 31
0.0
  0
ARC
  5
A8B4
330
A58C
100
AcDbEntity
  8
1
  6
Continuous
100
AcDbCircle
 10
174.720206
 20
409.371609
 30
0.0
 40
2.5
100
AcDbArc
 50
90.0
 51
180.0
  0
LINE
  5
A8B5
330
A58C
100
AcDbEntity
  8
1
  6
Continuous
100
AcDbLine
 10
179.220223
 20
411.8716089999998
 30
0.0
 11
179.220223
 21
414.1715989999998
 31
0.0
  0
LINE
  5
A8B6
330
A58C
100
AcDbEntity
  8
1
  6
Continuous
100
AcDbLine
 10
183.970223
 20
414.171604
 30
0.0
 11
183.970223
 21
415.371601
 31
0.0
  0
LINE
  5
A8B7
330
A58C
100
AcDbEntity
  8
1
  6
Continuous
100
AcDbLine
 10
200.1896079999999
 20
415.671599
 30
0.0
 11
200.1896079999999
 21
414.671599
 31
0.0
  0
ARC
  5
A8B8
330
A58C
100
AcDbEntity
  8
1
  6
Continuous
100
AcDbCircle
 10
194.470223
 20
415.371601
 30
0.0
 40
2.0
100
AcDbArc
 50
0.00002
 51
90.0
  0
LINE
  5
A8B9
330
A58C
100
AcDbEntity
  8
1
  6
Continuous
100
AcDbLine
 10
185.970223
 20
417.3716009999997
 30
0.0
 11
194.470223
 21
417.3716009999997
 31
0.0
  0
LINE
  5
A8BA
330
A58C
100
AcDbEntity
  8
1
  6
Continuous
100
AcDbLine
 10
196.470223
 20
414.171604
 30
0.0
 11
196.470223
 21
415.371601
 31
0.0
  0
ARC
  5
A8BB
330
A58C
100
AcDbEntity
  8
1
  6
Continuous
100
AcDbCircle
 10
202.9887389999999
 20
413.6715989999998
 30
0.0
 40
2.0
100
AcDbArc
 50
49.82084
 51
90.0
  0
ARC
  5
A8BC
330
A58C
100
AcDbEntity
  8
1
  6
Continuous
100
AcDbCircle
 10
202.061707
 20
414.671599
 30
0.0
 40
1.0
100
AcDbArc
 50
47.02379599999999
 51
90.0
  0
ARC
  5
A8BD
330
A58C
100
AcDbEntity
  8
1
  6
Continuous
100
AcDbCircle
 10
202.0325339999998
 20
413.6715989999998
 30
0.0
 40
1.0
100
AcDbArc
 50
44.15845
 51
90.0
  0
LINE
  5
A8BE
330
A58C
100
AcDbEntity
  8
1
  6
Continuous
100
AcDbLine
 10
202.74995
 20
414.368244
 30
0.0
 11
202.9408919999999
 21
414.171609
 31
0.0
  0
LINE
  5
A8BF
330
A58C
100
AcDbEntity
  8
1
  6
Continuous
100
AcDbLine
 10
202.743402
 20
415.403236
 30
0.0
 11
204.047211
 21
414.188426
 31
0.0
  0
LINE
  5
A8C0
330
A58C
100
AcDbEntity
  8
1
  6
Continuous
100
AcDbLine
 10
204.2790989999998
 20
415.19966
 30
0.0
 11
205.1605099999999
 21
414.455359
 31
0.0
  0
ARC
  5
A8C1
330
A58C
100
AcDbEntity
  8
1
  6
Continuous
100
AcDbCircle
 10
203.680793
 20
418.1715989999998
 30
0.0
 40
4.0
100
AcDbArc
 50
291.7112559999998
 51
309.7389469999999
  0
LINE
  5
A8C2
330
A58C
100
AcDbEntity
  8
1
  6
Continuous
100
AcDbLine
 10
209.4041949999999
 20
182.331639
 30
0.0
 11
223.8450089999997
 21
173.994232
 31
0.0
  0
LINE
  5
A8C3
330
A58C
100
AcDbEntity
  8
1
  6
Continuous
100
AcDbLine
 10
224.7505759999999
 20
180.399607
 30
0.0
 11
226.8450089999999
 21
179.1903859999999
 31
0.0
  0
LINE
  5
A8C4
330
A58C
100
AcDbEntity
  8
1
  6
Continuous
100
AcDbLine
 10
206.614179
 20
202.872558
 30
0.0
 11
226.8450089999999
 21
214.5528319999999
 31
0.0
  0
LINE
  5
A8C5
330
A58C
100
AcDbEntity
  8
1
  6
Continuous
100
AcDbLine
 10
212.116696
 20
212.977641
 30
0.0
 11
223.8450089999997
 21
219.7489859999997
 31
0.0
  0
ARC
  5
A8C6
330
A58C
100
AcDbEntity
  8
1
  6
Continuous
100
AcDbCircle
 10
190.220223
 20
196.871609
 30
0.0
 40
44.0
100
AcDbArc
 50
98.390366
 51
136.1670479999999
  0
ARC
  5
A8C7
330
A58C
100
AcDbEntity
  8
1
  6
Continuous
100
AcDbCircle
 10
190.220223
 20
196.871609
 30
0.0
 40
50.0
100
AcDbArc
 50
96.62188700000001
 51
138.1591709999999
  0
LINE
  5
A8C8
330
A58C
100
AcDbEntity
  8
1
  6
Continuous
100
AcDbLine
 10
153.595446
 20
214.5528319999999
 30
0.0
 11
166.0869289999999
 21
207.3408709999999
 31
0.0
  0
LINE
  5
A8C9
330
A58C
100
AcDbEntity
  8
1
  6
Continuous
100
AcDbLine
 10
142.3363649999997
 20
383.3716089999999
 30
0.0
 11
181.425634
 21
383.3716089999999
 31
0.0
  0
LINE
  5
A8CA
330
A58C
100
AcDbEntity
  8
1
  6
Continuous
100
AcDbLine
 10
142.3363649999997
 20
408.371609
 30
0.0
 11
181.425634
 21
408.371609
 31
0.0
  0
LINE
  5
A8CB
330
A58C
100
AcDbEntity
  8
1
  6
Continuous
100
AcDbLine
 10
181.220223
 20
380.8716089999998
 30
0.0
 11
181.6434489999998
 21
380.8716089999998
 31
0.0
  0
LINE
  5
A8CC
330
A58C
100
AcDbEntity
  8
1
  6
Continuous
100
AcDbLine
 10
153.595446
 20
179.1903859999999
 30
0.0
 11
177.3020779999999
 21
192.8774159999999
 31
0.0
  0
ARC
  5
A8CD
330
A58C
100
AcDbEntity
  8
1
  6
Continuous
100
AcDbCircle
 10
152.0954439999998
 20
181.7884629999998
 30
0.0
 40
3.0
100
AcDbArc
 50
201.58502
 51
299.9999899999999
  0
LINE
  5
A8CE
330
A58C
100
AcDbEntity
  8
1
  6
Continuous
100
AcDbLine
 10
187.220223
 20
185.3390469999999
 30
0.0
 11
187.220223
 21
156.313008
 31
0.0
  0
LINE
  5
A8CF
330
A58C
100
AcDbEntity
  8
1
  6
Continuous
100
AcDbLine
 10
193.220223
 20
183.989178
 30
0.0
 11
193.220223
 21
156.313008
 31
0.0
  0
ARC
  5
A8D0
330
A58C
100
AcDbEntity
  8
1
  6
Continuous
100
AcDbCircle
 10
184.220223
 20
156.313008
 30
0.0
 40
3.0
100
AcDbArc
 50
261.58499
 51
0.0
  0
ARC
  5
A8D1
330
A58C
100
AcDbEntity
  8
1
  6
Continuous
100
AcDbCircle
 10
196.220223
 20
156.313008
 30
0.0
 40
3.0
100
AcDbArc
 50
179.9999799999999
 51
278.4149799999999
  0
LINE
  5
A8D2
330
A58C
100
AcDbEntity
  8
1
  6
Continuous
100
AcDbLine
 10
156.595446
 20
173.994232
 30
0.0
 11
181.44255
 21
188.3397139999999
 31
0.0
  0
ARC
  5
A8D3
330
A58C
100
AcDbEntity
  8
1
  6
Continuous
100
AcDbCircle
 10
158.095444
 20
171.3961569999999
 30
0.0
 40
3.0
100
AcDbArc
 50
119.9999999999999
 51
218.4149399999999
  0
LINE
  5
A8D4
330
A58C
100
AcDbEntity
  8
1
  6
Continuous
100
AcDbLine
 10
175.4725
 20
190.6664089999999
 30
0.0
 11
177.8766919999999
 21
192.05447
 31
0.0
  0
LINE
  5
A8D5
330
A58C
100
AcDbEntity
  8
1
  6
Continuous
100
AcDbLine
 10
177.4725
 20
187.202306
 30
0.0
 11
180.631629
 21
189.026229
 31
0.0
  0
ARC
  5
A8D6
330
A58C
100
AcDbEntity
  8
1
  6
Continuous
100
AcDbCircle
 10
190.220223
 20
196.871609
 30
0.0
 40
16.0
100
AcDbArc
 50
202.8192199999999
 51
217.1807299999999
  0
ARC
  5
A8D7
330
A58C
100
AcDbEntity
  8
1
  6
Continuous
100
AcDbCircle
 10
240.2202229999998
 20
395.8716089999999
 30
0.0
 40
100.0
100
AcDbArc
 50
173.588108
 51
186.4119109999999
  0
LINE
  5
A8D8
330
A58C
100
AcDbEntity
  8
1
  6
Continuous
100
AcDbLine
 10
180.2229759999999
 20
381.797436
 30
0.0
 11
180.1058989999999
 21
383.371617
 31
0.0
  0
ARC
  5
A8D9
330
A58C
100
AcDbEntity
  8
1
  6
Continuous
100
AcDbCircle
 10
181.220223
 20
381.8716089999999
 30
0.0
 40
1.0
100
AcDbArc
 50
184.253503
 51
270.00002
  0
ARC
  5
A8DA
330
A58C
100
AcDbEntity
  8
1
  6
Continuous
100
AcDbCircle
 10
142.3363649999997
 20
384.8716089999999
 30
0.0
 40
1.5
100
AcDbArc
 50
186.4118969999998
 51
270.00002
  0
ARC
  5
A8DB
330
A58C
100
AcDbEntity
  8
1
  6
Continuous
100
AcDbCircle
 10
142.3363649999997
 20
406.8716089999998
 30
0.0
 40
1.5
100
AcDbArc
 50
90.0
 51
173.588121
  0
ARC
  5
A8DC
330
A58C
100
AcDbEntity
  8
1
  6
Continuous
100
AcDbCircle
 10
152.0954439999998
 20
211.9547549999999
 30
0.0
 40
3.0
100
AcDbArc
 50
60.00000799999997
 51
158.41498
  0
ARC
  5
A8DD
330
A58C
100
AcDbEntity
  8
1
  6
Continuous
100
AcDbCircle
 10
158.095444
 20
222.347061
 30
0.0
 40
3.0
100
AcDbArc
 50
141.5850399999999
 51
225.7448899999999
  0
ARC
  5
A8DE
330
A58C
100
AcDbEntity
  8
1
  6
Continuous
100
AcDbCircle
 10
228.345002
 20
181.788462
 30
0.0
 40
3.0
100
AcDbArc
 50
239.99997
 51
338.41497
  0
ARC
  5
A8DF
330
A58C
100
AcDbEntity
  8
1
  6
Continuous
100
AcDbCircle
 10
222.345002
 20
171.3961569999999
 30
0.0
 40
3.0
100
AcDbArc
 50
321.5849999999998
 51
60.000015
  0
ARC
  5
A8E0
330
A58C
100
AcDbEntity
  8
1
  6
Continuous
100
AcDbCircle
 10
222.345002
 20
222.347061
 30
0.0
 40
3.0
100
AcDbArc
 50
299.9999799999999
 51
38.41499499999999
  0
ARC
  5
A8E1
330
A58C
100
AcDbEntity
  8
1
  6
Continuous
100
AcDbCircle
 10
228.345002
 20
211.9547559999999
 30
0.0
 40
3.0
100
AcDbArc
 50
21.585028
 51
120.00003
  0
LINE
  5
A8E2
330
A58C
100
AcDbEntity
  8
1
  6
Continuous
100
AcDbLine
 10
69.720223
 20
244.7554669999999
 30
0.0
 11
69.720223
 21
148.987751
 31
0.0
  0
LINE
  5
A8E3
330
A58C
100
AcDbEntity
  8
1
  6
Continuous
100
AcDbLine
 10
44.72022299999999
 20
244.7554669999999
 30
0.0
 11
44.72022299999999
 21
148.987751
 31
0.0
  0
ARC
  5
A8E4
330
A58C
100
AcDbEntity
  8
1
  6
Continuous
100
AcDbCircle
 10
57.22022299999999
 20
246.871609
 30
0.0
 40
100.0
100
AcDbArc
 50
263.5880899999999
 51
276.4118899999999
  0
ARC
  5
A8E5
330
A58C
100
AcDbEntity
  8
1
  6
Continuous
100
AcDbCircle
 10
46.220223
 20
148.987751
 30
0.0
 40
1.5
100
AcDbArc
 50
179.9999799999999
 51
263.5880899999999
  0
ARC
  5
A8E6
330
A58C
100
AcDbEntity
  8
1
  6
Continuous
100
AcDbCircle
 10
68.220223
 20
148.987751
 30
0.0
 40
1.5
100
AcDbArc
 50
276.4118799999998
 51
0.0
  0
LINE
  5
A8E7
330
A58C
100
AcDbEntity
  8
1
  6
Continuous
100
AcDbLine
 10
72.220223
 20
205.8716089999998
 30
0.0
 11
72.220223
 21
187.871609
 31
0.0
  0
ARC
  5
A8E8
330
A58C
100
AcDbEntity
  8
1
  6
Continuous
100
AcDbCircle
 10
71.22022300000002
 20
187.871609
 30
0.0
 40
1.0
100
AcDbArc
 50
274.2534799999999
 51
0.0
  0
LINE
  5
A8E9
330
A58C
100
AcDbEntity
  8
1
  6
Continuous
100
AcDbLine
 10
71.29439599999997
 20
186.8743629999999
 30
0.0
 11
69.720223
 21
186.7572859999999
 31
0.0
  0
ARC
  5
A8EA
330
A58C
100
AcDbEntity
  8
1
  6
Continuous
100
AcDbCircle
 10
71.22022300000002
 20
205.8716089999998
 30
0.0
 40
1.0
100
AcDbArc
 50
0.0
 51
85.74651600000001
  0
LINE
  5
A8EB
330
A58C
100
AcDbEntity
  8
1
  6
Continuous
100
AcDbLine
 10
71.29439599999997
 20
206.868855
 30
0.0
 11
69.720223
 21
206.9859319999999
 31
0.0
  0
ARC
  5
A8EC
330
A58C
100
AcDbEntity
  8
1
  6
Continuous
100
AcDbCircle
 10
68.220223
 20
244.7554669999999
 30
0.0
 40
1.5
100
AcDbArc
 50
0.0
 51
83.58812099999999
  0
ARC
  5
A8ED
330
A58C
100
AcDbEntity
  8
1
  6
Continuous
100
AcDbCircle
 10
46.220223
 20
244.7554669999999
 30
0.0
 40
1.5
100
AcDbArc
 50
96.41189699999999
 51
180.00002
  0
ARC
  5
A8EE
330
A58C
100
AcDbEntity
  8
1
  6
Continuous
100
AcDbCircle
 10
57.22022299999999
 20
146.871609
 30
0.0
 40
100.0
100
AcDbArc
 50
83.58810799999998
 51
96.411911
  0
LINE
  5
A8EF
330
A58C
100
AcDbEntity
  8
1
  6
Continuous
100
AcDbLine
 10
43.720223
 20
218.2716089999999
 30
0.0
 11
43.720223
 21
175.471609
 31
0.0
  0
LINE
  5
A8F0
330
A58C
100
AcDbEntity
  8
1
  6
Continuous
100
AcDbLine
 10
43.720223
 20
218.2716089999999
 30
0.0
 11
44.72022299999999
 21
218.2716089999999
 31
0.0
  0
LINE
  5
A8F1
330
A58C
100
AcDbEntity
  8
1
  6
Continuous
100
AcDbLine
 10
43.720223
 20
175.471609
 30
0.0
 11
44.72022299999999
 21
175.471609
 31
0.0
  0
LINE
  5
A8F2
330
A58C
100
AcDbEntity
  8
1
  6
Continuous
100
AcDbLine
 10
335.8197999999998
 20
218.2716249999999
 30
0.0
 11
335.8197999999998
 21
175.4716249999999
 31
0.0
  0
LINE
  5
A8F3
330
A58C
100
AcDbEntity
  8
1
  6
Continuous
100
AcDbLine
 10
335.8197999999998
 20
175.4716249999999
 30
0.0
 11
334.8198
 21
175.4716249999999
 31
0.0
  0
LINE
  5
A8F4
330
A58C
100
AcDbEntity
  8
1
  6
Continuous
100
AcDbLine
 10
335.8197999999998
 20
218.2716249999999
 30
0.0
 11
334.8198
 21
218.2716249999999
 31
0.0
  0
LINE
  5
A8F5
330
A58C
100
AcDbEntity
  8
1
  6
Continuous
100
AcDbLine
 10
309.8198
 20
244.755483
 30
0.0
 11
309.8198
 21
148.987767
 31
0.0
  0
LINE
  5
A8F6
330
A58C
100
AcDbEntity
  8
1
  6
Continuous
100
AcDbLine
 10
334.8198
 20
244.755483
 30
0.0
 11
334.8198
 21
148.987767
 31
0.0
  0
ARC
  5
A8F7
330
A58C
100
AcDbEntity
  8
1
  6
Continuous
100
AcDbCircle
 10
322.3198
 20
246.8716249999999
 30
0.0
 40
100.0
100
AcDbArc
 50
263.5880899999999
 51
276.4118899999999
  0
ARC
  5
A8F8
330
A58C
100
AcDbEntity
  8
1
  6
Continuous
100
AcDbCircle
 10
311.3198
 20
148.987767
 30
0.0
 40
1.5
100
AcDbArc
 50
179.9999799999999
 51
263.5880899999999
  0
ARC
  5
A8F9
330
A58C
100
AcDbEntity
  8
1
  6
Continuous
100
AcDbCircle
 10
333.3197999999998
 20
148.987767
 30
0.0
 40
1.5
100
AcDbArc
 50
276.4118799999998
 51
0.0
  0
LINE
  5
A8FA
330
A58C
100
AcDbEntity
  8
1
  6
Continuous
100
AcDbLine
 10
307.3198
 20
205.8716249999999
 30
0.0
 11
307.3198
 21
187.871625
 31
0.0
  0
ARC
  5
A8FB
330
A58C
100
AcDbEntity
  8
1
  6
Continuous
100
AcDbCircle
 10
308.3197999999998
 20
187.871625
 30
0.0
 40
1.0
100
AcDbArc
 50
179.9999799999999
 51
265.74649
  0
LINE
  5
A8FC
330
A58C
100
AcDbEntity
  8
1
  6
Continuous
100
AcDbLine
 10
308.245627
 20
186.874379
 30
0.0
 11
309.819808
 21
186.757301
 31
0.0
  0
ARC
  5
A8FD
330
A58C
100
AcDbEntity
  8
1
  6
Continuous
100
AcDbCircle
 10
308.3197999999998
 20
205.8716249999999
 30
0.0
 40
1.0
100
AcDbArc
 50
94.25350299999999
 51
180.00002
  0
LINE
  5
A8FE
330
A58C
100
AcDbEntity
  8
1
  6
Continuous
100
AcDbLine
 10
308.245627
 20
206.8688719999999
 30
0.0
 11
309.819808
 21
206.985949
 31
0.0
  0
ARC
  5
A8FF
330
A58C
100
AcDbEntity
  8
1
  6
Continuous
100
AcDbCircle
 10
322.3198
 20
146.8716249999999
 30
0.0
 40
100.0
100
AcDbArc
 50
83.58810799999998
 51
96.411911
  0
ARC
  5
A900
330
A58C
100
AcDbEntity
  8
1
  6
Continuous
100
AcDbCircle
 10
311.3198
 20
244.755483
 30
0.0
 40
1.5
100
AcDbArc
 50
96.41189699999999
 51
180.00002
  0
ARC
  5
A901
330
A58C
100
AcDbEntity
  8
1
  6
Continuous
100
AcDbCircle
 10
333.3197999999998
 20
244.755483
 30
0.0
 40
1.5
100
AcDbArc
 50
0.0
 51
83.58812099999999
  0
ARC
  5
A902
330
A58C
100
AcDbEntity
  8
1
  6
Continuous
100
AcDbCircle
 10
140.220223
 20
73.87160899999997
 30
0.0
 40
100.0
100
AcDbArc
 50
353.5880899999999
 51
6.411889999999998
  0
ARC
  5
A903
330
A58C
100
AcDbEntity
  8
1
  6
Continuous
100
AcDbCircle
 10
240.2202229999998
 20
73.87160899999997
 30
0.0
 40
100.0
100
AcDbArc
 50
173.588108
 51
186.4119109999999
  0
LINE
  5
A904
330
A58C
100
AcDbEntity
  8
1
  6
Continuous
100
AcDbLine
 10
142.3363649999997
 20
61.371609
 30
0.0
 11
238.104081
 21
61.371609
 31
0.0
  0
ARC
  5
A905
330
A58C
100
AcDbEntity
  8
1
  6
Continuous
100
AcDbCircle
 10
142.3363649999997
 20
62.87160899999999
 30
0.0
 40
1.5
100
AcDbArc
 50
186.4118969999998
 51
270.00002
  0
ARC
  5
A906
330
A58C
100
AcDbEntity
  8
1
  6
Continuous
100
AcDbCircle
 10
238.104081
 20
62.87160899999999
 30
0.0
 40
1.5
100
AcDbArc
 50
269.99998
 51
353.5880899999999
  0
LINE
  5
A907
330
A58C
100
AcDbEntity
  8
1
  6
Continuous
100
AcDbLine
 10
142.3363649999997
 20
86.37160899999996
 30
0.0
 11
238.104081
 21
86.37160899999996
 31
0.0
  0
ARC
  5
A908
330
A58C
100
AcDbEntity
  8
1
  6
Continuous
100
AcDbCircle
 10
142.3363649999997
 20
84.87160899999997
 30
0.0
 40
1.5
100
AcDbArc
 50
90.0
 51
173.588121
  0
LINE
  5
A909
330
A58C
100
AcDbEntity
  8
1
  6
Continuous
100
AcDbLine
 10
181.220223
 20
88.87160899999996
 30
0.0
 11
199.220223
 21
88.87160899999996
 31
0.0
  0
ARC
  5
A90A
330
A58C
100
AcDbEntity
  8
1
  6
Continuous
100
AcDbCircle
 10
181.220223
 20
87.87160899999998
 30
0.0
 40
1.0
100
AcDbArc
 50
90.0
 51
175.7465159999999
  0
LINE
  5
A90B
330
A58C
100
AcDbEntity
  8
1
  6
Continuous
100
AcDbLine
 10
180.2229769999999
 20
87.94578199999998
 30
0.0
 11
180.1059
 21
86.37160899999996
 31
0.0
  0
ARC
  5
A90C
330
A58C
100
AcDbEntity
  8
1
  6
Continuous
100
AcDbCircle
 10
199.220223
 20
87.87160899999998
 30
0.0
 40
1.0
100
AcDbArc
 50
4.253479999999997
 51
90.0
  0
LINE
  5
A90D
330
A58C
100
AcDbEntity
  8
1
  6
Continuous
100
AcDbLine
 10
200.2174689999999
 20
87.94578199999998
 30
0.0
 11
200.3345459999999
 21
86.37160899999996
 31
0.0
  0
ARC
  5
A90E
330
A58C
100
AcDbEntity
  8
1
  6
Continuous
100
AcDbCircle
 10
238.104081
 20
84.87160899999997
 30
0.0
 40
1.5
100
AcDbArc
 50
6.41188
 51
90.0
  0
LINE
  5
A90F
330
A58C
100
AcDbEntity
  8
1
  6
Continuous
100
AcDbLine
 10
168.8202229999999
 20
60.37160899999999
 30
0.0
 11
211.620223
 21
60.37160899999999
 31
0.0
  0
LINE
  5
A910
330
A58C
100
AcDbEntity
  8
1
  6
Continuous
100
AcDbLine
 10
168.8202229999999
 20
60.37160899999999
 30
0.0
 11
168.8202229999999
 21
61.371609
 31
0.0
  0
LINE
  5
A911
330
A58C
100
AcDbEntity
  8
1
  6
Continuous
100
AcDbLine
 10
211.620223
 20
60.37160899999999
 30
0.0
 11
211.620223
 21
61.371609
 31
0.0
  0
LINE
  5
A912
330
A58C
100
AcDbEntity
  8
1
  6
Continuous
100
AcDbLine
 10
168.8202229999999
 20
409.371609
 30
0.0
 11
168.8202229999999
 21
408.371609
 31
0.0
  0
LINE
  5
A913
330
A58C
100
AcDbEntity
  8
1
  6
Continuous
100
AcDbLine
 10
168.8202229999999
 20
409.371609
 30
0.0
 11
181.5079719999999
 21
409.371609
 31
0.0
  0
LINE
  5
A914
330
A58C
100
AcDbEntity
  8
1
  6
Continuous
100
AcDbLine
 10
408.5954459999999
 20
219.7489859999997
 30
0.0
 11
420.3237459999998
 21
212.977649
 31
0.0
  0
ARC
  5
A915
330
A58C
100
AcDbEntity
  8
1
  6
Continuous
100
AcDbCircle
 10
442.2202229999999
 20
196.871609
 30
0.0
 40
50.0
100
AcDbArc
 50
132.5014879999999
 51
83.378113
  0
ARC
  5
A916
330
A58C
100
AcDbEntity
  8
1
  6
Continuous
100
AcDbCircle
 10
442.2202229999999
 20
196.871609
 30
0.0
 40
44.0
100
AcDbArc
 50
134.2699669999997
 51
81.60963399999998
  0
LINE
  5
A917
330
A58C
100
AcDbEntity
  8
1
  6
Continuous
100
AcDbLine
 10
459.070157
 20
210.0640209999999
 30
0.0
 11
475.845009
 21
219.7489859999997
 31
0.0
  0
LINE
  5
A918
330
A58C
100
AcDbEntity
  8
1
  6
Continuous
100
AcDbLine
 10
408.5954459999999
 20
173.994232
 30
0.0
 11
425.370292
 21
183.6791939999999
 31
0.0
  0
LINE
  5
A919
330
A58C
100
AcDbEntity
  8
1
  6
Continuous
100
AcDbLine
 10
445.220223
 20
175.6829329999999
 30
0.0
 11
445.220223
 21
156.313008
 31
0.0
  0
LINE
  5
A91A
330
A58C
100
AcDbEntity
  8
1
  6
Continuous
100
AcDbLine
 10
439.2202229999998
 20
175.6829329999999
 30
0.0
 11
439.2202229999998
 21
156.313008
 31
0.0
  0
ARC
  5
A91B
330
A58C
100
AcDbEntity
  8
1
  6
Continuous
100
AcDbCircle
 10
410.0954439999998
 20
171.3961569999999
 30
0.0
 40
3.0
100
AcDbArc
 50
119.9999999999999
 51
218.4149399999999
  0
ARC
  5
A91C
330
A58C
100
AcDbEntity
  8
1
  6
Continuous
100
AcDbCircle
 10
448.2202229999998
 20
156.313008
 30
0.0
 40
3.0
100
AcDbArc
 50
179.9999799999999
 51
278.4149799999999
  0
ARC
  5
A91D
330
A58C
100
AcDbEntity
  8
1
  6
Continuous
100
AcDbCircle
 10
436.220223
 20
156.313008
 30
0.0
 40
3.0
100
AcDbArc
 50
261.58499
 51
0.0
  0
LINE
  5
A91E
330
A58C
100
AcDbEntity
  8
1
  6
Continuous
100
AcDbLine
 10
405.5954459999998
 20
179.1903859999999
 30
0.0
 11
422.370291
 21
188.875347
 31
0.0
  0
LINE
  5
A91F
330
A58C
100
AcDbEntity
  8
1
  6
Continuous
100
AcDbLine
 10
405.5954459999998
 20
214.5528319999999
 30
0.0
 11
422.370291
 21
204.8678709999999
 31
0.0
  0
ARC
  5
A920
330
A58C
100
AcDbEntity
  8
1
  6
Continuous
100
AcDbCircle
 10
404.095444
 20
181.7884629999998
 30
0.0
 40
3.0
100
AcDbArc
 50
201.58502
 51
299.9999899999999
  0
ARC
  5
A921
330
A58C
100
AcDbEntity
  8
1
  6
Continuous
100
AcDbCircle
 10
404.095444
 20
211.9547549999999
 30
0.0
 40
3.0
100
AcDbArc
 50
60.00000799999997
 51
158.41498
  0
LINE
  5
A922
330
A58C
100
AcDbEntity
  8
1
  6
Continuous
100
AcDbLine
 10
459.070157
 20
183.6791969999999
 30
0.0
 11
475.845009
 21
173.994232
 31
0.0
  0
ARC
  5
A923
330
A58C
100
AcDbEntity
  8
1
  6
Continuous
100
AcDbCircle
 10
474.345002
 20
171.3961569999999
 30
0.0
 40
3.0
100
AcDbArc
 50
321.5849999999998
 51
60.000015
  0
ARC
  5
A924
330
A58C
100
AcDbEntity
  8
1
  6
Continuous
100
AcDbCircle
 10
480.3450019999998
 20
211.9547559999999
 30
0.0
 40
3.0
100
AcDbArc
 50
21.585028
 51
120.00003
  0
ARC
  5
A925
330
A58C
100
AcDbEntity
  8
1
  6
Continuous
100
AcDbCircle
 10
480.3450019999998
 20
181.788462
 30
0.0
 40
3.0
100
AcDbArc
 50
239.99997
 51
338.41497
  0
LINE
  5
A926
330
A58C
100
AcDbEntity
  8
1
  6
Continuous
100
AcDbLine
 10
462.0701559999998
 20
188.8753499999999
 30
0.0
 11
478.845009
 21
179.1903859999999
 31
0.0
  0
LINE
  5
A927
330
A58C
100
AcDbEntity
  8
1
  6
Continuous
100
AcDbLine
 10
462.0701559999998
 20
204.867867
 30
0.0
 11
478.845009
 21
214.5528319999999
 31
0.0
  0
ARC
  5
A928
330
A58C
100
AcDbEntity
  8
1
  6
Continuous
100
AcDbCircle
 10
410.0954439999998
 20
222.347061
 30
0.0
 40
3.0
100
AcDbArc
 50
141.5850399999999
 51
239.99998
  0
ARC
  5
A929
330
A58C
100
AcDbEntity
  8
1
  6
Continuous
100
AcDbCircle
 10
474.345002
 20
222.347061
 30
0.0
 40
3.0
100
AcDbArc
 50
299.9999799999999
 51
38.41499499999999
  0
ARC
  5
A92A
330
A58C
100
AcDbEntity
  8
1
  6
Continuous
100
AcDbCircle
 10
190.220223
 20
196.871609
 30
0.0
 40
44.0
100
AcDbArc
 50
348.632944
 51
45.73003299999998
  0
ARC
  5
A92B
330
A58C
100
AcDbEntity
  8
1
  6
Continuous
100
AcDbCircle
 10
190.220223
 20
196.871609
 30
0.0
 40
50.0
100
AcDbArc
 50
346.640821
 51
47.498512
  0
ARC
  5
A92C
330
A58C
100
AcDbEntity
  8
1
  6
Continuous
100
AcDbCircle
 10
190.220223
 20
196.871609
 30
0.0
 40
44.0
100
AcDbArc
 50
139.263569
 51
345.536427
  0
ARC
  5
A92D
330
A58C
100
AcDbEntity
  8
1
  6
Continuous
100
AcDbCircle
 10
190.220223
 20
196.871609
 30
0.0
 40
50.0
100
AcDbArc
 50
140.863151
 51
343.936842
  0
LINE
  5
A948
330
A58C
100
AcDbEntity
  8
4
  6
CENTER
100
AcDbLine
 10
348.819792
 20
196.8716249999999
 30
0.0
 11
285.117791
 21
196.8716249999999
 31
0.0
  0
LINE
  5
A9B3
330
A58C
100
AcDbEntity
  8
4
  6
CENTER
100
AcDbLine
 10
135.2202229999998
 20
73.87160899999997
 30
0.0
 11
252.2202229999999
 21
73.87160899999997
 31
0.0
  0
LINE
  5
A9B4
330
A58C
100
AcDbEntity
  8
4
  6
CENTER
100
AcDbLine
 10
222.220223
 20
43.87160899999996
 30
0.0
 11
222.220223
 21
103.8716089999999
 31
0.0
  0
LINE
  5
A9B5
330
A58C
100
AcDbEntity
  8
4
  6
CENTER
100
AcDbLine
 10
190.220223
 20
47.371617
 30
0.0
 11
190.220223
 21
111.0736039999998
 31
0.0
  0
ARC
  5
AA5E
330
A58C
100
AcDbEntity
  8
1
  6
Continuous
100
AcDbCircle
 10
79.96012650596771
 20
185.4950368248849
 30
0.0
 40
3.263037498043361
100
AcDbArc
 50
241.2752894642744
 51
289.3107367962276
  0
ARC
  5
AA60
330
A58C
100
AcDbEntity
  8
1
  6
Continuous
100
AcDbCircle
 10
77.51198964186862
 20
185.8256258400351
 30
0.0
 40
3.597233620898943
100
AcDbArc
 50
247.8898430724103
 51
269.3153994883055
  0
ARC
  5
AA62
330
A58C
100
AcDbEntity
  8
1
  6
Continuous
100
AcDbCircle
 10
78.82022099999997
 20
183.5371810872664
 30
0.0
 40
1.0
100
AcDbArc
 50
180.0000050000005
 51
244.6392619999999
  0
ARC
  5
AA63
330
A58C
100
AcDbEntity
  8
1
  6
Continuous
100
AcDbCircle
 10
76.52022499999998
 20
183.4250290872663
 30
0.0
 40
1.0
100
AcDbArc
 50
180.0000050000005
 51
248.7650790000002
  0
ARC
  5
AAA8
330
A58C
100
AcDbEntity
  8
1
  6
Continuous
100
AcDbCircle
 10
297.9452092847197
 20
203.4213346679818
 30
0.0
 40
8.076972188960741
100
AcDbArc
 50
285.6176532835314
 51
308.5352621142378
  0
ARC
  5
AAB0
330
A58C
100
AcDbEntity
  8
1
  6
Continuous
100
AcDbCircle
 10
291.7769859986799
 20
211.1253408265056
 30
0.0
 40
3.276759551648488
100
AcDbArc
 50
343.516524594999
 51
40.95570610358577
  0
ARC
  5
AAB2
330
A58C
100
AcDbEntity
  8
1
  6
Continuous
100
AcDbCircle
 10
267.1445091289533
 20
216.8778291944021
 30
0.0
 40
28.56709281628317
100
AcDbArc
 50
328.5685671710016
 51
346.472406740823
  0
ARC
  5
AAB3
330
A58C
100
AcDbEntity
  8
1
  6
Continuous
100
AcDbCircle
 10
292.5245170008913
 20
209.0831251270841
 30
0.0
 40
2.640361048841534
100
AcDbArc
 50
24.91878909104865
 51
112.3662909278991
  0
ARC
  5
AAB7
330
A58C
100
AcDbEntity
  8
1
  6
Continuous
100
AcDbCircle
 10
292.5940248203783
 20
210.6698976031056
 30
0.0
 40
3.086223686604437
100
AcDbArc
 50
57.51326361905305
 51
110.3692722861516
  0
ENDSEC
  0
SECTION
  2
OBJECTS
  0
DICTIONARY
  5
A57A
330
0
100
AcDbDictionary
281
     1
  3
ACAD_CIP_PREVIOUS_PRODUCT_INFO
350
AB22
  3
ACAD_COLOR
350
AB04
  3
ACAD_DETAILVIEWSTYLE
350
AB1D
  3
ACAD_GROUP
350
A57B
  3
ACAD_LAYOUT
350
A587
  3
ACAD_MATERIAL
350
AAD2
  3
ACAD_MLEADERSTYLE
350
AB19
  3
ACAD_MLINESTYLE
350
A584
  3
ACAD_PLOTSETTINGS
350
A586
  3
ACAD_PLOTSTYLENAME
350
AAD0
  3
ACAD_SCALELIST
350
AB07
  3
ACAD_SECTIONVIEWSTYLE
350
AB1B
  3
ACAD_TABLESTYLE
350
AB05
  3
ACAD_VISUALSTYLE
350
AAEB
  3
ACDB_RECOMPOSE_DATA
350
AB40
  3
AcDbVariableDictionary
350
AB33
  3
DWGPROPS
350
AB41
  0
DICTIONARY
  5
AB23
330
A57E
100
AcDbDictionary
280
     1
281
     1
  3
ADSK_XREC_LAYER_RECONCILED
360
AB24
  0
DICTIONARY
  5
AB25
330
A594
100
AcDbDictionary
280
     1
281
     1
  3
ADSK_XREC_LAYER_RECONCILED
360
AB26
  0
DICTIONARY
  5
AB27
330
A595
100
AcDbDictionary
280
     1
281
     1
  3
ADSK_XREC_LAYER_RECONCILED
360
AB28
  0
DICTIONARY
  5
AB29
330
A596
100
AcDbDictionary
280
     1
281
     1
  3
ADSK_XREC_LAYER_RECONCILED
360
AB2A
  0
DICTIONARY
  5
AB2B
330
A597
100
AcDbDictionary
280
     1
281
     1
  3
ADSK_XREC_LAYER_RECONCILED
360
AB2C
  0
DICTIONARY
  5
AB2D
330
A598
100
AcDbDictionary
280
     1
281
     1
  3
ADSK_XREC_LAYER_RECONCILED
360
AB2E
  0
DICTIONARY
  5
AB2F
330
A599
100
AcDbDictionary
280
     1
281
     1
  3
ADSK_XREC_LAYER_RECONCILED
360
AB30
  0
DICTIONARY
  5
AB31
330
A59A
100
AcDbDictionary
280
     1
281
     1
  3
ADSK_XREC_LAYER_RECONCILED
360
AB32
  0
DICTIONARY
  5
A938
330
A58C
100
AcDbDictionary
281
     1
  3
ACAD_LAYOUTSELFREF
350
AACC
  0
DICTIONARY
  5
A936
330
A588
100
AcDbDictionary
281
     1
  3
ACAD_LAYOUTSELFREF
350
AACB
  0
XRECORD
  5
AB22
102
{ACAD_REACTORS
330
A57A
102
}
330
A57A
100
AcDbXrecord
280
     1
300
ACDLT
300
2014
300
ACDLT_F_S
  0
DICTIONARY
  5
AB04
102
{ACAD_REACTORS
330
A57A
102
}
330
A57A
100
AcDbDictionary
281
     1
  0
DICTIONARY
  5
AB1D
102
{ACAD_REACTORS
330
A57A
102
}
330
A57A
100
AcDbDictionary
281
     1
  3
Imperial24
350
AB1E
  0
DICTIONARY
  5
A57B
102
{ACAD_REACTORS
330
A57A
102
}
330
A57A
100
AcDbDictionary
281
     1
  0
DICTIONARY
  5
A587
102
{ACAD_REACTORS
330
A57A
102
}
330
A57A
100
AcDbDictionary
281
     1
  3
Model
350
AB1F
  3
レイアウト1
350
AB20
  0
DICTIONARY
  5
AAD2
102
{ACAD_REACTORS
330
A57A
102
}
330
A57A
100
AcDbDictionary
281
     1
  3
ByBlock
350
AADB
  3
ByLayer
350
AAD3
  3
Global
350
AAE3
  0
DICTIONARY
  5
AB19
102
{ACAD_REACTORS
330
A57A
102
}
330
A57A
100
AcDbDictionary
281
     1
  3
Standard
350
AB1A
  0
DICTIONARY
  5
A584
102
{ACAD_REACTORS
330
A57A
102
}
330
A57A
100
AcDbDictionary
281
     1
  3
STANDARD
350
A585
  0
DICTIONARY
  5
A586
102
{ACAD_REACTORS
330
A57A
102
}
330
A57A
100
AcDbDictionary
281
     1
  0
ACDBDICTIONARYWDFLT
  5
AAD0
102
{ACAD_REACTORS
330
A57A
102
}
330
A57A
100
AcDbDictionary
281
     1
  3
Normal
350
AAD1
100
AcDbDictionaryWithDefault
340
AAD1
  0
DICTIONARY
  5
AB07
102
{ACAD_REACTORS
330
A57A
102
}
330
A57A
100
AcDbDictionary
281
     1
  3
A0
350
AB08
  3
A1
350
AB09
  3
A2
350
AB0A
  3
A3
350
AB0B
  3
A4
350
AB0C
  3
A5
350
AB0D
  3
A6
350
AB0E
  3
A7
350
AB0F
  3
A8
350
AB10
  3
A9
350
AB11
  3
B0
350
AB12
  3
B1
350
AB13
  3
B2
350
AB14
  3
B3
350
AB15
  3
B4
350
AB16
  3
B5
350
AB17
  3
B6
350
AB18
  0
DICTIONARY
  5
AB1B
102
{ACAD_REACTORS
330
A57A
102
}
330
A57A
100
AcDbDictionary
281
     1
  3
Imperial24
350
AB1C
  0
DICTIONARY
  5
AB05
102
{ACAD_REACTORS
330
A57A
102
}
330
A57A
100
AcDbDictionary
281
     1
  3
Standard
350
AB06
  0
DICTIONARY
  5
AAEB
102
{ACAD_REACTORS
330
A57A
102
}
330
A57A
100
AcDbDictionary
281
     1
  3
2dWireframe
350
AAF1
  3
Basic
350
AAF0
  3
Brighten
350
AAF7
  3
ColorChange
350
AAFB
  3
Conceptual
350
AAF4
  3
Dim
350
AAF6
  3
EdgeColorOff
350
AB03
  3
Facepattern
350
AAFA
  3
Flat
350
AAEC
  3
FlatWithEdges
350
AAED
  3
Gouraud
350
AAEE
  3
GouraudWithEdges
350
AAEF
  3
Hidden
350
AAF3
  3
JitterOff
350
AB01
  3
Linepattern
350
AAF9
  3
OverhangOff
350
AB02
  3
Realistic
350
AAF5
  3
Shaded
350
AB00
  3
Shaded with edges
350
AAFF
  3
Shades of Gray
350
AAFC
  3
Sketchy
350
AAFD
  3
Thicken
350
AAF8
  3
Wireframe
350
AAF2
  3
X-Ray
350
AAFE
  0
XRECORD
  5
AB40
102
{ACAD_REACTORS
330
A57A
102
}
330
A57A
100
AcDbXrecord
280
     1
 90
        1
330
AB06
  0
DICTIONARY
  5
AB33
102
{ACAD_REACTORS
330
A57A
102
}
330
A57A
100
AcDbDictionary
281
     1
  3
CANNOSCALE
350
AB38
  3
CMLEADERSTYLE
350
AB35
  3
CTABLESTYLE
350
AB34
  3
CVIEWDETAILSTYLE
350
AB36
  3
CVIEWSECTIONSTYLE
350
AB37
  3
DIMASSOC
350
AB3B
  3
INDEXCTL
350
AB3A
  3
SORTENTS
350
AB39
  3
XCLIPFRAME
350
AB3C
  0
XRECORD
  5
AB41
102
{ACAD_REACTORS
330
A57A
102
}
330
A57A
100
AcDbXrecord
280
     1
  1
DWGPROPS COOKIE
  2

  3

  4

  6

  7

  8
Yoshitsune
  9

300
=
301
=
302
=
303
=
304
=
305
=
306
=
307
=
308
=
309
=
 40
0.0255030787037037
 41
2451301.42456088
 42
2457192.689814791
  1

 90
        0
  0
XRECORD
  5
AB24
102
{ACAD_REACTORS
330
AB23
102
}
330
AB23
100
AcDbXrecord
280
     1
290
     1
  0
XRECORD
  5
AB26
102
{ACAD_REACTORS
330
AB25
102
}
330
AB25
100
AcDbXrecord
280
     1
290
     1
  0
XRECORD
  5
AB28
102
{ACAD_REACTORS
330
AB27
102
}
330
AB27
100
AcDbXrecord
280
     1
290
     1
  0
XRECORD
  5
AB2A
102
{ACAD_REACTORS
330
AB29
102
}
330
AB29
100
AcDbXrecord
280
     1
290
     1
  0
XRECORD
  5
AB2C
102
{ACAD_REACTORS
330
AB2B
102
}
330
AB2B
100
AcDbXrecord
280
     1
290
     1
  0
XRECORD
  5
AB2E
102
{ACAD_REACTORS
330
AB2D
102
}
330
AB2D
100
AcDbXrecord
280
     1
290
     1
  0
XRECORD
  5
AB30
102
{ACAD_REACTORS
330
AB2F
102
}
330
AB2F
100
AcDbXrecord
280
     1
290
     1
  0
XRECORD
  5
AB32
102
{ACAD_REACTORS
330
AB31
102
}
330
AB31
100
AcDbXrecord
280
     1
290
     1
  0
XRECORD
  5
AACC
102
{ACAD_REACTORS
330
A938
102
}
330
A938
100
AcDbXrecord
280
     1
340
A58C
  0
XRECORD
  5
AACB
102
{ACAD_REACTORS
330
A936
102
}
330
A936
100
AcDbXrecord
280
     1
340
A588
  0
ACDBDETAILVIEWSTYLE
  5
AB1E
102
{ACAD_XDICTIONARY
360
AB79
102
}
102
{ACAD_REACTORS
330
AB1D
102
}
330
AB1D
100
AcDbModelDocViewStyle
 70
     0
  3
Imperial24
290
     0
100
AcDbDetailViewStyle
 70
     0
 71
     0
 90
        3
 71
     1
340
A57F
 40
0.24
340
0
 40
0.24
300

 40
0.36
280
     3
 71
     2
340
A583
 90
       25
 71
     3
340
A57F
 40
0.24
 90
        1
 40
0.75
 90
        1
300
%<\AcVar ViewType \f "%tc1">% %<\AcVar ViewDetailId>%\PSCALE %<\AcVar ViewScale \f "%sn">%
 71
     4
340
A583
 90
       25
340
A583
 90
       25
280
     0
  0
LAYOUT
  5
AB1F
102
{ACAD_XDICTIONARY
360
AB7B
102
}
102
{ACAD_REACTORS
330
A587
102
}
330
A587
100
AcDbPlotSettings
  1

  2
Canon LBP9100C
  4

  6

 40
0.0
 41
0.0
 42
0.0
 43
0.0
 44
0.0
 45
0.0
 46
0.0
 47
0.0
 48
0.0
 49
0.0
140
0.0
141
0.0
142
1.0
143
1.0
 70
  1712
 72
     0
 73
     0
 74
     0
  7

 75
     0
147
1.0
148
0.0
149
0.0
100
AcDbLayout
  1
Model
 70
     1
 71
     0
 10
0.0
 20
0.0
 11
12.0
 21
9.0
 12
0.0
 22
0.0
 32
0.0
 14
0.0
 24
0.0
 34
0.0
 15
0.0
 25
0.0
 35
0.0
146
0.0
 13
0.0
 23
0.0
 33
0.0
 16
1.0
 26
0.0
 36
0.0
 17
0.0
 27
1.0
 37
0.0
 76
     0
330
A58C
331
AACA
  0
LAYOUT
  5
AB20
102
{ACAD_XDICTIONARY
360
AB7D
102
}
102
{ACAD_REACTORS
330
A587
102
}
330
A587
100
AcDbPlotSettings
  1

  2
Canon LBP9100C
  4

  6

 40
0.0
 41
0.0
 42
0.0
 43
0.0
 44
0.0
 45
0.0
 46
0.0
 47
0.0
 48
0.0
 49
0.0
140
0.0
141
0.0
142
1.0
143
1.0
 70
   688
 72
     0
 73
     0
 74
     5
  7

 75
    16
147
1.0
148
0.0
149
0.0
100
AcDbLayout
  1
レイアウト1
 70
     0
 71
     1
 10
0.0
 20
0.0
 11
420.0
 21
297.0
 12
0.0
 22
0.0
 32
0.0
 14
1.000000000000000E+20
 24
1.000000000000000E+20
 34
1.000000000000000E+20
 15
-1.000000000000000E+20
 25
-1.000000000000000E+20
 35
-1.000000000000000E+20
146
0.0
 13
0.0
 23
0.0
 33
0.0
 16
1.0
 26
0.0
 36
0.0
 17
0.0
 27
1.0
 37
0.0
 76
     0
330
A588
  0
MATERIAL
  5
AADB
102
{ACAD_XDICTIONARY
360
AADC
102
}
102
{ACAD_REACTORS
330
AAD2
102
}
330
AAD2
100
AcDbMaterial
  1
ByBlock
 72
     0
 43
0.0208333333333333
 43
0.0
 43
0.0
 43
0.0
 43
0.0
 43
0.0208333333333333
 43
0.0
 43
0.0
 43
0.0
 43
0.0
 43
1.0
 43
0.0
 43
0.0
 43
0.0
 43
0.0
 43
1.0
 77
     0
 47
0.0208333333333333
 47
0.0
 47
0.0
 47
0.0
 47
0.0
 47
0.0208333333333333
 47
0.0
 47
0.0
 47
0.0
 47
0.0
 47
1.0
 47
0.0
 47
0.0
 47
0.0
 47
0.0
 47
1.0
171
     0
 49
0.0208333333333333
 49
0.0
 49
0.0
 49
0.0
 49
0.0
 49
0.0208333333333333
 49
0.0
 49
0.0
 49
0.0
 49
0.0
 49
1.0
 49
0.0
 49
0.0
 49
0.0
 49
0.0
 49
1.0
175
     0
142
0.0208333333333333
142
0.0
142
0.0
142
0.0
142
0.0
142
0.0208333333333333
142
0.0
142
0.0
142
0.0
142
0.0
142
1.0
142
0.0
142
0.0
142
0.0
142
0.0
142
1.0
179
     0
144
0.0208333333333333
144
0.0
144
0.0
144
0.0
144
0.0
144
0.0208333333333333
144
0.0
144
0.0
144
0.0
144
0.0
144
1.0
144
0.0
144
0.0
144
0.0
144
0.0
144
1.0
147
0.0208333333333333
147
0.0
147
0.0
147
0.0
147
0.0
147
0.0208333333333333
147
0.0
147
0.0
147
0.0
147
0.0
147
1.0
147
0.0
147
0.0
147
0.0
147
0.0
147
1.0
  0
MATERIAL
  5
AAD3
102
{ACAD_XDICTIONARY
360
AAD4
102
}
102
{ACAD_REACTORS
330
AAD2
102
}
330
AAD2
100
AcDbMaterial
  1
ByLayer
 72
     0
 43
0.0208333333333333
 43
0.0
 43
0.0
 43
0.0
 43
0.0
 43
0.0208333333333333
 43
0.0
 43
0.0
 43
0.0
 43
0.0
 43
1.0
 43
0.0
 43
0.0
 43
0.0
 43
0.0
 43
1.0
 77
     0
 47
0.0208333333333333
 47
0.0
 47
0.0
 47
0.0
 47
0.0
 47
0.0208333333333333
 47
0.0
 47
0.0
 47
0.0
 47
0.0
 47
1.0
 47
0.0
 47
0.0
 47
0.0
 47
0.0
 47
1.0
171
     0
 49
0.0208333333333333
 49
0.0
 49
0.0
 49
0.0
 49
0.0
 49
0.0208333333333333
 49
0.0
 49
0.0
 49
0.0
 49
0.0
 49
1.0
 49
0.0
 49
0.0
 49
0.0
 49
0.0
 49
1.0
175
     0
142
0.0208333333333333
142
0.0
142
0.0
142
0.0
142
0.0
142
0.0208333333333333
142
0.0
142
0.0
142
0.0
142
0.0
142
1.0
142
0.0
142
0.0
142
0.0
142
0.0
142
1.0
179
     0
144
0.0208333333333333
144
0.0
144
0.0
144
0.0
144
0.0
144
0.0208333333333333
144
0.0
144
0.0
144
0.0
144
0.0
144
1.0
144
0.0
144
0.0
144
0.0
144
0.0
144
1.0
147
0.0208333333333333
147
0.0
147
0.0
147
0.0
147
0.0
147
0.0208333333333333
147
0.0
147
0.0
147
0.0
147
0.0
147
1.0
147
0.0
147
0.0
147
0.0
147
0.0
147
1.0
  0
MATERIAL
  5
AAE3
102
{ACAD_XDICTIONARY
360
AAE4
102
}
102
{ACAD_REACTORS
330
AAD2
102
}
330
AAD2
100
AcDbMaterial
  1
Global
 72
     0
 43
0.0208333333333333
 43
0.0
 43
0.0
 43
0.0
 43
0.0
 43
0.0208333333333333
 43
0.0
 43
0.0
 43
0.0
 43
0.0
 43
1.0
 43
0.0
 43
0.0
 43
0.0
 43
0.0
 43
1.0
 77
     0
 47
0.0208333333333333
 47
0.0
 47
0.0
 47
0.0
 47
0.0
 47
0.0208333333333333
 47
0.0
 47
0.0
 47
0.0
 47
0.0
 47
1.0
 47
0.0
 47
0.0
 47
0.0
 47
0.0
 47
1.0
171
     0
 49
0.0208333333333333
 49
0.0
 49
0.0
 49
0.0
 49
0.0
 49
0.0208333333333333
 49
0.0
 49
0.0
 49
0.0
 49
0.0
 49
1.0
 49
0.0
 49
0.0
 49
0.0
 49
0.0
 49
1.0
175
     0
142
0.0208333333333333
142
0.0
142
0.0
142
0.0
142
0.0
142
0.0208333333333333
142
0.0
142
0.0
142
0.0
142
0.0
142
1.0
142
0.0
142
0.0
142
0.0
142
0.0
142
1.0
179
     0
144
0.0208333333333333
144
0.0
144
0.0
144
0.0
144
0.0
144
0.0208333333333333
144
0.0
144
0.0
144
0.0
144
0.0
144
1.0
144
0.0
144
0.0
144
0.0
144
0.0
144
1.0
147
0.0208333333333333
147
0.0
147
0.0
147
0.0
147
0.0
147
0.0208333333333333
147
0.0
147
0.0
147
0.0
147
0.0
147
1.0
147
0.0
147
0.0
147
0.0
147
0.0
147
1.0
  0
MLEADERSTYLE
  5
AB1A
102
{ACAD_REACTORS
330
AB19
102
}
330
AB19
100
AcDbMLeaderStyle
170
     2
171
     1
172
     0
 90
        2
 40
0.0
 41
0.0
173
     1
 91
-1056964608
340
A581
 92
       -2
290
     1
 42
0.09
291
     1
 43
0.36
  3
Standard
 44
0.18
300

342
A57F
174
     1
178
     6
175
     1
176
     0
 93
-1056964608
 45
0.18
292
     0
297
     0
 46
0.18
 94
-1056964608
 47
1.0
 49
1.0
140
1.0
293
     1
141
0.0
294
     1
177
     0
142
1.0
295
     0
296
     0
143
0.125
1001
ACAD_MLEADERVER
1070
     2
  0
MLINESTYLE
  5
A585
102
{ACAD_REACTORS
330
A584
102
}
330
A584
100
AcDbMlineStyle
  2
STANDARD
 70
     0
  3

 62
   256
 51
90.0
 52
90.0
 71
     2
 49
0.5
 62
   256
  6
BYLAYER
 49
-0.5
 62
   256
  6
BYLAYER
  0
ACDBPLACEHOLDER
  5
AAD1
102
{ACAD_REACTORS
330
AAD0
102
}
330
AAD0
  0
SCALE
  5
AB08
102
{ACAD_REACTORS
330
AB07
102
}
330
AB07
100
AcDbScale
 70
     0
300
1:1
140
1.0
141
1.0
290
     1
  0
SCALE
  5
AB09
102
{ACAD_REACTORS
330
AB07
102
}
330
AB07
100
AcDbScale
 70
     0
300
1/128" = 1'-0"
140
0.0078125
141
12.0
290
     0
  0
SCALE
  5
AB0A
102
{ACAD_REACTORS
330
AB07
102
}
330
AB07
100
AcDbScale
 70
     0
300
1/64" = 1'-0"
140
0.015625
141
12.0
290
     0
  0
SCALE
  5
AB0B
102
{ACAD_REACTORS
330
AB07
102
}
330
AB07
100
AcDbScale
 70
     0
300
1/32" = 1'-0"
140
0.03125
141
12.0
290
     0
  0
SCALE
  5
AB0C
102
{ACAD_REACTORS
330
AB07
102
}
330
AB07
100
AcDbScale
 70
     0
300
1/16" = 1'-0"
140
0.0625
141
12.0
290
     0
  0
SCALE
  5
AB0D
102
{ACAD_REACTORS
330
AB07
102
}
330
AB07
100
AcDbScale
 70
     0
300
3/32" = 1'-0"
140
0.09375
141
12.0
290
     0
  0
SCALE
  5
AB0E
102
{ACAD_REACTORS
330
AB07
102
}
330
AB07
100
AcDbScale
 70
     0
300
1/8" = 1'-0"
140
0.125
141
12.0
290
     0
  0
SCALE
  5
AB0F
102
{ACAD_REACTORS
330
AB07
102
}
330
AB07
100
AcDbScale
 70
     0
300
3/16" = 1'-0"
140
0.1875
141
12.0
290
     0
  0
SCALE
  5
AB10
102
{ACAD_REACTORS
330
AB07
102
}
330
AB07
100
AcDbScale
 70
     0
300
1/4" = 1'-0"
140
0.25
141
12.0
290
     0
  0
SCALE
  5
AB11
102
{ACAD_REACTORS
330
AB07
102
}
330
AB07
100
AcDbScale
 70
     0
300
3/8" = 1'-0"
140
0.375
141
12.0
290
     0
  0
SCALE
  5
AB12
102
{ACAD_REACTORS
330
AB07
102
}
330
AB07
100
AcDbScale
 70
     0
300
1/2" = 1'-0"
140
0.5
141
12.0
290
     0
  0
SCALE
  5
AB13
102
{ACAD_REACTORS
330
AB07
102
}
330
AB07
100
AcDbScale
 70
     0
300
3/4" = 1'-0"
140
0.75
141
12.0
290
     0
  0
SCALE
  5
AB14
102
{ACAD_REACTORS
330
AB07
102
}
330
AB07
100
AcDbScale
 70
     0
300
1" = 1'-0"
140
1.0
141
12.0
290
     0
  0
SCALE
  5
AB15
102
{ACAD_REACTORS
330
AB07
102
}
330
AB07
100
AcDbScale
 70
     0
300
1-1/2" = 1'-0"
140
1.5
141
12.0
290
     0
  0
SCALE
  5
AB16
102
{ACAD_REACTORS
330
AB07
102
}
330
AB07
100
AcDbScale
 70
     0
300
3" = 1'-0"
140
3.0
141
12.0
290
     0
  0
SCALE
  5
AB17
102
{ACAD_REACTORS
330
AB07
102
}
330
AB07
100
AcDbScale
 70
     0
300
6" = 1'-0"
140
6.0
141
12.0
290
     0
  0
SCALE
  5
AB18
102
{ACAD_REACTORS
330
AB07
102
}
330
AB07
100
AcDbScale
 70
     0
300
1'-0" = 1'-0"
140
12.0
141
12.0
290
     0
  0
ACDBSECTIONVIEWSTYLE
  5
AB1C
102
{ACAD_XDICTIONARY
360
AB77
102
}
102
{ACAD_REACTORS
330
AB1B
102
}
330
AB1B
100
AcDbModelDocViewStyle
 70
     0
  3
Imperial24
290
     0
100
AcDbSectionViewStyle
 70
     0
 71
     0
 90
       78
 71
     1
340
A57F
 40
0.24
340
0
340
0
 40
0.24
300
I, O, Q, S, X, Z
 40
0.48
 90
        3
 40
0.18
 90
        1
 71
     2
340
A583
 90
       25
340
A583
 90
       50
 40
0.24
 40
0.0
 40
0.24
 71
     3
340
A57F
 40
0.24
 90
        1
 40
0.75
 90
        1
300
%<\AcVar ViewType \f "%tc1">% %<\AcVar ViewSectionStartId>%-%<\AcVar ViewSectionEndId>%\PSCALE %<\AcVar ViewScale \f "%sn">%
 71
     4
300
ANSI31
 40
1.0
 90
        0
290
     0
290
     0
 90
        6
 40
0.0
 40
1.570796326794896
 40
0.2617993877991494
 40
1.308996938995747
 40
-0.2617993877991494
 40
1.832595714594046
  0
TABLESTYLE
  5
AB06
102
{ACAD_XDICTIONARY
360
AB3E
102
}
102
{ACAD_REACTORS
330
AB05
102
}
330
AB05
100
AcDbTableStyle
  3
Standard
 70
     0
 71
     0
 40
0.06
 41
0.06
280
     0
281
     0
  7
STANDARD
140
0.18
170
     2
 62
     0
 63
     7
283
     0
274
    -2
284
     1
 64
     0
275
    -2
285
     1
 65
     0
276
    -2
286
     1
 66
     0
277
    -2
287
     1
 67
     0
278
    -2
288
     1
 68
     0
279
    -2
289
     1
 69
     0
  7
STANDARD
140
0.25
170
     5
 62
     0
 63
     7
283
     0
274
    -2
284
     1
 64
     0
275
    -2
285
     1
 65
     0
276
    -2
286
     1
 66
     0
277
    -2
287
     1
 67
     0
278
    -2
288
     1
 68
     0
279
    -2
289
     1
 69
     0
  7
STANDARD
140
0.18
170
     5
 62
     0
 63
     7
283
     0
274
    -2
284
     1
 64
     0
275
    -2
285
     1
 65
     0
276
    -2
286
     1
 66
     0
277
    -2
287
     1
 67
     0
278
    -2
288
     1
 68
     0
279
    -2
289
     1
 69
     0
  0
VISUALSTYLE
  5
AAF1
102
{ACAD_XDICTIONARY
360
AB4F
102
}
102
{ACAD_REACTORS
330
AAEB
102
}
330
AAEB
100
AcDbVisualStyle
  2
2dWireframe
 70
     4
 71
     0
 72
     2
 73
     0
 90
        0
 40
-0.6
 41
-30.0
 62
     5
 63
     7
 74
     1
 91
        4
 64
     7
 65
   257
 75
     1
175
     1
 42
1.0
 92
        0
 66
   257
 43
1.0
 76
     1
 77
     6
 78
     2
 67
     7
 79
     5
170
     0
171
     0
290
     0
174
     0
 93
        1
 44
0.0
173
     0
291
     0
 45
0.0
1001
ACAD
1000
AcDbSavedByObjectVersion
1070
     0
  0
VISUALSTYLE
  5
AAF0
102
{ACAD_XDICTIONARY
360
AB4D
102
}
102
{ACAD_REACTORS
330
AAEB
102
}
330
AAEB
100
AcDbVisualStyle
  2
Basic
 70
     7
 71
     1
 72
     0
 73
     1
 90
        0
 40
-0.6
 41
-30.0
 62
     5
 63
     7
 74
     0
 91
        4
 64
     7
 65
   257
 75
     1
175
     1
 42
1.0
 92
        8
 66
     7
 43
1.0
 76
     1
 77
     6
 78
     2
 67
     7
 79
     5
170
     0
171
     0
290
     0
174
     0
 93
        1
 44
0.0
173
     0
291
     1
 45
0.0
1001
ACAD
1000
AcDbSavedByObjectVersion
1070
     0
  0
VISUALSTYLE
  5
AAF7
102
{ACAD_XDICTIONARY
360
AB5B
102
}
102
{ACAD_REACTORS
330
AAEB
102
}
330
AAEB
100
AcDbVisualStyle
  2
Brighten
 70
    12
 71
     2
 72
     2
 73
     0
 90
        0
 40
-0.6
 41
-30.0
 62
     5
 63
     7
 74
     1
 91
        4
 64
     7
 65
   257
 75
     1
175
     1
 42
1.0
 92
        8
 66
     7
 43
1.0
 76
     1
 77
     6
 78
     2
 67
     7
 79
     5
170
     0
171
     0
290
     0
174
     0
 93
        1
 44
50.0
173
     0
291
     1
 45
0.0
1001
ACAD
1000
AcDbSavedByObjectVersion
1070
     0
  0
VISUALSTYLE
  5
AAFB
102
{ACAD_XDICTIONARY
360
AB63
102
}
102
{ACAD_REACTORS
330
AAEB
102
}
330
AAEB
100
AcDbVisualStyle
  2
ColorChange
 70
    16
 71
     2
 72
     2
 73
     3
 90
        0
 40
-0.6
 41
-30.0
 62
     5
 63
     8
 74
     1
 91
        4
 64
     7
 65
   257
 75
     1
175
     1
 42
1.0
 92
        8
 66
     8
 43
1.0
 76
     1
 77
     6
 78
     2
 67
     7
 79
     5
170
     0
171
     0
290
     0
174
     0
 93
        1
 44
0.0
173
     0
291
     1
 45
0.0
1001
ACAD
1000
AcDbSavedByObjectVersion
1070
     0
  0
VISUALSTYLE
  5
AAF4
102
{ACAD_XDICTIONARY
360
AB55
102
}
102
{ACAD_REACTORS
330
AAEB
102
}
330
AAEB
100
AcDbVisualStyle
  2
Conceptual
 70
     9
 71
     3
 72
     2
 73
     0
 90
        0
 40
-0.6
 41
-30.0
 62
     5
 63
     7
 74
     2
 91
        2
 64
     7
 65
   257
 75
     1
175
     1
 42
179.0
 92
        8
 66
     7
 43
1.0
 76
     1
 77
     6
 78
     2
 67
     7
 79
     3
170
     0
171
     0
290
     0
174
     0
 93
        1
 44
0.0
173
     0
291
     0
 45
0.0
1001
ACAD
1000
AcDbSavedByObjectVersion
1070
     0
  0
VISUALSTYLE
  5
AAF6
102
{ACAD_XDICTIONARY
360
AB59
102
}
102
{ACAD_REACTORS
330
AAEB
102
}
330
AAEB
100
AcDbVisualStyle
  2
Dim
 70
    11
 71
     2
 72
     2
 73
     0
 90
        0
 40
-0.6
 41
-30.0
 62
     5
 63
     7
 74
     1
 91
        4
 64
     7
 65
   257
 75
     1
175
     1
 42
1.0
 92
        8
 66
     7
 43
1.0
 76
     1
 77
     6
 78
     2
 67
     7
 79
     5
170
     0
171
     0
290
     0
174
     0
 93
        1
 44
-50.0
173
     0
291
     1
 45
0.0
1001
ACAD
1000
AcDbSavedByObjectVersion
1070
     0
  0
VISUALSTYLE
  5
AB03
102
{ACAD_XDICTIONARY
360
AB73
102
}
102
{ACAD_REACTORS
330
AAEB
102
}
330
AAEB
100
AcDbVisualStyle
  2
EdgeColorOff
 70
    22
 71
     2
 72
     2
 73
     0
 90
        0
 40
-0.6
 41
-30.0
 62
     5
 63
     7
 74
     1
 91
        4
 64
     7
 65
   257
 75
     1
175
     1
 42
1.0
 92
        8
 66
     7
 43
1.0
 76
     1
 77
     6
 78
     2
 67
     7
 79
     5
170
     0
171
     0
290
     0
174
     0
 93
        1
 44
0.0
173
     0
291
     1
 45
0.0
1001
ACAD
1000
AcDbSavedByObjectVersion
1070
     0
  0
VISUALSTYLE
  5
AAFA
102
{ACAD_XDICTIONARY
360
AB61
102
}
102
{ACAD_REACTORS
330
AAEB
102
}
330
AAEB
100
AcDbVisualStyle
  2
Facepattern
 70
    15
 71
     2
 72
     2
 73
     0
 90
        0
 40
-0.6
 41
-30.0
 62
     5
 63
     7
 74
     1
 91
        4
 64
     7
 65
   257
 75
     1
175
     1
 42
1.0
 92
        8
 66
     7
 43
1.0
 76
     1
 77
     6
 78
     2
 67
     7
 79
     5
170
     0
171
     0
290
     0
174
     0
 93
        1
 44
0.0
173
     0
291
     1
 45
0.0
1001
ACAD
1000
AcDbSavedByObjectVersion
1070
     0
  0
VISUALSTYLE
  5
AAEC
102
{ACAD_XDICTIONARY
360
AB45
102
}
102
{ACAD_REACTORS
330
AAEB
102
}
330
AAEB
100
AcDbVisualStyle
  2
Flat
 70
     0
 71
     2
 72
     1
 73
     1
 90
        2
 40
-0.6
 41
30.0
 62
     5
 63
     7
 74
     0
 91
        0
 64
     7
 65
   257
 75
     1
175
     1
 42
1.0
 92
        8
 66
     7
 43
1.0
 76
     1
 77
     6
 78
     2
 67
     7
 79
     5
170
     0
171
     0
290
     0
174
     0
 93
       13
 44
0.0
173
     0
291
     1
 45
0.0
1001
ACAD
1000
AcDbSavedByObjectVersion
1070
     0
  0
VISUALSTYLE
  5
AAED
102
{ACAD_XDICTIONARY
360
AB47
102
}
102
{ACAD_REACTORS
330
AAEB
102
}
330
AAEB
100
AcDbVisualStyle
  2
FlatWithEdges
 70
     1
 71
     2
 72
     1
 73
     1
 90
        2
 40
-0.6
 41
30.0
 62
     5
 63
     7
 74
     1
 91
        0
 64
     7
 65
   257
 75
     1
175
     1
 42
1.0
 92
        0
 66
   257
 43
1.0
 76
     1
 77
     6
 78
     2
 67
     7
 79
     5
170
     0
171
     0
290
     0
174
     0
 93
       13
 44
0.0
173
     0
291
     1
 45
0.0
1001
ACAD
1000
AcDbSavedByObjectVersion
1070
     0
  0
VISUALSTYLE
  5
AAEE
102
{ACAD_XDICTIONARY
360
AB49
102
}
102
{ACAD_REACTORS
330
AAEB
102
}
330
AAEB
100
AcDbVisualStyle
  2
Gouraud
 70
     2
 71
     2
 72
     2
 73
     1
 90
        2
 40
-0.6
 41
30.0
 62
     5
 63
     7
 74
     0
 91
        0
 64
     7
 65
   257
 75
     1
175
     1
 42
1.0
 92
        0
 66
     7
 43
1.0
 76
     1
 77
     6
 78
     2
 67
     7
 79
     5
170
     0
171
     0
290
     0
174
     0
 93
       13
 44
0.0
173
     0
291
     1
 45
0.0
1001
ACAD
1000
AcDbSavedByObjectVersion
1070
     0
  0
VISUALSTYLE
  5
AAEF
102
{ACAD_XDICTIONARY
360
AB4B
102
}
102
{ACAD_REACTORS
330
AAEB
102
}
330
AAEB
100
AcDbVisualStyle
  2
GouraudWithEdges
 70
     3
 71
     2
 72
     2
 73
     1
 90
        2
 40
-0.6
 41
30.0
 62
     5
 63
     7
 74
     1
 91
        0
 64
     7
 65
   257
 75
     1
175
     1
 42
1.0
 92
        0
 66
   257
 43
1.0
 76
     1
 77
     6
 78
     2
 67
     7
 79
     5
170
     0
171
     0
290
     0
174
     0
 93
       13
 44
0.0
173
     0
291
     1
 45
0.0
1001
ACAD
1000
AcDbSavedByObjectVersion
1070
     0
  0
VISUALSTYLE
  5
AAF3
102
{ACAD_XDICTIONARY
360
AB53
102
}
102
{ACAD_REACTORS
330
AAEB
102
}
330
AAEB
100
AcDbVisualStyle
  2
Hidden
 70
     6
 71
     1
 72
     2
 73
     2
 90
        0
 40
-0.6
 41
-30.0
 62
     5
 63
     7
 74
     2
 91
        2
 64
     7
 65
   257
 75
     2
175
     1
 42
40.0
 92
        0
 66
   257
 43
1.0
 76
     1
 77
     6
 78
     2
 67
     7
 79
     3
170
     0
171
     0
290
     0
174
     0
 93
        1
 44
0.0
173
     0
291
     0
 45
0.0
1001
ACAD
1000
AcDbSavedByObjectVersion
1070
     0
  0
VISUALSTYLE
  5
AB01
102
{ACAD_XDICTIONARY
360
AB6F
102
}
102
{ACAD_REACTORS
330
AAEB
102
}
330
AAEB
100
AcDbVisualStyle
  2
JitterOff
 70
    20
 71
     2
 72
     2
 73
     0
 90
        0
 40
-0.6
 41
-30.0
 62
     5
 63
     7
 74
     1
 91
        4
 64
     7
 65
   257
 75
     1
175
     1
 42
1.0
 92
       10
 66
     7
 43
1.0
 76
     1
 77
     6
 78
     2
 67
     7
 79
     5
170
     0
171
     0
290
     0
174
     0
 93
        1
 44
0.0
173
     0
291
     1
 45
0.0
1001
ACAD
1000
AcDbSavedByObjectVersion
1070
     0
  0
VISUALSTYLE
  5
AAF9
102
{ACAD_XDICTIONARY
360
AB5F
102
}
102
{ACAD_REACTORS
330
AAEB
102
}
330
AAEB
100
AcDbVisualStyle
  2
Linepattern
 70
    14
 71
     2
 72
     2
 73
     0
 90
        0
 40
-0.6
 41
-30.0
 62
     5
 63
     7
 74
     1
 91
        4
 64
     7
 65
   257
 75
     7
175
     7
 42
1.0
 92
        8
 66
     7
 43
1.0
 76
     1
 77
     6
 78
     2
 67
     7
 79
     5
170
     0
171
     0
290
     0
174
     0
 93
        1
 44
0.0
173
     0
291
     1
 45
0.0
1001
ACAD
1000
AcDbSavedByObjectVersion
1070
     0
  0
VISUALSTYLE
  5
AB02
102
{ACAD_XDICTIONARY
360
AB71
102
}
102
{ACAD_REACTORS
330
AAEB
102
}
330
AAEB
100
AcDbVisualStyle
  2
OverhangOff
 70
    21
 71
     2
 72
     2
 73
     0
 90
        0
 40
-0.6
 41
-30.0
 62
     5
 63
     7
 74
     1
 91
        4
 64
     7
 65
   257
 75
     1
175
     1
 42
1.0
 92
        9
 66
     7
 43
1.0
 76
     1
 77
     6
 78
     2
 67
     7
 79
     5
170
     0
171
     0
290
     0
174
     0
 93
        1
 44
0.0
173
     0
291
     1
 45
0.0
1001
ACAD
1000
AcDbSavedByObjectVersion
1070
     0
  0
VISUALSTYLE
  5
AAF5
102
{ACAD_XDICTIONARY
360
AB57
102
}
102
{ACAD_REACTORS
330
AAEB
102
}
330
AAEB
100
AcDbVisualStyle
  2
Realistic
 70
     8
 71
     2
 72
     3
 73
     0
 90
        2
 40
-0.6
 41
30.0
 62
     5
 63
     7
 74
     0
 91
        0
 64
     7
 65
   257
 75
     1
175
     1
 42
1.0
 92
        8
 66
   257
 43
1.0
 76
     1
 77
     6
 78
     2
 67
     7
 79
     3
170
     0
171
     0
290
     0
174
     0
 93
       13
 44
0.0
173
     0
291
     0
 45
0.0
1001
ACAD
1000
AcDbSavedByObjectVersion
1070
     0
  0
VISUALSTYLE
  5
AB00
102
{ACAD_XDICTIONARY
360
AB6D
102
}
102
{ACAD_REACTORS
330
AAEB
102
}
330
AAEB
100
AcDbVisualStyle
  2
Shaded
 70
    27
 71
     2
 72
     2
 73
     1
 90
        2
 40
-0.6
 41
30.0
 62
     5
 63
     7
 74
     0
 91
        4
 64
     7
 65
   257
 75
     1
175
     1
 42
1.0
 92
        8
 66
   257
 43
1.0
 76
     1
 77
     6
 78
     2
 67
     8
 79
     3
170
     0
171
     0
290
     0
174
     0
 93
        5
 44
0.0
173
     0
291
     0
 45
0.0
1001
ACAD
1000
AcDbSavedByObjectVersion
1070
     0
  0
VISUALSTYLE
  5
AAFF
102
{ACAD_XDICTIONARY
360
AB6B
102
}
102
{ACAD_REACTORS
330
AAEB
102
}
330
AAEB
100
AcDbVisualStyle
  2
Shaded with edges
 70
    26
 71
     2
 72
     2
 73
     1
 90
        2
 40
-0.6
 41
30.0
 62
     5
 63
     7
 74
     1
 91
       10
 64
     7
 65
   257
 75
     2
175
     1
 42
1.0
 92
        8
 66
   257
 43
1.0
 76
     1
 77
     6
 78
     2
 67
     7
 79
     3
170
     0
171
     0
290
     0
174
     0
 93
        5
 44
0.0
173
     0
291
     0
 45
0.0
1001
ACAD
1000
AcDbSavedByObjectVersion
1070
     0
  0
VISUALSTYLE
  5
AAFC
102
{ACAD_XDICTIONARY
360
AB65
102
}
102
{ACAD_REACTORS
330
AAEB
102
}
330
AAEB
100
AcDbVisualStyle
  2
Shades of Gray
 70
    23
 71
     2
 72
     2
 73
     3
 90
        0
 40
-0.6
 41
-30.0
 62
     5
 63
     7
 74
     2
 91
        2
 64
     7
 65
     7
 75
     1
175
     1
 42
40.0
 92
        8
 66
     7
 43
1.0
 76
     1
 77
     6
 78
     2
 67
     7
 79
     3
170
     0
171
     0
290
     0
174
     0
 93
        1
 44
0.0
173
     0
291
     0
 45
0.0
1001
ACAD
1000
AcDbSavedByObjectVersion
1070
     0
  0
VISUALSTYLE
  5
AAFD
102
{ACAD_XDICTIONARY
360
AB67
102
}
102
{ACAD_REACTORS
330
AAEB
102
}
330
AAEB
100
AcDbVisualStyle
  2
Sketchy
 70
    24
 71
     1
 72
     2
 73
     2
 90
        0
 40
-0.6
 41
-30.0
 62
     5
 63
     7
 74
     2
 91
        2
 64
     7
 65
     7
 75
     1
175
     1
 42
40.0
 92
       11
 66
     7
 43
1.0
 76
     1
 77
     6
 78
     2
 67
     7
 79
     6
170
     0
171
     0
290
     0
174
     0
 93
        1
 44
0.0
173
     0
291
     0
 45
0.0
1001
ACAD
1000
AcDbSavedByObjectVersion
1070
     0
  0
VISUALSTYLE
  5
AAF8
102
{ACAD_XDICTIONARY
360
AB5D
102
}
102
{ACAD_REACTORS
330
AAEB
102
}
330
AAEB
100
AcDbVisualStyle
  2
Thicken
 70
    13
 71
     2
 72
     2
 73
     0
 90
        0
 40
-0.6
 41
-30.0
 62
     5
 63
     7
 74
     1
 91
        4
 64
     7
 65
   257
 75
     1
175
     1
 42
1.0
 92
       12
 66
     7
 43
1.0
 76
     1
 77
     6
 78
     2
 67
     7
 79
     5
170
     0
171
     0
290
     0
174
     0
 93
        1
 44
0.0
173
     0
291
     1
 45
0.0
1001
ACAD
1000
AcDbSavedByObjectVersion
1070
     0
  0
VISUALSTYLE
  5
AAF2
102
{ACAD_XDICTIONARY
360
AB51
102
}
102
{ACAD_REACTORS
330
AAEB
102
}
330
AAEB
100
AcDbVisualStyle
  2
Wireframe
 70
     5
 71
     0
 72
     2
 73
     0
 90
        0
 40
-0.6
 41
-30.0
 62
     5
 63
     7
 74
     1
 91
        4
 64
     7
 65
   257
 75
     1
175
     1
 42
1.0
 92
        0
 66
   257
 43
1.0
 76
     1
 77
     6
 78
     2
 67
     7
 79
     3
170
     0
171
     0
290
     0
174
     0
 93
        1
 44
0.0
173
     0
291
     0
 45
0.0
1001
ACAD
1000
AcDbSavedByObjectVersion
1070
     0
  0
VISUALSTYLE
  5
AAFE
102
{ACAD_XDICTIONARY
360
AB69
102
}
102
{ACAD_REACTORS
330
AAEB
102
}
330
AAEB
100
AcDbVisualStyle
  2
X-Ray
 70
    25
 71
     2
 72
     2
 73
     1
 90
        1
 40
0.5
 41
-30.0
 62
     5
 63
     7
 74
     1
 91
        0
 64
     7
 65
   257
 75
     1
175
     1
 42
1.0
 92
        8
 66
     7
 43
1.0
 76
     1
 77
     6
 78
     2
 67
     7
 79
     3
170
     0
171
     0
290
     0
174
     0
 93
       13
 44
0.0
173
     0
291
     0
 45
0.0
1001
ACAD
1000
AcDbSavedByObjectVersion
1070
     0
  0
DICTIONARYVAR
  5
AB38
102
{ACAD_REACTORS
330
AB33
102
}
330
AB33
100
DictionaryVariables
280
     0
  1
1:1
  0
DICTIONARYVAR
  5
AB35
102
{ACAD_REACTORS
330
AB33
102
}
330
AB33
100
DictionaryVariables
280
     0
  1
STANDARD
  0
DICTIONARYVAR
  5
AB34
102
{ACAD_REACTORS
330
AB33
102
}
330
AB33
100
DictionaryVariables
280
     0
  1
STANDARD
  0
DICTIONARYVAR
  5
AB36
102
{ACAD_REACTORS
330
AB33
102
}
330
AB33
100
DictionaryVariables
280
     0
  1
Imperial24
  0
DICTIONARYVAR
  5
AB37
102
{ACAD_REACTORS
330
AB33
102
}
330
AB33
100
DictionaryVariables
280
     0
  1
Imperial24
  0
DICTIONARYVAR
  5
AB3B
102
{ACAD_REACTORS
330
AB33
102
}
330
AB33
100
DictionaryVariables
280
     0
  1
1
  0
DICTIONARYVAR
  5
AB3A
102
{ACAD_REACTORS
330
AB33
102
}
330
AB33
100
DictionaryVariables
280
     0
  1
0
  0
DICTIONARYVAR
  5
AB39
102
{ACAD_REACTORS
330
AB33
102
}
330
AB33
100
DictionaryVariables
280
     0
  1
127
  0
DICTIONARYVAR
  5
AB3C
102
{ACAD_REACTORS
330
AB33
102
}
330
AB33
100
DictionaryVariables
280
     0
  1
2
  0
DICTIONARY
  5
AB79
330
AB1E
100
AcDbDictionary
280
     1
281
     1
  3
ACAD_XREC_ROUNDTRIP
360
AB7A
  0
DICTIONARY
  5
AB7B
330
AB1F
100
AcDbDictionary
280
     1
281
     1
  3
ACAD_XREC_ROUNDTRIP
360
AB7C
  0
DICTIONARY
  5
AB7D
330
AB20
100
AcDbDictionary
280
     1
281
     1
  3
ACAD_XREC_ROUNDTRIP
360
AB7E
  0
DICTIONARY
  5
AADC
330
AADB
100
AcDbDictionary
280
     1
281
     1
  3
ACAD_XREC_ROUNDTRIP
360
AB43
  3
BUMPTILE
360
AADE
  3
DIFFUSETILE
360
AADD
  3
OPACITYTILE
360
AAE1
  3
REFLECTIONTILE
360
AAE0
  3
REFRACTIONTILE
360
AAE2
  3
SPECULARTILE
360
AADF
  0
DICTIONARY
  5
AAD4
330
AAD3
100
AcDbDictionary
280
     1
281
     1
  3
ACAD_XREC_ROUNDTRIP
360
AB42
  3
BUMPTILE
360
AAD6
  3
DIFFUSETILE
360
AAD5
  3
OPACITYTILE
360
AAD9
  3
REFLECTIONTILE
360
AAD8
  3
REFRACTIONTILE
360
AADA
  3
SPECULARTILE
360
AAD7
  0
DICTIONARY
  5
AAE4
330
AAE3
100
AcDbDictionary
280
     1
281
     1
  3
ACAD_XREC_ROUNDTRIP
360
AB44
  3
BUMPTILE
360
AAE6
  3
DIFFUSETILE
360
AAE5
  3
OPACITYTILE
360
AAE9
  3
REFLECTIONTILE
360
AAE8
  3
REFRACTIONTILE
360
AAEA
  3
SPECULARTILE
360
AAE7
  0
DICTIONARY
  5
AB77
330
AB1C
100
AcDbDictionary
280
     1
281
     1
  3
ACAD_XREC_ROUNDTRIP
360
AB78
  0
DICTIONARY
  5
AB3E
330
AB06
100
AcDbDictionary
280
     1
281
     1
  3
ACAD_ROUNDTRIP_2008_TABLESTYLE_CELLSTYLEMAP
360
AB3F
  3
ACAD_XREC_ROUNDTRIP
360
AB75
  0
DICTIONARY
  5
AB4F
330
AAF1
100
AcDbDictionary
280
     1
281
     1
  3
ACAD_XREC_ROUNDTRIP
360
AB50
  0
DICTIONARY
  5
AB4D
330
AAF0
100
AcDbDictionary
280
     1
281
     1
  3
ACAD_XREC_ROUNDTRIP
360
AB4E
  0
DICTIONARY
  5
AB5B
330
AAF7
100
AcDbDictionary
280
     1
281
     1
  3
ACAD_XREC_ROUNDTRIP
360
AB5C
  0
DICTIONARY
  5
AB63
330
AAFB
100
AcDbDictionary
280
     1
281
     1
  3
ACAD_XREC_ROUNDTRIP
360
AB64
  0
DICTIONARY
  5
AB55
330
AAF4
100
AcDbDictionary
280
     1
281
     1
  3
ACAD_XREC_ROUNDTRIP
360
AB56
  0
DICTIONARY
  5
AB59
330
AAF6
100
AcDbDictionary
280
     1
281
     1
  3
ACAD_XREC_ROUNDTRIP
360
AB5A
  0
DICTIONARY
  5
AB73
330
AB03
100
AcDbDictionary
280
     1
281
     1
  3
ACAD_XREC_ROUNDTRIP
360
AB74
  0
DICTIONARY
  5
AB61
330
AAFA
100
AcDbDictionary
280
     1
281
     1
  3
ACAD_XREC_ROUNDTRIP
360
AB62
  0
DICTIONARY
  5
AB45
330
AAEC
100
AcDbDictionary
280
     1
281
     1
  3
ACAD_XREC_ROUNDTRIP
360
AB46
  0
DICTIONARY
  5
AB47
330
AAED
100
AcDbDictionary
280
     1
281
     1
  3
ACAD_XREC_ROUNDTRIP
360
AB48
  0
DICTIONARY
  5
AB49
330
AAEE
100
AcDbDictionary
280
     1
281
     1
  3
ACAD_XREC_ROUNDTRIP
360
AB4A
  0
DICTIONARY
  5
AB4B
330
AAEF
100
AcDbDictionary
280
     1
281
     1
  3
ACAD_XREC_ROUNDTRIP
360
AB4C
  0
DICTIONARY
  5
AB53
330
AAF3
100
AcDbDictionary
280
     1
281
     1
  3
ACAD_XREC_ROUNDTRIP
360
AB54
  0
DICTIONARY
  5
AB6F
330
AB01
100
AcDbDictionary
280
     1
281
     1
  3
ACAD_XREC_ROUNDTRIP
360
AB70
  0
DICTIONARY
  5
AB5F
330
AAF9
100
AcDbDictionary
280
     1
281
     1
  3
ACAD_XREC_ROUNDTRIP
360
AB60
  0
DICTIONARY
  5
AB71
330
AB02
100
AcDbDictionary
280
     1
281
     1
  3
ACAD_XREC_ROUNDTRIP
360
AB72
  0
DICTIONARY
  5
AB57
330
AAF5
100
AcDbDictionary
280
     1
281
     1
  3
ACAD_XREC_ROUNDTRIP
360
AB58
  0
DICTIONARY
  5
AB6D
330
AB00
100
AcDbDictionary
280
     1
281
     1
  3
ACAD_XREC_ROUNDTRIP
360
AB6E
  0
DICTIONARY
  5
AB6B
330
AAFF
100
AcDbDictionary
280
     1
281
     1
  3
ACAD_XREC_ROUNDTRIP
360
AB6C
  0
DICTIONARY
  5
AB65
330
AAFC
100
AcDbDictionary
280
     1
281
     1
  3
ACAD_XREC_ROUNDTRIP
360
AB66
  0
DICTIONARY
  5
AB67
330
AAFD
100
AcDbDictionary
280
     1
281
     1
  3
ACAD_XREC_ROUNDTRIP
360
AB68
  0
DICTIONARY
  5
AB5D
330
AAF8
100
AcDbDictionary
280
     1
281
     1
  3
ACAD_XREC_ROUNDTRIP
360
AB5E
  0
DICTIONARY
  5
AB51
330
AAF2
100
AcDbDictionary
280
     1
281
     1
  3
ACAD_XREC_ROUNDTRIP
360
AB52
  0
DICTIONARY
  5
AB69
330
AAFE
100
AcDbDictionary
280
     1
281
     1
  3
ACAD_XREC_ROUNDTRIP
360
AB6A
  0
XRECORD
  5
AB7A
102
{ACAD_REACTORS
330
AB79
102
}
330
AB79
100
AcDbXrecord
280
     1
102
DISPLAYNAME
  1
Imperial24
102
FLAGS
 90
        0
  0
XRECORD
  5
AB7C
102
{ACAD_REACTORS
330
AB7B
102
}
330
AB7B
100
AcDbXrecord
280
     1
102
SHADEPLOT
 70
     0
102
SHADEPLOTRESLEVEL
 70
     2
102
SHADEPLOTCUSTOMDPI
 70
   300
  0
XRECORD
  5
AB7E
102
{ACAD_REACTORS
330
AB7D
102
}
330
AB7D
100
AcDbXrecord
280
     1
102
SHADEPLOT
 70
     0
102
SHADEPLOTRESLEVEL
 70
     2
102
SHADEPLOTCUSTOMDPI
 70
   300
  0
XRECORD
  5
AB43
102
{ACAD_REACTORS
330
AADC
102
}
330
AADC
100
AcDbXrecord
280
     1
102
MATERIAL
148
0.0
149
0.0
149
0.0
 93
        0
 94
      127
282
     0
 72
     0
 77
     0
171
     0
175
     0
179
     0
273
     0
  0
XRECORD
  5
AADE
102
{ACAD_REACTORS
330
AADC
102
}
330
AADC
100
AcDbXrecord
280
     1
270
     1
271
     1
  0
XRECORD
  5
AADD
102
{ACAD_REACTORS
330
AADC
102
}
330
AADC
100
AcDbXrecord
280
     1
270
     1
271
     1
  0
XRECORD
  5
AAE1
102
{ACAD_REACTORS
330
AADC
102
}
330
AADC
100
AcDbXrecord
280
     1
270
     1
271
     1
  0
XRECORD
  5
AAE0
102
{ACAD_REACTORS
330
AADC
102
}
330
AADC
100
AcDbXrecord
280
     1
270
     1
271
     1
  0
XRECORD
  5
AAE2
102
{ACAD_REACTORS
330
AADC
102
}
330
AADC
100
AcDbXrecord
280
     1
270
     1
271
     1
  0
XRECORD
  5
AADF
102
{ACAD_REACTORS
330
AADC
102
}
330
AADC
100
AcDbXrecord
280
     1
270
     1
271
     1
  0
XRECORD
  5
AB42
102
{ACAD_REACTORS
330
AAD4
102
}
330
AAD4
100
AcDbXrecord
280
     1
102
MATERIAL
148
0.0
149
0.0
149
0.0
 93
        0
 94
      127
282
     0
 72
     0
 77
     0
171
     0
175
     0
179
     0
273
     0
  0
XRECORD
  5
AAD6
102
{ACAD_REACTORS
330
AAD4
102
}
330
AAD4
100
AcDbXrecord
280
     1
270
     1
271
     1
  0
XRECORD
  5
AAD5
102
{ACAD_REACTORS
330
AAD4
102
}
330
AAD4
100
AcDbXrecord
280
     1
270
     1
271
     1
  0
XRECORD
  5
AAD9
102
{ACAD_REACTORS
330
AAD4
102
}
330
AAD4
100
AcDbXrecord
280
     1
270
     1
271
     1
  0
XRECORD
  5
AAD8
102
{ACAD_REACTORS
330
AAD4
102
}
330
AAD4
100
AcDbXrecord
280
     1
270
     1
271
     1
  0
XRECORD
  5
AADA
102
{ACAD_REACTORS
330
AAD4
102
}
330
AAD4
100
AcDbXrecord
280
     1
270
     1
271
     1
  0
XRECORD
  5
AAD7
102
{ACAD_REACTORS
330
AAD4
102
}
330
AAD4
100
AcDbXrecord
280
     1
270
     1
271
     1
  0
XRECORD
  5
AB44
102
{ACAD_REACTORS
330
AAE4
102
}
330
AAE4
100
AcDbXrecord
280
     1
102
MATERIAL
148
0.0
149
0.0
149
0.0
 93
        0
 94
      127
282
     0
 72
     0
 77
     0
171
     0
175
     0
179
     0
273
     0
  0
XRECORD
  5
AAE6
102
{ACAD_REACTORS
330
AAE4
102
}
330
AAE4
100
AcDbXrecord
280
     1
270
     1
271
     1
  0
XRECORD
  5
AAE5
102
{ACAD_REACTORS
330
AAE4
102
}
330
AAE4
100
AcDbXrecord
280
     1
270
     1
271
     1
  0
XRECORD
  5
AAE9
102
{ACAD_REACTORS
330
AAE4
102
}
330
AAE4
100
AcDbXrecord
280
     1
270
     1
271
     1
  0
XRECORD
  5
AAE8
102
{ACAD_REACTORS
330
AAE4
102
}
330
AAE4
100
AcDbXrecord
280
     1
270
     1
271
     1
  0
XRECORD
  5
AAEA
102
{ACAD_REACTORS
330
AAE4
102
}
330
AAE4
100
AcDbXrecord
280
     1
270
     1
271
     1
  0
XRECORD
  5
AAE7
102
{ACAD_REACTORS
330
AAE4
102
}
330
AAE4
100
AcDbXrecord
280
     1
270
     1
271
     1
  0
XRECORD
  5
AB78
102
{ACAD_REACTORS
330
AB77
102
}
330
AB77
100
AcDbXrecord
280
     1
102
DISPLAYNAME
  1
Imperial24
102
FLAGS
 90
        0
  0
CELLSTYLEMAP
  5
AB3F
102
{ACAD_REACTORS
330
AB3E
102
}
330
AB3E
100
AcDbCellStyleMap
 90
        3
300
CELLSTYLE
  1
TABLEFORMAT_BEGIN
 90
        5
170
     1
 91
        0
 92
    32768
 62
   257
 93
        1
300
CONTENTFORMAT
  1
CONTENTFORMAT_BEGIN
 90
        0
 91
        0
 92
      512
 93
        0
300

 40
0.0
140
1.0
 94
        5
 62
     0
340
A57F
144
0.25
309
CONTENTFORMAT_END
171
     0
 94
        0
309
TABLEFORMAT_END
  1
CELLSTYLE_BEGIN
 90
        1
 91
        1
300
_TITLE
309
CELLSTYLE_END
300
CELLSTYLE
  1
TABLEFORMAT_BEGIN
 90
        5
170
     1
 91
        0
 92
        0
 62
   257
 93
        1
300
CONTENTFORMAT
  1
CONTENTFORMAT_BEGIN
 90
        0
 91
        0
 92
      512
 93
        0
300

 40
0.0
140
1.0
 94
        5
 62
     0
340
A57F
144
0.18
309
CONTENTFORMAT_END
171
     0
 94
        0
309
TABLEFORMAT_END
  1
CELLSTYLE_BEGIN
 90
        2
 91
        1
300
_HEADER
309
CELLSTYLE_END
300
CELLSTYLE
  1
TABLEFORMAT_BEGIN
 90
        5
170
     1
 91
        0
 92
        0
 62
   257
 93
        1
300
CONTENTFORMAT
  1
CONTENTFORMAT_BEGIN
 90
        0
 91
        0
 92
      512
 93
        0
300

 40
0.0
140
1.0
 94
        2
 62
     0
340
A57F
144
0.18
309
CONTENTFORMAT_END
171
     0
 94
        0
309
TABLEFORMAT_END
  1
CELLSTYLE_BEGIN
 90
        3
 91
        2
300
_DATA
309
CELLSTYLE_END
  0
XRECORD
  5
AB75
102
{ACAD_REACTORS
330
AB3E
102
}
330
AB3E
100
AcDbXrecord
280
     1
102
ACAD_ROUNDTRIP_PRE2007_TABLESTYLE
 90
      512
 91
        0
  1

 92
      512
 93
        0
  2

 94
      512
 95
        0
  3

  0
XRECORD
  5
AB50
102
{ACAD_REACTORS
330
AB4F
102
}
330
AB4F
100
AcDbXrecord
280
     1
102
RTVSPost2010Prop28
280
     1
102
RTVSPost2010PropOp28
 70
     1
102
RTVSPost2010Prop29
280
     1
102
RTVSPost2010PropOp29
 70
     1
102
RTVSPost2010Prop30
280
     0
102
RTVSPost2010PropOp30
 70
     1
102
RTVSPost2010Prop31
280
     0
102
RTVSPost2010PropOp31
 70
     1
102
RTVSPost2010Prop32
280
     0
102
RTVSPost2010PropOp32
 70
     1
102
RTVSPost2010Prop33
280
     0
102
RTVSPost2010PropOp33
 70
     1
102
RTVSPost2010Prop34
280
     0
102
RTVSPost2010PropOp34
 70
     1
102
RTVSPost2010Prop35
280
     0
102
RTVSPost2010PropOp35
 70
     1
102
RTVSPost2010Prop36
280
     0
102
RTVSPost2010PropOp36
 70
     1
102
RTVSPost2010Prop37
 90
       50
102
RTVSPost2010PropOp37
 70
     1
102
RTVSPost2010Prop38
140
0.0
102
RTVSPost2010PropOp38
 70
     1
102
RTVSPost2010Prop39
140
1.0
102
RTVSPost2010PropOp39
 70
     1
102
RTVSPost2010Prop40
 90
        0
102
RTVSPost2010PropOp40
 70
     1
102
RTVSPost2010Prop41ColorIndex
 90
       18
102
RTVSPost2010Prop41ColorRGB
 90
        0
102
RTVSPost2010PropOp41
 70
     1
102
RTVSPost2010Prop42
 90
       50
102
RTVSPost2010PropOp42
 70
     1
102
RTVSPost2010Prop43
 90
        3
102
RTVSPost2010PropOp43
 70
     1
102
RTVSPost2010Prop44ColorIndex
 90
        5
102
RTVSPost2010Prop44ColorRGB
 90
      255
102
RTVSPost2010PropOp44
 70
     1
102
RTVSPost2010Prop45
280
     0
102
RTVSPost2010PropOp45
 70
     1
102
RTVSPost2010Prop46
 90
       50
102
RTVSPost2010PropOp46
 70
     1
102
RTVSPost2010Prop47
 90
       50
102
RTVSPost2010PropOp47
 70
     1
102
RTVSPost2010Prop48
 90
       50
102
RTVSPost2010PropOp48
 70
     1
102
RTVSPost2010Prop49
280
     0
102
RTVSPost2010PropOp49
 70
     1
102
RTVSPost2010Prop50
 90
       50
102
RTVSPost2010PropOp50
 70
     1
102
RTVSPost2010Prop51ColorIndex
 90
      256
102
RTVSPost2010Prop51ColorRGB
 90
-16777216
102
RTVSPost2010PropOp51
 70
     0
102
RTVSPost2010Prop52
140
1.0
102
RTVSPost2010PropOp52
 70
     0
102
RTVSPost2010Prop53
 90
        2
102
RTVSPost2010PropOp53
 70
     1
102
RTVSPost2010Prop54
  1
strokes_ogs.tif
102
RTVSPost2010PropOp54
 70
     1
102
RTVSPost2010Prop55
280
     0
102
RTVSPost2010PropOp55
 70
     1
102
RTVSPost2010Prop56
140
1.0
102
RTVSPost2010PropOp56
 70
     1
102
RTVSPost2010Prop57
140
1.0
102
RTVSPost2010PropOp57
 70
     1
102
RTVSPropertyOp0
 70
     1
102
RTVSPropertyOp1
 70
     1
102
RTVSPropertyOp2
 70
     1
102
RTVSPropertyOp3
 70
     1
102
RTVSPropertyOp4
 70
     1
102
RTVSPropertyOp5
 70
     1
102
RTVSPropertyOp6
 70
     1
102
RTVSPropertyOp7
 70
     1
102
RTVSPropertyOp8
 70
     1
102
RTVSPropertyOp9
 70
     1
102
RTVSPropertyOp10
 70
     1
102
RTVSPropertyOp11
 70
     1
102
RTVSPropertyOp12
 70
     1
102
RTVSPropertyOp13
 70
     1
102
RTVSPropertyOp14
 70
     1
102
RTVSPropertyOp15
 70
     1
102
RTVSPropertyOp16
 70
     1
102
RTVSPropertyOp17
 70
     1
102
RTVSPropertyOp18
 70
     1
102
RTVSPropertyOp19
 70
     1
102
RTVSPropertyOp20
 70
     1
102
RTVSPropertyOp21
 70
     1
102
RTVSPropertyOp22
 70
     1
102
RTVSPropertyOp23
 70
     1
102
RTVSPropertyOp24
 70
     1
102
RTVSPropertyOp25
 70
     1
102
RTVSPropertyOp26
 70
     1
102
RTVSPropertyOp27
 70
     1
102
RTVSPropertyOp28
 70
     1
102
RTVSPropertyOp29
 70
     1
102
RTVSPropertyOp30
 70
     1
102
RTVSPropertyOp31
 70
     1
102
RTVSPropertyOp32
 70
     1
102
RTVSPropertyOp33
 70
     1
102
RTVSPropertyOp34
 70
     1
102
RTVSPropertyOp35
 70
     1
102
RTVSPropertyOp36
 70
     1
102
RTVSPropertyOp37
 70
     1
102
RTVSPropertyOp38
 70
     1
102
RTVSPropertyOp39
 70
     1
102
RTVSPropertyOp40
 70
     1
102
RTVSPropertyOp41
 70
     1
102
RTVSPropertyOp42
 70
     1
102
RTVSPropertyOp43
 70
     1
102
RTVSPropertyOp44
 70
     1
102
RTVSPropertyOp45
 70
     1
102
RTVSPropertyOp46
 70
     1
102
RTVSPropertyOp47
 70
     1
102
RTVSPropertyOp48
 70
     1
102
RTVSPropertyOp49
 70
     1
102
RTVSPropertyOp50
 70
     1
102
RTVSPropertyOp51
 70
     0
102
RTVSPropertyOp52
 70
     0
102
RTVSPropertyOp53
 70
     1
102
RTVSPropertyOp54
 70
     1
102
RTVSPropertyOp55
 70
     1
102
RTVSPropertyOp56
 70
     1
102
RTVSPropertyOp57
 70
     1
102
RTVSPropertyOp58
 70
     1
102
RTVSPropertyOp59
 70
     1
102
RTVSPropertyOp60
 70
     1
102
RTVSPropertyOp61
 70
     1
102
RTVSPropertyOp62
 70
     1
  0
XRECORD
  5
AB4E
102
{ACAD_REACTORS
330
AB4D
102
}
330
AB4D
100
AcDbXrecord
280
     1
102
RTVSPost2010Prop28
280
     0
102
RTVSPost2010PropOp28
 70
     1
102
RTVSPost2010Prop29
280
     1
102
RTVSPost2010PropOp29
 70
     1
102
RTVSPost2010Prop30
280
     1
102
RTVSPost2010PropOp30
 70
     1
102
RTVSPost2010Prop31
280
     0
102
RTVSPost2010PropOp31
 70
     1
102
RTVSPost2010Prop32
280
     0
102
RTVSPost2010PropOp32
 70
     1
102
RTVSPost2010Prop33
280
     0
102
RTVSPost2010PropOp33
 70
     1
102
RTVSPost2010Prop34
280
     0
102
RTVSPost2010PropOp34
 70
     1
102
RTVSPost2010Prop35
280
     0
102
RTVSPost2010PropOp35
 70
     1
102
RTVSPost2010Prop36
280
     0
102
RTVSPost2010PropOp36
 70
     1
102
RTVSPost2010Prop37
 90
       50
102
RTVSPost2010PropOp37
 70
     1
102
RTVSPost2010Prop38
140
0.0
102
RTVSPost2010PropOp38
 70
     1
102
RTVSPost2010Prop39
140
1.0
102
RTVSPost2010PropOp39
 70
     1
102
RTVSPost2010Prop40
 90
        0
102
RTVSPost2010PropOp40
 70
     1
102
RTVSPost2010Prop41ColorIndex
 90
       18
102
RTVSPost2010Prop41ColorRGB
 90
        0
102
RTVSPost2010PropOp41
 70
     1
102
RTVSPost2010Prop42
 90
       50
102
RTVSPost2010PropOp42
 70
     1
102
RTVSPost2010Prop43
 90
        3
102
RTVSPost2010PropOp43
 70
     1
102
RTVSPost2010Prop44ColorIndex
 90
        5
102
RTVSPost2010Prop44ColorRGB
 90
      255
102
RTVSPost2010PropOp44
 70
     1
102
RTVSPost2010Prop45
280
     0
102
RTVSPost2010PropOp45
 70
     1
102
RTVSPost2010Prop46
 90
       50
102
RTVSPost2010PropOp46
 70
     1
102
RTVSPost2010Prop47
 90
       50
102
RTVSPost2010PropOp47
 70
     1
102
RTVSPost2010Prop48
 90
       50
102
RTVSPost2010PropOp48
 70
     1
102
RTVSPost2010Prop49
280
     0
102
RTVSPost2010PropOp49
 70
     1
102
RTVSPost2010Prop50
 90
       50
102
RTVSPost2010PropOp50
 70
     1
102
RTVSPost2010Prop51ColorIndex
 90
      256
102
RTVSPost2010Prop51ColorRGB
 90
-16777216
102
RTVSPost2010PropOp51
 70
     0
102
RTVSPost2010Prop52
140
1.0
102
RTVSPost2010PropOp52
 70
     0
102
RTVSPost2010Prop53
 90
        2
102
RTVSPost2010PropOp53
 70
     1
102
RTVSPost2010Prop54
  1
strokes_ogs.tif
102
RTVSPost2010PropOp54
 70
     1
102
RTVSPost2010Prop55
280
     0
102
RTVSPost2010PropOp55
 70
     1
102
RTVSPost2010Prop56
140
1.0
102
RTVSPost2010PropOp56
 70
     1
102
RTVSPost2010Prop57
140
1.0
102
RTVSPost2010PropOp57
 70
     1
102
RTVSPropertyOp0
 70
     1
102
RTVSPropertyOp1
 70
     1
102
RTVSPropertyOp2
 70
     1
102
RTVSPropertyOp3
 70
     1
102
RTVSPropertyOp4
 70
     1
102
RTVSPropertyOp5
 70
     1
102
RTVSPropertyOp6
 70
     1
102
RTVSPropertyOp7
 70
     1
102
RTVSPropertyOp8
 70
     1
102
RTVSPropertyOp9
 70
     1
102
RTVSPropertyOp10
 70
     1
102
RTVSPropertyOp11
 70
     1
102
RTVSPropertyOp12
 70
     1
102
RTVSPropertyOp13
 70
     1
102
RTVSPropertyOp14
 70
     1
102
RTVSPropertyOp15
 70
     1
102
RTVSPropertyOp16
 70
     1
102
RTVSPropertyOp17
 70
     1
102
RTVSPropertyOp18
 70
     1
102
RTVSPropertyOp19
 70
     1
102
RTVSPropertyOp20
 70
     1
102
RTVSPropertyOp21
 70
     1
102
RTVSPropertyOp22
 70
     1
102
RTVSPropertyOp23
 70
     1
102
RTVSPropertyOp24
 70
     1
102
RTVSPropertyOp25
 70
     1
102
RTVSPropertyOp26
 70
     1
102
RTVSPropertyOp27
 70
     1
102
RTVSPropertyOp28
 70
     1
102
RTVSPropertyOp29
 70
     1
102
RTVSPropertyOp30
 70
     1
102
RTVSPropertyOp31
 70
     1
102
RTVSPropertyOp32
 70
     1
102
RTVSPropertyOp33
 70
     1
102
RTVSPropertyOp34
 70
     1
102
RTVSPropertyOp35
 70
     1
102
RTVSPropertyOp36
 70
     1
102
RTVSPropertyOp37
 70
     1
102
RTVSPropertyOp38
 70
     1
102
RTVSPropertyOp39
 70
     1
102
RTVSPropertyOp40
 70
     1
102
RTVSPropertyOp41
 70
     1
102
RTVSPropertyOp42
 70
     1
102
RTVSPropertyOp43
 70
     1
102
RTVSPropertyOp44
 70
     1
102
RTVSPropertyOp45
 70
     1
102
RTVSPropertyOp46
 70
     1
102
RTVSPropertyOp47
 70
     1
102
RTVSPropertyOp48
 70
     1
102
RTVSPropertyOp49
 70
     1
102
RTVSPropertyOp50
 70
     1
102
RTVSPropertyOp51
 70
     0
102
RTVSPropertyOp52
 70
     0
102
RTVSPropertyOp53
 70
     1
102
RTVSPropertyOp54
 70
     1
102
RTVSPropertyOp55
 70
     1
102
RTVSPropertyOp56
 70
     1
102
RTVSPropertyOp57
 70
     1
102
RTVSPropertyOp58
 70
     1
102
RTVSPropertyOp59
 70
     1
102
RTVSPropertyOp60
 70
     1
102
RTVSPropertyOp61
 70
     1
102
RTVSPropertyOp62
 70
     1
  0
XRECORD
  5
AB5C
102
{ACAD_REACTORS
330
AB5B
102
}
330
AB5B
100
AcDbXrecord
280
     1
102
RTVSPost2010Prop28
280
     0
102
RTVSPost2010PropOp28
 70
     1
102
RTVSPost2010Prop29
280
     1
102
RTVSPost2010PropOp29
 70
     1
102
RTVSPost2010Prop30
280
     1
102
RTVSPost2010PropOp30
 70
     1
102
RTVSPost2010Prop31
280
     0
102
RTVSPost2010PropOp31
 70
     1
102
RTVSPost2010Prop32
280
     0
102
RTVSPost2010PropOp32
 70
     1
102
RTVSPost2010Prop33
280
     0
102
RTVSPost2010PropOp33
 70
     1
102
RTVSPost2010Prop34
280
     0
102
RTVSPost2010PropOp34
 70
     1
102
RTVSPost2010Prop35
280
     0
102
RTVSPost2010PropOp35
 70
     1
102
RTVSPost2010Prop36
280
     0
102
RTVSPost2010PropOp36
 70
     1
102
RTVSPost2010Prop37
 90
       50
102
RTVSPost2010PropOp37
 70
     1
102
RTVSPost2010Prop38
140
0.0
102
RTVSPost2010PropOp38
 70
     1
102
RTVSPost2010Prop39
140
1.0
102
RTVSPost2010PropOp39
 70
     1
102
RTVSPost2010Prop40
 90
        0
102
RTVSPost2010PropOp40
 70
     1
102
RTVSPost2010Prop41ColorIndex
 90
       18
102
RTVSPost2010Prop41ColorRGB
 90
        0
102
RTVSPost2010PropOp41
 70
     1
102
RTVSPost2010Prop42
 90
       50
102
RTVSPost2010PropOp42
 70
     1
102
RTVSPost2010Prop43
 90
        3
102
RTVSPost2010PropOp43
 70
     1
102
RTVSPost2010Prop44ColorIndex
 90
        5
102
RTVSPost2010Prop44ColorRGB
 90
      255
102
RTVSPost2010PropOp44
 70
     1
102
RTVSPost2010Prop45
280
     0
102
RTVSPost2010PropOp45
 70
     1
102
RTVSPost2010Prop46
 90
       50
102
RTVSPost2010PropOp46
 70
     1
102
RTVSPost2010Prop47
 90
       50
102
RTVSPost2010PropOp47
 70
     1
102
RTVSPost2010Prop48
 90
       50
102
RTVSPost2010PropOp48
 70
     1
102
RTVSPost2010Prop49
280
     0
102
RTVSPost2010PropOp49
 70
     1
102
RTVSPost2010Prop50
 90
       50
102
RTVSPost2010PropOp50
 70
     1
102
RTVSPost2010Prop51ColorIndex
 90
      256
102
RTVSPost2010Prop51ColorRGB
 90
-16777216
102
RTVSPost2010PropOp51
 70
     0
102
RTVSPost2010Prop52
140
1.0
102
RTVSPost2010PropOp52
 70
     0
102
RTVSPost2010Prop53
 90
        2
102
RTVSPost2010PropOp53
 70
     1
102
RTVSPost2010Prop54
  1
strokes_ogs.tif
102
RTVSPost2010PropOp54
 70
     1
102
RTVSPost2010Prop55
280
     0
102
RTVSPost2010PropOp55
 70
     1
102
RTVSPost2010Prop56
140
1.0
102
RTVSPost2010PropOp56
 70
     1
102
RTVSPost2010Prop57
140
1.0
102
RTVSPost2010PropOp57
 70
     1
102
RTVSPropertyOp0
 70
     1
102
RTVSPropertyOp1
 70
     1
102
RTVSPropertyOp2
 70
     1
102
RTVSPropertyOp3
 70
     1
102
RTVSPropertyOp4
 70
     1
102
RTVSPropertyOp5
 70
     1
102
RTVSPropertyOp6
 70
     1
102
RTVSPropertyOp7
 70
     1
102
RTVSPropertyOp8
 70
     1
102
RTVSPropertyOp9
 70
     1
102
RTVSPropertyOp10
 70
     1
102
RTVSPropertyOp11
 70
     1
102
RTVSPropertyOp12
 70
     1
102
RTVSPropertyOp13
 70
     1
102
RTVSPropertyOp14
 70
     1
102
RTVSPropertyOp15
 70
     1
102
RTVSPropertyOp16
 70
     1
102
RTVSPropertyOp17
 70
     1
102
RTVSPropertyOp18
 70
     1
102
RTVSPropertyOp19
 70
     1
102
RTVSPropertyOp20
 70
     1
102
RTVSPropertyOp21
 70
     1
102
RTVSPropertyOp22
 70
     1
102
RTVSPropertyOp23
 70
     1
102
RTVSPropertyOp24
 70
     1
102
RTVSPropertyOp25
 70
     1
102
RTVSPropertyOp26
 70
     1
102
RTVSPropertyOp27
 70
     1
102
RTVSPropertyOp28
 70
     1
102
RTVSPropertyOp29
 70
     1
102
RTVSPropertyOp30
 70
     1
102
RTVSPropertyOp31
 70
     1
102
RTVSPropertyOp32
 70
     1
102
RTVSPropertyOp33
 70
     1
102
RTVSPropertyOp34
 70
     1
102
RTVSPropertyOp35
 70
     1
102
RTVSPropertyOp36
 70
     1
102
RTVSPropertyOp37
 70
     1
102
RTVSPropertyOp38
 70
     1
102
RTVSPropertyOp39
 70
     1
102
RTVSPropertyOp40
 70
     1
102
RTVSPropertyOp41
 70
     1
102
RTVSPropertyOp42
 70
     1
102
RTVSPropertyOp43
 70
     1
102
RTVSPropertyOp44
 70
     1
102
RTVSPropertyOp45
 70
     1
102
RTVSPropertyOp46
 70
     1
102
RTVSPropertyOp47
 70
     1
102
RTVSPropertyOp48
 70
     1
102
RTVSPropertyOp49
 70
     1
102
RTVSPropertyOp50
 70
     1
102
RTVSPropertyOp51
 70
     0
102
RTVSPropertyOp52
 70
     0
102
RTVSPropertyOp53
 70
     1
102
RTVSPropertyOp54
 70
     1
102
RTVSPropertyOp55
 70
     1
102
RTVSPropertyOp56
 70
     1
102
RTVSPropertyOp57
 70
     1
102
RTVSPropertyOp58
 70
     1
102
RTVSPropertyOp59
 70
     1
102
RTVSPropertyOp60
 70
     1
102
RTVSPropertyOp61
 70
     1
102
RTVSPropertyOp62
 70
     1
  0
XRECORD
  5
AB64
102
{ACAD_REACTORS
330
AB63
102
}
330
AB63
100
AcDbXrecord
280
     1
102
RTVSPost2010Prop28
280
     0
102
RTVSPost2010PropOp28
 70
     1
102
RTVSPost2010Prop29
280
     1
102
RTVSPost2010PropOp29
 70
     1
102
RTVSPost2010Prop30
280
     1
102
RTVSPost2010PropOp30
 70
     1
102
RTVSPost2010Prop31
280
     0
102
RTVSPost2010PropOp31
 70
     1
102
RTVSPost2010Prop32
280
     0
102
RTVSPost2010PropOp32
 70
     1
102
RTVSPost2010Prop33
280
     0
102
RTVSPost2010PropOp33
 70
     1
102
RTVSPost2010Prop34
280
     0
102
RTVSPost2010PropOp34
 70
     1
102
RTVSPost2010Prop35
280
     0
102
RTVSPost2010PropOp35
 70
     1
102
RTVSPost2010Prop36
280
     0
102
RTVSPost2010PropOp36
 70
     1
102
RTVSPost2010Prop37
 90
       50
102
RTVSPost2010PropOp37
 70
     1
102
RTVSPost2010Prop38
140
0.0
102
RTVSPost2010PropOp38
 70
     1
102
RTVSPost2010Prop39
140
1.0
102
RTVSPost2010PropOp39
 70
     1
102
RTVSPost2010Prop40
 90
        0
102
RTVSPost2010PropOp40
 70
     1
102
RTVSPost2010Prop41ColorIndex
 90
       18
102
RTVSPost2010Prop41ColorRGB
 90
        0
102
RTVSPost2010PropOp41
 70
     1
102
RTVSPost2010Prop42
 90
       50
102
RTVSPost2010PropOp42
 70
     1
102
RTVSPost2010Prop43
 90
        3
102
RTVSPost2010PropOp43
 70
     1
102
RTVSPost2010Prop44ColorIndex
 90
        5
102
RTVSPost2010Prop44ColorRGB
 90
      255
102
RTVSPost2010PropOp44
 70
     1
102
RTVSPost2010Prop45
280
     0
102
RTVSPost2010PropOp45
 70
     1
102
RTVSPost2010Prop46
 90
       50
102
RTVSPost2010PropOp46
 70
     1
102
RTVSPost2010Prop47
 90
       50
102
RTVSPost2010PropOp47
 70
     1
102
RTVSPost2010Prop48
 90
       50
102
RTVSPost2010PropOp48
 70
     1
102
RTVSPost2010Prop49
280
     0
102
RTVSPost2010PropOp49
 70
     1
102
RTVSPost2010Prop50
 90
       50
102
RTVSPost2010PropOp50
 70
     1
102
RTVSPost2010Prop51ColorIndex
 90
      256
102
RTVSPost2010Prop51ColorRGB
 90
-16777216
102
RTVSPost2010PropOp51
 70
     0
102
RTVSPost2010Prop52
140
1.0
102
RTVSPost2010PropOp52
 70
     0
102
RTVSPost2010Prop53
 90
        2
102
RTVSPost2010PropOp53
 70
     1
102
RTVSPost2010Prop54
  1
strokes_ogs.tif
102
RTVSPost2010PropOp54
 70
     1
102
RTVSPost2010Prop55
280
     0
102
RTVSPost2010PropOp55
 70
     1
102
RTVSPost2010Prop56
140
1.0
102
RTVSPost2010PropOp56
 70
     1
102
RTVSPost2010Prop57
140
1.0
102
RTVSPost2010PropOp57
 70
     1
102
RTVSPropertyOp0
 70
     1
102
RTVSPropertyOp1
 70
     1
102
RTVSPropertyOp2
 70
     1
102
RTVSPropertyOp3
 70
     1
102
RTVSPropertyOp4
 70
     1
102
RTVSPropertyOp5
 70
     1
102
RTVSPropertyOp6
 70
     1
102
RTVSPropertyOp7
 70
     1
102
RTVSPropertyOp8
 70
     1
102
RTVSPropertyOp9
 70
     1
102
RTVSPropertyOp10
 70
     1
102
RTVSPropertyOp11
 70
     1
102
RTVSPropertyOp12
 70
     1
102
RTVSPropertyOp13
 70
     1
102
RTVSPropertyOp14
 70
     1
102
RTVSPropertyOp15
 70
     1
102
RTVSPropertyOp16
 70
     1
102
RTVSPropertyOp17
 70
     1
102
RTVSPropertyOp18
 70
     1
102
RTVSPropertyOp19
 70
     1
102
RTVSPropertyOp20
 70
     1
102
RTVSPropertyOp21
 70
     1
102
RTVSPropertyOp22
 70
     1
102
RTVSPropertyOp23
 70
     1
102
RTVSPropertyOp24
 70
     1
102
RTVSPropertyOp25
 70
     1
102
RTVSPropertyOp26
 70
     1
102
RTVSPropertyOp27
 70
     1
102
RTVSPropertyOp28
 70
     1
102
RTVSPropertyOp29
 70
     1
102
RTVSPropertyOp30
 70
     1
102
RTVSPropertyOp31
 70
     1
102
RTVSPropertyOp32
 70
     1
102
RTVSPropertyOp33
 70
     1
102
RTVSPropertyOp34
 70
     1
102
RTVSPropertyOp35
 70
     1
102
RTVSPropertyOp36
 70
     1
102
RTVSPropertyOp37
 70
     1
102
RTVSPropertyOp38
 70
     1
102
RTVSPropertyOp39
 70
     1
102
RTVSPropertyOp40
 70
     1
102
RTVSPropertyOp41
 70
     1
102
RTVSPropertyOp42
 70
     1
102
RTVSPropertyOp43
 70
     1
102
RTVSPropertyOp44
 70
     1
102
RTVSPropertyOp45
 70
     1
102
RTVSPropertyOp46
 70
     1
102
RTVSPropertyOp47
 70
     1
102
RTVSPropertyOp48
 70
     1
102
RTVSPropertyOp49
 70
     1
102
RTVSPropertyOp50
 70
     1
102
RTVSPropertyOp51
 70
     0
102
RTVSPropertyOp52
 70
     0
102
RTVSPropertyOp53
 70
     1
102
RTVSPropertyOp54
 70
     1
102
RTVSPropertyOp55
 70
     1
102
RTVSPropertyOp56
 70
     1
102
RTVSPropertyOp57
 70
     1
102
RTVSPropertyOp58
 70
     1
102
RTVSPropertyOp59
 70
     1
102
RTVSPropertyOp60
 70
     1
102
RTVSPropertyOp61
 70
     1
102
RTVSPropertyOp62
 70
     1
  0
XRECORD
  5
AB56
102
{ACAD_REACTORS
330
AB55
102
}
330
AB55
100
AcDbXrecord
280
     1
102
RTVSPost2010Prop28
280
     0
102
RTVSPost2010PropOp28
 70
     1
102
RTVSPost2010Prop29
280
     1
102
RTVSPost2010PropOp29
 70
     1
102
RTVSPost2010Prop30
280
     1
102
RTVSPost2010PropOp30
 70
     1
102
RTVSPost2010Prop31
280
     0
102
RTVSPost2010PropOp31
 70
     1
102
RTVSPost2010Prop32
280
     0
102
RTVSPost2010PropOp32
 70
     1
102
RTVSPost2010Prop33
280
     0
102
RTVSPost2010PropOp33
 70
     1
102
RTVSPost2010Prop34
280
     0
102
RTVSPost2010PropOp34
 70
     1
102
RTVSPost2010Prop35
280
     0
102
RTVSPost2010PropOp35
 70
     1
102
RTVSPost2010Prop36
280
     0
102
RTVSPost2010PropOp36
 70
     1
102
RTVSPost2010Prop37
 90
       50
102
RTVSPost2010PropOp37
 70
     1
102
RTVSPost2010Prop38
140
0.0
102
RTVSPost2010PropOp38
 70
     1
102
RTVSPost2010Prop39
140
1.0
102
RTVSPost2010PropOp39
 70
     1
102
RTVSPost2010Prop40
 90
        0
102
RTVSPost2010PropOp40
 70
     1
102
RTVSPost2010Prop41ColorIndex
 90
       18
102
RTVSPost2010Prop41ColorRGB
 90
        0
102
RTVSPost2010PropOp41
 70
     1
102
RTVSPost2010Prop42
 90
       50
102
RTVSPost2010PropOp42
 70
     1
102
RTVSPost2010Prop43
 90
        3
102
RTVSPost2010PropOp43
 70
     1
102
RTVSPost2010Prop44ColorIndex
 90
        5
102
RTVSPost2010Prop44ColorRGB
 90
      255
102
RTVSPost2010PropOp44
 70
     1
102
RTVSPost2010Prop45
280
     0
102
RTVSPost2010PropOp45
 70
     1
102
RTVSPost2010Prop46
 90
       50
102
RTVSPost2010PropOp46
 70
     1
102
RTVSPost2010Prop47
 90
       50
102
RTVSPost2010PropOp47
 70
     1
102
RTVSPost2010Prop48
 90
       50
102
RTVSPost2010PropOp48
 70
     1
102
RTVSPost2010Prop49
280
     0
102
RTVSPost2010PropOp49
 70
     1
102
RTVSPost2010Prop50
 90
       50
102
RTVSPost2010PropOp50
 70
     1
102
RTVSPost2010Prop51ColorIndex
 90
      256
102
RTVSPost2010Prop51ColorRGB
 90
-16777216
102
RTVSPost2010PropOp51
 70
     0
102
RTVSPost2010Prop52
140
1.0
102
RTVSPost2010PropOp52
 70
     0
102
RTVSPost2010Prop53
 90
        2
102
RTVSPost2010PropOp53
 70
     1
102
RTVSPost2010Prop54
  1
strokes_ogs.tif
102
RTVSPost2010PropOp54
 70
     1
102
RTVSPost2010Prop55
280
     0
102
RTVSPost2010PropOp55
 70
     1
102
RTVSPost2010Prop56
140
1.0
102
RTVSPost2010PropOp56
 70
     1
102
RTVSPost2010Prop57
140
1.0
102
RTVSPost2010PropOp57
 70
     1
102
RTVSPropertyOp0
 70
     1
102
RTVSPropertyOp1
 70
     1
102
RTVSPropertyOp2
 70
     1
102
RTVSPropertyOp3
 70
     1
102
RTVSPropertyOp4
 70
     1
102
RTVSPropertyOp5
 70
     1
102
RTVSPropertyOp6
 70
     1
102
RTVSPropertyOp7
 70
     1
102
RTVSPropertyOp8
 70
     1
102
RTVSPropertyOp9
 70
     1
102
RTVSPropertyOp10
 70
     1
102
RTVSPropertyOp11
 70
     1
102
RTVSPropertyOp12
 70
     1
102
RTVSPropertyOp13
 70
     1
102
RTVSPropertyOp14
 70
     1
102
RTVSPropertyOp15
 70
     1
102
RTVSPropertyOp16
 70
     1
102
RTVSPropertyOp17
 70
     1
102
RTVSPropertyOp18
 70
     1
102
RTVSPropertyOp19
 70
     1
102
RTVSPropertyOp20
 70
     1
102
RTVSPropertyOp21
 70
     1
102
RTVSPropertyOp22
 70
     1
102
RTVSPropertyOp23
 70
     1
102
RTVSPropertyOp24
 70
     1
102
RTVSPropertyOp25
 70
     1
102
RTVSPropertyOp26
 70
     1
102
RTVSPropertyOp27
 70
     1
102
RTVSPropertyOp28
 70
     1
102
RTVSPropertyOp29
 70
     1
102
RTVSPropertyOp30
 70
     1
102
RTVSPropertyOp31
 70
     1
102
RTVSPropertyOp32
 70
     1
102
RTVSPropertyOp33
 70
     1
102
RTVSPropertyOp34
 70
     1
102
RTVSPropertyOp35
 70
     1
102
RTVSPropertyOp36
 70
     1
102
RTVSPropertyOp37
 70
     1
102
RTVSPropertyOp38
 70
     1
102
RTVSPropertyOp39
 70
     1
102
RTVSPropertyOp40
 70
     1
102
RTVSPropertyOp41
 70
     1
102
RTVSPropertyOp42
 70
     1
102
RTVSPropertyOp43
 70
     1
102
RTVSPropertyOp44
 70
     1
102
RTVSPropertyOp45
 70
     1
102
RTVSPropertyOp46
 70
     1
102
RTVSPropertyOp47
 70
     1
102
RTVSPropertyOp48
 70
     1
102
RTVSPropertyOp49
 70
     1
102
RTVSPropertyOp50
 70
     1
102
RTVSPropertyOp51
 70
     0
102
RTVSPropertyOp52
 70
     0
102
RTVSPropertyOp53
 70
     1
102
RTVSPropertyOp54
 70
     1
102
RTVSPropertyOp55
 70
     1
102
RTVSPropertyOp56
 70
     1
102
RTVSPropertyOp57
 70
     1
102
RTVSPropertyOp58
 70
     1
102
RTVSPropertyOp59
 70
     1
102
RTVSPropertyOp60
 70
     1
102
RTVSPropertyOp61
 70
     1
102
RTVSPropertyOp62
 70
     1
  0
XRECORD
  5
AB5A
102
{ACAD_REACTORS
330
AB59
102
}
330
AB59
100
AcDbXrecord
280
     1
102
RTVSPost2010Prop28
280
     0
102
RTVSPost2010PropOp28
 70
     1
102
RTVSPost2010Prop29
280
     1
102
RTVSPost2010PropOp29
 70
     1
102
RTVSPost2010Prop30
280
     1
102
RTVSPost2010PropOp30
 70
     1
102
RTVSPost2010Prop31
280
     0
102
RTVSPost2010PropOp31
 70
     1
102
RTVSPost2010Prop32
280
     0
102
RTVSPost2010PropOp32
 70
     1
102
RTVSPost2010Prop33
280
     0
102
RTVSPost2010PropOp33
 70
     1
102
RTVSPost2010Prop34
280
     0
102
RTVSPost2010PropOp34
 70
     1
102
RTVSPost2010Prop35
280
     0
102
RTVSPost2010PropOp35
 70
     1
102
RTVSPost2010Prop36
280
     0
102
RTVSPost2010PropOp36
 70
     1
102
RTVSPost2010Prop37
 90
       50
102
RTVSPost2010PropOp37
 70
     1
102
RTVSPost2010Prop38
140
0.0
102
RTVSPost2010PropOp38
 70
     1
102
RTVSPost2010Prop39
140
1.0
102
RTVSPost2010PropOp39
 70
     1
102
RTVSPost2010Prop40
 90
        0
102
RTVSPost2010PropOp40
 70
     1
102
RTVSPost2010Prop41ColorIndex
 90
       18
102
RTVSPost2010Prop41ColorRGB
 90
        0
102
RTVSPost2010PropOp41
 70
     1
102
RTVSPost2010Prop42
 90
       50
102
RTVSPost2010PropOp42
 70
     1
102
RTVSPost2010Prop43
 90
        3
102
RTVSPost2010PropOp43
 70
     1
102
RTVSPost2010Prop44ColorIndex
 90
        5
102
RTVSPost2010Prop44ColorRGB
 90
      255
102
RTVSPost2010PropOp44
 70
     1
102
RTVSPost2010Prop45
280
     0
102
RTVSPost2010PropOp45
 70
     1
102
RTVSPost2010Prop46
 90
       50
102
RTVSPost2010PropOp46
 70
     1
102
RTVSPost2010Prop47
 90
       50
102
RTVSPost2010PropOp47
 70
     1
102
RTVSPost2010Prop48
 90
       50
102
RTVSPost2010PropOp48
 70
     1
102
RTVSPost2010Prop49
280
     0
102
RTVSPost2010PropOp49
 70
     1
102
RTVSPost2010Prop50
 90
       50
102
RTVSPost2010PropOp50
 70
     1
102
RTVSPost2010Prop51ColorIndex
 90
      256
102
RTVSPost2010Prop51ColorRGB
 90
-16777216
102
RTVSPost2010PropOp51
 70
     0
102
RTVSPost2010Prop52
140
1.0
102
RTVSPost2010PropOp52
 70
     0
102
RTVSPost2010Prop53
 90
        2
102
RTVSPost2010PropOp53
 70
     1
102
RTVSPost2010Prop54
  1
strokes_ogs.tif
102
RTVSPost2010PropOp54
 70
     1
102
RTVSPost2010Prop55
280
     0
102
RTVSPost2010PropOp55
 70
     1
102
RTVSPost2010Prop56
140
1.0
102
RTVSPost2010PropOp56
 70
     1
102
RTVSPost2010Prop57
140
1.0
102
RTVSPost2010PropOp57
 70
     1
102
RTVSPropertyOp0
 70
     1
102
RTVSPropertyOp1
 70
     1
102
RTVSPropertyOp2
 70
     1
102
RTVSPropertyOp3
 70
     1
102
RTVSPropertyOp4
 70
     1
102
RTVSPropertyOp5
 70
     1
102
RTVSPropertyOp6
 70
     1
102
RTVSPropertyOp7
 70
     1
102
RTVSPropertyOp8
 70
     1
102
RTVSPropertyOp9
 70
     1
102
RTVSPropertyOp10
 70
     1
102
RTVSPropertyOp11
 70
     1
102
RTVSPropertyOp12
 70
     1
102
RTVSPropertyOp13
 70
     1
102
RTVSPropertyOp14
 70
     1
102
RTVSPropertyOp15
 70
     1
102
RTVSPropertyOp16
 70
     1
102
RTVSPropertyOp17
 70
     1
102
RTVSPropertyOp18
 70
     1
102
RTVSPropertyOp19
 70
     1
102
RTVSPropertyOp20
 70
     1
102
RTVSPropertyOp21
 70
     1
102
RTVSPropertyOp22
 70
     1
102
RTVSPropertyOp23
 70
     1
102
RTVSPropertyOp24
 70
     1
102
RTVSPropertyOp25
 70
     1
102
RTVSPropertyOp26
 70
     1
102
RTVSPropertyOp27
 70
     1
102
RTVSPropertyOp28
 70
     1
102
RTVSPropertyOp29
 70
     1
102
RTVSPropertyOp30
 70
     1
102
RTVSPropertyOp31
 70
     1
102
RTVSPropertyOp32
 70
     1
102
RTVSPropertyOp33
 70
     1
102
RTVSPropertyOp34
 70
     1
102
RTVSPropertyOp35
 70
     1
102
RTVSPropertyOp36
 70
     1
102
RTVSPropertyOp37
 70
     1
102
RTVSPropertyOp38
 70
     1
102
RTVSPropertyOp39
 70
     1
102
RTVSPropertyOp40
 70
     1
102
RTVSPropertyOp41
 70
     1
102
RTVSPropertyOp42
 70
     1
102
RTVSPropertyOp43
 70
     1
102
RTVSPropertyOp44
 70
     1
102
RTVSPropertyOp45
 70
     1
102
RTVSPropertyOp46
 70
     1
102
RTVSPropertyOp47
 70
     1
102
RTVSPropertyOp48
 70
     1
102
RTVSPropertyOp49
 70
     1
102
RTVSPropertyOp50
 70
     1
102
RTVSPropertyOp51
 70
     0
102
RTVSPropertyOp52
 70
     0
102
RTVSPropertyOp53
 70
     1
102
RTVSPropertyOp54
 70
     1
102
RTVSPropertyOp55
 70
     1
102
RTVSPropertyOp56
 70
     1
102
RTVSPropertyOp57
 70
     1
102
RTVSPropertyOp58
 70
     1
102
RTVSPropertyOp59
 70
     1
102
RTVSPropertyOp60
 70
     1
102
RTVSPropertyOp61
 70
     1
102
RTVSPropertyOp62
 70
     1
  0
XRECORD
  5
AB74
102
{ACAD_REACTORS
330
AB73
102
}
330
AB73
100
AcDbXrecord
280
     1
102
RTVSPost2010Prop28
280
     0
102
RTVSPost2010PropOp28
 70
     1
102
RTVSPost2010Prop29
280
     1
102
RTVSPost2010PropOp29
 70
     1
102
RTVSPost2010Prop30
280
     1
102
RTVSPost2010PropOp30
 70
     1
102
RTVSPost2010Prop31
280
     0
102
RTVSPost2010PropOp31
 70
     1
102
RTVSPost2010Prop32
280
     0
102
RTVSPost2010PropOp32
 70
     1
102
RTVSPost2010Prop33
280
     0
102
RTVSPost2010PropOp33
 70
     1
102
RTVSPost2010Prop34
280
     0
102
RTVSPost2010PropOp34
 70
     1
102
RTVSPost2010Prop35
280
     0
102
RTVSPost2010PropOp35
 70
     1
102
RTVSPost2010Prop36
280
     0
102
RTVSPost2010PropOp36
 70
     1
102
RTVSPost2010Prop37
 90
       50
102
RTVSPost2010PropOp37
 70
     0
102
RTVSPost2010Prop38
140
0.0
102
RTVSPost2010PropOp38
 70
     0
102
RTVSPost2010Prop39
140
1.0
102
RTVSPost2010PropOp39
 70
     0
102
RTVSPost2010Prop40
 90
        0
102
RTVSPost2010PropOp40
 70
     0
102
RTVSPost2010Prop41ColorIndex
 90
       18
102
RTVSPost2010Prop41ColorRGB
 90
        0
102
RTVSPost2010PropOp41
 70
     0
102
RTVSPost2010Prop42
 90
       50
102
RTVSPost2010PropOp42
 70
     0
102
RTVSPost2010Prop43
 90
        3
102
RTVSPost2010PropOp43
 70
     0
102
RTVSPost2010Prop44ColorIndex
 90
        5
102
RTVSPost2010Prop44ColorRGB
 90
      255
102
RTVSPost2010PropOp44
 70
     0
102
RTVSPost2010Prop45
280
     0
102
RTVSPost2010PropOp45
 70
     1
102
RTVSPost2010Prop46
 90
       50
102
RTVSPost2010PropOp46
 70
     0
102
RTVSPost2010Prop47
 90
       50
102
RTVSPost2010PropOp47
 70
     0
102
RTVSPost2010Prop48
 90
       50
102
RTVSPost2010PropOp48
 70
     0
102
RTVSPost2010Prop49
280
     0
102
RTVSPost2010PropOp49
 70
     1
102
RTVSPost2010Prop50
 90
       50
102
RTVSPost2010PropOp50
 70
     0
102
RTVSPost2010Prop51ColorIndex
 90
      256
102
RTVSPost2010Prop51ColorRGB
 90
-16777216
102
RTVSPost2010PropOp51
 70
     0
102
RTVSPost2010Prop52
140
1.0
102
RTVSPost2010PropOp52
 70
     0
102
RTVSPost2010Prop53
 90
        2
102
RTVSPost2010PropOp53
 70
     0
102
RTVSPost2010Prop54
  1
strokes_ogs.tif
102
RTVSPost2010PropOp54
 70
     0
102
RTVSPost2010Prop55
280
     0
102
RTVSPost2010PropOp55
 70
     1
102
RTVSPost2010Prop56
140
1.0
102
RTVSPost2010PropOp56
 70
     0
102
RTVSPost2010Prop57
140
1.0
102
RTVSPost2010PropOp57
 70
     0
102
RTVSPropertyOp0
 70
     0
102
RTVSPropertyOp1
 70
     0
102
RTVSPropertyOp2
 70
     0
102
RTVSPropertyOp3
 70
     0
102
RTVSPropertyOp4
 70
     0
102
RTVSPropertyOp5
 70
     0
102
RTVSPropertyOp6
 70
     0
102
RTVSPropertyOp7
 70
     0
102
RTVSPropertyOp8
 70
     0
102
RTVSPropertyOp9
 70
     0
102
RTVSPropertyOp10
 70
     0
102
RTVSPropertyOp11
 70
     0
102
RTVSPropertyOp12
 70
     0
102
RTVSPropertyOp13
 70
     0
102
RTVSPropertyOp14
 70
     2
102
RTVSPropertyOp15
 70
     0
102
RTVSPropertyOp16
 70
     0
102
RTVSPropertyOp17
 70
     0
102
RTVSPropertyOp18
 70
     0
102
RTVSPropertyOp19
 70
     0
102
RTVSPropertyOp20
 70
     0
102
RTVSPropertyOp21
 70
     0
102
RTVSPropertyOp22
 70
     0
102
RTVSPropertyOp23
 70
     0
102
RTVSPropertyOp24
 70
     0
102
RTVSPropertyOp25
 70
     0
102
RTVSPropertyOp26
 70
     0
102
RTVSPropertyOp27
 70
     0
102
RTVSPropertyOp28
 70
     1
102
RTVSPropertyOp29
 70
     1
102
RTVSPropertyOp30
 70
     1
102
RTVSPropertyOp31
 70
     1
102
RTVSPropertyOp32
 70
     1
102
RTVSPropertyOp33
 70
     1
102
RTVSPropertyOp34
 70
     1
102
RTVSPropertyOp35
 70
     1
102
RTVSPropertyOp36
 70
     1
102
RTVSPropertyOp37
 70
     0
102
RTVSPropertyOp38
 70
     0
102
RTVSPropertyOp39
 70
     0
102
RTVSPropertyOp40
 70
     0
102
RTVSPropertyOp41
 70
     0
102
RTVSPropertyOp42
 70
     0
102
RTVSPropertyOp43
 70
     0
102
RTVSPropertyOp44
 70
     0
102
RTVSPropertyOp45
 70
     1
102
RTVSPropertyOp46
 70
     0
102
RTVSPropertyOp47
 70
     0
102
RTVSPropertyOp48
 70
     0
102
RTVSPropertyOp49
 70
     1
102
RTVSPropertyOp50
 70
     0
102
RTVSPropertyOp51
 70
     0
102
RTVSPropertyOp52
 70
     0
102
RTVSPropertyOp53
 70
     0
102
RTVSPropertyOp54
 70
     0
102
RTVSPropertyOp55
 70
     1
102
RTVSPropertyOp56
 70
     0
102
RTVSPropertyOp57
 70
     0
102
RTVSPropertyOp58
 70
     0
102
RTVSPropertyOp59
 70
     0
102
RTVSPropertyOp60
 70
     0
102
RTVSPropertyOp61
 70
     0
102
RTVSPropertyOp62
 70
     0
  0
XRECORD
  5
AB62
102
{ACAD_REACTORS
330
AB61
102
}
330
AB61
100
AcDbXrecord
280
     1
102
RTVSPost2010Prop28
280
     0
102
RTVSPost2010PropOp28
 70
     1
102
RTVSPost2010Prop29
280
     1
102
RTVSPost2010PropOp29
 70
     1
102
RTVSPost2010Prop30
280
     1
102
RTVSPost2010PropOp30
 70
     1
102
RTVSPost2010Prop31
280
     0
102
RTVSPost2010PropOp31
 70
     1
102
RTVSPost2010Prop32
280
     0
102
RTVSPost2010PropOp32
 70
     1
102
RTVSPost2010Prop33
280
     0
102
RTVSPost2010PropOp33
 70
     1
102
RTVSPost2010Prop34
280
     0
102
RTVSPost2010PropOp34
 70
     1
102
RTVSPost2010Prop35
280
     0
102
RTVSPost2010PropOp35
 70
     1
102
RTVSPost2010Prop36
280
     0
102
RTVSPost2010PropOp36
 70
     1
102
RTVSPost2010Prop37
 90
       50
102
RTVSPost2010PropOp37
 70
     1
102
RTVSPost2010Prop38
140
0.0
102
RTVSPost2010PropOp38
 70
     1
102
RTVSPost2010Prop39
140
1.0
102
RTVSPost2010PropOp39
 70
     1
102
RTVSPost2010Prop40
 90
        0
102
RTVSPost2010PropOp40
 70
     1
102
RTVSPost2010Prop41ColorIndex
 90
       18
102
RTVSPost2010Prop41ColorRGB
 90
        0
102
RTVSPost2010PropOp41
 70
     1
102
RTVSPost2010Prop42
 90
       50
102
RTVSPost2010PropOp42
 70
     1
102
RTVSPost2010Prop43
 90
        3
102
RTVSPost2010PropOp43
 70
     1
102
RTVSPost2010Prop44ColorIndex
 90
        5
102
RTVSPost2010Prop44ColorRGB
 90
      255
102
RTVSPost2010PropOp44
 70
     1
102
RTVSPost2010Prop45
280
     0
102
RTVSPost2010PropOp45
 70
     1
102
RTVSPost2010Prop46
 90
       50
102
RTVSPost2010PropOp46
 70
     1
102
RTVSPost2010Prop47
 90
       50
102
RTVSPost2010PropOp47
 70
     1
102
RTVSPost2010Prop48
 90
       50
102
RTVSPost2010PropOp48
 70
     1
102
RTVSPost2010Prop49
280
     0
102
RTVSPost2010PropOp49
 70
     1
102
RTVSPost2010Prop50
 90
       50
102
RTVSPost2010PropOp50
 70
     1
102
RTVSPost2010Prop51ColorIndex
 90
      256
102
RTVSPost2010Prop51ColorRGB
 90
-16777216
102
RTVSPost2010PropOp51
 70
     0
102
RTVSPost2010Prop52
140
1.0
102
RTVSPost2010PropOp52
 70
     0
102
RTVSPost2010Prop53
 90
        2
102
RTVSPost2010PropOp53
 70
     1
102
RTVSPost2010Prop54
  1
strokes_ogs.tif
102
RTVSPost2010PropOp54
 70
     1
102
RTVSPost2010Prop55
280
     0
102
RTVSPost2010PropOp55
 70
     1
102
RTVSPost2010Prop56
140
1.0
102
RTVSPost2010PropOp56
 70
     1
102
RTVSPost2010Prop57
140
1.0
102
RTVSPost2010PropOp57
 70
     1
102
RTVSPropertyOp0
 70
     1
102
RTVSPropertyOp1
 70
     1
102
RTVSPropertyOp2
 70
     1
102
RTVSPropertyOp3
 70
     1
102
RTVSPropertyOp4
 70
     1
102
RTVSPropertyOp5
 70
     1
102
RTVSPropertyOp6
 70
     1
102
RTVSPropertyOp7
 70
     1
102
RTVSPropertyOp8
 70
     1
102
RTVSPropertyOp9
 70
     1
102
RTVSPropertyOp10
 70
     1
102
RTVSPropertyOp11
 70
     1
102
RTVSPropertyOp12
 70
     1
102
RTVSPropertyOp13
 70
     1
102
RTVSPropertyOp14
 70
     1
102
RTVSPropertyOp15
 70
     1
102
RTVSPropertyOp16
 70
     1
102
RTVSPropertyOp17
 70
     1
102
RTVSPropertyOp18
 70
     1
102
RTVSPropertyOp19
 70
     1
102
RTVSPropertyOp20
 70
     1
102
RTVSPropertyOp21
 70
     1
102
RTVSPropertyOp22
 70
     1
102
RTVSPropertyOp23
 70
     1
102
RTVSPropertyOp24
 70
     1
102
RTVSPropertyOp25
 70
     1
102
RTVSPropertyOp26
 70
     1
102
RTVSPropertyOp27
 70
     1
102
RTVSPropertyOp28
 70
     1
102
RTVSPropertyOp29
 70
     1
102
RTVSPropertyOp30
 70
     1
102
RTVSPropertyOp31
 70
     1
102
RTVSPropertyOp32
 70
     1
102
RTVSPropertyOp33
 70
     1
102
RTVSPropertyOp34
 70
     1
102
RTVSPropertyOp35
 70
     1
102
RTVSPropertyOp36
 70
     1
102
RTVSPropertyOp37
 70
     1
102
RTVSPropertyOp38
 70
     1
102
RTVSPropertyOp39
 70
     1
102
RTVSPropertyOp40
 70
     1
102
RTVSPropertyOp41
 70
     1
102
RTVSPropertyOp42
 70
     1
102
RTVSPropertyOp43
 70
     1
102
RTVSPropertyOp44
 70
     1
102
RTVSPropertyOp45
 70
     1
102
RTVSPropertyOp46
 70
     1
102
RTVSPropertyOp47
 70
     1
102
RTVSPropertyOp48
 70
     1
102
RTVSPropertyOp49
 70
     1
102
RTVSPropertyOp50
 70
     1
102
RTVSPropertyOp51
 70
     0
102
RTVSPropertyOp52
 70
     0
102
RTVSPropertyOp53
 70
     1
102
RTVSPropertyOp54
 70
     1
102
RTVSPropertyOp55
 70
     1
102
RTVSPropertyOp56
 70
     1
102
RTVSPropertyOp57
 70
     1
102
RTVSPropertyOp58
 70
     1
102
RTVSPropertyOp59
 70
     1
102
RTVSPropertyOp60
 70
     1
102
RTVSPropertyOp61
 70
     1
102
RTVSPropertyOp62
 70
     1
  0
XRECORD
  5
AB46
102
{ACAD_REACTORS
330
AB45
102
}
330
AB45
100
AcDbXrecord
280
     1
102
RTVSPost2010Prop28
280
     0
102
RTVSPost2010PropOp28
 70
     1
102
RTVSPost2010Prop29
280
     1
102
RTVSPost2010PropOp29
 70
     1
102
RTVSPost2010Prop30
280
     1
102
RTVSPost2010PropOp30
 70
     1
102
RTVSPost2010Prop31
280
     0
102
RTVSPost2010PropOp31
 70
     1
102
RTVSPost2010Prop32
280
     0
102
RTVSPost2010PropOp32
 70
     1
102
RTVSPost2010Prop33
280
     0
102
RTVSPost2010PropOp33
 70
     1
102
RTVSPost2010Prop34
280
     0
102
RTVSPost2010PropOp34
 70
     1
102
RTVSPost2010Prop35
280
     0
102
RTVSPost2010PropOp35
 70
     1
102
RTVSPost2010Prop36
280
     0
102
RTVSPost2010PropOp36
 70
     1
102
RTVSPost2010Prop37
 90
       50
102
RTVSPost2010PropOp37
 70
     1
102
RTVSPost2010Prop38
140
0.0
102
RTVSPost2010PropOp38
 70
     1
102
RTVSPost2010Prop39
140
1.0
102
RTVSPost2010PropOp39
 70
     1
102
RTVSPost2010Prop40
 90
        0
102
RTVSPost2010PropOp40
 70
     1
102
RTVSPost2010Prop41ColorIndex
 90
       18
102
RTVSPost2010Prop41ColorRGB
 90
        0
102
RTVSPost2010PropOp41
 70
     1
102
RTVSPost2010Prop42
 90
       50
102
RTVSPost2010PropOp42
 70
     1
102
RTVSPost2010Prop43
 90
        3
102
RTVSPost2010PropOp43
 70
     1
102
RTVSPost2010Prop44ColorIndex
 90
        5
102
RTVSPost2010Prop44ColorRGB
 90
      255
102
RTVSPost2010PropOp44
 70
     1
102
RTVSPost2010Prop45
280
     0
102
RTVSPost2010PropOp45
 70
     1
102
RTVSPost2010Prop46
 90
       50
102
RTVSPost2010PropOp46
 70
     1
102
RTVSPost2010Prop47
 90
       50
102
RTVSPost2010PropOp47
 70
     1
102
RTVSPost2010Prop48
 90
       50
102
RTVSPost2010PropOp48
 70
     1
102
RTVSPost2010Prop49
280
     0
102
RTVSPost2010PropOp49
 70
     1
102
RTVSPost2010Prop50
 90
       50
102
RTVSPost2010PropOp50
 70
     1
102
RTVSPost2010Prop51ColorIndex
 90
      256
102
RTVSPost2010Prop51ColorRGB
 90
-16777216
102
RTVSPost2010PropOp51
 70
     0
102
RTVSPost2010Prop52
140
1.0
102
RTVSPost2010PropOp52
 70
     0
102
RTVSPost2010Prop53
 90
        2
102
RTVSPost2010PropOp53
 70
     1
102
RTVSPost2010Prop54
  1
strokes_ogs.tif
102
RTVSPost2010PropOp54
 70
     1
102
RTVSPost2010Prop55
280
     0
102
RTVSPost2010PropOp55
 70
     1
102
RTVSPost2010Prop56
140
1.0
102
RTVSPost2010PropOp56
 70
     1
102
RTVSPost2010Prop57
140
1.0
102
RTVSPost2010PropOp57
 70
     1
102
RTVSPropertyOp0
 70
     1
102
RTVSPropertyOp1
 70
     1
102
RTVSPropertyOp2
 70
     1
102
RTVSPropertyOp3
 70
     1
102
RTVSPropertyOp4
 70
     1
102
RTVSPropertyOp5
 70
     1
102
RTVSPropertyOp6
 70
     1
102
RTVSPropertyOp7
 70
     1
102
RTVSPropertyOp8
 70
     1
102
RTVSPropertyOp9
 70
     1
102
RTVSPropertyOp10
 70
     1
102
RTVSPropertyOp11
 70
     1
102
RTVSPropertyOp12
 70
     1
102
RTVSPropertyOp13
 70
     1
102
RTVSPropertyOp14
 70
     1
102
RTVSPropertyOp15
 70
     1
102
RTVSPropertyOp16
 70
     1
102
RTVSPropertyOp17
 70
     1
102
RTVSPropertyOp18
 70
     1
102
RTVSPropertyOp19
 70
     1
102
RTVSPropertyOp20
 70
     1
102
RTVSPropertyOp21
 70
     1
102
RTVSPropertyOp22
 70
     1
102
RTVSPropertyOp23
 70
     1
102
RTVSPropertyOp24
 70
     1
102
RTVSPropertyOp25
 70
     1
102
RTVSPropertyOp26
 70
     1
102
RTVSPropertyOp27
 70
     1
102
RTVSPropertyOp28
 70
     1
102
RTVSPropertyOp29
 70
     1
102
RTVSPropertyOp30
 70
     1
102
RTVSPropertyOp31
 70
     1
102
RTVSPropertyOp32
 70
     1
102
RTVSPropertyOp33
 70
     1
102
RTVSPropertyOp34
 70
     1
102
RTVSPropertyOp35
 70
     1
102
RTVSPropertyOp36
 70
     1
102
RTVSPropertyOp37
 70
     1
102
RTVSPropertyOp38
 70
     1
102
RTVSPropertyOp39
 70
     1
102
RTVSPropertyOp40
 70
     1
102
RTVSPropertyOp41
 70
     1
102
RTVSPropertyOp42
 70
     1
102
RTVSPropertyOp43
 70
     1
102
RTVSPropertyOp44
 70
     1
102
RTVSPropertyOp45
 70
     1
102
RTVSPropertyOp46
 70
     1
102
RTVSPropertyOp47
 70
     1
102
RTVSPropertyOp48
 70
     1
102
RTVSPropertyOp49
 70
     1
102
RTVSPropertyOp50
 70
     1
102
RTVSPropertyOp51
 70
     0
102
RTVSPropertyOp52
 70
     0
102
RTVSPropertyOp53
 70
     1
102
RTVSPropertyOp54
 70
     1
102
RTVSPropertyOp55
 70
     1
102
RTVSPropertyOp56
 70
     1
102
RTVSPropertyOp57
 70
     1
102
RTVSPropertyOp58
 70
     1
102
RTVSPropertyOp59
 70
     1
102
RTVSPropertyOp60
 70
     1
102
RTVSPropertyOp61
 70
     1
102
RTVSPropertyOp62
 70
     1
  0
XRECORD
  5
AB48
102
{ACAD_REACTORS
330
AB47
102
}
330
AB47
100
AcDbXrecord
280
     1
102
RTVSPost2010Prop28
280
     0
102
RTVSPost2010PropOp28
 70
     1
102
RTVSPost2010Prop29
280
     1
102
RTVSPost2010PropOp29
 70
     1
102
RTVSPost2010Prop30
280
     1
102
RTVSPost2010PropOp30
 70
     1
102
RTVSPost2010Prop31
280
     0
102
RTVSPost2010PropOp31
 70
     1
102
RTVSPost2010Prop32
280
     0
102
RTVSPost2010PropOp32
 70
     1
102
RTVSPost2010Prop33
280
     0
102
RTVSPost2010PropOp33
 70
     1
102
RTVSPost2010Prop34
280
     0
102
RTVSPost2010PropOp34
 70
     1
102
RTVSPost2010Prop35
280
     0
102
RTVSPost2010PropOp35
 70
     1
102
RTVSPost2010Prop36
280
     0
102
RTVSPost2010PropOp36
 70
     1
102
RTVSPost2010Prop37
 90
       50
102
RTVSPost2010PropOp37
 70
     1
102
RTVSPost2010Prop38
140
0.0
102
RTVSPost2010PropOp38
 70
     1
102
RTVSPost2010Prop39
140
1.0
102
RTVSPost2010PropOp39
 70
     1
102
RTVSPost2010Prop40
 90
        0
102
RTVSPost2010PropOp40
 70
     1
102
RTVSPost2010Prop41ColorIndex
 90
       18
102
RTVSPost2010Prop41ColorRGB
 90
        0
102
RTVSPost2010PropOp41
 70
     1
102
RTVSPost2010Prop42
 90
       50
102
RTVSPost2010PropOp42
 70
     1
102
RTVSPost2010Prop43
 90
        3
102
RTVSPost2010PropOp43
 70
     1
102
RTVSPost2010Prop44ColorIndex
 90
        5
102
RTVSPost2010Prop44ColorRGB
 90
      255
102
RTVSPost2010PropOp44
 70
     1
102
RTVSPost2010Prop45
280
     0
102
RTVSPost2010PropOp45
 70
     1
102
RTVSPost2010Prop46
 90
       50
102
RTVSPost2010PropOp46
 70
     1
102
RTVSPost2010Prop47
 90
       50
102
RTVSPost2010PropOp47
 70
     1
102
RTVSPost2010Prop48
 90
       50
102
RTVSPost2010PropOp48
 70
     1
102
RTVSPost2010Prop49
280
     0
102
RTVSPost2010PropOp49
 70
     1
102
RTVSPost2010Prop50
 90
       50
102
RTVSPost2010PropOp50
 70
     1
102
RTVSPost2010Prop51ColorIndex
 90
      256
102
RTVSPost2010Prop51ColorRGB
 90
-16777216
102
RTVSPost2010PropOp51
 70
     0
102
RTVSPost2010Prop52
140
1.0
102
RTVSPost2010PropOp52
 70
     0
102
RTVSPost2010Prop53
 90
        2
102
RTVSPost2010PropOp53
 70
     1
102
RTVSPost2010Prop54
  1
strokes_ogs.tif
102
RTVSPost2010PropOp54
 70
     1
102
RTVSPost2010Prop55
280
     0
102
RTVSPost2010PropOp55
 70
     1
102
RTVSPost2010Prop56
140
1.0
102
RTVSPost2010PropOp56
 70
     1
102
RTVSPost2010Prop57
140
1.0
102
RTVSPost2010PropOp57
 70
     1
102
RTVSPropertyOp0
 70
     1
102
RTVSPropertyOp1
 70
     1
102
RTVSPropertyOp2
 70
     1
102
RTVSPropertyOp3
 70
     1
102
RTVSPropertyOp4
 70
     1
102
RTVSPropertyOp5
 70
     1
102
RTVSPropertyOp6
 70
     1
102
RTVSPropertyOp7
 70
     1
102
RTVSPropertyOp8
 70
     1
102
RTVSPropertyOp9
 70
     1
102
RTVSPropertyOp10
 70
     1
102
RTVSPropertyOp11
 70
     1
102
RTVSPropertyOp12
 70
     1
102
RTVSPropertyOp13
 70
     1
102
RTVSPropertyOp14
 70
     1
102
RTVSPropertyOp15
 70
     1
102
RTVSPropertyOp16
 70
     1
102
RTVSPropertyOp17
 70
     1
102
RTVSPropertyOp18
 70
     1
102
RTVSPropertyOp19
 70
     1
102
RTVSPropertyOp20
 70
     1
102
RTVSPropertyOp21
 70
     1
102
RTVSPropertyOp22
 70
     1
102
RTVSPropertyOp23
 70
     1
102
RTVSPropertyOp24
 70
     1
102
RTVSPropertyOp25
 70
     1
102
RTVSPropertyOp26
 70
     1
102
RTVSPropertyOp27
 70
     1
102
RTVSPropertyOp28
 70
     1
102
RTVSPropertyOp29
 70
     1
102
RTVSPropertyOp30
 70
     1
102
RTVSPropertyOp31
 70
     1
102
RTVSPropertyOp32
 70
     1
102
RTVSPropertyOp33
 70
     1
102
RTVSPropertyOp34
 70
     1
102
RTVSPropertyOp35
 70
     1
102
RTVSPropertyOp36
 70
     1
102
RTVSPropertyOp37
 70
     1
102
RTVSPropertyOp38
 70
     1
102
RTVSPropertyOp39
 70
     1
102
RTVSPropertyOp40
 70
     1
102
RTVSPropertyOp41
 70
     1
102
RTVSPropertyOp42
 70
     1
102
RTVSPropertyOp43
 70
     1
102
RTVSPropertyOp44
 70
     1
102
RTVSPropertyOp45
 70
     1
102
RTVSPropertyOp46
 70
     1
102
RTVSPropertyOp47
 70
     1
102
RTVSPropertyOp48
 70
     1
102
RTVSPropertyOp49
 70
     1
102
RTVSPropertyOp50
 70
     1
102
RTVSPropertyOp51
 70
     0
102
RTVSPropertyOp52
 70
     0
102
RTVSPropertyOp53
 70
     1
102
RTVSPropertyOp54
 70
     1
102
RTVSPropertyOp55
 70
     1
102
RTVSPropertyOp56
 70
     1
102
RTVSPropertyOp57
 70
     1
102
RTVSPropertyOp58
 70
     1
102
RTVSPropertyOp59
 70
     1
102
RTVSPropertyOp60
 70
     1
102
RTVSPropertyOp61
 70
     1
102
RTVSPropertyOp62
 70
     1
  0
XRECORD
  5
AB4A
102
{ACAD_REACTORS
330
AB49
102
}
330
AB49
100
AcDbXrecord
280
     1
102
RTVSPost2010Prop28
280
     0
102
RTVSPost2010PropOp28
 70
     1
102
RTVSPost2010Prop29
280
     1
102
RTVSPost2010PropOp29
 70
     1
102
RTVSPost2010Prop30
280
     1
102
RTVSPost2010PropOp30
 70
     1
102
RTVSPost2010Prop31
280
     0
102
RTVSPost2010PropOp31
 70
     1
102
RTVSPost2010Prop32
280
     0
102
RTVSPost2010PropOp32
 70
     1
102
RTVSPost2010Prop33
280
     0
102
RTVSPost2010PropOp33
 70
     1
102
RTVSPost2010Prop34
280
     0
102
RTVSPost2010PropOp34
 70
     1
102
RTVSPost2010Prop35
280
     0
102
RTVSPost2010PropOp35
 70
     1
102
RTVSPost2010Prop36
280
     0
102
RTVSPost2010PropOp36
 70
     1
102
RTVSPost2010Prop37
 90
       50
102
RTVSPost2010PropOp37
 70
     1
102
RTVSPost2010Prop38
140
0.0
102
RTVSPost2010PropOp38
 70
     1
102
RTVSPost2010Prop39
140
1.0
102
RTVSPost2010PropOp39
 70
     1
102
RTVSPost2010Prop40
 90
        0
102
RTVSPost2010PropOp40
 70
     1
102
RTVSPost2010Prop41ColorIndex
 90
       18
102
RTVSPost2010Prop41ColorRGB
 90
        0
102
RTVSPost2010PropOp41
 70
     1
102
RTVSPost2010Prop42
 90
       50
102
RTVSPost2010PropOp42
 70
     1
102
RTVSPost2010Prop43
 90
        3
102
RTVSPost2010PropOp43
 70
     1
102
RTVSPost2010Prop44ColorIndex
 90
        5
102
RTVSPost2010Prop44ColorRGB
 90
      255
102
RTVSPost2010PropOp44
 70
     1
102
RTVSPost2010Prop45
280
     0
102
RTVSPost2010PropOp45
 70
     1
102
RTVSPost2010Prop46
 90
       50
102
RTVSPost2010PropOp46
 70
     1
102
RTVSPost2010Prop47
 90
       50
102
RTVSPost2010PropOp47
 70
     1
102
RTVSPost2010Prop48
 90
       50
102
RTVSPost2010PropOp48
 70
     1
102
RTVSPost2010Prop49
280
     0
102
RTVSPost2010PropOp49
 70
     1
102
RTVSPost2010Prop50
 90
       50
102
RTVSPost2010PropOp50
 70
     1
102
RTVSPost2010Prop51ColorIndex
 90
      256
102
RTVSPost2010Prop51ColorRGB
 90
-16777216
102
RTVSPost2010PropOp51
 70
     0
102
RTVSPost2010Prop52
140
1.0
102
RTVSPost2010PropOp52
 70
     0
102
RTVSPost2010Prop53
 90
        2
102
RTVSPost2010PropOp53
 70
     1
102
RTVSPost2010Prop54
  1
strokes_ogs.tif
102
RTVSPost2010PropOp54
 70
     1
102
RTVSPost2010Prop55
280
     0
102
RTVSPost2010PropOp55
 70
     1
102
RTVSPost2010Prop56
140
1.0
102
RTVSPost2010PropOp56
 70
     1
102
RTVSPost2010Prop57
140
1.0
102
RTVSPost2010PropOp57
 70
     1
102
RTVSPropertyOp0
 70
     1
102
RTVSPropertyOp1
 70
     1
102
RTVSPropertyOp2
 70
     1
102
RTVSPropertyOp3
 70
     1
102
RTVSPropertyOp4
 70
     1
102
RTVSPropertyOp5
 70
     1
102
RTVSPropertyOp6
 70
     1
102
RTVSPropertyOp7
 70
     1
102
RTVSPropertyOp8
 70
     1
102
RTVSPropertyOp9
 70
     1
102
RTVSPropertyOp10
 70
     1
102
RTVSPropertyOp11
 70
     1
102
RTVSPropertyOp12
 70
     1
102
RTVSPropertyOp13
 70
     1
102
RTVSPropertyOp14
 70
     1
102
RTVSPropertyOp15
 70
     1
102
RTVSPropertyOp16
 70
     1
102
RTVSPropertyOp17
 70
     1
102
RTVSPropertyOp18
 70
     1
102
RTVSPropertyOp19
 70
     1
102
RTVSPropertyOp20
 70
     1
102
RTVSPropertyOp21
 70
     1
102
RTVSPropertyOp22
 70
     1
102
RTVSPropertyOp23
 70
     1
102
RTVSPropertyOp24
 70
     1
102
RTVSPropertyOp25
 70
     1
102
RTVSPropertyOp26
 70
     1
102
RTVSPropertyOp27
 70
     1
102
RTVSPropertyOp28
 70
     1
102
RTVSPropertyOp29
 70
     1
102
RTVSPropertyOp30
 70
     1
102
RTVSPropertyOp31
 70
     1
102
RTVSPropertyOp32
 70
     1
102
RTVSPropertyOp33
 70
     1
102
RTVSPropertyOp34
 70
     1
102
RTVSPropertyOp35
 70
     1
102
RTVSPropertyOp36
 70
     1
102
RTVSPropertyOp37
 70
     1
102
RTVSPropertyOp38
 70
     1
102
RTVSPropertyOp39
 70
     1
102
RTVSPropertyOp40
 70
     1
102
RTVSPropertyOp41
 70
     1
102
RTVSPropertyOp42
 70
     1
102
RTVSPropertyOp43
 70
     1
102
RTVSPropertyOp44
 70
     1
102
RTVSPropertyOp45
 70
     1
102
RTVSPropertyOp46
 70
     1
102
RTVSPropertyOp47
 70
     1
102
RTVSPropertyOp48
 70
     1
102
RTVSPropertyOp49
 70
     1
102
RTVSPropertyOp50
 70
     1
102
RTVSPropertyOp51
 70
     0
102
RTVSPropertyOp52
 70
     0
102
RTVSPropertyOp53
 70
     1
102
RTVSPropertyOp54
 70
     1
102
RTVSPropertyOp55
 70
     1
102
RTVSPropertyOp56
 70
     1
102
RTVSPropertyOp57
 70
     1
102
RTVSPropertyOp58
 70
     1
102
RTVSPropertyOp59
 70
     1
102
RTVSPropertyOp60
 70
     1
102
RTVSPropertyOp61
 70
     1
102
RTVSPropertyOp62
 70
     1
  0
XRECORD
  5
AB4C
102
{ACAD_REACTORS
330
AB4B
102
}
330
AB4B
100
AcDbXrecord
280
     1
102
RTVSPost2010Prop28
280
     0
102
RTVSPost2010PropOp28
 70
     1
102
RTVSPost2010Prop29
280
     1
102
RTVSPost2010PropOp29
 70
     1
102
RTVSPost2010Prop30
280
     1
102
RTVSPost2010PropOp30
 70
     1
102
RTVSPost2010Prop31
280
     0
102
RTVSPost2010PropOp31
 70
     1
102
RTVSPost2010Prop32
280
     0
102
RTVSPost2010PropOp32
 70
     1
102
RTVSPost2010Prop33
280
     0
102
RTVSPost2010PropOp33
 70
     1
102
RTVSPost2010Prop34
280
     0
102
RTVSPost2010PropOp34
 70
     1
102
RTVSPost2010Prop35
280
     0
102
RTVSPost2010PropOp35
 70
     1
102
RTVSPost2010Prop36
280
     0
102
RTVSPost2010PropOp36
 70
     1
102
RTVSPost2010Prop37
 90
       50
102
RTVSPost2010PropOp37
 70
     1
102
RTVSPost2010Prop38
140
0.0
102
RTVSPost2010PropOp38
 70
     1
102
RTVSPost2010Prop39
140
1.0
102
RTVSPost2010PropOp39
 70
     1
102
RTVSPost2010Prop40
 90
        0
102
RTVSPost2010PropOp40
 70
     1
102
RTVSPost2010Prop41ColorIndex
 90
       18
102
RTVSPost2010Prop41ColorRGB
 90
        0
102
RTVSPost2010PropOp41
 70
     1
102
RTVSPost2010Prop42
 90
       50
102
RTVSPost2010PropOp42
 70
     1
102
RTVSPost2010Prop43
 90
        3
102
RTVSPost2010PropOp43
 70
     1
102
RTVSPost2010Prop44ColorIndex
 90
        5
102
RTVSPost2010Prop44ColorRGB
 90
      255
102
RTVSPost2010PropOp44
 70
     1
102
RTVSPost2010Prop45
280
     0
102
RTVSPost2010PropOp45
 70
     1
102
RTVSPost2010Prop46
 90
       50
102
RTVSPost2010PropOp46
 70
     1
102
RTVSPost2010Prop47
 90
       50
102
RTVSPost2010PropOp47
 70
     1
102
RTVSPost2010Prop48
 90
       50
102
RTVSPost2010PropOp48
 70
     1
102
RTVSPost2010Prop49
280
     0
102
RTVSPost2010PropOp49
 70
     1
102
RTVSPost2010Prop50
 90
       50
102
RTVSPost2010PropOp50
 70
     1
102
RTVSPost2010Prop51ColorIndex
 90
      256
102
RTVSPost2010Prop51ColorRGB
 90
-16777216
102
RTVSPost2010PropOp51
 70
     0
102
RTVSPost2010Prop52
140
1.0
102
RTVSPost2010PropOp52
 70
     0
102
RTVSPost2010Prop53
 90
        2
102
RTVSPost2010PropOp53
 70
     1
102
RTVSPost2010Prop54
  1
strokes_ogs.tif
102
RTVSPost2010PropOp54
 70
     1
102
RTVSPost2010Prop55
280
     0
102
RTVSPost2010PropOp55
 70
     1
102
RTVSPost2010Prop56
140
1.0
102
RTVSPost2010PropOp56
 70
     1
102
RTVSPost2010Prop57
140
1.0
102
RTVSPost2010PropOp57
 70
     1
102
RTVSPropertyOp0
 70
     1
102
RTVSPropertyOp1
 70
     1
102
RTVSPropertyOp2
 70
     1
102
RTVSPropertyOp3
 70
     1
102
RTVSPropertyOp4
 70
     1
102
RTVSPropertyOp5
 70
     1
102
RTVSPropertyOp6
 70
     1
102
RTVSPropertyOp7
 70
     1
102
RTVSPropertyOp8
 70
     1
102
RTVSPropertyOp9
 70
     1
102
RTVSPropertyOp10
 70
     1
102
RTVSPropertyOp11
 70
     1
102
RTVSPropertyOp12
 70
     1
102
RTVSPropertyOp13
 70
     1
102
RTVSPropertyOp14
 70
     1
102
RTVSPropertyOp15
 70
     1
102
RTVSPropertyOp16
 70
     1
102
RTVSPropertyOp17
 70
     1
102
RTVSPropertyOp18
 70
     1
102
RTVSPropertyOp19
 70
     1
102
RTVSPropertyOp20
 70
     1
102
RTVSPropertyOp21
 70
     1
102
RTVSPropertyOp22
 70
     1
102
RTVSPropertyOp23
 70
     1
102
RTVSPropertyOp24
 70
     1
102
RTVSPropertyOp25
 70
     1
102
RTVSPropertyOp26
 70
     1
102
RTVSPropertyOp27
 70
     1
102
RTVSPropertyOp28
 70
     1
102
RTVSPropertyOp29
 70
     1
102
RTVSPropertyOp30
 70
     1
102
RTVSPropertyOp31
 70
     1
102
RTVSPropertyOp32
 70
     1
102
RTVSPropertyOp33
 70
     1
102
RTVSPropertyOp34
 70
     1
102
RTVSPropertyOp35
 70
     1
102
RTVSPropertyOp36
 70
     1
102
RTVSPropertyOp37
 70
     1
102
RTVSPropertyOp38
 70
     1
102
RTVSPropertyOp39
 70
     1
102
RTVSPropertyOp40
 70
     1
102
RTVSPropertyOp41
 70
     1
102
RTVSPropertyOp42
 70
     1
102
RTVSPropertyOp43
 70
     1
102
RTVSPropertyOp44
 70
     1
102
RTVSPropertyOp45
 70
     1
102
RTVSPropertyOp46
 70
     1
102
RTVSPropertyOp47
 70
     1
102
RTVSPropertyOp48
 70
     1
102
RTVSPropertyOp49
 70
     1
102
RTVSPropertyOp50
 70
     1
102
RTVSPropertyOp51
 70
     0
102
RTVSPropertyOp52
 70
     0
102
RTVSPropertyOp53
 70
     1
102
RTVSPropertyOp54
 70
     1
102
RTVSPropertyOp55
 70
     1
102
RTVSPropertyOp56
 70
     1
102
RTVSPropertyOp57
 70
     1
102
RTVSPropertyOp58
 70
     1
102
RTVSPropertyOp59
 70
     1
102
RTVSPropertyOp60
 70
     1
102
RTVSPropertyOp61
 70
     1
102
RTVSPropertyOp62
 70
     1
  0
XRECORD
  5
AB54
102
{ACAD_REACTORS
330
AB53
102
}
330
AB53
100
AcDbXrecord
280
     1
102
RTVSPost2010Prop28
280
     0
102
RTVSPost2010PropOp28
 70
     1
102
RTVSPost2010Prop29
280
     1
102
RTVSPost2010PropOp29
 70
     1
102
RTVSPost2010Prop30
280
     1
102
RTVSPost2010PropOp30
 70
     1
102
RTVSPost2010Prop31
280
     0
102
RTVSPost2010PropOp31
 70
     1
102
RTVSPost2010Prop32
280
     0
102
RTVSPost2010PropOp32
 70
     1
102
RTVSPost2010Prop33
280
     0
102
RTVSPost2010PropOp33
 70
     1
102
RTVSPost2010Prop34
280
     0
102
RTVSPost2010PropOp34
 70
     1
102
RTVSPost2010Prop35
280
     0
102
RTVSPost2010PropOp35
 70
     1
102
RTVSPost2010Prop36
280
     0
102
RTVSPost2010PropOp36
 70
     1
102
RTVSPost2010Prop37
 90
       50
102
RTVSPost2010PropOp37
 70
     1
102
RTVSPost2010Prop38
140
0.0
102
RTVSPost2010PropOp38
 70
     1
102
RTVSPost2010Prop39
140
1.0
102
RTVSPost2010PropOp39
 70
     1
102
RTVSPost2010Prop40
 90
        0
102
RTVSPost2010PropOp40
 70
     1
102
RTVSPost2010Prop41ColorIndex
 90
       18
102
RTVSPost2010Prop41ColorRGB
 90
        0
102
RTVSPost2010PropOp41
 70
     1
102
RTVSPost2010Prop42
 90
       50
102
RTVSPost2010PropOp42
 70
     1
102
RTVSPost2010Prop43
 90
        3
102
RTVSPost2010PropOp43
 70
     1
102
RTVSPost2010Prop44ColorIndex
 90
        5
102
RTVSPost2010Prop44ColorRGB
 90
      255
102
RTVSPost2010PropOp44
 70
     1
102
RTVSPost2010Prop45
280
     0
102
RTVSPost2010PropOp45
 70
     1
102
RTVSPost2010Prop46
 90
       50
102
RTVSPost2010PropOp46
 70
     1
102
RTVSPost2010Prop47
 90
       50
102
RTVSPost2010PropOp47
 70
     1
102
RTVSPost2010Prop48
 90
       50
102
RTVSPost2010PropOp48
 70
     1
102
RTVSPost2010Prop49
280
     0
102
RTVSPost2010PropOp49
 70
     1
102
RTVSPost2010Prop50
 90
       50
102
RTVSPost2010PropOp50
 70
     1
102
RTVSPost2010Prop51ColorIndex
 90
      256
102
RTVSPost2010Prop51ColorRGB
 90
-16777216
102
RTVSPost2010PropOp51
 70
     0
102
RTVSPost2010Prop52
140
1.0
102
RTVSPost2010PropOp52
 70
     0
102
RTVSPost2010Prop53
 90
        2
102
RTVSPost2010PropOp53
 70
     1
102
RTVSPost2010Prop54
  1
strokes_ogs.tif
102
RTVSPost2010PropOp54
 70
     1
102
RTVSPost2010Prop55
280
     0
102
RTVSPost2010PropOp55
 70
     1
102
RTVSPost2010Prop56
140
1.0
102
RTVSPost2010PropOp56
 70
     1
102
RTVSPost2010Prop57
140
1.0
102
RTVSPost2010PropOp57
 70
     1
102
RTVSPropertyOp0
 70
     1
102
RTVSPropertyOp1
 70
     1
102
RTVSPropertyOp2
 70
     1
102
RTVSPropertyOp3
 70
     1
102
RTVSPropertyOp4
 70
     1
102
RTVSPropertyOp5
 70
     1
102
RTVSPropertyOp6
 70
     1
102
RTVSPropertyOp7
 70
     1
102
RTVSPropertyOp8
 70
     1
102
RTVSPropertyOp9
 70
     1
102
RTVSPropertyOp10
 70
     1
102
RTVSPropertyOp11
 70
     1
102
RTVSPropertyOp12
 70
     1
102
RTVSPropertyOp13
 70
     1
102
RTVSPropertyOp14
 70
     1
102
RTVSPropertyOp15
 70
     1
102
RTVSPropertyOp16
 70
     1
102
RTVSPropertyOp17
 70
     1
102
RTVSPropertyOp18
 70
     1
102
RTVSPropertyOp19
 70
     1
102
RTVSPropertyOp20
 70
     1
102
RTVSPropertyOp21
 70
     1
102
RTVSPropertyOp22
 70
     1
102
RTVSPropertyOp23
 70
     1
102
RTVSPropertyOp24
 70
     1
102
RTVSPropertyOp25
 70
     1
102
RTVSPropertyOp26
 70
     1
102
RTVSPropertyOp27
 70
     1
102
RTVSPropertyOp28
 70
     1
102
RTVSPropertyOp29
 70
     1
102
RTVSPropertyOp30
 70
     1
102
RTVSPropertyOp31
 70
     1
102
RTVSPropertyOp32
 70
     1
102
RTVSPropertyOp33
 70
     1
102
RTVSPropertyOp34
 70
     1
102
RTVSPropertyOp35
 70
     1
102
RTVSPropertyOp36
 70
     1
102
RTVSPropertyOp37
 70
     1
102
RTVSPropertyOp38
 70
     1
102
RTVSPropertyOp39
 70
     1
102
RTVSPropertyOp40
 70
     1
102
RTVSPropertyOp41
 70
     1
102
RTVSPropertyOp42
 70
     1
102
RTVSPropertyOp43
 70
     1
102
RTVSPropertyOp44
 70
     1
102
RTVSPropertyOp45
 70
     1
102
RTVSPropertyOp46
 70
     1
102
RTVSPropertyOp47
 70
     1
102
RTVSPropertyOp48
 70
     1
102
RTVSPropertyOp49
 70
     1
102
RTVSPropertyOp50
 70
     1
102
RTVSPropertyOp51
 70
     0
102
RTVSPropertyOp52
 70
     0
102
RTVSPropertyOp53
 70
     1
102
RTVSPropertyOp54
 70
     1
102
RTVSPropertyOp55
 70
     1
102
RTVSPropertyOp56
 70
     1
102
RTVSPropertyOp57
 70
     1
102
RTVSPropertyOp58
 70
     1
102
RTVSPropertyOp59
 70
     1
102
RTVSPropertyOp60
 70
     1
102
RTVSPropertyOp61
 70
     1
102
RTVSPropertyOp62
 70
     1
  0
XRECORD
  5
AB70
102
{ACAD_REACTORS
330
AB6F
102
}
330
AB6F
100
AcDbXrecord
280
     1
102
RTVSPost2010Prop28
280
     0
102
RTVSPost2010PropOp28
 70
     1
102
RTVSPost2010Prop29
280
     1
102
RTVSPost2010PropOp29
 70
     1
102
RTVSPost2010Prop30
280
     1
102
RTVSPost2010PropOp30
 70
     1
102
RTVSPost2010Prop31
280
     0
102
RTVSPost2010PropOp31
 70
     1
102
RTVSPost2010Prop32
280
     0
102
RTVSPost2010PropOp32
 70
     1
102
RTVSPost2010Prop33
280
     0
102
RTVSPost2010PropOp33
 70
     1
102
RTVSPost2010Prop34
280
     0
102
RTVSPost2010PropOp34
 70
     1
102
RTVSPost2010Prop35
280
     0
102
RTVSPost2010PropOp35
 70
     1
102
RTVSPost2010Prop36
280
     0
102
RTVSPost2010PropOp36
 70
     1
102
RTVSPost2010Prop37
 90
       50
102
RTVSPost2010PropOp37
 70
     0
102
RTVSPost2010Prop38
140
0.0
102
RTVSPost2010PropOp38
 70
     0
102
RTVSPost2010Prop39
140
1.0
102
RTVSPost2010PropOp39
 70
     0
102
RTVSPost2010Prop40
 90
        0
102
RTVSPost2010PropOp40
 70
     0
102
RTVSPost2010Prop41ColorIndex
 90
       18
102
RTVSPost2010Prop41ColorRGB
 90
        0
102
RTVSPost2010PropOp41
 70
     0
102
RTVSPost2010Prop42
 90
       50
102
RTVSPost2010PropOp42
 70
     0
102
RTVSPost2010Prop43
 90
        3
102
RTVSPost2010PropOp43
 70
     0
102
RTVSPost2010Prop44ColorIndex
 90
        5
102
RTVSPost2010Prop44ColorRGB
 90
      255
102
RTVSPost2010PropOp44
 70
     0
102
RTVSPost2010Prop45
280
     0
102
RTVSPost2010PropOp45
 70
     1
102
RTVSPost2010Prop46
 90
       50
102
RTVSPost2010PropOp46
 70
     0
102
RTVSPost2010Prop47
 90
       50
102
RTVSPost2010PropOp47
 70
     0
102
RTVSPost2010Prop48
 90
       50
102
RTVSPost2010PropOp48
 70
     0
102
RTVSPost2010Prop49
280
     0
102
RTVSPost2010PropOp49
 70
     1
102
RTVSPost2010Prop50
 90
       50
102
RTVSPost2010PropOp50
 70
     0
102
RTVSPost2010Prop51ColorIndex
 90
      256
102
RTVSPost2010Prop51ColorRGB
 90
-16777216
102
RTVSPost2010PropOp51
 70
     0
102
RTVSPost2010Prop52
140
1.0
102
RTVSPost2010PropOp52
 70
     0
102
RTVSPost2010Prop53
 90
        2
102
RTVSPost2010PropOp53
 70
     0
102
RTVSPost2010Prop54
  1
strokes_ogs.tif
102
RTVSPost2010PropOp54
 70
     0
102
RTVSPost2010Prop55
280
     0
102
RTVSPost2010PropOp55
 70
     1
102
RTVSPost2010Prop56
140
1.0
102
RTVSPost2010PropOp56
 70
     0
102
RTVSPost2010Prop57
140
1.0
102
RTVSPost2010PropOp57
 70
     0
102
RTVSPropertyOp0
 70
     0
102
RTVSPropertyOp1
 70
     0
102
RTVSPropertyOp2
 70
     0
102
RTVSPropertyOp3
 70
     0
102
RTVSPropertyOp4
 70
     0
102
RTVSPropertyOp5
 70
     0
102
RTVSPropertyOp6
 70
     0
102
RTVSPropertyOp7
 70
     0
102
RTVSPropertyOp8
 70
     0
102
RTVSPropertyOp9
 70
     0
102
RTVSPropertyOp10
 70
     0
102
RTVSPropertyOp11
 70
     0
102
RTVSPropertyOp12
 70
     0
102
RTVSPropertyOp13
 70
     0
102
RTVSPropertyOp14
 70
     2
102
RTVSPropertyOp15
 70
     0
102
RTVSPropertyOp16
 70
     0
102
RTVSPropertyOp17
 70
     0
102
RTVSPropertyOp18
 70
     0
102
RTVSPropertyOp19
 70
     0
102
RTVSPropertyOp20
 70
     0
102
RTVSPropertyOp21
 70
     0
102
RTVSPropertyOp22
 70
     0
102
RTVSPropertyOp23
 70
     0
102
RTVSPropertyOp24
 70
     0
102
RTVSPropertyOp25
 70
     0
102
RTVSPropertyOp26
 70
     0
102
RTVSPropertyOp27
 70
     0
102
RTVSPropertyOp28
 70
     1
102
RTVSPropertyOp29
 70
     1
102
RTVSPropertyOp30
 70
     1
102
RTVSPropertyOp31
 70
     1
102
RTVSPropertyOp32
 70
     1
102
RTVSPropertyOp33
 70
     1
102
RTVSPropertyOp34
 70
     1
102
RTVSPropertyOp35
 70
     1
102
RTVSPropertyOp36
 70
     1
102
RTVSPropertyOp37
 70
     0
102
RTVSPropertyOp38
 70
     0
102
RTVSPropertyOp39
 70
     0
102
RTVSPropertyOp40
 70
     0
102
RTVSPropertyOp41
 70
     0
102
RTVSPropertyOp42
 70
     0
102
RTVSPropertyOp43
 70
     0
102
RTVSPropertyOp44
 70
     0
102
RTVSPropertyOp45
 70
     1
102
RTVSPropertyOp46
 70
     0
102
RTVSPropertyOp47
 70
     0
102
RTVSPropertyOp48
 70
     0
102
RTVSPropertyOp49
 70
     1
102
RTVSPropertyOp50
 70
     0
102
RTVSPropertyOp51
 70
     0
102
RTVSPropertyOp52
 70
     0
102
RTVSPropertyOp53
 70
     0
102
RTVSPropertyOp54
 70
     0
102
RTVSPropertyOp55
 70
     1
102
RTVSPropertyOp56
 70
     0
102
RTVSPropertyOp57
 70
     0
102
RTVSPropertyOp58
 70
     0
102
RTVSPropertyOp59
 70
     0
102
RTVSPropertyOp60
 70
     0
102
RTVSPropertyOp61
 70
     0
102
RTVSPropertyOp62
 70
     0
  0
XRECORD
  5
AB60
102
{ACAD_REACTORS
330
AB5F
102
}
330
AB5F
100
AcDbXrecord
280
     1
102
RTVSPost2010Prop28
280
     0
102
RTVSPost2010PropOp28
 70
     1
102
RTVSPost2010Prop29
280
     1
102
RTVSPost2010PropOp29
 70
     1
102
RTVSPost2010Prop30
280
     1
102
RTVSPost2010PropOp30
 70
     1
102
RTVSPost2010Prop31
280
     0
102
RTVSPost2010PropOp31
 70
     1
102
RTVSPost2010Prop32
280
     0
102
RTVSPost2010PropOp32
 70
     1
102
RTVSPost2010Prop33
280
     0
102
RTVSPost2010PropOp33
 70
     1
102
RTVSPost2010Prop34
280
     0
102
RTVSPost2010PropOp34
 70
     1
102
RTVSPost2010Prop35
280
     0
102
RTVSPost2010PropOp35
 70
     1
102
RTVSPost2010Prop36
280
     0
102
RTVSPost2010PropOp36
 70
     1
102
RTVSPost2010Prop37
 90
       50
102
RTVSPost2010PropOp37
 70
     1
102
RTVSPost2010Prop38
140
0.0
102
RTVSPost2010PropOp38
 70
     1
102
RTVSPost2010Prop39
140
1.0
102
RTVSPost2010PropOp39
 70
     1
102
RTVSPost2010Prop40
 90
        0
102
RTVSPost2010PropOp40
 70
     1
102
RTVSPost2010Prop41ColorIndex
 90
       18
102
RTVSPost2010Prop41ColorRGB
 90
        0
102
RTVSPost2010PropOp41
 70
     1
102
RTVSPost2010Prop42
 90
       50
102
RTVSPost2010PropOp42
 70
     1
102
RTVSPost2010Prop43
 90
        3
102
RTVSPost2010PropOp43
 70
     1
102
RTVSPost2010Prop44ColorIndex
 90
        5
102
RTVSPost2010Prop44ColorRGB
 90
      255
102
RTVSPost2010PropOp44
 70
     1
102
RTVSPost2010Prop45
280
     0
102
RTVSPost2010PropOp45
 70
     1
102
RTVSPost2010Prop46
 90
       50
102
RTVSPost2010PropOp46
 70
     1
102
RTVSPost2010Prop47
 90
       50
102
RTVSPost2010PropOp47
 70
     1
102
RTVSPost2010Prop48
 90
       50
102
RTVSPost2010PropOp48
 70
     1
102
RTVSPost2010Prop49
280
     0
102
RTVSPost2010PropOp49
 70
     1
102
RTVSPost2010Prop50
 90
       50
102
RTVSPost2010PropOp50
 70
     1
102
RTVSPost2010Prop51ColorIndex
 90
      256
102
RTVSPost2010Prop51ColorRGB
 90
-16777216
102
RTVSPost2010PropOp51
 70
     0
102
RTVSPost2010Prop52
140
1.0
102
RTVSPost2010PropOp52
 70
     0
102
RTVSPost2010Prop53
 90
        2
102
RTVSPost2010PropOp53
 70
     1
102
RTVSPost2010Prop54
  1
strokes_ogs.tif
102
RTVSPost2010PropOp54
 70
     1
102
RTVSPost2010Prop55
280
     0
102
RTVSPost2010PropOp55
 70
     1
102
RTVSPost2010Prop56
140
1.0
102
RTVSPost2010PropOp56
 70
     1
102
RTVSPost2010Prop57
140
1.0
102
RTVSPost2010PropOp57
 70
     1
102
RTVSPropertyOp0
 70
     1
102
RTVSPropertyOp1
 70
     1
102
RTVSPropertyOp2
 70
     1
102
RTVSPropertyOp3
 70
     1
102
RTVSPropertyOp4
 70
     1
102
RTVSPropertyOp5
 70
     1
102
RTVSPropertyOp6
 70
     1
102
RTVSPropertyOp7
 70
     1
102
RTVSPropertyOp8
 70
     1
102
RTVSPropertyOp9
 70
     1
102
RTVSPropertyOp10
 70
     1
102
RTVSPropertyOp11
 70
     1
102
RTVSPropertyOp12
 70
     1
102
RTVSPropertyOp13
 70
     1
102
RTVSPropertyOp14
 70
     1
102
RTVSPropertyOp15
 70
     1
102
RTVSPropertyOp16
 70
     1
102
RTVSPropertyOp17
 70
     1
102
RTVSPropertyOp18
 70
     1
102
RTVSPropertyOp19
 70
     1
102
RTVSPropertyOp20
 70
     1
102
RTVSPropertyOp21
 70
     1
102
RTVSPropertyOp22
 70
     1
102
RTVSPropertyOp23
 70
     1
102
RTVSPropertyOp24
 70
     1
102
RTVSPropertyOp25
 70
     1
102
RTVSPropertyOp26
 70
     1
102
RTVSPropertyOp27
 70
     1
102
RTVSPropertyOp28
 70
     1
102
RTVSPropertyOp29
 70
     1
102
RTVSPropertyOp30
 70
     1
102
RTVSPropertyOp31
 70
     1
102
RTVSPropertyOp32
 70
     1
102
RTVSPropertyOp33
 70
     1
102
RTVSPropertyOp34
 70
     1
102
RTVSPropertyOp35
 70
     1
102
RTVSPropertyOp36
 70
     1
102
RTVSPropertyOp37
 70
     1
102
RTVSPropertyOp38
 70
     1
102
RTVSPropertyOp39
 70
     1
102
RTVSPropertyOp40
 70
     1
102
RTVSPropertyOp41
 70
     1
102
RTVSPropertyOp42
 70
     1
102
RTVSPropertyOp43
 70
     1
102
RTVSPropertyOp44
 70
     1
102
RTVSPropertyOp45
 70
     1
102
RTVSPropertyOp46
 70
     1
102
RTVSPropertyOp47
 70
     1
102
RTVSPropertyOp48
 70
     1
102
RTVSPropertyOp49
 70
     1
102
RTVSPropertyOp50
 70
     1
102
RTVSPropertyOp51
 70
     0
102
RTVSPropertyOp52
 70
     0
102
RTVSPropertyOp53
 70
     1
102
RTVSPropertyOp54
 70
     1
102
RTVSPropertyOp55
 70
     1
102
RTVSPropertyOp56
 70
     1
102
RTVSPropertyOp57
 70
     1
102
RTVSPropertyOp58
 70
     1
102
RTVSPropertyOp59
 70
     1
102
RTVSPropertyOp60
 70
     1
102
RTVSPropertyOp61
 70
     1
102
RTVSPropertyOp62
 70
     1
  0
XRECORD
  5
AB72
102
{ACAD_REACTORS
330
AB71
102
}
330
AB71
100
AcDbXrecord
280
     1
102
RTVSPost2010Prop28
280
     0
102
RTVSPost2010PropOp28
 70
     1
102
RTVSPost2010Prop29
280
     1
102
RTVSPost2010PropOp29
 70
     1
102
RTVSPost2010Prop30
280
     1
102
RTVSPost2010PropOp30
 70
     1
102
RTVSPost2010Prop31
280
     0
102
RTVSPost2010PropOp31
 70
     1
102
RTVSPost2010Prop32
280
     0
102
RTVSPost2010PropOp32
 70
     1
102
RTVSPost2010Prop33
280
     0
102
RTVSPost2010PropOp33
 70
     1
102
RTVSPost2010Prop34
280
     0
102
RTVSPost2010PropOp34
 70
     1
102
RTVSPost2010Prop35
280
     0
102
RTVSPost2010PropOp35
 70
     1
102
RTVSPost2010Prop36
280
     0
102
RTVSPost2010PropOp36
 70
     1
102
RTVSPost2010Prop37
 90
       50
102
RTVSPost2010PropOp37
 70
     0
102
RTVSPost2010Prop38
140
0.0
102
RTVSPost2010PropOp38
 70
     0
102
RTVSPost2010Prop39
140
1.0
102
RTVSPost2010PropOp39
 70
     0
102
RTVSPost2010Prop40
 90
        0
102
RTVSPost2010PropOp40
 70
     0
102
RTVSPost2010Prop41ColorIndex
 90
       18
102
RTVSPost2010Prop41ColorRGB
 90
        0
102
RTVSPost2010PropOp41
 70
     0
102
RTVSPost2010Prop42
 90
       50
102
RTVSPost2010PropOp42
 70
     0
102
RTVSPost2010Prop43
 90
        3
102
RTVSPost2010PropOp43
 70
     0
102
RTVSPost2010Prop44ColorIndex
 90
        5
102
RTVSPost2010Prop44ColorRGB
 90
      255
102
RTVSPost2010PropOp44
 70
     0
102
RTVSPost2010Prop45
280
     0
102
RTVSPost2010PropOp45
 70
     1
102
RTVSPost2010Prop46
 90
       50
102
RTVSPost2010PropOp46
 70
     0
102
RTVSPost2010Prop47
 90
       50
102
RTVSPost2010PropOp47
 70
     0
102
RTVSPost2010Prop48
 90
       50
102
RTVSPost2010PropOp48
 70
     0
102
RTVSPost2010Prop49
280
     0
102
RTVSPost2010PropOp49
 70
     1
102
RTVSPost2010Prop50
 90
       50
102
RTVSPost2010PropOp50
 70
     0
102
RTVSPost2010Prop51ColorIndex
 90
      256
102
RTVSPost2010Prop51ColorRGB
 90
-16777216
102
RTVSPost2010PropOp51
 70
     0
102
RTVSPost2010Prop52
140
1.0
102
RTVSPost2010PropOp52
 70
     0
102
RTVSPost2010Prop53
 90
        2
102
RTVSPost2010PropOp53
 70
     0
102
RTVSPost2010Prop54
  1
strokes_ogs.tif
102
RTVSPost2010PropOp54
 70
     0
102
RTVSPost2010Prop55
280
     0
102
RTVSPost2010PropOp55
 70
     1
102
RTVSPost2010Prop56
140
1.0
102
RTVSPost2010PropOp56
 70
     0
102
RTVSPost2010Prop57
140
1.0
102
RTVSPost2010PropOp57
 70
     0
102
RTVSPropertyOp0
 70
     0
102
RTVSPropertyOp1
 70
     0
102
RTVSPropertyOp2
 70
     0
102
RTVSPropertyOp3
 70
     0
102
RTVSPropertyOp4
 70
     0
102
RTVSPropertyOp5
 70
     0
102
RTVSPropertyOp6
 70
     0
102
RTVSPropertyOp7
 70
     0
102
RTVSPropertyOp8
 70
     0
102
RTVSPropertyOp9
 70
     0
102
RTVSPropertyOp10
 70
     0
102
RTVSPropertyOp11
 70
     0
102
RTVSPropertyOp12
 70
     0
102
RTVSPropertyOp13
 70
     0
102
RTVSPropertyOp14
 70
     2
102
RTVSPropertyOp15
 70
     0
102
RTVSPropertyOp16
 70
     0
102
RTVSPropertyOp17
 70
     0
102
RTVSPropertyOp18
 70
     0
102
RTVSPropertyOp19
 70
     0
102
RTVSPropertyOp20
 70
     0
102
RTVSPropertyOp21
 70
     0
102
RTVSPropertyOp22
 70
     0
102
RTVSPropertyOp23
 70
     0
102
RTVSPropertyOp24
 70
     0
102
RTVSPropertyOp25
 70
     0
102
RTVSPropertyOp26
 70
     0
102
RTVSPropertyOp27
 70
     0
102
RTVSPropertyOp28
 70
     1
102
RTVSPropertyOp29
 70
     1
102
RTVSPropertyOp30
 70
     1
102
RTVSPropertyOp31
 70
     1
102
RTVSPropertyOp32
 70
     1
102
RTVSPropertyOp33
 70
     1
102
RTVSPropertyOp34
 70
     1
102
RTVSPropertyOp35
 70
     1
102
RTVSPropertyOp36
 70
     1
102
RTVSPropertyOp37
 70
     0
102
RTVSPropertyOp38
 70
     0
102
RTVSPropertyOp39
 70
     0
102
RTVSPropertyOp40
 70
     0
102
RTVSPropertyOp41
 70
     0
102
RTVSPropertyOp42
 70
     0
102
RTVSPropertyOp43
 70
     0
102
RTVSPropertyOp44
 70
     0
102
RTVSPropertyOp45
 70
     1
102
RTVSPropertyOp46
 70
     0
102
RTVSPropertyOp47
 70
     0
102
RTVSPropertyOp48
 70
     0
102
RTVSPropertyOp49
 70
     1
102
RTVSPropertyOp50
 70
     0
102
RTVSPropertyOp51
 70
     0
102
RTVSPropertyOp52
 70
     0
102
RTVSPropertyOp53
 70
     0
102
RTVSPropertyOp54
 70
     0
102
RTVSPropertyOp55
 70
     1
102
RTVSPropertyOp56
 70
     0
102
RTVSPropertyOp57
 70
     0
102
RTVSPropertyOp58
 70
     0
102
RTVSPropertyOp59
 70
     0
102
RTVSPropertyOp60
 70
     0
102
RTVSPropertyOp61
 70
     0
102
RTVSPropertyOp62
 70
     0
  0
XRECORD
  5
AB58
102
{ACAD_REACTORS
330
AB57
102
}
330
AB57
100
AcDbXrecord
280
     1
102
RTVSPost2010Prop28
280
     0
102
RTVSPost2010PropOp28
 70
     1
102
RTVSPost2010Prop29
280
     1
102
RTVSPost2010PropOp29
 70
     1
102
RTVSPost2010Prop30
280
     1
102
RTVSPost2010PropOp30
 70
     1
102
RTVSPost2010Prop31
280
     0
102
RTVSPost2010PropOp31
 70
     1
102
RTVSPost2010Prop32
280
     0
102
RTVSPost2010PropOp32
 70
     1
102
RTVSPost2010Prop33
280
     0
102
RTVSPost2010PropOp33
 70
     1
102
RTVSPost2010Prop34
280
     0
102
RTVSPost2010PropOp34
 70
     1
102
RTVSPost2010Prop35
280
     0
102
RTVSPost2010PropOp35
 70
     1
102
RTVSPost2010Prop36
280
     0
102
RTVSPost2010PropOp36
 70
     1
102
RTVSPost2010Prop37
 90
       50
102
RTVSPost2010PropOp37
 70
     1
102
RTVSPost2010Prop38
140
0.0
102
RTVSPost2010PropOp38
 70
     1
102
RTVSPost2010Prop39
140
1.0
102
RTVSPost2010PropOp39
 70
     1
102
RTVSPost2010Prop40
 90
        0
102
RTVSPost2010PropOp40
 70
     1
102
RTVSPost2010Prop41ColorIndex
 90
       18
102
RTVSPost2010Prop41ColorRGB
 90
        0
102
RTVSPost2010PropOp41
 70
     1
102
RTVSPost2010Prop42
 90
       50
102
RTVSPost2010PropOp42
 70
     1
102
RTVSPost2010Prop43
 90
        3
102
RTVSPost2010PropOp43
 70
     1
102
RTVSPost2010Prop44ColorIndex
 90
        5
102
RTVSPost2010Prop44ColorRGB
 90
      255
102
RTVSPost2010PropOp44
 70
     1
102
RTVSPost2010Prop45
280
     0
102
RTVSPost2010PropOp45
 70
     1
102
RTVSPost2010Prop46
 90
       50
102
RTVSPost2010PropOp46
 70
     1
102
RTVSPost2010Prop47
 90
       50
102
RTVSPost2010PropOp47
 70
     1
102
RTVSPost2010Prop48
 90
       50
102
RTVSPost2010PropOp48
 70
     1
102
RTVSPost2010Prop49
280
     0
102
RTVSPost2010PropOp49
 70
     1
102
RTVSPost2010Prop50
 90
       50
102
RTVSPost2010PropOp50
 70
     1
102
RTVSPost2010Prop51ColorIndex
 90
      256
102
RTVSPost2010Prop51ColorRGB
 90
-16777216
102
RTVSPost2010PropOp51
 70
     0
102
RTVSPost2010Prop52
140
1.0
102
RTVSPost2010PropOp52
 70
     0
102
RTVSPost2010Prop53
 90
        2
102
RTVSPost2010PropOp53
 70
     1
102
RTVSPost2010Prop54
  1
strokes_ogs.tif
102
RTVSPost2010PropOp54
 70
     1
102
RTVSPost2010Prop55
280
     0
102
RTVSPost2010PropOp55
 70
     1
102
RTVSPost2010Prop56
140
1.0
102
RTVSPost2010PropOp56
 70
     1
102
RTVSPost2010Prop57
140
1.0
102
RTVSPost2010PropOp57
 70
     1
102
RTVSPropertyOp0
 70
     1
102
RTVSPropertyOp1
 70
     1
102
RTVSPropertyOp2
 70
     1
102
RTVSPropertyOp3
 70
     1
102
RTVSPropertyOp4
 70
     1
102
RTVSPropertyOp5
 70
     1
102
RTVSPropertyOp6
 70
     1
102
RTVSPropertyOp7
 70
     1
102
RTVSPropertyOp8
 70
     1
102
RTVSPropertyOp9
 70
     1
102
RTVSPropertyOp10
 70
     1
102
RTVSPropertyOp11
 70
     1
102
RTVSPropertyOp12
 70
     1
102
RTVSPropertyOp13
 70
     1
102
RTVSPropertyOp14
 70
     1
102
RTVSPropertyOp15
 70
     1
102
RTVSPropertyOp16
 70
     1
102
RTVSPropertyOp17
 70
     1
102
RTVSPropertyOp18
 70
     1
102
RTVSPropertyOp19
 70
     1
102
RTVSPropertyOp20
 70
     1
102
RTVSPropertyOp21
 70
     1
102
RTVSPropertyOp22
 70
     1
102
RTVSPropertyOp23
 70
     1
102
RTVSPropertyOp24
 70
     1
102
RTVSPropertyOp25
 70
     1
102
RTVSPropertyOp26
 70
     1
102
RTVSPropertyOp27
 70
     1
102
RTVSPropertyOp28
 70
     1
102
RTVSPropertyOp29
 70
     1
102
RTVSPropertyOp30
 70
     1
102
RTVSPropertyOp31
 70
     1
102
RTVSPropertyOp32
 70
     1
102
RTVSPropertyOp33
 70
     1
102
RTVSPropertyOp34
 70
     1
102
RTVSPropertyOp35
 70
     1
102
RTVSPropertyOp36
 70
     1
102
RTVSPropertyOp37
 70
     1
102
RTVSPropertyOp38
 70
     1
102
RTVSPropertyOp39
 70
     1
102
RTVSPropertyOp40
 70
     1
102
RTVSPropertyOp41
 70
     1
102
RTVSPropertyOp42
 70
     1
102
RTVSPropertyOp43
 70
     1
102
RTVSPropertyOp44
 70
     1
102
RTVSPropertyOp45
 70
     1
102
RTVSPropertyOp46
 70
     1
102
RTVSPropertyOp47
 70
     1
102
RTVSPropertyOp48
 70
     1
102
RTVSPropertyOp49
 70
     1
102
RTVSPropertyOp50
 70
     1
102
RTVSPropertyOp51
 70
     0
102
RTVSPropertyOp52
 70
     0
102
RTVSPropertyOp53
 70
     1
102
RTVSPropertyOp54
 70
     1
102
RTVSPropertyOp55
 70
     1
102
RTVSPropertyOp56
 70
     1
102
RTVSPropertyOp57
 70
     1
102
RTVSPropertyOp58
 70
     1
102
RTVSPropertyOp59
 70
     1
102
RTVSPropertyOp60
 70
     1
102
RTVSPropertyOp61
 70
     1
102
RTVSPropertyOp62
 70
     1
  0
XRECORD
  5
AB6E
102
{ACAD_REACTORS
330
AB6D
102
}
330
AB6D
100
AcDbXrecord
280
     1
102
RTVSPost2010Prop28
280
     0
102
RTVSPost2010PropOp28
 70
     1
102
RTVSPost2010Prop29
280
     1
102
RTVSPost2010PropOp29
 70
     1
102
RTVSPost2010Prop30
280
     1
102
RTVSPost2010PropOp30
 70
     1
102
RTVSPost2010Prop31
280
     0
102
RTVSPost2010PropOp31
 70
     1
102
RTVSPost2010Prop32
280
     0
102
RTVSPost2010PropOp32
 70
     1
102
RTVSPost2010Prop33
280
     0
102
RTVSPost2010PropOp33
 70
     1
102
RTVSPost2010Prop34
280
     0
102
RTVSPost2010PropOp34
 70
     1
102
RTVSPost2010Prop35
280
     0
102
RTVSPost2010PropOp35
 70
     1
102
RTVSPost2010Prop36
280
     0
102
RTVSPost2010PropOp36
 70
     1
102
RTVSPost2010Prop37
 90
       50
102
RTVSPost2010PropOp37
 70
     1
102
RTVSPost2010Prop38
140
0.0
102
RTVSPost2010PropOp38
 70
     1
102
RTVSPost2010Prop39
140
1.0
102
RTVSPost2010PropOp39
 70
     1
102
RTVSPost2010Prop40
 90
        0
102
RTVSPost2010PropOp40
 70
     1
102
RTVSPost2010Prop41ColorIndex
 90
       18
102
RTVSPost2010Prop41ColorRGB
 90
        0
102
RTVSPost2010PropOp41
 70
     1
102
RTVSPost2010Prop42
 90
       50
102
RTVSPost2010PropOp42
 70
     1
102
RTVSPost2010Prop43
 90
        3
102
RTVSPost2010PropOp43
 70
     1
102
RTVSPost2010Prop44ColorIndex
 90
        5
102
RTVSPost2010Prop44ColorRGB
 90
      255
102
RTVSPost2010PropOp44
 70
     1
102
RTVSPost2010Prop45
280
     0
102
RTVSPost2010PropOp45
 70
     1
102
RTVSPost2010Prop46
 90
       50
102
RTVSPost2010PropOp46
 70
     1
102
RTVSPost2010Prop47
 90
       50
102
RTVSPost2010PropOp47
 70
     1
102
RTVSPost2010Prop48
 90
       50
102
RTVSPost2010PropOp48
 70
     1
102
RTVSPost2010Prop49
280
     0
102
RTVSPost2010PropOp49
 70
     1
102
RTVSPost2010Prop50
 90
       50
102
RTVSPost2010PropOp50
 70
     1
102
RTVSPost2010Prop51ColorIndex
 90
      256
102
RTVSPost2010Prop51ColorRGB
 90
-16777216
102
RTVSPost2010PropOp51
 70
     0
102
RTVSPost2010Prop52
140
1.0
102
RTVSPost2010PropOp52
 70
     0
102
RTVSPost2010Prop53
 90
        2
102
RTVSPost2010PropOp53
 70
     1
102
RTVSPost2010Prop54
  1
strokes_ogs.tif
102
RTVSPost2010PropOp54
 70
     1
102
RTVSPost2010Prop55
280
     0
102
RTVSPost2010PropOp55
 70
     1
102
RTVSPost2010Prop56
140
1.0
102
RTVSPost2010PropOp56
 70
     1
102
RTVSPost2010Prop57
140
1.0
102
RTVSPost2010PropOp57
 70
     1
102
RTVSPropertyOp0
 70
     1
102
RTVSPropertyOp1
 70
     1
102
RTVSPropertyOp2
 70
     1
102
RTVSPropertyOp3
 70
     1
102
RTVSPropertyOp4
 70
     1
102
RTVSPropertyOp5
 70
     1
102
RTVSPropertyOp6
 70
     1
102
RTVSPropertyOp7
 70
     1
102
RTVSPropertyOp8
 70
     1
102
RTVSPropertyOp9
 70
     1
102
RTVSPropertyOp10
 70
     1
102
RTVSPropertyOp11
 70
     1
102
RTVSPropertyOp12
 70
     1
102
RTVSPropertyOp13
 70
     1
102
RTVSPropertyOp14
 70
     1
102
RTVSPropertyOp15
 70
     1
102
RTVSPropertyOp16
 70
     1
102
RTVSPropertyOp17
 70
     1
102
RTVSPropertyOp18
 70
     1
102
RTVSPropertyOp19
 70
     1
102
RTVSPropertyOp20
 70
     1
102
RTVSPropertyOp21
 70
     1
102
RTVSPropertyOp22
 70
     1
102
RTVSPropertyOp23
 70
     1
102
RTVSPropertyOp24
 70
     1
102
RTVSPropertyOp25
 70
     1
102
RTVSPropertyOp26
 70
     1
102
RTVSPropertyOp27
 70
     1
102
RTVSPropertyOp28
 70
     1
102
RTVSPropertyOp29
 70
     1
102
RTVSPropertyOp30
 70
     1
102
RTVSPropertyOp31
 70
     1
102
RTVSPropertyOp32
 70
     1
102
RTVSPropertyOp33
 70
     1
102
RTVSPropertyOp34
 70
     1
102
RTVSPropertyOp35
 70
     1
102
RTVSPropertyOp36
 70
     1
102
RTVSPropertyOp37
 70
     1
102
RTVSPropertyOp38
 70
     1
102
RTVSPropertyOp39
 70
     1
102
RTVSPropertyOp40
 70
     1
102
RTVSPropertyOp41
 70
     1
102
RTVSPropertyOp42
 70
     1
102
RTVSPropertyOp43
 70
     1
102
RTVSPropertyOp44
 70
     1
102
RTVSPropertyOp45
 70
     1
102
RTVSPropertyOp46
 70
     1
102
RTVSPropertyOp47
 70
     1
102
RTVSPropertyOp48
 70
     1
102
RTVSPropertyOp49
 70
     1
102
RTVSPropertyOp50
 70
     1
102
RTVSPropertyOp51
 70
     0
102
RTVSPropertyOp52
 70
     0
102
RTVSPropertyOp53
 70
     1
102
RTVSPropertyOp54
 70
     1
102
RTVSPropertyOp55
 70
     1
102
RTVSPropertyOp56
 70
     1
102
RTVSPropertyOp57
 70
     1
102
RTVSPropertyOp58
 70
     1
102
RTVSPropertyOp59
 70
     1
102
RTVSPropertyOp60
 70
     1
102
RTVSPropertyOp61
 70
     1
102
RTVSPropertyOp62
 70
     1
  0
XRECORD
  5
AB6C
102
{ACAD_REACTORS
330
AB6B
102
}
330
AB6B
100
AcDbXrecord
280
     1
102
RTVSPost2010Prop28
280
     0
102
RTVSPost2010PropOp28
 70
     1
102
RTVSPost2010Prop29
280
     1
102
RTVSPost2010PropOp29
 70
     1
102
RTVSPost2010Prop30
280
     1
102
RTVSPost2010PropOp30
 70
     1
102
RTVSPost2010Prop31
280
     0
102
RTVSPost2010PropOp31
 70
     1
102
RTVSPost2010Prop32
280
     0
102
RTVSPost2010PropOp32
 70
     1
102
RTVSPost2010Prop33
280
     0
102
RTVSPost2010PropOp33
 70
     1
102
RTVSPost2010Prop34
280
     0
102
RTVSPost2010PropOp34
 70
     1
102
RTVSPost2010Prop35
280
     0
102
RTVSPost2010PropOp35
 70
     1
102
RTVSPost2010Prop36
280
     0
102
RTVSPost2010PropOp36
 70
     1
102
RTVSPost2010Prop37
 90
       50
102
RTVSPost2010PropOp37
 70
     1
102
RTVSPost2010Prop38
140
0.0
102
RTVSPost2010PropOp38
 70
     1
102
RTVSPost2010Prop39
140
1.0
102
RTVSPost2010PropOp39
 70
     1
102
RTVSPost2010Prop40
 90
        0
102
RTVSPost2010PropOp40
 70
     1
102
RTVSPost2010Prop41ColorIndex
 90
       18
102
RTVSPost2010Prop41ColorRGB
 90
        0
102
RTVSPost2010PropOp41
 70
     1
102
RTVSPost2010Prop42
 90
       50
102
RTVSPost2010PropOp42
 70
     1
102
RTVSPost2010Prop43
 90
        3
102
RTVSPost2010PropOp43
 70
     1
102
RTVSPost2010Prop44ColorIndex
 90
        5
102
RTVSPost2010Prop44ColorRGB
 90
      255
102
RTVSPost2010PropOp44
 70
     1
102
RTVSPost2010Prop45
280
     0
102
RTVSPost2010PropOp45
 70
     1
102
RTVSPost2010Prop46
 90
       50
102
RTVSPost2010PropOp46
 70
     1
102
RTVSPost2010Prop47
 90
       50
102
RTVSPost2010PropOp47
 70
     1
102
RTVSPost2010Prop48
 90
       50
102
RTVSPost2010PropOp48
 70
     1
102
RTVSPost2010Prop49
280
     0
102
RTVSPost2010PropOp49
 70
     1
102
RTVSPost2010Prop50
 90
       50
102
RTVSPost2010PropOp50
 70
     1
102
RTVSPost2010Prop51ColorIndex
 90
      256
102
RTVSPost2010Prop51ColorRGB
 90
-16777216
102
RTVSPost2010PropOp51
 70
     0
102
RTVSPost2010Prop52
140
1.0
102
RTVSPost2010PropOp52
 70
     0
102
RTVSPost2010Prop53
 90
        2
102
RTVSPost2010PropOp53
 70
     1
102
RTVSPost2010Prop54
  1
strokes_ogs.tif
102
RTVSPost2010PropOp54
 70
     1
102
RTVSPost2010Prop55
280
     0
102
RTVSPost2010PropOp55
 70
     1
102
RTVSPost2010Prop56
140
1.0
102
RTVSPost2010PropOp56
 70
     1
102
RTVSPost2010Prop57
140
1.0
102
RTVSPost2010PropOp57
 70
     1
102
RTVSPropertyOp0
 70
     1
102
RTVSPropertyOp1
 70
     1
102
RTVSPropertyOp2
 70
     1
102
RTVSPropertyOp3
 70
     1
102
RTVSPropertyOp4
 70
     1
102
RTVSPropertyOp5
 70
     1
102
RTVSPropertyOp6
 70
     1
102
RTVSPropertyOp7
 70
     1
102
RTVSPropertyOp8
 70
     1
102
RTVSPropertyOp9
 70
     1
102
RTVSPropertyOp10
 70
     1
102
RTVSPropertyOp11
 70
     1
102
RTVSPropertyOp12
 70
     1
102
RTVSPropertyOp13
 70
     1
102
RTVSPropertyOp14
 70
     1
102
RTVSPropertyOp15
 70
     1
102
RTVSPropertyOp16
 70
     1
102
RTVSPropertyOp17
 70
     1
102
RTVSPropertyOp18
 70
     1
102
RTVSPropertyOp19
 70
     1
102
RTVSPropertyOp20
 70
     1
102
RTVSPropertyOp21
 70
     1
102
RTVSPropertyOp22
 70
     1
102
RTVSPropertyOp23
 70
     1
102
RTVSPropertyOp24
 70
     1
102
RTVSPropertyOp25
 70
     1
102
RTVSPropertyOp26
 70
     1
102
RTVSPropertyOp27
 70
     1
102
RTVSPropertyOp28
 70
     1
102
RTVSPropertyOp29
 70
     1
102
RTVSPropertyOp30
 70
     1
102
RTVSPropertyOp31
 70
     1
102
RTVSPropertyOp32
 70
     1
102
RTVSPropertyOp33
 70
     1
102
RTVSPropertyOp34
 70
     1
102
RTVSPropertyOp35
 70
     1
102
RTVSPropertyOp36
 70
     1
102
RTVSPropertyOp37
 70
     1
102
RTVSPropertyOp38
 70
     1
102
RTVSPropertyOp39
 70
     1
102
RTVSPropertyOp40
 70
     1
102
RTVSPropertyOp41
 70
     1
102
RTVSPropertyOp42
 70
     1
102
RTVSPropertyOp43
 70
     1
102
RTVSPropertyOp44
 70
     1
102
RTVSPropertyOp45
 70
     1
102
RTVSPropertyOp46
 70
     1
102
RTVSPropertyOp47
 70
     1
102
RTVSPropertyOp48
 70
     1
102
RTVSPropertyOp49
 70
     1
102
RTVSPropertyOp50
 70
     1
102
RTVSPropertyOp51
 70
     0
102
RTVSPropertyOp52
 70
     0
102
RTVSPropertyOp53
 70
     1
102
RTVSPropertyOp54
 70
     1
102
RTVSPropertyOp55
 70
     1
102
RTVSPropertyOp56
 70
     1
102
RTVSPropertyOp57
 70
     1
102
RTVSPropertyOp58
 70
     1
102
RTVSPropertyOp59
 70
     1
102
RTVSPropertyOp60
 70
     1
102
RTVSPropertyOp61
 70
     1
102
RTVSPropertyOp62
 70
     1
  0
XRECORD
  5
AB66
102
{ACAD_REACTORS
330
AB65
102
}
330
AB65
100
AcDbXrecord
280
     1
102
RTVSPost2010Prop28
280
     0
102
RTVSPost2010PropOp28
 70
     1
102
RTVSPost2010Prop29
280
     1
102
RTVSPost2010PropOp29
 70
     1
102
RTVSPost2010Prop30
280
     1
102
RTVSPost2010PropOp30
 70
     1
102
RTVSPost2010Prop31
280
     0
102
RTVSPost2010PropOp31
 70
     1
102
RTVSPost2010Prop32
280
     0
102
RTVSPost2010PropOp32
 70
     1
102
RTVSPost2010Prop33
280
     0
102
RTVSPost2010PropOp33
 70
     1
102
RTVSPost2010Prop34
280
     0
102
RTVSPost2010PropOp34
 70
     1
102
RTVSPost2010Prop35
280
     0
102
RTVSPost2010PropOp35
 70
     1
102
RTVSPost2010Prop36
280
     0
102
RTVSPost2010PropOp36
 70
     1
102
RTVSPost2010Prop37
 90
       50
102
RTVSPost2010PropOp37
 70
     1
102
RTVSPost2010Prop38
140
0.0
102
RTVSPost2010PropOp38
 70
     1
102
RTVSPost2010Prop39
140
1.0
102
RTVSPost2010PropOp39
 70
     1
102
RTVSPost2010Prop40
 90
        0
102
RTVSPost2010PropOp40
 70
     1
102
RTVSPost2010Prop41ColorIndex
 90
       18
102
RTVSPost2010Prop41ColorRGB
 90
        0
102
RTVSPost2010PropOp41
 70
     1
102
RTVSPost2010Prop42
 90
       50
102
RTVSPost2010PropOp42
 70
     1
102
RTVSPost2010Prop43
 90
        3
102
RTVSPost2010PropOp43
 70
     1
102
RTVSPost2010Prop44ColorIndex
 90
        5
102
RTVSPost2010Prop44ColorRGB
 90
      255
102
RTVSPost2010PropOp44
 70
     1
102
RTVSPost2010Prop45
280
     0
102
RTVSPost2010PropOp45
 70
     1
102
RTVSPost2010Prop46
 90
       50
102
RTVSPost2010PropOp46
 70
     1
102
RTVSPost2010Prop47
 90
       50
102
RTVSPost2010PropOp47
 70
     1
102
RTVSPost2010Prop48
 90
       50
102
RTVSPost2010PropOp48
 70
     1
102
RTVSPost2010Prop49
280
     0
102
RTVSPost2010PropOp49
 70
     1
102
RTVSPost2010Prop50
 90
       50
102
RTVSPost2010PropOp50
 70
     1
102
RTVSPost2010Prop51ColorIndex
 90
      256
102
RTVSPost2010Prop51ColorRGB
 90
-16777216
102
RTVSPost2010PropOp51
 70
     0
102
RTVSPost2010Prop52
140
1.0
102
RTVSPost2010PropOp52
 70
     0
102
RTVSPost2010Prop53
 90
        2
102
RTVSPost2010PropOp53
 70
     1
102
RTVSPost2010Prop54
  1
strokes_ogs.tif
102
RTVSPost2010PropOp54
 70
     1
102
RTVSPost2010Prop55
280
     0
102
RTVSPost2010PropOp55
 70
     1
102
RTVSPost2010Prop56
140
1.0
102
RTVSPost2010PropOp56
 70
     1
102
RTVSPost2010Prop57
140
1.0
102
RTVSPost2010PropOp57
 70
     1
102
RTVSPropertyOp0
 70
     1
102
RTVSPropertyOp1
 70
     1
102
RTVSPropertyOp2
 70
     1
102
RTVSPropertyOp3
 70
     1
102
RTVSPropertyOp4
 70
     1
102
RTVSPropertyOp5
 70
     1
102
RTVSPropertyOp6
 70
     1
102
RTVSPropertyOp7
 70
     1
102
RTVSPropertyOp8
 70
     1
102
RTVSPropertyOp9
 70
     1
102
RTVSPropertyOp10
 70
     1
102
RTVSPropertyOp11
 70
     1
102
RTVSPropertyOp12
 70
     1
102
RTVSPropertyOp13
 70
     1
102
RTVSPropertyOp14
 70
     1
102
RTVSPropertyOp15
 70
     1
102
RTVSPropertyOp16
 70
     1
102
RTVSPropertyOp17
 70
     1
102
RTVSPropertyOp18
 70
     1
102
RTVSPropertyOp19
 70
     1
102
RTVSPropertyOp20
 70
     1
102
RTVSPropertyOp21
 70
     1
102
RTVSPropertyOp22
 70
     1
102
RTVSPropertyOp23
 70
     1
102
RTVSPropertyOp24
 70
     1
102
RTVSPropertyOp25
 70
     1
102
RTVSPropertyOp26
 70
     1
102
RTVSPropertyOp27
 70
     1
102
RTVSPropertyOp28
 70
     1
102
RTVSPropertyOp29
 70
     1
102
RTVSPropertyOp30
 70
     1
102
RTVSPropertyOp31
 70
     1
102
RTVSPropertyOp32
 70
     1
102
RTVSPropertyOp33
 70
     1
102
RTVSPropertyOp34
 70
     1
102
RTVSPropertyOp35
 70
     1
102
RTVSPropertyOp36
 70
     1
102
RTVSPropertyOp37
 70
     1
102
RTVSPropertyOp38
 70
     1
102
RTVSPropertyOp39
 70
     1
102
RTVSPropertyOp40
 70
     1
102
RTVSPropertyOp41
 70
     1
102
RTVSPropertyOp42
 70
     1
102
RTVSPropertyOp43
 70
     1
102
RTVSPropertyOp44
 70
     1
102
RTVSPropertyOp45
 70
     1
102
RTVSPropertyOp46
 70
     1
102
RTVSPropertyOp47
 70
     1
102
RTVSPropertyOp48
 70
     1
102
RTVSPropertyOp49
 70
     1
102
RTVSPropertyOp50
 70
     1
102
RTVSPropertyOp51
 70
     0
102
RTVSPropertyOp52
 70
     0
102
RTVSPropertyOp53
 70
     1
102
RTVSPropertyOp54
 70
     1
102
RTVSPropertyOp55
 70
     1
102
RTVSPropertyOp56
 70
     1
102
RTVSPropertyOp57
 70
     1
102
RTVSPropertyOp58
 70
     1
102
RTVSPropertyOp59
 70
     1
102
RTVSPropertyOp60
 70
     1
102
RTVSPropertyOp61
 70
     1
102
RTVSPropertyOp62
 70
     1
  0
XRECORD
  5
AB68
102
{ACAD_REACTORS
330
AB67
102
}
330
AB67
100
AcDbXrecord
280
     1
102
RTVSPost2010Prop28
280
     0
102
RTVSPost2010PropOp28
 70
     1
102
RTVSPost2010Prop29
280
     1
102
RTVSPost2010PropOp29
 70
     1
102
RTVSPost2010Prop30
280
     1
102
RTVSPost2010PropOp30
 70
     1
102
RTVSPost2010Prop31
280
     0
102
RTVSPost2010PropOp31
 70
     1
102
RTVSPost2010Prop32
280
     0
102
RTVSPost2010PropOp32
 70
     1
102
RTVSPost2010Prop33
280
     0
102
RTVSPost2010PropOp33
 70
     1
102
RTVSPost2010Prop34
280
     0
102
RTVSPost2010PropOp34
 70
     1
102
RTVSPost2010Prop35
280
     0
102
RTVSPost2010PropOp35
 70
     1
102
RTVSPost2010Prop36
280
     0
102
RTVSPost2010PropOp36
 70
     1
102
RTVSPost2010Prop37
 90
       50
102
RTVSPost2010PropOp37
 70
     1
102
RTVSPost2010Prop38
140
0.0
102
RTVSPost2010PropOp38
 70
     1
102
RTVSPost2010Prop39
140
1.0
102
RTVSPost2010PropOp39
 70
     1
102
RTVSPost2010Prop40
 90
        0
102
RTVSPost2010PropOp40
 70
     1
102
RTVSPost2010Prop41ColorIndex
 90
       18
102
RTVSPost2010Prop41ColorRGB
 90
        0
102
RTVSPost2010PropOp41
 70
     1
102
RTVSPost2010Prop42
 90
       50
102
RTVSPost2010PropOp42
 70
     1
102
RTVSPost2010Prop43
 90
        3
102
RTVSPost2010PropOp43
 70
     1
102
RTVSPost2010Prop44ColorIndex
 90
        5
102
RTVSPost2010Prop44ColorRGB
 90
      255
102
RTVSPost2010PropOp44
 70
     1
102
RTVSPost2010Prop45
280
     0
102
RTVSPost2010PropOp45
 70
     1
102
RTVSPost2010Prop46
 90
       50
102
RTVSPost2010PropOp46
 70
     1
102
RTVSPost2010Prop47
 90
       50
102
RTVSPost2010PropOp47
 70
     1
102
RTVSPost2010Prop48
 90
       50
102
RTVSPost2010PropOp48
 70
     1
102
RTVSPost2010Prop49
280
     0
102
RTVSPost2010PropOp49
 70
     1
102
RTVSPost2010Prop50
 90
       50
102
RTVSPost2010PropOp50
 70
     1
102
RTVSPost2010Prop51ColorIndex
 90
      256
102
RTVSPost2010Prop51ColorRGB
 90
-16777216
102
RTVSPost2010PropOp51
 70
     0
102
RTVSPost2010Prop52
140
1.0
102
RTVSPost2010PropOp52
 70
     0
102
RTVSPost2010Prop53
 90
        2
102
RTVSPost2010PropOp53
 70
     1
102
RTVSPost2010Prop54
  1
strokes_ogs.tif
102
RTVSPost2010PropOp54
 70
     1
102
RTVSPost2010Prop55
280
     0
102
RTVSPost2010PropOp55
 70
     1
102
RTVSPost2010Prop56
140
1.0
102
RTVSPost2010PropOp56
 70
     1
102
RTVSPost2010Prop57
140
1.0
102
RTVSPost2010PropOp57
 70
     1
102
RTVSPropertyOp0
 70
     1
102
RTVSPropertyOp1
 70
     1
102
RTVSPropertyOp2
 70
     1
102
RTVSPropertyOp3
 70
     1
102
RTVSPropertyOp4
 70
     1
102
RTVSPropertyOp5
 70
     1
102
RTVSPropertyOp6
 70
     1
102
RTVSPropertyOp7
 70
     1
102
RTVSPropertyOp8
 70
     1
102
RTVSPropertyOp9
 70
     1
102
RTVSPropertyOp10
 70
     1
102
RTVSPropertyOp11
 70
     1
102
RTVSPropertyOp12
 70
     1
102
RTVSPropertyOp13
 70
     1
102
RTVSPropertyOp14
 70
     1
102
RTVSPropertyOp15
 70
     1
102
RTVSPropertyOp16
 70
     1
102
RTVSPropertyOp17
 70
     1
102
RTVSPropertyOp18
 70
     1
102
RTVSPropertyOp19
 70
     1
102
RTVSPropertyOp20
 70
     1
102
RTVSPropertyOp21
 70
     1
102
RTVSPropertyOp22
 70
     1
102
RTVSPropertyOp23
 70
     1
102
RTVSPropertyOp24
 70
     1
102
RTVSPropertyOp25
 70
     1
102
RTVSPropertyOp26
 70
     1
102
RTVSPropertyOp27
 70
     1
102
RTVSPropertyOp28
 70
     1
102
RTVSPropertyOp29
 70
     1
102
RTVSPropertyOp30
 70
     1
102
RTVSPropertyOp31
 70
     1
102
RTVSPropertyOp32
 70
     1
102
RTVSPropertyOp33
 70
     1
102
RTVSPropertyOp34
 70
     1
102
RTVSPropertyOp35
 70
     1
102
RTVSPropertyOp36
 70
     1
102
RTVSPropertyOp37
 70
     1
102
RTVSPropertyOp38
 70
     1
102
RTVSPropertyOp39
 70
     1
102
RTVSPropertyOp40
 70
     1
102
RTVSPropertyOp41
 70
     1
102
RTVSPropertyOp42
 70
     1
102
RTVSPropertyOp43
 70
     1
102
RTVSPropertyOp44
 70
     1
102
RTVSPropertyOp45
 70
     1
102
RTVSPropertyOp46
 70
     1
102
RTVSPropertyOp47
 70
     1
102
RTVSPropertyOp48
 70
     1
102
RTVSPropertyOp49
 70
     1
102
RTVSPropertyOp50
 70
     1
102
RTVSPropertyOp51
 70
     0
102
RTVSPropertyOp52
 70
     0
102
RTVSPropertyOp53
 70
     1
102
RTVSPropertyOp54
 70
     1
102
RTVSPropertyOp55
 70
     1
102
RTVSPropertyOp56
 70
     1
102
RTVSPropertyOp57
 70
     1
102
RTVSPropertyOp58
 70
     1
102
RTVSPropertyOp59
 70
     1
102
RTVSPropertyOp60
 70
     1
102
RTVSPropertyOp61
 70
     1
102
RTVSPropertyOp62
 70
     1
  0
XRECORD
  5
AB5E
102
{ACAD_REACTORS
330
AB5D
102
}
330
AB5D
100
AcDbXrecord
280
     1
102
RTVSPost2010Prop28
280
     0
102
RTVSPost2010PropOp28
 70
     1
102
RTVSPost2010Prop29
280
     1
102
RTVSPost2010PropOp29
 70
     1
102
RTVSPost2010Prop30
280
     1
102
RTVSPost2010PropOp30
 70
     1
102
RTVSPost2010Prop31
280
     0
102
RTVSPost2010PropOp31
 70
     1
102
RTVSPost2010Prop32
280
     0
102
RTVSPost2010PropOp32
 70
     1
102
RTVSPost2010Prop33
280
     0
102
RTVSPost2010PropOp33
 70
     1
102
RTVSPost2010Prop34
280
     0
102
RTVSPost2010PropOp34
 70
     1
102
RTVSPost2010Prop35
280
     0
102
RTVSPost2010PropOp35
 70
     1
102
RTVSPost2010Prop36
280
     0
102
RTVSPost2010PropOp36
 70
     1
102
RTVSPost2010Prop37
 90
       50
102
RTVSPost2010PropOp37
 70
     1
102
RTVSPost2010Prop38
140
0.0
102
RTVSPost2010PropOp38
 70
     1
102
RTVSPost2010Prop39
140
1.0
102
RTVSPost2010PropOp39
 70
     1
102
RTVSPost2010Prop40
 90
        0
102
RTVSPost2010PropOp40
 70
     1
102
RTVSPost2010Prop41ColorIndex
 90
       18
102
RTVSPost2010Prop41ColorRGB
 90
        0
102
RTVSPost2010PropOp41
 70
     1
102
RTVSPost2010Prop42
 90
       50
102
RTVSPost2010PropOp42
 70
     1
102
RTVSPost2010Prop43
 90
        3
102
RTVSPost2010PropOp43
 70
     1
102
RTVSPost2010Prop44ColorIndex
 90
        5
102
RTVSPost2010Prop44ColorRGB
 90
      255
102
RTVSPost2010PropOp44
 70
     1
102
RTVSPost2010Prop45
280
     0
102
RTVSPost2010PropOp45
 70
     1
102
RTVSPost2010Prop46
 90
       50
102
RTVSPost2010PropOp46
 70
     1
102
RTVSPost2010Prop47
 90
       50
102
RTVSPost2010PropOp47
 70
     1
102
RTVSPost2010Prop48
 90
       50
102
RTVSPost2010PropOp48
 70
     1
102
RTVSPost2010Prop49
280
     0
102
RTVSPost2010PropOp49
 70
     1
102
RTVSPost2010Prop50
 90
       50
102
RTVSPost2010PropOp50
 70
     1
102
RTVSPost2010Prop51ColorIndex
 90
      256
102
RTVSPost2010Prop51ColorRGB
 90
-16777216
102
RTVSPost2010PropOp51
 70
     0
102
RTVSPost2010Prop52
140
1.0
102
RTVSPost2010PropOp52
 70
     0
102
RTVSPost2010Prop53
 90
        2
102
RTVSPost2010PropOp53
 70
     1
102
RTVSPost2010Prop54
  1
strokes_ogs.tif
102
RTVSPost2010PropOp54
 70
     1
102
RTVSPost2010Prop55
280
     0
102
RTVSPost2010PropOp55
 70
     1
102
RTVSPost2010Prop56
140
1.0
102
RTVSPost2010PropOp56
 70
     1
102
RTVSPost2010Prop57
140
1.0
102
RTVSPost2010PropOp57
 70
     1
102
RTVSPropertyOp0
 70
     1
102
RTVSPropertyOp1
 70
     1
102
RTVSPropertyOp2
 70
     1
102
RTVSPropertyOp3
 70
     1
102
RTVSPropertyOp4
 70
     1
102
RTVSPropertyOp5
 70
     1
102
RTVSPropertyOp6
 70
     1
102
RTVSPropertyOp7
 70
     1
102
RTVSPropertyOp8
 70
     1
102
RTVSPropertyOp9
 70
     1
102
RTVSPropertyOp10
 70
     1
102
RTVSPropertyOp11
 70
     1
102
RTVSPropertyOp12
 70
     1
102
RTVSPropertyOp13
 70
     1
102
RTVSPropertyOp14
 70
     1
102
RTVSPropertyOp15
 70
     1
102
RTVSPropertyOp16
 70
     1
102
RTVSPropertyOp17
 70
     1
102
RTVSPropertyOp18
 70
     1
102
RTVSPropertyOp19
 70
     1
102
RTVSPropertyOp20
 70
     1
102
RTVSPropertyOp21
 70
     1
102
RTVSPropertyOp22
 70
     1
102
RTVSPropertyOp23
 70
     1
102
RTVSPropertyOp24
 70
     1
102
RTVSPropertyOp25
 70
     1
102
RTVSPropertyOp26
 70
     1
102
RTVSPropertyOp27
 70
     1
102
RTVSPropertyOp28
 70
     1
102
RTVSPropertyOp29
 70
     1
102
RTVSPropertyOp30
 70
     1
102
RTVSPropertyOp31
 70
     1
102
RTVSPropertyOp32
 70
     1
102
RTVSPropertyOp33
 70
     1
102
RTVSPropertyOp34
 70
     1
102
RTVSPropertyOp35
 70
     1
102
RTVSPropertyOp36
 70
     1
102
RTVSPropertyOp37
 70
     1
102
RTVSPropertyOp38
 70
     1
102
RTVSPropertyOp39
 70
     1
102
RTVSPropertyOp40
 70
     1
102
RTVSPropertyOp41
 70
     1
102
RTVSPropertyOp42
 70
     1
102
RTVSPropertyOp43
 70
     1
102
RTVSPropertyOp44
 70
     1
102
RTVSPropertyOp45
 70
     1
102
RTVSPropertyOp46
 70
     1
102
RTVSPropertyOp47
 70
     1
102
RTVSPropertyOp48
 70
     1
102
RTVSPropertyOp49
 70
     1
102
RTVSPropertyOp50
 70
     1
102
RTVSPropertyOp51
 70
     0
102
RTVSPropertyOp52
 70
     0
102
RTVSPropertyOp53
 70
     1
102
RTVSPropertyOp54
 70
     1
102
RTVSPropertyOp55
 70
     1
102
RTVSPropertyOp56
 70
     1
102
RTVSPropertyOp57
 70
     1
102
RTVSPropertyOp58
 70
     1
102
RTVSPropertyOp59
 70
     1
102
RTVSPropertyOp60
 70
     1
102
RTVSPropertyOp61
 70
     1
102
RTVSPropertyOp62
 70
     1
  0
XRECORD
  5
AB52
102
{ACAD_REACTORS
330
AB51
102
}
330
AB51
100
AcDbXrecord
280
     1
102
RTVSPost2010Prop28
280
     0
102
RTVSPost2010PropOp28
 70
     1
102
RTVSPost2010Prop29
280
     1
102
RTVSPost2010PropOp29
 70
     1
102
RTVSPost2010Prop30
280
     1
102
RTVSPost2010PropOp30
 70
     1
102
RTVSPost2010Prop31
280
     0
102
RTVSPost2010PropOp31
 70
     1
102
RTVSPost2010Prop32
280
     0
102
RTVSPost2010PropOp32
 70
     1
102
RTVSPost2010Prop33
280
     0
102
RTVSPost2010PropOp33
 70
     1
102
RTVSPost2010Prop34
280
     0
102
RTVSPost2010PropOp34
 70
     1
102
RTVSPost2010Prop35
280
     0
102
RTVSPost2010PropOp35
 70
     1
102
RTVSPost2010Prop36
280
     0
102
RTVSPost2010PropOp36
 70
     1
102
RTVSPost2010Prop37
 90
       50
102
RTVSPost2010PropOp37
 70
     1
102
RTVSPost2010Prop38
140
0.0
102
RTVSPost2010PropOp38
 70
     1
102
RTVSPost2010Prop39
140
1.0
102
RTVSPost2010PropOp39
 70
     1
102
RTVSPost2010Prop40
 90
        0
102
RTVSPost2010PropOp40
 70
     1
102
RTVSPost2010Prop41ColorIndex
 90
       18
102
RTVSPost2010Prop41ColorRGB
 90
        0
102
RTVSPost2010PropOp41
 70
     1
102
RTVSPost2010Prop42
 90
       50
102
RTVSPost2010PropOp42
 70
     1
102
RTVSPost2010Prop43
 90
        3
102
RTVSPost2010PropOp43
 70
     1
102
RTVSPost2010Prop44ColorIndex
 90
        5
102
RTVSPost2010Prop44ColorRGB
 90
      255
102
RTVSPost2010PropOp44
 70
     1
102
RTVSPost2010Prop45
280
     0
102
RTVSPost2010PropOp45
 70
     1
102
RTVSPost2010Prop46
 90
       50
102
RTVSPost2010PropOp46
 70
     1
102
RTVSPost2010Prop47
 90
       50
102
RTVSPost2010PropOp47
 70
     1
102
RTVSPost2010Prop48
 90
       50
102
RTVSPost2010PropOp48
 70
     1
102
RTVSPost2010Prop49
280
     0
102
RTVSPost2010PropOp49
 70
     1
102
RTVSPost2010Prop50
 90
       50
102
RTVSPost2010PropOp50
 70
     1
102
RTVSPost2010Prop51ColorIndex
 90
      256
102
RTVSPost2010Prop51ColorRGB
 90
-16777216
102
RTVSPost2010PropOp51
 70
     0
102
RTVSPost2010Prop52
140
1.0
102
RTVSPost2010PropOp52
 70
     0
102
RTVSPost2010Prop53
 90
        2
102
RTVSPost2010PropOp53
 70
     1
102
RTVSPost2010Prop54
  1
strokes_ogs.tif
102
RTVSPost2010PropOp54
 70
     1
102
RTVSPost2010Prop55
280
     0
102
RTVSPost2010PropOp55
 70
     1
102
RTVSPost2010Prop56
140
1.0
102
RTVSPost2010PropOp56
 70
     1
102
RTVSPost2010Prop57
140
1.0
102
RTVSPost2010PropOp57
 70
     1
102
RTVSPropertyOp0
 70
     1
102
RTVSPropertyOp1
 70
     1
102
RTVSPropertyOp2
 70
     1
102
RTVSPropertyOp3
 70
     1
102
RTVSPropertyOp4
 70
     1
102
RTVSPropertyOp5
 70
     1
102
RTVSPropertyOp6
 70
     1
102
RTVSPropertyOp7
 70
     1
102
RTVSPropertyOp8
 70
     1
102
RTVSPropertyOp9
 70
     1
102
RTVSPropertyOp10
 70
     1
102
RTVSPropertyOp11
 70
     1
102
RTVSPropertyOp12
 70
     1
102
RTVSPropertyOp13
 70
     1
102
RTVSPropertyOp14
 70
     1
102
RTVSPropertyOp15
 70
     1
102
RTVSPropertyOp16
 70
     1
102
RTVSPropertyOp17
 70
     1
102
RTVSPropertyOp18
 70
     1
102
RTVSPropertyOp19
 70
     1
102
RTVSPropertyOp20
 70
     1
102
RTVSPropertyOp21
 70
     1
102
RTVSPropertyOp22
 70
     1
102
RTVSPropertyOp23
 70
     1
102
RTVSPropertyOp24
 70
     1
102
RTVSPropertyOp25
 70
     1
102
RTVSPropertyOp26
 70
     1
102
RTVSPropertyOp27
 70
     1
102
RTVSPropertyOp28
 70
     1
102
RTVSPropertyOp29
 70
     1
102
RTVSPropertyOp30
 70
     1
102
RTVSPropertyOp31
 70
     1
102
RTVSPropertyOp32
 70
     1
102
RTVSPropertyOp33
 70
     1
102
RTVSPropertyOp34
 70
     1
102
RTVSPropertyOp35
 70
     1
102
RTVSPropertyOp36
 70
     1
102
RTVSPropertyOp37
 70
     1
102
RTVSPropertyOp38
 70
     1
102
RTVSPropertyOp39
 70
     1
102
RTVSPropertyOp40
 70
     1
102
RTVSPropertyOp41
 70
     1
102
RTVSPropertyOp42
 70
     1
102
RTVSPropertyOp43
 70
     1
102
RTVSPropertyOp44
 70
     1
102
RTVSPropertyOp45
 70
     1
102
RTVSPropertyOp46
 70
     1
102
RTVSPropertyOp47
 70
     1
102
RTVSPropertyOp48
 70
     1
102
RTVSPropertyOp49
 70
     1
102
RTVSPropertyOp50
 70
     1
102
RTVSPropertyOp51
 70
     0
102
RTVSPropertyOp52
 70
     0
102
RTVSPropertyOp53
 70
     1
102
RTVSPropertyOp54
 70
     1
102
RTVSPropertyOp55
 70
     1
102
RTVSPropertyOp56
 70
     1
102
RTVSPropertyOp57
 70
     1
102
RTVSPropertyOp58
 70
     1
102
RTVSPropertyOp59
 70
     1
102
RTVSPropertyOp60
 70
     1
102
RTVSPropertyOp61
 70
     1
102
RTVSPropertyOp62
 70
     1
  0
XRECORD
  5
AB6A
102
{ACAD_REACTORS
330
AB69
102
}
330
AB69
100
AcDbXrecord
280
     1
102
RTVSPost2010Prop28
280
     0
102
RTVSPost2010PropOp28
 70
     1
102
RTVSPost2010Prop29
280
     1
102
RTVSPost2010PropOp29
 70
     1
102
RTVSPost2010Prop30
280
     1
102
RTVSPost2010PropOp30
 70
     1
102
RTVSPost2010Prop31
280
     0
102
RTVSPost2010PropOp31
 70
     1
102
RTVSPost2010Prop32
280
     0
102
RTVSPost2010PropOp32
 70
     1
102
RTVSPost2010Prop33
280
     0
102
RTVSPost2010PropOp33
 70
     1
102
RTVSPost2010Prop34
280
     0
102
RTVSPost2010PropOp34
 70
     1
102
RTVSPost2010Prop35
280
     0
102
RTVSPost2010PropOp35
 70
     1
102
RTVSPost2010Prop36
280
     0
102
RTVSPost2010PropOp36
 70
     1
102
RTVSPost2010Prop37
 90
       50
102
RTVSPost2010PropOp37
 70
     1
102
RTVSPost2010Prop38
140
0.0
102
RTVSPost2010PropOp38
 70
     1
102
RTVSPost2010Prop39
140
1.0
102
RTVSPost2010PropOp39
 70
     1
102
RTVSPost2010Prop40
 90
        0
102
RTVSPost2010PropOp40
 70
     1
102
RTVSPost2010Prop41ColorIndex
 90
       18
102
RTVSPost2010Prop41ColorRGB
 90
        0
102
RTVSPost2010PropOp41
 70
     1
102
RTVSPost2010Prop42
 90
       50
102
RTVSPost2010PropOp42
 70
     1
102
RTVSPost2010Prop43
 90
        3
102
RTVSPost2010PropOp43
 70
     1
102
RTVSPost2010Prop44ColorIndex
 90
        5
102
RTVSPost2010Prop44ColorRGB
 90
      255
102
RTVSPost2010PropOp44
 70
     1
102
RTVSPost2010Prop45
280
     0
102
RTVSPost2010PropOp45
 70
     1
102
RTVSPost2010Prop46
 90
       50
102
RTVSPost2010PropOp46
 70
     1
102
RTVSPost2010Prop47
 90
       50
102
RTVSPost2010PropOp47
 70
     1
102
RTVSPost2010Prop48
 90
       50
102
RTVSPost2010PropOp48
 70
     1
102
RTVSPost2010Prop49
280
     0
102
RTVSPost2010PropOp49
 70
     1
102
RTVSPost2010Prop50
 90
       50
102
RTVSPost2010PropOp50
 70
     1
102
RTVSPost2010Prop51ColorIndex
 90
      256
102
RTVSPost2010Prop51ColorRGB
 90
-16777216
102
RTVSPost2010PropOp51
 70
     0
102
RTVSPost2010Prop52
140
1.0
102
RTVSPost2010PropOp52
 70
     0
102
RTVSPost2010Prop53
 90
        2
102
RTVSPost2010PropOp53
 70
     1
102
RTVSPost2010Prop54
  1
strokes_ogs.tif
102
RTVSPost2010PropOp54
 70
     1
102
RTVSPost2010Prop55
280
     0
102
RTVSPost2010PropOp55
 70
     1
102
RTVSPost2010Prop56
140
1.0
102
RTVSPost2010PropOp56
 70
     1
102
RTVSPost2010Prop57
140
1.0
102
RTVSPost2010PropOp57
 70
     1
102
RTVSPropertyOp0
 70
     1
102
RTVSPropertyOp1
 70
     1
102
RTVSPropertyOp2
 70
     1
102
RTVSPropertyOp3
 70
     1
102
RTVSPropertyOp4
 70
     1
102
RTVSPropertyOp5
 70
     1
102
RTVSPropertyOp6
 70
     1
102
RTVSPropertyOp7
 70
     1
102
RTVSPropertyOp8
 70
     1
102
RTVSPropertyOp9
 70
     1
102
RTVSPropertyOp10
 70
     1
102
RTVSPropertyOp11
 70
     1
102
RTVSPropertyOp12
 70
     1
102
RTVSPropertyOp13
 70
     1
102
RTVSPropertyOp14
 70
     1
102
RTVSPropertyOp15
 70
     1
102
RTVSPropertyOp16
 70
     1
102
RTVSPropertyOp17
 70
     1
102
RTVSPropertyOp18
 70
     1
102
RTVSPropertyOp19
 70
     1
102
RTVSPropertyOp20
 70
     1
102
RTVSPropertyOp21
 70
     1
102
RTVSPropertyOp22
 70
     1
102
RTVSPropertyOp23
 70
     1
102
RTVSPropertyOp24
 70
     1
102
RTVSPropertyOp25
 70
     1
102
RTVSPropertyOp26
 70
     1
102
RTVSPropertyOp27
 70
     1
102
RTVSPropertyOp28
 70
     1
102
RTVSPropertyOp29
 70
     1
102
RTVSPropertyOp30
 70
     1
102
RTVSPropertyOp31
 70
     1
102
RTVSPropertyOp32
 70
     1
102
RTVSPropertyOp33
 70
     1
102
RTVSPropertyOp34
 70
     1
102
RTVSPropertyOp35
 70
     1
102
RTVSPropertyOp36
 70
     1
102
RTVSPropertyOp37
 70
     1
102
RTVSPropertyOp38
 70
     1
102
RTVSPropertyOp39
 70
     1
102
RTVSPropertyOp40
 70
     1
102
RTVSPropertyOp41
 70
     1
102
RTVSPropertyOp42
 70
     1
102
RTVSPropertyOp43
 70
     1
102
RTVSPropertyOp44
 70
     1
102
RTVSPropertyOp45
 70
     1
102
RTVSPropertyOp46
 70
     1
102
RTVSPropertyOp47
 70
     1
102
RTVSPropertyOp48
 70
     1
102
RTVSPropertyOp49
 70
     1
102
RTVSPropertyOp50
 70
     1
102
RTVSPropertyOp51
 70
     0
102
RTVSPropertyOp52
 70
     0
102
RTVSPropertyOp53
 70
     1
102
RTVSPropertyOp54
 70
     1
102
RTVSPropertyOp55
 70
     1
102
RTVSPropertyOp56
 70
     1
102
RTVSPropertyOp57
 70
     1
102
RTVSPropertyOp58
 70
     1
102
RTVSPropertyOp59
 70
     1
102
RTVSPropertyOp60
 70
     1
102
RTVSPropertyOp61
 70
     1
102
RTVSPropertyOp62
 70
     1
  0
ENDSEC
  0
EOF
