  0
SECTION
  2
HEADER
  9
$ACADVER
  1
AC1015
  9
$ACADMAINTVER
 70
    20
  9
$DWGCODEPAGE
  3
ANSI_932
  9
$INSBASE
 10
0.0
 20
0.0
 30
0.0
  9
$EXTMIN
 10
10.0
 20
9.999999999999998
 30
0.0
  9
$EXTMAX
 10
674.220223
 20
476.5716089999998
 30
0.0
  9
$LIMMIN
 10
0.0
 20
0.0
  9
$LIMMAX
 10
792.0
 20
546.0
  9
$ORTHOMODE
 70
     1
  9
$REGENMODE
 70
     1
  9
$FILLMODE
 70
     1
  9
$QTEXTMODE
 70
     0
  9
$MIRRTEXT
 70
     1
  9
$LTSCALE
 40
20.0
  9
$ATTMODE
 70
     1
  9
$TEXTSIZE
 40
5.0
  9
$TRACEWID
 40
1.0
  9
$TEXTSTYLE
  7
STANDARD
  9
$CLAYER
  8
0
  9
$CELTYPE
  6
BYLAYER
  9
$CECOLOR
 62
   256
  9
$CELTSCALE
 40
1.0
  9
$DISPSILH
 70
     0
  9
$DIMSCALE
 40
1.0
  9
$DIMASZ
 40
2.5
  9
$DIMEXO
 40
1.0
  9
$DIMDLI
 40
10.0
  9
$DIMRND
 40
0.0
  9
$DIMDLE
 40
0.0
  9
$DIMEXE
 40
1.0
  9
$DIMTP
 40
0.0
  9
$DIMTM
 40
0.0
  9
$DIMTXT
 40
3.2
  9
$DIMCEN
 40
0.0
  9
$DIMTSZ
 40
0.0
  9
$DIMTOL
 70
     0
  9
$DIMLIM
 70
     0
  9
$DIMTIH
 70
     0
  9
$DIMTOH
 70
     0
  9
$DIMSE1
 70
     0
  9
$DIMSE2
 70
     0
  9
$DIMTAD
 70
     3
  9
$DIMZIN
 70
     8
  9
$DIMBLK
  1

  9
$DIMASO
 70
     1
  9
$DIMSHO
 70
     1
  9
$DIMPOST
  1

  9
$DIMAPOST
  1

  9
$DIMALT
 70
     0
  9
$DIMALTD
 70
     2
  9
$DIMALTF
 40
25.4
  9
$DIMLFAC
 40
1.0
  9
$DIMTOFL
 70
     1
  9
$DIMTVP
 40
0.0
  9
$DIMTIX
 70
     0
  9
$DIMSOXD
 70
     0
  9
$DIMSAH
 70
     1
  9
$DIMBLK1
  1

  9
$DIMBLK2
  1

  9
$DIMSTYLE
  2
STANDARD
  9
$DIMCLRD
 70
     0
  9
$DIMCLRE
 70
     0
  9
$DIMCLRT
 70
     0
  9
$DIMTFAC
 40
1.0
  9
$DIMGAP
 40
1.0
  9
$DIMJUST
 70
     0
  9
$DIMSD1
 70
     0
  9
$DIMSD2
 70
     0
  9
$DIMTOLJ
 70
     1
  9
$DIMTZIN
 70
     0
  9
$DIMALTZ
 70
     0
  9
$DIMALTTZ
 70
     0
  9
$DIMUPT
 70
     0
  9
$DIMDEC
 70
     4
  9
$DIMTDEC
 70
     4
  9
$DIMALTU
 70
     2
  9
$DIMALTTD
 70
     2
  9
$DIMTXSTY
  7
STANDARD
  9
$DIMAUNIT
 70
     0
  9
$DIMADEC
 70
     0
  9
$DIMALTRND
 40
0.0
  9
$DIMAZIN
 70
     0
  9
$DIMDSEP
 70
    46
  9
$DIMATFIT
 70
     3
  9
$DIMFRAC
 70
     0
  9
$DIMLDRBLK
  1

  9
$DIMLUNIT
 70
     2
  9
$DIMLWD
 70
    -2
  9
$DIMLWE
 70
    -2
  9
$DIMTMOVE
 70
     0
  9
$LUNITS
 70
     2
  9
$LUPREC
 70
     4
  9
$SKETCHINC
 40
1.0
  9
$FILLETRAD
 40
3.299999999999998
  9
$AUNITS
 70
     0
  9
$AUPREC
 70
     2
  9
$MENU
  1
.
  9
$ELEVATION
 40
0.0
  9
$PELEVATION
 40
0.0
  9
$THICKNESS
 40
0.0
  9
$LIMCHECK
 70
     0
  9
$CHAMFERA
 40
10.0
  9
$CHAMFERB
 40
10.0
  9
$CHAMFERC
 40
0.0
  9
$CHAMFERD
 40
0.0
  9
$SKPOLY
 70
     0
  9
$TDCREATE
 40
2451301.425023495
  9
$TDUCREATE
 40
2451301.050023495
  9
$TDUPDATE
 40
2457192.689823623
  9
$TDUUPDATE
 40
2457192.314823623
  9
$TDINDWG
 40
0.0270708796
  9
$TDUSRTIMER
 40
0.0270705556
  9
$USRTIMER
 70
     1
  9
$ANGBASE
 50
0.0
  9
$ANGDIR
 70
     0
  9
$PDMODE
 70
     0
  9
$PDSIZE
 40
0.0
  9
$PLINEWID
 40
0.0
  9
$SPLFRAME
 70
     0
  9
$SPLINETYPE
 70
     6
  9
$SPLINESEGS
 70
     8
  9
$HANDSEED
  5
AFEF
  9
$SURFTAB1
 70
     6
  9
$SURFTAB2
 70
     6
  9
$SURFTYPE
 70
     6
  9
$SURFU
 70
     6
  9
$SURFV
 70
     6
  9
$UCSBASE
  2

  9
$UCSNAME
  2

  9
$UCSORG
 10
0.0
 20
0.0
 30
0.0
  9
$UCSXDIR
 10
1.0
 20
0.0
 30
0.0
  9
$UCSYDIR
 10
0.0
 20
1.0
 30
0.0
  9
$UCSORTHOREF
  2

  9
$UCSORTHOVIEW
 70
     0
  9
$UCSORGTOP
 10
0.0
 20
0.0
 30
0.0
  9
$UCSORGBOTTOM
 10
0.0
 20
0.0
 30
0.0
  9
$UCSORGLEFT
 10
0.0
 20
0.0
 30
0.0
  9
$UCSORGRIGHT
 10
0.0
 20
0.0
 30
0.0
  9
$UCSORGFRONT
 10
0.0
 20
0.0
 30
0.0
  9
$UCSORGBACK
 10
0.0
 20
0.0
 30
0.0
  9
$PUCSBASE
  2

  9
$PUCSNAME
  2

  9
$PUCSORG
 10
0.0
 20
0.0
 30
0.0
  9
$PUCSXDIR
 10
1.0
 20
0.0
 30
0.0
  9
$PUCSYDIR
 10
0.0
 20
1.0
 30
0.0
  9
$PUCSORTHOREF
  2

  9
$PUCSORTHOVIEW
 70
     0
  9
$PUCSORGTOP
 10
0.0
 20
0.0
 30
0.0
  9
$PUCSORGBOTTOM
 10
0.0
 20
0.0
 30
0.0
  9
$PUCSORGLEFT
 10
0.0
 20
0.0
 30
0.0
  9
$PUCSORGRIGHT
 10
0.0
 20
0.0
 30
0.0
  9
$PUCSORGFRONT
 10
0.0
 20
0.0
 30
0.0
  9
$PUCSORGBACK
 10
0.0
 20
0.0
 30
0.0
  9
$USERI1
 70
     0
  9
$USERI2
 70
     0
  9
$USERI3
 70
     0
  9
$USERI4
 70
     0
  9
$USERI5
 70
     0
  9
$USERR1
 40
0.0
  9
$USERR2
 40
0.0
  9
$USERR3
 40
0.0
  9
$USERR4
 40
0.0
  9
$USERR5
 40
0.0
  9
$WORLDVIEW
 70
     1
  9
$SHADEDGE
 70
     3
  9
$SHADEDIF
 70
    70
  9
$TILEMODE
 70
     1
  9
$MAXACTVP
 70
    16
  9
$PINSBASE
 10
0.0
 20
0.0
 30
0.0
  9
$PLIMCHECK
 70
     0
  9
$PEXTMIN
 10
1.000000000000000E+20
 20
1.000000000000000E+20
 30
1.000000000000000E+20
  9
$PEXTMAX
 10
-1.000000000000000E+20
 20
-1.000000000000000E+20
 30
-1.000000000000000E+20
  9
$PLIMMIN
 10
0.0
 20
0.0
  9
$PLIMMAX
 10
420.0
 20
297.0
  9
$UNITMODE
 70
     0
  9
$VISRETAIN
 70
     0
  9
$PLINEGEN
 70
     0
  9
$PSLTSCALE
 70
     0
  9
$TREEDEPTH
 70
  3020
  9
$CMLSTYLE
  2
STANDARD
  9
$CMLJUST
 70
     0
  9
$CMLSCALE
 40
1.0
  9
$PROXYGRAPHICS
 70
     1
  9
$MEASUREMENT
 70
     0
  9
$CELWEIGHT
370
    -1
  9
$ENDCAPS
280
     0
  9
$JOINSTYLE
280
     0
  9
$LWDISPLAY
290
     0
  9
$INSUNITS
 70
     0
  9
$HYPERLINKBASE
  1

  9
$STYLESHEET
  1

  9
$XEDIT
290
     1
  9
$CEPSNTYPE
380
     0
  9
$PSTYLEMODE
290
     1
  9
$FINGERPRINTGUID
  2
{F1B66BE4-665B-4DD8-ADFA-4594832651D2}
  9
$VERSIONGUID
  2
{99CB29C3-53BF-4392-9D5E-97A72B5D943E}
  9
$EXTNAMES
290
     1
  9
$PSVPSCALE
 40
0.0
  9
$OLESTARTUP
290
     0
  0
ENDSEC
  0
SECTION
  2
CLASSES
  0
CLASS
  1
ACDBDICTIONARYWDFLT
  2
AcDbDictionaryWithDefault
  3
ObjectDBX Classes
 90
        0
280
     0
281
     0
  0
CLASS
  1
ACDBPLACEHOLDER
  2
AcDbPlaceHolder
  3
ObjectDBX Classes
 90
        0
280
     0
281
     0
  0
CLASS
  1
LAYOUT
  2
AcDbLayout
  3
ObjectDBX Classes
 90
        0
280
     0
281
     0
  0
CLASS
  1
DICTIONARYVAR
  2
AcDbDictionaryVar
  3
ObjectDBX Classes
 90
        0
280
     0
281
     0
  0
CLASS
  1
MATERIAL
  2
AcDbMaterial
  3
ObjectDBX Classes
 90
     1153
280
     0
281
     0
  0
CLASS
  1
VISUALSTYLE
  2
AcDbVisualStyle
  3
ObjectDBX Classes
 90
     4095
280
     0
281
     0
  0
CLASS
  1
TABLESTYLE
  2
AcDbTableStyle
  3
ObjectDBX Classes
 90
     4095
280
     0
281
     0
  0
CLASS
  1
SCALE
  2
AcDbScale
  3
ObjectDBX Classes
 90
     1153
280
     0
281
     0
  0
CLASS
  1
MLEADERSTYLE
  2
AcDbMLeaderStyle
  3
ACDB_MLEADERSTYLE_CLASS
 90
     4095
280
     0
281
     0
  0
CLASS
  1
ACDBSECTIONVIEWSTYLE
  2
AcDbSectionViewStyle
  3
ObjectDBX Classes
 90
     1025
280
     0
281
     0
  0
CLASS
  1
ACDBDETAILVIEWSTYLE
  2
AcDbDetailViewStyle
  3
ObjectDBX Classes
 90
     1025
280
     0
281
     0
  0
CLASS
  1
CELLSTYLEMAP
  2
AcDbCellStyleMap
  3
ObjectDBX Classes
 90
     1152
280
     0
281
     0
  0
ENDSEC
  0
SECTION
  2
TABLES
  0
TABLE
  2
VPORT
  5
A997
330
0
100
AcDbSymbolTable
 70
     1
  0
VPORT
  5
AF3A
330
A997
100
AcDbSymbolTableRecord
100
AcDbViewportTableRecord
  2
*ACTIVE
 70
     0
 10
0.0
 20
0.0
 11
1.0
 21
1.0
 12
521.6927996646838
 22
243.2780926673184
 13
0.0
 23
0.0
 14
10.0
 24
10.0
 15
10.0
 25
10.0
 16
0.0
 26
0.0
 36
1.0
 17
0.0
 27
0.0
 37
0.0
 40
470.2780307038846
 41
2.35006605019815
 42
50.0
 43
0.0
 44
0.0
 50
0.0
 51
0.0
 71
     0
 72
   100
 73
     1
 74
     0
 75
     0
 76
     0
 77
     0
 78
     0
281
     0
 65
     1
110
0.0
120
0.0
130
0.0
111
1.0
121
0.0
131
0.0
112
0.0
122
1.0
132
0.0
 79
     0
146
0.0
1001
ACAD_NAV_VCDISPLAY
1070
     3
  0
ENDTAB
  0
TABLE
  2
LTYPE
  5
A994
330
0
100
AcDbSymbolTable
 70
     4
  0
LTYPE
  5
A9A2
330
A994
100
AcDbSymbolTableRecord
100
AcDbLinetypeTableRecord
  2
BYBLOCK
 70
     0
  3

 72
    65
 73
     0
 40
0.0
  0
LTYPE
  5
A9A3
330
A994
100
AcDbSymbolTableRecord
100
AcDbLinetypeTableRecord
  2
BYLAYER
 70
     0
  3

 72
    65
 73
     0
 40
0.0
  0
LTYPE
  5
A9A4
330
A994
100
AcDbSymbolTableRecord
100
AcDbLinetypeTableRecord
  2
CONTINUOUS
 70
     0
  3
Solid line
 72
    65
 73
     0
 40
0.0
  0
LTYPE
  5
A9B2
330
A994
100
AcDbSymbolTableRecord
100
AcDbLinetypeTableRecord
  2
DASHED
 70
     0
  3
__ __ __ __ __ __ __ __ __ __ __ __ __ __ __ __
 72
    65
 73
     2
 40
0.75
 49
0.5
 74
     0
 49
-0.25
 74
     0
  0
LTYPE
  5
A9B3
330
A994
100
AcDbSymbolTableRecord
100
AcDbLinetypeTableRecord
  2
CENTER
 70
     0
  3
____ _ ____ _ ____ _ ____ _ ____ _ ____ _ ____ 
 72
    65
 73
     4
 40
2.0
 49
1.25
 74
     0
 49
-0.25
 74
     0
 49
0.25
 74
     0
 49
-0.25
 74
     0
  0
LTYPE
  5
A9B4
330
A994
100
AcDbSymbolTableRecord
100
AcDbLinetypeTableRecord
  2
PHANTOM
 70
     0
  3
______  __  __  ______  __  __  ______  __  __ 
 72
    65
 73
     6
 40
2.5
 49
1.25
 74
     0
 49
-0.25
 74
     0
 49
0.25
 74
     0
 49
-0.25
 74
     0
 49
0.25
 74
     0
 49
-0.25
 74
     0
  0
ENDTAB
  0
TABLE
  2
LAYER
  5
A991
330
0
100
AcDbSymbolTable
 70
     8
  0
LAYER
  5
A99F
102
{ACAD_XDICTIONARY
360
AF93
102
}
330
A991
100
AcDbSymbolTableRecord
100
AcDbLayerTableRecord
  2
0
 70
     0
 62
     7
  6
CONTINUOUS
370
    -3
390
AF41
  0
LAYER
  5
A9B5
102
{ACAD_XDICTIONARY
360
AF95
102
}
330
A991
100
AcDbSymbolTableRecord
100
AcDbLayerTableRecord
  2
4
 70
     0
 62
     1
  6
CENTER
370
    -3
390
AF41
  0
LAYER
  5
A9B6
102
{ACAD_XDICTIONARY
360
AF97
102
}
330
A991
100
AcDbSymbolTableRecord
100
AcDbLayerTableRecord
  2
5
 70
     0
 62
     6
  6
PHANTOM
370
    -3
390
AF41
  0
LAYER
  5
A9B7
102
{ACAD_XDICTIONARY
360
AF99
102
}
330
A991
100
AcDbSymbolTableRecord
100
AcDbLayerTableRecord
  2
1
 70
     0
 62
     7
  6
CONTINUOUS
370
    -3
390
AF41
  0
LAYER
  5
A9B8
102
{ACAD_XDICTIONARY
360
AF9B
102
}
330
A991
100
AcDbSymbolTableRecord
100
AcDbLayerTableRecord
  2
2
 70
     0
 62
     4
  6
CONTINUOUS
370
    -3
390
AF41
  0
LAYER
  5
A9B9
102
{ACAD_XDICTIONARY
360
AF9D
102
}
330
A991
100
AcDbSymbolTableRecord
100
AcDbLayerTableRecord
  2
3
 70
     0
 62
     2
  6
DASHED
370
    -3
390
AF41
  0
LAYER
  5
A9BA
102
{ACAD_XDICTIONARY
360
AF9F
102
}
330
A991
100
AcDbSymbolTableRecord
100
AcDbLayerTableRecord
  2
6
 70
     0
 62
     5
  6
CONTINUOUS
370
    -3
390
AF41
  0
LAYER
  5
A9BB
102
{ACAD_XDICTIONARY
360
AFA1
102
}
330
A991
100
AcDbSymbolTableRecord
100
AcDbLayerTableRecord
  2
7
 70
     0
 62
     3
  6
CONTINUOUS
370
    -3
390
AF41
  0
ENDTAB
  0
TABLE
  2
STYLE
  5
A992
330
0
100
AcDbSymbolTable
 70
     1
  0
STYLE
  5
A9A0
330
A992
100
AcDbSymbolTableRecord
100
AcDbTextStyleTableRecord
  2
STANDARD
 70
     0
 40
0.0
 41
1.0
 50
0.0
 71
     0
 42
5.0
  3
txt
  4

  0
ENDTAB
  0
TABLE
  2
VIEW
  5
A995
330
0
100
AcDbSymbolTable
 70
     0
  0
ENDTAB
  0
TABLE
  2
UCS
  5
A996
330
0
100
AcDbSymbolTable
 70
     0
  0
ENDTAB
  0
TABLE
  2
APPID
  5
A998
330
0
100
AcDbSymbolTable
 70
     3
  0
APPID
  5
A9A1
330
A998
100
AcDbSymbolTableRecord
100
AcDbRegAppTableRecord
  2
ACAD
 70
     0
  0
APPID
  5
AFAD
330
A998
100
AcDbSymbolTableRecord
100
AcDbRegAppTableRecord
  2
ACAD_NAV_VCDISPLAY
 70
     0
  0
APPID
  5
AFE6
330
A998
100
AcDbSymbolTableRecord
100
AcDbRegAppTableRecord
  2
ACAD_MLEADERVER
 70
     0
  0
ENDTAB
  0
TABLE
  2
DIMSTYLE
  5
A999
330
0
100
AcDbSymbolTable
 70
     1
100
AcDbDimStyleTable
 71
     0
  0
DIMSTYLE
105
A9BD
330
A999
100
AcDbSymbolTableRecord
100
AcDbDimStyleTableRecord
  2
STANDARD
 70
     0
 41
2.5
 42
1.0
 43
10.0
 44
1.0
 73
     0
 74
     0
 77
     3
 78
     8
140
3.2
141
0.0
147
1.0
172
     1
173
     1
284
     8
285
     8
286
     8
340
A9A0
  0
ENDTAB
  0
TABLE
  2
BLOCK_RECORD
  5
A990
330
0
100
AcDbSymbolTable
 70
     0
  0
BLOCK_RECORD
  5
A9AD
102
{ACAD_XDICTIONARY
360
AD4E
102
}
330
A990
100
AcDbSymbolTableRecord
100
AcDbBlockTableRecord
  2
*MODEL_SPACE
340
AF8F
  0
BLOCK_RECORD
  5
A9A9
102
{ACAD_XDICTIONARY
360
AD4C
102
}
330
A990
100
AcDbSymbolTableRecord
100
AcDbBlockTableRecord
  2
*PAPER_SPACE
340
AF90
  0
ENDTAB
  0
ENDSEC
  0
SECTION
  2
BLOCKS
  0
BLOCK
  5
A9AE
330
A9AD
100
AcDbEntity
  8
0
100
AcDbBlockBegin
  2
*MODEL_SPACE
 70
     0
 10
0.0
 20
0.0
 30
0.0
  3
*MODEL_SPACE
  1

  0
ENDBLK
  5
A9AF
330
A9AD
100
AcDbEntity
  8
0
100
AcDbBlockEnd
  0
BLOCK
  5
A9AA
330
A9A9
100
AcDbEntity
 67
     1
  8
0
100
AcDbBlockBegin
  2
*PAPER_SPACE
 70
     0
 10
0.0
 20
0.0
 30
0.0
  3
*PAPER_SPACE
  1

  0
ENDBLK
  5
A9AB
330
A9A9
100
AcDbEntity
 67
     1
  8
0
100
AcDbBlockEnd
  0
ENDSEC
  0
SECTION
  2
ENTITIES
  0
TEXT
  5
A9C5
330
A9AD
100
AcDbEntity
  8
7
  6
Continuous
100
AcDbText
 10
10.0
 20
18.0
 30
0.0
 40
3.0
  1
TYPE No.TCA-415EA-N125
100
AcDbText
  0
TEXT
  5
A9C6
330
A9AD
100
AcDbEntity
  8
7
  6
Continuous
100
AcDbText
 10
10.0
 20
26.0
 30
0.0
 40
3.0
  1
CODE No.9787
100
AcDbText
  0
TEXT
  5
A9C7
330
A9AD
100
AcDbEntity
  8
1
  6
Continuous
100
AcDbText
 10
10.0
 20
10.0
 30
0.0
 40
1.399999999999999
  1
LAYER
100
AcDbText
  0
TEXT
  5
A9C8
330
A9AD
100
AcDbEntity
  8
1
  6
Continuous
100
AcDbText
 10
17.97951099999998
 20
10.04873699999998
 30
0.0
 40
1.399999999999999
  1
1
100
AcDbText
  0
TEXT
  5
A9C9
330
A9AD
100
AcDbEntity
  8
7
  6
Continuous
100
AcDbText
 10
29.97951099999999
 20
10.04873699999998
 30
0.0
 40
1.399999999999999
  1
7
100
AcDbText
  0
TEXT
  5
A9CA
330
A9AD
100
AcDbEntity
  8
4
  6
CENTER
100
AcDbText
 10
23.97951099999999
 20
10.04873699999998
 30
0.0
 40
1.399999999999999
  1
4
100
AcDbText
  0
TEXT
  5
A9CB
330
A9AD
100
AcDbEntity
  8
3
  6
DASHED
100
AcDbText
 10
21.979511
 20
10.04873699999998
 30
0.0
 40
1.399999999999999
  1
3
100
AcDbText
  0
TEXT
  5
A9CC
330
A9AD
100
AcDbEntity
  8
2
  6
Continuous
100
AcDbText
 10
19.97951099999998
 20
10.04873699999998
 30
0.0
 40
1.399999999999999
  1
2
100
AcDbText
  0
TEXT
  5
A9CD
330
A9AD
100
AcDbEntity
  8
6
  6
Continuous
100
AcDbText
 10
27.979511
 20
10.04873699999998
 30
0.0
 40
1.399999999999999
  1
6
100
AcDbText
  0
TEXT
  5
A9CE
330
A9AD
100
AcDbEntity
  8
5
  6
PHANTOM
100
AcDbText
 10
25.97951099999999
 20
10.04873699999998
 30
0.0
 40
1.399999999999999
  1
5
100
AcDbText
  0
LINE
  5
A9CF
330
A9AD
100
AcDbEntity
  8
4
  6
CENTER
100
AcDbLine
 10
57.22022299999999
 20
375.8716129999998
 30
0.0
 11
57.22022299999999
 21
170.871609
 31
0.0
  0
LINE
  5
A9D0
330
A9AD
100
AcDbEntity
  8
4
  6
CENTER
100
AcDbLine
 10
154.2202229999999
 20
446.5716089999999
 30
0.0
 11
290.7202229999999
 21
446.5716089999999
 31
0.0
  0
LINE
  5
A9D1
330
A9AD
100
AcDbEntity
  8
4
  6
CENTER
100
AcDbLine
 10
260.7202229999999
 20
476.5716089999998
 30
0.0
 11
260.7202229999999
 21
416.5716089999998
 31
0.0
  0
LINE
  5
A9D4
330
A9AD
100
AcDbEntity
  8
4
  6
CENTER
100
AcDbLine
 10
221.720223
 20
304.453911
 30
0.0
 11
221.720223
 21
167.8716089999998
 31
0.0
  0
LINE
  5
A9D5
330
A9AD
100
AcDbEntity
  8
4
  6
CENTER
100
AcDbLine
 10
260.7202229999999
 20
375.8716129999998
 30
0.0
 11
260.7202229999999
 21
269.604939
 31
0.0
  0
LINE
  5
A9D6
330
A9AD
100
AcDbEntity
  8
1
  6
Continuous
100
AcDbLine
 10
239.7202229999999
 20
306.771612
 30
0.0
 11
239.7202229999999
 21
254.3716089999997
 31
0.0
  0
LINE
  5
A9D7
330
A9AD
100
AcDbEntity
  8
1
  6
Continuous
100
AcDbLine
 10
237.2995779999999
 20
243.6487559999999
 30
0.0
 11
268.6364299999999
 21
299.450985
 31
0.0
  0
LINE
  5
A9D8
330
A9AD
100
AcDbEntity
  8
1
  6
Continuous
100
AcDbLine
 10
211.893497
 20
255.5343339999998
 30
0.0
 11
215.3037669999999
 21
304.3034329999998
 31
0.0
  0
CIRCLE
  5
A9D9
330
A9AD
100
AcDbEntity
  8
1
  6
Continuous
100
AcDbCircle
 10
603.720223
 20
238.3716089999999
 30
0.0
 40
6.25
  0
CIRCLE
  5
A9DA
330
A9AD
100
AcDbEntity
  8
1
  6
Continuous
100
AcDbCircle
 10
603.720223
 20
238.3716089999999
 30
0.0
 40
1.5
  0
LINE
  5
A9DB
330
A9AD
100
AcDbEntity
  8
1
  6
Continuous
100
AcDbLine
 10
240.720223
 20
315.971604
 30
0.0
 11
280.7202229999999
 21
315.971604
 31
0.0
  0
LINE
  5
A9DC
330
A9AD
100
AcDbEntity
  8
1
  6
Continuous
100
AcDbLine
 10
209.720223
 20
306.471606
 30
0.0
 11
238.5617429999999
 21
311.557144
 31
0.0
  0
LINE
  5
A9DD
330
A9AD
100
AcDbEntity
  8
1
  6
Continuous
100
AcDbLine
 10
210.119614
 20
304.206547
 30
0.0
 11
214.1011289999999
 21
304.9085959999998
 31
0.0
  0
LINE
  5
A9DE
330
A9AD
100
AcDbEntity
  8
1
  6
Continuous
100
AcDbLine
 10
209.720223
 20
306.471606
 30
0.0
 11
210.119614
 21
304.206547
 31
0.0
  0
ARC
  5
A9DF
330
A9AD
100
AcDbEntity
  8
1
  6
Continuous
100
AcDbCircle
 10
214.274777
 20
303.9237879999999
 30
0.0
 40
1.0
100
AcDbArc
 50
356.0
 51
100.00001
  0
ARC
  5
A9E0
330
A9AD
100
AcDbEntity
  8
1
  6
Continuous
100
AcDbCircle
 10
212.809857
 20
304.4778239999998
 30
0.0
 40
2.5
100
AcDbArc
 50
356.0
 51
100.0000199999999
  0
ARC
  5
A9E1
330
A9AD
100
AcDbEntity
  8
1
  6
Continuous
100
AcDbCircle
 10
242.920197
 20
317.449612
 30
0.0
 40
2.778
100
AcDbArc
 50
189.9080999999999
 51
212.1433699999999
  0
ARC
  5
A9E2
330
A9AD
100
AcDbEntity
  8
1
  6
Continuous
100
AcDbCircle
 10
250.2790529999999
 20
317.449612
 30
0.0
 40
2.778
100
AcDbArc
 50
189.9080999999999
 51
212.1434
  0
ARC
  5
A9E3
330
A9AD
100
AcDbEntity
  8
1
  6
Continuous
100
AcDbCircle
 10
246.3430789999999
 20
317.449612
 30
0.0
 40
2.778
100
AcDbArc
 50
189.9080999999999
 51
212.1434
  0
ARC
  5
A9E4
330
A9AD
100
AcDbEntity
  8
1
  6
Continuous
100
AcDbCircle
 10
243.807839
 20
317.449612
 30
0.0
 40
2.778
100
AcDbArc
 50
189.9080999999999
 51
212.1433699999999
  0
LINE
  5
A9E5
330
A9AD
100
AcDbEntity
  8
1
  6
Continuous
100
AcDbLine
 10
281.69571
 20
307.071608
 30
0.0
 11
285.720223
 21
307.071608
 31
0.0
  0
ARC
  5
A9E6
330
A9AD
100
AcDbEntity
  8
1
  6
Continuous
100
AcDbCircle
 10
281.69571
 20
292.071608
 30
0.0
 40
15.0
100
AcDbArc
 50
89.99998199999996
 51
150.68277
  0
ARC
  5
A9E7
330
A9AD
100
AcDbEntity
  8
1
  6
Continuous
100
AcDbCircle
 10
260.7202079999999
 20
317.449612
 30
0.0
 40
2.778
100
AcDbArc
 50
327.8565799999999
 51
350.09193
  0
ARC
  5
A9E8
330
A9AD
100
AcDbEntity
  8
1
  6
Continuous
100
AcDbCircle
 10
266.208123
 20
317.449612
 30
0.0
 40
2.778
100
AcDbArc
 50
189.90804
 51
212.1434
  0
ARC
  5
A9E9
330
A9AD
100
AcDbEntity
  8
1
  6
Continuous
100
AcDbCircle
 10
260.7202079999999
 20
317.449612
 30
0.0
 40
2.778
100
AcDbArc
 50
189.9080999999999
 51
212.1434
  0
ARC
  5
A9EA
330
A9AD
100
AcDbEntity
  8
1
  6
Continuous
100
AcDbCircle
 10
255.232293
 20
317.449612
 30
0.0
 40
2.778
100
AcDbArc
 50
189.9080999999999
 51
212.1434
  0
ARC
  5
A9EB
330
A9AD
100
AcDbEntity
  8
1
  6
Continuous
100
AcDbCircle
 10
255.232293
 20
317.449612
 30
0.0
 40
2.778
100
AcDbArc
 50
327.8565799999999
 51
350.0919899999999
  0
ARC
  5
A9EC
330
A9AD
100
AcDbEntity
  8
1
  6
Continuous
100
AcDbCircle
 10
278.520218
 20
317.449612
 30
0.0
 40
2.778
100
AcDbArc
 50
327.85663
 51
350.09193
  0
ARC
  5
A9ED
330
A9AD
100
AcDbEntity
  8
1
  6
Continuous
100
AcDbCircle
 10
275.0973359999999
 20
317.449612
 30
0.0
 40
2.778
100
AcDbArc
 50
327.85663
 51
350.09193
  0
ARC
  5
A9EE
330
A9AD
100
AcDbEntity
  8
1
  6
Continuous
100
AcDbCircle
 10
277.632577
 20
317.449612
 30
0.0
 40
2.778
100
AcDbArc
 50
327.85663
 51
350.09193
  0
ARC
  5
A9EF
330
A9AD
100
AcDbEntity
  8
1
  6
Continuous
100
AcDbCircle
 10
266.208123
 20
317.449612
 30
0.0
 40
2.778
100
AcDbArc
 50
327.8565799999999
 51
350.09193
  0
ARC
  5
A9F0
330
A9AD
100
AcDbEntity
  8
1
  6
Continuous
100
AcDbCircle
 10
271.161362
 20
317.449612
 30
0.0
 40
2.778
100
AcDbArc
 50
327.8565799999999
 51
350.09193
  0
LINE
  5
A9F1
330
A9AD
100
AcDbEntity
  8
1
  6
Continuous
100
AcDbLine
 10
82.220223
 20
310.9716
 30
0.0
 11
82.220223
 21
285.354425
 31
0.0
  0
LINE
  5
A9F2
330
A9AD
100
AcDbEntity
  8
1
  6
Continuous
100
AcDbLine
 10
32.22022299999999
 20
310.9716
 30
0.0
 11
32.22022299999999
 21
285.354425
 31
0.0
  0
LINE
  5
A9F3
330
A9AD
100
AcDbEntity
  8
1
  6
Continuous
100
AcDbLine
 10
73.220223
 20
304.078213
 30
0.0
 11
73.220223
 21
260.4885449999999
 31
0.0
  0
LINE
  5
A9F4
330
A9AD
100
AcDbEntity
  8
1
  6
Continuous
100
AcDbLine
 10
41.220223
 20
304.078213
 30
0.0
 11
41.220223
 21
244.804796
 31
0.0
  0
LINE
  5
A9F5
330
A9AD
100
AcDbEntity
  8
1
  6
Continuous
100
AcDbLine
 10
38.920233
 20
304.0279509999998
 30
0.0
 11
38.920233
 21
243.724775
 31
0.0
  0
LINE
  5
A9F6
330
A9AD
100
AcDbEntity
  8
1
  6
Continuous
100
AcDbLine
 10
75.520223
 20
304.0279509999998
 30
0.0
 11
75.520223
 21
218.501973
 31
0.0
  0
LINE
  5
A9F7
330
A9AD
100
AcDbEntity
  8
4
  6
CENTER
100
AcDbLine
 10
30.72024299999998
 20
238.3716089999999
 30
0.0
 11
94.422236
 21
238.3716089999999
 31
0.0
  0
ARC
  5
A9F8
330
A9AD
100
AcDbEntity
  8
1
  6
Continuous
100
AcDbCircle
 10
83.172236
 20
243.313237
 30
0.0
 40
3.25
100
AcDbArc
 50
328.6342499999999
 51
28.65275
  0
ARC
  5
A9F9
330
A9AD
100
AcDbEntity
  8
1
  6
Continuous
100
AcDbCircle
 10
79.968216
 20
243.313237
 30
0.0
 40
3.25
100
AcDbArc
 50
328.6342
 51
61.475041
  0
LINE
  5
A9FA
330
A9AD
100
AcDbEntity
  8
1
  6
Continuous
100
AcDbLine
 10
87.422236
 20
243.473622
 30
0.0
 11
87.422236
 21
233.269596
 31
0.0
  0
LINE
  5
A9FB
330
A9AD
100
AcDbEntity
  8
1
  6
Continuous
100
AcDbLine
 10
85.94728600000001
 20
235.1216089999998
 30
0.0
 11
82.89717600000001
 21
235.1216089999998
 31
0.0
  0
LINE
  5
A9FC
330
A9AD
100
AcDbEntity
  8
1
  6
Continuous
100
AcDbLine
 10
85.973746
 20
241.6216089999998
 30
0.0
 11
82.870716
 21
241.6216089999998
 31
0.0
  0
ARC
  5
A9FD
330
A9AD
100
AcDbEntity
  8
1
  6
Continuous
100
AcDbCircle
 10
74.422236
 20
238.3716089999999
 30
0.0
 40
12.0
100
AcDbArc
 50
344.28617
 51
15.71384
  0
ARC
  5
A9FE
330
A9AD
100
AcDbEntity
  8
1
  6
Continuous
100
AcDbCircle
 10
71.218216
 20
238.3716089999999
 30
0.0
 40
12.0
100
AcDbArc
 50
344.2861399999999
 51
15.71386099999998
  0
LINE
  5
A9FF
330
A9AD
100
AcDbEntity
  8
1
  6
Continuous
100
AcDbLine
 10
38.920233
 20
227.3716089999997
 30
0.0
 11
41.220223
 21
227.3716089999997
 31
0.0
  0
LINE
  5
AA00
330
A9AD
100
AcDbEntity
  8
1
  6
Continuous
100
AcDbLine
 10
86.02423599999999
 20
231.8716089999998
 30
0.0
 11
82.82022600000003
 21
231.8716089999998
 31
0.0
  0
LINE
  5
AA01
330
A9AD
100
AcDbEntity
  8
1
  6
Continuous
100
AcDbLine
 10
86.024206
 20
231.8716279999999
 30
0.0
 11
87.42218599999999
 21
233.269619
 31
0.0
  0
ARC
  5
AA02
330
A9AD
100
AcDbEntity
  8
1
  6
Continuous
100
AcDbCircle
 10
79.968216
 20
233.429981
 30
0.0
 40
3.25
100
AcDbArc
 50
298.524959
 51
31.365793
  0
ARC
  5
AA03
330
A9AD
100
AcDbEntity
  8
1
  6
Continuous
100
AcDbCircle
 10
83.172236
 20
233.429981
 30
0.0
 40
3.25
100
AcDbArc
 50
331.3472699999998
 51
31.36577
  0
ARC
  5
AA04
330
A9AD
100
AcDbEntity
  8
1
  6
Continuous
100
AcDbCircle
 10
142.220223
 20
285.354425
 30
0.0
 40
110.0
100
AcDbArc
 50
179.9999799999999
 51
200.10056
  0
LINE
  5
AA05
330
A9AD
100
AcDbEntity
  8
1
  6
Continuous
100
AcDbLine
 10
86.02423599999999
 20
244.871609
 30
0.0
 11
82.82022600000003
 21
244.871609
 31
0.0
  0
LINE
  5
AA06
330
A9AD
100
AcDbEntity
  8
1
  6
Continuous
100
AcDbLine
 10
87.42220600000001
 20
243.473614
 30
0.0
 11
86.024226
 21
244.871598
 31
0.0
  0
LINE
  5
AA07
330
A9AD
100
AcDbEntity
  8
1
  6
Continuous
100
AcDbLine
 10
35.72024299999997
 20
242.621609
 30
0.0
 11
35.72024299999997
 21
234.1216089999999
 31
0.0
  0
ARC
  5
AA08
330
A9AD
100
AcDbEntity
  8
1
  6
Continuous
100
AcDbCircle
 10
37.72024299999999
 20
234.1216089999999
 30
0.0
 40
2.0
100
AcDbArc
 50
180.0
 51
269.99998
  0
LINE
  5
AA09
330
A9AD
100
AcDbEntity
  8
1
  6
Continuous
100
AcDbLine
 10
38.920223
 20
232.1216089999999
 30
0.0
 11
37.72024299999999
 21
232.1216089999999
 31
0.0
  0
LINE
  5
AA0A
330
A9AD
100
AcDbEntity
  8
1
  6
Continuous
100
AcDbLine
 10
72.220223
 20
234.371609
 30
0.0
 11
73.220223
 21
234.371609
 31
0.0
  0
ARC
  5
AA0B
330
A9AD
100
AcDbEntity
  8
1
  6
Continuous
100
AcDbCircle
 10
-27.779777
 20
285.354425
 30
0.0
 40
110.0
100
AcDbArc
 50
354.211787
 51
359.9999899999998
  0
ARC
  5
AA0C
330
A9AD
100
AcDbEntity
  8
1
  6
Continuous
100
AcDbCircle
 10
37.72024299999999
 20
242.621609
 30
0.0
 40
2.0
100
AcDbArc
 50
90.00001800000005
 51
180.0
  0
LINE
  5
AA0D
330
A9AD
100
AcDbEntity
  8
1
  6
Continuous
100
AcDbLine
 10
38.920223
 20
244.6216089999999
 30
0.0
 11
37.72024299999999
 21
244.6216089999999
 31
0.0
  0
LINE
  5
AA0E
330
A9AD
100
AcDbEntity
  8
1
  6
Continuous
100
AcDbLine
 10
72.220223
 20
242.3716089999998
 30
0.0
 11
73.220223
 21
242.3716089999998
 31
0.0
  0
LINE
  5
AA0F
330
A9AD
100
AcDbEntity
  8
1
  6
Continuous
100
AcDbLine
 10
37.22022299999999
 20
315.9716
 30
0.0
 11
77.220223
 21
315.9716
 31
0.0
  0
ARC
  5
AA10
330
A9AD
100
AcDbEntity
  8
1
  6
Continuous
100
AcDbCircle
 10
57.22022299999999
 20
439.573819
 30
0.0
 40
128.4999999999998
100
AcDbArc
 50
262.8473099999999
 51
277.1526699999999
  0
ARC
  5
AA11
330
A9AD
100
AcDbEntity
  8
1
  6
Continuous
100
AcDbCircle
 10
57.22022299999999
 20
434.9715989999999
 30
0.0
 40
128.4999999999998
100
AcDbArc
 50
263.46506
 51
276.53492
  0
ARC
  5
AA12
330
A9AD
100
AcDbEntity
  8
1
  6
Continuous
100
AcDbCircle
 10
57.22022299999999
 20
432.706559
 30
0.0
 40
128.4999999999998
100
AcDbArc
 50
263.34847
 51
276.6515099999999
  0
ARC
  5
AA13
330
A9AD
100
AcDbEntity
  8
1
  6
Continuous
100
AcDbCircle
 10
42.220243
 20
304.0279509999998
 30
0.0
 40
3.299999999999998
100
AcDbArc
 50
83.465158
 51
179.9999599999999
  0
ARC
  5
AA14
330
A9AD
100
AcDbEntity
  8
1
  6
Continuous
100
AcDbCircle
 10
42.22022299999999
 20
304.078213
 30
0.0
 40
1.0
100
AcDbArc
 50
83.348539
 51
179.9999599999999
  0
ARC
  5
AA15
330
A9AD
100
AcDbEntity
  8
1
  6
Continuous
100
AcDbCircle
 10
37.22022299999999
 20
310.9716
 30
0.0
 40
5.0
100
AcDbArc
 50
89.99998199999996
 51
179.9999599999999
  0
ARC
  5
AA16
330
A9AD
100
AcDbEntity
  8
1
  6
Continuous
100
AcDbCircle
 10
46.779063
 20
317.449612
 30
0.0
 40
2.778
100
AcDbArc
 50
189.9080999999999
 51
212.14351
  0
ARC
  5
AA17
330
A9AD
100
AcDbEntity
  8
1
  6
Continuous
100
AcDbCircle
 10
39.420203
 20
317.449612
 30
0.0
 40
2.778
100
AcDbArc
 50
189.9080999999999
 51
212.14351
  0
ARC
  5
AA18
330
A9AD
100
AcDbEntity
  8
1
  6
Continuous
100
AcDbCircle
 10
42.843083
 20
317.449612
 30
0.0
 40
2.778
100
AcDbArc
 50
189.9080999999999
 51
212.14351
  0
ARC
  5
AA19
330
A9AD
100
AcDbEntity
  8
1
  6
Continuous
100
AcDbCircle
 10
40.30784299999999
 20
317.449612
 30
0.0
 40
2.778
100
AcDbArc
 50
189.9080999999999
 51
212.14351
  0
ARC
  5
AA1A
330
A9AD
100
AcDbEntity
  8
1
  6
Continuous
100
AcDbCircle
 10
62.708123
 20
317.449612
 30
0.0
 40
2.778
100
AcDbArc
 50
189.90804
 51
212.14351
  0
ARC
  5
AA1B
330
A9AD
100
AcDbEntity
  8
1
  6
Continuous
100
AcDbCircle
 10
57.220203
 20
317.449612
 30
0.0
 40
2.778
100
AcDbArc
 50
327.8564799999998
 51
350.09193
  0
ARC
  5
AA1C
330
A9AD
100
AcDbEntity
  8
1
  6
Continuous
100
AcDbCircle
 10
51.732293
 20
317.449612
 30
0.0
 40
2.778
100
AcDbArc
 50
189.9080999999999
 51
212.14351
  0
ARC
  5
AA1D
330
A9AD
100
AcDbEntity
  8
1
  6
Continuous
100
AcDbCircle
 10
57.220203
 20
317.449612
 30
0.0
 40
2.778
100
AcDbArc
 50
189.9080999999999
 51
212.14351
  0
ARC
  5
AA1E
330
A9AD
100
AcDbEntity
  8
1
  6
Continuous
100
AcDbCircle
 10
51.732293
 20
317.449612
 30
0.0
 40
2.778
100
AcDbArc
 50
327.8564799999998
 51
350.0919899999999
  0
ARC
  5
AA1F
330
A9AD
100
AcDbEntity
  8
1
  6
Continuous
100
AcDbCircle
 10
46.779063
 20
317.449612
 30
0.0
 40
2.778
100
AcDbArc
 50
327.8564799999998
 51
333.0638399999999
  0
ARC
  5
AA20
330
A9AD
100
AcDbEntity
  8
1
  6
Continuous
100
AcDbCircle
 10
72.220223
 20
304.0279509999998
 30
0.0
 40
3.299999999999998
100
AcDbArc
 50
0.0
 51
96.53486100000002
  0
ARC
  5
AA21
330
A9AD
100
AcDbEntity
  8
1
  6
Continuous
100
AcDbCircle
 10
72.220223
 20
304.078213
 30
0.0
 40
1.0
100
AcDbArc
 50
0.0
 51
96.65148000000002
  0
ARC
  5
AA22
330
A9AD
100
AcDbEntity
  8
1
  6
Continuous
100
AcDbCircle
 10
77.220223
 20
310.9716
 30
0.0
 40
5.0
100
AcDbArc
 50
0.0
 51
89.99998199999996
  0
ARC
  5
AA23
330
A9AD
100
AcDbEntity
  8
1
  6
Continuous
100
AcDbCircle
 10
75.020213
 20
317.449612
 30
0.0
 40
2.778
100
AcDbArc
 50
327.80113
 51
350.09193
  0
ARC
  5
AA24
330
A9AD
100
AcDbEntity
  8
1
  6
Continuous
100
AcDbCircle
 10
74.13257299999997
 20
317.449612
 30
0.0
 40
2.778
100
AcDbArc
 50
327.8564799999998
 51
350.09193
  0
ARC
  5
AA25
330
A9AD
100
AcDbEntity
  8
1
  6
Continuous
100
AcDbCircle
 10
71.59733299999998
 20
317.449612
 30
0.0
 40
2.778
100
AcDbArc
 50
327.8564799999998
 51
350.09193
  0
ARC
  5
AA26
330
A9AD
100
AcDbEntity
  8
1
  6
Continuous
100
AcDbCircle
 10
62.708123
 20
317.449612
 30
0.0
 40
2.778
100
AcDbArc
 50
327.8564799999998
 51
350.09193
  0
ARC
  5
AA27
330
A9AD
100
AcDbEntity
  8
1
  6
Continuous
100
AcDbCircle
 10
67.66135300000001
 20
317.449612
 30
0.0
 40
2.778
100
AcDbArc
 50
327.8564799999998
 51
350.09193
  0
ARC
  5
AA28
330
A9AD
100
AcDbEntity
  8
1
  6
Continuous
100
AcDbCircle
 10
67.66135300000001
 20
317.449612
 30
0.0
 40
2.778
100
AcDbArc
 50
206.9362
 51
212.14351
  0
LINE
  5
AA29
330
A9AD
100
AcDbEntity
  8
1
  6
Continuous
100
AcDbLine
 10
387.7202229999999
 20
310.9716
 30
0.0
 11
387.7202229999999
 21
285.354425
 31
0.0
  0
LINE
  5
AA2A
330
A9AD
100
AcDbEntity
  8
1
  6
Continuous
100
AcDbLine
 10
437.7202229999999
 20
310.9716
 30
0.0
 11
437.7202229999999
 21
285.354425
 31
0.0
  0
LINE
  5
AA2B
330
A9AD
100
AcDbEntity
  8
1
  6
Continuous
100
AcDbLine
 10
394.420223
 20
254.7893939999999
 30
0.0
 11
394.420223
 21
229.988545
 31
0.0
  0
LINE
  5
AA2C
330
A9AD
100
AcDbEntity
  8
1
  6
Continuous
100
AcDbLine
 10
431.020213
 20
254.7893719999999
 30
0.0
 11
431.020213
 21
239.475565
 31
0.0
  0
LINE
  5
AA2D
330
A9AD
100
AcDbEntity
  8
1
  6
Continuous
100
AcDbLine
 10
428.720223
 20
304.078213
 30
0.0
 11
428.720223
 21
239.6982959999998
 31
0.0
  0
LINE
  5
AA2E
330
A9AD
100
AcDbEntity
  8
1
  6
Continuous
100
AcDbLine
 10
396.7202229999998
 20
304.078213
 30
0.0
 11
396.7202229999998
 21
229.988545
 31
0.0
  0
LINE
  5
AA2F
330
A9AD
100
AcDbEntity
  8
4
  6
CENTER
100
AcDbLine
 10
412.7202229999999
 20
375.8716129999998
 30
0.0
 11
412.7202229999999
 21
170.871609
 31
0.0
  0
LINE
  5
AA30
330
A9AD
100
AcDbEntity
  8
4
  6
CENTER
100
AcDbLine
 10
439.2202029999999
 20
238.3716089999999
 30
0.0
 11
375.5182229999999
 21
238.3716089999999
 31
0.0
  0
LINE
  5
AA31
330
A9AD
100
AcDbEntity
  8
1
  6
Continuous
100
AcDbLine
 10
431.020213
 20
227.3716089999997
 30
0.0
 11
428.720223
 21
227.3716089999997
 31
0.0
  0
LINE
  5
AA32
330
A9AD
100
AcDbEntity
  8
1
  6
Continuous
100
AcDbLine
 10
382.5182529999998
 20
243.473614
 30
0.0
 11
383.9162329999999
 21
244.871598
 31
0.0
  0
LINE
  5
AA33
330
A9AD
100
AcDbEntity
  8
1
  6
Continuous
100
AcDbLine
 10
383.9162229999999
 20
244.871609
 30
0.0
 11
384.538495
 21
244.871609
 31
0.0
  0
LINE
  5
AA34
330
A9AD
100
AcDbEntity
  8
1
  6
Continuous
100
AcDbLine
 10
382.5182229999999
 20
243.473622
 30
0.0
 11
382.5182229999999
 21
240.4200659999999
 31
0.0
  0
ARC
  5
AA35
330
A9AD
100
AcDbEntity
  8
1
  6
Continuous
100
AcDbCircle
 10
386.7682229999999
 20
243.313237
 30
0.0
 40
3.25
100
AcDbArc
 50
151.34725
 51
194.462184
  0
LINE
  5
AA36
330
A9AD
100
AcDbEntity
  8
1
  6
Continuous
100
AcDbLine
 10
431.0202229999998
 20
244.6216089999999
 30
0.0
 11
432.220203
 21
244.6216089999999
 31
0.0
  0
LINE
  5
AA37
330
A9AD
100
AcDbEntity
  8
1
  6
Continuous
100
AcDbLine
 10
434.220203
 20
242.621609
 30
0.0
 11
434.220203
 21
234.1216089999999
 31
0.0
  0
LINE
  5
AA38
330
A9AD
100
AcDbEntity
  8
1
  6
Continuous
100
AcDbLine
 10
397.7202229999999
 20
234.371609
 30
0.0
 11
396.7202229999998
 21
234.371609
 31
0.0
  0
LINE
  5
AA39
330
A9AD
100
AcDbEntity
  8
1
  6
Continuous
100
AcDbLine
 10
431.0202229999998
 20
232.1216089999999
 30
0.0
 11
432.220203
 21
232.1216089999999
 31
0.0
  0
ARC
  5
AA3A
330
A9AD
100
AcDbEntity
  8
1
  6
Continuous
100
AcDbCircle
 10
432.220203
 20
234.1216089999999
 30
0.0
 40
2.0
100
AcDbArc
 50
270.00002
 51
0.0
  0
LINE
  5
AA3B
330
A9AD
100
AcDbEntity
  8
1
  6
Continuous
100
AcDbLine
 10
397.7202229999999
 20
242.3716089999998
 30
0.0
 11
396.7202229999998
 21
242.3716089999998
 31
0.0
  0
ARC
  5
AA3C
330
A9AD
100
AcDbEntity
  8
1
  6
Continuous
100
AcDbCircle
 10
432.220203
 20
242.621609
 30
0.0
 40
2.0
100
AcDbArc
 50
0.0
 51
89.99998199999996
  0
ARC
  5
AA3D
330
A9AD
100
AcDbEntity
  8
1
  6
Continuous
100
AcDbCircle
 10
412.7202229999999
 20
432.706559
 30
0.0
 40
128.4999999999998
100
AcDbArc
 50
263.3484899999999
 51
276.65153
  0
ARC
  5
AA3E
330
A9AD
100
AcDbEntity
  8
1
  6
Continuous
100
AcDbCircle
 10
412.7202229999999
 20
434.9715989999999
 30
0.0
 40
128.4999999999998
100
AcDbArc
 50
264.460965
 51
275.539035
  0
LINE
  5
AA3F
330
A9AD
100
AcDbEntity
  8
1
  6
Continuous
100
AcDbLine
 10
432.720223
 20
315.9716
 30
0.0
 11
392.7202229999999
 21
315.9716
 31
0.0
  0
ARC
  5
AA40
330
A9AD
100
AcDbEntity
  8
1
  6
Continuous
100
AcDbCircle
 10
432.720223
 20
310.9716
 30
0.0
 40
5.0
100
AcDbArc
 50
0.00004
 51
90.00001800000005
  0
ARC
  5
AA41
330
A9AD
100
AcDbEntity
  8
1
  6
Continuous
100
AcDbCircle
 10
423.1613829999998
 20
317.449612
 30
0.0
 40
2.778
100
AcDbArc
 50
206.93616
 51
212.14352
  0
ARC
  5
AA42
330
A9AD
100
AcDbEntity
  8
1
  6
Continuous
100
AcDbCircle
 10
418.2081529999998
 20
317.449612
 30
0.0
 40
2.778
100
AcDbArc
 50
189.9080099999999
 51
212.14352
  0
ARC
  5
AA43
330
A9AD
100
AcDbEntity
  8
1
  6
Continuous
100
AcDbCircle
 10
412.7202429999998
 20
317.449612
 30
0.0
 40
2.778
100
AcDbArc
 50
327.85649
 51
350.0919
  0
ARC
  5
AA44
330
A9AD
100
AcDbEntity
  8
1
  6
Continuous
100
AcDbCircle
 10
418.2081529999998
 20
317.449612
 30
0.0
 40
2.778
100
AcDbArc
 50
327.85649
 51
350.0919
  0
ARC
  5
AA45
330
A9AD
100
AcDbEntity
  8
1
  6
Continuous
100
AcDbCircle
 10
412.7202429999998
 20
317.449612
 30
0.0
 40
2.778
100
AcDbArc
 50
189.90807
 51
212.14352
  0
ARC
  5
AA46
330
A9AD
100
AcDbEntity
  8
1
  6
Continuous
100
AcDbCircle
 10
407.232323
 20
317.449612
 30
0.0
 40
2.778
100
AcDbArc
 50
327.85649
 51
350.0919599999999
  0
ARC
  5
AA47
330
A9AD
100
AcDbEntity
  8
1
  6
Continuous
100
AcDbCircle
 10
429.632603
 20
317.449612
 30
0.0
 40
2.778
100
AcDbArc
 50
327.85649
 51
350.0919
  0
ARC
  5
AA48
330
A9AD
100
AcDbEntity
  8
1
  6
Continuous
100
AcDbCircle
 10
427.0973629999998
 20
317.449612
 30
0.0
 40
2.778
100
AcDbArc
 50
327.85649
 51
350.0919
  0
ARC
  5
AA49
330
A9AD
100
AcDbEntity
  8
1
  6
Continuous
100
AcDbCircle
 10
430.520243
 20
317.449612
 30
0.0
 40
2.778
100
AcDbArc
 50
327.85649
 51
350.0919
  0
ARC
  5
AA4A
330
A9AD
100
AcDbEntity
  8
1
  6
Continuous
100
AcDbCircle
 10
423.1613829999998
 20
317.449612
 30
0.0
 40
2.778
100
AcDbArc
 50
327.85649
 51
350.0919
  0
ARC
  5
AA4B
330
A9AD
100
AcDbEntity
  8
1
  6
Continuous
100
AcDbCircle
 10
427.7202229999998
 20
304.078213
 30
0.0
 40
1.0
100
AcDbArc
 50
0.00004
 51
96.65146100000001
  0
ARC
  5
AA4C
330
A9AD
100
AcDbEntity
  8
1
  6
Continuous
100
AcDbCircle
 10
402.279093
 20
317.449612
 30
0.0
 40
2.778
100
AcDbArc
 50
327.85649
 51
333.0638
  0
ARC
  5
AA4D
330
A9AD
100
AcDbEntity
  8
1
  6
Continuous
100
AcDbCircle
 10
402.279093
 20
317.449612
 30
0.0
 40
2.778
100
AcDbArc
 50
189.90807
 51
212.14352
  0
ARC
  5
AA4E
330
A9AD
100
AcDbEntity
  8
1
  6
Continuous
100
AcDbCircle
 10
407.232323
 20
317.449612
 30
0.0
 40
2.778
100
AcDbArc
 50
189.90807
 51
212.14352
  0
ARC
  5
AA4F
330
A9AD
100
AcDbEntity
  8
1
  6
Continuous
100
AcDbCircle
 10
398.3431129999999
 20
317.449612
 30
0.0
 40
2.778
100
AcDbArc
 50
189.90807
 51
212.14352
  0
ARC
  5
AA50
330
A9AD
100
AcDbEntity
  8
1
  6
Continuous
100
AcDbCircle
 10
395.807873
 20
317.449612
 30
0.0
 40
2.778
100
AcDbArc
 50
189.90807
 51
212.14352
  0
ARC
  5
AA51
330
A9AD
100
AcDbEntity
  8
1
  6
Continuous
100
AcDbCircle
 10
394.9202329999998
 20
317.449612
 30
0.0
 40
2.778
100
AcDbArc
 50
189.90807
 51
212.19887
  0
ARC
  5
AA52
330
A9AD
100
AcDbEntity
  8
1
  6
Continuous
100
AcDbCircle
 10
392.7202229999999
 20
310.9716
 30
0.0
 40
5.0
100
AcDbArc
 50
90.00001800000005
 51
180.0
  0
ARC
  5
AA53
330
A9AD
100
AcDbEntity
  8
1
  6
Continuous
100
AcDbCircle
 10
397.7202229999999
 20
304.078213
 30
0.0
 40
1.0
100
AcDbArc
 50
83.34851999999996
 51
180.0
  0
LINE
  5
AA54
330
A9AD
100
AcDbEntity
  8
4
  6
CENTER
100
AcDbLine
 10
221.720223
 20
473.0715789999998
 30
0.0
 11
221.720223
 21
409.3696089999999
 31
0.0
  0
LINE
  5
AA56
330
A9AD
100
AcDbEntity
  8
1
  6
Continuous
100
AcDbLine
 10
210.7202229999999
 20
89.87160899999997
 30
0.0
 11
242.180805
 21
89.87160899999997
 31
0.0
  0
LINE
  5
AA57
330
A9AD
100
AcDbEntity
  8
1
  6
Continuous
100
AcDbLine
 10
210.7202229999999
 20
57.87160899999999
 30
0.0
 11
237.2202389999999
 21
57.87160899999999
 31
0.0
  0
LINE
  5
AA58
330
A9AD
100
AcDbEntity
  8
1
  6
Continuous
100
AcDbLine
 10
210.7202229999999
 20
55.57161899999999
 30
0.0
 11
234.440902
 21
55.57161899999999
 31
0.0
  0
LINE
  5
AA59
330
A9AD
100
AcDbEntity
  8
1
  6
Continuous
100
AcDbLine
 10
217.470223
 20
52.371629
 30
0.0
 11
225.970223
 21
52.371629
 31
0.0
  0
LINE
  5
AA5A
330
A9AD
100
AcDbEntity
  8
1
  6
Continuous
100
AcDbLine
 10
217.720223
 20
88.87160899999996
 30
0.0
 11
217.720223
 21
89.87160899999997
 31
0.0
  0
ARC
  5
AA5B
330
A9AD
100
AcDbEntity
  8
1
  6
Continuous
100
AcDbCircle
 10
217.470223
 20
54.371629
 30
0.0
 40
2.0
100
AcDbArc
 50
180.0000179999999
 51
270.0
  0
LINE
  5
AA5C
330
A9AD
100
AcDbEntity
  8
1
  6
Continuous
100
AcDbLine
 10
215.470223
 20
55.57160899999999
 30
0.0
 11
215.470223
 21
54.371629
 31
0.0
  0
LINE
  5
AA5D
330
A9AD
100
AcDbEntity
  8
1
  6
Continuous
100
AcDbLine
 10
225.720223
 20
88.87160899999996
 30
0.0
 11
225.720223
 21
89.87160899999997
 31
0.0
  0
ARC
  5
AA5E
330
A9AD
100
AcDbEntity
  8
1
  6
Continuous
100
AcDbCircle
 10
225.970223
 20
54.371629
 30
0.0
 40
2.0
100
AcDbArc
 50
270.0
 51
359.9999799999998
  0
LINE
  5
AA5F
330
A9AD
100
AcDbEntity
  8
1
  6
Continuous
100
AcDbLine
 10
227.970223
 20
55.57160899999999
 30
0.0
 11
227.970223
 21
54.371629
 31
0.0
  0
LINE
  5
AA60
330
A9AD
100
AcDbEntity
  8
1
  6
Continuous
100
AcDbLine
 10
210.7202229999999
 20
92.17160900000001
 30
0.0
 11
210.7202229999999
 21
89.87160899999997
 31
0.0
  0
LINE
  5
AA61
330
A9AD
100
AcDbEntity
  8
1
  6
Continuous
100
AcDbLine
 10
285.720223
 20
310.971604
 30
0.0
 11
285.720223
 21
307.071608
 31
0.0
  0
ARC
  5
AA62
330
A9AD
100
AcDbEntity
  8
1
  6
Continuous
100
AcDbCircle
 10
280.7202229999999
 20
310.971604
 30
0.0
 40
5.0
100
AcDbArc
 50
0.0
 51
90.0
  0
ARC
  5
AA63
330
A9AD
100
AcDbEntity
  8
1
  6
Continuous
100
AcDbCircle
 10
240.720223
 20
310.971604
 30
0.0
 40
5.0
100
AcDbArc
 50
90.0
 51
179.030169
  0
ARC
  5
AA64
330
A9AD
100
AcDbEntity
  8
1
  6
Continuous
100
AcDbCircle
 10
260.7202229999999
 20
73.87160899999997
 30
0.0
 40
25.0
100
AcDbArc
 50
230.2610529999999
 51
330.070868
  0
LINE
  5
AA65
330
A9AD
100
AcDbEntity
  8
1
  6
Continuous
100
AcDbLine
 10
210.7202229999999
 20
57.87160899999999
 30
0.0
 11
210.7202229999999
 21
55.57161899999999
 31
0.0
  0
ARC
  5
AA66
330
A9AD
100
AcDbEntity
  8
1
  6
Continuous
100
AcDbCircle
 10
128.2535629999999
 20
73.87160899999997
 30
0.0
 40
85.0
100
AcDbArc
 50
10.84078599999999
 51
10.849816
  0
ARC
  5
AA67
330
A9AD
100
AcDbEntity
  8
1
  6
Continuous
100
AcDbCircle
 10
274.1035719999999
 20
73.87161399999998
 30
0.0
 40
64.383349
100
AcDbArc
 50
165.6105589999999
 51
168.804956
  0
ARC
  5
AA68
330
A9AD
100
AcDbEntity
  8
1
  6
Continuous
100
AcDbCircle
 10
260.7202229999999
 20
73.87160899999997
 30
0.0
 40
22.7
100
AcDbArc
 50
230.2610839999999
 51
326.587642
  0
ARC
  5
AA69
330
A9AD
100
AcDbEntity
  8
1
  6
Continuous
100
AcDbCircle
 10
260.7202229999999
 20
73.87160899999997
 30
0.0
 40
25.0
100
AcDbArc
 50
29.929132
 51
61.8944209614491
  0
ARC
  5
AA6A
330
A9AD
100
AcDbEntity
  8
1
  6
Continuous
100
AcDbCircle
 10
260.7202229999999
 20
73.87160899999997
 30
0.0
 40
25.0
100
AcDbArc
 50
337.0698319999998
 51
22.93016799999999
  0
ARC
  5
AA6B
330
A9AD
100
AcDbEntity
  8
1
  6
Continuous
100
AcDbCircle
 10
260.7202229999999
 20
73.87160899999997
 30
0.0
 40
22.7
100
AcDbArc
 50
33.41235799999999
 51
63.83552242223258
  0
ARC
  5
AA6C
330
A9AD
100
AcDbEntity
  8
1
  6
Continuous
100
AcDbCircle
 10
260.7202229999999
 20
73.87160899999997
 30
0.0
 40
17.7
100
AcDbArc
 50
44.92776099999999
 51
85.19665899999997
  0
ARC
  5
AA6D
330
A9AD
100
AcDbEntity
  8
1
  6
Continuous
100
AcDbCircle
 10
260.7202229999999
 20
73.87160899999997
 30
0.0
 40
17.7
100
AcDbArc
 50
224.9277609999999
 51
315.072239
  0
LINE
  5
AA6E
330
A9AD
100
AcDbEntity
  8
1
  6
Continuous
100
AcDbLine
 10
392.551649
 20
307.071608
 30
0.0
 11
432.8887969999998
 21
307.071608
 31
0.0
  0
LINE
  5
AA6F
330
A9AD
100
AcDbEntity
  8
1
  6
Continuous
100
AcDbLine
 10
221.720223
 20
99.073609
 30
0.0
 11
221.720223
 21
103.3807879999999
 31
0.0
  0
LINE
  5
AA70
330
A9AD
100
AcDbEntity
  8
1
  6
Continuous
100
AcDbLine
 10
227.7202229999998
 20
99.76642900000001
 30
0.0
 11
227.7202229999998
 21
103.3807879999999
 31
0.0
  0
LINE
  5
AA71
330
A9AD
100
AcDbEntity
  8
1
  6
Continuous
100
AcDbLine
 10
215.720223
 20
99.76642900000001
 30
0.0
 11
215.720223
 21
103.3807879999999
 31
0.0
  0
ARC
  5
AA72
330
A9AD
100
AcDbEntity
  8
1
  6
Continuous
100
AcDbCircle
 10
218.720223
 20
97.232008
 30
0.0
 40
6.841600999999998
100
AcDbArc
 50
63.992176
 51
116.007824
  0
LINE
  5
AA73
330
A9AD
100
AcDbEntity
  8
1
  6
Continuous
100
AcDbLine
 10
218.9702229999999
 20
104.073609
 30
0.0
 11
224.470223
 21
104.073609
 31
0.0
  0
ARC
  5
AA74
330
A9AD
100
AcDbEntity
  8
1
  6
Continuous
100
AcDbCircle
 10
224.720223
 20
97.232008
 30
0.0
 40
6.841600999999998
100
AcDbArc
 50
63.992176
 51
116.007824
  0
ARC
  5
AA75
330
A9AD
100
AcDbEntity
  8
1
  6
Continuous
100
AcDbCircle
 10
218.772037
 20
93.542486
 30
0.0
 40
6.841600999999998
100
AcDbArc
 50
64.472054
 51
137.4203559999999
  0
ARC
  5
AA76
330
A9AD
100
AcDbEntity
  8
1
  6
Continuous
100
AcDbCircle
 10
224.7718259999998
 20
93.592738
 30
0.0
 40
6.841600999999998
100
AcDbArc
 50
42.010696
 51
116.487702
  0
ARC
  5
AA77
330
A9AD
100
AcDbEntity
  8
1
  6
Continuous
100
AcDbCircle
 10
543.744736
 20
292.071608
 30
0.0
 40
15.0
100
AcDbArc
 50
29.31722999999999
 51
90.00001800000005
  0
LINE
  5
AA78
330
A9AD
100
AcDbEntity
  8
1
  6
Continuous
100
AcDbLine
 10
584.720223
 20
315.971604
 30
0.0
 11
544.720223
 21
315.971604
 31
0.0
  0
LINE
  5
AA79
330
A9AD
100
AcDbEntity
  8
4
  6
CENTER
100
AcDbLine
 10
674.220223
 20
238.3716089999999
 30
0.0
 11
533.220223
 21
238.3716089999999
 31
0.0
  0
LINE
  5
AA7A
330
A9AD
100
AcDbEntity
  8
4
  6
CENTER
100
AcDbLine
 10
603.720223
 20
304.453911
 30
0.0
 11
603.720223
 21
167.8716089999998
 31
0.0
  0
LINE
  5
AA7B
330
A9AD
100
AcDbEntity
  8
1
  6
Continuous
100
AcDbLine
 10
614.3988799999997
 20
243.3511479999999
 30
0.0
 11
610.136679
 21
304.3034329999998
 31
0.0
  0
LINE
  5
AA7C
330
A9AD
100
AcDbEntity
  8
1
  6
Continuous
100
AcDbLine
 10
590.4524979999997
 20
239.5323839999999
 30
0.0
 11
556.804016
 21
299.450985
 31
0.0
  0
LINE
  5
AA7D
330
A9AD
100
AcDbEntity
  8
1
  6
Continuous
100
AcDbLine
 10
585.720223
 20
306.771612
 30
0.0
 11
585.720223
 21
254.3716089999997
 31
0.0
  0
LINE
  5
AA7E
330
A9AD
100
AcDbEntity
  8
4
  6
CENTER
100
AcDbLine
 10
564.720223
 20
375.8716129999998
 30
0.0
 11
564.720223
 21
269.604939
 31
0.0
  0
ARC
  5
AA7F
330
A9AD
100
AcDbEntity
  8
1
  6
Continuous
100
AcDbCircle
 10
603.720223
 20
238.3716089999999
 30
0.0
 40
11.0
100
AcDbArc
 50
209.31727
 51
3.999969999999999
  0
ARC
  5
AA80
330
A9AD
100
AcDbEntity
  8
1
  6
Continuous
100
AcDbCircle
 10
612.630589
 20
304.4778239999998
 30
0.0
 40
2.5
100
AcDbArc
 50
79.99997999999997
 51
183.9999999999998
  0
ARC
  5
AA81
330
A9AD
100
AcDbEntity
  8
1
  6
Continuous
100
AcDbCircle
 10
611.165668
 20
303.9237879999999
 30
0.0
 40
1.0
100
AcDbArc
 50
79.99998999999998
 51
183.9999999999998
  0
LINE
  5
AA82
330
A9AD
100
AcDbEntity
  8
1
  6
Continuous
100
AcDbLine
 10
615.720223
 20
306.471606
 30
0.0
 11
586.878703
 21
311.557144
 31
0.0
  0
LINE
  5
AA83
330
A9AD
100
AcDbEntity
  8
1
  6
Continuous
100
AcDbLine
 10
615.720223
 20
306.471606
 30
0.0
 11
615.320832
 21
304.206547
 31
0.0
  0
LINE
  5
AA84
330
A9AD
100
AcDbEntity
  8
1
  6
Continuous
100
AcDbLine
 10
615.320832
 20
304.206547
 30
0.0
 11
611.3393160000001
 21
304.9085959999998
 31
0.0
  0
ARC
  5
AA85
330
A9AD
100
AcDbEntity
  8
1
  6
Continuous
100
AcDbCircle
 10
584.720223
 20
310.971604
 30
0.0
 40
5.0
100
AcDbArc
 50
0.9698309999999999
 51
90.0
  0
ARC
  5
AA86
330
A9AD
100
AcDbEntity
  8
1
  6
Continuous
100
AcDbCircle
 10
581.632607
 20
317.449612
 30
0.0
 40
2.778
100
AcDbArc
 50
327.85663
 51
350.0919
  0
ARC
  5
AA87
330
A9AD
100
AcDbEntity
  8
1
  6
Continuous
100
AcDbCircle
 10
579.0973669999997
 20
317.449612
 30
0.0
 40
2.778
100
AcDbArc
 50
327.8566
 51
350.0919
  0
ARC
  5
AA88
330
A9AD
100
AcDbEntity
  8
1
  6
Continuous
100
AcDbCircle
 10
582.520249
 20
317.449612
 30
0.0
 40
2.778
100
AcDbArc
 50
327.85663
 51
350.0919
  0
ARC
  5
AA89
330
A9AD
100
AcDbEntity
  8
1
  6
Continuous
100
AcDbCircle
 10
554.279084
 20
317.449612
 30
0.0
 40
2.778
100
AcDbArc
 50
189.90807
 51
212.1434199999999
  0
ARC
  5
AA8A
330
A9AD
100
AcDbEntity
  8
1
  6
Continuous
100
AcDbCircle
 10
559.2323229999998
 20
317.449612
 30
0.0
 40
2.778
100
AcDbArc
 50
189.90807
 51
212.1434199999999
  0
ARC
  5
AA8B
330
A9AD
100
AcDbEntity
  8
1
  6
Continuous
100
AcDbCircle
 10
550.3431099999998
 20
317.449612
 30
0.0
 40
2.778
100
AcDbArc
 50
189.90807
 51
212.1433699999999
  0
ARC
  5
AA8C
330
A9AD
100
AcDbEntity
  8
1
  6
Continuous
100
AcDbCircle
 10
570.208153
 20
317.449612
 30
0.0
 40
2.778
100
AcDbArc
 50
189.9080099999999
 51
212.1434199999999
  0
ARC
  5
AA8D
330
A9AD
100
AcDbEntity
  8
1
  6
Continuous
100
AcDbCircle
 10
570.208153
 20
317.449612
 30
0.0
 40
2.778
100
AcDbArc
 50
327.8566
 51
350.0919
  0
ARC
  5
AA8E
330
A9AD
100
AcDbEntity
  8
1
  6
Continuous
100
AcDbCircle
 10
564.720238
 20
317.449612
 30
0.0
 40
2.778
100
AcDbArc
 50
327.8566
 51
350.0919
  0
ARC
  5
AA8F
330
A9AD
100
AcDbEntity
  8
1
  6
Continuous
100
AcDbCircle
 10
559.2323229999998
 20
317.449612
 30
0.0
 40
2.778
100
AcDbArc
 50
327.8566
 51
350.0919599999999
  0
ARC
  5
AA90
330
A9AD
100
AcDbEntity
  8
1
  6
Continuous
100
AcDbCircle
 10
564.720238
 20
317.449612
 30
0.0
 40
2.778
100
AcDbArc
 50
189.90807
 51
212.1434199999999
  0
ARC
  5
AA91
330
A9AD
100
AcDbEntity
  8
1
  6
Continuous
100
AcDbCircle
 10
575.1613929999997
 20
317.449612
 30
0.0
 40
2.778
100
AcDbArc
 50
327.8566
 51
350.0919
  0
ARC
  5
AA92
330
A9AD
100
AcDbEntity
  8
1
  6
Continuous
100
AcDbCircle
 10
544.720223
 20
310.971604
 30
0.0
 40
5.0
100
AcDbArc
 50
90.0
 51
180.0
  0
ARC
  5
AA93
330
A9AD
100
AcDbEntity
  8
1
  6
Continuous
100
AcDbCircle
 10
547.8078690000001
 20
317.449612
 30
0.0
 40
2.778
100
AcDbArc
 50
189.90807
 51
212.1433699999999
  0
ARC
  5
AA94
330
A9AD
100
AcDbEntity
  8
1
  6
Continuous
100
AcDbCircle
 10
546.9202280000001
 20
317.449612
 30
0.0
 40
2.778
100
AcDbArc
 50
189.90807
 51
212.1433699999999
  0
LINE
  5
AA95
330
A9AD
100
AcDbEntity
  8
1
  6
Continuous
100
AcDbLine
 10
539.720223
 20
310.971604
 30
0.0
 11
539.720223
 21
307.071608
 31
0.0
  0
LINE
  5
AA96
330
A9AD
100
AcDbEntity
  8
1
  6
Continuous
100
AcDbLine
 10
543.744736
 20
307.071608
 30
0.0
 11
539.720223
 21
307.071608
 31
0.0
  0
LINE
  5
AA97
330
A9AD
100
AcDbEntity
  8
2
  6
Continuous
100
AcDbLine
 10
381.041723
 20
241.6951089999999
 30
0.0
 11
382.5182229999999
 21
241.6951089999999
 31
0.0
  0
LINE
  5
AA98
330
A9AD
100
AcDbEntity
  8
1
  6
Continuous
100
AcDbLine
 10
381.718223
 20
242.3716089999998
 30
0.0
 11
382.5182229999999
 21
242.3716089999998
 31
0.0
  0
LINE
  5
AA99
330
A9AD
100
AcDbEntity
  8
1
  6
Continuous
100
AcDbLine
 10
381.718223
 20
242.3716089999998
 30
0.0
 11
381.718223
 21
239.197562
 31
0.0
  0
LINE
  5
AA9A
330
A9AD
100
AcDbEntity
  8
1
  6
Continuous
100
AcDbLine
 10
380.5182229999999
 20
241.171609
 30
0.0
 11
380.5182229999999
 21
237.4689049999997
 31
0.0
  0
LINE
  5
AA9B
330
A9AD
100
AcDbEntity
  8
1
  6
Continuous
100
AcDbLine
 10
380.5182229999999
 20
241.171609
 30
0.0
 11
381.718223
 21
242.3716089999998
 31
0.0
  0
LINE
  5
AA9C
330
A9AD
100
AcDbEntity
  8
1
  6
Continuous
100
AcDbLine
 10
88.22223599999999
 20
234.371609
 30
0.0
 11
88.22223599999999
 21
242.3716089999998
 31
0.0
  0
LINE
  5
AA9D
330
A9AD
100
AcDbEntity
  8
1
  6
Continuous
100
AcDbLine
 10
89.422236
 20
235.571609
 30
0.0
 11
89.422236
 21
241.171609
 31
0.0
  0
LINE
  5
AA9E
330
A9AD
100
AcDbEntity
  8
1
  6
Continuous
100
AcDbLine
 10
88.22223599999999
 20
234.371609
 30
0.0
 11
87.422236
 21
234.371609
 31
0.0
  0
LINE
  5
AA9F
330
A9AD
100
AcDbEntity
  8
2
  6
Continuous
100
AcDbLine
 10
88.89873599999999
 20
235.0481089999999
 30
0.0
 11
87.422236
 21
235.0481089999999
 31
0.0
  0
LINE
  5
AAA0
330
A9AD
100
AcDbEntity
  8
1
  6
Continuous
100
AcDbLine
 10
89.422236
 20
235.571609
 30
0.0
 11
88.22223599999999
 21
234.371609
 31
0.0
  0
LINE
  5
AAA1
330
A9AD
100
AcDbEntity
  8
1
  6
Continuous
100
AcDbLine
 10
88.22223599999999
 20
242.3716089999998
 30
0.0
 11
87.422236
 21
242.3716089999998
 31
0.0
  0
LINE
  5
AAA2
330
A9AD
100
AcDbEntity
  8
2
  6
Continuous
100
AcDbLine
 10
88.89873599999999
 20
241.6951089999999
 30
0.0
 11
87.422236
 21
241.6951089999999
 31
0.0
  0
LINE
  5
AAA3
330
A9AD
100
AcDbEntity
  8
1
  6
Continuous
100
AcDbLine
 10
89.422236
 20
241.171609
 30
0.0
 11
88.22223599999999
 21
242.3716089999998
 31
0.0
  0
LINE
  5
AAA4
330
A9AD
100
AcDbEntity
  8
1
  6
Continuous
100
AcDbLine
 10
224.5202229999999
 20
106.073609
 30
0.0
 11
218.9202229999999
 21
106.073609
 31
0.0
  0
LINE
  5
AAA5
330
A9AD
100
AcDbEntity
  8
1
  6
Continuous
100
AcDbLine
 10
225.720223
 20
104.873609
 30
0.0
 11
217.720223
 21
104.873609
 31
0.0
  0
LINE
  5
AAA6
330
A9AD
100
AcDbEntity
  8
1
  6
Continuous
100
AcDbLine
 10
218.9202229999999
 20
106.073609
 30
0.0
 11
217.720223
 21
104.873609
 31
0.0
  0
LINE
  5
AAA7
330
A9AD
100
AcDbEntity
  8
2
  6
Continuous
100
AcDbLine
 10
218.3967229999999
 20
105.550109
 30
0.0
 11
218.3967229999999
 21
104.073609
 31
0.0
  0
LINE
  5
AAA8
330
A9AD
100
AcDbEntity
  8
1
  6
Continuous
100
AcDbLine
 10
217.720223
 20
104.873609
 30
0.0
 11
217.720223
 21
104.073609
 31
0.0
  0
LINE
  5
AAA9
330
A9AD
100
AcDbEntity
  8
4
  6
CENTER
100
AcDbLine
 10
221.720223
 20
48.571619
 30
0.0
 11
221.720223
 21
50.571619
 31
0.0
  0
LINE
  5
AAAA
330
A9AD
100
AcDbEntity
  8
2
  6
Continuous
100
AcDbLine
 10
225.043723
 20
105.550109
 30
0.0
 11
225.043723
 21
104.073609
 31
0.0
  0
LINE
  5
AAAB
330
A9AD
100
AcDbEntity
  8
1
  6
Continuous
100
AcDbLine
 10
225.720223
 20
104.873609
 30
0.0
 11
225.720223
 21
104.073609
 31
0.0
  0
LINE
  5
AAAC
330
A9AD
100
AcDbEntity
  8
1
  6
Continuous
100
AcDbLine
 10
224.5202229999999
 20
106.073609
 30
0.0
 11
225.720223
 21
104.873609
 31
0.0
  0
ARC
  5
AAAE
330
A9AD
100
AcDbEntity
  8
1
  6
Continuous
100
AcDbCircle
 10
128.2535629999999
 20
446.5716089999999
 30
0.0
 40
85.0
100
AcDbArc
 50
10.840782
 51
10.849816
  0
ARC
  5
AAAF
330
A9AD
100
AcDbEntity
  8
1
  6
Continuous
100
AcDbCircle
 10
128.2535629999999
 20
446.5716089999999
 30
0.0
 40
85.0
100
AcDbArc
 50
349.1501839999998
 51
349.159214
  0
LINE
  5
AAB0
330
A9AD
100
AcDbEntity
  8
1
  6
Continuous
100
AcDbLine
 10
210.7202229999999
 20
428.271609
 30
0.0
 11
210.7202229999999
 21
430.5716089999998
 31
0.0
  0
LINE
  5
AAB1
330
A9AD
100
AcDbEntity
  8
1
  6
Continuous
100
AcDbLine
 10
210.7202229999999
 20
462.571609
 30
0.0
 11
211.7340989999999
 21
462.571609
 31
0.0
  0
LINE
  5
AAB2
330
A9AD
100
AcDbEntity
  8
1
  6
Continuous
100
AcDbLine
 10
210.7202229999999
 20
428.271609
 30
0.0
 11
211.2602489999999
 21
428.271609
 31
0.0
  0
LINE
  5
AAB3
330
A9AD
100
AcDbEntity
  8
1
  6
Continuous
100
AcDbLine
 10
210.7202229999999
 20
430.5716089999998
 30
0.0
 11
211.7340989999999
 21
430.5716089999998
 31
0.0
  0
LINE
  5
AAB4
330
A9AD
100
AcDbEntity
  8
1
  6
Continuous
100
AcDbLine
 10
215.6619019999999
 20
464.871599
 30
0.0
 11
223.7785439999999
 21
464.871599
 31
0.0
  0
ARC
  5
AAB5
330
A9AD
100
AcDbEntity
  8
1
  6
Continuous
100
AcDbCircle
 10
459.788189
 20
285.354419
 30
0.0
 40
72.067966
100
AcDbArc
 50
163.6561669999998
 51
204.7279049999999
  0
ARC
  5
AAB6
330
A9AD
100
AcDbEntity
  8
1
  6
Continuous
100
AcDbCircle
 10
365.6522569999999
 20
285.354419
 30
0.0
 40
72.067966
100
AcDbArc
 50
335.2720759999999
 51
16.343833
  0
ARC
  5
AAB7
330
A9AD
100
AcDbEntity
  8
1
  6
Continuous
100
AcDbCircle
 10
365.6522569999999
 20
285.354419
 30
0.0
 40
69.767966
100
AcDbArc
 50
335.2720949999998
 51
18.13622699999998
  0
ARC
  5
AAB8
330
A9AD
100
AcDbEntity
  8
1
  6
Continuous
100
AcDbCircle
 10
459.788189
 20
285.354419
 30
0.0
 40
69.767966
100
AcDbArc
 50
161.863773
 51
204.7279049999999
  0
ARC
  5
AAB9
330
A9AD
100
AcDbEntity
  8
1
  6
Continuous
100
AcDbCircle
 10
432.8887969999998
 20
305.071608
 30
0.0
 40
2.0
100
AcDbArc
 50
16.343833
 51
90.0
  0
ARC
  5
AABA
330
A9AD
100
AcDbEntity
  8
1
  6
Continuous
100
AcDbCircle
 10
392.551649
 20
305.071608
 30
0.0
 40
2.0
100
AcDbArc
 50
90.0
 51
163.6561669999998
  0
ARC
  5
AABB
330
A9AD
100
AcDbEntity
  8
1
  6
Continuous
100
AcDbCircle
 10
242.180805
 20
96.17160900000001
 30
0.0
 40
6.299999999999998
100
AcDbArc
 50
270.0
 51
309.738916
  0
ARC
  5
AABC
330
A9AD
100
AcDbEntity
  8
1
  6
Continuous
100
AcDbCircle
 10
242.180805
 20
51.571609
 30
0.0
 40
6.299999999999998
100
AcDbArc
 50
50.261084
 51
90.0
  0
ARC
  5
AABD
330
A9AD
100
AcDbEntity
  8
1
  6
Continuous
100
AcDbCircle
 10
242.1807929999999
 20
51.571619
 30
0.0
 40
4.0
100
AcDbArc
 50
50.26105300000001
 51
90.0
  0
ARC
  5
AABE
330
A9AD
100
AcDbEntity
  8
1
  6
Continuous
100
AcDbCircle
 10
393.420223
 20
254.7893939999999
 30
0.0
 40
1.0
100
AcDbArc
 50
0.0
 51
24.727905
  0
ARC
  5
AABF
330
A9AD
100
AcDbEntity
  8
1
  6
Continuous
100
AcDbCircle
 10
393.420223
 20
254.7893939999999
 30
0.0
 40
3.299999999999998
100
AcDbArc
 50
0.0
 51
24.727905
  0
ARC
  5
AAC0
330
A9AD
100
AcDbEntity
  8
1
  6
Continuous
100
AcDbCircle
 10
432.020213
 20
254.7893719999999
 30
0.0
 40
1.0
100
AcDbArc
 50
155.2720759999999
 51
180.0
  0
ARC
  5
AAC1
330
A9AD
100
AcDbEntity
  8
1
  6
Continuous
100
AcDbCircle
 10
432.0202229999998
 20
254.7893939999999
 30
0.0
 40
3.299999999999998
100
AcDbArc
 50
155.272095
 51
180.0
  0
ARC
  5
AAC2
330
A9AD
100
AcDbEntity
  8
1
  6
Continuous
100
AcDbCircle
 10
191.8039
 20
417.2716089999998
 30
0.0
 40
12.239545
100
AcDbArc
 50
139.1065419999998
 51
220.893454
  0
ARC
  5
AAC3
330
A9AD
100
AcDbEntity
  8
1
  6
Continuous
100
AcDbCircle
 10
190.653906
 20
417.2716089999998
 30
0.0
 40
12.239545
100
AcDbArc
 50
139.1065419999998
 51
220.893454
  0
LINE
  5
AAC4
330
A9AD
100
AcDbEntity
  8
1
  6
Continuous
100
AcDbLine
 10
184.8500239999999
 20
92.17160900000001
 30
0.0
 11
265.449969
 21
92.17160900000001
 31
0.0
  0
LINE
  5
AAC5
330
A9AD
100
AcDbEntity
  8
1
  6
Continuous
100
AcDbLine
 10
187.150027
 20
94.471612
 30
0.0
 11
263.463427
 21
94.471612
 31
0.0
  0
LINE
  5
AAEC
330
A9AD
100
AcDbEntity
  8
5
  6
PHANTOM
100
AcDbLine
 10
169.468302
 20
217.4833379999999
 30
0.0
 11
203.0786589999999
 21
236.5789319999999
 31
0.0
  0
LINE
  5
AAED
330
A9AD
100
AcDbEntity
  8
5
  6
PHANTOM
100
AcDbLine
 10
168.332129
 20
219.4830969999999
 30
0.0
 11
201.9424859999999
 21
238.5786909999999
 31
0.0
  0
LINE
  5
AAEE
330
A9AD
100
AcDbEntity
  8
5
  6
PHANTOM
100
AcDbLine
 10
194.4655919999999
 20
231.685464
 30
0.0
 11
196.441532
 21
228.2075879999999
 31
0.0
  0
LINE
  5
AAEF
330
A9AD
100
AcDbEntity
  8
5
  6
PHANTOM
100
AcDbLine
 10
196.4415129999999
 20
228.2076159999999
 30
0.0
 11
203.1131729999999
 21
230.635184
 31
0.0
  0
ARC
  5
AAF0
330
A9AD
100
AcDbEntity
  8
5
  6
PHANTOM
100
AcDbCircle
 10
204.7528649999999
 20
235.9690049999999
 30
0.0
 40
14.509467
100
AcDbArc
 50
252.3185339999999
 51
308.2997349999998
  0
LINE
  5
AAF1
330
A9AD
100
AcDbEntity
  8
1
  6
Continuous
100
AcDbLine
 10
184.8500239999999
 20
92.17160900000001
 30
0.0
 11
184.8500239999999
 21
92.17160900000001
 31
0.0
  0
ARC
  5
AAF2
330
A9AD
100
AcDbEntity
  8
1
  6
Continuous
100
AcDbCircle
 10
187.150027
 20
92.17160900000001
 30
0.0
 40
2.299999999999998
100
AcDbArc
 50
90.00000300000001
 51
180.000005
  0
LINE
  5
AAF3
330
A9AD
100
AcDbEntity
  8
1
  6
Continuous
100
AcDbLine
 10
87.55932699999998
 20
251.8327529999999
 30
0.0
 11
78.76634699999998
 21
251.8327529999999
 31
0.0
  0
ARC
  5
AAF4
330
A9AD
100
AcDbEntity
  8
1
  6
Continuous
100
AcDbCircle
 10
86.52021899999999
 20
252.9725229999999
 30
0.0
 40
19.899187
100
AcDbArc
 50
63.434952
 51
116.5650469999998
  0
ARC
  5
AAF5
330
A9AD
100
AcDbEntity
  8
1
  6
Continuous
100
AcDbCircle
 10
86.52021899999999
 20
254.9643749999999
 30
0.0
 40
19.899187
100
AcDbArc
 50
63.434952
 51
116.5650469999998
  0
ARC
  5
AAF6
330
A9AD
100
AcDbEntity
  8
1
  6
Continuous
100
AcDbCircle
 10
86.52021899999999
 20
237.020863
 30
0.0
 40
19.899187
100
AcDbArc
 50
244.0744089999999
 51
296.565062
  0
LINE
  5
AAF7
330
A9AD
100
AcDbEntity
  8
1
  6
Continuous
100
AcDbLine
 10
77.82022600000002
 20
265.641163
 30
0.0
 11
77.82022600000002
 21
218.501973
 31
0.0
  0
LINE
  5
AAF8
330
A9AD
100
AcDbEntity
  8
1
  6
Continuous
100
AcDbLine
 10
75.520223
 20
221.342
 30
0.0
 11
77.82022600000002
 21
221.342
 31
0.0
  0
LINE
  5
AAF9
330
A9AD
100
AcDbEntity
  8
1
  6
Continuous
100
AcDbLine
 10
75.520223
 20
218.501973
 30
0.0
 11
77.82022600000002
 21
218.501973
 31
0.0
  0
LINE
  5
AAFA
330
A9AD
100
AcDbEntity
  8
1
  6
Continuous
100
AcDbLine
 10
75.520223
 20
229.988545
 30
0.0
 11
71.520223
 21
229.988545
 31
0.0
  0
LINE
  5
AAFB
330
A9AD
100
AcDbEntity
  8
1
  6
Continuous
100
AcDbLine
 10
75.520223
 20
227.996693
 30
0.0
 11
71.520223
 21
227.996693
 31
0.0
  0
LINE
  5
AAFC
330
A9AD
100
AcDbEntity
  8
1
  6
Continuous
100
AcDbLine
 10
75.520223
 20
224.4966929999999
 30
0.0
 11
72.520223
 21
224.4966929999999
 31
0.0
  0
LINE
  5
AAFD
330
A9AD
100
AcDbEntity
  8
1
  6
Continuous
100
AcDbLine
 10
71.52022700000002
 20
227.996685
 30
0.0
 11
72.52022700000002
 21
224.4966929999999
 31
0.0
  0
LINE
  5
AAFE
330
A9AD
100
AcDbEntity
  8
1
  6
Continuous
100
AcDbLine
 10
75.520223
 20
238.2728769999999
 30
0.0
 11
77.82022600000002
 21
238.2728769999999
 31
0.0
  0
LINE
  5
AAFF
330
A9AD
100
AcDbEntity
  8
1
  6
Continuous
100
AcDbLine
 10
75.520223
 20
224.5273329999999
 30
0.0
 11
77.82022600000002
 21
224.5273329999999
 31
0.0
  0
LINE
  5
AB00
330
A9AD
100
AcDbEntity
  8
1
  6
Continuous
100
AcDbLine
 10
71.520223
 20
229.988545
 30
0.0
 11
71.520223
 21
227.996693
 31
0.0
  0
ARC
  5
AB01
330
A9AD
100
AcDbEntity
  8
1
  6
Continuous
100
AcDbCircle
 10
75.520223
 20
265.641163
 30
0.0
 40
2.299999999999998
100
AcDbArc
 50
359.999997
 51
90.00000300000001
  0
LINE
  5
AB02
330
A9AD
100
AcDbEntity
  8
1
  6
Continuous
100
AcDbLine
 10
71.520223
 20
256.98856
 30
0.0
 11
72.52021899999999
 21
260.48856
 31
0.0
  0
LINE
  5
AB03
330
A9AD
100
AcDbEntity
  8
1
  6
Continuous
100
AcDbLine
 10
75.520223
 20
260.4885449999999
 30
0.0
 11
72.520223
 21
260.4885449999999
 31
0.0
  0
LINE
  5
AB04
330
A9AD
100
AcDbEntity
  8
1
  6
Continuous
100
AcDbLine
 10
71.520219
 20
254.996708
 30
0.0
 11
72.52021899999999
 21
258.4966929999998
 31
0.0
  0
LINE
  5
AB05
330
A9AD
100
AcDbEntity
  8
1
  6
Continuous
100
AcDbLine
 10
75.520223
 20
258.4966929999998
 30
0.0
 11
72.520223
 21
258.4966929999998
 31
0.0
  0
LINE
  5
AB06
330
A9AD
100
AcDbEntity
  8
1
  6
Continuous
100
AcDbLine
 10
75.520223
 20
254.996693
 30
0.0
 11
71.520223
 21
254.996693
 31
0.0
  0
LINE
  5
AB07
330
A9AD
100
AcDbEntity
  8
1
  6
Continuous
100
AcDbLine
 10
75.520223
 20
248.597218
 30
0.0
 11
77.82022600000002
 21
248.597218
 31
0.0
  0
LINE
  5
AB08
330
A9AD
100
AcDbEntity
  8
1
  6
Continuous
100
AcDbLine
 10
71.520223
 20
256.9885450000001
 30
0.0
 11
71.520223
 21
254.996693
 31
0.0
  0
LINE
  5
AB09
330
A9AD
100
AcDbEntity
  8
1
  6
Continuous
100
AcDbLine
 10
72.520223
 20
258.4966929999998
 30
0.0
 11
72.520223
 21
260.4885449999999
 31
0.0
  0
LINE
  5
AB0A
330
A9AD
100
AcDbEntity
  8
1
  6
Continuous
100
AcDbLine
 10
75.520223
 20
267.9411509999998
 30
0.0
 11
75.520223
 21
267.9411509999998
 31
0.0
  0
ARC
  5
AB0B
330
A9AD
100
AcDbEntity
  8
1
  6
Continuous
100
AcDbCircle
 10
79.32062999999998
 20
267.3716929999998
 30
0.0
 40
3.800405999999998
100
AcDbArc
 50
116.5650469999998
 51
171.3823689999999
  0
ARC
  5
AB0C
330
A9AD
100
AcDbEntity
  8
1
  6
Continuous
100
AcDbCircle
 10
79.32062999999998
 20
269.3635449999999
 30
0.0
 40
3.800405999999998
100
AcDbArc
 50
116.5650469999998
 51
180.000005
  0
ARC
  5
AB0D
330
A9AD
100
AcDbEntity
  8
1
  6
Continuous
100
AcDbCircle
 10
105.347734
 20
248.939259
 30
0.0
 40
20.76305799999997
100
AcDbArc
 50
176.283576
 51
191.2977749999997
  0
ARC
  5
AB0E
330
A9AD
100
AcDbEntity
  8
1
  6
Continuous
100
AcDbCircle
 10
105.3480769999999
 20
250.93105
 30
0.0
 40
20.76305799999997
100
AcDbArc
 50
182.739379
 51
196.968003
  0
ARC
  5
AB0F
330
A9AD
100
AcDbEntity
  8
5
  6
PHANTOM
100
AcDbCircle
 10
188.430136
 20
241.244727
 30
0.0
 40
22.51196699999999
100
AcDbArc
 50
241.1256709999999
 51
301.9589419999998
  0
LINE
  5
AB10
330
A9AD
100
AcDbEntity
  8
1
  6
Continuous
100
AcDbLine
 10
97.520219
 20
222.6216629999999
 30
0.0
 11
97.520219
 21
224.613514
 31
0.0
  0
ARC
  5
AB11
330
A9AD
100
AcDbEntity
  8
1
  6
Continuous
100
AcDbCircle
 10
93.719812
 20
222.6216629999999
 30
0.0
 40
3.800405999999998
100
AcDbArc
 50
296.5650479999998
 51
34.78245799999999
  0
LINE
  5
AB12
330
A9AD
100
AcDbEntity
  8
1
  6
Continuous
100
AcDbLine
 10
96.841188
 20
224.789654
 30
0.0
 11
89.38104499999999
 21
235.530418
 31
0.0
  0
LINE
  5
AB13
330
A9AD
100
AcDbEntity
  8
1
  6
Continuous
100
AcDbLine
 10
89.422236
 20
237.4633519999999
 30
0.0
 11
96.84121799999999
 21
226.78146
 31
0.0
  0
ARC
  5
AB14
330
A9AD
100
AcDbEntity
  8
1
  6
Continuous
100
AcDbCircle
 10
93.719812
 20
224.613514
 30
0.0
 40
3.800405999999998
100
AcDbArc
 50
359.999997
 51
34.78147100000001
  0
LINE
  5
AB15
330
A9AD
100
AcDbEntity
  8
1
  6
Continuous
100
AcDbLine
 10
97.520219
 20
267.3716929999998
 30
0.0
 11
97.520219
 21
269.3635449999999
 31
0.0
  0
ARC
  5
AB16
330
A9AD
100
AcDbEntity
  8
1
  6
Continuous
100
AcDbCircle
 10
93.719812
 20
267.3716929999998
 30
0.0
 40
3.800405999999998
100
AcDbArc
 50
325.232387
 51
63.434952
  0
LINE
  5
AB17
330
A9AD
100
AcDbEntity
  8
1
  6
Continuous
100
AcDbLine
 10
87.55933500000002
 20
251.832768
 30
0.0
 11
96.84176
 21
265.204533
 31
0.0
  0
ARC
  5
AB18
330
A9AD
100
AcDbEntity
  8
1
  6
Continuous
100
AcDbCircle
 10
87.15219999999998
 20
250.121144
 30
0.0
 40
2.529177999999999
100
AcDbArc
 50
137.409623
 51
176.283576
  0
ARC
  5
AB19
330
A9AD
100
AcDbEntity
  8
1
  6
Continuous
100
AcDbCircle
 10
93.719812
 20
269.3635449999999
 30
0.0
 40
3.800405999999998
100
AcDbArc
 50
359.999997
 51
63.434952
  0
ARC
  5
AB1A
330
A9AD
100
AcDbEntity
  8
5
  6
PHANTOM
100
AcDbCircle
 10
177.076447
 20
220.6557689999999
 30
0.0
 40
1.0
100
AcDbArc
 50
61.12566000000001
 51
119.602908
  0
LINE
  5
AB1B
330
A9AD
100
AcDbEntity
  8
5
  6
PHANTOM
100
AcDbLine
 10
169.4683209999998
 20
217.483371
 30
0.0
 11
168.3321459999999
 21
219.483158
 31
0.0
  0
ARC
  5
AB1C
330
A9AD
100
AcDbEntity
  8
1
  6
Continuous
100
AcDbCircle
 10
383.420223
 20
237.0208709999999
 30
0.0
 40
19.899187
100
AcDbArc
 50
243.4349529999999
 51
296.5650479999998
  0
LINE
  5
AB1D
330
A9AD
100
AcDbEntity
  8
1
  6
Continuous
100
AcDbLine
 10
238.5357079999999
 20
104.6715969999999
 30
0.0
 11
261.232394
 21
113.585687
 31
0.0
  0
LINE
  5
AB1E
330
A9AD
100
AcDbEntity
  8
1
  6
Continuous
100
AcDbLine
 10
208.22481
 20
92.17160900000001
 30
0.0
 11
208.22481
 21
88.17160900000002
 31
0.0
  0
LINE
  5
AB1F
330
A9AD
100
AcDbEntity
  8
1
  6
Continuous
100
AcDbLine
 10
202.16263
 20
92.17160900000001
 30
0.0
 11
202.16263
 21
89.171609
 31
0.0
  0
LINE
  5
AB20
330
A9AD
100
AcDbEntity
  8
1
  6
Continuous
100
AcDbLine
 10
209.374804
 20
92.17160900000001
 30
0.0
 11
209.374804
 21
88.17160900000002
 31
0.0
  0
LINE
  5
AB21
330
A9AD
100
AcDbEntity
  8
1
  6
Continuous
100
AcDbLine
 10
208.224795
 20
88.17160499999998
 30
0.0
 11
202.1626149999999
 21
89.17160499999999
 31
0.0
  0
LINE
  5
AB22
330
A9AD
100
AcDbEntity
  8
1
  6
Continuous
100
AcDbLine
 10
208.22481
 20
88.17160900000002
 30
0.0
 11
209.374804
 21
88.17160900000002
 31
0.0
  0
ARC
  5
AB23
330
A9AD
100
AcDbEntity
  8
1
  6
Continuous
100
AcDbCircle
 10
245.988085
 20
183.8097389999999
 30
0.0
 40
85.728165
100
AcDbArc
 50
248.8876919999999
 51
249.514114
  0
ARC
  5
AB24
330
A9AD
100
AcDbEntity
  8
1
  6
Continuous
100
AcDbCircle
 10
247.1380789999999
 20
183.8097389999999
 30
0.0
 40
85.728165
100
AcDbArc
 50
248.8876919999999
 51
249.099962
  0
LINE
  5
AB25
330
A9AD
100
AcDbEntity
  8
1
  6
Continuous
100
AcDbLine
 10
189.8582479999998
 20
113.5856939999999
 30
0.0
 11
215.109042
 21
103.835988
 31
0.0
  0
LINE
  5
AB26
330
A9AD
100
AcDbEntity
  8
1
  6
Continuous
100
AcDbLine
 10
191.0082419999999
 20
113.5856939999999
 30
0.0
 11
216.259035
 21
103.8359959999997
 31
0.0
  0
LINE
  5
AB27
330
A9AD
100
AcDbEntity
  8
1
  6
Continuous
100
AcDbLine
 10
196.9090449999999
 20
92.17160900000001
 30
0.0
 11
196.9090449999999
 21
94.471612
 31
0.0
  0
LINE
  5
AB28
330
A9AD
100
AcDbEntity
  8
1
  6
Continuous
100
AcDbLine
 10
205.791323
 20
92.17160900000001
 30
0.0
 11
205.791323
 21
94.471612
 31
0.0
  0
LINE
  5
AB29
330
A9AD
100
AcDbEntity
  8
1
  6
Continuous
100
AcDbLine
 10
212.5549339999998
 20
103.133797
 30
0.0
 11
212.5549339999998
 21
99.471612
 31
0.0
  0
ARC
  5
AB2A
330
A9AD
100
AcDbEntity
  8
1
  6
Continuous
100
AcDbCircle
 10
228.0972919999999
 20
115.252496
 30
0.0
 40
14.874959
100
AcDbArc
 50
268.547438
 51
314.60477
  0
LINE
  5
AB2B
330
A9AD
100
AcDbEntity
  8
1
  6
Continuous
100
AcDbLine
 10
229.599306
 20
92.17160900000001
 30
0.0
 11
229.599306
 21
94.471612
 31
0.0
  0
ARC
  5
AB2C
330
A9AD
100
AcDbEntity
  8
1
  6
Continuous
100
AcDbCircle
 10
229.2472859999997
 20
115.252496
 30
0.0
 40
14.874959
100
AcDbArc
 50
264.1076339999999
 51
267.7846599999999
  0
LINE
  5
AB2D
330
A9AD
100
AcDbEntity
  8
1
  6
Continuous
100
AcDbLine
 10
242.981585
 20
92.17160900000001
 30
0.0
 11
242.981585
 21
94.471612
 31
0.0
  0
LINE
  5
AB2E
330
A9AD
100
AcDbEntity
  8
1
  6
Continuous
100
AcDbLine
 10
238.5357079999999
 20
103.133797
 30
0.0
 11
238.5357079999999
 21
96.382027
 31
0.0
  0
LINE
  5
AB2F
330
A9AD
100
AcDbEntity
  8
1
  6
Continuous
100
AcDbLine
 10
261.0523549999999
 20
92.17160900000001
 30
0.0
 11
261.0523549999999
 21
89.171609
 31
0.0
  0
LINE
  5
AB30
330
A9AD
100
AcDbEntity
  8
1
  6
Continuous
100
AcDbLine
 10
254.9901909999999
 20
92.17160900000001
 30
0.0
 11
254.9901909999999
 21
88.17160900000002
 31
0.0
  0
LINE
  5
AB31
330
A9AD
100
AcDbEntity
  8
1
  6
Continuous
100
AcDbLine
 10
262.202349
 20
92.17160900000001
 30
0.0
 11
262.202349
 21
89.171609
 31
0.0
  0
LINE
  5
AB32
330
A9AD
100
AcDbEntity
  8
1
  6
Continuous
100
AcDbLine
 10
254.9901909999999
 20
88.17160900000002
 30
0.0
 11
256.1401539999998
 21
88.17160900000002
 31
0.0
  0
LINE
  5
AB33
330
A9AD
100
AcDbEntity
  8
1
  6
Continuous
100
AcDbLine
 10
254.990176
 20
88.17160499999998
 30
0.0
 11
261.0523699999999
 21
89.17160499999999
 31
0.0
  0
LINE
  5
AB34
330
A9AD
100
AcDbEntity
  8
1
  6
Continuous
100
AcDbLine
 10
256.140169
 20
88.17160900000002
 30
0.0
 11
262.202364
 21
89.17161299999998
 31
0.0
  0
LINE
  5
AB35
330
A9AD
100
AcDbEntity
  8
1
  6
Continuous
100
AcDbLine
 10
256.140169
 20
88.17160900000002
 30
0.0
 11
262.202364
 21
89.17161299999998
 31
0.0
  0
LINE
  5
AB36
330
A9AD
100
AcDbEntity
  8
1
  6
Continuous
100
AcDbLine
 10
261.0523549999999
 20
89.171609
 30
0.0
 11
262.202349
 21
89.171609
 31
0.0
  0
LINE
  5
AB5D
330
A9AD
100
AcDbEntity
  8
1
  6
Continuous
100
AcDbLine
 10
265.7634299999999
 20
92.17160900000001
 30
0.0
 11
265.7634299999999
 21
92.17160900000001
 31
0.0
  0
ARC
  5
AB5E
330
A9AD
100
AcDbEntity
  8
1
  6
Continuous
100
AcDbCircle
 10
263.463427
 20
92.17160900000001
 30
0.0
 40
2.299999999999998
100
AcDbArc
 50
0.0
 51
90.00000300000001
  0
LINE
  5
AB5F
330
A9AD
100
AcDbEntity
  8
5
  6
PHANTOM
100
AcDbLine
 10
231.6676619999999
 20
255.4669599999999
 30
0.0
 11
265.2780409999999
 21
274.5625759999999
 31
0.0
  0
LINE
  5
AB60
330
A9AD
100
AcDbEntity
  8
5
  6
PHANTOM
100
AcDbLine
 10
232.8038129999999
 20
253.4671789999999
 30
0.0
 11
266.414192
 21
272.5627949999998
 31
0.0
  0
ARC
  5
AB61
330
A9AD
100
AcDbEntity
  8
5
  6
PHANTOM
100
AcDbCircle
 10
236.2952259999999
 20
268.4391059999999
 30
0.0
 40
22.51196699999999
100
AcDbArc
 50
297.2468899999999
 51
358.0801619999999
  0
ARC
  5
AB62
330
A9AD
100
AcDbEntity
  8
5
  6
PHANTOM
100
AcDbCircle
 10
227.197276
 20
228.731395
 30
0.0
 40
25.837463
100
AcDbArc
 50
88.233112
 51
150.972723
  0
ARC
  5
AB63
330
A9AD
100
AcDbEntity
  8
5
  6
PHANTOM
100
AcDbCircle
 10
227.197276
 20
228.731395
 30
0.0
 40
23.53746399999999
100
AcDbArc
 50
88.23314000000001
 51
150.9726959999998
  0
ARC
  5
AB64
330
A9AD
100
AcDbEntity
  8
5
  6
PHANTOM
100
AcDbCircle
 10
232.470625
 20
251.7167479999999
 30
0.0
 40
14.509467
100
AcDbArc
 50
290.9060979999998
 51
346.8872979999999
  0
ARC
  5
AB65
330
A9AD
100
AcDbEntity
  8
5
  6
PHANTOM
100
AcDbCircle
 10
216.9285429999999
 20
246.805501
 30
0.0
 40
22.450027
100
AcDbArc
 50
261.848889
 51
337.356944
  0
LINE
  5
AB66
330
A9AD
100
AcDbEntity
  8
5
  6
PHANTOM
100
AcDbLine
 10
247.5032129999999
 20
261.818596
 30
0.0
 11
250.0822719999999
 21
257.27915
 31
0.0
  0
LINE
  5
AB67
330
A9AD
100
AcDbEntity
  8
5
  6
PHANTOM
100
AcDbLine
 10
250.0822369999999
 20
257.279135
 30
0.0
 11
255.565393
 21
261.798599
 31
0.0
  0
LINE
  5
AB68
330
A9AD
100
AcDbEntity
  8
5
  6
PHANTOM
100
AcDbLine
 10
253.5894419999999
 20
265.2765009999999
 30
0.0
 11
255.565393
 21
261.798599
 31
0.0
  0
ARC
  5
AB69
330
A9AD
100
AcDbEntity
  8
5
  6
PHANTOM
100
AcDbCircle
 10
228.209745
 20
261.553258
 30
0.0
 40
9.3
100
AcDbArc
 50
268.2331479999999
 51
299.60291
  0
ARC
  5
AB6A
330
A9AD
100
AcDbEntity
  8
5
  6
PHANTOM
100
AcDbCircle
 10
228.2097579999999
 20
261.55325
 30
0.0
 40
7.0
100
AcDbArc
 50
268.233121
 51
299.6029229999998
  0
LINE
  5
AB6B
330
A9AD
100
AcDbEntity
  8
1
  6
Continuous
100
AcDbLine
 10
192.213126
 20
406.8548299999998
 30
0.0
 11
217.343009
 21
416.5817129999998
 31
0.0
  0
LINE
  5
AB6C
330
A9AD
100
AcDbEntity
  8
5
  6
PHANTOM
100
AcDbLine
 10
200.5518319999999
 20
235.143344
 30
0.0
 11
203.1131629999999
 21
230.6351369999999
 31
0.0
  0
ARC
  5
AB6D
330
A9AD
100
AcDbEntity
  8
5
  6
PHANTOM
100
AcDbCircle
 10
198.4845629999998
 20
244.6650089999999
 30
0.0
 40
9.3
100
AcDbArc
 50
299.6029229999998
 51
330.972691
  0
ARC
  5
AB6E
330
A9AD
100
AcDbEntity
  8
5
  6
PHANTOM
100
AcDbCircle
 10
198.484569
 20
244.6649879999999
 30
0.0
 40
7.0
100
AcDbArc
 50
299.6029229999998
 51
330.9727179999998
  0
ARC
  5
AB6F
330
A9AD
100
AcDbEntity
  8
1
  6
Continuous
100
AcDbCircle
 10
189.0906589999999
 20
414.921877
 30
0.0
 40
8.650256
100
AcDbArc
 50
220.893458
 51
291.1596369999998
  0
LINE
  5
AB70
330
A9AD
100
AcDbEntity
  8
1
  6
Continuous
100
AcDbLine
 10
187.9406649999999
 20
406.271609
 30
0.0
 11
189.0906589999999
 21
406.271609
 31
0.0
  0
ARC
  5
AB71
330
A9AD
100
AcDbEntity
  8
1
  6
Continuous
100
AcDbCircle
 10
187.9406649999999
 20
414.921877
 30
0.0
 40
8.650256
100
AcDbArc
 50
220.893458
 51
269.9999969999999
  0
LINE
  5
AB72
330
A9AD
100
AcDbEntity
  8
1
  6
Continuous
100
AcDbLine
 10
381.6203879999998
 20
255.259266
 30
0.0
 11
373.127575
 21
267.155392
 31
0.0
  0
LINE
  5
AB73
330
A9AD
100
AcDbEntity
  8
1
  6
Continuous
100
AcDbLine
 10
381.4036209999999
 20
253.240918
 30
0.0
 11
373.0987049999998
 21
265.2045409999999
 31
0.0
  0
LINE
  5
AB74
330
A9AD
100
AcDbEntity
  8
5
  6
PHANTOM
100
AcDbLine
 10
266.4141009999998
 20
272.56276
 30
0.0
 11
265.2779419999998
 21
274.562528
 31
0.0
  0
ARC
  5
AB75
330
A9AD
100
AcDbEntity
  8
5
  6
PHANTOM
100
AcDbCircle
 10
259.7939929999999
 20
267.6514319999999
 30
0.0
 40
1.0
100
AcDbArc
 50
119.6029149999999
 51
178.0801669999999
  0
ARC
  5
AB76
330
A9AD
100
AcDbEntity
  8
1
  6
Continuous
100
AcDbCircle
 10
364.752788
 20
251.1668740000001
 30
0.0
 40
20.76305799999997
100
AcDbArc
 50
325.7741129999998
 51
3.716425
  0
LINE
  5
AB77
330
A9AD
100
AcDbEntity
  8
1
  6
Continuous
100
AcDbLine
 10
383.2993119999999
 20
239.4885449999999
 30
0.0
 11
392.6568259999998
 21
239.4885449999999
 31
0.0
  0
ARC
  5
AB78
330
A9AD
100
AcDbEntity
  8
1
  6
Continuous
100
AcDbCircle
 10
383.420223
 20
239.012715
 30
0.0
 40
19.899187
100
AcDbArc
 50
243.4349529999999
 51
296.5650479999998
  0
LINE
  5
AB79
330
A9AD
100
AcDbEntity
  8
1
  6
Continuous
100
AcDbLine
 10
381.920223
 20
239.4885529999999
 30
0.0
 11
373.0986899999999
 21
226.780713
 31
0.0
  0
LINE
  5
AB7A
330
A9AD
100
AcDbEntity
  8
1
  6
Continuous
100
AcDbLine
 10
372.420223
 20
224.6135299999999
 30
0.0
 11
372.420223
 21
222.621685
 31
0.0
  0
ARC
  5
AB7B
330
A9AD
100
AcDbEntity
  8
1
  6
Continuous
100
AcDbCircle
 10
376.220638
 20
222.621685
 30
0.0
 40
3.800405999999998
100
AcDbArc
 50
179.9999909999999
 51
243.4349629999999
  0
ARC
  5
AB7C
330
A9AD
100
AcDbEntity
  8
1
  6
Continuous
100
AcDbCircle
 10
376.220638
 20
224.6135299999999
 30
0.0
 40
3.800405999999998
100
AcDbArc
 50
145.2323889999999
 51
243.4349629999999
  0
LINE
  5
AB7D
330
A9AD
100
AcDbEntity
  8
1
  6
Continuous
100
AcDbLine
 10
398.420223
 20
227.9967009999999
 30
0.0
 11
398.420223
 21
229.988545
 31
0.0
  0
LINE
  5
AB7E
330
A9AD
100
AcDbEntity
  8
1
  6
Continuous
100
AcDbLine
 10
392.920223
 20
226.4885449999999
 30
0.0
 11
397.420223
 21
226.4885449999999
 31
0.0
  0
LINE
  5
AB7F
330
A9AD
100
AcDbEntity
  8
1
  6
Continuous
100
AcDbLine
 10
398.420223
 20
229.9885529999999
 30
0.0
 11
397.4202079999998
 21
226.4885449999999
 31
0.0
  0
LINE
  5
AB80
330
A9AD
100
AcDbEntity
  8
1
  6
Continuous
100
AcDbLine
 10
392.920223
 20
229.988545
 30
0.0
 11
398.420223
 21
229.988545
 31
0.0
  0
LINE
  5
AB81
330
A9AD
100
AcDbEntity
  8
1
  6
Continuous
100
AcDbLine
 10
394.420223
 20
224.4967009999998
 30
0.0
 11
397.420223
 21
224.4967009999998
 31
0.0
  0
LINE
  5
AB82
330
A9AD
100
AcDbEntity
  8
1
  6
Continuous
100
AcDbLine
 10
398.420223
 20
227.9967009999999
 30
0.0
 11
397.420223
 21
224.4967009999998
 31
0.0
  0
LINE
  5
AB83
330
A9AD
100
AcDbEntity
  8
1
  6
Continuous
100
AcDbLine
 10
397.420223
 20
224.4967009999998
 30
0.0
 11
397.420223
 21
226.4885449999999
 31
0.0
  0
LINE
  5
AB84
330
A9AD
100
AcDbEntity
  8
1
  6
Continuous
100
AcDbLine
 10
394.420223
 20
224.9885449999999
 30
0.0
 11
394.420223
 21
218.501973
 31
0.0
  0
LINE
  5
AB85
330
A9AD
100
AcDbEntity
  8
1
  6
Continuous
100
AcDbLine
 10
394.420223
 20
218.501973
 30
0.0
 11
392.12022
 21
218.501973
 31
0.0
  0
LINE
  5
AB86
330
A9AD
100
AcDbEntity
  8
1
  6
Continuous
100
AcDbLine
 10
392.12022
 20
219.1242869999999
 30
0.0
 11
392.12022
 21
218.501973
 31
0.0
  0
ARC
  5
AB87
330
A9AD
100
AcDbEntity
  8
1
  6
Continuous
100
AcDbCircle
 10
392.920223
 20
224.9885449999999
 30
0.0
 40
1.5
100
AcDbArc
 50
0.000003
 51
90.00000300000001
  0
ARC
  5
AB88
330
A9AD
100
AcDbEntity
  8
1
  6
Continuous
100
AcDbCircle
 10
390.619823
 20
222.621685
 30
0.0
 40
3.800405999999998
100
AcDbArc
 50
296.5650479999998
 51
0.000003
  0
ARC
  5
AB89
330
A9AD
100
AcDbEntity
  8
1
  6
Continuous
100
AcDbCircle
 10
390.619823
 20
224.6135299999999
 30
0.0
 40
3.800405999999998
100
AcDbArc
 50
296.5650479999998
 51
15.04255799999999
  0
LINE
  5
AB8A
330
A9AD
100
AcDbEntity
  8
1
  6
Continuous
100
AcDbLine
 10
382.9483139999999
 20
254.8779419999999
 30
0.0
 11
392.4933889999999
 21
254.8779419999999
 31
0.0
  0
ARC
  5
AB8B
330
A9AD
100
AcDbEntity
  8
1
  6
Continuous
100
AcDbCircle
 10
382.9483139999999
 20
252.3487589999998
 30
0.0
 40
2.529177999999999
100
AcDbArc
 50
3.716425
 51
98.37553599999999
  0
ARC
  5
AB8C
330
A9AD
100
AcDbEntity
  8
1
  6
Continuous
100
AcDbCircle
 10
382.948665
 20
250.3569529999999
 30
0.0
 40
2.529177999999999
100
AcDbArc
 50
3.716425
 51
101.831079
  0
ARC
  5
AB8D
330
A9AD
100
AcDbEntity
  8
1
  6
Continuous
100
AcDbCircle
 10
364.753124
 20
249.1750679999999
 30
0.0
 40
20.76305799999997
100
AcDbArc
 50
2.759138999999998
 51
3.716425
  0
ARC
  5
AB8E
330
A9AD
100
AcDbEntity
  8
1
  6
Continuous
100
AcDbCircle
 10
382.225093
 20
253.811161
 30
0.0
 40
1.0
100
AcDbArc
 50
214.7676109999999
 51
281.8310799999998
  0
ARC
  5
AB8F
330
A9AD
100
AcDbEntity
  8
1
  6
Continuous
100
AcDbCircle
 10
382.434261
 20
255.8402979999999
 30
0.0
 40
1.0
100
AcDbArc
 50
215.52359
 51
278.3755439999998
  0
LINE
  5
AB90
330
A9AD
100
AcDbEntity
  8
1
  6
Continuous
100
AcDbLine
 10
392.920223
 20
256.9885450000001
 30
0.0
 11
393.5373859999998
 21
256.9885450000001
 31
0.0
  0
ARC
  5
AB91
330
A9AD
100
AcDbEntity
  8
1
  6
Continuous
100
AcDbCircle
 10
392.920223
 20
255.488545
 30
0.0
 40
1.5
100
AcDbArc
 50
62.646207
 51
90.00000300000001
  0
ARC
  5
AB92
330
A9AD
100
AcDbEntity
  8
1
  6
Continuous
100
AcDbCircle
 10
383.420223
 20
254.9643749999999
 30
0.0
 40
19.899187
100
AcDbArc
 50
74.936396
 51
116.5650599999999
  0
LINE
  5
AB93
330
A9AD
100
AcDbEntity
  8
1
  6
Continuous
100
AcDbLine
 10
372.420223
 20
269.3635679999999
 30
0.0
 11
372.420223
 21
267.3717159999998
 31
0.0
  0
ARC
  5
AB94
330
A9AD
100
AcDbEntity
  8
1
  6
Continuous
100
AcDbCircle
 10
376.220638
 20
267.3717159999998
 30
0.0
 40
3.800405999999998
100
AcDbArc
 50
179.9999909999999
 51
214.767608
  0
ARC
  5
AB95
330
A9AD
100
AcDbEntity
  8
1
  6
Continuous
100
AcDbCircle
 10
376.220638
 20
269.3635679999999
 30
0.0
 40
3.800405999999998
100
AcDbArc
 50
116.565033
 51
215.5235869999999
  0
LINE
  5
AB96
330
A9AD
100
AcDbEntity
  8
1
  6
Continuous
100
AcDbLine
 10
210.5248169999999
 20
428.271609
 30
0.0
 11
211.2602489999999
 21
428.271609
 31
0.0
  0
LINE
  5
AB97
330
A9AD
100
AcDbEntity
  8
1
  6
Continuous
100
AcDbLine
 10
210.5248019999999
 20
432.271609
 30
0.0
 11
204.462637
 21
431.271609
 31
0.0
  0
LINE
  5
AB98
330
A9AD
100
AcDbEntity
  8
1
  6
Continuous
100
AcDbLine
 10
209.374808
 20
432.271609
 30
0.0
 11
203.312644
 21
431.271609
 31
0.0
  0
LINE
  5
AB99
330
A9AD
100
AcDbEntity
  8
1
  6
Continuous
100
AcDbLine
 10
187.9406649999999
 20
428.271609
 30
0.0
 11
202.9626369999999
 21
428.271609
 31
0.0
  0
ARC
  5
AB9A
330
A9AD
100
AcDbEntity
  8
1
  6
Continuous
100
AcDbCircle
 10
189.0906589999999
 20
419.621355
 30
0.0
 40
8.650256
100
AcDbArc
 50
90.00000300000001
 51
139.1065419999998
  0
ARC
  5
AB9B
330
A9AD
100
AcDbEntity
  8
1
  6
Continuous
100
AcDbCircle
 10
187.9406649999999
 20
419.621355
 30
0.0
 40
8.650256
100
AcDbArc
 50
90.00000300000001
 51
139.1065419999998
  0
LINE
  5
AB9C
330
A9AD
100
AcDbEntity
  8
1
  6
Continuous
100
AcDbLine
 10
204.462637
 20
426.771609
 30
0.0
 11
204.462637
 21
431.271609
 31
0.0
  0
LINE
  5
AB9D
330
A9AD
100
AcDbEntity
  8
1
  6
Continuous
100
AcDbLine
 10
203.312644
 20
428.271609
 30
0.0
 11
203.312644
 21
431.271609
 31
0.0
  0
LINE
  5
AB9E
330
A9AD
100
AcDbEntity
  8
1
  6
Continuous
100
AcDbLine
 10
203.312644
 20
431.271609
 30
0.0
 11
204.462637
 21
431.271609
 31
0.0
  0
ARC
  5
AB9F
330
A9AD
100
AcDbEntity
  8
1
  6
Continuous
100
AcDbCircle
 10
202.9626369999999
 20
426.771609
 30
0.0
 40
1.5
100
AcDbArc
 50
0.0
 51
90.00000300000001
  0
LINE
  5
ABA0
330
A9AD
100
AcDbEntity
  8
1
  6
Continuous
100
AcDbLine
 10
210.5248169999999
 20
427.1060509999998
 30
0.0
 11
210.5248169999999
 21
432.271609
 31
0.0
  0
LINE
  5
ABA1
330
A9AD
100
AcDbEntity
  8
1
  6
Continuous
100
AcDbLine
 10
209.374808
 20
432.271609
 30
0.0
 11
210.5248169999999
 21
432.271609
 31
0.0
  0
LINE
  5
ABA2
330
A9AD
100
AcDbEntity
  8
5
  6
PHANTOM
100
AcDbLine
 10
233.166464
 20
239.986713
 30
0.0
 11
230.220019
 21
238.3127009999999
 31
0.0
  0
LINE
  5
ABA3
330
A9AD
100
AcDbEntity
  8
5
  6
PHANTOM
100
AcDbLine
 10
228.9675819999999
 20
247.3772059999999
 30
0.0
 11
226.0211369999999
 21
245.7031939999999
 31
0.0
  0
ARC
  5
ABA4
330
A9AD
100
AcDbEntity
  8
5
  6
PHANTOM
100
AcDbCircle
 10
231.0670229999999
 20
243.68196
 30
0.0
 40
4.25
100
AcDbArc
 50
299.6029169999999
 51
119.602917
  0
ARC
  5
ABA5
330
A9AD
100
AcDbEntity
  8
5
  6
PHANTOM
100
AcDbCircle
 10
212.373423
 20
233.0612579999999
 30
0.0
 40
4.25
100
AcDbArc
 50
119.602917
 51
299.6029169999999
  0
LINE
  5
ABA6
330
A9AD
100
AcDbEntity
  8
1
  6
Continuous
100
AcDbLine
 10
73.220223
 20
254.996693
 30
0.0
 11
73.220223
 21
229.988545
 31
0.0
  0
LINE
  5
ABA7
330
A9AD
100
AcDbEntity
  8
1
  6
Continuous
100
AcDbLine
 10
72.220223
 20
225.546704
 30
0.0
 11
72.220223
 21
225.371606
 31
0.0
  0
LINE
  5
ABA8
330
A9AD
100
AcDbEntity
  8
1
  6
Continuous
100
AcDbLine
 10
80.32022600000003
 20
246.871609
 30
0.0
 11
80.32022600000003
 21
229.8716089999998
 31
0.0
  0
LINE
  5
ABA9
330
A9AD
100
AcDbEntity
  8
1
  6
Continuous
100
AcDbLine
 10
80.32022600000003
 20
240.546609
 30
0.0
 11
77.82022600000002
 21
235.1546819999998
 31
0.0
  0
LINE
  5
ABAA
330
A9AD
100
AcDbEntity
  8
1
  6
Continuous
100
AcDbLine
 10
77.82022600000002
 20
234.22732
 30
0.0
 11
80.32022600000003
 21
234.0216089999999
 31
0.0
  0
ARC
  5
ABAB
330
A9AD
100
AcDbEntity
  8
1
  6
Continuous
100
AcDbCircle
 10
76.070226
 20
244.123625
 30
0.0
 40
4.25
100
AcDbArc
 50
294.315739
 51
65.68426099999999
  0
ARC
  5
ABAC
330
A9AD
100
AcDbEntity
  8
1
  6
Continuous
100
AcDbCircle
 10
76.070226
 20
232.619593
 30
0.0
 40
4.25
100
AcDbArc
 50
294.315739
 51
0.0
  0
LINE
  5
ABAD
330
A9AD
100
AcDbEntity
  8
1
  6
Continuous
100
AcDbLine
 10
80.32022600000003
 20
246.871609
 30
0.0
 11
81.52022599999998
 21
246.871609
 31
0.0
  0
LINE
  5
ABAE
330
A9AD
100
AcDbEntity
  8
1
  6
Continuous
100
AcDbLine
 10
80.32022600000003
 20
229.8716089999998
 30
0.0
 11
81.52022599999998
 21
229.8716089999998
 31
0.0
  0
LINE
  5
ABAF
330
A9AD
100
AcDbEntity
  8
1
  6
Continuous
100
AcDbLine
 10
81.52022599999998
 20
246.871609
 30
0.0
 11
81.52022599999998
 21
229.8716089999998
 31
0.0
  0
LINE
  5
ABB0
330
A9AD
100
AcDbEntity
  8
1
  6
Continuous
100
AcDbLine
 10
80.32022600000003
 20
234.371609
 30
0.0
 11
77.82022600000002
 21
234.371609
 31
0.0
  0
LINE
  5
ABB1
330
A9AD
100
AcDbEntity
  8
2
  6
Continuous
100
AcDbLine
 10
80.32022600000003
 20
235.0481089999999
 30
0.0
 11
77.82022600000002
 21
235.0481089999999
 31
0.0
  0
LINE
  5
ABB2
330
A9AD
100
AcDbEntity
  8
1
  6
Continuous
100
AcDbLine
 10
397.7202229999999
 20
225.5467009999999
 30
0.0
 11
397.7202229999999
 21
225.371606
 31
0.0
  0
ARC
  5
ABB3
330
A9AD
100
AcDbEntity
  8
1
  6
Continuous
100
AcDbCircle
 10
260.7202229999999
 20
73.87160899999997
 30
0.0
 40
22.7
100
AcDbArc
 50
126.2768509999997
 51
129.7389159999999
  0
ARC
  5
ABB4
330
A9AD
100
AcDbEntity
  8
1
  6
Continuous
100
AcDbCircle
 10
260.7202229999999
 20
73.87160899999997
 30
0.0
 40
17.7
100
AcDbArc
 50
108.888688
 51
135.072239
  0
LINE
  5
ABB5
330
A9AD
100
AcDbEntity
  8
1
  6
Continuous
100
AcDbLine
 10
225.720223
 20
415.5696089999998
 30
0.0
 11
217.720223
 21
415.5696089999998
 31
0.0
  0
LINE
  5
ABB6
330
A9AD
100
AcDbEntity
  8
1
  6
Continuous
100
AcDbLine
 10
224.5202229999999
 20
414.3696089999998
 30
0.0
 11
218.9202229999999
 21
414.3696089999998
 31
0.0
  0
ARC
  5
ABB7
330
A9AD
100
AcDbEntity
  8
1
  6
Continuous
100
AcDbCircle
 10
224.720223
 20
423.211209
 30
0.0
 40
6.841600999999998
100
AcDbArc
 50
243.992176
 51
296.0078240000001
  0
LINE
  5
ABB8
330
A9AD
100
AcDbEntity
  8
1
  6
Continuous
100
AcDbLine
 10
218.9702229999999
 20
416.369609
 30
0.0
 11
224.470223
 21
416.369609
 31
0.0
  0
LINE
  5
ABB9
330
A9AD
100
AcDbEntity
  8
1
  6
Continuous
100
AcDbLine
 10
221.720223
 20
418.140934
 30
0.0
 11
221.720223
 21
417.062429
 31
0.0
  0
LINE
  5
ABBA
330
A9AD
100
AcDbEntity
  8
1
  6
Continuous
100
AcDbLine
 10
217.720223
 20
415.5696089999998
 30
0.0
 11
217.720223
 21
416.369609
 31
0.0
  0
LINE
  5
ABBB
330
A9AD
100
AcDbEntity
  8
2
  6
Continuous
100
AcDbLine
 10
218.3967229999999
 20
414.8931089999998
 30
0.0
 11
218.3967229999999
 21
416.369609
 31
0.0
  0
LINE
  5
ABBC
330
A9AD
100
AcDbEntity
  8
1
  6
Continuous
100
AcDbLine
 10
218.9202229999999
 20
414.3696089999998
 30
0.0
 11
217.720223
 21
415.5696089999998
 31
0.0
  0
ARC
  5
ABBD
330
A9AD
100
AcDbEntity
  8
1
  6
Continuous
100
AcDbCircle
 10
218.720223
 20
423.211209
 30
0.0
 40
6.841600999999998
100
AcDbArc
 50
257.3616059999998
 51
296.0078240000001
  0
LINE
  5
ABBE
330
A9AD
100
AcDbEntity
  8
1
  6
Continuous
100
AcDbLine
 10
227.7202229999998
 20
419.8227989999998
 30
0.0
 11
227.7202229999998
 21
417.062429
 31
0.0
  0
LINE
  5
ABBF
330
A9AD
100
AcDbEntity
  8
1
  6
Continuous
100
AcDbLine
 10
224.5202229999999
 20
414.3696089999998
 30
0.0
 11
225.720223
 21
415.5696089999998
 31
0.0
  0
LINE
  5
ABC0
330
A9AD
100
AcDbEntity
  8
1
  6
Continuous
100
AcDbLine
 10
225.720223
 20
415.5696089999998
 30
0.0
 11
225.720223
 21
416.369609
 31
0.0
  0
LINE
  5
ABC1
330
A9AD
100
AcDbEntity
  8
2
  6
Continuous
100
AcDbLine
 10
225.043723
 20
414.8931089999998
 30
0.0
 11
225.043723
 21
416.369609
 31
0.0
  0
LINE
  5
ABC2
330
A9AD
100
AcDbEntity
  8
1
  6
Continuous
100
AcDbLine
 10
208.7298409999999
 20
96.971612
 30
0.0
 11
208.7298409999999
 21
94.471612
 31
0.0
  0
LINE
  5
ABC3
330
A9AD
100
AcDbEntity
  8
1
  6
Continuous
100
AcDbLine
 10
234.7106039999999
 20
96.971612
 30
0.0
 11
234.7106039999999
 21
94.471612
 31
0.0
  0
LINE
  5
ABC4
330
A9AD
100
AcDbEntity
  8
1
  6
Continuous
100
AcDbLine
 10
208.7298409999999
 20
96.971612
 30
0.0
 11
234.7106039999999
 21
96.971612
 31
0.0
  0
LINE
  5
ABC5
330
A9AD
100
AcDbEntity
  8
4
  6
CENTER
100
AcDbLine
 10
151.2202229999997
 20
238.3716089999999
 30
0.0
 11
292.988903
 21
238.3716089999999
 31
0.0
  0
LINE
  5
ABC6
330
A9AD
100
AcDbEntity
  8
1
  6
Continuous
100
AcDbLine
 10
226.070223
 20
96.971612
 30
0.0
 11
220.3983419999999
 21
94.471612
 31
0.0
  0
LINE
  5
ABC7
330
A9AD
100
AcDbEntity
  8
1
  6
Continuous
100
AcDbLine
 10
217.3702229999999
 20
96.971612
 30
0.0
 11
218.7921039999999
 21
94.471612
 31
0.0
  0
LINE
  5
ABC8
330
A9AD
100
AcDbEntity
  8
2
  6
Continuous
100
AcDbLine
 10
225.043723
 20
96.971612
 30
0.0
 11
225.043723
 21
96.51915999999999
 31
0.0
  0
LINE
  5
ABC9
330
A9AD
100
AcDbEntity
  8
1
  6
Continuous
100
AcDbLine
 10
225.720223
 20
96.971612
 30
0.0
 11
225.720223
 21
96.81734200000001
 31
0.0
  0
LINE
  5
ABCA
330
A9AD
100
AcDbEntity
  8
2
  6
Continuous
100
AcDbLine
 10
218.3967229999999
 20
96.971612
 30
0.0
 11
218.3967229999999
 21
95.16678500000001
 31
0.0
  0
LINE
  5
ABCB
330
A9AD
100
AcDbEntity
  8
1
  6
Continuous
100
AcDbLine
 10
217.720223
 20
96.971612
 30
0.0
 11
217.720223
 21
96.35623000000002
 31
0.0
  0
LINE
  5
ABCC
330
A9AD
100
AcDbEntity
  8
1
  6
Continuous
100
AcDbLine
 10
213.2202229999998
 20
98.17161200000001
 30
0.0
 11
230.220223
 21
98.17161200000001
 31
0.0
  0
LINE
  5
ABCD
330
A9AD
100
AcDbEntity
  8
1
  6
Continuous
100
AcDbLine
 10
213.2202229999998
 20
96.971612
 30
0.0
 11
213.2202229999998
 21
98.17161200000001
 31
0.0
  0
LINE
  5
ABCE
330
A9AD
100
AcDbEntity
  8
1
  6
Continuous
100
AcDbLine
 10
230.220223
 20
96.971612
 30
0.0
 11
230.220223
 21
98.17161200000001
 31
0.0
  0
LINE
  5
ABCF
330
A9AD
100
AcDbEntity
  8
5
  6
PHANTOM
100
AcDbLine
 10
213.2204269999999
 20
238.4305169999999
 30
0.0
 11
210.273982
 21
236.756504
 31
0.0
  0
LINE
  5
ABD0
330
A9AD
100
AcDbEntity
  8
5
  6
PHANTOM
100
AcDbLine
 10
217.419309
 20
231.0400239999999
 30
0.0
 11
214.4728639999999
 21
229.3660109999999
 31
0.0
  0
ARC
  5
ABD1
330
A9AD
100
AcDbEntity
  8
1
  6
Continuous
100
AcDbCircle
 10
255.0294279999999
 20
241.0139449999999
 30
0.0
 40
22.51196699999999
100
AcDbArc
 50
237.6439779999998
 51
298.4772489999998
  0
LINE
  5
ABD2
330
A9AD
100
AcDbEntity
  8
1
  6
Continuous
100
AcDbLine
 10
240.3489319999999
 20
236.4497819999999
 30
0.0
 11
273.826166
 21
217.1216949999999
 31
0.0
  0
LINE
  5
ABD3
330
A9AD
100
AcDbEntity
  8
1
  6
Continuous
100
AcDbLine
 10
241.498941
 20
238.441626
 30
0.0
 11
274.976175
 21
219.1135389999999
 31
0.0
  0
LINE
  5
ABD4
330
A9AD
100
AcDbEntity
  8
1
  6
Continuous
100
AcDbLine
 10
252.379602
 20
223.4752719999999
 30
0.0
 11
259.0522399999999
 21
221.032637
 31
0.0
  0
LINE
  5
ABD5
330
A9AD
100
AcDbEntity
  8
1
  6
Continuous
100
AcDbLine
 10
178.4143
 20
274.8635469999999
 30
0.0
 11
211.891504
 21
255.535468
 31
0.0
  0
LINE
  5
ABD6
330
A9AD
100
AcDbEntity
  8
1
  6
Continuous
100
AcDbLine
 10
177.2643219999999
 20
272.8716949999999
 30
0.0
 11
210.7415249999998
 21
253.5436159999999
 31
0.0
  0
ARC
  5
ABD7
330
A9AD
100
AcDbEntity
  8
1
  6
Continuous
100
AcDbCircle
 10
207.3539519999999
 20
268.539389
 30
0.0
 40
22.51196699999999
100
AcDbArc
 50
181.522758
 51
242.3560289999998
  0
LINE
  5
ABD8
330
A9AD
100
AcDbEntity
  8
1
  6
Continuous
100
AcDbLine
 10
228.904997
 20
229.3160009999998
 30
0.0
 11
225.970223
 21
231.0103929999999
 31
0.0
  0
CIRCLE
  5
ABD9
330
A9AD
100
AcDbEntity
  8
1
  6
Continuous
100
AcDbCircle
 10
221.720223
 20
238.3716089999999
 30
0.0
 40
2.799999999999998
  0
CIRCLE
  5
ABDA
330
A9AD
100
AcDbEntity
  8
2
  6
Continuous
100
AcDbCircle
 10
221.720223
 20
238.3716089999999
 30
0.0
 40
3.3235
  0
CIRCLE
  5
ABDB
330
A9AD
100
AcDbEntity
  8
1
  6
Continuous
100
AcDbCircle
 10
221.720223
 20
238.3716089999999
 30
0.0
 40
4.0
  0
CIRCLE
  5
ABDC
330
A9AD
100
AcDbEntity
  8
1
  6
Continuous
100
AcDbCircle
 10
221.720223
 20
238.3716089999999
 30
0.0
 40
5.102005
  0
LINE
  5
ABDD
330
A9AD
100
AcDbEntity
  8
1
  6
Continuous
100
AcDbLine
 10
227.349383
 20
241.6216059999999
 30
0.0
 11
221.720223
 21
244.8716029999999
 31
0.0
  0
LINE
  5
ABDE
330
A9AD
100
AcDbEntity
  8
1
  6
Continuous
100
AcDbLine
 10
221.720223
 20
231.8716139999999
 30
0.0
 11
227.349383
 21
235.1216109999997
 31
0.0
  0
ARC
  5
ABDF
330
A9AD
100
AcDbEntity
  8
1
  6
Continuous
100
AcDbCircle
 10
226.570245
 20
246.7720859999999
 30
0.0
 40
22.450027
100
AcDbArc
 50
202.245976
 51
277.754031
  0
ARC
  5
ABE0
330
A9AD
100
AcDbEntity
  8
1
  6
Continuous
100
AcDbCircle
 10
216.1764919999999
 20
228.769583
 30
0.0
 40
23.53746399999999
100
AcDbArc
 50
28.630227
 51
91.369783
  0
ARC
  5
ABE1
330
A9AD
100
AcDbEntity
  8
1
  6
Continuous
100
AcDbCircle
 10
216.1764919999999
 20
228.769583
 30
0.0
 40
25.837463
100
AcDbArc
 50
28.63019999999999
 51
91.36981099999998
  0
LINE
  5
ABE2
330
A9AD
100
AcDbEntity
  8
1
  6
Continuous
100
AcDbLine
 10
221.720223
 20
244.8716029999999
 30
0.0
 11
216.091062
 21
241.6216059999999
 31
0.0
  0
ARC
  5
ABE3
330
A9AD
100
AcDbEntity
  8
1
  6
Continuous
100
AcDbCircle
 10
212.410449
 20
243.746608
 30
0.0
 40
4.25
100
AcDbArc
 50
60.00000400000001
 51
240.000004
  0
ARC
  5
ABE4
330
A9AD
100
AcDbEntity
  8
1
  6
Continuous
100
AcDbCircle
 10
211.0625699999999
 20
251.7909299999999
 30
0.0
 40
14.509467
100
AcDbArc
 50
192.715622
 51
248.696822
  0
LINE
  5
ABE5
330
A9AD
100
AcDbEntity
  8
1
  6
Continuous
100
AcDbLine
 10
213.2202229999998
 20
238.371608
 30
0.0
 11
210.2854499999998
 21
240.0659999999998
 31
0.0
  0
LINE
  5
ABE6
330
A9AD
100
AcDbEntity
  8
1
  6
Continuous
100
AcDbLine
 10
216.091062
 20
235.1216109999997
 30
0.0
 11
221.720223
 21
231.8716139999999
 31
0.0
  0
LINE
  5
ABE7
330
A9AD
100
AcDbEntity
  8
1
  6
Continuous
100
AcDbLine
 10
216.091062
 20
241.6216059999999
 30
0.0
 11
216.091062
 21
235.1216109999997
 31
0.0
  0
LINE
  5
ABE8
330
A9AD
100
AcDbEntity
  8
1
  6
Continuous
100
AcDbLine
 10
208.2247249999999
 20
254.9967099999999
 30
0.0
 11
205.6322259999999
 21
250.506354
 31
0.0
  0
LINE
  5
ABE9
330
A9AD
100
AcDbEntity
  8
1
  6
Continuous
100
AcDbLine
 10
200.1626069999999
 20
255.032614
 30
0.0
 11
205.6322719999998
 21
250.506369
 31
0.0
  0
LINE
  5
ABEA
330
A9AD
100
AcDbEntity
  8
1
  6
Continuous
100
AcDbLine
 10
202.162591
 20
258.4966799999999
 30
0.0
 11
200.162591
 21
255.0325839999999
 31
0.0
  0
LINE
  5
ABEB
330
A9AD
100
AcDbEntity
  8
1
  6
Continuous
100
AcDbLine
 10
217.4702219999999
 20
245.7328239999999
 30
0.0
 11
214.535449
 21
247.4272159999999
 31
0.0
  0
ARC
  5
ABEC
330
A9AD
100
AcDbEntity
  8
1
  6
Continuous
100
AcDbCircle
 10
215.391504
 20
261.597662
 30
0.0
 40
7.0
100
AcDbArc
 50
240.00001
 51
271.369806
  0
ARC
  5
ABED
330
A9AD
100
AcDbEntity
  8
1
  6
Continuous
100
AcDbCircle
 10
215.3915189999999
 20
261.597678
 30
0.0
 40
9.3
100
AcDbArc
 50
240.00001
 51
271.3697779999999
  0
ARC
  5
ABEE
330
A9AD
100
AcDbEntity
  8
1
  6
Continuous
100
AcDbCircle
 10
244.998941
 20
244.5038059999999
 30
0.0
 40
7.0
100
AcDbArc
 50
208.630208
 51
240.00001
  0
ARC
  5
ABEF
330
A9AD
100
AcDbEntity
  8
1
  6
Continuous
100
AcDbCircle
 10
244.998941
 20
244.5038209999999
 30
0.0
 40
9.3
100
AcDbArc
 50
208.6302359999999
 51
239.999997
  0
ARC
  5
ABF0
330
A9AD
100
AcDbEntity
  8
1
  6
Continuous
100
AcDbCircle
 10
238.6705259999998
 20
235.8514689999999
 30
0.0
 40
14.509467
100
AcDbArc
 50
231.303185
 51
287.2843849999999
  0
LINE
  5
ABF1
330
A9AD
100
AcDbEntity
  8
1
  6
Continuous
100
AcDbLine
 10
233.1549959999999
 20
236.677218
 30
0.0
 11
230.220223
 21
238.3716089999999
 31
0.0
  0
ARC
  5
ABF2
330
A9AD
100
AcDbEntity
  8
1
  6
Continuous
100
AcDbCircle
 10
231.029996
 20
232.9966089999998
 30
0.0
 40
4.25
100
AcDbArc
 50
240.000004
 51
60.00000400000001
  0
LINE
  5
ABF3
330
A9AD
100
AcDbEntity
  8
1
  6
Continuous
100
AcDbLine
 10
227.349383
 20
235.1216109999997
 30
0.0
 11
227.349383
 21
241.6216059999999
 31
0.0
  0
LINE
  5
ABF4
330
A9AD
100
AcDbEntity
  8
1
  6
Continuous
100
AcDbLine
 10
254.9901059999999
 20
227.9967029999999
 30
0.0
 11
252.3796319999999
 21
223.4752489999999
 31
0.0
  0
ARC
  5
ABF5
330
A9AD
100
AcDbEntity
  8
1
  6
Continuous
100
AcDbCircle
 10
183.850313
 20
267.9145869999999
 30
0.0
 40
1.0
100
AcDbArc
 50
1.522746999999999
 51
59.999995
  0
LINE
  5
ABF6
330
A9AD
100
AcDbEntity
  8
1
  6
Continuous
100
AcDbLine
 10
177.26436
 20
272.8716949999999
 30
0.0
 11
178.414361
 21
274.8635619999999
 31
0.0
  0
LINE
  5
ABF7
330
A9AD
100
AcDbEntity
  8
1
  6
Continuous
100
AcDbLine
 10
273.826089
 20
217.121756
 30
0.0
 11
274.976083
 21
219.1135999999999
 31
0.0
  0
ARC
  5
ABF8
330
A9AD
100
AcDbEntity
  8
1
  6
Continuous
100
AcDbCircle
 10
266.2401669999998
 20
220.346777
 30
0.0
 40
1.0
100
AcDbArc
 50
60.000002
 51
118.477254
  0
LINE
  5
ABF9
330
A9AD
100
AcDbEntity
  8
1
  6
Continuous
100
AcDbLine
 10
261.052255
 20
224.496756
 30
0.0
 11
259.0522399999999
 21
221.032637
 31
0.0
  0
ARC
  5
ABFA
330
A9AD
100
AcDbEntity
  8
1
  6
Continuous
100
AcDbCircle
 10
603.720223
 20
238.3716089999999
 30
0.0
 40
16.5
100
AcDbArc
 50
205.0
 51
355.0
  0
ARC
  5
ABFB
330
A9AD
100
AcDbEntity
  8
1
  6
Continuous
100
AcDbCircle
 10
603.720223
 20
238.3716089999999
 30
0.0
 40
18.0
100
AcDbArc
 50
156.987348
 51
56.330116
  0
ARC
  5
ABFC
330
A9AD
100
AcDbEntity
  8
1
  6
Continuous
100
AcDbCircle
 10
603.720223
 20
238.3716089999999
 30
0.0
 40
21.4
100
AcDbArc
 50
150.2493
 51
63.068117
  0
ARC
  5
ABFD
330
A9AD
100
AcDbEntity
  8
1
  6
Continuous
100
AcDbCircle
 10
603.720223
 20
238.3716089999999
 30
0.0
 40
16.5
100
AcDbArc
 50
161.1278079999999
 51
175.0
  0
LINE
  5
ABFE
330
A9AD
100
AcDbEntity
  8
1
  6
Continuous
100
AcDbLine
 10
594.1795120000001
 20
232.8966819999999
 30
0.0
 11
593.7158649999997
 21
233.7064999999999
 31
0.0
  0
ARC
  5
ABFF
330
A9AD
100
AcDbEntity
  8
1
  6
Continuous
100
AcDbCircle
 10
603.720223
 20
238.3716089999999
 30
0.0
 40
11.0
100
AcDbArc
 50
175.0
 51
205.0
  0
LINE
  5
AC00
330
A9AD
100
AcDbEntity
  8
1
  6
Continuous
100
AcDbLine
 10
592.7620809999997
 20
239.330322
 30
0.0
 11
585.788718
 21
239.940412
 31
0.0
  0
LINE
  5
AC01
330
A9AD
100
AcDbEntity
  8
1
  6
Continuous
100
AcDbLine
 10
593.7508370000001
 20
233.722808
 30
0.0
 11
587.406683
 21
230.7644799999999
 31
0.0
  0
ARC
  5
AC02
330
A9AD
100
AcDbEntity
  8
1
  6
Continuous
100
AcDbCircle
 10
603.720223
 20
238.3716089999999
 30
0.0
 40
13.5
100
AcDbArc
 50
175.0
 51
205.0
  0
LINE
  5
AC03
330
A9AD
100
AcDbEntity
  8
1
  6
Continuous
100
AcDbLine
 10
428.720223
 20
231.9319339999999
 30
0.0
 11
428.720223
 21
222.8715919999999
 31
0.0
  0
ARC
  5
AC04
330
A9AD
100
AcDbEntity
  8
1
  6
Continuous
100
AcDbCircle
 10
426.2202229999998
 20
222.8715919999999
 30
0.0
 40
2.5
100
AcDbArc
 50
270.0
 51
0.0
  0
ARC
  5
AC05
330
A9AD
100
AcDbEntity
  8
1
  6
Continuous
100
AcDbCircle
 10
603.720223
 20
238.3716089999999
 30
0.0
 40
11.0
100
AcDbArc
 50
355.0
 51
25.0
  0
ARC
  5
AC06
330
A9AD
100
AcDbEntity
  8
1
  6
Continuous
100
AcDbCircle
 10
603.720223
 20
238.3716089999999
 30
0.0
 40
13.5
100
AcDbArc
 50
355.0
 51
25.0
  0
LINE
  5
AC07
330
A9AD
100
AcDbEntity
  8
1
  6
Continuous
100
AcDbLine
 10
621.6517269999997
 20
236.8028049999999
 30
0.0
 11
614.6783649999997
 21
237.4128959999999
 31
0.0
  0
LINE
  5
AC08
330
A9AD
100
AcDbEntity
  8
1
  6
Continuous
100
AcDbLine
 10
620.0337629999998
 20
245.978737
 30
0.0
 11
613.689608
 21
243.02041
 31
0.0
  0
ARC
  5
AC09
330
A9AD
100
AcDbEntity
  8
1
  6
Continuous
100
AcDbCircle
 10
603.720223
 20
238.3716089999999
 30
0.0
 40
16.5
100
AcDbArc
 50
25.0
 51
52.189689
  0
LINE
  5
AC0A
330
A9AD
100
AcDbEntity
  8
1
  6
Continuous
100
AcDbLine
 10
432.520213
 20
239.3303049999999
 30
0.0
 11
432.520213
 21
233.706484
 31
0.0
  0
LINE
  5
AC0B
330
A9AD
100
AcDbEntity
  8
1
  6
Continuous
100
AcDbLine
 10
426.2202229999998
 20
230.7644629999999
 30
0.0
 11
432.520213
 21
233.706484
 31
0.0
  0
LINE
  5
AC0C
330
A9AD
100
AcDbEntity
  8
1
  6
Continuous
100
AcDbLine
 10
426.2202229999998
 20
239.940395
 30
0.0
 11
432.520213
 21
239.3303049999999
 31
0.0
  0
ARC
  5
AC0D
330
A9AD
100
AcDbEntity
  8
1
  6
Continuous
100
AcDbCircle
 10
426.2202229999998
 20
253.8716249999999
 30
0.0
 40
2.5
100
AcDbArc
 50
0.0
 51
90.0
  0
ARC
  5
AC0E
330
A9AD
100
AcDbEntity
  8
1
  6
Continuous
100
AcDbCircle
 10
43.720223
 20
222.8715919999999
 30
0.0
 40
2.5
100
AcDbArc
 50
180.0
 51
270.0
  0
LINE
  5
AC0F
330
A9AD
100
AcDbEntity
  8
1
  6
Continuous
100
AcDbLine
 10
43.720223
 20
245.978737
 30
0.0
 11
37.420233
 21
243.02041
 31
0.0
  0
LINE
  5
AC10
330
A9AD
100
AcDbEntity
  8
1
  6
Continuous
100
AcDbLine
 10
41.220223
 20
237.0449049999999
 30
0.0
 11
41.220223
 21
222.8715919999999
 31
0.0
  0
LINE
  5
AC11
330
A9AD
100
AcDbEntity
  8
1
  6
Continuous
100
AcDbLine
 10
43.720223
 20
236.8028049999999
 30
0.0
 11
37.420233
 21
237.4128959999999
 31
0.0
  0
LINE
  5
AC12
330
A9AD
100
AcDbEntity
  8
1
  6
Continuous
100
AcDbLine
 10
37.420233
 20
243.02041
 30
0.0
 11
37.420233
 21
237.4128959999999
 31
0.0
  0
ARC
  5
AC13
330
A9AD
100
AcDbEntity
  8
1
  6
Continuous
100
AcDbCircle
 10
43.720223
 20
253.8716249999999
 30
0.0
 40
2.5
100
AcDbArc
 50
90.0
 51
180.0
  0
LINE
  5
AC14
330
A9AD
100
AcDbEntity
  8
1
  6
Continuous
100
AcDbLine
 10
231.6896079999999
 20
54.07161899999999
 30
0.0
 11
234.488739
 21
54.07161899999999
 31
0.0
  0
ARC
  5
AC15
330
A9AD
100
AcDbEntity
  8
1
  6
Continuous
100
AcDbCircle
 10
233.561707
 20
55.07161899999999
 30
0.0
 40
1.0
100
AcDbArc
 50
270.0
 51
312.976204
  0
ARC
  5
AC16
330
A9AD
100
AcDbEntity
  8
1
  6
Continuous
100
AcDbCircle
 10
233.532534
 20
56.07161899999999
 30
0.0
 40
1.0
100
AcDbArc
 50
270.0
 51
315.8415499999998
  0
LINE
  5
AC17
330
A9AD
100
AcDbEntity
  8
1
  6
Continuous
100
AcDbLine
 10
206.2202059999999
 20
57.87160899999999
 30
0.0
 11
237.2202389999999
 21
57.87160899999999
 31
0.0
  0
ARC
  5
AC18
330
A9AD
100
AcDbEntity
  8
1
  6
Continuous
100
AcDbCircle
 10
207.5336619999999
 20
56.07161899999999
 30
0.0
 40
1.0
100
AcDbArc
 50
194.986275
 51
270.0
  0
LINE
  5
AC19
330
A9AD
100
AcDbEntity
  8
1
  6
Continuous
100
AcDbLine
 10
207.519785
 20
57.88009999999999
 30
0.0
 11
208.2715939999999
 21
55.07161899999999
 31
0.0
  0
LINE
  5
AC1A
330
A9AD
100
AcDbEntity
  8
1
  6
Continuous
100
AcDbLine
 10
206.0143349999999
 20
57.88009999999999
 30
0.0
 11
206.567674
 21
55.813031
 31
0.0
  0
LINE
  5
AC1B
330
A9AD
100
AcDbEntity
  8
1
  6
Continuous
100
AcDbLine
 10
210.7620809999999
 20
54.07161899999999
 30
0.0
 11
210.7620809999999
 21
55.07161899999999
 31
0.0
  0
LINE
  5
AC1C
330
A9AD
100
AcDbEntity
  8
1
  6
Continuous
100
AcDbLine
 10
208.2715939999999
 20
54.07161899999999
 30
0.0
 11
208.2715939999999
 21
55.07161899999999
 31
0.0
  0
LINE
  5
AC1D
330
A9AD
100
AcDbEntity
  8
1
  6
Continuous
100
AcDbLine
 10
210.7620809999999
 20
54.07161899999999
 30
0.0
 11
210.7620809999999
 21
55.07161899999999
 31
0.0
  0
LINE
  5
AC1E
330
A9AD
100
AcDbEntity
  8
1
  6
Continuous
100
AcDbLine
 10
207.5336619999999
 20
55.07161899999999
 30
0.0
 11
210.7620809999999
 21
55.07161899999999
 31
0.0
  0
LINE
  5
AC1F
330
A9AD
100
AcDbEntity
  8
1
  6
Continuous
100
AcDbLine
 10
206.9417169999999
 20
54.07161899999999
 30
0.0
 11
210.7620809999999
 21
54.07161899999999
 31
0.0
  0
ARC
  5
AC20
330
A9AD
100
AcDbEntity
  8
1
  6
Continuous
100
AcDbCircle
 10
206.9417169999999
 20
56.07161899999999
 30
0.0
 40
2.0
100
AcDbArc
 50
194.986275
 51
270.0
  0
LINE
  5
AC21
330
A9AD
100
AcDbEntity
  8
1
  6
Continuous
100
AcDbLine
 10
204.054575
 20
59.12259200000001
 30
0.0
 11
205.0097419999999
 21
55.55444300000001
 31
0.0
  0
ARC
  5
AC22
330
A9AD
100
AcDbEntity
  8
1
  6
Continuous
100
AcDbCircle
 10
206.2202059999999
 20
60.37160899999999
 30
0.0
 40
2.5
100
AcDbArc
 50
180.0
 51
270.0
  0
LINE
  5
AC23
330
A9AD
100
AcDbEntity
  8
1
  6
Continuous
100
AcDbLine
 10
231.6896079999999
 20
55.07161899999999
 30
0.0
 11
233.532534
 21
55.07161899999999
 31
0.0
  0
LINE
  5
AC24
330
A9AD
100
AcDbEntity
  8
1
  6
Continuous
100
AcDbLine
 10
231.6896079999999
 20
54.07161899999999
 30
0.0
 11
231.6896079999999
 21
55.07161899999999
 31
0.0
  0
ARC
  5
AC25
330
A9AD
100
AcDbEntity
  8
1
  6
Continuous
100
AcDbCircle
 10
237.7202229999999
 20
58.80041999999999
 30
0.0
 40
2.0
100
AcDbArc
 50
310.17916
 51
0.0
  0
LINE
  5
AC26
330
A9AD
100
AcDbEntity
  8
1
  6
Continuous
100
AcDbLine
 10
239.7202229999999
 20
58.80041999999999
 30
0.0
 11
239.7202229999999
 21
60.37160899999999
 31
0.0
  0
LINE
  5
AC27
330
A9AD
100
AcDbEntity
  8
1
  6
Continuous
100
AcDbLine
 10
238.033763
 20
57.87160899999999
 30
0.0
 11
238.033763
 21
58.007676
 31
0.0
  0
ARC
  5
AC28
330
A9AD
100
AcDbEntity
  8
1
  6
Continuous
100
AcDbCircle
 10
237.2202389999999
 20
60.37160899999999
 30
0.0
 40
2.5
100
AcDbArc
 50
270.0
 51
0.0
  0
ARC
  5
AC29
330
A9AD
100
AcDbEntity
  8
1
  6
Continuous
100
AcDbCircle
 10
234.488739
 20
56.07161899999999
 30
0.0
 40
2.0
100
AcDbArc
 50
270.0
 51
310.17916
  0
LINE
  5
AC2A
330
A9AD
100
AcDbEntity
  8
1
  6
Continuous
100
AcDbLine
 10
234.24995
 20
55.374974
 30
0.0
 11
236.6743009999999
 21
57.87160899999999
 31
0.0
  0
LINE
  5
AC2B
330
A9AD
100
AcDbEntity
  8
1
  6
Continuous
100
AcDbLine
 10
234.243402
 20
54.33998199999999
 30
0.0
 11
238.033763
 21
57.87160899999999
 31
0.0
  0
LINE
  5
AC2C
330
A9AD
100
AcDbEntity
  8
1
  6
Continuous
100
AcDbLine
 10
235.779099
 20
54.54355699999999
 30
0.0
 11
239.0105819999999
 21
57.272359
 31
0.0
  0
LINE
  5
AC2D
330
A9AD
100
AcDbEntity
  8
1
  6
Continuous
100
AcDbLine
 10
236.996543
 20
55.57161899999999
 30
0.0
 11
242.1807929999999
 21
55.57161899999999
 31
0.0
  0
LINE
  5
AC2E
330
A9AD
100
AcDbEntity
  8
1
  6
Continuous
100
AcDbLine
 10
239.491468
 20
57.87160899999999
 30
0.0
 11
242.180805
 21
57.87160899999999
 31
0.0
  0
LINE
  5
AC2F
330
A9AD
100
AcDbEntity
  8
1
  6
Continuous
100
AcDbLine
 10
217.6619019999999
 20
468.0715789999998
 30
0.0
 11
225.7785439999999
 21
468.0715789999998
 31
0.0
  0
ARC
  5
AC30
330
A9AD
100
AcDbEntity
  8
1
  6
Continuous
100
AcDbCircle
 10
217.6619019999999
 20
466.071579
 30
0.0
 40
2.0
100
AcDbArc
 50
90.0
 51
179.999982
  0
LINE
  5
AC31
330
A9AD
100
AcDbEntity
  8
1
  6
Continuous
100
AcDbLine
 10
215.6619019999999
 20
464.871599
 30
0.0
 11
215.6619019999999
 21
466.071579
 31
0.0
  0
LINE
  5
AC32
330
A9AD
100
AcDbEntity
  8
1
  6
Continuous
100
AcDbLine
 10
428.720223
 20
231.9319339999999
 30
0.0
 11
428.720223
 21
227.3716089999997
 31
0.0
  0
LINE
  5
AC33
330
A9AD
100
AcDbEntity
  8
1
  6
Continuous
100
AcDbLine
 10
431.020213
 20
233.0060019999999
 30
0.0
 11
431.020213
 21
227.3716089999997
 31
0.0
  0
LINE
  5
AC34
330
A9AD
100
AcDbEntity
  8
1
  6
Continuous
100
AcDbLine
 10
38.920233
 20
237.2676359999999
 30
0.0
 11
38.920233
 21
227.3716089999997
 31
0.0
  0
LINE
  5
AC35
330
A9AD
100
AcDbEntity
  8
1
  6
Continuous
100
AcDbLine
 10
41.220223
 20
237.0449049999999
 30
0.0
 11
41.220223
 21
227.3716089999997
 31
0.0
  0
ARC
  5
AC36
330
A9AD
100
AcDbEntity
  8
1
  6
Continuous
100
AcDbCircle
 10
207.5336619999999
 20
464.371599
 30
0.0
 40
1.0
100
AcDbArc
 50
90.0
 51
165.013725
  0
LINE
  5
AC37
330
A9AD
100
AcDbEntity
  8
1
  6
Continuous
100
AcDbLine
 10
206.9417169999999
 20
466.371599
 30
0.0
 11
210.7620809999999
 21
466.371599
 31
0.0
  0
LINE
  5
AC38
330
A9AD
100
AcDbEntity
  8
1
  6
Continuous
100
AcDbLine
 10
206.0143349999999
 20
462.563118
 30
0.0
 11
206.567674
 21
464.630186
 31
0.0
  0
ARC
  5
AC39
330
A9AD
100
AcDbEntity
  8
1
  6
Continuous
100
AcDbCircle
 10
206.9417169999999
 20
464.371599
 30
0.0
 40
2.0
100
AcDbArc
 50
90.0
 51
165.013725
  0
LINE
  5
AC3A
330
A9AD
100
AcDbEntity
  8
1
  6
Continuous
100
AcDbLine
 10
204.054575
 20
461.320625
 30
0.0
 11
205.0097419999999
 21
464.888774
 31
0.0
  0
ARC
  5
AC3B
330
A9AD
100
AcDbEntity
  8
1
  6
Continuous
100
AcDbCircle
 10
206.2202059999999
 20
460.0716089999998
 30
0.0
 40
2.5
100
AcDbArc
 50
90.0
 51
180.0
  0
LINE
  5
AC3C
330
A9AD
100
AcDbEntity
  8
1
  6
Continuous
100
AcDbLine
 10
207.519785
 20
462.563118
 30
0.0
 11
208.2715939999999
 21
465.371599
 31
0.0
  0
LINE
  5
AC3D
330
A9AD
100
AcDbEntity
  8
1
  6
Continuous
100
AcDbLine
 10
210.7620809999999
 20
466.371599
 30
0.0
 11
210.7620809999999
 21
465.371599
 31
0.0
  0
LINE
  5
AC3E
330
A9AD
100
AcDbEntity
  8
1
  6
Continuous
100
AcDbLine
 10
208.2715939999999
 20
466.371599
 30
0.0
 11
208.2715939999999
 21
465.371599
 31
0.0
  0
LINE
  5
AC3F
330
A9AD
100
AcDbEntity
  8
1
  6
Continuous
100
AcDbLine
 10
210.7620809999999
 20
466.371599
 30
0.0
 11
210.7620809999999
 21
465.371599
 31
0.0
  0
LINE
  5
AC40
330
A9AD
100
AcDbEntity
  8
1
  6
Continuous
100
AcDbLine
 10
207.5336619999999
 20
465.371599
 30
0.0
 11
210.7620809999999
 21
465.371599
 31
0.0
  0
ARC
  5
AC41
330
A9AD
100
AcDbEntity
  8
1
  6
Continuous
100
AcDbCircle
 10
128.2535629999999
 20
446.5716089999999
 30
0.0
 40
85.0
100
AcDbArc
 50
10.840782
 51
10.849816
  0
LINE
  5
AC42
330
A9AD
100
AcDbEntity
  8
1
  6
Continuous
100
AcDbLine
 10
206.2202059999999
 20
462.571609
 30
0.0
 11
210.7202229999999
 21
462.571609
 31
0.0
  0
ARC
  5
AC43
330
A9AD
100
AcDbEntity
  8
5
  6
PHANTOM
100
AcDbCircle
 10
177.8961679999999
 20
414.9779019999998
 30
0.0
 40
8.706292999999996
100
AcDbArc
 50
221.0054759999999
 51
270.0
  0
ARC
  5
AC44
330
A9AD
100
AcDbEntity
  8
5
  6
PHANTOM
100
AcDbCircle
 10
180.5342669999998
 20
417.2716089999998
 30
0.0
 40
12.202099
100
AcDbArc
 50
138.994524
 51
221.0054759999999
  0
ARC
  5
AC45
330
A9AD
100
AcDbEntity
  8
5
  6
PHANTOM
100
AcDbCircle
 10
177.8961679999999
 20
419.5653159999998
 30
0.0
 40
8.706292999999996
100
AcDbArc
 50
90.0
 51
138.994524
  0
ARC
  5
AC46
330
A9AD
100
AcDbEntity
  8
5
  6
PHANTOM
100
AcDbCircle
 10
180.5342669999998
 20
103.170746
 30
0.0
 40
12.202099
100
AcDbArc
 50
138.994524
 51
221.0054759999999
  0
ARC
  5
AC47
330
A9AD
100
AcDbEntity
  8
5
  6
PHANTOM
100
AcDbCircle
 10
177.8961679999999
 20
105.464453
 30
0.0
 40
8.706292999999996
100
AcDbArc
 50
90.0
 51
138.994524
  0
ARC
  5
AC48
330
A9AD
100
AcDbEntity
  8
5
  6
PHANTOM
100
AcDbCircle
 10
177.8961679999999
 20
100.8770399999999
 30
0.0
 40
8.706292999999996
100
AcDbArc
 50
221.0054759999999
 51
270.0
  0
CIRCLE
  5
AC49
330
A9AD
100
AcDbEntity
  8
1
  6
Continuous
100
AcDbCircle
 10
221.720223
 20
238.3716089999999
 30
0.0
 40
8.5
  0
LINE
  5
AC4A
330
A9AD
100
AcDbEntity
  8
1
  6
Continuous
100
AcDbLine
 10
556.72022
 20
327.8716129999999
 30
0.0
 11
556.72022
 21
365.8716129999998
 31
0.0
  0
LINE
  5
AC4B
330
A9AD
100
AcDbEntity
  8
1
  6
Continuous
100
AcDbLine
 10
572.72022
 20
327.8716129999999
 30
0.0
 11
572.72022
 21
365.8716129999998
 31
0.0
  0
LINE
  5
AC4C
330
A9AD
100
AcDbEntity
  8
2
  6
Continuous
100
AcDbLine
 10
557.80272
 20
329.7465579999999
 30
0.0
 11
557.80272
 21
366.954113
 31
0.0
  0
LINE
  5
AC4D
330
A9AD
100
AcDbEntity
  8
2
  6
Continuous
100
AcDbLine
 10
571.6377200000001
 20
329.7465579999999
 30
0.0
 11
571.6377200000001
 21
366.954113
 31
0.0
  0
LINE
  5
AC4E
330
A9AD
100
AcDbEntity
  8
2
  6
Continuous
100
AcDbLine
 10
405.802727
 20
329.7465579999999
 30
0.0
 11
405.802727
 21
366.954113
 31
0.0
  0
LINE
  5
AC4F
330
A9AD
100
AcDbEntity
  8
1
  6
Continuous
100
AcDbLine
 10
404.720227
 20
327.8716129999999
 30
0.0
 11
404.720227
 21
365.8716129999998
 31
0.0
  0
LINE
  5
AC50
330
A9AD
100
AcDbEntity
  8
2
  6
Continuous
100
AcDbLine
 10
419.6377269999998
 20
329.7465579999999
 30
0.0
 11
419.6377269999998
 21
366.954113
 31
0.0
  0
LINE
  5
AC51
330
A9AD
100
AcDbEntity
  8
1
  6
Continuous
100
AcDbLine
 10
420.7202269999998
 20
327.8716129999999
 30
0.0
 11
420.7202269999998
 21
365.8716129999998
 31
0.0
  0
LINE
  5
AC52
330
A9AD
100
AcDbEntity
  8
1
  6
Continuous
100
AcDbLine
 10
586.820236
 20
316.971607
 30
0.0
 11
542.6202099999998
 21
316.971607
 31
0.0
  0
LINE
  5
AC53
330
A9AD
100
AcDbEntity
  8
1
  6
Continuous
100
AcDbLine
 10
587.22022
 20
320.7716019999998
 30
0.0
 11
542.22022
 21
320.7716019999998
 31
0.0
  0
LINE
  5
AC54
330
A9AD
100
AcDbEntity
  8
1
  6
Continuous
100
AcDbLine
 10
582.970287
 20
322.7716019999998
 30
0.0
 11
546.47022
 21
322.7716019999998
 31
0.0
  0
LINE
  5
AC55
330
A9AD
100
AcDbEntity
  8
1
  6
Continuous
100
AcDbLine
 10
556.72022
 20
329.7465579999999
 30
0.0
 11
572.72022
 21
329.7465579999999
 31
0.0
  0
LINE
  5
AC56
330
A9AD
100
AcDbEntity
  8
1
  6
Continuous
100
AcDbLine
 10
553.3202199999998
 20
327.8716129999999
 30
0.0
 11
576.12022
 21
327.8716129999999
 31
0.0
  0
LINE
  5
AC57
330
A9AD
100
AcDbEntity
  8
1
  6
Continuous
100
AcDbLine
 10
553.3202199999998
 20
327.8716129999999
 30
0.0
 11
553.3202199999998
 21
322.7716019999998
 31
0.0
  0
LINE
  5
AC58
330
A9AD
100
AcDbEntity
  8
1
  6
Continuous
100
AcDbLine
 10
542.22022
 20
320.7716019999998
 30
0.0
 11
542.22022
 21
318.2716019999998
 31
0.0
  0
ARC
  5
AC59
330
A9AD
100
AcDbEntity
  8
1
  6
Continuous
100
AcDbCircle
 10
546.6961599999998
 20
316.77586
 30
0.0
 40
6.0
100
AcDbArc
 50
92.158028
 51
138.2442
  0
LINE
  5
AC5A
330
A9AD
100
AcDbEntity
  8
1
  6
Continuous
100
AcDbLine
 10
564.72022
 20
327.8716129999999
 30
0.0
 11
564.72022
 21
322.7716019999998
 31
0.0
  0
LINE
  5
AC5B
330
A9AD
100
AcDbEntity
  8
2
  6
Continuous
100
AcDbLine
 10
557.80272
 20
329.7465579999999
 30
0.0
 11
556.72022
 21
327.8716129999999
 31
0.0
  0
ARC
  5
AC5C
330
A9AD
100
AcDbEntity
  8
1
  6
Continuous
100
AcDbCircle
 10
582.7442829999998
 20
316.77586
 30
0.0
 40
6.0
100
AcDbArc
 50
41.75575999999996
 51
87.841936
  0
LINE
  5
AC5D
330
A9AD
100
AcDbEntity
  8
1
  6
Continuous
100
AcDbLine
 10
576.12022
 20
327.8716129999999
 30
0.0
 11
576.12022
 21
322.7716019999998
 31
0.0
  0
LINE
  5
AC5E
330
A9AD
100
AcDbEntity
  8
2
  6
Continuous
100
AcDbLine
 10
571.6377200000001
 20
329.7465579999999
 30
0.0
 11
572.72022
 21
327.8716129999999
 31
0.0
  0
LINE
  5
AC5F
330
A9AD
100
AcDbEntity
  8
1
  6
Continuous
100
AcDbLine
 10
586.820234
 20
316.971599
 30
0.0
 11
587.220235
 21
318.2716019999998
 31
0.0
  0
LINE
  5
AC60
330
A9AD
100
AcDbEntity
  8
1
  6
Continuous
100
AcDbLine
 10
587.22022
 20
320.7716019999998
 30
0.0
 11
587.22022
 21
318.2716019999998
 31
0.0
  0
LINE
  5
AC61
330
A9AD
100
AcDbEntity
  8
1
  6
Continuous
100
AcDbLine
 10
434.8202179999998
 20
316.971607
 30
0.0
 11
390.6202269999998
 21
316.971607
 31
0.0
  0
LINE
  5
AC62
330
A9AD
100
AcDbEntity
  8
1
  6
Continuous
100
AcDbLine
 10
399.72017
 20
327.8716129999999
 30
0.0
 11
425.7202799999998
 21
327.8716129999999
 31
0.0
  0
LINE
  5
AC63
330
A9AD
100
AcDbEntity
  8
1
  6
Continuous
100
AcDbLine
 10
404.720227
 20
329.7465579999999
 30
0.0
 11
420.7202269999998
 21
329.7465579999999
 31
0.0
  0
LINE
  5
AC64
330
A9AD
100
AcDbEntity
  8
1
  6
Continuous
100
AcDbLine
 10
430.7480909999998
 20
322.77161
 30
0.0
 11
394.470227
 21
322.77161
 31
0.0
  0
LINE
  5
AC65
330
A9AD
100
AcDbEntity
  8
1
  6
Continuous
100
AcDbLine
 10
435.2202269999998
 20
320.77161
 30
0.0
 11
390.220227
 21
320.77161
 31
0.0
  0
LINE
  5
AC66
330
A9AD
100
AcDbEntity
  8
1
  6
Continuous
100
AcDbLine
 10
390.620223
 20
316.9716029999999
 30
0.0
 11
390.2202229999998
 21
318.271606
 31
0.0
  0
LINE
  5
AC67
330
A9AD
100
AcDbEntity
  8
1
  6
Continuous
100
AcDbLine
 10
390.220227
 20
320.77161
 30
0.0
 11
390.220227
 21
318.27161
 31
0.0
  0
ARC
  5
AC68
330
A9AD
100
AcDbEntity
  8
1
  6
Continuous
100
AcDbCircle
 10
394.6961659999999
 20
316.775863
 30
0.0
 40
6.0
100
AcDbArc
 50
92.158028
 51
138.2442
  0
LINE
  5
AC69
330
A9AD
100
AcDbEntity
  8
2
  6
Continuous
100
AcDbLine
 10
405.802727
 20
329.7465579999999
 30
0.0
 11
404.720227
 21
327.8716129999999
 31
0.0
  0
LINE
  5
AC6A
330
A9AD
100
AcDbEntity
  8
1
  6
Continuous
100
AcDbLine
 10
406.0806969999998
 20
327.8716129999999
 30
0.0
 11
406.0806969999998
 21
322.77161
 31
0.0
  0
LINE
  5
AC6B
330
A9AD
100
AcDbEntity
  8
1
  6
Continuous
100
AcDbLine
 10
399.72017
 20
327.8716129999999
 30
0.0
 11
399.72017
 21
322.77161
 31
0.0
  0
LINE
  5
AC6C
330
A9AD
100
AcDbEntity
  8
2
  6
Continuous
100
AcDbLine
 10
419.6377269999998
 20
329.7465579999999
 30
0.0
 11
420.7202269999998
 21
327.8716129999999
 31
0.0
  0
LINE
  5
AC6D
330
A9AD
100
AcDbEntity
  8
1
  6
Continuous
100
AcDbLine
 10
419.3597529999998
 20
327.8716129999999
 30
0.0
 11
419.3597529999998
 21
322.77161
 31
0.0
  0
LINE
  5
AC6E
330
A9AD
100
AcDbEntity
  8
1
  6
Continuous
100
AcDbLine
 10
425.7202799999998
 20
327.8716129999999
 30
0.0
 11
425.7202799999998
 21
322.77161
 31
0.0
  0
LINE
  5
AC6F
330
A9AD
100
AcDbEntity
  8
1
  6
Continuous
100
AcDbLine
 10
434.8202179999998
 20
316.9716109999999
 30
0.0
 11
435.2202189999998
 21
318.27161
 31
0.0
  0
LINE
  5
AC70
330
A9AD
100
AcDbEntity
  8
1
  6
Continuous
100
AcDbLine
 10
435.2202269999998
 20
320.77161
 30
0.0
 11
435.2202269999998
 21
318.27161
 31
0.0
  0
ARC
  5
AC71
330
A9AD
100
AcDbEntity
  8
1
  6
Continuous
100
AcDbCircle
 10
430.7480909999998
 20
316.77161
 30
0.0
 40
6.0
100
AcDbArc
 50
41.810315
 51
90.0
  0
LINE
  5
AC72
330
A9AD
100
AcDbEntity
  8
1
  6
Continuous
100
AcDbLine
 10
272.120223
 20
440.1534019999998
 30
0.0
 11
260.7202229999999
 21
433.571609
 31
0.0
  0
ARC
  5
AC73
330
A9AD
100
AcDbEntity
  8
1
  6
Continuous
100
AcDbCircle
 10
242.500997
 20
446.571604
 30
0.0
 40
32.780774
100
AcDbArc
 50
146.064871
 51
213.935129
  0
ARC
  5
AC74
330
A9AD
100
AcDbEntity
  8
1
  6
Continuous
100
AcDbCircle
 10
260.7202229999999
 20
446.5716089999999
 30
0.0
 40
25.0
100
AcDbArc
 50
140.403279
 51
220.291044
  0
CIRCLE
  5
AC75
330
A9AD
100
AcDbEntity
  8
1
  6
Continuous
100
AcDbCircle
 10
260.7202229999999
 20
446.5716089999999
 30
0.0
 40
18.25
  0
CIRCLE
  5
AC76
330
A9AD
100
AcDbEntity
  8
1
  6
Continuous
100
AcDbCircle
 10
260.7202229999999
 20
446.5716089999999
 30
0.0
 40
22.5
  0
ARC
  5
AC77
330
A9AD
100
AcDbEntity
  8
1
  6
Continuous
100
AcDbCircle
 10
260.7202229999999
 20
446.5716089999999
 30
0.0
 40
25.0
100
AcDbArc
 50
230.2610839999999
 51
129.7389469999999
  0
LINE
  5
AC78
330
A9AD
100
AcDbEntity
  8
1
  6
Continuous
100
AcDbLine
 10
249.320223
 20
440.1534019999998
 30
0.0
 11
260.7202229999999
 21
433.571609
 31
0.0
  0
LINE
  5
AC79
330
A9AD
100
AcDbEntity
  8
1
  6
Continuous
100
AcDbLine
 10
558.72022
 20
367.8716129999998
 30
0.0
 11
570.72022
 21
367.8716129999998
 31
0.0
  0
LINE
  5
AC7A
330
A9AD
100
AcDbEntity
  8
1
  6
Continuous
100
AcDbLine
 10
556.72022
 20
365.8716129999998
 30
0.0
 11
572.72022
 21
365.8716129999998
 31
0.0
  0
LINE
  5
AC7B
330
A9AD
100
AcDbEntity
  8
1
  6
Continuous
100
AcDbLine
 10
556.72022
 20
365.8716129999998
 30
0.0
 11
558.72022
 21
367.8716129999998
 31
0.0
  0
LINE
  5
AC7C
330
A9AD
100
AcDbEntity
  8
1
  6
Continuous
100
AcDbLine
 10
570.72022
 20
367.8716129999998
 30
0.0
 11
572.72022
 21
365.8716129999998
 31
0.0
  0
LINE
  5
AC7D
330
A9AD
100
AcDbEntity
  8
1
  6
Continuous
100
AcDbLine
 10
210.7202229999999
 20
428.271609
 30
0.0
 11
242.180805
 21
428.271609
 31
0.0
  0
LINE
  5
AC7E
330
A9AD
100
AcDbEntity
  8
1
  6
Continuous
100
AcDbLine
 10
210.7202229999999
 20
430.5716089999998
 30
0.0
 11
213.890172
 21
430.5716089999998
 31
0.0
  0
LINE
  5
AC7F
330
A9AD
100
AcDbEntity
  8
1
  6
Continuous
100
AcDbLine
 10
210.7202229999999
 20
428.271609
 30
0.0
 11
210.7202229999999
 21
430.5716089999998
 31
0.0
  0
ARC
  5
AC80
330
A9AD
100
AcDbEntity
  8
1
  6
Continuous
100
AcDbCircle
 10
242.180805
 20
424.271609
 30
0.0
 40
4.0
100
AcDbArc
 50
50.261084
 51
90.0
  0
LINE
  5
AC81
330
A9AD
100
AcDbEntity
  8
1
  6
Continuous
100
AcDbLine
 10
406.720227
 20
367.8716129999998
 30
0.0
 11
418.720227
 21
367.8716129999998
 31
0.0
  0
LINE
  5
AC82
330
A9AD
100
AcDbEntity
  8
1
  6
Continuous
100
AcDbLine
 10
404.720227
 20
365.8716129999998
 30
0.0
 11
420.7202269999998
 21
365.8716129999998
 31
0.0
  0
LINE
  5
AC83
330
A9AD
100
AcDbEntity
  8
1
  6
Continuous
100
AcDbLine
 10
404.720227
 20
365.8716129999998
 30
0.0
 11
406.720227
 21
367.8716129999998
 31
0.0
  0
LINE
  5
AC84
330
A9AD
100
AcDbEntity
  8
1
  6
Continuous
100
AcDbLine
 10
418.720227
 20
367.8716129999998
 30
0.0
 11
420.7202269999998
 21
365.8716129999998
 31
0.0
  0
LINE
  5
AC85
330
A9AD
100
AcDbEntity
  8
1
  6
Continuous
100
AcDbLine
 10
260.7202229999999
 20
459.5716089999998
 30
0.0
 11
249.320223
 21
452.989816
 31
0.0
  0
LINE
  5
AC86
330
A9AD
100
AcDbEntity
  8
1
  6
Continuous
100
AcDbLine
 10
210.7202229999999
 20
464.871599
 30
0.0
 11
242.1807929999999
 21
464.871599
 31
0.0
  0
LINE
  5
AC87
330
A9AD
100
AcDbEntity
  8
1
  6
Continuous
100
AcDbLine
 10
210.7202229999999
 20
462.571609
 30
0.0
 11
213.8901769999999
 21
462.571609
 31
0.0
  0
ARC
  5
AC88
330
A9AD
100
AcDbEntity
  8
1
  6
Continuous
100
AcDbCircle
 10
128.2535629999999
 20
446.5716089999999
 30
0.0
 40
85.0
100
AcDbArc
 50
10.840782
 51
10.849816
  0
LINE
  5
AC89
330
A9AD
100
AcDbEntity
  8
1
  6
Continuous
100
AcDbLine
 10
210.7202229999999
 20
462.571609
 30
0.0
 11
210.7202229999999
 21
464.871599
 31
0.0
  0
LINE
  5
AC8A
330
A9AD
100
AcDbEntity
  8
1
  6
Continuous
100
AcDbLine
 10
249.320223
 20
440.1534019999998
 30
0.0
 11
249.320223
 21
452.989816
 31
0.0
  0
ARC
  5
AC8B
330
A9AD
100
AcDbEntity
  8
1
  6
Continuous
100
AcDbCircle
 10
242.1807929999999
 20
468.871599
 30
0.0
 40
4.0
100
AcDbArc
 50
270.0
 51
309.7389469999999
  0
LINE
  5
AC8C
330
A9AD
100
AcDbEntity
  8
1
  6
Continuous
100
AcDbLine
 10
260.7202229999999
 20
459.5716089999998
 30
0.0
 11
272.120223
 21
452.989816
 31
0.0
  0
CIRCLE
  5
AC8D
330
A9AD
100
AcDbEntity
  8
1
  6
Continuous
100
AcDbCircle
 10
260.7202229999999
 20
446.5716089999999
 30
0.0
 40
8.0
  0
CIRCLE
  5
AC8E
330
A9AD
100
AcDbEntity
  8
2
  6
Continuous
100
AcDbCircle
 10
260.7202229999999
 20
446.5716089999999
 30
0.0
 40
6.9175
  0
CIRCLE
  5
AC8F
330
A9AD
100
AcDbEntity
  8
1
  6
Continuous
100
AcDbCircle
 10
260.7202229999999
 20
446.5716089999999
 30
0.0
 40
6.0
  0
LINE
  5
AC90
330
A9AD
100
AcDbEntity
  8
1
  6
Continuous
100
AcDbLine
 10
272.120223
 20
440.1534019999998
 30
0.0
 11
272.120223
 21
452.989816
 31
0.0
  0
ARC
  5
AC91
330
A9AD
100
AcDbEntity
  8
1
  6
Continuous
100
AcDbCircle
 10
225.7785439999999
 20
466.071579
 30
0.0
 40
2.0
100
AcDbArc
 50
0.000018
 51
90.0
  0
LINE
  5
AC92
330
A9AD
100
AcDbEntity
  8
1
  6
Continuous
100
AcDbLine
 10
227.7785439999999
 20
464.871599
 30
0.0
 11
227.7785439999999
 21
466.071579
 31
0.0
  0
ARC
  5
AC93
330
A9AD
100
AcDbEntity
  8
1
  6
Continuous
100
AcDbCircle
 10
263.8867399999999
 20
417.2716089999998
 30
0.0
 40
12.239545
100
AcDbArc
 50
319.106544
 51
39.207287
  0
LINE
  5
AC94
330
A9AD
100
AcDbEntity
  8
1
  6
Continuous
100
AcDbLine
 10
240.8357
 20
415.771609
 30
0.0
 11
262.8634299999998
 21
407.1202679999998
 31
0.0
  0
LINE
  5
AC95
330
A9AD
100
AcDbEntity
  8
1
  6
Continuous
100
AcDbLine
 10
239.685706
 20
415.771624
 30
0.0
 11
262.280249
 21
406.8732779999998
 31
0.0
  0
ARC
  5
AC96
330
A9AD
100
AcDbEntity
  8
1
  6
Continuous
100
AcDbCircle
 10
266.599982
 20
414.921877
 30
0.0
 40
8.650256
100
AcDbArc
 50
244.407436
 51
319.106544
  0
ARC
  5
AC97
330
A9AD
100
AcDbEntity
  8
1
  6
Continuous
100
AcDbCircle
 10
265.4499879999999
 20
414.921877
 30
0.0
 40
8.650256
100
AcDbArc
 50
248.5041559999999
 51
269.9999969999999
  0
LINE
  5
AC98
330
A9AD
100
AcDbEntity
  8
1
  6
Continuous
100
AcDbLine
 10
265.4499879999999
 20
406.271609
 30
0.0
 11
266.599982
 21
406.271609
 31
0.0
  0
ARC
  5
AC99
330
A9AD
100
AcDbEntity
  8
1
  6
Continuous
100
AcDbCircle
 10
229.2473049999999
 20
405.190722
 30
0.0
 40
14.874959
100
AcDbArc
 50
45.39152799999999
 51
87.78465799999997
  0
ARC
  5
AC9A
330
A9AD
100
AcDbEntity
  8
1
  6
Continuous
100
AcDbCircle
 10
230.397299
 20
405.190722
 30
0.0
 40
14.874959
100
AcDbArc
 50
45.39152799999999
 51
104.6257939999997
  0
ARC
  5
AC9B
330
A9AD
100
AcDbEntity
  8
1
  6
Continuous
100
AcDbCircle
 10
248.2880919999999
 20
336.6334709999998
 30
0.0
 40
85.728165
100
AcDbArc
 50
104.6257939999997
 51
111.159635
  0
LINE
  5
AC9C
330
A9AD
100
AcDbEntity
  8
1
  6
Continuous
100
AcDbLine
 10
214.854941
 20
420.919894
 30
0.0
 11
214.854941
 21
426.508212
 31
0.0
  0
LINE
  5
AC9D
330
A9AD
100
AcDbEntity
  8
1
  6
Continuous
100
AcDbLine
 10
240.8357
 20
420.919894
 30
0.0
 11
240.8357
 21
426.508212
 31
0.0
  0
LINE
  5
AC9E
330
A9AD
100
AcDbEntity
  8
1
  6
Continuous
100
AcDbLine
 10
235.779099
 20
465.89966
 30
0.0
 11
236.996543
 21
464.871599
 31
0.0
  0
LINE
  5
AC9F
330
A9AD
100
AcDbEntity
  8
1
  6
Continuous
100
AcDbLine
 10
234.243402
 20
466.103236
 30
0.0
 11
235.565271
 21
464.871599
 31
0.0
  0
LINE
  5
ACA0
330
A9AD
100
AcDbEntity
  8
1
  6
Continuous
100
AcDbLine
 10
234.24995
 20
465.0682439999997
 30
0.0
 11
234.440902
 21
464.871599
 31
0.0
  0
ARC
  5
ACA1
330
A9AD
100
AcDbEntity
  8
1
  6
Continuous
100
AcDbCircle
 10
234.488739
 20
464.371599
 30
0.0
 40
2.0
100
AcDbArc
 50
49.82084
 51
90.0
  0
LINE
  5
ACA2
330
A9AD
100
AcDbEntity
  8
1
  6
Continuous
100
AcDbLine
 10
231.6896079999999
 20
466.371599
 30
0.0
 11
231.6896079999999
 21
465.371599
 31
0.0
  0
LINE
  5
ACA3
330
A9AD
100
AcDbEntity
  8
1
  6
Continuous
100
AcDbLine
 10
231.6896079999999
 20
465.371599
 30
0.0
 11
233.532534
 21
465.371599
 31
0.0
  0
ARC
  5
ACA4
330
A9AD
100
AcDbEntity
  8
1
  6
Continuous
100
AcDbCircle
 10
233.532534
 20
464.371599
 30
0.0
 40
1.0
100
AcDbArc
 50
44.15845
 51
90.0
  0
ARC
  5
ACA5
330
A9AD
100
AcDbEntity
  8
1
  6
Continuous
100
AcDbCircle
 10
233.561707
 20
465.371599
 30
0.0
 40
1.0
100
AcDbArc
 50
47.02379599999999
 51
90.0
  0
LINE
  5
ACA6
330
A9AD
100
AcDbEntity
  8
1
  6
Continuous
100
AcDbLine
 10
231.6896079999999
 20
466.371599
 30
0.0
 11
234.488739
 21
466.371599
 31
0.0
  0
LINE
  5
ACA7
330
A9AD
100
AcDbEntity
  8
1
  6
Continuous
100
AcDbLine
 10
51.220227
 20
367.8716129999998
 30
0.0
 11
63.220227
 21
367.8716129999998
 31
0.0
  0
LINE
  5
ACA8
330
A9AD
100
AcDbEntity
  8
1
  6
Continuous
100
AcDbLine
 10
49.220227
 20
365.8716129999998
 30
0.0
 11
65.22022699999999
 21
365.8716129999998
 31
0.0
  0
LINE
  5
ACA9
330
A9AD
100
AcDbEntity
  8
1
  6
Continuous
100
AcDbLine
 10
79.32021800000002
 20
316.971607
 30
0.0
 11
35.120227
 21
316.971607
 31
0.0
  0
LINE
  5
ACAA
330
A9AD
100
AcDbEntity
  8
1
  6
Continuous
100
AcDbLine
 10
44.22017
 20
327.8716129999999
 30
0.0
 11
70.22028
 21
327.8716129999999
 31
0.0
  0
LINE
  5
ACAB
330
A9AD
100
AcDbEntity
  8
1
  6
Continuous
100
AcDbLine
 10
49.220227
 20
329.7465579999999
 30
0.0
 11
65.22022699999999
 21
329.7465579999999
 31
0.0
  0
LINE
  5
ACAC
330
A9AD
100
AcDbEntity
  8
1
  6
Continuous
100
AcDbLine
 10
75.248091
 20
322.77161
 30
0.0
 11
38.970227
 21
322.77161
 31
0.0
  0
LINE
  5
ACAD
330
A9AD
100
AcDbEntity
  8
1
  6
Continuous
100
AcDbLine
 10
79.72022700000002
 20
320.77161
 30
0.0
 11
34.720227
 21
320.77161
 31
0.0
  0
LINE
  5
ACAE
330
A9AD
100
AcDbEntity
  8
2
  6
Continuous
100
AcDbLine
 10
50.30272700000001
 20
329.7465579999999
 30
0.0
 11
50.30272700000001
 21
366.954113
 31
0.0
  0
LINE
  5
ACAF
330
A9AD
100
AcDbEntity
  8
1
  6
Continuous
100
AcDbLine
 10
49.220227
 20
327.8716129999999
 30
0.0
 11
49.220227
 21
365.8716129999998
 31
0.0
  0
ARC
  5
ACB0
330
A9AD
100
AcDbEntity
  8
1
  6
Continuous
100
AcDbCircle
 10
39.19616599999999
 20
316.775863
 30
0.0
 40
6.0
100
AcDbArc
 50
92.158028
 51
138.2442
  0
LINE
  5
ACB1
330
A9AD
100
AcDbEntity
  8
1
  6
Continuous
100
AcDbLine
 10
35.12022299999999
 20
316.9716029999999
 30
0.0
 11
34.72022299999999
 21
318.271606
 31
0.0
  0
LINE
  5
ACB2
330
A9AD
100
AcDbEntity
  8
1
  6
Continuous
100
AcDbLine
 10
34.720227
 20
320.77161
 30
0.0
 11
34.720227
 21
318.27161
 31
0.0
  0
LINE
  5
ACB3
330
A9AD
100
AcDbEntity
  8
2
  6
Continuous
100
AcDbLine
 10
50.30272700000001
 20
329.7465579999999
 30
0.0
 11
49.220227
 21
327.8716129999999
 31
0.0
  0
LINE
  5
ACB4
330
A9AD
100
AcDbEntity
  8
1
  6
Continuous
100
AcDbLine
 10
50.580697
 20
327.8716129999999
 30
0.0
 11
50.580697
 21
322.77161
 31
0.0
  0
LINE
  5
ACB5
330
A9AD
100
AcDbEntity
  8
1
  6
Continuous
100
AcDbLine
 10
44.22017
 20
327.8716129999999
 30
0.0
 11
44.22017
 21
322.77161
 31
0.0
  0
LINE
  5
ACB6
330
A9AD
100
AcDbEntity
  8
1
  6
Continuous
100
AcDbLine
 10
49.220227
 20
365.8716129999998
 30
0.0
 11
51.220227
 21
367.8716129999998
 31
0.0
  0
LINE
  5
ACB7
330
A9AD
100
AcDbEntity
  8
2
  6
Continuous
100
AcDbLine
 10
64.13772699999999
 20
329.7465579999999
 30
0.0
 11
64.13772699999999
 21
366.954113
 31
0.0
  0
LINE
  5
ACB8
330
A9AD
100
AcDbEntity
  8
1
  6
Continuous
100
AcDbLine
 10
65.22022699999999
 20
327.8716129999999
 30
0.0
 11
65.22022699999999
 21
365.8716129999998
 31
0.0
  0
LINE
  5
ACB9
330
A9AD
100
AcDbEntity
  8
2
  6
Continuous
100
AcDbLine
 10
64.13772699999999
 20
329.7465579999999
 30
0.0
 11
65.22022699999999
 21
327.8716129999999
 31
0.0
  0
LINE
  5
ACBA
330
A9AD
100
AcDbEntity
  8
1
  6
Continuous
100
AcDbLine
 10
63.85975300000001
 20
327.8716129999999
 30
0.0
 11
63.85975300000001
 21
322.77161
 31
0.0
  0
LINE
  5
ACBB
330
A9AD
100
AcDbEntity
  8
1
  6
Continuous
100
AcDbLine
 10
70.22028
 20
327.8716129999999
 30
0.0
 11
70.22028
 21
322.77161
 31
0.0
  0
ARC
  5
ACBC
330
A9AD
100
AcDbEntity
  8
1
  6
Continuous
100
AcDbCircle
 10
75.248091
 20
316.77161
 30
0.0
 40
6.0
100
AcDbArc
 50
41.810315
 51
90.0
  0
LINE
  5
ACBD
330
A9AD
100
AcDbEntity
  8
1
  6
Continuous
100
AcDbLine
 10
79.32021800000002
 20
316.9716109999999
 30
0.0
 11
79.720219
 21
318.27161
 31
0.0
  0
LINE
  5
ACBE
330
A9AD
100
AcDbEntity
  8
1
  6
Continuous
100
AcDbLine
 10
79.72022700000002
 20
320.77161
 30
0.0
 11
79.72022700000002
 21
318.27161
 31
0.0
  0
LINE
  5
ACBF
330
A9AD
100
AcDbEntity
  8
1
  6
Continuous
100
AcDbLine
 10
63.220227
 20
367.8716129999998
 30
0.0
 11
65.22022699999999
 21
365.8716129999998
 31
0.0
  0
LINE
  5
ACC0
330
A9AD
100
AcDbEntity
  8
1
  6
Continuous
100
AcDbLine
 10
252.72022
 20
327.8716129999999
 30
0.0
 11
252.72022
 21
365.8716129999998
 31
0.0
  0
LINE
  5
ACC1
330
A9AD
100
AcDbEntity
  8
1
  6
Continuous
100
AcDbLine
 10
268.7202199999999
 20
327.8716129999999
 30
0.0
 11
268.7202199999999
 21
365.8716129999998
 31
0.0
  0
LINE
  5
ACC2
330
A9AD
100
AcDbEntity
  8
2
  6
Continuous
100
AcDbLine
 10
253.80272
 20
329.7465579999999
 30
0.0
 11
253.80272
 21
366.954113
 31
0.0
  0
LINE
  5
ACC3
330
A9AD
100
AcDbEntity
  8
2
  6
Continuous
100
AcDbLine
 10
267.63772
 20
329.7465579999999
 30
0.0
 11
267.63772
 21
366.954113
 31
0.0
  0
LINE
  5
ACC4
330
A9AD
100
AcDbEntity
  8
1
  6
Continuous
100
AcDbLine
 10
252.72022
 20
329.7465579999999
 30
0.0
 11
268.7202199999999
 21
329.7465579999999
 31
0.0
  0
LINE
  5
ACC5
330
A9AD
100
AcDbEntity
  8
1
  6
Continuous
100
AcDbLine
 10
282.8202359999999
 20
316.971607
 30
0.0
 11
238.6202099999999
 21
316.971607
 31
0.0
  0
LINE
  5
ACC6
330
A9AD
100
AcDbEntity
  8
1
  6
Continuous
100
AcDbLine
 10
283.2202199999998
 20
320.7716019999998
 30
0.0
 11
238.22022
 21
320.7716019999998
 31
0.0
  0
LINE
  5
ACC7
330
A9AD
100
AcDbEntity
  8
1
  6
Continuous
100
AcDbLine
 10
278.9702869999999
 20
322.7716019999998
 30
0.0
 11
242.47022
 21
322.7716019999998
 31
0.0
  0
LINE
  5
ACC8
330
A9AD
100
AcDbEntity
  8
1
  6
Continuous
100
AcDbLine
 10
249.32022
 20
327.8716129999999
 30
0.0
 11
272.12022
 21
327.8716129999999
 31
0.0
  0
LINE
  5
ACC9
330
A9AD
100
AcDbEntity
  8
1
  6
Continuous
100
AcDbLine
 10
238.22022
 20
320.7716019999998
 30
0.0
 11
238.22022
 21
318.2716019999998
 31
0.0
  0
ARC
  5
ACCA
330
A9AD
100
AcDbEntity
  8
1
  6
Continuous
100
AcDbCircle
 10
242.6961599999999
 20
316.77586
 30
0.0
 40
6.0
100
AcDbArc
 50
92.158028
 51
138.2442
  0
LINE
  5
ACCB
330
A9AD
100
AcDbEntity
  8
1
  6
Continuous
100
AcDbLine
 10
260.7202199999999
 20
327.8716129999999
 30
0.0
 11
260.7202199999999
 21
322.7716019999998
 31
0.0
  0
LINE
  5
ACCC
330
A9AD
100
AcDbEntity
  8
1
  6
Continuous
100
AcDbLine
 10
249.32022
 20
327.8716129999999
 30
0.0
 11
249.32022
 21
322.7716019999998
 31
0.0
  0
LINE
  5
ACCD
330
A9AD
100
AcDbEntity
  8
2
  6
Continuous
100
AcDbLine
 10
253.80272
 20
329.7465579999999
 30
0.0
 11
252.72022
 21
327.8716129999999
 31
0.0
  0
LINE
  5
ACCE
330
A9AD
100
AcDbEntity
  8
1
  6
Continuous
100
AcDbLine
 10
272.12022
 20
327.8716129999999
 30
0.0
 11
272.12022
 21
322.7716019999998
 31
0.0
  0
LINE
  5
ACCF
330
A9AD
100
AcDbEntity
  8
2
  6
Continuous
100
AcDbLine
 10
267.63772
 20
329.7465579999999
 30
0.0
 11
268.7202199999999
 21
327.8716129999999
 31
0.0
  0
ARC
  5
ACD0
330
A9AD
100
AcDbEntity
  8
1
  6
Continuous
100
AcDbCircle
 10
278.7442829999998
 20
316.77586
 30
0.0
 40
6.0
100
AcDbArc
 50
41.75575999999996
 51
87.841936
  0
LINE
  5
ACD1
330
A9AD
100
AcDbEntity
  8
1
  6
Continuous
100
AcDbLine
 10
282.8202339999999
 20
316.971599
 30
0.0
 11
283.220235
 21
318.2716019999998
 31
0.0
  0
LINE
  5
ACD2
330
A9AD
100
AcDbEntity
  8
1
  6
Continuous
100
AcDbLine
 10
283.2202199999998
 20
320.7716019999998
 30
0.0
 11
283.2202199999998
 21
318.2716019999998
 31
0.0
  0
LINE
  5
ACD3
330
A9AD
100
AcDbEntity
  8
1
  6
Continuous
100
AcDbLine
 10
254.72022
 20
367.8716129999998
 30
0.0
 11
266.7202199999999
 21
367.8716129999998
 31
0.0
  0
LINE
  5
ACD4
330
A9AD
100
AcDbEntity
  8
1
  6
Continuous
100
AcDbLine
 10
252.72022
 20
365.8716129999998
 30
0.0
 11
268.7202199999999
 21
365.8716129999998
 31
0.0
  0
LINE
  5
ACD5
330
A9AD
100
AcDbEntity
  8
1
  6
Continuous
100
AcDbLine
 10
252.72022
 20
365.8716129999998
 30
0.0
 11
254.72022
 21
367.8716129999998
 31
0.0
  0
LINE
  5
ACD6
330
A9AD
100
AcDbEntity
  8
1
  6
Continuous
100
AcDbLine
 10
266.7202199999999
 20
367.8716129999998
 30
0.0
 11
268.7202199999999
 21
365.8716129999998
 31
0.0
  0
LINE
  5
ACD7
330
A9AD
100
AcDbEntity
  8
1
  6
Continuous
100
AcDbLine
 10
238.620212
 20
316.971587
 30
0.0
 11
238.22021
 21
318.27159
 31
0.0
  0
LINE
  5
ACD8
330
A9AD
100
AcDbEntity
  8
1
  6
Continuous
100
AcDbLine
 10
542.620135
 20
316.971742
 30
0.0
 11
542.220143
 21
318.271747
 31
0.0
  0
ARC
  5
ACD9
330
A9AD
100
AcDbEntity
  8
1
  6
Continuous
100
AcDbCircle
 10
221.720223
 20
238.3716089999999
 30
0.0
 40
56.24260699999999
100
AcDbArc
 50
97.27867899999999
 51
139.8100639999997
  0
ARC
  5
ACDA
330
A9AD
100
AcDbEntity
  8
1
  6
Continuous
100
AcDbCircle
 10
221.720223
 20
238.3716089999999
 30
0.0
 40
62.5
100
AcDbArc
 50
96.13685500000002
 51
50.54584000000001
  0
LINE
  5
ACDB
330
A9AD
100
AcDbEntity
  8
1
  6
Continuous
100
AcDbLine
 10
161.336365
 20
434.0716089999999
 30
0.0
 11
212.1970489999999
 21
434.0716089999999
 31
0.0
  0
LINE
  5
ACDC
330
A9AD
100
AcDbEntity
  8
1
  6
Continuous
100
AcDbLine
 10
212.7202229999999
 20
431.5716089999998
 30
0.0
 11
213.3534529999999
 21
431.5716089999998
 31
0.0
  0
LINE
  5
ACDD
330
A9AD
100
AcDbEntity
  8
1
  6
Continuous
100
AcDbLine
 10
161.336365
 20
459.0716089999999
 30
0.0
 11
212.197053
 21
459.0716089999999
 31
0.0
  0
LINE
  5
ACDE
330
A9AD
100
AcDbEntity
  8
1
  6
Continuous
100
AcDbLine
 10
218.720223
 20
225.739233
 30
0.0
 11
218.720223
 21
185.468159
 31
0.0
  0
ARC
  5
ACDF
330
A9AD
100
AcDbEntity
  8
1
  6
Continuous
100
AcDbCircle
 10
215.720223
 20
185.468159
 30
0.0
 40
3.0
100
AcDbArc
 50
263.52951
 51
0.0
  0
LINE
  5
ACE0
330
A9AD
100
AcDbEntity
  8
1
  6
Continuous
100
AcDbLine
 10
174.404494
 20
214.5179619999999
 30
0.0
 11
208.1190869999999
 21
233.983087
 31
0.0
  0
LINE
  5
ACE1
330
A9AD
100
AcDbEntity
  8
1
  6
Continuous
100
AcDbLine
 10
177.4044879999999
 20
209.3217999999999
 30
0.0
 11
212.280271
 21
229.4573419999999
 31
0.0
  0
ARC
  5
ACE2
330
A9AD
100
AcDbEntity
  8
1
  6
Continuous
100
AcDbCircle
 10
172.904488
 20
217.1160379999999
 30
0.0
 40
3.0
100
AcDbArc
 50
203.5294599999998
 51
300.00001
  0
ARC
  5
ACE3
330
A9AD
100
AcDbEntity
  8
1
  6
Continuous
100
AcDbCircle
 10
178.9044879999999
 20
206.7237299999999
 30
0.0
 40
3.0
100
AcDbArc
 50
120.0000199999999
 51
216.4704399999999
  0
LINE
  5
ACE4
330
A9AD
100
AcDbEntity
  8
1
  6
Continuous
100
AcDbLine
 10
206.9725
 20
232.1664029999999
 30
0.0
 11
208.7102649999999
 21
233.169702
 31
0.0
  0
ARC
  5
ACE5
330
A9AD
100
AcDbEntity
  8
1
  6
Continuous
100
AcDbCircle
 10
221.720223
 20
238.3716089999999
 30
0.0
 40
16.0
100
AcDbArc
 50
202.8192199999999
 51
217.1807299999999
  0
LINE
  5
ACE6
330
A9AD
100
AcDbEntity
  8
1
  6
Continuous
100
AcDbLine
 10
208.9725
 20
228.7023
 30
0.0
 11
211.4801079999999
 21
230.1500669999998
 31
0.0
  0
LINE
  5
ACE7
330
A9AD
100
AcDbEntity
  8
1
  6
Continuous
100
AcDbLine
 10
224.720223
 20
224.398415
 30
0.0
 11
224.720223
 21
185.468159
 31
0.0
  0
ARC
  5
ACE8
330
A9AD
100
AcDbEntity
  8
1
  6
Continuous
100
AcDbCircle
 10
227.7202229999998
 20
185.468159
 30
0.0
 40
3.0
100
AcDbArc
 50
179.9999799999999
 51
276.4704599999999
  0
LINE
  5
ACE9
330
A9AD
100
AcDbEntity
  8
1
  6
Continuous
100
AcDbLine
 10
260.8223729999999
 20
219.260085
 30
0.0
 11
269.035973
 21
214.5179619999999
 31
0.0
  0
LINE
  5
ACEA
330
A9AD
100
AcDbEntity
  8
1
  6
Continuous
100
AcDbLine
 10
248.413707
 20
219.496025
 30
0.0
 11
266.035973
 21
209.321808
 31
0.0
  0
ARC
  5
ACEB
330
A9AD
100
AcDbEntity
  8
1
  6
Continuous
100
AcDbCircle
 10
264.535958
 20
206.723732
 30
0.0
 40
3.0
100
AcDbArc
 50
323.5295299999999
 51
59.999995
  0
ARC
  5
ACEC
330
A9AD
100
AcDbEntity
  8
1
  6
Continuous
100
AcDbCircle
 10
270.535958
 20
217.11604
 30
0.0
 40
3.0
100
AcDbArc
 50
239.99997
 51
336.47053
  0
ARC
  5
ACED
330
A9AD
100
AcDbEntity
  8
1
  6
Continuous
100
AcDbCircle
 10
259.2202229999999
 20
446.5716089999999
 30
0.0
 40
100.0
100
AcDbArc
 50
173.5881149999999
 51
186.411904
  0
ARC
  5
ACEE
330
A9AD
100
AcDbEntity
  8
1
  6
Continuous
100
AcDbCircle
 10
212.7202229999999
 20
432.5716089999998
 30
0.0
 40
1.0
100
AcDbArc
 50
184.4115399999997
 51
270.00002
  0
LINE
  5
ACEF
330
A9AD
100
AcDbEntity
  8
1
  6
Continuous
100
AcDbLine
 10
211.7231819999997
 20
432.494697
 30
0.0
 11
211.601527
 21
434.071617
 31
0.0
  0
ARC
  5
ACF0
330
A9AD
100
AcDbEntity
  8
1
  6
Continuous
100
AcDbCircle
 10
161.336365
 20
435.5716089999998
 30
0.0
 40
1.5
100
AcDbArc
 50
186.4118629999999
 51
270.00002
  0
ARC
  5
ACF1
330
A9AD
100
AcDbEntity
  8
1
  6
Continuous
100
AcDbCircle
 10
161.336365
 20
457.5716089999998
 30
0.0
 40
1.5
100
AcDbArc
 50
90.0
 51
173.5881559999999
  0
LINE
  5
ACF2
330
A9AD
100
AcDbEntity
  8
1
  6
Continuous
100
AcDbLine
 10
177.4044879999999
 20
267.421414
 30
0.0
 11
185.618085
 21
262.6792909999999
 31
0.0
  0
LINE
  5
ACF3
330
A9AD
100
AcDbEntity
  8
1
  6
Continuous
100
AcDbLine
 10
174.4044949999999
 20
262.225258
 30
0.0
 11
192.0267459999998
 21
252.051047
 31
0.0
  0
ARC
  5
ACF4
330
A9AD
100
AcDbEntity
  8
1
  6
Continuous
100
AcDbCircle
 10
172.904488
 20
259.6271799999998
 30
0.0
 40
3.0
100
AcDbArc
 50
59.999995
 51
156.47054
  0
ARC
  5
ACF5
330
A9AD
100
AcDbEntity
  8
1
  6
Continuous
100
AcDbCircle
 10
178.9044879999999
 20
270.01949
 30
0.0
 40
3.0
100
AcDbArc
 50
143.52954
 51
239.99995
  0
LINE
  5
ACF6
330
A9AD
100
AcDbEntity
  8
1
  6
Continuous
100
AcDbLine
 10
237.171825
 20
243.828485
 30
0.0
 11
269.035973
 21
262.225256
 31
0.0
  0
LINE
  5
ACF7
330
A9AD
100
AcDbEntity
  8
1
  6
Continuous
100
AcDbLine
 10
243.267553
 20
254.276062
 30
0.0
 11
266.035973
 21
267.421414
 31
0.0
  0
ARC
  5
ACF8
330
A9AD
100
AcDbEntity
  8
1
  6
Continuous
100
AcDbCircle
 10
264.535958
 20
270.0194859999999
 30
0.0
 40
3.0
100
AcDbArc
 50
300.00001
 51
36.47047500000001
  0
ARC
  5
ACF9
330
A9AD
100
AcDbEntity
  8
1
  6
Continuous
100
AcDbCircle
 10
270.535958
 20
259.6271779999999
 30
0.0
 40
3.0
100
AcDbArc
 50
23.529474
 51
120.00003
  0
LINE
  5
ACFA
330
A9AD
100
AcDbEntity
  8
1
  6
Continuous
100
AcDbLine
 10
620.570157
 20
251.56402
 30
0.0
 11
648.0359729999999
 21
267.421414
 31
0.0
  0
LINE
  5
ACFB
330
A9AD
100
AcDbEntity
  8
1
  6
Continuous
100
AcDbLine
 10
623.5701579999997
 20
246.367864
 30
0.0
 11
651.035973
 21
262.225256
 31
0.0
  0
LINE
  5
ACFC
330
A9AD
100
AcDbEntity
  8
1
  6
Continuous
100
AcDbLine
 10
620.570158
 20
225.179199
 30
0.0
 11
648.0359729999999
 21
209.321808
 31
0.0
  0
LINE
  5
ACFD
330
A9AD
100
AcDbEntity
  8
1
  6
Continuous
100
AcDbLine
 10
623.5701579999997
 20
230.3753539999999
 30
0.0
 11
651.035973
 21
214.5179619999999
 31
0.0
  0
ARC
  5
ACFE
330
A9AD
100
AcDbEntity
  8
1
  6
Continuous
100
AcDbCircle
 10
603.720223
 20
238.3716089999999
 30
0.0
 40
62.5
100
AcDbArc
 50
129.45416
 51
83.86314500000002
  0
ARC
  5
ACFF
330
A9AD
100
AcDbEntity
  8
1
  6
Continuous
100
AcDbCircle
 10
603.720223
 20
238.3716089999999
 30
0.0
 40
56.24260699999999
100
AcDbArc
 50
130.59599
 51
82.721321
  0
LINE
  5
AD00
330
A9AD
100
AcDbEntity
  8
1
  6
Continuous
100
AcDbLine
 10
556.404495
 20
262.225258
 30
0.0
 11
583.8702919999997
 21
246.367874
 31
0.0
  0
LINE
  5
AD01
330
A9AD
100
AcDbEntity
  8
1
  6
Continuous
100
AcDbLine
 10
559.404488
 20
267.421414
 30
0.0
 11
582.1728869999997
 21
254.276071
 31
0.0
  0
LINE
  5
AD02
330
A9AD
100
AcDbEntity
  8
1
  6
Continuous
100
AcDbLine
 10
556.404494
 20
214.5179619999999
 30
0.0
 11
583.8702919999997
 21
230.3753439999999
 31
0.0
  0
ARC
  5
AD03
330
A9AD
100
AcDbEntity
  8
1
  6
Continuous
100
AcDbCircle
 10
554.904488
 20
217.1160379999999
 30
0.0
 40
3.0
100
AcDbArc
 50
203.5294599999998
 51
300.00001
  0
LINE
  5
AD04
330
A9AD
100
AcDbEntity
  8
1
  6
Continuous
100
AcDbLine
 10
606.720223
 20
217.182933
 30
0.0
 11
606.720223
 21
185.468159
 31
0.0
  0
LINE
  5
AD05
330
A9AD
100
AcDbEntity
  8
1
  6
Continuous
100
AcDbLine
 10
559.404488
 20
209.3217999999999
 30
0.0
 11
586.8702939999997
 21
225.1791899999997
 31
0.0
  0
LINE
  5
AD06
330
A9AD
100
AcDbEntity
  8
1
  6
Continuous
100
AcDbLine
 10
600.720223
 20
217.182933
 30
0.0
 11
600.720223
 21
185.468159
 31
0.0
  0
ARC
  5
AD07
330
A9AD
100
AcDbEntity
  8
1
  6
Continuous
100
AcDbCircle
 10
560.9044879999999
 20
206.7237299999999
 30
0.0
 40
3.0
100
AcDbArc
 50
120.0000199999999
 51
216.4704399999999
  0
ARC
  5
AD08
330
A9AD
100
AcDbEntity
  8
1
  6
Continuous
100
AcDbCircle
 10
597.720223
 20
185.468159
 30
0.0
 40
3.0
100
AcDbArc
 50
263.52951
 51
0.0
  0
ARC
  5
AD09
330
A9AD
100
AcDbEntity
  8
1
  6
Continuous
100
AcDbCircle
 10
609.720223
 20
185.468159
 30
0.0
 40
3.0
100
AcDbArc
 50
179.9999799999999
 51
276.4704599999999
  0
ARC
  5
AD0A
330
A9AD
100
AcDbEntity
  8
1
  6
Continuous
100
AcDbCircle
 10
554.904488
 20
259.6271799999998
 30
0.0
 40
3.0
100
AcDbArc
 50
59.999995
 51
156.47054
  0
ARC
  5
AD0B
330
A9AD
100
AcDbEntity
  8
1
  6
Continuous
100
AcDbCircle
 10
560.9044879999999
 20
270.01949
 30
0.0
 40
3.0
100
AcDbArc
 50
143.52954
 51
239.99995
  0
ARC
  5
AD0C
330
A9AD
100
AcDbEntity
  8
1
  6
Continuous
100
AcDbCircle
 10
646.5359580000002
 20
206.723732
 30
0.0
 40
3.0
100
AcDbArc
 50
323.5295299999999
 51
59.999995
  0
ARC
  5
AD0D
330
A9AD
100
AcDbEntity
  8
1
  6
Continuous
100
AcDbCircle
 10
652.5359580000001
 20
217.11604
 30
0.0
 40
3.0
100
AcDbArc
 50
239.99997
 51
336.47053
  0
ARC
  5
AD0E
330
A9AD
100
AcDbEntity
  8
1
  6
Continuous
100
AcDbCircle
 10
652.5359580000001
 20
259.6271779999999
 30
0.0
 40
3.0
100
AcDbArc
 50
23.529474
 51
120.00003
  0
ARC
  5
AD0F
330
A9AD
100
AcDbEntity
  8
1
  6
Continuous
100
AcDbCircle
 10
646.5359580000002
 20
270.0194859999999
 30
0.0
 40
3.0
100
AcDbArc
 50
300.00001
 51
36.47047500000001
  0
LINE
  5
AD10
330
A9AD
100
AcDbEntity
  8
1
  6
Continuous
100
AcDbLine
 10
44.72022299999999
 20
298.755467
 30
0.0
 11
44.72022299999999
 21
177.987751
 31
0.0
  0
LINE
  5
AD11
330
A9AD
100
AcDbEntity
  8
1
  6
Continuous
100
AcDbLine
 10
69.720223
 20
298.755467
 30
0.0
 11
69.720223
 21
177.987751
 31
0.0
  0
ARC
  5
AD12
330
A9AD
100
AcDbEntity
  8
1
  6
Continuous
100
AcDbCircle
 10
57.22022299999999
 20
275.8716089999999
 30
0.0
 40
100.0
100
AcDbArc
 50
263.5880999999999
 51
276.4118899999999
  0
ARC
  5
AD13
330
A9AD
100
AcDbEntity
  8
1
  6
Continuous
100
AcDbCircle
 10
46.220223
 20
177.987751
 30
0.0
 40
1.5
100
AcDbArc
 50
179.9999799999999
 51
263.5881499999999
  0
ARC
  5
AD14
330
A9AD
100
AcDbEntity
  8
1
  6
Continuous
100
AcDbCircle
 10
68.220223
 20
177.987751
 30
0.0
 40
1.5
100
AcDbArc
 50
276.41184
 51
0.0
  0
LINE
  5
AD15
330
A9AD
100
AcDbEntity
  8
1
  6
Continuous
100
AcDbLine
 10
72.220223
 20
247.3716089999999
 30
0.0
 11
72.220223
 21
229.988545
 31
0.0
  0
ARC
  5
AD16
330
A9AD
100
AcDbEntity
  8
1
  6
Continuous
100
AcDbCircle
 10
71.22022300000002
 20
229.3716089999997
 30
0.0
 40
1.0
100
AcDbArc
 50
274.4115199999999
 51
287.457603
  0
LINE
  5
AD17
330
A9AD
100
AcDbEntity
  8
1
  6
Continuous
100
AcDbLine
 10
69.72023799999999
 20
228.252918
 30
0.0
 11
71.29715
 21
228.374573
 31
0.0
  0
ARC
  5
AD18
330
A9AD
100
AcDbEntity
  8
1
  6
Continuous
100
AcDbCircle
 10
71.22022300000002
 20
247.3716089999999
 30
0.0
 40
1.0
100
AcDbArc
 50
0.0
 51
85.58847900000001
  0
LINE
  5
AD19
330
A9AD
100
AcDbEntity
  8
1
  6
Continuous
100
AcDbLine
 10
69.72023799999999
 20
248.4903
 30
0.0
 11
71.29715
 21
248.3686449999999
 31
0.0
  0
ARC
  5
AD1A
330
A9AD
100
AcDbEntity
  8
1
  6
Continuous
100
AcDbCircle
 10
57.22022299999999
 20
200.871609
 30
0.0
 40
100.0
100
AcDbArc
 50
83.58811499999999
 51
96.41190400000001
  0
ARC
  5
AD1B
330
A9AD
100
AcDbEntity
  8
1
  6
Continuous
100
AcDbCircle
 10
46.220223
 20
298.755467
 30
0.0
 40
1.5
100
AcDbArc
 50
96.41186300000001
 51
180.00002
  0
ARC
  5
AD1C
330
A9AD
100
AcDbEntity
  8
1
  6
Continuous
100
AcDbCircle
 10
68.220223
 20
298.755467
 30
0.0
 40
1.5
100
AcDbArc
 50
0.0
 51
83.58815600000001
  0
LINE
  5
AD1D
330
A9AD
100
AcDbEntity
  8
1
  6
Continuous
100
AcDbLine
 10
43.720223
 20
259.771609
 30
0.0
 11
43.720223
 21
216.9716089999997
 31
0.0
  0
LINE
  5
AD1E
330
A9AD
100
AcDbEntity
  8
1
  6
Continuous
100
AcDbLine
 10
43.720223
 20
259.771609
 30
0.0
 11
44.72022299999999
 21
259.771609
 31
0.0
  0
LINE
  5
AD1F
330
A9AD
100
AcDbEntity
  8
1
  6
Continuous
100
AcDbLine
 10
43.720223
 20
216.9716089999997
 30
0.0
 11
44.72022299999999
 21
216.9716089999997
 31
0.0
  0
LINE
  5
AD20
330
A9AD
100
AcDbEntity
  8
1
  6
Continuous
100
AcDbLine
 10
425.2202229999999
 20
298.755467
 30
0.0
 11
425.2202229999999
 21
177.987751
 31
0.0
  0
LINE
  5
AD21
330
A9AD
100
AcDbEntity
  8
1
  6
Continuous
100
AcDbLine
 10
400.2202229999999
 20
298.755467
 30
0.0
 11
400.2202229999999
 21
177.987751
 31
0.0
  0
ARC
  5
AD22
330
A9AD
100
AcDbEntity
  8
1
  6
Continuous
100
AcDbCircle
 10
412.7202229999999
 20
275.8716089999999
 30
0.0
 40
100.0
100
AcDbArc
 50
263.5880999999999
 51
276.4118899999999
  0
ARC
  5
AD23
330
A9AD
100
AcDbEntity
  8
1
  6
Continuous
100
AcDbCircle
 10
401.7202229999998
 20
177.987751
 30
0.0
 40
1.5
100
AcDbArc
 50
179.9999799999999
 51
263.5881499999999
  0
ARC
  5
AD24
330
A9AD
100
AcDbEntity
  8
1
  6
Continuous
100
AcDbCircle
 10
423.7202229999998
 20
177.987751
 30
0.0
 40
1.5
100
AcDbArc
 50
276.41184
 51
0.0
  0
LINE
  5
AD25
330
A9AD
100
AcDbEntity
  8
1
  6
Continuous
100
AcDbLine
 10
398.643311
 20
248.36865
 30
0.0
 11
400.220231
 21
248.4903049999998
 31
0.0
  0
ARC
  5
AD26
330
A9AD
100
AcDbEntity
  8
1
  6
Continuous
100
AcDbCircle
 10
398.7202229999999
 20
247.3716089999999
 30
0.0
 40
1.0
100
AcDbArc
 50
94.41154
 51
180.00002
  0
LINE
  5
AD27
330
A9AD
100
AcDbEntity
  8
1
  6
Continuous
100
AcDbLine
 10
398.643311
 20
228.374568
 30
0.0
 11
400.220231
 21
228.2529129999999
 31
0.0
  0
ARC
  5
AD28
330
A9AD
100
AcDbEntity
  8
1
  6
Continuous
100
AcDbCircle
 10
398.7202229999999
 20
229.3716089999997
 30
0.0
 40
1.0
100
AcDbArc
 50
252.542397
 51
265.5884599999998
  0
LINE
  5
AD29
330
A9AD
100
AcDbEntity
  8
1
  6
Continuous
100
AcDbLine
 10
397.7202229999999
 20
247.3716089999999
 30
0.0
 11
397.7202229999999
 21
229.988545
 31
0.0
  0
ARC
  5
AD2A
330
A9AD
100
AcDbEntity
  8
1
  6
Continuous
100
AcDbCircle
 10
412.7202229999999
 20
200.871609
 30
0.0
 40
100.0
100
AcDbArc
 50
83.58811499999999
 51
96.41190400000001
  0
ARC
  5
AD2B
330
A9AD
100
AcDbEntity
  8
1
  6
Continuous
100
AcDbCircle
 10
401.7202229999998
 20
298.755467
 30
0.0
 40
1.5
100
AcDbArc
 50
96.41186300000001
 51
180.00002
  0
ARC
  5
AD2C
330
A9AD
100
AcDbEntity
  8
1
  6
Continuous
100
AcDbCircle
 10
423.7202229999998
 20
298.755467
 30
0.0
 40
1.5
100
AcDbArc
 50
0.0
 51
83.58815600000001
  0
LINE
  5
AD2D
330
A9AD
100
AcDbEntity
  8
1
  6
Continuous
100
AcDbLine
 10
200.3202229999998
 20
460.0716089999998
 30
0.0
 11
212.62912
 21
460.0716089999998
 31
0.0
  0
LINE
  5
AD2E
330
A9AD
100
AcDbEntity
  8
1
  6
Continuous
100
AcDbLine
 10
200.3202229999998
 20
460.0716089999998
 30
0.0
 11
200.3202229999998
 21
459.0716089999999
 31
0.0
  0
LINE
  5
AD2F
330
A9AD
100
AcDbEntity
  8
1
  6
Continuous
100
AcDbLine
 10
426.2202229999998
 20
259.771609
 30
0.0
 11
426.2202229999998
 21
216.9716089999997
 31
0.0
  0
LINE
  5
AD30
330
A9AD
100
AcDbEntity
  8
1
  6
Continuous
100
AcDbLine
 10
426.2202229999998
 20
216.9716089999997
 30
0.0
 11
425.2202229999999
 21
216.9716089999997
 31
0.0
  0
LINE
  5
AD31
330
A9AD
100
AcDbEntity
  8
1
  6
Continuous
100
AcDbLine
 10
426.2202229999998
 20
259.771609
 30
0.0
 11
425.2202229999999
 21
259.771609
 31
0.0
  0
LINE
  5
AD32
330
A9AD
100
AcDbEntity
  8
1
  6
Continuous
100
AcDbLine
 10
161.336365
 20
61.371609
 30
0.0
 11
282.1040809999999
 21
61.371609
 31
0.0
  0
LINE
  5
AD33
330
A9AD
100
AcDbEntity
  8
1
  6
Continuous
100
AcDbLine
 10
161.336365
 20
86.37160899999996
 30
0.0
 11
282.1040809999999
 21
86.37160899999996
 31
0.0
  0
ARC
  5
AD34
330
A9AD
100
AcDbEntity
  8
1
  6
Continuous
100
AcDbCircle
 10
259.2202229999999
 20
73.87160899999997
 30
0.0
 40
100.0
100
AcDbArc
 50
173.5881149999999
 51
186.411904
  0
ARC
  5
AD35
330
A9AD
100
AcDbEntity
  8
1
  6
Continuous
100
AcDbCircle
 10
161.336365
 20
62.87160899999999
 30
0.0
 40
1.5
100
AcDbArc
 50
186.4118629999999
 51
270.00002
  0
ARC
  5
AD36
330
A9AD
100
AcDbEntity
  8
1
  6
Continuous
100
AcDbCircle
 10
161.336365
 20
84.87160899999997
 30
0.0
 40
1.5
100
AcDbArc
 50
90.0
 51
173.5881559999999
  0
ARC
  5
AD37
330
A9AD
100
AcDbEntity
  8
1
  6
Continuous
100
AcDbCircle
 10
230.720223
 20
87.87160899999998
 30
0.0
 40
1.0
100
AcDbArc
 50
4.411519999999998
 51
90.0
  0
ARC
  5
AD38
330
A9AD
100
AcDbEntity
  8
1
  6
Continuous
100
AcDbCircle
 10
212.7202229999999
 20
87.87160899999998
 30
0.0
 40
1.0
100
AcDbArc
 50
90.0
 51
175.588479
  0
LINE
  5
AD39
330
A9AD
100
AcDbEntity
  8
1
  6
Continuous
100
AcDbLine
 10
211.6015319999999
 20
86.37162399999999
 30
0.0
 11
211.723187
 21
87.94853600000001
 31
0.0
  0
LINE
  5
AD3A
330
A9AD
100
AcDbEntity
  8
1
  6
Continuous
100
AcDbLine
 10
231.8389139999999
 20
86.37162399999999
 30
0.0
 11
231.7172589999999
 21
87.94853600000001
 31
0.0
  0
LINE
  5
AD3B
330
A9AD
100
AcDbEntity
  8
1
  6
Continuous
100
AcDbLine
 10
212.7202229999999
 20
88.87160899999996
 30
0.0
 11
230.720223
 21
88.87160899999996
 31
0.0
  0
ARC
  5
AD3C
330
A9AD
100
AcDbEntity
  8
1
  6
Continuous
100
AcDbCircle
 10
184.220223
 20
73.87160899999997
 30
0.0
 40
100.0
100
AcDbArc
 50
353.5880999999998
 51
6.411889999999998
  0
ARC
  5
AD3D
330
A9AD
100
AcDbEntity
  8
1
  6
Continuous
100
AcDbCircle
 10
282.1040809999999
 20
62.87160899999999
 30
0.0
 40
1.5
100
AcDbArc
 50
269.99998
 51
353.5881499999999
  0
ARC
  5
AD3E
330
A9AD
100
AcDbEntity
  8
1
  6
Continuous
100
AcDbCircle
 10
282.1040809999999
 20
84.87160899999997
 30
0.0
 40
1.5
100
AcDbArc
 50
6.411839999999997
 51
90.0
  0
LINE
  5
AD3F
330
A9AD
100
AcDbEntity
  8
1
  6
Continuous
100
AcDbLine
 10
200.3202229999998
 20
60.37160899999999
 30
0.0
 11
243.120223
 21
60.37160899999999
 31
0.0
  0
LINE
  5
AD40
330
A9AD
100
AcDbEntity
  8
1
  6
Continuous
100
AcDbLine
 10
200.3202229999998
 20
61.371609
 30
0.0
 11
200.3202229999998
 21
60.37160899999999
 31
0.0
  0
LINE
  5
AD41
330
A9AD
100
AcDbEntity
  8
1
  6
Continuous
100
AcDbLine
 10
243.120223
 20
61.371609
 30
0.0
 11
243.120223
 21
60.37160899999999
 31
0.0
  0
ARC
  5
AD42
330
A9AD
100
AcDbEntity
  8
1
  6
Continuous
100
AcDbCircle
 10
221.720223
 20
238.3716089999999
 30
0.0
 40
56.24260699999999
100
AcDbArc
 50
340.1899509999998
 51
49.40401000000001
  0
ARC
  5
AD43
330
A9AD
100
AcDbEntity
  8
1
  6
Continuous
100
AcDbCircle
 10
221.720223
 20
238.3716089999999
 30
0.0
 40
56.24260699999999
100
AcDbArc
 50
142.182516
 51
337.817489
  0
LINE
  5
AD5E
330
A9AD
100
AcDbEntity
  8
4
  6
CENTER
100
AcDbLine
 10
260.7202229999999
 20
43.87160899999996
 30
0.0
 11
260.7202229999999
 21
103.8716089999999
 31
0.0
  0
LINE
  5
AD5F
330
A9AD
100
AcDbEntity
  8
4
  6
CENTER
100
AcDbLine
 10
221.720223
 20
47.37163899999996
 30
0.0
 11
221.720223
 21
111.0736089999999
 31
0.0
  0
LINE
  5
ADA7
330
A9AD
100
AcDbEntity
  8
4
  6
CENTER
100
AcDbLine
 10
154.2202229999999
 20
73.87160899999997
 30
0.0
 11
290.7202229999999
 21
73.87160899999997
 31
0.0
  0
ARC
  5
AE87
330
A9AD
100
AcDbEntity
  8
1
  6
Continuous
100
AcDbCircle
 10
263.1953049782818
 20
102.7676715292126
 30
0.0
 40
10.62878937746548
100
AcDbArc
 50
283.8884776963288
 51
0.6944990908541872
  0
ARC
  5
AE88
330
A9AD
100
AcDbEntity
  8
1
  6
Continuous
100
AcDbCircle
 10
264.3447264347269
 20
102.7427774549264
 30
0.0
 40
10.62878937746548
100
AcDbArc
 50
275.9687340564231
 51
0.6944990908541872
  0
ARC
  5
AE89
330
A9AD
100
AcDbEntity
  8
1
  6
Continuous
100
AcDbCircle
 10
189.5039055631047
 20
103.1715132718556
 30
0.0
 40
12.239545
100
AcDbArc
 50
139.106546000001
 51
220.893458
  0
ARC
  5
AEB2
330
A9AD
100
AcDbEntity
  8
1
  6
Continuous
100
AcDbCircle
 10
186.7906645631046
 20
100.8217672718556
 30
0.0
 40
8.650256
100
AcDbArc
 50
220.893458
 51
257.1060453520316
  0
ARC
  5
AF14
330
A9AD
100
AcDbEntity
  8
1
  6
Continuous
100
AcDbCircle
 10
261.5874464161795
 20
103.1965030355274
 30
0.0
 40
12.239545
100
AcDbArc
 50
358.595499
 51
40.89345600000036
  0
ARC
  5
AF15
330
A9AD
100
AcDbEntity
  8
1
  6
Continuous
100
AcDbCircle
 10
265.4501098726248
 20
105.5213409612414
 30
0.0
 40
8.650256
100
AcDbArc
 50
40.89345600000036
 51
93.8553815421849
  0
ARC
  5
AF16
330
A9AD
100
AcDbEntity
  8
1
  6
Continuous
100
AcDbCircle
 10
262.7368678726247
 20
103.1716089612412
 30
0.0
 40
12.239545
100
AcDbArc
 50
358.595499
 51
40.89345600000036
  0
ARC
  5
AF1A
330
A9AD
100
AcDbEntity
  8
1
  6
Continuous
100
AcDbCircle
 10
186.7906645631046
 20
105.5212452718558
 30
0.0
 40
8.650256
100
AcDbArc
 50
90.00000299999769
 51
139.106542
  0
ARC
  5
AF1B
330
A9AD
100
AcDbEntity
  8
1
  6
Continuous
100
AcDbCircle
 10
186.7836250586855
 20
105.8127422135483
 30
0.0
 40
8.358949320740899
100
AcDbArc
 50
68.4238508110107
 51
89.2309987698994
  0
LINE
  5
AF1C
330
A9AD
100
AcDbEntity
  8
1
  6
Continuous
100
AcDbLine
 10
186.7906641101782
 20
114.1715012718558
 30
0.0
 11
187.6898653481177
 21
114.1666899274689
 31
0.0
  0
ARC
  5
AF1D
330
A9AD
100
AcDbEntity
  8
1
  6
Continuous
100
AcDbCircle
 10
187.8857790839495
 20
105.5186527701916
 30
0.0
 40
8.650256
100
AcDbArc
 50
68.84036300000133
 51
91.29776391275456
  0
ARC
  5
AF2C
330
A9AD
100
AcDbEntity
  8
1
  6
Continuous
100
AcDbCircle
 10
264.2235561666784
 20
105.2634164452069
 30
0.0
 40
8.895220182114456
100
AcDbArc
 50
41.94537922597215
 51
96.06141180054793
  0
LINE
  5
AF2D
330
A9AD
100
AcDbEntity
  8
1
  6
Continuous
100
AcDbLine
 10
264.2235561666784
 20
114.1586366273214
 30
0.0
 11
264.8684810664741
 21
114.1520209343021
 31
0.0
  0
ARC
  5
AF2E
330
A9AD
100
AcDbEntity
  8
1
  6
Continuous
100
AcDbCircle
 10
264.3296486431173
 20
105.7243385153107
 30
0.0
 40
8.449484382022237
100
AcDbArc
 50
97.10689421820914
 51
111.5037042396813
  0
ENDSEC
  0
SECTION
  2
OBJECTS
  0
DICTIONARY
  5
A99B
330
0
100
AcDbDictionary
281
     1
  3
ACAD_CIP_PREVIOUS_PRODUCT_INFO
350
AF92
  3
ACAD_COLOR
350
AF74
  3
ACAD_DETAILVIEWSTYLE
350
AF8D
  3
ACAD_GROUP
350
A99C
  3
ACAD_LAYOUT
350
A9A8
  3
ACAD_MATERIAL
350
AF42
  3
ACAD_MLEADERSTYLE
350
AF89
  3
ACAD_MLINESTYLE
350
A9A5
  3
ACAD_PLOTSETTINGS
350
A9A7
  3
ACAD_PLOTSTYLENAME
350
AF40
  3
ACAD_SCALELIST
350
AF77
  3
ACAD_SECTIONVIEWSTYLE
350
AF8B
  3
ACAD_TABLESTYLE
350
AF75
  3
ACAD_VISUALSTYLE
350
AF5B
  3
ACDB_RECOMPOSE_DATA
350
AFB0
  3
AcDbVariableDictionary
350
AFA3
  3
DWGPROPS
350
AFB1
  0
DICTIONARY
  5
AF93
330
A99F
100
AcDbDictionary
280
     1
281
     1
  3
ADSK_XREC_LAYER_RECONCILED
360
AF94
  0
DICTIONARY
  5
AF95
330
A9B5
100
AcDbDictionary
280
     1
281
     1
  3
ADSK_XREC_LAYER_RECONCILED
360
AF96
  0
DICTIONARY
  5
AF97
330
A9B6
100
AcDbDictionary
280
     1
281
     1
  3
ADSK_XREC_LAYER_RECONCILED
360
AF98
  0
DICTIONARY
  5
AF99
330
A9B7
100
AcDbDictionary
280
     1
281
     1
  3
ADSK_XREC_LAYER_RECONCILED
360
AF9A
  0
DICTIONARY
  5
AF9B
330
A9B8
100
AcDbDictionary
280
     1
281
     1
  3
ADSK_XREC_LAYER_RECONCILED
360
AF9C
  0
DICTIONARY
  5
AF9D
330
A9B9
100
AcDbDictionary
280
     1
281
     1
  3
ADSK_XREC_LAYER_RECONCILED
360
AF9E
  0
DICTIONARY
  5
AF9F
330
A9BA
100
AcDbDictionary
280
     1
281
     1
  3
ADSK_XREC_LAYER_RECONCILED
360
AFA0
  0
DICTIONARY
  5
AFA1
330
A9BB
100
AcDbDictionary
280
     1
281
     1
  3
ADSK_XREC_LAYER_RECONCILED
360
AFA2
  0
DICTIONARY
  5
AD4E
330
A9AD
100
AcDbDictionary
281
     1
  3
ACAD_LAYOUTSELFREF
350
AF3C
  0
DICTIONARY
  5
AD4C
330
A9A9
100
AcDbDictionary
281
     1
  3
ACAD_LAYOUTSELFREF
350
AF3B
  0
XRECORD
  5
AF92
102
{ACAD_REACTORS
330
A99B
102
}
330
A99B
100
AcDbXrecord
280
     1
300
ACDLT
300
2014
300
ACDLT_F_S
  0
DICTIONARY
  5
AF74
102
{ACAD_REACTORS
330
A99B
102
}
330
A99B
100
AcDbDictionary
281
     1
  0
DICTIONARY
  5
AF8D
102
{ACAD_REACTORS
330
A99B
102
}
330
A99B
100
AcDbDictionary
281
     1
  3
Imperial24
350
AF8E
  0
DICTIONARY
  5
A99C
102
{ACAD_REACTORS
330
A99B
102
}
330
A99B
100
AcDbDictionary
281
     1
  0
DICTIONARY
  5
A9A8
102
{ACAD_REACTORS
330
A99B
102
}
330
A99B
100
AcDbDictionary
281
     1
  3
Model
350
AF8F
  3
レイアウト1
350
AF90
  0
DICTIONARY
  5
AF42
102
{ACAD_REACTORS
330
A99B
102
}
330
A99B
100
AcDbDictionary
281
     1
  3
ByBlock
350
AF4B
  3
ByLayer
350
AF43
  3
Global
350
AF53
  0
DICTIONARY
  5
AF89
102
{ACAD_REACTORS
330
A99B
102
}
330
A99B
100
AcDbDictionary
281
     1
  3
Standard
350
AF8A
  0
DICTIONARY
  5
A9A5
102
{ACAD_REACTORS
330
A99B
102
}
330
A99B
100
AcDbDictionary
281
     1
  3
STANDARD
350
A9A6
  0
DICTIONARY
  5
A9A7
102
{ACAD_REACTORS
330
A99B
102
}
330
A99B
100
AcDbDictionary
281
     1
  0
ACDBDICTIONARYWDFLT
  5
AF40
102
{ACAD_REACTORS
330
A99B
102
}
330
A99B
100
AcDbDictionary
281
     1
  3
Normal
350
AF41
100
AcDbDictionaryWithDefault
340
AF41
  0
DICTIONARY
  5
AF77
102
{ACAD_REACTORS
330
A99B
102
}
330
A99B
100
AcDbDictionary
281
     1
  3
A0
350
AF78
  3
A1
350
AF79
  3
A2
350
AF7A
  3
A3
350
AF7B
  3
A4
350
AF7C
  3
A5
350
AF7D
  3
A6
350
AF7E
  3
A7
350
AF7F
  3
A8
350
AF80
  3
A9
350
AF81
  3
B0
350
AF82
  3
B1
350
AF83
  3
B2
350
AF84
  3
B3
350
AF85
  3
B4
350
AF86
  3
B5
350
AF87
  3
B6
350
AF88
  0
DICTIONARY
  5
AF8B
102
{ACAD_REACTORS
330
A99B
102
}
330
A99B
100
AcDbDictionary
281
     1
  3
Imperial24
350
AF8C
  0
DICTIONARY
  5
AF75
102
{ACAD_REACTORS
330
A99B
102
}
330
A99B
100
AcDbDictionary
281
     1
  3
Standard
350
AF76
  0
DICTIONARY
  5
AF5B
102
{ACAD_REACTORS
330
A99B
102
}
330
A99B
100
AcDbDictionary
281
     1
  3
2dWireframe
350
AF61
  3
Basic
350
AF60
  3
Brighten
350
AF67
  3
ColorChange
350
AF6B
  3
Conceptual
350
AF64
  3
Dim
350
AF66
  3
EdgeColorOff
350
AF73
  3
Facepattern
350
AF6A
  3
Flat
350
AF5C
  3
FlatWithEdges
350
AF5D
  3
Gouraud
350
AF5E
  3
GouraudWithEdges
350
AF5F
  3
Hidden
350
AF63
  3
JitterOff
350
AF71
  3
Linepattern
350
AF69
  3
OverhangOff
350
AF72
  3
Realistic
350
AF65
  3
Shaded
350
AF70
  3
Shaded with edges
350
AF6F
  3
Shades of Gray
350
AF6C
  3
Sketchy
350
AF6D
  3
Thicken
350
AF68
  3
Wireframe
350
AF62
  3
X-Ray
350
AF6E
  0
XRECORD
  5
AFB0
102
{ACAD_REACTORS
330
A99B
102
}
330
A99B
100
AcDbXrecord
280
     1
 90
        1
330
AF76
  0
DICTIONARY
  5
AFA3
102
{ACAD_REACTORS
330
A99B
102
}
330
A99B
100
AcDbDictionary
281
     1
  3
CANNOSCALE
350
AFA8
  3
CMLEADERSTYLE
350
AFA5
  3
CTABLESTYLE
350
AFA4
  3
CVIEWDETAILSTYLE
350
AFA6
  3
CVIEWSECTIONSTYLE
350
AFA7
  3
DIMASSOC
350
AFAB
  3
INDEXCTL
350
AFAA
  3
SORTENTS
350
AFA9
  3
XCLIPFRAME
350
AFAC
  0
XRECORD
  5
AFB1
102
{ACAD_REACTORS
330
A99B
102
}
330
A99B
100
AcDbXrecord
280
     1
  1
DWGPROPS COOKIE
  2

  3

  4

  6

  7

  8
Yoshitsune
  9

300
=
301
=
302
=
303
=
304
=
305
=
306
=
307
=
308
=
309
=
 40
0.0270702083333333
 41
2451301.425023495
 42
2457192.689823623
  1

 90
        0
  0
XRECORD
  5
AF94
102
{ACAD_REACTORS
330
AF93
102
}
330
AF93
100
AcDbXrecord
280
     1
290
     1
  0
XRECORD
  5
AF96
102
{ACAD_REACTORS
330
AF95
102
}
330
AF95
100
AcDbXrecord
280
     1
290
     1
  0
XRECORD
  5
AF98
102
{ACAD_REACTORS
330
AF97
102
}
330
AF97
100
AcDbXrecord
280
     1
290
     1
  0
XRECORD
  5
AF9A
102
{ACAD_REACTORS
330
AF99
102
}
330
AF99
100
AcDbXrecord
280
     1
290
     1
  0
XRECORD
  5
AF9C
102
{ACAD_REACTORS
330
AF9B
102
}
330
AF9B
100
AcDbXrecord
280
     1
290
     1
  0
XRECORD
  5
AF9E
102
{ACAD_REACTORS
330
AF9D
102
}
330
AF9D
100
AcDbXrecord
280
     1
290
     1
  0
XRECORD
  5
AFA0
102
{ACAD_REACTORS
330
AF9F
102
}
330
AF9F
100
AcDbXrecord
280
     1
290
     1
  0
XRECORD
  5
AFA2
102
{ACAD_REACTORS
330
AFA1
102
}
330
AFA1
100
AcDbXrecord
280
     1
290
     1
  0
XRECORD
  5
AF3C
102
{ACAD_REACTORS
330
AD4E
102
}
330
AD4E
100
AcDbXrecord
280
     1
340
A9AD
  0
XRECORD
  5
AF3B
102
{ACAD_REACTORS
330
AD4C
102
}
330
AD4C
100
AcDbXrecord
280
     1
340
A9A9
  0
ACDBDETAILVIEWSTYLE
  5
AF8E
102
{ACAD_XDICTIONARY
360
AFE9
102
}
102
{ACAD_REACTORS
330
AF8D
102
}
330
AF8D
100
AcDbModelDocViewStyle
 70
     0
  3
Imperial24
290
     0
100
AcDbDetailViewStyle
 70
     0
 71
     0
 90
        3
 71
     1
340
A9A0
 40
0.24
340
0
 40
0.24
300

 40
0.36
280
     3
 71
     2
340
A9A4
 90
       25
 71
     3
340
A9A0
 40
0.24
 90
        1
 40
0.75
 90
        1
300
%<\AcVar ViewType \f "%tc1">% %<\AcVar ViewDetailId>%\PSCALE %<\AcVar ViewScale \f "%sn">%
 71
     4
340
A9A4
 90
       25
340
A9A4
 90
       25
280
     0
  0
LAYOUT
  5
AF8F
102
{ACAD_XDICTIONARY
360
AFEB
102
}
102
{ACAD_REACTORS
330
A9A8
102
}
330
A9A8
100
AcDbPlotSettings
  1

  2
Canon LBP9100C
  4

  6

 40
0.0
 41
0.0
 42
0.0
 43
0.0
 44
0.0
 45
0.0
 46
0.0
 47
0.0
 48
0.0
 49
0.0
140
0.0
141
0.0
142
1.0
143
1.0
 70
  1712
 72
     0
 73
     0
 74
     0
  7

 75
     0
147
1.0
148
0.0
149
0.0
100
AcDbLayout
  1
Model
 70
     1
 71
     0
 10
0.0
 20
0.0
 11
12.0
 21
9.0
 12
0.0
 22
0.0
 32
0.0
 14
0.0
 24
0.0
 34
0.0
 15
0.0
 25
0.0
 35
0.0
146
0.0
 13
0.0
 23
0.0
 33
0.0
 16
1.0
 26
0.0
 36
0.0
 17
0.0
 27
1.0
 37
0.0
 76
     0
330
A9AD
331
AF3A
  0
LAYOUT
  5
AF90
102
{ACAD_XDICTIONARY
360
AFED
102
}
102
{ACAD_REACTORS
330
A9A8
102
}
330
A9A8
100
AcDbPlotSettings
  1

  2
Canon LBP9100C
  4

  6

 40
0.0
 41
0.0
 42
0.0
 43
0.0
 44
0.0
 45
0.0
 46
0.0
 47
0.0
 48
0.0
 49
0.0
140
0.0
141
0.0
142
1.0
143
1.0
 70
   688
 72
     0
 73
     0
 74
     5
  7

 75
    16
147
1.0
148
0.0
149
0.0
100
AcDbLayout
  1
レイアウト1
 70
     0
 71
     1
 10
0.0
 20
0.0
 11
420.0
 21
297.0
 12
0.0
 22
0.0
 32
0.0
 14
1.000000000000000E+20
 24
1.000000000000000E+20
 34
1.000000000000000E+20
 15
-1.000000000000000E+20
 25
-1.000000000000000E+20
 35
-1.000000000000000E+20
146
0.0
 13
0.0
 23
0.0
 33
0.0
 16
1.0
 26
0.0
 36
0.0
 17
0.0
 27
1.0
 37
0.0
 76
     0
330
A9A9
  0
MATERIAL
  5
AF4B
102
{ACAD_XDICTIONARY
360
AF4C
102
}
102
{ACAD_REACTORS
330
AF42
102
}
330
AF42
100
AcDbMaterial
  1
ByBlock
 72
     0
 43
0.0208333333333333
 43
0.0
 43
0.0
 43
0.0
 43
0.0
 43
0.0208333333333333
 43
0.0
 43
0.0
 43
0.0
 43
0.0
 43
1.0
 43
0.0
 43
0.0
 43
0.0
 43
0.0
 43
1.0
 77
     0
 47
0.0208333333333333
 47
0.0
 47
0.0
 47
0.0
 47
0.0
 47
0.0208333333333333
 47
0.0
 47
0.0
 47
0.0
 47
0.0
 47
1.0
 47
0.0
 47
0.0
 47
0.0
 47
0.0
 47
1.0
171
     0
 49
0.0208333333333333
 49
0.0
 49
0.0
 49
0.0
 49
0.0
 49
0.0208333333333333
 49
0.0
 49
0.0
 49
0.0
 49
0.0
 49
1.0
 49
0.0
 49
0.0
 49
0.0
 49
0.0
 49
1.0
175
     0
142
0.0208333333333333
142
0.0
142
0.0
142
0.0
142
0.0
142
0.0208333333333333
142
0.0
142
0.0
142
0.0
142
0.0
142
1.0
142
0.0
142
0.0
142
0.0
142
0.0
142
1.0
179
     0
144
0.0208333333333333
144
0.0
144
0.0
144
0.0
144
0.0
144
0.0208333333333333
144
0.0
144
0.0
144
0.0
144
0.0
144
1.0
144
0.0
144
0.0
144
0.0
144
0.0
144
1.0
147
0.0208333333333333
147
0.0
147
0.0
147
0.0
147
0.0
147
0.0208333333333333
147
0.0
147
0.0
147
0.0
147
0.0
147
1.0
147
0.0
147
0.0
147
0.0
147
0.0
147
1.0
  0
MATERIAL
  5
AF43
102
{ACAD_XDICTIONARY
360
AF44
102
}
102
{ACAD_REACTORS
330
AF42
102
}
330
AF42
100
AcDbMaterial
  1
ByLayer
 72
     0
 43
0.0208333333333333
 43
0.0
 43
0.0
 43
0.0
 43
0.0
 43
0.0208333333333333
 43
0.0
 43
0.0
 43
0.0
 43
0.0
 43
1.0
 43
0.0
 43
0.0
 43
0.0
 43
0.0
 43
1.0
 77
     0
 47
0.0208333333333333
 47
0.0
 47
0.0
 47
0.0
 47
0.0
 47
0.0208333333333333
 47
0.0
 47
0.0
 47
0.0
 47
0.0
 47
1.0
 47
0.0
 47
0.0
 47
0.0
 47
0.0
 47
1.0
171
     0
 49
0.0208333333333333
 49
0.0
 49
0.0
 49
0.0
 49
0.0
 49
0.0208333333333333
 49
0.0
 49
0.0
 49
0.0
 49
0.0
 49
1.0
 49
0.0
 49
0.0
 49
0.0
 49
0.0
 49
1.0
175
     0
142
0.0208333333333333
142
0.0
142
0.0
142
0.0
142
0.0
142
0.0208333333333333
142
0.0
142
0.0
142
0.0
142
0.0
142
1.0
142
0.0
142
0.0
142
0.0
142
0.0
142
1.0
179
     0
144
0.0208333333333333
144
0.0
144
0.0
144
0.0
144
0.0
144
0.0208333333333333
144
0.0
144
0.0
144
0.0
144
0.0
144
1.0
144
0.0
144
0.0
144
0.0
144
0.0
144
1.0
147
0.0208333333333333
147
0.0
147
0.0
147
0.0
147
0.0
147
0.0208333333333333
147
0.0
147
0.0
147
0.0
147
0.0
147
1.0
147
0.0
147
0.0
147
0.0
147
0.0
147
1.0
  0
MATERIAL
  5
AF53
102
{ACAD_XDICTIONARY
360
AF54
102
}
102
{ACAD_REACTORS
330
AF42
102
}
330
AF42
100
AcDbMaterial
  1
Global
 72
     0
 43
0.0208333333333333
 43
0.0
 43
0.0
 43
0.0
 43
0.0
 43
0.0208333333333333
 43
0.0
 43
0.0
 43
0.0
 43
0.0
 43
1.0
 43
0.0
 43
0.0
 43
0.0
 43
0.0
 43
1.0
 77
     0
 47
0.0208333333333333
 47
0.0
 47
0.0
 47
0.0
 47
0.0
 47
0.0208333333333333
 47
0.0
 47
0.0
 47
0.0
 47
0.0
 47
1.0
 47
0.0
 47
0.0
 47
0.0
 47
0.0
 47
1.0
171
     0
 49
0.0208333333333333
 49
0.0
 49
0.0
 49
0.0
 49
0.0
 49
0.0208333333333333
 49
0.0
 49
0.0
 49
0.0
 49
0.0
 49
1.0
 49
0.0
 49
0.0
 49
0.0
 49
0.0
 49
1.0
175
     0
142
0.0208333333333333
142
0.0
142
0.0
142
0.0
142
0.0
142
0.0208333333333333
142
0.0
142
0.0
142
0.0
142
0.0
142
1.0
142
0.0
142
0.0
142
0.0
142
0.0
142
1.0
179
     0
144
0.0208333333333333
144
0.0
144
0.0
144
0.0
144
0.0
144
0.0208333333333333
144
0.0
144
0.0
144
0.0
144
0.0
144
1.0
144
0.0
144
0.0
144
0.0
144
0.0
144
1.0
147
0.0208333333333333
147
0.0
147
0.0
147
0.0
147
0.0
147
0.0208333333333333
147
0.0
147
0.0
147
0.0
147
0.0
147
1.0
147
0.0
147
0.0
147
0.0
147
0.0
147
1.0
  0
MLEADERSTYLE
  5
AF8A
102
{ACAD_REACTORS
330
AF89
102
}
330
AF89
100
AcDbMLeaderStyle
170
     2
171
     1
172
     0
 90
        2
 40
0.0
 41
0.0
173
     1
 91
-1056964608
340
A9A2
 92
       -2
290
     1
 42
0.09
291
     1
 43
0.36
  3
Standard
 44
0.18
300

342
A9A0
174
     1
178
     6
175
     1
176
     0
 93
-1056964608
 45
0.18
292
     0
297
     0
 46
0.18
 94
-1056964608
 47
1.0
 49
1.0
140
1.0
293
     1
141
0.0
294
     1
177
     0
142
1.0
295
     0
296
     0
143
0.125
1001
ACAD_MLEADERVER
1070
     2
  0
MLINESTYLE
  5
A9A6
102
{ACAD_REACTORS
330
A9A5
102
}
330
A9A5
100
AcDbMlineStyle
  2
STANDARD
 70
     0
  3

 62
   256
 51
90.0
 52
90.0
 71
     2
 49
0.5
 62
   256
  6
BYLAYER
 49
-0.5
 62
   256
  6
BYLAYER
  0
ACDBPLACEHOLDER
  5
AF41
102
{ACAD_REACTORS
330
AF40
102
}
330
AF40
  0
SCALE
  5
AF78
102
{ACAD_REACTORS
330
AF77
102
}
330
AF77
100
AcDbScale
 70
     0
300
1:1
140
1.0
141
1.0
290
     1
  0
SCALE
  5
AF79
102
{ACAD_REACTORS
330
AF77
102
}
330
AF77
100
AcDbScale
 70
     0
300
1/128" = 1'-0"
140
0.0078125
141
12.0
290
     0
  0
SCALE
  5
AF7A
102
{ACAD_REACTORS
330
AF77
102
}
330
AF77
100
AcDbScale
 70
     0
300
1/64" = 1'-0"
140
0.015625
141
12.0
290
     0
  0
SCALE
  5
AF7B
102
{ACAD_REACTORS
330
AF77
102
}
330
AF77
100
AcDbScale
 70
     0
300
1/32" = 1'-0"
140
0.03125
141
12.0
290
     0
  0
SCALE
  5
AF7C
102
{ACAD_REACTORS
330
AF77
102
}
330
AF77
100
AcDbScale
 70
     0
300
1/16" = 1'-0"
140
0.0625
141
12.0
290
     0
  0
SCALE
  5
AF7D
102
{ACAD_REACTORS
330
AF77
102
}
330
AF77
100
AcDbScale
 70
     0
300
3/32" = 1'-0"
140
0.09375
141
12.0
290
     0
  0
SCALE
  5
AF7E
102
{ACAD_REACTORS
330
AF77
102
}
330
AF77
100
AcDbScale
 70
     0
300
1/8" = 1'-0"
140
0.125
141
12.0
290
     0
  0
SCALE
  5
AF7F
102
{ACAD_REACTORS
330
AF77
102
}
330
AF77
100
AcDbScale
 70
     0
300
3/16" = 1'-0"
140
0.1875
141
12.0
290
     0
  0
SCALE
  5
AF80
102
{ACAD_REACTORS
330
AF77
102
}
330
AF77
100
AcDbScale
 70
     0
300
1/4" = 1'-0"
140
0.25
141
12.0
290
     0
  0
SCALE
  5
AF81
102
{ACAD_REACTORS
330
AF77
102
}
330
AF77
100
AcDbScale
 70
     0
300
3/8" = 1'-0"
140
0.375
141
12.0
290
     0
  0
SCALE
  5
AF82
102
{ACAD_REACTORS
330
AF77
102
}
330
AF77
100
AcDbScale
 70
     0
300
1/2" = 1'-0"
140
0.5
141
12.0
290
     0
  0
SCALE
  5
AF83
102
{ACAD_REACTORS
330
AF77
102
}
330
AF77
100
AcDbScale
 70
     0
300
3/4" = 1'-0"
140
0.75
141
12.0
290
     0
  0
SCALE
  5
AF84
102
{ACAD_REACTORS
330
AF77
102
}
330
AF77
100
AcDbScale
 70
     0
300
1" = 1'-0"
140
1.0
141
12.0
290
     0
  0
SCALE
  5
AF85
102
{ACAD_REACTORS
330
AF77
102
}
330
AF77
100
AcDbScale
 70
     0
300
1-1/2" = 1'-0"
140
1.5
141
12.0
290
     0
  0
SCALE
  5
AF86
102
{ACAD_REACTORS
330
AF77
102
}
330
AF77
100
AcDbScale
 70
     0
300
3" = 1'-0"
140
3.0
141
12.0
290
     0
  0
SCALE
  5
AF87
102
{ACAD_REACTORS
330
AF77
102
}
330
AF77
100
AcDbScale
 70
     0
300
6" = 1'-0"
140
6.0
141
12.0
290
     0
  0
SCALE
  5
AF88
102
{ACAD_REACTORS
330
AF77
102
}
330
AF77
100
AcDbScale
 70
     0
300
1'-0" = 1'-0"
140
12.0
141
12.0
290
     0
  0
ACDBSECTIONVIEWSTYLE
  5
AF8C
102
{ACAD_XDICTIONARY
360
AFE7
102
}
102
{ACAD_REACTORS
330
AF8B
102
}
330
AF8B
100
AcDbModelDocViewStyle
 70
     0
  3
Imperial24
290
     0
100
AcDbSectionViewStyle
 70
     0
 71
     0
 90
       78
 71
     1
340
A9A0
 40
0.24
340
0
340
0
 40
0.24
300
I, O, Q, S, X, Z
 40
0.48
 90
        3
 40
0.18
 90
        1
 71
     2
340
A9A4
 90
       25
340
A9A4
 90
       50
 40
0.24
 40
0.0
 40
0.24
 71
     3
340
A9A0
 40
0.24
 90
        1
 40
0.75
 90
        1
300
%<\AcVar ViewType \f "%tc1">% %<\AcVar ViewSectionStartId>%-%<\AcVar ViewSectionEndId>%\PSCALE %<\AcVar ViewScale \f "%sn">%
 71
     4
300
ANSI31
 40
1.0
 90
        0
290
     0
290
     0
 90
        6
 40
0.0
 40
1.570796326794896
 40
0.2617993877991494
 40
1.308996938995747
 40
-0.2617993877991494
 40
1.832595714594046
  0
TABLESTYLE
  5
AF76
102
{ACAD_XDICTIONARY
360
AFAE
102
}
102
{ACAD_REACTORS
330
AF75
102
}
330
AF75
100
AcDbTableStyle
  3
Standard
 70
     0
 71
     0
 40
0.06
 41
0.06
280
     0
281
     0
  7
STANDARD
140
0.18
170
     2
 62
     0
 63
     7
283
     0
274
    -2
284
     1
 64
     0
275
    -2
285
     1
 65
     0
276
    -2
286
     1
 66
     0
277
    -2
287
     1
 67
     0
278
    -2
288
     1
 68
     0
279
    -2
289
     1
 69
     0
  7
STANDARD
140
0.25
170
     5
 62
     0
 63
     7
283
     0
274
    -2
284
     1
 64
     0
275
    -2
285
     1
 65
     0
276
    -2
286
     1
 66
     0
277
    -2
287
     1
 67
     0
278
    -2
288
     1
 68
     0
279
    -2
289
     1
 69
     0
  7
STANDARD
140
0.18
170
     5
 62
     0
 63
     7
283
     0
274
    -2
284
     1
 64
     0
275
    -2
285
     1
 65
     0
276
    -2
286
     1
 66
     0
277
    -2
287
     1
 67
     0
278
    -2
288
     1
 68
     0
279
    -2
289
     1
 69
     0
  0
VISUALSTYLE
  5
AF61
102
{ACAD_XDICTIONARY
360
AFBF
102
}
102
{ACAD_REACTORS
330
AF5B
102
}
330
AF5B
100
AcDbVisualStyle
  2
2dWireframe
 70
     4
 71
     0
 72
     2
 73
     0
 90
        0
 40
-0.6
 41
-30.0
 62
     5
 63
     7
 74
     1
 91
        4
 64
     7
 65
   257
 75
     1
175
     1
 42
1.0
 92
        0
 66
   257
 43
1.0
 76
     1
 77
     6
 78
     2
 67
     7
 79
     5
170
     0
171
     0
290
     0
174
     0
 93
        1
 44
0.0
173
     0
291
     0
 45
0.0
1001
ACAD
1000
AcDbSavedByObjectVersion
1070
     0
  0
VISUALSTYLE
  5
AF60
102
{ACAD_XDICTIONARY
360
AFBD
102
}
102
{ACAD_REACTORS
330
AF5B
102
}
330
AF5B
100
AcDbVisualStyle
  2
Basic
 70
     7
 71
     1
 72
     0
 73
     1
 90
        0
 40
-0.6
 41
-30.0
 62
     5
 63
     7
 74
     0
 91
        4
 64
     7
 65
   257
 75
     1
175
     1
 42
1.0
 92
        8
 66
     7
 43
1.0
 76
     1
 77
     6
 78
     2
 67
     7
 79
     5
170
     0
171
     0
290
     0
174
     0
 93
        1
 44
0.0
173
     0
291
     1
 45
0.0
1001
ACAD
1000
AcDbSavedByObjectVersion
1070
     0
  0
VISUALSTYLE
  5
AF67
102
{ACAD_XDICTIONARY
360
AFCB
102
}
102
{ACAD_REACTORS
330
AF5B
102
}
330
AF5B
100
AcDbVisualStyle
  2
Brighten
 70
    12
 71
     2
 72
     2
 73
     0
 90
        0
 40
-0.6
 41
-30.0
 62
     5
 63
     7
 74
     1
 91
        4
 64
     7
 65
   257
 75
     1
175
     1
 42
1.0
 92
        8
 66
     7
 43
1.0
 76
     1
 77
     6
 78
     2
 67
     7
 79
     5
170
     0
171
     0
290
     0
174
     0
 93
        1
 44
50.0
173
     0
291
     1
 45
0.0
1001
ACAD
1000
AcDbSavedByObjectVersion
1070
     0
  0
VISUALSTYLE
  5
AF6B
102
{ACAD_XDICTIONARY
360
AFD3
102
}
102
{ACAD_REACTORS
330
AF5B
102
}
330
AF5B
100
AcDbVisualStyle
  2
ColorChange
 70
    16
 71
     2
 72
     2
 73
     3
 90
        0
 40
-0.6
 41
-30.0
 62
     5
 63
     8
 74
     1
 91
        4
 64
     7
 65
   257
 75
     1
175
     1
 42
1.0
 92
        8
 66
     8
 43
1.0
 76
     1
 77
     6
 78
     2
 67
     7
 79
     5
170
     0
171
     0
290
     0
174
     0
 93
        1
 44
0.0
173
     0
291
     1
 45
0.0
1001
ACAD
1000
AcDbSavedByObjectVersion
1070
     0
  0
VISUALSTYLE
  5
AF64
102
{ACAD_XDICTIONARY
360
AFC5
102
}
102
{ACAD_REACTORS
330
AF5B
102
}
330
AF5B
100
AcDbVisualStyle
  2
Conceptual
 70
     9
 71
     3
 72
     2
 73
     0
 90
        0
 40
-0.6
 41
-30.0
 62
     5
 63
     7
 74
     2
 91
        2
 64
     7
 65
   257
 75
     1
175
     1
 42
179.0
 92
        8
 66
     7
 43
1.0
 76
     1
 77
     6
 78
     2
 67
     7
 79
     3
170
     0
171
     0
290
     0
174
     0
 93
        1
 44
0.0
173
     0
291
     0
 45
0.0
1001
ACAD
1000
AcDbSavedByObjectVersion
1070
     0
  0
VISUALSTYLE
  5
AF66
102
{ACAD_XDICTIONARY
360
AFC9
102
}
102
{ACAD_REACTORS
330
AF5B
102
}
330
AF5B
100
AcDbVisualStyle
  2
Dim
 70
    11
 71
     2
 72
     2
 73
     0
 90
        0
 40
-0.6
 41
-30.0
 62
     5
 63
     7
 74
     1
 91
        4
 64
     7
 65
   257
 75
     1
175
     1
 42
1.0
 92
        8
 66
     7
 43
1.0
 76
     1
 77
     6
 78
     2
 67
     7
 79
     5
170
     0
171
     0
290
     0
174
     0
 93
        1
 44
-50.0
173
     0
291
     1
 45
0.0
1001
ACAD
1000
AcDbSavedByObjectVersion
1070
     0
  0
VISUALSTYLE
  5
AF73
102
{ACAD_XDICTIONARY
360
AFE3
102
}
102
{ACAD_REACTORS
330
AF5B
102
}
330
AF5B
100
AcDbVisualStyle
  2
EdgeColorOff
 70
    22
 71
     2
 72
     2
 73
     0
 90
        0
 40
-0.6
 41
-30.0
 62
     5
 63
     7
 74
     1
 91
        4
 64
     7
 65
   257
 75
     1
175
     1
 42
1.0
 92
        8
 66
     7
 43
1.0
 76
     1
 77
     6
 78
     2
 67
     7
 79
     5
170
     0
171
     0
290
     0
174
     0
 93
        1
 44
0.0
173
     0
291
     1
 45
0.0
1001
ACAD
1000
AcDbSavedByObjectVersion
1070
     0
  0
VISUALSTYLE
  5
AF6A
102
{ACAD_XDICTIONARY
360
AFD1
102
}
102
{ACAD_REACTORS
330
AF5B
102
}
330
AF5B
100
AcDbVisualStyle
  2
Facepattern
 70
    15
 71
     2
 72
     2
 73
     0
 90
        0
 40
-0.6
 41
-30.0
 62
     5
 63
     7
 74
     1
 91
        4
 64
     7
 65
   257
 75
     1
175
     1
 42
1.0
 92
        8
 66
     7
 43
1.0
 76
     1
 77
     6
 78
     2
 67
     7
 79
     5
170
     0
171
     0
290
     0
174
     0
 93
        1
 44
0.0
173
     0
291
     1
 45
0.0
1001
ACAD
1000
AcDbSavedByObjectVersion
1070
     0
  0
VISUALSTYLE
  5
AF5C
102
{ACAD_XDICTIONARY
360
AFB5
102
}
102
{ACAD_REACTORS
330
AF5B
102
}
330
AF5B
100
AcDbVisualStyle
  2
Flat
 70
     0
 71
     2
 72
     1
 73
     1
 90
        2
 40
-0.6
 41
30.0
 62
     5
 63
     7
 74
     0
 91
        0
 64
     7
 65
   257
 75
     1
175
     1
 42
1.0
 92
        8
 66
     7
 43
1.0
 76
     1
 77
     6
 78
     2
 67
     7
 79
     5
170
     0
171
     0
290
     0
174
     0
 93
       13
 44
0.0
173
     0
291
     1
 45
0.0
1001
ACAD
1000
AcDbSavedByObjectVersion
1070
     0
  0
VISUALSTYLE
  5
AF5D
102
{ACAD_XDICTIONARY
360
AFB7
102
}
102
{ACAD_REACTORS
330
AF5B
102
}
330
AF5B
100
AcDbVisualStyle
  2
FlatWithEdges
 70
     1
 71
     2
 72
     1
 73
     1
 90
        2
 40
-0.6
 41
30.0
 62
     5
 63
     7
 74
     1
 91
        0
 64
     7
 65
   257
 75
     1
175
     1
 42
1.0
 92
        0
 66
   257
 43
1.0
 76
     1
 77
     6
 78
     2
 67
     7
 79
     5
170
     0
171
     0
290
     0
174
     0
 93
       13
 44
0.0
173
     0
291
     1
 45
0.0
1001
ACAD
1000
AcDbSavedByObjectVersion
1070
     0
  0
VISUALSTYLE
  5
AF5E
102
{ACAD_XDICTIONARY
360
AFB9
102
}
102
{ACAD_REACTORS
330
AF5B
102
}
330
AF5B
100
AcDbVisualStyle
  2
Gouraud
 70
     2
 71
     2
 72
     2
 73
     1
 90
        2
 40
-0.6
 41
30.0
 62
     5
 63
     7
 74
     0
 91
        0
 64
     7
 65
   257
 75
     1
175
     1
 42
1.0
 92
        0
 66
     7
 43
1.0
 76
     1
 77
     6
 78
     2
 67
     7
 79
     5
170
     0
171
     0
290
     0
174
     0
 93
       13
 44
0.0
173
     0
291
     1
 45
0.0
1001
ACAD
1000
AcDbSavedByObjectVersion
1070
     0
  0
VISUALSTYLE
  5
AF5F
102
{ACAD_XDICTIONARY
360
AFBB
102
}
102
{ACAD_REACTORS
330
AF5B
102
}
330
AF5B
100
AcDbVisualStyle
  2
GouraudWithEdges
 70
     3
 71
     2
 72
     2
 73
     1
 90
        2
 40
-0.6
 41
30.0
 62
     5
 63
     7
 74
     1
 91
        0
 64
     7
 65
   257
 75
     1
175
     1
 42
1.0
 92
        0
 66
   257
 43
1.0
 76
     1
 77
     6
 78
     2
 67
     7
 79
     5
170
     0
171
     0
290
     0
174
     0
 93
       13
 44
0.0
173
     0
291
     1
 45
0.0
1001
ACAD
1000
AcDbSavedByObjectVersion
1070
     0
  0
VISUALSTYLE
  5
AF63
102
{ACAD_XDICTIONARY
360
AFC3
102
}
102
{ACAD_REACTORS
330
AF5B
102
}
330
AF5B
100
AcDbVisualStyle
  2
Hidden
 70
     6
 71
     1
 72
     2
 73
     2
 90
        0
 40
-0.6
 41
-30.0
 62
     5
 63
     7
 74
     2
 91
        2
 64
     7
 65
   257
 75
     2
175
     1
 42
40.0
 92
        0
 66
   257
 43
1.0
 76
     1
 77
     6
 78
     2
 67
     7
 79
     3
170
     0
171
     0
290
     0
174
     0
 93
        1
 44
0.0
173
     0
291
     0
 45
0.0
1001
ACAD
1000
AcDbSavedByObjectVersion
1070
     0
  0
VISUALSTYLE
  5
AF71
102
{ACAD_XDICTIONARY
360
AFDF
102
}
102
{ACAD_REACTORS
330
AF5B
102
}
330
AF5B
100
AcDbVisualStyle
  2
JitterOff
 70
    20
 71
     2
 72
     2
 73
     0
 90
        0
 40
-0.6
 41
-30.0
 62
     5
 63
     7
 74
     1
 91
        4
 64
     7
 65
   257
 75
     1
175
     1
 42
1.0
 92
       10
 66
     7
 43
1.0
 76
     1
 77
     6
 78
     2
 67
     7
 79
     5
170
     0
171
     0
290
     0
174
     0
 93
        1
 44
0.0
173
     0
291
     1
 45
0.0
1001
ACAD
1000
AcDbSavedByObjectVersion
1070
     0
  0
VISUALSTYLE
  5
AF69
102
{ACAD_XDICTIONARY
360
AFCF
102
}
102
{ACAD_REACTORS
330
AF5B
102
}
330
AF5B
100
AcDbVisualStyle
  2
Linepattern
 70
    14
 71
     2
 72
     2
 73
     0
 90
        0
 40
-0.6
 41
-30.0
 62
     5
 63
     7
 74
     1
 91
        4
 64
     7
 65
   257
 75
     7
175
     7
 42
1.0
 92
        8
 66
     7
 43
1.0
 76
     1
 77
     6
 78
     2
 67
     7
 79
     5
170
     0
171
     0
290
     0
174
     0
 93
        1
 44
0.0
173
     0
291
     1
 45
0.0
1001
ACAD
1000
AcDbSavedByObjectVersion
1070
     0
  0
VISUALSTYLE
  5
AF72
102
{ACAD_XDICTIONARY
360
AFE1
102
}
102
{ACAD_REACTORS
330
AF5B
102
}
330
AF5B
100
AcDbVisualStyle
  2
OverhangOff
 70
    21
 71
     2
 72
     2
 73
     0
 90
        0
 40
-0.6
 41
-30.0
 62
     5
 63
     7
 74
     1
 91
        4
 64
     7
 65
   257
 75
     1
175
     1
 42
1.0
 92
        9
 66
     7
 43
1.0
 76
     1
 77
     6
 78
     2
 67
     7
 79
     5
170
     0
171
     0
290
     0
174
     0
 93
        1
 44
0.0
173
     0
291
     1
 45
0.0
1001
ACAD
1000
AcDbSavedByObjectVersion
1070
     0
  0
VISUALSTYLE
  5
AF65
102
{ACAD_XDICTIONARY
360
AFC7
102
}
102
{ACAD_REACTORS
330
AF5B
102
}
330
AF5B
100
AcDbVisualStyle
  2
Realistic
 70
     8
 71
     2
 72
     3
 73
     0
 90
        2
 40
-0.6
 41
30.0
 62
     5
 63
     7
 74
     0
 91
        0
 64
     7
 65
   257
 75
     1
175
     1
 42
1.0
 92
        8
 66
   257
 43
1.0
 76
     1
 77
     6
 78
     2
 67
     7
 79
     3
170
     0
171
     0
290
     0
174
     0
 93
       13
 44
0.0
173
     0
291
     0
 45
0.0
1001
ACAD
1000
AcDbSavedByObjectVersion
1070
     0
  0
VISUALSTYLE
  5
AF70
102
{ACAD_XDICTIONARY
360
AFDD
102
}
102
{ACAD_REACTORS
330
AF5B
102
}
330
AF5B
100
AcDbVisualStyle
  2
Shaded
 70
    27
 71
     2
 72
     2
 73
     1
 90
        2
 40
-0.6
 41
30.0
 62
     5
 63
     7
 74
     0
 91
        4
 64
     7
 65
   257
 75
     1
175
     1
 42
1.0
 92
        8
 66
   257
 43
1.0
 76
     1
 77
     6
 78
     2
 67
     8
 79
     3
170
     0
171
     0
290
     0
174
     0
 93
        5
 44
0.0
173
     0
291
     0
 45
0.0
1001
ACAD
1000
AcDbSavedByObjectVersion
1070
     0
  0
VISUALSTYLE
  5
AF6F
102
{ACAD_XDICTIONARY
360
AFDB
102
}
102
{ACAD_REACTORS
330
AF5B
102
}
330
AF5B
100
AcDbVisualStyle
  2
Shaded with edges
 70
    26
 71
     2
 72
     2
 73
     1
 90
        2
 40
-0.6
 41
30.0
 62
     5
 63
     7
 74
     1
 91
       10
 64
     7
 65
   257
 75
     2
175
     1
 42
1.0
 92
        8
 66
   257
 43
1.0
 76
     1
 77
     6
 78
     2
 67
     7
 79
     3
170
     0
171
     0
290
     0
174
     0
 93
        5
 44
0.0
173
     0
291
     0
 45
0.0
1001
ACAD
1000
AcDbSavedByObjectVersion
1070
     0
  0
VISUALSTYLE
  5
AF6C
102
{ACAD_XDICTIONARY
360
AFD5
102
}
102
{ACAD_REACTORS
330
AF5B
102
}
330
AF5B
100
AcDbVisualStyle
  2
Shades of Gray
 70
    23
 71
     2
 72
     2
 73
     3
 90
        0
 40
-0.6
 41
-30.0
 62
     5
 63
     7
 74
     2
 91
        2
 64
     7
 65
     7
 75
     1
175
     1
 42
40.0
 92
        8
 66
     7
 43
1.0
 76
     1
 77
     6
 78
     2
 67
     7
 79
     3
170
     0
171
     0
290
     0
174
     0
 93
        1
 44
0.0
173
     0
291
     0
 45
0.0
1001
ACAD
1000
AcDbSavedByObjectVersion
1070
     0
  0
VISUALSTYLE
  5
AF6D
102
{ACAD_XDICTIONARY
360
AFD7
102
}
102
{ACAD_REACTORS
330
AF5B
102
}
330
AF5B
100
AcDbVisualStyle
  2
Sketchy
 70
    24
 71
     1
 72
     2
 73
     2
 90
        0
 40
-0.6
 41
-30.0
 62
     5
 63
     7
 74
     2
 91
        2
 64
     7
 65
     7
 75
     1
175
     1
 42
40.0
 92
       11
 66
     7
 43
1.0
 76
     1
 77
     6
 78
     2
 67
     7
 79
     6
170
     0
171
     0
290
     0
174
     0
 93
        1
 44
0.0
173
     0
291
     0
 45
0.0
1001
ACAD
1000
AcDbSavedByObjectVersion
1070
     0
  0
VISUALSTYLE
  5
AF68
102
{ACAD_XDICTIONARY
360
AFCD
102
}
102
{ACAD_REACTORS
330
AF5B
102
}
330
AF5B
100
AcDbVisualStyle
  2
Thicken
 70
    13
 71
     2
 72
     2
 73
     0
 90
        0
 40
-0.6
 41
-30.0
 62
     5
 63
     7
 74
     1
 91
        4
 64
     7
 65
   257
 75
     1
175
     1
 42
1.0
 92
       12
 66
     7
 43
1.0
 76
     1
 77
     6
 78
     2
 67
     7
 79
     5
170
     0
171
     0
290
     0
174
     0
 93
        1
 44
0.0
173
     0
291
     1
 45
0.0
1001
ACAD
1000
AcDbSavedByObjectVersion
1070
     0
  0
VISUALSTYLE
  5
AF62
102
{ACAD_XDICTIONARY
360
AFC1
102
}
102
{ACAD_REACTORS
330
AF5B
102
}
330
AF5B
100
AcDbVisualStyle
  2
Wireframe
 70
     5
 71
     0
 72
     2
 73
     0
 90
        0
 40
-0.6
 41
-30.0
 62
     5
 63
     7
 74
     1
 91
        4
 64
     7
 65
   257
 75
     1
175
     1
 42
1.0
 92
        0
 66
   257
 43
1.0
 76
     1
 77
     6
 78
     2
 67
     7
 79
     3
170
     0
171
     0
290
     0
174
     0
 93
        1
 44
0.0
173
     0
291
     0
 45
0.0
1001
ACAD
1000
AcDbSavedByObjectVersion
1070
     0
  0
VISUALSTYLE
  5
AF6E
102
{ACAD_XDICTIONARY
360
AFD9
102
}
102
{ACAD_REACTORS
330
AF5B
102
}
330
AF5B
100
AcDbVisualStyle
  2
X-Ray
 70
    25
 71
     2
 72
     2
 73
     1
 90
        1
 40
0.5
 41
-30.0
 62
     5
 63
     7
 74
     1
 91
        0
 64
     7
 65
   257
 75
     1
175
     1
 42
1.0
 92
        8
 66
     7
 43
1.0
 76
     1
 77
     6
 78
     2
 67
     7
 79
     3
170
     0
171
     0
290
     0
174
     0
 93
       13
 44
0.0
173
     0
291
     0
 45
0.0
1001
ACAD
1000
AcDbSavedByObjectVersion
1070
     0
  0
DICTIONARYVAR
  5
AFA8
102
{ACAD_REACTORS
330
AFA3
102
}
330
AFA3
100
DictionaryVariables
280
     0
  1
1:1
  0
DICTIONARYVAR
  5
AFA5
102
{ACAD_REACTORS
330
AFA3
102
}
330
AFA3
100
DictionaryVariables
280
     0
  1
STANDARD
  0
DICTIONARYVAR
  5
AFA4
102
{ACAD_REACTORS
330
AFA3
102
}
330
AFA3
100
DictionaryVariables
280
     0
  1
STANDARD
  0
DICTIONARYVAR
  5
AFA6
102
{ACAD_REACTORS
330
AFA3
102
}
330
AFA3
100
DictionaryVariables
280
     0
  1
Imperial24
  0
DICTIONARYVAR
  5
AFA7
102
{ACAD_REACTORS
330
AFA3
102
}
330
AFA3
100
DictionaryVariables
280
     0
  1
Imperial24
  0
DICTIONARYVAR
  5
AFAB
102
{ACAD_REACTORS
330
AFA3
102
}
330
AFA3
100
DictionaryVariables
280
     0
  1
1
  0
DICTIONARYVAR
  5
AFAA
102
{ACAD_REACTORS
330
AFA3
102
}
330
AFA3
100
DictionaryVariables
280
     0
  1
0
  0
DICTIONARYVAR
  5
AFA9
102
{ACAD_REACTORS
330
AFA3
102
}
330
AFA3
100
DictionaryVariables
280
     0
  1
127
  0
DICTIONARYVAR
  5
AFAC
102
{ACAD_REACTORS
330
AFA3
102
}
330
AFA3
100
DictionaryVariables
280
     0
  1
2
  0
DICTIONARY
  5
AFE9
330
AF8E
100
AcDbDictionary
280
     1
281
     1
  3
ACAD_XREC_ROUNDTRIP
360
AFEA
  0
DICTIONARY
  5
AFEB
330
AF8F
100
AcDbDictionary
280
     1
281
     1
  3
ACAD_XREC_ROUNDTRIP
360
AFEC
  0
DICTIONARY
  5
AFED
330
AF90
100
AcDbDictionary
280
     1
281
     1
  3
ACAD_XREC_ROUNDTRIP
360
AFEE
  0
DICTIONARY
  5
AF4C
330
AF4B
100
AcDbDictionary
280
     1
281
     1
  3
ACAD_XREC_ROUNDTRIP
360
AFB3
  3
BUMPTILE
360
AF4E
  3
DIFFUSETILE
360
AF4D
  3
OPACITYTILE
360
AF51
  3
REFLECTIONTILE
360
AF50
  3
REFRACTIONTILE
360
AF52
  3
SPECULARTILE
360
AF4F
  0
DICTIONARY
  5
AF44
330
AF43
100
AcDbDictionary
280
     1
281
     1
  3
ACAD_XREC_ROUNDTRIP
360
AFB2
  3
BUMPTILE
360
AF46
  3
DIFFUSETILE
360
AF45
  3
OPACITYTILE
360
AF49
  3
REFLECTIONTILE
360
AF48
  3
REFRACTIONTILE
360
AF4A
  3
SPECULARTILE
360
AF47
  0
DICTIONARY
  5
AF54
330
AF53
100
AcDbDictionary
280
     1
281
     1
  3
ACAD_XREC_ROUNDTRIP
360
AFB4
  3
BUMPTILE
360
AF56
  3
DIFFUSETILE
360
AF55
  3
OPACITYTILE
360
AF59
  3
REFLECTIONTILE
360
AF58
  3
REFRACTIONTILE
360
AF5A
  3
SPECULARTILE
360
AF57
  0
DICTIONARY
  5
AFE7
330
AF8C
100
AcDbDictionary
280
     1
281
     1
  3
ACAD_XREC_ROUNDTRIP
360
AFE8
  0
DICTIONARY
  5
AFAE
330
AF76
100
AcDbDictionary
280
     1
281
     1
  3
ACAD_ROUNDTRIP_2008_TABLESTYLE_CELLSTYLEMAP
360
AFAF
  3
ACAD_XREC_ROUNDTRIP
360
AFE5
  0
DICTIONARY
  5
AFBF
330
AF61
100
AcDbDictionary
280
     1
281
     1
  3
ACAD_XREC_ROUNDTRIP
360
AFC0
  0
DICTIONARY
  5
AFBD
330
AF60
100
AcDbDictionary
280
     1
281
     1
  3
ACAD_XREC_ROUNDTRIP
360
AFBE
  0
DICTIONARY
  5
AFCB
330
AF67
100
AcDbDictionary
280
     1
281
     1
  3
ACAD_XREC_ROUNDTRIP
360
AFCC
  0
DICTIONARY
  5
AFD3
330
AF6B
100
AcDbDictionary
280
     1
281
     1
  3
ACAD_XREC_ROUNDTRIP
360
AFD4
  0
DICTIONARY
  5
AFC5
330
AF64
100
AcDbDictionary
280
     1
281
     1
  3
ACAD_XREC_ROUNDTRIP
360
AFC6
  0
DICTIONARY
  5
AFC9
330
AF66
100
AcDbDictionary
280
     1
281
     1
  3
ACAD_XREC_ROUNDTRIP
360
AFCA
  0
DICTIONARY
  5
AFE3
330
AF73
100
AcDbDictionary
280
     1
281
     1
  3
ACAD_XREC_ROUNDTRIP
360
AFE4
  0
DICTIONARY
  5
AFD1
330
AF6A
100
AcDbDictionary
280
     1
281
     1
  3
ACAD_XREC_ROUNDTRIP
360
AFD2
  0
DICTIONARY
  5
AFB5
330
AF5C
100
AcDbDictionary
280
     1
281
     1
  3
ACAD_XREC_ROUNDTRIP
360
AFB6
  0
DICTIONARY
  5
AFB7
330
AF5D
100
AcDbDictionary
280
     1
281
     1
  3
ACAD_XREC_ROUNDTRIP
360
AFB8
  0
DICTIONARY
  5
AFB9
330
AF5E
100
AcDbDictionary
280
     1
281
     1
  3
ACAD_XREC_ROUNDTRIP
360
AFBA
  0
DICTIONARY
  5
AFBB
330
AF5F
100
AcDbDictionary
280
     1
281
     1
  3
ACAD_XREC_ROUNDTRIP
360
AFBC
  0
DICTIONARY
  5
AFC3
330
AF63
100
AcDbDictionary
280
     1
281
     1
  3
ACAD_XREC_ROUNDTRIP
360
AFC4
  0
DICTIONARY
  5
AFDF
330
AF71
100
AcDbDictionary
280
     1
281
     1
  3
ACAD_XREC_ROUNDTRIP
360
AFE0
  0
DICTIONARY
  5
AFCF
330
AF69
100
AcDbDictionary
280
     1
281
     1
  3
ACAD_XREC_ROUNDTRIP
360
AFD0
  0
DICTIONARY
  5
AFE1
330
AF72
100
AcDbDictionary
280
     1
281
     1
  3
ACAD_XREC_ROUNDTRIP
360
AFE2
  0
DICTIONARY
  5
AFC7
330
AF65
100
AcDbDictionary
280
     1
281
     1
  3
ACAD_XREC_ROUNDTRIP
360
AFC8
  0
DICTIONARY
  5
AFDD
330
AF70
100
AcDbDictionary
280
     1
281
     1
  3
ACAD_XREC_ROUNDTRIP
360
AFDE
  0
DICTIONARY
  5
AFDB
330
AF6F
100
AcDbDictionary
280
     1
281
     1
  3
ACAD_XREC_ROUNDTRIP
360
AFDC
  0
DICTIONARY
  5
AFD5
330
AF6C
100
AcDbDictionary
280
     1
281
     1
  3
ACAD_XREC_ROUNDTRIP
360
AFD6
  0
DICTIONARY
  5
AFD7
330
AF6D
100
AcDbDictionary
280
     1
281
     1
  3
ACAD_XREC_ROUNDTRIP
360
AFD8
  0
DICTIONARY
  5
AFCD
330
AF68
100
AcDbDictionary
280
     1
281
     1
  3
ACAD_XREC_ROUNDTRIP
360
AFCE
  0
DICTIONARY
  5
AFC1
330
AF62
100
AcDbDictionary
280
     1
281
     1
  3
ACAD_XREC_ROUNDTRIP
360
AFC2
  0
DICTIONARY
  5
AFD9
330
AF6E
100
AcDbDictionary
280
     1
281
     1
  3
ACAD_XREC_ROUNDTRIP
360
AFDA
  0
XRECORD
  5
AFEA
102
{ACAD_REACTORS
330
AFE9
102
}
330
AFE9
100
AcDbXrecord
280
     1
102
DISPLAYNAME
  1
Imperial24
102
FLAGS
 90
        0
  0
XRECORD
  5
AFEC
102
{ACAD_REACTORS
330
AFEB
102
}
330
AFEB
100
AcDbXrecord
280
     1
102
SHADEPLOT
 70
     0
102
SHADEPLOTRESLEVEL
 70
     2
102
SHADEPLOTCUSTOMDPI
 70
   300
  0
XRECORD
  5
AFEE
102
{ACAD_REACTORS
330
AFED
102
}
330
AFED
100
AcDbXrecord
280
     1
102
SHADEPLOT
 70
     0
102
SHADEPLOTRESLEVEL
 70
     2
102
SHADEPLOTCUSTOMDPI
 70
   300
  0
XRECORD
  5
AFB3
102
{ACAD_REACTORS
330
AF4C
102
}
330
AF4C
100
AcDbXrecord
280
     1
102
MATERIAL
148
0.0
149
0.0
149
0.0
 93
        0
 94
      127
282
     0
 72
     0
 77
     0
171
     0
175
     0
179
     0
273
     0
  0
XRECORD
  5
AF4E
102
{ACAD_REACTORS
330
AF4C
102
}
330
AF4C
100
AcDbXrecord
280
     1
270
     1
271
     1
  0
XRECORD
  5
AF4D
102
{ACAD_REACTORS
330
AF4C
102
}
330
AF4C
100
AcDbXrecord
280
     1
270
     1
271
     1
  0
XRECORD
  5
AF51
102
{ACAD_REACTORS
330
AF4C
102
}
330
AF4C
100
AcDbXrecord
280
     1
270
     1
271
     1
  0
XRECORD
  5
AF50
102
{ACAD_REACTORS
330
AF4C
102
}
330
AF4C
100
AcDbXrecord
280
     1
270
     1
271
     1
  0
XRECORD
  5
AF52
102
{ACAD_REACTORS
330
AF4C
102
}
330
AF4C
100
AcDbXrecord
280
     1
270
     1
271
     1
  0
XRECORD
  5
AF4F
102
{ACAD_REACTORS
330
AF4C
102
}
330
AF4C
100
AcDbXrecord
280
     1
270
     1
271
     1
  0
XRECORD
  5
AFB2
102
{ACAD_REACTORS
330
AF44
102
}
330
AF44
100
AcDbXrecord
280
     1
102
MATERIAL
148
0.0
149
0.0
149
0.0
 93
        0
 94
      127
282
     0
 72
     0
 77
     0
171
     0
175
     0
179
     0
273
     0
  0
XRECORD
  5
AF46
102
{ACAD_REACTORS
330
AF44
102
}
330
AF44
100
AcDbXrecord
280
     1
270
     1
271
     1
  0
XRECORD
  5
AF45
102
{ACAD_REACTORS
330
AF44
102
}
330
AF44
100
AcDbXrecord
280
     1
270
     1
271
     1
  0
XRECORD
  5
AF49
102
{ACAD_REACTORS
330
AF44
102
}
330
AF44
100
AcDbXrecord
280
     1
270
     1
271
     1
  0
XRECORD
  5
AF48
102
{ACAD_REACTORS
330
AF44
102
}
330
AF44
100
AcDbXrecord
280
     1
270
     1
271
     1
  0
XRECORD
  5
AF4A
102
{ACAD_REACTORS
330
AF44
102
}
330
AF44
100
AcDbXrecord
280
     1
270
     1
271
     1
  0
XRECORD
  5
AF47
102
{ACAD_REACTORS
330
AF44
102
}
330
AF44
100
AcDbXrecord
280
     1
270
     1
271
     1
  0
XRECORD
  5
AFB4
102
{ACAD_REACTORS
330
AF54
102
}
330
AF54
100
AcDbXrecord
280
     1
102
MATERIAL
148
0.0
149
0.0
149
0.0
 93
        0
 94
      127
282
     0
 72
     0
 77
     0
171
     0
175
     0
179
     0
273
     0
  0
XRECORD
  5
AF56
102
{ACAD_REACTORS
330
AF54
102
}
330
AF54
100
AcDbXrecord
280
     1
270
     1
271
     1
  0
XRECORD
  5
AF55
102
{ACAD_REACTORS
330
AF54
102
}
330
AF54
100
AcDbXrecord
280
     1
270
     1
271
     1
  0
XRECORD
  5
AF59
102
{ACAD_REACTORS
330
AF54
102
}
330
AF54
100
AcDbXrecord
280
     1
270
     1
271
     1
  0
XRECORD
  5
AF58
102
{ACAD_REACTORS
330
AF54
102
}
330
AF54
100
AcDbXrecord
280
     1
270
     1
271
     1
  0
XRECORD
  5
AF5A
102
{ACAD_REACTORS
330
AF54
102
}
330
AF54
100
AcDbXrecord
280
     1
270
     1
271
     1
  0
XRECORD
  5
AF57
102
{ACAD_REACTORS
330
AF54
102
}
330
AF54
100
AcDbXrecord
280
     1
270
     1
271
     1
  0
XRECORD
  5
AFE8
102
{ACAD_REACTORS
330
AFE7
102
}
330
AFE7
100
AcDbXrecord
280
     1
102
DISPLAYNAME
  1
Imperial24
102
FLAGS
 90
        0
  0
CELLSTYLEMAP
  5
AFAF
102
{ACAD_REACTORS
330
AFAE
102
}
330
AFAE
100
AcDbCellStyleMap
 90
        3
300
CELLSTYLE
  1
TABLEFORMAT_BEGIN
 90
        5
170
     1
 91
        0
 92
    32768
 62
   257
 93
        1
300
CONTENTFORMAT
  1
CONTENTFORMAT_BEGIN
 90
        0
 91
        0
 92
      512
 93
        0
300

 40
0.0
140
1.0
 94
        5
 62
     0
340
A9A0
144
0.25
309
CONTENTFORMAT_END
171
     0
 94
        0
309
TABLEFORMAT_END
  1
CELLSTYLE_BEGIN
 90
        1
 91
        1
300
_TITLE
309
CELLSTYLE_END
300
CELLSTYLE
  1
TABLEFORMAT_BEGIN
 90
        5
170
     1
 91
        0
 92
        0
 62
   257
 93
        1
300
CONTENTFORMAT
  1
CONTENTFORMAT_BEGIN
 90
        0
 91
        0
 92
      512
 93
        0
300

 40
0.0
140
1.0
 94
        5
 62
     0
340
A9A0
144
0.18
309
CONTENTFORMAT_END
171
     0
 94
        0
309
TABLEFORMAT_END
  1
CELLSTYLE_BEGIN
 90
        2
 91
        1
300
_HEADER
309
CELLSTYLE_END
300
CELLSTYLE
  1
TABLEFORMAT_BEGIN
 90
        5
170
     1
 91
        0
 92
        0
 62
   257
 93
        1
300
CONTENTFORMAT
  1
CONTENTFORMAT_BEGIN
 90
        0
 91
        0
 92
      512
 93
        0
300

 40
0.0
140
1.0
 94
        2
 62
     0
340
A9A0
144
0.18
309
CONTENTFORMAT_END
171
     0
 94
        0
309
TABLEFORMAT_END
  1
CELLSTYLE_BEGIN
 90
        3
 91
        2
300
_DATA
309
CELLSTYLE_END
  0
XRECORD
  5
AFE5
102
{ACAD_REACTORS
330
AFAE
102
}
330
AFAE
100
AcDbXrecord
280
     1
102
ACAD_ROUNDTRIP_PRE2007_TABLESTYLE
 90
      512
 91
        0
  1

 92
      512
 93
        0
  2

 94
      512
 95
        0
  3

  0
XRECORD
  5
AFC0
102
{ACAD_REACTORS
330
AFBF
102
}
330
AFBF
100
AcDbXrecord
280
     1
102
RTVSPost2010Prop28
280
     1
102
RTVSPost2010PropOp28
 70
     1
102
RTVSPost2010Prop29
280
     1
102
RTVSPost2010PropOp29
 70
     1
102
RTVSPost2010Prop30
280
     0
102
RTVSPost2010PropOp30
 70
     1
102
RTVSPost2010Prop31
280
     0
102
RTVSPost2010PropOp31
 70
     1
102
RTVSPost2010Prop32
280
     0
102
RTVSPost2010PropOp32
 70
     1
102
RTVSPost2010Prop33
280
     0
102
RTVSPost2010PropOp33
 70
     1
102
RTVSPost2010Prop34
280
     0
102
RTVSPost2010PropOp34
 70
     1
102
RTVSPost2010Prop35
280
     0
102
RTVSPost2010PropOp35
 70
     1
102
RTVSPost2010Prop36
280
     0
102
RTVSPost2010PropOp36
 70
     1
102
RTVSPost2010Prop37
 90
       50
102
RTVSPost2010PropOp37
 70
     1
102
RTVSPost2010Prop38
140
0.0
102
RTVSPost2010PropOp38
 70
     1
102
RTVSPost2010Prop39
140
1.0
102
RTVSPost2010PropOp39
 70
     1
102
RTVSPost2010Prop40
 90
        0
102
RTVSPost2010PropOp40
 70
     1
102
RTVSPost2010Prop41ColorIndex
 90
       18
102
RTVSPost2010Prop41ColorRGB
 90
        0
102
RTVSPost2010PropOp41
 70
     1
102
RTVSPost2010Prop42
 90
       50
102
RTVSPost2010PropOp42
 70
     1
102
RTVSPost2010Prop43
 90
        3
102
RTVSPost2010PropOp43
 70
     1
102
RTVSPost2010Prop44ColorIndex
 90
        5
102
RTVSPost2010Prop44ColorRGB
 90
      255
102
RTVSPost2010PropOp44
 70
     1
102
RTVSPost2010Prop45
280
     0
102
RTVSPost2010PropOp45
 70
     1
102
RTVSPost2010Prop46
 90
       50
102
RTVSPost2010PropOp46
 70
     1
102
RTVSPost2010Prop47
 90
       50
102
RTVSPost2010PropOp47
 70
     1
102
RTVSPost2010Prop48
 90
       50
102
RTVSPost2010PropOp48
 70
     1
102
RTVSPost2010Prop49
280
     0
102
RTVSPost2010PropOp49
 70
     1
102
RTVSPost2010Prop50
 90
       50
102
RTVSPost2010PropOp50
 70
     1
102
RTVSPost2010Prop51ColorIndex
 90
      256
102
RTVSPost2010Prop51ColorRGB
 90
-16777216
102
RTVSPost2010PropOp51
 70
     0
102
RTVSPost2010Prop52
140
1.0
102
RTVSPost2010PropOp52
 70
     0
102
RTVSPost2010Prop53
 90
        2
102
RTVSPost2010PropOp53
 70
     1
102
RTVSPost2010Prop54
  1
strokes_ogs.tif
102
RTVSPost2010PropOp54
 70
     1
102
RTVSPost2010Prop55
280
     0
102
RTVSPost2010PropOp55
 70
     1
102
RTVSPost2010Prop56
140
1.0
102
RTVSPost2010PropOp56
 70
     1
102
RTVSPost2010Prop57
140
1.0
102
RTVSPost2010PropOp57
 70
     1
102
RTVSPropertyOp0
 70
     1
102
RTVSPropertyOp1
 70
     1
102
RTVSPropertyOp2
 70
     1
102
RTVSPropertyOp3
 70
     1
102
RTVSPropertyOp4
 70
     1
102
RTVSPropertyOp5
 70
     1
102
RTVSPropertyOp6
 70
     1
102
RTVSPropertyOp7
 70
     1
102
RTVSPropertyOp8
 70
     1
102
RTVSPropertyOp9
 70
     1
102
RTVSPropertyOp10
 70
     1
102
RTVSPropertyOp11
 70
     1
102
RTVSPropertyOp12
 70
     1
102
RTVSPropertyOp13
 70
     1
102
RTVSPropertyOp14
 70
     1
102
RTVSPropertyOp15
 70
     1
102
RTVSPropertyOp16
 70
     1
102
RTVSPropertyOp17
 70
     1
102
RTVSPropertyOp18
 70
     1
102
RTVSPropertyOp19
 70
     1
102
RTVSPropertyOp20
 70
     1
102
RTVSPropertyOp21
 70
     1
102
RTVSPropertyOp22
 70
     1
102
RTVSPropertyOp23
 70
     1
102
RTVSPropertyOp24
 70
     1
102
RTVSPropertyOp25
 70
     1
102
RTVSPropertyOp26
 70
     1
102
RTVSPropertyOp27
 70
     1
102
RTVSPropertyOp28
 70
     1
102
RTVSPropertyOp29
 70
     1
102
RTVSPropertyOp30
 70
     1
102
RTVSPropertyOp31
 70
     1
102
RTVSPropertyOp32
 70
     1
102
RTVSPropertyOp33
 70
     1
102
RTVSPropertyOp34
 70
     1
102
RTVSPropertyOp35
 70
     1
102
RTVSPropertyOp36
 70
     1
102
RTVSPropertyOp37
 70
     1
102
RTVSPropertyOp38
 70
     1
102
RTVSPropertyOp39
 70
     1
102
RTVSPropertyOp40
 70
     1
102
RTVSPropertyOp41
 70
     1
102
RTVSPropertyOp42
 70
     1
102
RTVSPropertyOp43
 70
     1
102
RTVSPropertyOp44
 70
     1
102
RTVSPropertyOp45
 70
     1
102
RTVSPropertyOp46
 70
     1
102
RTVSPropertyOp47
 70
     1
102
RTVSPropertyOp48
 70
     1
102
RTVSPropertyOp49
 70
     1
102
RTVSPropertyOp50
 70
     1
102
RTVSPropertyOp51
 70
     0
102
RTVSPropertyOp52
 70
     0
102
RTVSPropertyOp53
 70
     1
102
RTVSPropertyOp54
 70
     1
102
RTVSPropertyOp55
 70
     1
102
RTVSPropertyOp56
 70
     1
102
RTVSPropertyOp57
 70
     1
102
RTVSPropertyOp58
 70
     1
102
RTVSPropertyOp59
 70
     1
102
RTVSPropertyOp60
 70
     1
102
RTVSPropertyOp61
 70
     1
102
RTVSPropertyOp62
 70
     1
  0
XRECORD
  5
AFBE
102
{ACAD_REACTORS
330
AFBD
102
}
330
AFBD
100
AcDbXrecord
280
     1
102
RTVSPost2010Prop28
280
     0
102
RTVSPost2010PropOp28
 70
     1
102
RTVSPost2010Prop29
280
     1
102
RTVSPost2010PropOp29
 70
     1
102
RTVSPost2010Prop30
280
     1
102
RTVSPost2010PropOp30
 70
     1
102
RTVSPost2010Prop31
280
     0
102
RTVSPost2010PropOp31
 70
     1
102
RTVSPost2010Prop32
280
     0
102
RTVSPost2010PropOp32
 70
     1
102
RTVSPost2010Prop33
280
     0
102
RTVSPost2010PropOp33
 70
     1
102
RTVSPost2010Prop34
280
     0
102
RTVSPost2010PropOp34
 70
     1
102
RTVSPost2010Prop35
280
     0
102
RTVSPost2010PropOp35
 70
     1
102
RTVSPost2010Prop36
280
     0
102
RTVSPost2010PropOp36
 70
     1
102
RTVSPost2010Prop37
 90
       50
102
RTVSPost2010PropOp37
 70
     1
102
RTVSPost2010Prop38
140
0.0
102
RTVSPost2010PropOp38
 70
     1
102
RTVSPost2010Prop39
140
1.0
102
RTVSPost2010PropOp39
 70
     1
102
RTVSPost2010Prop40
 90
        0
102
RTVSPost2010PropOp40
 70
     1
102
RTVSPost2010Prop41ColorIndex
 90
       18
102
RTVSPost2010Prop41ColorRGB
 90
        0
102
RTVSPost2010PropOp41
 70
     1
102
RTVSPost2010Prop42
 90
       50
102
RTVSPost2010PropOp42
 70
     1
102
RTVSPost2010Prop43
 90
        3
102
RTVSPost2010PropOp43
 70
     1
102
RTVSPost2010Prop44ColorIndex
 90
        5
102
RTVSPost2010Prop44ColorRGB
 90
      255
102
RTVSPost2010PropOp44
 70
     1
102
RTVSPost2010Prop45
280
     0
102
RTVSPost2010PropOp45
 70
     1
102
RTVSPost2010Prop46
 90
       50
102
RTVSPost2010PropOp46
 70
     1
102
RTVSPost2010Prop47
 90
       50
102
RTVSPost2010PropOp47
 70
     1
102
RTVSPost2010Prop48
 90
       50
102
RTVSPost2010PropOp48
 70
     1
102
RTVSPost2010Prop49
280
     0
102
RTVSPost2010PropOp49
 70
     1
102
RTVSPost2010Prop50
 90
       50
102
RTVSPost2010PropOp50
 70
     1
102
RTVSPost2010Prop51ColorIndex
 90
      256
102
RTVSPost2010Prop51ColorRGB
 90
-16777216
102
RTVSPost2010PropOp51
 70
     0
102
RTVSPost2010Prop52
140
1.0
102
RTVSPost2010PropOp52
 70
     0
102
RTVSPost2010Prop53
 90
        2
102
RTVSPost2010PropOp53
 70
     1
102
RTVSPost2010Prop54
  1
strokes_ogs.tif
102
RTVSPost2010PropOp54
 70
     1
102
RTVSPost2010Prop55
280
     0
102
RTVSPost2010PropOp55
 70
     1
102
RTVSPost2010Prop56
140
1.0
102
RTVSPost2010PropOp56
 70
     1
102
RTVSPost2010Prop57
140
1.0
102
RTVSPost2010PropOp57
 70
     1
102
RTVSPropertyOp0
 70
     1
102
RTVSPropertyOp1
 70
     1
102
RTVSPropertyOp2
 70
     1
102
RTVSPropertyOp3
 70
     1
102
RTVSPropertyOp4
 70
     1
102
RTVSPropertyOp5
 70
     1
102
RTVSPropertyOp6
 70
     1
102
RTVSPropertyOp7
 70
     1
102
RTVSPropertyOp8
 70
     1
102
RTVSPropertyOp9
 70
     1
102
RTVSPropertyOp10
 70
     1
102
RTVSPropertyOp11
 70
     1
102
RTVSPropertyOp12
 70
     1
102
RTVSPropertyOp13
 70
     1
102
RTVSPropertyOp14
 70
     1
102
RTVSPropertyOp15
 70
     1
102
RTVSPropertyOp16
 70
     1
102
RTVSPropertyOp17
 70
     1
102
RTVSPropertyOp18
 70
     1
102
RTVSPropertyOp19
 70
     1
102
RTVSPropertyOp20
 70
     1
102
RTVSPropertyOp21
 70
     1
102
RTVSPropertyOp22
 70
     1
102
RTVSPropertyOp23
 70
     1
102
RTVSPropertyOp24
 70
     1
102
RTVSPropertyOp25
 70
     1
102
RTVSPropertyOp26
 70
     1
102
RTVSPropertyOp27
 70
     1
102
RTVSPropertyOp28
 70
     1
102
RTVSPropertyOp29
 70
     1
102
RTVSPropertyOp30
 70
     1
102
RTVSPropertyOp31
 70
     1
102
RTVSPropertyOp32
 70
     1
102
RTVSPropertyOp33
 70
     1
102
RTVSPropertyOp34
 70
     1
102
RTVSPropertyOp35
 70
     1
102
RTVSPropertyOp36
 70
     1
102
RTVSPropertyOp37
 70
     1
102
RTVSPropertyOp38
 70
     1
102
RTVSPropertyOp39
 70
     1
102
RTVSPropertyOp40
 70
     1
102
RTVSPropertyOp41
 70
     1
102
RTVSPropertyOp42
 70
     1
102
RTVSPropertyOp43
 70
     1
102
RTVSPropertyOp44
 70
     1
102
RTVSPropertyOp45
 70
     1
102
RTVSPropertyOp46
 70
     1
102
RTVSPropertyOp47
 70
     1
102
RTVSPropertyOp48
 70
     1
102
RTVSPropertyOp49
 70
     1
102
RTVSPropertyOp50
 70
     1
102
RTVSPropertyOp51
 70
     0
102
RTVSPropertyOp52
 70
     0
102
RTVSPropertyOp53
 70
     1
102
RTVSPropertyOp54
 70
     1
102
RTVSPropertyOp55
 70
     1
102
RTVSPropertyOp56
 70
     1
102
RTVSPropertyOp57
 70
     1
102
RTVSPropertyOp58
 70
     1
102
RTVSPropertyOp59
 70
     1
102
RTVSPropertyOp60
 70
     1
102
RTVSPropertyOp61
 70
     1
102
RTVSPropertyOp62
 70
     1
  0
XRECORD
  5
AFCC
102
{ACAD_REACTORS
330
AFCB
102
}
330
AFCB
100
AcDbXrecord
280
     1
102
RTVSPost2010Prop28
280
     0
102
RTVSPost2010PropOp28
 70
     1
102
RTVSPost2010Prop29
280
     1
102
RTVSPost2010PropOp29
 70
     1
102
RTVSPost2010Prop30
280
     1
102
RTVSPost2010PropOp30
 70
     1
102
RTVSPost2010Prop31
280
     0
102
RTVSPost2010PropOp31
 70
     1
102
RTVSPost2010Prop32
280
     0
102
RTVSPost2010PropOp32
 70
     1
102
RTVSPost2010Prop33
280
     0
102
RTVSPost2010PropOp33
 70
     1
102
RTVSPost2010Prop34
280
     0
102
RTVSPost2010PropOp34
 70
     1
102
RTVSPost2010Prop35
280
     0
102
RTVSPost2010PropOp35
 70
     1
102
RTVSPost2010Prop36
280
     0
102
RTVSPost2010PropOp36
 70
     1
102
RTVSPost2010Prop37
 90
       50
102
RTVSPost2010PropOp37
 70
     1
102
RTVSPost2010Prop38
140
0.0
102
RTVSPost2010PropOp38
 70
     1
102
RTVSPost2010Prop39
140
1.0
102
RTVSPost2010PropOp39
 70
     1
102
RTVSPost2010Prop40
 90
        0
102
RTVSPost2010PropOp40
 70
     1
102
RTVSPost2010Prop41ColorIndex
 90
       18
102
RTVSPost2010Prop41ColorRGB
 90
        0
102
RTVSPost2010PropOp41
 70
     1
102
RTVSPost2010Prop42
 90
       50
102
RTVSPost2010PropOp42
 70
     1
102
RTVSPost2010Prop43
 90
        3
102
RTVSPost2010PropOp43
 70
     1
102
RTVSPost2010Prop44ColorIndex
 90
        5
102
RTVSPost2010Prop44ColorRGB
 90
      255
102
RTVSPost2010PropOp44
 70
     1
102
RTVSPost2010Prop45
280
     0
102
RTVSPost2010PropOp45
 70
     1
102
RTVSPost2010Prop46
 90
       50
102
RTVSPost2010PropOp46
 70
     1
102
RTVSPost2010Prop47
 90
       50
102
RTVSPost2010PropOp47
 70
     1
102
RTVSPost2010Prop48
 90
       50
102
RTVSPost2010PropOp48
 70
     1
102
RTVSPost2010Prop49
280
     0
102
RTVSPost2010PropOp49
 70
     1
102
RTVSPost2010Prop50
 90
       50
102
RTVSPost2010PropOp50
 70
     1
102
RTVSPost2010Prop51ColorIndex
 90
      256
102
RTVSPost2010Prop51ColorRGB
 90
-16777216
102
RTVSPost2010PropOp51
 70
     0
102
RTVSPost2010Prop52
140
1.0
102
RTVSPost2010PropOp52
 70
     0
102
RTVSPost2010Prop53
 90
        2
102
RTVSPost2010PropOp53
 70
     1
102
RTVSPost2010Prop54
  1
strokes_ogs.tif
102
RTVSPost2010PropOp54
 70
     1
102
RTVSPost2010Prop55
280
     0
102
RTVSPost2010PropOp55
 70
     1
102
RTVSPost2010Prop56
140
1.0
102
RTVSPost2010PropOp56
 70
     1
102
RTVSPost2010Prop57
140
1.0
102
RTVSPost2010PropOp57
 70
     1
102
RTVSPropertyOp0
 70
     1
102
RTVSPropertyOp1
 70
     1
102
RTVSPropertyOp2
 70
     1
102
RTVSPropertyOp3
 70
     1
102
RTVSPropertyOp4
 70
     1
102
RTVSPropertyOp5
 70
     1
102
RTVSPropertyOp6
 70
     1
102
RTVSPropertyOp7
 70
     1
102
RTVSPropertyOp8
 70
     1
102
RTVSPropertyOp9
 70
     1
102
RTVSPropertyOp10
 70
     1
102
RTVSPropertyOp11
 70
     1
102
RTVSPropertyOp12
 70
     1
102
RTVSPropertyOp13
 70
     1
102
RTVSPropertyOp14
 70
     1
102
RTVSPropertyOp15
 70
     1
102
RTVSPropertyOp16
 70
     1
102
RTVSPropertyOp17
 70
     1
102
RTVSPropertyOp18
 70
     1
102
RTVSPropertyOp19
 70
     1
102
RTVSPropertyOp20
 70
     1
102
RTVSPropertyOp21
 70
     1
102
RTVSPropertyOp22
 70
     1
102
RTVSPropertyOp23
 70
     1
102
RTVSPropertyOp24
 70
     1
102
RTVSPropertyOp25
 70
     1
102
RTVSPropertyOp26
 70
     1
102
RTVSPropertyOp27
 70
     1
102
RTVSPropertyOp28
 70
     1
102
RTVSPropertyOp29
 70
     1
102
RTVSPropertyOp30
 70
     1
102
RTVSPropertyOp31
 70
     1
102
RTVSPropertyOp32
 70
     1
102
RTVSPropertyOp33
 70
     1
102
RTVSPropertyOp34
 70
     1
102
RTVSPropertyOp35
 70
     1
102
RTVSPropertyOp36
 70
     1
102
RTVSPropertyOp37
 70
     1
102
RTVSPropertyOp38
 70
     1
102
RTVSPropertyOp39
 70
     1
102
RTVSPropertyOp40
 70
     1
102
RTVSPropertyOp41
 70
     1
102
RTVSPropertyOp42
 70
     1
102
RTVSPropertyOp43
 70
     1
102
RTVSPropertyOp44
 70
     1
102
RTVSPropertyOp45
 70
     1
102
RTVSPropertyOp46
 70
     1
102
RTVSPropertyOp47
 70
     1
102
RTVSPropertyOp48
 70
     1
102
RTVSPropertyOp49
 70
     1
102
RTVSPropertyOp50
 70
     1
102
RTVSPropertyOp51
 70
     0
102
RTVSPropertyOp52
 70
     0
102
RTVSPropertyOp53
 70
     1
102
RTVSPropertyOp54
 70
     1
102
RTVSPropertyOp55
 70
     1
102
RTVSPropertyOp56
 70
     1
102
RTVSPropertyOp57
 70
     1
102
RTVSPropertyOp58
 70
     1
102
RTVSPropertyOp59
 70
     1
102
RTVSPropertyOp60
 70
     1
102
RTVSPropertyOp61
 70
     1
102
RTVSPropertyOp62
 70
     1
  0
XRECORD
  5
AFD4
102
{ACAD_REACTORS
330
AFD3
102
}
330
AFD3
100
AcDbXrecord
280
     1
102
RTVSPost2010Prop28
280
     0
102
RTVSPost2010PropOp28
 70
     1
102
RTVSPost2010Prop29
280
     1
102
RTVSPost2010PropOp29
 70
     1
102
RTVSPost2010Prop30
280
     1
102
RTVSPost2010PropOp30
 70
     1
102
RTVSPost2010Prop31
280
     0
102
RTVSPost2010PropOp31
 70
     1
102
RTVSPost2010Prop32
280
     0
102
RTVSPost2010PropOp32
 70
     1
102
RTVSPost2010Prop33
280
     0
102
RTVSPost2010PropOp33
 70
     1
102
RTVSPost2010Prop34
280
     0
102
RTVSPost2010PropOp34
 70
     1
102
RTVSPost2010Prop35
280
     0
102
RTVSPost2010PropOp35
 70
     1
102
RTVSPost2010Prop36
280
     0
102
RTVSPost2010PropOp36
 70
     1
102
RTVSPost2010Prop37
 90
       50
102
RTVSPost2010PropOp37
 70
     1
102
RTVSPost2010Prop38
140
0.0
102
RTVSPost2010PropOp38
 70
     1
102
RTVSPost2010Prop39
140
1.0
102
RTVSPost2010PropOp39
 70
     1
102
RTVSPost2010Prop40
 90
        0
102
RTVSPost2010PropOp40
 70
     1
102
RTVSPost2010Prop41ColorIndex
 90
       18
102
RTVSPost2010Prop41ColorRGB
 90
        0
102
RTVSPost2010PropOp41
 70
     1
102
RTVSPost2010Prop42
 90
       50
102
RTVSPost2010PropOp42
 70
     1
102
RTVSPost2010Prop43
 90
        3
102
RTVSPost2010PropOp43
 70
     1
102
RTVSPost2010Prop44ColorIndex
 90
        5
102
RTVSPost2010Prop44ColorRGB
 90
      255
102
RTVSPost2010PropOp44
 70
     1
102
RTVSPost2010Prop45
280
     0
102
RTVSPost2010PropOp45
 70
     1
102
RTVSPost2010Prop46
 90
       50
102
RTVSPost2010PropOp46
 70
     1
102
RTVSPost2010Prop47
 90
       50
102
RTVSPost2010PropOp47
 70
     1
102
RTVSPost2010Prop48
 90
       50
102
RTVSPost2010PropOp48
 70
     1
102
RTVSPost2010Prop49
280
     0
102
RTVSPost2010PropOp49
 70
     1
102
RTVSPost2010Prop50
 90
       50
102
RTVSPost2010PropOp50
 70
     1
102
RTVSPost2010Prop51ColorIndex
 90
      256
102
RTVSPost2010Prop51ColorRGB
 90
-16777216
102
RTVSPost2010PropOp51
 70
     0
102
RTVSPost2010Prop52
140
1.0
102
RTVSPost2010PropOp52
 70
     0
102
RTVSPost2010Prop53
 90
        2
102
RTVSPost2010PropOp53
 70
     1
102
RTVSPost2010Prop54
  1
strokes_ogs.tif
102
RTVSPost2010PropOp54
 70
     1
102
RTVSPost2010Prop55
280
     0
102
RTVSPost2010PropOp55
 70
     1
102
RTVSPost2010Prop56
140
1.0
102
RTVSPost2010PropOp56
 70
     1
102
RTVSPost2010Prop57
140
1.0
102
RTVSPost2010PropOp57
 70
     1
102
RTVSPropertyOp0
 70
     1
102
RTVSPropertyOp1
 70
     1
102
RTVSPropertyOp2
 70
     1
102
RTVSPropertyOp3
 70
     1
102
RTVSPropertyOp4
 70
     1
102
RTVSPropertyOp5
 70
     1
102
RTVSPropertyOp6
 70
     1
102
RTVSPropertyOp7
 70
     1
102
RTVSPropertyOp8
 70
     1
102
RTVSPropertyOp9
 70
     1
102
RTVSPropertyOp10
 70
     1
102
RTVSPropertyOp11
 70
     1
102
RTVSPropertyOp12
 70
     1
102
RTVSPropertyOp13
 70
     1
102
RTVSPropertyOp14
 70
     1
102
RTVSPropertyOp15
 70
     1
102
RTVSPropertyOp16
 70
     1
102
RTVSPropertyOp17
 70
     1
102
RTVSPropertyOp18
 70
     1
102
RTVSPropertyOp19
 70
     1
102
RTVSPropertyOp20
 70
     1
102
RTVSPropertyOp21
 70
     1
102
RTVSPropertyOp22
 70
     1
102
RTVSPropertyOp23
 70
     1
102
RTVSPropertyOp24
 70
     1
102
RTVSPropertyOp25
 70
     1
102
RTVSPropertyOp26
 70
     1
102
RTVSPropertyOp27
 70
     1
102
RTVSPropertyOp28
 70
     1
102
RTVSPropertyOp29
 70
     1
102
RTVSPropertyOp30
 70
     1
102
RTVSPropertyOp31
 70
     1
102
RTVSPropertyOp32
 70
     1
102
RTVSPropertyOp33
 70
     1
102
RTVSPropertyOp34
 70
     1
102
RTVSPropertyOp35
 70
     1
102
RTVSPropertyOp36
 70
     1
102
RTVSPropertyOp37
 70
     1
102
RTVSPropertyOp38
 70
     1
102
RTVSPropertyOp39
 70
     1
102
RTVSPropertyOp40
 70
     1
102
RTVSPropertyOp41
 70
     1
102
RTVSPropertyOp42
 70
     1
102
RTVSPropertyOp43
 70
     1
102
RTVSPropertyOp44
 70
     1
102
RTVSPropertyOp45
 70
     1
102
RTVSPropertyOp46
 70
     1
102
RTVSPropertyOp47
 70
     1
102
RTVSPropertyOp48
 70
     1
102
RTVSPropertyOp49
 70
     1
102
RTVSPropertyOp50
 70
     1
102
RTVSPropertyOp51
 70
     0
102
RTVSPropertyOp52
 70
     0
102
RTVSPropertyOp53
 70
     1
102
RTVSPropertyOp54
 70
     1
102
RTVSPropertyOp55
 70
     1
102
RTVSPropertyOp56
 70
     1
102
RTVSPropertyOp57
 70
     1
102
RTVSPropertyOp58
 70
     1
102
RTVSPropertyOp59
 70
     1
102
RTVSPropertyOp60
 70
     1
102
RTVSPropertyOp61
 70
     1
102
RTVSPropertyOp62
 70
     1
  0
XRECORD
  5
AFC6
102
{ACAD_REACTORS
330
AFC5
102
}
330
AFC5
100
AcDbXrecord
280
     1
102
RTVSPost2010Prop28
280
     0
102
RTVSPost2010PropOp28
 70
     1
102
RTVSPost2010Prop29
280
     1
102
RTVSPost2010PropOp29
 70
     1
102
RTVSPost2010Prop30
280
     1
102
RTVSPost2010PropOp30
 70
     1
102
RTVSPost2010Prop31
280
     0
102
RTVSPost2010PropOp31
 70
     1
102
RTVSPost2010Prop32
280
     0
102
RTVSPost2010PropOp32
 70
     1
102
RTVSPost2010Prop33
280
     0
102
RTVSPost2010PropOp33
 70
     1
102
RTVSPost2010Prop34
280
     0
102
RTVSPost2010PropOp34
 70
     1
102
RTVSPost2010Prop35
280
     0
102
RTVSPost2010PropOp35
 70
     1
102
RTVSPost2010Prop36
280
     0
102
RTVSPost2010PropOp36
 70
     1
102
RTVSPost2010Prop37
 90
       50
102
RTVSPost2010PropOp37
 70
     1
102
RTVSPost2010Prop38
140
0.0
102
RTVSPost2010PropOp38
 70
     1
102
RTVSPost2010Prop39
140
1.0
102
RTVSPost2010PropOp39
 70
     1
102
RTVSPost2010Prop40
 90
        0
102
RTVSPost2010PropOp40
 70
     1
102
RTVSPost2010Prop41ColorIndex
 90
       18
102
RTVSPost2010Prop41ColorRGB
 90
        0
102
RTVSPost2010PropOp41
 70
     1
102
RTVSPost2010Prop42
 90
       50
102
RTVSPost2010PropOp42
 70
     1
102
RTVSPost2010Prop43
 90
        3
102
RTVSPost2010PropOp43
 70
     1
102
RTVSPost2010Prop44ColorIndex
 90
        5
102
RTVSPost2010Prop44ColorRGB
 90
      255
102
RTVSPost2010PropOp44
 70
     1
102
RTVSPost2010Prop45
280
     0
102
RTVSPost2010PropOp45
 70
     1
102
RTVSPost2010Prop46
 90
       50
102
RTVSPost2010PropOp46
 70
     1
102
RTVSPost2010Prop47
 90
       50
102
RTVSPost2010PropOp47
 70
     1
102
RTVSPost2010Prop48
 90
       50
102
RTVSPost2010PropOp48
 70
     1
102
RTVSPost2010Prop49
280
     0
102
RTVSPost2010PropOp49
 70
     1
102
RTVSPost2010Prop50
 90
       50
102
RTVSPost2010PropOp50
 70
     1
102
RTVSPost2010Prop51ColorIndex
 90
      256
102
RTVSPost2010Prop51ColorRGB
 90
-16777216
102
RTVSPost2010PropOp51
 70
     0
102
RTVSPost2010Prop52
140
1.0
102
RTVSPost2010PropOp52
 70
     0
102
RTVSPost2010Prop53
 90
        2
102
RTVSPost2010PropOp53
 70
     1
102
RTVSPost2010Prop54
  1
strokes_ogs.tif
102
RTVSPost2010PropOp54
 70
     1
102
RTVSPost2010Prop55
280
     0
102
RTVSPost2010PropOp55
 70
     1
102
RTVSPost2010Prop56
140
1.0
102
RTVSPost2010PropOp56
 70
     1
102
RTVSPost2010Prop57
140
1.0
102
RTVSPost2010PropOp57
 70
     1
102
RTVSPropertyOp0
 70
     1
102
RTVSPropertyOp1
 70
     1
102
RTVSPropertyOp2
 70
     1
102
RTVSPropertyOp3
 70
     1
102
RTVSPropertyOp4
 70
     1
102
RTVSPropertyOp5
 70
     1
102
RTVSPropertyOp6
 70
     1
102
RTVSPropertyOp7
 70
     1
102
RTVSPropertyOp8
 70
     1
102
RTVSPropertyOp9
 70
     1
102
RTVSPropertyOp10
 70
     1
102
RTVSPropertyOp11
 70
     1
102
RTVSPropertyOp12
 70
     1
102
RTVSPropertyOp13
 70
     1
102
RTVSPropertyOp14
 70
     1
102
RTVSPropertyOp15
 70
     1
102
RTVSPropertyOp16
 70
     1
102
RTVSPropertyOp17
 70
     1
102
RTVSPropertyOp18
 70
     1
102
RTVSPropertyOp19
 70
     1
102
RTVSPropertyOp20
 70
     1
102
RTVSPropertyOp21
 70
     1
102
RTVSPropertyOp22
 70
     1
102
RTVSPropertyOp23
 70
     1
102
RTVSPropertyOp24
 70
     1
102
RTVSPropertyOp25
 70
     1
102
RTVSPropertyOp26
 70
     1
102
RTVSPropertyOp27
 70
     1
102
RTVSPropertyOp28
 70
     1
102
RTVSPropertyOp29
 70
     1
102
RTVSPropertyOp30
 70
     1
102
RTVSPropertyOp31
 70
     1
102
RTVSPropertyOp32
 70
     1
102
RTVSPropertyOp33
 70
     1
102
RTVSPropertyOp34
 70
     1
102
RTVSPropertyOp35
 70
     1
102
RTVSPropertyOp36
 70
     1
102
RTVSPropertyOp37
 70
     1
102
RTVSPropertyOp38
 70
     1
102
RTVSPropertyOp39
 70
     1
102
RTVSPropertyOp40
 70
     1
102
RTVSPropertyOp41
 70
     1
102
RTVSPropertyOp42
 70
     1
102
RTVSPropertyOp43
 70
     1
102
RTVSPropertyOp44
 70
     1
102
RTVSPropertyOp45
 70
     1
102
RTVSPropertyOp46
 70
     1
102
RTVSPropertyOp47
 70
     1
102
RTVSPropertyOp48
 70
     1
102
RTVSPropertyOp49
 70
     1
102
RTVSPropertyOp50
 70
     1
102
RTVSPropertyOp51
 70
     0
102
RTVSPropertyOp52
 70
     0
102
RTVSPropertyOp53
 70
     1
102
RTVSPropertyOp54
 70
     1
102
RTVSPropertyOp55
 70
     1
102
RTVSPropertyOp56
 70
     1
102
RTVSPropertyOp57
 70
     1
102
RTVSPropertyOp58
 70
     1
102
RTVSPropertyOp59
 70
     1
102
RTVSPropertyOp60
 70
     1
102
RTVSPropertyOp61
 70
     1
102
RTVSPropertyOp62
 70
     1
  0
XRECORD
  5
AFCA
102
{ACAD_REACTORS
330
AFC9
102
}
330
AFC9
100
AcDbXrecord
280
     1
102
RTVSPost2010Prop28
280
     0
102
RTVSPost2010PropOp28
 70
     1
102
RTVSPost2010Prop29
280
     1
102
RTVSPost2010PropOp29
 70
     1
102
RTVSPost2010Prop30
280
     1
102
RTVSPost2010PropOp30
 70
     1
102
RTVSPost2010Prop31
280
     0
102
RTVSPost2010PropOp31
 70
     1
102
RTVSPost2010Prop32
280
     0
102
RTVSPost2010PropOp32
 70
     1
102
RTVSPost2010Prop33
280
     0
102
RTVSPost2010PropOp33
 70
     1
102
RTVSPost2010Prop34
280
     0
102
RTVSPost2010PropOp34
 70
     1
102
RTVSPost2010Prop35
280
     0
102
RTVSPost2010PropOp35
 70
     1
102
RTVSPost2010Prop36
280
     0
102
RTVSPost2010PropOp36
 70
     1
102
RTVSPost2010Prop37
 90
       50
102
RTVSPost2010PropOp37
 70
     1
102
RTVSPost2010Prop38
140
0.0
102
RTVSPost2010PropOp38
 70
     1
102
RTVSPost2010Prop39
140
1.0
102
RTVSPost2010PropOp39
 70
     1
102
RTVSPost2010Prop40
 90
        0
102
RTVSPost2010PropOp40
 70
     1
102
RTVSPost2010Prop41ColorIndex
 90
       18
102
RTVSPost2010Prop41ColorRGB
 90
        0
102
RTVSPost2010PropOp41
 70
     1
102
RTVSPost2010Prop42
 90
       50
102
RTVSPost2010PropOp42
 70
     1
102
RTVSPost2010Prop43
 90
        3
102
RTVSPost2010PropOp43
 70
     1
102
RTVSPost2010Prop44ColorIndex
 90
        5
102
RTVSPost2010Prop44ColorRGB
 90
      255
102
RTVSPost2010PropOp44
 70
     1
102
RTVSPost2010Prop45
280
     0
102
RTVSPost2010PropOp45
 70
     1
102
RTVSPost2010Prop46
 90
       50
102
RTVSPost2010PropOp46
 70
     1
102
RTVSPost2010Prop47
 90
       50
102
RTVSPost2010PropOp47
 70
     1
102
RTVSPost2010Prop48
 90
       50
102
RTVSPost2010PropOp48
 70
     1
102
RTVSPost2010Prop49
280
     0
102
RTVSPost2010PropOp49
 70
     1
102
RTVSPost2010Prop50
 90
       50
102
RTVSPost2010PropOp50
 70
     1
102
RTVSPost2010Prop51ColorIndex
 90
      256
102
RTVSPost2010Prop51ColorRGB
 90
-16777216
102
RTVSPost2010PropOp51
 70
     0
102
RTVSPost2010Prop52
140
1.0
102
RTVSPost2010PropOp52
 70
     0
102
RTVSPost2010Prop53
 90
        2
102
RTVSPost2010PropOp53
 70
     1
102
RTVSPost2010Prop54
  1
strokes_ogs.tif
102
RTVSPost2010PropOp54
 70
     1
102
RTVSPost2010Prop55
280
     0
102
RTVSPost2010PropOp55
 70
     1
102
RTVSPost2010Prop56
140
1.0
102
RTVSPost2010PropOp56
 70
     1
102
RTVSPost2010Prop57
140
1.0
102
RTVSPost2010PropOp57
 70
     1
102
RTVSPropertyOp0
 70
     1
102
RTVSPropertyOp1
 70
     1
102
RTVSPropertyOp2
 70
     1
102
RTVSPropertyOp3
 70
     1
102
RTVSPropertyOp4
 70
     1
102
RTVSPropertyOp5
 70
     1
102
RTVSPropertyOp6
 70
     1
102
RTVSPropertyOp7
 70
     1
102
RTVSPropertyOp8
 70
     1
102
RTVSPropertyOp9
 70
     1
102
RTVSPropertyOp10
 70
     1
102
RTVSPropertyOp11
 70
     1
102
RTVSPropertyOp12
 70
     1
102
RTVSPropertyOp13
 70
     1
102
RTVSPropertyOp14
 70
     1
102
RTVSPropertyOp15
 70
     1
102
RTVSPropertyOp16
 70
     1
102
RTVSPropertyOp17
 70
     1
102
RTVSPropertyOp18
 70
     1
102
RTVSPropertyOp19
 70
     1
102
RTVSPropertyOp20
 70
     1
102
RTVSPropertyOp21
 70
     1
102
RTVSPropertyOp22
 70
     1
102
RTVSPropertyOp23
 70
     1
102
RTVSPropertyOp24
 70
     1
102
RTVSPropertyOp25
 70
     1
102
RTVSPropertyOp26
 70
     1
102
RTVSPropertyOp27
 70
     1
102
RTVSPropertyOp28
 70
     1
102
RTVSPropertyOp29
 70
     1
102
RTVSPropertyOp30
 70
     1
102
RTVSPropertyOp31
 70
     1
102
RTVSPropertyOp32
 70
     1
102
RTVSPropertyOp33
 70
     1
102
RTVSPropertyOp34
 70
     1
102
RTVSPropertyOp35
 70
     1
102
RTVSPropertyOp36
 70
     1
102
RTVSPropertyOp37
 70
     1
102
RTVSPropertyOp38
 70
     1
102
RTVSPropertyOp39
 70
     1
102
RTVSPropertyOp40
 70
     1
102
RTVSPropertyOp41
 70
     1
102
RTVSPropertyOp42
 70
     1
102
RTVSPropertyOp43
 70
     1
102
RTVSPropertyOp44
 70
     1
102
RTVSPropertyOp45
 70
     1
102
RTVSPropertyOp46
 70
     1
102
RTVSPropertyOp47
 70
     1
102
RTVSPropertyOp48
 70
     1
102
RTVSPropertyOp49
 70
     1
102
RTVSPropertyOp50
 70
     1
102
RTVSPropertyOp51
 70
     0
102
RTVSPropertyOp52
 70
     0
102
RTVSPropertyOp53
 70
     1
102
RTVSPropertyOp54
 70
     1
102
RTVSPropertyOp55
 70
     1
102
RTVSPropertyOp56
 70
     1
102
RTVSPropertyOp57
 70
     1
102
RTVSPropertyOp58
 70
     1
102
RTVSPropertyOp59
 70
     1
102
RTVSPropertyOp60
 70
     1
102
RTVSPropertyOp61
 70
     1
102
RTVSPropertyOp62
 70
     1
  0
XRECORD
  5
AFE4
102
{ACAD_REACTORS
330
AFE3
102
}
330
AFE3
100
AcDbXrecord
280
     1
102
RTVSPost2010Prop28
280
     0
102
RTVSPost2010PropOp28
 70
     1
102
RTVSPost2010Prop29
280
     1
102
RTVSPost2010PropOp29
 70
     1
102
RTVSPost2010Prop30
280
     1
102
RTVSPost2010PropOp30
 70
     1
102
RTVSPost2010Prop31
280
     0
102
RTVSPost2010PropOp31
 70
     1
102
RTVSPost2010Prop32
280
     0
102
RTVSPost2010PropOp32
 70
     1
102
RTVSPost2010Prop33
280
     0
102
RTVSPost2010PropOp33
 70
     1
102
RTVSPost2010Prop34
280
     0
102
RTVSPost2010PropOp34
 70
     1
102
RTVSPost2010Prop35
280
     0
102
RTVSPost2010PropOp35
 70
     1
102
RTVSPost2010Prop36
280
     0
102
RTVSPost2010PropOp36
 70
     1
102
RTVSPost2010Prop37
 90
       50
102
RTVSPost2010PropOp37
 70
     0
102
RTVSPost2010Prop38
140
0.0
102
RTVSPost2010PropOp38
 70
     0
102
RTVSPost2010Prop39
140
1.0
102
RTVSPost2010PropOp39
 70
     0
102
RTVSPost2010Prop40
 90
        0
102
RTVSPost2010PropOp40
 70
     0
102
RTVSPost2010Prop41ColorIndex
 90
       18
102
RTVSPost2010Prop41ColorRGB
 90
        0
102
RTVSPost2010PropOp41
 70
     0
102
RTVSPost2010Prop42
 90
       50
102
RTVSPost2010PropOp42
 70
     0
102
RTVSPost2010Prop43
 90
        3
102
RTVSPost2010PropOp43
 70
     0
102
RTVSPost2010Prop44ColorIndex
 90
        5
102
RTVSPost2010Prop44ColorRGB
 90
      255
102
RTVSPost2010PropOp44
 70
     0
102
RTVSPost2010Prop45
280
     0
102
RTVSPost2010PropOp45
 70
     1
102
RTVSPost2010Prop46
 90
       50
102
RTVSPost2010PropOp46
 70
     0
102
RTVSPost2010Prop47
 90
       50
102
RTVSPost2010PropOp47
 70
     0
102
RTVSPost2010Prop48
 90
       50
102
RTVSPost2010PropOp48
 70
     0
102
RTVSPost2010Prop49
280
     0
102
RTVSPost2010PropOp49
 70
     1
102
RTVSPost2010Prop50
 90
       50
102
RTVSPost2010PropOp50
 70
     0
102
RTVSPost2010Prop51ColorIndex
 90
      256
102
RTVSPost2010Prop51ColorRGB
 90
-16777216
102
RTVSPost2010PropOp51
 70
     0
102
RTVSPost2010Prop52
140
1.0
102
RTVSPost2010PropOp52
 70
     0
102
RTVSPost2010Prop53
 90
        2
102
RTVSPost2010PropOp53
 70
     0
102
RTVSPost2010Prop54
  1
strokes_ogs.tif
102
RTVSPost2010PropOp54
 70
     0
102
RTVSPost2010Prop55
280
     0
102
RTVSPost2010PropOp55
 70
     1
102
RTVSPost2010Prop56
140
1.0
102
RTVSPost2010PropOp56
 70
     0
102
RTVSPost2010Prop57
140
1.0
102
RTVSPost2010PropOp57
 70
     0
102
RTVSPropertyOp0
 70
     0
102
RTVSPropertyOp1
 70
     0
102
RTVSPropertyOp2
 70
     0
102
RTVSPropertyOp3
 70
     0
102
RTVSPropertyOp4
 70
     0
102
RTVSPropertyOp5
 70
     0
102
RTVSPropertyOp6
 70
     0
102
RTVSPropertyOp7
 70
     0
102
RTVSPropertyOp8
 70
     0
102
RTVSPropertyOp9
 70
     0
102
RTVSPropertyOp10
 70
     0
102
RTVSPropertyOp11
 70
     0
102
RTVSPropertyOp12
 70
     0
102
RTVSPropertyOp13
 70
     0
102
RTVSPropertyOp14
 70
     2
102
RTVSPropertyOp15
 70
     0
102
RTVSPropertyOp16
 70
     0
102
RTVSPropertyOp17
 70
     0
102
RTVSPropertyOp18
 70
     0
102
RTVSPropertyOp19
 70
     0
102
RTVSPropertyOp20
 70
     0
102
RTVSPropertyOp21
 70
     0
102
RTVSPropertyOp22
 70
     0
102
RTVSPropertyOp23
 70
     0
102
RTVSPropertyOp24
 70
     0
102
RTVSPropertyOp25
 70
     0
102
RTVSPropertyOp26
 70
     0
102
RTVSPropertyOp27
 70
     0
102
RTVSPropertyOp28
 70
     1
102
RTVSPropertyOp29
 70
     1
102
RTVSPropertyOp30
 70
     1
102
RTVSPropertyOp31
 70
     1
102
RTVSPropertyOp32
 70
     1
102
RTVSPropertyOp33
 70
     1
102
RTVSPropertyOp34
 70
     1
102
RTVSPropertyOp35
 70
     1
102
RTVSPropertyOp36
 70
     1
102
RTVSPropertyOp37
 70
     0
102
RTVSPropertyOp38
 70
     0
102
RTVSPropertyOp39
 70
     0
102
RTVSPropertyOp40
 70
     0
102
RTVSPropertyOp41
 70
     0
102
RTVSPropertyOp42
 70
     0
102
RTVSPropertyOp43
 70
     0
102
RTVSPropertyOp44
 70
     0
102
RTVSPropertyOp45
 70
     1
102
RTVSPropertyOp46
 70
     0
102
RTVSPropertyOp47
 70
     0
102
RTVSPropertyOp48
 70
     0
102
RTVSPropertyOp49
 70
     1
102
RTVSPropertyOp50
 70
     0
102
RTVSPropertyOp51
 70
     0
102
RTVSPropertyOp52
 70
     0
102
RTVSPropertyOp53
 70
     0
102
RTVSPropertyOp54
 70
     0
102
RTVSPropertyOp55
 70
     1
102
RTVSPropertyOp56
 70
     0
102
RTVSPropertyOp57
 70
     0
102
RTVSPropertyOp58
 70
     0
102
RTVSPropertyOp59
 70
     0
102
RTVSPropertyOp60
 70
     0
102
RTVSPropertyOp61
 70
     0
102
RTVSPropertyOp62
 70
     0
  0
XRECORD
  5
AFD2
102
{ACAD_REACTORS
330
AFD1
102
}
330
AFD1
100
AcDbXrecord
280
     1
102
RTVSPost2010Prop28
280
     0
102
RTVSPost2010PropOp28
 70
     1
102
RTVSPost2010Prop29
280
     1
102
RTVSPost2010PropOp29
 70
     1
102
RTVSPost2010Prop30
280
     1
102
RTVSPost2010PropOp30
 70
     1
102
RTVSPost2010Prop31
280
     0
102
RTVSPost2010PropOp31
 70
     1
102
RTVSPost2010Prop32
280
     0
102
RTVSPost2010PropOp32
 70
     1
102
RTVSPost2010Prop33
280
     0
102
RTVSPost2010PropOp33
 70
     1
102
RTVSPost2010Prop34
280
     0
102
RTVSPost2010PropOp34
 70
     1
102
RTVSPost2010Prop35
280
     0
102
RTVSPost2010PropOp35
 70
     1
102
RTVSPost2010Prop36
280
     0
102
RTVSPost2010PropOp36
 70
     1
102
RTVSPost2010Prop37
 90
       50
102
RTVSPost2010PropOp37
 70
     1
102
RTVSPost2010Prop38
140
0.0
102
RTVSPost2010PropOp38
 70
     1
102
RTVSPost2010Prop39
140
1.0
102
RTVSPost2010PropOp39
 70
     1
102
RTVSPost2010Prop40
 90
        0
102
RTVSPost2010PropOp40
 70
     1
102
RTVSPost2010Prop41ColorIndex
 90
       18
102
RTVSPost2010Prop41ColorRGB
 90
        0
102
RTVSPost2010PropOp41
 70
     1
102
RTVSPost2010Prop42
 90
       50
102
RTVSPost2010PropOp42
 70
     1
102
RTVSPost2010Prop43
 90
        3
102
RTVSPost2010PropOp43
 70
     1
102
RTVSPost2010Prop44ColorIndex
 90
        5
102
RTVSPost2010Prop44ColorRGB
 90
      255
102
RTVSPost2010PropOp44
 70
     1
102
RTVSPost2010Prop45
280
     0
102
RTVSPost2010PropOp45
 70
     1
102
RTVSPost2010Prop46
 90
       50
102
RTVSPost2010PropOp46
 70
     1
102
RTVSPost2010Prop47
 90
       50
102
RTVSPost2010PropOp47
 70
     1
102
RTVSPost2010Prop48
 90
       50
102
RTVSPost2010PropOp48
 70
     1
102
RTVSPost2010Prop49
280
     0
102
RTVSPost2010PropOp49
 70
     1
102
RTVSPost2010Prop50
 90
       50
102
RTVSPost2010PropOp50
 70
     1
102
RTVSPost2010Prop51ColorIndex
 90
      256
102
RTVSPost2010Prop51ColorRGB
 90
-16777216
102
RTVSPost2010PropOp51
 70
     0
102
RTVSPost2010Prop52
140
1.0
102
RTVSPost2010PropOp52
 70
     0
102
RTVSPost2010Prop53
 90
        2
102
RTVSPost2010PropOp53
 70
     1
102
RTVSPost2010Prop54
  1
strokes_ogs.tif
102
RTVSPost2010PropOp54
 70
     1
102
RTVSPost2010Prop55
280
     0
102
RTVSPost2010PropOp55
 70
     1
102
RTVSPost2010Prop56
140
1.0
102
RTVSPost2010PropOp56
 70
     1
102
RTVSPost2010Prop57
140
1.0
102
RTVSPost2010PropOp57
 70
     1
102
RTVSPropertyOp0
 70
     1
102
RTVSPropertyOp1
 70
     1
102
RTVSPropertyOp2
 70
     1
102
RTVSPropertyOp3
 70
     1
102
RTVSPropertyOp4
 70
     1
102
RTVSPropertyOp5
 70
     1
102
RTVSPropertyOp6
 70
     1
102
RTVSPropertyOp7
 70
     1
102
RTVSPropertyOp8
 70
     1
102
RTVSPropertyOp9
 70
     1
102
RTVSPropertyOp10
 70
     1
102
RTVSPropertyOp11
 70
     1
102
RTVSPropertyOp12
 70
     1
102
RTVSPropertyOp13
 70
     1
102
RTVSPropertyOp14
 70
     1
102
RTVSPropertyOp15
 70
     1
102
RTVSPropertyOp16
 70
     1
102
RTVSPropertyOp17
 70
     1
102
RTVSPropertyOp18
 70
     1
102
RTVSPropertyOp19
 70
     1
102
RTVSPropertyOp20
 70
     1
102
RTVSPropertyOp21
 70
     1
102
RTVSPropertyOp22
 70
     1
102
RTVSPropertyOp23
 70
     1
102
RTVSPropertyOp24
 70
     1
102
RTVSPropertyOp25
 70
     1
102
RTVSPropertyOp26
 70
     1
102
RTVSPropertyOp27
 70
     1
102
RTVSPropertyOp28
 70
     1
102
RTVSPropertyOp29
 70
     1
102
RTVSPropertyOp30
 70
     1
102
RTVSPropertyOp31
 70
     1
102
RTVSPropertyOp32
 70
     1
102
RTVSPropertyOp33
 70
     1
102
RTVSPropertyOp34
 70
     1
102
RTVSPropertyOp35
 70
     1
102
RTVSPropertyOp36
 70
     1
102
RTVSPropertyOp37
 70
     1
102
RTVSPropertyOp38
 70
     1
102
RTVSPropertyOp39
 70
     1
102
RTVSPropertyOp40
 70
     1
102
RTVSPropertyOp41
 70
     1
102
RTVSPropertyOp42
 70
     1
102
RTVSPropertyOp43
 70
     1
102
RTVSPropertyOp44
 70
     1
102
RTVSPropertyOp45
 70
     1
102
RTVSPropertyOp46
 70
     1
102
RTVSPropertyOp47
 70
     1
102
RTVSPropertyOp48
 70
     1
102
RTVSPropertyOp49
 70
     1
102
RTVSPropertyOp50
 70
     1
102
RTVSPropertyOp51
 70
     0
102
RTVSPropertyOp52
 70
     0
102
RTVSPropertyOp53
 70
     1
102
RTVSPropertyOp54
 70
     1
102
RTVSPropertyOp55
 70
     1
102
RTVSPropertyOp56
 70
     1
102
RTVSPropertyOp57
 70
     1
102
RTVSPropertyOp58
 70
     1
102
RTVSPropertyOp59
 70
     1
102
RTVSPropertyOp60
 70
     1
102
RTVSPropertyOp61
 70
     1
102
RTVSPropertyOp62
 70
     1
  0
XRECORD
  5
AFB6
102
{ACAD_REACTORS
330
AFB5
102
}
330
AFB5
100
AcDbXrecord
280
     1
102
RTVSPost2010Prop28
280
     0
102
RTVSPost2010PropOp28
 70
     1
102
RTVSPost2010Prop29
280
     1
102
RTVSPost2010PropOp29
 70
     1
102
RTVSPost2010Prop30
280
     1
102
RTVSPost2010PropOp30
 70
     1
102
RTVSPost2010Prop31
280
     0
102
RTVSPost2010PropOp31
 70
     1
102
RTVSPost2010Prop32
280
     0
102
RTVSPost2010PropOp32
 70
     1
102
RTVSPost2010Prop33
280
     0
102
RTVSPost2010PropOp33
 70
     1
102
RTVSPost2010Prop34
280
     0
102
RTVSPost2010PropOp34
 70
     1
102
RTVSPost2010Prop35
280
     0
102
RTVSPost2010PropOp35
 70
     1
102
RTVSPost2010Prop36
280
     0
102
RTVSPost2010PropOp36
 70
     1
102
RTVSPost2010Prop37
 90
       50
102
RTVSPost2010PropOp37
 70
     1
102
RTVSPost2010Prop38
140
0.0
102
RTVSPost2010PropOp38
 70
     1
102
RTVSPost2010Prop39
140
1.0
102
RTVSPost2010PropOp39
 70
     1
102
RTVSPost2010Prop40
 90
        0
102
RTVSPost2010PropOp40
 70
     1
102
RTVSPost2010Prop41ColorIndex
 90
       18
102
RTVSPost2010Prop41ColorRGB
 90
        0
102
RTVSPost2010PropOp41
 70
     1
102
RTVSPost2010Prop42
 90
       50
102
RTVSPost2010PropOp42
 70
     1
102
RTVSPost2010Prop43
 90
        3
102
RTVSPost2010PropOp43
 70
     1
102
RTVSPost2010Prop44ColorIndex
 90
        5
102
RTVSPost2010Prop44ColorRGB
 90
      255
102
RTVSPost2010PropOp44
 70
     1
102
RTVSPost2010Prop45
280
     0
102
RTVSPost2010PropOp45
 70
     1
102
RTVSPost2010Prop46
 90
       50
102
RTVSPost2010PropOp46
 70
     1
102
RTVSPost2010Prop47
 90
       50
102
RTVSPost2010PropOp47
 70
     1
102
RTVSPost2010Prop48
 90
       50
102
RTVSPost2010PropOp48
 70
     1
102
RTVSPost2010Prop49
280
     0
102
RTVSPost2010PropOp49
 70
     1
102
RTVSPost2010Prop50
 90
       50
102
RTVSPost2010PropOp50
 70
     1
102
RTVSPost2010Prop51ColorIndex
 90
      256
102
RTVSPost2010Prop51ColorRGB
 90
-16777216
102
RTVSPost2010PropOp51
 70
     0
102
RTVSPost2010Prop52
140
1.0
102
RTVSPost2010PropOp52
 70
     0
102
RTVSPost2010Prop53
 90
        2
102
RTVSPost2010PropOp53
 70
     1
102
RTVSPost2010Prop54
  1
strokes_ogs.tif
102
RTVSPost2010PropOp54
 70
     1
102
RTVSPost2010Prop55
280
     0
102
RTVSPost2010PropOp55
 70
     1
102
RTVSPost2010Prop56
140
1.0
102
RTVSPost2010PropOp56
 70
     1
102
RTVSPost2010Prop57
140
1.0
102
RTVSPost2010PropOp57
 70
     1
102
RTVSPropertyOp0
 70
     1
102
RTVSPropertyOp1
 70
     1
102
RTVSPropertyOp2
 70
     1
102
RTVSPropertyOp3
 70
     1
102
RTVSPropertyOp4
 70
     1
102
RTVSPropertyOp5
 70
     1
102
RTVSPropertyOp6
 70
     1
102
RTVSPropertyOp7
 70
     1
102
RTVSPropertyOp8
 70
     1
102
RTVSPropertyOp9
 70
     1
102
RTVSPropertyOp10
 70
     1
102
RTVSPropertyOp11
 70
     1
102
RTVSPropertyOp12
 70
     1
102
RTVSPropertyOp13
 70
     1
102
RTVSPropertyOp14
 70
     1
102
RTVSPropertyOp15
 70
     1
102
RTVSPropertyOp16
 70
     1
102
RTVSPropertyOp17
 70
     1
102
RTVSPropertyOp18
 70
     1
102
RTVSPropertyOp19
 70
     1
102
RTVSPropertyOp20
 70
     1
102
RTVSPropertyOp21
 70
     1
102
RTVSPropertyOp22
 70
     1
102
RTVSPropertyOp23
 70
     1
102
RTVSPropertyOp24
 70
     1
102
RTVSPropertyOp25
 70
     1
102
RTVSPropertyOp26
 70
     1
102
RTVSPropertyOp27
 70
     1
102
RTVSPropertyOp28
 70
     1
102
RTVSPropertyOp29
 70
     1
102
RTVSPropertyOp30
 70
     1
102
RTVSPropertyOp31
 70
     1
102
RTVSPropertyOp32
 70
     1
102
RTVSPropertyOp33
 70
     1
102
RTVSPropertyOp34
 70
     1
102
RTVSPropertyOp35
 70
     1
102
RTVSPropertyOp36
 70
     1
102
RTVSPropertyOp37
 70
     1
102
RTVSPropertyOp38
 70
     1
102
RTVSPropertyOp39
 70
     1
102
RTVSPropertyOp40
 70
     1
102
RTVSPropertyOp41
 70
     1
102
RTVSPropertyOp42
 70
     1
102
RTVSPropertyOp43
 70
     1
102
RTVSPropertyOp44
 70
     1
102
RTVSPropertyOp45
 70
     1
102
RTVSPropertyOp46
 70
     1
102
RTVSPropertyOp47
 70
     1
102
RTVSPropertyOp48
 70
     1
102
RTVSPropertyOp49
 70
     1
102
RTVSPropertyOp50
 70
     1
102
RTVSPropertyOp51
 70
     0
102
RTVSPropertyOp52
 70
     0
102
RTVSPropertyOp53
 70
     1
102
RTVSPropertyOp54
 70
     1
102
RTVSPropertyOp55
 70
     1
102
RTVSPropertyOp56
 70
     1
102
RTVSPropertyOp57
 70
     1
102
RTVSPropertyOp58
 70
     1
102
RTVSPropertyOp59
 70
     1
102
RTVSPropertyOp60
 70
     1
102
RTVSPropertyOp61
 70
     1
102
RTVSPropertyOp62
 70
     1
  0
XRECORD
  5
AFB8
102
{ACAD_REACTORS
330
AFB7
102
}
330
AFB7
100
AcDbXrecord
280
     1
102
RTVSPost2010Prop28
280
     0
102
RTVSPost2010PropOp28
 70
     1
102
RTVSPost2010Prop29
280
     1
102
RTVSPost2010PropOp29
 70
     1
102
RTVSPost2010Prop30
280
     1
102
RTVSPost2010PropOp30
 70
     1
102
RTVSPost2010Prop31
280
     0
102
RTVSPost2010PropOp31
 70
     1
102
RTVSPost2010Prop32
280
     0
102
RTVSPost2010PropOp32
 70
     1
102
RTVSPost2010Prop33
280
     0
102
RTVSPost2010PropOp33
 70
     1
102
RTVSPost2010Prop34
280
     0
102
RTVSPost2010PropOp34
 70
     1
102
RTVSPost2010Prop35
280
     0
102
RTVSPost2010PropOp35
 70
     1
102
RTVSPost2010Prop36
280
     0
102
RTVSPost2010PropOp36
 70
     1
102
RTVSPost2010Prop37
 90
       50
102
RTVSPost2010PropOp37
 70
     1
102
RTVSPost2010Prop38
140
0.0
102
RTVSPost2010PropOp38
 70
     1
102
RTVSPost2010Prop39
140
1.0
102
RTVSPost2010PropOp39
 70
     1
102
RTVSPost2010Prop40
 90
        0
102
RTVSPost2010PropOp40
 70
     1
102
RTVSPost2010Prop41ColorIndex
 90
       18
102
RTVSPost2010Prop41ColorRGB
 90
        0
102
RTVSPost2010PropOp41
 70
     1
102
RTVSPost2010Prop42
 90
       50
102
RTVSPost2010PropOp42
 70
     1
102
RTVSPost2010Prop43
 90
        3
102
RTVSPost2010PropOp43
 70
     1
102
RTVSPost2010Prop44ColorIndex
 90
        5
102
RTVSPost2010Prop44ColorRGB
 90
      255
102
RTVSPost2010PropOp44
 70
     1
102
RTVSPost2010Prop45
280
     0
102
RTVSPost2010PropOp45
 70
     1
102
RTVSPost2010Prop46
 90
       50
102
RTVSPost2010PropOp46
 70
     1
102
RTVSPost2010Prop47
 90
       50
102
RTVSPost2010PropOp47
 70
     1
102
RTVSPost2010Prop48
 90
       50
102
RTVSPost2010PropOp48
 70
     1
102
RTVSPost2010Prop49
280
     0
102
RTVSPost2010PropOp49
 70
     1
102
RTVSPost2010Prop50
 90
       50
102
RTVSPost2010PropOp50
 70
     1
102
RTVSPost2010Prop51ColorIndex
 90
      256
102
RTVSPost2010Prop51ColorRGB
 90
-16777216
102
RTVSPost2010PropOp51
 70
     0
102
RTVSPost2010Prop52
140
1.0
102
RTVSPost2010PropOp52
 70
     0
102
RTVSPost2010Prop53
 90
        2
102
RTVSPost2010PropOp53
 70
     1
102
RTVSPost2010Prop54
  1
strokes_ogs.tif
102
RTVSPost2010PropOp54
 70
     1
102
RTVSPost2010Prop55
280
     0
102
RTVSPost2010PropOp55
 70
     1
102
RTVSPost2010Prop56
140
1.0
102
RTVSPost2010PropOp56
 70
     1
102
RTVSPost2010Prop57
140
1.0
102
RTVSPost2010PropOp57
 70
     1
102
RTVSPropertyOp0
 70
     1
102
RTVSPropertyOp1
 70
     1
102
RTVSPropertyOp2
 70
     1
102
RTVSPropertyOp3
 70
     1
102
RTVSPropertyOp4
 70
     1
102
RTVSPropertyOp5
 70
     1
102
RTVSPropertyOp6
 70
     1
102
RTVSPropertyOp7
 70
     1
102
RTVSPropertyOp8
 70
     1
102
RTVSPropertyOp9
 70
     1
102
RTVSPropertyOp10
 70
     1
102
RTVSPropertyOp11
 70
     1
102
RTVSPropertyOp12
 70
     1
102
RTVSPropertyOp13
 70
     1
102
RTVSPropertyOp14
 70
     1
102
RTVSPropertyOp15
 70
     1
102
RTVSPropertyOp16
 70
     1
102
RTVSPropertyOp17
 70
     1
102
RTVSPropertyOp18
 70
     1
102
RTVSPropertyOp19
 70
     1
102
RTVSPropertyOp20
 70
     1
102
RTVSPropertyOp21
 70
     1
102
RTVSPropertyOp22
 70
     1
102
RTVSPropertyOp23
 70
     1
102
RTVSPropertyOp24
 70
     1
102
RTVSPropertyOp25
 70
     1
102
RTVSPropertyOp26
 70
     1
102
RTVSPropertyOp27
 70
     1
102
RTVSPropertyOp28
 70
     1
102
RTVSPropertyOp29
 70
     1
102
RTVSPropertyOp30
 70
     1
102
RTVSPropertyOp31
 70
     1
102
RTVSPropertyOp32
 70
     1
102
RTVSPropertyOp33
 70
     1
102
RTVSPropertyOp34
 70
     1
102
RTVSPropertyOp35
 70
     1
102
RTVSPropertyOp36
 70
     1
102
RTVSPropertyOp37
 70
     1
102
RTVSPropertyOp38
 70
     1
102
RTVSPropertyOp39
 70
     1
102
RTVSPropertyOp40
 70
     1
102
RTVSPropertyOp41
 70
     1
102
RTVSPropertyOp42
 70
     1
102
RTVSPropertyOp43
 70
     1
102
RTVSPropertyOp44
 70
     1
102
RTVSPropertyOp45
 70
     1
102
RTVSPropertyOp46
 70
     1
102
RTVSPropertyOp47
 70
     1
102
RTVSPropertyOp48
 70
     1
102
RTVSPropertyOp49
 70
     1
102
RTVSPropertyOp50
 70
     1
102
RTVSPropertyOp51
 70
     0
102
RTVSPropertyOp52
 70
     0
102
RTVSPropertyOp53
 70
     1
102
RTVSPropertyOp54
 70
     1
102
RTVSPropertyOp55
 70
     1
102
RTVSPropertyOp56
 70
     1
102
RTVSPropertyOp57
 70
     1
102
RTVSPropertyOp58
 70
     1
102
RTVSPropertyOp59
 70
     1
102
RTVSPropertyOp60
 70
     1
102
RTVSPropertyOp61
 70
     1
102
RTVSPropertyOp62
 70
     1
  0
XRECORD
  5
AFBA
102
{ACAD_REACTORS
330
AFB9
102
}
330
AFB9
100
AcDbXrecord
280
     1
102
RTVSPost2010Prop28
280
     0
102
RTVSPost2010PropOp28
 70
     1
102
RTVSPost2010Prop29
280
     1
102
RTVSPost2010PropOp29
 70
     1
102
RTVSPost2010Prop30
280
     1
102
RTVSPost2010PropOp30
 70
     1
102
RTVSPost2010Prop31
280
     0
102
RTVSPost2010PropOp31
 70
     1
102
RTVSPost2010Prop32
280
     0
102
RTVSPost2010PropOp32
 70
     1
102
RTVSPost2010Prop33
280
     0
102
RTVSPost2010PropOp33
 70
     1
102
RTVSPost2010Prop34
280
     0
102
RTVSPost2010PropOp34
 70
     1
102
RTVSPost2010Prop35
280
     0
102
RTVSPost2010PropOp35
 70
     1
102
RTVSPost2010Prop36
280
     0
102
RTVSPost2010PropOp36
 70
     1
102
RTVSPost2010Prop37
 90
       50
102
RTVSPost2010PropOp37
 70
     1
102
RTVSPost2010Prop38
140
0.0
102
RTVSPost2010PropOp38
 70
     1
102
RTVSPost2010Prop39
140
1.0
102
RTVSPost2010PropOp39
 70
     1
102
RTVSPost2010Prop40
 90
        0
102
RTVSPost2010PropOp40
 70
     1
102
RTVSPost2010Prop41ColorIndex
 90
       18
102
RTVSPost2010Prop41ColorRGB
 90
        0
102
RTVSPost2010PropOp41
 70
     1
102
RTVSPost2010Prop42
 90
       50
102
RTVSPost2010PropOp42
 70
     1
102
RTVSPost2010Prop43
 90
        3
102
RTVSPost2010PropOp43
 70
     1
102
RTVSPost2010Prop44ColorIndex
 90
        5
102
RTVSPost2010Prop44ColorRGB
 90
      255
102
RTVSPost2010PropOp44
 70
     1
102
RTVSPost2010Prop45
280
     0
102
RTVSPost2010PropOp45
 70
     1
102
RTVSPost2010Prop46
 90
       50
102
RTVSPost2010PropOp46
 70
     1
102
RTVSPost2010Prop47
 90
       50
102
RTVSPost2010PropOp47
 70
     1
102
RTVSPost2010Prop48
 90
       50
102
RTVSPost2010PropOp48
 70
     1
102
RTVSPost2010Prop49
280
     0
102
RTVSPost2010PropOp49
 70
     1
102
RTVSPost2010Prop50
 90
       50
102
RTVSPost2010PropOp50
 70
     1
102
RTVSPost2010Prop51ColorIndex
 90
      256
102
RTVSPost2010Prop51ColorRGB
 90
-16777216
102
RTVSPost2010PropOp51
 70
     0
102
RTVSPost2010Prop52
140
1.0
102
RTVSPost2010PropOp52
 70
     0
102
RTVSPost2010Prop53
 90
        2
102
RTVSPost2010PropOp53
 70
     1
102
RTVSPost2010Prop54
  1
strokes_ogs.tif
102
RTVSPost2010PropOp54
 70
     1
102
RTVSPost2010Prop55
280
     0
102
RTVSPost2010PropOp55
 70
     1
102
RTVSPost2010Prop56
140
1.0
102
RTVSPost2010PropOp56
 70
     1
102
RTVSPost2010Prop57
140
1.0
102
RTVSPost2010PropOp57
 70
     1
102
RTVSPropertyOp0
 70
     1
102
RTVSPropertyOp1
 70
     1
102
RTVSPropertyOp2
 70
     1
102
RTVSPropertyOp3
 70
     1
102
RTVSPropertyOp4
 70
     1
102
RTVSPropertyOp5
 70
     1
102
RTVSPropertyOp6
 70
     1
102
RTVSPropertyOp7
 70
     1
102
RTVSPropertyOp8
 70
     1
102
RTVSPropertyOp9
 70
     1
102
RTVSPropertyOp10
 70
     1
102
RTVSPropertyOp11
 70
     1
102
RTVSPropertyOp12
 70
     1
102
RTVSPropertyOp13
 70
     1
102
RTVSPropertyOp14
 70
     1
102
RTVSPropertyOp15
 70
     1
102
RTVSPropertyOp16
 70
     1
102
RTVSPropertyOp17
 70
     1
102
RTVSPropertyOp18
 70
     1
102
RTVSPropertyOp19
 70
     1
102
RTVSPropertyOp20
 70
     1
102
RTVSPropertyOp21
 70
     1
102
RTVSPropertyOp22
 70
     1
102
RTVSPropertyOp23
 70
     1
102
RTVSPropertyOp24
 70
     1
102
RTVSPropertyOp25
 70
     1
102
RTVSPropertyOp26
 70
     1
102
RTVSPropertyOp27
 70
     1
102
RTVSPropertyOp28
 70
     1
102
RTVSPropertyOp29
 70
     1
102
RTVSPropertyOp30
 70
     1
102
RTVSPropertyOp31
 70
     1
102
RTVSPropertyOp32
 70
     1
102
RTVSPropertyOp33
 70
     1
102
RTVSPropertyOp34
 70
     1
102
RTVSPropertyOp35
 70
     1
102
RTVSPropertyOp36
 70
     1
102
RTVSPropertyOp37
 70
     1
102
RTVSPropertyOp38
 70
     1
102
RTVSPropertyOp39
 70
     1
102
RTVSPropertyOp40
 70
     1
102
RTVSPropertyOp41
 70
     1
102
RTVSPropertyOp42
 70
     1
102
RTVSPropertyOp43
 70
     1
102
RTVSPropertyOp44
 70
     1
102
RTVSPropertyOp45
 70
     1
102
RTVSPropertyOp46
 70
     1
102
RTVSPropertyOp47
 70
     1
102
RTVSPropertyOp48
 70
     1
102
RTVSPropertyOp49
 70
     1
102
RTVSPropertyOp50
 70
     1
102
RTVSPropertyOp51
 70
     0
102
RTVSPropertyOp52
 70
     0
102
RTVSPropertyOp53
 70
     1
102
RTVSPropertyOp54
 70
     1
102
RTVSPropertyOp55
 70
     1
102
RTVSPropertyOp56
 70
     1
102
RTVSPropertyOp57
 70
     1
102
RTVSPropertyOp58
 70
     1
102
RTVSPropertyOp59
 70
     1
102
RTVSPropertyOp60
 70
     1
102
RTVSPropertyOp61
 70
     1
102
RTVSPropertyOp62
 70
     1
  0
XRECORD
  5
AFBC
102
{ACAD_REACTORS
330
AFBB
102
}
330
AFBB
100
AcDbXrecord
280
     1
102
RTVSPost2010Prop28
280
     0
102
RTVSPost2010PropOp28
 70
     1
102
RTVSPost2010Prop29
280
     1
102
RTVSPost2010PropOp29
 70
     1
102
RTVSPost2010Prop30
280
     1
102
RTVSPost2010PropOp30
 70
     1
102
RTVSPost2010Prop31
280
     0
102
RTVSPost2010PropOp31
 70
     1
102
RTVSPost2010Prop32
280
     0
102
RTVSPost2010PropOp32
 70
     1
102
RTVSPost2010Prop33
280
     0
102
RTVSPost2010PropOp33
 70
     1
102
RTVSPost2010Prop34
280
     0
102
RTVSPost2010PropOp34
 70
     1
102
RTVSPost2010Prop35
280
     0
102
RTVSPost2010PropOp35
 70
     1
102
RTVSPost2010Prop36
280
     0
102
RTVSPost2010PropOp36
 70
     1
102
RTVSPost2010Prop37
 90
       50
102
RTVSPost2010PropOp37
 70
     1
102
RTVSPost2010Prop38
140
0.0
102
RTVSPost2010PropOp38
 70
     1
102
RTVSPost2010Prop39
140
1.0
102
RTVSPost2010PropOp39
 70
     1
102
RTVSPost2010Prop40
 90
        0
102
RTVSPost2010PropOp40
 70
     1
102
RTVSPost2010Prop41ColorIndex
 90
       18
102
RTVSPost2010Prop41ColorRGB
 90
        0
102
RTVSPost2010PropOp41
 70
     1
102
RTVSPost2010Prop42
 90
       50
102
RTVSPost2010PropOp42
 70
     1
102
RTVSPost2010Prop43
 90
        3
102
RTVSPost2010PropOp43
 70
     1
102
RTVSPost2010Prop44ColorIndex
 90
        5
102
RTVSPost2010Prop44ColorRGB
 90
      255
102
RTVSPost2010PropOp44
 70
     1
102
RTVSPost2010Prop45
280
     0
102
RTVSPost2010PropOp45
 70
     1
102
RTVSPost2010Prop46
 90
       50
102
RTVSPost2010PropOp46
 70
     1
102
RTVSPost2010Prop47
 90
       50
102
RTVSPost2010PropOp47
 70
     1
102
RTVSPost2010Prop48
 90
       50
102
RTVSPost2010PropOp48
 70
     1
102
RTVSPost2010Prop49
280
     0
102
RTVSPost2010PropOp49
 70
     1
102
RTVSPost2010Prop50
 90
       50
102
RTVSPost2010PropOp50
 70
     1
102
RTVSPost2010Prop51ColorIndex
 90
      256
102
RTVSPost2010Prop51ColorRGB
 90
-16777216
102
RTVSPost2010PropOp51
 70
     0
102
RTVSPost2010Prop52
140
1.0
102
RTVSPost2010PropOp52
 70
     0
102
RTVSPost2010Prop53
 90
        2
102
RTVSPost2010PropOp53
 70
     1
102
RTVSPost2010Prop54
  1
strokes_ogs.tif
102
RTVSPost2010PropOp54
 70
     1
102
RTVSPost2010Prop55
280
     0
102
RTVSPost2010PropOp55
 70
     1
102
RTVSPost2010Prop56
140
1.0
102
RTVSPost2010PropOp56
 70
     1
102
RTVSPost2010Prop57
140
1.0
102
RTVSPost2010PropOp57
 70
     1
102
RTVSPropertyOp0
 70
     1
102
RTVSPropertyOp1
 70
     1
102
RTVSPropertyOp2
 70
     1
102
RTVSPropertyOp3
 70
     1
102
RTVSPropertyOp4
 70
     1
102
RTVSPropertyOp5
 70
     1
102
RTVSPropertyOp6
 70
     1
102
RTVSPropertyOp7
 70
     1
102
RTVSPropertyOp8
 70
     1
102
RTVSPropertyOp9
 70
     1
102
RTVSPropertyOp10
 70
     1
102
RTVSPropertyOp11
 70
     1
102
RTVSPropertyOp12
 70
     1
102
RTVSPropertyOp13
 70
     1
102
RTVSPropertyOp14
 70
     1
102
RTVSPropertyOp15
 70
     1
102
RTVSPropertyOp16
 70
     1
102
RTVSPropertyOp17
 70
     1
102
RTVSPropertyOp18
 70
     1
102
RTVSPropertyOp19
 70
     1
102
RTVSPropertyOp20
 70
     1
102
RTVSPropertyOp21
 70
     1
102
RTVSPropertyOp22
 70
     1
102
RTVSPropertyOp23
 70
     1
102
RTVSPropertyOp24
 70
     1
102
RTVSPropertyOp25
 70
     1
102
RTVSPropertyOp26
 70
     1
102
RTVSPropertyOp27
 70
     1
102
RTVSPropertyOp28
 70
     1
102
RTVSPropertyOp29
 70
     1
102
RTVSPropertyOp30
 70
     1
102
RTVSPropertyOp31
 70
     1
102
RTVSPropertyOp32
 70
     1
102
RTVSPropertyOp33
 70
     1
102
RTVSPropertyOp34
 70
     1
102
RTVSPropertyOp35
 70
     1
102
RTVSPropertyOp36
 70
     1
102
RTVSPropertyOp37
 70
     1
102
RTVSPropertyOp38
 70
     1
102
RTVSPropertyOp39
 70
     1
102
RTVSPropertyOp40
 70
     1
102
RTVSPropertyOp41
 70
     1
102
RTVSPropertyOp42
 70
     1
102
RTVSPropertyOp43
 70
     1
102
RTVSPropertyOp44
 70
     1
102
RTVSPropertyOp45
 70
     1
102
RTVSPropertyOp46
 70
     1
102
RTVSPropertyOp47
 70
     1
102
RTVSPropertyOp48
 70
     1
102
RTVSPropertyOp49
 70
     1
102
RTVSPropertyOp50
 70
     1
102
RTVSPropertyOp51
 70
     0
102
RTVSPropertyOp52
 70
     0
102
RTVSPropertyOp53
 70
     1
102
RTVSPropertyOp54
 70
     1
102
RTVSPropertyOp55
 70
     1
102
RTVSPropertyOp56
 70
     1
102
RTVSPropertyOp57
 70
     1
102
RTVSPropertyOp58
 70
     1
102
RTVSPropertyOp59
 70
     1
102
RTVSPropertyOp60
 70
     1
102
RTVSPropertyOp61
 70
     1
102
RTVSPropertyOp62
 70
     1
  0
XRECORD
  5
AFC4
102
{ACAD_REACTORS
330
AFC3
102
}
330
AFC3
100
AcDbXrecord
280
     1
102
RTVSPost2010Prop28
280
     0
102
RTVSPost2010PropOp28
 70
     1
102
RTVSPost2010Prop29
280
     1
102
RTVSPost2010PropOp29
 70
     1
102
RTVSPost2010Prop30
280
     1
102
RTVSPost2010PropOp30
 70
     1
102
RTVSPost2010Prop31
280
     0
102
RTVSPost2010PropOp31
 70
     1
102
RTVSPost2010Prop32
280
     0
102
RTVSPost2010PropOp32
 70
     1
102
RTVSPost2010Prop33
280
     0
102
RTVSPost2010PropOp33
 70
     1
102
RTVSPost2010Prop34
280
     0
102
RTVSPost2010PropOp34
 70
     1
102
RTVSPost2010Prop35
280
     0
102
RTVSPost2010PropOp35
 70
     1
102
RTVSPost2010Prop36
280
     0
102
RTVSPost2010PropOp36
 70
     1
102
RTVSPost2010Prop37
 90
       50
102
RTVSPost2010PropOp37
 70
     1
102
RTVSPost2010Prop38
140
0.0
102
RTVSPost2010PropOp38
 70
     1
102
RTVSPost2010Prop39
140
1.0
102
RTVSPost2010PropOp39
 70
     1
102
RTVSPost2010Prop40
 90
        0
102
RTVSPost2010PropOp40
 70
     1
102
RTVSPost2010Prop41ColorIndex
 90
       18
102
RTVSPost2010Prop41ColorRGB
 90
        0
102
RTVSPost2010PropOp41
 70
     1
102
RTVSPost2010Prop42
 90
       50
102
RTVSPost2010PropOp42
 70
     1
102
RTVSPost2010Prop43
 90
        3
102
RTVSPost2010PropOp43
 70
     1
102
RTVSPost2010Prop44ColorIndex
 90
        5
102
RTVSPost2010Prop44ColorRGB
 90
      255
102
RTVSPost2010PropOp44
 70
     1
102
RTVSPost2010Prop45
280
     0
102
RTVSPost2010PropOp45
 70
     1
102
RTVSPost2010Prop46
 90
       50
102
RTVSPost2010PropOp46
 70
     1
102
RTVSPost2010Prop47
 90
       50
102
RTVSPost2010PropOp47
 70
     1
102
RTVSPost2010Prop48
 90
       50
102
RTVSPost2010PropOp48
 70
     1
102
RTVSPost2010Prop49
280
     0
102
RTVSPost2010PropOp49
 70
     1
102
RTVSPost2010Prop50
 90
       50
102
RTVSPost2010PropOp50
 70
     1
102
RTVSPost2010Prop51ColorIndex
 90
      256
102
RTVSPost2010Prop51ColorRGB
 90
-16777216
102
RTVSPost2010PropOp51
 70
     0
102
RTVSPost2010Prop52
140
1.0
102
RTVSPost2010PropOp52
 70
     0
102
RTVSPost2010Prop53
 90
        2
102
RTVSPost2010PropOp53
 70
     1
102
RTVSPost2010Prop54
  1
strokes_ogs.tif
102
RTVSPost2010PropOp54
 70
     1
102
RTVSPost2010Prop55
280
     0
102
RTVSPost2010PropOp55
 70
     1
102
RTVSPost2010Prop56
140
1.0
102
RTVSPost2010PropOp56
 70
     1
102
RTVSPost2010Prop57
140
1.0
102
RTVSPost2010PropOp57
 70
     1
102
RTVSPropertyOp0
 70
     1
102
RTVSPropertyOp1
 70
     1
102
RTVSPropertyOp2
 70
     1
102
RTVSPropertyOp3
 70
     1
102
RTVSPropertyOp4
 70
     1
102
RTVSPropertyOp5
 70
     1
102
RTVSPropertyOp6
 70
     1
102
RTVSPropertyOp7
 70
     1
102
RTVSPropertyOp8
 70
     1
102
RTVSPropertyOp9
 70
     1
102
RTVSPropertyOp10
 70
     1
102
RTVSPropertyOp11
 70
     1
102
RTVSPropertyOp12
 70
     1
102
RTVSPropertyOp13
 70
     1
102
RTVSPropertyOp14
 70
     1
102
RTVSPropertyOp15
 70
     1
102
RTVSPropertyOp16
 70
     1
102
RTVSPropertyOp17
 70
     1
102
RTVSPropertyOp18
 70
     1
102
RTVSPropertyOp19
 70
     1
102
RTVSPropertyOp20
 70
     1
102
RTVSPropertyOp21
 70
     1
102
RTVSPropertyOp22
 70
     1
102
RTVSPropertyOp23
 70
     1
102
RTVSPropertyOp24
 70
     1
102
RTVSPropertyOp25
 70
     1
102
RTVSPropertyOp26
 70
     1
102
RTVSPropertyOp27
 70
     1
102
RTVSPropertyOp28
 70
     1
102
RTVSPropertyOp29
 70
     1
102
RTVSPropertyOp30
 70
     1
102
RTVSPropertyOp31
 70
     1
102
RTVSPropertyOp32
 70
     1
102
RTVSPropertyOp33
 70
     1
102
RTVSPropertyOp34
 70
     1
102
RTVSPropertyOp35
 70
     1
102
RTVSPropertyOp36
 70
     1
102
RTVSPropertyOp37
 70
     1
102
RTVSPropertyOp38
 70
     1
102
RTVSPropertyOp39
 70
     1
102
RTVSPropertyOp40
 70
     1
102
RTVSPropertyOp41
 70
     1
102
RTVSPropertyOp42
 70
     1
102
RTVSPropertyOp43
 70
     1
102
RTVSPropertyOp44
 70
     1
102
RTVSPropertyOp45
 70
     1
102
RTVSPropertyOp46
 70
     1
102
RTVSPropertyOp47
 70
     1
102
RTVSPropertyOp48
 70
     1
102
RTVSPropertyOp49
 70
     1
102
RTVSPropertyOp50
 70
     1
102
RTVSPropertyOp51
 70
     0
102
RTVSPropertyOp52
 70
     0
102
RTVSPropertyOp53
 70
     1
102
RTVSPropertyOp54
 70
     1
102
RTVSPropertyOp55
 70
     1
102
RTVSPropertyOp56
 70
     1
102
RTVSPropertyOp57
 70
     1
102
RTVSPropertyOp58
 70
     1
102
RTVSPropertyOp59
 70
     1
102
RTVSPropertyOp60
 70
     1
102
RTVSPropertyOp61
 70
     1
102
RTVSPropertyOp62
 70
     1
  0
XRECORD
  5
AFE0
102
{ACAD_REACTORS
330
AFDF
102
}
330
AFDF
100
AcDbXrecord
280
     1
102
RTVSPost2010Prop28
280
     0
102
RTVSPost2010PropOp28
 70
     1
102
RTVSPost2010Prop29
280
     1
102
RTVSPost2010PropOp29
 70
     1
102
RTVSPost2010Prop30
280
     1
102
RTVSPost2010PropOp30
 70
     1
102
RTVSPost2010Prop31
280
     0
102
RTVSPost2010PropOp31
 70
     1
102
RTVSPost2010Prop32
280
     0
102
RTVSPost2010PropOp32
 70
     1
102
RTVSPost2010Prop33
280
     0
102
RTVSPost2010PropOp33
 70
     1
102
RTVSPost2010Prop34
280
     0
102
RTVSPost2010PropOp34
 70
     1
102
RTVSPost2010Prop35
280
     0
102
RTVSPost2010PropOp35
 70
     1
102
RTVSPost2010Prop36
280
     0
102
RTVSPost2010PropOp36
 70
     1
102
RTVSPost2010Prop37
 90
       50
102
RTVSPost2010PropOp37
 70
     0
102
RTVSPost2010Prop38
140
0.0
102
RTVSPost2010PropOp38
 70
     0
102
RTVSPost2010Prop39
140
1.0
102
RTVSPost2010PropOp39
 70
     0
102
RTVSPost2010Prop40
 90
        0
102
RTVSPost2010PropOp40
 70
     0
102
RTVSPost2010Prop41ColorIndex
 90
       18
102
RTVSPost2010Prop41ColorRGB
 90
        0
102
RTVSPost2010PropOp41
 70
     0
102
RTVSPost2010Prop42
 90
       50
102
RTVSPost2010PropOp42
 70
     0
102
RTVSPost2010Prop43
 90
        3
102
RTVSPost2010PropOp43
 70
     0
102
RTVSPost2010Prop44ColorIndex
 90
        5
102
RTVSPost2010Prop44ColorRGB
 90
      255
102
RTVSPost2010PropOp44
 70
     0
102
RTVSPost2010Prop45
280
     0
102
RTVSPost2010PropOp45
 70
     1
102
RTVSPost2010Prop46
 90
       50
102
RTVSPost2010PropOp46
 70
     0
102
RTVSPost2010Prop47
 90
       50
102
RTVSPost2010PropOp47
 70
     0
102
RTVSPost2010Prop48
 90
       50
102
RTVSPost2010PropOp48
 70
     0
102
RTVSPost2010Prop49
280
     0
102
RTVSPost2010PropOp49
 70
     1
102
RTVSPost2010Prop50
 90
       50
102
RTVSPost2010PropOp50
 70
     0
102
RTVSPost2010Prop51ColorIndex
 90
      256
102
RTVSPost2010Prop51ColorRGB
 90
-16777216
102
RTVSPost2010PropOp51
 70
     0
102
RTVSPost2010Prop52
140
1.0
102
RTVSPost2010PropOp52
 70
     0
102
RTVSPost2010Prop53
 90
        2
102
RTVSPost2010PropOp53
 70
     0
102
RTVSPost2010Prop54
  1
strokes_ogs.tif
102
RTVSPost2010PropOp54
 70
     0
102
RTVSPost2010Prop55
280
     0
102
RTVSPost2010PropOp55
 70
     1
102
RTVSPost2010Prop56
140
1.0
102
RTVSPost2010PropOp56
 70
     0
102
RTVSPost2010Prop57
140
1.0
102
RTVSPost2010PropOp57
 70
     0
102
RTVSPropertyOp0
 70
     0
102
RTVSPropertyOp1
 70
     0
102
RTVSPropertyOp2
 70
     0
102
RTVSPropertyOp3
 70
     0
102
RTVSPropertyOp4
 70
     0
102
RTVSPropertyOp5
 70
     0
102
RTVSPropertyOp6
 70
     0
102
RTVSPropertyOp7
 70
     0
102
RTVSPropertyOp8
 70
     0
102
RTVSPropertyOp9
 70
     0
102
RTVSPropertyOp10
 70
     0
102
RTVSPropertyOp11
 70
     0
102
RTVSPropertyOp12
 70
     0
102
RTVSPropertyOp13
 70
     0
102
RTVSPropertyOp14
 70
     2
102
RTVSPropertyOp15
 70
     0
102
RTVSPropertyOp16
 70
     0
102
RTVSPropertyOp17
 70
     0
102
RTVSPropertyOp18
 70
     0
102
RTVSPropertyOp19
 70
     0
102
RTVSPropertyOp20
 70
     0
102
RTVSPropertyOp21
 70
     0
102
RTVSPropertyOp22
 70
     0
102
RTVSPropertyOp23
 70
     0
102
RTVSPropertyOp24
 70
     0
102
RTVSPropertyOp25
 70
     0
102
RTVSPropertyOp26
 70
     0
102
RTVSPropertyOp27
 70
     0
102
RTVSPropertyOp28
 70
     1
102
RTVSPropertyOp29
 70
     1
102
RTVSPropertyOp30
 70
     1
102
RTVSPropertyOp31
 70
     1
102
RTVSPropertyOp32
 70
     1
102
RTVSPropertyOp33
 70
     1
102
RTVSPropertyOp34
 70
     1
102
RTVSPropertyOp35
 70
     1
102
RTVSPropertyOp36
 70
     1
102
RTVSPropertyOp37
 70
     0
102
RTVSPropertyOp38
 70
     0
102
RTVSPropertyOp39
 70
     0
102
RTVSPropertyOp40
 70
     0
102
RTVSPropertyOp41
 70
     0
102
RTVSPropertyOp42
 70
     0
102
RTVSPropertyOp43
 70
     0
102
RTVSPropertyOp44
 70
     0
102
RTVSPropertyOp45
 70
     1
102
RTVSPropertyOp46
 70
     0
102
RTVSPropertyOp47
 70
     0
102
RTVSPropertyOp48
 70
     0
102
RTVSPropertyOp49
 70
     1
102
RTVSPropertyOp50
 70
     0
102
RTVSPropertyOp51
 70
     0
102
RTVSPropertyOp52
 70
     0
102
RTVSPropertyOp53
 70
     0
102
RTVSPropertyOp54
 70
     0
102
RTVSPropertyOp55
 70
     1
102
RTVSPropertyOp56
 70
     0
102
RTVSPropertyOp57
 70
     0
102
RTVSPropertyOp58
 70
     0
102
RTVSPropertyOp59
 70
     0
102
RTVSPropertyOp60
 70
     0
102
RTVSPropertyOp61
 70
     0
102
RTVSPropertyOp62
 70
     0
  0
XRECORD
  5
AFD0
102
{ACAD_REACTORS
330
AFCF
102
}
330
AFCF
100
AcDbXrecord
280
     1
102
RTVSPost2010Prop28
280
     0
102
RTVSPost2010PropOp28
 70
     1
102
RTVSPost2010Prop29
280
     1
102
RTVSPost2010PropOp29
 70
     1
102
RTVSPost2010Prop30
280
     1
102
RTVSPost2010PropOp30
 70
     1
102
RTVSPost2010Prop31
280
     0
102
RTVSPost2010PropOp31
 70
     1
102
RTVSPost2010Prop32
280
     0
102
RTVSPost2010PropOp32
 70
     1
102
RTVSPost2010Prop33
280
     0
102
RTVSPost2010PropOp33
 70
     1
102
RTVSPost2010Prop34
280
     0
102
RTVSPost2010PropOp34
 70
     1
102
RTVSPost2010Prop35
280
     0
102
RTVSPost2010PropOp35
 70
     1
102
RTVSPost2010Prop36
280
     0
102
RTVSPost2010PropOp36
 70
     1
102
RTVSPost2010Prop37
 90
       50
102
RTVSPost2010PropOp37
 70
     1
102
RTVSPost2010Prop38
140
0.0
102
RTVSPost2010PropOp38
 70
     1
102
RTVSPost2010Prop39
140
1.0
102
RTVSPost2010PropOp39
 70
     1
102
RTVSPost2010Prop40
 90
        0
102
RTVSPost2010PropOp40
 70
     1
102
RTVSPost2010Prop41ColorIndex
 90
       18
102
RTVSPost2010Prop41ColorRGB
 90
        0
102
RTVSPost2010PropOp41
 70
     1
102
RTVSPost2010Prop42
 90
       50
102
RTVSPost2010PropOp42
 70
     1
102
RTVSPost2010Prop43
 90
        3
102
RTVSPost2010PropOp43
 70
     1
102
RTVSPost2010Prop44ColorIndex
 90
        5
102
RTVSPost2010Prop44ColorRGB
 90
      255
102
RTVSPost2010PropOp44
 70
     1
102
RTVSPost2010Prop45
280
     0
102
RTVSPost2010PropOp45
 70
     1
102
RTVSPost2010Prop46
 90
       50
102
RTVSPost2010PropOp46
 70
     1
102
RTVSPost2010Prop47
 90
       50
102
RTVSPost2010PropOp47
 70
     1
102
RTVSPost2010Prop48
 90
       50
102
RTVSPost2010PropOp48
 70
     1
102
RTVSPost2010Prop49
280
     0
102
RTVSPost2010PropOp49
 70
     1
102
RTVSPost2010Prop50
 90
       50
102
RTVSPost2010PropOp50
 70
     1
102
RTVSPost2010Prop51ColorIndex
 90
      256
102
RTVSPost2010Prop51ColorRGB
 90
-16777216
102
RTVSPost2010PropOp51
 70
     0
102
RTVSPost2010Prop52
140
1.0
102
RTVSPost2010PropOp52
 70
     0
102
RTVSPost2010Prop53
 90
        2
102
RTVSPost2010PropOp53
 70
     1
102
RTVSPost2010Prop54
  1
strokes_ogs.tif
102
RTVSPost2010PropOp54
 70
     1
102
RTVSPost2010Prop55
280
     0
102
RTVSPost2010PropOp55
 70
     1
102
RTVSPost2010Prop56
140
1.0
102
RTVSPost2010PropOp56
 70
     1
102
RTVSPost2010Prop57
140
1.0
102
RTVSPost2010PropOp57
 70
     1
102
RTVSPropertyOp0
 70
     1
102
RTVSPropertyOp1
 70
     1
102
RTVSPropertyOp2
 70
     1
102
RTVSPropertyOp3
 70
     1
102
RTVSPropertyOp4
 70
     1
102
RTVSPropertyOp5
 70
     1
102
RTVSPropertyOp6
 70
     1
102
RTVSPropertyOp7
 70
     1
102
RTVSPropertyOp8
 70
     1
102
RTVSPropertyOp9
 70
     1
102
RTVSPropertyOp10
 70
     1
102
RTVSPropertyOp11
 70
     1
102
RTVSPropertyOp12
 70
     1
102
RTVSPropertyOp13
 70
     1
102
RTVSPropertyOp14
 70
     1
102
RTVSPropertyOp15
 70
     1
102
RTVSPropertyOp16
 70
     1
102
RTVSPropertyOp17
 70
     1
102
RTVSPropertyOp18
 70
     1
102
RTVSPropertyOp19
 70
     1
102
RTVSPropertyOp20
 70
     1
102
RTVSPropertyOp21
 70
     1
102
RTVSPropertyOp22
 70
     1
102
RTVSPropertyOp23
 70
     1
102
RTVSPropertyOp24
 70
     1
102
RTVSPropertyOp25
 70
     1
102
RTVSPropertyOp26
 70
     1
102
RTVSPropertyOp27
 70
     1
102
RTVSPropertyOp28
 70
     1
102
RTVSPropertyOp29
 70
     1
102
RTVSPropertyOp30
 70
     1
102
RTVSPropertyOp31
 70
     1
102
RTVSPropertyOp32
 70
     1
102
RTVSPropertyOp33
 70
     1
102
RTVSPropertyOp34
 70
     1
102
RTVSPropertyOp35
 70
     1
102
RTVSPropertyOp36
 70
     1
102
RTVSPropertyOp37
 70
     1
102
RTVSPropertyOp38
 70
     1
102
RTVSPropertyOp39
 70
     1
102
RTVSPropertyOp40
 70
     1
102
RTVSPropertyOp41
 70
     1
102
RTVSPropertyOp42
 70
     1
102
RTVSPropertyOp43
 70
     1
102
RTVSPropertyOp44
 70
     1
102
RTVSPropertyOp45
 70
     1
102
RTVSPropertyOp46
 70
     1
102
RTVSPropertyOp47
 70
     1
102
RTVSPropertyOp48
 70
     1
102
RTVSPropertyOp49
 70
     1
102
RTVSPropertyOp50
 70
     1
102
RTVSPropertyOp51
 70
     0
102
RTVSPropertyOp52
 70
     0
102
RTVSPropertyOp53
 70
     1
102
RTVSPropertyOp54
 70
     1
102
RTVSPropertyOp55
 70
     1
102
RTVSPropertyOp56
 70
     1
102
RTVSPropertyOp57
 70
     1
102
RTVSPropertyOp58
 70
     1
102
RTVSPropertyOp59
 70
     1
102
RTVSPropertyOp60
 70
     1
102
RTVSPropertyOp61
 70
     1
102
RTVSPropertyOp62
 70
     1
  0
XRECORD
  5
AFE2
102
{ACAD_REACTORS
330
AFE1
102
}
330
AFE1
100
AcDbXrecord
280
     1
102
RTVSPost2010Prop28
280
     0
102
RTVSPost2010PropOp28
 70
     1
102
RTVSPost2010Prop29
280
     1
102
RTVSPost2010PropOp29
 70
     1
102
RTVSPost2010Prop30
280
     1
102
RTVSPost2010PropOp30
 70
     1
102
RTVSPost2010Prop31
280
     0
102
RTVSPost2010PropOp31
 70
     1
102
RTVSPost2010Prop32
280
     0
102
RTVSPost2010PropOp32
 70
     1
102
RTVSPost2010Prop33
280
     0
102
RTVSPost2010PropOp33
 70
     1
102
RTVSPost2010Prop34
280
     0
102
RTVSPost2010PropOp34
 70
     1
102
RTVSPost2010Prop35
280
     0
102
RTVSPost2010PropOp35
 70
     1
102
RTVSPost2010Prop36
280
     0
102
RTVSPost2010PropOp36
 70
     1
102
RTVSPost2010Prop37
 90
       50
102
RTVSPost2010PropOp37
 70
     0
102
RTVSPost2010Prop38
140
0.0
102
RTVSPost2010PropOp38
 70
     0
102
RTVSPost2010Prop39
140
1.0
102
RTVSPost2010PropOp39
 70
     0
102
RTVSPost2010Prop40
 90
        0
102
RTVSPost2010PropOp40
 70
     0
102
RTVSPost2010Prop41ColorIndex
 90
       18
102
RTVSPost2010Prop41ColorRGB
 90
        0
102
RTVSPost2010PropOp41
 70
     0
102
RTVSPost2010Prop42
 90
       50
102
RTVSPost2010PropOp42
 70
     0
102
RTVSPost2010Prop43
 90
        3
102
RTVSPost2010PropOp43
 70
     0
102
RTVSPost2010Prop44ColorIndex
 90
        5
102
RTVSPost2010Prop44ColorRGB
 90
      255
102
RTVSPost2010PropOp44
 70
     0
102
RTVSPost2010Prop45
280
     0
102
RTVSPost2010PropOp45
 70
     1
102
RTVSPost2010Prop46
 90
       50
102
RTVSPost2010PropOp46
 70
     0
102
RTVSPost2010Prop47
 90
       50
102
RTVSPost2010PropOp47
 70
     0
102
RTVSPost2010Prop48
 90
       50
102
RTVSPost2010PropOp48
 70
     0
102
RTVSPost2010Prop49
280
     0
102
RTVSPost2010PropOp49
 70
     1
102
RTVSPost2010Prop50
 90
       50
102
RTVSPost2010PropOp50
 70
     0
102
RTVSPost2010Prop51ColorIndex
 90
      256
102
RTVSPost2010Prop51ColorRGB
 90
-16777216
102
RTVSPost2010PropOp51
 70
     0
102
RTVSPost2010Prop52
140
1.0
102
RTVSPost2010PropOp52
 70
     0
102
RTVSPost2010Prop53
 90
        2
102
RTVSPost2010PropOp53
 70
     0
102
RTVSPost2010Prop54
  1
strokes_ogs.tif
102
RTVSPost2010PropOp54
 70
     0
102
RTVSPost2010Prop55
280
     0
102
RTVSPost2010PropOp55
 70
     1
102
RTVSPost2010Prop56
140
1.0
102
RTVSPost2010PropOp56
 70
     0
102
RTVSPost2010Prop57
140
1.0
102
RTVSPost2010PropOp57
 70
     0
102
RTVSPropertyOp0
 70
     0
102
RTVSPropertyOp1
 70
     0
102
RTVSPropertyOp2
 70
     0
102
RTVSPropertyOp3
 70
     0
102
RTVSPropertyOp4
 70
     0
102
RTVSPropertyOp5
 70
     0
102
RTVSPropertyOp6
 70
     0
102
RTVSPropertyOp7
 70
     0
102
RTVSPropertyOp8
 70
     0
102
RTVSPropertyOp9
 70
     0
102
RTVSPropertyOp10
 70
     0
102
RTVSPropertyOp11
 70
     0
102
RTVSPropertyOp12
 70
     0
102
RTVSPropertyOp13
 70
     0
102
RTVSPropertyOp14
 70
     2
102
RTVSPropertyOp15
 70
     0
102
RTVSPropertyOp16
 70
     0
102
RTVSPropertyOp17
 70
     0
102
RTVSPropertyOp18
 70
     0
102
RTVSPropertyOp19
 70
     0
102
RTVSPropertyOp20
 70
     0
102
RTVSPropertyOp21
 70
     0
102
RTVSPropertyOp22
 70
     0
102
RTVSPropertyOp23
 70
     0
102
RTVSPropertyOp24
 70
     0
102
RTVSPropertyOp25
 70
     0
102
RTVSPropertyOp26
 70
     0
102
RTVSPropertyOp27
 70
     0
102
RTVSPropertyOp28
 70
     1
102
RTVSPropertyOp29
 70
     1
102
RTVSPropertyOp30
 70
     1
102
RTVSPropertyOp31
 70
     1
102
RTVSPropertyOp32
 70
     1
102
RTVSPropertyOp33
 70
     1
102
RTVSPropertyOp34
 70
     1
102
RTVSPropertyOp35
 70
     1
102
RTVSPropertyOp36
 70
     1
102
RTVSPropertyOp37
 70
     0
102
RTVSPropertyOp38
 70
     0
102
RTVSPropertyOp39
 70
     0
102
RTVSPropertyOp40
 70
     0
102
RTVSPropertyOp41
 70
     0
102
RTVSPropertyOp42
 70
     0
102
RTVSPropertyOp43
 70
     0
102
RTVSPropertyOp44
 70
     0
102
RTVSPropertyOp45
 70
     1
102
RTVSPropertyOp46
 70
     0
102
RTVSPropertyOp47
 70
     0
102
RTVSPropertyOp48
 70
     0
102
RTVSPropertyOp49
 70
     1
102
RTVSPropertyOp50
 70
     0
102
RTVSPropertyOp51
 70
     0
102
RTVSPropertyOp52
 70
     0
102
RTVSPropertyOp53
 70
     0
102
RTVSPropertyOp54
 70
     0
102
RTVSPropertyOp55
 70
     1
102
RTVSPropertyOp56
 70
     0
102
RTVSPropertyOp57
 70
     0
102
RTVSPropertyOp58
 70
     0
102
RTVSPropertyOp59
 70
     0
102
RTVSPropertyOp60
 70
     0
102
RTVSPropertyOp61
 70
     0
102
RTVSPropertyOp62
 70
     0
  0
XRECORD
  5
AFC8
102
{ACAD_REACTORS
330
AFC7
102
}
330
AFC7
100
AcDbXrecord
280
     1
102
RTVSPost2010Prop28
280
     0
102
RTVSPost2010PropOp28
 70
     1
102
RTVSPost2010Prop29
280
     1
102
RTVSPost2010PropOp29
 70
     1
102
RTVSPost2010Prop30
280
     1
102
RTVSPost2010PropOp30
 70
     1
102
RTVSPost2010Prop31
280
     0
102
RTVSPost2010PropOp31
 70
     1
102
RTVSPost2010Prop32
280
     0
102
RTVSPost2010PropOp32
 70
     1
102
RTVSPost2010Prop33
280
     0
102
RTVSPost2010PropOp33
 70
     1
102
RTVSPost2010Prop34
280
     0
102
RTVSPost2010PropOp34
 70
     1
102
RTVSPost2010Prop35
280
     0
102
RTVSPost2010PropOp35
 70
     1
102
RTVSPost2010Prop36
280
     0
102
RTVSPost2010PropOp36
 70
     1
102
RTVSPost2010Prop37
 90
       50
102
RTVSPost2010PropOp37
 70
     1
102
RTVSPost2010Prop38
140
0.0
102
RTVSPost2010PropOp38
 70
     1
102
RTVSPost2010Prop39
140
1.0
102
RTVSPost2010PropOp39
 70
     1
102
RTVSPost2010Prop40
 90
        0
102
RTVSPost2010PropOp40
 70
     1
102
RTVSPost2010Prop41ColorIndex
 90
       18
102
RTVSPost2010Prop41ColorRGB
 90
        0
102
RTVSPost2010PropOp41
 70
     1
102
RTVSPost2010Prop42
 90
       50
102
RTVSPost2010PropOp42
 70
     1
102
RTVSPost2010Prop43
 90
        3
102
RTVSPost2010PropOp43
 70
     1
102
RTVSPost2010Prop44ColorIndex
 90
        5
102
RTVSPost2010Prop44ColorRGB
 90
      255
102
RTVSPost2010PropOp44
 70
     1
102
RTVSPost2010Prop45
280
     0
102
RTVSPost2010PropOp45
 70
     1
102
RTVSPost2010Prop46
 90
       50
102
RTVSPost2010PropOp46
 70
     1
102
RTVSPost2010Prop47
 90
       50
102
RTVSPost2010PropOp47
 70
     1
102
RTVSPost2010Prop48
 90
       50
102
RTVSPost2010PropOp48
 70
     1
102
RTVSPost2010Prop49
280
     0
102
RTVSPost2010PropOp49
 70
     1
102
RTVSPost2010Prop50
 90
       50
102
RTVSPost2010PropOp50
 70
     1
102
RTVSPost2010Prop51ColorIndex
 90
      256
102
RTVSPost2010Prop51ColorRGB
 90
-16777216
102
RTVSPost2010PropOp51
 70
     0
102
RTVSPost2010Prop52
140
1.0
102
RTVSPost2010PropOp52
 70
     0
102
RTVSPost2010Prop53
 90
        2
102
RTVSPost2010PropOp53
 70
     1
102
RTVSPost2010Prop54
  1
strokes_ogs.tif
102
RTVSPost2010PropOp54
 70
     1
102
RTVSPost2010Prop55
280
     0
102
RTVSPost2010PropOp55
 70
     1
102
RTVSPost2010Prop56
140
1.0
102
RTVSPost2010PropOp56
 70
     1
102
RTVSPost2010Prop57
140
1.0
102
RTVSPost2010PropOp57
 70
     1
102
RTVSPropertyOp0
 70
     1
102
RTVSPropertyOp1
 70
     1
102
RTVSPropertyOp2
 70
     1
102
RTVSPropertyOp3
 70
     1
102
RTVSPropertyOp4
 70
     1
102
RTVSPropertyOp5
 70
     1
102
RTVSPropertyOp6
 70
     1
102
RTVSPropertyOp7
 70
     1
102
RTVSPropertyOp8
 70
     1
102
RTVSPropertyOp9
 70
     1
102
RTVSPropertyOp10
 70
     1
102
RTVSPropertyOp11
 70
     1
102
RTVSPropertyOp12
 70
     1
102
RTVSPropertyOp13
 70
     1
102
RTVSPropertyOp14
 70
     1
102
RTVSPropertyOp15
 70
     1
102
RTVSPropertyOp16
 70
     1
102
RTVSPropertyOp17
 70
     1
102
RTVSPropertyOp18
 70
     1
102
RTVSPropertyOp19
 70
     1
102
RTVSPropertyOp20
 70
     1
102
RTVSPropertyOp21
 70
     1
102
RTVSPropertyOp22
 70
     1
102
RTVSPropertyOp23
 70
     1
102
RTVSPropertyOp24
 70
     1
102
RTVSPropertyOp25
 70
     1
102
RTVSPropertyOp26
 70
     1
102
RTVSPropertyOp27
 70
     1
102
RTVSPropertyOp28
 70
     1
102
RTVSPropertyOp29
 70
     1
102
RTVSPropertyOp30
 70
     1
102
RTVSPropertyOp31
 70
     1
102
RTVSPropertyOp32
 70
     1
102
RTVSPropertyOp33
 70
     1
102
RTVSPropertyOp34
 70
     1
102
RTVSPropertyOp35
 70
     1
102
RTVSPropertyOp36
 70
     1
102
RTVSPropertyOp37
 70
     1
102
RTVSPropertyOp38
 70
     1
102
RTVSPropertyOp39
 70
     1
102
RTVSPropertyOp40
 70
     1
102
RTVSPropertyOp41
 70
     1
102
RTVSPropertyOp42
 70
     1
102
RTVSPropertyOp43
 70
     1
102
RTVSPropertyOp44
 70
     1
102
RTVSPropertyOp45
 70
     1
102
RTVSPropertyOp46
 70
     1
102
RTVSPropertyOp47
 70
     1
102
RTVSPropertyOp48
 70
     1
102
RTVSPropertyOp49
 70
     1
102
RTVSPropertyOp50
 70
     1
102
RTVSPropertyOp51
 70
     0
102
RTVSPropertyOp52
 70
     0
102
RTVSPropertyOp53
 70
     1
102
RTVSPropertyOp54
 70
     1
102
RTVSPropertyOp55
 70
     1
102
RTVSPropertyOp56
 70
     1
102
RTVSPropertyOp57
 70
     1
102
RTVSPropertyOp58
 70
     1
102
RTVSPropertyOp59
 70
     1
102
RTVSPropertyOp60
 70
     1
102
RTVSPropertyOp61
 70
     1
102
RTVSPropertyOp62
 70
     1
  0
XRECORD
  5
AFDE
102
{ACAD_REACTORS
330
AFDD
102
}
330
AFDD
100
AcDbXrecord
280
     1
102
RTVSPost2010Prop28
280
     0
102
RTVSPost2010PropOp28
 70
     1
102
RTVSPost2010Prop29
280
     1
102
RTVSPost2010PropOp29
 70
     1
102
RTVSPost2010Prop30
280
     1
102
RTVSPost2010PropOp30
 70
     1
102
RTVSPost2010Prop31
280
     0
102
RTVSPost2010PropOp31
 70
     1
102
RTVSPost2010Prop32
280
     0
102
RTVSPost2010PropOp32
 70
     1
102
RTVSPost2010Prop33
280
     0
102
RTVSPost2010PropOp33
 70
     1
102
RTVSPost2010Prop34
280
     0
102
RTVSPost2010PropOp34
 70
     1
102
RTVSPost2010Prop35
280
     0
102
RTVSPost2010PropOp35
 70
     1
102
RTVSPost2010Prop36
280
     0
102
RTVSPost2010PropOp36
 70
     1
102
RTVSPost2010Prop37
 90
       50
102
RTVSPost2010PropOp37
 70
     1
102
RTVSPost2010Prop38
140
0.0
102
RTVSPost2010PropOp38
 70
     1
102
RTVSPost2010Prop39
140
1.0
102
RTVSPost2010PropOp39
 70
     1
102
RTVSPost2010Prop40
 90
        0
102
RTVSPost2010PropOp40
 70
     1
102
RTVSPost2010Prop41ColorIndex
 90
       18
102
RTVSPost2010Prop41ColorRGB
 90
        0
102
RTVSPost2010PropOp41
 70
     1
102
RTVSPost2010Prop42
 90
       50
102
RTVSPost2010PropOp42
 70
     1
102
RTVSPost2010Prop43
 90
        3
102
RTVSPost2010PropOp43
 70
     1
102
RTVSPost2010Prop44ColorIndex
 90
        5
102
RTVSPost2010Prop44ColorRGB
 90
      255
102
RTVSPost2010PropOp44
 70
     1
102
RTVSPost2010Prop45
280
     0
102
RTVSPost2010PropOp45
 70
     1
102
RTVSPost2010Prop46
 90
       50
102
RTVSPost2010PropOp46
 70
     1
102
RTVSPost2010Prop47
 90
       50
102
RTVSPost2010PropOp47
 70
     1
102
RTVSPost2010Prop48
 90
       50
102
RTVSPost2010PropOp48
 70
     1
102
RTVSPost2010Prop49
280
     0
102
RTVSPost2010PropOp49
 70
     1
102
RTVSPost2010Prop50
 90
       50
102
RTVSPost2010PropOp50
 70
     1
102
RTVSPost2010Prop51ColorIndex
 90
      256
102
RTVSPost2010Prop51ColorRGB
 90
-16777216
102
RTVSPost2010PropOp51
 70
     0
102
RTVSPost2010Prop52
140
1.0
102
RTVSPost2010PropOp52
 70
     0
102
RTVSPost2010Prop53
 90
        2
102
RTVSPost2010PropOp53
 70
     1
102
RTVSPost2010Prop54
  1
strokes_ogs.tif
102
RTVSPost2010PropOp54
 70
     1
102
RTVSPost2010Prop55
280
     0
102
RTVSPost2010PropOp55
 70
     1
102
RTVSPost2010Prop56
140
1.0
102
RTVSPost2010PropOp56
 70
     1
102
RTVSPost2010Prop57
140
1.0
102
RTVSPost2010PropOp57
 70
     1
102
RTVSPropertyOp0
 70
     1
102
RTVSPropertyOp1
 70
     1
102
RTVSPropertyOp2
 70
     1
102
RTVSPropertyOp3
 70
     1
102
RTVSPropertyOp4
 70
     1
102
RTVSPropertyOp5
 70
     1
102
RTVSPropertyOp6
 70
     1
102
RTVSPropertyOp7
 70
     1
102
RTVSPropertyOp8
 70
     1
102
RTVSPropertyOp9
 70
     1
102
RTVSPropertyOp10
 70
     1
102
RTVSPropertyOp11
 70
     1
102
RTVSPropertyOp12
 70
     1
102
RTVSPropertyOp13
 70
     1
102
RTVSPropertyOp14
 70
     1
102
RTVSPropertyOp15
 70
     1
102
RTVSPropertyOp16
 70
     1
102
RTVSPropertyOp17
 70
     1
102
RTVSPropertyOp18
 70
     1
102
RTVSPropertyOp19
 70
     1
102
RTVSPropertyOp20
 70
     1
102
RTVSPropertyOp21
 70
     1
102
RTVSPropertyOp22
 70
     1
102
RTVSPropertyOp23
 70
     1
102
RTVSPropertyOp24
 70
     1
102
RTVSPropertyOp25
 70
     1
102
RTVSPropertyOp26
 70
     1
102
RTVSPropertyOp27
 70
     1
102
RTVSPropertyOp28
 70
     1
102
RTVSPropertyOp29
 70
     1
102
RTVSPropertyOp30
 70
     1
102
RTVSPropertyOp31
 70
     1
102
RTVSPropertyOp32
 70
     1
102
RTVSPropertyOp33
 70
     1
102
RTVSPropertyOp34
 70
     1
102
RTVSPropertyOp35
 70
     1
102
RTVSPropertyOp36
 70
     1
102
RTVSPropertyOp37
 70
     1
102
RTVSPropertyOp38
 70
     1
102
RTVSPropertyOp39
 70
     1
102
RTVSPropertyOp40
 70
     1
102
RTVSPropertyOp41
 70
     1
102
RTVSPropertyOp42
 70
     1
102
RTVSPropertyOp43
 70
     1
102
RTVSPropertyOp44
 70
     1
102
RTVSPropertyOp45
 70
     1
102
RTVSPropertyOp46
 70
     1
102
RTVSPropertyOp47
 70
     1
102
RTVSPropertyOp48
 70
     1
102
RTVSPropertyOp49
 70
     1
102
RTVSPropertyOp50
 70
     1
102
RTVSPropertyOp51
 70
     0
102
RTVSPropertyOp52
 70
     0
102
RTVSPropertyOp53
 70
     1
102
RTVSPropertyOp54
 70
     1
102
RTVSPropertyOp55
 70
     1
102
RTVSPropertyOp56
 70
     1
102
RTVSPropertyOp57
 70
     1
102
RTVSPropertyOp58
 70
     1
102
RTVSPropertyOp59
 70
     1
102
RTVSPropertyOp60
 70
     1
102
RTVSPropertyOp61
 70
     1
102
RTVSPropertyOp62
 70
     1
  0
XRECORD
  5
AFDC
102
{ACAD_REACTORS
330
AFDB
102
}
330
AFDB
100
AcDbXrecord
280
     1
102
RTVSPost2010Prop28
280
     0
102
RTVSPost2010PropOp28
 70
     1
102
RTVSPost2010Prop29
280
     1
102
RTVSPost2010PropOp29
 70
     1
102
RTVSPost2010Prop30
280
     1
102
RTVSPost2010PropOp30
 70
     1
102
RTVSPost2010Prop31
280
     0
102
RTVSPost2010PropOp31
 70
     1
102
RTVSPost2010Prop32
280
     0
102
RTVSPost2010PropOp32
 70
     1
102
RTVSPost2010Prop33
280
     0
102
RTVSPost2010PropOp33
 70
     1
102
RTVSPost2010Prop34
280
     0
102
RTVSPost2010PropOp34
 70
     1
102
RTVSPost2010Prop35
280
     0
102
RTVSPost2010PropOp35
 70
     1
102
RTVSPost2010Prop36
280
     0
102
RTVSPost2010PropOp36
 70
     1
102
RTVSPost2010Prop37
 90
       50
102
RTVSPost2010PropOp37
 70
     1
102
RTVSPost2010Prop38
140
0.0
102
RTVSPost2010PropOp38
 70
     1
102
RTVSPost2010Prop39
140
1.0
102
RTVSPost2010PropOp39
 70
     1
102
RTVSPost2010Prop40
 90
        0
102
RTVSPost2010PropOp40
 70
     1
102
RTVSPost2010Prop41ColorIndex
 90
       18
102
RTVSPost2010Prop41ColorRGB
 90
        0
102
RTVSPost2010PropOp41
 70
     1
102
RTVSPost2010Prop42
 90
       50
102
RTVSPost2010PropOp42
 70
     1
102
RTVSPost2010Prop43
 90
        3
102
RTVSPost2010PropOp43
 70
     1
102
RTVSPost2010Prop44ColorIndex
 90
        5
102
RTVSPost2010Prop44ColorRGB
 90
      255
102
RTVSPost2010PropOp44
 70
     1
102
RTVSPost2010Prop45
280
     0
102
RTVSPost2010PropOp45
 70
     1
102
RTVSPost2010Prop46
 90
       50
102
RTVSPost2010PropOp46
 70
     1
102
RTVSPost2010Prop47
 90
       50
102
RTVSPost2010PropOp47
 70
     1
102
RTVSPost2010Prop48
 90
       50
102
RTVSPost2010PropOp48
 70
     1
102
RTVSPost2010Prop49
280
     0
102
RTVSPost2010PropOp49
 70
     1
102
RTVSPost2010Prop50
 90
       50
102
RTVSPost2010PropOp50
 70
     1
102
RTVSPost2010Prop51ColorIndex
 90
      256
102
RTVSPost2010Prop51ColorRGB
 90
-16777216
102
RTVSPost2010PropOp51
 70
     0
102
RTVSPost2010Prop52
140
1.0
102
RTVSPost2010PropOp52
 70
     0
102
RTVSPost2010Prop53
 90
        2
102
RTVSPost2010PropOp53
 70
     1
102
RTVSPost2010Prop54
  1
strokes_ogs.tif
102
RTVSPost2010PropOp54
 70
     1
102
RTVSPost2010Prop55
280
     0
102
RTVSPost2010PropOp55
 70
     1
102
RTVSPost2010Prop56
140
1.0
102
RTVSPost2010PropOp56
 70
     1
102
RTVSPost2010Prop57
140
1.0
102
RTVSPost2010PropOp57
 70
     1
102
RTVSPropertyOp0
 70
     1
102
RTVSPropertyOp1
 70
     1
102
RTVSPropertyOp2
 70
     1
102
RTVSPropertyOp3
 70
     1
102
RTVSPropertyOp4
 70
     1
102
RTVSPropertyOp5
 70
     1
102
RTVSPropertyOp6
 70
     1
102
RTVSPropertyOp7
 70
     1
102
RTVSPropertyOp8
 70
     1
102
RTVSPropertyOp9
 70
     1
102
RTVSPropertyOp10
 70
     1
102
RTVSPropertyOp11
 70
     1
102
RTVSPropertyOp12
 70
     1
102
RTVSPropertyOp13
 70
     1
102
RTVSPropertyOp14
 70
     1
102
RTVSPropertyOp15
 70
     1
102
RTVSPropertyOp16
 70
     1
102
RTVSPropertyOp17
 70
     1
102
RTVSPropertyOp18
 70
     1
102
RTVSPropertyOp19
 70
     1
102
RTVSPropertyOp20
 70
     1
102
RTVSPropertyOp21
 70
     1
102
RTVSPropertyOp22
 70
     1
102
RTVSPropertyOp23
 70
     1
102
RTVSPropertyOp24
 70
     1
102
RTVSPropertyOp25
 70
     1
102
RTVSPropertyOp26
 70
     1
102
RTVSPropertyOp27
 70
     1
102
RTVSPropertyOp28
 70
     1
102
RTVSPropertyOp29
 70
     1
102
RTVSPropertyOp30
 70
     1
102
RTVSPropertyOp31
 70
     1
102
RTVSPropertyOp32
 70
     1
102
RTVSPropertyOp33
 70
     1
102
RTVSPropertyOp34
 70
     1
102
RTVSPropertyOp35
 70
     1
102
RTVSPropertyOp36
 70
     1
102
RTVSPropertyOp37
 70
     1
102
RTVSPropertyOp38
 70
     1
102
RTVSPropertyOp39
 70
     1
102
RTVSPropertyOp40
 70
     1
102
RTVSPropertyOp41
 70
     1
102
RTVSPropertyOp42
 70
     1
102
RTVSPropertyOp43
 70
     1
102
RTVSPropertyOp44
 70
     1
102
RTVSPropertyOp45
 70
     1
102
RTVSPropertyOp46
 70
     1
102
RTVSPropertyOp47
 70
     1
102
RTVSPropertyOp48
 70
     1
102
RTVSPropertyOp49
 70
     1
102
RTVSPropertyOp50
 70
     1
102
RTVSPropertyOp51
 70
     0
102
RTVSPropertyOp52
 70
     0
102
RTVSPropertyOp53
 70
     1
102
RTVSPropertyOp54
 70
     1
102
RTVSPropertyOp55
 70
     1
102
RTVSPropertyOp56
 70
     1
102
RTVSPropertyOp57
 70
     1
102
RTVSPropertyOp58
 70
     1
102
RTVSPropertyOp59
 70
     1
102
RTVSPropertyOp60
 70
     1
102
RTVSPropertyOp61
 70
     1
102
RTVSPropertyOp62
 70
     1
  0
XRECORD
  5
AFD6
102
{ACAD_REACTORS
330
AFD5
102
}
330
AFD5
100
AcDbXrecord
280
     1
102
RTVSPost2010Prop28
280
     0
102
RTVSPost2010PropOp28
 70
     1
102
RTVSPost2010Prop29
280
     1
102
RTVSPost2010PropOp29
 70
     1
102
RTVSPost2010Prop30
280
     1
102
RTVSPost2010PropOp30
 70
     1
102
RTVSPost2010Prop31
280
     0
102
RTVSPost2010PropOp31
 70
     1
102
RTVSPost2010Prop32
280
     0
102
RTVSPost2010PropOp32
 70
     1
102
RTVSPost2010Prop33
280
     0
102
RTVSPost2010PropOp33
 70
     1
102
RTVSPost2010Prop34
280
     0
102
RTVSPost2010PropOp34
 70
     1
102
RTVSPost2010Prop35
280
     0
102
RTVSPost2010PropOp35
 70
     1
102
RTVSPost2010Prop36
280
     0
102
RTVSPost2010PropOp36
 70
     1
102
RTVSPost2010Prop37
 90
       50
102
RTVSPost2010PropOp37
 70
     1
102
RTVSPost2010Prop38
140
0.0
102
RTVSPost2010PropOp38
 70
     1
102
RTVSPost2010Prop39
140
1.0
102
RTVSPost2010PropOp39
 70
     1
102
RTVSPost2010Prop40
 90
        0
102
RTVSPost2010PropOp40
 70
     1
102
RTVSPost2010Prop41ColorIndex
 90
       18
102
RTVSPost2010Prop41ColorRGB
 90
        0
102
RTVSPost2010PropOp41
 70
     1
102
RTVSPost2010Prop42
 90
       50
102
RTVSPost2010PropOp42
 70
     1
102
RTVSPost2010Prop43
 90
        3
102
RTVSPost2010PropOp43
 70
     1
102
RTVSPost2010Prop44ColorIndex
 90
        5
102
RTVSPost2010Prop44ColorRGB
 90
      255
102
RTVSPost2010PropOp44
 70
     1
102
RTVSPost2010Prop45
280
     0
102
RTVSPost2010PropOp45
 70
     1
102
RTVSPost2010Prop46
 90
       50
102
RTVSPost2010PropOp46
 70
     1
102
RTVSPost2010Prop47
 90
       50
102
RTVSPost2010PropOp47
 70
     1
102
RTVSPost2010Prop48
 90
       50
102
RTVSPost2010PropOp48
 70
     1
102
RTVSPost2010Prop49
280
     0
102
RTVSPost2010PropOp49
 70
     1
102
RTVSPost2010Prop50
 90
       50
102
RTVSPost2010PropOp50
 70
     1
102
RTVSPost2010Prop51ColorIndex
 90
      256
102
RTVSPost2010Prop51ColorRGB
 90
-16777216
102
RTVSPost2010PropOp51
 70
     0
102
RTVSPost2010Prop52
140
1.0
102
RTVSPost2010PropOp52
 70
     0
102
RTVSPost2010Prop53
 90
        2
102
RTVSPost2010PropOp53
 70
     1
102
RTVSPost2010Prop54
  1
strokes_ogs.tif
102
RTVSPost2010PropOp54
 70
     1
102
RTVSPost2010Prop55
280
     0
102
RTVSPost2010PropOp55
 70
     1
102
RTVSPost2010Prop56
140
1.0
102
RTVSPost2010PropOp56
 70
     1
102
RTVSPost2010Prop57
140
1.0
102
RTVSPost2010PropOp57
 70
     1
102
RTVSPropertyOp0
 70
     1
102
RTVSPropertyOp1
 70
     1
102
RTVSPropertyOp2
 70
     1
102
RTVSPropertyOp3
 70
     1
102
RTVSPropertyOp4
 70
     1
102
RTVSPropertyOp5
 70
     1
102
RTVSPropertyOp6
 70
     1
102
RTVSPropertyOp7
 70
     1
102
RTVSPropertyOp8
 70
     1
102
RTVSPropertyOp9
 70
     1
102
RTVSPropertyOp10
 70
     1
102
RTVSPropertyOp11
 70
     1
102
RTVSPropertyOp12
 70
     1
102
RTVSPropertyOp13
 70
     1
102
RTVSPropertyOp14
 70
     1
102
RTVSPropertyOp15
 70
     1
102
RTVSPropertyOp16
 70
     1
102
RTVSPropertyOp17
 70
     1
102
RTVSPropertyOp18
 70
     1
102
RTVSPropertyOp19
 70
     1
102
RTVSPropertyOp20
 70
     1
102
RTVSPropertyOp21
 70
     1
102
RTVSPropertyOp22
 70
     1
102
RTVSPropertyOp23
 70
     1
102
RTVSPropertyOp24
 70
     1
102
RTVSPropertyOp25
 70
     1
102
RTVSPropertyOp26
 70
     1
102
RTVSPropertyOp27
 70
     1
102
RTVSPropertyOp28
 70
     1
102
RTVSPropertyOp29
 70
     1
102
RTVSPropertyOp30
 70
     1
102
RTVSPropertyOp31
 70
     1
102
RTVSPropertyOp32
 70
     1
102
RTVSPropertyOp33
 70
     1
102
RTVSPropertyOp34
 70
     1
102
RTVSPropertyOp35
 70
     1
102
RTVSPropertyOp36
 70
     1
102
RTVSPropertyOp37
 70
     1
102
RTVSPropertyOp38
 70
     1
102
RTVSPropertyOp39
 70
     1
102
RTVSPropertyOp40
 70
     1
102
RTVSPropertyOp41
 70
     1
102
RTVSPropertyOp42
 70
     1
102
RTVSPropertyOp43
 70
     1
102
RTVSPropertyOp44
 70
     1
102
RTVSPropertyOp45
 70
     1
102
RTVSPropertyOp46
 70
     1
102
RTVSPropertyOp47
 70
     1
102
RTVSPropertyOp48
 70
     1
102
RTVSPropertyOp49
 70
     1
102
RTVSPropertyOp50
 70
     1
102
RTVSPropertyOp51
 70
     0
102
RTVSPropertyOp52
 70
     0
102
RTVSPropertyOp53
 70
     1
102
RTVSPropertyOp54
 70
     1
102
RTVSPropertyOp55
 70
     1
102
RTVSPropertyOp56
 70
     1
102
RTVSPropertyOp57
 70
     1
102
RTVSPropertyOp58
 70
     1
102
RTVSPropertyOp59
 70
     1
102
RTVSPropertyOp60
 70
     1
102
RTVSPropertyOp61
 70
     1
102
RTVSPropertyOp62
 70
     1
  0
XRECORD
  5
AFD8
102
{ACAD_REACTORS
330
AFD7
102
}
330
AFD7
100
AcDbXrecord
280
     1
102
RTVSPost2010Prop28
280
     0
102
RTVSPost2010PropOp28
 70
     1
102
RTVSPost2010Prop29
280
     1
102
RTVSPost2010PropOp29
 70
     1
102
RTVSPost2010Prop30
280
     1
102
RTVSPost2010PropOp30
 70
     1
102
RTVSPost2010Prop31
280
     0
102
RTVSPost2010PropOp31
 70
     1
102
RTVSPost2010Prop32
280
     0
102
RTVSPost2010PropOp32
 70
     1
102
RTVSPost2010Prop33
280
     0
102
RTVSPost2010PropOp33
 70
     1
102
RTVSPost2010Prop34
280
     0
102
RTVSPost2010PropOp34
 70
     1
102
RTVSPost2010Prop35
280
     0
102
RTVSPost2010PropOp35
 70
     1
102
RTVSPost2010Prop36
280
     0
102
RTVSPost2010PropOp36
 70
     1
102
RTVSPost2010Prop37
 90
       50
102
RTVSPost2010PropOp37
 70
     1
102
RTVSPost2010Prop38
140
0.0
102
RTVSPost2010PropOp38
 70
     1
102
RTVSPost2010Prop39
140
1.0
102
RTVSPost2010PropOp39
 70
     1
102
RTVSPost2010Prop40
 90
        0
102
RTVSPost2010PropOp40
 70
     1
102
RTVSPost2010Prop41ColorIndex
 90
       18
102
RTVSPost2010Prop41ColorRGB
 90
        0
102
RTVSPost2010PropOp41
 70
     1
102
RTVSPost2010Prop42
 90
       50
102
RTVSPost2010PropOp42
 70
     1
102
RTVSPost2010Prop43
 90
        3
102
RTVSPost2010PropOp43
 70
     1
102
RTVSPost2010Prop44ColorIndex
 90
        5
102
RTVSPost2010Prop44ColorRGB
 90
      255
102
RTVSPost2010PropOp44
 70
     1
102
RTVSPost2010Prop45
280
     0
102
RTVSPost2010PropOp45
 70
     1
102
RTVSPost2010Prop46
 90
       50
102
RTVSPost2010PropOp46
 70
     1
102
RTVSPost2010Prop47
 90
       50
102
RTVSPost2010PropOp47
 70
     1
102
RTVSPost2010Prop48
 90
       50
102
RTVSPost2010PropOp48
 70
     1
102
RTVSPost2010Prop49
280
     0
102
RTVSPost2010PropOp49
 70
     1
102
RTVSPost2010Prop50
 90
       50
102
RTVSPost2010PropOp50
 70
     1
102
RTVSPost2010Prop51ColorIndex
 90
      256
102
RTVSPost2010Prop51ColorRGB
 90
-16777216
102
RTVSPost2010PropOp51
 70
     0
102
RTVSPost2010Prop52
140
1.0
102
RTVSPost2010PropOp52
 70
     0
102
RTVSPost2010Prop53
 90
        2
102
RTVSPost2010PropOp53
 70
     1
102
RTVSPost2010Prop54
  1
strokes_ogs.tif
102
RTVSPost2010PropOp54
 70
     1
102
RTVSPost2010Prop55
280
     0
102
RTVSPost2010PropOp55
 70
     1
102
RTVSPost2010Prop56
140
1.0
102
RTVSPost2010PropOp56
 70
     1
102
RTVSPost2010Prop57
140
1.0
102
RTVSPost2010PropOp57
 70
     1
102
RTVSPropertyOp0
 70
     1
102
RTVSPropertyOp1
 70
     1
102
RTVSPropertyOp2
 70
     1
102
RTVSPropertyOp3
 70
     1
102
RTVSPropertyOp4
 70
     1
102
RTVSPropertyOp5
 70
     1
102
RTVSPropertyOp6
 70
     1
102
RTVSPropertyOp7
 70
     1
102
RTVSPropertyOp8
 70
     1
102
RTVSPropertyOp9
 70
     1
102
RTVSPropertyOp10
 70
     1
102
RTVSPropertyOp11
 70
     1
102
RTVSPropertyOp12
 70
     1
102
RTVSPropertyOp13
 70
     1
102
RTVSPropertyOp14
 70
     1
102
RTVSPropertyOp15
 70
     1
102
RTVSPropertyOp16
 70
     1
102
RTVSPropertyOp17
 70
     1
102
RTVSPropertyOp18
 70
     1
102
RTVSPropertyOp19
 70
     1
102
RTVSPropertyOp20
 70
     1
102
RTVSPropertyOp21
 70
     1
102
RTVSPropertyOp22
 70
     1
102
RTVSPropertyOp23
 70
     1
102
RTVSPropertyOp24
 70
     1
102
RTVSPropertyOp25
 70
     1
102
RTVSPropertyOp26
 70
     1
102
RTVSPropertyOp27
 70
     1
102
RTVSPropertyOp28
 70
     1
102
RTVSPropertyOp29
 70
     1
102
RTVSPropertyOp30
 70
     1
102
RTVSPropertyOp31
 70
     1
102
RTVSPropertyOp32
 70
     1
102
RTVSPropertyOp33
 70
     1
102
RTVSPropertyOp34
 70
     1
102
RTVSPropertyOp35
 70
     1
102
RTVSPropertyOp36
 70
     1
102
RTVSPropertyOp37
 70
     1
102
RTVSPropertyOp38
 70
     1
102
RTVSPropertyOp39
 70
     1
102
RTVSPropertyOp40
 70
     1
102
RTVSPropertyOp41
 70
     1
102
RTVSPropertyOp42
 70
     1
102
RTVSPropertyOp43
 70
     1
102
RTVSPropertyOp44
 70
     1
102
RTVSPropertyOp45
 70
     1
102
RTVSPropertyOp46
 70
     1
102
RTVSPropertyOp47
 70
     1
102
RTVSPropertyOp48
 70
     1
102
RTVSPropertyOp49
 70
     1
102
RTVSPropertyOp50
 70
     1
102
RTVSPropertyOp51
 70
     0
102
RTVSPropertyOp52
 70
     0
102
RTVSPropertyOp53
 70
     1
102
RTVSPropertyOp54
 70
     1
102
RTVSPropertyOp55
 70
     1
102
RTVSPropertyOp56
 70
     1
102
RTVSPropertyOp57
 70
     1
102
RTVSPropertyOp58
 70
     1
102
RTVSPropertyOp59
 70
     1
102
RTVSPropertyOp60
 70
     1
102
RTVSPropertyOp61
 70
     1
102
RTVSPropertyOp62
 70
     1
  0
XRECORD
  5
AFCE
102
{ACAD_REACTORS
330
AFCD
102
}
330
AFCD
100
AcDbXrecord
280
     1
102
RTVSPost2010Prop28
280
     0
102
RTVSPost2010PropOp28
 70
     1
102
RTVSPost2010Prop29
280
     1
102
RTVSPost2010PropOp29
 70
     1
102
RTVSPost2010Prop30
280
     1
102
RTVSPost2010PropOp30
 70
     1
102
RTVSPost2010Prop31
280
     0
102
RTVSPost2010PropOp31
 70
     1
102
RTVSPost2010Prop32
280
     0
102
RTVSPost2010PropOp32
 70
     1
102
RTVSPost2010Prop33
280
     0
102
RTVSPost2010PropOp33
 70
     1
102
RTVSPost2010Prop34
280
     0
102
RTVSPost2010PropOp34
 70
     1
102
RTVSPost2010Prop35
280
     0
102
RTVSPost2010PropOp35
 70
     1
102
RTVSPost2010Prop36
280
     0
102
RTVSPost2010PropOp36
 70
     1
102
RTVSPost2010Prop37
 90
       50
102
RTVSPost2010PropOp37
 70
     1
102
RTVSPost2010Prop38
140
0.0
102
RTVSPost2010PropOp38
 70
     1
102
RTVSPost2010Prop39
140
1.0
102
RTVSPost2010PropOp39
 70
     1
102
RTVSPost2010Prop40
 90
        0
102
RTVSPost2010PropOp40
 70
     1
102
RTVSPost2010Prop41ColorIndex
 90
       18
102
RTVSPost2010Prop41ColorRGB
 90
        0
102
RTVSPost2010PropOp41
 70
     1
102
RTVSPost2010Prop42
 90
       50
102
RTVSPost2010PropOp42
 70
     1
102
RTVSPost2010Prop43
 90
        3
102
RTVSPost2010PropOp43
 70
     1
102
RTVSPost2010Prop44ColorIndex
 90
        5
102
RTVSPost2010Prop44ColorRGB
 90
      255
102
RTVSPost2010PropOp44
 70
     1
102
RTVSPost2010Prop45
280
     0
102
RTVSPost2010PropOp45
 70
     1
102
RTVSPost2010Prop46
 90
       50
102
RTVSPost2010PropOp46
 70
     1
102
RTVSPost2010Prop47
 90
       50
102
RTVSPost2010PropOp47
 70
     1
102
RTVSPost2010Prop48
 90
       50
102
RTVSPost2010PropOp48
 70
     1
102
RTVSPost2010Prop49
280
     0
102
RTVSPost2010PropOp49
 70
     1
102
RTVSPost2010Prop50
 90
       50
102
RTVSPost2010PropOp50
 70
     1
102
RTVSPost2010Prop51ColorIndex
 90
      256
102
RTVSPost2010Prop51ColorRGB
 90
-16777216
102
RTVSPost2010PropOp51
 70
     0
102
RTVSPost2010Prop52
140
1.0
102
RTVSPost2010PropOp52
 70
     0
102
RTVSPost2010Prop53
 90
        2
102
RTVSPost2010PropOp53
 70
     1
102
RTVSPost2010Prop54
  1
strokes_ogs.tif
102
RTVSPost2010PropOp54
 70
     1
102
RTVSPost2010Prop55
280
     0
102
RTVSPost2010PropOp55
 70
     1
102
RTVSPost2010Prop56
140
1.0
102
RTVSPost2010PropOp56
 70
     1
102
RTVSPost2010Prop57
140
1.0
102
RTVSPost2010PropOp57
 70
     1
102
RTVSPropertyOp0
 70
     1
102
RTVSPropertyOp1
 70
     1
102
RTVSPropertyOp2
 70
     1
102
RTVSPropertyOp3
 70
     1
102
RTVSPropertyOp4
 70
     1
102
RTVSPropertyOp5
 70
     1
102
RTVSPropertyOp6
 70
     1
102
RTVSPropertyOp7
 70
     1
102
RTVSPropertyOp8
 70
     1
102
RTVSPropertyOp9
 70
     1
102
RTVSPropertyOp10
 70
     1
102
RTVSPropertyOp11
 70
     1
102
RTVSPropertyOp12
 70
     1
102
RTVSPropertyOp13
 70
     1
102
RTVSPropertyOp14
 70
     1
102
RTVSPropertyOp15
 70
     1
102
RTVSPropertyOp16
 70
     1
102
RTVSPropertyOp17
 70
     1
102
RTVSPropertyOp18
 70
     1
102
RTVSPropertyOp19
 70
     1
102
RTVSPropertyOp20
 70
     1
102
RTVSPropertyOp21
 70
     1
102
RTVSPropertyOp22
 70
     1
102
RTVSPropertyOp23
 70
     1
102
RTVSPropertyOp24
 70
     1
102
RTVSPropertyOp25
 70
     1
102
RTVSPropertyOp26
 70
     1
102
RTVSPropertyOp27
 70
     1
102
RTVSPropertyOp28
 70
     1
102
RTVSPropertyOp29
 70
     1
102
RTVSPropertyOp30
 70
     1
102
RTVSPropertyOp31
 70
     1
102
RTVSPropertyOp32
 70
     1
102
RTVSPropertyOp33
 70
     1
102
RTVSPropertyOp34
 70
     1
102
RTVSPropertyOp35
 70
     1
102
RTVSPropertyOp36
 70
     1
102
RTVSPropertyOp37
 70
     1
102
RTVSPropertyOp38
 70
     1
102
RTVSPropertyOp39
 70
     1
102
RTVSPropertyOp40
 70
     1
102
RTVSPropertyOp41
 70
     1
102
RTVSPropertyOp42
 70
     1
102
RTVSPropertyOp43
 70
     1
102
RTVSPropertyOp44
 70
     1
102
RTVSPropertyOp45
 70
     1
102
RTVSPropertyOp46
 70
     1
102
RTVSPropertyOp47
 70
     1
102
RTVSPropertyOp48
 70
     1
102
RTVSPropertyOp49
 70
     1
102
RTVSPropertyOp50
 70
     1
102
RTVSPropertyOp51
 70
     0
102
RTVSPropertyOp52
 70
     0
102
RTVSPropertyOp53
 70
     1
102
RTVSPropertyOp54
 70
     1
102
RTVSPropertyOp55
 70
     1
102
RTVSPropertyOp56
 70
     1
102
RTVSPropertyOp57
 70
     1
102
RTVSPropertyOp58
 70
     1
102
RTVSPropertyOp59
 70
     1
102
RTVSPropertyOp60
 70
     1
102
RTVSPropertyOp61
 70
     1
102
RTVSPropertyOp62
 70
     1
  0
XRECORD
  5
AFC2
102
{ACAD_REACTORS
330
AFC1
102
}
330
AFC1
100
AcDbXrecord
280
     1
102
RTVSPost2010Prop28
280
     0
102
RTVSPost2010PropOp28
 70
     1
102
RTVSPost2010Prop29
280
     1
102
RTVSPost2010PropOp29
 70
     1
102
RTVSPost2010Prop30
280
     1
102
RTVSPost2010PropOp30
 70
     1
102
RTVSPost2010Prop31
280
     0
102
RTVSPost2010PropOp31
 70
     1
102
RTVSPost2010Prop32
280
     0
102
RTVSPost2010PropOp32
 70
     1
102
RTVSPost2010Prop33
280
     0
102
RTVSPost2010PropOp33
 70
     1
102
RTVSPost2010Prop34
280
     0
102
RTVSPost2010PropOp34
 70
     1
102
RTVSPost2010Prop35
280
     0
102
RTVSPost2010PropOp35
 70
     1
102
RTVSPost2010Prop36
280
     0
102
RTVSPost2010PropOp36
 70
     1
102
RTVSPost2010Prop37
 90
       50
102
RTVSPost2010PropOp37
 70
     1
102
RTVSPost2010Prop38
140
0.0
102
RTVSPost2010PropOp38
 70
     1
102
RTVSPost2010Prop39
140
1.0
102
RTVSPost2010PropOp39
 70
     1
102
RTVSPost2010Prop40
 90
        0
102
RTVSPost2010PropOp40
 70
     1
102
RTVSPost2010Prop41ColorIndex
 90
       18
102
RTVSPost2010Prop41ColorRGB
 90
        0
102
RTVSPost2010PropOp41
 70
     1
102
RTVSPost2010Prop42
 90
       50
102
RTVSPost2010PropOp42
 70
     1
102
RTVSPost2010Prop43
 90
        3
102
RTVSPost2010PropOp43
 70
     1
102
RTVSPost2010Prop44ColorIndex
 90
        5
102
RTVSPost2010Prop44ColorRGB
 90
      255
102
RTVSPost2010PropOp44
 70
     1
102
RTVSPost2010Prop45
280
     0
102
RTVSPost2010PropOp45
 70
     1
102
RTVSPost2010Prop46
 90
       50
102
RTVSPost2010PropOp46
 70
     1
102
RTVSPost2010Prop47
 90
       50
102
RTVSPost2010PropOp47
 70
     1
102
RTVSPost2010Prop48
 90
       50
102
RTVSPost2010PropOp48
 70
     1
102
RTVSPost2010Prop49
280
     0
102
RTVSPost2010PropOp49
 70
     1
102
RTVSPost2010Prop50
 90
       50
102
RTVSPost2010PropOp50
 70
     1
102
RTVSPost2010Prop51ColorIndex
 90
      256
102
RTVSPost2010Prop51ColorRGB
 90
-16777216
102
RTVSPost2010PropOp51
 70
     0
102
RTVSPost2010Prop52
140
1.0
102
RTVSPost2010PropOp52
 70
     0
102
RTVSPost2010Prop53
 90
        2
102
RTVSPost2010PropOp53
 70
     1
102
RTVSPost2010Prop54
  1
strokes_ogs.tif
102
RTVSPost2010PropOp54
 70
     1
102
RTVSPost2010Prop55
280
     0
102
RTVSPost2010PropOp55
 70
     1
102
RTVSPost2010Prop56
140
1.0
102
RTVSPost2010PropOp56
 70
     1
102
RTVSPost2010Prop57
140
1.0
102
RTVSPost2010PropOp57
 70
     1
102
RTVSPropertyOp0
 70
     1
102
RTVSPropertyOp1
 70
     1
102
RTVSPropertyOp2
 70
     1
102
RTVSPropertyOp3
 70
     1
102
RTVSPropertyOp4
 70
     1
102
RTVSPropertyOp5
 70
     1
102
RTVSPropertyOp6
 70
     1
102
RTVSPropertyOp7
 70
     1
102
RTVSPropertyOp8
 70
     1
102
RTVSPropertyOp9
 70
     1
102
RTVSPropertyOp10
 70
     1
102
RTVSPropertyOp11
 70
     1
102
RTVSPropertyOp12
 70
     1
102
RTVSPropertyOp13
 70
     1
102
RTVSPropertyOp14
 70
     1
102
RTVSPropertyOp15
 70
     1
102
RTVSPropertyOp16
 70
     1
102
RTVSPropertyOp17
 70
     1
102
RTVSPropertyOp18
 70
     1
102
RTVSPropertyOp19
 70
     1
102
RTVSPropertyOp20
 70
     1
102
RTVSPropertyOp21
 70
     1
102
RTVSPropertyOp22
 70
     1
102
RTVSPropertyOp23
 70
     1
102
RTVSPropertyOp24
 70
     1
102
RTVSPropertyOp25
 70
     1
102
RTVSPropertyOp26
 70
     1
102
RTVSPropertyOp27
 70
     1
102
RTVSPropertyOp28
 70
     1
102
RTVSPropertyOp29
 70
     1
102
RTVSPropertyOp30
 70
     1
102
RTVSPropertyOp31
 70
     1
102
RTVSPropertyOp32
 70
     1
102
RTVSPropertyOp33
 70
     1
102
RTVSPropertyOp34
 70
     1
102
RTVSPropertyOp35
 70
     1
102
RTVSPropertyOp36
 70
     1
102
RTVSPropertyOp37
 70
     1
102
RTVSPropertyOp38
 70
     1
102
RTVSPropertyOp39
 70
     1
102
RTVSPropertyOp40
 70
     1
102
RTVSPropertyOp41
 70
     1
102
RTVSPropertyOp42
 70
     1
102
RTVSPropertyOp43
 70
     1
102
RTVSPropertyOp44
 70
     1
102
RTVSPropertyOp45
 70
     1
102
RTVSPropertyOp46
 70
     1
102
RTVSPropertyOp47
 70
     1
102
RTVSPropertyOp48
 70
     1
102
RTVSPropertyOp49
 70
     1
102
RTVSPropertyOp50
 70
     1
102
RTVSPropertyOp51
 70
     0
102
RTVSPropertyOp52
 70
     0
102
RTVSPropertyOp53
 70
     1
102
RTVSPropertyOp54
 70
     1
102
RTVSPropertyOp55
 70
     1
102
RTVSPropertyOp56
 70
     1
102
RTVSPropertyOp57
 70
     1
102
RTVSPropertyOp58
 70
     1
102
RTVSPropertyOp59
 70
     1
102
RTVSPropertyOp60
 70
     1
102
RTVSPropertyOp61
 70
     1
102
RTVSPropertyOp62
 70
     1
  0
XRECORD
  5
AFDA
102
{ACAD_REACTORS
330
AFD9
102
}
330
AFD9
100
AcDbXrecord
280
     1
102
RTVSPost2010Prop28
280
     0
102
RTVSPost2010PropOp28
 70
     1
102
RTVSPost2010Prop29
280
     1
102
RTVSPost2010PropOp29
 70
     1
102
RTVSPost2010Prop30
280
     1
102
RTVSPost2010PropOp30
 70
     1
102
RTVSPost2010Prop31
280
     0
102
RTVSPost2010PropOp31
 70
     1
102
RTVSPost2010Prop32
280
     0
102
RTVSPost2010PropOp32
 70
     1
102
RTVSPost2010Prop33
280
     0
102
RTVSPost2010PropOp33
 70
     1
102
RTVSPost2010Prop34
280
     0
102
RTVSPost2010PropOp34
 70
     1
102
RTVSPost2010Prop35
280
     0
102
RTVSPost2010PropOp35
 70
     1
102
RTVSPost2010Prop36
280
     0
102
RTVSPost2010PropOp36
 70
     1
102
RTVSPost2010Prop37
 90
       50
102
RTVSPost2010PropOp37
 70
     1
102
RTVSPost2010Prop38
140
0.0
102
RTVSPost2010PropOp38
 70
     1
102
RTVSPost2010Prop39
140
1.0
102
RTVSPost2010PropOp39
 70
     1
102
RTVSPost2010Prop40
 90
        0
102
RTVSPost2010PropOp40
 70
     1
102
RTVSPost2010Prop41ColorIndex
 90
       18
102
RTVSPost2010Prop41ColorRGB
 90
        0
102
RTVSPost2010PropOp41
 70
     1
102
RTVSPost2010Prop42
 90
       50
102
RTVSPost2010PropOp42
 70
     1
102
RTVSPost2010Prop43
 90
        3
102
RTVSPost2010PropOp43
 70
     1
102
RTVSPost2010Prop44ColorIndex
 90
        5
102
RTVSPost2010Prop44ColorRGB
 90
      255
102
RTVSPost2010PropOp44
 70
     1
102
RTVSPost2010Prop45
280
     0
102
RTVSPost2010PropOp45
 70
     1
102
RTVSPost2010Prop46
 90
       50
102
RTVSPost2010PropOp46
 70
     1
102
RTVSPost2010Prop47
 90
       50
102
RTVSPost2010PropOp47
 70
     1
102
RTVSPost2010Prop48
 90
       50
102
RTVSPost2010PropOp48
 70
     1
102
RTVSPost2010Prop49
280
     0
102
RTVSPost2010PropOp49
 70
     1
102
RTVSPost2010Prop50
 90
       50
102
RTVSPost2010PropOp50
 70
     1
102
RTVSPost2010Prop51ColorIndex
 90
      256
102
RTVSPost2010Prop51ColorRGB
 90
-16777216
102
RTVSPost2010PropOp51
 70
     0
102
RTVSPost2010Prop52
140
1.0
102
RTVSPost2010PropOp52
 70
     0
102
RTVSPost2010Prop53
 90
        2
102
RTVSPost2010PropOp53
 70
     1
102
RTVSPost2010Prop54
  1
strokes_ogs.tif
102
RTVSPost2010PropOp54
 70
     1
102
RTVSPost2010Prop55
280
     0
102
RTVSPost2010PropOp55
 70
     1
102
RTVSPost2010Prop56
140
1.0
102
RTVSPost2010PropOp56
 70
     1
102
RTVSPost2010Prop57
140
1.0
102
RTVSPost2010PropOp57
 70
     1
102
RTVSPropertyOp0
 70
     1
102
RTVSPropertyOp1
 70
     1
102
RTVSPropertyOp2
 70
     1
102
RTVSPropertyOp3
 70
     1
102
RTVSPropertyOp4
 70
     1
102
RTVSPropertyOp5
 70
     1
102
RTVSPropertyOp6
 70
     1
102
RTVSPropertyOp7
 70
     1
102
RTVSPropertyOp8
 70
     1
102
RTVSPropertyOp9
 70
     1
102
RTVSPropertyOp10
 70
     1
102
RTVSPropertyOp11
 70
     1
102
RTVSPropertyOp12
 70
     1
102
RTVSPropertyOp13
 70
     1
102
RTVSPropertyOp14
 70
     1
102
RTVSPropertyOp15
 70
     1
102
RTVSPropertyOp16
 70
     1
102
RTVSPropertyOp17
 70
     1
102
RTVSPropertyOp18
 70
     1
102
RTVSPropertyOp19
 70
     1
102
RTVSPropertyOp20
 70
     1
102
RTVSPropertyOp21
 70
     1
102
RTVSPropertyOp22
 70
     1
102
RTVSPropertyOp23
 70
     1
102
RTVSPropertyOp24
 70
     1
102
RTVSPropertyOp25
 70
     1
102
RTVSPropertyOp26
 70
     1
102
RTVSPropertyOp27
 70
     1
102
RTVSPropertyOp28
 70
     1
102
RTVSPropertyOp29
 70
     1
102
RTVSPropertyOp30
 70
     1
102
RTVSPropertyOp31
 70
     1
102
RTVSPropertyOp32
 70
     1
102
RTVSPropertyOp33
 70
     1
102
RTVSPropertyOp34
 70
     1
102
RTVSPropertyOp35
 70
     1
102
RTVSPropertyOp36
 70
     1
102
RTVSPropertyOp37
 70
     1
102
RTVSPropertyOp38
 70
     1
102
RTVSPropertyOp39
 70
     1
102
RTVSPropertyOp40
 70
     1
102
RTVSPropertyOp41
 70
     1
102
RTVSPropertyOp42
 70
     1
102
RTVSPropertyOp43
 70
     1
102
RTVSPropertyOp44
 70
     1
102
RTVSPropertyOp45
 70
     1
102
RTVSPropertyOp46
 70
     1
102
RTVSPropertyOp47
 70
     1
102
RTVSPropertyOp48
 70
     1
102
RTVSPropertyOp49
 70
     1
102
RTVSPropertyOp50
 70
     1
102
RTVSPropertyOp51
 70
     0
102
RTVSPropertyOp52
 70
     0
102
RTVSPropertyOp53
 70
     1
102
RTVSPropertyOp54
 70
     1
102
RTVSPropertyOp55
 70
     1
102
RTVSPropertyOp56
 70
     1
102
RTVSPropertyOp57
 70
     1
102
RTVSPropertyOp58
 70
     1
102
RTVSPropertyOp59
 70
     1
102
RTVSPropertyOp60
 70
     1
102
RTVSPropertyOp61
 70
     1
102
RTVSPropertyOp62
 70
     1
  0
ENDSEC
  0
EOF
