  0
SECTION
  2
HEADER
  9
$ACADVER
  1
AC1015
  9
$ACADMAINTVER
 70
    20
  9
$DWGCODEPAGE
  3
ANSI_932
  9
$INSBASE
 10
0.0
 20
0.0
 30
0.0
  9
$EXTMIN
 10
10.0
 20
9.999999999999998
 30
0.0
  9
$EXTMAX
 10
497.2202229999998
 20
425.8716089999998
 30
0.0
  9
$LIMMIN
 10
0.0
 20
0.0
  9
$LIMMAX
 10
650.104
 20
448.177758
  9
$ORTHOMODE
 70
     1
  9
$REGENMODE
 70
     1
  9
$FILLMODE
 70
     1
  9
$QTEXTMODE
 70
     0
  9
$MIRRTEXT
 70
     1
  9
$LTSCALE
 40
20.0
  9
$ATTMODE
 70
     1
  9
$TEXTSIZE
 40
5.0
  9
$TRACEWID
 40
1.0
  9
$TEXTSTYLE
  7
STANDARD
  9
$CLAYER
  8
0
  9
$CELTYPE
  6
BYLAYER
  9
$CECOLOR
 62
   256
  9
$CELTSCALE
 40
1.0
  9
$DISPSILH
 70
     0
  9
$DIMSCALE
 40
1.0
  9
$DIMASZ
 40
2.5
  9
$DIMEXO
 40
1.0
  9
$DIMDLI
 40
10.0
  9
$DIMRND
 40
0.0
  9
$DIMDLE
 40
0.0
  9
$DIMEXE
 40
1.0
  9
$DIMTP
 40
0.0
  9
$DIMTM
 40
0.0
  9
$DIMTXT
 40
3.2
  9
$DIMCEN
 40
0.0
  9
$DIMTSZ
 40
0.0
  9
$DIMTOL
 70
     0
  9
$DIMLIM
 70
     0
  9
$DIMTIH
 70
     0
  9
$DIMTOH
 70
     0
  9
$DIMSE1
 70
     0
  9
$DIMSE2
 70
     0
  9
$DIMTAD
 70
     3
  9
$DIMZIN
 70
     8
  9
$DIMBLK
  1

  9
$DIMASO
 70
     1
  9
$DIMSHO
 70
     1
  9
$DIMPOST
  1

  9
$DIMAPOST
  1

  9
$DIMALT
 70
     0
  9
$DIMALTD
 70
     2
  9
$DIMALTF
 40
25.4
  9
$DIMLFAC
 40
1.0
  9
$DIMTOFL
 70
     1
  9
$DIMTVP
 40
0.0
  9
$DIMTIX
 70
     0
  9
$DIMSOXD
 70
     0
  9
$DIMSAH
 70
     1
  9
$DIMBLK1
  1

  9
$DIMBLK2
  1

  9
$DIMSTYLE
  2
STANDARD
  9
$DIMCLRD
 70
     0
  9
$DIMCLRE
 70
     0
  9
$DIMCLRT
 70
     0
  9
$DIMTFAC
 40
1.0
  9
$DIMGAP
 40
1.0
  9
$DIMJUST
 70
     0
  9
$DIMSD1
 70
     0
  9
$DIMSD2
 70
     0
  9
$DIMTOLJ
 70
     1
  9
$DIMTZIN
 70
     0
  9
$DIMALTZ
 70
     0
  9
$DIMALTTZ
 70
     0
  9
$DIMUPT
 70
     0
  9
$DIMDEC
 70
     4
  9
$DIMTDEC
 70
     4
  9
$DIMALTU
 70
     2
  9
$DIMALTTD
 70
     2
  9
$DIMTXSTY
  7
STANDARD
  9
$DIMAUNIT
 70
     0
  9
$DIMADEC
 70
     0
  9
$DIMALTRND
 40
0.0
  9
$DIMAZIN
 70
     0
  9
$DIMDSEP
 70
    46
  9
$DIMATFIT
 70
     3
  9
$DIMFRAC
 70
     0
  9
$DIMLDRBLK
  1

  9
$DIMLUNIT
 70
     2
  9
$DIMLWD
 70
    -2
  9
$DIMLWE
 70
    -2
  9
$DIMTMOVE
 70
     0
  9
$LUNITS
 70
     2
  9
$LUPREC
 70
     4
  9
$SKETCHINC
 40
1.0
  9
$FILLETRAD
 40
2.0
  9
$AUNITS
 70
     0
  9
$AUPREC
 70
     2
  9
$MENU
  1
.
  9
$ELEVATION
 40
0.0
  9
$PELEVATION
 40
0.0
  9
$THICKNESS
 40
0.0
  9
$LIMCHECK
 70
     0
  9
$CHAMFERA
 40
10.0
  9
$CHAMFERB
 40
10.0
  9
$CHAMFERC
 40
0.0
  9
$CHAMFERD
 40
0.0
  9
$SKPOLY
 70
     0
  9
$TDCREATE
 40
2451301.426850000
  9
$TDUCREATE
 40
2451301.051850000
  9
$TDUPDATE
 40
2457192.689866134
  9
$TDUUPDATE
 40
2457192.314866134
  9
$TDINDWG
 40
0.0163545255
  9
$TDUSRTIMER
 40
0.0163538426
  9
$USRTIMER
 70
     1
  9
$ANGBASE
 50
0.0
  9
$ANGDIR
 70
     0
  9
$PDMODE
 70
     0
  9
$PDSIZE
 40
0.0
  9
$PLINEWID
 40
0.0
  9
$SPLFRAME
 70
     0
  9
$SPLINETYPE
 70
     6
  9
$SPLINESEGS
 70
     8
  9
$HANDSEED
  5
AA18
  9
$SURFTAB1
 70
     6
  9
$SURFTAB2
 70
     6
  9
$SURFTYPE
 70
     6
  9
$SURFU
 70
     6
  9
$SURFV
 70
     6
  9
$UCSBASE
  2

  9
$UCSNAME
  2

  9
$UCSORG
 10
0.0
 20
0.0
 30
0.0
  9
$UCSXDIR
 10
1.0
 20
0.0
 30
0.0
  9
$UCSYDIR
 10
0.0
 20
1.0
 30
0.0
  9
$UCSORTHOREF
  2

  9
$UCSORTHOVIEW
 70
     0
  9
$UCSORGTOP
 10
0.0
 20
0.0
 30
0.0
  9
$UCSORGBOTTOM
 10
0.0
 20
0.0
 30
0.0
  9
$UCSORGLEFT
 10
0.0
 20
0.0
 30
0.0
  9
$UCSORGRIGHT
 10
0.0
 20
0.0
 30
0.0
  9
$UCSORGFRONT
 10
0.0
 20
0.0
 30
0.0
  9
$UCSORGBACK
 10
0.0
 20
0.0
 30
0.0
  9
$PUCSBASE
  2

  9
$PUCSNAME
  2

  9
$PUCSORG
 10
0.0
 20
0.0
 30
0.0
  9
$PUCSXDIR
 10
1.0
 20
0.0
 30
0.0
  9
$PUCSYDIR
 10
0.0
 20
1.0
 30
0.0
  9
$PUCSORTHOREF
  2

  9
$PUCSORTHOVIEW
 70
     0
  9
$PUCSORGTOP
 10
0.0
 20
0.0
 30
0.0
  9
$PUCSORGBOTTOM
 10
0.0
 20
0.0
 30
0.0
  9
$PUCSORGLEFT
 10
0.0
 20
0.0
 30
0.0
  9
$PUCSORGRIGHT
 10
0.0
 20
0.0
 30
0.0
  9
$PUCSORGFRONT
 10
0.0
 20
0.0
 30
0.0
  9
$PUCSORGBACK
 10
0.0
 20
0.0
 30
0.0
  9
$USERI1
 70
     0
  9
$USERI2
 70
     0
  9
$USERI3
 70
     0
  9
$USERI4
 70
     0
  9
$USERI5
 70
     0
  9
$USERR1
 40
0.0
  9
$USERR2
 40
0.0
  9
$USERR3
 40
0.0
  9
$USERR4
 40
0.0
  9
$USERR5
 40
0.0
  9
$WORLDVIEW
 70
     1
  9
$SHADEDGE
 70
     3
  9
$SHADEDIF
 70
    70
  9
$TILEMODE
 70
     1
  9
$MAXACTVP
 70
    16
  9
$PINSBASE
 10
0.0
 20
0.0
 30
0.0
  9
$PLIMCHECK
 70
     0
  9
$PEXTMIN
 10
1.000000000000000E+20
 20
1.000000000000000E+20
 30
1.000000000000000E+20
  9
$PEXTMAX
 10
-1.000000000000000E+20
 20
-1.000000000000000E+20
 30
-1.000000000000000E+20
  9
$PLIMMIN
 10
0.0
 20
0.0
  9
$PLIMMAX
 10
420.0
 20
297.0
  9
$UNITMODE
 70
     0
  9
$VISRETAIN
 70
     0
  9
$PLINEGEN
 70
     0
  9
$PSLTSCALE
 70
     0
  9
$TREEDEPTH
 70
  3020
  9
$CMLSTYLE
  2
STANDARD
  9
$CMLJUST
 70
     0
  9
$CMLSCALE
 40
1.0
  9
$PROXYGRAPHICS
 70
     1
  9
$MEASUREMENT
 70
     0
  9
$CELWEIGHT
370
    -1
  9
$ENDCAPS
280
     0
  9
$JOINSTYLE
280
     0
  9
$LWDISPLAY
290
     0
  9
$INSUNITS
 70
     0
  9
$HYPERLINKBASE
  1

  9
$STYLESHEET
  1

  9
$XEDIT
290
     1
  9
$CEPSNTYPE
380
     0
  9
$PSTYLEMODE
290
     1
  9
$FINGERPRINTGUID
  2
{48AEA269-E12F-4D0E-A8D5-3B53DA3E2AE5}
  9
$VERSIONGUID
  2
{030C718E-66B4-4A33-95FC-D2FB0B555E15}
  9
$EXTNAMES
290
     1
  9
$PSVPSCALE
 40
0.0
  9
$OLESTARTUP
290
     0
  0
ENDSEC
  0
SECTION
  2
CLASSES
  0
CLASS
  1
ACDBDICTIONARYWDFLT
  2
AcDbDictionaryWithDefault
  3
ObjectDBX Classes
 90
        0
280
     0
281
     0
  0
CLASS
  1
ACDBPLACEHOLDER
  2
AcDbPlaceHolder
  3
ObjectDBX Classes
 90
        0
280
     0
281
     0
  0
CLASS
  1
LAYOUT
  2
AcDbLayout
  3
ObjectDBX Classes
 90
        0
280
     0
281
     0
  0
CLASS
  1
DICTIONARYVAR
  2
AcDbDictionaryVar
  3
ObjectDBX Classes
 90
        0
280
     0
281
     0
  0
CLASS
  1
MATERIAL
  2
AcDbMaterial
  3
ObjectDBX Classes
 90
     1153
280
     0
281
     0
  0
CLASS
  1
VISUALSTYLE
  2
AcDbVisualStyle
  3
ObjectDBX Classes
 90
     4095
280
     0
281
     0
  0
CLASS
  1
TABLESTYLE
  2
AcDbTableStyle
  3
ObjectDBX Classes
 90
     4095
280
     0
281
     0
  0
CLASS
  1
SCALE
  2
AcDbScale
  3
ObjectDBX Classes
 90
     1153
280
     0
281
     0
  0
CLASS
  1
MLEADERSTYLE
  2
AcDbMLeaderStyle
  3
ACDB_MLEADERSTYLE_CLASS
 90
     4095
280
     0
281
     0
  0
CLASS
  1
ACDBSECTIONVIEWSTYLE
  2
AcDbSectionViewStyle
  3
ObjectDBX Classes
 90
     1025
280
     0
281
     0
  0
CLASS
  1
ACDBDETAILVIEWSTYLE
  2
AcDbDetailViewStyle
  3
ObjectDBX Classes
 90
     1025
280
     0
281
     0
  0
CLASS
  1
CELLSTYLEMAP
  2
AcDbCellStyleMap
  3
ObjectDBX Classes
 90
     1152
280
     0
281
     0
  0
ENDSEC
  0
SECTION
  2
TABLES
  0
TABLE
  2
VPORT
  5
A44A
330
0
100
AcDbSymbolTable
 70
     1
  0
VPORT
  5
A963
330
A44A
100
AcDbSymbolTableRecord
100
AcDbViewportTableRecord
  2
*ACTIVE
 70
     0
 10
0.0
 20
0.0
 11
1.0
 21
1.0
 12
413.7192162755443
 22
217.9340951516864
 13
0.0
 23
0.0
 14
10.0
 24
10.0
 15
10.0
 25
10.0
 16
0.0
 26
0.0
 36
1.0
 17
0.0
 27
0.0
 37
0.0
 40
419.2103168919245
 41
2.35006605019815
 42
50.0
 43
0.0
 44
0.0
 50
0.0
 51
0.0
 71
     0
 72
   100
 73
     1
 74
     0
 75
     0
 76
     0
 77
     0
 78
     0
281
     0
 65
     1
110
0.0
120
0.0
130
0.0
111
1.0
121
0.0
131
0.0
112
0.0
122
1.0
132
0.0
 79
     0
146
0.0
1001
ACAD_NAV_VCDISPLAY
1070
     3
  0
ENDTAB
  0
TABLE
  2
LTYPE
  5
A447
330
0
100
AcDbSymbolTable
 70
     4
  0
LTYPE
  5
A455
330
A447
100
AcDbSymbolTableRecord
100
AcDbLinetypeTableRecord
  2
BYBLOCK
 70
     0
  3

 72
    65
 73
     0
 40
0.0
  0
LTYPE
  5
A456
330
A447
100
AcDbSymbolTableRecord
100
AcDbLinetypeTableRecord
  2
BYLAYER
 70
     0
  3

 72
    65
 73
     0
 40
0.0
  0
LTYPE
  5
A457
330
A447
100
AcDbSymbolTableRecord
100
AcDbLinetypeTableRecord
  2
CONTINUOUS
 70
     0
  3
Solid line
 72
    65
 73
     0
 40
0.0
  0
LTYPE
  5
A465
330
A447
100
AcDbSymbolTableRecord
100
AcDbLinetypeTableRecord
  2
DASHED
 70
     0
  3
__ __ __ __ __ __ __ __ __ __ __ __ __ __ __ __
 72
    65
 73
     2
 40
0.75
 49
0.5
 74
     0
 49
-0.25
 74
     0
  0
LTYPE
  5
A466
330
A447
100
AcDbSymbolTableRecord
100
AcDbLinetypeTableRecord
  2
CENTER
 70
     0
  3
____ _ ____ _ ____ _ ____ _ ____ _ ____ _ ____ 
 72
    65
 73
     4
 40
2.0
 49
1.25
 74
     0
 49
-0.25
 74
     0
 49
0.25
 74
     0
 49
-0.25
 74
     0
  0
LTYPE
  5
A467
330
A447
100
AcDbSymbolTableRecord
100
AcDbLinetypeTableRecord
  2
PHANTOM
 70
     0
  3
______  __  __  ______  __  __  ______  __  __ 
 72
    65
 73
     6
 40
2.5
 49
1.25
 74
     0
 49
-0.25
 74
     0
 49
0.25
 74
     0
 49
-0.25
 74
     0
 49
0.25
 74
     0
 49
-0.25
 74
     0
  0
ENDTAB
  0
TABLE
  2
LAYER
  5
A444
330
0
100
AcDbSymbolTable
 70
     8
  0
LAYER
  5
A452
102
{ACAD_XDICTIONARY
360
A9BC
102
}
330
A444
100
AcDbSymbolTableRecord
100
AcDbLayerTableRecord
  2
0
 70
     0
 62
     7
  6
CONTINUOUS
370
    -3
390
A96A
  0
LAYER
  5
A468
102
{ACAD_XDICTIONARY
360
A9BE
102
}
330
A444
100
AcDbSymbolTableRecord
100
AcDbLayerTableRecord
  2
4
 70
     0
 62
     1
  6
CENTER
370
    -3
390
A96A
  0
LAYER
  5
A469
102
{ACAD_XDICTIONARY
360
A9C0
102
}
330
A444
100
AcDbSymbolTableRecord
100
AcDbLayerTableRecord
  2
5
 70
     0
 62
     6
  6
PHANTOM
370
    -3
390
A96A
  0
LAYER
  5
A46A
102
{ACAD_XDICTIONARY
360
A9C2
102
}
330
A444
100
AcDbSymbolTableRecord
100
AcDbLayerTableRecord
  2
1
 70
     0
 62
     7
  6
CONTINUOUS
370
    -3
390
A96A
  0
LAYER
  5
A46B
102
{ACAD_XDICTIONARY
360
A9C4
102
}
330
A444
100
AcDbSymbolTableRecord
100
AcDbLayerTableRecord
  2
2
 70
     0
 62
     4
  6
CONTINUOUS
370
    -3
390
A96A
  0
LAYER
  5
A46C
102
{ACAD_XDICTIONARY
360
A9C6
102
}
330
A444
100
AcDbSymbolTableRecord
100
AcDbLayerTableRecord
  2
3
 70
     0
 62
     2
  6
DASHED
370
    -3
390
A96A
  0
LAYER
  5
A46D
102
{ACAD_XDICTIONARY
360
A9C8
102
}
330
A444
100
AcDbSymbolTableRecord
100
AcDbLayerTableRecord
  2
6
 70
     0
 62
     5
  6
CONTINUOUS
370
    -3
390
A96A
  0
LAYER
  5
A46E
102
{ACAD_XDICTIONARY
360
A9CA
102
}
330
A444
100
AcDbSymbolTableRecord
100
AcDbLayerTableRecord
  2
7
 70
     0
 62
     3
  6
CONTINUOUS
370
    -3
390
A96A
  0
ENDTAB
  0
TABLE
  2
STYLE
  5
A445
330
0
100
AcDbSymbolTable
 70
     1
  0
STYLE
  5
A453
330
A445
100
AcDbSymbolTableRecord
100
AcDbTextStyleTableRecord
  2
STANDARD
 70
     0
 40
0.0
 41
1.0
 50
0.0
 71
     0
 42
5.0
  3
txt
  4

  0
ENDTAB
  0
TABLE
  2
VIEW
  5
A448
330
0
100
AcDbSymbolTable
 70
     0
  0
ENDTAB
  0
TABLE
  2
UCS
  5
A449
330
0
100
AcDbSymbolTable
 70
     0
  0
ENDTAB
  0
TABLE
  2
APPID
  5
A44B
330
0
100
AcDbSymbolTable
 70
     3
  0
APPID
  5
A454
330
A44B
100
AcDbSymbolTableRecord
100
AcDbRegAppTableRecord
  2
ACAD
 70
     0
  0
APPID
  5
A9D6
330
A44B
100
AcDbSymbolTableRecord
100
AcDbRegAppTableRecord
  2
ACAD_NAV_VCDISPLAY
 70
     0
  0
APPID
  5
AA0F
330
A44B
100
AcDbSymbolTableRecord
100
AcDbRegAppTableRecord
  2
ACAD_MLEADERVER
 70
     0
  0
ENDTAB
  0
TABLE
  2
DIMSTYLE
  5
A44C
330
0
100
AcDbSymbolTable
 70
     1
100
AcDbDimStyleTable
 71
     0
  0
DIMSTYLE
105
A470
330
A44C
100
AcDbSymbolTableRecord
100
AcDbDimStyleTableRecord
  2
STANDARD
 70
     0
 41
2.5
 42
1.0
 43
10.0
 44
1.0
 73
     0
 74
     0
 77
     3
 78
     8
140
3.2
141
0.0
147
1.0
172
     1
173
     1
284
     8
285
     8
286
     8
340
A453
  0
ENDTAB
  0
TABLE
  2
BLOCK_RECORD
  5
A443
330
0
100
AcDbSymbolTable
 70
     0
  0
BLOCK_RECORD
  5
A460
102
{ACAD_XDICTIONARY
360
A7D2
102
}
330
A443
100
AcDbSymbolTableRecord
100
AcDbBlockTableRecord
  2
*MODEL_SPACE
340
A9B8
  0
BLOCK_RECORD
  5
A45C
102
{ACAD_XDICTIONARY
360
A7D0
102
}
330
A443
100
AcDbSymbolTableRecord
100
AcDbBlockTableRecord
  2
*PAPER_SPACE
340
A9B9
  0
ENDTAB
  0
ENDSEC
  0
SECTION
  2
BLOCKS
  0
BLOCK
  5
A461
330
A460
100
AcDbEntity
  8
0
100
AcDbBlockBegin
  2
*MODEL_SPACE
 70
     0
 10
0.0
 20
0.0
 30
0.0
  3
*MODEL_SPACE
  1

  0
ENDBLK
  5
A462
330
A460
100
AcDbEntity
  8
0
100
AcDbBlockEnd
  0
BLOCK
  5
A45D
330
A45C
100
AcDbEntity
 67
     1
  8
0
100
AcDbBlockBegin
  2
*PAPER_SPACE
 70
     0
 10
0.0
 20
0.0
 30
0.0
  3
*PAPER_SPACE
  1

  0
ENDBLK
  5
A45E
330
A45C
100
AcDbEntity
 67
     1
  8
0
100
AcDbBlockEnd
  0
ENDSEC
  0
SECTION
  2
ENTITIES
  0
TEXT
  5
A478
330
A460
100
AcDbEntity
  8
7
  6
Continuous
100
AcDbText
 10
10.0
 20
18.0
 30
0.0
 40
3.0
  1
TYPE No.TCA-415EA-R100
100
AcDbText
  0
TEXT
  5
A479
330
A460
100
AcDbEntity
  8
7
  6
Continuous
100
AcDbText
 10
10.0
 20
26.0
 30
0.0
 40
3.0
  1
CODE No.9780
100
AcDbText
  0
TEXT
  5
A47A
330
A460
100
AcDbEntity
  8
1
  6
Continuous
100
AcDbText
 10
10.0
 20
10.0
 30
0.0
 40
1.399999999999999
  1
LAYER
100
AcDbText
  0
TEXT
  5
A47B
330
A460
100
AcDbEntity
  8
1
  6
Continuous
100
AcDbText
 10
17.97951099999998
 20
10.04873699999998
 30
0.0
 40
1.399999999999999
  1
1
100
AcDbText
  0
TEXT
  5
A47C
330
A460
100
AcDbEntity
  8
7
  6
Continuous
100
AcDbText
 10
29.97951099999999
 20
10.04873699999998
 30
0.0
 40
1.399999999999999
  1
7
100
AcDbText
  0
TEXT
  5
A47D
330
A460
100
AcDbEntity
  8
4
  6
CENTER
100
AcDbText
 10
23.97951099999999
 20
10.04873699999998
 30
0.0
 40
1.399999999999999
  1
4
100
AcDbText
  0
TEXT
  5
A47E
330
A460
100
AcDbEntity
  8
3
  6
DASHED
100
AcDbText
 10
21.979511
 20
10.04873699999998
 30
0.0
 40
1.399999999999999
  1
3
100
AcDbText
  0
TEXT
  5
A47F
330
A460
100
AcDbEntity
  8
2
  6
Continuous
100
AcDbText
 10
19.97951099999998
 20
10.04873699999998
 30
0.0
 40
1.399999999999999
  1
2
100
AcDbText
  0
TEXT
  5
A480
330
A460
100
AcDbEntity
  8
6
  6
Continuous
100
AcDbText
 10
27.979511
 20
10.04873699999998
 30
0.0
 40
1.399999999999999
  1
6
100
AcDbText
  0
TEXT
  5
A481
330
A460
100
AcDbEntity
  8
5
  6
PHANTOM
100
AcDbText
 10
25.97951099999999
 20
10.04873699999998
 30
0.0
 40
1.399999999999999
  1
5
100
AcDbText
  0
LINE
  5
A482
330
A460
100
AcDbEntity
  8
4
  6
CENTER
 48
0.8
100
AcDbLine
 10
57.22022299999999
 20
317.8716129999999
 30
0.0
 11
57.22022299999999
 21
141.871609
 31
0.0
  0
LINE
  5
A483
330
A460
100
AcDbEntity
  8
4
  6
CENTER
 48
0.8
100
AcDbLine
 10
30.720231
 20
196.871609
 30
0.0
 11
94.42223199999999
 21
196.871609
 31
0.0
  0
LINE
  5
A484
330
A460
100
AcDbEntity
  8
1
  6
Continuous
100
AcDbLine
 10
73.220223
 20
250.97366
 30
0.0
 11
73.220223
 21
185.871609
 31
0.0
  0
LINE
  5
A485
330
A460
100
AcDbEntity
  8
1
  6
Continuous
100
AcDbLine
 10
41.220223
 20
250.97366
 30
0.0
 11
41.220223
 21
203.304796
 31
0.0
  0
LINE
  5
A486
330
A460
100
AcDbEntity
  8
1
  6
Continuous
100
AcDbLine
 10
38.920233
 20
185.871609
 30
0.0
 11
41.220223
 21
185.871609
 31
0.0
  0
LINE
  5
A487
330
A460
100
AcDbEntity
  8
1
  6
Continuous
100
AcDbLine
 10
75.520218
 20
185.871609
 30
0.0
 11
73.220223
 21
185.871609
 31
0.0
  0
LINE
  5
A488
330
A460
100
AcDbEntity
  8
1
  6
Continuous
100
AcDbLine
 10
32.22022299999999
 20
255.9716009999999
 30
0.0
 11
32.22022299999999
 21
229.5590939999999
 31
0.0
  0
LINE
  5
A489
330
A460
100
AcDbEntity
  8
1
  6
Continuous
100
AcDbLine
 10
82.220223
 20
255.9716009999999
 30
0.0
 11
82.220223
 21
229.5590939999999
 31
0.0
  0
LINE
  5
A48A
330
A460
100
AcDbEntity
  8
4
  6
CENTER
 48
0.8
100
AcDbLine
 10
222.220223
 20
317.8716129999999
 30
0.0
 11
222.220223
 21
214.6049389999999
 31
0.0
  0
LINE
  5
A48B
330
A460
100
AcDbEntity
  8
1
  6
Continuous
100
AcDbLine
 10
243.1957099999999
 20
252.071608
 30
0.0
 11
247.220223
 21
252.071608
 31
0.0
  0
LINE
  5
A48C
330
A460
100
AcDbEntity
  8
4
  6
CENTER
 48
0.8
100
AcDbLine
 10
135.220223
 20
196.871609
 30
0.0
 11
245.220223
 21
196.871609
 31
0.0
  0
LINE
  5
A48D
330
A460
100
AcDbEntity
  8
4
  6
CENTER
 48
0.8
100
AcDbLine
 10
190.220223
 20
256.3725949999999
 30
0.0
 11
190.220223
 21
141.871609
 31
0.0
  0
LINE
  5
A48E
330
A460
100
AcDbEntity
  8
1
  6
Continuous
100
AcDbLine
 10
201.220223
 20
251.771612
 30
0.0
 11
201.220223
 21
209.0701759999999
 31
0.0
  0
LINE
  5
A48F
330
A460
100
AcDbEntity
  8
1
  6
Continuous
100
AcDbLine
 10
206.4499159999999
 20
203.0798669999998
 30
0.0
 11
230.178239
 21
244.524497
 31
0.0
  0
LINE
  5
A490
330
A460
100
AcDbEntity
  8
1
  6
Continuous
100
AcDbLine
 10
184.9122559999999
 20
250.8315
 30
0.0
 11
181.143984
 21
215.4958759999999
 31
0.0
  0
LINE
  5
A491
330
A460
100
AcDbEntity
  8
4
  6
CENTER
 48
0.8
100
AcDbLine
 10
222.220223
 20
425.8716089999998
 30
0.0
 11
222.220223
 21
365.8716089999999
 31
0.0
  0
LINE
  5
A492
330
A460
100
AcDbEntity
  8
1
  6
Continuous
100
AcDbLine
 10
180.931713
 20
253.371624
 30
0.0
 11
199.823926
 21
256.70283
 31
0.0
  0
LINE
  5
A493
330
A460
100
AcDbEntity
  8
1
  6
Continuous
100
AcDbLine
 10
180.931713
 20
253.371624
 30
0.0
 11
181.331104
 21
251.1065659999999
 31
0.0
  0
LINE
  5
A494
330
A460
100
AcDbEntity
  8
1
  6
Continuous
100
AcDbLine
 10
181.331104
 20
251.1065659999999
 30
0.0
 11
183.701828
 21
251.524589
 31
0.0
  0
LINE
  5
A495
330
A460
100
AcDbEntity
  8
1
  6
Continuous
100
AcDbLine
 10
87.42223199999996
 20
201.9736219999999
 30
0.0
 11
87.42223199999996
 21
191.7695959999998
 31
0.0
  0
LINE
  5
A496
330
A460
100
AcDbEntity
  8
1
  6
Continuous
100
AcDbLine
 10
85.947282
 20
193.621609
 30
0.0
 11
82.897172
 21
193.621609
 31
0.0
  0
LINE
  5
A497
330
A460
100
AcDbEntity
  8
1
  6
Continuous
100
AcDbLine
 10
85.973742
 20
200.121609
 30
0.0
 11
82.87071199999997
 21
200.121609
 31
0.0
  0
LINE
  5
A498
330
A460
100
AcDbEntity
  8
1
  6
Continuous
100
AcDbLine
 10
86.024232
 20
190.3716089999998
 30
0.0
 11
82.820222
 21
190.3716089999998
 31
0.0
  0
LINE
  5
A499
330
A460
100
AcDbEntity
  8
1
  6
Continuous
100
AcDbLine
 10
86.024232
 20
203.3716089999999
 30
0.0
 11
82.820222
 21
203.3716089999999
 31
0.0
  0
LINE
  5
A49A
330
A460
100
AcDbEntity
  8
1
  6
Continuous
100
AcDbLine
 10
86.024232
 20
190.371613
 30
0.0
 11
87.42223199999996
 21
191.7696
 31
0.0
  0
LINE
  5
A49B
330
A460
100
AcDbEntity
  8
1
  6
Continuous
100
AcDbLine
 10
87.42221200000001
 20
201.973625
 30
0.0
 11
86.024232
 21
203.371613
 31
0.0
  0
LINE
  5
A49C
330
A460
100
AcDbEntity
  8
1
  6
Continuous
100
AcDbLine
 10
35.720231
 20
201.121609
 30
0.0
 11
35.720231
 21
192.621609
 31
0.0
  0
LINE
  5
A49D
330
A460
100
AcDbEntity
  8
1
  6
Continuous
100
AcDbLine
 10
38.920228
 20
190.621609
 30
0.0
 11
37.720231
 21
190.621609
 31
0.0
  0
LINE
  5
A49E
330
A460
100
AcDbEntity
  8
1
  6
Continuous
100
AcDbLine
 10
38.920228
 20
203.121609
 30
0.0
 11
37.720231
 21
203.121609
 31
0.0
  0
LINE
  5
A49F
330
A460
100
AcDbEntity
  8
1
  6
Continuous
100
AcDbLine
 10
75.520218
 20
250.9432789999999
 30
0.0
 11
75.520218
 21
183.979137
 31
0.0
  0
LINE
  5
A4A0
330
A460
100
AcDbEntity
  8
1
  6
Continuous
100
AcDbLine
 10
38.920233
 20
250.9432789999999
 30
0.0
 11
38.920233
 21
202.224775
 31
0.0
  0
LINE
  5
A4A1
330
A460
100
AcDbEntity
  8
1
  6
Continuous
100
AcDbLine
 10
201.220223
 20
260.9716049999998
 30
0.0
 11
242.2202229999999
 21
260.9716049999998
 31
0.0
  0
LINE
  5
A4A2
330
A460
100
AcDbEntity
  8
1
  6
Continuous
100
AcDbLine
 10
37.22022299999999
 20
260.9716009999999
 30
0.0
 11
77.220223
 21
260.9716009999999
 31
0.0
  0
LINE
  5
A4A3
330
A460
100
AcDbEntity
  8
1
  6
Continuous
100
AcDbLine
 10
70.720223
 20
149.8510939999999
 30
0.0
 11
70.720223
 21
243.892124
 31
0.0
  0
LINE
  5
A4A4
330
A460
100
AcDbEntity
  8
1
  6
Continuous
100
AcDbLine
 10
43.720223
 20
149.8510939999999
 30
0.0
 11
43.720223
 21
243.892124
 31
0.0
  0
LINE
  5
A4A5
330
A460
100
AcDbEntity
  8
1
  6
Continuous
100
AcDbLine
 10
72.220223
 20
209.371609
 30
0.0
 11
72.220223
 21
184.371606
 31
0.0
  0
LINE
  5
A4A6
330
A460
100
AcDbEntity
  8
1
  6
Continuous
100
AcDbLine
 10
72.220223
 20
200.871609
 30
0.0
 11
73.22023100000001
 21
200.871609
 31
0.0
  0
LINE
  5
A4A7
330
A460
100
AcDbEntity
  8
1
  6
Continuous
100
AcDbLine
 10
72.220223
 20
192.871609
 30
0.0
 11
73.22023100000001
 21
192.871609
 31
0.0
  0
ARC
  5
A4A8
330
A460
100
AcDbEntity
  8
1
  6
Continuous
100
AcDbCircle
 10
57.22022299999999
 20
379.571619
 30
0.0
 40
126.2
100
AcDbArc
 50
263.34848
 51
276.6515
  0
ARC
  5
A4A9
330
A460
100
AcDbEntity
  8
1
  6
Continuous
100
AcDbCircle
 10
243.1957099999999
 20
237.071608
 30
0.0
 40
15.0
100
AcDbArc
 50
89.99998199999996
 51
150.2075699999998
  0
ARC
  5
A4AA
330
A460
100
AcDbEntity
  8
1
  6
Continuous
100
AcDbCircle
 10
182.426352
 20
251.096602
 30
0.0
 40
2.5
100
AcDbArc
 50
353.9128499999998
 51
100.0000199999999
  0
ARC
  5
A4AB
330
A460
100
AcDbEntity
  8
1
  6
Continuous
100
AcDbCircle
 10
57.22022299999999
 20
384.573819
 30
0.0
 40
128.4999999999998
100
AcDbArc
 50
262.8473099999999
 51
277.1526699999999
  0
ARC
  5
A4AC
330
A460
100
AcDbEntity
  8
1
  6
Continuous
100
AcDbCircle
 10
183.8754769999999
 20
250.539781
 30
0.0
 40
1.0
100
AcDbArc
 50
353.9128499999998
 51
100.00003
  0
ARC
  5
A4AD
330
A460
100
AcDbEntity
  8
1
  6
Continuous
100
AcDbCircle
 10
57.22022299999999
 20
379.601999
 30
0.0
 40
128.4999999999998
100
AcDbArc
 50
263.34847
 51
276.6515
  0
ARC
  5
A4AE
330
A460
100
AcDbEntity
  8
1
  6
Continuous
100
AcDbCircle
 10
72.220223
 20
250.97366
 30
0.0
 40
1.0
100
AcDbArc
 50
0.0
 51
96.65148000000002
  0
ARC
  5
A4AF
330
A460
100
AcDbEntity
  8
1
  6
Continuous
100
AcDbCircle
 10
42.22022299999999
 20
250.97366
 30
0.0
 40
1.0
100
AcDbArc
 50
83.348539
 51
179.9999599999999
  0
ARC
  5
A4B0
330
A460
100
AcDbEntity
  8
1
  6
Continuous
100
AcDbCircle
 10
74.42223199999998
 20
196.871609
 30
0.0
 40
12.0
100
AcDbArc
 50
344.28617
 51
15.71384
  0
ARC
  5
A4B1
330
A460
100
AcDbEntity
  8
1
  6
Continuous
100
AcDbCircle
 10
71.218211
 20
196.87161
 30
0.0
 40
12.0
100
AcDbArc
 50
344.286135
 51
15.713856
  0
ARC
  5
A4B2
330
A460
100
AcDbEntity
  8
1
  6
Continuous
100
AcDbCircle
 10
83.17223199999999
 20
201.813237
 30
0.0
 40
3.25
100
AcDbArc
 50
328.6342499999999
 51
28.65275
  0
ARC
  5
A4B3
330
A460
100
AcDbEntity
  8
1
  6
Continuous
100
AcDbCircle
 10
79.96821099999998
 20
201.813237
 30
0.0
 40
3.25
100
AcDbArc
 50
328.6341949999998
 51
55.26029799999999
  0
ARC
  5
A4B4
330
A460
100
AcDbEntity
  8
1
  6
Continuous
100
AcDbCircle
 10
79.96821
 20
191.929981
 30
0.0
 40
3.25
100
AcDbArc
 50
304.7397219999998
 51
31.365788
  0
ARC
  5
A4B5
330
A460
100
AcDbEntity
  8
1
  6
Continuous
100
AcDbCircle
 10
83.17223199999999
 20
191.929981
 30
0.0
 40
3.25
100
AcDbArc
 50
331.3472699999998
 51
31.36577
  0
ARC
  5
A4B6
330
A460
100
AcDbEntity
  8
1
  6
Continuous
100
AcDbCircle
 10
37.720231
 20
201.121609
 30
0.0
 40
2.0
100
AcDbArc
 50
90.00001800000005
 51
180.0
  0
ARC
  5
A4B7
330
A460
100
AcDbEntity
  8
1
  6
Continuous
100
AcDbCircle
 10
37.720231
 20
192.621609
 30
0.0
 40
2.0
100
AcDbArc
 50
180.0
 51
269.99998
  0
ARC
  5
A4B8
330
A460
100
AcDbEntity
  8
1
  6
Continuous
100
AcDbCircle
 10
92.220223
 20
229.5590939999999
 30
0.0
 40
60.0
100
AcDbArc
 50
179.9999799999999
 51
205.8780899999999
  0
ARC
  5
A4B9
330
A460
100
AcDbEntity
  8
1
  6
Continuous
100
AcDbCircle
 10
72.22021499999998
 20
250.9432789999999
 30
0.0
 40
3.299999999999998
100
AcDbArc
 50
0.0
 51
96.65153400000001
  0
ARC
  5
A4BA
330
A460
100
AcDbEntity
  8
1
  6
Continuous
100
AcDbCircle
 10
42.220243
 20
250.9432789999999
 30
0.0
 40
3.299999999999998
100
AcDbArc
 50
83.348484
 51
179.9999599999999
  0
ARC
  5
A4BB
330
A460
100
AcDbEntity
  8
1
  6
Continuous
100
AcDbCircle
 10
240.020218
 20
262.4496119999998
 30
0.0
 40
2.778
100
AcDbArc
 50
327.85663
 51
350.09193
  0
ARC
  5
A4BC
330
A460
100
AcDbEntity
  8
1
  6
Continuous
100
AcDbCircle
 10
222.220208
 20
262.4496119999998
 30
0.0
 40
2.778
100
AcDbArc
 50
327.8565799999999
 51
350.09193
  0
ARC
  5
A4BD
330
A460
100
AcDbEntity
  8
1
  6
Continuous
100
AcDbCircle
 10
227.7081229999998
 20
262.4496119999998
 30
0.0
 40
2.778
100
AcDbArc
 50
189.90804
 51
212.1434
  0
ARC
  5
A4BE
330
A460
100
AcDbEntity
  8
1
  6
Continuous
100
AcDbCircle
 10
236.5973359999999
 20
262.4496119999998
 30
0.0
 40
2.778
100
AcDbArc
 50
327.85663
 51
350.09193
  0
ARC
  5
A4BF
330
A460
100
AcDbEntity
  8
1
  6
Continuous
100
AcDbCircle
 10
239.1325769999999
 20
262.4496119999998
 30
0.0
 40
2.778
100
AcDbArc
 50
327.85663
 51
350.09193
  0
ARC
  5
A4C0
330
A460
100
AcDbEntity
  8
1
  6
Continuous
100
AcDbCircle
 10
204.420197
 20
262.4496119999998
 30
0.0
 40
2.778
100
AcDbArc
 50
189.9080999999999
 51
212.1433699999999
  0
ARC
  5
A4C1
330
A460
100
AcDbEntity
  8
1
  6
Continuous
100
AcDbCircle
 10
222.220208
 20
262.4496119999998
 30
0.0
 40
2.778
100
AcDbArc
 50
189.9080999999999
 51
212.1434
  0
ARC
  5
A4C2
330
A460
100
AcDbEntity
  8
1
  6
Continuous
100
AcDbCircle
 10
216.732293
 20
262.4496119999998
 30
0.0
 40
2.778
100
AcDbArc
 50
189.9080999999999
 51
212.1434
  0
ARC
  5
A4C3
330
A460
100
AcDbEntity
  8
1
  6
Continuous
100
AcDbCircle
 10
211.7790529999997
 20
262.4496119999998
 30
0.0
 40
2.778
100
AcDbArc
 50
189.9080999999999
 51
212.1434
  0
ARC
  5
A4C4
330
A460
100
AcDbEntity
  8
1
  6
Continuous
100
AcDbCircle
 10
207.843079
 20
262.4496119999998
 30
0.0
 40
2.778
100
AcDbArc
 50
189.9080999999999
 51
212.1434
  0
ARC
  5
A4C5
330
A460
100
AcDbEntity
  8
1
  6
Continuous
100
AcDbCircle
 10
205.307839
 20
262.4496119999998
 30
0.0
 40
2.778
100
AcDbArc
 50
189.9080999999999
 51
212.1433699999999
  0
ARC
  5
A4C6
330
A460
100
AcDbEntity
  8
1
  6
Continuous
100
AcDbCircle
 10
216.732293
 20
262.4496119999998
 30
0.0
 40
2.778
100
AcDbArc
 50
327.8565799999999
 51
350.0919899999999
  0
ARC
  5
A4C7
330
A460
100
AcDbEntity
  8
1
  6
Continuous
100
AcDbCircle
 10
227.7081229999998
 20
262.4496119999998
 30
0.0
 40
2.778
100
AcDbArc
 50
327.8565799999999
 51
350.09193
  0
ARC
  5
A4C8
330
A460
100
AcDbEntity
  8
1
  6
Continuous
100
AcDbCircle
 10
232.661362
 20
262.4496119999998
 30
0.0
 40
2.778
100
AcDbArc
 50
327.8565799999999
 51
350.09193
  0
ARC
  5
A4C9
330
A460
100
AcDbEntity
  8
1
  6
Continuous
100
AcDbCircle
 10
201.220223
 20
255.971604
 30
0.0
 40
5.0
100
AcDbArc
 50
89.99998199999996
 51
178.90034
  0
ARC
  5
A4CA
330
A460
100
AcDbEntity
  8
1
  6
Continuous
100
AcDbCircle
 10
46.779063
 20
262.4496119999998
 30
0.0
 40
2.778
100
AcDbArc
 50
327.8564799999998
 51
333.0638399999999
  0
ARC
  5
A4CB
330
A460
100
AcDbEntity
  8
1
  6
Continuous
100
AcDbCircle
 10
67.661355
 20
262.4496119999998
 30
0.0
 40
2.778
100
AcDbArc
 50
327.8564799999998
 51
350.09193
  0
ARC
  5
A4CC
330
A460
100
AcDbEntity
  8
1
  6
Continuous
100
AcDbCircle
 10
77.220223
 20
255.9716009999999
 30
0.0
 40
5.0
100
AcDbArc
 50
0.0
 51
89.99998199999996
  0
ARC
  5
A4CD
330
A460
100
AcDbEntity
  8
1
  6
Continuous
100
AcDbCircle
 10
37.22022299999999
 20
255.9716009999999
 30
0.0
 40
5.0
100
AcDbArc
 50
89.99998199999996
 51
179.9999599999999
  0
ARC
  5
A4CE
330
A460
100
AcDbEntity
  8
1
  6
Continuous
100
AcDbCircle
 10
62.708123
 20
262.4496119999998
 30
0.0
 40
2.778
100
AcDbArc
 50
327.8564799999998
 51
350.09193
  0
ARC
  5
A4CF
330
A460
100
AcDbEntity
  8
1
  6
Continuous
100
AcDbCircle
 10
75.020218
 20
262.4496119999998
 30
0.0
 40
2.778
100
AcDbArc
 50
327.80113
 51
350.09193
  0
ARC
  5
A4D0
330
A460
100
AcDbEntity
  8
1
  6
Continuous
100
AcDbCircle
 10
57.220203
 20
262.4496119999998
 30
0.0
 40
2.778
100
AcDbArc
 50
327.8564799999998
 51
350.09193
  0
ARC
  5
A4D1
330
A460
100
AcDbEntity
  8
1
  6
Continuous
100
AcDbCircle
 10
62.708123
 20
262.4496119999998
 30
0.0
 40
2.778
100
AcDbArc
 50
189.90804
 51
212.14351
  0
ARC
  5
A4D2
330
A460
100
AcDbEntity
  8
1
  6
Continuous
100
AcDbCircle
 10
67.661355
 20
262.4496119999998
 30
0.0
 40
2.778
100
AcDbArc
 50
206.9362
 51
212.14351
  0
ARC
  5
A4D3
330
A460
100
AcDbEntity
  8
1
  6
Continuous
100
AcDbCircle
 10
71.597329
 20
262.4496119999998
 30
0.0
 40
2.778
100
AcDbArc
 50
327.8564799999998
 51
350.09193
  0
ARC
  5
A4D4
330
A460
100
AcDbEntity
  8
1
  6
Continuous
100
AcDbCircle
 10
74.13257699999999
 20
262.4496119999998
 30
0.0
 40
2.778
100
AcDbArc
 50
327.8564799999998
 51
350.09193
  0
ARC
  5
A4D5
330
A460
100
AcDbEntity
  8
1
  6
Continuous
100
AcDbCircle
 10
39.420203
 20
262.4496119999998
 30
0.0
 40
2.778
100
AcDbArc
 50
189.9080999999999
 51
212.14351
  0
ARC
  5
A4D6
330
A460
100
AcDbEntity
  8
1
  6
Continuous
100
AcDbCircle
 10
57.220203
 20
262.4496119999998
 30
0.0
 40
2.778
100
AcDbArc
 50
189.9080999999999
 51
212.14351
  0
ARC
  5
A4D7
330
A460
100
AcDbEntity
  8
1
  6
Continuous
100
AcDbCircle
 10
51.732293
 20
262.4496119999998
 30
0.0
 40
2.778
100
AcDbArc
 50
189.9080999999999
 51
212.14351
  0
ARC
  5
A4D8
330
A460
100
AcDbEntity
  8
1
  6
Continuous
100
AcDbCircle
 10
46.779063
 20
262.4496119999998
 30
0.0
 40
2.778
100
AcDbArc
 50
189.9080999999999
 51
212.14351
  0
ARC
  5
A4D9
330
A460
100
AcDbEntity
  8
1
  6
Continuous
100
AcDbCircle
 10
42.843083
 20
262.4496119999998
 30
0.0
 40
2.778
100
AcDbArc
 50
189.9080999999999
 51
212.14351
  0
ARC
  5
A4DA
330
A460
100
AcDbEntity
  8
1
  6
Continuous
100
AcDbCircle
 10
40.30784299999999
 20
262.4496119999998
 30
0.0
 40
2.778
100
AcDbArc
 50
189.9080999999999
 51
212.14351
  0
ARC
  5
A4DB
330
A460
100
AcDbEntity
  8
1
  6
Continuous
100
AcDbCircle
 10
51.732293
 20
262.4496119999998
 30
0.0
 40
2.778
100
AcDbArc
 50
327.8564799999998
 51
350.0919899999999
  0
ARC
  5
A4DC
330
A460
100
AcDbEntity
  8
1
  6
Continuous
100
AcDbCircle
 10
190.220223
 20
196.871609
 30
0.0
 40
50.0
100
AcDbArc
 50
96.62188500000002
 51
138.1591709999999
  0
ARC
  5
A4DD
330
A460
100
AcDbEntity
  8
1
  6
Continuous
100
AcDbCircle
 10
190.220223
 20
196.871609
 30
0.0
 40
34.5
100
AcDbArc
 50
102.5056799999999
 51
131.513428
  0
ARC
  5
A4DE
330
A460
100
AcDbEntity
  8
1
  6
Continuous
100
AcDbCircle
 10
190.220223
 20
196.871609
 30
0.0
 40
15.5
100
AcDbArc
 50
178.1338979999999
 51
306.666097
  0
ARC
  5
A4DF
330
A460
100
AcDbEntity
  8
1
  6
Continuous
100
AcDbCircle
 10
45.72022299999999
 20
149.8510939999999
 30
0.0
 40
2.0
100
AcDbArc
 50
180.00002
 51
260.2634799999999
  0
ARC
  5
A4E0
330
A460
100
AcDbEntity
  8
1
  6
Continuous
100
AcDbCircle
 10
68.72022300000001
 20
243.892124
 30
0.0
 40
2.0
100
AcDbArc
 50
0.000055
 51
80.26353399999996
  0
ARC
  5
A4E1
330
A460
100
AcDbEntity
  8
1
  6
Continuous
100
AcDbCircle
 10
69.220223
 20
209.371609
 30
0.0
 40
3.0
100
AcDbArc
 50
0.000055
 51
59.999995
  0
ARC
  5
A4E2
330
A460
100
AcDbEntity
  8
1
  6
Continuous
100
AcDbCircle
 10
69.220223
 20
184.371609
 30
0.0
 40
3.0
100
AcDbArc
 50
300.00001
 51
359.99995
  0
ARC
  5
A4E3
330
A460
100
AcDbEntity
  8
1
  6
Continuous
100
AcDbCircle
 10
68.72022300000001
 20
149.8510939999999
 30
0.0
 40
2.0
100
AcDbArc
 50
279.73647
 51
359.99995
  0
ARC
  5
A4E4
330
A460
100
AcDbEntity
  8
1
  6
Continuous
100
AcDbCircle
 10
57.22022299999999
 20
176.871609
 30
0.0
 40
70.0
100
AcDbArc
 50
80.26348
 51
99.73649899999999
  0
ARC
  5
A4E5
330
A460
100
AcDbEntity
  8
1
  6
Continuous
100
AcDbCircle
 10
45.72022299999999
 20
243.892124
 30
0.0
 40
2.0
100
AcDbArc
 50
99.736519
 51
179.9999799999999
  0
ARC
  5
A4E6
330
A460
100
AcDbEntity
  8
1
  6
Continuous
100
AcDbCircle
 10
57.22022299999999
 20
216.8716089999997
 30
0.0
 40
70.0
100
AcDbArc
 50
260.2635009999999
 51
279.7365199999999
  0
LINE
  5
A4E7
330
A460
100
AcDbEntity
  8
1
  6
Continuous
100
AcDbLine
 10
247.220223
 20
255.971605
 30
0.0
 11
247.220223
 21
252.071608
 31
0.0
  0
ARC
  5
A4E8
330
A460
100
AcDbEntity
  8
1
  6
Continuous
100
AcDbCircle
 10
242.2202229999999
 20
255.971605
 30
0.0
 40
5.0
100
AcDbArc
 50
0.0
 51
90.0
  0
LINE
  5
A4E9
330
A460
100
AcDbEntity
  8
4
  6
CENTER
 48
0.8
100
AcDbLine
 10
190.220223
 20
422.3716009999998
 30
0.0
 11
190.220223
 21
358.669614
 31
0.0
  0
LINE
  5
A4ED
330
A460
100
AcDbEntity
  8
1
  6
Continuous
100
AcDbLine
 10
179.220223
 20
89.87160899999997
 30
0.0
 11
203.6808049999999
 21
89.87160899999997
 31
0.0
  0
LINE
  5
A4EE
330
A460
100
AcDbEntity
  8
1
  6
Continuous
100
AcDbLine
 10
179.220223
 20
92.171604
 30
0.0
 11
203.680799
 21
92.171604
 31
0.0
  0
LINE
  5
A4EF
330
A460
100
AcDbEntity
  8
1
  6
Continuous
100
AcDbLine
 10
174.720206
 20
57.87160899999999
 30
0.0
 11
205.720239
 21
57.87160899999999
 31
0.0
  0
LINE
  5
A4F0
330
A460
100
AcDbEntity
  8
1
  6
Continuous
100
AcDbLine
 10
179.220223
 20
55.57161899999999
 30
0.0
 11
202.940902
 21
55.57161899999999
 31
0.0
  0
LINE
  5
A4F1
330
A460
100
AcDbEntity
  8
1
  6
Continuous
100
AcDbLine
 10
237.2407379999999
 20
87.37160899999997
 30
0.0
 11
143.1997069999999
 21
87.37160899999997
 31
0.0
  0
LINE
  5
A4F2
330
A460
100
AcDbEntity
  8
1
  6
Continuous
100
AcDbLine
 10
237.2407379999999
 20
60.37160899999999
 30
0.0
 11
143.1997069999999
 21
60.37160899999999
 31
0.0
  0
ARC
  5
A4F3
330
A460
100
AcDbEntity
  8
1
  6
Continuous
100
AcDbCircle
 10
210.220223
 20
73.87160899999997
 30
0.0
 40
70.0
100
AcDbArc
 50
170.26348
 51
189.7364989999998
  0
ARC
  5
A4F4
330
A460
100
AcDbEntity
  8
1
  6
Continuous
100
AcDbCircle
 10
143.1997069999999
 20
62.371609
 30
0.0
 40
2.0
100
AcDbArc
 50
189.736519
 51
269.99998
  0
ARC
  5
A4F5
330
A460
100
AcDbEntity
  8
1
  6
Continuous
100
AcDbCircle
 10
143.1997069999999
 20
85.37160899999998
 30
0.0
 40
2.0
100
AcDbArc
 50
90.00005499999994
 51
170.263534
  0
LINE
  5
A4F6
330
A460
100
AcDbEntity
  8
1
  6
Continuous
100
AcDbLine
 10
196.470223
 20
55.571614
 30
0.0
 11
196.470223
 21
54.371617
 31
0.0
  0
LINE
  5
A4F7
330
A460
100
AcDbEntity
  8
1
  6
Continuous
100
AcDbLine
 10
183.970223
 20
55.571614
 30
0.0
 11
183.970223
 21
54.371617
 31
0.0
  0
LINE
  5
A4F8
330
A460
100
AcDbEntity
  8
1
  6
Continuous
100
AcDbLine
 10
177.720223
 20
88.87160899999996
 30
0.0
 11
202.720225
 21
88.87160899999996
 31
0.0
  0
ARC
  5
A4F9
330
A460
100
AcDbEntity
  8
1
  6
Continuous
100
AcDbCircle
 10
177.720223
 20
85.87160899999998
 30
0.0
 40
3.0
100
AcDbArc
 50
90.00005499999994
 51
149.9999949999998
  0
LINE
  5
A4FA
330
A460
100
AcDbEntity
  8
1
  6
Continuous
100
AcDbLine
 10
186.220223
 20
88.87160899999996
 30
0.0
 11
186.220223
 21
89.87161699999999
 31
0.0
  0
LINE
  5
A4FB
330
A460
100
AcDbEntity
  8
1
  6
Continuous
100
AcDbLine
 10
194.220223
 20
88.87160899999996
 30
0.0
 11
194.220223
 21
89.87161699999999
 31
0.0
  0
ARC
  5
A4FC
330
A460
100
AcDbEntity
  8
1
  6
Continuous
100
AcDbCircle
 10
202.7202229999998
 20
85.87160899999998
 30
0.0
 40
3.0
100
AcDbArc
 50
30.00001
 51
89.99995000000001
  0
LINE
  5
A4FD
330
A460
100
AcDbEntity
  8
1
  6
Continuous
100
AcDbLine
 10
185.970223
 20
52.371617
 30
0.0
 11
194.470223
 21
52.371617
 31
0.0
  0
ARC
  5
A4FE
330
A460
100
AcDbEntity
  8
1
  6
Continuous
100
AcDbCircle
 10
185.970223
 20
54.371617
 30
0.0
 40
2.0
100
AcDbArc
 50
180.0000179999999
 51
270.0
  0
ARC
  5
A4FF
330
A460
100
AcDbEntity
  8
1
  6
Continuous
100
AcDbCircle
 10
194.470223
 20
54.371617
 30
0.0
 40
2.0
100
AcDbArc
 50
270.0
 51
359.9999799999998
  0
ARC
  5
A500
330
A460
100
AcDbEntity
  8
1
  6
Continuous
100
AcDbCircle
 10
170.220223
 20
73.87160899999997
 30
0.0
 40
70.0
100
AcDbArc
 50
350.2635009999999
 51
9.73652
  0
ARC
  5
A501
330
A460
100
AcDbEntity
  8
1
  6
Continuous
100
AcDbCircle
 10
237.2407379999999
 20
62.371609
 30
0.0
 40
2.0
100
AcDbArc
 50
270.00002
 51
350.2634799999999
  0
ARC
  5
A502
330
A460
100
AcDbEntity
  8
1
  6
Continuous
100
AcDbCircle
 10
237.2407379999999
 20
85.37160899999998
 30
0.0
 40
2.0
100
AcDbArc
 50
9.736469999999997
 51
89.99995000000001
  0
LINE
  5
A503
330
A460
100
AcDbEntity
  8
1
  6
Continuous
100
AcDbLine
 10
179.220223
 20
92.171604
 30
0.0
 11
179.220223
 21
89.87160899999997
 31
0.0
  0
LINE
  5
A504
330
A460
100
AcDbEntity
  8
1
  6
Continuous
100
AcDbLine
 10
179.220223
 20
57.87160899999999
 30
0.0
 11
179.220223
 21
55.57161899999999
 31
0.0
  0
ARC
  5
A505
330
A460
100
AcDbEntity
  8
1
  6
Continuous
100
AcDbCircle
 10
224.8902839999999
 20
73.86203899999998
 30
0.0
 40
43.958572
100
AcDbArc
 50
158.641841
 51
160.0348759999999
  0
ARC
  5
A506
330
A460
100
AcDbEntity
  8
1
  6
Continuous
100
AcDbCircle
 10
222.220223
 20
73.87160899999997
 30
0.0
 40
25.0
100
AcDbArc
 50
230.2610529999999
 51
65.11944799999999
  0
ARC
  5
A507
330
A460
100
AcDbEntity
  8
1
  6
Continuous
100
AcDbCircle
 10
222.220223
 20
73.87160899999997
 30
0.0
 40
22.7
100
AcDbArc
 50
230.2610839999999
 51
64.56380300000001
  0
ARC
  5
A508
330
A460
100
AcDbEntity
  8
1
  6
Continuous
100
AcDbCircle
 10
222.220223
 20
73.87160899999997
 30
0.0
 40
17.0
100
AcDbArc
 50
232.5719939999999
 51
307.4280059999998
  0
ARC
  5
A509
330
A460
100
AcDbEntity
  8
1
  6
Continuous
100
AcDbCircle
 10
222.220223
 20
73.87160899999997
 30
0.0
 40
20.69999999999998
100
AcDbArc
 50
227.415458
 51
319.936096
  0
ARC
  5
A50A
330
A460
100
AcDbEntity
  8
1
  6
Continuous
100
AcDbCircle
 10
222.220223
 20
73.87160899999997
 30
0.0
 40
17.0
100
AcDbArc
 50
52.571994
 51
73.50070599999998
  0
ARC
  5
A50B
330
A460
100
AcDbEntity
  8
1
  6
Continuous
100
AcDbCircle
 10
222.220223
 20
73.87160899999997
 30
0.0
 40
20.69999999999998
100
AcDbArc
 50
40.06390399999999
 51
61.90051999999998
  0
ARC
  5
A50C
330
A460
100
AcDbEntity
  8
1
  6
Continuous
100
AcDbCircle
 10
222.220223
 20
73.87160899999997
 30
0.0
 40
20.69999999999998
100
AcDbArc
 50
325.1878759999998
 51
34.81212399999999
  0
CIRCLE
  5
A50D
330
A460
100
AcDbEntity
  8
2
  6
Continuous
100
AcDbCircle
 10
190.220223
 20
196.871609
 30
0.0
 40
3.3235
  0
CIRCLE
  5
A50E
330
A460
100
AcDbEntity
  8
1
  6
Continuous
100
AcDbCircle
 10
190.220223
 20
196.871609
 30
0.0
 40
4.0
  0
ARC
  5
A50F
330
A460
100
AcDbEntity
  8
1
  6
Continuous
100
AcDbCircle
 10
187.220223
 20
93.617644
 30
0.0
 40
6.841600999999998
100
AcDbArc
 50
63.992176
 51
134.8075649999999
  0
ARC
  5
A510
330
A460
100
AcDbEntity
  8
1
  6
Continuous
100
AcDbCircle
 10
187.220223
 20
97.23200300000002
 30
0.0
 40
6.841600999999998
100
AcDbArc
 50
63.992176
 51
116.007824
  0
LINE
  5
A511
330
A460
100
AcDbEntity
  8
1
  6
Continuous
100
AcDbLine
 10
187.470223
 20
104.073604
 30
0.0
 11
192.970223
 21
104.073604
 31
0.0
  0
LINE
  5
A512
330
A460
100
AcDbEntity
  8
1
  6
Continuous
100
AcDbLine
 10
184.220223
 20
99.76642400000001
 30
0.0
 11
184.220223
 21
103.3807829999997
 31
0.0
  0
LINE
  5
A513
330
A460
100
AcDbEntity
  8
1
  6
Continuous
100
AcDbLine
 10
190.220223
 20
99.07360400000001
 30
0.0
 11
190.220223
 21
103.3807829999997
 31
0.0
  0
LINE
  5
A514
330
A460
100
AcDbEntity
  8
1
  6
Continuous
100
AcDbLine
 10
196.220223
 20
99.76642400000001
 30
0.0
 11
196.220223
 21
103.3807829999997
 31
0.0
  0
ARC
  5
A515
330
A460
100
AcDbEntity
  8
1
  6
Continuous
100
AcDbCircle
 10
193.220223
 20
93.617644
 30
0.0
 40
6.841600999999998
100
AcDbArc
 50
45.19243499999999
 51
116.007824
  0
ARC
  5
A516
330
A460
100
AcDbEntity
  8
1
  6
Continuous
100
AcDbCircle
 10
193.220223
 20
97.23200300000002
 30
0.0
 40
6.841600999999998
100
AcDbArc
 50
63.992176
 51
116.007824
  0
LINE
  5
A517
330
A460
100
AcDbEntity
  8
4
  6
CENTER
 48
0.8
100
AcDbLine
 10
322.3198
 20
317.8716129999999
 30
0.0
 11
322.3198
 21
141.8716249999999
 31
0.0
  0
ARC
  5
A518
330
A460
100
AcDbEntity
  8
1
  6
Continuous
100
AcDbCircle
 10
310.8197999999998
 20
149.8511099999998
 30
0.0
 40
2.0
100
AcDbArc
 50
180.0000499999999
 51
260.26353
  0
ARC
  5
A519
330
A460
100
AcDbEntity
  8
1
  6
Continuous
100
AcDbCircle
 10
333.8197999999998
 20
149.8511099999998
 30
0.0
 40
2.0
100
AcDbArc
 50
279.7365199999999
 51
359.9999799999998
  0
ARC
  5
A51A
330
A460
100
AcDbEntity
  8
1
  6
Continuous
100
AcDbCircle
 10
322.3198
 20
216.871625
 30
0.0
 40
70.0
100
AcDbArc
 50
260.2634799999999
 51
279.7364989999999
  0
LINE
  5
A51B
330
A460
100
AcDbEntity
  8
1
  6
Continuous
100
AcDbLine
 10
335.8197999999998
 20
149.8511099999998
 30
0.0
 11
335.8197999999998
 21
243.892141
 31
0.0
  0
LINE
  5
A51C
330
A460
100
AcDbEntity
  8
1
  6
Continuous
100
AcDbLine
 10
308.8197999999998
 20
149.8511099999998
 30
0.0
 11
308.8197999999998
 21
243.892141
 31
0.0
  0
LINE
  5
A51D
330
A460
100
AcDbEntity
  8
1
  6
Continuous
100
AcDbLine
 10
297.3198
 20
255.9716169999999
 30
0.0
 11
297.3198
 21
231.823477
 31
0.0
  0
LINE
  5
A51E
330
A460
100
AcDbEntity
  8
1
  6
Continuous
100
AcDbLine
 10
304.0198049999998
 20
201.845008
 30
0.0
 11
304.0198049999998
 21
191.936222
 31
0.0
  0
LINE
  5
A51F
330
A460
100
AcDbEntity
  8
1
  6
Continuous
100
AcDbLine
 10
306.3197999999998
 20
250.973676
 30
0.0
 11
306.3197999999998
 21
185.871625
 31
0.0
  0
LINE
  5
A520
330
A460
100
AcDbEntity
  8
1
  6
Continuous
100
AcDbLine
 10
340.6197899999999
 20
201.844997
 30
0.0
 11
340.6197899999999
 21
197.975582
 31
0.0
  0
LINE
  5
A521
330
A460
100
AcDbEntity
  8
1
  6
Continuous
100
AcDbLine
 10
338.3198
 20
250.973676
 30
0.0
 11
338.3198
 21
198.1983119999999
 31
0.0
  0
LINE
  5
A523
330
A460
100
AcDbEntity
  8
1
  6
Continuous
100
AcDbLine
 10
340.6197899999999
 20
185.871625
 30
0.0
 11
338.3198
 21
185.871625
 31
0.0
  0
LINE
  5
A524
330
A460
100
AcDbEntity
  8
1
  6
Continuous
100
AcDbLine
 10
307.3198
 20
209.3716249999999
 30
0.0
 11
307.3198
 21
184.371623
 31
0.0
  0
LINE
  5
A525
330
A460
100
AcDbEntity
  8
1
  6
Continuous
100
AcDbLine
 10
343.819792
 20
201.1216249999999
 30
0.0
 11
343.819792
 21
192.6216249999999
 31
0.0
  0
LINE
  5
A526
330
A460
100
AcDbEntity
  8
1
  6
Continuous
100
AcDbLine
 10
307.3198
 20
192.8716249999999
 30
0.0
 11
306.319792
 21
192.8716249999999
 31
0.0
  0
ARC
  5
A527
330
A460
100
AcDbEntity
  8
1
  6
Continuous
100
AcDbCircle
 10
310.3197999999999
 20
184.3716249999999
 30
0.0
 40
3.0
100
AcDbArc
 50
180.0000499999999
 51
239.99999
  0
LINE
  5
A528
330
A460
100
AcDbEntity
  8
1
  6
Continuous
100
AcDbLine
 10
340.619795
 20
190.6216249999999
 30
0.0
 11
341.819792
 21
190.6216249999999
 31
0.0
  0
LINE
  5
A529
330
A460
100
AcDbEntity
  8
1
  6
Continuous
100
AcDbLine
 10
304.0198049999998
 20
185.871625
 30
0.0
 11
306.3197999999998
 21
185.871625
 31
0.0
  0
ARC
  5
A52A
330
A460
100
AcDbEntity
  8
1
  6
Continuous
100
AcDbCircle
 10
341.819792
 20
192.6216249999999
 30
0.0
 40
2.0
100
AcDbArc
 50
270.00002
 51
0.0
  0
ARC
  5
A52B
330
A460
100
AcDbEntity
  8
1
  6
Continuous
100
AcDbCircle
 10
310.3197999999999
 20
209.3716249999999
 30
0.0
 40
3.0
100
AcDbArc
 50
120.000005
 51
179.999945
  0
ARC
  5
A52C
330
A460
100
AcDbEntity
  8
1
  6
Continuous
100
AcDbCircle
 10
341.819792
 20
201.1216249999999
 30
0.0
 40
2.0
100
AcDbArc
 50
0.0
 51
90.0
  0
LINE
  5
A52D
330
A460
100
AcDbEntity
  8
1
  6
Continuous
100
AcDbLine
 10
307.3198
 20
200.8716249999999
 30
0.0
 11
306.319792
 21
200.8716249999999
 31
0.0
  0
ARC
  5
A52E
330
A460
100
AcDbEntity
  8
1
  6
Continuous
100
AcDbCircle
 10
322.3198
 20
176.8716249999999
 30
0.0
 40
70.0
100
AcDbArc
 50
80.263501
 51
99.73652000000001
  0
LINE
  5
A52F
330
A460
100
AcDbEntity
  8
1
  6
Continuous
100
AcDbLine
 10
342.3197999999998
 20
260.971617
 30
0.0
 11
302.3197999999998
 21
260.971617
 31
0.0
  0
ARC
  5
A530
330
A460
100
AcDbEntity
  8
1
  6
Continuous
100
AcDbCircle
 10
342.3197999999998
 20
255.9716169999999
 30
0.0
 40
5.0
100
AcDbArc
 50
0.00004
 51
90.00001800000005
  0
ARC
  5
A531
330
A460
100
AcDbEntity
  8
1
  6
Continuous
100
AcDbCircle
 10
333.8197999999998
 20
243.892141
 30
0.0
 40
2.0
100
AcDbArc
 50
0.00002
 51
80.26348100000001
  0
ARC
  5
A532
330
A460
100
AcDbEntity
  8
1
  6
Continuous
100
AcDbCircle
 10
339.2321799999998
 20
262.4496279999998
 30
0.0
 40
2.778
100
AcDbArc
 50
327.85649
 51
350.0919
  0
ARC
  5
A533
330
A460
100
AcDbEntity
  8
1
  6
Continuous
100
AcDbCircle
 10
336.6969399999998
 20
262.4496279999998
 30
0.0
 40
2.778
100
AcDbArc
 50
327.85649
 51
350.0919
  0
ARC
  5
A534
330
A460
100
AcDbEntity
  8
1
  6
Continuous
100
AcDbCircle
 10
332.76096
 20
262.4496279999998
 30
0.0
 40
2.778
100
AcDbArc
 50
327.85649
 51
350.0919
  0
ARC
  5
A535
330
A460
100
AcDbEntity
  8
1
  6
Continuous
100
AcDbCircle
 10
340.11982
 20
262.4496279999998
 30
0.0
 40
2.778
100
AcDbArc
 50
327.85649
 51
350.0919
  0
ARC
  5
A536
330
A460
100
AcDbEntity
  8
1
  6
Continuous
100
AcDbCircle
 10
327.80773
 20
262.4496279999998
 30
0.0
 40
2.778
100
AcDbArc
 50
327.85649
 51
350.0919
  0
ARC
  5
A537
330
A460
100
AcDbEntity
  8
1
  6
Continuous
100
AcDbCircle
 10
332.76096
 20
262.4496279999998
 30
0.0
 40
2.778
100
AcDbArc
 50
206.93616
 51
212.14352
  0
ARC
  5
A538
330
A460
100
AcDbEntity
  8
1
  6
Continuous
100
AcDbCircle
 10
316.8319
 20
262.4496279999998
 30
0.0
 40
2.778
100
AcDbArc
 50
327.85649
 51
350.0919599999999
  0
ARC
  5
A539
330
A460
100
AcDbEntity
  8
1
  6
Continuous
100
AcDbCircle
 10
322.31982
 20
262.4496279999998
 30
0.0
 40
2.778
100
AcDbArc
 50
189.90807
 51
212.14352
  0
ARC
  5
A53A
330
A460
100
AcDbEntity
  8
1
  6
Continuous
100
AcDbCircle
 10
327.80773
 20
262.4496279999998
 30
0.0
 40
2.778
100
AcDbArc
 50
189.9080099999999
 51
212.14352
  0
ARC
  5
A53B
330
A460
100
AcDbEntity
  8
1
  6
Continuous
100
AcDbCircle
 10
322.31982
 20
262.4496279999998
 30
0.0
 40
2.778
100
AcDbArc
 50
327.85649
 51
350.0919
  0
ARC
  5
A53C
330
A460
100
AcDbEntity
  8
1
  6
Continuous
100
AcDbCircle
 10
302.3197999999998
 20
255.9716169999999
 30
0.0
 40
5.0
100
AcDbArc
 50
90.00001800000005
 51
180.0
  0
ARC
  5
A53D
330
A460
100
AcDbEntity
  8
1
  6
Continuous
100
AcDbCircle
 10
310.8197999999998
 20
243.892141
 30
0.0
 40
2.0
100
AcDbArc
 50
99.73646600000002
 51
179.999945
  0
ARC
  5
A53E
330
A460
100
AcDbEntity
  8
1
  6
Continuous
100
AcDbCircle
 10
305.4074459999998
 20
262.4496279999998
 30
0.0
 40
2.778
100
AcDbArc
 50
189.90807
 51
212.14352
  0
ARC
  5
A53F
330
A460
100
AcDbEntity
  8
1
  6
Continuous
100
AcDbCircle
 10
307.942694
 20
262.4496279999998
 30
0.0
 40
2.778
100
AcDbArc
 50
189.90807
 51
212.14352
  0
ARC
  5
A540
330
A460
100
AcDbEntity
  8
1
  6
Continuous
100
AcDbCircle
 10
311.8786679999999
 20
262.4496279999998
 30
0.0
 40
2.778
100
AcDbArc
 50
327.85649
 51
333.0638
  0
ARC
  5
A541
330
A460
100
AcDbEntity
  8
1
  6
Continuous
100
AcDbCircle
 10
304.5198049999999
 20
262.4496279999998
 30
0.0
 40
2.778
100
AcDbArc
 50
189.90807
 51
212.19887
  0
ARC
  5
A542
330
A460
100
AcDbEntity
  8
1
  6
Continuous
100
AcDbCircle
 10
316.8319
 20
262.4496279999998
 30
0.0
 40
2.778
100
AcDbArc
 50
189.90807
 51
212.14352
  0
ARC
  5
A543
330
A460
100
AcDbEntity
  8
1
  6
Continuous
100
AcDbCircle
 10
311.8786679999999
 20
262.4496279999998
 30
0.0
 40
2.778
100
AcDbArc
 50
189.90807
 51
212.14352
  0
LINE
  5
A544
330
A460
100
AcDbEntity
  8
1
  6
Continuous
100
AcDbLine
 10
347.3198
 20
255.9716169999999
 30
0.0
 11
347.3198
 21
231.823477
 31
0.0
  0
LINE
  5
A545
330
A460
100
AcDbEntity
  8
4
  6
CENTER
 48
0.8
100
AcDbLine
 10
442.2202229999999
 20
256.3725949999999
 30
0.0
 11
442.2202229999999
 21
141.871609
 31
0.0
  0
ARC
  5
A546
330
A460
100
AcDbEntity
  8
1
  6
Continuous
100
AcDbCircle
 10
442.2202229999999
 20
196.871609
 30
0.0
 40
50.0
100
AcDbArc
 50
132.5014879999999
 51
83.37811499999999
  0
LINE
  5
A547
330
A460
100
AcDbEntity
  8
4
  6
CENTER
 48
0.8
100
AcDbLine
 10
497.2202229999998
 20
196.871609
 30
0.0
 11
387.2202229999999
 21
196.871609
 31
0.0
  0
LINE
  5
A548
330
A460
100
AcDbEntity
  8
1
  6
Continuous
100
AcDbLine
 10
432.6795119999998
 20
191.3966819999999
 30
0.0
 11
432.215865
 21
192.2065
 31
0.0
  0
LINE
  5
A549
330
A460
100
AcDbEntity
  8
1
  6
Continuous
100
AcDbLine
 10
447.52819
 20
250.8315
 30
0.0
 11
452.758545
 21
201.785709
 31
0.0
  0
LINE
  5
A54A
330
A460
100
AcDbEntity
  8
1
  6
Continuous
100
AcDbLine
 10
431.2202229999998
 20
251.771612
 30
0.0
 11
431.2202229999998
 21
199.371609
 31
0.0
  0
LINE
  5
A54B
330
A460
100
AcDbEntity
  8
4
  6
CENTER
 48
0.8
100
AcDbLine
 10
410.2202229999998
 20
317.8716129999999
 30
0.0
 11
410.2202229999998
 21
214.6049389999999
 31
0.0
  0
ARC
  5
A54C
330
A460
100
AcDbEntity
  8
1
  6
Continuous
100
AcDbCircle
 10
442.2202229999999
 20
196.871609
 30
0.0
 40
34.5
100
AcDbArc
 50
138.385287
 51
77.49432
  0
ARC
  5
A54D
330
A460
100
AcDbEntity
  8
1
  6
Continuous
100
AcDbCircle
 10
442.2202229999999
 20
196.871609
 30
0.0
 40
11.0
100
AcDbArc
 50
209.7924799999999
 51
6.08713
  0
LINE
  5
A54E
330
A460
100
AcDbEntity
  8
1
  6
Continuous
100
AcDbLine
 10
431.2202229999998
 20
260.9716049999998
 30
0.0
 11
390.2202229999998
 21
260.9716049999998
 31
0.0
  0
ARC
  5
A54F
330
A460
100
AcDbEntity
  8
1
  6
Continuous
100
AcDbCircle
 10
431.2202229999998
 20
255.971604
 30
0.0
 40
5.0
100
AcDbArc
 50
1.09966
 51
90.00001800000005
  0
ARC
  5
A550
330
A460
100
AcDbEntity
  8
1
  6
Continuous
100
AcDbCircle
 10
450.014094
 20
251.096602
 30
0.0
 40
2.5
100
AcDbArc
 50
79.99997999999997
 51
186.08715
  0
LINE
  5
A551
330
A460
100
AcDbEntity
  8
1
  6
Continuous
100
AcDbLine
 10
451.508732
 20
253.371624
 30
0.0
 11
432.61652
 21
256.70283
 31
0.0
  0
ARC
  5
A552
330
A460
100
AcDbEntity
  8
1
  6
Continuous
100
AcDbCircle
 10
448.564969
 20
250.539781
 30
0.0
 40
1.0
100
AcDbArc
 50
79.99996999999997
 51
186.08715
  0
LINE
  5
A553
330
A460
100
AcDbEntity
  8
1
  6
Continuous
100
AcDbLine
 10
451.1093419999999
 20
251.1065659999999
 30
0.0
 11
448.7386169999998
 21
251.524589
 31
0.0
  0
LINE
  5
A554
330
A460
100
AcDbEntity
  8
1
  6
Continuous
100
AcDbLine
 10
451.508732
 20
253.371624
 30
0.0
 11
451.1093419999999
 21
251.1065659999999
 31
0.0
  0
ARC
  5
A555
330
A460
100
AcDbEntity
  8
1
  6
Continuous
100
AcDbCircle
 10
389.2447359999999
 20
237.071608
 30
0.0
 40
15.0
100
AcDbArc
 50
29.79243
 51
90.00001800000005
  0
ARC
  5
A556
330
A460
100
AcDbEntity
  8
1
  6
Continuous
100
AcDbCircle
 10
427.1326069999998
 20
262.4496119999998
 30
0.0
 40
2.778
100
AcDbArc
 50
327.85663
 51
350.0919
  0
ARC
  5
A557
330
A460
100
AcDbEntity
  8
1
  6
Continuous
100
AcDbCircle
 10
424.597367
 20
262.4496119999998
 30
0.0
 40
2.778
100
AcDbArc
 50
327.8566
 51
350.0919
  0
ARC
  5
A558
330
A460
100
AcDbEntity
  8
1
  6
Continuous
100
AcDbCircle
 10
420.6613929999998
 20
262.4496119999998
 30
0.0
 40
2.778
100
AcDbArc
 50
327.8566
 51
350.0919
  0
ARC
  5
A559
330
A460
100
AcDbEntity
  8
1
  6
Continuous
100
AcDbCircle
 10
415.708153
 20
262.4496119999998
 30
0.0
 40
2.778
100
AcDbArc
 50
327.8566
 51
350.0919
  0
ARC
  5
A55A
330
A460
100
AcDbEntity
  8
1
  6
Continuous
100
AcDbCircle
 10
428.0202489999998
 20
262.4496119999998
 30
0.0
 40
2.778
100
AcDbArc
 50
327.85663
 51
350.0919
  0
ARC
  5
A55B
330
A460
100
AcDbEntity
  8
1
  6
Continuous
100
AcDbCircle
 10
404.7323229999998
 20
262.4496119999998
 30
0.0
 40
2.778
100
AcDbArc
 50
189.90807
 51
212.1434199999999
  0
ARC
  5
A55C
330
A460
100
AcDbEntity
  8
1
  6
Continuous
100
AcDbCircle
 10
415.708153
 20
262.4496119999998
 30
0.0
 40
2.778
100
AcDbArc
 50
189.9080099999999
 51
212.1434199999999
  0
ARC
  5
A55D
330
A460
100
AcDbEntity
  8
1
  6
Continuous
100
AcDbCircle
 10
410.2202379999998
 20
262.4496119999998
 30
0.0
 40
2.778
100
AcDbArc
 50
327.8566
 51
350.0919
  0
ARC
  5
A55E
330
A460
100
AcDbEntity
  8
1
  6
Continuous
100
AcDbCircle
 10
404.7323229999998
 20
262.4496119999998
 30
0.0
 40
2.778
100
AcDbArc
 50
327.8566
 51
350.0919599999999
  0
ARC
  5
A55F
330
A460
100
AcDbEntity
  8
1
  6
Continuous
100
AcDbCircle
 10
410.2202379999998
 20
262.4496119999998
 30
0.0
 40
2.778
100
AcDbArc
 50
189.90807
 51
212.1434199999999
  0
ARC
  5
A560
330
A460
100
AcDbEntity
  8
1
  6
Continuous
100
AcDbCircle
 10
390.2202229999998
 20
255.971605
 30
0.0
 40
5.0
100
AcDbArc
 50
90.0
 51
180.0
  0
LINE
  5
A561
330
A460
100
AcDbEntity
  8
1
  6
Continuous
100
AcDbLine
 10
385.2202229999999
 20
255.971605
 30
0.0
 11
385.2202229999999
 21
252.071608
 31
0.0
  0
LINE
  5
A562
330
A460
100
AcDbEntity
  8
1
  6
Continuous
100
AcDbLine
 10
389.2447359999999
 20
252.071608
 30
0.0
 11
385.2202229999999
 21
252.071608
 31
0.0
  0
ARC
  5
A563
330
A460
100
AcDbEntity
  8
1
  6
Continuous
100
AcDbCircle
 10
399.779084
 20
262.4496119999998
 30
0.0
 40
2.778
100
AcDbArc
 50
189.90807
 51
212.1434199999999
  0
ARC
  5
A564
330
A460
100
AcDbEntity
  8
1
  6
Continuous
100
AcDbCircle
 10
393.3078689999999
 20
262.4496119999998
 30
0.0
 40
2.778
100
AcDbArc
 50
189.90807
 51
212.1433699999999
  0
ARC
  5
A565
330
A460
100
AcDbEntity
  8
1
  6
Continuous
100
AcDbCircle
 10
395.84311
 20
262.4496119999998
 30
0.0
 40
2.778
100
AcDbArc
 50
189.90807
 51
212.1433699999999
  0
ARC
  5
A566
330
A460
100
AcDbEntity
  8
1
  6
Continuous
100
AcDbCircle
 10
392.4202279999999
 20
262.4496119999998
 30
0.0
 40
2.778
100
AcDbArc
 50
189.90807
 51
212.1433699999999
  0
LINE
  5
A567
330
A460
100
AcDbEntity
  8
1
  6
Continuous
100
AcDbLine
 10
190.220223
 20
203.3716029999999
 30
0.0
 11
184.5910619999999
 21
200.1216059999999
 31
0.0
  0
LINE
  5
A568
330
A460
100
AcDbEntity
  8
1
  6
Continuous
100
AcDbLine
 10
184.5910619999999
 20
200.1216059999999
 30
0.0
 11
184.5910619999999
 21
193.621611
 31
0.0
  0
LINE
  5
A569
330
A460
100
AcDbEntity
  8
1
  6
Continuous
100
AcDbLine
 10
184.5910619999999
 20
193.621611
 30
0.0
 11
190.220223
 21
190.371614
 31
0.0
  0
LINE
  5
A56A
330
A460
100
AcDbEntity
  8
1
  6
Continuous
100
AcDbLine
 10
190.220223
 20
190.371614
 30
0.0
 11
195.8493829999999
 21
193.621611
 31
0.0
  0
LINE
  5
A56B
330
A460
100
AcDbEntity
  8
1
  6
Continuous
100
AcDbLine
 10
195.8493829999999
 20
193.621611
 30
0.0
 11
195.8493829999999
 21
200.1216059999999
 31
0.0
  0
LINE
  5
A56C
330
A460
100
AcDbEntity
  8
1
  6
Continuous
100
AcDbLine
 10
195.8493829999999
 20
200.1216059999999
 30
0.0
 11
190.220223
 21
203.3716029999999
 31
0.0
  0
LINE
  5
A56D
330
A460
100
AcDbEntity
  8
1
  6
Continuous
100
AcDbLine
 10
88.22223199999998
 20
192.871609
 30
0.0
 11
87.42223199999996
 21
192.871609
 31
0.0
  0
LINE
  5
A56E
330
A460
100
AcDbEntity
  8
2
  6
Continuous
100
AcDbLine
 10
88.89873199999998
 20
193.548109
 30
0.0
 11
87.42223199999996
 21
193.548109
 31
0.0
  0
LINE
  5
A56F
330
A460
100
AcDbEntity
  8
1
  6
Continuous
100
AcDbLine
 10
88.22223199999998
 20
200.871609
 30
0.0
 11
87.42223199999996
 21
200.871609
 31
0.0
  0
LINE
  5
A570
330
A460
100
AcDbEntity
  8
2
  6
Continuous
100
AcDbLine
 10
88.89873199999998
 20
200.1951089999999
 30
0.0
 11
87.42223199999996
 21
200.1951089999999
 31
0.0
  0
LINE
  5
A571
330
A460
100
AcDbEntity
  8
1
  6
Continuous
100
AcDbLine
 10
89.42223199999999
 20
194.071609
 30
0.0
 11
88.22223199999998
 21
192.871609
 31
0.0
  0
LINE
  5
A572
330
A460
100
AcDbEntity
  8
1
  6
Continuous
100
AcDbLine
 10
88.22223199999998
 20
192.871609
 30
0.0
 11
88.22223199999998
 21
200.871609
 31
0.0
  0
LINE
  5
A573
330
A460
100
AcDbEntity
  8
1
  6
Continuous
100
AcDbLine
 10
89.42223199999999
 20
199.6716089999999
 30
0.0
 11
88.22223199999998
 21
200.871609
 31
0.0
  0
LINE
  5
A574
330
A460
100
AcDbEntity
  8
1
  6
Continuous
100
AcDbLine
 10
89.42223199999999
 20
194.071609
 30
0.0
 11
89.42223199999999
 21
199.6716089999999
 31
0.0
  0
LINE
  5
A575
330
A460
100
AcDbEntity
  8
1
  6
Continuous
100
AcDbLine
 10
194.220223
 20
104.873604
 30
0.0
 11
194.220223
 21
104.073604
 31
0.0
  0
LINE
  5
A576
330
A460
100
AcDbEntity
  8
2
  6
Continuous
100
AcDbLine
 10
193.5437229999998
 20
105.550104
 30
0.0
 11
193.5437229999998
 21
104.073604
 31
0.0
  0
LINE
  5
A577
330
A460
100
AcDbEntity
  8
1
  6
Continuous
100
AcDbLine
 10
186.220223
 20
104.873604
 30
0.0
 11
186.220223
 21
104.073604
 31
0.0
  0
LINE
  5
A578
330
A460
100
AcDbEntity
  8
2
  6
Continuous
100
AcDbLine
 10
186.896723
 20
105.550104
 30
0.0
 11
186.896723
 21
104.073604
 31
0.0
  0
LINE
  5
A579
330
A460
100
AcDbEntity
  8
1
  6
Continuous
100
AcDbLine
 10
193.0202229999999
 20
106.073604
 30
0.0
 11
194.220223
 21
104.873604
 31
0.0
  0
LINE
  5
A57A
330
A460
100
AcDbEntity
  8
1
  6
Continuous
100
AcDbLine
 10
194.220223
 20
104.873604
 30
0.0
 11
186.220223
 21
104.873604
 31
0.0
  0
LINE
  5
A57B
330
A460
100
AcDbEntity
  8
1
  6
Continuous
100
AcDbLine
 10
187.4202229999999
 20
106.073604
 30
0.0
 11
186.220223
 21
104.873604
 31
0.0
  0
LINE
  5
A57C
330
A460
100
AcDbEntity
  8
1
  6
Continuous
100
AcDbLine
 10
193.0202229999999
 20
106.073604
 30
0.0
 11
187.4202229999999
 21
106.073604
 31
0.0
  0
CIRCLE
  5
A57D
330
A460
100
AcDbEntity
  8
1
  6
Continuous
100
AcDbCircle
 10
190.220223
 20
196.871609
 30
0.0
 40
2.799999999999998
  0
CIRCLE
  5
A57E
330
A460
100
AcDbEntity
  8
1
  6
Continuous
100
AcDbCircle
 10
190.220223
 20
196.871609
 30
0.0
 40
5.102012999999998
  0
ARC
  5
A57F
330
A460
100
AcDbEntity
  8
1
  6
Continuous
100
AcDbCircle
 10
366.7375599999999
 20
231.823477
 30
0.0
 40
69.417761
100
AcDbArc
 50
164.295714
 51
205.1964439999999
  0
ARC
  5
A580
330
A460
100
AcDbEntity
  8
1
  6
Continuous
100
AcDbCircle
 10
277.9020389999999
 20
231.823477
 30
0.0
 40
69.417761
100
AcDbArc
 50
334.8035469999998
 51
15.70428599999999
  0
LINE
  5
A581
330
A460
100
AcDbEntity
  8
1
  6
Continuous
100
AcDbLine
 10
341.1082819999998
 20
203.1216249999999
 30
0.0
 11
341.819792
 21
203.1216249999999
 31
0.0
  0
ARC
  5
A582
330
A460
100
AcDbEntity
  8
1
  6
Continuous
100
AcDbCircle
 10
277.9020389999999
 20
231.823477
 30
0.0
 40
67.117761
100
AcDbArc
 50
334.8035659999998
 51
17.55857599999999
  0
ARC
  5
A583
330
A460
100
AcDbEntity
  8
1
  6
Continuous
100
AcDbCircle
 10
366.7375599999999
 20
231.823477
 30
0.0
 40
67.117761
100
AcDbArc
 50
162.441424
 51
205.196434
  0
ARC
  5
A584
330
A460
100
AcDbEntity
  8
1
  6
Continuous
100
AcDbCircle
 10
322.3198
 20
379.6020149999998
 30
0.0
 40
128.4999999999998
100
AcDbArc
 50
263.34847
 51
276.6515
  0
ARC
  5
A585
330
A460
100
AcDbEntity
  8
1
  6
Continuous
100
AcDbCircle
 10
307.3198
 20
250.973676
 30
0.0
 40
1.0
100
AcDbArc
 50
83.348539
 51
179.9999599999999
  0
ARC
  5
A586
330
A460
100
AcDbEntity
  8
1
  6
Continuous
100
AcDbCircle
 10
337.3197999999998
 20
250.973676
 30
0.0
 40
1.0
100
AcDbArc
 50
0.00004
 51
96.65146100000001
  0
LINE
  5
A587
330
A460
100
AcDbEntity
  8
1
  6
Continuous
100
AcDbLine
 10
301.8364029999998
 20
252.071608
 30
0.0
 11
342.803196
 21
252.071608
 31
0.0
  0
ARC
  5
A588
330
A460
100
AcDbEntity
  8
1
  6
Continuous
100
AcDbCircle
 10
342.803196
 20
250.071608
 30
0.0
 40
2.0
100
AcDbArc
 50
15.70428599999999
 51
90.0
  0
ARC
  5
A589
330
A460
100
AcDbEntity
  8
1
  6
Continuous
100
AcDbCircle
 10
301.8364029999998
 20
250.071608
 30
0.0
 40
2.0
100
AcDbArc
 50
90.0
 51
164.295714
  0
ARC
  5
A58A
330
A460
100
AcDbEntity
  8
1
  6
Continuous
100
AcDbCircle
 10
203.6808049999999
 20
96.17160900000001
 30
0.0
 40
6.299999999999998
100
AcDbArc
 50
270.0
 51
309.738916
  0
ARC
  5
A58B
330
A460
100
AcDbEntity
  8
1
  6
Continuous
100
AcDbCircle
 10
203.6808049999999
 20
51.571609
 30
0.0
 40
6.299999999999998
100
AcDbArc
 50
50.261084
 51
57.58579499999999
  0
ARC
  5
A58C
330
A460
100
AcDbEntity
  8
1
  6
Continuous
100
AcDbCircle
 10
203.680793
 20
51.571619
 30
0.0
 40
4.0
100
AcDbArc
 50
50.26105300000001
 51
68.288744
  0
ARC
  5
A58D
330
A460
100
AcDbEntity
  8
1
  6
Continuous
100
AcDbCircle
 10
303.0197999999998
 20
201.8450179999999
 30
0.0
 40
3.299999999999998
100
AcDbArc
 50
0.0
 51
25.196434
  0
ARC
  5
A58E
330
A460
100
AcDbEntity
  8
1
  6
Continuous
100
AcDbCircle
 10
341.6198
 20
201.8450179999999
 30
0.0
 40
3.299999999999998
100
AcDbArc
 50
154.803566
 51
180.0
  0
LINE
  5
A58F
330
A460
100
AcDbEntity
  8
1
  6
Continuous
100
AcDbLine
 10
291.5198199999998
 20
201.980709
 30
0.0
 11
302.1310409999998
 21
201.980709
 31
0.0
  0
LINE
  5
A590
330
A460
100
AcDbEntity
  8
1
  6
Continuous
100
AcDbLine
 10
292.838301
 20
213.7464249999999
 30
0.0
 11
299.7148349999998
 21
213.7464249999999
 31
0.0
  0
ARC
  5
A591
330
A460
100
AcDbEntity
  8
1
  6
Continuous
100
AcDbCircle
 10
289.8698109999999
 20
202.7801469999999
 30
0.0
 40
19.97969399999998
100
AcDbArc
 50
245.1419
 51
294.8581019999998
  0
ARC
  5
A592
330
A460
100
AcDbEntity
  8
1
  6
Continuous
100
AcDbCircle
 10
289.8698109999999
 20
204.8184159999999
 30
0.0
 40
19.97969399999998
100
AcDbArc
 50
245.1419
 51
294.8581019999998
  0
ARC
  5
A593
330
A460
100
AcDbEntity
  8
1
  6
Continuous
100
AcDbCircle
 10
293.7698199999998
 20
210.725414
 30
0.0
 40
19.97969399999998
100
AcDbArc
 50
79.72191099999998
 51
114.8581139999999
  0
LINE
  5
A594
330
A460
100
AcDbEntity
  8
1
  6
Continuous
100
AcDbLine
 10
77.82022099999998
 20
183.537181
 30
0.0
 11
77.82022099999998
 21
223.9180409999999
 31
0.0
  0
LINE
  5
A595
330
A460
100
AcDbEntity
  8
1
  6
Continuous
100
AcDbLine
 10
98.89019799999999
 20
191.936573
 30
0.0
 11
89.23230699999995
 21
200.8317219999999
 31
0.0
  0
LINE
  5
A596
330
A460
100
AcDbEntity
  8
1
  6
Continuous
100
AcDbLine
 10
77.46900899999999
 20
182.2286489999999
 30
0.0
 11
80.02775600000003
 21
182.2286489999999
 31
0.0
  0
LINE
  5
A5AA
330
A460
100
AcDbEntity
  8
1
  6
Continuous
100
AcDbLine
 10
75.520218
 20
191.936229
 30
0.0
 11
73.520218
 21
191.936229
 31
0.0
  0
LINE
  5
A5AB
330
A460
100
AcDbEntity
  8
1
  6
Continuous
100
AcDbLine
 10
73.520218
 20
191.936229
 30
0.0
 11
73.520218
 21
186.886516
 31
0.0
  0
LINE
  5
A5AC
330
A460
100
AcDbEntity
  8
1
  6
Continuous
100
AcDbLine
 10
75.520218
 20
189.89793
 30
0.0
 11
73.520218
 21
189.89793
 31
0.0
  0
LINE
  5
A5AD
330
A460
100
AcDbEntity
  8
1
  6
Continuous
100
AcDbLine
 10
75.520218
 20
186.886516
 30
0.0
 11
73.520218
 21
186.886516
 31
0.0
  0
LINE
  5
A5AE
330
A460
100
AcDbEntity
  8
1
  6
Continuous
100
AcDbLine
 10
75.520218
 20
183.979137
 30
0.0
 11
77.82022099999998
 21
183.979137
 31
0.0
  0
LINE
  5
A5C4
330
A460
100
AcDbEntity
  8
1
  6
Continuous
100
AcDbLine
 10
89.42223199999999
 20
198.618537
 30
0.0
 11
98.890205
 21
189.8982879999999
 31
0.0
  0
ARC
  5
A5C5
330
A460
100
AcDbEntity
  8
1
  6
Continuous
100
AcDbCircle
 10
89.67022699999999
 20
202.780132
 30
0.0
 40
19.97969399999998
100
AcDbArc
 50
246.5527779999999
 51
294.8581159999998
  0
LINE
  5
A5C6
330
A460
100
AcDbEntity
  8
1
  6
Continuous
100
AcDbLine
 10
79.42022699999998
 20
180.1423139999999
 30
0.0
 11
79.42022699999998
 21
182.2286489999999
 31
0.0
  0
LINE
  5
A5C7
330
A460
100
AcDbEntity
  8
1
  6
Continuous
100
AcDbLine
 10
79.42022699999998
 20
180.1423139999999
 30
0.0
 11
81.72022199999998
 21
180.1423139999999
 31
0.0
  0
LINE
  5
A5C8
330
A460
100
AcDbEntity
  8
1
  6
Continuous
100
AcDbLine
 10
81.72022199999998
 20
180.1423139999999
 30
0.0
 11
81.72022199999998
 21
188.4716089999997
 31
0.0
  0
ARC
  5
A5C9
330
A460
100
AcDbEntity
  8
1
  6
Continuous
100
AcDbCircle
 10
81.22013800000003
 20
181.949474
 30
0.0
 40
0.5
100
AcDbArc
 50
359.999997
 51
111.2173639999999
  0
LINE
  5
A5CA
330
A460
100
AcDbEntity
  8
1
  6
Continuous
100
AcDbLine
 10
99.92022699999999
 20
187.549236
 30
0.0
 11
99.92022699999999
 21
189.5875049999999
 31
0.0
  0
ARC
  5
A5CB
330
A460
100
AcDbEntity
  8
1
  6
Continuous
100
AcDbCircle
 10
96.726646
 20
187.549236
 30
0.0
 40
3.193579
100
AcDbArc
 50
294.8581019999998
 51
47.354091
  0
ARC
  5
A5CC
330
A460
100
AcDbEntity
  8
1
  6
Continuous
100
AcDbCircle
 10
96.726646
 20
189.5875049999999
 30
0.0
 40
3.193579
100
AcDbArc
 50
359.999997
 51
47.354176
  0
LINE
  5
A5CD
330
A460
100
AcDbEntity
  8
1
  6
Continuous
100
AcDbLine
 10
87.63788599999998
 20
210.967754
 30
0.0
 11
77.82022099999998
 21
210.967754
 31
0.0
  0
ARC
  5
A5CE
330
A460
100
AcDbEntity
  8
1
  6
Continuous
100
AcDbCircle
 10
85.770218
 20
210.725414
 30
0.0
 40
19.97969399999998
100
AcDbArc
 50
65.14189800000001
 51
114.8580999999998
  0
ARC
  5
A5CF
330
A460
100
AcDbEntity
  8
1
  6
Continuous
100
AcDbCircle
 10
85.770218
 20
208.6871449999999
 30
0.0
 40
19.97969399999998
100
AcDbArc
 50
65.14189800000001
 51
114.8580999999998
  0
LINE
  5
A5D0
330
A460
100
AcDbEntity
  8
1
  6
Continuous
100
AcDbLine
 10
73.520218
 20
217.233867
 30
0.0
 11
73.520218
 21
222.0519519999998
 31
0.0
  0
LINE
  5
A5D1
330
A460
100
AcDbEntity
  8
1
  6
Continuous
100
AcDbLine
 10
75.520218
 20
220.0136829999999
 30
0.0
 11
73.520218
 21
220.0136829999999
 31
0.0
  0
LINE
  5
A5D2
330
A460
100
AcDbEntity
  8
1
  6
Continuous
100
AcDbLine
 10
75.520218
 20
217.233867
 30
0.0
 11
73.520218
 21
217.233867
 31
0.0
  0
LINE
  5
A5D3
330
A460
100
AcDbEntity
  8
1
  6
Continuous
100
AcDbLine
 10
75.520218
 20
208.2555649999999
 30
0.0
 11
77.82022099999998
 21
208.2555649999999
 31
0.0
  0
LINE
  5
A5D4
330
A460
100
AcDbEntity
  8
1
  6
Continuous
100
AcDbLine
 10
75.520218
 20
222.0519519999998
 30
0.0
 11
73.520218
 21
222.0519519999998
 31
0.0
  0
LINE
  5
A5D5
330
A460
100
AcDbEntity
  8
1
  6
Continuous
100
AcDbLine
 10
75.520218
 20
223.9180409999999
 30
0.0
 11
77.82022099999998
 21
223.9180409999999
 31
0.0
  0
ARC
  5
A5D6
330
A460
100
AcDbEntity
  8
1
  6
Continuous
100
AcDbCircle
 10
78.71379799999998
 20
225.95631
 30
0.0
 40
3.193579
100
AcDbArc
 50
114.8580999999998
 51
180.000005
  0
ARC
  5
A5D7
330
A460
100
AcDbEntity
  8
1
  6
Continuous
100
AcDbCircle
 10
78.71379799999998
 20
223.9180409999999
 30
0.0
 40
3.193579
100
AcDbArc
 50
114.8580999999998
 51
180.000005
  0
LINE
  5
A5D8
330
A460
100
AcDbEntity
  8
1
  6
Continuous
100
AcDbLine
 10
87.63789399999996
 20
210.967769
 30
0.0
 11
95.440521
 21
222.0832169999999
 31
0.0
  0
ARC
  5
A5D9
330
A460
100
AcDbEntity
  8
1
  6
Continuous
100
AcDbCircle
 10
96.00692700000001
 20
208.187267
 30
0.0
 40
10.0
100
AcDbArc
 50
207.5165319999999
 51
227.4797379999999
  0
ARC
  5
A5DA
330
A460
100
AcDbEntity
  8
1
  6
Continuous
100
AcDbCircle
 10
116.76458
 20
219.000652
 30
0.0
 40
33.40532299999999
100
AcDbArc
 50
195.562253
 51
207.5165319999999
  0
ARC
  5
A5DB
330
A460
100
AcDbEntity
  8
1
  6
Continuous
100
AcDbCircle
 10
91.87738799999999
 20
209.2263599999999
 30
0.0
 40
7.346719999999997
100
AcDbArc
 50
175.5108769999999
 51
197.296189
  0
ARC
  5
A5DC
330
A460
100
AcDbEntity
  8
1
  6
Continuous
100
AcDbCircle
 10
86.91598499999996
 20
209.615886
 30
0.0
 40
2.370054
100
AcDbArc
 50
145.2214469999999
 51
175.5108769999999
  0
ARC
  5
A5DD
330
A460
100
AcDbEntity
  8
1
  6
Continuous
100
AcDbCircle
 10
116.7580339999999
 20
216.9739799999999
 30
0.0
 40
33.40532299999999
100
AcDbArc
 50
196.4368179999999
 51
204.7987319999998
  0
ARC
  5
A5DE
330
A460
100
AcDbEntity
  8
1
  6
Continuous
100
AcDbCircle
 10
92.826637
 20
225.95631
 30
0.0
 40
3.193579
100
AcDbArc
 50
359.999997
 51
65.14189800000001
  0
ARC
  5
A5DF
330
A460
100
AcDbEntity
  8
1
  6
Continuous
100
AcDbCircle
 10
92.826637
 20
223.9180409999999
 30
0.0
 40
3.193579
100
AcDbArc
 50
324.932596
 51
65.14189800000001
  0
LINE
  5
A5E0
330
A460
100
AcDbEntity
  8
1
  6
Continuous
100
AcDbLine
 10
96.02021800000001
 20
223.9180409999999
 30
0.0
 11
96.02021800000001
 21
225.95631
 31
0.0
  0
LINE
  5
A5E1
330
A460
100
AcDbEntity
  8
1
  6
Continuous
100
AcDbLine
 10
232.73842
 20
96.07161300000001
 30
0.0
 11
232.73842
 21
98.37161600000001
 31
0.0
  0
LINE
  5
A5E2
330
A460
100
AcDbEntity
  8
1
  6
Continuous
100
AcDbLine
 10
205.930757
 20
102.7659639999999
 30
0.0
 11
205.930757
 21
95.67151200000001
 31
0.0
  0
LINE
  5
A5E3
330
A460
100
AcDbEntity
  8
1
  6
Continuous
100
AcDbLine
 10
183.775667
 20
103.711887
 30
0.0
 11
183.775667
 21
99.52886499999999
 31
0.0
  0
LINE
  5
A5E4
330
A460
100
AcDbEntity
  8
1
  6
Continuous
100
AcDbLine
 10
206.368441
 20
94.47160700000001
 30
0.0
 11
213.4580709999999
 21
98.37160799999999
 31
0.0
  0
ARC
  5
A5E5
330
A460
100
AcDbEntity
  8
1
  6
Continuous
100
AcDbCircle
 10
230.702349
 20
104.4423249999999
 30
0.0
 40
8.370708999999997
100
AcDbArc
 50
284.077735
 51
318.452482
  0
ARC
  5
A5E6
330
A460
100
AcDbEntity
  8
1
  6
Continuous
100
AcDbCircle
 10
229.636766
 20
104.4423249999999
 30
0.0
 40
8.370708999999997
100
AcDbArc
 50
291.7487679999998
 51
318.452482
  0
ARC
  5
A5E7
330
A460
100
AcDbEntity
  8
1
  6
Continuous
100
AcDbCircle
 10
162.1902479999999
 20
102.4216039999999
 30
0.0
 40
11.20420599999998
100
AcDbArc
 50
138.4524829999998
 51
221.5475129999999
  0
LINE
  5
A5E8
330
A460
100
AcDbEntity
  8
1
  6
Continuous
100
AcDbLine
 10
206.9593069999998
 20
92.171604
 30
0.0
 11
155.9916399999998
 21
92.171604
 31
0.0
  0
LINE
  5
A5E9
330
A460
100
AcDbEntity
  8
1
  6
Continuous
100
AcDbLine
 10
206.368441
 20
94.47160700000001
 30
0.0
 11
155.9916399999998
 21
94.47160700000001
 31
0.0
  0
LINE
  5
A5EA
330
A460
100
AcDbEntity
  8
1
  6
Continuous
100
AcDbLine
 10
173.92087
 20
90.17160399999999
 30
0.0
 11
167.5380269999998
 21
90.17160399999999
 31
0.0
  0
LINE
  5
A5EB
330
A460
100
AcDbEntity
  8
1
  6
Continuous
100
AcDbLine
 10
155.9916399999998
 20
92.171604
 30
0.0
 11
155.9916399999998
 21
94.47160700000001
 31
0.0
  0
ARC
  5
A5EC
330
A460
100
AcDbEntity
  8
1
  6
Continuous
100
AcDbCircle
 10
160.0696429999999
 20
100.542316
 30
0.0
 40
8.370708999999997
100
AcDbArc
 50
221.547517
 51
240.844905
  0
LINE
  5
A5ED
330
A460
100
AcDbEntity
  8
1
  6
Continuous
100
AcDbLine
 10
167.5380269999998
 20
92.171604
 30
0.0
 11
167.5380269999998
 21
90.17160399999999
 31
0.0
  0
LINE
  5
A5EE
330
A460
100
AcDbEntity
  8
1
  6
Continuous
100
AcDbLine
 10
172.855287
 20
92.171604
 30
0.0
 11
172.855287
 21
90.17160399999999
 31
0.0
  0
LINE
  5
A5EF
330
A460
100
AcDbEntity
  8
1
  6
Continuous
100
AcDbLine
 10
165.843599
 20
92.171604
 30
0.0
 11
165.843599
 21
94.47160700000001
 31
0.0
  0
LINE
  5
A5F0
330
A460
100
AcDbEntity
  8
1
  6
Continuous
100
AcDbLine
 10
173.92087
 20
92.171604
 30
0.0
 11
173.92087
 21
90.17160399999999
 31
0.0
  0
LINE
  5
A5F1
330
A460
100
AcDbEntity
  8
1
  6
Continuous
100
AcDbLine
 10
175.152422
 20
92.171604
 30
0.0
 11
175.152422
 21
94.47160700000001
 31
0.0
  0
LINE
  5
A5F2
330
A460
100
AcDbEntity
  8
1
  6
Continuous
100
AcDbLine
 10
199.079927
 20
92.171604
 30
0.0
 11
199.079927
 21
94.47160700000001
 31
0.0
  0
LINE
  5
A5F3
330
A460
100
AcDbEntity
  8
1
  6
Continuous
100
AcDbLine
 10
232.73842
 20
96.07161300000001
 30
0.0
 11
214.048952
 21
96.07161300000001
 31
0.0
  0
LINE
  5
A5F4
330
A460
100
AcDbEntity
  8
1
  6
Continuous
100
AcDbLine
 10
206.9593069999998
 20
92.171604
 30
0.0
 11
214.048937
 21
96.071605
 31
0.0
  0
LINE
  5
A5F5
330
A460
100
AcDbEntity
  8
1
  6
Continuous
100
AcDbLine
 10
225.1440909999999
 20
90.17160399999999
 30
0.0
 11
231.9700029999999
 21
90.17160399999999
 31
0.0
  0
LINE
  5
A5F6
330
A460
100
AcDbEntity
  8
1
  6
Continuous
100
AcDbLine
 10
231.9700029999999
 20
96.07161300000001
 30
0.0
 11
231.9700029999999
 21
90.17160399999999
 31
0.0
  0
LINE
  5
A5F7
330
A460
100
AcDbEntity
  8
1
  6
Continuous
100
AcDbLine
 10
225.1440909999999
 20
96.07161300000001
 30
0.0
 11
225.1440909999999
 21
90.17160399999999
 31
0.0
  0
LINE
  5
A5F8
330
A460
100
AcDbEntity
  8
1
  6
Continuous
100
AcDbLine
 10
230.9044209999999
 20
96.07161300000001
 30
0.0
 11
230.9044209999999
 21
90.17160399999999
 31
0.0
  0
LINE
  5
A5F9
330
A460
100
AcDbEntity
  8
5
  6
PHANTOM
100
AcDbLine
 10
204.8035329999999
 20
210.3261929999999
 30
0.0
 11
209.4878809999999
 21
196.7847319999999
 31
0.0
  0
ARC
  5
A5FA
330
A460
100
AcDbEntity
  8
1
  6
Continuous
100
AcDbCircle
 10
196.882631
 20
113.1372409999999
 30
0.0
 40
12.391586
100
AcDbArc
 50
266.9357189999999
 51
316.9144149999999
  0
ARC
  5
A5FB
330
A460
100
AcDbEntity
  8
5
  6
PHANTOM
100
AcDbCircle
 10
197.6306199999999
 20
220.597848
 30
0.0
 40
10.0
100
AcDbArc
 50
258.754791
 51
289.0818689999998
  0
ARC
  5
A5FC
330
A460
100
AcDbEntity
  8
5
  6
PHANTOM
100
AcDbCircle
 10
191.930344
 20
191.9280159999999
 30
0.0
 40
21.531025
100
AcDbArc
 50
78.75481999999998
 51
139.408898
  0
ARC
  5
A5FD
330
A460
100
AcDbEntity
  8
5
  6
PHANTOM
100
AcDbCircle
 10
201.147834
 20
210.442791
 30
0.0
 40
16.003084
100
AcDbArc
 50
284.5521969999998
 51
338.274872
  0
ARC
  5
A5FE
330
A460
100
AcDbEntity
  8
5
  6
PHANTOM
100
AcDbCircle
 10
187.6559959999999
 20
204.284208
 30
0.0
 40
19.84358
100
AcDbArc
 50
246.213143
 51
331.9505819999998
  0
ARC
  5
A5FF
330
A460
100
AcDbEntity
  8
5
  6
PHANTOM
100
AcDbCircle
 10
173.242635
 20
200.7896479999998
 30
0.0
 40
16.003084
100
AcDbArc
 50
239.888825
 51
293.6114939999999
  0
LINE
  5
A600
330
A460
100
AcDbEntity
  8
1
  6
Continuous
100
AcDbLine
 10
163.3284659999999
 20
112.0111999999999
 30
0.0
 11
183.8311629999997
 21
104.7833669999999
 31
0.0
  0
LINE
  5
A601
330
A460
100
AcDbEntity
  8
1
  6
Continuous
100
AcDbLine
 10
164.394155
 20
112.011154
 30
0.0
 11
184.896761
 21
104.7833589999999
 31
0.0
  0
ARC
  5
A602
330
A460
100
AcDbEntity
  8
1
  6
Continuous
100
AcDbCircle
 10
160.0696429999999
 20
104.3008909999999
 30
0.0
 40
8.370708999999997
100
AcDbArc
 50
67.088265
 51
138.4524829999998
  0
ARC
  5
A603
330
A460
100
AcDbEntity
  8
1
  6
Continuous
100
AcDbCircle
 10
161.1352249999999
 20
104.3008909999999
 30
0.0
 40
8.370708999999997
100
AcDbArc
 50
67.08746999999999
 51
90.00000300000001
  0
LINE
  5
A604
330
A460
100
AcDbEntity
  8
1
  6
Continuous
100
AcDbLine
 10
160.0696429999999
 20
112.671604
 30
0.0
 11
161.1352249999999
 21
112.671604
 31
0.0
  0
ARC
  5
A605
330
A460
100
AcDbEntity
  8
1
  6
Continuous
100
AcDbCircle
 10
206.3827379999999
 20
148.038372
 30
0.0
 40
48.297459
100
AcDbArc
 50
243.5851219999999
 51
245.6616009999999
  0
ARC
  5
A606
330
A460
100
AcDbEntity
  8
1
  6
Continuous
100
AcDbCircle
 10
205.317156
 20
148.038387
 30
0.0
 40
48.297459
100
AcDbArc
 50
243.5851219999999
 51
246.0387809999999
  0
ARC
  5
A607
330
A460
100
AcDbEntity
  8
1
  6
Continuous
100
AcDbCircle
 10
197.9482289999999
 20
113.137226
 30
0.0
 40
12.391586
100
AcDbArc
 50
261.9839819999999
 51
267.5354399999998
  0
LINE
  5
A608
330
A460
100
AcDbEntity
  8
5
  6
PHANTOM
100
AcDbLine
 10
140.1709639999999
 20
190.1395729999999
 30
0.0
 11
173.002306
 21
201.496792
 31
0.0
  0
LINE
  5
A609
330
A460
100
AcDbEntity
  8
5
  6
PHANTOM
100
AcDbLine
 10
139.4190519999999
 20
192.313195
 30
0.0
 11
172.250404
 21
203.670426
 31
0.0
  0
LINE
  5
A60A
330
A460
100
AcDbEntity
  8
5
  6
PHANTOM
100
AcDbLine
 10
157.822028
 20
196.245651
 30
0.0
 11
158.802807
 21
193.410423
 31
0.0
  0
ARC
  5
A60B
330
A460
100
AcDbEntity
  8
5
  6
PHANTOM
100
AcDbCircle
 10
157.942441
 20
197.3814909999999
 30
0.0
 40
12.45549699999999
100
AcDbArc
 50
203.844424
 51
260.2368699999999
  0
LINE
  5
A60C
330
A460
100
AcDbEntity
  8
5
  6
PHANTOM
100
AcDbLine
 10
163.492334
 20
198.207162
 30
0.0
 11
164.4731129999998
 21
195.371934
 31
0.0
  0
LINE
  5
A60D
330
A460
100
AcDbEntity
  8
5
  6
PHANTOM
100
AcDbLine
 10
158.8027649999999
 20
193.410378
 30
0.0
 11
164.473125
 21
195.371902
 31
0.0
  0
LINE
  5
A60E
330
A460
100
AcDbEntity
  8
5
  6
PHANTOM
100
AcDbLine
 10
165.2142109999997
 20
186.946109
 30
0.0
 11
155.8302939999999
 21
185.106371
 31
0.0
  0
LINE
  5
A60F
330
A460
100
AcDbEntity
  8
5
  6
PHANTOM
100
AcDbLine
 10
140.1708649999999
 20
190.139645
 30
0.0
 11
139.418953
 21
192.3132679999999
 31
0.0
  0
ARC
  5
A610
330
A460
100
AcDbEntity
  8
5
  6
PHANTOM
100
AcDbCircle
 10
191.930344
 20
191.9280159999999
 30
0.0
 40
19.23102399999998
100
AcDbArc
 50
78.7548
 51
139.408925
  0
ARC
  5
A611
330
A460
100
AcDbEntity
  8
5
  6
PHANTOM
100
AcDbCircle
 10
169.733105
 20
210.9473589999999
 30
0.0
 40
10.0
100
AcDbArc
 50
289.0818689999998
 51
319.40892
  0
ARC
  5
A612
330
A460
100
AcDbEntity
  8
5
  6
PHANTOM
100
AcDbCircle
 10
169.733105
 20
210.9473589999999
 30
0.0
 40
7.7
100
AcDbArc
 50
289.0818689999998
 51
319.4089
  0
LINE
  5
A613
330
A460
100
AcDbEntity
  8
5
  6
PHANTOM
100
AcDbLine
 10
200.147909
 20
213.3209029999999
 30
0.0
 11
232.9792459999999
 21
224.6781279999999
 31
0.0
  0
LINE
  5
A614
330
A460
100
AcDbEntity
  8
5
  6
PHANTOM
100
AcDbLine
 10
200.8998319999999
 20
211.1472919999999
 30
0.0
 11
233.731158
 21
222.5045059999999
 31
0.0
  0
ARC
  5
A628
330
A460
100
AcDbEntity
  8
1
  6
Continuous
100
AcDbCircle
 10
230.702349
 20
108.2009009999999
 30
0.0
 40
8.370708999999997
100
AcDbArc
 50
41.54751799999998
 51
90.00000300000001
  0
ARC
  5
A629
330
A460
100
AcDbEntity
  8
1
  6
Continuous
100
AcDbCircle
 10
227.516161
 20
106.3216129999997
 30
0.0
 40
11.20420599999998
100
AcDbArc
 50
318.452482
 51
41.54751799999998
  0
LINE
  5
A62A
330
A460
100
AcDbEntity
  8
1
  6
Continuous
100
AcDbLine
 10
232.73842
 20
98.37161600000001
 30
0.0
 11
213.4580859999998
 21
98.37161600000001
 31
0.0
  0
LINE
  5
A62B
330
A460
100
AcDbEntity
  8
1
  6
Continuous
100
AcDbLine
 10
205.9311689999999
 20
104.671749
 30
0.0
 11
225.5900899999998
 21
115.528461
 31
0.0
  0
LINE
  5
A62C
330
A460
100
AcDbEntity
  8
1
  6
Continuous
100
AcDbLine
 10
229.636766
 20
116.5716129999997
 30
0.0
 11
230.702349
 21
116.5716129999997
 31
0.0
  0
ARC
  5
A62D
330
A460
100
AcDbEntity
  8
1
  6
Continuous
100
AcDbCircle
 10
229.636766
 20
108.2009009999999
 30
0.0
 40
8.370708999999997
100
AcDbArc
 50
41.54751799999998
 51
118.9098639999997
  0
LINE
  5
A62E
330
A460
100
AcDbEntity
  8
5
  6
PHANTOM
100
AcDbLine
 10
216.014214
 20
204.5191879999999
 30
0.0
 11
224.5291009999998
 21
208.871126
 31
0.0
  0
LINE
  5
A62F
330
A460
100
AcDbEntity
  8
5
  6
PHANTOM
100
AcDbLine
 10
215.2147379999999
 20
210.8084999999999
 30
0.0
 11
221.357571
 21
212.9334669999999
 31
0.0
  0
LINE
  5
A630
330
A460
100
AcDbEntity
  8
5
  6
PHANTOM
100
AcDbLine
 10
212.36397
 20
212.9415499999999
 30
0.0
 11
215.6033649999999
 21
203.57712
 31
0.0
  0
LINE
  5
A631
330
A460
100
AcDbEntity
  8
5
  6
PHANTOM
100
AcDbLine
 10
213.5801079999999
 20
215.533842
 30
0.0
 11
215.214731
 21
210.808527
 31
0.0
  0
LINE
  5
A632
330
A460
100
AcDbEntity
  8
5
  6
PHANTOM
100
AcDbLine
 10
219.7230059999998
 20
217.6588329999999
 30
0.0
 11
221.3576129999999
 21
212.9335119999999
 31
0.0
  0
ARC
  5
A633
330
A460
100
AcDbEntity
  8
5
  6
PHANTOM
100
AcDbCircle
 10
215.283512
 20
217.2172859999998
 30
0.0
 40
12.45549699999999
100
AcDbArc
 50
317.9268299999999
 51
14.31928
  0
ARC
  5
A634
330
A460
100
AcDbEntity
  8
1
  6
Continuous
100
AcDbCircle
 10
228.5817429999999
 20
106.3216129999997
 30
0.0
 40
11.20420599999998
100
AcDbArc
 50
318.452482
 51
41.54751799999998
  0
ARC
  5
A635
330
A460
100
AcDbEntity
  8
1
  6
Continuous
100
AcDbCircle
 10
282.8133839999998
 20
187.5492429999999
 30
0.0
 40
3.193579
100
AcDbArc
 50
179.9999909999999
 51
245.1419099999999
  0
ARC
  5
A636
330
A460
100
AcDbEntity
  8
1
  6
Continuous
100
AcDbCircle
 10
282.8133839999998
 20
189.587513
 30
0.0
 40
3.193579
100
AcDbArc
 50
132.738812
 51
245.1419099999999
  0
LINE
  5
A637
330
A460
100
AcDbEntity
  8
5
  6
PHANTOM
100
AcDbLine
 10
233.7316729999999
 20
222.5047959999999
 30
0.0
 11
232.979766
 21
224.6784139999999
 31
0.0
  0
LINE
  5
A638
330
A460
100
AcDbEntity
  8
1
  6
Continuous
100
AcDbLine
 10
291.5198049999998
 20
201.980724
 30
0.0
 11
280.646025
 21
191.9330399999997
 31
0.0
  0
LINE
  5
A639
330
A460
100
AcDbEntity
  8
1
  6
Continuous
100
AcDbLine
 10
279.6198109999999
 20
189.587513
 30
0.0
 11
279.6198109999999
 21
187.5492429999999
 31
0.0
  0
ARC
  5
A63A
330
A460
100
AcDbEntity
  8
5
  6
PHANTOM
100
AcDbCircle
 10
197.6306199999999
 20
220.597848
 30
0.0
 40
7.7
100
AcDbArc
 50
258.754818
 51
289.0818689999998
  0
ARC
  5
A63B
330
A460
100
AcDbEntity
  8
1
  6
Continuous
100
AcDbCircle
 10
286.7133929999998
 20
225.9563249999999
 30
0.0
 40
3.193579
100
AcDbArc
 50
114.858087
 51
215.0990769999999
  0
LINE
  5
A63C
330
A460
100
AcDbEntity
  8
1
  6
Continuous
100
AcDbLine
 10
291.5198199999998
 20
213.563121
 30
0.0
 11
284.100539
 21
224.120037
 31
0.0
  0
LINE
  5
A63D
330
A460
100
AcDbEntity
  8
1
  6
Continuous
100
AcDbLine
 10
291.5198049999998
 20
211.5248369999999
 30
0.0
 11
284.100524
 21
222.081768
 31
0.0
  0
LINE
  5
A63E
330
A460
100
AcDbEntity
  8
1
  6
Continuous
100
AcDbLine
 10
283.5198199999998
 20
225.9563249999999
 30
0.0
 11
283.5198199999998
 21
223.918056
 31
0.0
  0
ARC
  5
A63F
330
A460
100
AcDbEntity
  8
1
  6
Continuous
100
AcDbCircle
 10
286.7133929999998
 20
223.918056
 30
0.0
 40
3.193579
100
AcDbArc
 50
179.9999909999999
 51
215.0990769999999
  0
LINE
  5
A653
330
A460
100
AcDbEntity
  8
1
  6
Continuous
100
AcDbLine
 10
168.6036239999999
 20
373.071614
 30
0.0
 11
168.6036239999999
 21
379.571614
 31
0.0
  0
LINE
  5
A654
330
A460
100
AcDbEntity
  8
1
  6
Continuous
100
AcDbLine
 10
297.8197919999999
 20
180.139385
 30
0.0
 11
297.8197919999999
 21
184.450227
 31
0.0
  0
LINE
  5
A655
330
A460
100
AcDbEntity
  8
1
  6
Continuous
100
AcDbLine
 10
300.1198109999999
 20
180.139385
 30
0.0
 11
300.1198109999999
 21
188.9248
 31
0.0
  0
LINE
  5
A656
330
A460
100
AcDbEntity
  8
1
  6
Continuous
100
AcDbLine
 10
304.0198049999998
 20
182.228656
 30
0.0
 11
304.0198049999998
 21
186.886524
 31
0.0
  0
LINE
  5
A657
330
A460
100
AcDbEntity
  8
1
  6
Continuous
100
AcDbLine
 10
300.1198109999999
 20
180.139385
 30
0.0
 11
297.8197919999999
 21
180.139385
 31
0.0
  0
LINE
  5
A658
330
A460
100
AcDbEntity
  8
1
  6
Continuous
100
AcDbLine
 10
304.0198049999998
 20
182.2286489999999
 30
0.0
 11
300.1198109999999
 21
180.1393769999999
 31
0.0
  0
LINE
  5
A659
330
A460
100
AcDbEntity
  8
1
  6
Continuous
100
AcDbLine
 10
298.695067
 20
188.9248
 30
0.0
 11
306.0198049999999
 21
188.9248
 31
0.0
  0
LINE
  5
A65A
330
A460
100
AcDbEntity
  8
1
  6
Continuous
100
AcDbLine
 10
298.6198109999999
 20
191.936222
 30
0.0
 11
306.0198049999999
 21
191.936222
 31
0.0
  0
LINE
  5
A65B
330
A460
100
AcDbEntity
  8
1
  6
Continuous
100
AcDbLine
 10
306.0198049999999
 20
191.936222
 30
0.0
 11
306.0198049999999
 21
186.886524
 31
0.0
  0
LINE
  5
A65C
330
A460
100
AcDbEntity
  8
1
  6
Continuous
100
AcDbLine
 10
300.1198109999999
 20
186.886524
 30
0.0
 11
306.0198049999999
 21
186.886524
 31
0.0
  0
LINE
  5
A65D
330
A460
100
AcDbEntity
  8
1
  6
Continuous
100
AcDbLine
 10
300.1198109999999
 20
191.936222
 30
0.0
 11
300.1198109999999
 21
194.546695
 31
0.0
  0
ARC
  5
A65E
330
A460
100
AcDbEntity
  8
1
  6
Continuous
100
AcDbCircle
 10
296.9262379999999
 20
189.587513
 30
0.0
 40
3.193579
100
AcDbArc
 50
294.8581019999998
 51
348.0232389999998
  0
ARC
  5
A65F
330
A460
100
AcDbEntity
  8
1
  6
Continuous
100
AcDbCircle
 10
296.9262379999999
 20
187.5492429999999
 30
0.0
 40
3.193579
100
AcDbArc
 50
294.8581019999998
 51
348.0232389999998
  0
LINE
  5
A673
330
A460
100
AcDbEntity
  8
5
  6
PHANTOM
100
AcDbLine
 10
196.8765409999998
 20
203.9358449999999
 30
0.0
 11
195.452303
 21
203.443164
 31
0.0
  0
LINE
  5
A674
330
A460
100
AcDbEntity
  8
5
  6
PHANTOM
100
AcDbLine
 10
199.818808
 20
195.430372
 30
0.0
 11
198.394571
 21
194.9376909999998
 31
0.0
  0
ARC
  5
A675
330
A460
100
AcDbEntity
  8
5
  6
PHANTOM
100
AcDbCircle
 10
198.347674
 20
199.683109
 30
0.0
 40
4.5
100
AcDbArc
 50
289.081852
 51
109.081852
  0
ARC
  5
A676
330
A460
100
AcDbEntity
  8
5
  6
PHANTOM
100
AcDbCircle
 10
182.092771
 20
194.060109
 30
0.0
 40
4.5
100
AcDbArc
 50
109.081852
 51
289.081852
  0
LINE
  5
A677
330
A460
100
AcDbEntity
  8
5
  6
PHANTOM
100
AcDbLine
 10
182.045875
 20
198.805527
 30
0.0
 11
180.621638
 21
198.3128449999999
 31
0.0
  0
LINE
  5
A678
330
A460
100
AcDbEntity
  8
5
  6
PHANTOM
100
AcDbLine
 10
184.9881419999999
 20
190.3000539999999
 30
0.0
 11
183.563905
 21
189.8073729999999
 31
0.0
  0
ARC
  5
A679
330
A460
100
AcDbEntity
  8
1
  6
Continuous
100
AcDbCircle
 10
190.220223
 20
196.871609
 30
0.0
 40
34.5
100
AcDbArc
 50
152.6246539999999
 51
332.1753839999999
  0
ARC
  5
A67A
330
A460
100
AcDbEntity
  8
1
  6
Continuous
100
AcDbCircle
 10
190.220223
 20
196.871609
 30
0.0
 40
34.5
100
AcDbArc
 50
353.2865619999999
 51
41.614713
  0
ARC
  5
A67B
330
A460
100
AcDbEntity
  8
1
  6
Continuous
100
AcDbCircle
 10
190.220223
 20
196.871609
 30
0.0
 40
34.5
100
AcDbArc
 50
340.7329509999998
 51
349.249112
  0
ARC
  5
A67C
330
A460
100
AcDbEntity
  8
1
  6
Continuous
100
AcDbCircle
 10
190.220223
 20
196.871609
 30
0.0
 40
50.0
100
AcDbArc
 50
346.640821
 51
47.498512
  0
ARC
  5
A67D
330
A460
100
AcDbEntity
  8
1
  6
Continuous
100
AcDbCircle
 10
190.220223
 20
196.871609
 30
0.0
 40
50.0
100
AcDbArc
 50
140.863151
 51
343.936842
  0
ARC
  5
A67E
330
A460
100
AcDbEntity
  8
1
  6
Continuous
100
AcDbCircle
 10
197.841574
 20
192.8872629999999
 30
0.0
 40
4.5
100
AcDbArc
 50
242.3999989999999
 51
62.39999899999999
  0
ARC
  5
A67F
330
A460
100
AcDbEntity
  8
1
  6
Continuous
100
AcDbCircle
 10
187.796712
 20
192.235855
 30
0.0
 40
19.23102399999998
100
AcDbArc
 50
32.072946
 51
92.72707200000001
  0
ARC
  5
A680
330
A460
100
AcDbEntity
  8
1
  6
Continuous
100
AcDbCircle
 10
207.590886
 20
198.231658
 30
0.0
 40
16.003084
100
AcDbArc
 50
237.870344
 51
291.5930189999999
  0
ARC
  5
A681
330
A460
100
AcDbEntity
  8
1
  6
Continuous
100
AcDbCircle
 10
187.796712
 20
192.235855
 30
0.0
 40
21.531025
100
AcDbArc
 50
32.072967
 51
92.727044
  0
ARC
  5
A682
330
A460
100
AcDbEntity
  8
1
  6
Continuous
100
AcDbCircle
 10
168.447057
 20
220.7052909999999
 30
0.0
 40
12.45549699999999
100
AcDbArc
 50
157.1625709999999
 51
213.555017
  0
LINE
  5
A683
330
A460
100
AcDbEntity
  8
1
  6
Continuous
100
AcDbLine
 10
167.5380599999997
 20
220.013656
 30
0.0
 11
166.1481369999999
 21
217.3549799999999
 31
0.0
  0
LINE
  5
A684
330
A460
100
AcDbEntity
  8
1
  6
Continuous
100
AcDbLine
 10
152.0516399999999
 20
230.7049859999999
 30
0.0
 11
182.8385669999999
 21
214.60997
 31
0.0
  0
LINE
  5
A685
330
A460
100
AcDbEntity
  8
1
  6
Continuous
100
AcDbLine
 10
150.986058
 20
228.666717
 30
0.0
 11
181.7729689999999
 21
212.5717009999999
 31
0.0
  0
LINE
  5
A686
330
A460
100
AcDbEntity
  8
1
  6
Continuous
100
AcDbLine
 10
166.148076
 20
217.3549799999999
 30
0.0
 11
171.465337
 21
214.5751799999999
 31
0.0
  0
ARC
  5
A687
330
A460
100
AcDbEntity
  8
1
  6
Continuous
100
AcDbCircle
 10
181.42336
 20
211.9117119999999
 30
0.0
 40
16.003084
100
AcDbArc
 50
193.206972
 51
246.9296399999999
  0
LINE
  5
A688
330
A460
100
AcDbEntity
  8
1
  6
Continuous
100
AcDbLine
 10
165.843526
 20
208.255493
 30
0.0
 11
158.0671889999998
 21
213.8206629999999
 31
0.0
  0
ARC
  5
A689
330
A460
100
AcDbEntity
  8
1
  6
Continuous
100
AcDbCircle
 10
182.5988719999998
 20
200.855955
 30
0.0
 40
4.5
100
AcDbArc
 50
62.39999899999999
 51
242.3999989999999
  0
LINE
  5
A68A
330
A460
100
AcDbEntity
  8
1
  6
Continuous
100
AcDbLine
 10
199.9264059999999
 20
196.8751789999998
 30
0.0
 11
198.590856
 21
197.573387
 31
0.0
  0
ARC
  5
A68B
330
A460
100
AcDbEntity
  8
1
  6
Continuous
100
AcDbCircle
 10
193.8541149999998
 20
203.822631
 30
0.0
 40
19.84358
100
AcDbArc
 50
199.5312899999999
 51
285.2687279999999
  0
LINE
  5
A68C
330
A460
100
AcDbEntity
  8
1
  6
Continuous
100
AcDbLine
 10
181.8495889999999
 20
196.1698299999999
 30
0.0
 11
180.5140399999999
 21
196.8680389999999
 31
0.0
  0
LINE
  5
A68D
330
A460
100
AcDbEntity
  8
1
  6
Continuous
100
AcDbLine
 10
195.756741
 20
188.899347
 30
0.0
 11
194.4211919999999
 21
189.5975549999997
 31
0.0
  0
LINE
  5
A68E
330
A460
100
AcDbEntity
  8
1
  6
Continuous
100
AcDbLine
 10
186.0192539999999
 20
204.1456629999999
 30
0.0
 11
184.683704
 21
204.843871
 31
0.0
  0
ARC
  5
A68F
330
A460
100
AcDbEntity
  8
1
  6
Continuous
100
AcDbCircle
 10
186.4059489999999
 20
221.4337759999999
 30
0.0
 40
7.7
100
AcDbArc
 50
242.4000159999999
 51
272.7270459999999
  0
ARC
  5
A690
330
A460
100
AcDbEntity
  8
1
  6
Continuous
100
AcDbCircle
 10
186.4059489999999
 20
221.4337759999999
 30
0.0
 40
10.0
100
AcDbArc
 50
242.4000159999999
 51
272.7270669999999
  0
LINE
  5
A691
330
A460
100
AcDbEntity
  8
1
  6
Continuous
100
AcDbLine
 10
172.855275
 20
217.2338859999999
 30
0.0
 11
171.4653519999997
 21
214.57521
 31
0.0
  0
LINE
  5
A692
330
A460
100
AcDbEntity
  8
1
  6
Continuous
100
AcDbLine
 10
150.9860429999999
 20
228.6668389999999
 30
0.0
 11
152.051625
 21
230.7051079999999
 31
0.0
  0
ARC
  5
A693
330
A460
100
AcDbEntity
  8
1
  6
Continuous
100
AcDbCircle
 10
222.2174729999999
 20
192.5948019999999
 30
0.0
 40
12.45549699999999
100
AcDbArc
 50
271.244977
 51
327.637426
  0
LINE
  5
A694
330
A460
100
AcDbEntity
  8
1
  6
Continuous
100
AcDbLine
 10
207.933308
 20
198.8954159999999
 30
0.0
 11
238.720204
 21
182.800407
 31
0.0
  0
LINE
  5
A695
330
A460
100
AcDbEntity
  8
1
  6
Continuous
100
AcDbLine
 10
208.9988759999999
 20
200.9336849999999
 30
0.0
 11
239.785787
 21
184.8386759999999
 31
0.0
  0
LINE
  5
A696
330
A460
100
AcDbEntity
  8
1
  6
Continuous
100
AcDbLine
 10
213.480199
 20
183.351661
 30
0.0
 11
222.4881029999999
 21
180.1422499999999
 31
0.0
  0
LINE
  5
A697
330
A460
100
AcDbEntity
  8
1
  6
Continuous
100
AcDbLine
 10
217.1036879999999
 20
191.7855679999999
 30
0.0
 11
212.512929
 21
183.0042719999999
 31
0.0
  0
LINE
  5
A698
330
A460
100
AcDbEntity
  8
1
  6
Continuous
100
AcDbLine
 10
210.0140429999999
 20
195.4919429999999
 30
0.0
 11
203.375569
 21
182.7937159999999
 31
0.0
  0
LINE
  5
A699
330
A460
100
AcDbEntity
  8
1
  6
Continuous
100
AcDbLine
 10
225.584432
 20
189.667747
 30
0.0
 11
223.267918
 21
185.2366789999999
 31
0.0
  0
LINE
  5
A69A
330
A460
100
AcDbEntity
  8
1
  6
Continuous
100
AcDbLine
 10
219.824056
 20
192.679199
 30
0.0
 11
217.507558
 21
188.2481229999999
 31
0.0
  0
LINE
  5
A69B
330
A460
100
AcDbEntity
  8
1
  6
Continuous
100
AcDbLine
 10
217.507543
 20
188.2481
 30
0.0
 11
223.267857
 21
185.2366789999999
 31
0.0
  0
ARC
  5
A69C
330
A460
100
AcDbEntity
  8
1
  6
Continuous
100
AcDbCircle
 10
212.566274
 20
207.7574919999999
 30
0.0
 40
7.7
100
AcDbArc
 50
212.0729649999999
 51
242.4000159999999
  0
ARC
  5
A69D
330
A460
100
AcDbEntity
  8
1
  6
Continuous
100
AcDbCircle
 10
212.566274
 20
207.7574919999999
 30
0.0
 40
10.0
100
AcDbArc
 50
212.0729379999999
 51
242.4000159999999
  0
LINE
  5
A69E
330
A460
100
AcDbEntity
  8
1
  6
Continuous
100
AcDbLine
 10
238.7207689999999
 20
182.800231
 30
0.0
 11
239.7863509999999
 21
184.8384929999998
 31
0.0
  0
ARC
  5
A69F
330
A460
100
AcDbEntity
  8
1
  6
Continuous
100
AcDbCircle
 10
341.6197899999999
 20
201.844997
 30
0.0
 40
1.0
100
AcDbArc
 50
154.803547
 51
180.0
  0
ARC
  5
A6A0
330
A460
100
AcDbEntity
  8
1
  6
Continuous
100
AcDbCircle
 10
303.0198049999999
 20
201.845008
 30
0.0
 40
1.0
100
AcDbArc
 50
0.0
 51
25.196444
  0
LINE
  5
A6A1
330
A460
100
AcDbEntity
  8
1
  6
Continuous
100
AcDbLine
 10
75.520218
 20
183.979137
 30
0.0
 11
75.52022499999998
 21
183.4250289999999
 31
0.0
  0
CIRCLE
  5
A6A2
330
A460
100
AcDbEntity
  8
1
  6
Continuous
100
AcDbCircle
 10
442.2202229999999
 20
196.871609
 30
0.0
 40
1.5
  0
CIRCLE
  5
A6A3
330
A460
100
AcDbEntity
  8
1
  6
Continuous
100
AcDbCircle
 10
442.2202229999999
 20
196.871609
 30
0.0
 40
6.25
  0
LINE
  5
A6A4
330
A460
100
AcDbEntity
  8
1
  6
Continuous
100
AcDbLine
 10
80.82022100000001
 20
188.4716089999997
 30
0.0
 11
80.82022100000001
 21
205.271609
 31
0.0
  0
LINE
  5
A6A5
330
A460
100
AcDbEntity
  8
1
  6
Continuous
100
AcDbLine
 10
80.82022100000001
 20
198.99079
 30
0.0
 11
77.82022099999998
 21
193.3256489999999
 31
0.0
  0
LINE
  5
A6A6
330
A460
100
AcDbEntity
  8
1
  6
Continuous
100
AcDbLine
 10
77.82022099999998
 20
192.4417359999999
 30
0.0
 11
80.82022100000001
 21
192.271609
 31
0.0
  0
ARC
  5
A6A7
330
A460
100
AcDbEntity
  8
1
  6
Continuous
100
AcDbCircle
 10
76.32022099999997
 20
201.113314
 30
0.0
 40
4.5
100
AcDbArc
 50
289.471221
 51
70.528779
  0
ARC
  5
A6A8
330
A460
100
AcDbEntity
  8
1
  6
Continuous
100
AcDbCircle
 10
76.32022099999997
 20
192.629903
 30
0.0
 40
4.5
100
AcDbArc
 50
289.471221
 51
0.0
  0
LINE
  5
A6A9
330
A460
100
AcDbEntity
  8
1
  6
Continuous
100
AcDbLine
 10
81.82022100000002
 20
188.4716089999997
 30
0.0
 11
81.82022100000002
 21
205.271609
 31
0.0
  0
LINE
  5
A6AA
330
A460
100
AcDbEntity
  8
1
  6
Continuous
100
AcDbLine
 10
80.82022100000001
 20
205.271609
 30
0.0
 11
81.82022100000002
 21
205.271609
 31
0.0
  0
LINE
  5
A6AB
330
A460
100
AcDbEntity
  8
1
  6
Continuous
100
AcDbLine
 10
80.82022100000001
 20
188.4716089999997
 30
0.0
 11
81.82022100000002
 21
188.4716089999997
 31
0.0
  0
LINE
  5
A6AC
330
A460
100
AcDbEntity
  8
1
  6
Continuous
100
AcDbLine
 10
80.82022100000001
 20
192.871609
 30
0.0
 11
77.82022099999998
 21
192.871609
 31
0.0
  0
LINE
  5
A6AD
330
A460
100
AcDbEntity
  8
1
  6
Continuous
100
AcDbLine
 10
80.82022100000001
 20
193.548109
 30
0.0
 11
77.93802499999998
 21
193.548109
 31
0.0
  0
ARC
  5
A6AE
330
A460
100
AcDbEntity
  8
1
  6
Continuous
100
AcDbCircle
 10
222.220223
 20
73.87160899999997
 30
0.0
 40
20.69999999999998
100
AcDbArc
 50
81.87983599999999
 51
139.2942929999997
  0
ARC
  5
A6AF
330
A460
100
AcDbEntity
  8
1
  6
Continuous
100
AcDbCircle
 10
222.220223
 20
73.87160899999997
 30
0.0
 40
22.7
100
AcDbArc
 50
102.0478149999999
 51
129.7389159999999
  0
ARC
  5
A6B0
330
A460
100
AcDbEntity
  8
1
  6
Continuous
100
AcDbCircle
 10
222.220223
 20
73.87160899999997
 30
0.0
 40
17.0
100
AcDbArc
 50
80.09632899999997
 51
127.428006
  0
LINE
  5
A6B1
330
A460
100
AcDbEntity
  8
1
  6
Continuous
100
AcDbLine
 10
198.620223
 20
97.47160700000002
 30
0.0
 11
181.8202229999999
 21
97.47160700000002
 31
0.0
  0
LINE
  5
A6B2
330
A460
100
AcDbEntity
  8
1
  6
Continuous
100
AcDbLine
 10
198.620223
 20
98.47160700000001
 30
0.0
 11
181.8202229999999
 21
98.47160700000001
 31
0.0
  0
LINE
  5
A6B3
330
A460
100
AcDbEntity
  8
1
  6
Continuous
100
AcDbLine
 10
198.620223
 20
97.47160700000002
 30
0.0
 11
198.620223
 21
98.47160700000001
 31
0.0
  0
LINE
  5
A6B4
330
A460
100
AcDbEntity
  8
1
  6
Continuous
100
AcDbLine
 10
181.8202229999999
 20
97.47160700000002
 30
0.0
 11
181.8202229999999
 21
98.47160700000001
 31
0.0
  0
ARC
  5
A6B5
330
A460
100
AcDbEntity
  8
1
  6
Continuous
100
AcDbCircle
 10
182.853597
 20
92.971607
 30
0.0
 40
4.5
100
AcDbArc
 50
19.47122099999998
 51
160.528779
  0
ARC
  5
A6B6
330
A460
100
AcDbEntity
  8
1
  6
Continuous
100
AcDbCircle
 10
197.586849
 20
92.971607
 30
0.0
 40
4.5
100
AcDbArc
 50
19.47122099999998
 51
90.0
  0
LINE
  5
A6B7
330
A460
100
AcDbEntity
  8
1
  6
Continuous
100
AcDbLine
 10
188.9807749999999
 20
94.47160700000001
 30
0.0
 11
194.296759
 21
97.47160700000002
 31
0.0
  0
LINE
  5
A6B8
330
A460
100
AcDbEntity
  8
1
  6
Continuous
100
AcDbLine
 10
187.290006
 20
94.47160700000001
 30
0.0
 11
186.1436859999997
 21
97.47160700000002
 31
0.0
  0
LINE
  5
A6B9
330
A460
100
AcDbEntity
  8
2
  6
Continuous
100
AcDbLine
 10
193.5437229999998
 20
97.47160700000002
 30
0.0
 11
193.5437229999998
 21
97.04664100000002
 31
0.0
  0
LINE
  5
A6BA
330
A460
100
AcDbEntity
  8
1
  6
Continuous
100
AcDbLine
 10
194.220223
 20
97.47160700000002
 30
0.0
 11
194.220223
 21
97.428415
 31
0.0
  0
LINE
  5
A6BB
330
A460
100
AcDbEntity
  8
2
  6
Continuous
100
AcDbLine
 10
186.896723
 20
97.47160700000002
 30
0.0
 11
186.896723
 21
95.500857
 31
0.0
  0
LINE
  5
A6BC
330
A460
100
AcDbEntity
  8
1
  6
Continuous
100
AcDbLine
 10
186.220223
 20
97.47160700000002
 30
0.0
 11
186.220223
 21
97.27130600000002
 31
0.0
  0
ARC
  5
A6BD
330
A460
100
AcDbEntity
  8
1
  6
Continuous
100
AcDbCircle
 10
187.220223
 20
372.511214
 30
0.0
 40
6.841600999999998
100
AcDbArc
 50
263.77393
 51
296.0078240000001
  0
LINE
  5
A6BE
330
A460
100
AcDbEntity
  8
1
  6
Continuous
100
AcDbLine
 10
193.0202229999999
 20
106.073604
 30
0.0
 11
187.4202229999999
 21
106.073604
 31
0.0
  0
LINE
  5
A6BF
330
A460
100
AcDbEntity
  8
1
  6
Continuous
100
AcDbLine
 10
187.4202229999999
 20
363.669614
 30
0.0
 11
186.220223
 21
364.869614
 31
0.0
  0
LINE
  5
A6C0
330
A460
100
AcDbEntity
  8
1
  6
Continuous
100
AcDbLine
 10
194.220223
 20
364.869614
 30
0.0
 11
186.220223
 21
364.869614
 31
0.0
  0
LINE
  5
A6C1
330
A460
100
AcDbEntity
  8
1
  6
Continuous
100
AcDbLine
 10
193.0202229999999
 20
363.669614
 30
0.0
 11
194.220223
 21
364.869614
 31
0.0
  0
LINE
  5
A6C2
330
A460
100
AcDbEntity
  8
2
  6
Continuous
100
AcDbLine
 10
186.896723
 20
364.193114
 30
0.0
 11
186.896723
 21
365.669614
 31
0.0
  0
LINE
  5
A6C3
330
A460
100
AcDbEntity
  8
1
  6
Continuous
100
AcDbLine
 10
186.220223
 20
364.869614
 30
0.0
 11
186.220223
 21
365.592348
 31
0.0
  0
LINE
  5
A6C4
330
A460
100
AcDbEntity
  8
2
  6
Continuous
100
AcDbLine
 10
193.5437229999998
 20
364.193114
 30
0.0
 11
193.5437229999998
 21
365.669614
 31
0.0
  0
LINE
  5
A6C5
330
A460
100
AcDbEntity
  8
1
  6
Continuous
100
AcDbLine
 10
194.220223
 20
364.869614
 30
0.0
 11
194.220223
 21
365.669614
 31
0.0
  0
ARC
  5
A6C6
330
A460
100
AcDbEntity
  8
1
  6
Continuous
100
AcDbCircle
 10
193.220223
 20
372.511214
 30
0.0
 40
6.841600999999998
100
AcDbArc
 50
243.992176
 51
296.0078240000001
  0
LINE
  5
A6C7
330
A460
100
AcDbEntity
  8
1
  6
Continuous
100
AcDbLine
 10
187.470223
 20
365.669614
 30
0.0
 11
192.970223
 21
365.669614
 31
0.0
  0
LINE
  5
A6C8
330
A460
100
AcDbEntity
  8
1
  6
Continuous
100
AcDbLine
 10
190.220223
 20
366.8716089999999
 30
0.0
 11
190.220223
 21
366.362434
 31
0.0
  0
LINE
  5
A6C9
330
A460
100
AcDbEntity
  8
1
  6
Continuous
100
AcDbLine
 10
196.220223
 20
368.8764029999999
 30
0.0
 11
196.220223
 21
366.362434
 31
0.0
  0
LINE
  5
A6CA
330
A460
100
AcDbEntity
  8
1
  6
Continuous
100
AcDbLine
 10
187.4202229999999
 20
363.669614
 30
0.0
 11
193.0202229999999
 21
363.669614
 31
0.0
  0
ARC
  5
A6CB
330
A460
100
AcDbEntity
  8
1
  6
Continuous
100
AcDbCircle
 10
442.2202229999999
 20
196.871609
 30
0.0
 40
16.5
100
AcDbArc
 50
205.0
 51
355.0
  0
ARC
  5
A6CC
330
A460
100
AcDbEntity
  8
1
  6
Continuous
100
AcDbCircle
 10
442.2202229999999
 20
196.871609
 30
0.0
 40
18.0
100
AcDbArc
 50
157.462327
 51
58.417258
  0
ARC
  5
A6CD
330
A460
100
AcDbEntity
  8
1
  6
Continuous
100
AcDbCircle
 10
442.2202229999999
 20
196.871609
 30
0.0
 40
21.4
100
AcDbArc
 50
150.72433
 51
65.15526
  0
LINE
  5
A6CE
330
A460
100
AcDbEntity
  8
1
  6
Continuous
100
AcDbLine
 10
458.5337629999998
 20
204.478737
 30
0.0
 11
452.189608
 21
201.52041
 31
0.0
  0
LINE
  5
A6CF
330
A460
100
AcDbEntity
  8
1
  6
Continuous
100
AcDbLine
 10
460.1517269999998
 20
195.302805
 30
0.0
 11
453.178365
 21
195.9128959999999
 31
0.0
  0
ARC
  5
A6D0
330
A460
100
AcDbEntity
  8
1
  6
Continuous
100
AcDbCircle
 10
442.2202229999999
 20
196.871609
 30
0.0
 40
11.0
100
AcDbArc
 50
175.0
 51
205.0
  0
ARC
  5
A6D1
330
A460
100
AcDbEntity
  8
1
  6
Continuous
100
AcDbCircle
 10
442.2202229999999
 20
196.871609
 30
0.0
 40
11.0
100
AcDbArc
 50
355.0
 51
25.0
  0
LINE
  5
A6D2
330
A460
100
AcDbEntity
  8
1
  6
Continuous
100
AcDbLine
 10
431.2620809999998
 20
197.8303219999999
 30
0.0
 11
424.2887179999998
 21
198.440412
 31
0.0
  0
LINE
  5
A6D3
330
A460
100
AcDbEntity
  8
1
  6
Continuous
100
AcDbLine
 10
432.250837
 20
192.222808
 30
0.0
 11
425.906683
 21
189.26448
 31
0.0
  0
ARC
  5
A6D4
330
A460
100
AcDbEntity
  8
1
  6
Continuous
100
AcDbCircle
 10
442.2202229999999
 20
196.871609
 30
0.0
 40
13.5
100
AcDbArc
 50
175.0
 51
205.0
  0
ARC
  5
A6D5
330
A460
100
AcDbEntity
  8
1
  6
Continuous
100
AcDbCircle
 10
442.2202229999999
 20
196.871609
 30
0.0
 40
13.5
100
AcDbArc
 50
355.0
 51
25.0
  0
ARC
  5
A6D6
330
A460
100
AcDbEntity
  8
1
  6
Continuous
100
AcDbCircle
 10
442.2202229999999
 20
196.871609
 30
0.0
 40
16.5
100
AcDbArc
 50
25.0
 51
54.27683
  0
LINE
  5
A6D7
330
A460
100
AcDbEntity
  8
1
  6
Continuous
100
AcDbLine
 10
428.846691
 20
198.0912059999998
 30
0.0
 11
402.2622059999998
 21
244.524497
 31
0.0
  0
ARC
  5
A6D8
330
A460
100
AcDbEntity
  8
1
  6
Continuous
100
AcDbCircle
 10
442.2202229999999
 20
196.871609
 30
0.0
 40
16.5
100
AcDbArc
 50
161.602751
 51
175.0
  0
ARC
  5
A6D9
330
A460
100
AcDbEntity
  8
1
  6
Continuous
100
AcDbCircle
 10
335.8197999999998
 20
212.371642
 30
0.0
 40
2.5
100
AcDbArc
 50
0.0
 51
90.0
  0
ARC
  5
A6DA
330
A460
100
AcDbEntity
  8
1
  6
Continuous
100
AcDbCircle
 10
335.8197999999998
 20
181.3716089999998
 30
0.0
 40
2.5
100
AcDbArc
 50
270.0
 51
0.0
  0
LINE
  5
A6DB
330
A460
100
AcDbEntity
  8
1
  6
Continuous
100
AcDbLine
 10
342.1197899999999
 20
197.8303219999999
 30
0.0
 11
342.1197899999999
 21
192.2065
 31
0.0
  0
LINE
  5
A6DC
330
A460
100
AcDbEntity
  8
1
  6
Continuous
100
AcDbLine
 10
335.8197999999998
 20
198.440412
 30
0.0
 11
342.1197899999999
 21
197.8303219999999
 31
0.0
  0
LINE
  5
A6DD
330
A460
100
AcDbEntity
  8
1
  6
Continuous
100
AcDbLine
 10
335.8197999999998
 20
189.26448
 30
0.0
 11
342.1197899999999
 21
192.2065
 31
0.0
  0
LINE
  5
A6DE
330
A460
100
AcDbEntity
  8
1
  6
Continuous
100
AcDbLine
 10
338.3198
 20
190.4319499999997
 30
0.0
 11
338.3198
 21
181.3716089999998
 31
0.0
  0
LINE
  5
A6DF
330
A460
100
AcDbEntity
  8
1
  6
Continuous
100
AcDbLine
 10
340.6197899999999
 20
191.5060179999999
 30
0.0
 11
340.6197899999999
 21
185.871625
 31
0.0
  0
ARC
  5
A6E0
330
A460
100
AcDbEntity
  8
1
  6
Continuous
100
AcDbCircle
 10
43.720223
 20
181.3715919999999
 30
0.0
 40
2.5
100
AcDbArc
 50
180.0
 51
270.0
  0
ARC
  5
A6E1
330
A460
100
AcDbEntity
  8
1
  6
Continuous
100
AcDbCircle
 10
43.720223
 20
212.371625
 30
0.0
 40
2.5
100
AcDbArc
 50
90.0
 51
180.0
  0
LINE
  5
A6E2
330
A460
100
AcDbEntity
  8
1
  6
Continuous
100
AcDbLine
 10
37.420233
 20
201.52041
 30
0.0
 11
37.420233
 21
195.9128959999999
 31
0.0
  0
LINE
  5
A6E3
330
A460
100
AcDbEntity
  8
1
  6
Continuous
100
AcDbLine
 10
43.720223
 20
204.478737
 30
0.0
 11
37.420233
 21
201.52041
 31
0.0
  0
LINE
  5
A6E4
330
A460
100
AcDbEntity
  8
1
  6
Continuous
100
AcDbLine
 10
43.720223
 20
195.302805
 30
0.0
 11
37.420233
 21
195.9128959999999
 31
0.0
  0
LINE
  5
A6E5
330
A460
100
AcDbEntity
  8
1
  6
Continuous
100
AcDbLine
 10
38.920233
 20
195.767636
 30
0.0
 11
38.920233
 21
185.871609
 31
0.0
  0
LINE
  5
A6E6
330
A460
100
AcDbEntity
  8
1
  6
Continuous
100
AcDbLine
 10
41.220223
 20
195.544905
 30
0.0
 11
41.220223
 21
181.3715919999999
 31
0.0
  0
ARC
  5
A6E7
330
A460
100
AcDbEntity
  8
1
  6
Continuous
100
AcDbCircle
 10
205.720239
 20
60.37160899999999
 30
0.0
 40
2.5
100
AcDbArc
 50
270.0
 51
0.0
  0
ARC
  5
A6E8
330
A460
100
AcDbEntity
  8
1
  6
Continuous
100
AcDbCircle
 10
174.720206
 20
60.37160899999999
 30
0.0
 40
2.5
100
AcDbArc
 50
180.0
 51
270.0
  0
LINE
  5
A6E9
330
A460
100
AcDbEntity
  8
1
  6
Continuous
100
AcDbLine
 10
175.4417169999999
 20
54.07161899999999
 30
0.0
 11
179.262081
 21
54.07161899999999
 31
0.0
  0
LINE
  5
A6EA
330
A460
100
AcDbEntity
  8
1
  6
Continuous
100
AcDbLine
 10
200.1896079999999
 20
54.07161899999999
 30
0.0
 11
200.1896079999999
 21
55.07161899999999
 31
0.0
  0
LINE
  5
A6EB
330
A460
100
AcDbEntity
  8
1
  6
Continuous
100
AcDbLine
 10
176.0336619999999
 20
55.07161899999999
 30
0.0
 11
179.262081
 21
55.07161899999999
 31
0.0
  0
LINE
  5
A6EC
330
A460
100
AcDbEntity
  8
1
  6
Continuous
100
AcDbLine
 10
200.1896079999999
 20
54.07161899999999
 30
0.0
 11
202.9887389999999
 21
54.07161899999999
 31
0.0
  0
LINE
  5
A6ED
330
A460
100
AcDbEntity
  8
1
  6
Continuous
100
AcDbLine
 10
200.1896079999999
 20
55.07161899999999
 30
0.0
 11
202.0325339999998
 21
55.07161899999999
 31
0.0
  0
LINE
  5
A6EE
330
A460
100
AcDbEntity
  8
1
  6
Continuous
100
AcDbLine
 10
179.262081
 20
54.07161899999999
 30
0.0
 11
179.262081
 21
55.07161899999999
 31
0.0
  0
LINE
  5
A6EF
330
A460
100
AcDbEntity
  8
1
  6
Continuous
100
AcDbLine
 10
176.7715939999999
 20
54.07161899999999
 30
0.0
 11
176.7715939999999
 21
55.07161899999999
 31
0.0
  0
ARC
  5
A6F0
330
A460
100
AcDbEntity
  8
5
  6
PHANTOM
100
AcDbCircle
 10
149.106052
 20
366.403729
 30
0.0
 40
9.315139999999999
100
AcDbArc
 50
223.3824569999999
 51
270.0
  0
ARC
  5
A6F1
330
A460
100
AcDbEntity
  8
5
  6
PHANTOM
100
AcDbCircle
 10
150.0952449999997
 20
367.3385899999999
 30
0.0
 40
10.676194
100
AcDbArc
 50
136.6175429999999
 51
223.3824569999999
  0
ARC
  5
A6F2
330
A460
100
AcDbEntity
  8
5
  6
PHANTOM
100
AcDbCircle
 10
149.106052
 20
368.27345
 30
0.0
 40
9.315139999999999
100
AcDbArc
 50
90.0
 51
136.6175429999999
  0
ARC
  5
A6F3
330
A460
100
AcDbEntity
  8
5
  6
PHANTOM
100
AcDbCircle
 10
150.0952449999997
 20
102.4216039999999
 30
0.0
 40
10.676194
100
AcDbArc
 50
136.6175429999999
 51
223.3824569999999
  0
ARC
  5
A6F4
330
A460
100
AcDbEntity
  8
5
  6
PHANTOM
100
AcDbCircle
 10
149.106052
 20
103.356464
 30
0.0
 40
9.315139999999999
100
AcDbArc
 50
90.0
 51
136.6175429999999
  0
ARC
  5
A6F5
330
A460
100
AcDbEntity
  8
5
  6
PHANTOM
100
AcDbCircle
 10
149.106052
 20
101.486743
 30
0.0
 40
9.315139999999999
100
AcDbArc
 50
223.3824569999999
 51
270.0
  0
LINE
  5
A6F6
330
A460
100
AcDbEntity
  8
5
  6
PHANTOM
100
AcDbLine
 10
398.708773
 20
222.5047959999999
 30
0.0
 11
399.460679
 21
224.6784139999999
 31
0.0
  0
LINE
  5
A6F7
330
A460
100
AcDbEntity
  8
5
  6
PHANTOM
100
AcDbLine
 10
400.440722
 20
224.3392859999999
 30
0.0
 11
399.4612
 21
224.6781279999999
 31
0.0
  0
LINE
  5
A6F8
330
A460
100
AcDbEntity
  8
5
  6
PHANTOM
100
AcDbLine
 10
399.191429
 20
222.3377209999999
 30
0.0
 11
398.709288
 21
222.5045059999999
 31
0.0
  0
LINE
  5
A6F9
330
A460
100
AcDbEntity
  8
1
  6
Continuous
100
AcDbLine
 10
481.454403
 20
228.6668389999999
 30
0.0
 11
480.388821
 21
230.7051079999999
 31
0.0
  0
LINE
  5
A6FA
330
A460
100
AcDbEntity
  8
1
  6
Continuous
100
AcDbLine
 10
480.388805
 20
230.7049859999999
 30
0.0
 11
479.4702649999998
 21
230.224785
 31
0.0
  0
LINE
  5
A6FB
330
A460
100
AcDbEntity
  8
1
  6
Continuous
100
AcDbLine
 10
481.454388
 20
228.666717
 30
0.0
 11
481.002255
 21
228.430348
 31
0.0
  0
LINE
  5
A6FC
330
A460
100
AcDbEntity
  8
5
  6
PHANTOM
100
AcDbLine
 10
492.2695809999998
 20
190.139645
 30
0.0
 11
493.0214929999998
 21
192.3132679999999
 31
0.0
  0
LINE
  5
A6FD
330
A460
100
AcDbEntity
  8
5
  6
PHANTOM
100
AcDbLine
 10
492.269481
 20
190.1395729999999
 30
0.0
 11
491.787324
 21
190.3063629999999
 31
0.0
  0
LINE
  5
A6FE
330
A460
100
AcDbEntity
  8
5
  6
PHANTOM
100
AcDbLine
 10
493.0213939999998
 20
192.313195
 30
0.0
 11
492.0418569999998
 21
192.6520419999999
 31
0.0
  0
LINE
  5
A6FF
330
A460
100
AcDbEntity
  8
1
  6
Continuous
100
AcDbLine
 10
393.5731859999998
 20
185.31887
 30
0.0
 11
392.654659
 21
184.8386759999999
 31
0.0
  0
LINE
  5
A700
330
A460
100
AcDbEntity
  8
1
  6
Continuous
100
AcDbLine
 10
394.1723589999999
 20
183.0367689999999
 30
0.0
 11
393.7202409999999
 21
182.800407
 31
0.0
  0
LINE
  5
A701
330
A460
100
AcDbEntity
  8
1
  6
Continuous
100
AcDbLine
 10
393.7196769999998
 20
182.800231
 30
0.0
 11
392.6540950000001
 21
184.8384929999998
 31
0.0
  0
LINE
  5
A702
330
A460
100
AcDbEntity
  8
1
  6
Continuous
100
AcDbLine
 10
204.2790989999998
 20
54.54355699999999
 30
0.0
 11
207.510582
 21
57.272359
 31
0.0
  0
LINE
  5
A703
330
A460
100
AcDbEntity
  8
1
  6
Continuous
100
AcDbLine
 10
202.743402
 20
54.33998199999999
 30
0.0
 11
206.533763
 21
57.87160899999999
 31
0.0
  0
LINE
  5
A704
330
A460
100
AcDbEntity
  8
1
  6
Continuous
100
AcDbLine
 10
202.74995
 20
55.374974
 30
0.0
 11
205.174301
 21
57.87160899999999
 31
0.0
  0
LINE
  5
A705
330
A460
100
AcDbEntity
  8
1
  6
Continuous
100
AcDbLine
 10
206.533763
 20
57.87160899999999
 30
0.0
 11
206.533763
 21
58.007676
 31
0.0
  0
LINE
  5
A706
330
A460
100
AcDbEntity
  8
1
  6
Continuous
100
AcDbLine
 10
208.220223
 20
58.80041999999999
 30
0.0
 11
208.220223
 21
60.37160899999999
 31
0.0
  0
ARC
  5
A707
330
A460
100
AcDbEntity
  8
1
  6
Continuous
100
AcDbCircle
 10
202.0325339999998
 20
56.07161899999999
 30
0.0
 40
1.0
100
AcDbArc
 50
270.0
 51
315.8415499999998
  0
ARC
  5
A708
330
A460
100
AcDbEntity
  8
1
  6
Continuous
100
AcDbCircle
 10
202.061707
 20
55.07161899999999
 30
0.0
 40
1.0
100
AcDbArc
 50
270.0
 51
312.976204
  0
ARC
  5
A709
330
A460
100
AcDbEntity
  8
1
  6
Continuous
100
AcDbCircle
 10
202.9887389999999
 20
56.07161899999999
 30
0.0
 40
2.0
100
AcDbArc
 50
270.0
 51
310.17916
  0
ARC
  5
A70A
330
A460
100
AcDbEntity
  8
1
  6
Continuous
100
AcDbCircle
 10
206.220223
 20
58.80041999999999
 30
0.0
 40
2.0
100
AcDbArc
 50
310.17916
 51
0.0
  0
LINE
  5
A70B
330
A460
100
AcDbEntity
  8
1
  6
Continuous
100
AcDbLine
 10
179.262081
 20
54.07161899999999
 30
0.0
 11
179.262081
 21
55.07161899999999
 31
0.0
  0
LINE
  5
A70C
330
A460
100
AcDbEntity
  8
1
  6
Continuous
100
AcDbLine
 10
172.554575
 20
59.12259200000001
 30
0.0
 11
173.5097419999999
 21
55.55444300000001
 31
0.0
  0
LINE
  5
A70D
330
A460
100
AcDbEntity
  8
1
  6
Continuous
100
AcDbLine
 10
174.514335
 20
57.88009999999999
 30
0.0
 11
175.067674
 21
55.813031
 31
0.0
  0
LINE
  5
A70E
330
A460
100
AcDbEntity
  8
1
  6
Continuous
100
AcDbLine
 10
176.019785
 20
57.88009999999999
 30
0.0
 11
176.7715939999999
 21
55.07161899999999
 31
0.0
  0
ARC
  5
A70F
330
A460
100
AcDbEntity
  8
1
  6
Continuous
100
AcDbCircle
 10
176.0336619999999
 20
56.07161899999999
 30
0.0
 40
1.0
100
AcDbArc
 50
194.986275
 51
270.0
  0
ARC
  5
A710
330
A460
100
AcDbEntity
  8
1
  6
Continuous
100
AcDbCircle
 10
175.4417169999999
 20
56.07161899999999
 30
0.0
 40
2.0
100
AcDbArc
 50
194.986275
 51
270.0
  0
CIRCLE
  5
A711
330
A460
100
AcDbEntity
  8
1
  6
Continuous
100
AcDbCircle
 10
190.220223
 20
196.871609
 30
0.0
 40
8.4
  0
LINE
  5
A712
330
A460
100
AcDbEntity
  8
1
  6
Continuous
100
AcDbLine
 10
428.470287
 20
267.7716019999999
 30
0.0
 11
391.9702200000001
 21
267.7716019999999
 31
0.0
  0
LINE
  5
A713
330
A460
100
AcDbEntity
  8
1
  6
Continuous
100
AcDbLine
 10
398.82022
 20
272.8716129999999
 30
0.0
 11
421.62022
 21
272.8716129999999
 31
0.0
  0
LINE
  5
A714
330
A460
100
AcDbEntity
  8
1
  6
Continuous
100
AcDbLine
 10
432.72022
 20
265.7716019999999
 30
0.0
 11
387.7202199999999
 21
265.7716019999999
 31
0.0
  0
LINE
  5
A715
330
A460
100
AcDbEntity
  8
1
  6
Continuous
100
AcDbLine
 10
432.320236
 20
261.9716069999999
 30
0.0
 11
388.1202099999999
 21
261.9716069999999
 31
0.0
  0
LINE
  5
A716
330
A460
100
AcDbEntity
  8
1
  6
Continuous
100
AcDbLine
 10
398.82022
 20
272.8716129999999
 30
0.0
 11
398.82022
 21
267.7716019999999
 31
0.0
  0
ARC
  5
A717
330
A460
100
AcDbEntity
  8
1
  6
Continuous
100
AcDbCircle
 10
392.19616
 20
261.77586
 30
0.0
 40
6.0
100
AcDbArc
 50
92.158028
 51
138.2442
  0
LINE
  5
A718
330
A460
100
AcDbEntity
  8
1
  6
Continuous
100
AcDbLine
 10
388.1202399999999
 20
261.9716029999997
 30
0.0
 11
387.7202399999998
 21
263.27161
 31
0.0
  0
LINE
  5
A719
330
A460
100
AcDbEntity
  8
1
  6
Continuous
100
AcDbLine
 10
387.7202199999999
 20
265.7716019999999
 30
0.0
 11
387.7202199999999
 21
263.2716019999999
 31
0.0
  0
LINE
  5
A71A
330
A460
100
AcDbEntity
  8
2
  6
Continuous
100
AcDbLine
 10
403.30272
 20
274.746558
 30
0.0
 11
403.30272
 21
311.9541129999999
 31
0.0
  0
LINE
  5
A71B
330
A460
100
AcDbEntity
  8
1
  6
Continuous
100
AcDbLine
 10
402.2202199999998
 20
272.8716129999999
 30
0.0
 11
402.2202199999998
 21
310.8716129999999
 31
0.0
  0
LINE
  5
A71C
330
A460
100
AcDbEntity
  8
2
  6
Continuous
100
AcDbLine
 10
417.13772
 20
274.746558
 30
0.0
 11
417.13772
 21
311.9541129999999
 31
0.0
  0
LINE
  5
A71D
330
A460
100
AcDbEntity
  8
1
  6
Continuous
100
AcDbLine
 10
418.2202199999998
 20
272.8716129999999
 30
0.0
 11
418.2202199999998
 21
310.8716129999999
 31
0.0
  0
LINE
  5
A71E
330
A460
100
AcDbEntity
  8
2
  6
Continuous
100
AcDbLine
 10
329.237304
 20
274.7465739999999
 30
0.0
 11
330.3198039999998
 21
272.8716289999999
 31
0.0
  0
LINE
  5
A71F
330
A460
100
AcDbEntity
  8
1
  6
Continuous
100
AcDbLine
 10
330.3198039999998
 20
272.8716289999999
 30
0.0
 11
330.3198039999998
 21
310.8716289999998
 31
0.0
  0
LINE
  5
A720
330
A460
100
AcDbEntity
  8
2
  6
Continuous
100
AcDbLine
 10
315.402304
 20
274.7465739999999
 30
0.0
 11
314.3198039999998
 21
272.8716289999999
 31
0.0
  0
LINE
  5
A721
330
A460
100
AcDbEntity
  8
1
  6
Continuous
100
AcDbLine
 10
314.3198039999998
 20
272.8716289999999
 30
0.0
 11
314.3198039999998
 21
310.8716289999998
 31
0.0
  0
ARC
  5
A722
330
A460
100
AcDbEntity
  8
1
  6
Continuous
100
AcDbCircle
 10
428.2442829999998
 20
261.77586
 30
0.0
 40
6.0
100
AcDbArc
 50
41.75575999999996
 51
87.841936
  0
LINE
  5
A723
330
A460
100
AcDbEntity
  8
1
  6
Continuous
100
AcDbLine
 10
402.2202199999998
 20
274.746558
 30
0.0
 11
418.2202199999998
 21
274.746558
 31
0.0
  0
LINE
  5
A724
330
A460
100
AcDbEntity
  8
1
  6
Continuous
100
AcDbLine
 10
410.2202199999998
 20
272.8716129999999
 30
0.0
 11
410.2202199999998
 21
267.7716019999999
 31
0.0
  0
LINE
  5
A725
330
A460
100
AcDbEntity
  8
2
  6
Continuous
100
AcDbLine
 10
403.30272
 20
274.746558
 30
0.0
 11
402.2202199999998
 21
272.8716129999999
 31
0.0
  0
LINE
  5
A726
330
A460
100
AcDbEntity
  8
1
  6
Continuous
100
AcDbLine
 10
421.62022
 20
272.8716129999999
 30
0.0
 11
421.62022
 21
267.7716019999999
 31
0.0
  0
LINE
  5
A727
330
A460
100
AcDbEntity
  8
2
  6
Continuous
100
AcDbLine
 10
417.13772
 20
274.746558
 30
0.0
 11
418.2202199999998
 21
272.8716129999999
 31
0.0
  0
LINE
  5
A728
330
A460
100
AcDbEntity
  8
1
  6
Continuous
100
AcDbLine
 10
432.3202339999999
 20
261.971599
 30
0.0
 11
432.7202349999998
 21
263.2716019999999
 31
0.0
  0
LINE
  5
A729
330
A460
100
AcDbEntity
  8
1
  6
Continuous
100
AcDbLine
 10
432.72022
 20
265.7716019999999
 30
0.0
 11
432.72022
 21
263.2716019999999
 31
0.0
  0
LINE
  5
A72A
330
A460
100
AcDbEntity
  8
1
  6
Continuous
100
AcDbLine
 10
340.347668
 20
267.7716259999999
 30
0.0
 11
304.0698039999998
 21
267.7716259999999
 31
0.0
  0
LINE
  5
A72B
330
A460
100
AcDbEntity
  8
1
  6
Continuous
100
AcDbLine
 10
344.8198039999998
 20
265.7716259999999
 30
0.0
 11
299.8198039999998
 21
265.7716259999999
 31
0.0
  0
LINE
  5
A72C
330
A460
100
AcDbEntity
  8
1
  6
Continuous
100
AcDbLine
 10
309.319749
 20
272.871626
 30
0.0
 11
335.319859
 21
272.871626
 31
0.0
  0
LINE
  5
A72D
330
A460
100
AcDbEntity
  8
1
  6
Continuous
100
AcDbLine
 10
344.419795
 20
261.971623
 30
0.0
 11
300.219804
 21
261.971623
 31
0.0
  0
ARC
  5
A72E
330
A460
100
AcDbEntity
  8
1
  6
Continuous
100
AcDbCircle
 10
304.295743
 20
261.7758789999999
 30
0.0
 40
6.0
100
AcDbArc
 50
92.158028
 51
138.2442
  0
LINE
  5
A72F
330
A460
100
AcDbEntity
  8
1
  6
Continuous
100
AcDbLine
 10
300.2198
 20
261.9716189999999
 30
0.0
 11
299.8198
 21
263.2716219999999
 31
0.0
  0
LINE
  5
A730
330
A460
100
AcDbEntity
  8
1
  6
Continuous
100
AcDbLine
 10
299.8198039999998
 20
265.7716259999999
 30
0.0
 11
299.8198039999998
 21
263.2716259999999
 31
0.0
  0
LINE
  5
A731
330
A460
100
AcDbEntity
  8
1
  6
Continuous
100
AcDbLine
 10
315.680276
 20
272.871626
 30
0.0
 11
315.680276
 21
267.7716229999999
 31
0.0
  0
LINE
  5
A732
330
A460
100
AcDbEntity
  8
1
  6
Continuous
100
AcDbLine
 10
309.319749
 20
272.871626
 30
0.0
 11
309.319749
 21
267.7716229999999
 31
0.0
  0
LINE
  5
A733
330
A460
100
AcDbEntity
  8
1
  6
Continuous
100
AcDbLine
 10
328.9593319999998
 20
272.871626
 30
0.0
 11
328.9593319999998
 21
267.7716229999999
 31
0.0
  0
LINE
  5
A734
330
A460
100
AcDbEntity
  8
1
  6
Continuous
100
AcDbLine
 10
335.319859
 20
272.871626
 30
0.0
 11
335.319859
 21
267.7716229999999
 31
0.0
  0
ARC
  5
A735
330
A460
100
AcDbEntity
  8
1
  6
Continuous
100
AcDbCircle
 10
340.347668
 20
261.7716259999999
 30
0.0
 40
6.0
100
AcDbArc
 50
41.810315
 51
90.0
  0
LINE
  5
A736
330
A460
100
AcDbEntity
  8
1
  6
Continuous
100
AcDbLine
 10
344.419795
 20
261.971627
 30
0.0
 11
344.8197959999998
 21
263.2716259999999
 31
0.0
  0
LINE
  5
A737
330
A460
100
AcDbEntity
  8
1
  6
Continuous
100
AcDbLine
 10
344.8198039999998
 20
265.7716259999999
 30
0.0
 11
344.8198039999998
 21
263.2716259999999
 31
0.0
  0
LINE
  5
A738
330
A460
100
AcDbEntity
  8
1
  6
Continuous
100
AcDbLine
 10
402.2202199999998
 20
310.8716129999999
 30
0.0
 11
418.2202199999998
 21
310.8716129999999
 31
0.0
  0
LINE
  5
A739
330
A460
100
AcDbEntity
  8
1
  6
Continuous
100
AcDbLine
 10
404.22022
 20
312.8716129999999
 30
0.0
 11
416.22022
 21
312.8716129999999
 31
0.0
  0
LINE
  5
A73A
330
A460
100
AcDbEntity
  8
1
  6
Continuous
100
AcDbLine
 10
402.2202199999998
 20
310.8716129999999
 30
0.0
 11
404.22022
 21
312.8716129999999
 31
0.0
  0
LINE
  5
A73B
330
A460
100
AcDbEntity
  8
1
  6
Continuous
100
AcDbLine
 10
416.22022
 20
312.8716129999999
 30
0.0
 11
418.2202199999998
 21
310.8716129999999
 31
0.0
  0
LINE
  5
A73C
330
A460
100
AcDbEntity
  8
1
  6
Continuous
100
AcDbLine
 10
316.3198039999998
 20
312.8716289999998
 30
0.0
 11
328.3198039999998
 21
312.8716289999998
 31
0.0
  0
LINE
  5
A73D
330
A460
100
AcDbEntity
  8
1
  6
Continuous
100
AcDbLine
 10
314.3198039999998
 20
274.7465739999999
 30
0.0
 11
330.3198039999998
 21
274.7465739999999
 31
0.0
  0
LINE
  5
A73E
330
A460
100
AcDbEntity
  8
1
  6
Continuous
100
AcDbLine
 10
314.3198039999998
 20
310.8716289999998
 30
0.0
 11
330.3198039999998
 21
310.8716289999998
 31
0.0
  0
LINE
  5
A73F
330
A460
100
AcDbEntity
  8
2
  6
Continuous
100
AcDbLine
 10
315.402304
 20
274.7465739999999
 30
0.0
 11
315.402304
 21
311.954129
 31
0.0
  0
LINE
  5
A740
330
A460
100
AcDbEntity
  8
1
  6
Continuous
100
AcDbLine
 10
314.3198039999998
 20
310.8716289999998
 30
0.0
 11
316.3198039999998
 21
312.8716289999998
 31
0.0
  0
LINE
  5
A741
330
A460
100
AcDbEntity
  8
2
  6
Continuous
100
AcDbLine
 10
329.237304
 20
274.7465739999999
 30
0.0
 11
329.237304
 21
311.954129
 31
0.0
  0
LINE
  5
A742
330
A460
100
AcDbEntity
  8
1
  6
Continuous
100
AcDbLine
 10
328.3198039999998
 20
312.8716289999998
 30
0.0
 11
330.3198039999998
 21
310.8716289999998
 31
0.0
  0
LINE
  5
A743
330
A460
100
AcDbEntity
  8
1
  6
Continuous
100
AcDbLine
 10
179.220223
 20
414.171609
 30
0.0
 11
203.6808049999999
 21
414.171609
 31
0.0
  0
LINE
  5
A744
330
A460
100
AcDbEntity
  8
1
  6
Continuous
100
AcDbLine
 10
173.9208849999999
 20
377.5716089999999
 30
0.0
 11
203.6808049999999
 21
377.5716089999999
 31
0.0
  0
LINE
  5
A745
330
A460
100
AcDbEntity
  8
4
  6
CENTER
 48
0.8
100
AcDbLine
 10
135.220223
 20
395.8716089999999
 30
0.0
 11
252.2202229999999
 21
395.8716089999999
 31
0.0
  0
ARC
  5
A746
330
A460
100
AcDbEntity
  8
1
  6
Continuous
100
AcDbCircle
 10
210.220223
 20
395.8716089999999
 30
0.0
 40
70.0
100
AcDbArc
 50
170.26348
 51
189.7364989999998
  0
ARC
  5
A747
330
A460
100
AcDbEntity
  8
1
  6
Continuous
100
AcDbCircle
 10
339.3518849999998
 20
395.8716089999999
 30
0.0
 40
158.420172
100
AcDbArc
 50
173.3666359999998
 51
186.633364
  0
LINE
  5
A748
330
A460
100
AcDbEntity
  8
1
  6
Continuous
100
AcDbLine
 10
181.5079719999999
 20
382.3716089999999
 30
0.0
 11
143.1997069999999
 21
382.3716089999999
 31
0.0
  0
ARC
  5
A749
330
A460
100
AcDbEntity
  8
1
  6
Continuous
100
AcDbCircle
 10
143.1997069999999
 20
384.371609
 30
0.0
 40
2.0
100
AcDbArc
 50
189.736519
 51
269.99998
  0
LINE
  5
A74A
330
A460
100
AcDbEntity
  8
1
  6
Continuous
100
AcDbLine
 10
179.220223
 20
414.171609
 30
0.0
 11
179.220223
 21
411.8716089999998
 31
0.0
  0
LINE
  5
A74B
330
A460
100
AcDbEntity
  8
1
  6
Continuous
100
AcDbLine
 10
177.720223
 20
380.8716089999998
 30
0.0
 11
181.6434489999998
 21
380.8716089999998
 31
0.0
  0
ARC
  5
A74C
330
A460
100
AcDbEntity
  8
1
  6
Continuous
100
AcDbCircle
 10
177.720223
 20
383.8716089999999
 30
0.0
 40
3.0
100
AcDbArc
 50
210.0000049999999
 51
269.999945
  0
LINE
  5
A74D
330
A460
100
AcDbEntity
  8
1
  6
Continuous
100
AcDbLine
 10
179.220223
 20
411.8716089999998
 30
0.0
 11
181.741762
 21
411.8716089999998
 31
0.0
  0
LINE
  5
A74E
330
A460
100
AcDbEntity
  8
1
  6
Continuous
100
AcDbLine
 10
181.5079719999999
 20
409.371609
 30
0.0
 11
143.1997069999999
 21
409.371609
 31
0.0
  0
ARC
  5
A74F
330
A460
100
AcDbEntity
  8
1
  6
Continuous
100
AcDbCircle
 10
143.1997069999999
 20
407.3716089999998
 30
0.0
 40
2.0
100
AcDbArc
 50
90.00005499999994
 51
170.263534
  0
LINE
  5
A750
330
A460
100
AcDbEntity
  8
1
  6
Continuous
100
AcDbLine
 10
179.220223
 20
411.8716089999998
 30
0.0
 11
181.741762
 21
411.8716089999998
 31
0.0
  0
LINE
  5
A751
330
A460
100
AcDbEntity
  8
1
  6
Continuous
100
AcDbLine
 10
179.220223
 20
411.8716089999998
 30
0.0
 11
179.220223
 21
414.171609
 31
0.0
  0
LINE
  5
A752
330
A460
100
AcDbEntity
  8
1
  6
Continuous
100
AcDbLine
 10
233.620223
 20
389.453402
 30
0.0
 11
233.620223
 21
402.2898159999998
 31
0.0
  0
LINE
  5
A753
330
A460
100
AcDbEntity
  8
1
  6
Continuous
100
AcDbLine
 10
210.8202229999998
 20
389.453402
 30
0.0
 11
210.8202229999998
 21
402.2898159999998
 31
0.0
  0
CIRCLE
  5
A754
330
A460
100
AcDbEntity
  8
1
  6
Continuous
100
AcDbCircle
 10
222.220223
 20
395.8716089999999
 30
0.0
 40
8.0
  0
CIRCLE
  5
A755
330
A460
100
AcDbEntity
  8
2
  6
Continuous
100
AcDbCircle
 10
222.220223
 20
395.8716089999999
 30
0.0
 40
6.9175
  0
CIRCLE
  5
A756
330
A460
100
AcDbEntity
  8
1
  6
Continuous
100
AcDbCircle
 10
222.220223
 20
395.8716089999999
 30
0.0
 40
6.0
  0
CIRCLE
  5
A757
330
A460
100
AcDbEntity
  8
1
  6
Continuous
100
AcDbCircle
 10
222.220223
 20
395.8716089999999
 30
0.0
 40
18.25
  0
CIRCLE
  5
A758
330
A460
100
AcDbEntity
  8
1
  6
Continuous
100
AcDbCircle
 10
222.220223
 20
395.8716089999999
 30
0.0
 40
22.5
  0
ARC
  5
A759
330
A460
100
AcDbEntity
  8
1
  6
Continuous
100
AcDbCircle
 10
222.220223
 20
395.8716089999999
 30
0.0
 40
25.0
100
AcDbArc
 50
230.2610839999999
 51
129.7389159999999
  0
ARC
  5
A75A
330
A460
100
AcDbEntity
  8
1
  6
Continuous
100
AcDbCircle
 10
222.220223
 20
395.8716089999999
 30
0.0
 40
25.0
100
AcDbArc
 50
142.6027479999999
 51
217.3972519999999
  0
LINE
  5
A75B
330
A460
100
AcDbEntity
  8
1
  6
Continuous
100
AcDbLine
 10
233.620223
 20
389.453402
 30
0.0
 11
222.220223
 21
382.8716089999998
 31
0.0
  0
ARC
  5
A75C
330
A460
100
AcDbEntity
  8
1
  6
Continuous
100
AcDbCircle
 10
203.6808049999999
 20
373.5716089999999
 30
0.0
 40
4.0
100
AcDbArc
 50
50.261084
 51
90.0
  0
LINE
  5
A75D
330
A460
100
AcDbEntity
  8
1
  6
Continuous
100
AcDbLine
 10
210.8202229999998
 20
389.453402
 30
0.0
 11
222.220223
 21
382.8716089999998
 31
0.0
  0
LINE
  5
A75E
330
A460
100
AcDbEntity
  8
1
  6
Continuous
100
AcDbLine
 10
222.220223
 20
408.871609
 30
0.0
 11
233.620223
 21
402.2898159999998
 31
0.0
  0
ARC
  5
A75F
330
A460
100
AcDbEntity
  8
1
  6
Continuous
100
AcDbCircle
 10
203.6808049999999
 20
418.171609
 30
0.0
 40
4.0
100
AcDbArc
 50
270.0
 51
309.738916
  0
LINE
  5
A760
330
A460
100
AcDbEntity
  8
1
  6
Continuous
100
AcDbLine
 10
222.220223
 20
408.871609
 30
0.0
 11
210.8202229999998
 21
402.2898159999998
 31
0.0
  0
LINE
  5
A761
330
A460
100
AcDbEntity
  8
2
  6
Continuous
100
AcDbLine
 10
215.3027199999999
 20
274.746558
 30
0.0
 11
215.3027199999999
 21
311.9541129999999
 31
0.0
  0
LINE
  5
A762
330
A460
100
AcDbEntity
  8
1
  6
Continuous
100
AcDbLine
 10
214.22022
 20
272.8716129999999
 30
0.0
 11
214.22022
 21
310.8716129999999
 31
0.0
  0
LINE
  5
A763
330
A460
100
AcDbEntity
  8
2
  6
Continuous
100
AcDbLine
 10
229.13772
 20
274.746558
 30
0.0
 11
229.13772
 21
311.9541129999999
 31
0.0
  0
LINE
  5
A764
330
A460
100
AcDbEntity
  8
1
  6
Continuous
100
AcDbLine
 10
230.2202199999999
 20
272.8716129999999
 30
0.0
 11
230.2202199999999
 21
310.8716129999999
 31
0.0
  0
LINE
  5
A765
330
A460
100
AcDbEntity
  8
1
  6
Continuous
100
AcDbLine
 10
210.82022
 20
272.8716129999999
 30
0.0
 11
233.6202199999999
 21
272.8716129999999
 31
0.0
  0
LINE
  5
A766
330
A460
100
AcDbEntity
  8
1
  6
Continuous
100
AcDbLine
 10
214.22022
 20
274.746558
 30
0.0
 11
230.2202199999999
 21
274.746558
 31
0.0
  0
LINE
  5
A767
330
A460
100
AcDbEntity
  8
1
  6
Continuous
100
AcDbLine
 10
240.470287
 20
267.7716019999999
 30
0.0
 11
203.9702199999999
 21
267.7716019999999
 31
0.0
  0
LINE
  5
A768
330
A460
100
AcDbEntity
  8
1
  6
Continuous
100
AcDbLine
 10
244.7202199999999
 20
265.7716019999999
 30
0.0
 11
199.7202199999999
 21
265.7716019999999
 31
0.0
  0
LINE
  5
A769
330
A460
100
AcDbEntity
  8
1
  6
Continuous
100
AcDbLine
 10
244.3202359999999
 20
261.9716069999999
 30
0.0
 11
200.1202099999999
 21
261.9716069999999
 31
0.0
  0
LINE
  5
A76A
330
A460
100
AcDbEntity
  8
1
  6
Continuous
100
AcDbLine
 10
210.82022
 20
272.8716129999999
 30
0.0
 11
210.82022
 21
267.7716019999999
 31
0.0
  0
LINE
  5
A76B
330
A460
100
AcDbEntity
  8
1
  6
Continuous
100
AcDbLine
 10
200.1202399999999
 20
261.9716029999997
 30
0.0
 11
199.7202399999999
 21
263.27161
 31
0.0
  0
LINE
  5
A76C
330
A460
100
AcDbEntity
  8
1
  6
Continuous
100
AcDbLine
 10
199.7202199999999
 20
265.7716019999999
 30
0.0
 11
199.7202199999999
 21
263.2716019999999
 31
0.0
  0
ARC
  5
A76D
330
A460
100
AcDbEntity
  8
1
  6
Continuous
100
AcDbCircle
 10
204.19616
 20
261.77586
 30
0.0
 40
6.0
100
AcDbArc
 50
92.158028
 51
138.2442
  0
LINE
  5
A76E
330
A460
100
AcDbEntity
  8
1
  6
Continuous
100
AcDbLine
 10
222.22022
 20
272.8716129999999
 30
0.0
 11
222.22022
 21
267.7716019999999
 31
0.0
  0
LINE
  5
A76F
330
A460
100
AcDbEntity
  8
2
  6
Continuous
100
AcDbLine
 10
215.3027199999999
 20
274.746558
 30
0.0
 11
214.22022
 21
272.8716129999999
 31
0.0
  0
ARC
  5
A770
330
A460
100
AcDbEntity
  8
1
  6
Continuous
100
AcDbCircle
 10
240.244283
 20
261.77586
 30
0.0
 40
6.0
100
AcDbArc
 50
41.75575999999996
 51
87.841936
  0
LINE
  5
A771
330
A460
100
AcDbEntity
  8
1
  6
Continuous
100
AcDbLine
 10
233.6202199999999
 20
272.8716129999999
 30
0.0
 11
233.6202199999999
 21
267.7716019999999
 31
0.0
  0
LINE
  5
A772
330
A460
100
AcDbEntity
  8
2
  6
Continuous
100
AcDbLine
 10
229.13772
 20
274.746558
 30
0.0
 11
230.2202199999999
 21
272.8716129999999
 31
0.0
  0
LINE
  5
A773
330
A460
100
AcDbEntity
  8
1
  6
Continuous
100
AcDbLine
 10
244.320234
 20
261.971599
 30
0.0
 11
244.7202349999999
 21
263.2716019999999
 31
0.0
  0
LINE
  5
A774
330
A460
100
AcDbEntity
  8
1
  6
Continuous
100
AcDbLine
 10
244.7202199999999
 20
265.7716019999999
 30
0.0
 11
244.7202199999999
 21
263.2716019999999
 31
0.0
  0
LINE
  5
A775
330
A460
100
AcDbEntity
  8
1
  6
Continuous
100
AcDbLine
 10
214.22022
 20
310.8716129999999
 30
0.0
 11
230.2202199999999
 21
310.8716129999999
 31
0.0
  0
LINE
  5
A776
330
A460
100
AcDbEntity
  8
1
  6
Continuous
100
AcDbLine
 10
216.22022
 20
312.8716129999999
 30
0.0
 11
228.2202199999999
 21
312.8716129999999
 31
0.0
  0
LINE
  5
A777
330
A460
100
AcDbEntity
  8
1
  6
Continuous
100
AcDbLine
 10
214.22022
 20
310.8716129999999
 30
0.0
 11
216.22022
 21
312.8716129999999
 31
0.0
  0
LINE
  5
A778
330
A460
100
AcDbEntity
  8
1
  6
Continuous
100
AcDbLine
 10
228.2202199999999
 20
312.8716129999999
 30
0.0
 11
230.2202199999999
 21
310.8716129999999
 31
0.0
  0
LINE
  5
A779
330
A460
100
AcDbEntity
  8
1
  6
Continuous
100
AcDbLine
 10
75.248091
 20
267.77161
 30
0.0
 11
38.970227
 21
267.77161
 31
0.0
  0
LINE
  5
A77A
330
A460
100
AcDbEntity
  8
1
  6
Continuous
100
AcDbLine
 10
79.72022700000002
 20
265.77161
 30
0.0
 11
34.720227
 21
265.77161
 31
0.0
  0
LINE
  5
A77B
330
A460
100
AcDbEntity
  8
1
  6
Continuous
100
AcDbLine
 10
79.32021800000002
 20
261.9716069999999
 30
0.0
 11
35.120227
 21
261.9716069999999
 31
0.0
  0
ARC
  5
A77C
330
A460
100
AcDbEntity
  8
1
  6
Continuous
100
AcDbCircle
 10
39.19616599999999
 20
261.775863
 30
0.0
 40
6.0
100
AcDbArc
 50
92.158028
 51
138.2442
  0
LINE
  5
A77D
330
A460
100
AcDbEntity
  8
1
  6
Continuous
100
AcDbLine
 10
35.12022299999999
 20
261.9716029999997
 30
0.0
 11
34.72022299999999
 21
263.271606
 31
0.0
  0
LINE
  5
A77E
330
A460
100
AcDbEntity
  8
1
  6
Continuous
100
AcDbLine
 10
34.720227
 20
265.77161
 30
0.0
 11
34.720227
 21
263.27161
 31
0.0
  0
LINE
  5
A77F
330
A460
100
AcDbEntity
  8
1
  6
Continuous
100
AcDbLine
 10
65.22022699999999
 20
272.8716129999999
 30
0.0
 11
65.22022699999999
 21
310.8716129999999
 31
0.0
  0
LINE
  5
A780
330
A460
100
AcDbEntity
  8
1
  6
Continuous
100
AcDbLine
 10
49.220227
 20
272.8716129999999
 30
0.0
 11
49.220227
 21
310.8716129999999
 31
0.0
  0
LINE
  5
A781
330
A460
100
AcDbEntity
  8
2
  6
Continuous
100
AcDbLine
 10
50.30272700000001
 20
274.746558
 30
0.0
 11
50.30272700000001
 21
311.9541129999999
 31
0.0
  0
LINE
  5
A782
330
A460
100
AcDbEntity
  8
2
  6
Continuous
100
AcDbLine
 10
64.13772699999999
 20
274.746558
 30
0.0
 11
64.13772699999999
 21
311.9541129999999
 31
0.0
  0
LINE
  5
A783
330
A460
100
AcDbEntity
  8
1
  6
Continuous
100
AcDbLine
 10
44.22017199999999
 20
272.8716099999999
 30
0.0
 11
70.220282
 21
272.8716099999999
 31
0.0
  0
LINE
  5
A784
330
A460
100
AcDbEntity
  8
1
  6
Continuous
100
AcDbLine
 10
49.220227
 20
274.746558
 30
0.0
 11
65.22022699999999
 21
274.746558
 31
0.0
  0
LINE
  5
A785
330
A460
100
AcDbEntity
  8
1
  6
Continuous
100
AcDbLine
 10
50.58069899999999
 20
272.8716099999999
 30
0.0
 11
50.58069899999999
 21
267.7716069999998
 31
0.0
  0
LINE
  5
A786
330
A460
100
AcDbEntity
  8
1
  6
Continuous
100
AcDbLine
 10
44.22017199999999
 20
272.8716099999999
 30
0.0
 11
44.22017199999999
 21
267.7716069999998
 31
0.0
  0
LINE
  5
A787
330
A460
100
AcDbEntity
  8
2
  6
Continuous
100
AcDbLine
 10
50.30272700000001
 20
274.746558
 30
0.0
 11
49.220227
 21
272.8716129999999
 31
0.0
  0
LINE
  5
A788
330
A460
100
AcDbEntity
  8
1
  6
Continuous
100
AcDbLine
 10
70.220282
 20
272.8716099999999
 30
0.0
 11
70.220282
 21
267.7716069999998
 31
0.0
  0
LINE
  5
A789
330
A460
100
AcDbEntity
  8
2
  6
Continuous
100
AcDbLine
 10
64.13772699999999
 20
274.746558
 30
0.0
 11
65.22022699999999
 21
272.8716129999999
 31
0.0
  0
LINE
  5
A78A
330
A460
100
AcDbEntity
  8
1
  6
Continuous
100
AcDbLine
 10
63.859755
 20
272.8716099999999
 30
0.0
 11
63.859755
 21
267.7716069999998
 31
0.0
  0
ARC
  5
A78B
330
A460
100
AcDbEntity
  8
1
  6
Continuous
100
AcDbCircle
 10
75.248091
 20
261.7716099999999
 30
0.0
 40
6.0
100
AcDbArc
 50
41.810315
 51
90.0
  0
LINE
  5
A78C
330
A460
100
AcDbEntity
  8
1
  6
Continuous
100
AcDbLine
 10
79.32021800000002
 20
261.971611
 30
0.0
 11
79.720219
 21
263.27161
 31
0.0
  0
LINE
  5
A78D
330
A460
100
AcDbEntity
  8
1
  6
Continuous
100
AcDbLine
 10
79.72022700000002
 20
265.77161
 30
0.0
 11
79.72022700000002
 21
263.27161
 31
0.0
  0
LINE
  5
A78E
330
A460
100
AcDbEntity
  8
1
  6
Continuous
100
AcDbLine
 10
51.220227
 20
312.8716129999999
 30
0.0
 11
63.220227
 21
312.8716129999999
 31
0.0
  0
LINE
  5
A78F
330
A460
100
AcDbEntity
  8
1
  6
Continuous
100
AcDbLine
 10
49.220227
 20
310.8716129999999
 30
0.0
 11
65.22022699999999
 21
310.8716129999999
 31
0.0
  0
LINE
  5
A790
330
A460
100
AcDbEntity
  8
1
  6
Continuous
100
AcDbLine
 10
49.220227
 20
310.8716129999999
 30
0.0
 11
51.220227
 21
312.8716129999999
 31
0.0
  0
LINE
  5
A791
330
A460
100
AcDbEntity
  8
1
  6
Continuous
100
AcDbLine
 10
63.220227
 20
312.8716129999999
 30
0.0
 11
65.22022699999999
 21
310.8716129999999
 31
0.0
  0
LINE
  5
A792
330
A460
100
AcDbEntity
  8
1
  6
Continuous
100
AcDbLine
 10
205.930757
 20
365.0715990000001
 30
0.0
 11
225.590135
 21
354.214741
 31
0.0
  0
LINE
  5
A793
330
A460
100
AcDbEntity
  8
1
  6
Continuous
100
AcDbLine
 10
163.9677899999998
 20
357.5654339999999
 30
0.0
 11
184.841265
 21
364.932225
 31
0.0
  0
LINE
  5
A794
330
A460
100
AcDbEntity
  8
1
  6
Continuous
100
AcDbLine
 10
206.995699
 20
365.072316
 30
0.0
 11
226.6556259999999
 21
354.214802
 31
0.0
  0
ARC
  5
A795
330
A460
100
AcDbEntity
  8
1
  6
Continuous
100
AcDbCircle
 10
163.255846
 20
367.321614
 30
0.0
 40
11.20420599999998
100
AcDbArc
 50
138.4524829999998
 51
221.5475129999999
  0
ARC
  5
A796
330
A460
100
AcDbEntity
  8
1
  6
Continuous
100
AcDbCircle
 10
162.1902639999998
 20
367.321614
 30
0.0
 40
11.20420599999998
100
AcDbArc
 50
138.4524829999998
 51
221.5475129999999
  0
ARC
  5
A797
330
A460
100
AcDbEntity
  8
1
  6
Continuous
100
AcDbCircle
 10
228.581758
 20
363.421605
 30
0.0
 40
11.20420599999998
100
AcDbArc
 50
318.452482
 51
41.54751799999998
  0
ARC
  5
A798
330
A460
100
AcDbEntity
  8
1
  6
Continuous
100
AcDbCircle
 10
161.1352399999999
 20
365.4423259999999
 30
0.0
 40
8.370708999999997
100
AcDbArc
 50
221.547517
 51
289.7786679999999
  0
ARC
  5
A799
330
A460
100
AcDbEntity
  8
1
  6
Continuous
100
AcDbCircle
 10
160.069658
 20
365.4423259999999
 30
0.0
 40
8.370708999999997
100
AcDbArc
 50
221.547517
 51
273.6493129999999
  0
LINE
  5
A79A
330
A460
100
AcDbEntity
  8
1
  6
Continuous
100
AcDbLine
 10
229.6367819999999
 20
353.1716049999998
 30
0.0
 11
230.702364
 21
353.1716049999998
 31
0.0
  0
ARC
  5
A79B
330
A460
100
AcDbEntity
  8
1
  6
Continuous
100
AcDbCircle
 10
230.702364
 20
361.5423169999999
 30
0.0
 40
8.370708999999997
100
AcDbArc
 50
241.0895889999999
 51
318.452482
  0
ARC
  5
A79C
330
A460
100
AcDbEntity
  8
1
  6
Continuous
100
AcDbCircle
 10
229.6367819999999
 20
361.5423169999999
 30
0.0
 40
8.370708999999997
100
AcDbArc
 50
241.090368
 51
273.6493129999999
  0
LINE
  5
A79D
330
A460
100
AcDbEntity
  8
1
  6
Continuous
100
AcDbLine
 10
167.6036239999999
 20
377.571614
 30
0.0
 11
155.991655
 21
377.571614
 31
0.0
  0
LINE
  5
A79E
330
A460
100
AcDbEntity
  8
1
  6
Continuous
100
AcDbLine
 10
155.991655
 20
377.571614
 30
0.0
 11
155.991655
 21
376.5110819999999
 31
0.0
  0
ARC
  5
A79F
330
A460
100
AcDbEntity
  8
1
  6
Continuous
100
AcDbCircle
 10
161.1352399999999
 20
369.2009169999999
 30
0.0
 40
8.370708999999997
100
AcDbArc
 50
90.00000300000001
 51
138.4524829999998
  0
ARC
  5
A7A0
330
A460
100
AcDbEntity
  8
1
  6
Continuous
100
AcDbCircle
 10
160.069658
 20
369.2009169999999
 30
0.0
 40
8.370708999999997
100
AcDbArc
 50
90.00000300000001
 51
138.4524829999998
  0
LINE
  5
A7A1
330
A460
100
AcDbEntity
  8
1
  6
Continuous
100
AcDbLine
 10
173.9208849999999
 20
373.071614
 30
0.0
 11
173.9208849999999
 21
379.571614
 31
0.0
  0
LINE
  5
A7A2
330
A460
100
AcDbEntity
  8
1
  6
Continuous
100
AcDbLine
 10
173.9208849999999
 20
379.571614
 30
0.0
 11
167.5380419999999
 21
379.571614
 31
0.0
  0
LINE
  5
A7A3
330
A460
100
AcDbEntity
  8
1
  6
Continuous
100
AcDbLine
 10
167.5380419999999
 20
377.571614
 30
0.0
 11
167.5380419999999
 21
379.571614
 31
0.0
  0
ARC
  5
A7A4
330
A460
100
AcDbEntity
  8
1
  6
Continuous
100
AcDbCircle
 10
167.6036239999999
 20
376.571614
 30
0.0
 40
1.0
100
AcDbArc
 50
0.0
 51
90.00000300000001
  0
ARC
  5
A7A5
330
A460
100
AcDbEntity
  8
1
  6
Continuous
100
AcDbCircle
 10
196.882463
 20
356.605214
 30
0.0
 40
12.391586
100
AcDbArc
 50
43.097111
 51
87.57070199999999
  0
ARC
  5
A7A6
330
A460
100
AcDbEntity
  8
1
  6
Continuous
100
AcDbCircle
 10
197.948061
 20
356.6058699999999
 30
0.0
 40
12.391586
100
AcDbArc
 50
43.097111
 51
103.5861029999999
  0
LINE
  5
A7A7
330
A460
100
AcDbEntity
  8
1
  6
Continuous
100
AcDbLine
 10
184.841265
 20
364.932209
 30
0.0
 11
184.841265
 21
375.134953
 31
0.0
  0
ARC
  5
A7A8
330
A460
100
AcDbEntity
  8
1
  6
Continuous
100
AcDbCircle
 10
206.3825699999999
 20
321.704716
 30
0.0
 40
48.297459
100
AcDbArc
 50
103.5861029999999
 51
116.4881929999999
  0
LINE
  5
A7A9
330
A460
100
AcDbEntity
  8
1
  6
Continuous
100
AcDbLine
 10
206.9963549999999
 20
365.071614
 30
0.0
 11
206.9963549999999
 21
375.315175
 31
0.0
  0
ARC
  5
A7AA
330
A460
100
AcDbEntity
  8
1
  6
Continuous
100
AcDbCircle
 10
230.702364
 20
365.3009079999998
 30
0.0
 40
8.370708999999997
100
AcDbArc
 50
41.54751799999998
 51
73.743707
  0
LINE
  5
A7AB
330
A460
100
AcDbEntity
  8
1
  6
Continuous
100
AcDbLine
 10
200.1896079999999
 20
414.671599
 30
0.0
 11
202.0325339999998
 21
414.671599
 31
0.0
  0
LINE
  5
A7AC
330
A460
100
AcDbEntity
  8
1
  6
Continuous
100
AcDbLine
 10
200.1896079999999
 20
415.671599
 30
0.0
 11
202.9887389999999
 21
415.671599
 31
0.0
  0
LINE
  5
A7AD
330
A460
100
AcDbEntity
  8
1
  6
Continuous
100
AcDbLine
 10
179.220223
 20
377.571619
 30
0.0
 11
202.940902
 21
377.571619
 31
0.0
  0
LINE
  5
A7AE
330
A460
100
AcDbEntity
  8
1
  6
Continuous
100
AcDbLine
 10
174.720206
 20
411.8716089999998
 30
0.0
 11
179.220223
 21
411.8716089999998
 31
0.0
  0
ARC
  5
A7AF
330
A460
100
AcDbEntity
  8
1
  6
Continuous
100
AcDbCircle
 10
185.970223
 20
415.371601
 30
0.0
 40
2.0
100
AcDbArc
 50
90.0
 51
179.999982
  0
ARC
  5
A7B0
330
A460
100
AcDbEntity
  8
1
  6
Continuous
100
AcDbCircle
 10
175.4417169999999
 20
413.6715989999998
 30
0.0
 40
2.0
100
AcDbArc
 50
90.0
 51
165.013725
  0
ARC
  5
A7B1
330
A460
100
AcDbEntity
  8
1
  6
Continuous
100
AcDbCircle
 10
176.0336619999999
 20
413.6715989999998
 30
0.0
 40
1.0
100
AcDbArc
 50
90.0
 51
165.013725
  0
LINE
  5
A7B2
330
A460
100
AcDbEntity
  8
1
  6
Continuous
100
AcDbLine
 10
176.019785
 20
411.8631179999998
 30
0.0
 11
176.7715939999999
 21
414.671599
 31
0.0
  0
LINE
  5
A7B3
330
A460
100
AcDbEntity
  8
1
  6
Continuous
100
AcDbLine
 10
174.514335
 20
411.8631179999998
 30
0.0
 11
175.067674
 21
413.9301859999998
 31
0.0
  0
LINE
  5
A7B4
330
A460
100
AcDbEntity
  8
1
  6
Continuous
100
AcDbLine
 10
172.554575
 20
410.620625
 30
0.0
 11
173.5097419999999
 21
414.188774
 31
0.0
  0
LINE
  5
A7B5
330
A460
100
AcDbEntity
  8
1
  6
Continuous
100
AcDbLine
 10
179.262081
 20
415.671599
 30
0.0
 11
179.262081
 21
414.671599
 31
0.0
  0
LINE
  5
A7B6
330
A460
100
AcDbEntity
  8
1
  6
Continuous
100
AcDbLine
 10
176.7715939999999
 20
415.671599
 30
0.0
 11
176.7715939999999
 21
414.671599
 31
0.0
  0
LINE
  5
A7B7
330
A460
100
AcDbEntity
  8
1
  6
Continuous
100
AcDbLine
 10
179.262081
 20
415.671599
 30
0.0
 11
179.262081
 21
414.671599
 31
0.0
  0
LINE
  5
A7B8
330
A460
100
AcDbEntity
  8
1
  6
Continuous
100
AcDbLine
 10
176.0336619999999
 20
414.671599
 30
0.0
 11
179.262081
 21
414.671599
 31
0.0
  0
LINE
  5
A7B9
330
A460
100
AcDbEntity
  8
1
  6
Continuous
100
AcDbLine
 10
175.4417169999999
 20
415.671599
 30
0.0
 11
179.262081
 21
415.671599
 31
0.0
  0
ARC
  5
A7BA
330
A460
100
AcDbEntity
  8
1
  6
Continuous
100
AcDbCircle
 10
174.720206
 20
409.371609
 30
0.0
 40
2.5
100
AcDbArc
 50
90.0
 51
180.0
  0
LINE
  5
A7BB
330
A460
100
AcDbEntity
  8
1
  6
Continuous
100
AcDbLine
 10
179.220223
 20
411.8716089999998
 30
0.0
 11
179.220223
 21
414.1715989999998
 31
0.0
  0
LINE
  5
A7BC
330
A460
100
AcDbEntity
  8
1
  6
Continuous
100
AcDbLine
 10
183.970223
 20
414.171604
 30
0.0
 11
183.970223
 21
415.371601
 31
0.0
  0
LINE
  5
A7BD
330
A460
100
AcDbEntity
  8
1
  6
Continuous
100
AcDbLine
 10
200.1896079999999
 20
415.671599
 30
0.0
 11
200.1896079999999
 21
414.671599
 31
0.0
  0
ARC
  5
A7BE
330
A460
100
AcDbEntity
  8
1
  6
Continuous
100
AcDbCircle
 10
194.470223
 20
415.371601
 30
0.0
 40
2.0
100
AcDbArc
 50
0.00002
 51
90.0
  0
LINE
  5
A7BF
330
A460
100
AcDbEntity
  8
1
  6
Continuous
100
AcDbLine
 10
185.970223
 20
417.3716009999997
 30
0.0
 11
194.470223
 21
417.3716009999997
 31
0.0
  0
LINE
  5
A7C0
330
A460
100
AcDbEntity
  8
1
  6
Continuous
100
AcDbLine
 10
196.470223
 20
414.171604
 30
0.0
 11
196.470223
 21
415.371601
 31
0.0
  0
ARC
  5
A7C1
330
A460
100
AcDbEntity
  8
1
  6
Continuous
100
AcDbCircle
 10
202.9887389999999
 20
413.6715989999998
 30
0.0
 40
2.0
100
AcDbArc
 50
49.82084
 51
90.0
  0
ARC
  5
A7C2
330
A460
100
AcDbEntity
  8
1
  6
Continuous
100
AcDbCircle
 10
202.061707
 20
414.671599
 30
0.0
 40
1.0
100
AcDbArc
 50
47.02379599999999
 51
90.0
  0
ARC
  5
A7C3
330
A460
100
AcDbEntity
  8
1
  6
Continuous
100
AcDbCircle
 10
202.0325339999998
 20
413.6715989999998
 30
0.0
 40
1.0
100
AcDbArc
 50
44.15845
 51
90.0
  0
LINE
  5
A7C4
330
A460
100
AcDbEntity
  8
1
  6
Continuous
100
AcDbLine
 10
202.74995
 20
414.368244
 30
0.0
 11
202.9408919999999
 21
414.171609
 31
0.0
  0
LINE
  5
A7C5
330
A460
100
AcDbEntity
  8
1
  6
Continuous
100
AcDbLine
 10
202.743402
 20
415.403236
 30
0.0
 11
204.047211
 21
414.188426
 31
0.0
  0
LINE
  5
A7C6
330
A460
100
AcDbEntity
  8
1
  6
Continuous
100
AcDbLine
 10
204.2790989999998
 20
415.19966
 30
0.0
 11
205.1605099999999
 21
414.455359
 31
0.0
  0
ARC
  5
A7C7
330
A460
100
AcDbEntity
  8
1
  6
Continuous
100
AcDbCircle
 10
203.680793
 20
418.1715989999998
 30
0.0
 40
4.0
100
AcDbArc
 50
291.7112559999998
 51
309.7389469999999
  0
LINE
  5
A849
330
A460
100
AcDbEntity
  8
4
  6
CENTER
 48
0.8
100
AcDbLine
 10
135.220223
 20
73.87160899999997
 30
0.0
 11
252.2202229999999
 21
73.87160899999997
 31
0.0
  0
LINE
  5
A84A
330
A460
100
AcDbEntity
  8
4
  6
CENTER
 48
0.8
100
AcDbLine
 10
222.220223
 20
43.87160899999996
 30
0.0
 11
222.220223
 21
103.8716089999999
 31
0.0
  0
LINE
  5
A84B
330
A460
100
AcDbEntity
  8
4
  6
CENTER
 48
0.8
100
AcDbLine
 10
190.220223
 20
47.37161699999997
 30
0.0
 11
190.220223
 21
111.0736039999998
 31
0.0
  0
LINE
  5
A84D
330
A460
100
AcDbEntity
  8
4
  6
CENTER
 48
0.8
100
AcDbLine
 10
348.819792
 20
196.8716249999999
 30
0.0
 11
285.117791
 21
196.8716249999999
 31
0.0
  0
ARC
  5
A8F6
330
A460
100
AcDbEntity
  8
1
  6
Continuous
100
AcDbCircle
 10
79.96012650596771
 20
185.4950368248849
 30
0.0
 40
3.263037498043361
100
AcDbArc
 50
241.2752894642744
 51
289.3107367962276
  0
ARC
  5
A8F8
330
A460
100
AcDbEntity
  8
1
  6
Continuous
100
AcDbCircle
 10
77.51198964186862
 20
185.8256258400351
 30
0.0
 40
3.597233620898943
100
AcDbArc
 50
247.8898430724103
 51
269.3153994883055
  0
ARC
  5
A8FA
330
A460
100
AcDbEntity
  8
1
  6
Continuous
100
AcDbCircle
 10
78.82022099999997
 20
183.5371810872664
 30
0.0
 40
1.0
100
AcDbArc
 50
180.0000050000005
 51
244.6392619999999
  0
ARC
  5
A8FB
330
A460
100
AcDbEntity
  8
1
  6
Continuous
100
AcDbCircle
 10
76.52022499999998
 20
183.4250290872663
 30
0.0
 40
1.0
100
AcDbArc
 50
180.0000050000005
 51
248.7650790000002
  0
ARC
  5
A940
330
A460
100
AcDbEntity
  8
1
  6
Continuous
100
AcDbCircle
 10
297.9452242847197
 20
203.4213196679818
 30
0.0
 40
8.076972188960741
100
AcDbArc
 50
285.6176532835314
 51
308.5352621142378
  0
ARC
  5
A948
330
A460
100
AcDbEntity
  8
1
  6
Continuous
100
AcDbCircle
 10
291.7770009986799
 20
211.1253258265056
 30
0.0
 40
3.276759551648488
100
AcDbArc
 50
343.516524594999
 51
40.95570610358574
  0
ARC
  5
A94A
330
A460
100
AcDbEntity
  8
1
  6
Continuous
100
AcDbCircle
 10
267.1445241289533
 20
216.8778141944021
 30
0.0
 40
28.56709281628317
100
AcDbArc
 50
328.5685671710016
 51
346.472406740823
  0
ARC
  5
A94B
330
A460
100
AcDbEntity
  8
1
  6
Continuous
100
AcDbCircle
 10
292.5245320008913
 20
209.0831101270842
 30
0.0
 40
2.640361048841534
100
AcDbArc
 50
24.91878909104865
 51
112.3662909278991
  0
ARC
  5
A94F
330
A460
100
AcDbEntity
  8
1
  6
Continuous
100
AcDbCircle
 10
292.5940398203783
 20
210.6698826031056
 30
0.0
 40
3.086223686604437
100
AcDbArc
 50
57.513263619053
 51
110.3692722861515
  0
ENDSEC
  0
SECTION
  2
OBJECTS
  0
DICTIONARY
  5
A44E
330
0
100
AcDbDictionary
281
     1
  3
ACAD_CIP_PREVIOUS_PRODUCT_INFO
350
A9BB
  3
ACAD_COLOR
350
A99D
  3
ACAD_DETAILVIEWSTYLE
350
A9B6
  3
ACAD_GROUP
350
A44F
  3
ACAD_LAYOUT
350
A45B
  3
ACAD_MATERIAL
350
A96B
  3
ACAD_MLEADERSTYLE
350
A9B2
  3
ACAD_MLINESTYLE
350
A458
  3
ACAD_PLOTSETTINGS
350
A45A
  3
ACAD_PLOTSTYLENAME
350
A969
  3
ACAD_SCALELIST
350
A9A0
  3
ACAD_SECTIONVIEWSTYLE
350
A9B4
  3
ACAD_TABLESTYLE
350
A99E
  3
ACAD_VISUALSTYLE
350
A984
  3
ACDB_RECOMPOSE_DATA
350
A9D9
  3
AcDbVariableDictionary
350
A9CC
  3
DWGPROPS
350
A9DA
  0
DICTIONARY
  5
A9BC
330
A452
100
AcDbDictionary
280
     1
281
     1
  3
ADSK_XREC_LAYER_RECONCILED
360
A9BD
  0
DICTIONARY
  5
A9BE
330
A468
100
AcDbDictionary
280
     1
281
     1
  3
ADSK_XREC_LAYER_RECONCILED
360
A9BF
  0
DICTIONARY
  5
A9C0
330
A469
100
AcDbDictionary
280
     1
281
     1
  3
ADSK_XREC_LAYER_RECONCILED
360
A9C1
  0
DICTIONARY
  5
A9C2
330
A46A
100
AcDbDictionary
280
     1
281
     1
  3
ADSK_XREC_LAYER_RECONCILED
360
A9C3
  0
DICTIONARY
  5
A9C4
330
A46B
100
AcDbDictionary
280
     1
281
     1
  3
ADSK_XREC_LAYER_RECONCILED
360
A9C5
  0
DICTIONARY
  5
A9C6
330
A46C
100
AcDbDictionary
280
     1
281
     1
  3
ADSK_XREC_LAYER_RECONCILED
360
A9C7
  0
DICTIONARY
  5
A9C8
330
A46D
100
AcDbDictionary
280
     1
281
     1
  3
ADSK_XREC_LAYER_RECONCILED
360
A9C9
  0
DICTIONARY
  5
A9CA
330
A46E
100
AcDbDictionary
280
     1
281
     1
  3
ADSK_XREC_LAYER_RECONCILED
360
A9CB
  0
DICTIONARY
  5
A7D2
330
A460
100
AcDbDictionary
281
     1
  3
ACAD_LAYOUTSELFREF
350
A965
  0
DICTIONARY
  5
A7D0
330
A45C
100
AcDbDictionary
281
     1
  3
ACAD_LAYOUTSELFREF
350
A964
  0
XRECORD
  5
A9BB
102
{ACAD_REACTORS
330
A44E
102
}
330
A44E
100
AcDbXrecord
280
     1
300
ACDLT
300
2014
300
ACDLT_F_S
  0
DICTIONARY
  5
A99D
102
{ACAD_REACTORS
330
A44E
102
}
330
A44E
100
AcDbDictionary
281
     1
  0
DICTIONARY
  5
A9B6
102
{ACAD_REACTORS
330
A44E
102
}
330
A44E
100
AcDbDictionary
281
     1
  3
Imperial24
350
A9B7
  0
DICTIONARY
  5
A44F
102
{ACAD_REACTORS
330
A44E
102
}
330
A44E
100
AcDbDictionary
281
     1
  0
DICTIONARY
  5
A45B
102
{ACAD_REACTORS
330
A44E
102
}
330
A44E
100
AcDbDictionary
281
     1
  3
Model
350
A9B8
  3
レイアウト1
350
A9B9
  0
DICTIONARY
  5
A96B
102
{ACAD_REACTORS
330
A44E
102
}
330
A44E
100
AcDbDictionary
281
     1
  3
ByBlock
350
A974
  3
ByLayer
350
A96C
  3
Global
350
A97C
  0
DICTIONARY
  5
A9B2
102
{ACAD_REACTORS
330
A44E
102
}
330
A44E
100
AcDbDictionary
281
     1
  3
Standard
350
A9B3
  0
DICTIONARY
  5
A458
102
{ACAD_REACTORS
330
A44E
102
}
330
A44E
100
AcDbDictionary
281
     1
  3
STANDARD
350
A459
  0
DICTIONARY
  5
A45A
102
{ACAD_REACTORS
330
A44E
102
}
330
A44E
100
AcDbDictionary
281
     1
  0
ACDBDICTIONARYWDFLT
  5
A969
102
{ACAD_REACTORS
330
A44E
102
}
330
A44E
100
AcDbDictionary
281
     1
  3
Normal
350
A96A
100
AcDbDictionaryWithDefault
340
A96A
  0
DICTIONARY
  5
A9A0
102
{ACAD_REACTORS
330
A44E
102
}
330
A44E
100
AcDbDictionary
281
     1
  3
A0
350
A9A1
  3
A1
350
A9A2
  3
A2
350
A9A3
  3
A3
350
A9A4
  3
A4
350
A9A5
  3
A5
350
A9A6
  3
A6
350
A9A7
  3
A7
350
A9A8
  3
A8
350
A9A9
  3
A9
350
A9AA
  3
B0
350
A9AB
  3
B1
350
A9AC
  3
B2
350
A9AD
  3
B3
350
A9AE
  3
B4
350
A9AF
  3
B5
350
A9B0
  3
B6
350
A9B1
  0
DICTIONARY
  5
A9B4
102
{ACAD_REACTORS
330
A44E
102
}
330
A44E
100
AcDbDictionary
281
     1
  3
Imperial24
350
A9B5
  0
DICTIONARY
  5
A99E
102
{ACAD_REACTORS
330
A44E
102
}
330
A44E
100
AcDbDictionary
281
     1
  3
Standard
350
A99F
  0
DICTIONARY
  5
A984
102
{ACAD_REACTORS
330
A44E
102
}
330
A44E
100
AcDbDictionary
281
     1
  3
2dWireframe
350
A98A
  3
Basic
350
A989
  3
Brighten
350
A990
  3
ColorChange
350
A994
  3
Conceptual
350
A98D
  3
Dim
350
A98F
  3
EdgeColorOff
350
A99C
  3
Facepattern
350
A993
  3
Flat
350
A985
  3
FlatWithEdges
350
A986
  3
Gouraud
350
A987
  3
GouraudWithEdges
350
A988
  3
Hidden
350
A98C
  3
JitterOff
350
A99A
  3
Linepattern
350
A992
  3
OverhangOff
350
A99B
  3
Realistic
350
A98E
  3
Shaded
350
A999
  3
Shaded with edges
350
A998
  3
Shades of Gray
350
A995
  3
Sketchy
350
A996
  3
Thicken
350
A991
  3
Wireframe
350
A98B
  3
X-Ray
350
A997
  0
XRECORD
  5
A9D9
102
{ACAD_REACTORS
330
A44E
102
}
330
A44E
100
AcDbXrecord
280
     1
 90
        1
330
A99F
  0
DICTIONARY
  5
A9CC
102
{ACAD_REACTORS
330
A44E
102
}
330
A44E
100
AcDbDictionary
281
     1
  3
CANNOSCALE
350
A9D1
  3
CMLEADERSTYLE
350
A9CE
  3
CTABLESTYLE
350
A9CD
  3
CVIEWDETAILSTYLE
350
A9CF
  3
CVIEWSECTIONSTYLE
350
A9D0
  3
DIMASSOC
350
A9D4
  3
INDEXCTL
350
A9D3
  3
SORTENTS
350
A9D2
  3
XCLIPFRAME
350
A9D5
  0
XRECORD
  5
A9DA
102
{ACAD_REACTORS
330
A44E
102
}
330
A44E
100
AcDbXrecord
280
     1
  1
DWGPROPS COOKIE
  2

  3

  4

  6

  7

  8
Yoshitsune
  9

300
=
301
=
302
=
303
=
304
=
305
=
306
=
307
=
308
=
309
=
 40
0.0163538425925926
 41
2451301.42685
 42
2457192.689866134
  1

 90
        0
  0
XRECORD
  5
A9BD
102
{ACAD_REACTORS
330
A9BC
102
}
330
A9BC
100
AcDbXrecord
280
     1
290
     1
  0
XRECORD
  5
A9BF
102
{ACAD_REACTORS
330
A9BE
102
}
330
A9BE
100
AcDbXrecord
280
     1
290
     1
  0
XRECORD
  5
A9C1
102
{ACAD_REACTORS
330
A9C0
102
}
330
A9C0
100
AcDbXrecord
280
     1
290
     1
  0
XRECORD
  5
A9C3
102
{ACAD_REACTORS
330
A9C2
102
}
330
A9C2
100
AcDbXrecord
280
     1
290
     1
  0
XRECORD
  5
A9C5
102
{ACAD_REACTORS
330
A9C4
102
}
330
A9C4
100
AcDbXrecord
280
     1
290
     1
  0
XRECORD
  5
A9C7
102
{ACAD_REACTORS
330
A9C6
102
}
330
A9C6
100
AcDbXrecord
280
     1
290
     1
  0
XRECORD
  5
A9C9
102
{ACAD_REACTORS
330
A9C8
102
}
330
A9C8
100
AcDbXrecord
280
     1
290
     1
  0
XRECORD
  5
A9CB
102
{ACAD_REACTORS
330
A9CA
102
}
330
A9CA
100
AcDbXrecord
280
     1
290
     1
  0
XRECORD
  5
A965
102
{ACAD_REACTORS
330
A7D2
102
}
330
A7D2
100
AcDbXrecord
280
     1
340
A460
  0
XRECORD
  5
A964
102
{ACAD_REACTORS
330
A7D0
102
}
330
A7D0
100
AcDbXrecord
280
     1
340
A45C
  0
ACDBDETAILVIEWSTYLE
  5
A9B7
102
{ACAD_XDICTIONARY
360
AA12
102
}
102
{ACAD_REACTORS
330
A9B6
102
}
330
A9B6
100
AcDbModelDocViewStyle
 70
     0
  3
Imperial24
290
     0
100
AcDbDetailViewStyle
 70
     0
 71
     0
 90
        3
 71
     1
340
A453
 40
0.24
340
0
 40
0.24
300

 40
0.36
280
     3
 71
     2
340
A457
 90
       25
 71
     3
340
A453
 40
0.24
 90
        1
 40
0.75
 90
        1
300
%<\AcVar ViewType \f "%tc1">% %<\AcVar ViewDetailId>%\PSCALE %<\AcVar ViewScale \f "%sn">%
 71
     4
340
A457
 90
       25
340
A457
 90
       25
280
     0
  0
LAYOUT
  5
A9B8
102
{ACAD_XDICTIONARY
360
AA14
102
}
102
{ACAD_REACTORS
330
A45B
102
}
330
A45B
100
AcDbPlotSettings
  1

  2
Canon LBP9100C
  4

  6

 40
0.0
 41
0.0
 42
0.0
 43
0.0
 44
0.0
 45
0.0
 46
0.0
 47
0.0
 48
0.0
 49
0.0
140
0.0
141
0.0
142
1.0
143
1.0
 70
  1712
 72
     0
 73
     0
 74
     0
  7

 75
     0
147
1.0
148
0.0
149
0.0
100
AcDbLayout
  1
Model
 70
     1
 71
     0
 10
0.0
 20
0.0
 11
12.0
 21
9.0
 12
0.0
 22
0.0
 32
0.0
 14
0.0
 24
0.0
 34
0.0
 15
0.0
 25
0.0
 35
0.0
146
0.0
 13
0.0
 23
0.0
 33
0.0
 16
1.0
 26
0.0
 36
0.0
 17
0.0
 27
1.0
 37
0.0
 76
     0
330
A460
331
A963
  0
LAYOUT
  5
A9B9
102
{ACAD_XDICTIONARY
360
AA16
102
}
102
{ACAD_REACTORS
330
A45B
102
}
330
A45B
100
AcDbPlotSettings
  1

  2
Canon LBP9100C
  4

  6

 40
0.0
 41
0.0
 42
0.0
 43
0.0
 44
0.0
 45
0.0
 46
0.0
 47
0.0
 48
0.0
 49
0.0
140
0.0
141
0.0
142
1.0
143
1.0
 70
   688
 72
     0
 73
     0
 74
     5
  7

 75
    16
147
1.0
148
0.0
149
0.0
100
AcDbLayout
  1
レイアウト1
 70
     0
 71
     1
 10
0.0
 20
0.0
 11
420.0
 21
297.0
 12
0.0
 22
0.0
 32
0.0
 14
1.000000000000000E+20
 24
1.000000000000000E+20
 34
1.000000000000000E+20
 15
-1.000000000000000E+20
 25
-1.000000000000000E+20
 35
-1.000000000000000E+20
146
0.0
 13
0.0
 23
0.0
 33
0.0
 16
1.0
 26
0.0
 36
0.0
 17
0.0
 27
1.0
 37
0.0
 76
     0
330
A45C
  0
MATERIAL
  5
A974
102
{ACAD_XDICTIONARY
360
A975
102
}
102
{ACAD_REACTORS
330
A96B
102
}
330
A96B
100
AcDbMaterial
  1
ByBlock
 72
     0
 43
0.0208333333333333
 43
0.0
 43
0.0
 43
0.0
 43
0.0
 43
0.0208333333333333
 43
0.0
 43
0.0
 43
0.0
 43
0.0
 43
1.0
 43
0.0
 43
0.0
 43
0.0
 43
0.0
 43
1.0
 77
     0
 47
0.0208333333333333
 47
0.0
 47
0.0
 47
0.0
 47
0.0
 47
0.0208333333333333
 47
0.0
 47
0.0
 47
0.0
 47
0.0
 47
1.0
 47
0.0
 47
0.0
 47
0.0
 47
0.0
 47
1.0
171
     0
 49
0.0208333333333333
 49
0.0
 49
0.0
 49
0.0
 49
0.0
 49
0.0208333333333333
 49
0.0
 49
0.0
 49
0.0
 49
0.0
 49
1.0
 49
0.0
 49
0.0
 49
0.0
 49
0.0
 49
1.0
175
     0
142
0.0208333333333333
142
0.0
142
0.0
142
0.0
142
0.0
142
0.0208333333333333
142
0.0
142
0.0
142
0.0
142
0.0
142
1.0
142
0.0
142
0.0
142
0.0
142
0.0
142
1.0
179
     0
144
0.0208333333333333
144
0.0
144
0.0
144
0.0
144
0.0
144
0.0208333333333333
144
0.0
144
0.0
144
0.0
144
0.0
144
1.0
144
0.0
144
0.0
144
0.0
144
0.0
144
1.0
147
0.0208333333333333
147
0.0
147
0.0
147
0.0
147
0.0
147
0.0208333333333333
147
0.0
147
0.0
147
0.0
147
0.0
147
1.0
147
0.0
147
0.0
147
0.0
147
0.0
147
1.0
  0
MATERIAL
  5
A96C
102
{ACAD_XDICTIONARY
360
A96D
102
}
102
{ACAD_REACTORS
330
A96B
102
}
330
A96B
100
AcDbMaterial
  1
ByLayer
 72
     0
 43
0.0208333333333333
 43
0.0
 43
0.0
 43
0.0
 43
0.0
 43
0.0208333333333333
 43
0.0
 43
0.0
 43
0.0
 43
0.0
 43
1.0
 43
0.0
 43
0.0
 43
0.0
 43
0.0
 43
1.0
 77
     0
 47
0.0208333333333333
 47
0.0
 47
0.0
 47
0.0
 47
0.0
 47
0.0208333333333333
 47
0.0
 47
0.0
 47
0.0
 47
0.0
 47
1.0
 47
0.0
 47
0.0
 47
0.0
 47
0.0
 47
1.0
171
     0
 49
0.0208333333333333
 49
0.0
 49
0.0
 49
0.0
 49
0.0
 49
0.0208333333333333
 49
0.0
 49
0.0
 49
0.0
 49
0.0
 49
1.0
 49
0.0
 49
0.0
 49
0.0
 49
0.0
 49
1.0
175
     0
142
0.0208333333333333
142
0.0
142
0.0
142
0.0
142
0.0
142
0.0208333333333333
142
0.0
142
0.0
142
0.0
142
0.0
142
1.0
142
0.0
142
0.0
142
0.0
142
0.0
142
1.0
179
     0
144
0.0208333333333333
144
0.0
144
0.0
144
0.0
144
0.0
144
0.0208333333333333
144
0.0
144
0.0
144
0.0
144
0.0
144
1.0
144
0.0
144
0.0
144
0.0
144
0.0
144
1.0
147
0.0208333333333333
147
0.0
147
0.0
147
0.0
147
0.0
147
0.0208333333333333
147
0.0
147
0.0
147
0.0
147
0.0
147
1.0
147
0.0
147
0.0
147
0.0
147
0.0
147
1.0
  0
MATERIAL
  5
A97C
102
{ACAD_XDICTIONARY
360
A97D
102
}
102
{ACAD_REACTORS
330
A96B
102
}
330
A96B
100
AcDbMaterial
  1
Global
 72
     0
 43
0.0208333333333333
 43
0.0
 43
0.0
 43
0.0
 43
0.0
 43
0.0208333333333333
 43
0.0
 43
0.0
 43
0.0
 43
0.0
 43
1.0
 43
0.0
 43
0.0
 43
0.0
 43
0.0
 43
1.0
 77
     0
 47
0.0208333333333333
 47
0.0
 47
0.0
 47
0.0
 47
0.0
 47
0.0208333333333333
 47
0.0
 47
0.0
 47
0.0
 47
0.0
 47
1.0
 47
0.0
 47
0.0
 47
0.0
 47
0.0
 47
1.0
171
     0
 49
0.0208333333333333
 49
0.0
 49
0.0
 49
0.0
 49
0.0
 49
0.0208333333333333
 49
0.0
 49
0.0
 49
0.0
 49
0.0
 49
1.0
 49
0.0
 49
0.0
 49
0.0
 49
0.0
 49
1.0
175
     0
142
0.0208333333333333
142
0.0
142
0.0
142
0.0
142
0.0
142
0.0208333333333333
142
0.0
142
0.0
142
0.0
142
0.0
142
1.0
142
0.0
142
0.0
142
0.0
142
0.0
142
1.0
179
     0
144
0.0208333333333333
144
0.0
144
0.0
144
0.0
144
0.0
144
0.0208333333333333
144
0.0
144
0.0
144
0.0
144
0.0
144
1.0
144
0.0
144
0.0
144
0.0
144
0.0
144
1.0
147
0.0208333333333333
147
0.0
147
0.0
147
0.0
147
0.0
147
0.0208333333333333
147
0.0
147
0.0
147
0.0
147
0.0
147
1.0
147
0.0
147
0.0
147
0.0
147
0.0
147
1.0
  0
MLEADERSTYLE
  5
A9B3
102
{ACAD_REACTORS
330
A9B2
102
}
330
A9B2
100
AcDbMLeaderStyle
170
     2
171
     1
172
     0
 90
        2
 40
0.0
 41
0.0
173
     1
 91
-1056964608
340
A455
 92
       -2
290
     1
 42
0.09
291
     1
 43
0.36
  3
Standard
 44
0.18
300

342
A453
174
     1
178
     6
175
     1
176
     0
 93
-1056964608
 45
0.18
292
     0
297
     0
 46
0.18
 94
-1056964608
 47
1.0
 49
1.0
140
1.0
293
     1
141
0.0
294
     1
177
     0
142
1.0
295
     0
296
     0
143
0.125
1001
ACAD_MLEADERVER
1070
     2
  0
MLINESTYLE
  5
A459
102
{ACAD_REACTORS
330
A458
102
}
330
A458
100
AcDbMlineStyle
  2
STANDARD
 70
     0
  3

 62
   256
 51
90.0
 52
90.0
 71
     2
 49
0.5
 62
   256
  6
BYLAYER
 49
-0.5
 62
   256
  6
BYLAYER
  0
ACDBPLACEHOLDER
  5
A96A
102
{ACAD_REACTORS
330
A969
102
}
330
A969
  0
SCALE
  5
A9A1
102
{ACAD_REACTORS
330
A9A0
102
}
330
A9A0
100
AcDbScale
 70
     0
300
1:1
140
1.0
141
1.0
290
     1
  0
SCALE
  5
A9A2
102
{ACAD_REACTORS
330
A9A0
102
}
330
A9A0
100
AcDbScale
 70
     0
300
1/128" = 1'-0"
140
0.0078125
141
12.0
290
     0
  0
SCALE
  5
A9A3
102
{ACAD_REACTORS
330
A9A0
102
}
330
A9A0
100
AcDbScale
 70
     0
300
1/64" = 1'-0"
140
0.015625
141
12.0
290
     0
  0
SCALE
  5
A9A4
102
{ACAD_REACTORS
330
A9A0
102
}
330
A9A0
100
AcDbScale
 70
     0
300
1/32" = 1'-0"
140
0.03125
141
12.0
290
     0
  0
SCALE
  5
A9A5
102
{ACAD_REACTORS
330
A9A0
102
}
330
A9A0
100
AcDbScale
 70
     0
300
1/16" = 1'-0"
140
0.0625
141
12.0
290
     0
  0
SCALE
  5
A9A6
102
{ACAD_REACTORS
330
A9A0
102
}
330
A9A0
100
AcDbScale
 70
     0
300
3/32" = 1'-0"
140
0.09375
141
12.0
290
     0
  0
SCALE
  5
A9A7
102
{ACAD_REACTORS
330
A9A0
102
}
330
A9A0
100
AcDbScale
 70
     0
300
1/8" = 1'-0"
140
0.125
141
12.0
290
     0
  0
SCALE
  5
A9A8
102
{ACAD_REACTORS
330
A9A0
102
}
330
A9A0
100
AcDbScale
 70
     0
300
3/16" = 1'-0"
140
0.1875
141
12.0
290
     0
  0
SCALE
  5
A9A9
102
{ACAD_REACTORS
330
A9A0
102
}
330
A9A0
100
AcDbScale
 70
     0
300
1/4" = 1'-0"
140
0.25
141
12.0
290
     0
  0
SCALE
  5
A9AA
102
{ACAD_REACTORS
330
A9A0
102
}
330
A9A0
100
AcDbScale
 70
     0
300
3/8" = 1'-0"
140
0.375
141
12.0
290
     0
  0
SCALE
  5
A9AB
102
{ACAD_REACTORS
330
A9A0
102
}
330
A9A0
100
AcDbScale
 70
     0
300
1/2" = 1'-0"
140
0.5
141
12.0
290
     0
  0
SCALE
  5
A9AC
102
{ACAD_REACTORS
330
A9A0
102
}
330
A9A0
100
AcDbScale
 70
     0
300
3/4" = 1'-0"
140
0.75
141
12.0
290
     0
  0
SCALE
  5
A9AD
102
{ACAD_REACTORS
330
A9A0
102
}
330
A9A0
100
AcDbScale
 70
     0
300
1" = 1'-0"
140
1.0
141
12.0
290
     0
  0
SCALE
  5
A9AE
102
{ACAD_REACTORS
330
A9A0
102
}
330
A9A0
100
AcDbScale
 70
     0
300
1-1/2" = 1'-0"
140
1.5
141
12.0
290
     0
  0
SCALE
  5
A9AF
102
{ACAD_REACTORS
330
A9A0
102
}
330
A9A0
100
AcDbScale
 70
     0
300
3" = 1'-0"
140
3.0
141
12.0
290
     0
  0
SCALE
  5
A9B0
102
{ACAD_REACTORS
330
A9A0
102
}
330
A9A0
100
AcDbScale
 70
     0
300
6" = 1'-0"
140
6.0
141
12.0
290
     0
  0
SCALE
  5
A9B1
102
{ACAD_REACTORS
330
A9A0
102
}
330
A9A0
100
AcDbScale
 70
     0
300
1'-0" = 1'-0"
140
12.0
141
12.0
290
     0
  0
ACDBSECTIONVIEWSTYLE
  5
A9B5
102
{ACAD_XDICTIONARY
360
AA10
102
}
102
{ACAD_REACTORS
330
A9B4
102
}
330
A9B4
100
AcDbModelDocViewStyle
 70
     0
  3
Imperial24
290
     0
100
AcDbSectionViewStyle
 70
     0
 71
     0
 90
       78
 71
     1
340
A453
 40
0.24
340
0
340
0
 40
0.24
300
I, O, Q, S, X, Z
 40
0.48
 90
        3
 40
0.18
 90
        1
 71
     2
340
A457
 90
       25
340
A457
 90
       50
 40
0.24
 40
0.0
 40
0.24
 71
     3
340
A453
 40
0.24
 90
        1
 40
0.75
 90
        1
300
%<\AcVar ViewType \f "%tc1">% %<\AcVar ViewSectionStartId>%-%<\AcVar ViewSectionEndId>%\PSCALE %<\AcVar ViewScale \f "%sn">%
 71
     4
300
ANSI31
 40
1.0
 90
        0
290
     0
290
     0
 90
        6
 40
0.0
 40
1.570796326794896
 40
0.2617993877991494
 40
1.308996938995747
 40
-0.2617993877991494
 40
1.832595714594046
  0
TABLESTYLE
  5
A99F
102
{ACAD_XDICTIONARY
360
A9D7
102
}
102
{ACAD_REACTORS
330
A99E
102
}
330
A99E
100
AcDbTableStyle
  3
Standard
 70
     0
 71
     0
 40
0.06
 41
0.06
280
     0
281
     0
  7
STANDARD
140
0.18
170
     2
 62
     0
 63
     7
283
     0
274
    -2
284
     1
 64
     0
275
    -2
285
     1
 65
     0
276
    -2
286
     1
 66
     0
277
    -2
287
     1
 67
     0
278
    -2
288
     1
 68
     0
279
    -2
289
     1
 69
     0
  7
STANDARD
140
0.25
170
     5
 62
     0
 63
     7
283
     0
274
    -2
284
     1
 64
     0
275
    -2
285
     1
 65
     0
276
    -2
286
     1
 66
     0
277
    -2
287
     1
 67
     0
278
    -2
288
     1
 68
     0
279
    -2
289
     1
 69
     0
  7
STANDARD
140
0.18
170
     5
 62
     0
 63
     7
283
     0
274
    -2
284
     1
 64
     0
275
    -2
285
     1
 65
     0
276
    -2
286
     1
 66
     0
277
    -2
287
     1
 67
     0
278
    -2
288
     1
 68
     0
279
    -2
289
     1
 69
     0
  0
VISUALSTYLE
  5
A98A
102
{ACAD_XDICTIONARY
360
A9E8
102
}
102
{ACAD_REACTORS
330
A984
102
}
330
A984
100
AcDbVisualStyle
  2
2dWireframe
 70
     4
 71
     0
 72
     2
 73
     0
 90
        0
 40
-0.6
 41
-30.0
 62
     5
 63
     7
 74
     1
 91
        4
 64
     7
 65
   257
 75
     1
175
     1
 42
1.0
 92
        0
 66
   257
 43
1.0
 76
     1
 77
     6
 78
     2
 67
     7
 79
     5
170
     0
171
     0
290
     0
174
     0
 93
        1
 44
0.0
173
     0
291
     0
 45
0.0
1001
ACAD
1000
AcDbSavedByObjectVersion
1070
     0
  0
VISUALSTYLE
  5
A989
102
{ACAD_XDICTIONARY
360
A9E6
102
}
102
{ACAD_REACTORS
330
A984
102
}
330
A984
100
AcDbVisualStyle
  2
Basic
 70
     7
 71
     1
 72
     0
 73
     1
 90
        0
 40
-0.6
 41
-30.0
 62
     5
 63
     7
 74
     0
 91
        4
 64
     7
 65
   257
 75
     1
175
     1
 42
1.0
 92
        8
 66
     7
 43
1.0
 76
     1
 77
     6
 78
     2
 67
     7
 79
     5
170
     0
171
     0
290
     0
174
     0
 93
        1
 44
0.0
173
     0
291
     1
 45
0.0
1001
ACAD
1000
AcDbSavedByObjectVersion
1070
     0
  0
VISUALSTYLE
  5
A990
102
{ACAD_XDICTIONARY
360
A9F4
102
}
102
{ACAD_REACTORS
330
A984
102
}
330
A984
100
AcDbVisualStyle
  2
Brighten
 70
    12
 71
     2
 72
     2
 73
     0
 90
        0
 40
-0.6
 41
-30.0
 62
     5
 63
     7
 74
     1
 91
        4
 64
     7
 65
   257
 75
     1
175
     1
 42
1.0
 92
        8
 66
     7
 43
1.0
 76
     1
 77
     6
 78
     2
 67
     7
 79
     5
170
     0
171
     0
290
     0
174
     0
 93
        1
 44
50.0
173
     0
291
     1
 45
0.0
1001
ACAD
1000
AcDbSavedByObjectVersion
1070
     0
  0
VISUALSTYLE
  5
A994
102
{ACAD_XDICTIONARY
360
A9FC
102
}
102
{ACAD_REACTORS
330
A984
102
}
330
A984
100
AcDbVisualStyle
  2
ColorChange
 70
    16
 71
     2
 72
     2
 73
     3
 90
        0
 40
-0.6
 41
-30.0
 62
     5
 63
     8
 74
     1
 91
        4
 64
     7
 65
   257
 75
     1
175
     1
 42
1.0
 92
        8
 66
     8
 43
1.0
 76
     1
 77
     6
 78
     2
 67
     7
 79
     5
170
     0
171
     0
290
     0
174
     0
 93
        1
 44
0.0
173
     0
291
     1
 45
0.0
1001
ACAD
1000
AcDbSavedByObjectVersion
1070
     0
  0
VISUALSTYLE
  5
A98D
102
{ACAD_XDICTIONARY
360
A9EE
102
}
102
{ACAD_REACTORS
330
A984
102
}
330
A984
100
AcDbVisualStyle
  2
Conceptual
 70
     9
 71
     3
 72
     2
 73
     0
 90
        0
 40
-0.6
 41
-30.0
 62
     5
 63
     7
 74
     2
 91
        2
 64
     7
 65
   257
 75
     1
175
     1
 42
179.0
 92
        8
 66
     7
 43
1.0
 76
     1
 77
     6
 78
     2
 67
     7
 79
     3
170
     0
171
     0
290
     0
174
     0
 93
        1
 44
0.0
173
     0
291
     0
 45
0.0
1001
ACAD
1000
AcDbSavedByObjectVersion
1070
     0
  0
VISUALSTYLE
  5
A98F
102
{ACAD_XDICTIONARY
360
A9F2
102
}
102
{ACAD_REACTORS
330
A984
102
}
330
A984
100
AcDbVisualStyle
  2
Dim
 70
    11
 71
     2
 72
     2
 73
     0
 90
        0
 40
-0.6
 41
-30.0
 62
     5
 63
     7
 74
     1
 91
        4
 64
     7
 65
   257
 75
     1
175
     1
 42
1.0
 92
        8
 66
     7
 43
1.0
 76
     1
 77
     6
 78
     2
 67
     7
 79
     5
170
     0
171
     0
290
     0
174
     0
 93
        1
 44
-50.0
173
     0
291
     1
 45
0.0
1001
ACAD
1000
AcDbSavedByObjectVersion
1070
     0
  0
VISUALSTYLE
  5
A99C
102
{ACAD_XDICTIONARY
360
AA0C
102
}
102
{ACAD_REACTORS
330
A984
102
}
330
A984
100
AcDbVisualStyle
  2
EdgeColorOff
 70
    22
 71
     2
 72
     2
 73
     0
 90
        0
 40
-0.6
 41
-30.0
 62
     5
 63
     7
 74
     1
 91
        4
 64
     7
 65
   257
 75
     1
175
     1
 42
1.0
 92
        8
 66
     7
 43
1.0
 76
     1
 77
     6
 78
     2
 67
     7
 79
     5
170
     0
171
     0
290
     0
174
     0
 93
        1
 44
0.0
173
     0
291
     1
 45
0.0
1001
ACAD
1000
AcDbSavedByObjectVersion
1070
     0
  0
VISUALSTYLE
  5
A993
102
{ACAD_XDICTIONARY
360
A9FA
102
}
102
{ACAD_REACTORS
330
A984
102
}
330
A984
100
AcDbVisualStyle
  2
Facepattern
 70
    15
 71
     2
 72
     2
 73
     0
 90
        0
 40
-0.6
 41
-30.0
 62
     5
 63
     7
 74
     1
 91
        4
 64
     7
 65
   257
 75
     1
175
     1
 42
1.0
 92
        8
 66
     7
 43
1.0
 76
     1
 77
     6
 78
     2
 67
     7
 79
     5
170
     0
171
     0
290
     0
174
     0
 93
        1
 44
0.0
173
     0
291
     1
 45
0.0
1001
ACAD
1000
AcDbSavedByObjectVersion
1070
     0
  0
VISUALSTYLE
  5
A985
102
{ACAD_XDICTIONARY
360
A9DE
102
}
102
{ACAD_REACTORS
330
A984
102
}
330
A984
100
AcDbVisualStyle
  2
Flat
 70
     0
 71
     2
 72
     1
 73
     1
 90
        2
 40
-0.6
 41
30.0
 62
     5
 63
     7
 74
     0
 91
        0
 64
     7
 65
   257
 75
     1
175
     1
 42
1.0
 92
        8
 66
     7
 43
1.0
 76
     1
 77
     6
 78
     2
 67
     7
 79
     5
170
     0
171
     0
290
     0
174
     0
 93
       13
 44
0.0
173
     0
291
     1
 45
0.0
1001
ACAD
1000
AcDbSavedByObjectVersion
1070
     0
  0
VISUALSTYLE
  5
A986
102
{ACAD_XDICTIONARY
360
A9E0
102
}
102
{ACAD_REACTORS
330
A984
102
}
330
A984
100
AcDbVisualStyle
  2
FlatWithEdges
 70
     1
 71
     2
 72
     1
 73
     1
 90
        2
 40
-0.6
 41
30.0
 62
     5
 63
     7
 74
     1
 91
        0
 64
     7
 65
   257
 75
     1
175
     1
 42
1.0
 92
        0
 66
   257
 43
1.0
 76
     1
 77
     6
 78
     2
 67
     7
 79
     5
170
     0
171
     0
290
     0
174
     0
 93
       13
 44
0.0
173
     0
291
     1
 45
0.0
1001
ACAD
1000
AcDbSavedByObjectVersion
1070
     0
  0
VISUALSTYLE
  5
A987
102
{ACAD_XDICTIONARY
360
A9E2
102
}
102
{ACAD_REACTORS
330
A984
102
}
330
A984
100
AcDbVisualStyle
  2
Gouraud
 70
     2
 71
     2
 72
     2
 73
     1
 90
        2
 40
-0.6
 41
30.0
 62
     5
 63
     7
 74
     0
 91
        0
 64
     7
 65
   257
 75
     1
175
     1
 42
1.0
 92
        0
 66
     7
 43
1.0
 76
     1
 77
     6
 78
     2
 67
     7
 79
     5
170
     0
171
     0
290
     0
174
     0
 93
       13
 44
0.0
173
     0
291
     1
 45
0.0
1001
ACAD
1000
AcDbSavedByObjectVersion
1070
     0
  0
VISUALSTYLE
  5
A988
102
{ACAD_XDICTIONARY
360
A9E4
102
}
102
{ACAD_REACTORS
330
A984
102
}
330
A984
100
AcDbVisualStyle
  2
GouraudWithEdges
 70
     3
 71
     2
 72
     2
 73
     1
 90
        2
 40
-0.6
 41
30.0
 62
     5
 63
     7
 74
     1
 91
        0
 64
     7
 65
   257
 75
     1
175
     1
 42
1.0
 92
        0
 66
   257
 43
1.0
 76
     1
 77
     6
 78
     2
 67
     7
 79
     5
170
     0
171
     0
290
     0
174
     0
 93
       13
 44
0.0
173
     0
291
     1
 45
0.0
1001
ACAD
1000
AcDbSavedByObjectVersion
1070
     0
  0
VISUALSTYLE
  5
A98C
102
{ACAD_XDICTIONARY
360
A9EC
102
}
102
{ACAD_REACTORS
330
A984
102
}
330
A984
100
AcDbVisualStyle
  2
Hidden
 70
     6
 71
     1
 72
     2
 73
     2
 90
        0
 40
-0.6
 41
-30.0
 62
     5
 63
     7
 74
     2
 91
        2
 64
     7
 65
   257
 75
     2
175
     1
 42
40.0
 92
        0
 66
   257
 43
1.0
 76
     1
 77
     6
 78
     2
 67
     7
 79
     3
170
     0
171
     0
290
     0
174
     0
 93
        1
 44
0.0
173
     0
291
     0
 45
0.0
1001
ACAD
1000
AcDbSavedByObjectVersion
1070
     0
  0
VISUALSTYLE
  5
A99A
102
{ACAD_XDICTIONARY
360
AA08
102
}
102
{ACAD_REACTORS
330
A984
102
}
330
A984
100
AcDbVisualStyle
  2
JitterOff
 70
    20
 71
     2
 72
     2
 73
     0
 90
        0
 40
-0.6
 41
-30.0
 62
     5
 63
     7
 74
     1
 91
        4
 64
     7
 65
   257
 75
     1
175
     1
 42
1.0
 92
       10
 66
     7
 43
1.0
 76
     1
 77
     6
 78
     2
 67
     7
 79
     5
170
     0
171
     0
290
     0
174
     0
 93
        1
 44
0.0
173
     0
291
     1
 45
0.0
1001
ACAD
1000
AcDbSavedByObjectVersion
1070
     0
  0
VISUALSTYLE
  5
A992
102
{ACAD_XDICTIONARY
360
A9F8
102
}
102
{ACAD_REACTORS
330
A984
102
}
330
A984
100
AcDbVisualStyle
  2
Linepattern
 70
    14
 71
     2
 72
     2
 73
     0
 90
        0
 40
-0.6
 41
-30.0
 62
     5
 63
     7
 74
     1
 91
        4
 64
     7
 65
   257
 75
     7
175
     7
 42
1.0
 92
        8
 66
     7
 43
1.0
 76
     1
 77
     6
 78
     2
 67
     7
 79
     5
170
     0
171
     0
290
     0
174
     0
 93
        1
 44
0.0
173
     0
291
     1
 45
0.0
1001
ACAD
1000
AcDbSavedByObjectVersion
1070
     0
  0
VISUALSTYLE
  5
A99B
102
{ACAD_XDICTIONARY
360
AA0A
102
}
102
{ACAD_REACTORS
330
A984
102
}
330
A984
100
AcDbVisualStyle
  2
OverhangOff
 70
    21
 71
     2
 72
     2
 73
     0
 90
        0
 40
-0.6
 41
-30.0
 62
     5
 63
     7
 74
     1
 91
        4
 64
     7
 65
   257
 75
     1
175
     1
 42
1.0
 92
        9
 66
     7
 43
1.0
 76
     1
 77
     6
 78
     2
 67
     7
 79
     5
170
     0
171
     0
290
     0
174
     0
 93
        1
 44
0.0
173
     0
291
     1
 45
0.0
1001
ACAD
1000
AcDbSavedByObjectVersion
1070
     0
  0
VISUALSTYLE
  5
A98E
102
{ACAD_XDICTIONARY
360
A9F0
102
}
102
{ACAD_REACTORS
330
A984
102
}
330
A984
100
AcDbVisualStyle
  2
Realistic
 70
     8
 71
     2
 72
     3
 73
     0
 90
        2
 40
-0.6
 41
30.0
 62
     5
 63
     7
 74
     0
 91
        0
 64
     7
 65
   257
 75
     1
175
     1
 42
1.0
 92
        8
 66
   257
 43
1.0
 76
     1
 77
     6
 78
     2
 67
     7
 79
     3
170
     0
171
     0
290
     0
174
     0
 93
       13
 44
0.0
173
     0
291
     0
 45
0.0
1001
ACAD
1000
AcDbSavedByObjectVersion
1070
     0
  0
VISUALSTYLE
  5
A999
102
{ACAD_XDICTIONARY
360
AA06
102
}
102
{ACAD_REACTORS
330
A984
102
}
330
A984
100
AcDbVisualStyle
  2
Shaded
 70
    27
 71
     2
 72
     2
 73
     1
 90
        2
 40
-0.6
 41
30.0
 62
     5
 63
     7
 74
     0
 91
        4
 64
     7
 65
   257
 75
     1
175
     1
 42
1.0
 92
        8
 66
   257
 43
1.0
 76
     1
 77
     6
 78
     2
 67
     8
 79
     3
170
     0
171
     0
290
     0
174
     0
 93
        5
 44
0.0
173
     0
291
     0
 45
0.0
1001
ACAD
1000
AcDbSavedByObjectVersion
1070
     0
  0
VISUALSTYLE
  5
A998
102
{ACAD_XDICTIONARY
360
AA04
102
}
102
{ACAD_REACTORS
330
A984
102
}
330
A984
100
AcDbVisualStyle
  2
Shaded with edges
 70
    26
 71
     2
 72
     2
 73
     1
 90
        2
 40
-0.6
 41
30.0
 62
     5
 63
     7
 74
     1
 91
       10
 64
     7
 65
   257
 75
     2
175
     1
 42
1.0
 92
        8
 66
   257
 43
1.0
 76
     1
 77
     6
 78
     2
 67
     7
 79
     3
170
     0
171
     0
290
     0
174
     0
 93
        5
 44
0.0
173
     0
291
     0
 45
0.0
1001
ACAD
1000
AcDbSavedByObjectVersion
1070
     0
  0
VISUALSTYLE
  5
A995
102
{ACAD_XDICTIONARY
360
A9FE
102
}
102
{ACAD_REACTORS
330
A984
102
}
330
A984
100
AcDbVisualStyle
  2
Shades of Gray
 70
    23
 71
     2
 72
     2
 73
     3
 90
        0
 40
-0.6
 41
-30.0
 62
     5
 63
     7
 74
     2
 91
        2
 64
     7
 65
     7
 75
     1
175
     1
 42
40.0
 92
        8
 66
     7
 43
1.0
 76
     1
 77
     6
 78
     2
 67
     7
 79
     3
170
     0
171
     0
290
     0
174
     0
 93
        1
 44
0.0
173
     0
291
     0
 45
0.0
1001
ACAD
1000
AcDbSavedByObjectVersion
1070
     0
  0
VISUALSTYLE
  5
A996
102
{ACAD_XDICTIONARY
360
AA00
102
}
102
{ACAD_REACTORS
330
A984
102
}
330
A984
100
AcDbVisualStyle
  2
Sketchy
 70
    24
 71
     1
 72
     2
 73
     2
 90
        0
 40
-0.6
 41
-30.0
 62
     5
 63
     7
 74
     2
 91
        2
 64
     7
 65
     7
 75
     1
175
     1
 42
40.0
 92
       11
 66
     7
 43
1.0
 76
     1
 77
     6
 78
     2
 67
     7
 79
     6
170
     0
171
     0
290
     0
174
     0
 93
        1
 44
0.0
173
     0
291
     0
 45
0.0
1001
ACAD
1000
AcDbSavedByObjectVersion
1070
     0
  0
VISUALSTYLE
  5
A991
102
{ACAD_XDICTIONARY
360
A9F6
102
}
102
{ACAD_REACTORS
330
A984
102
}
330
A984
100
AcDbVisualStyle
  2
Thicken
 70
    13
 71
     2
 72
     2
 73
     0
 90
        0
 40
-0.6
 41
-30.0
 62
     5
 63
     7
 74
     1
 91
        4
 64
     7
 65
   257
 75
     1
175
     1
 42
1.0
 92
       12
 66
     7
 43
1.0
 76
     1
 77
     6
 78
     2
 67
     7
 79
     5
170
     0
171
     0
290
     0
174
     0
 93
        1
 44
0.0
173
     0
291
     1
 45
0.0
1001
ACAD
1000
AcDbSavedByObjectVersion
1070
     0
  0
VISUALSTYLE
  5
A98B
102
{ACAD_XDICTIONARY
360
A9EA
102
}
102
{ACAD_REACTORS
330
A984
102
}
330
A984
100
AcDbVisualStyle
  2
Wireframe
 70
     5
 71
     0
 72
     2
 73
     0
 90
        0
 40
-0.6
 41
-30.0
 62
     5
 63
     7
 74
     1
 91
        4
 64
     7
 65
   257
 75
     1
175
     1
 42
1.0
 92
        0
 66
   257
 43
1.0
 76
     1
 77
     6
 78
     2
 67
     7
 79
     3
170
     0
171
     0
290
     0
174
     0
 93
        1
 44
0.0
173
     0
291
     0
 45
0.0
1001
ACAD
1000
AcDbSavedByObjectVersion
1070
     0
  0
VISUALSTYLE
  5
A997
102
{ACAD_XDICTIONARY
360
AA02
102
}
102
{ACAD_REACTORS
330
A984
102
}
330
A984
100
AcDbVisualStyle
  2
X-Ray
 70
    25
 71
     2
 72
     2
 73
     1
 90
        1
 40
0.5
 41
-30.0
 62
     5
 63
     7
 74
     1
 91
        0
 64
     7
 65
   257
 75
     1
175
     1
 42
1.0
 92
        8
 66
     7
 43
1.0
 76
     1
 77
     6
 78
     2
 67
     7
 79
     3
170
     0
171
     0
290
     0
174
     0
 93
       13
 44
0.0
173
     0
291
     0
 45
0.0
1001
ACAD
1000
AcDbSavedByObjectVersion
1070
     0
  0
DICTIONARYVAR
  5
A9D1
102
{ACAD_REACTORS
330
A9CC
102
}
330
A9CC
100
DictionaryVariables
280
     0
  1
1:1
  0
DICTIONARYVAR
  5
A9CE
102
{ACAD_REACTORS
330
A9CC
102
}
330
A9CC
100
DictionaryVariables
280
     0
  1
STANDARD
  0
DICTIONARYVAR
  5
A9CD
102
{ACAD_REACTORS
330
A9CC
102
}
330
A9CC
100
DictionaryVariables
280
     0
  1
STANDARD
  0
DICTIONARYVAR
  5
A9CF
102
{ACAD_REACTORS
330
A9CC
102
}
330
A9CC
100
DictionaryVariables
280
     0
  1
Imperial24
  0
DICTIONARYVAR
  5
A9D0
102
{ACAD_REACTORS
330
A9CC
102
}
330
A9CC
100
DictionaryVariables
280
     0
  1
Imperial24
  0
DICTIONARYVAR
  5
A9D4
102
{ACAD_REACTORS
330
A9CC
102
}
330
A9CC
100
DictionaryVariables
280
     0
  1
1
  0
DICTIONARYVAR
  5
A9D3
102
{ACAD_REACTORS
330
A9CC
102
}
330
A9CC
100
DictionaryVariables
280
     0
  1
0
  0
DICTIONARYVAR
  5
A9D2
102
{ACAD_REACTORS
330
A9CC
102
}
330
A9CC
100
DictionaryVariables
280
     0
  1
127
  0
DICTIONARYVAR
  5
A9D5
102
{ACAD_REACTORS
330
A9CC
102
}
330
A9CC
100
DictionaryVariables
280
     0
  1
2
  0
DICTIONARY
  5
AA12
330
A9B7
100
AcDbDictionary
280
     1
281
     1
  3
ACAD_XREC_ROUNDTRIP
360
AA13
  0
DICTIONARY
  5
AA14
330
A9B8
100
AcDbDictionary
280
     1
281
     1
  3
ACAD_XREC_ROUNDTRIP
360
AA15
  0
DICTIONARY
  5
AA16
330
A9B9
100
AcDbDictionary
280
     1
281
     1
  3
ACAD_XREC_ROUNDTRIP
360
AA17
  0
DICTIONARY
  5
A975
330
A974
100
AcDbDictionary
280
     1
281
     1
  3
ACAD_XREC_ROUNDTRIP
360
A9DC
  3
BUMPTILE
360
A977
  3
DIFFUSETILE
360
A976
  3
OPACITYTILE
360
A97A
  3
REFLECTIONTILE
360
A979
  3
REFRACTIONTILE
360
A97B
  3
SPECULARTILE
360
A978
  0
DICTIONARY
  5
A96D
330
A96C
100
AcDbDictionary
280
     1
281
     1
  3
ACAD_XREC_ROUNDTRIP
360
A9DB
  3
BUMPTILE
360
A96F
  3
DIFFUSETILE
360
A96E
  3
OPACITYTILE
360
A972
  3
REFLECTIONTILE
360
A971
  3
REFRACTIONTILE
360
A973
  3
SPECULARTILE
360
A970
  0
DICTIONARY
  5
A97D
330
A97C
100
AcDbDictionary
280
     1
281
     1
  3
ACAD_XREC_ROUNDTRIP
360
A9DD
  3
BUMPTILE
360
A97F
  3
DIFFUSETILE
360
A97E
  3
OPACITYTILE
360
A982
  3
REFLECTIONTILE
360
A981
  3
REFRACTIONTILE
360
A983
  3
SPECULARTILE
360
A980
  0
DICTIONARY
  5
AA10
330
A9B5
100
AcDbDictionary
280
     1
281
     1
  3
ACAD_XREC_ROUNDTRIP
360
AA11
  0
DICTIONARY
  5
A9D7
330
A99F
100
AcDbDictionary
280
     1
281
     1
  3
ACAD_ROUNDTRIP_2008_TABLESTYLE_CELLSTYLEMAP
360
A9D8
  3
ACAD_XREC_ROUNDTRIP
360
AA0E
  0
DICTIONARY
  5
A9E8
330
A98A
100
AcDbDictionary
280
     1
281
     1
  3
ACAD_XREC_ROUNDTRIP
360
A9E9
  0
DICTIONARY
  5
A9E6
330
A989
100
AcDbDictionary
280
     1
281
     1
  3
ACAD_XREC_ROUNDTRIP
360
A9E7
  0
DICTIONARY
  5
A9F4
330
A990
100
AcDbDictionary
280
     1
281
     1
  3
ACAD_XREC_ROUNDTRIP
360
A9F5
  0
DICTIONARY
  5
A9FC
330
A994
100
AcDbDictionary
280
     1
281
     1
  3
ACAD_XREC_ROUNDTRIP
360
A9FD
  0
DICTIONARY
  5
A9EE
330
A98D
100
AcDbDictionary
280
     1
281
     1
  3
ACAD_XREC_ROUNDTRIP
360
A9EF
  0
DICTIONARY
  5
A9F2
330
A98F
100
AcDbDictionary
280
     1
281
     1
  3
ACAD_XREC_ROUNDTRIP
360
A9F3
  0
DICTIONARY
  5
AA0C
330
A99C
100
AcDbDictionary
280
     1
281
     1
  3
ACAD_XREC_ROUNDTRIP
360
AA0D
  0
DICTIONARY
  5
A9FA
330
A993
100
AcDbDictionary
280
     1
281
     1
  3
ACAD_XREC_ROUNDTRIP
360
A9FB
  0
DICTIONARY
  5
A9DE
330
A985
100
AcDbDictionary
280
     1
281
     1
  3
ACAD_XREC_ROUNDTRIP
360
A9DF
  0
DICTIONARY
  5
A9E0
330
A986
100
AcDbDictionary
280
     1
281
     1
  3
ACAD_XREC_ROUNDTRIP
360
A9E1
  0
DICTIONARY
  5
A9E2
330
A987
100
AcDbDictionary
280
     1
281
     1
  3
ACAD_XREC_ROUNDTRIP
360
A9E3
  0
DICTIONARY
  5
A9E4
330
A988
100
AcDbDictionary
280
     1
281
     1
  3
ACAD_XREC_ROUNDTRIP
360
A9E5
  0
DICTIONARY
  5
A9EC
330
A98C
100
AcDbDictionary
280
     1
281
     1
  3
ACAD_XREC_ROUNDTRIP
360
A9ED
  0
DICTIONARY
  5
AA08
330
A99A
100
AcDbDictionary
280
     1
281
     1
  3
ACAD_XREC_ROUNDTRIP
360
AA09
  0
DICTIONARY
  5
A9F8
330
A992
100
AcDbDictionary
280
     1
281
     1
  3
ACAD_XREC_ROUNDTRIP
360
A9F9
  0
DICTIONARY
  5
AA0A
330
A99B
100
AcDbDictionary
280
     1
281
     1
  3
ACAD_XREC_ROUNDTRIP
360
AA0B
  0
DICTIONARY
  5
A9F0
330
A98E
100
AcDbDictionary
280
     1
281
     1
  3
ACAD_XREC_ROUNDTRIP
360
A9F1
  0
DICTIONARY
  5
AA06
330
A999
100
AcDbDictionary
280
     1
281
     1
  3
ACAD_XREC_ROUNDTRIP
360
AA07
  0
DICTIONARY
  5
AA04
330
A998
100
AcDbDictionary
280
     1
281
     1
  3
ACAD_XREC_ROUNDTRIP
360
AA05
  0
DICTIONARY
  5
A9FE
330
A995
100
AcDbDictionary
280
     1
281
     1
  3
ACAD_XREC_ROUNDTRIP
360
A9FF
  0
DICTIONARY
  5
AA00
330
A996
100
AcDbDictionary
280
     1
281
     1
  3
ACAD_XREC_ROUNDTRIP
360
AA01
  0
DICTIONARY
  5
A9F6
330
A991
100
AcDbDictionary
280
     1
281
     1
  3
ACAD_XREC_ROUNDTRIP
360
A9F7
  0
DICTIONARY
  5
A9EA
330
A98B
100
AcDbDictionary
280
     1
281
     1
  3
ACAD_XREC_ROUNDTRIP
360
A9EB
  0
DICTIONARY
  5
AA02
330
A997
100
AcDbDictionary
280
     1
281
     1
  3
ACAD_XREC_ROUNDTRIP
360
AA03
  0
XRECORD
  5
AA13
102
{ACAD_REACTORS
330
AA12
102
}
330
AA12
100
AcDbXrecord
280
     1
102
DISPLAYNAME
  1
Imperial24
102
FLAGS
 90
        0
  0
XRECORD
  5
AA15
102
{ACAD_REACTORS
330
AA14
102
}
330
AA14
100
AcDbXrecord
280
     1
102
SHADEPLOT
 70
     0
102
SHADEPLOTRESLEVEL
 70
     2
102
SHADEPLOTCUSTOMDPI
 70
   300
  0
XRECORD
  5
AA17
102
{ACAD_REACTORS
330
AA16
102
}
330
AA16
100
AcDbXrecord
280
     1
102
SHADEPLOT
 70
     0
102
SHADEPLOTRESLEVEL
 70
     2
102
SHADEPLOTCUSTOMDPI
 70
   300
  0
XRECORD
  5
A9DC
102
{ACAD_REACTORS
330
A975
102
}
330
A975
100
AcDbXrecord
280
     1
102
MATERIAL
148
0.0
149
0.0
149
0.0
 93
        0
 94
      127
282
     0
 72
     0
 77
     0
171
     0
175
     0
179
     0
273
     0
  0
XRECORD
  5
A977
102
{ACAD_REACTORS
330
A975
102
}
330
A975
100
AcDbXrecord
280
     1
270
     1
271
     1
  0
XRECORD
  5
A976
102
{ACAD_REACTORS
330
A975
102
}
330
A975
100
AcDbXrecord
280
     1
270
     1
271
     1
  0
XRECORD
  5
A97A
102
{ACAD_REACTORS
330
A975
102
}
330
A975
100
AcDbXrecord
280
     1
270
     1
271
     1
  0
XRECORD
  5
A979
102
{ACAD_REACTORS
330
A975
102
}
330
A975
100
AcDbXrecord
280
     1
270
     1
271
     1
  0
XRECORD
  5
A97B
102
{ACAD_REACTORS
330
A975
102
}
330
A975
100
AcDbXrecord
280
     1
270
     1
271
     1
  0
XRECORD
  5
A978
102
{ACAD_REACTORS
330
A975
102
}
330
A975
100
AcDbXrecord
280
     1
270
     1
271
     1
  0
XRECORD
  5
A9DB
102
{ACAD_REACTORS
330
A96D
102
}
330
A96D
100
AcDbXrecord
280
     1
102
MATERIAL
148
0.0
149
0.0
149
0.0
 93
        0
 94
      127
282
     0
 72
     0
 77
     0
171
     0
175
     0
179
     0
273
     0
  0
XRECORD
  5
A96F
102
{ACAD_REACTORS
330
A96D
102
}
330
A96D
100
AcDbXrecord
280
     1
270
     1
271
     1
  0
XRECORD
  5
A96E
102
{ACAD_REACTORS
330
A96D
102
}
330
A96D
100
AcDbXrecord
280
     1
270
     1
271
     1
  0
XRECORD
  5
A972
102
{ACAD_REACTORS
330
A96D
102
}
330
A96D
100
AcDbXrecord
280
     1
270
     1
271
     1
  0
XRECORD
  5
A971
102
{ACAD_REACTORS
330
A96D
102
}
330
A96D
100
AcDbXrecord
280
     1
270
     1
271
     1
  0
XRECORD
  5
A973
102
{ACAD_REACTORS
330
A96D
102
}
330
A96D
100
AcDbXrecord
280
     1
270
     1
271
     1
  0
XRECORD
  5
A970
102
{ACAD_REACTORS
330
A96D
102
}
330
A96D
100
AcDbXrecord
280
     1
270
     1
271
     1
  0
XRECORD
  5
A9DD
102
{ACAD_REACTORS
330
A97D
102
}
330
A97D
100
AcDbXrecord
280
     1
102
MATERIAL
148
0.0
149
0.0
149
0.0
 93
        0
 94
      127
282
     0
 72
     0
 77
     0
171
     0
175
     0
179
     0
273
     0
  0
XRECORD
  5
A97F
102
{ACAD_REACTORS
330
A97D
102
}
330
A97D
100
AcDbXrecord
280
     1
270
     1
271
     1
  0
XRECORD
  5
A97E
102
{ACAD_REACTORS
330
A97D
102
}
330
A97D
100
AcDbXrecord
280
     1
270
     1
271
     1
  0
XRECORD
  5
A982
102
{ACAD_REACTORS
330
A97D
102
}
330
A97D
100
AcDbXrecord
280
     1
270
     1
271
     1
  0
XRECORD
  5
A981
102
{ACAD_REACTORS
330
A97D
102
}
330
A97D
100
AcDbXrecord
280
     1
270
     1
271
     1
  0
XRECORD
  5
A983
102
{ACAD_REACTORS
330
A97D
102
}
330
A97D
100
AcDbXrecord
280
     1
270
     1
271
     1
  0
XRECORD
  5
A980
102
{ACAD_REACTORS
330
A97D
102
}
330
A97D
100
AcDbXrecord
280
     1
270
     1
271
     1
  0
XRECORD
  5
AA11
102
{ACAD_REACTORS
330
AA10
102
}
330
AA10
100
AcDbXrecord
280
     1
102
DISPLAYNAME
  1
Imperial24
102
FLAGS
 90
        0
  0
CELLSTYLEMAP
  5
A9D8
102
{ACAD_REACTORS
330
A9D7
102
}
330
A9D7
100
AcDbCellStyleMap
 90
        3
300
CELLSTYLE
  1
TABLEFORMAT_BEGIN
 90
        5
170
     1
 91
        0
 92
    32768
 62
   257
 93
        1
300
CONTENTFORMAT
  1
CONTENTFORMAT_BEGIN
 90
        0
 91
        0
 92
      512
 93
        0
300

 40
0.0
140
1.0
 94
        5
 62
     0
340
A453
144
0.25
309
CONTENTFORMAT_END
171
     0
 94
        0
309
TABLEFORMAT_END
  1
CELLSTYLE_BEGIN
 90
        1
 91
        1
300
_TITLE
309
CELLSTYLE_END
300
CELLSTYLE
  1
TABLEFORMAT_BEGIN
 90
        5
170
     1
 91
        0
 92
        0
 62
   257
 93
        1
300
CONTENTFORMAT
  1
CONTENTFORMAT_BEGIN
 90
        0
 91
        0
 92
      512
 93
        0
300

 40
0.0
140
1.0
 94
        5
 62
     0
340
A453
144
0.18
309
CONTENTFORMAT_END
171
     0
 94
        0
309
TABLEFORMAT_END
  1
CELLSTYLE_BEGIN
 90
        2
 91
        1
300
_HEADER
309
CELLSTYLE_END
300
CELLSTYLE
  1
TABLEFORMAT_BEGIN
 90
        5
170
     1
 91
        0
 92
        0
 62
   257
 93
        1
300
CONTENTFORMAT
  1
CONTENTFORMAT_BEGIN
 90
        0
 91
        0
 92
      512
 93
        0
300

 40
0.0
140
1.0
 94
        2
 62
     0
340
A453
144
0.18
309
CONTENTFORMAT_END
171
     0
 94
        0
309
TABLEFORMAT_END
  1
CELLSTYLE_BEGIN
 90
        3
 91
        2
300
_DATA
309
CELLSTYLE_END
  0
XRECORD
  5
AA0E
102
{ACAD_REACTORS
330
A9D7
102
}
330
A9D7
100
AcDbXrecord
280
     1
102
ACAD_ROUNDTRIP_PRE2007_TABLESTYLE
 90
      512
 91
        0
  1

 92
      512
 93
        0
  2

 94
      512
 95
        0
  3

  0
XRECORD
  5
A9E9
102
{ACAD_REACTORS
330
A9E8
102
}
330
A9E8
100
AcDbXrecord
280
     1
102
RTVSPost2010Prop28
280
     1
102
RTVSPost2010PropOp28
 70
     1
102
RTVSPost2010Prop29
280
     1
102
RTVSPost2010PropOp29
 70
     1
102
RTVSPost2010Prop30
280
     0
102
RTVSPost2010PropOp30
 70
     1
102
RTVSPost2010Prop31
280
     0
102
RTVSPost2010PropOp31
 70
     1
102
RTVSPost2010Prop32
280
     0
102
RTVSPost2010PropOp32
 70
     1
102
RTVSPost2010Prop33
280
     0
102
RTVSPost2010PropOp33
 70
     1
102
RTVSPost2010Prop34
280
     0
102
RTVSPost2010PropOp34
 70
     1
102
RTVSPost2010Prop35
280
     0
102
RTVSPost2010PropOp35
 70
     1
102
RTVSPost2010Prop36
280
     0
102
RTVSPost2010PropOp36
 70
     1
102
RTVSPost2010Prop37
 90
       50
102
RTVSPost2010PropOp37
 70
     1
102
RTVSPost2010Prop38
140
0.0
102
RTVSPost2010PropOp38
 70
     1
102
RTVSPost2010Prop39
140
1.0
102
RTVSPost2010PropOp39
 70
     1
102
RTVSPost2010Prop40
 90
        0
102
RTVSPost2010PropOp40
 70
     1
102
RTVSPost2010Prop41ColorIndex
 90
       18
102
RTVSPost2010Prop41ColorRGB
 90
        0
102
RTVSPost2010PropOp41
 70
     1
102
RTVSPost2010Prop42
 90
       50
102
RTVSPost2010PropOp42
 70
     1
102
RTVSPost2010Prop43
 90
        3
102
RTVSPost2010PropOp43
 70
     1
102
RTVSPost2010Prop44ColorIndex
 90
        5
102
RTVSPost2010Prop44ColorRGB
 90
      255
102
RTVSPost2010PropOp44
 70
     1
102
RTVSPost2010Prop45
280
     0
102
RTVSPost2010PropOp45
 70
     1
102
RTVSPost2010Prop46
 90
       50
102
RTVSPost2010PropOp46
 70
     1
102
RTVSPost2010Prop47
 90
       50
102
RTVSPost2010PropOp47
 70
     1
102
RTVSPost2010Prop48
 90
       50
102
RTVSPost2010PropOp48
 70
     1
102
RTVSPost2010Prop49
280
     0
102
RTVSPost2010PropOp49
 70
     1
102
RTVSPost2010Prop50
 90
       50
102
RTVSPost2010PropOp50
 70
     1
102
RTVSPost2010Prop51ColorIndex
 90
      256
102
RTVSPost2010Prop51ColorRGB
 90
-16777216
102
RTVSPost2010PropOp51
 70
     0
102
RTVSPost2010Prop52
140
1.0
102
RTVSPost2010PropOp52
 70
     0
102
RTVSPost2010Prop53
 90
        2
102
RTVSPost2010PropOp53
 70
     1
102
RTVSPost2010Prop54
  1
strokes_ogs.tif
102
RTVSPost2010PropOp54
 70
     1
102
RTVSPost2010Prop55
280
     0
102
RTVSPost2010PropOp55
 70
     1
102
RTVSPost2010Prop56
140
1.0
102
RTVSPost2010PropOp56
 70
     1
102
RTVSPost2010Prop57
140
1.0
102
RTVSPost2010PropOp57
 70
     1
102
RTVSPropertyOp0
 70
     1
102
RTVSPropertyOp1
 70
     1
102
RTVSPropertyOp2
 70
     1
102
RTVSPropertyOp3
 70
     1
102
RTVSPropertyOp4
 70
     1
102
RTVSPropertyOp5
 70
     1
102
RTVSPropertyOp6
 70
     1
102
RTVSPropertyOp7
 70
     1
102
RTVSPropertyOp8
 70
     1
102
RTVSPropertyOp9
 70
     1
102
RTVSPropertyOp10
 70
     1
102
RTVSPropertyOp11
 70
     1
102
RTVSPropertyOp12
 70
     1
102
RTVSPropertyOp13
 70
     1
102
RTVSPropertyOp14
 70
     1
102
RTVSPropertyOp15
 70
     1
102
RTVSPropertyOp16
 70
     1
102
RTVSPropertyOp17
 70
     1
102
RTVSPropertyOp18
 70
     1
102
RTVSPropertyOp19
 70
     1
102
RTVSPropertyOp20
 70
     1
102
RTVSPropertyOp21
 70
     1
102
RTVSPropertyOp22
 70
     1
102
RTVSPropertyOp23
 70
     1
102
RTVSPropertyOp24
 70
     1
102
RTVSPropertyOp25
 70
     1
102
RTVSPropertyOp26
 70
     1
102
RTVSPropertyOp27
 70
     1
102
RTVSPropertyOp28
 70
     1
102
RTVSPropertyOp29
 70
     1
102
RTVSPropertyOp30
 70
     1
102
RTVSPropertyOp31
 70
     1
102
RTVSPropertyOp32
 70
     1
102
RTVSPropertyOp33
 70
     1
102
RTVSPropertyOp34
 70
     1
102
RTVSPropertyOp35
 70
     1
102
RTVSPropertyOp36
 70
     1
102
RTVSPropertyOp37
 70
     1
102
RTVSPropertyOp38
 70
     1
102
RTVSPropertyOp39
 70
     1
102
RTVSPropertyOp40
 70
     1
102
RTVSPropertyOp41
 70
     1
102
RTVSPropertyOp42
 70
     1
102
RTVSPropertyOp43
 70
     1
102
RTVSPropertyOp44
 70
     1
102
RTVSPropertyOp45
 70
     1
102
RTVSPropertyOp46
 70
     1
102
RTVSPropertyOp47
 70
     1
102
RTVSPropertyOp48
 70
     1
102
RTVSPropertyOp49
 70
     1
102
RTVSPropertyOp50
 70
     1
102
RTVSPropertyOp51
 70
     0
102
RTVSPropertyOp52
 70
     0
102
RTVSPropertyOp53
 70
     1
102
RTVSPropertyOp54
 70
     1
102
RTVSPropertyOp55
 70
     1
102
RTVSPropertyOp56
 70
     1
102
RTVSPropertyOp57
 70
     1
102
RTVSPropertyOp58
 70
     1
102
RTVSPropertyOp59
 70
     1
102
RTVSPropertyOp60
 70
     1
102
RTVSPropertyOp61
 70
     1
102
RTVSPropertyOp62
 70
     1
  0
XRECORD
  5
A9E7
102
{ACAD_REACTORS
330
A9E6
102
}
330
A9E6
100
AcDbXrecord
280
     1
102
RTVSPost2010Prop28
280
     0
102
RTVSPost2010PropOp28
 70
     1
102
RTVSPost2010Prop29
280
     1
102
RTVSPost2010PropOp29
 70
     1
102
RTVSPost2010Prop30
280
     1
102
RTVSPost2010PropOp30
 70
     1
102
RTVSPost2010Prop31
280
     0
102
RTVSPost2010PropOp31
 70
     1
102
RTVSPost2010Prop32
280
     0
102
RTVSPost2010PropOp32
 70
     1
102
RTVSPost2010Prop33
280
     0
102
RTVSPost2010PropOp33
 70
     1
102
RTVSPost2010Prop34
280
     0
102
RTVSPost2010PropOp34
 70
     1
102
RTVSPost2010Prop35
280
     0
102
RTVSPost2010PropOp35
 70
     1
102
RTVSPost2010Prop36
280
     0
102
RTVSPost2010PropOp36
 70
     1
102
RTVSPost2010Prop37
 90
       50
102
RTVSPost2010PropOp37
 70
     1
102
RTVSPost2010Prop38
140
0.0
102
RTVSPost2010PropOp38
 70
     1
102
RTVSPost2010Prop39
140
1.0
102
RTVSPost2010PropOp39
 70
     1
102
RTVSPost2010Prop40
 90
        0
102
RTVSPost2010PropOp40
 70
     1
102
RTVSPost2010Prop41ColorIndex
 90
       18
102
RTVSPost2010Prop41ColorRGB
 90
        0
102
RTVSPost2010PropOp41
 70
     1
102
RTVSPost2010Prop42
 90
       50
102
RTVSPost2010PropOp42
 70
     1
102
RTVSPost2010Prop43
 90
        3
102
RTVSPost2010PropOp43
 70
     1
102
RTVSPost2010Prop44ColorIndex
 90
        5
102
RTVSPost2010Prop44ColorRGB
 90
      255
102
RTVSPost2010PropOp44
 70
     1
102
RTVSPost2010Prop45
280
     0
102
RTVSPost2010PropOp45
 70
     1
102
RTVSPost2010Prop46
 90
       50
102
RTVSPost2010PropOp46
 70
     1
102
RTVSPost2010Prop47
 90
       50
102
RTVSPost2010PropOp47
 70
     1
102
RTVSPost2010Prop48
 90
       50
102
RTVSPost2010PropOp48
 70
     1
102
RTVSPost2010Prop49
280
     0
102
RTVSPost2010PropOp49
 70
     1
102
RTVSPost2010Prop50
 90
       50
102
RTVSPost2010PropOp50
 70
     1
102
RTVSPost2010Prop51ColorIndex
 90
      256
102
RTVSPost2010Prop51ColorRGB
 90
-16777216
102
RTVSPost2010PropOp51
 70
     0
102
RTVSPost2010Prop52
140
1.0
102
RTVSPost2010PropOp52
 70
     0
102
RTVSPost2010Prop53
 90
        2
102
RTVSPost2010PropOp53
 70
     1
102
RTVSPost2010Prop54
  1
strokes_ogs.tif
102
RTVSPost2010PropOp54
 70
     1
102
RTVSPost2010Prop55
280
     0
102
RTVSPost2010PropOp55
 70
     1
102
RTVSPost2010Prop56
140
1.0
102
RTVSPost2010PropOp56
 70
     1
102
RTVSPost2010Prop57
140
1.0
102
RTVSPost2010PropOp57
 70
     1
102
RTVSPropertyOp0
 70
     1
102
RTVSPropertyOp1
 70
     1
102
RTVSPropertyOp2
 70
     1
102
RTVSPropertyOp3
 70
     1
102
RTVSPropertyOp4
 70
     1
102
RTVSPropertyOp5
 70
     1
102
RTVSPropertyOp6
 70
     1
102
RTVSPropertyOp7
 70
     1
102
RTVSPropertyOp8
 70
     1
102
RTVSPropertyOp9
 70
     1
102
RTVSPropertyOp10
 70
     1
102
RTVSPropertyOp11
 70
     1
102
RTVSPropertyOp12
 70
     1
102
RTVSPropertyOp13
 70
     1
102
RTVSPropertyOp14
 70
     1
102
RTVSPropertyOp15
 70
     1
102
RTVSPropertyOp16
 70
     1
102
RTVSPropertyOp17
 70
     1
102
RTVSPropertyOp18
 70
     1
102
RTVSPropertyOp19
 70
     1
102
RTVSPropertyOp20
 70
     1
102
RTVSPropertyOp21
 70
     1
102
RTVSPropertyOp22
 70
     1
102
RTVSPropertyOp23
 70
     1
102
RTVSPropertyOp24
 70
     1
102
RTVSPropertyOp25
 70
     1
102
RTVSPropertyOp26
 70
     1
102
RTVSPropertyOp27
 70
     1
102
RTVSPropertyOp28
 70
     1
102
RTVSPropertyOp29
 70
     1
102
RTVSPropertyOp30
 70
     1
102
RTVSPropertyOp31
 70
     1
102
RTVSPropertyOp32
 70
     1
102
RTVSPropertyOp33
 70
     1
102
RTVSPropertyOp34
 70
     1
102
RTVSPropertyOp35
 70
     1
102
RTVSPropertyOp36
 70
     1
102
RTVSPropertyOp37
 70
     1
102
RTVSPropertyOp38
 70
     1
102
RTVSPropertyOp39
 70
     1
102
RTVSPropertyOp40
 70
     1
102
RTVSPropertyOp41
 70
     1
102
RTVSPropertyOp42
 70
     1
102
RTVSPropertyOp43
 70
     1
102
RTVSPropertyOp44
 70
     1
102
RTVSPropertyOp45
 70
     1
102
RTVSPropertyOp46
 70
     1
102
RTVSPropertyOp47
 70
     1
102
RTVSPropertyOp48
 70
     1
102
RTVSPropertyOp49
 70
     1
102
RTVSPropertyOp50
 70
     1
102
RTVSPropertyOp51
 70
     0
102
RTVSPropertyOp52
 70
     0
102
RTVSPropertyOp53
 70
     1
102
RTVSPropertyOp54
 70
     1
102
RTVSPropertyOp55
 70
     1
102
RTVSPropertyOp56
 70
     1
102
RTVSPropertyOp57
 70
     1
102
RTVSPropertyOp58
 70
     1
102
RTVSPropertyOp59
 70
     1
102
RTVSPropertyOp60
 70
     1
102
RTVSPropertyOp61
 70
     1
102
RTVSPropertyOp62
 70
     1
  0
XRECORD
  5
A9F5
102
{ACAD_REACTORS
330
A9F4
102
}
330
A9F4
100
AcDbXrecord
280
     1
102
RTVSPost2010Prop28
280
     0
102
RTVSPost2010PropOp28
 70
     1
102
RTVSPost2010Prop29
280
     1
102
RTVSPost2010PropOp29
 70
     1
102
RTVSPost2010Prop30
280
     1
102
RTVSPost2010PropOp30
 70
     1
102
RTVSPost2010Prop31
280
     0
102
RTVSPost2010PropOp31
 70
     1
102
RTVSPost2010Prop32
280
     0
102
RTVSPost2010PropOp32
 70
     1
102
RTVSPost2010Prop33
280
     0
102
RTVSPost2010PropOp33
 70
     1
102
RTVSPost2010Prop34
280
     0
102
RTVSPost2010PropOp34
 70
     1
102
RTVSPost2010Prop35
280
     0
102
RTVSPost2010PropOp35
 70
     1
102
RTVSPost2010Prop36
280
     0
102
RTVSPost2010PropOp36
 70
     1
102
RTVSPost2010Prop37
 90
       50
102
RTVSPost2010PropOp37
 70
     1
102
RTVSPost2010Prop38
140
0.0
102
RTVSPost2010PropOp38
 70
     1
102
RTVSPost2010Prop39
140
1.0
102
RTVSPost2010PropOp39
 70
     1
102
RTVSPost2010Prop40
 90
        0
102
RTVSPost2010PropOp40
 70
     1
102
RTVSPost2010Prop41ColorIndex
 90
       18
102
RTVSPost2010Prop41ColorRGB
 90
        0
102
RTVSPost2010PropOp41
 70
     1
102
RTVSPost2010Prop42
 90
       50
102
RTVSPost2010PropOp42
 70
     1
102
RTVSPost2010Prop43
 90
        3
102
RTVSPost2010PropOp43
 70
     1
102
RTVSPost2010Prop44ColorIndex
 90
        5
102
RTVSPost2010Prop44ColorRGB
 90
      255
102
RTVSPost2010PropOp44
 70
     1
102
RTVSPost2010Prop45
280
     0
102
RTVSPost2010PropOp45
 70
     1
102
RTVSPost2010Prop46
 90
       50
102
RTVSPost2010PropOp46
 70
     1
102
RTVSPost2010Prop47
 90
       50
102
RTVSPost2010PropOp47
 70
     1
102
RTVSPost2010Prop48
 90
       50
102
RTVSPost2010PropOp48
 70
     1
102
RTVSPost2010Prop49
280
     0
102
RTVSPost2010PropOp49
 70
     1
102
RTVSPost2010Prop50
 90
       50
102
RTVSPost2010PropOp50
 70
     1
102
RTVSPost2010Prop51ColorIndex
 90
      256
102
RTVSPost2010Prop51ColorRGB
 90
-16777216
102
RTVSPost2010PropOp51
 70
     0
102
RTVSPost2010Prop52
140
1.0
102
RTVSPost2010PropOp52
 70
     0
102
RTVSPost2010Prop53
 90
        2
102
RTVSPost2010PropOp53
 70
     1
102
RTVSPost2010Prop54
  1
strokes_ogs.tif
102
RTVSPost2010PropOp54
 70
     1
102
RTVSPost2010Prop55
280
     0
102
RTVSPost2010PropOp55
 70
     1
102
RTVSPost2010Prop56
140
1.0
102
RTVSPost2010PropOp56
 70
     1
102
RTVSPost2010Prop57
140
1.0
102
RTVSPost2010PropOp57
 70
     1
102
RTVSPropertyOp0
 70
     1
102
RTVSPropertyOp1
 70
     1
102
RTVSPropertyOp2
 70
     1
102
RTVSPropertyOp3
 70
     1
102
RTVSPropertyOp4
 70
     1
102
RTVSPropertyOp5
 70
     1
102
RTVSPropertyOp6
 70
     1
102
RTVSPropertyOp7
 70
     1
102
RTVSPropertyOp8
 70
     1
102
RTVSPropertyOp9
 70
     1
102
RTVSPropertyOp10
 70
     1
102
RTVSPropertyOp11
 70
     1
102
RTVSPropertyOp12
 70
     1
102
RTVSPropertyOp13
 70
     1
102
RTVSPropertyOp14
 70
     1
102
RTVSPropertyOp15
 70
     1
102
RTVSPropertyOp16
 70
     1
102
RTVSPropertyOp17
 70
     1
102
RTVSPropertyOp18
 70
     1
102
RTVSPropertyOp19
 70
     1
102
RTVSPropertyOp20
 70
     1
102
RTVSPropertyOp21
 70
     1
102
RTVSPropertyOp22
 70
     1
102
RTVSPropertyOp23
 70
     1
102
RTVSPropertyOp24
 70
     1
102
RTVSPropertyOp25
 70
     1
102
RTVSPropertyOp26
 70
     1
102
RTVSPropertyOp27
 70
     1
102
RTVSPropertyOp28
 70
     1
102
RTVSPropertyOp29
 70
     1
102
RTVSPropertyOp30
 70
     1
102
RTVSPropertyOp31
 70
     1
102
RTVSPropertyOp32
 70
     1
102
RTVSPropertyOp33
 70
     1
102
RTVSPropertyOp34
 70
     1
102
RTVSPropertyOp35
 70
     1
102
RTVSPropertyOp36
 70
     1
102
RTVSPropertyOp37
 70
     1
102
RTVSPropertyOp38
 70
     1
102
RTVSPropertyOp39
 70
     1
102
RTVSPropertyOp40
 70
     1
102
RTVSPropertyOp41
 70
     1
102
RTVSPropertyOp42
 70
     1
102
RTVSPropertyOp43
 70
     1
102
RTVSPropertyOp44
 70
     1
102
RTVSPropertyOp45
 70
     1
102
RTVSPropertyOp46
 70
     1
102
RTVSPropertyOp47
 70
     1
102
RTVSPropertyOp48
 70
     1
102
RTVSPropertyOp49
 70
     1
102
RTVSPropertyOp50
 70
     1
102
RTVSPropertyOp51
 70
     0
102
RTVSPropertyOp52
 70
     0
102
RTVSPropertyOp53
 70
     1
102
RTVSPropertyOp54
 70
     1
102
RTVSPropertyOp55
 70
     1
102
RTVSPropertyOp56
 70
     1
102
RTVSPropertyOp57
 70
     1
102
RTVSPropertyOp58
 70
     1
102
RTVSPropertyOp59
 70
     1
102
RTVSPropertyOp60
 70
     1
102
RTVSPropertyOp61
 70
     1
102
RTVSPropertyOp62
 70
     1
  0
XRECORD
  5
A9FD
102
{ACAD_REACTORS
330
A9FC
102
}
330
A9FC
100
AcDbXrecord
280
     1
102
RTVSPost2010Prop28
280
     0
102
RTVSPost2010PropOp28
 70
     1
102
RTVSPost2010Prop29
280
     1
102
RTVSPost2010PropOp29
 70
     1
102
RTVSPost2010Prop30
280
     1
102
RTVSPost2010PropOp30
 70
     1
102
RTVSPost2010Prop31
280
     0
102
RTVSPost2010PropOp31
 70
     1
102
RTVSPost2010Prop32
280
     0
102
RTVSPost2010PropOp32
 70
     1
102
RTVSPost2010Prop33
280
     0
102
RTVSPost2010PropOp33
 70
     1
102
RTVSPost2010Prop34
280
     0
102
RTVSPost2010PropOp34
 70
     1
102
RTVSPost2010Prop35
280
     0
102
RTVSPost2010PropOp35
 70
     1
102
RTVSPost2010Prop36
280
     0
102
RTVSPost2010PropOp36
 70
     1
102
RTVSPost2010Prop37
 90
       50
102
RTVSPost2010PropOp37
 70
     1
102
RTVSPost2010Prop38
140
0.0
102
RTVSPost2010PropOp38
 70
     1
102
RTVSPost2010Prop39
140
1.0
102
RTVSPost2010PropOp39
 70
     1
102
RTVSPost2010Prop40
 90
        0
102
RTVSPost2010PropOp40
 70
     1
102
RTVSPost2010Prop41ColorIndex
 90
       18
102
RTVSPost2010Prop41ColorRGB
 90
        0
102
RTVSPost2010PropOp41
 70
     1
102
RTVSPost2010Prop42
 90
       50
102
RTVSPost2010PropOp42
 70
     1
102
RTVSPost2010Prop43
 90
        3
102
RTVSPost2010PropOp43
 70
     1
102
RTVSPost2010Prop44ColorIndex
 90
        5
102
RTVSPost2010Prop44ColorRGB
 90
      255
102
RTVSPost2010PropOp44
 70
     1
102
RTVSPost2010Prop45
280
     0
102
RTVSPost2010PropOp45
 70
     1
102
RTVSPost2010Prop46
 90
       50
102
RTVSPost2010PropOp46
 70
     1
102
RTVSPost2010Prop47
 90
       50
102
RTVSPost2010PropOp47
 70
     1
102
RTVSPost2010Prop48
 90
       50
102
RTVSPost2010PropOp48
 70
     1
102
RTVSPost2010Prop49
280
     0
102
RTVSPost2010PropOp49
 70
     1
102
RTVSPost2010Prop50
 90
       50
102
RTVSPost2010PropOp50
 70
     1
102
RTVSPost2010Prop51ColorIndex
 90
      256
102
RTVSPost2010Prop51ColorRGB
 90
-16777216
102
RTVSPost2010PropOp51
 70
     0
102
RTVSPost2010Prop52
140
1.0
102
RTVSPost2010PropOp52
 70
     0
102
RTVSPost2010Prop53
 90
        2
102
RTVSPost2010PropOp53
 70
     1
102
RTVSPost2010Prop54
  1
strokes_ogs.tif
102
RTVSPost2010PropOp54
 70
     1
102
RTVSPost2010Prop55
280
     0
102
RTVSPost2010PropOp55
 70
     1
102
RTVSPost2010Prop56
140
1.0
102
RTVSPost2010PropOp56
 70
     1
102
RTVSPost2010Prop57
140
1.0
102
RTVSPost2010PropOp57
 70
     1
102
RTVSPropertyOp0
 70
     1
102
RTVSPropertyOp1
 70
     1
102
RTVSPropertyOp2
 70
     1
102
RTVSPropertyOp3
 70
     1
102
RTVSPropertyOp4
 70
     1
102
RTVSPropertyOp5
 70
     1
102
RTVSPropertyOp6
 70
     1
102
RTVSPropertyOp7
 70
     1
102
RTVSPropertyOp8
 70
     1
102
RTVSPropertyOp9
 70
     1
102
RTVSPropertyOp10
 70
     1
102
RTVSPropertyOp11
 70
     1
102
RTVSPropertyOp12
 70
     1
102
RTVSPropertyOp13
 70
     1
102
RTVSPropertyOp14
 70
     1
102
RTVSPropertyOp15
 70
     1
102
RTVSPropertyOp16
 70
     1
102
RTVSPropertyOp17
 70
     1
102
RTVSPropertyOp18
 70
     1
102
RTVSPropertyOp19
 70
     1
102
RTVSPropertyOp20
 70
     1
102
RTVSPropertyOp21
 70
     1
102
RTVSPropertyOp22
 70
     1
102
RTVSPropertyOp23
 70
     1
102
RTVSPropertyOp24
 70
     1
102
RTVSPropertyOp25
 70
     1
102
RTVSPropertyOp26
 70
     1
102
RTVSPropertyOp27
 70
     1
102
RTVSPropertyOp28
 70
     1
102
RTVSPropertyOp29
 70
     1
102
RTVSPropertyOp30
 70
     1
102
RTVSPropertyOp31
 70
     1
102
RTVSPropertyOp32
 70
     1
102
RTVSPropertyOp33
 70
     1
102
RTVSPropertyOp34
 70
     1
102
RTVSPropertyOp35
 70
     1
102
RTVSPropertyOp36
 70
     1
102
RTVSPropertyOp37
 70
     1
102
RTVSPropertyOp38
 70
     1
102
RTVSPropertyOp39
 70
     1
102
RTVSPropertyOp40
 70
     1
102
RTVSPropertyOp41
 70
     1
102
RTVSPropertyOp42
 70
     1
102
RTVSPropertyOp43
 70
     1
102
RTVSPropertyOp44
 70
     1
102
RTVSPropertyOp45
 70
     1
102
RTVSPropertyOp46
 70
     1
102
RTVSPropertyOp47
 70
     1
102
RTVSPropertyOp48
 70
     1
102
RTVSPropertyOp49
 70
     1
102
RTVSPropertyOp50
 70
     1
102
RTVSPropertyOp51
 70
     0
102
RTVSPropertyOp52
 70
     0
102
RTVSPropertyOp53
 70
     1
102
RTVSPropertyOp54
 70
     1
102
RTVSPropertyOp55
 70
     1
102
RTVSPropertyOp56
 70
     1
102
RTVSPropertyOp57
 70
     1
102
RTVSPropertyOp58
 70
     1
102
RTVSPropertyOp59
 70
     1
102
RTVSPropertyOp60
 70
     1
102
RTVSPropertyOp61
 70
     1
102
RTVSPropertyOp62
 70
     1
  0
XRECORD
  5
A9EF
102
{ACAD_REACTORS
330
A9EE
102
}
330
A9EE
100
AcDbXrecord
280
     1
102
RTVSPost2010Prop28
280
     0
102
RTVSPost2010PropOp28
 70
     1
102
RTVSPost2010Prop29
280
     1
102
RTVSPost2010PropOp29
 70
     1
102
RTVSPost2010Prop30
280
     1
102
RTVSPost2010PropOp30
 70
     1
102
RTVSPost2010Prop31
280
     0
102
RTVSPost2010PropOp31
 70
     1
102
RTVSPost2010Prop32
280
     0
102
RTVSPost2010PropOp32
 70
     1
102
RTVSPost2010Prop33
280
     0
102
RTVSPost2010PropOp33
 70
     1
102
RTVSPost2010Prop34
280
     0
102
RTVSPost2010PropOp34
 70
     1
102
RTVSPost2010Prop35
280
     0
102
RTVSPost2010PropOp35
 70
     1
102
RTVSPost2010Prop36
280
     0
102
RTVSPost2010PropOp36
 70
     1
102
RTVSPost2010Prop37
 90
       50
102
RTVSPost2010PropOp37
 70
     1
102
RTVSPost2010Prop38
140
0.0
102
RTVSPost2010PropOp38
 70
     1
102
RTVSPost2010Prop39
140
1.0
102
RTVSPost2010PropOp39
 70
     1
102
RTVSPost2010Prop40
 90
        0
102
RTVSPost2010PropOp40
 70
     1
102
RTVSPost2010Prop41ColorIndex
 90
       18
102
RTVSPost2010Prop41ColorRGB
 90
        0
102
RTVSPost2010PropOp41
 70
     1
102
RTVSPost2010Prop42
 90
       50
102
RTVSPost2010PropOp42
 70
     1
102
RTVSPost2010Prop43
 90
        3
102
RTVSPost2010PropOp43
 70
     1
102
RTVSPost2010Prop44ColorIndex
 90
        5
102
RTVSPost2010Prop44ColorRGB
 90
      255
102
RTVSPost2010PropOp44
 70
     1
102
RTVSPost2010Prop45
280
     0
102
RTVSPost2010PropOp45
 70
     1
102
RTVSPost2010Prop46
 90
       50
102
RTVSPost2010PropOp46
 70
     1
102
RTVSPost2010Prop47
 90
       50
102
RTVSPost2010PropOp47
 70
     1
102
RTVSPost2010Prop48
 90
       50
102
RTVSPost2010PropOp48
 70
     1
102
RTVSPost2010Prop49
280
     0
102
RTVSPost2010PropOp49
 70
     1
102
RTVSPost2010Prop50
 90
       50
102
RTVSPost2010PropOp50
 70
     1
102
RTVSPost2010Prop51ColorIndex
 90
      256
102
RTVSPost2010Prop51ColorRGB
 90
-16777216
102
RTVSPost2010PropOp51
 70
     0
102
RTVSPost2010Prop52
140
1.0
102
RTVSPost2010PropOp52
 70
     0
102
RTVSPost2010Prop53
 90
        2
102
RTVSPost2010PropOp53
 70
     1
102
RTVSPost2010Prop54
  1
strokes_ogs.tif
102
RTVSPost2010PropOp54
 70
     1
102
RTVSPost2010Prop55
280
     0
102
RTVSPost2010PropOp55
 70
     1
102
RTVSPost2010Prop56
140
1.0
102
RTVSPost2010PropOp56
 70
     1
102
RTVSPost2010Prop57
140
1.0
102
RTVSPost2010PropOp57
 70
     1
102
RTVSPropertyOp0
 70
     1
102
RTVSPropertyOp1
 70
     1
102
RTVSPropertyOp2
 70
     1
102
RTVSPropertyOp3
 70
     1
102
RTVSPropertyOp4
 70
     1
102
RTVSPropertyOp5
 70
     1
102
RTVSPropertyOp6
 70
     1
102
RTVSPropertyOp7
 70
     1
102
RTVSPropertyOp8
 70
     1
102
RTVSPropertyOp9
 70
     1
102
RTVSPropertyOp10
 70
     1
102
RTVSPropertyOp11
 70
     1
102
RTVSPropertyOp12
 70
     1
102
RTVSPropertyOp13
 70
     1
102
RTVSPropertyOp14
 70
     1
102
RTVSPropertyOp15
 70
     1
102
RTVSPropertyOp16
 70
     1
102
RTVSPropertyOp17
 70
     1
102
RTVSPropertyOp18
 70
     1
102
RTVSPropertyOp19
 70
     1
102
RTVSPropertyOp20
 70
     1
102
RTVSPropertyOp21
 70
     1
102
RTVSPropertyOp22
 70
     1
102
RTVSPropertyOp23
 70
     1
102
RTVSPropertyOp24
 70
     1
102
RTVSPropertyOp25
 70
     1
102
RTVSPropertyOp26
 70
     1
102
RTVSPropertyOp27
 70
     1
102
RTVSPropertyOp28
 70
     1
102
RTVSPropertyOp29
 70
     1
102
RTVSPropertyOp30
 70
     1
102
RTVSPropertyOp31
 70
     1
102
RTVSPropertyOp32
 70
     1
102
RTVSPropertyOp33
 70
     1
102
RTVSPropertyOp34
 70
     1
102
RTVSPropertyOp35
 70
     1
102
RTVSPropertyOp36
 70
     1
102
RTVSPropertyOp37
 70
     1
102
RTVSPropertyOp38
 70
     1
102
RTVSPropertyOp39
 70
     1
102
RTVSPropertyOp40
 70
     1
102
RTVSPropertyOp41
 70
     1
102
RTVSPropertyOp42
 70
     1
102
RTVSPropertyOp43
 70
     1
102
RTVSPropertyOp44
 70
     1
102
RTVSPropertyOp45
 70
     1
102
RTVSPropertyOp46
 70
     1
102
RTVSPropertyOp47
 70
     1
102
RTVSPropertyOp48
 70
     1
102
RTVSPropertyOp49
 70
     1
102
RTVSPropertyOp50
 70
     1
102
RTVSPropertyOp51
 70
     0
102
RTVSPropertyOp52
 70
     0
102
RTVSPropertyOp53
 70
     1
102
RTVSPropertyOp54
 70
     1
102
RTVSPropertyOp55
 70
     1
102
RTVSPropertyOp56
 70
     1
102
RTVSPropertyOp57
 70
     1
102
RTVSPropertyOp58
 70
     1
102
RTVSPropertyOp59
 70
     1
102
RTVSPropertyOp60
 70
     1
102
RTVSPropertyOp61
 70
     1
102
RTVSPropertyOp62
 70
     1
  0
XRECORD
  5
A9F3
102
{ACAD_REACTORS
330
A9F2
102
}
330
A9F2
100
AcDbXrecord
280
     1
102
RTVSPost2010Prop28
280
     0
102
RTVSPost2010PropOp28
 70
     1
102
RTVSPost2010Prop29
280
     1
102
RTVSPost2010PropOp29
 70
     1
102
RTVSPost2010Prop30
280
     1
102
RTVSPost2010PropOp30
 70
     1
102
RTVSPost2010Prop31
280
     0
102
RTVSPost2010PropOp31
 70
     1
102
RTVSPost2010Prop32
280
     0
102
RTVSPost2010PropOp32
 70
     1
102
RTVSPost2010Prop33
280
     0
102
RTVSPost2010PropOp33
 70
     1
102
RTVSPost2010Prop34
280
     0
102
RTVSPost2010PropOp34
 70
     1
102
RTVSPost2010Prop35
280
     0
102
RTVSPost2010PropOp35
 70
     1
102
RTVSPost2010Prop36
280
     0
102
RTVSPost2010PropOp36
 70
     1
102
RTVSPost2010Prop37
 90
       50
102
RTVSPost2010PropOp37
 70
     1
102
RTVSPost2010Prop38
140
0.0
102
RTVSPost2010PropOp38
 70
     1
102
RTVSPost2010Prop39
140
1.0
102
RTVSPost2010PropOp39
 70
     1
102
RTVSPost2010Prop40
 90
        0
102
RTVSPost2010PropOp40
 70
     1
102
RTVSPost2010Prop41ColorIndex
 90
       18
102
RTVSPost2010Prop41ColorRGB
 90
        0
102
RTVSPost2010PropOp41
 70
     1
102
RTVSPost2010Prop42
 90
       50
102
RTVSPost2010PropOp42
 70
     1
102
RTVSPost2010Prop43
 90
        3
102
RTVSPost2010PropOp43
 70
     1
102
RTVSPost2010Prop44ColorIndex
 90
        5
102
RTVSPost2010Prop44ColorRGB
 90
      255
102
RTVSPost2010PropOp44
 70
     1
102
RTVSPost2010Prop45
280
     0
102
RTVSPost2010PropOp45
 70
     1
102
RTVSPost2010Prop46
 90
       50
102
RTVSPost2010PropOp46
 70
     1
102
RTVSPost2010Prop47
 90
       50
102
RTVSPost2010PropOp47
 70
     1
102
RTVSPost2010Prop48
 90
       50
102
RTVSPost2010PropOp48
 70
     1
102
RTVSPost2010Prop49
280
     0
102
RTVSPost2010PropOp49
 70
     1
102
RTVSPost2010Prop50
 90
       50
102
RTVSPost2010PropOp50
 70
     1
102
RTVSPost2010Prop51ColorIndex
 90
      256
102
RTVSPost2010Prop51ColorRGB
 90
-16777216
102
RTVSPost2010PropOp51
 70
     0
102
RTVSPost2010Prop52
140
1.0
102
RTVSPost2010PropOp52
 70
     0
102
RTVSPost2010Prop53
 90
        2
102
RTVSPost2010PropOp53
 70
     1
102
RTVSPost2010Prop54
  1
strokes_ogs.tif
102
RTVSPost2010PropOp54
 70
     1
102
RTVSPost2010Prop55
280
     0
102
RTVSPost2010PropOp55
 70
     1
102
RTVSPost2010Prop56
140
1.0
102
RTVSPost2010PropOp56
 70
     1
102
RTVSPost2010Prop57
140
1.0
102
RTVSPost2010PropOp57
 70
     1
102
RTVSPropertyOp0
 70
     1
102
RTVSPropertyOp1
 70
     1
102
RTVSPropertyOp2
 70
     1
102
RTVSPropertyOp3
 70
     1
102
RTVSPropertyOp4
 70
     1
102
RTVSPropertyOp5
 70
     1
102
RTVSPropertyOp6
 70
     1
102
RTVSPropertyOp7
 70
     1
102
RTVSPropertyOp8
 70
     1
102
RTVSPropertyOp9
 70
     1
102
RTVSPropertyOp10
 70
     1
102
RTVSPropertyOp11
 70
     1
102
RTVSPropertyOp12
 70
     1
102
RTVSPropertyOp13
 70
     1
102
RTVSPropertyOp14
 70
     1
102
RTVSPropertyOp15
 70
     1
102
RTVSPropertyOp16
 70
     1
102
RTVSPropertyOp17
 70
     1
102
RTVSPropertyOp18
 70
     1
102
RTVSPropertyOp19
 70
     1
102
RTVSPropertyOp20
 70
     1
102
RTVSPropertyOp21
 70
     1
102
RTVSPropertyOp22
 70
     1
102
RTVSPropertyOp23
 70
     1
102
RTVSPropertyOp24
 70
     1
102
RTVSPropertyOp25
 70
     1
102
RTVSPropertyOp26
 70
     1
102
RTVSPropertyOp27
 70
     1
102
RTVSPropertyOp28
 70
     1
102
RTVSPropertyOp29
 70
     1
102
RTVSPropertyOp30
 70
     1
102
RTVSPropertyOp31
 70
     1
102
RTVSPropertyOp32
 70
     1
102
RTVSPropertyOp33
 70
     1
102
RTVSPropertyOp34
 70
     1
102
RTVSPropertyOp35
 70
     1
102
RTVSPropertyOp36
 70
     1
102
RTVSPropertyOp37
 70
     1
102
RTVSPropertyOp38
 70
     1
102
RTVSPropertyOp39
 70
     1
102
RTVSPropertyOp40
 70
     1
102
RTVSPropertyOp41
 70
     1
102
RTVSPropertyOp42
 70
     1
102
RTVSPropertyOp43
 70
     1
102
RTVSPropertyOp44
 70
     1
102
RTVSPropertyOp45
 70
     1
102
RTVSPropertyOp46
 70
     1
102
RTVSPropertyOp47
 70
     1
102
RTVSPropertyOp48
 70
     1
102
RTVSPropertyOp49
 70
     1
102
RTVSPropertyOp50
 70
     1
102
RTVSPropertyOp51
 70
     0
102
RTVSPropertyOp52
 70
     0
102
RTVSPropertyOp53
 70
     1
102
RTVSPropertyOp54
 70
     1
102
RTVSPropertyOp55
 70
     1
102
RTVSPropertyOp56
 70
     1
102
RTVSPropertyOp57
 70
     1
102
RTVSPropertyOp58
 70
     1
102
RTVSPropertyOp59
 70
     1
102
RTVSPropertyOp60
 70
     1
102
RTVSPropertyOp61
 70
     1
102
RTVSPropertyOp62
 70
     1
  0
XRECORD
  5
AA0D
102
{ACAD_REACTORS
330
AA0C
102
}
330
AA0C
100
AcDbXrecord
280
     1
102
RTVSPost2010Prop28
280
     0
102
RTVSPost2010PropOp28
 70
     1
102
RTVSPost2010Prop29
280
     1
102
RTVSPost2010PropOp29
 70
     1
102
RTVSPost2010Prop30
280
     1
102
RTVSPost2010PropOp30
 70
     1
102
RTVSPost2010Prop31
280
     0
102
RTVSPost2010PropOp31
 70
     1
102
RTVSPost2010Prop32
280
     0
102
RTVSPost2010PropOp32
 70
     1
102
RTVSPost2010Prop33
280
     0
102
RTVSPost2010PropOp33
 70
     1
102
RTVSPost2010Prop34
280
     0
102
RTVSPost2010PropOp34
 70
     1
102
RTVSPost2010Prop35
280
     0
102
RTVSPost2010PropOp35
 70
     1
102
RTVSPost2010Prop36
280
     0
102
RTVSPost2010PropOp36
 70
     1
102
RTVSPost2010Prop37
 90
       50
102
RTVSPost2010PropOp37
 70
     0
102
RTVSPost2010Prop38
140
0.0
102
RTVSPost2010PropOp38
 70
     0
102
RTVSPost2010Prop39
140
1.0
102
RTVSPost2010PropOp39
 70
     0
102
RTVSPost2010Prop40
 90
        0
102
RTVSPost2010PropOp40
 70
     0
102
RTVSPost2010Prop41ColorIndex
 90
       18
102
RTVSPost2010Prop41ColorRGB
 90
        0
102
RTVSPost2010PropOp41
 70
     0
102
RTVSPost2010Prop42
 90
       50
102
RTVSPost2010PropOp42
 70
     0
102
RTVSPost2010Prop43
 90
        3
102
RTVSPost2010PropOp43
 70
     0
102
RTVSPost2010Prop44ColorIndex
 90
        5
102
RTVSPost2010Prop44ColorRGB
 90
      255
102
RTVSPost2010PropOp44
 70
     0
102
RTVSPost2010Prop45
280
     0
102
RTVSPost2010PropOp45
 70
     1
102
RTVSPost2010Prop46
 90
       50
102
RTVSPost2010PropOp46
 70
     0
102
RTVSPost2010Prop47
 90
       50
102
RTVSPost2010PropOp47
 70
     0
102
RTVSPost2010Prop48
 90
       50
102
RTVSPost2010PropOp48
 70
     0
102
RTVSPost2010Prop49
280
     0
102
RTVSPost2010PropOp49
 70
     1
102
RTVSPost2010Prop50
 90
       50
102
RTVSPost2010PropOp50
 70
     0
102
RTVSPost2010Prop51ColorIndex
 90
      256
102
RTVSPost2010Prop51ColorRGB
 90
-16777216
102
RTVSPost2010PropOp51
 70
     0
102
RTVSPost2010Prop52
140
1.0
102
RTVSPost2010PropOp52
 70
     0
102
RTVSPost2010Prop53
 90
        2
102
RTVSPost2010PropOp53
 70
     0
102
RTVSPost2010Prop54
  1
strokes_ogs.tif
102
RTVSPost2010PropOp54
 70
     0
102
RTVSPost2010Prop55
280
     0
102
RTVSPost2010PropOp55
 70
     1
102
RTVSPost2010Prop56
140
1.0
102
RTVSPost2010PropOp56
 70
     0
102
RTVSPost2010Prop57
140
1.0
102
RTVSPost2010PropOp57
 70
     0
102
RTVSPropertyOp0
 70
     0
102
RTVSPropertyOp1
 70
     0
102
RTVSPropertyOp2
 70
     0
102
RTVSPropertyOp3
 70
     0
102
RTVSPropertyOp4
 70
     0
102
RTVSPropertyOp5
 70
     0
102
RTVSPropertyOp6
 70
     0
102
RTVSPropertyOp7
 70
     0
102
RTVSPropertyOp8
 70
     0
102
RTVSPropertyOp9
 70
     0
102
RTVSPropertyOp10
 70
     0
102
RTVSPropertyOp11
 70
     0
102
RTVSPropertyOp12
 70
     0
102
RTVSPropertyOp13
 70
     0
102
RTVSPropertyOp14
 70
     2
102
RTVSPropertyOp15
 70
     0
102
RTVSPropertyOp16
 70
     0
102
RTVSPropertyOp17
 70
     0
102
RTVSPropertyOp18
 70
     0
102
RTVSPropertyOp19
 70
     0
102
RTVSPropertyOp20
 70
     0
102
RTVSPropertyOp21
 70
     0
102
RTVSPropertyOp22
 70
     0
102
RTVSPropertyOp23
 70
     0
102
RTVSPropertyOp24
 70
     0
102
RTVSPropertyOp25
 70
     0
102
RTVSPropertyOp26
 70
     0
102
RTVSPropertyOp27
 70
     0
102
RTVSPropertyOp28
 70
     1
102
RTVSPropertyOp29
 70
     1
102
RTVSPropertyOp30
 70
     1
102
RTVSPropertyOp31
 70
     1
102
RTVSPropertyOp32
 70
     1
102
RTVSPropertyOp33
 70
     1
102
RTVSPropertyOp34
 70
     1
102
RTVSPropertyOp35
 70
     1
102
RTVSPropertyOp36
 70
     1
102
RTVSPropertyOp37
 70
     0
102
RTVSPropertyOp38
 70
     0
102
RTVSPropertyOp39
 70
     0
102
RTVSPropertyOp40
 70
     0
102
RTVSPropertyOp41
 70
     0
102
RTVSPropertyOp42
 70
     0
102
RTVSPropertyOp43
 70
     0
102
RTVSPropertyOp44
 70
     0
102
RTVSPropertyOp45
 70
     1
102
RTVSPropertyOp46
 70
     0
102
RTVSPropertyOp47
 70
     0
102
RTVSPropertyOp48
 70
     0
102
RTVSPropertyOp49
 70
     1
102
RTVSPropertyOp50
 70
     0
102
RTVSPropertyOp51
 70
     0
102
RTVSPropertyOp52
 70
     0
102
RTVSPropertyOp53
 70
     0
102
RTVSPropertyOp54
 70
     0
102
RTVSPropertyOp55
 70
     1
102
RTVSPropertyOp56
 70
     0
102
RTVSPropertyOp57
 70
     0
102
RTVSPropertyOp58
 70
     0
102
RTVSPropertyOp59
 70
     0
102
RTVSPropertyOp60
 70
     0
102
RTVSPropertyOp61
 70
     0
102
RTVSPropertyOp62
 70
     0
  0
XRECORD
  5
A9FB
102
{ACAD_REACTORS
330
A9FA
102
}
330
A9FA
100
AcDbXrecord
280
     1
102
RTVSPost2010Prop28
280
     0
102
RTVSPost2010PropOp28
 70
     1
102
RTVSPost2010Prop29
280
     1
102
RTVSPost2010PropOp29
 70
     1
102
RTVSPost2010Prop30
280
     1
102
RTVSPost2010PropOp30
 70
     1
102
RTVSPost2010Prop31
280
     0
102
RTVSPost2010PropOp31
 70
     1
102
RTVSPost2010Prop32
280
     0
102
RTVSPost2010PropOp32
 70
     1
102
RTVSPost2010Prop33
280
     0
102
RTVSPost2010PropOp33
 70
     1
102
RTVSPost2010Prop34
280
     0
102
RTVSPost2010PropOp34
 70
     1
102
RTVSPost2010Prop35
280
     0
102
RTVSPost2010PropOp35
 70
     1
102
RTVSPost2010Prop36
280
     0
102
RTVSPost2010PropOp36
 70
     1
102
RTVSPost2010Prop37
 90
       50
102
RTVSPost2010PropOp37
 70
     1
102
RTVSPost2010Prop38
140
0.0
102
RTVSPost2010PropOp38
 70
     1
102
RTVSPost2010Prop39
140
1.0
102
RTVSPost2010PropOp39
 70
     1
102
RTVSPost2010Prop40
 90
        0
102
RTVSPost2010PropOp40
 70
     1
102
RTVSPost2010Prop41ColorIndex
 90
       18
102
RTVSPost2010Prop41ColorRGB
 90
        0
102
RTVSPost2010PropOp41
 70
     1
102
RTVSPost2010Prop42
 90
       50
102
RTVSPost2010PropOp42
 70
     1
102
RTVSPost2010Prop43
 90
        3
102
RTVSPost2010PropOp43
 70
     1
102
RTVSPost2010Prop44ColorIndex
 90
        5
102
RTVSPost2010Prop44ColorRGB
 90
      255
102
RTVSPost2010PropOp44
 70
     1
102
RTVSPost2010Prop45
280
     0
102
RTVSPost2010PropOp45
 70
     1
102
RTVSPost2010Prop46
 90
       50
102
RTVSPost2010PropOp46
 70
     1
102
RTVSPost2010Prop47
 90
       50
102
RTVSPost2010PropOp47
 70
     1
102
RTVSPost2010Prop48
 90
       50
102
RTVSPost2010PropOp48
 70
     1
102
RTVSPost2010Prop49
280
     0
102
RTVSPost2010PropOp49
 70
     1
102
RTVSPost2010Prop50
 90
       50
102
RTVSPost2010PropOp50
 70
     1
102
RTVSPost2010Prop51ColorIndex
 90
      256
102
RTVSPost2010Prop51ColorRGB
 90
-16777216
102
RTVSPost2010PropOp51
 70
     0
102
RTVSPost2010Prop52
140
1.0
102
RTVSPost2010PropOp52
 70
     0
102
RTVSPost2010Prop53
 90
        2
102
RTVSPost2010PropOp53
 70
     1
102
RTVSPost2010Prop54
  1
strokes_ogs.tif
102
RTVSPost2010PropOp54
 70
     1
102
RTVSPost2010Prop55
280
     0
102
RTVSPost2010PropOp55
 70
     1
102
RTVSPost2010Prop56
140
1.0
102
RTVSPost2010PropOp56
 70
     1
102
RTVSPost2010Prop57
140
1.0
102
RTVSPost2010PropOp57
 70
     1
102
RTVSPropertyOp0
 70
     1
102
RTVSPropertyOp1
 70
     1
102
RTVSPropertyOp2
 70
     1
102
RTVSPropertyOp3
 70
     1
102
RTVSPropertyOp4
 70
     1
102
RTVSPropertyOp5
 70
     1
102
RTVSPropertyOp6
 70
     1
102
RTVSPropertyOp7
 70
     1
102
RTVSPropertyOp8
 70
     1
102
RTVSPropertyOp9
 70
     1
102
RTVSPropertyOp10
 70
     1
102
RTVSPropertyOp11
 70
     1
102
RTVSPropertyOp12
 70
     1
102
RTVSPropertyOp13
 70
     1
102
RTVSPropertyOp14
 70
     1
102
RTVSPropertyOp15
 70
     1
102
RTVSPropertyOp16
 70
     1
102
RTVSPropertyOp17
 70
     1
102
RTVSPropertyOp18
 70
     1
102
RTVSPropertyOp19
 70
     1
102
RTVSPropertyOp20
 70
     1
102
RTVSPropertyOp21
 70
     1
102
RTVSPropertyOp22
 70
     1
102
RTVSPropertyOp23
 70
     1
102
RTVSPropertyOp24
 70
     1
102
RTVSPropertyOp25
 70
     1
102
RTVSPropertyOp26
 70
     1
102
RTVSPropertyOp27
 70
     1
102
RTVSPropertyOp28
 70
     1
102
RTVSPropertyOp29
 70
     1
102
RTVSPropertyOp30
 70
     1
102
RTVSPropertyOp31
 70
     1
102
RTVSPropertyOp32
 70
     1
102
RTVSPropertyOp33
 70
     1
102
RTVSPropertyOp34
 70
     1
102
RTVSPropertyOp35
 70
     1
102
RTVSPropertyOp36
 70
     1
102
RTVSPropertyOp37
 70
     1
102
RTVSPropertyOp38
 70
     1
102
RTVSPropertyOp39
 70
     1
102
RTVSPropertyOp40
 70
     1
102
RTVSPropertyOp41
 70
     1
102
RTVSPropertyOp42
 70
     1
102
RTVSPropertyOp43
 70
     1
102
RTVSPropertyOp44
 70
     1
102
RTVSPropertyOp45
 70
     1
102
RTVSPropertyOp46
 70
     1
102
RTVSPropertyOp47
 70
     1
102
RTVSPropertyOp48
 70
     1
102
RTVSPropertyOp49
 70
     1
102
RTVSPropertyOp50
 70
     1
102
RTVSPropertyOp51
 70
     0
102
RTVSPropertyOp52
 70
     0
102
RTVSPropertyOp53
 70
     1
102
RTVSPropertyOp54
 70
     1
102
RTVSPropertyOp55
 70
     1
102
RTVSPropertyOp56
 70
     1
102
RTVSPropertyOp57
 70
     1
102
RTVSPropertyOp58
 70
     1
102
RTVSPropertyOp59
 70
     1
102
RTVSPropertyOp60
 70
     1
102
RTVSPropertyOp61
 70
     1
102
RTVSPropertyOp62
 70
     1
  0
XRECORD
  5
A9DF
102
{ACAD_REACTORS
330
A9DE
102
}
330
A9DE
100
AcDbXrecord
280
     1
102
RTVSPost2010Prop28
280
     0
102
RTVSPost2010PropOp28
 70
     1
102
RTVSPost2010Prop29
280
     1
102
RTVSPost2010PropOp29
 70
     1
102
RTVSPost2010Prop30
280
     1
102
RTVSPost2010PropOp30
 70
     1
102
RTVSPost2010Prop31
280
     0
102
RTVSPost2010PropOp31
 70
     1
102
RTVSPost2010Prop32
280
     0
102
RTVSPost2010PropOp32
 70
     1
102
RTVSPost2010Prop33
280
     0
102
RTVSPost2010PropOp33
 70
     1
102
RTVSPost2010Prop34
280
     0
102
RTVSPost2010PropOp34
 70
     1
102
RTVSPost2010Prop35
280
     0
102
RTVSPost2010PropOp35
 70
     1
102
RTVSPost2010Prop36
280
     0
102
RTVSPost2010PropOp36
 70
     1
102
RTVSPost2010Prop37
 90
       50
102
RTVSPost2010PropOp37
 70
     1
102
RTVSPost2010Prop38
140
0.0
102
RTVSPost2010PropOp38
 70
     1
102
RTVSPost2010Prop39
140
1.0
102
RTVSPost2010PropOp39
 70
     1
102
RTVSPost2010Prop40
 90
        0
102
RTVSPost2010PropOp40
 70
     1
102
RTVSPost2010Prop41ColorIndex
 90
       18
102
RTVSPost2010Prop41ColorRGB
 90
        0
102
RTVSPost2010PropOp41
 70
     1
102
RTVSPost2010Prop42
 90
       50
102
RTVSPost2010PropOp42
 70
     1
102
RTVSPost2010Prop43
 90
        3
102
RTVSPost2010PropOp43
 70
     1
102
RTVSPost2010Prop44ColorIndex
 90
        5
102
RTVSPost2010Prop44ColorRGB
 90
      255
102
RTVSPost2010PropOp44
 70
     1
102
RTVSPost2010Prop45
280
     0
102
RTVSPost2010PropOp45
 70
     1
102
RTVSPost2010Prop46
 90
       50
102
RTVSPost2010PropOp46
 70
     1
102
RTVSPost2010Prop47
 90
       50
102
RTVSPost2010PropOp47
 70
     1
102
RTVSPost2010Prop48
 90
       50
102
RTVSPost2010PropOp48
 70
     1
102
RTVSPost2010Prop49
280
     0
102
RTVSPost2010PropOp49
 70
     1
102
RTVSPost2010Prop50
 90
       50
102
RTVSPost2010PropOp50
 70
     1
102
RTVSPost2010Prop51ColorIndex
 90
      256
102
RTVSPost2010Prop51ColorRGB
 90
-16777216
102
RTVSPost2010PropOp51
 70
     0
102
RTVSPost2010Prop52
140
1.0
102
RTVSPost2010PropOp52
 70
     0
102
RTVSPost2010Prop53
 90
        2
102
RTVSPost2010PropOp53
 70
     1
102
RTVSPost2010Prop54
  1
strokes_ogs.tif
102
RTVSPost2010PropOp54
 70
     1
102
RTVSPost2010Prop55
280
     0
102
RTVSPost2010PropOp55
 70
     1
102
RTVSPost2010Prop56
140
1.0
102
RTVSPost2010PropOp56
 70
     1
102
RTVSPost2010Prop57
140
1.0
102
RTVSPost2010PropOp57
 70
     1
102
RTVSPropertyOp0
 70
     1
102
RTVSPropertyOp1
 70
     1
102
RTVSPropertyOp2
 70
     1
102
RTVSPropertyOp3
 70
     1
102
RTVSPropertyOp4
 70
     1
102
RTVSPropertyOp5
 70
     1
102
RTVSPropertyOp6
 70
     1
102
RTVSPropertyOp7
 70
     1
102
RTVSPropertyOp8
 70
     1
102
RTVSPropertyOp9
 70
     1
102
RTVSPropertyOp10
 70
     1
102
RTVSPropertyOp11
 70
     1
102
RTVSPropertyOp12
 70
     1
102
RTVSPropertyOp13
 70
     1
102
RTVSPropertyOp14
 70
     1
102
RTVSPropertyOp15
 70
     1
102
RTVSPropertyOp16
 70
     1
102
RTVSPropertyOp17
 70
     1
102
RTVSPropertyOp18
 70
     1
102
RTVSPropertyOp19
 70
     1
102
RTVSPropertyOp20
 70
     1
102
RTVSPropertyOp21
 70
     1
102
RTVSPropertyOp22
 70
     1
102
RTVSPropertyOp23
 70
     1
102
RTVSPropertyOp24
 70
     1
102
RTVSPropertyOp25
 70
     1
102
RTVSPropertyOp26
 70
     1
102
RTVSPropertyOp27
 70
     1
102
RTVSPropertyOp28
 70
     1
102
RTVSPropertyOp29
 70
     1
102
RTVSPropertyOp30
 70
     1
102
RTVSPropertyOp31
 70
     1
102
RTVSPropertyOp32
 70
     1
102
RTVSPropertyOp33
 70
     1
102
RTVSPropertyOp34
 70
     1
102
RTVSPropertyOp35
 70
     1
102
RTVSPropertyOp36
 70
     1
102
RTVSPropertyOp37
 70
     1
102
RTVSPropertyOp38
 70
     1
102
RTVSPropertyOp39
 70
     1
102
RTVSPropertyOp40
 70
     1
102
RTVSPropertyOp41
 70
     1
102
RTVSPropertyOp42
 70
     1
102
RTVSPropertyOp43
 70
     1
102
RTVSPropertyOp44
 70
     1
102
RTVSPropertyOp45
 70
     1
102
RTVSPropertyOp46
 70
     1
102
RTVSPropertyOp47
 70
     1
102
RTVSPropertyOp48
 70
     1
102
RTVSPropertyOp49
 70
     1
102
RTVSPropertyOp50
 70
     1
102
RTVSPropertyOp51
 70
     0
102
RTVSPropertyOp52
 70
     0
102
RTVSPropertyOp53
 70
     1
102
RTVSPropertyOp54
 70
     1
102
RTVSPropertyOp55
 70
     1
102
RTVSPropertyOp56
 70
     1
102
RTVSPropertyOp57
 70
     1
102
RTVSPropertyOp58
 70
     1
102
RTVSPropertyOp59
 70
     1
102
RTVSPropertyOp60
 70
     1
102
RTVSPropertyOp61
 70
     1
102
RTVSPropertyOp62
 70
     1
  0
XRECORD
  5
A9E1
102
{ACAD_REACTORS
330
A9E0
102
}
330
A9E0
100
AcDbXrecord
280
     1
102
RTVSPost2010Prop28
280
     0
102
RTVSPost2010PropOp28
 70
     1
102
RTVSPost2010Prop29
280
     1
102
RTVSPost2010PropOp29
 70
     1
102
RTVSPost2010Prop30
280
     1
102
RTVSPost2010PropOp30
 70
     1
102
RTVSPost2010Prop31
280
     0
102
RTVSPost2010PropOp31
 70
     1
102
RTVSPost2010Prop32
280
     0
102
RTVSPost2010PropOp32
 70
     1
102
RTVSPost2010Prop33
280
     0
102
RTVSPost2010PropOp33
 70
     1
102
RTVSPost2010Prop34
280
     0
102
RTVSPost2010PropOp34
 70
     1
102
RTVSPost2010Prop35
280
     0
102
RTVSPost2010PropOp35
 70
     1
102
RTVSPost2010Prop36
280
     0
102
RTVSPost2010PropOp36
 70
     1
102
RTVSPost2010Prop37
 90
       50
102
RTVSPost2010PropOp37
 70
     1
102
RTVSPost2010Prop38
140
0.0
102
RTVSPost2010PropOp38
 70
     1
102
RTVSPost2010Prop39
140
1.0
102
RTVSPost2010PropOp39
 70
     1
102
RTVSPost2010Prop40
 90
        0
102
RTVSPost2010PropOp40
 70
     1
102
RTVSPost2010Prop41ColorIndex
 90
       18
102
RTVSPost2010Prop41ColorRGB
 90
        0
102
RTVSPost2010PropOp41
 70
     1
102
RTVSPost2010Prop42
 90
       50
102
RTVSPost2010PropOp42
 70
     1
102
RTVSPost2010Prop43
 90
        3
102
RTVSPost2010PropOp43
 70
     1
102
RTVSPost2010Prop44ColorIndex
 90
        5
102
RTVSPost2010Prop44ColorRGB
 90
      255
102
RTVSPost2010PropOp44
 70
     1
102
RTVSPost2010Prop45
280
     0
102
RTVSPost2010PropOp45
 70
     1
102
RTVSPost2010Prop46
 90
       50
102
RTVSPost2010PropOp46
 70
     1
102
RTVSPost2010Prop47
 90
       50
102
RTVSPost2010PropOp47
 70
     1
102
RTVSPost2010Prop48
 90
       50
102
RTVSPost2010PropOp48
 70
     1
102
RTVSPost2010Prop49
280
     0
102
RTVSPost2010PropOp49
 70
     1
102
RTVSPost2010Prop50
 90
       50
102
RTVSPost2010PropOp50
 70
     1
102
RTVSPost2010Prop51ColorIndex
 90
      256
102
RTVSPost2010Prop51ColorRGB
 90
-16777216
102
RTVSPost2010PropOp51
 70
     0
102
RTVSPost2010Prop52
140
1.0
102
RTVSPost2010PropOp52
 70
     0
102
RTVSPost2010Prop53
 90
        2
102
RTVSPost2010PropOp53
 70
     1
102
RTVSPost2010Prop54
  1
strokes_ogs.tif
102
RTVSPost2010PropOp54
 70
     1
102
RTVSPost2010Prop55
280
     0
102
RTVSPost2010PropOp55
 70
     1
102
RTVSPost2010Prop56
140
1.0
102
RTVSPost2010PropOp56
 70
     1
102
RTVSPost2010Prop57
140
1.0
102
RTVSPost2010PropOp57
 70
     1
102
RTVSPropertyOp0
 70
     1
102
RTVSPropertyOp1
 70
     1
102
RTVSPropertyOp2
 70
     1
102
RTVSPropertyOp3
 70
     1
102
RTVSPropertyOp4
 70
     1
102
RTVSPropertyOp5
 70
     1
102
RTVSPropertyOp6
 70
     1
102
RTVSPropertyOp7
 70
     1
102
RTVSPropertyOp8
 70
     1
102
RTVSPropertyOp9
 70
     1
102
RTVSPropertyOp10
 70
     1
102
RTVSPropertyOp11
 70
     1
102
RTVSPropertyOp12
 70
     1
102
RTVSPropertyOp13
 70
     1
102
RTVSPropertyOp14
 70
     1
102
RTVSPropertyOp15
 70
     1
102
RTVSPropertyOp16
 70
     1
102
RTVSPropertyOp17
 70
     1
102
RTVSPropertyOp18
 70
     1
102
RTVSPropertyOp19
 70
     1
102
RTVSPropertyOp20
 70
     1
102
RTVSPropertyOp21
 70
     1
102
RTVSPropertyOp22
 70
     1
102
RTVSPropertyOp23
 70
     1
102
RTVSPropertyOp24
 70
     1
102
RTVSPropertyOp25
 70
     1
102
RTVSPropertyOp26
 70
     1
102
RTVSPropertyOp27
 70
     1
102
RTVSPropertyOp28
 70
     1
102
RTVSPropertyOp29
 70
     1
102
RTVSPropertyOp30
 70
     1
102
RTVSPropertyOp31
 70
     1
102
RTVSPropertyOp32
 70
     1
102
RTVSPropertyOp33
 70
     1
102
RTVSPropertyOp34
 70
     1
102
RTVSPropertyOp35
 70
     1
102
RTVSPropertyOp36
 70
     1
102
RTVSPropertyOp37
 70
     1
102
RTVSPropertyOp38
 70
     1
102
RTVSPropertyOp39
 70
     1
102
RTVSPropertyOp40
 70
     1
102
RTVSPropertyOp41
 70
     1
102
RTVSPropertyOp42
 70
     1
102
RTVSPropertyOp43
 70
     1
102
RTVSPropertyOp44
 70
     1
102
RTVSPropertyOp45
 70
     1
102
RTVSPropertyOp46
 70
     1
102
RTVSPropertyOp47
 70
     1
102
RTVSPropertyOp48
 70
     1
102
RTVSPropertyOp49
 70
     1
102
RTVSPropertyOp50
 70
     1
102
RTVSPropertyOp51
 70
     0
102
RTVSPropertyOp52
 70
     0
102
RTVSPropertyOp53
 70
     1
102
RTVSPropertyOp54
 70
     1
102
RTVSPropertyOp55
 70
     1
102
RTVSPropertyOp56
 70
     1
102
RTVSPropertyOp57
 70
     1
102
RTVSPropertyOp58
 70
     1
102
RTVSPropertyOp59
 70
     1
102
RTVSPropertyOp60
 70
     1
102
RTVSPropertyOp61
 70
     1
102
RTVSPropertyOp62
 70
     1
  0
XRECORD
  5
A9E3
102
{ACAD_REACTORS
330
A9E2
102
}
330
A9E2
100
AcDbXrecord
280
     1
102
RTVSPost2010Prop28
280
     0
102
RTVSPost2010PropOp28
 70
     1
102
RTVSPost2010Prop29
280
     1
102
RTVSPost2010PropOp29
 70
     1
102
RTVSPost2010Prop30
280
     1
102
RTVSPost2010PropOp30
 70
     1
102
RTVSPost2010Prop31
280
     0
102
RTVSPost2010PropOp31
 70
     1
102
RTVSPost2010Prop32
280
     0
102
RTVSPost2010PropOp32
 70
     1
102
RTVSPost2010Prop33
280
     0
102
RTVSPost2010PropOp33
 70
     1
102
RTVSPost2010Prop34
280
     0
102
RTVSPost2010PropOp34
 70
     1
102
RTVSPost2010Prop35
280
     0
102
RTVSPost2010PropOp35
 70
     1
102
RTVSPost2010Prop36
280
     0
102
RTVSPost2010PropOp36
 70
     1
102
RTVSPost2010Prop37
 90
       50
102
RTVSPost2010PropOp37
 70
     1
102
RTVSPost2010Prop38
140
0.0
102
RTVSPost2010PropOp38
 70
     1
102
RTVSPost2010Prop39
140
1.0
102
RTVSPost2010PropOp39
 70
     1
102
RTVSPost2010Prop40
 90
        0
102
RTVSPost2010PropOp40
 70
     1
102
RTVSPost2010Prop41ColorIndex
 90
       18
102
RTVSPost2010Prop41ColorRGB
 90
        0
102
RTVSPost2010PropOp41
 70
     1
102
RTVSPost2010Prop42
 90
       50
102
RTVSPost2010PropOp42
 70
     1
102
RTVSPost2010Prop43
 90
        3
102
RTVSPost2010PropOp43
 70
     1
102
RTVSPost2010Prop44ColorIndex
 90
        5
102
RTVSPost2010Prop44ColorRGB
 90
      255
102
RTVSPost2010PropOp44
 70
     1
102
RTVSPost2010Prop45
280
     0
102
RTVSPost2010PropOp45
 70
     1
102
RTVSPost2010Prop46
 90
       50
102
RTVSPost2010PropOp46
 70
     1
102
RTVSPost2010Prop47
 90
       50
102
RTVSPost2010PropOp47
 70
     1
102
RTVSPost2010Prop48
 90
       50
102
RTVSPost2010PropOp48
 70
     1
102
RTVSPost2010Prop49
280
     0
102
RTVSPost2010PropOp49
 70
     1
102
RTVSPost2010Prop50
 90
       50
102
RTVSPost2010PropOp50
 70
     1
102
RTVSPost2010Prop51ColorIndex
 90
      256
102
RTVSPost2010Prop51ColorRGB
 90
-16777216
102
RTVSPost2010PropOp51
 70
     0
102
RTVSPost2010Prop52
140
1.0
102
RTVSPost2010PropOp52
 70
     0
102
RTVSPost2010Prop53
 90
        2
102
RTVSPost2010PropOp53
 70
     1
102
RTVSPost2010Prop54
  1
strokes_ogs.tif
102
RTVSPost2010PropOp54
 70
     1
102
RTVSPost2010Prop55
280
     0
102
RTVSPost2010PropOp55
 70
     1
102
RTVSPost2010Prop56
140
1.0
102
RTVSPost2010PropOp56
 70
     1
102
RTVSPost2010Prop57
140
1.0
102
RTVSPost2010PropOp57
 70
     1
102
RTVSPropertyOp0
 70
     1
102
RTVSPropertyOp1
 70
     1
102
RTVSPropertyOp2
 70
     1
102
RTVSPropertyOp3
 70
     1
102
RTVSPropertyOp4
 70
     1
102
RTVSPropertyOp5
 70
     1
102
RTVSPropertyOp6
 70
     1
102
RTVSPropertyOp7
 70
     1
102
RTVSPropertyOp8
 70
     1
102
RTVSPropertyOp9
 70
     1
102
RTVSPropertyOp10
 70
     1
102
RTVSPropertyOp11
 70
     1
102
RTVSPropertyOp12
 70
     1
102
RTVSPropertyOp13
 70
     1
102
RTVSPropertyOp14
 70
     1
102
RTVSPropertyOp15
 70
     1
102
RTVSPropertyOp16
 70
     1
102
RTVSPropertyOp17
 70
     1
102
RTVSPropertyOp18
 70
     1
102
RTVSPropertyOp19
 70
     1
102
RTVSPropertyOp20
 70
     1
102
RTVSPropertyOp21
 70
     1
102
RTVSPropertyOp22
 70
     1
102
RTVSPropertyOp23
 70
     1
102
RTVSPropertyOp24
 70
     1
102
RTVSPropertyOp25
 70
     1
102
RTVSPropertyOp26
 70
     1
102
RTVSPropertyOp27
 70
     1
102
RTVSPropertyOp28
 70
     1
102
RTVSPropertyOp29
 70
     1
102
RTVSPropertyOp30
 70
     1
102
RTVSPropertyOp31
 70
     1
102
RTVSPropertyOp32
 70
     1
102
RTVSPropertyOp33
 70
     1
102
RTVSPropertyOp34
 70
     1
102
RTVSPropertyOp35
 70
     1
102
RTVSPropertyOp36
 70
     1
102
RTVSPropertyOp37
 70
     1
102
RTVSPropertyOp38
 70
     1
102
RTVSPropertyOp39
 70
     1
102
RTVSPropertyOp40
 70
     1
102
RTVSPropertyOp41
 70
     1
102
RTVSPropertyOp42
 70
     1
102
RTVSPropertyOp43
 70
     1
102
RTVSPropertyOp44
 70
     1
102
RTVSPropertyOp45
 70
     1
102
RTVSPropertyOp46
 70
     1
102
RTVSPropertyOp47
 70
     1
102
RTVSPropertyOp48
 70
     1
102
RTVSPropertyOp49
 70
     1
102
RTVSPropertyOp50
 70
     1
102
RTVSPropertyOp51
 70
     0
102
RTVSPropertyOp52
 70
     0
102
RTVSPropertyOp53
 70
     1
102
RTVSPropertyOp54
 70
     1
102
RTVSPropertyOp55
 70
     1
102
RTVSPropertyOp56
 70
     1
102
RTVSPropertyOp57
 70
     1
102
RTVSPropertyOp58
 70
     1
102
RTVSPropertyOp59
 70
     1
102
RTVSPropertyOp60
 70
     1
102
RTVSPropertyOp61
 70
     1
102
RTVSPropertyOp62
 70
     1
  0
XRECORD
  5
A9E5
102
{ACAD_REACTORS
330
A9E4
102
}
330
A9E4
100
AcDbXrecord
280
     1
102
RTVSPost2010Prop28
280
     0
102
RTVSPost2010PropOp28
 70
     1
102
RTVSPost2010Prop29
280
     1
102
RTVSPost2010PropOp29
 70
     1
102
RTVSPost2010Prop30
280
     1
102
RTVSPost2010PropOp30
 70
     1
102
RTVSPost2010Prop31
280
     0
102
RTVSPost2010PropOp31
 70
     1
102
RTVSPost2010Prop32
280
     0
102
RTVSPost2010PropOp32
 70
     1
102
RTVSPost2010Prop33
280
     0
102
RTVSPost2010PropOp33
 70
     1
102
RTVSPost2010Prop34
280
     0
102
RTVSPost2010PropOp34
 70
     1
102
RTVSPost2010Prop35
280
     0
102
RTVSPost2010PropOp35
 70
     1
102
RTVSPost2010Prop36
280
     0
102
RTVSPost2010PropOp36
 70
     1
102
RTVSPost2010Prop37
 90
       50
102
RTVSPost2010PropOp37
 70
     1
102
RTVSPost2010Prop38
140
0.0
102
RTVSPost2010PropOp38
 70
     1
102
RTVSPost2010Prop39
140
1.0
102
RTVSPost2010PropOp39
 70
     1
102
RTVSPost2010Prop40
 90
        0
102
RTVSPost2010PropOp40
 70
     1
102
RTVSPost2010Prop41ColorIndex
 90
       18
102
RTVSPost2010Prop41ColorRGB
 90
        0
102
RTVSPost2010PropOp41
 70
     1
102
RTVSPost2010Prop42
 90
       50
102
RTVSPost2010PropOp42
 70
     1
102
RTVSPost2010Prop43
 90
        3
102
RTVSPost2010PropOp43
 70
     1
102
RTVSPost2010Prop44ColorIndex
 90
        5
102
RTVSPost2010Prop44ColorRGB
 90
      255
102
RTVSPost2010PropOp44
 70
     1
102
RTVSPost2010Prop45
280
     0
102
RTVSPost2010PropOp45
 70
     1
102
RTVSPost2010Prop46
 90
       50
102
RTVSPost2010PropOp46
 70
     1
102
RTVSPost2010Prop47
 90
       50
102
RTVSPost2010PropOp47
 70
     1
102
RTVSPost2010Prop48
 90
       50
102
RTVSPost2010PropOp48
 70
     1
102
RTVSPost2010Prop49
280
     0
102
RTVSPost2010PropOp49
 70
     1
102
RTVSPost2010Prop50
 90
       50
102
RTVSPost2010PropOp50
 70
     1
102
RTVSPost2010Prop51ColorIndex
 90
      256
102
RTVSPost2010Prop51ColorRGB
 90
-16777216
102
RTVSPost2010PropOp51
 70
     0
102
RTVSPost2010Prop52
140
1.0
102
RTVSPost2010PropOp52
 70
     0
102
RTVSPost2010Prop53
 90
        2
102
RTVSPost2010PropOp53
 70
     1
102
RTVSPost2010Prop54
  1
strokes_ogs.tif
102
RTVSPost2010PropOp54
 70
     1
102
RTVSPost2010Prop55
280
     0
102
RTVSPost2010PropOp55
 70
     1
102
RTVSPost2010Prop56
140
1.0
102
RTVSPost2010PropOp56
 70
     1
102
RTVSPost2010Prop57
140
1.0
102
RTVSPost2010PropOp57
 70
     1
102
RTVSPropertyOp0
 70
     1
102
RTVSPropertyOp1
 70
     1
102
RTVSPropertyOp2
 70
     1
102
RTVSPropertyOp3
 70
     1
102
RTVSPropertyOp4
 70
     1
102
RTVSPropertyOp5
 70
     1
102
RTVSPropertyOp6
 70
     1
102
RTVSPropertyOp7
 70
     1
102
RTVSPropertyOp8
 70
     1
102
RTVSPropertyOp9
 70
     1
102
RTVSPropertyOp10
 70
     1
102
RTVSPropertyOp11
 70
     1
102
RTVSPropertyOp12
 70
     1
102
RTVSPropertyOp13
 70
     1
102
RTVSPropertyOp14
 70
     1
102
RTVSPropertyOp15
 70
     1
102
RTVSPropertyOp16
 70
     1
102
RTVSPropertyOp17
 70
     1
102
RTVSPropertyOp18
 70
     1
102
RTVSPropertyOp19
 70
     1
102
RTVSPropertyOp20
 70
     1
102
RTVSPropertyOp21
 70
     1
102
RTVSPropertyOp22
 70
     1
102
RTVSPropertyOp23
 70
     1
102
RTVSPropertyOp24
 70
     1
102
RTVSPropertyOp25
 70
     1
102
RTVSPropertyOp26
 70
     1
102
RTVSPropertyOp27
 70
     1
102
RTVSPropertyOp28
 70
     1
102
RTVSPropertyOp29
 70
     1
102
RTVSPropertyOp30
 70
     1
102
RTVSPropertyOp31
 70
     1
102
RTVSPropertyOp32
 70
     1
102
RTVSPropertyOp33
 70
     1
102
RTVSPropertyOp34
 70
     1
102
RTVSPropertyOp35
 70
     1
102
RTVSPropertyOp36
 70
     1
102
RTVSPropertyOp37
 70
     1
102
RTVSPropertyOp38
 70
     1
102
RTVSPropertyOp39
 70
     1
102
RTVSPropertyOp40
 70
     1
102
RTVSPropertyOp41
 70
     1
102
RTVSPropertyOp42
 70
     1
102
RTVSPropertyOp43
 70
     1
102
RTVSPropertyOp44
 70
     1
102
RTVSPropertyOp45
 70
     1
102
RTVSPropertyOp46
 70
     1
102
RTVSPropertyOp47
 70
     1
102
RTVSPropertyOp48
 70
     1
102
RTVSPropertyOp49
 70
     1
102
RTVSPropertyOp50
 70
     1
102
RTVSPropertyOp51
 70
     0
102
RTVSPropertyOp52
 70
     0
102
RTVSPropertyOp53
 70
     1
102
RTVSPropertyOp54
 70
     1
102
RTVSPropertyOp55
 70
     1
102
RTVSPropertyOp56
 70
     1
102
RTVSPropertyOp57
 70
     1
102
RTVSPropertyOp58
 70
     1
102
RTVSPropertyOp59
 70
     1
102
RTVSPropertyOp60
 70
     1
102
RTVSPropertyOp61
 70
     1
102
RTVSPropertyOp62
 70
     1
  0
XRECORD
  5
A9ED
102
{ACAD_REACTORS
330
A9EC
102
}
330
A9EC
100
AcDbXrecord
280
     1
102
RTVSPost2010Prop28
280
     0
102
RTVSPost2010PropOp28
 70
     1
102
RTVSPost2010Prop29
280
     1
102
RTVSPost2010PropOp29
 70
     1
102
RTVSPost2010Prop30
280
     1
102
RTVSPost2010PropOp30
 70
     1
102
RTVSPost2010Prop31
280
     0
102
RTVSPost2010PropOp31
 70
     1
102
RTVSPost2010Prop32
280
     0
102
RTVSPost2010PropOp32
 70
     1
102
RTVSPost2010Prop33
280
     0
102
RTVSPost2010PropOp33
 70
     1
102
RTVSPost2010Prop34
280
     0
102
RTVSPost2010PropOp34
 70
     1
102
RTVSPost2010Prop35
280
     0
102
RTVSPost2010PropOp35
 70
     1
102
RTVSPost2010Prop36
280
     0
102
RTVSPost2010PropOp36
 70
     1
102
RTVSPost2010Prop37
 90
       50
102
RTVSPost2010PropOp37
 70
     1
102
RTVSPost2010Prop38
140
0.0
102
RTVSPost2010PropOp38
 70
     1
102
RTVSPost2010Prop39
140
1.0
102
RTVSPost2010PropOp39
 70
     1
102
RTVSPost2010Prop40
 90
        0
102
RTVSPost2010PropOp40
 70
     1
102
RTVSPost2010Prop41ColorIndex
 90
       18
102
RTVSPost2010Prop41ColorRGB
 90
        0
102
RTVSPost2010PropOp41
 70
     1
102
RTVSPost2010Prop42
 90
       50
102
RTVSPost2010PropOp42
 70
     1
102
RTVSPost2010Prop43
 90
        3
102
RTVSPost2010PropOp43
 70
     1
102
RTVSPost2010Prop44ColorIndex
 90
        5
102
RTVSPost2010Prop44ColorRGB
 90
      255
102
RTVSPost2010PropOp44
 70
     1
102
RTVSPost2010Prop45
280
     0
102
RTVSPost2010PropOp45
 70
     1
102
RTVSPost2010Prop46
 90
       50
102
RTVSPost2010PropOp46
 70
     1
102
RTVSPost2010Prop47
 90
       50
102
RTVSPost2010PropOp47
 70
     1
102
RTVSPost2010Prop48
 90
       50
102
RTVSPost2010PropOp48
 70
     1
102
RTVSPost2010Prop49
280
     0
102
RTVSPost2010PropOp49
 70
     1
102
RTVSPost2010Prop50
 90
       50
102
RTVSPost2010PropOp50
 70
     1
102
RTVSPost2010Prop51ColorIndex
 90
      256
102
RTVSPost2010Prop51ColorRGB
 90
-16777216
102
RTVSPost2010PropOp51
 70
     0
102
RTVSPost2010Prop52
140
1.0
102
RTVSPost2010PropOp52
 70
     0
102
RTVSPost2010Prop53
 90
        2
102
RTVSPost2010PropOp53
 70
     1
102
RTVSPost2010Prop54
  1
strokes_ogs.tif
102
RTVSPost2010PropOp54
 70
     1
102
RTVSPost2010Prop55
280
     0
102
RTVSPost2010PropOp55
 70
     1
102
RTVSPost2010Prop56
140
1.0
102
RTVSPost2010PropOp56
 70
     1
102
RTVSPost2010Prop57
140
1.0
102
RTVSPost2010PropOp57
 70
     1
102
RTVSPropertyOp0
 70
     1
102
RTVSPropertyOp1
 70
     1
102
RTVSPropertyOp2
 70
     1
102
RTVSPropertyOp3
 70
     1
102
RTVSPropertyOp4
 70
     1
102
RTVSPropertyOp5
 70
     1
102
RTVSPropertyOp6
 70
     1
102
RTVSPropertyOp7
 70
     1
102
RTVSPropertyOp8
 70
     1
102
RTVSPropertyOp9
 70
     1
102
RTVSPropertyOp10
 70
     1
102
RTVSPropertyOp11
 70
     1
102
RTVSPropertyOp12
 70
     1
102
RTVSPropertyOp13
 70
     1
102
RTVSPropertyOp14
 70
     1
102
RTVSPropertyOp15
 70
     1
102
RTVSPropertyOp16
 70
     1
102
RTVSPropertyOp17
 70
     1
102
RTVSPropertyOp18
 70
     1
102
RTVSPropertyOp19
 70
     1
102
RTVSPropertyOp20
 70
     1
102
RTVSPropertyOp21
 70
     1
102
RTVSPropertyOp22
 70
     1
102
RTVSPropertyOp23
 70
     1
102
RTVSPropertyOp24
 70
     1
102
RTVSPropertyOp25
 70
     1
102
RTVSPropertyOp26
 70
     1
102
RTVSPropertyOp27
 70
     1
102
RTVSPropertyOp28
 70
     1
102
RTVSPropertyOp29
 70
     1
102
RTVSPropertyOp30
 70
     1
102
RTVSPropertyOp31
 70
     1
102
RTVSPropertyOp32
 70
     1
102
RTVSPropertyOp33
 70
     1
102
RTVSPropertyOp34
 70
     1
102
RTVSPropertyOp35
 70
     1
102
RTVSPropertyOp36
 70
     1
102
RTVSPropertyOp37
 70
     1
102
RTVSPropertyOp38
 70
     1
102
RTVSPropertyOp39
 70
     1
102
RTVSPropertyOp40
 70
     1
102
RTVSPropertyOp41
 70
     1
102
RTVSPropertyOp42
 70
     1
102
RTVSPropertyOp43
 70
     1
102
RTVSPropertyOp44
 70
     1
102
RTVSPropertyOp45
 70
     1
102
RTVSPropertyOp46
 70
     1
102
RTVSPropertyOp47
 70
     1
102
RTVSPropertyOp48
 70
     1
102
RTVSPropertyOp49
 70
     1
102
RTVSPropertyOp50
 70
     1
102
RTVSPropertyOp51
 70
     0
102
RTVSPropertyOp52
 70
     0
102
RTVSPropertyOp53
 70
     1
102
RTVSPropertyOp54
 70
     1
102
RTVSPropertyOp55
 70
     1
102
RTVSPropertyOp56
 70
     1
102
RTVSPropertyOp57
 70
     1
102
RTVSPropertyOp58
 70
     1
102
RTVSPropertyOp59
 70
     1
102
RTVSPropertyOp60
 70
     1
102
RTVSPropertyOp61
 70
     1
102
RTVSPropertyOp62
 70
     1
  0
XRECORD
  5
AA09
102
{ACAD_REACTORS
330
AA08
102
}
330
AA08
100
AcDbXrecord
280
     1
102
RTVSPost2010Prop28
280
     0
102
RTVSPost2010PropOp28
 70
     1
102
RTVSPost2010Prop29
280
     1
102
RTVSPost2010PropOp29
 70
     1
102
RTVSPost2010Prop30
280
     1
102
RTVSPost2010PropOp30
 70
     1
102
RTVSPost2010Prop31
280
     0
102
RTVSPost2010PropOp31
 70
     1
102
RTVSPost2010Prop32
280
     0
102
RTVSPost2010PropOp32
 70
     1
102
RTVSPost2010Prop33
280
     0
102
RTVSPost2010PropOp33
 70
     1
102
RTVSPost2010Prop34
280
     0
102
RTVSPost2010PropOp34
 70
     1
102
RTVSPost2010Prop35
280
     0
102
RTVSPost2010PropOp35
 70
     1
102
RTVSPost2010Prop36
280
     0
102
RTVSPost2010PropOp36
 70
     1
102
RTVSPost2010Prop37
 90
       50
102
RTVSPost2010PropOp37
 70
     0
102
RTVSPost2010Prop38
140
0.0
102
RTVSPost2010PropOp38
 70
     0
102
RTVSPost2010Prop39
140
1.0
102
RTVSPost2010PropOp39
 70
     0
102
RTVSPost2010Prop40
 90
        0
102
RTVSPost2010PropOp40
 70
     0
102
RTVSPost2010Prop41ColorIndex
 90
       18
102
RTVSPost2010Prop41ColorRGB
 90
        0
102
RTVSPost2010PropOp41
 70
     0
102
RTVSPost2010Prop42
 90
       50
102
RTVSPost2010PropOp42
 70
     0
102
RTVSPost2010Prop43
 90
        3
102
RTVSPost2010PropOp43
 70
     0
102
RTVSPost2010Prop44ColorIndex
 90
        5
102
RTVSPost2010Prop44ColorRGB
 90
      255
102
RTVSPost2010PropOp44
 70
     0
102
RTVSPost2010Prop45
280
     0
102
RTVSPost2010PropOp45
 70
     1
102
RTVSPost2010Prop46
 90
       50
102
RTVSPost2010PropOp46
 70
     0
102
RTVSPost2010Prop47
 90
       50
102
RTVSPost2010PropOp47
 70
     0
102
RTVSPost2010Prop48
 90
       50
102
RTVSPost2010PropOp48
 70
     0
102
RTVSPost2010Prop49
280
     0
102
RTVSPost2010PropOp49
 70
     1
102
RTVSPost2010Prop50
 90
       50
102
RTVSPost2010PropOp50
 70
     0
102
RTVSPost2010Prop51ColorIndex
 90
      256
102
RTVSPost2010Prop51ColorRGB
 90
-16777216
102
RTVSPost2010PropOp51
 70
     0
102
RTVSPost2010Prop52
140
1.0
102
RTVSPost2010PropOp52
 70
     0
102
RTVSPost2010Prop53
 90
        2
102
RTVSPost2010PropOp53
 70
     0
102
RTVSPost2010Prop54
  1
strokes_ogs.tif
102
RTVSPost2010PropOp54
 70
     0
102
RTVSPost2010Prop55
280
     0
102
RTVSPost2010PropOp55
 70
     1
102
RTVSPost2010Prop56
140
1.0
102
RTVSPost2010PropOp56
 70
     0
102
RTVSPost2010Prop57
140
1.0
102
RTVSPost2010PropOp57
 70
     0
102
RTVSPropertyOp0
 70
     0
102
RTVSPropertyOp1
 70
     0
102
RTVSPropertyOp2
 70
     0
102
RTVSPropertyOp3
 70
     0
102
RTVSPropertyOp4
 70
     0
102
RTVSPropertyOp5
 70
     0
102
RTVSPropertyOp6
 70
     0
102
RTVSPropertyOp7
 70
     0
102
RTVSPropertyOp8
 70
     0
102
RTVSPropertyOp9
 70
     0
102
RTVSPropertyOp10
 70
     0
102
RTVSPropertyOp11
 70
     0
102
RTVSPropertyOp12
 70
     0
102
RTVSPropertyOp13
 70
     0
102
RTVSPropertyOp14
 70
     2
102
RTVSPropertyOp15
 70
     0
102
RTVSPropertyOp16
 70
     0
102
RTVSPropertyOp17
 70
     0
102
RTVSPropertyOp18
 70
     0
102
RTVSPropertyOp19
 70
     0
102
RTVSPropertyOp20
 70
     0
102
RTVSPropertyOp21
 70
     0
102
RTVSPropertyOp22
 70
     0
102
RTVSPropertyOp23
 70
     0
102
RTVSPropertyOp24
 70
     0
102
RTVSPropertyOp25
 70
     0
102
RTVSPropertyOp26
 70
     0
102
RTVSPropertyOp27
 70
     0
102
RTVSPropertyOp28
 70
     1
102
RTVSPropertyOp29
 70
     1
102
RTVSPropertyOp30
 70
     1
102
RTVSPropertyOp31
 70
     1
102
RTVSPropertyOp32
 70
     1
102
RTVSPropertyOp33
 70
     1
102
RTVSPropertyOp34
 70
     1
102
RTVSPropertyOp35
 70
     1
102
RTVSPropertyOp36
 70
     1
102
RTVSPropertyOp37
 70
     0
102
RTVSPropertyOp38
 70
     0
102
RTVSPropertyOp39
 70
     0
102
RTVSPropertyOp40
 70
     0
102
RTVSPropertyOp41
 70
     0
102
RTVSPropertyOp42
 70
     0
102
RTVSPropertyOp43
 70
     0
102
RTVSPropertyOp44
 70
     0
102
RTVSPropertyOp45
 70
     1
102
RTVSPropertyOp46
 70
     0
102
RTVSPropertyOp47
 70
     0
102
RTVSPropertyOp48
 70
     0
102
RTVSPropertyOp49
 70
     1
102
RTVSPropertyOp50
 70
     0
102
RTVSPropertyOp51
 70
     0
102
RTVSPropertyOp52
 70
     0
102
RTVSPropertyOp53
 70
     0
102
RTVSPropertyOp54
 70
     0
102
RTVSPropertyOp55
 70
     1
102
RTVSPropertyOp56
 70
     0
102
RTVSPropertyOp57
 70
     0
102
RTVSPropertyOp58
 70
     0
102
RTVSPropertyOp59
 70
     0
102
RTVSPropertyOp60
 70
     0
102
RTVSPropertyOp61
 70
     0
102
RTVSPropertyOp62
 70
     0
  0
XRECORD
  5
A9F9
102
{ACAD_REACTORS
330
A9F8
102
}
330
A9F8
100
AcDbXrecord
280
     1
102
RTVSPost2010Prop28
280
     0
102
RTVSPost2010PropOp28
 70
     1
102
RTVSPost2010Prop29
280
     1
102
RTVSPost2010PropOp29
 70
     1
102
RTVSPost2010Prop30
280
     1
102
RTVSPost2010PropOp30
 70
     1
102
RTVSPost2010Prop31
280
     0
102
RTVSPost2010PropOp31
 70
     1
102
RTVSPost2010Prop32
280
     0
102
RTVSPost2010PropOp32
 70
     1
102
RTVSPost2010Prop33
280
     0
102
RTVSPost2010PropOp33
 70
     1
102
RTVSPost2010Prop34
280
     0
102
RTVSPost2010PropOp34
 70
     1
102
RTVSPost2010Prop35
280
     0
102
RTVSPost2010PropOp35
 70
     1
102
RTVSPost2010Prop36
280
     0
102
RTVSPost2010PropOp36
 70
     1
102
RTVSPost2010Prop37
 90
       50
102
RTVSPost2010PropOp37
 70
     1
102
RTVSPost2010Prop38
140
0.0
102
RTVSPost2010PropOp38
 70
     1
102
RTVSPost2010Prop39
140
1.0
102
RTVSPost2010PropOp39
 70
     1
102
RTVSPost2010Prop40
 90
        0
102
RTVSPost2010PropOp40
 70
     1
102
RTVSPost2010Prop41ColorIndex
 90
       18
102
RTVSPost2010Prop41ColorRGB
 90
        0
102
RTVSPost2010PropOp41
 70
     1
102
RTVSPost2010Prop42
 90
       50
102
RTVSPost2010PropOp42
 70
     1
102
RTVSPost2010Prop43
 90
        3
102
RTVSPost2010PropOp43
 70
     1
102
RTVSPost2010Prop44ColorIndex
 90
        5
102
RTVSPost2010Prop44ColorRGB
 90
      255
102
RTVSPost2010PropOp44
 70
     1
102
RTVSPost2010Prop45
280
     0
102
RTVSPost2010PropOp45
 70
     1
102
RTVSPost2010Prop46
 90
       50
102
RTVSPost2010PropOp46
 70
     1
102
RTVSPost2010Prop47
 90
       50
102
RTVSPost2010PropOp47
 70
     1
102
RTVSPost2010Prop48
 90
       50
102
RTVSPost2010PropOp48
 70
     1
102
RTVSPost2010Prop49
280
     0
102
RTVSPost2010PropOp49
 70
     1
102
RTVSPost2010Prop50
 90
       50
102
RTVSPost2010PropOp50
 70
     1
102
RTVSPost2010Prop51ColorIndex
 90
      256
102
RTVSPost2010Prop51ColorRGB
 90
-16777216
102
RTVSPost2010PropOp51
 70
     0
102
RTVSPost2010Prop52
140
1.0
102
RTVSPost2010PropOp52
 70
     0
102
RTVSPost2010Prop53
 90
        2
102
RTVSPost2010PropOp53
 70
     1
102
RTVSPost2010Prop54
  1
strokes_ogs.tif
102
RTVSPost2010PropOp54
 70
     1
102
RTVSPost2010Prop55
280
     0
102
RTVSPost2010PropOp55
 70
     1
102
RTVSPost2010Prop56
140
1.0
102
RTVSPost2010PropOp56
 70
     1
102
RTVSPost2010Prop57
140
1.0
102
RTVSPost2010PropOp57
 70
     1
102
RTVSPropertyOp0
 70
     1
102
RTVSPropertyOp1
 70
     1
102
RTVSPropertyOp2
 70
     1
102
RTVSPropertyOp3
 70
     1
102
RTVSPropertyOp4
 70
     1
102
RTVSPropertyOp5
 70
     1
102
RTVSPropertyOp6
 70
     1
102
RTVSPropertyOp7
 70
     1
102
RTVSPropertyOp8
 70
     1
102
RTVSPropertyOp9
 70
     1
102
RTVSPropertyOp10
 70
     1
102
RTVSPropertyOp11
 70
     1
102
RTVSPropertyOp12
 70
     1
102
RTVSPropertyOp13
 70
     1
102
RTVSPropertyOp14
 70
     1
102
RTVSPropertyOp15
 70
     1
102
RTVSPropertyOp16
 70
     1
102
RTVSPropertyOp17
 70
     1
102
RTVSPropertyOp18
 70
     1
102
RTVSPropertyOp19
 70
     1
102
RTVSPropertyOp20
 70
     1
102
RTVSPropertyOp21
 70
     1
102
RTVSPropertyOp22
 70
     1
102
RTVSPropertyOp23
 70
     1
102
RTVSPropertyOp24
 70
     1
102
RTVSPropertyOp25
 70
     1
102
RTVSPropertyOp26
 70
     1
102
RTVSPropertyOp27
 70
     1
102
RTVSPropertyOp28
 70
     1
102
RTVSPropertyOp29
 70
     1
102
RTVSPropertyOp30
 70
     1
102
RTVSPropertyOp31
 70
     1
102
RTVSPropertyOp32
 70
     1
102
RTVSPropertyOp33
 70
     1
102
RTVSPropertyOp34
 70
     1
102
RTVSPropertyOp35
 70
     1
102
RTVSPropertyOp36
 70
     1
102
RTVSPropertyOp37
 70
     1
102
RTVSPropertyOp38
 70
     1
102
RTVSPropertyOp39
 70
     1
102
RTVSPropertyOp40
 70
     1
102
RTVSPropertyOp41
 70
     1
102
RTVSPropertyOp42
 70
     1
102
RTVSPropertyOp43
 70
     1
102
RTVSPropertyOp44
 70
     1
102
RTVSPropertyOp45
 70
     1
102
RTVSPropertyOp46
 70
     1
102
RTVSPropertyOp47
 70
     1
102
RTVSPropertyOp48
 70
     1
102
RTVSPropertyOp49
 70
     1
102
RTVSPropertyOp50
 70
     1
102
RTVSPropertyOp51
 70
     0
102
RTVSPropertyOp52
 70
     0
102
RTVSPropertyOp53
 70
     1
102
RTVSPropertyOp54
 70
     1
102
RTVSPropertyOp55
 70
     1
102
RTVSPropertyOp56
 70
     1
102
RTVSPropertyOp57
 70
     1
102
RTVSPropertyOp58
 70
     1
102
RTVSPropertyOp59
 70
     1
102
RTVSPropertyOp60
 70
     1
102
RTVSPropertyOp61
 70
     1
102
RTVSPropertyOp62
 70
     1
  0
XRECORD
  5
AA0B
102
{ACAD_REACTORS
330
AA0A
102
}
330
AA0A
100
AcDbXrecord
280
     1
102
RTVSPost2010Prop28
280
     0
102
RTVSPost2010PropOp28
 70
     1
102
RTVSPost2010Prop29
280
     1
102
RTVSPost2010PropOp29
 70
     1
102
RTVSPost2010Prop30
280
     1
102
RTVSPost2010PropOp30
 70
     1
102
RTVSPost2010Prop31
280
     0
102
RTVSPost2010PropOp31
 70
     1
102
RTVSPost2010Prop32
280
     0
102
RTVSPost2010PropOp32
 70
     1
102
RTVSPost2010Prop33
280
     0
102
RTVSPost2010PropOp33
 70
     1
102
RTVSPost2010Prop34
280
     0
102
RTVSPost2010PropOp34
 70
     1
102
RTVSPost2010Prop35
280
     0
102
RTVSPost2010PropOp35
 70
     1
102
RTVSPost2010Prop36
280
     0
102
RTVSPost2010PropOp36
 70
     1
102
RTVSPost2010Prop37
 90
       50
102
RTVSPost2010PropOp37
 70
     0
102
RTVSPost2010Prop38
140
0.0
102
RTVSPost2010PropOp38
 70
     0
102
RTVSPost2010Prop39
140
1.0
102
RTVSPost2010PropOp39
 70
     0
102
RTVSPost2010Prop40
 90
        0
102
RTVSPost2010PropOp40
 70
     0
102
RTVSPost2010Prop41ColorIndex
 90
       18
102
RTVSPost2010Prop41ColorRGB
 90
        0
102
RTVSPost2010PropOp41
 70
     0
102
RTVSPost2010Prop42
 90
       50
102
RTVSPost2010PropOp42
 70
     0
102
RTVSPost2010Prop43
 90
        3
102
RTVSPost2010PropOp43
 70
     0
102
RTVSPost2010Prop44ColorIndex
 90
        5
102
RTVSPost2010Prop44ColorRGB
 90
      255
102
RTVSPost2010PropOp44
 70
     0
102
RTVSPost2010Prop45
280
     0
102
RTVSPost2010PropOp45
 70
     1
102
RTVSPost2010Prop46
 90
       50
102
RTVSPost2010PropOp46
 70
     0
102
RTVSPost2010Prop47
 90
       50
102
RTVSPost2010PropOp47
 70
     0
102
RTVSPost2010Prop48
 90
       50
102
RTVSPost2010PropOp48
 70
     0
102
RTVSPost2010Prop49
280
     0
102
RTVSPost2010PropOp49
 70
     1
102
RTVSPost2010Prop50
 90
       50
102
RTVSPost2010PropOp50
 70
     0
102
RTVSPost2010Prop51ColorIndex
 90
      256
102
RTVSPost2010Prop51ColorRGB
 90
-16777216
102
RTVSPost2010PropOp51
 70
     0
102
RTVSPost2010Prop52
140
1.0
102
RTVSPost2010PropOp52
 70
     0
102
RTVSPost2010Prop53
 90
        2
102
RTVSPost2010PropOp53
 70
     0
102
RTVSPost2010Prop54
  1
strokes_ogs.tif
102
RTVSPost2010PropOp54
 70
     0
102
RTVSPost2010Prop55
280
     0
102
RTVSPost2010PropOp55
 70
     1
102
RTVSPost2010Prop56
140
1.0
102
RTVSPost2010PropOp56
 70
     0
102
RTVSPost2010Prop57
140
1.0
102
RTVSPost2010PropOp57
 70
     0
102
RTVSPropertyOp0
 70
     0
102
RTVSPropertyOp1
 70
     0
102
RTVSPropertyOp2
 70
     0
102
RTVSPropertyOp3
 70
     0
102
RTVSPropertyOp4
 70
     0
102
RTVSPropertyOp5
 70
     0
102
RTVSPropertyOp6
 70
     0
102
RTVSPropertyOp7
 70
     0
102
RTVSPropertyOp8
 70
     0
102
RTVSPropertyOp9
 70
     0
102
RTVSPropertyOp10
 70
     0
102
RTVSPropertyOp11
 70
     0
102
RTVSPropertyOp12
 70
     0
102
RTVSPropertyOp13
 70
     0
102
RTVSPropertyOp14
 70
     2
102
RTVSPropertyOp15
 70
     0
102
RTVSPropertyOp16
 70
     0
102
RTVSPropertyOp17
 70
     0
102
RTVSPropertyOp18
 70
     0
102
RTVSPropertyOp19
 70
     0
102
RTVSPropertyOp20
 70
     0
102
RTVSPropertyOp21
 70
     0
102
RTVSPropertyOp22
 70
     0
102
RTVSPropertyOp23
 70
     0
102
RTVSPropertyOp24
 70
     0
102
RTVSPropertyOp25
 70
     0
102
RTVSPropertyOp26
 70
     0
102
RTVSPropertyOp27
 70
     0
102
RTVSPropertyOp28
 70
     1
102
RTVSPropertyOp29
 70
     1
102
RTVSPropertyOp30
 70
     1
102
RTVSPropertyOp31
 70
     1
102
RTVSPropertyOp32
 70
     1
102
RTVSPropertyOp33
 70
     1
102
RTVSPropertyOp34
 70
     1
102
RTVSPropertyOp35
 70
     1
102
RTVSPropertyOp36
 70
     1
102
RTVSPropertyOp37
 70
     0
102
RTVSPropertyOp38
 70
     0
102
RTVSPropertyOp39
 70
     0
102
RTVSPropertyOp40
 70
     0
102
RTVSPropertyOp41
 70
     0
102
RTVSPropertyOp42
 70
     0
102
RTVSPropertyOp43
 70
     0
102
RTVSPropertyOp44
 70
     0
102
RTVSPropertyOp45
 70
     1
102
RTVSPropertyOp46
 70
     0
102
RTVSPropertyOp47
 70
     0
102
RTVSPropertyOp48
 70
     0
102
RTVSPropertyOp49
 70
     1
102
RTVSPropertyOp50
 70
     0
102
RTVSPropertyOp51
 70
     0
102
RTVSPropertyOp52
 70
     0
102
RTVSPropertyOp53
 70
     0
102
RTVSPropertyOp54
 70
     0
102
RTVSPropertyOp55
 70
     1
102
RTVSPropertyOp56
 70
     0
102
RTVSPropertyOp57
 70
     0
102
RTVSPropertyOp58
 70
     0
102
RTVSPropertyOp59
 70
     0
102
RTVSPropertyOp60
 70
     0
102
RTVSPropertyOp61
 70
     0
102
RTVSPropertyOp62
 70
     0
  0
XRECORD
  5
A9F1
102
{ACAD_REACTORS
330
A9F0
102
}
330
A9F0
100
AcDbXrecord
280
     1
102
RTVSPost2010Prop28
280
     0
102
RTVSPost2010PropOp28
 70
     1
102
RTVSPost2010Prop29
280
     1
102
RTVSPost2010PropOp29
 70
     1
102
RTVSPost2010Prop30
280
     1
102
RTVSPost2010PropOp30
 70
     1
102
RTVSPost2010Prop31
280
     0
102
RTVSPost2010PropOp31
 70
     1
102
RTVSPost2010Prop32
280
     0
102
RTVSPost2010PropOp32
 70
     1
102
RTVSPost2010Prop33
280
     0
102
RTVSPost2010PropOp33
 70
     1
102
RTVSPost2010Prop34
280
     0
102
RTVSPost2010PropOp34
 70
     1
102
RTVSPost2010Prop35
280
     0
102
RTVSPost2010PropOp35
 70
     1
102
RTVSPost2010Prop36
280
     0
102
RTVSPost2010PropOp36
 70
     1
102
RTVSPost2010Prop37
 90
       50
102
RTVSPost2010PropOp37
 70
     1
102
RTVSPost2010Prop38
140
0.0
102
RTVSPost2010PropOp38
 70
     1
102
RTVSPost2010Prop39
140
1.0
102
RTVSPost2010PropOp39
 70
     1
102
RTVSPost2010Prop40
 90
        0
102
RTVSPost2010PropOp40
 70
     1
102
RTVSPost2010Prop41ColorIndex
 90
       18
102
RTVSPost2010Prop41ColorRGB
 90
        0
102
RTVSPost2010PropOp41
 70
     1
102
RTVSPost2010Prop42
 90
       50
102
RTVSPost2010PropOp42
 70
     1
102
RTVSPost2010Prop43
 90
        3
102
RTVSPost2010PropOp43
 70
     1
102
RTVSPost2010Prop44ColorIndex
 90
        5
102
RTVSPost2010Prop44ColorRGB
 90
      255
102
RTVSPost2010PropOp44
 70
     1
102
RTVSPost2010Prop45
280
     0
102
RTVSPost2010PropOp45
 70
     1
102
RTVSPost2010Prop46
 90
       50
102
RTVSPost2010PropOp46
 70
     1
102
RTVSPost2010Prop47
 90
       50
102
RTVSPost2010PropOp47
 70
     1
102
RTVSPost2010Prop48
 90
       50
102
RTVSPost2010PropOp48
 70
     1
102
RTVSPost2010Prop49
280
     0
102
RTVSPost2010PropOp49
 70
     1
102
RTVSPost2010Prop50
 90
       50
102
RTVSPost2010PropOp50
 70
     1
102
RTVSPost2010Prop51ColorIndex
 90
      256
102
RTVSPost2010Prop51ColorRGB
 90
-16777216
102
RTVSPost2010PropOp51
 70
     0
102
RTVSPost2010Prop52
140
1.0
102
RTVSPost2010PropOp52
 70
     0
102
RTVSPost2010Prop53
 90
        2
102
RTVSPost2010PropOp53
 70
     1
102
RTVSPost2010Prop54
  1
strokes_ogs.tif
102
RTVSPost2010PropOp54
 70
     1
102
RTVSPost2010Prop55
280
     0
102
RTVSPost2010PropOp55
 70
     1
102
RTVSPost2010Prop56
140
1.0
102
RTVSPost2010PropOp56
 70
     1
102
RTVSPost2010Prop57
140
1.0
102
RTVSPost2010PropOp57
 70
     1
102
RTVSPropertyOp0
 70
     1
102
RTVSPropertyOp1
 70
     1
102
RTVSPropertyOp2
 70
     1
102
RTVSPropertyOp3
 70
     1
102
RTVSPropertyOp4
 70
     1
102
RTVSPropertyOp5
 70
     1
102
RTVSPropertyOp6
 70
     1
102
RTVSPropertyOp7
 70
     1
102
RTVSPropertyOp8
 70
     1
102
RTVSPropertyOp9
 70
     1
102
RTVSPropertyOp10
 70
     1
102
RTVSPropertyOp11
 70
     1
102
RTVSPropertyOp12
 70
     1
102
RTVSPropertyOp13
 70
     1
102
RTVSPropertyOp14
 70
     1
102
RTVSPropertyOp15
 70
     1
102
RTVSPropertyOp16
 70
     1
102
RTVSPropertyOp17
 70
     1
102
RTVSPropertyOp18
 70
     1
102
RTVSPropertyOp19
 70
     1
102
RTVSPropertyOp20
 70
     1
102
RTVSPropertyOp21
 70
     1
102
RTVSPropertyOp22
 70
     1
102
RTVSPropertyOp23
 70
     1
102
RTVSPropertyOp24
 70
     1
102
RTVSPropertyOp25
 70
     1
102
RTVSPropertyOp26
 70
     1
102
RTVSPropertyOp27
 70
     1
102
RTVSPropertyOp28
 70
     1
102
RTVSPropertyOp29
 70
     1
102
RTVSPropertyOp30
 70
     1
102
RTVSPropertyOp31
 70
     1
102
RTVSPropertyOp32
 70
     1
102
RTVSPropertyOp33
 70
     1
102
RTVSPropertyOp34
 70
     1
102
RTVSPropertyOp35
 70
     1
102
RTVSPropertyOp36
 70
     1
102
RTVSPropertyOp37
 70
     1
102
RTVSPropertyOp38
 70
     1
102
RTVSPropertyOp39
 70
     1
102
RTVSPropertyOp40
 70
     1
102
RTVSPropertyOp41
 70
     1
102
RTVSPropertyOp42
 70
     1
102
RTVSPropertyOp43
 70
     1
102
RTVSPropertyOp44
 70
     1
102
RTVSPropertyOp45
 70
     1
102
RTVSPropertyOp46
 70
     1
102
RTVSPropertyOp47
 70
     1
102
RTVSPropertyOp48
 70
     1
102
RTVSPropertyOp49
 70
     1
102
RTVSPropertyOp50
 70
     1
102
RTVSPropertyOp51
 70
     0
102
RTVSPropertyOp52
 70
     0
102
RTVSPropertyOp53
 70
     1
102
RTVSPropertyOp54
 70
     1
102
RTVSPropertyOp55
 70
     1
102
RTVSPropertyOp56
 70
     1
102
RTVSPropertyOp57
 70
     1
102
RTVSPropertyOp58
 70
     1
102
RTVSPropertyOp59
 70
     1
102
RTVSPropertyOp60
 70
     1
102
RTVSPropertyOp61
 70
     1
102
RTVSPropertyOp62
 70
     1
  0
XRECORD
  5
AA07
102
{ACAD_REACTORS
330
AA06
102
}
330
AA06
100
AcDbXrecord
280
     1
102
RTVSPost2010Prop28
280
     0
102
RTVSPost2010PropOp28
 70
     1
102
RTVSPost2010Prop29
280
     1
102
RTVSPost2010PropOp29
 70
     1
102
RTVSPost2010Prop30
280
     1
102
RTVSPost2010PropOp30
 70
     1
102
RTVSPost2010Prop31
280
     0
102
RTVSPost2010PropOp31
 70
     1
102
RTVSPost2010Prop32
280
     0
102
RTVSPost2010PropOp32
 70
     1
102
RTVSPost2010Prop33
280
     0
102
RTVSPost2010PropOp33
 70
     1
102
RTVSPost2010Prop34
280
     0
102
RTVSPost2010PropOp34
 70
     1
102
RTVSPost2010Prop35
280
     0
102
RTVSPost2010PropOp35
 70
     1
102
RTVSPost2010Prop36
280
     0
102
RTVSPost2010PropOp36
 70
     1
102
RTVSPost2010Prop37
 90
       50
102
RTVSPost2010PropOp37
 70
     1
102
RTVSPost2010Prop38
140
0.0
102
RTVSPost2010PropOp38
 70
     1
102
RTVSPost2010Prop39
140
1.0
102
RTVSPost2010PropOp39
 70
     1
102
RTVSPost2010Prop40
 90
        0
102
RTVSPost2010PropOp40
 70
     1
102
RTVSPost2010Prop41ColorIndex
 90
       18
102
RTVSPost2010Prop41ColorRGB
 90
        0
102
RTVSPost2010PropOp41
 70
     1
102
RTVSPost2010Prop42
 90
       50
102
RTVSPost2010PropOp42
 70
     1
102
RTVSPost2010Prop43
 90
        3
102
RTVSPost2010PropOp43
 70
     1
102
RTVSPost2010Prop44ColorIndex
 90
        5
102
RTVSPost2010Prop44ColorRGB
 90
      255
102
RTVSPost2010PropOp44
 70
     1
102
RTVSPost2010Prop45
280
     0
102
RTVSPost2010PropOp45
 70
     1
102
RTVSPost2010Prop46
 90
       50
102
RTVSPost2010PropOp46
 70
     1
102
RTVSPost2010Prop47
 90
       50
102
RTVSPost2010PropOp47
 70
     1
102
RTVSPost2010Prop48
 90
       50
102
RTVSPost2010PropOp48
 70
     1
102
RTVSPost2010Prop49
280
     0
102
RTVSPost2010PropOp49
 70
     1
102
RTVSPost2010Prop50
 90
       50
102
RTVSPost2010PropOp50
 70
     1
102
RTVSPost2010Prop51ColorIndex
 90
      256
102
RTVSPost2010Prop51ColorRGB
 90
-16777216
102
RTVSPost2010PropOp51
 70
     0
102
RTVSPost2010Prop52
140
1.0
102
RTVSPost2010PropOp52
 70
     0
102
RTVSPost2010Prop53
 90
        2
102
RTVSPost2010PropOp53
 70
     1
102
RTVSPost2010Prop54
  1
strokes_ogs.tif
102
RTVSPost2010PropOp54
 70
     1
102
RTVSPost2010Prop55
280
     0
102
RTVSPost2010PropOp55
 70
     1
102
RTVSPost2010Prop56
140
1.0
102
RTVSPost2010PropOp56
 70
     1
102
RTVSPost2010Prop57
140
1.0
102
RTVSPost2010PropOp57
 70
     1
102
RTVSPropertyOp0
 70
     1
102
RTVSPropertyOp1
 70
     1
102
RTVSPropertyOp2
 70
     1
102
RTVSPropertyOp3
 70
     1
102
RTVSPropertyOp4
 70
     1
102
RTVSPropertyOp5
 70
     1
102
RTVSPropertyOp6
 70
     1
102
RTVSPropertyOp7
 70
     1
102
RTVSPropertyOp8
 70
     1
102
RTVSPropertyOp9
 70
     1
102
RTVSPropertyOp10
 70
     1
102
RTVSPropertyOp11
 70
     1
102
RTVSPropertyOp12
 70
     1
102
RTVSPropertyOp13
 70
     1
102
RTVSPropertyOp14
 70
     1
102
RTVSPropertyOp15
 70
     1
102
RTVSPropertyOp16
 70
     1
102
RTVSPropertyOp17
 70
     1
102
RTVSPropertyOp18
 70
     1
102
RTVSPropertyOp19
 70
     1
102
RTVSPropertyOp20
 70
     1
102
RTVSPropertyOp21
 70
     1
102
RTVSPropertyOp22
 70
     1
102
RTVSPropertyOp23
 70
     1
102
RTVSPropertyOp24
 70
     1
102
RTVSPropertyOp25
 70
     1
102
RTVSPropertyOp26
 70
     1
102
RTVSPropertyOp27
 70
     1
102
RTVSPropertyOp28
 70
     1
102
RTVSPropertyOp29
 70
     1
102
RTVSPropertyOp30
 70
     1
102
RTVSPropertyOp31
 70
     1
102
RTVSPropertyOp32
 70
     1
102
RTVSPropertyOp33
 70
     1
102
RTVSPropertyOp34
 70
     1
102
RTVSPropertyOp35
 70
     1
102
RTVSPropertyOp36
 70
     1
102
RTVSPropertyOp37
 70
     1
102
RTVSPropertyOp38
 70
     1
102
RTVSPropertyOp39
 70
     1
102
RTVSPropertyOp40
 70
     1
102
RTVSPropertyOp41
 70
     1
102
RTVSPropertyOp42
 70
     1
102
RTVSPropertyOp43
 70
     1
102
RTVSPropertyOp44
 70
     1
102
RTVSPropertyOp45
 70
     1
102
RTVSPropertyOp46
 70
     1
102
RTVSPropertyOp47
 70
     1
102
RTVSPropertyOp48
 70
     1
102
RTVSPropertyOp49
 70
     1
102
RTVSPropertyOp50
 70
     1
102
RTVSPropertyOp51
 70
     0
102
RTVSPropertyOp52
 70
     0
102
RTVSPropertyOp53
 70
     1
102
RTVSPropertyOp54
 70
     1
102
RTVSPropertyOp55
 70
     1
102
RTVSPropertyOp56
 70
     1
102
RTVSPropertyOp57
 70
     1
102
RTVSPropertyOp58
 70
     1
102
RTVSPropertyOp59
 70
     1
102
RTVSPropertyOp60
 70
     1
102
RTVSPropertyOp61
 70
     1
102
RTVSPropertyOp62
 70
     1
  0
XRECORD
  5
AA05
102
{ACAD_REACTORS
330
AA04
102
}
330
AA04
100
AcDbXrecord
280
     1
102
RTVSPost2010Prop28
280
     0
102
RTVSPost2010PropOp28
 70
     1
102
RTVSPost2010Prop29
280
     1
102
RTVSPost2010PropOp29
 70
     1
102
RTVSPost2010Prop30
280
     1
102
RTVSPost2010PropOp30
 70
     1
102
RTVSPost2010Prop31
280
     0
102
RTVSPost2010PropOp31
 70
     1
102
RTVSPost2010Prop32
280
     0
102
RTVSPost2010PropOp32
 70
     1
102
RTVSPost2010Prop33
280
     0
102
RTVSPost2010PropOp33
 70
     1
102
RTVSPost2010Prop34
280
     0
102
RTVSPost2010PropOp34
 70
     1
102
RTVSPost2010Prop35
280
     0
102
RTVSPost2010PropOp35
 70
     1
102
RTVSPost2010Prop36
280
     0
102
RTVSPost2010PropOp36
 70
     1
102
RTVSPost2010Prop37
 90
       50
102
RTVSPost2010PropOp37
 70
     1
102
RTVSPost2010Prop38
140
0.0
102
RTVSPost2010PropOp38
 70
     1
102
RTVSPost2010Prop39
140
1.0
102
RTVSPost2010PropOp39
 70
     1
102
RTVSPost2010Prop40
 90
        0
102
RTVSPost2010PropOp40
 70
     1
102
RTVSPost2010Prop41ColorIndex
 90
       18
102
RTVSPost2010Prop41ColorRGB
 90
        0
102
RTVSPost2010PropOp41
 70
     1
102
RTVSPost2010Prop42
 90
       50
102
RTVSPost2010PropOp42
 70
     1
102
RTVSPost2010Prop43
 90
        3
102
RTVSPost2010PropOp43
 70
     1
102
RTVSPost2010Prop44ColorIndex
 90
        5
102
RTVSPost2010Prop44ColorRGB
 90
      255
102
RTVSPost2010PropOp44
 70
     1
102
RTVSPost2010Prop45
280
     0
102
RTVSPost2010PropOp45
 70
     1
102
RTVSPost2010Prop46
 90
       50
102
RTVSPost2010PropOp46
 70
     1
102
RTVSPost2010Prop47
 90
       50
102
RTVSPost2010PropOp47
 70
     1
102
RTVSPost2010Prop48
 90
       50
102
RTVSPost2010PropOp48
 70
     1
102
RTVSPost2010Prop49
280
     0
102
RTVSPost2010PropOp49
 70
     1
102
RTVSPost2010Prop50
 90
       50
102
RTVSPost2010PropOp50
 70
     1
102
RTVSPost2010Prop51ColorIndex
 90
      256
102
RTVSPost2010Prop51ColorRGB
 90
-16777216
102
RTVSPost2010PropOp51
 70
     0
102
RTVSPost2010Prop52
140
1.0
102
RTVSPost2010PropOp52
 70
     0
102
RTVSPost2010Prop53
 90
        2
102
RTVSPost2010PropOp53
 70
     1
102
RTVSPost2010Prop54
  1
strokes_ogs.tif
102
RTVSPost2010PropOp54
 70
     1
102
RTVSPost2010Prop55
280
     0
102
RTVSPost2010PropOp55
 70
     1
102
RTVSPost2010Prop56
140
1.0
102
RTVSPost2010PropOp56
 70
     1
102
RTVSPost2010Prop57
140
1.0
102
RTVSPost2010PropOp57
 70
     1
102
RTVSPropertyOp0
 70
     1
102
RTVSPropertyOp1
 70
     1
102
RTVSPropertyOp2
 70
     1
102
RTVSPropertyOp3
 70
     1
102
RTVSPropertyOp4
 70
     1
102
RTVSPropertyOp5
 70
     1
102
RTVSPropertyOp6
 70
     1
102
RTVSPropertyOp7
 70
     1
102
RTVSPropertyOp8
 70
     1
102
RTVSPropertyOp9
 70
     1
102
RTVSPropertyOp10
 70
     1
102
RTVSPropertyOp11
 70
     1
102
RTVSPropertyOp12
 70
     1
102
RTVSPropertyOp13
 70
     1
102
RTVSPropertyOp14
 70
     1
102
RTVSPropertyOp15
 70
     1
102
RTVSPropertyOp16
 70
     1
102
RTVSPropertyOp17
 70
     1
102
RTVSPropertyOp18
 70
     1
102
RTVSPropertyOp19
 70
     1
102
RTVSPropertyOp20
 70
     1
102
RTVSPropertyOp21
 70
     1
102
RTVSPropertyOp22
 70
     1
102
RTVSPropertyOp23
 70
     1
102
RTVSPropertyOp24
 70
     1
102
RTVSPropertyOp25
 70
     1
102
RTVSPropertyOp26
 70
     1
102
RTVSPropertyOp27
 70
     1
102
RTVSPropertyOp28
 70
     1
102
RTVSPropertyOp29
 70
     1
102
RTVSPropertyOp30
 70
     1
102
RTVSPropertyOp31
 70
     1
102
RTVSPropertyOp32
 70
     1
102
RTVSPropertyOp33
 70
     1
102
RTVSPropertyOp34
 70
     1
102
RTVSPropertyOp35
 70
     1
102
RTVSPropertyOp36
 70
     1
102
RTVSPropertyOp37
 70
     1
102
RTVSPropertyOp38
 70
     1
102
RTVSPropertyOp39
 70
     1
102
RTVSPropertyOp40
 70
     1
102
RTVSPropertyOp41
 70
     1
102
RTVSPropertyOp42
 70
     1
102
RTVSPropertyOp43
 70
     1
102
RTVSPropertyOp44
 70
     1
102
RTVSPropertyOp45
 70
     1
102
RTVSPropertyOp46
 70
     1
102
RTVSPropertyOp47
 70
     1
102
RTVSPropertyOp48
 70
     1
102
RTVSPropertyOp49
 70
     1
102
RTVSPropertyOp50
 70
     1
102
RTVSPropertyOp51
 70
     0
102
RTVSPropertyOp52
 70
     0
102
RTVSPropertyOp53
 70
     1
102
RTVSPropertyOp54
 70
     1
102
RTVSPropertyOp55
 70
     1
102
RTVSPropertyOp56
 70
     1
102
RTVSPropertyOp57
 70
     1
102
RTVSPropertyOp58
 70
     1
102
RTVSPropertyOp59
 70
     1
102
RTVSPropertyOp60
 70
     1
102
RTVSPropertyOp61
 70
     1
102
RTVSPropertyOp62
 70
     1
  0
XRECORD
  5
A9FF
102
{ACAD_REACTORS
330
A9FE
102
}
330
A9FE
100
AcDbXrecord
280
     1
102
RTVSPost2010Prop28
280
     0
102
RTVSPost2010PropOp28
 70
     1
102
RTVSPost2010Prop29
280
     1
102
RTVSPost2010PropOp29
 70
     1
102
RTVSPost2010Prop30
280
     1
102
RTVSPost2010PropOp30
 70
     1
102
RTVSPost2010Prop31
280
     0
102
RTVSPost2010PropOp31
 70
     1
102
RTVSPost2010Prop32
280
     0
102
RTVSPost2010PropOp32
 70
     1
102
RTVSPost2010Prop33
280
     0
102
RTVSPost2010PropOp33
 70
     1
102
RTVSPost2010Prop34
280
     0
102
RTVSPost2010PropOp34
 70
     1
102
RTVSPost2010Prop35
280
     0
102
RTVSPost2010PropOp35
 70
     1
102
RTVSPost2010Prop36
280
     0
102
RTVSPost2010PropOp36
 70
     1
102
RTVSPost2010Prop37
 90
       50
102
RTVSPost2010PropOp37
 70
     1
102
RTVSPost2010Prop38
140
0.0
102
RTVSPost2010PropOp38
 70
     1
102
RTVSPost2010Prop39
140
1.0
102
RTVSPost2010PropOp39
 70
     1
102
RTVSPost2010Prop40
 90
        0
102
RTVSPost2010PropOp40
 70
     1
102
RTVSPost2010Prop41ColorIndex
 90
       18
102
RTVSPost2010Prop41ColorRGB
 90
        0
102
RTVSPost2010PropOp41
 70
     1
102
RTVSPost2010Prop42
 90
       50
102
RTVSPost2010PropOp42
 70
     1
102
RTVSPost2010Prop43
 90
        3
102
RTVSPost2010PropOp43
 70
     1
102
RTVSPost2010Prop44ColorIndex
 90
        5
102
RTVSPost2010Prop44ColorRGB
 90
      255
102
RTVSPost2010PropOp44
 70
     1
102
RTVSPost2010Prop45
280
     0
102
RTVSPost2010PropOp45
 70
     1
102
RTVSPost2010Prop46
 90
       50
102
RTVSPost2010PropOp46
 70
     1
102
RTVSPost2010Prop47
 90
       50
102
RTVSPost2010PropOp47
 70
     1
102
RTVSPost2010Prop48
 90
       50
102
RTVSPost2010PropOp48
 70
     1
102
RTVSPost2010Prop49
280
     0
102
RTVSPost2010PropOp49
 70
     1
102
RTVSPost2010Prop50
 90
       50
102
RTVSPost2010PropOp50
 70
     1
102
RTVSPost2010Prop51ColorIndex
 90
      256
102
RTVSPost2010Prop51ColorRGB
 90
-16777216
102
RTVSPost2010PropOp51
 70
     0
102
RTVSPost2010Prop52
140
1.0
102
RTVSPost2010PropOp52
 70
     0
102
RTVSPost2010Prop53
 90
        2
102
RTVSPost2010PropOp53
 70
     1
102
RTVSPost2010Prop54
  1
strokes_ogs.tif
102
RTVSPost2010PropOp54
 70
     1
102
RTVSPost2010Prop55
280
     0
102
RTVSPost2010PropOp55
 70
     1
102
RTVSPost2010Prop56
140
1.0
102
RTVSPost2010PropOp56
 70
     1
102
RTVSPost2010Prop57
140
1.0
102
RTVSPost2010PropOp57
 70
     1
102
RTVSPropertyOp0
 70
     1
102
RTVSPropertyOp1
 70
     1
102
RTVSPropertyOp2
 70
     1
102
RTVSPropertyOp3
 70
     1
102
RTVSPropertyOp4
 70
     1
102
RTVSPropertyOp5
 70
     1
102
RTVSPropertyOp6
 70
     1
102
RTVSPropertyOp7
 70
     1
102
RTVSPropertyOp8
 70
     1
102
RTVSPropertyOp9
 70
     1
102
RTVSPropertyOp10
 70
     1
102
RTVSPropertyOp11
 70
     1
102
RTVSPropertyOp12
 70
     1
102
RTVSPropertyOp13
 70
     1
102
RTVSPropertyOp14
 70
     1
102
RTVSPropertyOp15
 70
     1
102
RTVSPropertyOp16
 70
     1
102
RTVSPropertyOp17
 70
     1
102
RTVSPropertyOp18
 70
     1
102
RTVSPropertyOp19
 70
     1
102
RTVSPropertyOp20
 70
     1
102
RTVSPropertyOp21
 70
     1
102
RTVSPropertyOp22
 70
     1
102
RTVSPropertyOp23
 70
     1
102
RTVSPropertyOp24
 70
     1
102
RTVSPropertyOp25
 70
     1
102
RTVSPropertyOp26
 70
     1
102
RTVSPropertyOp27
 70
     1
102
RTVSPropertyOp28
 70
     1
102
RTVSPropertyOp29
 70
     1
102
RTVSPropertyOp30
 70
     1
102
RTVSPropertyOp31
 70
     1
102
RTVSPropertyOp32
 70
     1
102
RTVSPropertyOp33
 70
     1
102
RTVSPropertyOp34
 70
     1
102
RTVSPropertyOp35
 70
     1
102
RTVSPropertyOp36
 70
     1
102
RTVSPropertyOp37
 70
     1
102
RTVSPropertyOp38
 70
     1
102
RTVSPropertyOp39
 70
     1
102
RTVSPropertyOp40
 70
     1
102
RTVSPropertyOp41
 70
     1
102
RTVSPropertyOp42
 70
     1
102
RTVSPropertyOp43
 70
     1
102
RTVSPropertyOp44
 70
     1
102
RTVSPropertyOp45
 70
     1
102
RTVSPropertyOp46
 70
     1
102
RTVSPropertyOp47
 70
     1
102
RTVSPropertyOp48
 70
     1
102
RTVSPropertyOp49
 70
     1
102
RTVSPropertyOp50
 70
     1
102
RTVSPropertyOp51
 70
     0
102
RTVSPropertyOp52
 70
     0
102
RTVSPropertyOp53
 70
     1
102
RTVSPropertyOp54
 70
     1
102
RTVSPropertyOp55
 70
     1
102
RTVSPropertyOp56
 70
     1
102
RTVSPropertyOp57
 70
     1
102
RTVSPropertyOp58
 70
     1
102
RTVSPropertyOp59
 70
     1
102
RTVSPropertyOp60
 70
     1
102
RTVSPropertyOp61
 70
     1
102
RTVSPropertyOp62
 70
     1
  0
XRECORD
  5
AA01
102
{ACAD_REACTORS
330
AA00
102
}
330
AA00
100
AcDbXrecord
280
     1
102
RTVSPost2010Prop28
280
     0
102
RTVSPost2010PropOp28
 70
     1
102
RTVSPost2010Prop29
280
     1
102
RTVSPost2010PropOp29
 70
     1
102
RTVSPost2010Prop30
280
     1
102
RTVSPost2010PropOp30
 70
     1
102
RTVSPost2010Prop31
280
     0
102
RTVSPost2010PropOp31
 70
     1
102
RTVSPost2010Prop32
280
     0
102
RTVSPost2010PropOp32
 70
     1
102
RTVSPost2010Prop33
280
     0
102
RTVSPost2010PropOp33
 70
     1
102
RTVSPost2010Prop34
280
     0
102
RTVSPost2010PropOp34
 70
     1
102
RTVSPost2010Prop35
280
     0
102
RTVSPost2010PropOp35
 70
     1
102
RTVSPost2010Prop36
280
     0
102
RTVSPost2010PropOp36
 70
     1
102
RTVSPost2010Prop37
 90
       50
102
RTVSPost2010PropOp37
 70
     1
102
RTVSPost2010Prop38
140
0.0
102
RTVSPost2010PropOp38
 70
     1
102
RTVSPost2010Prop39
140
1.0
102
RTVSPost2010PropOp39
 70
     1
102
RTVSPost2010Prop40
 90
        0
102
RTVSPost2010PropOp40
 70
     1
102
RTVSPost2010Prop41ColorIndex
 90
       18
102
RTVSPost2010Prop41ColorRGB
 90
        0
102
RTVSPost2010PropOp41
 70
     1
102
RTVSPost2010Prop42
 90
       50
102
RTVSPost2010PropOp42
 70
     1
102
RTVSPost2010Prop43
 90
        3
102
RTVSPost2010PropOp43
 70
     1
102
RTVSPost2010Prop44ColorIndex
 90
        5
102
RTVSPost2010Prop44ColorRGB
 90
      255
102
RTVSPost2010PropOp44
 70
     1
102
RTVSPost2010Prop45
280
     0
102
RTVSPost2010PropOp45
 70
     1
102
RTVSPost2010Prop46
 90
       50
102
RTVSPost2010PropOp46
 70
     1
102
RTVSPost2010Prop47
 90
       50
102
RTVSPost2010PropOp47
 70
     1
102
RTVSPost2010Prop48
 90
       50
102
RTVSPost2010PropOp48
 70
     1
102
RTVSPost2010Prop49
280
     0
102
RTVSPost2010PropOp49
 70
     1
102
RTVSPost2010Prop50
 90
       50
102
RTVSPost2010PropOp50
 70
     1
102
RTVSPost2010Prop51ColorIndex
 90
      256
102
RTVSPost2010Prop51ColorRGB
 90
-16777216
102
RTVSPost2010PropOp51
 70
     0
102
RTVSPost2010Prop52
140
1.0
102
RTVSPost2010PropOp52
 70
     0
102
RTVSPost2010Prop53
 90
        2
102
RTVSPost2010PropOp53
 70
     1
102
RTVSPost2010Prop54
  1
strokes_ogs.tif
102
RTVSPost2010PropOp54
 70
     1
102
RTVSPost2010Prop55
280
     0
102
RTVSPost2010PropOp55
 70
     1
102
RTVSPost2010Prop56
140
1.0
102
RTVSPost2010PropOp56
 70
     1
102
RTVSPost2010Prop57
140
1.0
102
RTVSPost2010PropOp57
 70
     1
102
RTVSPropertyOp0
 70
     1
102
RTVSPropertyOp1
 70
     1
102
RTVSPropertyOp2
 70
     1
102
RTVSPropertyOp3
 70
     1
102
RTVSPropertyOp4
 70
     1
102
RTVSPropertyOp5
 70
     1
102
RTVSPropertyOp6
 70
     1
102
RTVSPropertyOp7
 70
     1
102
RTVSPropertyOp8
 70
     1
102
RTVSPropertyOp9
 70
     1
102
RTVSPropertyOp10
 70
     1
102
RTVSPropertyOp11
 70
     1
102
RTVSPropertyOp12
 70
     1
102
RTVSPropertyOp13
 70
     1
102
RTVSPropertyOp14
 70
     1
102
RTVSPropertyOp15
 70
     1
102
RTVSPropertyOp16
 70
     1
102
RTVSPropertyOp17
 70
     1
102
RTVSPropertyOp18
 70
     1
102
RTVSPropertyOp19
 70
     1
102
RTVSPropertyOp20
 70
     1
102
RTVSPropertyOp21
 70
     1
102
RTVSPropertyOp22
 70
     1
102
RTVSPropertyOp23
 70
     1
102
RTVSPropertyOp24
 70
     1
102
RTVSPropertyOp25
 70
     1
102
RTVSPropertyOp26
 70
     1
102
RTVSPropertyOp27
 70
     1
102
RTVSPropertyOp28
 70
     1
102
RTVSPropertyOp29
 70
     1
102
RTVSPropertyOp30
 70
     1
102
RTVSPropertyOp31
 70
     1
102
RTVSPropertyOp32
 70
     1
102
RTVSPropertyOp33
 70
     1
102
RTVSPropertyOp34
 70
     1
102
RTVSPropertyOp35
 70
     1
102
RTVSPropertyOp36
 70
     1
102
RTVSPropertyOp37
 70
     1
102
RTVSPropertyOp38
 70
     1
102
RTVSPropertyOp39
 70
     1
102
RTVSPropertyOp40
 70
     1
102
RTVSPropertyOp41
 70
     1
102
RTVSPropertyOp42
 70
     1
102
RTVSPropertyOp43
 70
     1
102
RTVSPropertyOp44
 70
     1
102
RTVSPropertyOp45
 70
     1
102
RTVSPropertyOp46
 70
     1
102
RTVSPropertyOp47
 70
     1
102
RTVSPropertyOp48
 70
     1
102
RTVSPropertyOp49
 70
     1
102
RTVSPropertyOp50
 70
     1
102
RTVSPropertyOp51
 70
     0
102
RTVSPropertyOp52
 70
     0
102
RTVSPropertyOp53
 70
     1
102
RTVSPropertyOp54
 70
     1
102
RTVSPropertyOp55
 70
     1
102
RTVSPropertyOp56
 70
     1
102
RTVSPropertyOp57
 70
     1
102
RTVSPropertyOp58
 70
     1
102
RTVSPropertyOp59
 70
     1
102
RTVSPropertyOp60
 70
     1
102
RTVSPropertyOp61
 70
     1
102
RTVSPropertyOp62
 70
     1
  0
XRECORD
  5
A9F7
102
{ACAD_REACTORS
330
A9F6
102
}
330
A9F6
100
AcDbXrecord
280
     1
102
RTVSPost2010Prop28
280
     0
102
RTVSPost2010PropOp28
 70
     1
102
RTVSPost2010Prop29
280
     1
102
RTVSPost2010PropOp29
 70
     1
102
RTVSPost2010Prop30
280
     1
102
RTVSPost2010PropOp30
 70
     1
102
RTVSPost2010Prop31
280
     0
102
RTVSPost2010PropOp31
 70
     1
102
RTVSPost2010Prop32
280
     0
102
RTVSPost2010PropOp32
 70
     1
102
RTVSPost2010Prop33
280
     0
102
RTVSPost2010PropOp33
 70
     1
102
RTVSPost2010Prop34
280
     0
102
RTVSPost2010PropOp34
 70
     1
102
RTVSPost2010Prop35
280
     0
102
RTVSPost2010PropOp35
 70
     1
102
RTVSPost2010Prop36
280
     0
102
RTVSPost2010PropOp36
 70
     1
102
RTVSPost2010Prop37
 90
       50
102
RTVSPost2010PropOp37
 70
     1
102
RTVSPost2010Prop38
140
0.0
102
RTVSPost2010PropOp38
 70
     1
102
RTVSPost2010Prop39
140
1.0
102
RTVSPost2010PropOp39
 70
     1
102
RTVSPost2010Prop40
 90
        0
102
RTVSPost2010PropOp40
 70
     1
102
RTVSPost2010Prop41ColorIndex
 90
       18
102
RTVSPost2010Prop41ColorRGB
 90
        0
102
RTVSPost2010PropOp41
 70
     1
102
RTVSPost2010Prop42
 90
       50
102
RTVSPost2010PropOp42
 70
     1
102
RTVSPost2010Prop43
 90
        3
102
RTVSPost2010PropOp43
 70
     1
102
RTVSPost2010Prop44ColorIndex
 90
        5
102
RTVSPost2010Prop44ColorRGB
 90
      255
102
RTVSPost2010PropOp44
 70
     1
102
RTVSPost2010Prop45
280
     0
102
RTVSPost2010PropOp45
 70
     1
102
RTVSPost2010Prop46
 90
       50
102
RTVSPost2010PropOp46
 70
     1
102
RTVSPost2010Prop47
 90
       50
102
RTVSPost2010PropOp47
 70
     1
102
RTVSPost2010Prop48
 90
       50
102
RTVSPost2010PropOp48
 70
     1
102
RTVSPost2010Prop49
280
     0
102
RTVSPost2010PropOp49
 70
     1
102
RTVSPost2010Prop50
 90
       50
102
RTVSPost2010PropOp50
 70
     1
102
RTVSPost2010Prop51ColorIndex
 90
      256
102
RTVSPost2010Prop51ColorRGB
 90
-16777216
102
RTVSPost2010PropOp51
 70
     0
102
RTVSPost2010Prop52
140
1.0
102
RTVSPost2010PropOp52
 70
     0
102
RTVSPost2010Prop53
 90
        2
102
RTVSPost2010PropOp53
 70
     1
102
RTVSPost2010Prop54
  1
strokes_ogs.tif
102
RTVSPost2010PropOp54
 70
     1
102
RTVSPost2010Prop55
280
     0
102
RTVSPost2010PropOp55
 70
     1
102
RTVSPost2010Prop56
140
1.0
102
RTVSPost2010PropOp56
 70
     1
102
RTVSPost2010Prop57
140
1.0
102
RTVSPost2010PropOp57
 70
     1
102
RTVSPropertyOp0
 70
     1
102
RTVSPropertyOp1
 70
     1
102
RTVSPropertyOp2
 70
     1
102
RTVSPropertyOp3
 70
     1
102
RTVSPropertyOp4
 70
     1
102
RTVSPropertyOp5
 70
     1
102
RTVSPropertyOp6
 70
     1
102
RTVSPropertyOp7
 70
     1
102
RTVSPropertyOp8
 70
     1
102
RTVSPropertyOp9
 70
     1
102
RTVSPropertyOp10
 70
     1
102
RTVSPropertyOp11
 70
     1
102
RTVSPropertyOp12
 70
     1
102
RTVSPropertyOp13
 70
     1
102
RTVSPropertyOp14
 70
     1
102
RTVSPropertyOp15
 70
     1
102
RTVSPropertyOp16
 70
     1
102
RTVSPropertyOp17
 70
     1
102
RTVSPropertyOp18
 70
     1
102
RTVSPropertyOp19
 70
     1
102
RTVSPropertyOp20
 70
     1
102
RTVSPropertyOp21
 70
     1
102
RTVSPropertyOp22
 70
     1
102
RTVSPropertyOp23
 70
     1
102
RTVSPropertyOp24
 70
     1
102
RTVSPropertyOp25
 70
     1
102
RTVSPropertyOp26
 70
     1
102
RTVSPropertyOp27
 70
     1
102
RTVSPropertyOp28
 70
     1
102
RTVSPropertyOp29
 70
     1
102
RTVSPropertyOp30
 70
     1
102
RTVSPropertyOp31
 70
     1
102
RTVSPropertyOp32
 70
     1
102
RTVSPropertyOp33
 70
     1
102
RTVSPropertyOp34
 70
     1
102
RTVSPropertyOp35
 70
     1
102
RTVSPropertyOp36
 70
     1
102
RTVSPropertyOp37
 70
     1
102
RTVSPropertyOp38
 70
     1
102
RTVSPropertyOp39
 70
     1
102
RTVSPropertyOp40
 70
     1
102
RTVSPropertyOp41
 70
     1
102
RTVSPropertyOp42
 70
     1
102
RTVSPropertyOp43
 70
     1
102
RTVSPropertyOp44
 70
     1
102
RTVSPropertyOp45
 70
     1
102
RTVSPropertyOp46
 70
     1
102
RTVSPropertyOp47
 70
     1
102
RTVSPropertyOp48
 70
     1
102
RTVSPropertyOp49
 70
     1
102
RTVSPropertyOp50
 70
     1
102
RTVSPropertyOp51
 70
     0
102
RTVSPropertyOp52
 70
     0
102
RTVSPropertyOp53
 70
     1
102
RTVSPropertyOp54
 70
     1
102
RTVSPropertyOp55
 70
     1
102
RTVSPropertyOp56
 70
     1
102
RTVSPropertyOp57
 70
     1
102
RTVSPropertyOp58
 70
     1
102
RTVSPropertyOp59
 70
     1
102
RTVSPropertyOp60
 70
     1
102
RTVSPropertyOp61
 70
     1
102
RTVSPropertyOp62
 70
     1
  0
XRECORD
  5
A9EB
102
{ACAD_REACTORS
330
A9EA
102
}
330
A9EA
100
AcDbXrecord
280
     1
102
RTVSPost2010Prop28
280
     0
102
RTVSPost2010PropOp28
 70
     1
102
RTVSPost2010Prop29
280
     1
102
RTVSPost2010PropOp29
 70
     1
102
RTVSPost2010Prop30
280
     1
102
RTVSPost2010PropOp30
 70
     1
102
RTVSPost2010Prop31
280
     0
102
RTVSPost2010PropOp31
 70
     1
102
RTVSPost2010Prop32
280
     0
102
RTVSPost2010PropOp32
 70
     1
102
RTVSPost2010Prop33
280
     0
102
RTVSPost2010PropOp33
 70
     1
102
RTVSPost2010Prop34
280
     0
102
RTVSPost2010PropOp34
 70
     1
102
RTVSPost2010Prop35
280
     0
102
RTVSPost2010PropOp35
 70
     1
102
RTVSPost2010Prop36
280
     0
102
RTVSPost2010PropOp36
 70
     1
102
RTVSPost2010Prop37
 90
       50
102
RTVSPost2010PropOp37
 70
     1
102
RTVSPost2010Prop38
140
0.0
102
RTVSPost2010PropOp38
 70
     1
102
RTVSPost2010Prop39
140
1.0
102
RTVSPost2010PropOp39
 70
     1
102
RTVSPost2010Prop40
 90
        0
102
RTVSPost2010PropOp40
 70
     1
102
RTVSPost2010Prop41ColorIndex
 90
       18
102
RTVSPost2010Prop41ColorRGB
 90
        0
102
RTVSPost2010PropOp41
 70
     1
102
RTVSPost2010Prop42
 90
       50
102
RTVSPost2010PropOp42
 70
     1
102
RTVSPost2010Prop43
 90
        3
102
RTVSPost2010PropOp43
 70
     1
102
RTVSPost2010Prop44ColorIndex
 90
        5
102
RTVSPost2010Prop44ColorRGB
 90
      255
102
RTVSPost2010PropOp44
 70
     1
102
RTVSPost2010Prop45
280
     0
102
RTVSPost2010PropOp45
 70
     1
102
RTVSPost2010Prop46
 90
       50
102
RTVSPost2010PropOp46
 70
     1
102
RTVSPost2010Prop47
 90
       50
102
RTVSPost2010PropOp47
 70
     1
102
RTVSPost2010Prop48
 90
       50
102
RTVSPost2010PropOp48
 70
     1
102
RTVSPost2010Prop49
280
     0
102
RTVSPost2010PropOp49
 70
     1
102
RTVSPost2010Prop50
 90
       50
102
RTVSPost2010PropOp50
 70
     1
102
RTVSPost2010Prop51ColorIndex
 90
      256
102
RTVSPost2010Prop51ColorRGB
 90
-16777216
102
RTVSPost2010PropOp51
 70
     0
102
RTVSPost2010Prop52
140
1.0
102
RTVSPost2010PropOp52
 70
     0
102
RTVSPost2010Prop53
 90
        2
102
RTVSPost2010PropOp53
 70
     1
102
RTVSPost2010Prop54
  1
strokes_ogs.tif
102
RTVSPost2010PropOp54
 70
     1
102
RTVSPost2010Prop55
280
     0
102
RTVSPost2010PropOp55
 70
     1
102
RTVSPost2010Prop56
140
1.0
102
RTVSPost2010PropOp56
 70
     1
102
RTVSPost2010Prop57
140
1.0
102
RTVSPost2010PropOp57
 70
     1
102
RTVSPropertyOp0
 70
     1
102
RTVSPropertyOp1
 70
     1
102
RTVSPropertyOp2
 70
     1
102
RTVSPropertyOp3
 70
     1
102
RTVSPropertyOp4
 70
     1
102
RTVSPropertyOp5
 70
     1
102
RTVSPropertyOp6
 70
     1
102
RTVSPropertyOp7
 70
     1
102
RTVSPropertyOp8
 70
     1
102
RTVSPropertyOp9
 70
     1
102
RTVSPropertyOp10
 70
     1
102
RTVSPropertyOp11
 70
     1
102
RTVSPropertyOp12
 70
     1
102
RTVSPropertyOp13
 70
     1
102
RTVSPropertyOp14
 70
     1
102
RTVSPropertyOp15
 70
     1
102
RTVSPropertyOp16
 70
     1
102
RTVSPropertyOp17
 70
     1
102
RTVSPropertyOp18
 70
     1
102
RTVSPropertyOp19
 70
     1
102
RTVSPropertyOp20
 70
     1
102
RTVSPropertyOp21
 70
     1
102
RTVSPropertyOp22
 70
     1
102
RTVSPropertyOp23
 70
     1
102
RTVSPropertyOp24
 70
     1
102
RTVSPropertyOp25
 70
     1
102
RTVSPropertyOp26
 70
     1
102
RTVSPropertyOp27
 70
     1
102
RTVSPropertyOp28
 70
     1
102
RTVSPropertyOp29
 70
     1
102
RTVSPropertyOp30
 70
     1
102
RTVSPropertyOp31
 70
     1
102
RTVSPropertyOp32
 70
     1
102
RTVSPropertyOp33
 70
     1
102
RTVSPropertyOp34
 70
     1
102
RTVSPropertyOp35
 70
     1
102
RTVSPropertyOp36
 70
     1
102
RTVSPropertyOp37
 70
     1
102
RTVSPropertyOp38
 70
     1
102
RTVSPropertyOp39
 70
     1
102
RTVSPropertyOp40
 70
     1
102
RTVSPropertyOp41
 70
     1
102
RTVSPropertyOp42
 70
     1
102
RTVSPropertyOp43
 70
     1
102
RTVSPropertyOp44
 70
     1
102
RTVSPropertyOp45
 70
     1
102
RTVSPropertyOp46
 70
     1
102
RTVSPropertyOp47
 70
     1
102
RTVSPropertyOp48
 70
     1
102
RTVSPropertyOp49
 70
     1
102
RTVSPropertyOp50
 70
     1
102
RTVSPropertyOp51
 70
     0
102
RTVSPropertyOp52
 70
     0
102
RTVSPropertyOp53
 70
     1
102
RTVSPropertyOp54
 70
     1
102
RTVSPropertyOp55
 70
     1
102
RTVSPropertyOp56
 70
     1
102
RTVSPropertyOp57
 70
     1
102
RTVSPropertyOp58
 70
     1
102
RTVSPropertyOp59
 70
     1
102
RTVSPropertyOp60
 70
     1
102
RTVSPropertyOp61
 70
     1
102
RTVSPropertyOp62
 70
     1
  0
XRECORD
  5
AA03
102
{ACAD_REACTORS
330
AA02
102
}
330
AA02
100
AcDbXrecord
280
     1
102
RTVSPost2010Prop28
280
     0
102
RTVSPost2010PropOp28
 70
     1
102
RTVSPost2010Prop29
280
     1
102
RTVSPost2010PropOp29
 70
     1
102
RTVSPost2010Prop30
280
     1
102
RTVSPost2010PropOp30
 70
     1
102
RTVSPost2010Prop31
280
     0
102
RTVSPost2010PropOp31
 70
     1
102
RTVSPost2010Prop32
280
     0
102
RTVSPost2010PropOp32
 70
     1
102
RTVSPost2010Prop33
280
     0
102
RTVSPost2010PropOp33
 70
     1
102
RTVSPost2010Prop34
280
     0
102
RTVSPost2010PropOp34
 70
     1
102
RTVSPost2010Prop35
280
     0
102
RTVSPost2010PropOp35
 70
     1
102
RTVSPost2010Prop36
280
     0
102
RTVSPost2010PropOp36
 70
     1
102
RTVSPost2010Prop37
 90
       50
102
RTVSPost2010PropOp37
 70
     1
102
RTVSPost2010Prop38
140
0.0
102
RTVSPost2010PropOp38
 70
     1
102
RTVSPost2010Prop39
140
1.0
102
RTVSPost2010PropOp39
 70
     1
102
RTVSPost2010Prop40
 90
        0
102
RTVSPost2010PropOp40
 70
     1
102
RTVSPost2010Prop41ColorIndex
 90
       18
102
RTVSPost2010Prop41ColorRGB
 90
        0
102
RTVSPost2010PropOp41
 70
     1
102
RTVSPost2010Prop42
 90
       50
102
RTVSPost2010PropOp42
 70
     1
102
RTVSPost2010Prop43
 90
        3
102
RTVSPost2010PropOp43
 70
     1
102
RTVSPost2010Prop44ColorIndex
 90
        5
102
RTVSPost2010Prop44ColorRGB
 90
      255
102
RTVSPost2010PropOp44
 70
     1
102
RTVSPost2010Prop45
280
     0
102
RTVSPost2010PropOp45
 70
     1
102
RTVSPost2010Prop46
 90
       50
102
RTVSPost2010PropOp46
 70
     1
102
RTVSPost2010Prop47
 90
       50
102
RTVSPost2010PropOp47
 70
     1
102
RTVSPost2010Prop48
 90
       50
102
RTVSPost2010PropOp48
 70
     1
102
RTVSPost2010Prop49
280
     0
102
RTVSPost2010PropOp49
 70
     1
102
RTVSPost2010Prop50
 90
       50
102
RTVSPost2010PropOp50
 70
     1
102
RTVSPost2010Prop51ColorIndex
 90
      256
102
RTVSPost2010Prop51ColorRGB
 90
-16777216
102
RTVSPost2010PropOp51
 70
     0
102
RTVSPost2010Prop52
140
1.0
102
RTVSPost2010PropOp52
 70
     0
102
RTVSPost2010Prop53
 90
        2
102
RTVSPost2010PropOp53
 70
     1
102
RTVSPost2010Prop54
  1
strokes_ogs.tif
102
RTVSPost2010PropOp54
 70
     1
102
RTVSPost2010Prop55
280
     0
102
RTVSPost2010PropOp55
 70
     1
102
RTVSPost2010Prop56
140
1.0
102
RTVSPost2010PropOp56
 70
     1
102
RTVSPost2010Prop57
140
1.0
102
RTVSPost2010PropOp57
 70
     1
102
RTVSPropertyOp0
 70
     1
102
RTVSPropertyOp1
 70
     1
102
RTVSPropertyOp2
 70
     1
102
RTVSPropertyOp3
 70
     1
102
RTVSPropertyOp4
 70
     1
102
RTVSPropertyOp5
 70
     1
102
RTVSPropertyOp6
 70
     1
102
RTVSPropertyOp7
 70
     1
102
RTVSPropertyOp8
 70
     1
102
RTVSPropertyOp9
 70
     1
102
RTVSPropertyOp10
 70
     1
102
RTVSPropertyOp11
 70
     1
102
RTVSPropertyOp12
 70
     1
102
RTVSPropertyOp13
 70
     1
102
RTVSPropertyOp14
 70
     1
102
RTVSPropertyOp15
 70
     1
102
RTVSPropertyOp16
 70
     1
102
RTVSPropertyOp17
 70
     1
102
RTVSPropertyOp18
 70
     1
102
RTVSPropertyOp19
 70
     1
102
RTVSPropertyOp20
 70
     1
102
RTVSPropertyOp21
 70
     1
102
RTVSPropertyOp22
 70
     1
102
RTVSPropertyOp23
 70
     1
102
RTVSPropertyOp24
 70
     1
102
RTVSPropertyOp25
 70
     1
102
RTVSPropertyOp26
 70
     1
102
RTVSPropertyOp27
 70
     1
102
RTVSPropertyOp28
 70
     1
102
RTVSPropertyOp29
 70
     1
102
RTVSPropertyOp30
 70
     1
102
RTVSPropertyOp31
 70
     1
102
RTVSPropertyOp32
 70
     1
102
RTVSPropertyOp33
 70
     1
102
RTVSPropertyOp34
 70
     1
102
RTVSPropertyOp35
 70
     1
102
RTVSPropertyOp36
 70
     1
102
RTVSPropertyOp37
 70
     1
102
RTVSPropertyOp38
 70
     1
102
RTVSPropertyOp39
 70
     1
102
RTVSPropertyOp40
 70
     1
102
RTVSPropertyOp41
 70
     1
102
RTVSPropertyOp42
 70
     1
102
RTVSPropertyOp43
 70
     1
102
RTVSPropertyOp44
 70
     1
102
RTVSPropertyOp45
 70
     1
102
RTVSPropertyOp46
 70
     1
102
RTVSPropertyOp47
 70
     1
102
RTVSPropertyOp48
 70
     1
102
RTVSPropertyOp49
 70
     1
102
RTVSPropertyOp50
 70
     1
102
RTVSPropertyOp51
 70
     0
102
RTVSPropertyOp52
 70
     0
102
RTVSPropertyOp53
 70
     1
102
RTVSPropertyOp54
 70
     1
102
RTVSPropertyOp55
 70
     1
102
RTVSPropertyOp56
 70
     1
102
RTVSPropertyOp57
 70
     1
102
RTVSPropertyOp58
 70
     1
102
RTVSPropertyOp59
 70
     1
102
RTVSPropertyOp60
 70
     1
102
RTVSPropertyOp61
 70
     1
102
RTVSPropertyOp62
 70
     1
  0
ENDSEC
  0
EOF
