  0
SECTION
  2
HEADER
  9
$ACADVER
  1
AC1027
  9
$DWGCODEPAGE
  3
ANSI_932
  9
$LTSCALE
 40
20.0
  9
$FILLMODE
 70
     1
  9
$CLAYER
  8
0
  9
$PDMODE
 70
     0
  9
$SPLFRAME
 70
     0
  9
$SPLINETYPE
 70
     6
  9
$SPLINESEGS
 70
     8
  9
$DIMASZ
 40
2.000000
  9
$DIMEXE
 40
1.500000
  9
$DIMEXO
 40
0.800000
  9
$DIMTAD
 70
     1
  9
$DIMTIH
 70
     0
  9
$DIMTOH
 70
     0
  9
$DIMTVP
 40
0.500000
  9
$DIMTXT
 40
3.100000
  9
$EXTMIN
 10
0.000000
 20
0.000000
 30
0.000000
  9
$EXTMAX
 10
297.000000
 20
420.000000
 30
0.000000
  9
$MEASUREMENT
 70
  1
  9
$LIMMIN
 10
0.000000
 20
0.000000
  9
$LIMMAX
 10
297.000000
 20
420.000000
  9
$HANDSEED
  5
1DA
  9
$LWDISPLAY
290
     0
  9
$DIMBLK
  1
_OPEN
  9
$DIMDEC
 70
     2
  9
$DIMADEC
 70
     2
  9
$DIMAUNIT
 70
     0
  9
$DIMZIN
 70
     8
  9
$DIMAZIN
 70
     2
  9
$DIMTOFL
 70
     1
  0
ENDSEC
  0
SECTION
  2
CLASSES
  0
ENDSEC
  0
SECTION
  2
TABLES
  0
TABLE
  2
VPORT
  5
1A4
100
AcDbSymbolTable
 70
     1
  0
VPORT
  5
1A5
100
AcDbSymbolTableRecord
100
AcDbViewportTableRecord
  2
*ACTIVE
 70
     0
 12
105.631583
 22
105.698204
 40
175.396407
 41
1.090462
  0
ENDTAB
  0
TABLE
  2
LTYPE
  5
1A6
100
AcDbSymbolTable
 70
     3
  0
LTYPE
  5
1A7
100
AcDbSymbolTableRecord
100
AcDbLinetypeTableRecord
  2
BYBLOCK
 70
     0
  3

 72
    65
 73
     0
 40
0.0
  0
LTYPE
  5
1A8
100
AcDbSymbolTableRecord
100
AcDbLinetypeTableRecord
  2
BYLAYER
 70
     0
  3

 72
    65
 73
     0
 40
0.0
  0
LTYPE
  5
1A9
100
AcDbSymbolTableRecord
100
AcDbLinetypeTableRecord
  2
CONTINUOUS
 70
     0
  3
Solid line (NEC CAE2D for Win R18.0 : 2025.08.07)
 72
    65
 73
     0
 40
0.0
  0
LTYPE
  5
1AA
100
AcDbSymbolTableRecord
100
AcDbLinetypeTableRecord
  2
CENTER
 70
     0
  3
____ _ ____ _ ____ _ ____ _ ____ _ ____
 72
    65
 73
     4
 40
2.0
 49
1.25
 74
     0
 49
-0.25
 74
     0
 49
0.25
 74
     0
 49
-0.25
 74
     0
  0
LTYPE
  5
1AB
100
AcDbSymbolTableRecord
100
AcDbLinetypeTableRecord
  2
PHANTOM
 70
     0
  3
______  __  __  ______  __  __  ______ 
 72
    65
 73
     6
 40
2.5
 49
1.25
 74
     0
 49
-0.25
 74
     0
 49
0.25
 74
     0
 49
-0.25
 74
     0
 49
0.25
 74
     0
 49
-0.25
 74
     0
  0
ENDTAB
  0
TABLE
  2
LAYER
  5
1AC
100
AcDbSymbolTable
 70
    15
  0
LAYER
  5
1AD
100
AcDbSymbolTableRecord
100
AcDbLayerTableRecord
  2
0
 70
     0
 62
     7
  6
CONTINUOUS
370
    -3
390

  0
LAYER
  5
1AE
100
AcDbSymbolTableRecord
100
AcDbLayerTableRecord
  2
A0
 70
     0
 62
     9
  6
CONTINUOUS
370
    -3
390

  0
LAYER
  5
1AF
100
AcDbSymbolTableRecord
100
AcDbLayerTableRecord
  2
A1
 70
     0
 62
     1
  6
CONTINUOUS
370
    -3
390

  0
LAYER
  5
1B0
100
AcDbSymbolTableRecord
100
AcDbLayerTableRecord
  2
A3
 70
     0
 62
    12
  6
CONTINUOUS
370
    -3
390

  0
LAYER
  5
1B1
100
AcDbSymbolTableRecord
100
AcDbLayerTableRecord
  2
A4
 70
     0
 62
     9
  6
CONTINUOUS
370
    -3
390

  0
LAYER
  5
1B2
100
AcDbSymbolTableRecord
100
AcDbLayerTableRecord
  2
A5
 70
     0
 62
     8
  6
CONTINUOUS
370
    -3
390

  0
LAYER
  5
1B3
100
AcDbSymbolTableRecord
100
AcDbLayerTableRecord
  2
A6
 70
     0
 62
    12
  6
CONTINUOUS
370
    -3
390

  0
LAYER
  5
1B4
100
AcDbSymbolTableRecord
100
AcDbLayerTableRecord
  2
A8
 70
     0
 62
    10
  6
CONTINUOUS
370
    -3
390

  0
LAYER
  5
1B5
100
AcDbSymbolTableRecord
100
AcDbLayerTableRecord
  2
A9
 70
     0
 62
     9
  6
CONTINUOUS
370
    -3
390

  0
LAYER
  5
1B6
100
AcDbSymbolTableRecord
100
AcDbLayerTableRecord
  2
A10
 70
     0
 62
     6
  6
CONTINUOUS
370
    -3
390

  0
LAYER
  5
1B7
100
AcDbSymbolTableRecord
100
AcDbLayerTableRecord
  2
A20
 70
     0
 62
     1
  6
CONTINUOUS
370
    -3
390

  0
LAYER
  5
1B8
100
AcDbSymbolTableRecord
100
AcDbLayerTableRecord
  2
A30
 70
     0
 62
     1
  6
CONTINUOUS
370
    -3
390

  0
LAYER
  5
1B9
100
AcDbSymbolTableRecord
100
AcDbLayerTableRecord
  2
A40
 70
     0
 62
     9
  6
CONTINUOUS
370
    -3
390

  0
LAYER
  5
1BA
100
AcDbSymbolTableRecord
100
AcDbLayerTableRecord
  2
A50
 70
     0
 62
    12
  6
CONTINUOUS
370
    -3
390

  0
LAYER
  5
1BB
100
AcDbSymbolTableRecord
100
AcDbLayerTableRecord
  2
A1023
 70
     0
 62
    16
  6
CONTINUOUS
370
    -3
390

  0
ENDTAB
  0
TABLE
  2
STYLE
  5
1BC
100
AcDbSymbolTable
 70
     4
  0
STYLE
  5
1BD
100
AcDbSymbolTableRecord
100
AcDbTextStyleTableRecord
  2
STANDARD
 70
    64
 40
0.0
 41
1.0
 50
0.0
 71
     0
 42
3.000000000000000
  3
TXT
  4

  0
STYLE
  5
1BE
100
AcDbSymbolTableRecord
100
AcDbTextStyleTableRecord
  2
ANKTATE
 70
    68
 40
0.0
 41
1.0
 50
0.0
 71
     0
 42
3.000000000000000
  3
TXT
  4

  0
STYLE
  5
1BF
100
AcDbSymbolTableRecord
100
AcDbTextStyleTableRecord
  2
KNJYOKO
 70
    64
 40
0.0
 41
1.0
 50
0.0
 71
     0
 42
3.000000000000000
  3
TXT
  4
BIGFONT
  0
STYLE
  5
1C0
100
AcDbSymbolTableRecord
100
AcDbTextStyleTableRecord
  2
KNJTATE
 70
    68
 40
0.0
 41
1.0
 50
0.0
 71
     0
 42
3.000000000000000
  3
TXT
  4
BIGFONT
  0
ENDTAB
  0
TABLE
  2
VIEW
  5
1C1
100
AcDbSymbolTable
 70
     0
  0
ENDTAB
  0
TABLE
  2
UCS
  5
1C2
100
AcDbSymbolTable
 70
     0
  0
ENDTAB
  0
TABLE
  2
APPID
  5
1C3
100
AcDbSymbolTable
 70
     1
  0
APPID
  5
1C4
100
AcDbSymbolTableRecord
100
AcDbRegAppTableRecord
  2
ACAD
 70
     0
  0
ENDTAB
  0
TABLE
  2
DIMSTYLE
  5
1C5
100
AcDbSymbolTable
 70
     2
100
AcDbDimStyleTable
  0
DIMSTYLE
105
1C6
100
AcDbSymbolTableRecord
100
AcDbDimStyleTableRecord
  2
STANDARD
 70
     0
 41
2.000000
 44
1.500000
 42
0.800000
145
0.661290
140
3.100000
144
1.000000
146
0.645161
340
1BD
  0
DIMSTYLE
105
1C7
100
AcDbSymbolTableRecord
100
AcDbDimStyleTableRecord
  2
A001
 70
     0
 41
2.000000
 44
1.500000
 42
0.800000
145
0.661290
140
3.100000
144
1.000000
146
0.645161
 77
     1
 73
     0
 74
     0
271
     2
179
     2
275
     0
 78
     8
 79
     2
172
     1
340
1BD
  0
ENDTAB
  0
TABLE
  2
BLOCK_RECORD
  5
1C8
100
AcDbSymbolTable
 70
    12
  0
BLOCK_RECORD
  5
1C9
100
AcDbSymbolTableRecord
100
AcDbBlockTableRecord
  2
*MODEL_SPACE
  0
BLOCK_RECORD
  5
1CA
100
AcDbSymbolTableRecord
100
AcDbBlockTableRecord
  2
*PAPER_SPACE
  0
BLOCK_RECORD
  5
1CB
100
AcDbSymbolTableRecord
100
AcDbBlockTableRecord
  2
*PAPER_SPACE0
  0
BLOCK_RECORD
  5
1
100
AcDbSymbolTableRecord
100
AcDbBlockTableRecord
  2
_NONE
  0
BLOCK_RECORD
  5
4
100
AcDbSymbolTableRecord
100
AcDbBlockTableRecord
  2
_CLOSED
  0
BLOCK_RECORD
  5
B
100
AcDbSymbolTableRecord
100
AcDbBlockTableRecord
  2
_DOT
  0
BLOCK_RECORD
  5
13
100
AcDbSymbolTableRecord
100
AcDbBlockTableRecord
  2
_OPEN
  0
BLOCK_RECORD
  5
19
100
AcDbSymbolTableRecord
100
AcDbBlockTableRecord
  2
_ORIGIN
  0
BLOCK_RECORD
  5
1E
100
AcDbSymbolTableRecord
100
AcDbBlockTableRecord
  2
_OPEN30
  0
BLOCK_RECORD
  5
24
100
AcDbSymbolTableRecord
100
AcDbBlockTableRecord
  2
_BOXFILLED
  0
BLOCK_RECORD
  5
29
100
AcDbSymbolTableRecord
100
AcDbBlockTableRecord
  2
_BOXBLANK
  0
BLOCK_RECORD
  5
31
100
AcDbSymbolTableRecord
100
AcDbBlockTableRecord
  2
_OBLIQUE
  0
BLOCK_RECORD
  5
35
100
AcDbSymbolTableRecord
100
AcDbBlockTableRecord
  2
_OPEN90
  0
BLOCK_RECORD
  5
3B
100
AcDbSymbolTableRecord
100
AcDbBlockTableRecord
  2
_CLOSEDBLANK
  0
BLOCK_RECORD
  5
41
100
AcDbSymbolTableRecord
100
AcDbBlockTableRecord
  2
_DOTBLANK
  0
ENDTAB
  0
ENDSEC
  0
SECTION
  2
BLOCKS
  0
BLOCK
  5
1CC
100
AcDbEntity
  8
0
100
AcDbBlockBegin
  2
*MODEL_SPACE
 70
     0
 10
0.0
 20
0.0
 30
0.0
  3
*MODEL_SPACE
  1

  0
ENDBLK
  5
1CD
100
AcDbEntity
  8
0
100
AcDbBlockEnd
  0
BLOCK
  5
1CE
100
AcDbEntity
  8
0
100
AcDbBlockBegin
  2
*PAPER_SPACE
 70
     0
 10
0.0
 20
0.0
 30
0.0
  3
*PAPER_SPACE
  1

  0
ENDBLK
  5
1CF
100
AcDbEntity
  8
0
100
AcDbBlockEnd
  0
BLOCK
  5
1D0
100
AcDbEntity
  8
0
100
AcDbBlockBegin
  2
*PAPER_SPACE0
 70
     0
 10
0.0
 20
0.0
 30
0.0
  3
*PAPER_SPACE0
  1

  0
ENDBLK
  5
1D1
100
AcDbEntity
  8
0
100
AcDbBlockEnd
  0
BLOCK
  5
2
330
1
100
AcDbEntity
  8
0
100
AcDbBlockBegin
  2
_NONE
 70
     0
 10
0.0
 20
0.0
 30
0.0
  3
_NONE
  1

  0
ENDBLK
  5
3
330
1
100
AcDbEntity
  8
0
100
AcDbBlockEnd
  0
BLOCK
  5
5
330
4
100
AcDbEntity
  8
0
100
AcDbBlockBegin
  2
_CLOSED
 70
     0
 10
0.0
 20
0.0
 30
0.0
  3
_CLOSED
  1

  0
LINE
  5
6
330
4
100
AcDbEntity
  8
0
  6
BYBLOCK
 62
     0
370
    -2
100
AcDbLine
 10
-1.0
 20
0.166667
 30
0.0
 11
0.0
 21
0.0
 31
0.0
  0
LINE
  5
7
330
4
100
AcDbEntity
  8
0
  6
BYBLOCK
 62
     0
370
    -2
100
AcDbLine
 10
0.0
 20
0.0
 30
0.0
 11
-1.0
 21
-0.166667
 31
0.0
  0
LINE
  5
8
330
4
100
AcDbEntity
  8
0
  6
BYBLOCK
 62
     0
370
    -2
100
AcDbLine
 10
-1.0
 20
0.166667
 30
0.0
 11
-1.0
 21
-0.166667
 31
0.0
  0
LINE
  5
9
330
4
100
AcDbEntity
  8
0
  6
BYBLOCK
 62
     0
370
    -2
100
AcDbLine
 10
0.0
 20
0.0
 30
0.0
 11
-1.0
 21
0.0
 31
0.0
  0
ENDBLK
  5
A
330
4
100
AcDbEntity
  8
0
100
AcDbBlockEnd
  0
BLOCK
  5
C
330
B
100
AcDbEntity
  8
0
100
AcDbBlockBegin
  2
_DOT
 70
     0
 10
0.0
 20
0.0
 30
0.0
  3
_DOT
  1

  0
POLYLINE
  5
D
330
B
100
AcDbEntity
  8
0
  6
BYBLOCK
 62
     0
370
    -2
100
AcDb2dPolyline
 66
     1
 10
0.0
 20
0.0
 30
0.0
 70
     1
 40
0.5
 41
0.5
  0
VERTEX
  5
E
330
B
100
AcDbEntity
  8
0
  6
BYBLOCK
 62
     0
370
    -2
100
AcDbVertex
100
AcDb2dVertex
 10
-0.25
 20
0.0
 30
0.0
 42
1.0
  0
VERTEX
  5
F
330
B
100
AcDbEntity
  8
0
  6
BYBLOCK
 62
     0
370
    -2
100
AcDbVertex
100
AcDb2dVertex
 10
0.25
 20
0.0
 30
0.0
 42
1.0
  0
SEQEND
  5
10
330
B
100
AcDbEntity
  8
0
  6
BYBLOCK
 62
     0
370
    -2
  0
LINE
  5
11
330
B
100
AcDbEntity
  8
0
  6
BYBLOCK
 62
     0
370
    -2
100
AcDbLine
 10
-0.5
 20
0.0
 30
0.0
 11
-1.0
 21
0.0
 31
0.0
  0
ENDBLK
  5
12
330
B
100
AcDbEntity
  8
0
100
AcDbBlockEnd
  0
BLOCK
  5
14
330
13
100
AcDbEntity
  8
0
100
AcDbBlockBegin
  2
_OPEN
 70
     0
 10
0.0
 20
0.0
 30
0.0
  3
_OPEN
  1

  0
LINE
  5
15
330
13
100
AcDbEntity
  8
0
  6
BYBLOCK
 62
     0
370
    -2
100
AcDbLine
 10
-1.0
 20
0.166667
 30
0.0
 11
0.0
 21
0.0
 31
0.0
  0
LINE
  5
16
330
13
100
AcDbEntity
  8
0
  6
BYBLOCK
 62
     0
370
    -2
100
AcDbLine
 10
0.0
 20
0.0
 30
0.0
 11
-1.0
 21
-0.166667
 31
0.0
  0
LINE
  5
17
330
13
100
AcDbEntity
  8
0
  6
BYBLOCK
 62
     0
370
    -2
100
AcDbLine
 10
0.0
 20
0.0
 30
0.0
 11
-1.0
 21
0.0
 31
0.0
  0
ENDBLK
  5
18
330
13
100
AcDbEntity
  8
0
100
AcDbBlockEnd
  0
BLOCK
  5
1A
330
19
100
AcDbEntity
  8
0
100
AcDbBlockBegin
  2
_ORIGIN
 70
     0
 10
0.0
 20
0.0
 30
0.0
  3
_ORIGIN
  1

  0
CIRCLE
  5
1B
330
19
100
AcDbEntity
  8
0
  6
BYBLOCK
 62
     0
370
    -2
100
AcDbCircle
 10
0.0
 20
0.0
 30
0.0
 40
0.5
  0
LINE
  5
1C
330
19
100
AcDbEntity
  8
0
  6
BYBLOCK
 62
     0
370
    -2
100
AcDbLine
 10
0.0
 20
0.0
 30
0.0
 11
-1.0
 21
0.0
 31
0.0
  0
ENDBLK
  5
1D
330
19
100
AcDbEntity
  8
0
100
AcDbBlockEnd
  0
BLOCK
  5
1F
330
1E
100
AcDbEntity
  8
0
100
AcDbBlockBegin
  2
_OPEN30
 70
     0
 10
0.0
 20
0.0
 30
0.0
  3
_OPEN30
  1

  0
LINE
  5
20
330
1E
100
AcDbEntity
  8
0
  6
BYBLOCK
 62
     0
370
    -2
100
AcDbLine
 10
-1.0
 20
0.267949
 30
0.0
 11
0.0
 21
0.0
 31
0.0
  0
LINE
  5
21
330
1E
100
AcDbEntity
  8
0
  6
BYBLOCK
 62
     0
370
    -2
100
AcDbLine
 10
0.0
 20
0.0
 30
0.0
 11
-1.0
 21
-0.267949
 31
0.0
  0
LINE
  5
22
330
1E
100
AcDbEntity
  8
0
  6
BYBLOCK
 62
     0
370
    -2
100
AcDbLine
 10
0.0
 20
0.0
 30
0.0
 11
-1.0
 21
0.0
 31
0.0
  0
ENDBLK
  5
23
330
1E
100
AcDbEntity
  8
0
100
AcDbBlockEnd
  0
BLOCK
  5
25
330
24
100
AcDbEntity
  8
0
100
AcDbBlockBegin
  2
_BOXFILLED
 70
     0
 10
0.0
 20
0.0
 30
0.0
  3
_BOXFILLED
  1

  0
SOLID
  5
26
330
24
100
AcDbEntity
  8
0
  6
BYBLOCK
 62
     0
370
    -2
100
AcDbTrace
 10
-0.5
 20
0.5
 30
0.0
 11
0.5
 21
0.5
 31
0.0
 12
-0.5
 22
-0.5
 32
0.0
 13
0.5
 23
-0.5
 33
0.0
  0
LINE
  5
27
330
24
100
AcDbEntity
  8
0
  6
BYBLOCK
 62
     0
370
    -2
100
AcDbLine
 10
-0.5
 20
0.0
 30
0.0
 11
-1.0
 21
0.0
 31
0.0
  0
ENDBLK
  5
28
330
24
100
AcDbEntity
  8
0
100
AcDbBlockEnd
  0
BLOCK
  5
2A
330
29
100
AcDbEntity
  8
0
100
AcDbBlockBegin
  2
_BOXBLANK
 70
     0
 10
0.0
 20
0.0
 30
0.0
  3
_BOXBLANK
  1

  0
LINE
  5
2B
330
29
100
AcDbEntity
  8
0
  6
BYBLOCK
 62
     0
370
    -2
100
AcDbLine
 10
-0.5
 20
-0.5
 30
0.0
 11
0.5
 21
-0.5
 31
0.0
  0
LINE
  5
2C
330
29
100
AcDbEntity
  8
0
  6
BYBLOCK
 62
     0
370
    -2
100
AcDbLine
 10
0.5
 20
-0.5
 30
0.0
 11
0.5
 21
0.5
 31
0.0
  0
LINE
  5
2D
330
29
100
AcDbEntity
  8
0
  6
BYBLOCK
 62
     0
370
    -2
100
AcDbLine
 10
0.5
 20
0.5
 30
0.0
 11
-0.5
 21
0.5
 31
0.0
  0
LINE
  5
2E
330
29
100
AcDbEntity
  8
0
  6
BYBLOCK
 62
     0
370
    -2
100
AcDbLine
 10
-0.5
 20
0.5
 30
0.0
 11
-0.5
 21
-0.5
 31
0.0
  0
LINE
  5
2F
330
29
100
AcDbEntity
  8
0
  6
BYBLOCK
 62
     0
370
    -2
100
AcDbLine
 10
-0.5
 20
0.0
 30
0.0
 11
-1.0
 21
0.0
 31
0.0
  0
ENDBLK
  5
30
330
29
100
AcDbEntity
  8
0
100
AcDbBlockEnd
  0
BLOCK
  5
32
330
31
100
AcDbEntity
  8
0
100
AcDbBlockBegin
  2
_OBLIQUE
 70
     0
 10
0.0
 20
0.0
 30
0.0
  3
_OBLIQUE
  1

  0
LINE
  5
33
330
31
100
AcDbEntity
  8
0
  6
BYBLOCK
 62
     0
370
    -2
100
AcDbLine
 10
-0.5
 20
-0.5
 30
0.0
 11
0.5
 21
0.5
 31
0.0
  0
ENDBLK
  5
34
330
31
100
AcDbEntity
  8
0
100
AcDbBlockEnd
  0
BLOCK
  5
36
330
35
100
AcDbEntity
  8
0
100
AcDbBlockBegin
  2
_OPEN90
 70
     0
 10
0.0
 20
0.0
 30
0.0
  3
_OPEN90
  1

  0
LINE
  5
37
330
35
100
AcDbEntity
  8
0
  6
BYBLOCK
 62
     0
370
    -2
100
AcDbLine
 10
-0.5
 20
0.5
 30
0.0
 11
0.0
 21
0.0
 31
0.0
  0
LINE
  5
38
330
35
100
AcDbEntity
  8
0
  6
BYBLOCK
 62
     0
370
    -2
100
AcDbLine
 10
0.0
 20
0.0
 30
0.0
 11
-0.5
 21
-0.5
 31
0.0
  0
LINE
  5
39
330
35
100
AcDbEntity
  8
0
  6
BYBLOCK
 62
     0
370
    -2
100
AcDbLine
 10
0.0
 20
0.0
 30
0.0
 11
-1.0
 21
0.0
 31
0.0
  0
ENDBLK
  5
3A
330
35
100
AcDbEntity
  8
0
100
AcDbBlockEnd
  0
BLOCK
  5
3C
330
3B
100
AcDbEntity
  8
0
100
AcDbBlockBegin
  2
_CLOSEDBLANK
 70
     0
 10
0.0
 20
0.0
 30
0.0
  3
_CLOSEDBLANK
  1

  0
LINE
  5
3D
330
3B
100
AcDbEntity
  8
0
  6
BYBLOCK
 62
     0
370
    -2
100
AcDbLine
 10
-1.0
 20
0.1666666666666666
 30
0.0
 11
0.0
 21
0.0
 31
0.0
  0
LINE
  5
3E
330
3B
100
AcDbEntity
  8
0
  6
BYBLOCK
 62
     0
370
    -2
100
AcDbLine
 10
0.0
 20
0.0
 30
0.0
 11
-1.0
 21
-0.1666666666666666
 31
0.0
  0
LINE
  5
3F
330
3B
100
AcDbEntity
  8
0
  6
BYBLOCK
 62
     0
370
    -2
100
AcDbLine
 10
-1.0
 20
0.1666666666666666
 30
0.0
 11
-1.0
 21
-0.1666666666666666
 31
0.0
  0
ENDBLK
  5
40
330
3B
100
AcDbEntity
  8
0
100
AcDbBlockEnd
  0
BLOCK
  5
42
330
41
100
AcDbEntity
  8
0
100
AcDbBlockBegin
  2
_DOTBLANK
 70
     0
 10
0.0
 20
0.0
 30
0.0
  3
_DOTBLANK
  1

  0
CIRCLE
  5
43
330
41
100
AcDbEntity
  8
0
  6
BYBLOCK
 62
     0
370
    -2
100
AcDbCircle
 10
0.0
 20
0.0
 30
0.0
 40
0.5
  0
LINE
  5
44
330
41
100
AcDbEntity
  8
0
  6
BYBLOCK
 62
     0
370
    -2
100
AcDbLine
 10
-0.5
 20
0.0
 30
0.0
 11
-1.0
 21
0.0
 31
0.0
  0
ENDBLK
  5
45
330
41
100
AcDbEntity
  8
0
100
AcDbBlockEnd
  0
ENDSEC
  0
SECTION
  2
ENTITIES
  0
MTEXT
  5
46
100
AcDbEntity
  8
A8
  6
CONTINUOUS
 62
3
100
AcDbMText
 10
9.999997526638502
 20
18.00000076076889
 30
0.000000000000000
 40
3.000000000000000
 41
0.000000000000000
 44
0.6739999771118164
 71
     7
 72
     1
  1
{\H0.94x;{TYPE No.TCA-415E-U40}}
 11
1.000000000000000
 21
0.000000000000000
 31
0.000000000000000
  7
STANDARD
  0
POINT
  5
47
100
AcDbEntity
  8
A0
  6
CONTINUOUS
 62
3
100
AcDbPoint
 10
9.999997526638502
 20
18.00000076076889
 30
0.000000000000000
  0
ARC
  5
48
100
AcDbEntity
  8
A1
  6
CONTINUOUS
 62
7
100
AcDbCircle
 10
50.50000000000000
 20
50.00000000000000
 30
0.000000000000000
 40
0.5000000000000000
100
AcDbArc
 50
180.0000000000000
 51
257.6822340000004
  0
LINE
  5
49
100
AcDbEntity
  8
A1
  6
CONTINUOUS
 62
7
100
AcDbLine
 10
153.4999999999999
 20
191.1367300000000
 30
0.000000000000000
 11
192.5000000000001
 21
191.1367300000000
 31
0.000000000000000
  0
CIRCLE
  5
4A
100
AcDbEntity
  8
A1
  6
CONTINUOUS
 62
7
100
AcDbCircle
 10
173.0000000000001
 20
175.6367300000000
 30
0.000000000000000
 40
5.750000000000000
  0
LINE
  5
4B
100
AcDbEntity
  8
A4
  6
CENTER
 62
1
100
AcDbLine
 10
144.7368319999999
 20
175.6367300000000
 30
0.000000000000000
 11
201.2631680000000
 21
175.6367300000000
 31
0.000000000000000
  0
LINE
  5
4C
100
AcDbEntity
  8
A1
  6
CONTINUOUS
 62
7
100
AcDbLine
 10
153.4999999999999
 20
160.1367299999999
 30
0.000000000000000
 11
192.5000000000001
 21
160.1367299999999
 31
0.000000000000000
  0
CIRCLE
  5
4D
100
AcDbEntity
  8
A1
  6
CONTINUOUS
 62
7
100
AcDbCircle
 10
173.0000000000001
 20
175.6367300000000
 30
0.000000000000000
 40
7.500000000000000
  0
ARC
  5
4E
100
AcDbEntity
  8
A1
  6
CONTINUOUS
 62
7
100
AcDbCircle
 10
168.9412570000000
 20
99.62123089999994
 30
0.000000000000000
 40
1.984500099999999
100
AcDbArc
 50
311.5784599999994
 51
342.8704800000000
  0
LINE
  5
4F
100
AcDbEntity
  8
A5
  6
PHANTOM
 62
6
100
AcDbLine
 10
169.9739300000000
 20
76.10517099999996
 30
0.000000000000000
 11
171.6053960000000
 21
74.94831099999996
 31
0.000000000000000
  0
LINE
  5
50
100
AcDbEntity
  8
A5
  6
PHANTOM
 62
6
100
AcDbLine
 10
167.9016340000000
 20
69.72507800000005
 30
0.000000000000000
 11
171.6053960000000
 21
74.94831100000006
 31
0.000000000000000
  0
LINE
  5
51
100
AcDbEntity
  8
A5
  6
PHANTOM
 62
6
100
AcDbLine
 10
164.0849740000000
 20
74.87246499999999
 30
0.000000000000000
 11
178.2635880000001
 21
78.93811599999999
 31
0.000000000000000
  0
LINE
  5
52
100
AcDbEntity
  8
A5
  6
PHANTOM
 62
6
100
AcDbLine
 10
163.5888270000000
 20
76.60273500000000
 30
0.000000000000000
 11
177.7674410000000
 21
80.66838599999997
 31
0.000000000000000
  0
LINE
  5
53
100
AcDbEntity
  8
A1
  6
CONTINUOUS
 62
7
100
AcDbLine
 10
164.4442250000001
 20
70.47302199999999
 30
0.000000000000000
 11
182.3101120000000
 21
90.01085299999986
 31
0.000000000000000
  0
LINE
  5
54
100
AcDbEntity
  8
A1
  6
CONTINUOUS
 62
7
100
AcDbLine
 10
156.9936180000000
 20
98.13673049999994
 30
0.000000000000000
 11
187.5000000000001
 21
98.13673049999994
 31
0.000000000000000
  0
LINE
  5
55
100
AcDbEntity
  8
A1
  6
CONTINUOUS
 62
7
100
AcDbLine
 10
157.5000000000001
 20
99.03673059999993
 30
0.000000000000000
 11
188.5000000000000
 21
99.03673060000003
 31
0.000000000000000
  0
LINE
  5
56
100
AcDbEntity
  8
A1
  6
CONTINUOUS
 62
7
100
AcDbLine
 10
157.5000000000001
 20
101.8367307999999
 30
0.000000000000000
 11
188.5000000000001
 21
101.8367307999999
 31
0.000000000000000
  0
LINE
  5
57
100
AcDbEntity
  8
A1
  6
CONTINUOUS
 62
7
100
AcDbLine
 10
164.5526430000000
 20
60.34527600000001
 30
0.000000000000000
 11
170.8827709999999
 21
61.30937900000000
 31
0.000000000000000
  0
LINE
  5
58
100
AcDbEntity
  8
A1
  6
CONTINUOUS
 62
7
100
AcDbLine
 10
164.8537789999999
 20
58.36807599999999
 30
0.000000000000000
 11
171.1839070000000
 21
59.33217999999999
 31
0.000000000000000
  0
LINE
  5
59
100
AcDbEntity
  8
A1
  6
CONTINUOUS
 62
7
100
AcDbLine
 10
165.9052200000000
 20
64.68922799999996
 30
0.000000000000000
 11
178.6790960000000
 21
57.31422800000000
 31
0.000000000000000
  0
LINE
  5
5A
100
AcDbEntity
  8
A1
  6
CONTINUOUS
 62
7
100
AcDbLine
 10
166.8052220000001
 20
66.24807299999995
 30
0.000000000000000
 11
179.5790980000001
 21
58.87307299999995
 31
0.000000000000000
  0
ARC
  5
5B
100
AcDbEntity
  8
A1
  6
CONTINUOUS
 62
7
100
AcDbCircle
 10
166.0263370000001
 20
101.5420325000000
 30
0.000000000000000
 40
45.00000000000000
100
AcDbArc
 50
255.9108600000000
 51
284.2033300000006
  0
ARC
  5
5C
100
AcDbEntity
  8
A5
  6
PHANTOM
 62
6
100
AcDbCircle
 10
137.6594191000000
 20
100.5596935999999
 30
0.000000000000000
 40
45.00000000000000
100
AcDbArc
 50
301.9108600000000
 51
330.2033300000001
  0
LINE
  5
5D
100
AcDbEntity
  8
A1
  6
CONTINUOUS
 62
7
100
AcDbLine
 10
147.5000000000001
 20
105.6367299999999
 30
0.000000000000000
 11
198.5000000000001
 21
105.6367299999999
 31
0.000000000000000
  0
LINE
  5
5E
100
AcDbEntity
  8
A1
  6
CONTINUOUS
 62
7
100
AcDbLine
 10
147.5000000000001
 20
103.3367307999999
 30
0.000000000000000
 11
198.5000000000001
 21
103.3367307999999
 31
0.000000000000000
  0
ARC
  5
5F
100
AcDbEntity
  8
A1
  6
CONTINUOUS
 62
7
100
AcDbCircle
 10
44.25659200000001
 20
95.13673099999994
 30
0.000000000000000
 40
3.000000000000000
100
AcDbArc
 50
90.00000299999932
 51
179.0562800000000
  0
ARC
  5
60
100
AcDbEntity
  8
A1
  6
CONTINUOUS
 62
7
100
AcDbCircle
 10
45.54392999999999
 20
100.6669410000000
 30
0.000000000000000
 40
2.799999999999999
100
AcDbArc
 50
107.5419900000006
 51
155.3053600000000
  0
LINE
  5
61
100
AcDbEntity
  8
A4
  6
CENTER
 62
1
100
AcDbLine
 10
42.10332499999998
 20
67.63673000000000
 30
0.000000000000000
 11
80.29061900000005
 21
67.63673000000000
 31
0.000000000000000
  0
LINE
  5
62
100
AcDbEntity
  8
A1
  6
CONTINUOUS
 62
7
100
AcDbLine
 10
43.00000000000000
 20
105.6367299999999
 30
0.000000000000000
 11
74.00000000000000
 21
105.6367299999999
 31
0.000000000000000
  0
LINE
  5
63
100
AcDbEntity
  8
A1
  6
CONTINUOUS
 62
7
100
AcDbLine
 10
43.00000000000000
 20
103.3367307999999
 30
0.000000000000000
 11
74.00000000000000
 21
103.3367307999999
 31
0.000000000000000
  0
LINE
  5
64
100
AcDbEntity
  8
A1
  6
CONTINUOUS
 62
7
100
AcDbLine
 10
43.00000000000000
 20
99.03673059999991
 30
0.000000000000000
 11
74.00000000000001
 21
99.03673060000001
 31
0.000000000000000
  0
LINE
  5
65
100
AcDbEntity
  8
A1
  6
CONTINUOUS
 62
7
100
AcDbLine
 10
43.00000000000000
 20
101.8367307999999
 30
0.000000000000000
 11
74.00000000000000
 21
101.8367307999999
 31
0.000000000000000
  0
ARC
  5
66
100
AcDbEntity
  8
A1
  6
CONTINUOUS
 62
7
100
AcDbCircle
 10
62.49807699999997
 20
79.29719100000000
 30
0.000000000000000
 40
21.50000000000000
100
AcDbArc
 50
179.2341099999998
 51
215.0635699999993
  0
LINE
  5
67
100
AcDbEntity
  8
A1
  6
CONTINUOUS
 62
7
100
AcDbLine
 10
41.00000799999999
 20
79.58457899999999
 30
0.000000000000000
 11
41.25700400000000
 21
95.18614099999995
 31
0.000000000000000
  0
LINE
  5
68
100
AcDbEntity
  8
A1
  6
CONTINUOUS
 62
7
100
AcDbLine
 10
43.00000000000000
 20
101.8367307999999
 30
0.000000000000000
 11
43.00000000000000
 21
99.03673059999994
 31
0.000000000000000
  0
LINE
  5
69
100
AcDbEntity
  8
A1
  6
CONTINUOUS
 62
7
100
AcDbLine
 10
43.00000000000000
 20
105.6367299999999
 30
0.000000000000000
 11
43.00000000000000
 21
103.3367307999999
 31
0.000000000000000
  0
ARC
  5
6A
100
AcDbEntity
  8
A1
  6
CONTINUOUS
 62
7
100
AcDbCircle
 10
87.19999700000000
 20
82.81422999999999
 30
0.000000000000000
 40
2.500000000000000
100
AcDbArc
 50
294.2309299999997
 51
423.0190549999994
  0
ARC
  5
6B
100
AcDbEntity
  8
A1
  6
CONTINUOUS
 62
7
100
AcDbCircle
 10
87.19999700000000
 20
84.37307499999993
 30
0.000000000000000
 40
2.500000000000000
100
AcDbArc
 50
0.000000000000000
 51
63.01905499999936
  0
ARC
  5
6C
100
AcDbEntity
  8
A1
  6
CONTINUOUS
 62
7
100
AcDbCircle
 10
72.59999800000003
 20
83.56422999999994
 30
0.000000000000000
 40
2.000000000000000
100
AcDbArc
 50
109.1999600000003
 51
180.0000100000002
  0
LINE
  5
6D
100
AcDbEntity
  8
A1
  6
CONTINUOUS
 62
7
100
AcDbLine
 10
72.23883799999993
 20
84.03754399999991
 30
0.000000000000000
 11
77.46997799999988
 21
85.81873100000000
 31
0.000000000000000
  0
LINE
  5
6E
100
AcDbEntity
  8
A1
  6
CONTINUOUS
 62
7
100
AcDbLine
 10
69.00000000000000
 20
94.07238199999995
 30
0.000000000000000
 11
69.00000000000000
 21
74.52465600000001
 31
0.000000000000000
  0
LINE
  5
6F
100
AcDbEntity
  8
A1
  6
CONTINUOUS
 62
7
100
AcDbLine
 10
48.00000000000000
 20
94.07238199999995
 30
0.000000000000000
 11
48.00000000000000
 21
61.63673000000000
 31
0.000000000000000
  0
LINE
  5
70
100
AcDbEntity
  8
A1
  6
CONTINUOUS
 62
7
100
AcDbLine
 10
70.59999800000003
 20
94.47849099999993
 30
0.000000000000000
 11
70.59999800000003
 21
57.86533700000001
 31
0.000000000000000
  0
LINE
  5
71
100
AcDbEntity
  8
A1
  6
CONTINUOUS
 62
7
100
AcDbLine
 10
46.40000200000003
 20
94.47849099999993
 30
0.000000000000000
 11
46.40000200000003
 21
61.63673000000000
 31
0.000000000000000
  0
LINE
  5
72
100
AcDbEntity
  8
A4
  6
CENTER
 62
1
100
AcDbLine
 10
58.50000000000000
 20
109.3033959999999
 30
0.000000000000000
 11
58.50000000000000
 21
45.88894300000000
 31
0.000000000000000
  0
LINE
  5
73
100
AcDbEntity
  8
A1
  6
CONTINUOUS
 62
7
100
AcDbLine
 10
72.40000200000003
 20
76.56217599999999
 30
0.000000000000000
 11
79.40000200000003
 21
76.56217599999999
 31
0.000000000000000
  0
ARC
  5
74
100
AcDbEntity
  8
A1
  6
CONTINUOUS
 62
7
100
AcDbCircle
 10
74.50000000000000
 20
71.13673000000000
 30
0.000000000000000
 40
2.500000000000000
100
AcDbArc
 50
0.000000000000000
 51
90.00000299999932
  0
ARC
  5
75
100
AcDbEntity
  8
A1
  6
CONTINUOUS
 62
7
100
AcDbCircle
 10
74.50000000000000
 20
64.13672999999999
 30
0.000000000000000
 40
2.500000000000000
100
AcDbArc
 50
270.0000000000000
 51
360.0000000000000
  0
ARC
  5
76
100
AcDbEntity
  8
A1
  6
CONTINUOUS
 62
7
100
AcDbCircle
 10
79.40509000000003
 20
69.76293200000001
 30
0.000000000000000
 40
12.45219400000000
100
AcDbArc
 50
253.6512099999999
 51
303.6707899999996
  0
LINE
  5
77
100
AcDbEntity
  8
A1
  6
CONTINUOUS
 62
7
100
AcDbLine
 10
75.89999799999993
 20
62.06549799999999
 30
0.000000000000000
 11
75.89999799999993
 21
56.54203400000000
 31
0.000000000000000
  0
LINE
  5
78
100
AcDbEntity
  8
A1
  6
CONTINUOUS
 62
7
100
AcDbLine
 10
48.00000000000000
 20
61.63673000000000
 30
0.000000000000000
 11
48.00000000000000
 21
59.35605600000000
 31
0.000000000000000
  0
LINE
  5
79
100
AcDbEntity
  8
A1
  6
CONTINUOUS
 62
7
100
AcDbLine
 10
72.40000200000003
 20
81.50761800000001
 30
0.000000000000000
 11
72.40000200000003
 21
57.86533700000001
 31
0.000000000000000
  0
LINE
  5
7A
100
AcDbEntity
  8
A1
  6
CONTINUOUS
 62
7
100
AcDbLine
 10
74.00000000000000
 20
74.01675200000000
 30
0.000000000000000
 11
74.00000000000000
 21
61.25670600000001
 31
0.000000000000000
  0
ARC
  5
7B
100
AcDbEntity
  8
A1
  6
CONTINUOUS
 62
7
100
AcDbCircle
 10
49.00000000000000
 20
59.35605600000000
 30
0.000000000000000
 40
1.000000000000000
100
AcDbArc
 50
179.9999799999996
 51
250.0001099999993
  0
LINE
  5
7C
100
AcDbEntity
  8
A1
  6
CONTINUOUS
 62
7
100
AcDbLine
 10
50.00000000000002
 20
57.92791314647845
 30
0.000000000000000
 11
48.65798200000000
 21
58.41636600000003
 31
0.000000000000000
  0
ARC
  5
7D
100
AcDbEntity
  8
A1
  6
CONTINUOUS
 62
7
100
AcDbCircle
 10
72.69999699999988
 20
57.86533700000001
 30
0.000000000000000
 40
0.3000000100000000
100
AcDbArc
 50
179.9999899999998
 51
258.7282999999997
  0
ARC
  5
7E
100
AcDbEntity
  8
A1
  6
CONTINUOUS
 62
7
100
AcDbCircle
 10
72.40000200000003
 20
61.25670600000001
 30
0.000000000000000
 40
1.600000000000000
100
AcDbArc
 50
270.0000000000000
 51
360.0000000000000
  0
LINE
  5
7F
100
AcDbEntity
  8
A1
  6
CONTINUOUS
 62
7
100
AcDbLine
 10
73.85863499999986
 20
56.96976100000003
 30
0.000000000000000
 11
70.84136199999999
 21
57.57112100000003
 31
0.000000000000000
  0
LINE
  5
80
100
AcDbEntity
  8
A1
  6
CONTINUOUS
 62
7
100
AcDbLine
 10
70.60323299999993
 20
57.82140699999999
 30
0.000000000000000
 11
72.40322900000001
 21
57.82140699999999
 31
0.000000000000000
  0
ARC
  5
81
100
AcDbEntity
  8
A1
  6
CONTINUOUS
 62
7
100
AcDbCircle
 10
70.90000200000003
 20
57.86533700000001
 30
0.000000000000000
 40
0.3000000100000000
100
AcDbArc
 50
179.9999899999998
 51
258.7282999999997
  0
LINE
  5
82
100
AcDbEntity
  8
A1
  6
CONTINUOUS
 62
7
100
AcDbLine
 10
74.09999800000003
 20
56.54203400000000
 30
0.000000000000000
 11
75.89999799999993
 21
56.54203400000000
 31
0.000000000000000
  0
LINE
  5
83
100
AcDbEntity
  8
A1
  6
CONTINUOUS
 62
7
100
AcDbLine
 10
74.09999800000003
 20
56.67554799999999
 30
0.000000000000000
 11
74.09999800000003
 21
56.54203400000000
 31
0.000000000000000
  0
ARC
  5
84
100
AcDbEntity
  8
A1
  6
CONTINUOUS
 62
7
100
AcDbCircle
 10
75.59999799999997
 20
56.67554799999999
 30
0.000000000000000
 40
0.3000000100000000
100
AcDbArc
 50
0.000000000000000
 51
78.72831200000036
  0
ARC
  5
85
100
AcDbEntity
  8
A1
  6
CONTINUOUS
 62
7
100
AcDbCircle
 10
73.79999500000002
 20
56.67554799999999
 30
0.000000000000000
 40
0.3000000100000000
100
AcDbArc
 50
0.000000000000000
 51
78.72831200000036
  0
LINE
  5
86
100
AcDbEntity
  8
A1
  6
CONTINUOUS
 62
7
100
AcDbLine
 10
72.64135700000003
 20
57.57112100000002
 30
0.000000000000000
 11
75.65863400000002
 21
56.96976100000002
 31
0.000000000000000
  0
LINE
  5
87
100
AcDbEntity
  8
A1
  6
CONTINUOUS
 62
7
100
AcDbLine
 10
69.00000000000006
 20
70.63672999999997
 30
0.000000000000000
 11
68.50000000000006
 21
70.63673000000000
 31
0.000000000000000
  0
LINE
  5
88
100
AcDbEntity
  8
A1
  6
CONTINUOUS
 62
7
100
AcDbLine
 10
69.00000000000000
 20
64.63673000000000
 30
0.000000000000000
 11
68.50000000000000
 21
64.63673000000000
 31
0.000000000000000
  0
LINE
  5
89
100
AcDbEntity
  8
A1
  6
CONTINUOUS
 62
7
100
AcDbLine
 10
44.90000200000003
 20
70.93672899999999
 30
0.000000000000000
 11
44.90000200000003
 21
64.33673100000000
 31
0.000000000000000
  0
LINE
  5
8A
100
AcDbEntity
  8
A1
  6
CONTINUOUS
 62
7
100
AcDbLine
 10
46.40000200000003
 20
61.63673000000000
 30
0.000000000000000
 11
48.00000000000000
 21
61.63673000000000
 31
0.000000000000000
  0
ARC
  5
8B
100
AcDbEntity
  8
A1
  6
CONTINUOUS
 62
7
100
AcDbCircle
 10
46.09999799999997
 20
64.33673100000000
 30
0.000000000000000
 40
1.199999999999999
100
AcDbArc
 50
179.9999799999996
 51
270.0000299999997
  0
LINE
  5
8C
100
AcDbEntity
  8
A1
  6
CONTINUOUS
 62
7
100
AcDbLine
 10
46.09999799999997
 20
63.13672999999999
 30
0.000000000000000
 11
46.40000200000003
 21
63.13672999999999
 31
0.000000000000000
  0
LINE
  5
8D
100
AcDbEntity
  8
A1
  6
CONTINUOUS
 62
7
100
AcDbLine
 10
46.09999799999997
 20
72.13673000000000
 30
0.000000000000000
 11
46.40000200000003
 21
72.13673000000000
 31
0.000000000000000
  0
ARC
  5
8E
100
AcDbEntity
  8
A1
  6
CONTINUOUS
 62
7
100
AcDbCircle
 10
46.09999799999997
 20
70.93672899999999
 30
0.000000000000000
 40
1.199999999999999
100
AcDbArc
 50
89.99998200000080
 51
179.9999600000000
  0
LINE
  5
8F
100
AcDbEntity
  8
A1
  6
CONTINUOUS
 62
7
100
AcDbLine
 10
49.99999999999999
 20
77.34555230431023
 30
0.000000000000000
 11
48.65798199999992
 21
76.85709699999997
 31
0.000000000000000
  0
ARC
  5
90
100
AcDbEntity
  8
A1
  6
CONTINUOUS
 62
7
100
AcDbCircle
 10
49.00000000000000
 20
75.91740599999999
 30
0.000000000000000
 40
1.000000000000000
100
AcDbArc
 50
109.9999299999993
 51
179.9999600000000
  0
ARC
  5
91
100
AcDbEntity
  8
A1
  6
CONTINUOUS
 62
7
100
AcDbCircle
 10
71.09999800000003
 20
73.15821400000002
 30
0.000000000000000
 40
2.500000000000000
100
AcDbArc
 50
143.1772399999998
 51
216.8227700000000
  0
ARC
  5
92
100
AcDbEntity
  8
A1
  6
CONTINUOUS
 62
7
100
AcDbCircle
 10
71.59999800000003
 20
73.15821400000002
 30
0.000000000000000
 40
3.000000000000000
100
AcDbArc
 50
179.9999899999998
 51
213.0540500000002
  0
LINE
  5
93
100
AcDbEntity
  8
A1
  6
CONTINUOUS
 62
7
100
AcDbLine
 10
69.00000000000000
 20
71.65335800000000
 30
0.000000000000000
 11
69.00000000000000
 21
61.63673000000000
 31
0.000000000000000
  0
LINE
  5
94
100
AcDbEntity
  8
A1
  6
CONTINUOUS
 62
7
100
AcDbLine
 10
74.00000000000009
 20
64.33673499999996
 30
0.000000000000000
 11
72.40000200000006
 21
65.38592499999997
 31
0.000000000000000
  0
LINE
  5
95
100
AcDbEntity
  8
A1
  6
CONTINUOUS
 62
7
100
AcDbLine
 10
69.00000000000000
 20
61.63673000000000
 30
0.000000000000000
 11
70.59999800000003
 21
61.63673000000000
 31
0.000000000000000
  0
LINE
  5
96
100
AcDbEntity
  8
A1
  6
CONTINUOUS
 62
7
100
AcDbLine
 10
74.00000000000000
 20
64.63673000000000
 30
0.000000000000000
 11
73.54250299999990
 21
64.63673000000000
 31
0.000000000000000
  0
LINE
  5
97
100
AcDbEntity
  8
A1
  6
CONTINUOUS
 62
7
100
AcDbLine
 10
74.00000000000000
 20
61.63673000000000
 30
0.000000000000000
 11
74.50000000000000
 21
61.63673000000000
 31
0.000000000000000
  0
LINE
  5
98
100
AcDbEntity
  8
A1
  6
CONTINUOUS
 62
7
100
AcDbLine
 10
72.40000200000003
 20
70.36689700000002
 30
0.000000000000000
 11
73.99999200000001
 21
70.93672899999999
 31
0.000000000000000
  0
LINE
  5
99
100
AcDbEntity
  8
A1
  6
CONTINUOUS
 62
7
100
AcDbLine
 10
70.59999800000001
 20
69.65478500000000
 30
0.000000000000000
 11
69.09877000000002
 21
71.65986600000002
 31
0.000000000000000
  0
LINE
  5
9A
100
AcDbEntity
  8
A1
  6
CONTINUOUS
 62
7
100
AcDbLine
 10
70.59999800000003
 20
69.19465599999999
 30
0.000000000000000
 11
69.08552600000003
 21
71.52192299999999
 31
0.000000000000000
  0
LINE
  5
9B
100
AcDbEntity
  8
A1
  6
CONTINUOUS
 62
7
100
AcDbLine
 10
74.00000000000000
 20
70.63672999999999
 30
0.000000000000000
 11
73.15764600000000
 21
70.63672999999999
 31
0.000000000000000
  0
ARC
  5
9C
100
AcDbEntity
  8
A1
  6
CONTINUOUS
 62
7
100
AcDbCircle
 10
72.40000200000003
 20
74.01675200000000
 30
0.000000000000000
 40
1.600000000000000
100
AcDbArc
 50
0.000000000000000
 51
90.00000299999932
  0
LINE
  5
9D
100
AcDbEntity
  8
A1
  6
CONTINUOUS
 62
7
100
AcDbLine
 10
70.59999799999999
 20
76.66164599999999
 30
0.000000000000000
 11
69.09876299999999
 21
74.65656800000001
 31
0.000000000000000
  0
LINE
  5
9E
100
AcDbEntity
  8
A1
  6
CONTINUOUS
 62
7
100
AcDbLine
 10
74.00000000000000
 20
73.63673000000000
 30
0.000000000000000
 11
74.50000000000000
 21
73.63673000000000
 31
0.000000000000000
  0
ARC
  5
9F
100
AcDbEntity
  8
A1
  6
CONTINUOUS
 62
7
100
AcDbCircle
 10
68.40000200000003
 20
81.50267599999999
 30
0.000000000000000
 40
4.000000000000000
100
AcDbArc
 50
0.000000000000000
 51
27.26604500000036
  0
ARC
  5
A0
100
AcDbEntity
  8
A1
  6
CONTINUOUS
 62
7
100
AcDbCircle
 10
72.40000200000003
 20
83.56422999999994
 30
0.000000000000000
 40
0.5000000000000000
100
AcDbArc
 50
108.8035500000006
 51
207.2660399999999
  0
LINE
  5
A1
100
AcDbEntity
  8
A1
  6
CONTINUOUS
 62
7
100
AcDbLine
 10
87.19999700000000
 20
62.28272999999999
 30
0.000000000000000
 11
87.19999700000000
 21
61.06422800000000
 31
0.000000000000000
  0
ARC
  5
A2
100
AcDbEntity
  8
A1
  6
CONTINUOUS
 62
7
100
AcDbCircle
 10
85.19999699999988
 20
61.06422800000000
 30
0.000000000000000
 40
2.000000000000000
100
AcDbArc
 50
303.6707899999996
 51
420.7943869999995
  0
LINE
  5
A3
100
AcDbEntity
  8
A1
  6
CONTINUOUS
 62
7
100
AcDbLine
 10
77.00000000000001
 20
70.07057900000001
 30
0.000000000000000
 11
78.36121700000001
 21
76.56217599999997
 31
0.000000000000000
  0
LINE
  5
A4
100
AcDbEntity
  8
A1
  6
CONTINUOUS
 62
7
100
AcDbLine
 10
77.00000000000006
 20
68.00531399999991
 30
0.000000000000000
 11
85.61683700000002
 21
64.60854299999994
 31
0.000000000000000
  0
LINE
  5
A5
100
AcDbEntity
  8
A1
  6
CONTINUOUS
 62
7
100
AcDbLine
 10
76.99999599999994
 20
67.93938800000005
 30
0.000000000000000
 11
86.17588800000007
 21
62.80997800000002
 31
0.000000000000000
  0
LINE
  5
A6
100
AcDbEntity
  8
A1
  6
CONTINUOUS
 62
7
100
AcDbLine
 10
77.00000000000006
 20
71.13673000000000
 30
0.000000000000000
 11
77.00000000000006
 21
64.13672999999999
 31
0.000000000000000
  0
ARC
  5
A7
100
AcDbEntity
  8
A1
  6
CONTINUOUS
 62
7
100
AcDbCircle
 10
84.69999700000000
 20
62.28272999999999
 30
0.000000000000000
 40
2.500000000000000
100
AcDbArc
 50
0.000000000000000
 51
68.48556900000014
  0
LINE
  5
A8
100
AcDbEntity
  8
A1
  6
CONTINUOUS
 62
7
100
AcDbLine
 10
79.40000500000005
 20
76.56217699999999
 30
0.000000000000000
 11
88.22603600000001
 21
80.53448299999998
 31
0.000000000000000
  0
LINE
  5
A9
100
AcDbEntity
  8
A1
  6
CONTINUOUS
 62
7
100
AcDbLine
 10
89.69999700000000
 20
84.37307499999993
 30
0.000000000000000
 11
89.69999700000000
 21
82.81422999999999
 31
0.000000000000000
  0
LINE
  5
AA
100
AcDbEntity
  8
A1
  6
CONTINUOUS
 62
7
100
AcDbLine
 10
71.94226800000010
 20
85.45297999999994
 30
0.000000000000000
 11
77.37839100000008
 21
87.34603499999994
 31
0.000000000000000
  0
ARC
  5
AB
100
AcDbEntity
  8
A1
  6
CONTINUOUS
 62
7
100
AcDbCircle
 10
58.50000000000000
 20
99.62123089999994
 30
0.000000000000000
 40
1.984500099999999
100
AcDbArc
 50
311.5784800000001
 51
342.8704700000001
  0
LINE
  5
AC
100
AcDbEntity
  8
A1
  6
CONTINUOUS
 62
7
100
AcDbLine
 10
44.25659200000001
 20
98.13673099999994
 30
0.000000000000000
 11
72.74340799999999
 21
98.13673099999994
 31
0.000000000000000
  0
LINE
  5
AD
100
AcDbEntity
  8
A1
  6
CONTINUOUS
 62
7
100
AcDbLine
 10
48.00000000000000
 20
91.63672900000003
 30
0.000000000000000
 11
69.00000000000000
 21
91.63672900000003
 31
0.000000000000000
  0
ARC
  5
AE
100
AcDbEntity
  8
A1
  6
CONTINUOUS
 62
7
100
AcDbCircle
 10
58.50000000000000
 20
177.0112799999999
 30
0.000000000000000
 40
80.58923299999999
100
AcDbArc
 50
263.3653200000005
 51
276.6346799999995
  0
ARC
  5
AF
100
AcDbEntity
  8
A1
  6
CONTINUOUS
 62
7
100
AcDbCircle
 10
58.50000000000000
 20
360.4698300000000
 30
0.000000000000000
 40
265.5667700000000
100
AcDbArc
 50
267.9576400000006
 51
272.0423599999993
  0
ARC
  5
B0
100
AcDbEntity
  8
A1
  6
CONTINUOUS
 62
7
100
AcDbCircle
 10
48.90000200000003
 20
94.47849099999993
 30
0.000000000000000
 40
2.500000000000000
100
AcDbArc
 50
83.36532099999944
 51
180.0000100000002
  0
LINE
  5
B1
100
AcDbEntity
  8
A1
  6
CONTINUOUS
 62
7
100
AcDbLine
 10
48.06874099999999
 20
94.43673200000003
 30
0.000000000000000
 11
68.93126208851214
 21
94.43673200000003
 31
0.000000000000000
  0
LINE
  5
B2
100
AcDbEntity
  8
A1
  6
CONTINUOUS
 62
7
100
AcDbLine
 10
47.99999999999999
 20
90.03673100000002
 30
0.000000000000000
 11
68.99999999999999
 21
90.03673099999992
 31
0.000000000000000
  0
ARC
  5
B3
100
AcDbEntity
  8
A1
  6
CONTINUOUS
 62
7
100
AcDbCircle
 10
51.38872499999997
 20
94.57222999999993
 30
0.000000000000000
 40
1.984500099999999
100
AcDbArc
 50
165.8665800000000
 51
183.9151000000000
  0
ARC
  5
B4
100
AcDbEntity
  8
A1
  6
CONTINUOUS
 62
7
100
AcDbCircle
 10
49.00000000000000
 20
94.07238199999995
 30
0.000000000000000
 40
1.000000000000000
100
AcDbArc
 50
87.95763900000068
 51
180.0000100000002
  0
ARC
  5
B5
100
AcDbEntity
  8
A1
  6
CONTINUOUS
 62
7
100
AcDbCircle
 10
54.53099800000001
 20
94.57222999999993
 30
0.000000000000000
 40
1.984500099999999
100
AcDbArc
 50
168.4700599999999
 51
183.9151000000000
  0
ARC
  5
B6
100
AcDbEntity
  8
A1
  6
CONTINUOUS
 62
7
100
AcDbCircle
 10
54.53099800000001
 20
94.57222999999993
 30
0.000000000000000
 40
1.984500099999999
100
AcDbArc
 50
356.0848999999999
 51
369.8195888000002
  0
ARC
  5
B7
100
AcDbEntity
  8
A1
  6
CONTINUOUS
 62
7
100
AcDbCircle
 10
58.50000000000000
 20
94.57222999999993
 30
0.000000000000000
 40
1.984500099999999
100
AcDbArc
 50
170.1931200000002
 51
183.9151000000000
  0
ARC
  5
B8
100
AcDbEntity
  8
A1
  6
CONTINUOUS
 62
7
100
AcDbCircle
 10
46.38249200000001
 20
99.62123089999994
 30
0.000000000000000
 40
1.984500099999999
100
AcDbArc
 50
197.1295099999998
 51
228.4215100000004
  0
ARC
  5
B9
100
AcDbEntity
  8
A1
  6
CONTINUOUS
 62
7
100
AcDbCircle
 10
46.00000000000000
 20
99.62123089999994
 30
0.000000000000000
 40
1.984500099999999
100
AcDbArc
 50
197.1295099999998
 51
228.4215100000004
  0
ARC
  5
BA
100
AcDbEntity
  8
A1
  6
CONTINUOUS
 62
7
100
AcDbCircle
 10
48.03541600000000
 20
99.62123089999994
 30
0.000000000000000
 40
1.984500099999999
100
AcDbArc
 50
197.1295099999998
 51
228.4215100000004
  0
ARC
  5
BB
100
AcDbEntity
  8
A1
  6
CONTINUOUS
 62
7
100
AcDbCircle
 10
50.82234199999999
 20
99.62123089999994
 30
0.000000000000000
 40
1.984500099999999
100
AcDbArc
 50
197.1295099999998
 51
228.4215100000004
  0
ARC
  5
BC
100
AcDbEntity
  8
A1
  6
CONTINUOUS
 62
7
100
AcDbCircle
 10
48.03541600000000
 20
99.62123089999994
 30
0.000000000000000
 40
1.984500099999999
100
AcDbArc
 50
311.5784800000001
 51
314.6015600000004
  0
LINE
  5
BD
100
AcDbEntity
  8
A4
  6
CENTER
 62
1
100
AcDbLine
 10
48.50000000000000
 20
107.1781669999999
 30
0.000000000000000
 11
48.50000000000000
 21
102.3787184377584
 31
0.000000000000000
  0
ARC
  5
BE
100
AcDbEntity
  8
A1
  6
CONTINUOUS
 62
7
100
AcDbCircle
 10
54.44125400000001
 20
99.62123089999994
 30
0.000000000000000
 40
1.984500099999999
100
AcDbArc
 50
311.5784800000001
 51
342.8704800000000
  0
ARC
  5
BF
100
AcDbEntity
  8
A1
  6
CONTINUOUS
 62
7
100
AcDbCircle
 10
50.82234199999999
 20
99.62123089999994
 30
0.000000000000000
 40
1.984500099999999
100
AcDbArc
 50
311.5784800000001
 51
335.7546399999996
  0
ARC
  5
C0
100
AcDbEntity
  8
A1
  6
CONTINUOUS
 62
7
100
AcDbCircle
 10
54.44125400000001
 20
99.62123089999994
 30
0.000000000000000
 40
1.984500099999999
100
AcDbArc
 50
197.1295099999998
 51
228.4215100000004
  0
ARC
  5
C1
100
AcDbEntity
  8
A1
  6
CONTINUOUS
 62
7
100
AcDbCircle
 10
58.50000000000000
 20
99.62123089999994
 30
0.000000000000000
 40
1.984500099999999
100
AcDbArc
 50
197.1295099999998
 51
228.4215100000004
  0
ARC
  5
C2
100
AcDbEntity
  8
A1
  6
CONTINUOUS
 62
7
100
AcDbCircle
 10
72.74340799999999
 20
95.13673099999994
 30
0.000000000000000
 40
3.000000000000000
100
AcDbArc
 50
0.9437163499998321
 51
90.00000299999932
  0
ARC
  5
C3
100
AcDbEntity
  8
A1
  6
CONTINUOUS
 62
7
100
AcDbCircle
 10
68.09999800000003
 20
94.47849099999993
 30
0.000000000000000
 40
2.500000000000000
100
AcDbArc
 50
0.000000000000000
 51
96.63468400000031
  0
ARC
  5
C4
100
AcDbEntity
  8
A1
  6
CONTINUOUS
 62
7
100
AcDbCircle
 10
68.00000000000000
 20
94.07238199999995
 30
0.000000000000000
 40
1.000000000000000
100
AcDbArc
 50
0.000000000000000
 51
92.04235899999948
  0
ARC
  5
C5
100
AcDbEntity
  8
A1
  6
CONTINUOUS
 62
7
100
AcDbCircle
 10
62.46900199999999
 20
94.57222999999993
 30
0.000000000000000
 40
1.984500099999999
100
AcDbArc
 50
170.1804100000003
 51
183.9151000000000
  0
ARC
  5
C6
100
AcDbEntity
  8
A1
  6
CONTINUOUS
 62
7
100
AcDbCircle
 10
58.50000000000000
 20
94.57222999999993
 30
0.000000000000000
 40
1.984500099999999
100
AcDbArc
 50
356.0848999999999
 51
369.8068727000003
  0
ARC
  5
C7
100
AcDbEntity
  8
A1
  6
CONTINUOUS
 62
7
100
AcDbCircle
 10
65.61126700000000
 20
94.57222999999993
 30
0.000000000000000
 40
1.984500099999999
100
AcDbArc
 50
356.0848999999999
 51
374.1334129999996
  0
ARC
  5
C8
100
AcDbEntity
  8
A1
  6
CONTINUOUS
 62
7
100
AcDbCircle
 10
62.46900199999999
 20
94.57222999999993
 30
0.000000000000000
 40
1.984500099999999
100
AcDbArc
 50
356.0848999999999
 51
371.5299480000003
  0
LINE
  5
C9
100
AcDbEntity
  8
A1
  6
CONTINUOUS
 62
7
100
AcDbLine
 10
75.88074100000006
 20
86.82450099999991
 30
0.000000000000000
 11
75.74300800000006
 21
95.18614099999992
 31
0.000000000000000
  0
ARC
  5
CA
100
AcDbEntity
  8
A1
  6
CONTINUOUS
 62
7
100
AcDbCircle
 10
62.55874599999999
 20
99.62123089999994
 30
0.000000000000000
 40
1.984500099999999
100
AcDbArc
 50
311.5784800000001
 51
342.8704700000001
  0
ARC
  5
CB
100
AcDbEntity
  8
A1
  6
CONTINUOUS
 62
7
100
AcDbCircle
 10
62.55874599999999
 20
99.62123089999994
 30
0.000000000000000
 40
1.984500099999999
100
AcDbArc
 50
197.1295099999998
 51
228.4215100000004
  0
ARC
  5
CC
100
AcDbEntity
  8
A1
  6
CONTINUOUS
 62
7
100
AcDbCircle
 10
66.17765800000001
 20
99.62123089999994
 30
0.000000000000000
 40
1.984500099999999
100
AcDbArc
 50
311.5784800000001
 51
342.8704700000001
  0
ARC
  5
CD
100
AcDbEntity
  8
A1
  6
CONTINUOUS
 62
7
100
AcDbCircle
 10
68.96458400000000
 20
99.62123089999994
 30
0.000000000000000
 40
1.984500099999999
100
AcDbArc
 50
225.3984200000003
 51
228.4215100000004
  0
ARC
  5
CE
100
AcDbEntity
  8
A1
  6
CONTINUOUS
 62
7
100
AcDbCircle
 10
66.17765800000001
 20
99.62123089999994
 30
0.000000000000000
 40
1.984500099999999
100
AcDbArc
 50
204.2453499999998
 51
228.4215100000004
  0
ARC
  5
CF
100
AcDbEntity
  8
A1
  6
CONTINUOUS
 62
7
100
AcDbCircle
 10
71.45606999999990
 20
100.6669410000000
 30
0.000000000000000
 40
2.799999999999999
100
AcDbArc
 50
24.69460400000001
 51
72.45797299999954
  0
ARC
  5
D0
100
AcDbEntity
  8
A1
  6
CONTINUOUS
 62
7
100
AcDbCircle
 10
71.00000000000000
 20
99.62123089999994
 30
0.000000000000000
 40
1.984500099999999
100
AcDbArc
 50
311.5784800000001
 51
342.8704700000001
  0
ARC
  5
D1
100
AcDbEntity
  8
A1
  6
CONTINUOUS
 62
7
100
AcDbCircle
 10
70.61750799999999
 20
99.62123089999994
 30
0.000000000000000
 40
1.984500099999999
100
AcDbArc
 50
311.5784800000001
 51
342.8704800000000
  0
ARC
  5
D2
100
AcDbEntity
  8
A1
  6
CONTINUOUS
 62
7
100
AcDbCircle
 10
68.96458400000000
 20
99.62123089999994
 30
0.000000000000000
 40
1.984500099999999
100
AcDbArc
 50
311.5784800000001
 51
342.8704700000001
  0
LINE
  5
D3
100
AcDbEntity
  8
A1
  6
CONTINUOUS
 62
7
100
AcDbLine
 10
74.00000000000000
 20
101.8367307999999
 30
0.000000000000000
 11
74.00000000000000
 21
99.03673060000003
 31
0.000000000000000
  0
LINE
  5
D4
100
AcDbEntity
  8
A4
  6
CENTER
 62
1
100
AcDbLine
 10
68.50000000000003
 20
107.1781670000000
 30
0.000000000000000
 11
68.50000000000000
 21
102.3787184377585
 31
0.000000000000000
  0
LINE
  5
D5
100
AcDbEntity
  8
A1
  6
CONTINUOUS
 62
7
100
AcDbLine
 10
74.00000000000000
 20
105.6367299999999
 30
0.000000000000000
 11
74.00000000000000
 21
103.3367307999999
 31
0.000000000000000
  0
ARC
  5
D6
100
AcDbEntity
  8
A1
  6
CONTINUOUS
 62
7
100
AcDbCircle
 10
81.98251699999997
 20
74.12476300000000
 30
0.000000000000000
 40
14.00000000000000
100
AcDbArc
 50
63.01905499999936
 51
109.1999600000003
  0
ARC
  5
D7
100
AcDbEntity
  8
A1
  6
CONTINUOUS
 62
7
100
AcDbCircle
 10
81.98251699999997
 20
72.56591800000000
 30
0.000000000000000
 40
14.00000000000000
100
AcDbArc
 50
63.01905499999936
 51
108.8035500000006
  0
LINE
  5
D8
100
AcDbEntity
  8
A1
  6
CONTINUOUS
 62
7
100
AcDbLine
 10
160.5000000000001
 20
94.81180799999993
 30
0.000000000000000
 11
160.5000000000001
 21
76.62232599999999
 31
0.000000000000000
  0
LINE
  5
D9
100
AcDbEntity
  8
A1
  6
CONTINUOUS
 62
7
100
AcDbLine
 10
151.8817100000000
 20
96.97849059999992
 30
0.000000000000000
 11
148.7279030000000
 21
78.70509100000004
 31
0.000000000000000
  0
LINE
  5
DA
100
AcDbEntity
  8
A1
  6
CONTINUOUS
 62
7
100
AcDbLine
 10
128.9166098000000
 20
88.12307499999986
 30
0.000000000000000
 11
144.8947790000000
 21
78.89807499999995
 31
0.000000000000000
  0
LINE
  5
DB
100
AcDbEntity
  8
A1
  6
CONTINUOUS
 62
7
100
AcDbLine
 10
128.0166092000000
 20
86.56422799999990
 30
0.000000000000000
 11
143.9947790000000
 21
77.33922699999999
 31
0.000000000000000
  0
LINE
  5
DC
100
AcDbEntity
  8
A5
  6
PHANTOM
 62
6
100
AcDbLine
 10
121.5336279999999
 20
64.54360200000001
 30
0.000000000000000
 11
139.2689071000000
 21
69.62911199999999
 31
0.000000000000000
  0
LINE
  5
DD
100
AcDbEntity
  8
A5
  6
PHANTOM
 62
6
100
AcDbLine
 10
122.0297760000001
 20
62.81333100000002
 30
0.000000000000000
 11
139.7650537000000
 21
67.89884200000000
 31
0.000000000000000
  0
ARC
  5
DE
100
AcDbEntity
  8
A1
  6
CONTINUOUS
 62
7
100
AcDbCircle
 10
162.8664650000000
 20
89.89224199999992
 30
0.000000000000000
 40
30.00000000000000
100
AcDbArc
 50
193.4187199999997
 51
222.4718500000001
  0
ARC
  5
DF
100
AcDbEntity
  8
A5
  6
PHANTOM
 62
6
100
AcDbCircle
 10
143.8445470000000
 20
90.19404899999995
 30
0.000000000000000
 40
30.00000000000000
100
AcDbArc
 50
239.4187199999996
 51
268.4718499999992
  0
LINE
  5
E0
100
AcDbEntity
  8
A5
  6
PHANTOM
 62
6
100
AcDbLine
 10
121.5336279999999
 20
64.54360200000001
 30
0.000000000000000
 11
122.0297760000000
 21
62.81333100000001
 31
0.000000000000000
  0
ARC
  5
E1
100
AcDbEntity
  8
A10
  6
PHANTOM
 62
4
100
AcDbCircle
 10
128.0729833000000
 20
63.50588999999999
 30
0.000000000000000
 40
1.000000000000000
100
AcDbArc
 50
59.41872500000036
 51
105.9999999999998
  0
ARC
  5
E2
100
AcDbEntity
  8
A10
  6
CONTINUOUS
 62
2
100
AcDbCircle
 10
132.7127622700000
 20
82.69820400000000
 30
0.000000000000000
 40
1.000000000000000
100
AcDbArc
 50
13.41872300000020
 51
60.00000199999990
  0
LINE
  5
E3
100
AcDbEntity
  8
A1
  6
CONTINUOUS
 62
7
100
AcDbLine
 10
156.2392429999999
 20
57.61922799999999
 30
0.000000000000000
 11
156.7025999999999
 21
62.91541999999999
 31
0.000000000000000
  0
ARC
  5
E4
100
AcDbEntity
  8
A1
  6
CONTINUOUS
 62
7
100
AcDbCircle
 10
152.5424330000000
 20
62.40670800000001
 30
0.000000000000000
 40
2.750000000000000
100
AcDbArc
 50
176.7364999999996
 51
353.2634999999998
  0
ARC
  5
E5
100
AcDbEntity
  8
A5
  6
PHANTOM
 62
6
100
AcDbCircle
 10
151.1842629999999
 20
70.34100300000000
 30
0.000000000000000
 40
13.00000000000000
100
AcDbArc
 50
231.2344199999999
 51
322.1289299999999
  0
ARC
  5
E6
100
AcDbEntity
  8
A5
  6
PHANTOM
 62
6
100
AcDbCircle
 10
156.4443090000000
 20
63.67450300000000
 30
0.000000000000000
 40
2.750000000000000
100
AcDbArc
 50
222.7365000000003
 51
399.2635000000007
  0
LINE
  5
E7
100
AcDbEntity
  8
A1
  6
CONTINUOUS
 62
7
100
AcDbLine
 10
160.2399179999998
 20
57.45227000000001
 30
0.000000000000000
 11
161.5009919999999
 21
71.86641300000002
 31
0.000000000000000
  0
ARC
  5
E8
100
AcDbEntity
  8
A1
  6
CONTINUOUS
 62
7
100
AcDbCircle
 10
153.6839750000000
 20
70.82140700000001
 30
0.000000000000000
 40
13.00000000000000
100
AcDbArc
 50
185.2344200000001
 51
276.1289199999999
  0
LINE
  5
E9
100
AcDbEntity
  8
A1
  6
CONTINUOUS
 62
7
100
AcDbLine
 10
164.8537789999999
 20
58.36807599999999
 30
0.000000000000000
 11
164.5526429999999
 21
60.34527600000000
 31
0.000000000000000
  0
LINE
  5
EA
100
AcDbEntity
  8
A1
  6
CONTINUOUS
 62
7
100
AcDbLine
 10
167.7192500000000
 20
60.82756400000000
 30
0.000000000000000
 11
168.0203860000001
 21
58.85036400000001
 31
0.000000000000000
  0
ARC
  5
EB
100
AcDbEntity
  8
A1
  6
CONTINUOUS
 62
7
100
AcDbCircle
 10
153.4575670000000
 20
72.86675199999999
 30
0.000000000000000
 40
2.750000000000000
100
AcDbArc
 50
356.7364999999995
 51
533.2634999999997
  0
ARC
  5
EC
100
AcDbEntity
  8
A5
  6
PHANTOM
 62
6
100
AcDbCircle
 10
153.0826910000000
 20
67.34835000000000
 30
0.000000000000000
 40
10.20000000000000
100
AcDbArc
 50
61.47168199999964
 51
150.5283300000003
  0
ARC
  5
ED
100
AcDbEntity
  8
A5
  6
PHANTOM
 62
6
100
AcDbCircle
 10
153.0826910000000
 20
67.34835000000000
 30
0.000000000000000
 40
12.00000000000000
100
AcDbArc
 50
61.47168199999964
 51
150.5283300000003
  0
ARC
  5
EE
100
AcDbEntity
  8
A1
  6
CONTINUOUS
 62
7
100
AcDbCircle
 10
152.8500000000000
 20
67.37692200000001
 30
0.000000000000000
 40
10.20000000000000
100
AcDbArc
 50
15.47167999999980
 51
104.5283199999996
  0
ARC
  5
EF
100
AcDbEntity
  8
A1
  6
CONTINUOUS
 62
7
100
AcDbCircle
 10
152.8500000000000
 20
67.37692200000001
 30
0.000000000000000
 40
12.00000000000000
100
AcDbArc
 50
15.47167999999980
 51
104.5283199999996
  0
CIRCLE
  5
F0
100
AcDbEntity
  8
A1
  6
CONTINUOUS
 62
7
100
AcDbCircle
 10
153.0000000000001
 20
67.63673000000000
 30
0.000000000000000
 40
1.250000000000000
  0
CIRCLE
  5
F1
100
AcDbEntity
  8
A1
  6
CONTINUOUS
 62
7
100
AcDbCircle
 10
153.0000000000001
 20
67.63673000000000
 30
0.000000000000000
 40
6.000000000000000
  0
LINE
  5
F2
100
AcDbEntity
  8
A1
  6
CONTINUOUS
 62
7
100
AcDbLine
 10
144.2366539999999
 20
73.15821400000002
 30
0.000000000000000
 11
146.1830060000000
 21
72.69808900000001
 31
0.000000000000000
  0
LINE
  5
F3
100
AcDbEntity
  8
A1
  6
CONTINUOUS
 62
7
100
AcDbLine
 10
144.8371180000000
 20
75.69820400000005
 30
0.000000000000000
 11
143.6361560000001
 21
70.61807600000002
 31
0.000000000000000
  0
LINE
  5
F4
100
AcDbEntity
  8
A5
  6
PHANTOM
 62
6
100
AcDbLine
 10
141.6487522000000
 20
71.50617999999990
 30
0.000000000000000
 11
142.6355028000000
 21
73.25226999999994
 31
0.000000000000000
  0
LINE
  5
F5
100
AcDbEntity
  8
A1
  6
CONTINUOUS
 62
7
100
AcDbLine
 10
146.7834689999998
 20
75.23807899999994
 30
0.000000000000000
 11
145.5825069999999
 21
70.15795100000001
 31
0.000000000000000
  0
ARC
  5
F6
100
AcDbEntity
  8
A5
  6
PHANTOM
 62
6
100
AcDbCircle
 10
149.5556910000001
 20
71.59895700000000
 30
0.000000000000000
 40
2.750000000000000
100
AcDbArc
 50
42.73650399999984
 51
219.2635000000007
  0
LINE
  5
F7
100
AcDbEntity
  8
A5
  6
PHANTOM
 62
6
100
AcDbLine
 10
144.3507250000000
 20
62.97196199999996
 30
0.000000000000000
 11
146.0337610000001
 21
64.05242100000000
 31
0.000000000000000
  0
LINE
  5
F8
100
AcDbEntity
  8
A5
  6
PHANTOM
 62
6
100
AcDbLine
 10
143.2136810000000
 20
68.44527399999997
 30
0.000000000000000
 11
146.0337610000000
 21
64.05242099999998
 31
0.000000000000000
  0
LINE
  5
F9
100
AcDbEntity
  8
A5
  6
PHANTOM
 62
6
100
AcDbLine
 10
141.5306454000000
 20
67.36481499999999
 30
0.000000000000000
 11
144.3507250000000
 21
62.97196199999998
 31
0.000000000000000
  0
LINE
  5
FA
100
AcDbEntity
  8
A5
  6
PHANTOM
 62
6
100
AcDbLine
 10
142.9406443000000
 20
65.16845299999997
 30
0.000000000000000
 11
144.6236800000000
 21
66.24891299999999
 31
0.000000000000000
  0
LINE
  5
FB
100
AcDbEntity
  8
A5
  6
PHANTOM
 62
6
100
AcDbLine
 10
141.5306454000000
 20
67.36481499999998
 30
0.000000000000000
 11
143.2136810000000
 21
68.44527399999998
 31
0.000000000000000
  0
ARC
  5
FC
100
AcDbEntity
  8
A5
  6
PHANTOM
 62
6
100
AcDbCircle
 10
138.1663574999999
 20
73.47415500000000
 30
0.000000000000000
 40
4.000000000000000
100
AcDbArc
 50
285.9999999999999
 51
330.5283199999996
  0
ARC
  5
FD
100
AcDbEntity
  8
A5
  6
PHANTOM
 62
6
100
AcDbCircle
 10
138.1663574999999
 20
73.47415500000000
 30
0.000000000000000
 40
5.800000200000000
100
AcDbArc
 50
285.9999999999999
 51
330.5283199999996
  0
LINE
  5
FE
100
AcDbEntity
  8
A1
  6
CONTINUOUS
 62
7
100
AcDbLine
 10
143.6361560000001
 20
70.61807599999996
 30
0.000000000000000
 11
145.5825070000000
 21
70.15795099999998
 31
0.000000000000000
  0
LINE
  5
FF
100
AcDbEntity
  8
A5
  6
PHANTOM
 62
6
100
AcDbLine
 10
143.2158300000000
 20
70.62059399999998
 30
0.000000000000000
 11
144.2025800000000
 21
72.36668399999996
 31
0.000000000000000
  0
LINE
  5
100
100
AcDbEntity
  8
A1
  6
CONTINUOUS
 62
7
100
AcDbLine
 10
144.8371180000000
 20
75.69820399999998
 30
0.000000000000000
 11
146.7834689999999
 21
75.23807899999997
 31
0.000000000000000
  0
ARC
  5
101
100
AcDbEntity
  8
A1
  6
CONTINUOUS
 62
7
100
AcDbCircle
 10
146.8947790000000
 20
82.36217700000002
 30
0.000000000000000
 40
5.800000200000000
100
AcDbArc
 50
239.9999999999998
 51
284.5283199999996
  0
ARC
  5
102
100
AcDbEntity
  8
A1
  6
CONTINUOUS
 62
7
100
AcDbCircle
 10
146.8947790000000
 20
82.36217700000002
 30
0.000000000000000
 40
4.000000000000000
100
AcDbArc
 50
239.9999999999998
 51
284.5283199999996
  0
LINE
  5
103
100
AcDbEntity
  8
A1
  6
CONTINUOUS
 62
7
100
AcDbLine
 10
147.8982120000000
 20
78.49007999999998
 30
0.000000000000000
 11
149.8396990000000
 21
78.99320799999998
 31
0.000000000000000
  0
LINE
  5
104
100
AcDbEntity
  8
A1
  6
CONTINUOUS
 62
7
100
AcDbLine
 10
148.3497580000001
 20
76.74763900000005
 30
0.000000000000000
 11
150.2912430000001
 21
77.25076500000006
 31
0.000000000000000
  0
LINE
  5
105
100
AcDbEntity
  8
A5
  6
PHANTOM
 62
6
100
AcDbLine
 10
168.1229549999999
 20
73.49482699999999
 30
0.000000000000000
 11
169.7544170000000
 21
72.33796699999994
 31
0.000000000000000
  0
LINE
  5
106
100
AcDbEntity
  8
A5
  6
PHANTOM
 62
6
100
AcDbLine
 10
166.2701719999999
 20
70.88193900000003
 30
0.000000000000000
 11
169.9739299999999
 21
76.10517100000001
 31
0.000000000000000
  0
LINE
  5
107
100
AcDbEntity
  8
A1
  6
CONTINUOUS
 62
7
100
AcDbLine
 10
157.4661960000000
 20
71.64336000000000
 30
0.000000000000000
 11
157.8697679999999
 21
76.25622000000001
 31
0.000000000000000
  0
ARC
  5
108
100
AcDbEntity
  8
A1
  6
CONTINUOUS
 62
7
100
AcDbCircle
 10
168.8052220000000
 20
69.71217700000000
 30
0.000000000000000
 40
5.800000200000000
100
AcDbArc
 50
195.4716799999997
 51
239.9999999999998
  0
ARC
  5
109
100
AcDbEntity
  8
A1
  6
CONTINUOUS
 62
7
100
AcDbCircle
 10
168.8052220000000
 20
69.71217700000000
 30
0.000000000000000
 40
4.000000000000000
100
AcDbArc
 50
195.4716799999997
 51
239.9999999999998
  0
LINE
  5
10A
100
AcDbEntity
  8
A5
  6
PHANTOM
 62
6
100
AcDbLine
 10
167.9016340000000
 20
69.72507799999997
 30
0.000000000000000
 11
166.2701720000001
 21
70.88193899999993
 31
0.000000000000000
  0
LINE
  5
10B
100
AcDbEntity
  8
A1
  6
CONTINUOUS
 62
7
100
AcDbLine
 10
164.4151500000000
 20
70.57806799999997
 30
0.000000000000000
 11
164.9501720000000
 21
68.64512599999998
 31
0.000000000000000
  0
LINE
  5
10C
100
AcDbEntity
  8
A1
  6
CONTINUOUS
 62
7
100
AcDbLine
 10
162.6803759999999
 20
70.09789599999996
 30
0.000000000000000
 11
163.2153989999999
 21
68.16495499999992
 31
0.000000000000000
  0
ARC
  5
10D
100
AcDbEntity
  8
A5
  6
PHANTOM
 62
6
100
AcDbCircle
 10
162.4862790000000
 20
80.44777999999999
 30
0.000000000000000
 40
4.000000000000000
100
AcDbArc
 50
241.4716799999994
 51
285.9999999999999
  0
ARC
  5
10E
100
AcDbEntity
  8
A5
  6
PHANTOM
 62
6
100
AcDbCircle
 10
162.4862790000000
 20
80.44777999999999
 30
0.000000000000000
 40
5.800000200000000
100
AcDbArc
 50
241.4716799999994
 51
285.9999999999999
  0
LINE
  5
10F
100
AcDbEntity
  8
A5
  6
PHANTOM
 62
6
100
AcDbLine
 10
157.9541399999999
 20
76.30987900000000
 30
0.000000000000000
 11
159.7162400000001
 21
75.35201099999999
 31
0.000000000000000
  0
LINE
  5
110
100
AcDbEntity
  8
A5
  6
PHANTOM
 62
6
100
AcDbLine
 10
158.8138080000000
 20
77.89132699999993
 30
0.000000000000000
 11
160.5759070000000
 21
76.93345599999995
 31
0.000000000000000
  0
LINE
  5
111
100
AcDbEntity
  8
A1
  6
CONTINUOUS
 62
7
100
AcDbLine
 10
128.9166097999999
 20
88.12307499999994
 30
0.000000000000000
 11
128.0166092000000
 21
86.56422799999996
 31
0.000000000000000
  0
LINE
  5
112
100
AcDbEntity
  8
A4
  6
CENTER
 62
1
100
AcDbLine
 10
153.0000000000001
 20
107.1781669999999
 30
0.000000000000000
 11
153.0000000000001
 21
102.0133579000000
 31
0.000000000000000
  0
ARC
  5
113
100
AcDbEntity
  8
A1
  6
CONTINUOUS
 62
7
100
AcDbCircle
 10
156.9936180000000
 20
88.13672799999995
 30
0.000000000000000
 40
10.00000000000000
100
AcDbArc
 50
89.99998200000080
 51
108.3084699999998
  0
LINE
  5
114
100
AcDbEntity
  8
A1
  6
CONTINUOUS
 62
7
100
AcDbLine
 10
150.2000010000002
 20
96.42204169999997
 30
0.000000000000000
 11
150.7026120000001
 21
94.90303499999996
 31
0.000000000000000
  0
LINE
  5
115
100
AcDbEntity
  8
A1
  6
CONTINUOUS
 62
7
100
AcDbLine
 10
150.7026119999999
 20
94.90303499999993
 30
0.000000000000000
 11
151.5732250000000
 21
95.19110499999995
 31
0.000000000000000
  0
LINE
  5
116
100
AcDbEntity
  8
A1
  6
CONTINUOUS
 62
7
100
AcDbLine
 10
150.1999990000000
 20
96.42204269999993
 30
0.000000000000000
 11
153.8522930000000
 21
97.63052060000003
 31
0.000000000000000
  0
LINE
  5
117
100
AcDbEntity
  8
A1
  6
CONTINUOUS
 62
7
100
AcDbLine
 10
147.5000000000001
 20
105.6367299999999
 30
0.000000000000000
 11
147.5000000000001
 21
103.3367307999999
 31
0.000000000000000
  0
ARC
  5
118
100
AcDbEntity
  8
A1
  6
CONTINUOUS
 62
7
100
AcDbCircle
 10
160.0439300000000
 20
100.6669410000000
 30
0.000000000000000
 40
2.799999999999999
100
AcDbArc
 50
107.5419900000006
 51
155.3053600000000
  0
LINE
  5
119
100
AcDbEntity
  8
A1
  6
CONTINUOUS
 62
7
100
AcDbLine
 10
157.5000000000001
 20
101.8367307999999
 30
0.000000000000000
 11
157.5000000000001
 21
99.03673059999994
 31
0.000000000000000
  0
ARC
  5
11A
100
AcDbEntity
  8
A1
  6
CONTINUOUS
 62
7
100
AcDbCircle
 10
162.5354190000000
 20
99.62123089999994
 30
0.000000000000000
 40
1.984500099999999
100
AcDbArc
 50
197.1295099999998
 51
228.4215400000005
  0
ARC
  5
11B
100
AcDbEntity
  8
A1
  6
CONTINUOUS
 62
7
100
AcDbCircle
 10
160.5000000000001
 20
99.62123089999994
 30
0.000000000000000
 40
1.984500099999999
100
AcDbArc
 50
197.1295099999998
 51
228.4215400000005
  0
ARC
  5
11C
100
AcDbEntity
  8
A1
  6
CONTINUOUS
 62
7
100
AcDbCircle
 10
160.8824960000000
 20
99.62123089999994
 30
0.000000000000000
 40
1.984500099999999
100
AcDbArc
 50
197.1295099999998
 51
228.4215400000005
  0
ARC
  5
11D
100
AcDbEntity
  8
A1
  6
CONTINUOUS
 62
7
100
AcDbCircle
 10
162.5354190000000
 20
99.62123089999994
 30
0.000000000000000
 40
1.984500099999999
100
AcDbArc
 50
311.5784599999994
 51
314.6015600000004
  0
ARC
  5
11E
100
AcDbEntity
  8
A1
  6
CONTINUOUS
 62
7
100
AcDbCircle
 10
165.3223420000000
 20
99.62123089999994
 30
0.000000000000000
 40
1.984500099999999
100
AcDbArc
 50
197.1295099999998
 51
228.4215400000005
  0
ARC
  5
11F
100
AcDbEntity
  8
A1
  6
CONTINUOUS
 62
7
100
AcDbCircle
 10
168.9412570000000
 20
99.62123089999994
 30
0.000000000000000
 40
1.984500099999999
100
AcDbArc
 50
197.1295099999998
 51
228.4215400000005
  0
ARC
  5
120
100
AcDbEntity
  8
A1
  6
CONTINUOUS
 62
7
100
AcDbCircle
 10
165.3223420000000
 20
99.62123089999994
 30
0.000000000000000
 40
1.984500099999999
100
AcDbArc
 50
311.5784599999994
 51
335.7546399999996
  0
LINE
  5
121
100
AcDbEntity
  8
A1
  6
CONTINUOUS
 62
7
100
AcDbLine
 10
147.5000000000001
 20
185.1367300000000
 30
0.000000000000000
 11
147.5000000000001
 21
166.1367299999999
 31
0.000000000000000
  0
LINE
  5
122
100
AcDbEntity
  8
A4
  6
CENTER
 62
1
100
AcDbLine
 10
157.0000000000001
 20
165.6367300000000
 30
0.000000000000000
 11
149.0000000000001
 21
165.6367300000000
 31
0.000000000000000
  0
CIRCLE
  5
123
100
AcDbEntity
  8
A1
  6
CONTINUOUS
 62
7
100
AcDbCircle
 10
153.0000000000001
 20
165.6367300000000
 30
0.000000000000000
 40
2.750000000000000
  0
LINE
  5
124
100
AcDbEntity
  8
A4
  6
CENTER
 62
1
100
AcDbLine
 10
153.0000000000001
 20
169.6367299999999
 30
0.000000000000000
 11
153.0000000000001
 21
161.6367299999999
 31
0.000000000000000
  0
ARC
  5
125
100
AcDbEntity
  8
A1
  6
CONTINUOUS
 62
7
100
AcDbCircle
 10
153.4999999999999
 20
166.1367299999999
 30
0.000000000000000
 40
6.000000000000000
100
AcDbArc
 50
179.9999799999996
 51
270.0000299999997
  0
LINE
  5
126
100
AcDbEntity
  8
A4
  6
CENTER
 62
1
100
AcDbLine
 10
157.0000000000001
 20
185.6367300000000
 30
0.000000000000000
 11
149.0000000000001
 21
185.6367300000000
 31
0.000000000000000
  0
CIRCLE
  5
127
100
AcDbEntity
  8
A1
  6
CONTINUOUS
 62
7
100
AcDbCircle
 10
153.0000000000001
 20
185.6367300000000
 30
0.000000000000000
 40
2.750000000000000
  0
ARC
  5
128
100
AcDbEntity
  8
A1
  6
CONTINUOUS
 62
7
100
AcDbCircle
 10
153.4999999999999
 20
185.1367300000000
 30
0.000000000000000
 40
6.000000000000000
100
AcDbArc
 50
89.99998200000080
 51
179.9999600000000
  0
LINE
  5
129
100
AcDbEntity
  8
A4
  6
CENTER
 62
1
100
AcDbLine
 10
153.0000000000001
 20
189.6367300000000
 30
0.000000000000000
 11
153.0000000000001
 21
181.6367299999999
 31
0.000000000000000
  0
LINE
  5
12A
100
AcDbEntity
  8
A4
  6
CENTER
 62
1
100
AcDbLine
 10
173.0000000000001
 20
109.3033959999999
 30
0.000000000000000
 11
173.0000000000001
 21
91.08519721721154
 31
0.000000000000000
  0
LINE
  5
12B
100
AcDbEntity
  8
A1
  6
CONTINUOUS
 62
7
100
AcDbLine
 10
170.8827709999999
 20
61.30937900000001
 30
0.000000000000000
 11
171.1839069999999
 21
59.33217999999999
 31
0.000000000000000
  0
LINE
  5
12C
100
AcDbEntity
  8
A1
  6
CONTINUOUS
 62
7
100
AcDbLine
 10
179.5790979999999
 20
58.87307300000004
 30
0.000000000000000
 11
178.6790960000000
 21
57.31422800000005
 31
0.000000000000000
  0
ARC
  5
12D
100
AcDbEntity
  8
A1
  6
CONTINUOUS
 62
7
100
AcDbCircle
 10
177.3130720000000
 20
56.94820400000000
 30
0.000000000000000
 40
1.000000000000000
100
AcDbArc
 50
60.00000199999990
 51
104.2033300000006
  0
ARC
  5
12E
100
AcDbEntity
  8
A5
  6
PHANTOM
 62
6
100
AcDbCircle
 10
177.5779610000000
 20
77.70121599999999
 30
0.000000000000000
 40
1.000000000000000
100
AcDbArc
 50
105.9999999999998
 51
150.2033300000000
  0
LINE
  5
12F
100
AcDbEntity
  8
A5
  6
PHANTOM
 62
6
100
AcDbLine
 10
177.7674410000000
 20
80.66838600000001
 30
0.000000000000000
 11
178.2635880000000
 21
78.93811600000001
 31
0.000000000000000
  0
LINE
  5
130
100
AcDbEntity
  8
A4
  6
CENTER
 62
1
100
AcDbLine
 10
193.0000000000001
 20
107.1781669999999
 30
0.000000000000000
 11
193.0000000000001
 21
102.0133578999999
 31
0.000000000000000
  0
ARC
  5
131
100
AcDbEntity
  8
A1
  6
CONTINUOUS
 62
7
100
AcDbCircle
 10
185.5000000000001
 20
99.62123089999994
 30
0.000000000000000
 40
1.984500099999999
100
AcDbArc
 50
311.5784599999994
 51
342.8704700000001
  0
LINE
  5
132
100
AcDbEntity
  8
A1
  6
CONTINUOUS
 62
7
100
AcDbLine
 10
186.0000000000001
 20
91.63672800000003
 30
0.000000000000000
 11
190.5000000000001
 21
91.63672800000003
 31
0.000000000000000
  0
ARC
  5
133
100
AcDbEntity
  8
A1
  6
CONTINUOUS
 62
7
100
AcDbCircle
 10
185.9560700000000
 20
100.6669410000000
 30
0.000000000000000
 40
2.799999999999999
100
AcDbArc
 50
24.69460400000001
 51
72.45797299999954
  0
ARC
  5
134
100
AcDbEntity
  8
A1
  6
CONTINUOUS
 62
7
100
AcDbCircle
 10
186.0000000000001
 20
86.63672800000003
 30
0.000000000000000
 40
5.000000000000000
100
AcDbArc
 50
89.99998200000080
 51
137.5594099999997
  0
ARC
  5
135
100
AcDbEntity
  8
A1
  6
CONTINUOUS
 62
7
100
AcDbCircle
 10
183.4415740000000
 20
93.02698800000002
 30
0.000000000000000
 40
3.000000000000000
100
AcDbArc
 50
265.3811200000001
 51
332.3706600000002
  0
LINE
  5
136
100
AcDbEntity
  8
A1
  6
CONTINUOUS
 62
7
100
AcDbLine
 10
183.1999970000000
 20
90.03673099999992
 30
0.000000000000000
 11
182.3337750000000
 21
90.03673099999992
 31
0.000000000000000
  0
ARC
  5
137
100
AcDbEntity
  8
A1
  6
CONTINUOUS
 62
7
100
AcDbCircle
 10
180.6776580000000
 20
99.62123089999994
 30
0.000000000000000
 40
1.984500099999999
100
AcDbArc
 50
204.2453499999998
 51
228.4215400000005
  0
ARC
  5
138
100
AcDbEntity
  8
A1
  6
CONTINUOUS
 62
7
100
AcDbCircle
 10
173.0000000000001
 20
99.62123089999994
 30
0.000000000000000
 40
1.984500099999999
100
AcDbArc
 50
311.5784599999994
 51
342.8704700000001
  0
ARC
  5
139
100
AcDbEntity
  8
A1
  6
CONTINUOUS
 62
7
100
AcDbCircle
 10
173.0000000000001
 20
99.62123089999994
 30
0.000000000000000
 40
1.984500099999999
100
AcDbArc
 50
197.1295099999998
 51
228.4215400000005
  0
ARC
  5
13A
100
AcDbEntity
  8
A1
  6
CONTINUOUS
 62
7
100
AcDbCircle
 10
177.0587430000000
 20
99.62123089999994
 30
0.000000000000000
 40
1.984500099999999
100
AcDbArc
 50
311.5784599999994
 51
342.8704700000001
  0
ARC
  5
13B
100
AcDbEntity
  8
A1
  6
CONTINUOUS
 62
7
100
AcDbCircle
 10
177.0587430000000
 20
99.62123089999994
 30
0.000000000000000
 40
1.984500099999999
100
AcDbArc
 50
197.1295099999998
 51
228.4215400000005
  0
ARC
  5
13C
100
AcDbEntity
  8
A1
  6
CONTINUOUS
 62
7
100
AcDbCircle
 10
180.6776580000000
 20
99.62123089999994
 30
0.000000000000000
 40
1.984500099999999
100
AcDbArc
 50
311.5784599999994
 51
342.8704700000001
  0
ARC
  5
13D
100
AcDbEntity
  8
A1
  6
CONTINUOUS
 62
7
100
AcDbCircle
 10
183.4645810000000
 20
99.62123089999994
 30
0.000000000000000
 40
1.984500099999999
100
AcDbArc
 50
225.3984200000003
 51
228.4215400000005
  0
ARC
  5
13E
100
AcDbEntity
  8
A1
  6
CONTINUOUS
 62
7
100
AcDbCircle
 10
183.4645810000000
 20
99.62123089999994
 30
0.000000000000000
 40
1.984500099999999
100
AcDbArc
 50
311.5784599999994
 51
342.8704700000001
  0
ARC
  5
13F
100
AcDbEntity
  8
A1
  6
CONTINUOUS
 62
7
100
AcDbCircle
 10
185.1175040000000
 20
99.62123089999994
 30
0.000000000000000
 40
1.984500099999999
100
AcDbArc
 50
311.5784599999994
 51
342.8704800000000
  0
ARC
  5
140
100
AcDbEntity
  8
A1
  6
CONTINUOUS
 62
7
100
AcDbCircle
 10
187.5000000000001
 20
95.13672999999994
 30
0.000000000000000
 40
3.000000000000000
100
AcDbArc
 50
0.000000000000000
 51
89.99998200000080
  0
LINE
  5
141
100
AcDbEntity
  8
A1
  6
CONTINUOUS
 62
7
100
AcDbLine
 10
190.5000000000001
 20
95.13672999999994
 30
0.000000000000000
 11
190.5000000000001
 21
91.63672800000003
 31
0.000000000000000
  0
LINE
  5
142
100
AcDbEntity
  8
A1
  6
CONTINUOUS
 62
7
100
AcDbLine
 10
188.5000000000000
 20
101.8367307999999
 30
0.000000000000000
 11
188.4999999999999
 21
99.03673060000001
 31
0.000000000000000
  0
LINE
  5
143
100
AcDbEntity
  8
A1
  6
CONTINUOUS
 62
7
100
AcDbLine
 10
198.5000000000001
 20
105.6367299999999
 30
0.000000000000000
 11
198.5000000000001
 21
103.3367307999999
 31
0.000000000000000
  0
LINE
  5
144
100
AcDbEntity
  8
A4
  6
CENTER
 62
1
100
AcDbLine
 10
173.0000000000001
 20
193.3964080000000
 30
0.000000000000000
 11
173.0000000000001
 21
157.8770519999999
 31
0.000000000000000
  0
LINE
  5
145
100
AcDbEntity
  8
A1
  6
CONTINUOUS
 62
7
100
AcDbLine
 10
198.5000000000001
 20
185.1367300000000
 30
0.000000000000000
 11
198.5000000000001
 21
166.1367299999999
 31
0.000000000000000
  0
LINE
  5
146
100
AcDbEntity
  8
A4
  6
CENTER
 62
1
100
AcDbLine
 10
193.0000000000001
 20
169.6367299999999
 30
0.000000000000000
 11
193.0000000000001
 21
161.6367299999999
 31
0.000000000000000
  0
ARC
  5
147
100
AcDbEntity
  8
A1
  6
CONTINUOUS
 62
7
100
AcDbCircle
 10
192.5000000000001
 20
166.1367299999999
 30
0.000000000000000
 40
6.000000000000000
100
AcDbArc
 50
270.0000200000003
 51
360.0000000000000
  0
CIRCLE
  5
148
100
AcDbEntity
  8
A1
  6
CONTINUOUS
 62
7
100
AcDbCircle
 10
193.0000000000001
 20
165.6367300000000
 30
0.000000000000000
 40
2.750000000000000
  0
LINE
  5
149
100
AcDbEntity
  8
A4
  6
CENTER
 62
1
100
AcDbLine
 10
197.0000000000001
 20
165.6367300000000
 30
0.000000000000000
 11
189.0000000000001
 21
165.6367300000000
 31
0.000000000000000
  0
ARC
  5
14A
100
AcDbEntity
  8
A1
  6
CONTINUOUS
 62
7
100
AcDbCircle
 10
192.5000000000001
 20
185.1367300000000
 30
0.000000000000000
 40
6.000000000000000
100
AcDbArc
 50
0.000000000000000
 51
89.99998200000080
  0
LINE
  5
14B
100
AcDbEntity
  8
A4
  6
CENTER
 62
1
100
AcDbLine
 10
193.0000000000001
 20
189.6367300000000
 30
0.000000000000000
 11
193.0000000000001
 21
181.6367299999999
 31
0.000000000000000
  0
LINE
  5
14C
100
AcDbEntity
  8
A4
  6
CENTER
 62
1
100
AcDbLine
 10
197.0000000000001
 20
185.6367300000000
 30
0.000000000000000
 11
189.0000000000001
 21
185.6367300000000
 31
0.000000000000000
  0
CIRCLE
  5
14D
100
AcDbEntity
  8
A1
  6
CONTINUOUS
 62
7
100
AcDbCircle
 10
193.0000000000001
 20
185.6367300000000
 30
0.000000000000000
 40
2.750000000000000
  0
ARC
  5
14E
100
AcDbEntity
  8
A1
  6
CONTINUOUS
 62
7
100
AcDbCircle
 10
71.09999800000003
 20
73.15821400000002
 30
0.000000000000000
 40
0.6999959999999988
100
AcDbArc
 50
143.1772399999998
 51
216.8227700000000
  0
LINE
  5
14F
100
AcDbEntity
  8
A1
  6
CONTINUOUS
 62
7
100
AcDbLine
 10
70.59999800000006
 20
73.65834694142008
 30
0.000000000000000
 11
70.53965341126606
 21
73.57774956173628
 31
0.000000000000000
  0
LINE
  5
150
100
AcDbEntity
  8
A1
  6
CONTINUOUS
 62
7
100
AcDbLine
 10
70.59999799999997
 20
72.65809591157972
 30
0.000000000000000
 11
70.53966359907589
 21
72.73868018055106
 31
0.000000000000000
  0
ARC
  5
151
100
AcDbEntity
  8
A1
  6
CONTINUOUS
 62
7
100
AcDbCircle
 10
153.0000000000001
 20
67.63673000000000
 30
0.000000000000000
 40
15.00000000000000
100
AcDbArc
 50
162.5648534734667
 51
312.8032836814531
  0
ARC
  5
152
100
AcDbEntity
  8
A1
  6
CONTINUOUS
 62
7
100
AcDbCircle
 10
153.0000000000001
 20
67.63673000000000
 30
0.000000000000000
 40
13.50000000000000
100
AcDbArc
 50
167.0622358004485
 51
306.7202897823293
  0
ARC
  5
153
100
AcDbEntity
  8
A1
  6
CONTINUOUS
 62
7
100
AcDbCircle
 10
153.0000000000001
 20
67.63673000000000
 30
0.000000000000000
 40
19.00000000000000
100
AcDbArc
 50
152.7660067657613
 51
324.5191089071964
  0
ARC
  5
154
100
AcDbEntity
  8
A1
  6
CONTINUOUS
 62
7
100
AcDbCircle
 10
66.50000000000000
 20
50.00000000000000
 30
0.000000000000000
 40
0.5000000000000000
100
AcDbArc
 50
282.3177659999996
 51
360.0000000000000
  0
ARC
  5
155
100
AcDbEntity
  8
A1
  6
CONTINUOUS
 62
7
100
AcDbCircle
 10
68.00000000000000
 20
60.05627999999999
 30
0.000000000000000
 40
0.5000000000000000
100
AcDbArc
 50
280.0000000000002
 51
360.0000000000000
  0
ARC
  5
156
100
AcDbEntity
  8
A1
  6
CONTINUOUS
 62
7
100
AcDbCircle
 10
50.50000000000000
 20
50.00000000000000
 30
0.000000000000000
 40
0.5000000000000000
100
AcDbArc
 50
180.0000000000000
 51
257.6822340000004
  0
ARC
  5
157
100
AcDbEntity
  8
A1
  6
CONTINUOUS
 62
7
100
AcDbCircle
 10
58.49999953415312
 20
86.63672713591453
 30
0.000000000000000
 40
37.99999710246665
100
AcDbArc
 50
257.6822337649644
 51
282.3177676559936
  0
LINE
  5
158
100
AcDbEntity
  8
A1
  6
CONTINUOUS
 62
7
100
AcDbLine
 10
68.50000000000000
 20
75.21718000000000
 30
0.000000000000000
 11
68.50000000000000
 21
60.05627999999999
 31
0.000000000000000
  0
LINE
  5
159
100
AcDbEntity
  8
A1
  6
CONTINUOUS
 62
7
100
AcDbLine
 10
50.00000000000000
 20
50.00000000000000
 30
0.000000000000000
 11
50.00000000000000
 21
85.27345999999993
 31
0.000000000000000
  0
LINE
  5
15A
100
AcDbEntity
  8
A1
  6
CONTINUOUS
 62
7
100
AcDbLine
 10
67.00000000000000
 20
50.00000000000000
 30
0.000000000000000
 11
67.00000000000000
 21
85.27345999999993
 31
0.000000000000000
  0
LINE
  5
15B
100
AcDbEntity
  8
A1
  6
CONTINUOUS
 62
7
100
AcDbLine
 10
68.08682399999998
 20
59.56387599999999
 30
0.000000000000000
 11
66.99999999999997
 21
59.37223950000001
 31
0.000000000000000
  0
ARC
  5
15C
100
AcDbEntity
  8
A1
  6
CONTINUOUS
 62
7
100
AcDbCircle
 10
66.50000000000000
 20
85.27345999999993
 30
0.000000000000000
 40
0.5000000000000000
100
AcDbArc
 50
0.000000000000000
 51
77.68223400000038
  0
ARC
  5
15D
100
AcDbEntity
  8
A1
  6
CONTINUOUS
 62
7
100
AcDbCircle
 10
68.00000000000000
 20
75.21718000000000
 30
0.000000000000000
 40
0.5000000000000000
100
AcDbArc
 50
0.000000000000000
 51
79.99999999999979
  0
ARC
  5
15E
100
AcDbEntity
  8
A1
  6
CONTINUOUS
 62
7
100
AcDbCircle
 10
50.50000000000000
 20
85.27345999999993
 30
0.000000000000000
 40
0.5000000000000000
100
AcDbArc
 50
102.3177659999996
 51
180.0000000000000
  0
ARC
  5
15F
100
AcDbEntity
  8
A1
  6
CONTINUOUS
 62
7
100
AcDbCircle
 10
58.49999953415312
 20
48.63673286408545
 30
0.000000000000000
 40
37.99999710246665
100
AcDbArc
 50
77.68223234400638
 51
102.3177662350356
  0
LINE
  5
160
100
AcDbEntity
  8
A1
  6
CONTINUOUS
 62
7
100
AcDbLine
 10
68.08682400000001
 20
75.70958399999999
 30
0.000000000000000
 11
67.00000000000001
 21
75.90122049999998
 31
0.000000000000000
  0
ARC
  5
161
100
AcDbEntity
  8
A1
  6
CONTINUOUS
 62
7
100
AcDbCircle
 10
153.0000000000001
 20
67.63673000000000
 30
0.000000000000000
 40
19.00000000000000
100
AcDbArc
 50
347.4575999658393
 51
387.4528477945657
  0
ARC
  5
162
100
AcDbEntity
  8
A1
  6
CONTINUOUS
 62
7
100
AcDbCircle
 10
153.0000000000001
 20
67.63673000000000
 30
0.000000000000000
 40
15.00000000000000
100
AcDbArc
 50
352.3336777626687
 51
381.7462080801458
  0
ARC
  5
163
100
AcDbEntity
  8
A1
  6
CONTINUOUS
 62
7
100
AcDbCircle
 10
153.0000000000001
 20
67.63673000000000
 30
0.000000000000000
 40
15.00000000000000
100
AcDbArc
 50
104.1712694851327
 51
127.6663159622079
  0
ARC
  5
164
100
AcDbEntity
  8
A1
  6
CONTINUOUS
 62
7
100
AcDbCircle
 10
153.0000000000001
 20
67.63673000000000
 30
0.000000000000000
 40
19.00000000000000
100
AcDbArc
 50
98.90991293556498
 51
132.5423960019931
  0
LINE
  5
165
100
AcDbEntity
  8
A4
  6
CENTER
 62
1
100
AcDbLine
 10
132.5000000000001
 20
67.63673000000000
 30
0.000000000000000
 11
173.5000000000001
 21
67.63673000000000
 31
0.000000000000000
  0
LINE
  5
166
100
AcDbEntity
  8
A4
  6
CENTER
 62
1
100
AcDbLine
 10
153.0000000000001
 20
47.13673000000000
 30
0.000000000000000
 11
153.0000000000001
 21
88.13673000000003
 31
0.000000000000000
  0
ARC
  5
167
100
AcDbEntity
  8
A1
  6
CONTINUOUS
 62
7
100
AcDbCircle
 10
171.9999971359146
 20
175.6367304658469
 30
0.000000000000000
 40
37.99999710246665
100
AcDbArc
 50
167.6822337649644
 51
192.3177676559935
  0
LINE
  5
168
100
AcDbEntity
  8
A1
  6
CONTINUOUS
 62
7
100
AcDbLine
 10
135.3632700000001
 20
167.1367300000000
 30
0.000000000000000
 11
147.5000000000001
 21
167.1367300000000
 31
0.000000000000000
  0
ARC
  5
169
100
AcDbEntity
  8
A1
  6
CONTINUOUS
 62
7
100
AcDbCircle
 10
135.3632700000001
 20
167.6367300000000
 30
0.000000000000000
 40
0.5000000000000000
100
AcDbArc
 50
192.3177659999996
 51
270.0000000000000
  0
ARC
  5
16A
100
AcDbEntity
  8
A1
  6
CONTINUOUS
 62
7
100
AcDbCircle
 10
135.3632700000001
 20
183.6367300000000
 30
0.000000000000000
 40
0.5000000000000000
100
AcDbArc
 50
90.00000000000000
 51
167.6822340000004
  0
LINE
  5
16B
100
AcDbEntity
  8
A1
  6
CONTINUOUS
 62
7
100
AcDbLine
 10
135.3632700000001
 20
184.1367300000000
 30
0.000000000000000
 11
147.5000000000001
 21
184.1367300000000
 31
0.000000000000000
  0
LINE
  5
16C
100
AcDbEntity
  8
A1
  6
CONTINUOUS
 62
7
100
AcDbLine
 10
143.2911831464785
 20
184.1367300000001
 30
0.000000000000000
 11
143.7796360000002
 21
185.4787480000001
 31
0.000000000000000
  0
ARC
  5
16D
100
AcDbEntity
  8
A1
  6
CONTINUOUS
 62
7
100
AcDbCircle
 10
144.7193260000001
 20
185.1367300000000
 30
0.000000000000000
 40
1.000000000000000
100
AcDbArc
 50
89.99997999999958
 51
160.0001099999993
  0
LINE
  5
16E
100
AcDbEntity
  8
A1
  6
CONTINUOUS
 62
7
100
AcDbLine
 10
147.5839202169003
 20
186.1367300000000
 30
0.000000000000000
 11
144.7193260000001
 21
186.1367300000000
 31
0.000000000000000
  0
ARC
  5
16F
100
AcDbEntity
  8
A1
  6
CONTINUOUS
 62
7
100
AcDbCircle
 10
145.4195500000001
 20
166.1367300000000
 30
0.000000000000000
 40
0.5000000000000000
100
AcDbArc
 50
190.0000000000003
 51
270.0000000000000
  0
LINE
  5
170
100
AcDbEntity
  8
A1
  6
CONTINUOUS
 62
7
100
AcDbLine
 10
144.9271460000001
 20
166.0499060000000
 30
0.000000000000000
 11
144.7355095000001
 21
167.1367300000000
 31
0.000000000000000
  0
LINE
  5
171
100
AcDbEntity
  8
A1
  6
CONTINUOUS
 62
7
100
AcDbLine
 10
147.5208696284492
 20
165.6367300000000
 30
0.000000000000000
 11
145.4195500000001
 21
165.6367300000000
 31
0.000000000000000
  0
LINE
  5
172
100
AcDbEntity
  8
A1
  6
CONTINUOUS
 62
7
100
AcDbLine
 10
147.0192600000001
 20
163.5367300000000
 30
0.000000000000000
 11
147.0192600000001
 21
165.1367300000000
 31
0.000000000000000
  0
LINE
  5
173
100
AcDbEntity
  8
A1
  6
CONTINUOUS
 62
7
100
AcDbLine
 10
147.5839210000000
 20
165.1367300000000
 30
0.000000000000000
 11
147.0192600000000
 21
165.1367300000000
 31
0.000000000000000
  0
LINE
  5
174
100
AcDbEntity
  8
A1
  6
CONTINUOUS
 62
7
100
AcDbLine
 10
148.0925980000001
 20
163.5367300000000
 30
0.000000000000000
 11
147.0192600000001
 21
163.5367300000000
 31
0.000000000000000
  0
ARC
  5
175
100
AcDbEntity
  8
A1
  6
CONTINUOUS
 62
7
100
AcDbCircle
 10
168.9610430000000
 20
157.0794399999999
 30
0.000000000000000
 40
5.000000000000000
100
AcDbArc
 50
184.4880990000000
 51
220.8943589999999
  0
ARC
  5
176
100
AcDbEntity
  8
A1
  6
CONTINUOUS
 62
7
100
AcDbCircle
 10
140.3322429999999
 20
151.5367300000000
 30
0.000000000000000
 40
8.113127999999996
100
AcDbArc
 50
154.9535649999999
 51
219.4326540000000
  0
ARC
  5
177
100
AcDbEntity
  8
A1
  6
CONTINUOUS
 62
7
100
AcDbCircle
 10
171.8030529999999
 20
154.1434960000000
 30
0.000000000000000
 40
8.113127999999996
100
AcDbArc
 50
320.5673410000000
 51
407.6214880906543
  0
ARC
  5
178
100
AcDbEntity
  8
A1
  6
CONTINUOUS
 62
7
100
AcDbCircle
 10
139.4219039999999
 20
151.5367300000000
 30
0.000000000000000
 40
8.113127999999996
100
AcDbArc
 50
154.9535649999999
 51
219.4326540000000
  0
ARC
  5
179
100
AcDbEntity
  8
A1
  6
CONTINUOUS
 62
7
100
AcDbCircle
 10
169.8713820000000
 20
157.0794399999999
 30
0.000000000000000
 40
5.000000000000000
100
AcDbArc
 50
184.4880990000000
 51
220.8943589999999
  0
LINE
  5
17A
100
AcDbEntity
  8
A1
  6
CONTINUOUS
 62
7
100
AcDbLine
 10
167.3340589999999
 20
160.1367300000000
 30
0.000000000000000
 11
167.3340589999999
 21
153.2101309999999
 31
0.000000000000000
  0
LINE
  5
17B
100
AcDbEntity
  8
A1
  6
CONTINUOUS
 62
7
100
AcDbLine
 10
142.9875930000001
 20
148.0933860000000
 30
0.000000000000000
 11
145.9783770000000
 21
154.5303519999999
 31
0.000000000000000
  0
ARC
  5
17C
100
AcDbEntity
  8
A1
  6
CONTINUOUS
 62
7
100
AcDbCircle
 10
137.9756760000001
 20
149.5987719999999
 30
0.000000000000000
 40
5.062034999999998
100
AcDbArc
 50
219.4326580000000
 51
320.5673410000000
  0
ARC
  5
17D
100
AcDbEntity
  8
A1
  6
CONTINUOUS
 62
7
100
AcDbCircle
 10
135.6190930000000
 20
151.5367300000000
 30
0.000000000000000
 40
8.113127999999996
100
AcDbArc
 50
320.5673410000000
 51
334.9535629999999
  0
ARC
  5
17E
100
AcDbEntity
  8
A1
  6
CONTINUOUS
 62
7
100
AcDbCircle
 10
137.0653359999999
 20
149.5987719999999
 30
0.000000000000000
 40
5.062034999999998
100
AcDbArc
 50
219.4326580000000
 51
269.9999969999999
  0
LINE
  5
17F
100
AcDbEntity
  8
A1
  6
CONTINUOUS
 62
7
100
AcDbLine
 10
137.0653670000000
 20
144.5367299999999
 30
0.000000000000000
 11
137.9756760000001
 21
144.5367299999999
 31
0.000000000000000
  0
ARC
  5
180
100
AcDbEntity
  8
A1
  6
CONTINUOUS
 62
7
100
AcDbCircle
 10
174.1596200000000
 20
152.2055380000000
 30
0.000000000000000
 40
5.062034999999998
100
AcDbArc
 50
217.0732239999999
 51
270.1004419999998
  0
ARC
  5
181
100
AcDbEntity
  8
A1
  6
CONTINUOUS
 62
7
100
AcDbCircle
 10
174.1596200000000
 20
152.2055380000000
 30
0.000000000000000
 40
5.062034999999998
100
AcDbArc
 50
269.9204459999999
 51
320.5673410000000
  0
ARC
  5
182
100
AcDbEntity
  8
A1
  6
CONTINUOUS
 62
7
100
AcDbCircle
 10
173.2492810000001
 20
152.2055380000000
 30
0.000000000000000
 40
5.062034999999998
100
AcDbArc
 50
218.5011980000000
 51
269.9999969999999
  0
LINE
  5
183
100
AcDbEntity
  8
A1
  6
CONTINUOUS
 62
7
100
AcDbLine
 10
165.1814560000001
 20
153.8061090000000
 30
0.000000000000000
 11
169.2854599999999
 21
149.0673699999999
 31
0.000000000000000
  0
LINE
  5
184
100
AcDbEntity
  8
A1
  6
CONTINUOUS
 62
7
100
AcDbLine
 10
166.0917949999999
 20
153.8061089999999
 30
0.000000000000000
 11
170.1008889999999
 21
149.1769589999998
 31
0.000000000000000
  0
LINE
  5
185
100
AcDbEntity
  8
A1
  6
CONTINUOUS
 62
7
100
AcDbLine
 10
173.2457259999999
 20
147.1434960000000
 30
0.000000000000000
 11
174.1596200000000
 21
147.1434960000000
 31
0.000000000000000
  0
LINE
  5
186
100
AcDbEntity
  8
A1
  6
CONTINUOUS
 62
7
100
AcDbLine
 10
132.0717370000000
 20
154.9715749999999
 30
0.000000000000000
 11
136.0473919999999
 21
163.5282310000000
 31
0.000000000000000
  0
ARC
  5
187
100
AcDbEntity
  8
A1
  6
CONTINUOUS
 62
7
100
AcDbCircle
 10
162.8928359999999
 20
156.5316800000000
 30
0.000000000000000
 40
2.000000000000000
100
AcDbArc
 50
4.488094000000000
 51
104.4135999999999
  0
ARC
  5
188
100
AcDbEntity
  8
A1
  6
CONTINUOUS
 62
7
100
AcDbCircle
 10
123.1641342618402
 20
330.2111242073318
 30
0.000000000000000
 40
176.2332874445394
100
AcDbArc
 50
277.9425269797566
 51
278.2503197222449
  0
ARC
  5
189
100
AcDbEntity
  8
A1
  6
CONTINUOUS
 62
7
100
AcDbCircle
 10
122.8792460000444
 20
332.1782109894327
 30
0.000000000000000
 40
178.2208969685819
100
AcDbArc
 50
278.2502125164902
 51
278.5545675183434
  0
ARC
  5
18A
100
AcDbEntity
  8
A1
  6
CONTINUOUS
 62
7
100
AcDbCircle
 10
122.7871389626187
 20
332.7967126032563
 30
0.000000000000000
 40
178.8462185723457
100
AcDbArc
 50
278.5542725969128
 51
278.8572525025047
  0
ARC
  5
18B
100
AcDbEntity
  8
A1
  6
CONTINUOUS
 62
7
100
AcDbCircle
 10
122.8928119356730
 20
332.1218417226203
 30
0.000000000000000
 40
178.1631247054175
100
AcDbArc
 50
278.8570914598337
 51
279.1609880962755
  0
ARC
  5
18C
100
AcDbEntity
  8
A1
  6
CONTINUOUS
 62
7
100
AcDbCircle
 10
123.2434337102923
 20
329.9507286312387
 30
0.000000000000000
 40
175.9638822352632
100
AcDbArc
 50
279.1608289496028
 51
279.4686216920837
  0
ARC
  5
18D
100
AcDbEntity
  8
A1
  6
CONTINUOUS
 62
7
100
AcDbCircle
 10
123.8227921226438
 20
326.4782672117056
 30
0.000000000000000
 40
172.4434214087544
100
AcDbArc
 50
279.4685487900486
 51
279.7827586480445
  0
ARC
  5
18E
100
AcDbEntity
  8
A1
  6
CONTINUOUS
 62
7
100
AcDbCircle
 10
124.6790869094452
 20
321.5156004569619
 30
0.000000000000000
 40
167.4074208446204
100
AcDbArc
 50
279.7825457497461
 51
280.1063812800316
  0
ARC
  5
18F
100
AcDbEntity
  8
A1
  6
CONTINUOUS
 62
7
100
AcDbCircle
 10
125.7810498639820
 20
315.3374803229673
 30
0.000000000000000
 40
161.1317941700780
100
AcDbArc
 50
280.1061144546278
 51
280.4427842128755
  0
ARC
  5
190
100
AcDbEntity
  8
A1
  6
CONTINUOUS
 62
7
100
AcDbCircle
 10
127.1423446567387
 20
307.9558840286322
 30
0.000000000000000
 40
153.6257241808325
100
AcDbArc
 50
280.4424834993219
 51
280.7958835872435
  0
ARC
  5
191
100
AcDbEntity
  8
A1
  6
CONTINUOUS
 62
7
100
AcDbCircle
 10
128.7832157812357
 20
299.3559173931563
 30
0.000000000000000
 40
144.8706180595100
100
AcDbArc
 50
280.7955028262988
 51
281.1702168904192
  0
ARC
  5
192
100
AcDbEntity
  8
A1
  6
CONTINUOUS
 62
7
100
AcDbCircle
 10
130.6941013995161
 20
289.6827437332079
 30
0.000000000000000
 40
135.0105079237890
100
AcDbArc
 50
281.1698960993635
 51
281.5716536937736
  0
ARC
  5
193
100
AcDbEntity
  8
A1
  6
CONTINUOUS
 62
7
100
AcDbCircle
 10
132.8819968364002
 20
279.0033418672774
 30
0.000000000000000
 40
124.1092919794395
100
AcDbArc
 50
281.5710953116243
 51
282.0081469879507
  0
ARC
  5
194
100
AcDbEntity
  8
A1
  6
CONTINUOUS
 62
7
100
AcDbCircle
 10
135.3339699943760
 20
267.4830014825545
 30
0.000000000000000
 40
112.3309044645872
100
AcDbArc
 50
282.0073801479442
 51
282.4902682630895
  0
ARC
  5
195
100
AcDbEntity
  8
A1
  6
CONTINUOUS
 62
7
100
AcDbCircle
 10
138.0582956493712
 20
255.1929090144096
 30
0.000000000000000
 40
99.74248441261014
100
AcDbArc
 50
282.4892207519069
 51
283.0330712702263
  0
ARC
  5
196
100
AcDbEntity
  8
A1
  6
CONTINUOUS
 62
7
100
AcDbCircle
 10
141.0298870571308
 20
242.3668977588449
 30
0.000000000000000
 40
86.57673671638595
100
AcDbArc
 50
283.0313468688442
 51
283.6579319524045
  0
ARC
  5
197
100
AcDbEntity
  8
A1
  6
CONTINUOUS
 62
7
100
AcDbCircle
 10
144.2351248392212
 20
229.1912281090413
 30
0.000000000000000
 40
73.01680288805660
100
AcDbArc
 50
283.6551848762761
 51
284.3981939418610
  0
LINE
  5
198
100
AcDbEntity
  8
A1
  6
CONTINUOUS
 62
7
100
AcDbLine
 10
136.0513289999998
 20
163.5367300000000
 30
0.000000000000000
 11
147.0192600000001
 21
163.5367300000000
 31
0.000000000000000
  0
ARC
  5
199
100
AcDbEntity
  8
A1
  6
CONTINUOUS
 62
7
100
AcDbCircle
 10
147.7922350000001
 20
153.6875789999998
 30
0.000000000000000
 40
2.000000000000000
100
AcDbArc
 50
97.94205800000000
 51
155.0791720000000
  0
LINE
  5
19A
100
AcDbEntity
  8
A1
  6
CONTINUOUS
 62
7
100
AcDbLine
 10
132.9820770000000
 20
154.9715749999998
 30
0.000000000000000
 11
136.9577159999999
 21
163.5282159999999
 31
0.000000000000000
  0
LINE
  5
19B
100
AcDbEntity
  8
A1
  6
CONTINUOUS
 62
7
100
AcDbLine
 10
145.3144060000000
 20
165.1367209999999
 30
0.000000000000000
 11
146.5191939999999
 21
163.5367300000000
 31
0.000000000000000
  0
LINE
  5
19C
100
AcDbEntity
  8
A1
  6
CONTINUOUS
 62
7
100
AcDbLine
 10
145.3143900000000
 20
165.1367209999999
 30
0.000000000000000
 11
144.1096019999999
 21
163.5367300000001
 31
0.000000000000000
  0
LINE
  5
19D
100
AcDbEntity
  8
A1
  6
CONTINUOUS
 62
7
100
AcDbLine
 10
145.3144060000000
 20
165.1367209999999
 30
0.000000000000000
 11
147.1460400000000
 21
165.1367209999999
 31
0.000000000000000
  0
LINE
  5
19E
100
AcDbEntity
  8
A1
  6
CONTINUOUS
 62
7
100
AcDbLine
 10
146.4459670000001
 20
163.5367300000000
 30
0.000000000000000
 11
146.4459670000001
 21
155.2058130000000
 31
0.000000000000000
  0
ARC
  5
19F
100
AcDbEntity
  8
A1
  6
CONTINUOUS
 62
7
100
AcDbCircle
 10
161.9824960000000
 20
156.5316800000000
 30
0.000000000000000
 40
2.000000000000000
100
AcDbArc
 50
4.488094000000000
 51
76.84503800000000
  0
LINE
  5
1A0
100
AcDbEntity
  8
A5
  6
PHANTOM
 62
6
100
AcDbLine
 10
127.1993740000000
 20
163.5367300000000
 30
0.000000000000000
 11
138.0644060000000
 21
163.5367300000000
 31
0.000000000000000
  0
ARC
  5
1A1
100
AcDbEntity
  8
A5
  6
PHANTOM
 62
6
100
AcDbCircle
 10
129.1781660000001
 20
151.2404630000000
 30
0.000000000000000
 40
6.703731999999999
100
AcDbArc
 50
224.2716279999999
 51
270.0000000000000
  0
ARC
  5
1A2
100
AcDbEntity
  8
A5
  6
PHANTOM
 62
6
100
AcDbCircle
 10
129.4820640000000
 20
151.5367300000000
 30
0.000000000000000
 40
7.128147999999999
100
AcDbArc
 50
153.8632500000000
 51
224.2716279999999
  0
LINE
  5
1A3
100
AcDbEntity
  8
A5
  6
PHANTOM
 62
6
100
AcDbLine
 10
122.9553340000001
 20
154.4024389999999
 30
0.000000000000000
 11
127.1993740000001
 21
163.5367300000000
 31
0.000000000000000
  0
ENDSEC
  0
SECTION
  2
OBJECTS
  0
DICTIONARY
  5
1D2
100
AcDbDictionary
  3
ACAD_GROUP
350
1D3
  3
ACAD_LAYOUT
350
1D4
  3
ACAD_MLINESTYLE
350
1D5
  0
DICTIONARY
  5
1D3
102
{ACAD_REACTORS
330
1D2
102
}
330
1D2
100
AcDbDictionary
  0
DICTIONARY
  5
1D4
102
{ACAD_REACTORS
330
1D2
102
}
330
1D2
100
AcDbDictionary
  3
Model
350
1D6
  3
ﾚｲｱｳﾄ1
350
1D7
  3
ﾚｲｱｳﾄ2
350
1D8
  0
DICTIONARY
  5
1D5
102
{ACAD_REACTORS
330
1D2
102
}
330
1D2
100
AcDbDictionary
  3
STANDARD
350
1D9
  0
LAYOUT
  5
1D6
102
{ACAD_REACTORS
330
1D4
102
}
330
1D4
100
AcDbPlotSettings
 70
11952
  4
A3
 44
297.000000
 45
420.000000
 73
  1
 72
  1
100
AcDbLayout
  1
Model
 71
0
330
1C9
  0
LAYOUT
  5
1D7
102
{ACAD_REACTORS
330
1D4
102
}
330
1D4
100
AcDbPlotSettings
100
AcDbLayout
  1
ﾚｲｱｳﾄ1
 71
1
330
1CA
  0
LAYOUT
  5
1D8
102
{ACAD_REACTORS
330
1D4
102
}
330
1D4
100
AcDbPlotSettings
100
AcDbLayout
  1
ﾚｲｱｳﾄ2
 71
2
330
1CB
  0
MLINESTYLE
  5
1D9
102
{ACAD_REACTORS
330
1D5
102
}
330
1D5
100
AcDbMlineStyle
  2
STANDARD
 70
     0
  3

 62
   256
 51
90.00
 52
90.00
 71
     2
 49
0.50
 62
   256
  6
BYLAYER
 49
-0.50
 62
   256
  6
BYLAYER
  0
ENDSEC
  0
EOF
