  0
SECTION
  2
HEADER
  9
$ACADVER
  1
AC1015
  9
$ACADMAINTVER
 70
    20
  9
$DWGCODEPAGE
  3
ANSI_932
  9
$INSBASE
 10
0.0
 20
0.0
 30
0.0
  9
$EXTMIN
 10
10.0
 20
9.999999999999998
 30
0.0
  9
$EXTMAX
 10
493.2202229999998
 20
416.9732119999998
 30
0.0
  9
$LIMMIN
 10
0.0
 20
0.0
  9
$LIMMAX
 10
630.7160349999998
 20
434.8118119999998
  9
$ORTHOMODE
 70
     0
  9
$REGENMODE
 70
     1
  9
$FILLMODE
 70
     1
  9
$QTEXTMODE
 70
     0
  9
$MIRRTEXT
 70
     1
  9
$LTSCALE
 40
20.0
  9
$ATTMODE
 70
     1
  9
$TEXTSIZE
 40
5.0
  9
$TRACEWID
 40
1.0
  9
$TEXTSTYLE
  7
STANDARD
  9
$CLAYER
  8
0
  9
$CELTYPE
  6
BYLAYER
  9
$CECOLOR
 62
   256
  9
$CELTSCALE
 40
1.0
  9
$DISPSILH
 70
     0
  9
$DIMSCALE
 40
1.0
  9
$DIMASZ
 40
2.5
  9
$DIMEXO
 40
1.0
  9
$DIMDLI
 40
10.0
  9
$DIMRND
 40
0.0
  9
$DIMDLE
 40
0.0
  9
$DIMEXE
 40
1.0
  9
$DIMTP
 40
0.0
  9
$DIMTM
 40
0.0
  9
$DIMTXT
 40
3.2
  9
$DIMCEN
 40
0.0
  9
$DIMTSZ
 40
0.0
  9
$DIMTOL
 70
     0
  9
$DIMLIM
 70
     0
  9
$DIMTIH
 70
     0
  9
$DIMTOH
 70
     0
  9
$DIMSE1
 70
     0
  9
$DIMSE2
 70
     0
  9
$DIMTAD
 70
     3
  9
$DIMZIN
 70
     8
  9
$DIMBLK
  1

  9
$DIMASO
 70
     1
  9
$DIMSHO
 70
     1
  9
$DIMPOST
  1

  9
$DIMAPOST
  1

  9
$DIMALT
 70
     0
  9
$DIMALTD
 70
     2
  9
$DIMALTF
 40
25.4
  9
$DIMLFAC
 40
1.0
  9
$DIMTOFL
 70
     1
  9
$DIMTVP
 40
0.0
  9
$DIMTIX
 70
     0
  9
$DIMSOXD
 70
     0
  9
$DIMSAH
 70
     1
  9
$DIMBLK1
  1

  9
$DIMBLK2
  1

  9
$DIMSTYLE
  2
STANDARD
  9
$DIMCLRD
 70
     0
  9
$DIMCLRE
 70
     0
  9
$DIMCLRT
 70
     0
  9
$DIMTFAC
 40
1.0
  9
$DIMGAP
 40
1.0
  9
$DIMJUST
 70
     0
  9
$DIMSD1
 70
     0
  9
$DIMSD2
 70
     0
  9
$DIMTOLJ
 70
     1
  9
$DIMTZIN
 70
     0
  9
$DIMALTZ
 70
     0
  9
$DIMALTTZ
 70
     0
  9
$DIMUPT
 70
     0
  9
$DIMDEC
 70
     4
  9
$DIMTDEC
 70
     4
  9
$DIMALTU
 70
     2
  9
$DIMALTTD
 70
     2
  9
$DIMTXSTY
  7
STANDARD
  9
$DIMAUNIT
 70
     0
  9
$DIMADEC
 70
     0
  9
$DIMALTRND
 40
0.0
  9
$DIMAZIN
 70
     0
  9
$DIMDSEP
 70
    46
  9
$DIMATFIT
 70
     3
  9
$DIMFRAC
 70
     0
  9
$DIMLDRBLK
  1

  9
$DIMLUNIT
 70
     2
  9
$DIMLWD
 70
    -2
  9
$DIMLWE
 70
    -2
  9
$DIMTMOVE
 70
     0
  9
$LUNITS
 70
     2
  9
$LUPREC
 70
     4
  9
$SKETCHINC
 40
1.0
  9
$FILLETRAD
 40
4.0
  9
$AUNITS
 70
     0
  9
$AUPREC
 70
     2
  9
$MENU
  1
.
  9
$ELEVATION
 40
0.0
  9
$PELEVATION
 40
0.0
  9
$THICKNESS
 40
0.0
  9
$LIMCHECK
 70
     0
  9
$CHAMFERA
 40
10.0
  9
$CHAMFERB
 40
10.0
  9
$CHAMFERC
 40
0.0
  9
$CHAMFERD
 40
0.0
  9
$SKPOLY
 70
     0
  9
$TDCREATE
 40
2451301.435073033
  9
$TDUCREATE
 40
2451301.060073033
  9
$TDUPDATE
 40
2457192.690047222
  9
$TDUUPDATE
 40
2457192.315047222
  9
$TDINDWG
 40
0.1450404514
  9
$TDUSRTIMER
 40
0.1450399653
  9
$USRTIMER
 70
     1
  9
$ANGBASE
 50
0.0
  9
$ANGDIR
 70
     0
  9
$PDMODE
 70
     0
  9
$PDSIZE
 40
0.0
  9
$PLINEWID
 40
0.0
  9
$SPLFRAME
 70
     0
  9
$SPLINETYPE
 70
     6
  9
$SPLINESEGS
 70
     8
  9
$HANDSEED
  5
A21E
  9
$SURFTAB1
 70
     6
  9
$SURFTAB2
 70
     6
  9
$SURFTYPE
 70
     6
  9
$SURFU
 70
     6
  9
$SURFV
 70
     6
  9
$UCSBASE
  2

  9
$UCSNAME
  2

  9
$UCSORG
 10
0.0
 20
0.0
 30
0.0
  9
$UCSXDIR
 10
1.0
 20
0.0
 30
0.0
  9
$UCSYDIR
 10
0.0
 20
1.0
 30
0.0
  9
$UCSORTHOREF
  2

  9
$UCSORTHOVIEW
 70
     0
  9
$UCSORGTOP
 10
0.0
 20
0.0
 30
0.0
  9
$UCSORGBOTTOM
 10
0.0
 20
0.0
 30
0.0
  9
$UCSORGLEFT
 10
0.0
 20
0.0
 30
0.0
  9
$UCSORGRIGHT
 10
0.0
 20
0.0
 30
0.0
  9
$UCSORGFRONT
 10
0.0
 20
0.0
 30
0.0
  9
$UCSORGBACK
 10
0.0
 20
0.0
 30
0.0
  9
$PUCSBASE
  2

  9
$PUCSNAME
  2

  9
$PUCSORG
 10
0.0
 20
0.0
 30
0.0
  9
$PUCSXDIR
 10
1.0
 20
0.0
 30
0.0
  9
$PUCSYDIR
 10
0.0
 20
1.0
 30
0.0
  9
$PUCSORTHOREF
  2

  9
$PUCSORTHOVIEW
 70
     0
  9
$PUCSORGTOP
 10
0.0
 20
0.0
 30
0.0
  9
$PUCSORGBOTTOM
 10
0.0
 20
0.0
 30
0.0
  9
$PUCSORGLEFT
 10
0.0
 20
0.0
 30
0.0
  9
$PUCSORGRIGHT
 10
0.0
 20
0.0
 30
0.0
  9
$PUCSORGFRONT
 10
0.0
 20
0.0
 30
0.0
  9
$PUCSORGBACK
 10
0.0
 20
0.0
 30
0.0
  9
$USERI1
 70
     0
  9
$USERI2
 70
     0
  9
$USERI3
 70
     0
  9
$USERI4
 70
     0
  9
$USERI5
 70
     0
  9
$USERR1
 40
0.0
  9
$USERR2
 40
0.0
  9
$USERR3
 40
0.0
  9
$USERR4
 40
0.0
  9
$USERR5
 40
0.0
  9
$WORLDVIEW
 70
     1
  9
$SHADEDGE
 70
     3
  9
$SHADEDIF
 70
    70
  9
$TILEMODE
 70
     1
  9
$MAXACTVP
 70
    16
  9
$PINSBASE
 10
0.0
 20
0.0
 30
0.0
  9
$PLIMCHECK
 70
     0
  9
$PEXTMIN
 10
1.000000000000000E+20
 20
1.000000000000000E+20
 30
1.000000000000000E+20
  9
$PEXTMAX
 10
-1.000000000000000E+20
 20
-1.000000000000000E+20
 30
-1.000000000000000E+20
  9
$PLIMMIN
 10
0.0
 20
0.0
  9
$PLIMMAX
 10
420.0
 20
297.0
  9
$UNITMODE
 70
     0
  9
$VISRETAIN
 70
     0
  9
$PLINEGEN
 70
     0
  9
$PSLTSCALE
 70
     0
  9
$TREEDEPTH
 70
  3020
  9
$CMLSTYLE
  2
STANDARD
  9
$CMLJUST
 70
     0
  9
$CMLSCALE
 40
1.0
  9
$PROXYGRAPHICS
 70
     1
  9
$MEASUREMENT
 70
     0
  9
$CELWEIGHT
370
    -1
  9
$ENDCAPS
280
     0
  9
$JOINSTYLE
280
     0
  9
$LWDISPLAY
290
     0
  9
$INSUNITS
 70
     0
  9
$HYPERLINKBASE
  1

  9
$STYLESHEET
  1

  9
$XEDIT
290
     1
  9
$CEPSNTYPE
380
     0
  9
$PSTYLEMODE
290
     1
  9
$FINGERPRINTGUID
  2
{1CFAB6AA-0031-44F3-BD43-F6C19AD8553C}
  9
$VERSIONGUID
  2
{A452CCD8-3ECF-4553-8AFB-DC492E186A64}
  9
$EXTNAMES
290
     1
  9
$PSVPSCALE
 40
0.0
  9
$OLESTARTUP
290
     0
  0
ENDSEC
  0
SECTION
  2
CLASSES
  0
CLASS
  1
ACDBDICTIONARYWDFLT
  2
AcDbDictionaryWithDefault
  3
ObjectDBX Classes
 90
        0
280
     0
281
     0
  0
CLASS
  1
ACDBPLACEHOLDER
  2
AcDbPlaceHolder
  3
ObjectDBX Classes
 90
        0
280
     0
281
     0
  0
CLASS
  1
LAYOUT
  2
AcDbLayout
  3
ObjectDBX Classes
 90
        0
280
     0
281
     0
  0
CLASS
  1
DICTIONARYVAR
  2
AcDbDictionaryVar
  3
ObjectDBX Classes
 90
        0
280
     0
281
     0
  0
CLASS
  1
MATERIAL
  2
AcDbMaterial
  3
ObjectDBX Classes
 90
     1153
280
     0
281
     0
  0
CLASS
  1
VISUALSTYLE
  2
AcDbVisualStyle
  3
ObjectDBX Classes
 90
     4095
280
     0
281
     0
  0
CLASS
  1
TABLESTYLE
  2
AcDbTableStyle
  3
ObjectDBX Classes
 90
     4095
280
     0
281
     0
  0
CLASS
  1
SCALE
  2
AcDbScale
  3
ObjectDBX Classes
 90
     1153
280
     0
281
     0
  0
CLASS
  1
MLEADERSTYLE
  2
AcDbMLeaderStyle
  3
ACDB_MLEADERSTYLE_CLASS
 90
     4095
280
     0
281
     0
  0
CLASS
  1
ACDBSECTIONVIEWSTYLE
  2
AcDbSectionViewStyle
  3
ObjectDBX Classes
 90
     1025
280
     0
281
     0
  0
CLASS
  1
ACDBDETAILVIEWSTYLE
  2
AcDbDetailViewStyle
  3
ObjectDBX Classes
 90
     1025
280
     0
281
     0
  0
CLASS
  1
CELLSTYLEMAP
  2
AcDbCellStyleMap
  3
ObjectDBX Classes
 90
     1152
280
     0
281
     0
  0
ENDSEC
  0
SECTION
  2
TABLES
  0
TABLE
  2
VPORT
  5
9EEF
330
0
100
AcDbSymbolTable
 70
     1
  0
VPORT
  5
A169
330
9EEF
100
AcDbSymbolTableRecord
100
AcDbViewportTableRecord
  2
*ACTIVE
 70
     0
 10
0.0
 20
0.0
 11
1.0
 21
1.0
 12
408.2794489982383
 22
213.4748462379926
 13
0.0
 23
0.0
 14
10.0
 24
10.0
 15
10.0
 25
10.0
 16
0.0
 26
0.0
 36
1.0
 17
0.0
 27
0.0
 37
0.0
 40
410.2189805571748
 41
2.35006605019815
 42
50.0
 43
0.0
 44
0.0
 50
0.0
 51
0.0
 71
     0
 72
   100
 73
     1
 74
     0
 75
     0
 76
     0
 77
     0
 78
     0
281
     0
 65
     1
110
0.0
120
0.0
130
0.0
111
1.0
121
0.0
131
0.0
112
0.0
122
1.0
132
0.0
 79
     0
146
0.0
1001
ACAD_NAV_VCDISPLAY
1070
     3
  0
ENDTAB
  0
TABLE
  2
LTYPE
  5
9EEC
330
0
100
AcDbSymbolTable
 70
     4
  0
LTYPE
  5
9EFA
330
9EEC
100
AcDbSymbolTableRecord
100
AcDbLinetypeTableRecord
  2
BYBLOCK
 70
     0
  3

 72
    65
 73
     0
 40
0.0
  0
LTYPE
  5
9EFB
330
9EEC
100
AcDbSymbolTableRecord
100
AcDbLinetypeTableRecord
  2
BYLAYER
 70
     0
  3

 72
    65
 73
     0
 40
0.0
  0
LTYPE
  5
9EFC
330
9EEC
100
AcDbSymbolTableRecord
100
AcDbLinetypeTableRecord
  2
CONTINUOUS
 70
     0
  3
Solid line
 72
    65
 73
     0
 40
0.0
  0
LTYPE
  5
9F0A
330
9EEC
100
AcDbSymbolTableRecord
100
AcDbLinetypeTableRecord
  2
DASHED
 70
     0
  3
__ __ __ __ __ __ __ __ __ __ __ __ __ __ __ __
 72
    65
 73
     2
 40
0.75
 49
0.5
 74
     0
 49
-0.25
 74
     0
  0
LTYPE
  5
9F0B
330
9EEC
100
AcDbSymbolTableRecord
100
AcDbLinetypeTableRecord
  2
CENTER
 70
     0
  3
____ _ ____ _ ____ _ ____ _ ____ _ ____ _ ____ 
 72
    65
 73
     4
 40
2.0
 49
1.25
 74
     0
 49
-0.25
 74
     0
 49
0.25
 74
     0
 49
-0.25
 74
     0
  0
LTYPE
  5
9F0C
330
9EEC
100
AcDbSymbolTableRecord
100
AcDbLinetypeTableRecord
  2
PHANTOM
 70
     0
  3
______  __  __  ______  __  __  ______  __  __ 
 72
    65
 73
     6
 40
2.5
 49
1.25
 74
     0
 49
-0.25
 74
     0
 49
0.25
 74
     0
 49
-0.25
 74
     0
 49
0.25
 74
     0
 49
-0.25
 74
     0
  0
ENDTAB
  0
TABLE
  2
LAYER
  5
9EE9
330
0
100
AcDbSymbolTable
 70
     8
  0
LAYER
  5
9EF7
102
{ACAD_XDICTIONARY
360
A1C2
102
}
330
9EE9
100
AcDbSymbolTableRecord
100
AcDbLayerTableRecord
  2
0
 70
     0
 62
     7
  6
CONTINUOUS
370
    -3
390
A170
  0
LAYER
  5
9F0D
102
{ACAD_XDICTIONARY
360
A1C4
102
}
330
9EE9
100
AcDbSymbolTableRecord
100
AcDbLayerTableRecord
  2
4
 70
     0
 62
     1
  6
CENTER
370
    -3
390
A170
  0
LAYER
  5
9F0E
102
{ACAD_XDICTIONARY
360
A1C6
102
}
330
9EE9
100
AcDbSymbolTableRecord
100
AcDbLayerTableRecord
  2
5
 70
     0
 62
     6
  6
PHANTOM
370
    -3
390
A170
  0
LAYER
  5
9F0F
102
{ACAD_XDICTIONARY
360
A1C8
102
}
330
9EE9
100
AcDbSymbolTableRecord
100
AcDbLayerTableRecord
  2
1
 70
     0
 62
     7
  6
CONTINUOUS
370
    -3
390
A170
  0
LAYER
  5
9F10
102
{ACAD_XDICTIONARY
360
A1CA
102
}
330
9EE9
100
AcDbSymbolTableRecord
100
AcDbLayerTableRecord
  2
2
 70
     0
 62
     4
  6
CONTINUOUS
370
    -3
390
A170
  0
LAYER
  5
9F11
102
{ACAD_XDICTIONARY
360
A1CC
102
}
330
9EE9
100
AcDbSymbolTableRecord
100
AcDbLayerTableRecord
  2
3
 70
     0
 62
     2
  6
DASHED
370
    -3
390
A170
  0
LAYER
  5
9F12
102
{ACAD_XDICTIONARY
360
A1CE
102
}
330
9EE9
100
AcDbSymbolTableRecord
100
AcDbLayerTableRecord
  2
6
 70
     0
 62
     5
  6
CONTINUOUS
370
    -3
390
A170
  0
LAYER
  5
9F13
102
{ACAD_XDICTIONARY
360
A1D0
102
}
330
9EE9
100
AcDbSymbolTableRecord
100
AcDbLayerTableRecord
  2
7
 70
     0
 62
     3
  6
CONTINUOUS
370
    -3
390
A170
  0
ENDTAB
  0
TABLE
  2
STYLE
  5
9EEA
330
0
100
AcDbSymbolTable
 70
     1
  0
STYLE
  5
9EF8
330
9EEA
100
AcDbSymbolTableRecord
100
AcDbTextStyleTableRecord
  2
STANDARD
 70
     0
 40
0.0
 41
1.0
 50
0.0
 71
     0
 42
5.0
  3
txt
  4

  0
ENDTAB
  0
TABLE
  2
VIEW
  5
9EED
330
0
100
AcDbSymbolTable
 70
     0
  0
ENDTAB
  0
TABLE
  2
UCS
  5
9EEE
330
0
100
AcDbSymbolTable
 70
     0
  0
ENDTAB
  0
TABLE
  2
APPID
  5
9EF0
330
0
100
AcDbSymbolTable
 70
     3
  0
APPID
  5
9EF9
330
9EF0
100
AcDbSymbolTableRecord
100
AcDbRegAppTableRecord
  2
ACAD
 70
     0
  0
APPID
  5
A1DC
330
9EF0
100
AcDbSymbolTableRecord
100
AcDbRegAppTableRecord
  2
ACAD_NAV_VCDISPLAY
 70
     0
  0
APPID
  5
A215
330
9EF0
100
AcDbSymbolTableRecord
100
AcDbRegAppTableRecord
  2
ACAD_MLEADERVER
 70
     0
  0
ENDTAB
  0
TABLE
  2
DIMSTYLE
  5
9EF1
330
0
100
AcDbSymbolTable
 70
     1
100
AcDbDimStyleTable
 71
     0
  0
DIMSTYLE
105
9F15
330
9EF1
100
AcDbSymbolTableRecord
100
AcDbDimStyleTableRecord
  2
STANDARD
 70
     0
 41
2.5
 42
1.0
 43
10.0
 44
1.0
 73
     0
 74
     0
 77
     3
 78
     8
140
3.2
141
0.0
147
1.0
172
     1
173
     1
284
     8
285
     8
286
     8
340
9EF8
  0
ENDTAB
  0
TABLE
  2
BLOCK_RECORD
  5
9EE8
330
0
100
AcDbSymbolTable
 70
     0
  0
BLOCK_RECORD
  5
9F05
102
{ACAD_XDICTIONARY
360
A14D
102
}
330
9EE8
100
AcDbSymbolTableRecord
100
AcDbBlockTableRecord
  2
*MODEL_SPACE
340
A1BE
  0
BLOCK_RECORD
  5
9F01
102
{ACAD_XDICTIONARY
360
A14B
102
}
330
9EE8
100
AcDbSymbolTableRecord
100
AcDbBlockTableRecord
  2
*PAPER_SPACE
340
A1BF
  0
ENDTAB
  0
ENDSEC
  0
SECTION
  2
BLOCKS
  0
BLOCK
  5
9F06
330
9F05
100
AcDbEntity
  8
0
100
AcDbBlockBegin
  2
*MODEL_SPACE
 70
     0
 10
0.0
 20
0.0
 30
0.0
  3
*MODEL_SPACE
  1

  0
ENDBLK
  5
9F07
330
9F05
100
AcDbEntity
  8
0
100
AcDbBlockEnd
  0
BLOCK
  5
9F02
330
9F01
100
AcDbEntity
 67
     1
  8
0
100
AcDbBlockBegin
  2
*PAPER_SPACE
 70
     0
 10
0.0
 20
0.0
 30
0.0
  3
*PAPER_SPACE
  1

  0
ENDBLK
  5
9F03
330
9F01
100
AcDbEntity
 67
     1
  8
0
100
AcDbBlockEnd
  0
ENDSEC
  0
SECTION
  2
ENTITIES
  0
TEXT
  5
9F1D
330
9F05
100
AcDbEntity
  8
7
  6
Continuous
100
AcDbText
 10
10.0
 20
18.0
 30
0.0
 40
3.0
  1
TYPE No.TCA-420EA-N100
100
AcDbText
  0
TEXT
  5
9F1E
330
9F05
100
AcDbEntity
  8
7
  6
Continuous
100
AcDbText
 10
10.0
 20
26.0
 30
0.0
 40
3.0
  1
CODE No.9774
100
AcDbText
  0
TEXT
  5
9F1F
330
9F05
100
AcDbEntity
  8
1
  6
Continuous
100
AcDbText
 10
10.0
 20
10.0
 30
0.0
 40
1.399999999999999
  1
LAYER
100
AcDbText
  0
TEXT
  5
9F20
330
9F05
100
AcDbEntity
  8
1
  6
Continuous
100
AcDbText
 10
17.97951099999998
 20
10.04873699999998
 30
0.0
 40
1.399999999999999
  1
1
100
AcDbText
  0
TEXT
  5
9F21
330
9F05
100
AcDbEntity
  8
7
  6
Continuous
100
AcDbText
 10
29.97951099999999
 20
10.04873699999998
 30
0.0
 40
1.399999999999999
  1
7
100
AcDbText
  0
TEXT
  5
9F22
330
9F05
100
AcDbEntity
  8
4
  6
CENTER
100
AcDbText
 10
23.97951099999999
 20
10.04873699999998
 30
0.0
 40
1.399999999999999
  1
4
100
AcDbText
  0
TEXT
  5
9F23
330
9F05
100
AcDbEntity
  8
3
  6
DASHED
100
AcDbText
 10
21.979511
 20
10.04873699999998
 30
0.0
 40
1.399999999999999
  1
3
100
AcDbText
  0
TEXT
  5
9F24
330
9F05
100
AcDbEntity
  8
2
  6
Continuous
100
AcDbText
 10
19.97951099999998
 20
10.04873699999998
 30
0.0
 40
1.399999999999999
  1
2
100
AcDbText
  0
TEXT
  5
9F25
330
9F05
100
AcDbEntity
  8
6
  6
Continuous
100
AcDbText
 10
27.979511
 20
10.04873699999998
 30
0.0
 40
1.399999999999999
  1
6
100
AcDbText
  0
TEXT
  5
9F26
330
9F05
100
AcDbEntity
  8
5
  6
PHANTOM
100
AcDbText
 10
25.97951099999999
 20
10.04873699999998
 30
0.0
 40
1.399999999999999
  1
5
100
AcDbText
  0
LINE
  5
9F27
330
9F05
100
AcDbEntity
  8
4
  6
CENTER
 48
0.8
100
AcDbLine
 10
57.22022299999999
 20
317.8716129999999
 30
0.0
 11
57.22022299999999
 21
141.871609
 31
0.0
  0
LINE
  5
9F28
330
9F05
100
AcDbEntity
  8
4
  6
CENTER
 48
0.8
100
AcDbLine
 10
26.92023300000001
 20
196.871609
 30
0.0
 11
83.72021499999998
 21
196.871609
 31
0.0
  0
LINE
  5
9F29
330
9F05
100
AcDbEntity
  8
1
  6
Continuous
100
AcDbLine
 10
73.220223
 20
250.97366
 30
0.0
 11
73.220223
 21
185.871609
 31
0.0
  0
LINE
  5
9F2A
330
9F05
100
AcDbEntity
  8
1
  6
Continuous
100
AcDbLine
 10
41.220223
 20
250.97366
 30
0.0
 11
41.220223
 21
185.871609
 31
0.0
  0
LINE
  5
9F2B
330
9F05
100
AcDbEntity
  8
1
  6
Continuous
100
AcDbLine
 10
38.920233
 20
185.871609
 30
0.0
 11
41.220223
 21
185.871609
 31
0.0
  0
LINE
  5
9F2C
330
9F05
100
AcDbEntity
  8
1
  6
Continuous
100
AcDbLine
 10
75.520218
 20
185.871609
 30
0.0
 11
73.220223
 21
185.871609
 31
0.0
  0
LINE
  5
9F2D
330
9F05
100
AcDbEntity
  8
1
  6
Continuous
100
AcDbLine
 10
32.22022299999999
 20
255.9716009999999
 30
0.0
 11
32.22022299999999
 21
229.5590939999999
 31
0.0
  0
LINE
  5
9F2E
330
9F05
100
AcDbEntity
  8
1
  6
Continuous
100
AcDbLine
 10
82.220223
 20
255.9716009999999
 30
0.0
 11
82.220223
 21
229.5590939999999
 31
0.0
  0
LINE
  5
9F2F
330
9F05
100
AcDbEntity
  8
1
  6
Continuous
100
AcDbLine
 10
41.220223
 20
200.871609
 30
0.0
 11
42.22022299999999
 21
200.871609
 31
0.0
  0
LINE
  5
9F30
330
9F05
100
AcDbEntity
  8
1
  6
Continuous
100
AcDbLine
 10
41.220223
 20
192.871609
 30
0.0
 11
42.22022299999999
 21
192.871609
 31
0.0
  0
LINE
  5
9F31
330
9F05
100
AcDbEntity
  8
4
  6
CENTER
 48
0.8
100
AcDbLine
 10
212.220223
 20
317.8716129999999
 30
0.0
 11
212.220223
 21
214.6049389999999
 31
0.0
  0
LINE
  5
9F32
330
9F05
100
AcDbEntity
  8
1
  6
Continuous
100
AcDbLine
 10
233.1957099999999
 20
252.071608
 30
0.0
 11
237.220223
 21
252.071608
 31
0.0
  0
LINE
  5
9F33
330
9F05
100
AcDbEntity
  8
4
  6
CENTER
 48
0.8
100
AcDbLine
 10
125.2202229999999
 20
196.871609
 30
0.0
 11
235.220223
 21
196.871609
 31
0.0
  0
LINE
  5
9F34
330
9F05
100
AcDbEntity
  8
4
  6
CENTER
 48
0.8
100
AcDbLine
 10
180.2202229999998
 20
256.3725949999999
 30
0.0
 11
180.2202229999998
 21
141.871609
 31
0.0
  0
LINE
  5
9F35
330
9F05
100
AcDbEntity
  8
1
  6
Continuous
100
AcDbLine
 10
191.220223
 20
251.771612
 30
0.0
 11
191.220223
 21
199.371609
 31
0.0
  0
LINE
  5
9F36
330
9F05
100
AcDbEntity
  8
1
  6
Continuous
100
AcDbLine
 10
189.7663579999999
 20
191.406155
 30
0.0
 11
220.1782389999999
 21
244.524497
 31
0.0
  0
LINE
  5
9F37
330
9F05
100
AcDbEntity
  8
1
  6
Continuous
100
AcDbLine
 10
174.912256
 20
250.8315
 30
0.0
 11
169.2822429999999
 21
198.03806
 31
0.0
  0
LINE
  5
9F38
330
9F05
100
AcDbEntity
  8
4
  6
CENTER
 48
0.8
100
AcDbLine
 10
125.2202229999999
 20
386.673222
 30
0.0
 11
242.2202229999999
 21
386.673222
 31
0.0
  0
LINE
  5
9F39
330
9F05
100
AcDbEntity
  8
4
  6
CENTER
 48
0.8
100
AcDbLine
 10
212.220223
 20
416.673222
 30
0.0
 11
212.220223
 21
356.673222
 31
0.0
  0
LINE
  5
9F3A
330
9F05
100
AcDbEntity
  8
1
  6
Continuous
100
AcDbLine
 10
170.931713
 20
253.371624
 30
0.0
 11
189.823926
 21
256.70283
 31
0.0
  0
LINE
  5
9F3B
330
9F05
100
AcDbEntity
  8
1
  6
Continuous
100
AcDbLine
 10
170.931713
 20
253.371624
 30
0.0
 11
171.331104
 21
251.1065659999999
 31
0.0
  0
LINE
  5
9F3C
330
9F05
100
AcDbEntity
  8
1
  6
Continuous
100
AcDbLine
 10
171.331104
 20
251.1065659999999
 30
0.0
 11
173.701828
 21
251.524589
 31
0.0
  0
LINE
  5
9F3D
330
9F05
100
AcDbEntity
  8
1
  6
Continuous
100
AcDbLine
 10
33.920233
 20
201.9736219999999
 30
0.0
 11
33.920233
 21
191.7695959999998
 31
0.0
  0
LINE
  5
9F3E
330
9F05
100
AcDbEntity
  8
1
  6
Continuous
100
AcDbLine
 10
35.39518300000001
 20
193.621609
 30
0.0
 11
38.44529299999999
 21
193.621609
 31
0.0
  0
LINE
  5
9F3F
330
9F05
100
AcDbEntity
  8
1
  6
Continuous
100
AcDbLine
 10
35.36872299999997
 20
200.121609
 30
0.0
 11
38.47175299999999
 21
200.121609
 31
0.0
  0
LINE
  5
9F40
330
9F05
100
AcDbEntity
  8
1
  6
Continuous
100
AcDbLine
 10
35.318233
 20
190.3716089999998
 30
0.0
 11
38.52224299999999
 21
190.3716089999998
 31
0.0
  0
LINE
  5
9F41
330
9F05
100
AcDbEntity
  8
1
  6
Continuous
100
AcDbLine
 10
35.318233
 20
203.3716089999999
 30
0.0
 11
38.52224299999999
 21
203.3716089999999
 31
0.0
  0
LINE
  5
9F42
330
9F05
100
AcDbEntity
  8
1
  6
Continuous
100
AcDbLine
 10
35.318233
 20
190.371613
 30
0.0
 11
33.920233
 21
191.7696
 31
0.0
  0
LINE
  5
9F43
330
9F05
100
AcDbEntity
  8
1
  6
Continuous
100
AcDbLine
 10
33.920253
 20
201.973625
 30
0.0
 11
35.318233
 21
203.371613
 31
0.0
  0
LINE
  5
9F44
330
9F05
100
AcDbEntity
  8
1
  6
Continuous
100
AcDbLine
 10
78.72021499999998
 20
201.121609
 30
0.0
 11
78.72021499999998
 21
192.621609
 31
0.0
  0
LINE
  5
9F45
330
9F05
100
AcDbEntity
  8
1
  6
Continuous
100
AcDbLine
 10
75.520218
 20
190.621609
 30
0.0
 11
76.72021499999998
 21
190.621609
 31
0.0
  0
LINE
  5
9F46
330
9F05
100
AcDbEntity
  8
1
  6
Continuous
100
AcDbLine
 10
75.520218
 20
203.121609
 30
0.0
 11
76.72021499999998
 21
203.121609
 31
0.0
  0
LINE
  5
9F47
330
9F05
100
AcDbEntity
  8
1
  6
Continuous
100
AcDbLine
 10
75.520218
 20
250.9432789999999
 30
0.0
 11
75.520218
 21
185.871609
 31
0.0
  0
LINE
  5
9F48
330
9F05
100
AcDbEntity
  8
1
  6
Continuous
100
AcDbLine
 10
38.920233
 20
250.9432789999999
 30
0.0
 11
38.920233
 21
185.871609
 31
0.0
  0
LINE
  5
9F49
330
9F05
100
AcDbEntity
  8
1
  6
Continuous
100
AcDbLine
 10
192.220223
 20
260.9716049999998
 30
0.0
 11
232.220223
 21
260.9716049999998
 31
0.0
  0
LINE
  5
9F4A
330
9F05
100
AcDbEntity
  8
1
  6
Continuous
100
AcDbLine
 10
37.22022299999999
 20
260.9716009999999
 30
0.0
 11
77.220223
 21
260.9716009999999
 31
0.0
  0
LINE
  5
9F4B
330
9F05
100
AcDbEntity
  8
1
  6
Continuous
100
AcDbLine
 10
72.220223
 20
200.871609
 30
0.0
 11
73.22023100000001
 21
200.871609
 31
0.0
  0
LINE
  5
9F4C
330
9F05
100
AcDbEntity
  8
1
  6
Continuous
100
AcDbLine
 10
72.220223
 20
192.871609
 30
0.0
 11
73.22023100000001
 21
192.871609
 31
0.0
  0
ARC
  5
9F4D
330
9F05
100
AcDbEntity
  8
1
  6
Continuous
100
AcDbCircle
 10
57.22022299999999
 20
379.571619
 30
0.0
 40
126.2
100
AcDbArc
 50
263.34848
 51
276.6515
  0
ARC
  5
9F4E
330
9F05
100
AcDbEntity
  8
1
  6
Continuous
100
AcDbCircle
 10
180.2202229999998
 20
196.871609
 30
0.0
 40
11.0
100
AcDbArc
 50
173.91287
 51
330.2075199999998
  0
ARC
  5
9F4F
330
9F05
100
AcDbEntity
  8
1
  6
Continuous
100
AcDbCircle
 10
233.1957099999999
 20
237.071608
 30
0.0
 40
15.0
100
AcDbArc
 50
89.99998199999996
 51
150.2075699999998
  0
ARC
  5
9F50
330
9F05
100
AcDbEntity
  8
1
  6
Continuous
100
AcDbCircle
 10
172.426352
 20
251.096602
 30
0.0
 40
2.5
100
AcDbArc
 50
353.9128499999998
 51
100.0000199999999
  0
ARC
  5
9F51
330
9F05
100
AcDbEntity
  8
1
  6
Continuous
100
AcDbCircle
 10
57.22022299999999
 20
384.573819
 30
0.0
 40
128.4999999999998
100
AcDbArc
 50
262.8473099999999
 51
277.1526699999999
  0
ARC
  5
9F52
330
9F05
100
AcDbEntity
  8
1
  6
Continuous
100
AcDbCircle
 10
173.8754769999999
 20
250.539781
 30
0.0
 40
1.0
100
AcDbArc
 50
353.9128499999998
 51
100.00003
  0
ARC
  5
9F53
330
9F05
100
AcDbEntity
  8
1
  6
Continuous
100
AcDbCircle
 10
57.22022299999999
 20
379.601999
 30
0.0
 40
128.4999999999998
100
AcDbArc
 50
263.34847
 51
276.6515
  0
ARC
  5
9F54
330
9F05
100
AcDbEntity
  8
1
  6
Continuous
100
AcDbCircle
 10
72.220223
 20
250.97366
 30
0.0
 40
1.0
100
AcDbArc
 50
0.0
 51
96.65148000000002
  0
ARC
  5
9F55
330
9F05
100
AcDbEntity
  8
1
  6
Continuous
100
AcDbCircle
 10
42.22022299999999
 20
250.97366
 30
0.0
 40
1.0
100
AcDbArc
 50
83.348539
 51
179.9999599999999
  0
CIRCLE
  5
9F56
330
9F05
100
AcDbEntity
  8
1
  6
Continuous
100
AcDbCircle
 10
180.2202229999998
 20
196.871609
 30
0.0
 40
1.5
  0
CIRCLE
  5
9F57
330
9F05
100
AcDbEntity
  8
1
  6
Continuous
100
AcDbCircle
 10
180.2202229999998
 20
196.871609
 30
0.0
 40
6.25
  0
ARC
  5
9F58
330
9F05
100
AcDbEntity
  8
1
  6
Continuous
100
AcDbCircle
 10
46.920233
 20
196.871609
 30
0.0
 40
12.0
100
AcDbArc
 50
164.2861599999999
 51
195.71383
  0
ARC
  5
9F59
330
9F05
100
AcDbEntity
  8
1
  6
Continuous
100
AcDbCircle
 10
26.92023300000001
 20
196.871609
 30
0.0
 40
12.0
100
AcDbArc
 50
344.2861399999999
 51
15.71386099999998
  0
ARC
  5
9F5A
330
9F05
100
AcDbEntity
  8
1
  6
Continuous
100
AcDbCircle
 10
38.17023300000001
 20
201.813237
 30
0.0
 40
3.25
100
AcDbArc
 50
151.34725
 51
211.3657499999999
  0
ARC
  5
9F5B
330
9F05
100
AcDbEntity
  8
1
  6
Continuous
100
AcDbCircle
 10
35.67023300000001
 20
201.813237
 30
0.0
 40
3.25
100
AcDbArc
 50
328.6342
 51
28.65276699999999
  0
ARC
  5
9F5C
330
9F05
100
AcDbEntity
  8
1
  6
Continuous
100
AcDbCircle
 10
35.67023300000001
 20
191.929981
 30
0.0
 40
3.25
100
AcDbArc
 50
331.3472299999999
 51
31.365793
  0
ARC
  5
9F5D
330
9F05
100
AcDbEntity
  8
1
  6
Continuous
100
AcDbCircle
 10
38.17023300000001
 20
191.929981
 30
0.0
 40
3.25
100
AcDbArc
 50
148.63423
 51
208.6527299999999
  0
ARC
  5
9F5E
330
9F05
100
AcDbEntity
  8
1
  6
Continuous
100
AcDbCircle
 10
76.72021499999998
 20
201.121609
 30
0.0
 40
2.0
100
AcDbArc
 50
0.0
 51
89.99998199999996
  0
ARC
  5
9F5F
330
9F05
100
AcDbEntity
  8
1
  6
Continuous
100
AcDbCircle
 10
76.72021499999998
 20
192.621609
 30
0.0
 40
2.0
100
AcDbArc
 50
270.00002
 51
0.0
  0
ARC
  5
9F60
330
9F05
100
AcDbEntity
  8
1
  6
Continuous
100
AcDbCircle
 10
92.220223
 20
229.5590939999999
 30
0.0
 40
60.0
100
AcDbArc
 50
179.9999799999999
 51
205.8780899999999
  0
ARC
  5
9F61
330
9F05
100
AcDbEntity
  8
1
  6
Continuous
100
AcDbCircle
 10
22.219913
 20
229.5590939999999
 30
0.0
 40
60.0
100
AcDbArc
 50
333.85625
 51
0.0
  0
ARC
  5
9F62
330
9F05
100
AcDbEntity
  8
1
  6
Continuous
100
AcDbCircle
 10
72.22021499999998
 20
250.9432789999999
 30
0.0
 40
3.299999999999998
100
AcDbArc
 50
0.0
 51
96.65153400000001
  0
ARC
  5
9F63
330
9F05
100
AcDbEntity
  8
1
  6
Continuous
100
AcDbCircle
 10
42.220243
 20
250.9432789999999
 30
0.0
 40
3.299999999999998
100
AcDbArc
 50
83.348484
 51
179.9999599999999
  0
ARC
  5
9F64
330
9F05
100
AcDbEntity
  8
1
  6
Continuous
100
AcDbCircle
 10
230.020218
 20
262.4496119999998
 30
0.0
 40
2.778
100
AcDbArc
 50
327.85663
 51
350.09193
  0
ARC
  5
9F65
330
9F05
100
AcDbEntity
  8
1
  6
Continuous
100
AcDbCircle
 10
212.220208
 20
262.4496119999998
 30
0.0
 40
2.778
100
AcDbArc
 50
327.8565799999999
 51
350.09193
  0
ARC
  5
9F66
330
9F05
100
AcDbEntity
  8
1
  6
Continuous
100
AcDbCircle
 10
217.708123
 20
262.4496119999998
 30
0.0
 40
2.778
100
AcDbArc
 50
189.90804
 51
212.1434
  0
ARC
  5
9F67
330
9F05
100
AcDbEntity
  8
1
  6
Continuous
100
AcDbCircle
 10
226.5973359999999
 20
262.4496119999998
 30
0.0
 40
2.778
100
AcDbArc
 50
327.85663
 51
350.09193
  0
ARC
  5
9F68
330
9F05
100
AcDbEntity
  8
1
  6
Continuous
100
AcDbCircle
 10
229.1325769999999
 20
262.4496119999998
 30
0.0
 40
2.778
100
AcDbArc
 50
327.85663
 51
350.09193
  0
ARC
  5
9F69
330
9F05
100
AcDbEntity
  8
1
  6
Continuous
100
AcDbCircle
 10
194.420197
 20
262.4496119999998
 30
0.0
 40
2.778
100
AcDbArc
 50
189.9080999999999
 51
212.1433699999999
  0
ARC
  5
9F6A
330
9F05
100
AcDbEntity
  8
1
  6
Continuous
100
AcDbCircle
 10
212.220208
 20
262.4496119999998
 30
0.0
 40
2.778
100
AcDbArc
 50
189.9080999999999
 51
212.1434
  0
ARC
  5
9F6B
330
9F05
100
AcDbEntity
  8
1
  6
Continuous
100
AcDbCircle
 10
206.732293
 20
262.4496119999998
 30
0.0
 40
2.778
100
AcDbArc
 50
189.9080999999999
 51
212.1434
  0
ARC
  5
9F6C
330
9F05
100
AcDbEntity
  8
1
  6
Continuous
100
AcDbCircle
 10
201.779053
 20
262.4496119999998
 30
0.0
 40
2.778
100
AcDbArc
 50
189.9080999999999
 51
212.1434
  0
ARC
  5
9F6D
330
9F05
100
AcDbEntity
  8
1
  6
Continuous
100
AcDbCircle
 10
197.8430789999999
 20
262.4496119999998
 30
0.0
 40
2.778
100
AcDbArc
 50
189.9080999999999
 51
212.1434
  0
ARC
  5
9F6E
330
9F05
100
AcDbEntity
  8
1
  6
Continuous
100
AcDbCircle
 10
195.307839
 20
262.4496119999998
 30
0.0
 40
2.778
100
AcDbArc
 50
189.9080999999999
 51
212.1433699999999
  0
ARC
  5
9F6F
330
9F05
100
AcDbEntity
  8
1
  6
Continuous
100
AcDbCircle
 10
206.732293
 20
262.4496119999998
 30
0.0
 40
2.778
100
AcDbArc
 50
327.8565799999999
 51
350.0919899999999
  0
ARC
  5
9F70
330
9F05
100
AcDbEntity
  8
1
  6
Continuous
100
AcDbCircle
 10
217.708123
 20
262.4496119999998
 30
0.0
 40
2.778
100
AcDbArc
 50
327.8565799999999
 51
350.09193
  0
ARC
  5
9F71
330
9F05
100
AcDbEntity
  8
1
  6
Continuous
100
AcDbCircle
 10
222.661362
 20
262.4496119999998
 30
0.0
 40
2.778
100
AcDbArc
 50
327.8565799999999
 51
350.09193
  0
ARC
  5
9F72
330
9F05
100
AcDbEntity
  8
1
  6
Continuous
100
AcDbCircle
 10
46.779063
 20
262.4496119999998
 30
0.0
 40
2.778
100
AcDbArc
 50
327.8564799999998
 51
333.0638399999999
  0
ARC
  5
9F73
330
9F05
100
AcDbEntity
  8
1
  6
Continuous
100
AcDbCircle
 10
67.661355
 20
262.4496119999998
 30
0.0
 40
2.778
100
AcDbArc
 50
327.8564799999998
 51
350.09193
  0
ARC
  5
9F74
330
9F05
100
AcDbEntity
  8
1
  6
Continuous
100
AcDbCircle
 10
77.220223
 20
255.9716009999999
 30
0.0
 40
5.0
100
AcDbArc
 50
0.0
 51
89.99998199999996
  0
ARC
  5
9F75
330
9F05
100
AcDbEntity
  8
1
  6
Continuous
100
AcDbCircle
 10
37.22022299999999
 20
255.9716009999999
 30
0.0
 40
5.0
100
AcDbArc
 50
89.99998199999996
 51
179.9999599999999
  0
ARC
  5
9F76
330
9F05
100
AcDbEntity
  8
1
  6
Continuous
100
AcDbCircle
 10
62.708123
 20
262.4496119999998
 30
0.0
 40
2.778
100
AcDbArc
 50
327.8564799999998
 51
350.09193
  0
ARC
  5
9F77
330
9F05
100
AcDbEntity
  8
1
  6
Continuous
100
AcDbCircle
 10
75.020218
 20
262.4496119999998
 30
0.0
 40
2.778
100
AcDbArc
 50
327.80113
 51
350.09193
  0
ARC
  5
9F78
330
9F05
100
AcDbEntity
  8
1
  6
Continuous
100
AcDbCircle
 10
57.220203
 20
262.4496119999998
 30
0.0
 40
2.778
100
AcDbArc
 50
327.8564799999998
 51
350.09193
  0
ARC
  5
9F79
330
9F05
100
AcDbEntity
  8
1
  6
Continuous
100
AcDbCircle
 10
62.708123
 20
262.4496119999998
 30
0.0
 40
2.778
100
AcDbArc
 50
189.90804
 51
212.14351
  0
ARC
  5
9F7A
330
9F05
100
AcDbEntity
  8
1
  6
Continuous
100
AcDbCircle
 10
67.661355
 20
262.4496119999998
 30
0.0
 40
2.778
100
AcDbArc
 50
206.9362
 51
212.14351
  0
ARC
  5
9F7B
330
9F05
100
AcDbEntity
  8
1
  6
Continuous
100
AcDbCircle
 10
71.597329
 20
262.4496119999998
 30
0.0
 40
2.778
100
AcDbArc
 50
327.8564799999998
 51
350.09193
  0
ARC
  5
9F7C
330
9F05
100
AcDbEntity
  8
1
  6
Continuous
100
AcDbCircle
 10
74.13257699999999
 20
262.4496119999998
 30
0.0
 40
2.778
100
AcDbArc
 50
327.8564799999998
 51
350.09193
  0
ARC
  5
9F7D
330
9F05
100
AcDbEntity
  8
1
  6
Continuous
100
AcDbCircle
 10
39.420203
 20
262.4496119999998
 30
0.0
 40
2.778
100
AcDbArc
 50
189.9080999999999
 51
212.14351
  0
ARC
  5
9F7E
330
9F05
100
AcDbEntity
  8
1
  6
Continuous
100
AcDbCircle
 10
57.220203
 20
262.4496119999998
 30
0.0
 40
2.778
100
AcDbArc
 50
189.9080999999999
 51
212.14351
  0
ARC
  5
9F7F
330
9F05
100
AcDbEntity
  8
1
  6
Continuous
100
AcDbCircle
 10
51.732293
 20
262.4496119999998
 30
0.0
 40
2.778
100
AcDbArc
 50
189.9080999999999
 51
212.14351
  0
ARC
  5
9F80
330
9F05
100
AcDbEntity
  8
1
  6
Continuous
100
AcDbCircle
 10
46.779063
 20
262.4496119999998
 30
0.0
 40
2.778
100
AcDbArc
 50
189.9080999999999
 51
212.14351
  0
ARC
  5
9F81
330
9F05
100
AcDbEntity
  8
1
  6
Continuous
100
AcDbCircle
 10
42.843083
 20
262.4496119999998
 30
0.0
 40
2.778
100
AcDbArc
 50
189.9080999999999
 51
212.14351
  0
ARC
  5
9F82
330
9F05
100
AcDbEntity
  8
1
  6
Continuous
100
AcDbCircle
 10
40.30784299999999
 20
262.4496119999998
 30
0.0
 40
2.778
100
AcDbArc
 50
189.9080999999999
 51
212.14351
  0
ARC
  5
9F83
330
9F05
100
AcDbEntity
  8
1
  6
Continuous
100
AcDbCircle
 10
51.732293
 20
262.4496119999998
 30
0.0
 40
2.778
100
AcDbArc
 50
327.8564799999998
 51
350.0919899999999
  0
LINE
  5
9F84
330
9F05
100
AcDbEntity
  8
1
  6
Continuous
100
AcDbLine
 10
237.220223
 20
255.971605
 30
0.0
 11
237.220223
 21
252.071608
 31
0.0
  0
ARC
  5
9F85
330
9F05
100
AcDbEntity
  8
1
  6
Continuous
100
AcDbCircle
 10
232.220223
 20
255.971605
 30
0.0
 40
5.0
100
AcDbArc
 50
0.0
 51
90.0
  0
LINE
  5
9F86
330
9F05
100
AcDbEntity
  8
4
  6
CENTER
 48
0.8
100
AcDbLine
 10
180.2202229999998
 20
416.9732119999998
 30
0.0
 11
180.2202229999998
 21
360.1732299999997
 31
0.0
  0
LINE
  5
9F87
330
9F05
100
AcDbEntity
  8
4
  6
CENTER
 48
0.8
100
AcDbLine
 10
180.2202229999998
 20
43.571619
 30
0.0
 11
180.2202229999998
 21
100.3716009999999
 31
0.0
  0
LINE
  5
9F88
330
9F05
100
AcDbEntity
  8
4
  6
CENTER
 48
0.8
100
AcDbLine
 10
212.220223
 20
43.87160899999996
 30
0.0
 11
212.220223
 21
103.8716089999999
 31
0.0
  0
LINE
  5
9F89
330
9F05
100
AcDbEntity
  8
4
  6
CENTER
 48
0.8
100
AcDbLine
 10
125.2202229999999
 20
73.87160899999997
 30
0.0
 11
242.2202229999999
 21
73.87160899999997
 31
0.0
  0
LINE
  5
9F8A
330
9F05
100
AcDbEntity
  8
1
  6
Continuous
100
AcDbLine
 10
169.220223
 20
89.87160899999997
 30
0.0
 11
193.6808049999999
 21
89.87160899999997
 31
0.0
  0
LINE
  5
9F8B
330
9F05
100
AcDbEntity
  8
1
  6
Continuous
100
AcDbLine
 10
169.220223
 20
92.171604
 30
0.0
 11
193.680799
 21
92.171604
 31
0.0
  0
LINE
  5
9F8C
330
9F05
100
AcDbEntity
  8
1
  6
Continuous
100
AcDbLine
 10
169.220223
 20
57.87160899999999
 30
0.0
 11
193.6808049999999
 21
57.87160899999999
 31
0.0
  0
LINE
  5
9F8D
330
9F05
100
AcDbEntity
  8
1
  6
Continuous
100
AcDbLine
 10
169.220223
 20
55.57161899999999
 30
0.0
 11
193.680793
 21
55.57161899999999
 31
0.0
  0
LINE
  5
9F8E
330
9F05
100
AcDbEntity
  8
1
  6
Continuous
100
AcDbLine
 10
186.4702229999998
 20
92.171604
 30
0.0
 11
186.4702229999998
 21
93.371601
 31
0.0
  0
LINE
  5
9F8F
330
9F05
100
AcDbEntity
  8
1
  6
Continuous
100
AcDbLine
 10
173.9702229999998
 20
92.171604
 30
0.0
 11
173.9702229999998
 21
93.371601
 31
0.0
  0
LINE
  5
9F90
330
9F05
100
AcDbEntity
  8
1
  6
Continuous
100
AcDbLine
 10
176.2202229999997
 20
57.87160899999999
 30
0.0
 11
176.2202229999997
 21
58.871609
 31
0.0
  0
LINE
  5
9F91
330
9F05
100
AcDbEntity
  8
1
  6
Continuous
100
AcDbLine
 10
176.2202229999997
 20
88.87160899999996
 30
0.0
 11
176.2202229999997
 21
89.87161699999999
 31
0.0
  0
LINE
  5
9F92
330
9F05
100
AcDbEntity
  8
1
  6
Continuous
100
AcDbLine
 10
184.220223
 20
57.87160899999999
 30
0.0
 11
184.220223
 21
58.871609
 31
0.0
  0
LINE
  5
9F93
330
9F05
100
AcDbEntity
  8
1
  6
Continuous
100
AcDbLine
 10
184.220223
 20
88.87160899999996
 30
0.0
 11
184.220223
 21
89.87161699999999
 31
0.0
  0
LINE
  5
9F94
330
9F05
100
AcDbEntity
  8
1
  6
Continuous
100
AcDbLine
 10
175.970223
 20
95.37160099999999
 30
0.0
 11
184.470223
 21
95.37160099999999
 31
0.0
  0
ARC
  5
9F95
330
9F05
100
AcDbEntity
  8
1
  6
Continuous
100
AcDbCircle
 10
175.970223
 20
93.371601
 30
0.0
 40
2.0
100
AcDbArc
 50
90.0
 51
179.999982
  0
ARC
  5
9F96
330
9F05
100
AcDbEntity
  8
1
  6
Continuous
100
AcDbCircle
 10
184.470223
 20
93.371601
 30
0.0
 40
2.0
100
AcDbArc
 50
0.00002
 51
90.0
  0
LINE
  5
9F97
330
9F05
100
AcDbEntity
  8
1
  6
Continuous
100
AcDbLine
 10
169.220223
 20
92.171604
 30
0.0
 11
169.220223
 21
89.87160899999997
 31
0.0
  0
LINE
  5
9F98
330
9F05
100
AcDbEntity
  8
1
  6
Continuous
100
AcDbLine
 10
169.220223
 20
57.87160899999999
 30
0.0
 11
169.220223
 21
55.57161899999999
 31
0.0
  0
ARC
  5
9F99
330
9F05
100
AcDbEntity
  8
1
  6
Continuous
100
AcDbCircle
 10
214.8902839999998
 20
73.86203899999998
 30
0.0
 40
43.958572
100
AcDbArc
 50
158.641841
 51
160.0348759999999
  0
ARC
  5
9F9A
330
9F05
100
AcDbEntity
  8
1
  6
Continuous
100
AcDbCircle
 10
214.8902839999998
 20
73.86203899999998
 30
0.0
 40
43.958572
100
AcDbArc
 50
199.938584
 51
201.331375
  0
ARC
  5
9F9B
330
9F05
100
AcDbEntity
  8
1
  6
Continuous
100
AcDbCircle
 10
212.220223
 20
73.87160899999997
 30
0.0
 40
25.0
100
AcDbArc
 50
230.2610529999999
 51
129.738932
  0
ARC
  5
9F9C
330
9F05
100
AcDbEntity
  8
1
  6
Continuous
100
AcDbCircle
 10
212.220223
 20
73.87160899999997
 30
0.0
 40
22.7
100
AcDbArc
 50
230.2610839999999
 51
129.7389159999999
  0
ARC
  5
9F9D
330
9F05
100
AcDbEntity
  8
1
  6
Continuous
100
AcDbCircle
 10
212.220223
 20
73.87160899999997
 30
0.0
 40
17.0
100
AcDbArc
 50
227.332075
 51
312.667925
  0
ARC
  5
9F9E
330
9F05
100
AcDbEntity
  8
1
  6
Continuous
100
AcDbCircle
 10
212.220223
 20
73.87160899999997
 30
0.0
 40
20.69999999999998
100
AcDbArc
 50
217.147193
 51
323.606027
  0
ARC
  5
9F9F
330
9F05
100
AcDbEntity
  8
1
  6
Continuous
100
AcDbCircle
 10
212.220223
 20
73.87160899999997
 30
0.0
 40
17.0
100
AcDbArc
 50
47.33207500000001
 51
132.6679249999999
  0
ARC
  5
9FA0
330
9F05
100
AcDbEntity
  8
1
  6
Continuous
100
AcDbCircle
 10
212.220223
 20
73.87160899999997
 30
0.0
 40
20.69999999999998
100
AcDbArc
 50
36.39397299999999
 51
142.852807
  0
ARC
  5
9FA1
330
9F05
100
AcDbEntity
  8
1
  6
Continuous
100
AcDbCircle
 10
212.220223
 20
73.87160899999997
 30
0.0
 40
20.69999999999998
100
AcDbArc
 50
326.9866819999998
 51
33.01331799999999
  0
CIRCLE
  5
9FA2
330
9F05
100
AcDbEntity
  8
2
  6
Continuous
100
AcDbCircle
 10
438.2202229999998
 20
196.871609
 30
0.0
 40
3.3235
  0
CIRCLE
  5
9FA3
330
9F05
100
AcDbEntity
  8
1
  6
Continuous
100
AcDbCircle
 10
438.2202229999998
 20
196.871609
 30
0.0
 40
4.0
  0
ARC
  5
9FA4
330
9F05
100
AcDbEntity
  8
1
  6
Continuous
100
AcDbCircle
 10
177.2202229999997
 20
48.730018
 30
0.0
 40
6.841600999999998
100
AcDbArc
 50
63.992176
 51
116.007824
  0
ARC
  5
9FA5
330
9F05
100
AcDbEntity
  8
1
  6
Continuous
100
AcDbCircle
 10
177.2202229999997
 20
57.41321899999999
 30
0.0
 40
6.841600999999998
100
AcDbArc
 50
243.992176
 51
296.0078240000001
  0
LINE
  5
9FA6
330
9F05
100
AcDbEntity
  8
1
  6
Continuous
100
AcDbLine
 10
177.470223
 20
50.571619
 30
0.0
 11
182.970223
 21
50.571619
 31
0.0
  0
LINE
  5
9FA7
330
9F05
100
AcDbEntity
  8
1
  6
Continuous
100
AcDbLine
 10
174.220223
 20
54.87879799999999
 30
0.0
 11
174.220223
 21
51.264439
 31
0.0
  0
LINE
  5
9FA8
330
9F05
100
AcDbEntity
  8
1
  6
Continuous
100
AcDbLine
 10
180.2202229999998
 20
55.57161899999999
 30
0.0
 11
180.2202229999998
 21
51.264439
 31
0.0
  0
LINE
  5
9FA9
330
9F05
100
AcDbEntity
  8
1
  6
Continuous
100
AcDbLine
 10
186.220223
 20
54.87879799999999
 30
0.0
 11
186.220223
 21
51.264439
 31
0.0
  0
ARC
  5
9FAA
330
9F05
100
AcDbEntity
  8
1
  6
Continuous
100
AcDbCircle
 10
183.220223
 20
48.730018
 30
0.0
 40
6.841600999999998
100
AcDbArc
 50
63.992176
 51
116.007824
  0
ARC
  5
9FAB
330
9F05
100
AcDbEntity
  8
1
  6
Continuous
100
AcDbCircle
 10
183.220223
 20
57.41321899999999
 30
0.0
 40
6.841600999999998
100
AcDbArc
 50
243.992176
 51
296.0078240000001
  0
LINE
  5
9FAC
330
9F05
100
AcDbEntity
  8
4
  6
CENTER
 48
0.8
100
AcDbLine
 10
310.3197999999999
 20
317.871629
 30
0.0
 11
310.3197999999999
 21
141.8716249999999
 31
0.0
  0
LINE
  5
9FAD
330
9F05
100
AcDbEntity
  8
1
  6
Continuous
100
AcDbLine
 10
285.3197999999998
 20
255.9716169999999
 30
0.0
 11
285.3197999999998
 21
231.823477
 31
0.0
  0
LINE
  5
9FAE
330
9F05
100
AcDbEntity
  8
1
  6
Continuous
100
AcDbLine
 10
292.0198049999999
 20
201.845008
 30
0.0
 11
292.0198049999999
 21
185.871625
 31
0.0
  0
LINE
  5
9FAF
330
9F05
100
AcDbEntity
  8
1
  6
Continuous
100
AcDbLine
 10
294.3197999999998
 20
250.973676
 30
0.0
 11
294.3197999999998
 21
185.871625
 31
0.0
  0
LINE
  5
9FB0
330
9F05
100
AcDbEntity
  8
1
  6
Continuous
100
AcDbLine
 10
328.6197899999999
 20
201.844997
 30
0.0
 11
328.6197899999999
 21
185.871625
 31
0.0
  0
LINE
  5
9FB1
330
9F05
100
AcDbEntity
  8
1
  6
Continuous
100
AcDbLine
 10
326.3198
 20
250.973676
 30
0.0
 11
326.3198
 21
185.871625
 31
0.0
  0
LINE
  5
9FB2
330
9F05
100
AcDbEntity
  8
4
  6
CENTER
 48
0.8
100
AcDbLine
 10
340.6197899999999
 20
196.8716249999999
 30
0.0
 11
283.819808
 21
196.8716249999999
 31
0.0
  0
LINE
  5
9FB3
330
9F05
100
AcDbEntity
  8
1
  6
Continuous
100
AcDbLine
 10
333.6197899999999
 20
201.9736379999999
 30
0.0
 11
333.6197899999999
 21
191.769612
 31
0.0
  0
ARC
  5
9FB4
330
9F05
100
AcDbEntity
  8
1
  6
Continuous
100
AcDbCircle
 10
331.8697899999999
 20
191.9299969999999
 30
0.0
 40
3.25
100
AcDbArc
 50
148.634207
 51
208.6527699999999
  0
ARC
  5
9FB5
330
9F05
100
AcDbEntity
  8
1
  6
Continuous
100
AcDbCircle
 10
329.3697899999999
 20
191.9299969999999
 30
0.0
 40
3.25
100
AcDbArc
 50
331.3472699999998
 51
31.36577
  0
LINE
  5
9FB6
330
9F05
100
AcDbEntity
  8
1
  6
Continuous
100
AcDbLine
 10
326.3198
 20
192.8716249999999
 30
0.0
 11
325.3197999999998
 21
192.8716249999999
 31
0.0
  0
LINE
  5
9FB7
330
9F05
100
AcDbEntity
  8
1
  6
Continuous
100
AcDbLine
 10
332.22179
 20
190.371625
 30
0.0
 11
329.0177799999999
 21
190.371625
 31
0.0
  0
LINE
  5
9FB8
330
9F05
100
AcDbEntity
  8
1
  6
Continuous
100
AcDbLine
 10
328.6197899999999
 20
185.871625
 30
0.0
 11
326.3198
 21
185.871625
 31
0.0
  0
LINE
  5
9FB9
330
9F05
100
AcDbEntity
  8
1
  6
Continuous
100
AcDbLine
 10
332.22179
 20
190.371629
 30
0.0
 11
333.6197899999999
 21
191.769616
 31
0.0
  0
ARC
  5
9FBA
330
9F05
100
AcDbEntity
  8
1
  6
Continuous
100
AcDbCircle
 10
340.6197899999999
 20
196.8716249999999
 30
0.0
 40
12.0
100
AcDbArc
 50
164.286139
 51
195.71386
  0
LINE
  5
9FBB
330
9F05
100
AcDbEntity
  8
1
  6
Continuous
100
AcDbLine
 10
332.22179
 20
203.3716249999999
 30
0.0
 11
329.2212119999998
 21
203.3716249999999
 31
0.0
  0
LINE
  5
9FBC
330
9F05
100
AcDbEntity
  8
1
  6
Continuous
100
AcDbLine
 10
332.1712999999998
 20
200.121625
 30
0.0
 11
329.06827
 21
200.121625
 31
0.0
  0
LINE
  5
9FBD
330
9F05
100
AcDbEntity
  8
1
  6
Continuous
100
AcDbLine
 10
332.1448399999998
 20
193.621625
 30
0.0
 11
329.0947299999999
 21
193.621625
 31
0.0
  0
LINE
  5
9FBE
330
9F05
100
AcDbEntity
  8
1
  6
Continuous
100
AcDbLine
 10
326.3198
 20
200.8716249999999
 30
0.0
 11
325.3197999999998
 21
200.8716249999999
 31
0.0
  0
ARC
  5
9FBF
330
9F05
100
AcDbEntity
  8
1
  6
Continuous
100
AcDbCircle
 10
329.3697899999999
 20
201.8132529999999
 30
0.0
 40
3.25
100
AcDbArc
 50
328.6342499999999
 51
28.65275
  0
ARC
  5
9FC0
330
9F05
100
AcDbEntity
  8
1
  6
Continuous
100
AcDbCircle
 10
320.6197899999999
 20
196.8716249999999
 30
0.0
 40
12.0
100
AcDbArc
 50
344.28617
 51
15.71384
  0
LINE
  5
9FC1
330
9F05
100
AcDbEntity
  8
1
  6
Continuous
100
AcDbLine
 10
333.61977
 20
201.9736409999999
 30
0.0
 11
332.22179
 21
203.371629
 31
0.0
  0
LINE
  5
9FC2
330
9F05
100
AcDbEntity
  8
1
  6
Continuous
100
AcDbLine
 10
288.819808
 20
201.1216249999999
 30
0.0
 11
288.819808
 21
192.6216249999999
 31
0.0
  0
LINE
  5
9FC3
330
9F05
100
AcDbEntity
  8
1
  6
Continuous
100
AcDbLine
 10
295.3198
 20
192.8716249999999
 30
0.0
 11
294.319792
 21
192.8716249999999
 31
0.0
  0
LINE
  5
9FC4
330
9F05
100
AcDbEntity
  8
1
  6
Continuous
100
AcDbLine
 10
292.0198049999999
 20
190.6216249999999
 30
0.0
 11
290.819808
 21
190.6216249999999
 31
0.0
  0
LINE
  5
9FC5
330
9F05
100
AcDbEntity
  8
1
  6
Continuous
100
AcDbLine
 10
292.0198049999999
 20
185.871625
 30
0.0
 11
294.3197999999998
 21
185.871625
 31
0.0
  0
ARC
  5
9FC6
330
9F05
100
AcDbEntity
  8
1
  6
Continuous
100
AcDbCircle
 10
290.819808
 20
192.6216249999999
 30
0.0
 40
2.0
100
AcDbArc
 50
180.0
 51
269.99998
  0
ARC
  5
9FC7
330
9F05
100
AcDbEntity
  8
1
  6
Continuous
100
AcDbCircle
 10
290.819808
 20
201.1216249999999
 30
0.0
 40
2.0
100
AcDbArc
 50
90.0
 51
180.0
  0
LINE
  5
9FC8
330
9F05
100
AcDbEntity
  8
1
  6
Continuous
100
AcDbLine
 10
295.3198
 20
200.8716249999999
 30
0.0
 11
294.319792
 21
200.8716249999999
 31
0.0
  0
LINE
  5
9FC9
330
9F05
100
AcDbEntity
  8
1
  6
Continuous
100
AcDbLine
 10
330.3198
 20
260.971617
 30
0.0
 11
290.3197999999998
 21
260.971617
 31
0.0
  0
ARC
  5
9FCA
330
9F05
100
AcDbEntity
  8
1
  6
Continuous
100
AcDbCircle
 10
330.3198
 20
255.9716169999999
 30
0.0
 40
5.0
100
AcDbArc
 50
0.00004
 51
90.00001800000005
  0
ARC
  5
9FCB
330
9F05
100
AcDbEntity
  8
1
  6
Continuous
100
AcDbCircle
 10
327.2321799999998
 20
262.4496279999998
 30
0.0
 40
2.778
100
AcDbArc
 50
327.85649
 51
350.0919
  0
ARC
  5
9FCC
330
9F05
100
AcDbEntity
  8
1
  6
Continuous
100
AcDbCircle
 10
324.6969399999998
 20
262.4496279999998
 30
0.0
 40
2.778
100
AcDbArc
 50
327.85649
 51
350.0919
  0
ARC
  5
9FCD
330
9F05
100
AcDbEntity
  8
1
  6
Continuous
100
AcDbCircle
 10
320.76096
 20
262.4496279999998
 30
0.0
 40
2.778
100
AcDbArc
 50
327.85649
 51
350.0919
  0
ARC
  5
9FCE
330
9F05
100
AcDbEntity
  8
1
  6
Continuous
100
AcDbCircle
 10
328.1198199999999
 20
262.4496279999998
 30
0.0
 40
2.778
100
AcDbArc
 50
327.85649
 51
350.0919
  0
ARC
  5
9FCF
330
9F05
100
AcDbEntity
  8
1
  6
Continuous
100
AcDbCircle
 10
315.8077299999998
 20
262.4496279999998
 30
0.0
 40
2.778
100
AcDbArc
 50
327.85649
 51
350.0919
  0
ARC
  5
9FD0
330
9F05
100
AcDbEntity
  8
1
  6
Continuous
100
AcDbCircle
 10
320.76096
 20
262.4496279999998
 30
0.0
 40
2.778
100
AcDbArc
 50
206.93616
 51
212.14352
  0
ARC
  5
9FD1
330
9F05
100
AcDbEntity
  8
1
  6
Continuous
100
AcDbCircle
 10
304.8319
 20
262.4496279999998
 30
0.0
 40
2.778
100
AcDbArc
 50
327.85649
 51
350.0919599999999
  0
ARC
  5
9FD2
330
9F05
100
AcDbEntity
  8
1
  6
Continuous
100
AcDbCircle
 10
310.31982
 20
262.4496279999998
 30
0.0
 40
2.778
100
AcDbArc
 50
189.90807
 51
212.14352
  0
ARC
  5
9FD3
330
9F05
100
AcDbEntity
  8
1
  6
Continuous
100
AcDbCircle
 10
315.8077299999998
 20
262.4496279999998
 30
0.0
 40
2.778
100
AcDbArc
 50
189.9080099999999
 51
212.14352
  0
ARC
  5
9FD4
330
9F05
100
AcDbEntity
  8
1
  6
Continuous
100
AcDbCircle
 10
310.31982
 20
262.4496279999998
 30
0.0
 40
2.778
100
AcDbArc
 50
327.85649
 51
350.0919
  0
ARC
  5
9FD5
330
9F05
100
AcDbEntity
  8
1
  6
Continuous
100
AcDbCircle
 10
290.3197999999998
 20
255.9716169999999
 30
0.0
 40
5.0
100
AcDbArc
 50
90.00001800000005
 51
180.0
  0
ARC
  5
9FD6
330
9F05
100
AcDbEntity
  8
1
  6
Continuous
100
AcDbCircle
 10
293.407446
 20
262.4496279999998
 30
0.0
 40
2.778
100
AcDbArc
 50
189.90807
 51
212.14352
  0
ARC
  5
9FD7
330
9F05
100
AcDbEntity
  8
1
  6
Continuous
100
AcDbCircle
 10
295.942694
 20
262.4496279999998
 30
0.0
 40
2.778
100
AcDbArc
 50
189.90807
 51
212.14352
  0
ARC
  5
9FD8
330
9F05
100
AcDbEntity
  8
1
  6
Continuous
100
AcDbCircle
 10
299.878668
 20
262.4496279999998
 30
0.0
 40
2.778
100
AcDbArc
 50
327.85649
 51
333.0638
  0
ARC
  5
9FD9
330
9F05
100
AcDbEntity
  8
1
  6
Continuous
100
AcDbCircle
 10
292.5198049999999
 20
262.4496279999998
 30
0.0
 40
2.778
100
AcDbArc
 50
189.90807
 51
212.19887
  0
ARC
  5
9FDA
330
9F05
100
AcDbEntity
  8
1
  6
Continuous
100
AcDbCircle
 10
304.8319
 20
262.4496279999998
 30
0.0
 40
2.778
100
AcDbArc
 50
189.90807
 51
212.14352
  0
ARC
  5
9FDB
330
9F05
100
AcDbEntity
  8
1
  6
Continuous
100
AcDbCircle
 10
299.878668
 20
262.4496279999998
 30
0.0
 40
2.778
100
AcDbArc
 50
189.90807
 51
212.14352
  0
LINE
  5
9FDC
330
9F05
100
AcDbEntity
  8
1
  6
Continuous
100
AcDbLine
 10
335.3197999999999
 20
255.9716169999999
 30
0.0
 11
335.3197999999999
 21
231.823477
 31
0.0
  0
LINE
  5
9FDD
330
9F05
100
AcDbEntity
  8
4
  6
CENTER
 48
0.8
100
AcDbLine
 10
438.2202229999998
 20
256.3725949999999
 30
0.0
 11
438.2202229999998
 21
141.871609
 31
0.0
  0
LINE
  5
9FDE
330
9F05
100
AcDbEntity
  8
4
  6
CENTER
 48
0.8
100
AcDbLine
 10
493.2202229999998
 20
196.871609
 30
0.0
 11
383.220223
 21
196.871609
 31
0.0
  0
LINE
  5
9FDF
330
9F05
100
AcDbEntity
  8
1
  6
Continuous
100
AcDbLine
 10
428.6740879999999
 20
191.406155
 30
0.0
 11
398.262206
 21
244.524497
 31
0.0
  0
LINE
  5
9FE0
330
9F05
100
AcDbEntity
  8
1
  6
Continuous
100
AcDbLine
 10
443.52819
 20
250.8315
 30
0.0
 11
449.158203
 21
198.03806
 31
0.0
  0
LINE
  5
9FE1
330
9F05
100
AcDbEntity
  8
1
  6
Continuous
100
AcDbLine
 10
427.2202229999998
 20
251.771612
 30
0.0
 11
427.2202229999998
 21
199.371609
 31
0.0
  0
LINE
  5
9FE2
330
9F05
100
AcDbEntity
  8
4
  6
CENTER
 48
0.8
100
AcDbLine
 10
406.2202229999998
 20
317.8716129999999
 30
0.0
 11
406.2202229999998
 21
214.6049389999999
 31
0.0
  0
ARC
  5
9FE3
330
9F05
100
AcDbEntity
  8
1
  6
Continuous
100
AcDbCircle
 10
438.2202229999998
 20
196.871609
 30
0.0
 40
11.0
100
AcDbArc
 50
209.7924799999999
 51
6.08713
  0
LINE
  5
9FE4
330
9F05
100
AcDbEntity
  8
1
  6
Continuous
100
AcDbLine
 10
427.2202229999998
 20
260.9716049999998
 30
0.0
 11
386.2202229999999
 21
260.9716049999998
 31
0.0
  0
ARC
  5
9FE5
330
9F05
100
AcDbEntity
  8
1
  6
Continuous
100
AcDbCircle
 10
446.014094
 20
251.096602
 30
0.0
 40
2.5
100
AcDbArc
 50
79.99997999999997
 51
186.08715
  0
LINE
  5
9FE6
330
9F05
100
AcDbEntity
  8
1
  6
Continuous
100
AcDbLine
 10
447.508732
 20
253.371624
 30
0.0
 11
428.61652
 21
256.70283
 31
0.0
  0
ARC
  5
9FE7
330
9F05
100
AcDbEntity
  8
1
  6
Continuous
100
AcDbCircle
 10
444.564969
 20
250.539781
 30
0.0
 40
1.0
100
AcDbArc
 50
79.99996999999997
 51
186.08715
  0
LINE
  5
9FE8
330
9F05
100
AcDbEntity
  8
1
  6
Continuous
100
AcDbLine
 10
447.1093419999998
 20
251.1065659999999
 30
0.0
 11
444.7386169999998
 21
251.524589
 31
0.0
  0
LINE
  5
9FE9
330
9F05
100
AcDbEntity
  8
1
  6
Continuous
100
AcDbLine
 10
447.508732
 20
253.371624
 30
0.0
 11
447.1093419999998
 21
251.1065659999999
 31
0.0
  0
ARC
  5
9FEA
330
9F05
100
AcDbEntity
  8
1
  6
Continuous
100
AcDbCircle
 10
385.2447359999999
 20
237.071608
 30
0.0
 40
15.0
100
AcDbArc
 50
29.79243
 51
90.00001800000005
  0
ARC
  5
9FEB
330
9F05
100
AcDbEntity
  8
1
  6
Continuous
100
AcDbCircle
 10
423.1326069999998
 20
262.4496119999998
 30
0.0
 40
2.778
100
AcDbArc
 50
327.85663
 51
350.0919
  0
ARC
  5
9FEC
330
9F05
100
AcDbEntity
  8
1
  6
Continuous
100
AcDbCircle
 10
420.597367
 20
262.4496119999998
 30
0.0
 40
2.778
100
AcDbArc
 50
327.8566
 51
350.0919
  0
ARC
  5
9FED
330
9F05
100
AcDbEntity
  8
1
  6
Continuous
100
AcDbCircle
 10
416.6613929999998
 20
262.4496119999998
 30
0.0
 40
2.778
100
AcDbArc
 50
327.8566
 51
350.0919
  0
ARC
  5
9FEE
330
9F05
100
AcDbEntity
  8
1
  6
Continuous
100
AcDbCircle
 10
411.708153
 20
262.4496119999998
 30
0.0
 40
2.778
100
AcDbArc
 50
327.8566
 51
350.0919
  0
ARC
  5
9FEF
330
9F05
100
AcDbEntity
  8
1
  6
Continuous
100
AcDbCircle
 10
424.0202489999998
 20
262.4496119999998
 30
0.0
 40
2.778
100
AcDbArc
 50
327.85663
 51
350.0919
  0
ARC
  5
9FF0
330
9F05
100
AcDbEntity
  8
1
  6
Continuous
100
AcDbCircle
 10
400.7323229999998
 20
262.4496119999998
 30
0.0
 40
2.778
100
AcDbArc
 50
189.90807
 51
212.1434199999999
  0
ARC
  5
9FF1
330
9F05
100
AcDbEntity
  8
1
  6
Continuous
100
AcDbCircle
 10
411.708153
 20
262.4496119999998
 30
0.0
 40
2.778
100
AcDbArc
 50
189.9080099999999
 51
212.1434199999999
  0
ARC
  5
9FF2
330
9F05
100
AcDbEntity
  8
1
  6
Continuous
100
AcDbCircle
 10
406.220238
 20
262.4496119999998
 30
0.0
 40
2.778
100
AcDbArc
 50
327.8566
 51
350.0919
  0
ARC
  5
9FF3
330
9F05
100
AcDbEntity
  8
1
  6
Continuous
100
AcDbCircle
 10
400.7323229999998
 20
262.4496119999998
 30
0.0
 40
2.778
100
AcDbArc
 50
327.8566
 51
350.0919599999999
  0
ARC
  5
9FF4
330
9F05
100
AcDbEntity
  8
1
  6
Continuous
100
AcDbCircle
 10
406.220238
 20
262.4496119999998
 30
0.0
 40
2.778
100
AcDbArc
 50
189.90807
 51
212.1434199999999
  0
ARC
  5
9FF5
330
9F05
100
AcDbEntity
  8
1
  6
Continuous
100
AcDbCircle
 10
386.2202229999999
 20
255.971605
 30
0.0
 40
5.0
100
AcDbArc
 50
90.0
 51
180.0
  0
LINE
  5
9FF6
330
9F05
100
AcDbEntity
  8
1
  6
Continuous
100
AcDbLine
 10
381.220223
 20
255.971605
 30
0.0
 11
381.220223
 21
252.071608
 31
0.0
  0
LINE
  5
9FF7
330
9F05
100
AcDbEntity
  8
1
  6
Continuous
100
AcDbLine
 10
385.2447359999999
 20
252.071608
 30
0.0
 11
381.220223
 21
252.071608
 31
0.0
  0
ARC
  5
9FF8
330
9F05
100
AcDbEntity
  8
1
  6
Continuous
100
AcDbCircle
 10
395.779084
 20
262.4496119999998
 30
0.0
 40
2.778
100
AcDbArc
 50
189.90807
 51
212.1434199999999
  0
ARC
  5
9FF9
330
9F05
100
AcDbEntity
  8
1
  6
Continuous
100
AcDbCircle
 10
389.3078689999999
 20
262.4496119999998
 30
0.0
 40
2.778
100
AcDbArc
 50
189.90807
 51
212.1433699999999
  0
ARC
  5
9FFA
330
9F05
100
AcDbEntity
  8
1
  6
Continuous
100
AcDbCircle
 10
391.84311
 20
262.4496119999998
 30
0.0
 40
2.778
100
AcDbArc
 50
189.90807
 51
212.1433699999999
  0
ARC
  5
9FFB
330
9F05
100
AcDbEntity
  8
1
  6
Continuous
100
AcDbCircle
 10
388.4202279999998
 20
262.4496119999998
 30
0.0
 40
2.778
100
AcDbArc
 50
189.90807
 51
212.1433699999999
  0
LINE
  5
9FFC
330
9F05
100
AcDbEntity
  8
1
  6
Continuous
100
AcDbLine
 10
438.2202229999998
 20
203.3716029999999
 30
0.0
 11
432.591062
 21
200.1216059999999
 31
0.0
  0
LINE
  5
9FFD
330
9F05
100
AcDbEntity
  8
1
  6
Continuous
100
AcDbLine
 10
432.591062
 20
200.1216059999999
 30
0.0
 11
432.591062
 21
193.621611
 31
0.0
  0
LINE
  5
9FFE
330
9F05
100
AcDbEntity
  8
1
  6
Continuous
100
AcDbLine
 10
432.591062
 20
193.621611
 30
0.0
 11
438.2202229999998
 21
190.371614
 31
0.0
  0
LINE
  5
9FFF
330
9F05
100
AcDbEntity
  8
1
  6
Continuous
100
AcDbLine
 10
438.2202229999998
 20
190.371614
 30
0.0
 11
443.8493829999998
 21
193.621611
 31
0.0
  0
LINE
  5
A000
330
9F05
100
AcDbEntity
  8
1
  6
Continuous
100
AcDbLine
 10
443.8493829999998
 20
193.621611
 30
0.0
 11
443.8493829999998
 21
200.1216059999999
 31
0.0
  0
LINE
  5
A001
330
9F05
100
AcDbEntity
  8
1
  6
Continuous
100
AcDbLine
 10
443.8493829999998
 20
200.1216059999999
 30
0.0
 11
438.2202229999998
 21
203.3716029999999
 31
0.0
  0
LINE
  5
A002
330
9F05
100
AcDbEntity
  8
1
  6
Continuous
100
AcDbLine
 10
33.12023299999999
 20
192.871609
 30
0.0
 11
33.920233
 21
192.871609
 31
0.0
  0
LINE
  5
A003
330
9F05
100
AcDbEntity
  8
2
  6
Continuous
100
AcDbLine
 10
32.443733
 20
193.548109
 30
0.0
 11
33.920233
 21
193.548109
 31
0.0
  0
LINE
  5
A004
330
9F05
100
AcDbEntity
  8
1
  6
Continuous
100
AcDbLine
 10
33.12023299999999
 20
200.871609
 30
0.0
 11
33.920233
 21
200.871609
 31
0.0
  0
LINE
  5
A005
330
9F05
100
AcDbEntity
  8
2
  6
Continuous
100
AcDbLine
 10
32.443733
 20
200.1951089999999
 30
0.0
 11
33.920233
 21
200.1951089999999
 31
0.0
  0
LINE
  5
A006
330
9F05
100
AcDbEntity
  8
1
  6
Continuous
100
AcDbLine
 10
31.92023300000001
 20
194.071609
 30
0.0
 11
33.12023299999999
 21
192.871609
 31
0.0
  0
LINE
  5
A007
330
9F05
100
AcDbEntity
  8
1
  6
Continuous
100
AcDbLine
 10
33.12023299999999
 20
192.871609
 30
0.0
 11
33.12023299999999
 21
200.871609
 31
0.0
  0
LINE
  5
A008
330
9F05
100
AcDbEntity
  8
1
  6
Continuous
100
AcDbLine
 10
31.92023300000001
 20
199.6716089999999
 30
0.0
 11
33.12023299999999
 21
200.871609
 31
0.0
  0
LINE
  5
A009
330
9F05
100
AcDbEntity
  8
1
  6
Continuous
100
AcDbLine
 10
31.92023300000001
 20
194.071609
 30
0.0
 11
31.92023300000001
 21
199.6716089999999
 31
0.0
  0
LINE
  5
A00A
330
9F05
100
AcDbEntity
  8
1
  6
Continuous
100
AcDbLine
 10
184.220223
 20
49.771619
 30
0.0
 11
184.220223
 21
50.571619
 31
0.0
  0
LINE
  5
A00B
330
9F05
100
AcDbEntity
  8
2
  6
Continuous
100
AcDbLine
 10
183.543723
 20
49.095119
 30
0.0
 11
183.543723
 21
50.571619
 31
0.0
  0
LINE
  5
A00C
330
9F05
100
AcDbEntity
  8
1
  6
Continuous
100
AcDbLine
 10
176.2202229999997
 20
49.771619
 30
0.0
 11
176.2202229999997
 21
50.571619
 31
0.0
  0
LINE
  5
A00D
330
9F05
100
AcDbEntity
  8
2
  6
Continuous
100
AcDbLine
 10
176.896723
 20
49.095119
 30
0.0
 11
176.896723
 21
50.571619
 31
0.0
  0
LINE
  5
A00E
330
9F05
100
AcDbEntity
  8
1
  6
Continuous
100
AcDbLine
 10
183.0202229999999
 20
48.571619
 30
0.0
 11
184.220223
 21
49.771619
 31
0.0
  0
LINE
  5
A00F
330
9F05
100
AcDbEntity
  8
1
  6
Continuous
100
AcDbLine
 10
184.220223
 20
49.771619
 30
0.0
 11
176.2202229999997
 21
49.771619
 31
0.0
  0
LINE
  5
A010
330
9F05
100
AcDbEntity
  8
1
  6
Continuous
100
AcDbLine
 10
177.420223
 20
48.571619
 30
0.0
 11
176.2202229999997
 21
49.771619
 31
0.0
  0
LINE
  5
A011
330
9F05
100
AcDbEntity
  8
1
  6
Continuous
100
AcDbLine
 10
183.0202229999999
 20
48.571619
 30
0.0
 11
177.420223
 21
48.571619
 31
0.0
  0
LINE
  5
A012
330
9F05
100
AcDbEntity
  8
1
  6
Continuous
100
AcDbLine
 10
334.4197899999998
 20
200.8716249999999
 30
0.0
 11
334.4197899999998
 21
192.8716249999999
 31
0.0
  0
LINE
  5
A013
330
9F05
100
AcDbEntity
  8
1
  6
Continuous
100
AcDbLine
 10
335.6197899999999
 20
199.671625
 30
0.0
 11
334.4197899999998
 21
200.8716249999999
 31
0.0
  0
LINE
  5
A014
330
9F05
100
AcDbEntity
  8
1
  6
Continuous
100
AcDbLine
 10
335.6197899999999
 20
199.671625
 30
0.0
 11
335.6197899999999
 21
194.071625
 31
0.0
  0
LINE
  5
A015
330
9F05
100
AcDbEntity
  8
1
  6
Continuous
100
AcDbLine
 10
335.6197899999999
 20
194.071625
 30
0.0
 11
334.4197899999998
 21
192.8716249999999
 31
0.0
  0
LINE
  5
A016
330
9F05
100
AcDbEntity
  8
2
  6
Continuous
100
AcDbLine
 10
335.09629
 20
193.548125
 30
0.0
 11
333.6197899999999
 21
193.548125
 31
0.0
  0
LINE
  5
A017
330
9F05
100
AcDbEntity
  8
1
  6
Continuous
100
AcDbLine
 10
334.4197899999998
 20
192.8716249999999
 30
0.0
 11
333.6197899999999
 21
192.8716249999999
 31
0.0
  0
LINE
  5
A018
330
9F05
100
AcDbEntity
  8
2
  6
Continuous
100
AcDbLine
 10
335.09629
 20
200.1951249999999
 30
0.0
 11
333.6197899999999
 21
200.1951249999999
 31
0.0
  0
LINE
  5
A019
330
9F05
100
AcDbEntity
  8
1
  6
Continuous
100
AcDbLine
 10
334.4197899999998
 20
200.8716249999999
 30
0.0
 11
333.6197899999999
 21
200.8716249999999
 31
0.0
  0
CIRCLE
  5
A01A
330
9F05
100
AcDbEntity
  8
1
  6
Continuous
100
AcDbCircle
 10
438.2202229999998
 20
196.871609
 30
0.0
 40
2.799999999999998
  0
CIRCLE
  5
A01B
330
9F05
100
AcDbEntity
  8
1
  6
Continuous
100
AcDbCircle
 10
438.2202229999998
 20
196.871609
 30
0.0
 40
5.102012999999998
  0
ARC
  5
A01C
330
9F05
100
AcDbEntity
  8
1
  6
Continuous
100
AcDbCircle
 10
354.7375599999999
 20
231.823477
 30
0.0
 40
69.417761
100
AcDbArc
 50
164.295714
 51
205.1964439999999
  0
ARC
  5
A01D
330
9F05
100
AcDbEntity
  8
1
  6
Continuous
100
AcDbCircle
 10
265.902039
 20
231.823477
 30
0.0
 40
69.417761
100
AcDbArc
 50
334.8035469999998
 51
15.70428599999999
  0
LINE
  5
A01E
330
9F05
100
AcDbEntity
  8
1
  6
Continuous
100
AcDbLine
 10
291.531317
 20
203.1216249999999
 30
0.0
 11
290.819808
 21
203.1216249999999
 31
0.0
  0
ARC
  5
A01F
330
9F05
100
AcDbEntity
  8
1
  6
Continuous
100
AcDbCircle
 10
265.902039
 20
231.823477
 30
0.0
 40
67.117761
100
AcDbArc
 50
334.8035659999998
 51
17.55857599999999
  0
ARC
  5
A020
330
9F05
100
AcDbEntity
  8
1
  6
Continuous
100
AcDbCircle
 10
354.7375599999999
 20
231.823477
 30
0.0
 40
67.117761
100
AcDbArc
 50
162.441424
 51
205.196434
  0
ARC
  5
A021
330
9F05
100
AcDbEntity
  8
1
  6
Continuous
100
AcDbCircle
 10
310.3197999999999
 20
379.6020149999998
 30
0.0
 40
128.4999999999998
100
AcDbArc
 50
263.34847
 51
276.6515
  0
ARC
  5
A022
330
9F05
100
AcDbEntity
  8
1
  6
Continuous
100
AcDbCircle
 10
295.3198
 20
250.973676
 30
0.0
 40
1.0
100
AcDbArc
 50
83.348539
 51
179.9999599999999
  0
ARC
  5
A023
330
9F05
100
AcDbEntity
  8
1
  6
Continuous
100
AcDbCircle
 10
325.3197999999998
 20
250.973676
 30
0.0
 40
1.0
100
AcDbArc
 50
0.00004
 51
96.65146100000001
  0
LINE
  5
A024
330
9F05
100
AcDbEntity
  8
1
  6
Continuous
100
AcDbLine
 10
289.8364029999999
 20
252.071608
 30
0.0
 11
330.803196
 21
252.071608
 31
0.0
  0
ARC
  5
A025
330
9F05
100
AcDbEntity
  8
1
  6
Continuous
100
AcDbCircle
 10
330.803196
 20
250.071608
 30
0.0
 40
2.0
100
AcDbArc
 50
15.70428599999999
 51
90.0
  0
ARC
  5
A026
330
9F05
100
AcDbEntity
  8
1
  6
Continuous
100
AcDbCircle
 10
289.8364029999999
 20
250.071608
 30
0.0
 40
2.0
100
AcDbArc
 50
90.0
 51
164.295714
  0
ARC
  5
A027
330
9F05
100
AcDbEntity
  8
1
  6
Continuous
100
AcDbCircle
 10
193.680799
 20
96.17160400000001
 30
0.0
 40
4.0
100
AcDbArc
 50
270.0
 51
309.738932
  0
ARC
  5
A028
330
9F05
100
AcDbEntity
  8
1
  6
Continuous
100
AcDbCircle
 10
193.6808049999999
 20
96.17160900000001
 30
0.0
 40
6.299999999999998
100
AcDbArc
 50
270.0
 51
309.738916
  0
ARC
  5
A029
330
9F05
100
AcDbEntity
  8
1
  6
Continuous
100
AcDbCircle
 10
193.6808049999999
 20
51.571609
 30
0.0
 40
6.299999999999998
100
AcDbArc
 50
50.261084
 51
90.0
  0
ARC
  5
A02A
330
9F05
100
AcDbEntity
  8
1
  6
Continuous
100
AcDbCircle
 10
193.680793
 20
51.571619
 30
0.0
 40
4.0
100
AcDbArc
 50
50.26105300000001
 51
90.0
  0
ARC
  5
A02B
330
9F05
100
AcDbEntity
  8
1
  6
Continuous
100
AcDbCircle
 10
291.0198049999999
 20
201.845008
 30
0.0
 40
1.0
100
AcDbArc
 50
0.0
 51
25.196444
  0
ARC
  5
A02C
330
9F05
100
AcDbEntity
  8
1
  6
Continuous
100
AcDbCircle
 10
291.0197999999998
 20
201.8450179999999
 30
0.0
 40
3.299999999999998
100
AcDbArc
 50
0.0
 51
25.196434
  0
ARC
  5
A02D
330
9F05
100
AcDbEntity
  8
1
  6
Continuous
100
AcDbCircle
 10
329.6197899999999
 20
201.844997
 30
0.0
 40
1.0
100
AcDbArc
 50
154.803547
 51
180.0
  0
ARC
  5
A02E
330
9F05
100
AcDbEntity
  8
1
  6
Continuous
100
AcDbCircle
 10
329.6197999999999
 20
201.8450179999999
 30
0.0
 40
3.299999999999998
100
AcDbArc
 50
154.803566
 51
180.0
  0
LINE
  5
A02F
330
9F05
100
AcDbEntity
  8
1
  6
Continuous
100
AcDbLine
 10
428.720223
 20
265.7716019999999
 30
0.0
 11
428.720223
 21
263.2716019999999
 31
0.0
  0
LINE
  5
A030
330
9F05
100
AcDbEntity
  8
1
  6
Continuous
100
AcDbLine
 10
383.7202229999999
 20
265.7716019999999
 30
0.0
 11
383.7202229999999
 21
263.2716019999999
 31
0.0
  0
LINE
  5
A031
330
9F05
100
AcDbEntity
  8
1
  6
Continuous
100
AcDbLine
 10
428.3202389999998
 20
261.9716069999999
 30
0.0
 11
384.1202129999999
 21
261.9716069999999
 31
0.0
  0
LINE
  5
A032
330
9F05
100
AcDbEntity
  8
1
  6
Continuous
100
AcDbLine
 10
384.120243
 20
261.9716029999997
 30
0.0
 11
383.7202429999999
 21
263.27161
 31
0.0
  0
LINE
  5
A033
330
9F05
100
AcDbEntity
  8
1
  6
Continuous
100
AcDbLine
 10
428.320237
 20
261.971599
 30
0.0
 11
428.720238
 21
263.2716019999999
 31
0.0
  0
LINE
  5
A034
330
9F05
100
AcDbEntity
  8
2
  6
Continuous
100
AcDbLine
 10
413.137723
 20
274.746558
 30
0.0
 11
413.137723
 21
311.9541129999999
 31
0.0
  0
LINE
  5
A035
330
9F05
100
AcDbEntity
  8
2
  6
Continuous
100
AcDbLine
 10
399.302723
 20
274.746558
 30
0.0
 11
399.302723
 21
311.9541129999999
 31
0.0
  0
LINE
  5
A036
330
9F05
100
AcDbEntity
  8
1
  6
Continuous
100
AcDbLine
 10
414.2202229999998
 20
272.8716129999999
 30
0.0
 11
414.2202229999998
 21
310.8716129999999
 31
0.0
  0
LINE
  5
A037
330
9F05
100
AcDbEntity
  8
1
  6
Continuous
100
AcDbLine
 10
398.220223
 20
272.8716129999999
 30
0.0
 11
398.220223
 21
310.8716129999999
 31
0.0
  0
LINE
  5
A038
330
9F05
100
AcDbEntity
  8
1
  6
Continuous
100
AcDbLine
 10
398.220223
 20
274.746558
 30
0.0
 11
414.2202229999998
 21
274.746558
 31
0.0
  0
LINE
  5
A039
330
9F05
100
AcDbEntity
  8
2
  6
Continuous
100
AcDbLine
 10
399.302723
 20
274.746558
 30
0.0
 11
398.220223
 21
272.8716129999999
 31
0.0
  0
LINE
  5
A03A
330
9F05
100
AcDbEntity
  8
1
  6
Continuous
100
AcDbLine
 10
424.47029
 20
267.7716019999999
 30
0.0
 11
387.9702229999999
 21
267.7716019999999
 31
0.0
  0
LINE
  5
A03B
330
9F05
100
AcDbEntity
  8
1
  6
Continuous
100
AcDbLine
 10
428.720223
 20
265.7716019999999
 30
0.0
 11
383.7202229999999
 21
265.7716019999999
 31
0.0
  0
ARC
  5
A03C
330
9F05
100
AcDbEntity
  8
1
  6
Continuous
100
AcDbCircle
 10
388.196163
 20
261.77586
 30
0.0
 40
6.0
100
AcDbArc
 50
92.158028
 51
138.2442
  0
LINE
  5
A03D
330
9F05
100
AcDbEntity
  8
2
  6
Continuous
100
AcDbLine
 10
413.137723
 20
274.746558
 30
0.0
 11
414.2202229999998
 21
272.8716129999999
 31
0.0
  0
ARC
  5
A03E
330
9F05
100
AcDbEntity
  8
1
  6
Continuous
100
AcDbCircle
 10
424.2442859999998
 20
261.77586
 30
0.0
 40
6.0
100
AcDbArc
 50
41.75575999999996
 51
87.841936
  0
LINE
  5
A03F
330
9F05
100
AcDbEntity
  8
1
  6
Continuous
100
AcDbLine
 10
398.220223
 20
310.8716129999999
 30
0.0
 11
400.2202229999999
 21
312.8716129999999
 31
0.0
  0
LINE
  5
A040
330
9F05
100
AcDbEntity
  8
1
  6
Continuous
100
AcDbLine
 10
398.220223
 20
310.8716129999999
 30
0.0
 11
414.2202229999998
 21
310.8716129999999
 31
0.0
  0
LINE
  5
A041
330
9F05
100
AcDbEntity
  8
1
  6
Continuous
100
AcDbLine
 10
412.220223
 20
312.8716129999999
 30
0.0
 11
414.2202229999998
 21
310.8716129999999
 31
0.0
  0
LINE
  5
A042
330
9F05
100
AcDbEntity
  8
1
  6
Continuous
100
AcDbLine
 10
400.2202229999999
 20
312.8716129999999
 30
0.0
 11
412.220223
 21
312.8716129999999
 31
0.0
  0
CIRCLE
  5
A043
330
9F05
100
AcDbEntity
  8
1
  6
Continuous
100
AcDbCircle
 10
212.220223
 20
386.673222
 30
0.0
 40
8.0
  0
CIRCLE
  5
A044
330
9F05
100
AcDbEntity
  8
2
  6
Continuous
100
AcDbCircle
 10
212.220223
 20
386.673222
 30
0.0
 40
6.9175
  0
LINE
  5
A045
330
9F05
100
AcDbEntity
  8
1
  6
Continuous
100
AcDbLine
 10
287.8197999999999
 20
265.7716259999999
 30
0.0
 11
287.8197999999999
 21
263.2716259999999
 31
0.0
  0
LINE
  5
A046
330
9F05
100
AcDbEntity
  8
1
  6
Continuous
100
AcDbLine
 10
332.8197999999998
 20
265.7716259999999
 30
0.0
 11
332.8197999999998
 21
263.2716259999999
 31
0.0
  0
LINE
  5
A047
330
9F05
100
AcDbEntity
  8
1
  6
Continuous
100
AcDbLine
 10
332.4197909999998
 20
261.971623
 30
0.0
 11
288.2198
 21
261.971623
 31
0.0
  0
LINE
  5
A048
330
9F05
100
AcDbEntity
  8
1
  6
Continuous
100
AcDbLine
 10
288.2197959999998
 20
261.9716189999999
 30
0.0
 11
287.8197959999998
 21
263.2716219999999
 31
0.0
  0
LINE
  5
A049
330
9F05
100
AcDbEntity
  8
1
  6
Continuous
100
AcDbLine
 10
332.4197909999998
 20
261.971627
 30
0.0
 11
332.819792
 21
263.2716259999999
 31
0.0
  0
LINE
  5
A04A
330
9F05
100
AcDbEntity
  8
1
  6
Continuous
100
AcDbLine
 10
318.3197999999998
 20
272.8716289999999
 30
0.0
 11
318.3197999999998
 21
310.8716289999998
 31
0.0
  0
LINE
  5
A04B
330
9F05
100
AcDbEntity
  8
2
  6
Continuous
100
AcDbLine
 10
317.2373
 20
274.746571
 30
0.0
 11
317.2373
 21
311.954129
 31
0.0
  0
LINE
  5
A04C
330
9F05
100
AcDbEntity
  8
1
  6
Continuous
100
AcDbLine
 10
302.3197999999998
 20
272.8716289999999
 30
0.0
 11
302.3197999999998
 21
310.8716289999998
 31
0.0
  0
LINE
  5
A04D
330
9F05
100
AcDbEntity
  8
2
  6
Continuous
100
AcDbLine
 10
303.4023
 20
274.746571
 30
0.0
 11
303.4023
 21
311.954129
 31
0.0
  0
LINE
  5
A04E
330
9F05
100
AcDbEntity
  8
1
  6
Continuous
100
AcDbLine
 10
328.3476639999999
 20
267.7716259999999
 30
0.0
 11
292.0697999999998
 21
267.7716259999999
 31
0.0
  0
LINE
  5
A04F
330
9F05
100
AcDbEntity
  8
1
  6
Continuous
100
AcDbLine
 10
332.8197999999998
 20
265.7716259999999
 30
0.0
 11
287.8197999999999
 21
265.7716259999999
 31
0.0
  0
LINE
  5
A050
330
9F05
100
AcDbEntity
  8
1
  6
Continuous
100
AcDbLine
 10
302.3197999999998
 20
274.746571
 30
0.0
 11
318.3197999999998
 21
274.746571
 31
0.0
  0
ARC
  5
A051
330
9F05
100
AcDbEntity
  8
1
  6
Continuous
100
AcDbCircle
 10
292.295739
 20
261.7758789999999
 30
0.0
 40
6.0
100
AcDbArc
 50
92.158028
 51
138.2442
  0
LINE
  5
A052
330
9F05
100
AcDbEntity
  8
2
  6
Continuous
100
AcDbLine
 10
303.4023
 20
274.746571
 30
0.0
 11
302.3197999999998
 21
272.871626
 31
0.0
  0
LINE
  5
A053
330
9F05
100
AcDbEntity
  8
2
  6
Continuous
100
AcDbLine
 10
317.2373
 20
274.746571
 30
0.0
 11
318.3197999999998
 21
272.871626
 31
0.0
  0
ARC
  5
A054
330
9F05
100
AcDbEntity
  8
1
  6
Continuous
100
AcDbCircle
 10
328.3476639999999
 20
261.7716259999999
 30
0.0
 40
6.0
100
AcDbArc
 50
41.810315
 51
90.0
  0
LINE
  5
A055
330
9F05
100
AcDbEntity
  8
1
  6
Continuous
100
AcDbLine
 10
304.3197999999998
 20
312.8716289999998
 30
0.0
 11
316.3197999999998
 21
312.8716289999998
 31
0.0
  0
LINE
  5
A056
330
9F05
100
AcDbEntity
  8
1
  6
Continuous
100
AcDbLine
 10
302.3197999999998
 20
310.8716289999998
 30
0.0
 11
318.3197999999998
 21
310.8716289999998
 31
0.0
  0
LINE
  5
A057
330
9F05
100
AcDbEntity
  8
1
  6
Continuous
100
AcDbLine
 10
302.3197999999998
 20
310.8716289999998
 30
0.0
 11
304.3197999999998
 21
312.8716289999998
 31
0.0
  0
LINE
  5
A058
330
9F05
100
AcDbEntity
  8
1
  6
Continuous
100
AcDbLine
 10
316.3197999999998
 20
312.8716289999998
 30
0.0
 11
318.3197999999998
 21
310.8716289999998
 31
0.0
  0
CIRCLE
  5
A059
330
9F05
100
AcDbEntity
  8
1
  6
Continuous
100
AcDbCircle
 10
212.220223
 20
386.673222
 30
0.0
 40
6.0
  0
LINE
  5
A05A
330
9F05
100
AcDbEntity
  8
1
  6
Continuous
100
AcDbLine
 10
204.220223
 20
310.8716129999999
 30
0.0
 11
220.220223
 21
310.8716129999999
 31
0.0
  0
LINE
  5
A05B
330
9F05
100
AcDbEntity
  8
1
  6
Continuous
100
AcDbLine
 10
206.220223
 20
312.8716129999999
 30
0.0
 11
218.220223
 21
312.8716129999999
 31
0.0
  0
LINE
  5
A05C
330
9F05
100
AcDbEntity
  8
1
  6
Continuous
100
AcDbLine
 10
204.220223
 20
274.746558
 30
0.0
 11
220.220223
 21
274.746558
 31
0.0
  0
LINE
  5
A05D
330
9F05
100
AcDbEntity
  8
1
  6
Continuous
100
AcDbLine
 10
230.4702899999998
 20
267.7716019999999
 30
0.0
 11
193.970223
 21
267.7716019999999
 31
0.0
  0
LINE
  5
A05E
330
9F05
100
AcDbEntity
  8
1
  6
Continuous
100
AcDbLine
 10
234.320239
 20
261.9716069999999
 30
0.0
 11
190.1202129999999
 21
261.9716069999999
 31
0.0
  0
LINE
  5
A05F
330
9F05
100
AcDbEntity
  8
1
  6
Continuous
100
AcDbLine
 10
234.720223
 20
265.7716019999999
 30
0.0
 11
189.7202229999997
 21
265.7716019999999
 31
0.0
  0
LINE
  5
A060
330
9F05
100
AcDbEntity
  8
2
  6
Continuous
100
AcDbLine
 10
205.302723
 20
274.746558
 30
0.0
 11
205.302723
 21
311.9541129999999
 31
0.0
  0
LINE
  5
A061
330
9F05
100
AcDbEntity
  8
1
  6
Continuous
100
AcDbLine
 10
204.220223
 20
272.8716129999999
 30
0.0
 11
204.220223
 21
310.8716129999999
 31
0.0
  0
LINE
  5
A062
330
9F05
100
AcDbEntity
  8
1
  6
Continuous
100
AcDbLine
 10
189.7202229999997
 20
265.7716019999999
 30
0.0
 11
189.7202229999997
 21
263.2716019999999
 31
0.0
  0
LINE
  5
A063
330
9F05
100
AcDbEntity
  8
1
  6
Continuous
100
AcDbLine
 10
190.1202429999999
 20
261.9716029999997
 30
0.0
 11
189.7202429999999
 21
263.27161
 31
0.0
  0
ARC
  5
A064
330
9F05
100
AcDbEntity
  8
1
  6
Continuous
100
AcDbCircle
 10
194.1961629999999
 20
261.77586
 30
0.0
 40
6.0
100
AcDbArc
 50
92.158028
 51
138.2442
  0
LINE
  5
A065
330
9F05
100
AcDbEntity
  8
2
  6
Continuous
100
AcDbLine
 10
205.302723
 20
274.746558
 30
0.0
 11
204.220223
 21
272.8716129999999
 31
0.0
  0
LINE
  5
A066
330
9F05
100
AcDbEntity
  8
1
  6
Continuous
100
AcDbLine
 10
204.220223
 20
310.8716129999999
 30
0.0
 11
206.220223
 21
312.8716129999999
 31
0.0
  0
LINE
  5
A067
330
9F05
100
AcDbEntity
  8
2
  6
Continuous
100
AcDbLine
 10
219.137723
 20
274.746558
 30
0.0
 11
219.137723
 21
311.9541129999999
 31
0.0
  0
LINE
  5
A068
330
9F05
100
AcDbEntity
  8
1
  6
Continuous
100
AcDbLine
 10
220.220223
 20
272.8716129999999
 30
0.0
 11
220.220223
 21
310.8716129999999
 31
0.0
  0
LINE
  5
A069
330
9F05
100
AcDbEntity
  8
2
  6
Continuous
100
AcDbLine
 10
219.137723
 20
274.746558
 30
0.0
 11
220.220223
 21
272.8716129999999
 31
0.0
  0
LINE
  5
A06A
330
9F05
100
AcDbEntity
  8
1
  6
Continuous
100
AcDbLine
 10
234.720223
 20
265.7716019999999
 30
0.0
 11
234.720223
 21
263.2716019999999
 31
0.0
  0
LINE
  5
A06B
330
9F05
100
AcDbEntity
  8
1
  6
Continuous
100
AcDbLine
 10
234.3202369999999
 20
261.971599
 30
0.0
 11
234.720238
 21
263.2716019999999
 31
0.0
  0
ARC
  5
A06C
330
9F05
100
AcDbEntity
  8
1
  6
Continuous
100
AcDbCircle
 10
230.2442859999999
 20
261.77586
 30
0.0
 40
6.0
100
AcDbArc
 50
41.75575999999996
 51
87.841936
  0
LINE
  5
A06D
330
9F05
100
AcDbEntity
  8
1
  6
Continuous
100
AcDbLine
 10
218.220223
 20
312.8716129999999
 30
0.0
 11
220.220223
 21
310.8716129999999
 31
0.0
  0
LINE
  5
A06E
330
9F05
100
AcDbEntity
  8
1
  6
Continuous
100
AcDbLine
 10
79.320214
 20
261.9716069999999
 30
0.0
 11
35.12022299999999
 21
261.9716069999999
 31
0.0
  0
LINE
  5
A06F
330
9F05
100
AcDbEntity
  8
1
  6
Continuous
100
AcDbLine
 10
75.248087
 20
267.77161
 30
0.0
 11
38.97022299999999
 21
267.77161
 31
0.0
  0
LINE
  5
A070
330
9F05
100
AcDbEntity
  8
1
  6
Continuous
100
AcDbLine
 10
79.720223
 20
265.77161
 30
0.0
 11
34.72022299999999
 21
265.77161
 31
0.0
  0
LINE
  5
A071
330
9F05
100
AcDbEntity
  8
1
  6
Continuous
100
AcDbLine
 10
65.220223
 20
272.8716129999999
 30
0.0
 11
65.220223
 21
310.8716129999999
 31
0.0
  0
LINE
  5
A072
330
9F05
100
AcDbEntity
  8
2
  6
Continuous
100
AcDbLine
 10
64.13772299999999
 20
274.746558
 30
0.0
 11
64.13772299999999
 21
311.9541129999999
 31
0.0
  0
LINE
  5
A073
330
9F05
100
AcDbEntity
  8
1
  6
Continuous
100
AcDbLine
 10
49.220223
 20
272.8716129999999
 30
0.0
 11
49.220223
 21
310.8716129999999
 31
0.0
  0
LINE
  5
A074
330
9F05
100
AcDbEntity
  8
2
  6
Continuous
100
AcDbLine
 10
50.302723
 20
274.746558
 30
0.0
 11
50.302723
 21
311.9541129999999
 31
0.0
  0
LINE
  5
A075
330
9F05
100
AcDbEntity
  8
2
  6
Continuous
100
AcDbLine
 10
50.302723
 20
274.746558
 30
0.0
 11
49.220223
 21
272.8716129999999
 31
0.0
  0
LINE
  5
A076
330
9F05
100
AcDbEntity
  8
2
  6
Continuous
100
AcDbLine
 10
64.13772299999999
 20
274.746558
 30
0.0
 11
65.220223
 21
272.8716129999999
 31
0.0
  0
LINE
  5
A077
330
9F05
100
AcDbEntity
  8
1
  6
Continuous
100
AcDbLine
 10
34.72022299999999
 20
265.77161
 30
0.0
 11
34.72022299999999
 21
263.27161
 31
0.0
  0
LINE
  5
A078
330
9F05
100
AcDbEntity
  8
1
  6
Continuous
100
AcDbLine
 10
35.120219
 20
261.9716029999997
 30
0.0
 11
34.720219
 21
263.271606
 31
0.0
  0
ARC
  5
A079
330
9F05
100
AcDbEntity
  8
1
  6
Continuous
100
AcDbCircle
 10
39.196162
 20
261.775863
 30
0.0
 40
6.0
100
AcDbArc
 50
92.158028
 51
138.2442
  0
LINE
  5
A07A
330
9F05
100
AcDbEntity
  8
1
  6
Continuous
100
AcDbLine
 10
49.220223
 20
274.746558
 30
0.0
 11
65.220223
 21
274.746558
 31
0.0
  0
LINE
  5
A07B
330
9F05
100
AcDbEntity
  8
1
  6
Continuous
100
AcDbLine
 10
49.220223
 20
310.8716129999999
 30
0.0
 11
51.220223
 21
312.8716129999999
 31
0.0
  0
LINE
  5
A07C
330
9F05
100
AcDbEntity
  8
1
  6
Continuous
100
AcDbLine
 10
49.220223
 20
310.8716129999999
 30
0.0
 11
65.220223
 21
310.8716129999999
 31
0.0
  0
LINE
  5
A07D
330
9F05
100
AcDbEntity
  8
1
  6
Continuous
100
AcDbLine
 10
51.220223
 20
312.8716129999999
 30
0.0
 11
63.220223
 21
312.8716129999999
 31
0.0
  0
LINE
  5
A07E
330
9F05
100
AcDbEntity
  8
1
  6
Continuous
100
AcDbLine
 10
63.220223
 20
312.8716129999999
 30
0.0
 11
65.220223
 21
310.8716129999999
 31
0.0
  0
LINE
  5
A07F
330
9F05
100
AcDbEntity
  8
1
  6
Continuous
100
AcDbLine
 10
79.720223
 20
265.77161
 30
0.0
 11
79.720223
 21
263.27161
 31
0.0
  0
LINE
  5
A080
330
9F05
100
AcDbEntity
  8
1
  6
Continuous
100
AcDbLine
 10
79.320214
 20
261.971611
 30
0.0
 11
79.72021499999998
 21
263.27161
 31
0.0
  0
ARC
  5
A081
330
9F05
100
AcDbEntity
  8
1
  6
Continuous
100
AcDbCircle
 10
75.248087
 20
261.7716099999999
 30
0.0
 40
6.0
100
AcDbArc
 50
41.810315
 51
90.0
  0
CIRCLE
  5
A082
330
9F05
100
AcDbEntity
  8
1
  6
Continuous
100
AcDbCircle
 10
212.220223
 20
386.673222
 30
0.0
 40
18.25
  0
CIRCLE
  5
A083
330
9F05
100
AcDbEntity
  8
1
  6
Continuous
100
AcDbCircle
 10
212.220223
 20
386.673222
 30
0.0
 40
22.5
  0
ARC
  5
A084
330
9F05
100
AcDbEntity
  8
1
  6
Continuous
100
AcDbCircle
 10
212.220223
 20
386.673222
 30
0.0
 40
25.0
100
AcDbArc
 50
230.2610839999999
 51
129.7389159999999
  0
LINE
  5
A085
330
9F05
100
AcDbEntity
  8
1
  6
Continuous
100
AcDbLine
 10
169.220223
 20
404.973222
 30
0.0
 11
193.6808049999999
 21
404.973222
 31
0.0
  0
LINE
  5
A086
330
9F05
100
AcDbEntity
  8
1
  6
Continuous
100
AcDbLine
 10
169.220223
 20
368.373222
 30
0.0
 11
193.6808049999999
 21
368.373222
 31
0.0
  0
ARC
  5
A087
330
9F05
100
AcDbEntity
  8
1
  6
Continuous
100
AcDbCircle
 10
329.3518849999998
 20
386.673222
 30
0.0
 40
158.420172
100
AcDbArc
 50
173.3666359999998
 51
186.633364
  0
ARC
  5
A088
330
9F05
100
AcDbEntity
  8
1
  6
Continuous
100
AcDbCircle
 10
193.6808049999999
 20
408.973222
 30
0.0
 40
4.0
100
AcDbArc
 50
270.0
 51
309.738916
  0
ARC
  5
A089
330
9F05
100
AcDbEntity
  8
1
  6
Continuous
100
AcDbCircle
 10
193.6808049999999
 20
364.3732219999998
 30
0.0
 40
4.0
100
AcDbArc
 50
50.261084
 51
90.0
  0
LINE
  5
A08A
330
9F05
100
AcDbEntity
  8
1
  6
Continuous
100
AcDbLine
 10
169.220223
 20
368.373222
 30
0.0
 11
169.220223
 21
370.673222
 31
0.0
  0
LINE
  5
A08B
330
9F05
100
AcDbEntity
  8
1
  6
Continuous
100
AcDbLine
 10
169.220223
 20
402.673222
 30
0.0
 11
171.7417619999999
 21
402.673222
 31
0.0
  0
LINE
  5
A08C
330
9F05
100
AcDbEntity
  8
1
  6
Continuous
100
AcDbLine
 10
169.220223
 20
370.673222
 30
0.0
 11
171.7417619999999
 21
370.673222
 31
0.0
  0
LINE
  5
A08D
330
9F05
100
AcDbEntity
  8
1
  6
Continuous
100
AcDbLine
 10
169.220223
 20
402.673222
 30
0.0
 11
169.220223
 21
404.973222
 31
0.0
  0
ARC
  5
A08E
330
9F05
100
AcDbEntity
  8
1
  6
Continuous
100
AcDbCircle
 10
177.2202229999997
 20
403.1316109999998
 30
0.0
 40
6.841600999999998
100
AcDbArc
 50
63.992176
 51
116.007824
  0
ARC
  5
A08F
330
9F05
100
AcDbEntity
  8
1
  6
Continuous
100
AcDbCircle
 10
177.2202229999997
 20
411.8148129999998
 30
0.0
 40
6.841600999999998
100
AcDbArc
 50
243.992176
 51
296.0078240000001
  0
LINE
  5
A090
330
9F05
100
AcDbEntity
  8
1
  6
Continuous
100
AcDbLine
 10
174.220223
 20
405.666033
 30
0.0
 11
174.220223
 21
409.2803919999998
 31
0.0
  0
LINE
  5
A091
330
9F05
100
AcDbEntity
  8
1
  6
Continuous
100
AcDbLine
 10
183.0202229999999
 20
411.973212
 30
0.0
 11
177.420223
 21
411.973212
 31
0.0
  0
LINE
  5
A092
330
9F05
100
AcDbEntity
  8
1
  6
Continuous
100
AcDbLine
 10
177.420223
 20
411.973212
 30
0.0
 11
176.2202229999997
 21
410.7732119999998
 31
0.0
  0
LINE
  5
A093
330
9F05
100
AcDbEntity
  8
1
  6
Continuous
100
AcDbLine
 10
184.220223
 20
410.7732119999998
 30
0.0
 11
176.2202229999997
 21
410.7732119999998
 31
0.0
  0
LINE
  5
A094
330
9F05
100
AcDbEntity
  8
1
  6
Continuous
100
AcDbLine
 10
183.0202229999999
 20
411.973212
 30
0.0
 11
184.220223
 21
410.7732119999998
 31
0.0
  0
LINE
  5
A095
330
9F05
100
AcDbEntity
  8
2
  6
Continuous
100
AcDbLine
 10
176.896723
 20
411.449712
 30
0.0
 11
176.896723
 21
409.9732119999996
 31
0.0
  0
LINE
  5
A096
330
9F05
100
AcDbEntity
  8
1
  6
Continuous
100
AcDbLine
 10
176.2202229999997
 20
410.7732119999998
 30
0.0
 11
176.2202229999997
 21
409.9732119999996
 31
0.0
  0
LINE
  5
A097
330
9F05
100
AcDbEntity
  8
2
  6
Continuous
100
AcDbLine
 10
183.543723
 20
411.449712
 30
0.0
 11
183.543723
 21
409.9732119999996
 31
0.0
  0
LINE
  5
A098
330
9F05
100
AcDbEntity
  8
1
  6
Continuous
100
AcDbLine
 10
184.220223
 20
410.7732119999998
 30
0.0
 11
184.220223
 21
409.9732119999996
 31
0.0
  0
ARC
  5
A099
330
9F05
100
AcDbEntity
  8
1
  6
Continuous
100
AcDbCircle
 10
183.220223
 20
403.1316109999998
 30
0.0
 40
6.841600999999998
100
AcDbArc
 50
63.992176
 51
116.007824
  0
ARC
  5
A09A
330
9F05
100
AcDbEntity
  8
1
  6
Continuous
100
AcDbCircle
 10
183.220223
 20
411.8148129999998
 30
0.0
 40
6.841600999999998
100
AcDbArc
 50
243.992176
 51
296.0078240000001
  0
LINE
  5
A09B
330
9F05
100
AcDbEntity
  8
1
  6
Continuous
100
AcDbLine
 10
186.220223
 20
405.666033
 30
0.0
 11
186.220223
 21
409.2803919999998
 31
0.0
  0
LINE
  5
A09C
330
9F05
100
AcDbEntity
  8
1
  6
Continuous
100
AcDbLine
 10
180.2202229999998
 20
404.9732119999998
 30
0.0
 11
180.2202229999998
 21
409.2803919999998
 31
0.0
  0
LINE
  5
A09D
330
9F05
100
AcDbEntity
  8
1
  6
Continuous
100
AcDbLine
 10
177.470223
 20
409.9732119999996
 30
0.0
 11
182.970223
 21
409.9732119999996
 31
0.0
  0
ARC
  5
A09E
330
9F05
100
AcDbEntity
  8
1
  6
Continuous
100
AcDbCircle
 10
175.970223
 20
367.1732299999998
 30
0.0
 40
2.0
100
AcDbArc
 50
180.0000179999999
 51
270.0
  0
LINE
  5
A09F
330
9F05
100
AcDbEntity
  8
1
  6
Continuous
100
AcDbLine
 10
173.9702229999998
 20
368.373227
 30
0.0
 11
173.9702229999998
 21
367.1732299999998
 31
0.0
  0
ARC
  5
A0A0
330
9F05
100
AcDbEntity
  8
1
  6
Continuous
100
AcDbCircle
 10
184.470223
 20
367.1732299999998
 30
0.0
 40
2.0
100
AcDbArc
 50
270.0
 51
359.9999799999998
  0
LINE
  5
A0A1
330
9F05
100
AcDbEntity
  8
1
  6
Continuous
100
AcDbLine
 10
175.970223
 20
365.1732299999998
 30
0.0
 11
184.470223
 21
365.1732299999998
 31
0.0
  0
LINE
  5
A0A2
330
9F05
100
AcDbEntity
  8
1
  6
Continuous
100
AcDbLine
 10
186.4702229999998
 20
368.373227
 30
0.0
 11
186.4702229999998
 21
367.1732299999998
 31
0.0
  0
ARC
  5
A0A3
330
9F05
100
AcDbEntity
  8
1
  6
Continuous
100
AcDbCircle
 10
192.220223
 20
255.971605
 30
0.0
 40
5.0
100
AcDbArc
 50
90.0
 51
176.865023
  0
ARC
  5
A0A4
330
9F05
100
AcDbEntity
  8
1
  6
Continuous
100
AcDbCircle
 10
212.220223
 20
386.673222
 30
0.0
 40
25.0
100
AcDbArc
 50
142.6027479999999
 51
217.3972519999999
  0
ARC
  5
A0A5
330
9F05
100
AcDbEntity
  8
1
  6
Continuous
100
AcDbCircle
 10
426.2202229999998
 20
255.971605
 30
0.0
 40
5.0
100
AcDbArc
 50
3.134977
 51
90.0
  0
LINE
  5
A0A6
330
9F05
100
AcDbEntity
  8
1
  6
Continuous
100
AcDbLine
 10
297.319745
 20
272.871626
 30
0.0
 11
323.3198549999999
 21
272.871626
 31
0.0
  0
LINE
  5
A0A7
330
9F05
100
AcDbEntity
  8
1
  6
Continuous
100
AcDbLine
 10
303.680272
 20
272.871626
 30
0.0
 11
303.680272
 21
267.7716229999999
 31
0.0
  0
LINE
  5
A0A8
330
9F05
100
AcDbEntity
  8
1
  6
Continuous
100
AcDbLine
 10
297.319745
 20
272.871626
 30
0.0
 11
297.319745
 21
267.7716229999999
 31
0.0
  0
LINE
  5
A0A9
330
9F05
100
AcDbEntity
  8
1
  6
Continuous
100
AcDbLine
 10
316.9593279999998
 20
272.871626
 30
0.0
 11
316.9593279999998
 21
267.7716229999999
 31
0.0
  0
LINE
  5
A0AA
330
9F05
100
AcDbEntity
  8
1
  6
Continuous
100
AcDbLine
 10
323.3198549999999
 20
272.871626
 30
0.0
 11
323.3198549999999
 21
267.7716229999999
 31
0.0
  0
LINE
  5
A0AB
330
9F05
100
AcDbEntity
  8
1
  6
Continuous
100
AcDbLine
 10
44.220168
 20
272.8716099999999
 30
0.0
 11
70.220278
 21
272.8716099999999
 31
0.0
  0
LINE
  5
A0AC
330
9F05
100
AcDbEntity
  8
1
  6
Continuous
100
AcDbLine
 10
63.859751
 20
272.8716099999999
 30
0.0
 11
63.859751
 21
267.7716069999998
 31
0.0
  0
LINE
  5
A0AD
330
9F05
100
AcDbEntity
  8
1
  6
Continuous
100
AcDbLine
 10
50.580695
 20
272.8716099999999
 30
0.0
 11
50.580695
 21
267.7716069999998
 31
0.0
  0
LINE
  5
A0AE
330
9F05
100
AcDbEntity
  8
1
  6
Continuous
100
AcDbLine
 10
44.220168
 20
272.8716099999999
 30
0.0
 11
44.220168
 21
267.7716069999998
 31
0.0
  0
LINE
  5
A0AF
330
9F05
100
AcDbEntity
  8
1
  6
Continuous
100
AcDbLine
 10
70.220278
 20
272.8716099999999
 30
0.0
 11
70.220278
 21
267.7716069999998
 31
0.0
  0
LINE
  5
A0B0
330
9F05
100
AcDbEntity
  8
1
  6
Continuous
100
AcDbLine
 10
394.820223
 20
272.8716129999999
 30
0.0
 11
417.620223
 21
272.8716129999999
 31
0.0
  0
LINE
  5
A0B1
330
9F05
100
AcDbEntity
  8
1
  6
Continuous
100
AcDbLine
 10
406.2202229999998
 20
272.8716129999999
 30
0.0
 11
406.2202229999998
 21
267.7716019999999
 31
0.0
  0
LINE
  5
A0B2
330
9F05
100
AcDbEntity
  8
1
  6
Continuous
100
AcDbLine
 10
200.820223
 20
380.255015
 30
0.0
 11
200.820223
 21
393.091429
 31
0.0
  0
LINE
  5
A0B3
330
9F05
100
AcDbEntity
  8
1
  6
Continuous
100
AcDbLine
 10
223.6202229999999
 20
380.255015
 30
0.0
 11
223.6202229999999
 21
393.091429
 31
0.0
  0
LINE
  5
A0B4
330
9F05
100
AcDbEntity
  8
1
  6
Continuous
100
AcDbLine
 10
212.220223
 20
399.673222
 30
0.0
 11
200.820223
 21
393.091429
 31
0.0
  0
LINE
  5
A0B5
330
9F05
100
AcDbEntity
  8
1
  6
Continuous
100
AcDbLine
 10
223.6202229999999
 20
380.255015
 30
0.0
 11
212.220223
 21
373.673222
 31
0.0
  0
LINE
  5
A0B6
330
9F05
100
AcDbEntity
  8
1
  6
Continuous
100
AcDbLine
 10
212.220223
 20
399.673222
 30
0.0
 11
223.6202229999999
 21
393.091429
 31
0.0
  0
LINE
  5
A0B7
330
9F05
100
AcDbEntity
  8
1
  6
Continuous
100
AcDbLine
 10
200.820223
 20
380.255015
 30
0.0
 11
212.220223
 21
373.673222
 31
0.0
  0
LINE
  5
A0B8
330
9F05
100
AcDbEntity
  8
1
  6
Continuous
100
AcDbLine
 10
394.820223
 20
272.8716129999999
 30
0.0
 11
394.820223
 21
267.7716019999999
 31
0.0
  0
LINE
  5
A0B9
330
9F05
100
AcDbEntity
  8
1
  6
Continuous
100
AcDbLine
 10
417.620223
 20
272.8716129999999
 30
0.0
 11
417.620223
 21
267.7716019999999
 31
0.0
  0
LINE
  5
A0BA
330
9F05
100
AcDbEntity
  8
1
  6
Continuous
100
AcDbLine
 10
200.820223
 20
272.8716129999999
 30
0.0
 11
223.6202229999999
 21
272.8716129999999
 31
0.0
  0
LINE
  5
A0BB
330
9F05
100
AcDbEntity
  8
1
  6
Continuous
100
AcDbLine
 10
212.220223
 20
272.8716129999999
 30
0.0
 11
212.220223
 21
267.7716019999999
 31
0.0
  0
LINE
  5
A0BC
330
9F05
100
AcDbEntity
  8
1
  6
Continuous
100
AcDbLine
 10
223.6202229999999
 20
272.8716129999999
 30
0.0
 11
223.6202229999999
 21
267.7716019999999
 31
0.0
  0
LINE
  5
A0BD
330
9F05
100
AcDbEntity
  8
1
  6
Continuous
100
AcDbLine
 10
200.820223
 20
272.8716129999999
 30
0.0
 11
200.820223
 21
267.7716019999999
 31
0.0
  0
LINE
  5
A0BE
330
9F05
100
AcDbEntity
  8
1
  6
Continuous
100
AcDbLine
 10
188.7077219999999
 20
188.507251
 30
0.0
 11
213.8450089999998
 21
173.994232
 31
0.0
  0
LINE
  5
A0BF
330
9F05
100
AcDbEntity
  8
1
  6
Continuous
100
AcDbLine
 10
191.7077219999999
 20
193.703403
 30
0.0
 11
216.8450089999998
 21
179.1903859999999
 31
0.0
  0
LINE
  5
A0C0
330
9F05
100
AcDbEntity
  8
1
  6
Continuous
100
AcDbLine
 10
196.1915129999999
 20
202.6285319999999
 30
0.0
 11
216.8450089999998
 21
214.5528319999999
 31
0.0
  0
LINE
  5
A0C1
330
9F05
100
AcDbEntity
  8
1
  6
Continuous
100
AcDbLine
 10
202.1166959999999
 20
212.977641
 30
0.0
 11
213.8450089999998
 21
219.7489859999997
 31
0.0
  0
ARC
  5
A0C2
330
9F05
100
AcDbEntity
  8
1
  6
Continuous
100
AcDbCircle
 10
180.2202229999998
 20
196.871609
 30
0.0
 40
44.0
100
AcDbArc
 50
98.390366
 51
45.73003299999998
  0
ARC
  5
A0C3
330
9F05
100
AcDbEntity
  8
1
  6
Continuous
100
AcDbCircle
 10
180.2202229999998
 20
196.871609
 30
0.0
 40
50.0
100
AcDbArc
 50
96.62188700000001
 51
47.498512
  0
LINE
  5
A0C4
330
9F05
100
AcDbEntity
  8
1
  6
Continuous
100
AcDbLine
 10
143.595446
 20
214.5528319999999
 30
0.0
 11
168.7327349999999
 21
200.039812
 31
0.0
  0
LINE
  5
A0C5
330
9F05
100
AcDbEntity
  8
1
  6
Continuous
100
AcDbLine
 10
171.643449
 20
401.6732219999998
 30
0.0
 11
171.220223
 21
401.6732219999998
 31
0.0
  0
LINE
  5
A0C6
330
9F05
100
AcDbEntity
  8
1
  6
Continuous
100
AcDbLine
 10
171.643449
 20
371.673222
 30
0.0
 11
171.220223
 21
371.673222
 31
0.0
  0
LINE
  5
A0C7
330
9F05
100
AcDbEntity
  8
1
  6
Continuous
100
AcDbLine
 10
171.425634
 20
374.173222
 30
0.0
 11
132.336365
 21
374.173222
 31
0.0
  0
LINE
  5
A0C8
330
9F05
100
AcDbEntity
  8
1
  6
Continuous
100
AcDbLine
 10
171.425634
 20
399.173222
 30
0.0
 11
132.336365
 21
399.173222
 31
0.0
  0
LINE
  5
A0C9
330
9F05
100
AcDbEntity
  8
1
  6
Continuous
100
AcDbLine
 10
143.595446
 20
179.1903859999999
 30
0.0
 11
168.7327349999999
 21
193.703405
 31
0.0
  0
ARC
  5
A0CA
330
9F05
100
AcDbEntity
  8
1
  6
Continuous
100
AcDbCircle
 10
142.0954439999998
 20
181.7884629999998
 30
0.0
 40
3.0
100
AcDbArc
 50
201.58502
 51
299.9999899999999
  0
LINE
  5
A0CB
330
9F05
100
AcDbEntity
  8
1
  6
Continuous
100
AcDbLine
 10
177.2202229999997
 20
185.3390469999999
 30
0.0
 11
177.2202229999997
 21
156.313008
 31
0.0
  0
LINE
  5
A0CC
330
9F05
100
AcDbEntity
  8
1
  6
Continuous
100
AcDbLine
 10
183.220223
 20
185.3390469999999
 30
0.0
 11
183.220223
 21
156.313008
 31
0.0
  0
ARC
  5
A0CD
330
9F05
100
AcDbEntity
  8
1
  6
Continuous
100
AcDbCircle
 10
174.220223
 20
156.313008
 30
0.0
 40
3.0
100
AcDbArc
 50
261.58499
 51
0.0
  0
ARC
  5
A0CE
330
9F05
100
AcDbEntity
  8
1
  6
Continuous
100
AcDbCircle
 10
186.220223
 20
156.313008
 30
0.0
 40
3.0
100
AcDbArc
 50
179.9999799999999
 51
278.4149799999999
  0
ARC
  5
A0CF
330
9F05
100
AcDbEntity
  8
1
  6
Continuous
100
AcDbCircle
 10
174.220223
 20
185.3390469999999
 30
0.0
 40
3.0
100
AcDbArc
 50
0.0
 51
19.46448
  0
LINE
  5
A0D0
330
9F05
100
AcDbEntity
  8
1
  6
Continuous
100
AcDbLine
 10
146.595446
 20
173.994232
 30
0.0
 11
171.7327349999998
 21
188.507253
 31
0.0
  0
ARC
  5
A0D1
330
9F05
100
AcDbEntity
  8
1
  6
Continuous
100
AcDbCircle
 10
148.0954439999998
 20
171.3961569999999
 30
0.0
 40
3.0
100
AcDbArc
 50
119.9999999999999
 51
218.4149399999999
  0
LINE
  5
A0D2
330
9F05
100
AcDbEntity
  8
1
  6
Continuous
100
AcDbLine
 10
165.4725
 20
190.6664089999999
 30
0.0
 11
169.8527259999998
 21
193.1953329999998
 31
0.0
  0
LINE
  5
A0D3
330
9F05
100
AcDbEntity
  8
1
  6
Continuous
100
AcDbLine
 10
167.4725
 20
187.202306
 30
0.0
 11
171.8527269999999
 21
189.73123
 31
0.0
  0
ARC
  5
A0D4
330
9F05
100
AcDbEntity
  8
1
  6
Continuous
100
AcDbCircle
 10
167.232731
 20
197.4417359999999
 30
0.0
 40
3.0
100
AcDbArc
 50
42.747026
 51
60.000002
  0
ARC
  5
A0D5
330
9F05
100
AcDbEntity
  8
1
  6
Continuous
100
AcDbCircle
 10
167.232731
 20
196.3014809999999
 30
0.0
 40
3.0
100
AcDbArc
 50
300.0
 51
319.4644829999998
  0
ARC
  5
A0D6
330
9F05
100
AcDbEntity
  8
1
  6
Continuous
100
AcDbCircle
 10
173.232731
 20
185.909176
 30
0.0
 40
3.0
100
AcDbArc
 50
100.535521
 51
119.9999999999999
  0
ARC
  5
A0D7
330
9F05
100
AcDbEntity
  8
1
  6
Continuous
100
AcDbCircle
 10
180.2202229999998
 20
196.871609
 30
0.0
 40
16.0
100
AcDbArc
 50
202.8192199999999
 51
217.1807299999999
  0
LINE
  5
A0D8
330
9F05
100
AcDbEntity
  8
1
  6
Continuous
100
AcDbLine
 10
190.740287
 20
193.1072509999999
 30
0.0
 11
194.967957
 21
190.666405
 31
0.0
  0
LINE
  5
A0D9
330
9F05
100
AcDbEntity
  8
1
  6
Continuous
100
AcDbLine
 10
188.5877209999999
 20
189.731232
 30
0.0
 11
192.967957
 21
187.202302
 31
0.0
  0
ARC
  5
A0DA
330
9F05
100
AcDbEntity
  8
1
  6
Continuous
100
AcDbCircle
 10
186.220223
 20
185.3390469999999
 30
0.0
 40
3.0
100
AcDbArc
 50
160.5355199999999
 51
179.9999599999999
  0
ARC
  5
A0DB
330
9F05
100
AcDbEntity
  8
1
  6
Continuous
100
AcDbCircle
 10
187.2077149999999
 20
185.909175
 30
0.0
 40
3.0
100
AcDbArc
 50
60.00000799999997
 51
79.46449599999998
  0
ARC
  5
A0DC
330
9F05
100
AcDbEntity
  8
1
  6
Continuous
100
AcDbCircle
 10
193.2077149999997
 20
196.30148
 30
0.0
 40
3.0
100
AcDbArc
 50
229.5614609999999
 51
239.99995
  0
ARC
  5
A0DD
330
9F05
100
AcDbEntity
  8
1
  6
Continuous
100
AcDbCircle
 10
180.2202229999998
 20
196.871609
 30
0.0
 40
16.0
100
AcDbArc
 50
322.8192399999998
 51
337.18076
  0
ARC
  5
A0DE
330
9F05
100
AcDbEntity
  8
1
  6
Continuous
100
AcDbCircle
 10
230.220223
 20
386.673222
 30
0.0
 40
100.0
100
AcDbArc
 50
173.588108
 51
186.4119109999999
  0
LINE
  5
A0DF
330
9F05
100
AcDbEntity
  8
1
  6
Continuous
100
AcDbLine
 10
170.2229759999999
 20
372.599049
 30
0.0
 11
170.1058989999999
 21
374.1732299999998
 31
0.0
  0
ARC
  5
A0E0
330
9F05
100
AcDbEntity
  8
1
  6
Continuous
100
AcDbCircle
 10
171.220223
 20
372.673222
 30
0.0
 40
1.0
100
AcDbArc
 50
184.253503
 51
270.00002
  0
ARC
  5
A0E1
330
9F05
100
AcDbEntity
  8
1
  6
Continuous
100
AcDbCircle
 10
132.336365
 20
375.6732219999999
 30
0.0
 40
1.5
100
AcDbArc
 50
186.4118969999998
 51
270.00002
  0
ARC
  5
A0E2
330
9F05
100
AcDbEntity
  8
1
  6
Continuous
100
AcDbCircle
 10
171.220223
 20
400.6732219999998
 30
0.0
 40
1.0
100
AcDbArc
 50
90.0
 51
175.7465159999999
  0
LINE
  5
A0E3
330
9F05
100
AcDbEntity
  8
1
  6
Continuous
100
AcDbLine
 10
170.2229769999999
 20
400.7473949999998
 30
0.0
 11
170.1058999999998
 21
399.173222
 31
0.0
  0
ARC
  5
A0E4
330
9F05
100
AcDbEntity
  8
1
  6
Continuous
100
AcDbCircle
 10
132.336365
 20
397.673222
 30
0.0
 40
1.5
100
AcDbArc
 50
90.0
 51
173.588121
  0
ARC
  5
A0E5
330
9F05
100
AcDbEntity
  8
1
  6
Continuous
100
AcDbCircle
 10
142.0954439999998
 20
211.9547549999999
 30
0.0
 40
3.0
100
AcDbArc
 50
60.00000799999997
 51
158.41498
  0
LINE
  5
A0E6
330
9F05
100
AcDbEntity
  8
1
  6
Continuous
100
AcDbLine
 10
146.595446
 20
219.7489859999997
 30
0.0
 11
170.1474499999999
 21
206.151229
 31
0.0
  0
ARC
  5
A0E7
330
9F05
100
AcDbEntity
  8
1
  6
Continuous
100
AcDbCircle
 10
148.0954439999998
 20
222.347061
 30
0.0
 40
3.0
100
AcDbArc
 50
141.5850399999999
 51
239.99998
  0
ARC
  5
A0E8
330
9F05
100
AcDbEntity
  8
1
  6
Continuous
100
AcDbCircle
 10
218.3450019999999
 20
181.788462
 30
0.0
 40
3.0
100
AcDbArc
 50
239.99997
 51
338.41497
  0
ARC
  5
A0E9
330
9F05
100
AcDbEntity
  8
1
  6
Continuous
100
AcDbCircle
 10
212.3450019999999
 20
171.3961569999999
 30
0.0
 40
3.0
100
AcDbArc
 50
321.5849999999998
 51
60.000015
  0
ARC
  5
A0EA
330
9F05
100
AcDbEntity
  8
1
  6
Continuous
100
AcDbCircle
 10
212.3450019999999
 20
222.347061
 30
0.0
 40
3.0
100
AcDbArc
 50
299.9999799999999
 51
38.41499499999999
  0
ARC
  5
A0EB
330
9F05
100
AcDbEntity
  8
1
  6
Continuous
100
AcDbCircle
 10
218.3450019999999
 20
211.9547559999999
 30
0.0
 40
3.0
100
AcDbArc
 50
21.585028
 51
120.00003
  0
ARC
  5
A0EC
330
9F05
100
AcDbEntity
  8
1
  6
Continuous
100
AcDbCircle
 10
57.22022299999999
 20
246.871609
 30
0.0
 40
100.0
100
AcDbArc
 50
263.5880899999999
 51
276.4118899999999
  0
ARC
  5
A0ED
330
9F05
100
AcDbEntity
  8
1
  6
Continuous
100
AcDbCircle
 10
46.220223
 20
148.987751
 30
0.0
 40
1.5
100
AcDbArc
 50
179.9999799999999
 51
263.5880899999999
  0
ARC
  5
A0EE
330
9F05
100
AcDbEntity
  8
1
  6
Continuous
100
AcDbCircle
 10
68.220223
 20
148.987751
 30
0.0
 40
1.5
100
AcDbArc
 50
276.4118799999998
 51
0.0
  0
LINE
  5
A0EF
330
9F05
100
AcDbEntity
  8
1
  6
Continuous
100
AcDbLine
 10
44.72022299999999
 20
148.987751
 30
0.0
 11
44.72022299999999
 21
244.7554669999999
 31
0.0
  0
LINE
  5
A0F0
330
9F05
100
AcDbEntity
  8
1
  6
Continuous
100
AcDbLine
 10
69.720223
 20
148.987751
 30
0.0
 11
69.720223
 21
244.7554669999999
 31
0.0
  0
LINE
  5
A0F1
330
9F05
100
AcDbEntity
  8
1
  6
Continuous
100
AcDbLine
 10
43.14605
 20
186.874362
 30
0.0
 11
44.720231
 21
186.7572849999999
 31
0.0
  0
ARC
  5
A0F2
330
9F05
100
AcDbEntity
  8
1
  6
Continuous
100
AcDbCircle
 10
43.22022299999999
 20
187.871609
 30
0.0
 40
1.0
100
AcDbArc
 50
179.9999799999999
 51
265.74649
  0
LINE
  5
A0F3
330
9F05
100
AcDbEntity
  8
1
  6
Continuous
100
AcDbLine
 10
43.14605
 20
206.868855
 30
0.0
 11
44.720231
 21
206.9859329999999
 31
0.0
  0
ARC
  5
A0F4
330
9F05
100
AcDbEntity
  8
1
  6
Continuous
100
AcDbCircle
 10
43.22022299999999
 20
205.8716089999998
 30
0.0
 40
1.0
100
AcDbArc
 50
94.25350299999999
 51
180.00002
  0
LINE
  5
A0F5
330
9F05
100
AcDbEntity
  8
1
  6
Continuous
100
AcDbLine
 10
42.22022299999999
 20
205.8716089999998
 30
0.0
 11
42.22022299999999
 21
187.871609
 31
0.0
  0
LINE
  5
A0F6
330
9F05
100
AcDbEntity
  8
1
  6
Continuous
100
AcDbLine
 10
71.29439599999997
 20
186.8743629999999
 30
0.0
 11
69.720223
 21
186.7572859999999
 31
0.0
  0
ARC
  5
A0F7
330
9F05
100
AcDbEntity
  8
1
  6
Continuous
100
AcDbCircle
 10
71.22022300000002
 20
187.871609
 30
0.0
 40
1.0
100
AcDbArc
 50
274.2534799999999
 51
0.0
  0
LINE
  5
A0F8
330
9F05
100
AcDbEntity
  8
1
  6
Continuous
100
AcDbLine
 10
71.29439599999997
 20
206.868855
 30
0.0
 11
69.720223
 21
206.9859319999999
 31
0.0
  0
ARC
  5
A0F9
330
9F05
100
AcDbEntity
  8
1
  6
Continuous
100
AcDbCircle
 10
71.22022300000002
 20
205.8716089999998
 30
0.0
 40
1.0
100
AcDbArc
 50
0.0
 51
85.74651600000001
  0
LINE
  5
A0FA
330
9F05
100
AcDbEntity
  8
1
  6
Continuous
100
AcDbLine
 10
72.220223
 20
205.8716089999998
 30
0.0
 11
72.220223
 21
187.871609
 31
0.0
  0
ARC
  5
A0FB
330
9F05
100
AcDbEntity
  8
1
  6
Continuous
100
AcDbCircle
 10
57.22022299999999
 20
146.871609
 30
0.0
 40
100.0
100
AcDbArc
 50
83.58810799999998
 51
96.411911
  0
ARC
  5
A0FC
330
9F05
100
AcDbEntity
  8
1
  6
Continuous
100
AcDbCircle
 10
46.220223
 20
244.7554669999999
 30
0.0
 40
1.5
100
AcDbArc
 50
96.41189699999999
 51
180.00002
  0
ARC
  5
A0FD
330
9F05
100
AcDbEntity
  8
1
  6
Continuous
100
AcDbCircle
 10
68.220223
 20
244.7554669999999
 30
0.0
 40
1.5
100
AcDbArc
 50
0.0
 51
83.58812099999999
  0
ARC
  5
A0FE
330
9F05
100
AcDbEntity
  8
1
  6
Continuous
100
AcDbCircle
 10
310.3197999999999
 20
146.8716249999999
 30
0.0
 40
100.0
100
AcDbArc
 50
83.58810799999998
 51
96.411911
  0
ARC
  5
A0FF
330
9F05
100
AcDbEntity
  8
1
  6
Continuous
100
AcDbCircle
 10
310.3197999999999
 20
246.8716249999999
 30
0.0
 40
100.0
100
AcDbArc
 50
263.5880899999999
 51
276.4118899999999
  0
LINE
  5
A100
330
9F05
100
AcDbEntity
  8
1
  6
Continuous
100
AcDbLine
 10
297.8197999999998
 20
244.755483
 30
0.0
 11
297.8197999999998
 21
148.987767
 31
0.0
  0
ARC
  5
A101
330
9F05
100
AcDbEntity
  8
1
  6
Continuous
100
AcDbCircle
 10
299.3197999999998
 20
148.987767
 30
0.0
 40
1.5
100
AcDbArc
 50
179.9999799999999
 51
263.5880899999999
  0
LINE
  5
A102
330
9F05
100
AcDbEntity
  8
1
  6
Continuous
100
AcDbLine
 10
295.3198
 20
205.8716249999999
 30
0.0
 11
295.3198
 21
187.871625
 31
0.0
  0
ARC
  5
A103
330
9F05
100
AcDbEntity
  8
1
  6
Continuous
100
AcDbCircle
 10
296.3197999999998
 20
187.871625
 30
0.0
 40
1.0
100
AcDbArc
 50
179.9999799999999
 51
265.74649
  0
LINE
  5
A104
330
9F05
100
AcDbEntity
  8
1
  6
Continuous
100
AcDbLine
 10
296.245627
 20
186.874379
 30
0.0
 11
297.819808
 21
186.757301
 31
0.0
  0
ARC
  5
A105
330
9F05
100
AcDbEntity
  8
1
  6
Continuous
100
AcDbCircle
 10
296.3197999999998
 20
205.8716249999999
 30
0.0
 40
1.0
100
AcDbArc
 50
94.25350299999999
 51
180.00002
  0
LINE
  5
A106
330
9F05
100
AcDbEntity
  8
1
  6
Continuous
100
AcDbLine
 10
296.245627
 20
206.8688719999999
 30
0.0
 11
297.819808
 21
206.985949
 31
0.0
  0
ARC
  5
A107
330
9F05
100
AcDbEntity
  8
1
  6
Continuous
100
AcDbCircle
 10
299.3197999999998
 20
244.755483
 30
0.0
 40
1.5
100
AcDbArc
 50
96.41189699999999
 51
180.00002
  0
LINE
  5
A108
330
9F05
100
AcDbEntity
  8
1
  6
Continuous
100
AcDbLine
 10
322.8197999999999
 20
244.755483
 30
0.0
 11
322.8197999999999
 21
148.987767
 31
0.0
  0
ARC
  5
A109
330
9F05
100
AcDbEntity
  8
1
  6
Continuous
100
AcDbCircle
 10
321.3197999999998
 20
148.987767
 30
0.0
 40
1.5
100
AcDbArc
 50
276.4118799999998
 51
0.0
  0
LINE
  5
A10A
330
9F05
100
AcDbEntity
  8
1
  6
Continuous
100
AcDbLine
 10
325.3197999999998
 20
205.8716249999999
 30
0.0
 11
325.3197999999998
 21
187.871625
 31
0.0
  0
ARC
  5
A10B
330
9F05
100
AcDbEntity
  8
1
  6
Continuous
100
AcDbCircle
 10
324.3198
 20
187.871625
 30
0.0
 40
1.0
100
AcDbArc
 50
274.2534799999999
 51
0.0
  0
LINE
  5
A10C
330
9F05
100
AcDbEntity
  8
1
  6
Continuous
100
AcDbLine
 10
324.393973
 20
186.87438
 30
0.0
 11
322.8197999999999
 21
186.757302
 31
0.0
  0
ARC
  5
A10D
330
9F05
100
AcDbEntity
  8
1
  6
Continuous
100
AcDbCircle
 10
324.3198
 20
205.8716249999999
 30
0.0
 40
1.0
100
AcDbArc
 50
0.0
 51
85.74651600000001
  0
LINE
  5
A10E
330
9F05
100
AcDbEntity
  8
1
  6
Continuous
100
AcDbLine
 10
324.393973
 20
206.8688709999999
 30
0.0
 11
322.8197999999999
 21
206.985948
 31
0.0
  0
ARC
  5
A10F
330
9F05
100
AcDbEntity
  8
1
  6
Continuous
100
AcDbCircle
 10
321.3197999999998
 20
244.755483
 30
0.0
 40
1.5
100
AcDbArc
 50
0.0
 51
83.58812099999999
  0
LINE
  5
A110
330
9F05
100
AcDbEntity
  8
1
  6
Continuous
100
AcDbLine
 10
132.336365
 20
61.371609
 30
0.0
 11
228.1040809999999
 21
61.371609
 31
0.0
  0
LINE
  5
A111
330
9F05
100
AcDbEntity
  8
1
  6
Continuous
100
AcDbLine
 10
132.336365
 20
86.37160899999996
 30
0.0
 11
228.1040809999999
 21
86.37160899999996
 31
0.0
  0
ARC
  5
A112
330
9F05
100
AcDbEntity
  8
1
  6
Continuous
100
AcDbCircle
 10
230.220223
 20
73.87160899999997
 30
0.0
 40
100.0
100
AcDbArc
 50
173.588108
 51
186.4119109999999
  0
ARC
  5
A113
330
9F05
100
AcDbEntity
  8
1
  6
Continuous
100
AcDbCircle
 10
132.336365
 20
62.87160899999999
 30
0.0
 40
1.5
100
AcDbArc
 50
186.4118969999998
 51
270.00002
  0
ARC
  5
A114
330
9F05
100
AcDbEntity
  8
1
  6
Continuous
100
AcDbCircle
 10
132.336365
 20
84.87160899999997
 30
0.0
 40
1.5
100
AcDbArc
 50
90.0
 51
173.588121
  0
ARC
  5
A115
330
9F05
100
AcDbEntity
  8
1
  6
Continuous
100
AcDbCircle
 10
171.220223
 20
59.871609
 30
0.0
 40
1.0
100
AcDbArc
 50
184.253503
 51
270.00002
  0
LINE
  5
A116
330
9F05
100
AcDbEntity
  8
1
  6
Continuous
100
AcDbLine
 10
170.2229759999999
 20
59.79743599999999
 30
0.0
 11
170.1058989999999
 21
61.371617
 31
0.0
  0
LINE
  5
A117
330
9F05
100
AcDbEntity
  8
1
  6
Continuous
100
AcDbLine
 10
189.220223
 20
58.871609
 30
0.0
 11
171.220223
 21
58.871609
 31
0.0
  0
ARC
  5
A118
330
9F05
100
AcDbEntity
  8
1
  6
Continuous
100
AcDbCircle
 10
171.220223
 20
87.87160899999998
 30
0.0
 40
1.0
100
AcDbArc
 50
90.0
 51
175.7465159999999
  0
LINE
  5
A119
330
9F05
100
AcDbEntity
  8
1
  6
Continuous
100
AcDbLine
 10
170.2229769999999
 20
87.94578199999998
 30
0.0
 11
170.1058999999998
 21
86.37160899999996
 31
0.0
  0
LINE
  5
A11A
330
9F05
100
AcDbEntity
  8
1
  6
Continuous
100
AcDbLine
 10
189.220223
 20
88.87160899999996
 30
0.0
 11
171.220223
 21
88.87160899999996
 31
0.0
  0
LINE
  5
A11B
330
9F05
100
AcDbEntity
  8
1
  6
Continuous
100
AcDbLine
 10
190.2174699999999
 20
59.79743599999999
 30
0.0
 11
190.3345469999999
 21
61.371617
 31
0.0
  0
ARC
  5
A11C
330
9F05
100
AcDbEntity
  8
1
  6
Continuous
100
AcDbCircle
 10
189.220223
 20
59.871609
 30
0.0
 40
1.0
100
AcDbArc
 50
269.99998
 51
355.7464899999998
  0
ARC
  5
A11D
330
9F05
100
AcDbEntity
  8
1
  6
Continuous
100
AcDbCircle
 10
189.220223
 20
87.87160899999998
 30
0.0
 40
1.0
100
AcDbArc
 50
4.253479999999997
 51
90.0
  0
LINE
  5
A11E
330
9F05
100
AcDbEntity
  8
1
  6
Continuous
100
AcDbLine
 10
190.217469
 20
87.94578199999998
 30
0.0
 11
190.3345459999999
 21
86.37160899999996
 31
0.0
  0
ARC
  5
A11F
330
9F05
100
AcDbEntity
  8
1
  6
Continuous
100
AcDbCircle
 10
130.220223
 20
73.87160899999997
 30
0.0
 40
100.0
100
AcDbArc
 50
353.5880899999999
 51
6.411889999999998
  0
ARC
  5
A120
330
9F05
100
AcDbEntity
  8
1
  6
Continuous
100
AcDbCircle
 10
228.1040809999999
 20
62.87160899999999
 30
0.0
 40
1.5
100
AcDbArc
 50
269.99998
 51
353.5880899999999
  0
ARC
  5
A121
330
9F05
100
AcDbEntity
  8
1
  6
Continuous
100
AcDbCircle
 10
228.1040809999999
 20
84.87160899999997
 30
0.0
 40
1.5
100
AcDbArc
 50
6.41188
 51
90.0
  0
ARC
  5
A122
330
9F05
100
AcDbEntity
  8
1
  6
Continuous
100
AcDbCircle
 10
438.2202229999998
 20
196.871609
 30
0.0
 40
50.0
100
AcDbArc
 50
132.5014879999999
 51
83.378113
  0
ARC
  5
A123
330
9F05
100
AcDbEntity
  8
1
  6
Continuous
100
AcDbCircle
 10
438.2202229999998
 20
196.871609
 30
0.0
 40
44.0
100
AcDbArc
 50
134.2699669999997
 51
81.60963399999998
  0
LINE
  5
A124
330
9F05
100
AcDbEntity
  8
1
  6
Continuous
100
AcDbLine
 10
441.220223
 20
185.3390469999999
 30
0.0
 11
441.220223
 21
156.313008
 31
0.0
  0
LINE
  5
A125
330
9F05
100
AcDbEntity
  8
1
  6
Continuous
100
AcDbLine
 10
446.707722
 20
188.507251
 30
0.0
 11
471.845009
 21
173.994232
 31
0.0
  0
LINE
  5
A126
330
9F05
100
AcDbEntity
  8
1
  6
Continuous
100
AcDbLine
 10
435.2202229999998
 20
185.3390469999999
 30
0.0
 11
435.2202229999998
 21
156.313008
 31
0.0
  0
LINE
  5
A127
330
9F05
100
AcDbEntity
  8
1
  6
Continuous
100
AcDbLine
 10
404.5954459999999
 20
173.994232
 30
0.0
 11
429.7327349999997
 21
188.507253
 31
0.0
  0
ARC
  5
A128
330
9F05
100
AcDbEntity
  8
1
  6
Continuous
100
AcDbCircle
 10
406.0954439999998
 20
171.3961569999999
 30
0.0
 40
3.0
100
AcDbArc
 50
119.9999999999999
 51
218.4149399999999
  0
ARC
  5
A129
330
9F05
100
AcDbEntity
  8
1
  6
Continuous
100
AcDbCircle
 10
444.2202229999998
 20
156.313008
 30
0.0
 40
3.0
100
AcDbArc
 50
179.9999799999999
 51
278.4149799999999
  0
ARC
  5
A12A
330
9F05
100
AcDbEntity
  8
1
  6
Continuous
100
AcDbCircle
 10
432.220223
 20
156.313008
 30
0.0
 40
3.0
100
AcDbArc
 50
261.58499
 51
0.0
  0
ARC
  5
A12B
330
9F05
100
AcDbEntity
  8
1
  6
Continuous
100
AcDbCircle
 10
470.345002
 20
171.3961569999999
 30
0.0
 40
3.0
100
AcDbArc
 50
321.5849999999998
 51
60.000015
  0
LINE
  5
A12C
330
9F05
100
AcDbEntity
  8
1
  6
Continuous
100
AcDbLine
 10
446.587721
 20
189.731232
 30
0.0
 11
450.967957
 21
187.202302
 31
0.0
  0
LINE
  5
A12D
330
9F05
100
AcDbEntity
  8
1
  6
Continuous
100
AcDbLine
 10
448.5877209999999
 20
193.195335
 30
0.0
 11
452.9679569999998
 21
190.666405
 31
0.0
  0
ARC
  5
A12E
330
9F05
100
AcDbEntity
  8
1
  6
Continuous
100
AcDbCircle
 10
406.0954439999998
 20
222.347061
 30
0.0
 40
3.0
100
AcDbArc
 50
141.5850399999999
 51
239.99998
  0
LINE
  5
A12F
330
9F05
100
AcDbEntity
  8
1
  6
Continuous
100
AcDbLine
 10
404.5954459999999
 20
219.7489859999997
 30
0.0
 11
416.3237459999998
 21
212.977649
 31
0.0
  0
LINE
  5
A130
330
9F05
100
AcDbEntity
  8
1
  6
Continuous
100
AcDbLine
 10
401.5954459999998
 20
214.5528319999999
 30
0.0
 11
422.2489289999998
 21
202.6285389999999
 31
0.0
  0
LINE
  5
A131
330
9F05
100
AcDbEntity
  8
1
  6
Continuous
100
AcDbLine
 10
401.5954459999998
 20
179.1903859999999
 30
0.0
 11
426.732735
 21
193.703405
 31
0.0
  0
ARC
  5
A132
330
9F05
100
AcDbEntity
  8
1
  6
Continuous
100
AcDbCircle
 10
400.095444
 20
181.7884629999998
 30
0.0
 40
3.0
100
AcDbArc
 50
201.58502
 51
299.9999899999999
  0
ARC
  5
A133
330
9F05
100
AcDbEntity
  8
1
  6
Continuous
100
AcDbCircle
 10
400.095444
 20
211.9547549999999
 30
0.0
 40
3.0
100
AcDbArc
 50
60.00000799999997
 51
158.41498
  0
ARC
  5
A134
330
9F05
100
AcDbEntity
  8
1
  6
Continuous
100
AcDbCircle
 10
425.2327309999998
 20
196.3014809999999
 30
0.0
 40
3.0
100
AcDbArc
 50
300.0
 51
310.438531
  0
LINE
  5
A135
330
9F05
100
AcDbEntity
  8
1
  6
Continuous
100
AcDbLine
 10
423.4725
 20
190.6664089999999
 30
0.0
 11
427.700159
 21
193.107249
 31
0.0
  0
LINE
  5
A136
330
9F05
100
AcDbEntity
  8
1
  6
Continuous
100
AcDbLine
 10
425.4725
 20
187.202306
 30
0.0
 11
429.852727
 21
189.73123
 31
0.0
  0
ARC
  5
A137
330
9F05
100
AcDbEntity
  8
1
  6
Continuous
100
AcDbCircle
 10
431.2327309999998
 20
185.909176
 30
0.0
 40
3.0
100
AcDbArc
 50
100.535521
 51
119.9999999999999
  0
ARC
  5
A138
330
9F05
100
AcDbEntity
  8
1
  6
Continuous
100
AcDbCircle
 10
438.2202229999998
 20
196.871609
 30
0.0
 40
16.0
100
AcDbArc
 50
202.8192199999999
 51
217.1807299999999
  0
ARC
  5
A139
330
9F05
100
AcDbEntity
  8
1
  6
Continuous
100
AcDbCircle
 10
432.220223
 20
185.3390469999999
 30
0.0
 40
3.0
100
AcDbArc
 50
0.0
 51
19.46448
  0
ARC
  5
A13A
330
9F05
100
AcDbEntity
  8
1
  6
Continuous
100
AcDbCircle
 10
444.2202229999998
 20
185.3390469999999
 30
0.0
 40
3.0
100
AcDbArc
 50
160.5355199999999
 51
179.9999599999999
  0
ARC
  5
A13B
330
9F05
100
AcDbEntity
  8
1
  6
Continuous
100
AcDbCircle
 10
445.207715
 20
185.909175
 30
0.0
 40
3.0
100
AcDbArc
 50
60.00000799999997
 51
79.46449599999998
  0
ARC
  5
A13C
330
9F05
100
AcDbEntity
  8
1
  6
Continuous
100
AcDbCircle
 10
470.345002
 20
222.347061
 30
0.0
 40
3.0
100
AcDbArc
 50
299.9999799999999
 51
38.41499499999999
  0
LINE
  5
A13D
330
9F05
100
AcDbEntity
  8
1
  6
Continuous
100
AcDbLine
 10
448.885375
 20
194.178185
 30
0.0
 11
474.845009
 21
179.1903859999999
 31
0.0
  0
ARC
  5
A13E
330
9F05
100
AcDbEntity
  8
1
  6
Continuous
100
AcDbCircle
 10
438.2202229999998
 20
196.871609
 30
0.0
 40
16.0
100
AcDbArc
 50
322.8192399999998
 51
337.18076
  0
ARC
  5
A13F
330
9F05
100
AcDbEntity
  8
1
  6
Continuous
100
AcDbCircle
 10
476.3450019999998
 20
181.788462
 30
0.0
 40
3.0
100
AcDbArc
 50
239.99997
 51
338.41497
  0
LINE
  5
A140
330
9F05
100
AcDbEntity
  8
1
  6
Continuous
100
AcDbLine
 10
448.988984
 20
199.624851
 30
0.0
 11
474.845009
 21
214.5528319999999
 31
0.0
  0
LINE
  5
A141
330
9F05
100
AcDbEntity
  8
1
  6
Continuous
100
AcDbLine
 10
448.2929959999998
 20
206.151225
 30
0.0
 11
471.845009
 21
219.7489859999997
 31
0.0
  0
ARC
  5
A142
330
9F05
100
AcDbEntity
  8
1
  6
Continuous
100
AcDbCircle
 10
476.3450019999998
 20
211.9547559999999
 30
0.0
 40
3.0
100
AcDbArc
 50
21.585028
 51
120.00003
  0
ENDSEC
  0
SECTION
  2
OBJECTS
  0
DICTIONARY
  5
9EF3
330
0
100
AcDbDictionary
281
     1
  3
ACAD_CIP_PREVIOUS_PRODUCT_INFO
350
A1C1
  3
ACAD_COLOR
350
A1A3
  3
ACAD_DETAILVIEWSTYLE
350
A1BC
  3
ACAD_GROUP
350
9EF4
  3
ACAD_LAYOUT
350
9F00
  3
ACAD_MATERIAL
350
A171
  3
ACAD_MLEADERSTYLE
350
A1B8
  3
ACAD_MLINESTYLE
350
9EFD
  3
ACAD_PLOTSETTINGS
350
9EFF
  3
ACAD_PLOTSTYLENAME
350
A16F
  3
ACAD_SCALELIST
350
A1A6
  3
ACAD_SECTIONVIEWSTYLE
350
A1BA
  3
ACAD_TABLESTYLE
350
A1A4
  3
ACAD_VISUALSTYLE
350
A18A
  3
ACDB_RECOMPOSE_DATA
350
A1DF
  3
AcDbVariableDictionary
350
A1D2
  3
DWGPROPS
350
A1E0
  0
DICTIONARY
  5
A1C2
330
9EF7
100
AcDbDictionary
280
     1
281
     1
  3
ADSK_XREC_LAYER_RECONCILED
360
A1C3
  0
DICTIONARY
  5
A1C4
330
9F0D
100
AcDbDictionary
280
     1
281
     1
  3
ADSK_XREC_LAYER_RECONCILED
360
A1C5
  0
DICTIONARY
  5
A1C6
330
9F0E
100
AcDbDictionary
280
     1
281
     1
  3
ADSK_XREC_LAYER_RECONCILED
360
A1C7
  0
DICTIONARY
  5
A1C8
330
9F0F
100
AcDbDictionary
280
     1
281
     1
  3
ADSK_XREC_LAYER_RECONCILED
360
A1C9
  0
DICTIONARY
  5
A1CA
330
9F10
100
AcDbDictionary
280
     1
281
     1
  3
ADSK_XREC_LAYER_RECONCILED
360
A1CB
  0
DICTIONARY
  5
A1CC
330
9F11
100
AcDbDictionary
280
     1
281
     1
  3
ADSK_XREC_LAYER_RECONCILED
360
A1CD
  0
DICTIONARY
  5
A1CE
330
9F12
100
AcDbDictionary
280
     1
281
     1
  3
ADSK_XREC_LAYER_RECONCILED
360
A1CF
  0
DICTIONARY
  5
A1D0
330
9F13
100
AcDbDictionary
280
     1
281
     1
  3
ADSK_XREC_LAYER_RECONCILED
360
A1D1
  0
DICTIONARY
  5
A14D
330
9F05
100
AcDbDictionary
281
     1
  3
ACAD_LAYOUTSELFREF
350
A16B
  0
DICTIONARY
  5
A14B
330
9F01
100
AcDbDictionary
281
     1
  3
ACAD_LAYOUTSELFREF
350
A16A
  0
XRECORD
  5
A1C1
102
{ACAD_REACTORS
330
9EF3
102
}
330
9EF3
100
AcDbXrecord
280
     1
300
ACDLT
300
2014
300
ACDLT_F_S
  0
DICTIONARY
  5
A1A3
102
{ACAD_REACTORS
330
9EF3
102
}
330
9EF3
100
AcDbDictionary
281
     1
  0
DICTIONARY
  5
A1BC
102
{ACAD_REACTORS
330
9EF3
102
}
330
9EF3
100
AcDbDictionary
281
     1
  3
Imperial24
350
A1BD
  0
DICTIONARY
  5
9EF4
102
{ACAD_REACTORS
330
9EF3
102
}
330
9EF3
100
AcDbDictionary
281
     1
  0
DICTIONARY
  5
9F00
102
{ACAD_REACTORS
330
9EF3
102
}
330
9EF3
100
AcDbDictionary
281
     1
  3
Model
350
A1BE
  3
レイアウト1
350
A1BF
  0
DICTIONARY
  5
A171
102
{ACAD_REACTORS
330
9EF3
102
}
330
9EF3
100
AcDbDictionary
281
     1
  3
ByBlock
350
A17A
  3
ByLayer
350
A172
  3
Global
350
A182
  0
DICTIONARY
  5
A1B8
102
{ACAD_REACTORS
330
9EF3
102
}
330
9EF3
100
AcDbDictionary
281
     1
  3
Standard
350
A1B9
  0
DICTIONARY
  5
9EFD
102
{ACAD_REACTORS
330
9EF3
102
}
330
9EF3
100
AcDbDictionary
281
     1
  3
STANDARD
350
9EFE
  0
DICTIONARY
  5
9EFF
102
{ACAD_REACTORS
330
9EF3
102
}
330
9EF3
100
AcDbDictionary
281
     1
  0
ACDBDICTIONARYWDFLT
  5
A16F
102
{ACAD_REACTORS
330
9EF3
102
}
330
9EF3
100
AcDbDictionary
281
     1
  3
Normal
350
A170
100
AcDbDictionaryWithDefault
340
A170
  0
DICTIONARY
  5
A1A6
102
{ACAD_REACTORS
330
9EF3
102
}
330
9EF3
100
AcDbDictionary
281
     1
  3
A0
350
A1A7
  3
A1
350
A1A8
  3
A2
350
A1A9
  3
A3
350
A1AA
  3
A4
350
A1AB
  3
A5
350
A1AC
  3
A6
350
A1AD
  3
A7
350
A1AE
  3
A8
350
A1AF
  3
A9
350
A1B0
  3
B0
350
A1B1
  3
B1
350
A1B2
  3
B2
350
A1B3
  3
B3
350
A1B4
  3
B4
350
A1B5
  3
B5
350
A1B6
  3
B6
350
A1B7
  0
DICTIONARY
  5
A1BA
102
{ACAD_REACTORS
330
9EF3
102
}
330
9EF3
100
AcDbDictionary
281
     1
  3
Imperial24
350
A1BB
  0
DICTIONARY
  5
A1A4
102
{ACAD_REACTORS
330
9EF3
102
}
330
9EF3
100
AcDbDictionary
281
     1
  3
Standard
350
A1A5
  0
DICTIONARY
  5
A18A
102
{ACAD_REACTORS
330
9EF3
102
}
330
9EF3
100
AcDbDictionary
281
     1
  3
2dWireframe
350
A190
  3
Basic
350
A18F
  3
Brighten
350
A196
  3
ColorChange
350
A19A
  3
Conceptual
350
A193
  3
Dim
350
A195
  3
EdgeColorOff
350
A1A2
  3
Facepattern
350
A199
  3
Flat
350
A18B
  3
FlatWithEdges
350
A18C
  3
Gouraud
350
A18D
  3
GouraudWithEdges
350
A18E
  3
Hidden
350
A192
  3
JitterOff
350
A1A0
  3
Linepattern
350
A198
  3
OverhangOff
350
A1A1
  3
Realistic
350
A194
  3
Shaded
350
A19F
  3
Shaded with edges
350
A19E
  3
Shades of Gray
350
A19B
  3
Sketchy
350
A19C
  3
Thicken
350
A197
  3
Wireframe
350
A191
  3
X-Ray
350
A19D
  0
XRECORD
  5
A1DF
102
{ACAD_REACTORS
330
9EF3
102
}
330
9EF3
100
AcDbXrecord
280
     1
 90
        1
330
A1A5
  0
DICTIONARY
  5
A1D2
102
{ACAD_REACTORS
330
9EF3
102
}
330
9EF3
100
AcDbDictionary
281
     1
  3
CANNOSCALE
350
A1D7
  3
CMLEADERSTYLE
350
A1D4
  3
CTABLESTYLE
350
A1D3
  3
CVIEWDETAILSTYLE
350
A1D5
  3
CVIEWSECTIONSTYLE
350
A1D6
  3
DIMASSOC
350
A1DA
  3
INDEXCTL
350
A1D9
  3
SORTENTS
350
A1D8
  3
XCLIPFRAME
350
A1DB
  0
XRECORD
  5
A1E0
102
{ACAD_REACTORS
330
9EF3
102
}
330
9EF3
100
AcDbXrecord
280
     1
  1
DWGPROPS COOKIE
  2

  3

  4

  6

  7

  8
Yoshitsune
  9

300
=
301
=
302
=
303
=
304
=
305
=
306
=
307
=
308
=
309
=
 40
0.1450397800925926
 41
2451301.435073033
 42
2457192.690047222
  1

 90
        0
  0
XRECORD
  5
A1C3
102
{ACAD_REACTORS
330
A1C2
102
}
330
A1C2
100
AcDbXrecord
280
     1
290
     1
  0
XRECORD
  5
A1C5
102
{ACAD_REACTORS
330
A1C4
102
}
330
A1C4
100
AcDbXrecord
280
     1
290
     1
  0
XRECORD
  5
A1C7
102
{ACAD_REACTORS
330
A1C6
102
}
330
A1C6
100
AcDbXrecord
280
     1
290
     1
  0
XRECORD
  5
A1C9
102
{ACAD_REACTORS
330
A1C8
102
}
330
A1C8
100
AcDbXrecord
280
     1
290
     1
  0
XRECORD
  5
A1CB
102
{ACAD_REACTORS
330
A1CA
102
}
330
A1CA
100
AcDbXrecord
280
     1
290
     1
  0
XRECORD
  5
A1CD
102
{ACAD_REACTORS
330
A1CC
102
}
330
A1CC
100
AcDbXrecord
280
     1
290
     1
  0
XRECORD
  5
A1CF
102
{ACAD_REACTORS
330
A1CE
102
}
330
A1CE
100
AcDbXrecord
280
     1
290
     1
  0
XRECORD
  5
A1D1
102
{ACAD_REACTORS
330
A1D0
102
}
330
A1D0
100
AcDbXrecord
280
     1
290
     1
  0
XRECORD
  5
A16B
102
{ACAD_REACTORS
330
A14D
102
}
330
A14D
100
AcDbXrecord
280
     1
340
9F05
  0
XRECORD
  5
A16A
102
{ACAD_REACTORS
330
A14B
102
}
330
A14B
100
AcDbXrecord
280
     1
340
9F01
  0
ACDBDETAILVIEWSTYLE
  5
A1BD
102
{ACAD_XDICTIONARY
360
A218
102
}
102
{ACAD_REACTORS
330
A1BC
102
}
330
A1BC
100
AcDbModelDocViewStyle
 70
     0
  3
Imperial24
290
     0
100
AcDbDetailViewStyle
 70
     0
 71
     0
 90
        3
 71
     1
340
9EF8
 40
0.24
340
0
 40
0.24
300

 40
0.36
280
     3
 71
     2
340
9EFC
 90
       25
 71
     3
340
9EF8
 40
0.24
 90
        1
 40
0.75
 90
        1
300
%<\AcVar ViewType \f "%tc1">% %<\AcVar ViewDetailId>%\PSCALE %<\AcVar ViewScale \f "%sn">%
 71
     4
340
9EFC
 90
       25
340
9EFC
 90
       25
280
     0
  0
LAYOUT
  5
A1BE
102
{ACAD_XDICTIONARY
360
A21A
102
}
102
{ACAD_REACTORS
330
9F00
102
}
330
9F00
100
AcDbPlotSettings
  1

  2
Canon LBP9100C
  4

  6

 40
0.0
 41
0.0
 42
0.0
 43
0.0
 44
0.0
 45
0.0
 46
0.0
 47
0.0
 48
0.0
 49
0.0
140
0.0
141
0.0
142
1.0
143
1.0
 70
  1712
 72
     0
 73
     0
 74
     0
  7

 75
     0
147
1.0
148
0.0
149
0.0
100
AcDbLayout
  1
Model
 70
     1
 71
     0
 10
0.0
 20
0.0
 11
12.0
 21
9.0
 12
0.0
 22
0.0
 32
0.0
 14
0.0
 24
0.0
 34
0.0
 15
0.0
 25
0.0
 35
0.0
146
0.0
 13
0.0
 23
0.0
 33
0.0
 16
1.0
 26
0.0
 36
0.0
 17
0.0
 27
1.0
 37
0.0
 76
     0
330
9F05
331
A169
  0
LAYOUT
  5
A1BF
102
{ACAD_XDICTIONARY
360
A21C
102
}
102
{ACAD_REACTORS
330
9F00
102
}
330
9F00
100
AcDbPlotSettings
  1

  2
Canon LBP9100C
  4

  6

 40
0.0
 41
0.0
 42
0.0
 43
0.0
 44
0.0
 45
0.0
 46
0.0
 47
0.0
 48
0.0
 49
0.0
140
0.0
141
0.0
142
1.0
143
1.0
 70
   688
 72
     0
 73
     0
 74
     5
  7

 75
    16
147
1.0
148
0.0
149
0.0
100
AcDbLayout
  1
レイアウト1
 70
     0
 71
     1
 10
0.0
 20
0.0
 11
420.0
 21
297.0
 12
0.0
 22
0.0
 32
0.0
 14
1.000000000000000E+20
 24
1.000000000000000E+20
 34
1.000000000000000E+20
 15
-1.000000000000000E+20
 25
-1.000000000000000E+20
 35
-1.000000000000000E+20
146
0.0
 13
0.0
 23
0.0
 33
0.0
 16
1.0
 26
0.0
 36
0.0
 17
0.0
 27
1.0
 37
0.0
 76
     0
330
9F01
  0
MATERIAL
  5
A17A
102
{ACAD_XDICTIONARY
360
A17B
102
}
102
{ACAD_REACTORS
330
A171
102
}
330
A171
100
AcDbMaterial
  1
ByBlock
 72
     0
 43
0.0208333333333333
 43
0.0
 43
0.0
 43
0.0
 43
0.0
 43
0.0208333333333333
 43
0.0
 43
0.0
 43
0.0
 43
0.0
 43
1.0
 43
0.0
 43
0.0
 43
0.0
 43
0.0
 43
1.0
 77
     0
 47
0.0208333333333333
 47
0.0
 47
0.0
 47
0.0
 47
0.0
 47
0.0208333333333333
 47
0.0
 47
0.0
 47
0.0
 47
0.0
 47
1.0
 47
0.0
 47
0.0
 47
0.0
 47
0.0
 47
1.0
171
     0
 49
0.0208333333333333
 49
0.0
 49
0.0
 49
0.0
 49
0.0
 49
0.0208333333333333
 49
0.0
 49
0.0
 49
0.0
 49
0.0
 49
1.0
 49
0.0
 49
0.0
 49
0.0
 49
0.0
 49
1.0
175
     0
142
0.0208333333333333
142
0.0
142
0.0
142
0.0
142
0.0
142
0.0208333333333333
142
0.0
142
0.0
142
0.0
142
0.0
142
1.0
142
0.0
142
0.0
142
0.0
142
0.0
142
1.0
179
     0
144
0.0208333333333333
144
0.0
144
0.0
144
0.0
144
0.0
144
0.0208333333333333
144
0.0
144
0.0
144
0.0
144
0.0
144
1.0
144
0.0
144
0.0
144
0.0
144
0.0
144
1.0
147
0.0208333333333333
147
0.0
147
0.0
147
0.0
147
0.0
147
0.0208333333333333
147
0.0
147
0.0
147
0.0
147
0.0
147
1.0
147
0.0
147
0.0
147
0.0
147
0.0
147
1.0
  0
MATERIAL
  5
A172
102
{ACAD_XDICTIONARY
360
A173
102
}
102
{ACAD_REACTORS
330
A171
102
}
330
A171
100
AcDbMaterial
  1
ByLayer
 72
     0
 43
0.0208333333333333
 43
0.0
 43
0.0
 43
0.0
 43
0.0
 43
0.0208333333333333
 43
0.0
 43
0.0
 43
0.0
 43
0.0
 43
1.0
 43
0.0
 43
0.0
 43
0.0
 43
0.0
 43
1.0
 77
     0
 47
0.0208333333333333
 47
0.0
 47
0.0
 47
0.0
 47
0.0
 47
0.0208333333333333
 47
0.0
 47
0.0
 47
0.0
 47
0.0
 47
1.0
 47
0.0
 47
0.0
 47
0.0
 47
0.0
 47
1.0
171
     0
 49
0.0208333333333333
 49
0.0
 49
0.0
 49
0.0
 49
0.0
 49
0.0208333333333333
 49
0.0
 49
0.0
 49
0.0
 49
0.0
 49
1.0
 49
0.0
 49
0.0
 49
0.0
 49
0.0
 49
1.0
175
     0
142
0.0208333333333333
142
0.0
142
0.0
142
0.0
142
0.0
142
0.0208333333333333
142
0.0
142
0.0
142
0.0
142
0.0
142
1.0
142
0.0
142
0.0
142
0.0
142
0.0
142
1.0
179
     0
144
0.0208333333333333
144
0.0
144
0.0
144
0.0
144
0.0
144
0.0208333333333333
144
0.0
144
0.0
144
0.0
144
0.0
144
1.0
144
0.0
144
0.0
144
0.0
144
0.0
144
1.0
147
0.0208333333333333
147
0.0
147
0.0
147
0.0
147
0.0
147
0.0208333333333333
147
0.0
147
0.0
147
0.0
147
0.0
147
1.0
147
0.0
147
0.0
147
0.0
147
0.0
147
1.0
  0
MATERIAL
  5
A182
102
{ACAD_XDICTIONARY
360
A183
102
}
102
{ACAD_REACTORS
330
A171
102
}
330
A171
100
AcDbMaterial
  1
Global
 72
     0
 43
0.0208333333333333
 43
0.0
 43
0.0
 43
0.0
 43
0.0
 43
0.0208333333333333
 43
0.0
 43
0.0
 43
0.0
 43
0.0
 43
1.0
 43
0.0
 43
0.0
 43
0.0
 43
0.0
 43
1.0
 77
     0
 47
0.0208333333333333
 47
0.0
 47
0.0
 47
0.0
 47
0.0
 47
0.0208333333333333
 47
0.0
 47
0.0
 47
0.0
 47
0.0
 47
1.0
 47
0.0
 47
0.0
 47
0.0
 47
0.0
 47
1.0
171
     0
 49
0.0208333333333333
 49
0.0
 49
0.0
 49
0.0
 49
0.0
 49
0.0208333333333333
 49
0.0
 49
0.0
 49
0.0
 49
0.0
 49
1.0
 49
0.0
 49
0.0
 49
0.0
 49
0.0
 49
1.0
175
     0
142
0.0208333333333333
142
0.0
142
0.0
142
0.0
142
0.0
142
0.0208333333333333
142
0.0
142
0.0
142
0.0
142
0.0
142
1.0
142
0.0
142
0.0
142
0.0
142
0.0
142
1.0
179
     0
144
0.0208333333333333
144
0.0
144
0.0
144
0.0
144
0.0
144
0.0208333333333333
144
0.0
144
0.0
144
0.0
144
0.0
144
1.0
144
0.0
144
0.0
144
0.0
144
0.0
144
1.0
147
0.0208333333333333
147
0.0
147
0.0
147
0.0
147
0.0
147
0.0208333333333333
147
0.0
147
0.0
147
0.0
147
0.0
147
1.0
147
0.0
147
0.0
147
0.0
147
0.0
147
1.0
  0
MLEADERSTYLE
  5
A1B9
102
{ACAD_REACTORS
330
A1B8
102
}
330
A1B8
100
AcDbMLeaderStyle
170
     2
171
     1
172
     0
 90
        2
 40
0.0
 41
0.0
173
     1
 91
-1056964608
340
9EFA
 92
       -2
290
     1
 42
0.09
291
     1
 43
0.36
  3
Standard
 44
0.18
300

342
9EF8
174
     1
178
     6
175
     1
176
     0
 93
-1056964608
 45
0.18
292
     0
297
     0
 46
0.18
 94
-1056964608
 47
1.0
 49
1.0
140
1.0
293
     1
141
0.0
294
     1
177
     0
142
1.0
295
     0
296
     0
143
0.125
1001
ACAD_MLEADERVER
1070
     2
  0
MLINESTYLE
  5
9EFE
102
{ACAD_REACTORS
330
9EFD
102
}
330
9EFD
100
AcDbMlineStyle
  2
STANDARD
 70
     0
  3

 62
   256
 51
90.0
 52
90.0
 71
     2
 49
0.5
 62
   256
  6
BYLAYER
 49
-0.5
 62
   256
  6
BYLAYER
  0
ACDBPLACEHOLDER
  5
A170
102
{ACAD_REACTORS
330
A16F
102
}
330
A16F
  0
SCALE
  5
A1A7
102
{ACAD_REACTORS
330
A1A6
102
}
330
A1A6
100
AcDbScale
 70
     0
300
1:1
140
1.0
141
1.0
290
     1
  0
SCALE
  5
A1A8
102
{ACAD_REACTORS
330
A1A6
102
}
330
A1A6
100
AcDbScale
 70
     0
300
1/128" = 1'-0"
140
0.0078125
141
12.0
290
     0
  0
SCALE
  5
A1A9
102
{ACAD_REACTORS
330
A1A6
102
}
330
A1A6
100
AcDbScale
 70
     0
300
1/64" = 1'-0"
140
0.015625
141
12.0
290
     0
  0
SCALE
  5
A1AA
102
{ACAD_REACTORS
330
A1A6
102
}
330
A1A6
100
AcDbScale
 70
     0
300
1/32" = 1'-0"
140
0.03125
141
12.0
290
     0
  0
SCALE
  5
A1AB
102
{ACAD_REACTORS
330
A1A6
102
}
330
A1A6
100
AcDbScale
 70
     0
300
1/16" = 1'-0"
140
0.0625
141
12.0
290
     0
  0
SCALE
  5
A1AC
102
{ACAD_REACTORS
330
A1A6
102
}
330
A1A6
100
AcDbScale
 70
     0
300
3/32" = 1'-0"
140
0.09375
141
12.0
290
     0
  0
SCALE
  5
A1AD
102
{ACAD_REACTORS
330
A1A6
102
}
330
A1A6
100
AcDbScale
 70
     0
300
1/8" = 1'-0"
140
0.125
141
12.0
290
     0
  0
SCALE
  5
A1AE
102
{ACAD_REACTORS
330
A1A6
102
}
330
A1A6
100
AcDbScale
 70
     0
300
3/16" = 1'-0"
140
0.1875
141
12.0
290
     0
  0
SCALE
  5
A1AF
102
{ACAD_REACTORS
330
A1A6
102
}
330
A1A6
100
AcDbScale
 70
     0
300
1/4" = 1'-0"
140
0.25
141
12.0
290
     0
  0
SCALE
  5
A1B0
102
{ACAD_REACTORS
330
A1A6
102
}
330
A1A6
100
AcDbScale
 70
     0
300
3/8" = 1'-0"
140
0.375
141
12.0
290
     0
  0
SCALE
  5
A1B1
102
{ACAD_REACTORS
330
A1A6
102
}
330
A1A6
100
AcDbScale
 70
     0
300
1/2" = 1'-0"
140
0.5
141
12.0
290
     0
  0
SCALE
  5
A1B2
102
{ACAD_REACTORS
330
A1A6
102
}
330
A1A6
100
AcDbScale
 70
     0
300
3/4" = 1'-0"
140
0.75
141
12.0
290
     0
  0
SCALE
  5
A1B3
102
{ACAD_REACTORS
330
A1A6
102
}
330
A1A6
100
AcDbScale
 70
     0
300
1" = 1'-0"
140
1.0
141
12.0
290
     0
  0
SCALE
  5
A1B4
102
{ACAD_REACTORS
330
A1A6
102
}
330
A1A6
100
AcDbScale
 70
     0
300
1-1/2" = 1'-0"
140
1.5
141
12.0
290
     0
  0
SCALE
  5
A1B5
102
{ACAD_REACTORS
330
A1A6
102
}
330
A1A6
100
AcDbScale
 70
     0
300
3" = 1'-0"
140
3.0
141
12.0
290
     0
  0
SCALE
  5
A1B6
102
{ACAD_REACTORS
330
A1A6
102
}
330
A1A6
100
AcDbScale
 70
     0
300
6" = 1'-0"
140
6.0
141
12.0
290
     0
  0
SCALE
  5
A1B7
102
{ACAD_REACTORS
330
A1A6
102
}
330
A1A6
100
AcDbScale
 70
     0
300
1'-0" = 1'-0"
140
12.0
141
12.0
290
     0
  0
ACDBSECTIONVIEWSTYLE
  5
A1BB
102
{ACAD_XDICTIONARY
360
A216
102
}
102
{ACAD_REACTORS
330
A1BA
102
}
330
A1BA
100
AcDbModelDocViewStyle
 70
     0
  3
Imperial24
290
     0
100
AcDbSectionViewStyle
 70
     0
 71
     0
 90
       78
 71
     1
340
9EF8
 40
0.24
340
0
340
0
 40
0.24
300
I, O, Q, S, X, Z
 40
0.48
 90
        3
 40
0.18
 90
        1
 71
     2
340
9EFC
 90
       25
340
9EFC
 90
       50
 40
0.24
 40
0.0
 40
0.24
 71
     3
340
9EF8
 40
0.24
 90
        1
 40
0.75
 90
        1
300
%<\AcVar ViewType \f "%tc1">% %<\AcVar ViewSectionStartId>%-%<\AcVar ViewSectionEndId>%\PSCALE %<\AcVar ViewScale \f "%sn">%
 71
     4
300
ANSI31
 40
1.0
 90
        0
290
     0
290
     0
 90
        6
 40
0.0
 40
1.570796326794896
 40
0.2617993877991494
 40
1.308996938995747
 40
-0.2617993877991494
 40
1.832595714594046
  0
TABLESTYLE
  5
A1A5
102
{ACAD_XDICTIONARY
360
A1DD
102
}
102
{ACAD_REACTORS
330
A1A4
102
}
330
A1A4
100
AcDbTableStyle
  3
Standard
 70
     0
 71
     0
 40
0.06
 41
0.06
280
     0
281
     0
  7
STANDARD
140
0.18
170
     2
 62
     0
 63
     7
283
     0
274
    -2
284
     1
 64
     0
275
    -2
285
     1
 65
     0
276
    -2
286
     1
 66
     0
277
    -2
287
     1
 67
     0
278
    -2
288
     1
 68
     0
279
    -2
289
     1
 69
     0
  7
STANDARD
140
0.25
170
     5
 62
     0
 63
     7
283
     0
274
    -2
284
     1
 64
     0
275
    -2
285
     1
 65
     0
276
    -2
286
     1
 66
     0
277
    -2
287
     1
 67
     0
278
    -2
288
     1
 68
     0
279
    -2
289
     1
 69
     0
  7
STANDARD
140
0.18
170
     5
 62
     0
 63
     7
283
     0
274
    -2
284
     1
 64
     0
275
    -2
285
     1
 65
     0
276
    -2
286
     1
 66
     0
277
    -2
287
     1
 67
     0
278
    -2
288
     1
 68
     0
279
    -2
289
     1
 69
     0
  0
VISUALSTYLE
  5
A190
102
{ACAD_XDICTIONARY
360
A1EE
102
}
102
{ACAD_REACTORS
330
A18A
102
}
330
A18A
100
AcDbVisualStyle
  2
2dWireframe
 70
     4
 71
     0
 72
     2
 73
     0
 90
        0
 40
-0.6
 41
-30.0
 62
     5
 63
     7
 74
     1
 91
        4
 64
     7
 65
   257
 75
     1
175
     1
 42
1.0
 92
        0
 66
   257
 43
1.0
 76
     1
 77
     6
 78
     2
 67
     7
 79
     5
170
     0
171
     0
290
     0
174
     0
 93
        1
 44
0.0
173
     0
291
     0
 45
0.0
1001
ACAD
1000
AcDbSavedByObjectVersion
1070
     0
  0
VISUALSTYLE
  5
A18F
102
{ACAD_XDICTIONARY
360
A1EC
102
}
102
{ACAD_REACTORS
330
A18A
102
}
330
A18A
100
AcDbVisualStyle
  2
Basic
 70
     7
 71
     1
 72
     0
 73
     1
 90
        0
 40
-0.6
 41
-30.0
 62
     5
 63
     7
 74
     0
 91
        4
 64
     7
 65
   257
 75
     1
175
     1
 42
1.0
 92
        8
 66
     7
 43
1.0
 76
     1
 77
     6
 78
     2
 67
     7
 79
     5
170
     0
171
     0
290
     0
174
     0
 93
        1
 44
0.0
173
     0
291
     1
 45
0.0
1001
ACAD
1000
AcDbSavedByObjectVersion
1070
     0
  0
VISUALSTYLE
  5
A196
102
{ACAD_XDICTIONARY
360
A1FA
102
}
102
{ACAD_REACTORS
330
A18A
102
}
330
A18A
100
AcDbVisualStyle
  2
Brighten
 70
    12
 71
     2
 72
     2
 73
     0
 90
        0
 40
-0.6
 41
-30.0
 62
     5
 63
     7
 74
     1
 91
        4
 64
     7
 65
   257
 75
     1
175
     1
 42
1.0
 92
        8
 66
     7
 43
1.0
 76
     1
 77
     6
 78
     2
 67
     7
 79
     5
170
     0
171
     0
290
     0
174
     0
 93
        1
 44
50.0
173
     0
291
     1
 45
0.0
1001
ACAD
1000
AcDbSavedByObjectVersion
1070
     0
  0
VISUALSTYLE
  5
A19A
102
{ACAD_XDICTIONARY
360
A202
102
}
102
{ACAD_REACTORS
330
A18A
102
}
330
A18A
100
AcDbVisualStyle
  2
ColorChange
 70
    16
 71
     2
 72
     2
 73
     3
 90
        0
 40
-0.6
 41
-30.0
 62
     5
 63
     8
 74
     1
 91
        4
 64
     7
 65
   257
 75
     1
175
     1
 42
1.0
 92
        8
 66
     8
 43
1.0
 76
     1
 77
     6
 78
     2
 67
     7
 79
     5
170
     0
171
     0
290
     0
174
     0
 93
        1
 44
0.0
173
     0
291
     1
 45
0.0
1001
ACAD
1000
AcDbSavedByObjectVersion
1070
     0
  0
VISUALSTYLE
  5
A193
102
{ACAD_XDICTIONARY
360
A1F4
102
}
102
{ACAD_REACTORS
330
A18A
102
}
330
A18A
100
AcDbVisualStyle
  2
Conceptual
 70
     9
 71
     3
 72
     2
 73
     0
 90
        0
 40
-0.6
 41
-30.0
 62
     5
 63
     7
 74
     2
 91
        2
 64
     7
 65
   257
 75
     1
175
     1
 42
179.0
 92
        8
 66
     7
 43
1.0
 76
     1
 77
     6
 78
     2
 67
     7
 79
     3
170
     0
171
     0
290
     0
174
     0
 93
        1
 44
0.0
173
     0
291
     0
 45
0.0
1001
ACAD
1000
AcDbSavedByObjectVersion
1070
     0
  0
VISUALSTYLE
  5
A195
102
{ACAD_XDICTIONARY
360
A1F8
102
}
102
{ACAD_REACTORS
330
A18A
102
}
330
A18A
100
AcDbVisualStyle
  2
Dim
 70
    11
 71
     2
 72
     2
 73
     0
 90
        0
 40
-0.6
 41
-30.0
 62
     5
 63
     7
 74
     1
 91
        4
 64
     7
 65
   257
 75
     1
175
     1
 42
1.0
 92
        8
 66
     7
 43
1.0
 76
     1
 77
     6
 78
     2
 67
     7
 79
     5
170
     0
171
     0
290
     0
174
     0
 93
        1
 44
-50.0
173
     0
291
     1
 45
0.0
1001
ACAD
1000
AcDbSavedByObjectVersion
1070
     0
  0
VISUALSTYLE
  5
A1A2
102
{ACAD_XDICTIONARY
360
A212
102
}
102
{ACAD_REACTORS
330
A18A
102
}
330
A18A
100
AcDbVisualStyle
  2
EdgeColorOff
 70
    22
 71
     2
 72
     2
 73
     0
 90
        0
 40
-0.6
 41
-30.0
 62
     5
 63
     7
 74
     1
 91
        4
 64
     7
 65
   257
 75
     1
175
     1
 42
1.0
 92
        8
 66
     7
 43
1.0
 76
     1
 77
     6
 78
     2
 67
     7
 79
     5
170
     0
171
     0
290
     0
174
     0
 93
        1
 44
0.0
173
     0
291
     1
 45
0.0
1001
ACAD
1000
AcDbSavedByObjectVersion
1070
     0
  0
VISUALSTYLE
  5
A199
102
{ACAD_XDICTIONARY
360
A200
102
}
102
{ACAD_REACTORS
330
A18A
102
}
330
A18A
100
AcDbVisualStyle
  2
Facepattern
 70
    15
 71
     2
 72
     2
 73
     0
 90
        0
 40
-0.6
 41
-30.0
 62
     5
 63
     7
 74
     1
 91
        4
 64
     7
 65
   257
 75
     1
175
     1
 42
1.0
 92
        8
 66
     7
 43
1.0
 76
     1
 77
     6
 78
     2
 67
     7
 79
     5
170
     0
171
     0
290
     0
174
     0
 93
        1
 44
0.0
173
     0
291
     1
 45
0.0
1001
ACAD
1000
AcDbSavedByObjectVersion
1070
     0
  0
VISUALSTYLE
  5
A18B
102
{ACAD_XDICTIONARY
360
A1E4
102
}
102
{ACAD_REACTORS
330
A18A
102
}
330
A18A
100
AcDbVisualStyle
  2
Flat
 70
     0
 71
     2
 72
     1
 73
     1
 90
        2
 40
-0.6
 41
30.0
 62
     5
 63
     7
 74
     0
 91
        0
 64
     7
 65
   257
 75
     1
175
     1
 42
1.0
 92
        8
 66
     7
 43
1.0
 76
     1
 77
     6
 78
     2
 67
     7
 79
     5
170
     0
171
     0
290
     0
174
     0
 93
       13
 44
0.0
173
     0
291
     1
 45
0.0
1001
ACAD
1000
AcDbSavedByObjectVersion
1070
     0
  0
VISUALSTYLE
  5
A18C
102
{ACAD_XDICTIONARY
360
A1E6
102
}
102
{ACAD_REACTORS
330
A18A
102
}
330
A18A
100
AcDbVisualStyle
  2
FlatWithEdges
 70
     1
 71
     2
 72
     1
 73
     1
 90
        2
 40
-0.6
 41
30.0
 62
     5
 63
     7
 74
     1
 91
        0
 64
     7
 65
   257
 75
     1
175
     1
 42
1.0
 92
        0
 66
   257
 43
1.0
 76
     1
 77
     6
 78
     2
 67
     7
 79
     5
170
     0
171
     0
290
     0
174
     0
 93
       13
 44
0.0
173
     0
291
     1
 45
0.0
1001
ACAD
1000
AcDbSavedByObjectVersion
1070
     0
  0
VISUALSTYLE
  5
A18D
102
{ACAD_XDICTIONARY
360
A1E8
102
}
102
{ACAD_REACTORS
330
A18A
102
}
330
A18A
100
AcDbVisualStyle
  2
Gouraud
 70
     2
 71
     2
 72
     2
 73
     1
 90
        2
 40
-0.6
 41
30.0
 62
     5
 63
     7
 74
     0
 91
        0
 64
     7
 65
   257
 75
     1
175
     1
 42
1.0
 92
        0
 66
     7
 43
1.0
 76
     1
 77
     6
 78
     2
 67
     7
 79
     5
170
     0
171
     0
290
     0
174
     0
 93
       13
 44
0.0
173
     0
291
     1
 45
0.0
1001
ACAD
1000
AcDbSavedByObjectVersion
1070
     0
  0
VISUALSTYLE
  5
A18E
102
{ACAD_XDICTIONARY
360
A1EA
102
}
102
{ACAD_REACTORS
330
A18A
102
}
330
A18A
100
AcDbVisualStyle
  2
GouraudWithEdges
 70
     3
 71
     2
 72
     2
 73
     1
 90
        2
 40
-0.6
 41
30.0
 62
     5
 63
     7
 74
     1
 91
        0
 64
     7
 65
   257
 75
     1
175
     1
 42
1.0
 92
        0
 66
   257
 43
1.0
 76
     1
 77
     6
 78
     2
 67
     7
 79
     5
170
     0
171
     0
290
     0
174
     0
 93
       13
 44
0.0
173
     0
291
     1
 45
0.0
1001
ACAD
1000
AcDbSavedByObjectVersion
1070
     0
  0
VISUALSTYLE
  5
A192
102
{ACAD_XDICTIONARY
360
A1F2
102
}
102
{ACAD_REACTORS
330
A18A
102
}
330
A18A
100
AcDbVisualStyle
  2
Hidden
 70
     6
 71
     1
 72
     2
 73
     2
 90
        0
 40
-0.6
 41
-30.0
 62
     5
 63
     7
 74
     2
 91
        2
 64
     7
 65
   257
 75
     2
175
     1
 42
40.0
 92
        0
 66
   257
 43
1.0
 76
     1
 77
     6
 78
     2
 67
     7
 79
     3
170
     0
171
     0
290
     0
174
     0
 93
        1
 44
0.0
173
     0
291
     0
 45
0.0
1001
ACAD
1000
AcDbSavedByObjectVersion
1070
     0
  0
VISUALSTYLE
  5
A1A0
102
{ACAD_XDICTIONARY
360
A20E
102
}
102
{ACAD_REACTORS
330
A18A
102
}
330
A18A
100
AcDbVisualStyle
  2
JitterOff
 70
    20
 71
     2
 72
     2
 73
     0
 90
        0
 40
-0.6
 41
-30.0
 62
     5
 63
     7
 74
     1
 91
        4
 64
     7
 65
   257
 75
     1
175
     1
 42
1.0
 92
       10
 66
     7
 43
1.0
 76
     1
 77
     6
 78
     2
 67
     7
 79
     5
170
     0
171
     0
290
     0
174
     0
 93
        1
 44
0.0
173
     0
291
     1
 45
0.0
1001
ACAD
1000
AcDbSavedByObjectVersion
1070
     0
  0
VISUALSTYLE
  5
A198
102
{ACAD_XDICTIONARY
360
A1FE
102
}
102
{ACAD_REACTORS
330
A18A
102
}
330
A18A
100
AcDbVisualStyle
  2
Linepattern
 70
    14
 71
     2
 72
     2
 73
     0
 90
        0
 40
-0.6
 41
-30.0
 62
     5
 63
     7
 74
     1
 91
        4
 64
     7
 65
   257
 75
     7
175
     7
 42
1.0
 92
        8
 66
     7
 43
1.0
 76
     1
 77
     6
 78
     2
 67
     7
 79
     5
170
     0
171
     0
290
     0
174
     0
 93
        1
 44
0.0
173
     0
291
     1
 45
0.0
1001
ACAD
1000
AcDbSavedByObjectVersion
1070
     0
  0
VISUALSTYLE
  5
A1A1
102
{ACAD_XDICTIONARY
360
A210
102
}
102
{ACAD_REACTORS
330
A18A
102
}
330
A18A
100
AcDbVisualStyle
  2
OverhangOff
 70
    21
 71
     2
 72
     2
 73
     0
 90
        0
 40
-0.6
 41
-30.0
 62
     5
 63
     7
 74
     1
 91
        4
 64
     7
 65
   257
 75
     1
175
     1
 42
1.0
 92
        9
 66
     7
 43
1.0
 76
     1
 77
     6
 78
     2
 67
     7
 79
     5
170
     0
171
     0
290
     0
174
     0
 93
        1
 44
0.0
173
     0
291
     1
 45
0.0
1001
ACAD
1000
AcDbSavedByObjectVersion
1070
     0
  0
VISUALSTYLE
  5
A194
102
{ACAD_XDICTIONARY
360
A1F6
102
}
102
{ACAD_REACTORS
330
A18A
102
}
330
A18A
100
AcDbVisualStyle
  2
Realistic
 70
     8
 71
     2
 72
     3
 73
     0
 90
        2
 40
-0.6
 41
30.0
 62
     5
 63
     7
 74
     0
 91
        0
 64
     7
 65
   257
 75
     1
175
     1
 42
1.0
 92
        8
 66
   257
 43
1.0
 76
     1
 77
     6
 78
     2
 67
     7
 79
     3
170
     0
171
     0
290
     0
174
     0
 93
       13
 44
0.0
173
     0
291
     0
 45
0.0
1001
ACAD
1000
AcDbSavedByObjectVersion
1070
     0
  0
VISUALSTYLE
  5
A19F
102
{ACAD_XDICTIONARY
360
A20C
102
}
102
{ACAD_REACTORS
330
A18A
102
}
330
A18A
100
AcDbVisualStyle
  2
Shaded
 70
    27
 71
     2
 72
     2
 73
     1
 90
        2
 40
-0.6
 41
30.0
 62
     5
 63
     7
 74
     0
 91
        4
 64
     7
 65
   257
 75
     1
175
     1
 42
1.0
 92
        8
 66
   257
 43
1.0
 76
     1
 77
     6
 78
     2
 67
     8
 79
     3
170
     0
171
     0
290
     0
174
     0
 93
        5
 44
0.0
173
     0
291
     0
 45
0.0
1001
ACAD
1000
AcDbSavedByObjectVersion
1070
     0
  0
VISUALSTYLE
  5
A19E
102
{ACAD_XDICTIONARY
360
A20A
102
}
102
{ACAD_REACTORS
330
A18A
102
}
330
A18A
100
AcDbVisualStyle
  2
Shaded with edges
 70
    26
 71
     2
 72
     2
 73
     1
 90
        2
 40
-0.6
 41
30.0
 62
     5
 63
     7
 74
     1
 91
       10
 64
     7
 65
   257
 75
     2
175
     1
 42
1.0
 92
        8
 66
   257
 43
1.0
 76
     1
 77
     6
 78
     2
 67
     7
 79
     3
170
     0
171
     0
290
     0
174
     0
 93
        5
 44
0.0
173
     0
291
     0
 45
0.0
1001
ACAD
1000
AcDbSavedByObjectVersion
1070
     0
  0
VISUALSTYLE
  5
A19B
102
{ACAD_XDICTIONARY
360
A204
102
}
102
{ACAD_REACTORS
330
A18A
102
}
330
A18A
100
AcDbVisualStyle
  2
Shades of Gray
 70
    23
 71
     2
 72
     2
 73
     3
 90
        0
 40
-0.6
 41
-30.0
 62
     5
 63
     7
 74
     2
 91
        2
 64
     7
 65
     7
 75
     1
175
     1
 42
40.0
 92
        8
 66
     7
 43
1.0
 76
     1
 77
     6
 78
     2
 67
     7
 79
     3
170
     0
171
     0
290
     0
174
     0
 93
        1
 44
0.0
173
     0
291
     0
 45
0.0
1001
ACAD
1000
AcDbSavedByObjectVersion
1070
     0
  0
VISUALSTYLE
  5
A19C
102
{ACAD_XDICTIONARY
360
A206
102
}
102
{ACAD_REACTORS
330
A18A
102
}
330
A18A
100
AcDbVisualStyle
  2
Sketchy
 70
    24
 71
     1
 72
     2
 73
     2
 90
        0
 40
-0.6
 41
-30.0
 62
     5
 63
     7
 74
     2
 91
        2
 64
     7
 65
     7
 75
     1
175
     1
 42
40.0
 92
       11
 66
     7
 43
1.0
 76
     1
 77
     6
 78
     2
 67
     7
 79
     6
170
     0
171
     0
290
     0
174
     0
 93
        1
 44
0.0
173
     0
291
     0
 45
0.0
1001
ACAD
1000
AcDbSavedByObjectVersion
1070
     0
  0
VISUALSTYLE
  5
A197
102
{ACAD_XDICTIONARY
360
A1FC
102
}
102
{ACAD_REACTORS
330
A18A
102
}
330
A18A
100
AcDbVisualStyle
  2
Thicken
 70
    13
 71
     2
 72
     2
 73
     0
 90
        0
 40
-0.6
 41
-30.0
 62
     5
 63
     7
 74
     1
 91
        4
 64
     7
 65
   257
 75
     1
175
     1
 42
1.0
 92
       12
 66
     7
 43
1.0
 76
     1
 77
     6
 78
     2
 67
     7
 79
     5
170
     0
171
     0
290
     0
174
     0
 93
        1
 44
0.0
173
     0
291
     1
 45
0.0
1001
ACAD
1000
AcDbSavedByObjectVersion
1070
     0
  0
VISUALSTYLE
  5
A191
102
{ACAD_XDICTIONARY
360
A1F0
102
}
102
{ACAD_REACTORS
330
A18A
102
}
330
A18A
100
AcDbVisualStyle
  2
Wireframe
 70
     5
 71
     0
 72
     2
 73
     0
 90
        0
 40
-0.6
 41
-30.0
 62
     5
 63
     7
 74
     1
 91
        4
 64
     7
 65
   257
 75
     1
175
     1
 42
1.0
 92
        0
 66
   257
 43
1.0
 76
     1
 77
     6
 78
     2
 67
     7
 79
     3
170
     0
171
     0
290
     0
174
     0
 93
        1
 44
0.0
173
     0
291
     0
 45
0.0
1001
ACAD
1000
AcDbSavedByObjectVersion
1070
     0
  0
VISUALSTYLE
  5
A19D
102
{ACAD_XDICTIONARY
360
A208
102
}
102
{ACAD_REACTORS
330
A18A
102
}
330
A18A
100
AcDbVisualStyle
  2
X-Ray
 70
    25
 71
     2
 72
     2
 73
     1
 90
        1
 40
0.5
 41
-30.0
 62
     5
 63
     7
 74
     1
 91
        0
 64
     7
 65
   257
 75
     1
175
     1
 42
1.0
 92
        8
 66
     7
 43
1.0
 76
     1
 77
     6
 78
     2
 67
     7
 79
     3
170
     0
171
     0
290
     0
174
     0
 93
       13
 44
0.0
173
     0
291
     0
 45
0.0
1001
ACAD
1000
AcDbSavedByObjectVersion
1070
     0
  0
DICTIONARYVAR
  5
A1D7
102
{ACAD_REACTORS
330
A1D2
102
}
330
A1D2
100
DictionaryVariables
280
     0
  1
1:1
  0
DICTIONARYVAR
  5
A1D4
102
{ACAD_REACTORS
330
A1D2
102
}
330
A1D2
100
DictionaryVariables
280
     0
  1
STANDARD
  0
DICTIONARYVAR
  5
A1D3
102
{ACAD_REACTORS
330
A1D2
102
}
330
A1D2
100
DictionaryVariables
280
     0
  1
STANDARD
  0
DICTIONARYVAR
  5
A1D5
102
{ACAD_REACTORS
330
A1D2
102
}
330
A1D2
100
DictionaryVariables
280
     0
  1
Imperial24
  0
DICTIONARYVAR
  5
A1D6
102
{ACAD_REACTORS
330
A1D2
102
}
330
A1D2
100
DictionaryVariables
280
     0
  1
Imperial24
  0
DICTIONARYVAR
  5
A1DA
102
{ACAD_REACTORS
330
A1D2
102
}
330
A1D2
100
DictionaryVariables
280
     0
  1
1
  0
DICTIONARYVAR
  5
A1D9
102
{ACAD_REACTORS
330
A1D2
102
}
330
A1D2
100
DictionaryVariables
280
     0
  1
0
  0
DICTIONARYVAR
  5
A1D8
102
{ACAD_REACTORS
330
A1D2
102
}
330
A1D2
100
DictionaryVariables
280
     0
  1
127
  0
DICTIONARYVAR
  5
A1DB
102
{ACAD_REACTORS
330
A1D2
102
}
330
A1D2
100
DictionaryVariables
280
     0
  1
2
  0
DICTIONARY
  5
A218
330
A1BD
100
AcDbDictionary
280
     1
281
     1
  3
ACAD_XREC_ROUNDTRIP
360
A219
  0
DICTIONARY
  5
A21A
330
A1BE
100
AcDbDictionary
280
     1
281
     1
  3
ACAD_XREC_ROUNDTRIP
360
A21B
  0
DICTIONARY
  5
A21C
330
A1BF
100
AcDbDictionary
280
     1
281
     1
  3
ACAD_XREC_ROUNDTRIP
360
A21D
  0
DICTIONARY
  5
A17B
330
A17A
100
AcDbDictionary
280
     1
281
     1
  3
ACAD_XREC_ROUNDTRIP
360
A1E2
  3
BUMPTILE
360
A17D
  3
DIFFUSETILE
360
A17C
  3
OPACITYTILE
360
A180
  3
REFLECTIONTILE
360
A17F
  3
REFRACTIONTILE
360
A181
  3
SPECULARTILE
360
A17E
  0
DICTIONARY
  5
A173
330
A172
100
AcDbDictionary
280
     1
281
     1
  3
ACAD_XREC_ROUNDTRIP
360
A1E1
  3
BUMPTILE
360
A175
  3
DIFFUSETILE
360
A174
  3
OPACITYTILE
360
A178
  3
REFLECTIONTILE
360
A177
  3
REFRACTIONTILE
360
A179
  3
SPECULARTILE
360
A176
  0
DICTIONARY
  5
A183
330
A182
100
AcDbDictionary
280
     1
281
     1
  3
ACAD_XREC_ROUNDTRIP
360
A1E3
  3
BUMPTILE
360
A185
  3
DIFFUSETILE
360
A184
  3
OPACITYTILE
360
A188
  3
REFLECTIONTILE
360
A187
  3
REFRACTIONTILE
360
A189
  3
SPECULARTILE
360
A186
  0
DICTIONARY
  5
A216
330
A1BB
100
AcDbDictionary
280
     1
281
     1
  3
ACAD_XREC_ROUNDTRIP
360
A217
  0
DICTIONARY
  5
A1DD
330
A1A5
100
AcDbDictionary
280
     1
281
     1
  3
ACAD_ROUNDTRIP_2008_TABLESTYLE_CELLSTYLEMAP
360
A1DE
  3
ACAD_XREC_ROUNDTRIP
360
A214
  0
DICTIONARY
  5
A1EE
330
A190
100
AcDbDictionary
280
     1
281
     1
  3
ACAD_XREC_ROUNDTRIP
360
A1EF
  0
DICTIONARY
  5
A1EC
330
A18F
100
AcDbDictionary
280
     1
281
     1
  3
ACAD_XREC_ROUNDTRIP
360
A1ED
  0
DICTIONARY
  5
A1FA
330
A196
100
AcDbDictionary
280
     1
281
     1
  3
ACAD_XREC_ROUNDTRIP
360
A1FB
  0
DICTIONARY
  5
A202
330
A19A
100
AcDbDictionary
280
     1
281
     1
  3
ACAD_XREC_ROUNDTRIP
360
A203
  0
DICTIONARY
  5
A1F4
330
A193
100
AcDbDictionary
280
     1
281
     1
  3
ACAD_XREC_ROUNDTRIP
360
A1F5
  0
DICTIONARY
  5
A1F8
330
A195
100
AcDbDictionary
280
     1
281
     1
  3
ACAD_XREC_ROUNDTRIP
360
A1F9
  0
DICTIONARY
  5
A212
330
A1A2
100
AcDbDictionary
280
     1
281
     1
  3
ACAD_XREC_ROUNDTRIP
360
A213
  0
DICTIONARY
  5
A200
330
A199
100
AcDbDictionary
280
     1
281
     1
  3
ACAD_XREC_ROUNDTRIP
360
A201
  0
DICTIONARY
  5
A1E4
330
A18B
100
AcDbDictionary
280
     1
281
     1
  3
ACAD_XREC_ROUNDTRIP
360
A1E5
  0
DICTIONARY
  5
A1E6
330
A18C
100
AcDbDictionary
280
     1
281
     1
  3
ACAD_XREC_ROUNDTRIP
360
A1E7
  0
DICTIONARY
  5
A1E8
330
A18D
100
AcDbDictionary
280
     1
281
     1
  3
ACAD_XREC_ROUNDTRIP
360
A1E9
  0
DICTIONARY
  5
A1EA
330
A18E
100
AcDbDictionary
280
     1
281
     1
  3
ACAD_XREC_ROUNDTRIP
360
A1EB
  0
DICTIONARY
  5
A1F2
330
A192
100
AcDbDictionary
280
     1
281
     1
  3
ACAD_XREC_ROUNDTRIP
360
A1F3
  0
DICTIONARY
  5
A20E
330
A1A0
100
AcDbDictionary
280
     1
281
     1
  3
ACAD_XREC_ROUNDTRIP
360
A20F
  0
DICTIONARY
  5
A1FE
330
A198
100
AcDbDictionary
280
     1
281
     1
  3
ACAD_XREC_ROUNDTRIP
360
A1FF
  0
DICTIONARY
  5
A210
330
A1A1
100
AcDbDictionary
280
     1
281
     1
  3
ACAD_XREC_ROUNDTRIP
360
A211
  0
DICTIONARY
  5
A1F6
330
A194
100
AcDbDictionary
280
     1
281
     1
  3
ACAD_XREC_ROUNDTRIP
360
A1F7
  0
DICTIONARY
  5
A20C
330
A19F
100
AcDbDictionary
280
     1
281
     1
  3
ACAD_XREC_ROUNDTRIP
360
A20D
  0
DICTIONARY
  5
A20A
330
A19E
100
AcDbDictionary
280
     1
281
     1
  3
ACAD_XREC_ROUNDTRIP
360
A20B
  0
DICTIONARY
  5
A204
330
A19B
100
AcDbDictionary
280
     1
281
     1
  3
ACAD_XREC_ROUNDTRIP
360
A205
  0
DICTIONARY
  5
A206
330
A19C
100
AcDbDictionary
280
     1
281
     1
  3
ACAD_XREC_ROUNDTRIP
360
A207
  0
DICTIONARY
  5
A1FC
330
A197
100
AcDbDictionary
280
     1
281
     1
  3
ACAD_XREC_ROUNDTRIP
360
A1FD
  0
DICTIONARY
  5
A1F0
330
A191
100
AcDbDictionary
280
     1
281
     1
  3
ACAD_XREC_ROUNDTRIP
360
A1F1
  0
DICTIONARY
  5
A208
330
A19D
100
AcDbDictionary
280
     1
281
     1
  3
ACAD_XREC_ROUNDTRIP
360
A209
  0
XRECORD
  5
A219
102
{ACAD_REACTORS
330
A218
102
}
330
A218
100
AcDbXrecord
280
     1
102
DISPLAYNAME
  1
Imperial24
102
FLAGS
 90
        0
  0
XRECORD
  5
A21B
102
{ACAD_REACTORS
330
A21A
102
}
330
A21A
100
AcDbXrecord
280
     1
102
SHADEPLOT
 70
     0
102
SHADEPLOTRESLEVEL
 70
     2
102
SHADEPLOTCUSTOMDPI
 70
   300
  0
XRECORD
  5
A21D
102
{ACAD_REACTORS
330
A21C
102
}
330
A21C
100
AcDbXrecord
280
     1
102
SHADEPLOT
 70
     0
102
SHADEPLOTRESLEVEL
 70
     2
102
SHADEPLOTCUSTOMDPI
 70
   300
  0
XRECORD
  5
A1E2
102
{ACAD_REACTORS
330
A17B
102
}
330
A17B
100
AcDbXrecord
280
     1
102
MATERIAL
148
0.0
149
0.0
149
0.0
 93
        0
 94
      127
282
     0
 72
     0
 77
     0
171
     0
175
     0
179
     0
273
     0
  0
XRECORD
  5
A17D
102
{ACAD_REACTORS
330
A17B
102
}
330
A17B
100
AcDbXrecord
280
     1
270
     1
271
     1
  0
XRECORD
  5
A17C
102
{ACAD_REACTORS
330
A17B
102
}
330
A17B
100
AcDbXrecord
280
     1
270
     1
271
     1
  0
XRECORD
  5
A180
102
{ACAD_REACTORS
330
A17B
102
}
330
A17B
100
AcDbXrecord
280
     1
270
     1
271
     1
  0
XRECORD
  5
A17F
102
{ACAD_REACTORS
330
A17B
102
}
330
A17B
100
AcDbXrecord
280
     1
270
     1
271
     1
  0
XRECORD
  5
A181
102
{ACAD_REACTORS
330
A17B
102
}
330
A17B
100
AcDbXrecord
280
     1
270
     1
271
     1
  0
XRECORD
  5
A17E
102
{ACAD_REACTORS
330
A17B
102
}
330
A17B
100
AcDbXrecord
280
     1
270
     1
271
     1
  0
XRECORD
  5
A1E1
102
{ACAD_REACTORS
330
A173
102
}
330
A173
100
AcDbXrecord
280
     1
102
MATERIAL
148
0.0
149
0.0
149
0.0
 93
        0
 94
      127
282
     0
 72
     0
 77
     0
171
     0
175
     0
179
     0
273
     0
  0
XRECORD
  5
A175
102
{ACAD_REACTORS
330
A173
102
}
330
A173
100
AcDbXrecord
280
     1
270
     1
271
     1
  0
XRECORD
  5
A174
102
{ACAD_REACTORS
330
A173
102
}
330
A173
100
AcDbXrecord
280
     1
270
     1
271
     1
  0
XRECORD
  5
A178
102
{ACAD_REACTORS
330
A173
102
}
330
A173
100
AcDbXrecord
280
     1
270
     1
271
     1
  0
XRECORD
  5
A177
102
{ACAD_REACTORS
330
A173
102
}
330
A173
100
AcDbXrecord
280
     1
270
     1
271
     1
  0
XRECORD
  5
A179
102
{ACAD_REACTORS
330
A173
102
}
330
A173
100
AcDbXrecord
280
     1
270
     1
271
     1
  0
XRECORD
  5
A176
102
{ACAD_REACTORS
330
A173
102
}
330
A173
100
AcDbXrecord
280
     1
270
     1
271
     1
  0
XRECORD
  5
A1E3
102
{ACAD_REACTORS
330
A183
102
}
330
A183
100
AcDbXrecord
280
     1
102
MATERIAL
148
0.0
149
0.0
149
0.0
 93
        0
 94
      127
282
     0
 72
     0
 77
     0
171
     0
175
     0
179
     0
273
     0
  0
XRECORD
  5
A185
102
{ACAD_REACTORS
330
A183
102
}
330
A183
100
AcDbXrecord
280
     1
270
     1
271
     1
  0
XRECORD
  5
A184
102
{ACAD_REACTORS
330
A183
102
}
330
A183
100
AcDbXrecord
280
     1
270
     1
271
     1
  0
XRECORD
  5
A188
102
{ACAD_REACTORS
330
A183
102
}
330
A183
100
AcDbXrecord
280
     1
270
     1
271
     1
  0
XRECORD
  5
A187
102
{ACAD_REACTORS
330
A183
102
}
330
A183
100
AcDbXrecord
280
     1
270
     1
271
     1
  0
XRECORD
  5
A189
102
{ACAD_REACTORS
330
A183
102
}
330
A183
100
AcDbXrecord
280
     1
270
     1
271
     1
  0
XRECORD
  5
A186
102
{ACAD_REACTORS
330
A183
102
}
330
A183
100
AcDbXrecord
280
     1
270
     1
271
     1
  0
XRECORD
  5
A217
102
{ACAD_REACTORS
330
A216
102
}
330
A216
100
AcDbXrecord
280
     1
102
DISPLAYNAME
  1
Imperial24
102
FLAGS
 90
        0
  0
CELLSTYLEMAP
  5
A1DE
102
{ACAD_REACTORS
330
A1DD
102
}
330
A1DD
100
AcDbCellStyleMap
 90
        3
300
CELLSTYLE
  1
TABLEFORMAT_BEGIN
 90
        5
170
     1
 91
        0
 92
    32768
 62
   257
 93
        1
300
CONTENTFORMAT
  1
CONTENTFORMAT_BEGIN
 90
        0
 91
        0
 92
      512
 93
        0
300

 40
0.0
140
1.0
 94
        5
 62
     0
340
9EF8
144
0.25
309
CONTENTFORMAT_END
171
     0
 94
        0
309
TABLEFORMAT_END
  1
CELLSTYLE_BEGIN
 90
        1
 91
        1
300
_TITLE
309
CELLSTYLE_END
300
CELLSTYLE
  1
TABLEFORMAT_BEGIN
 90
        5
170
     1
 91
        0
 92
        0
 62
   257
 93
        1
300
CONTENTFORMAT
  1
CONTENTFORMAT_BEGIN
 90
        0
 91
        0
 92
      512
 93
        0
300

 40
0.0
140
1.0
 94
        5
 62
     0
340
9EF8
144
0.18
309
CONTENTFORMAT_END
171
     0
 94
        0
309
TABLEFORMAT_END
  1
CELLSTYLE_BEGIN
 90
        2
 91
        1
300
_HEADER
309
CELLSTYLE_END
300
CELLSTYLE
  1
TABLEFORMAT_BEGIN
 90
        5
170
     1
 91
        0
 92
        0
 62
   257
 93
        1
300
CONTENTFORMAT
  1
CONTENTFORMAT_BEGIN
 90
        0
 91
        0
 92
      512
 93
        0
300

 40
0.0
140
1.0
 94
        2
 62
     0
340
9EF8
144
0.18
309
CONTENTFORMAT_END
171
     0
 94
        0
309
TABLEFORMAT_END
  1
CELLSTYLE_BEGIN
 90
        3
 91
        2
300
_DATA
309
CELLSTYLE_END
  0
XRECORD
  5
A214
102
{ACAD_REACTORS
330
A1DD
102
}
330
A1DD
100
AcDbXrecord
280
     1
102
ACAD_ROUNDTRIP_PRE2007_TABLESTYLE
 90
      512
 91
        0
  1

 92
      512
 93
        0
  2

 94
      512
 95
        0
  3

  0
XRECORD
  5
A1EF
102
{ACAD_REACTORS
330
A1EE
102
}
330
A1EE
100
AcDbXrecord
280
     1
102
RTVSPost2010Prop28
280
     1
102
RTVSPost2010PropOp28
 70
     1
102
RTVSPost2010Prop29
280
     1
102
RTVSPost2010PropOp29
 70
     1
102
RTVSPost2010Prop30
280
     0
102
RTVSPost2010PropOp30
 70
     1
102
RTVSPost2010Prop31
280
     0
102
RTVSPost2010PropOp31
 70
     1
102
RTVSPost2010Prop32
280
     0
102
RTVSPost2010PropOp32
 70
     1
102
RTVSPost2010Prop33
280
     0
102
RTVSPost2010PropOp33
 70
     1
102
RTVSPost2010Prop34
280
     0
102
RTVSPost2010PropOp34
 70
     1
102
RTVSPost2010Prop35
280
     0
102
RTVSPost2010PropOp35
 70
     1
102
RTVSPost2010Prop36
280
     0
102
RTVSPost2010PropOp36
 70
     1
102
RTVSPost2010Prop37
 90
       50
102
RTVSPost2010PropOp37
 70
     1
102
RTVSPost2010Prop38
140
0.0
102
RTVSPost2010PropOp38
 70
     1
102
RTVSPost2010Prop39
140
1.0
102
RTVSPost2010PropOp39
 70
     1
102
RTVSPost2010Prop40
 90
        0
102
RTVSPost2010PropOp40
 70
     1
102
RTVSPost2010Prop41ColorIndex
 90
       18
102
RTVSPost2010Prop41ColorRGB
 90
        0
102
RTVSPost2010PropOp41
 70
     1
102
RTVSPost2010Prop42
 90
       50
102
RTVSPost2010PropOp42
 70
     1
102
RTVSPost2010Prop43
 90
        3
102
RTVSPost2010PropOp43
 70
     1
102
RTVSPost2010Prop44ColorIndex
 90
        5
102
RTVSPost2010Prop44ColorRGB
 90
      255
102
RTVSPost2010PropOp44
 70
     1
102
RTVSPost2010Prop45
280
     0
102
RTVSPost2010PropOp45
 70
     1
102
RTVSPost2010Prop46
 90
       50
102
RTVSPost2010PropOp46
 70
     1
102
RTVSPost2010Prop47
 90
       50
102
RTVSPost2010PropOp47
 70
     1
102
RTVSPost2010Prop48
 90
       50
102
RTVSPost2010PropOp48
 70
     1
102
RTVSPost2010Prop49
280
     0
102
RTVSPost2010PropOp49
 70
     1
102
RTVSPost2010Prop50
 90
       50
102
RTVSPost2010PropOp50
 70
     1
102
RTVSPost2010Prop51ColorIndex
 90
      256
102
RTVSPost2010Prop51ColorRGB
 90
-16777216
102
RTVSPost2010PropOp51
 70
     0
102
RTVSPost2010Prop52
140
1.0
102
RTVSPost2010PropOp52
 70
     0
102
RTVSPost2010Prop53
 90
        2
102
RTVSPost2010PropOp53
 70
     1
102
RTVSPost2010Prop54
  1
strokes_ogs.tif
102
RTVSPost2010PropOp54
 70
     1
102
RTVSPost2010Prop55
280
     0
102
RTVSPost2010PropOp55
 70
     1
102
RTVSPost2010Prop56
140
1.0
102
RTVSPost2010PropOp56
 70
     1
102
RTVSPost2010Prop57
140
1.0
102
RTVSPost2010PropOp57
 70
     1
102
RTVSPropertyOp0
 70
     1
102
RTVSPropertyOp1
 70
     1
102
RTVSPropertyOp2
 70
     1
102
RTVSPropertyOp3
 70
     1
102
RTVSPropertyOp4
 70
     1
102
RTVSPropertyOp5
 70
     1
102
RTVSPropertyOp6
 70
     1
102
RTVSPropertyOp7
 70
     1
102
RTVSPropertyOp8
 70
     1
102
RTVSPropertyOp9
 70
     1
102
RTVSPropertyOp10
 70
     1
102
RTVSPropertyOp11
 70
     1
102
RTVSPropertyOp12
 70
     1
102
RTVSPropertyOp13
 70
     1
102
RTVSPropertyOp14
 70
     1
102
RTVSPropertyOp15
 70
     1
102
RTVSPropertyOp16
 70
     1
102
RTVSPropertyOp17
 70
     1
102
RTVSPropertyOp18
 70
     1
102
RTVSPropertyOp19
 70
     1
102
RTVSPropertyOp20
 70
     1
102
RTVSPropertyOp21
 70
     1
102
RTVSPropertyOp22
 70
     1
102
RTVSPropertyOp23
 70
     1
102
RTVSPropertyOp24
 70
     1
102
RTVSPropertyOp25
 70
     1
102
RTVSPropertyOp26
 70
     1
102
RTVSPropertyOp27
 70
     1
102
RTVSPropertyOp28
 70
     1
102
RTVSPropertyOp29
 70
     1
102
RTVSPropertyOp30
 70
     1
102
RTVSPropertyOp31
 70
     1
102
RTVSPropertyOp32
 70
     1
102
RTVSPropertyOp33
 70
     1
102
RTVSPropertyOp34
 70
     1
102
RTVSPropertyOp35
 70
     1
102
RTVSPropertyOp36
 70
     1
102
RTVSPropertyOp37
 70
     1
102
RTVSPropertyOp38
 70
     1
102
RTVSPropertyOp39
 70
     1
102
RTVSPropertyOp40
 70
     1
102
RTVSPropertyOp41
 70
     1
102
RTVSPropertyOp42
 70
     1
102
RTVSPropertyOp43
 70
     1
102
RTVSPropertyOp44
 70
     1
102
RTVSPropertyOp45
 70
     1
102
RTVSPropertyOp46
 70
     1
102
RTVSPropertyOp47
 70
     1
102
RTVSPropertyOp48
 70
     1
102
RTVSPropertyOp49
 70
     1
102
RTVSPropertyOp50
 70
     1
102
RTVSPropertyOp51
 70
     0
102
RTVSPropertyOp52
 70
     0
102
RTVSPropertyOp53
 70
     1
102
RTVSPropertyOp54
 70
     1
102
RTVSPropertyOp55
 70
     1
102
RTVSPropertyOp56
 70
     1
102
RTVSPropertyOp57
 70
     1
102
RTVSPropertyOp58
 70
     1
102
RTVSPropertyOp59
 70
     1
102
RTVSPropertyOp60
 70
     1
102
RTVSPropertyOp61
 70
     1
102
RTVSPropertyOp62
 70
     1
  0
XRECORD
  5
A1ED
102
{ACAD_REACTORS
330
A1EC
102
}
330
A1EC
100
AcDbXrecord
280
     1
102
RTVSPost2010Prop28
280
     0
102
RTVSPost2010PropOp28
 70
     1
102
RTVSPost2010Prop29
280
     1
102
RTVSPost2010PropOp29
 70
     1
102
RTVSPost2010Prop30
280
     1
102
RTVSPost2010PropOp30
 70
     1
102
RTVSPost2010Prop31
280
     0
102
RTVSPost2010PropOp31
 70
     1
102
RTVSPost2010Prop32
280
     0
102
RTVSPost2010PropOp32
 70
     1
102
RTVSPost2010Prop33
280
     0
102
RTVSPost2010PropOp33
 70
     1
102
RTVSPost2010Prop34
280
     0
102
RTVSPost2010PropOp34
 70
     1
102
RTVSPost2010Prop35
280
     0
102
RTVSPost2010PropOp35
 70
     1
102
RTVSPost2010Prop36
280
     0
102
RTVSPost2010PropOp36
 70
     1
102
RTVSPost2010Prop37
 90
       50
102
RTVSPost2010PropOp37
 70
     1
102
RTVSPost2010Prop38
140
0.0
102
RTVSPost2010PropOp38
 70
     1
102
RTVSPost2010Prop39
140
1.0
102
RTVSPost2010PropOp39
 70
     1
102
RTVSPost2010Prop40
 90
        0
102
RTVSPost2010PropOp40
 70
     1
102
RTVSPost2010Prop41ColorIndex
 90
       18
102
RTVSPost2010Prop41ColorRGB
 90
        0
102
RTVSPost2010PropOp41
 70
     1
102
RTVSPost2010Prop42
 90
       50
102
RTVSPost2010PropOp42
 70
     1
102
RTVSPost2010Prop43
 90
        3
102
RTVSPost2010PropOp43
 70
     1
102
RTVSPost2010Prop44ColorIndex
 90
        5
102
RTVSPost2010Prop44ColorRGB
 90
      255
102
RTVSPost2010PropOp44
 70
     1
102
RTVSPost2010Prop45
280
     0
102
RTVSPost2010PropOp45
 70
     1
102
RTVSPost2010Prop46
 90
       50
102
RTVSPost2010PropOp46
 70
     1
102
RTVSPost2010Prop47
 90
       50
102
RTVSPost2010PropOp47
 70
     1
102
RTVSPost2010Prop48
 90
       50
102
RTVSPost2010PropOp48
 70
     1
102
RTVSPost2010Prop49
280
     0
102
RTVSPost2010PropOp49
 70
     1
102
RTVSPost2010Prop50
 90
       50
102
RTVSPost2010PropOp50
 70
     1
102
RTVSPost2010Prop51ColorIndex
 90
      256
102
RTVSPost2010Prop51ColorRGB
 90
-16777216
102
RTVSPost2010PropOp51
 70
     0
102
RTVSPost2010Prop52
140
1.0
102
RTVSPost2010PropOp52
 70
     0
102
RTVSPost2010Prop53
 90
        2
102
RTVSPost2010PropOp53
 70
     1
102
RTVSPost2010Prop54
  1
strokes_ogs.tif
102
RTVSPost2010PropOp54
 70
     1
102
RTVSPost2010Prop55
280
     0
102
RTVSPost2010PropOp55
 70
     1
102
RTVSPost2010Prop56
140
1.0
102
RTVSPost2010PropOp56
 70
     1
102
RTVSPost2010Prop57
140
1.0
102
RTVSPost2010PropOp57
 70
     1
102
RTVSPropertyOp0
 70
     1
102
RTVSPropertyOp1
 70
     1
102
RTVSPropertyOp2
 70
     1
102
RTVSPropertyOp3
 70
     1
102
RTVSPropertyOp4
 70
     1
102
RTVSPropertyOp5
 70
     1
102
RTVSPropertyOp6
 70
     1
102
RTVSPropertyOp7
 70
     1
102
RTVSPropertyOp8
 70
     1
102
RTVSPropertyOp9
 70
     1
102
RTVSPropertyOp10
 70
     1
102
RTVSPropertyOp11
 70
     1
102
RTVSPropertyOp12
 70
     1
102
RTVSPropertyOp13
 70
     1
102
RTVSPropertyOp14
 70
     1
102
RTVSPropertyOp15
 70
     1
102
RTVSPropertyOp16
 70
     1
102
RTVSPropertyOp17
 70
     1
102
RTVSPropertyOp18
 70
     1
102
RTVSPropertyOp19
 70
     1
102
RTVSPropertyOp20
 70
     1
102
RTVSPropertyOp21
 70
     1
102
RTVSPropertyOp22
 70
     1
102
RTVSPropertyOp23
 70
     1
102
RTVSPropertyOp24
 70
     1
102
RTVSPropertyOp25
 70
     1
102
RTVSPropertyOp26
 70
     1
102
RTVSPropertyOp27
 70
     1
102
RTVSPropertyOp28
 70
     1
102
RTVSPropertyOp29
 70
     1
102
RTVSPropertyOp30
 70
     1
102
RTVSPropertyOp31
 70
     1
102
RTVSPropertyOp32
 70
     1
102
RTVSPropertyOp33
 70
     1
102
RTVSPropertyOp34
 70
     1
102
RTVSPropertyOp35
 70
     1
102
RTVSPropertyOp36
 70
     1
102
RTVSPropertyOp37
 70
     1
102
RTVSPropertyOp38
 70
     1
102
RTVSPropertyOp39
 70
     1
102
RTVSPropertyOp40
 70
     1
102
RTVSPropertyOp41
 70
     1
102
RTVSPropertyOp42
 70
     1
102
RTVSPropertyOp43
 70
     1
102
RTVSPropertyOp44
 70
     1
102
RTVSPropertyOp45
 70
     1
102
RTVSPropertyOp46
 70
     1
102
RTVSPropertyOp47
 70
     1
102
RTVSPropertyOp48
 70
     1
102
RTVSPropertyOp49
 70
     1
102
RTVSPropertyOp50
 70
     1
102
RTVSPropertyOp51
 70
     0
102
RTVSPropertyOp52
 70
     0
102
RTVSPropertyOp53
 70
     1
102
RTVSPropertyOp54
 70
     1
102
RTVSPropertyOp55
 70
     1
102
RTVSPropertyOp56
 70
     1
102
RTVSPropertyOp57
 70
     1
102
RTVSPropertyOp58
 70
     1
102
RTVSPropertyOp59
 70
     1
102
RTVSPropertyOp60
 70
     1
102
RTVSPropertyOp61
 70
     1
102
RTVSPropertyOp62
 70
     1
  0
XRECORD
  5
A1FB
102
{ACAD_REACTORS
330
A1FA
102
}
330
A1FA
100
AcDbXrecord
280
     1
102
RTVSPost2010Prop28
280
     0
102
RTVSPost2010PropOp28
 70
     1
102
RTVSPost2010Prop29
280
     1
102
RTVSPost2010PropOp29
 70
     1
102
RTVSPost2010Prop30
280
     1
102
RTVSPost2010PropOp30
 70
     1
102
RTVSPost2010Prop31
280
     0
102
RTVSPost2010PropOp31
 70
     1
102
RTVSPost2010Prop32
280
     0
102
RTVSPost2010PropOp32
 70
     1
102
RTVSPost2010Prop33
280
     0
102
RTVSPost2010PropOp33
 70
     1
102
RTVSPost2010Prop34
280
     0
102
RTVSPost2010PropOp34
 70
     1
102
RTVSPost2010Prop35
280
     0
102
RTVSPost2010PropOp35
 70
     1
102
RTVSPost2010Prop36
280
     0
102
RTVSPost2010PropOp36
 70
     1
102
RTVSPost2010Prop37
 90
       50
102
RTVSPost2010PropOp37
 70
     1
102
RTVSPost2010Prop38
140
0.0
102
RTVSPost2010PropOp38
 70
     1
102
RTVSPost2010Prop39
140
1.0
102
RTVSPost2010PropOp39
 70
     1
102
RTVSPost2010Prop40
 90
        0
102
RTVSPost2010PropOp40
 70
     1
102
RTVSPost2010Prop41ColorIndex
 90
       18
102
RTVSPost2010Prop41ColorRGB
 90
        0
102
RTVSPost2010PropOp41
 70
     1
102
RTVSPost2010Prop42
 90
       50
102
RTVSPost2010PropOp42
 70
     1
102
RTVSPost2010Prop43
 90
        3
102
RTVSPost2010PropOp43
 70
     1
102
RTVSPost2010Prop44ColorIndex
 90
        5
102
RTVSPost2010Prop44ColorRGB
 90
      255
102
RTVSPost2010PropOp44
 70
     1
102
RTVSPost2010Prop45
280
     0
102
RTVSPost2010PropOp45
 70
     1
102
RTVSPost2010Prop46
 90
       50
102
RTVSPost2010PropOp46
 70
     1
102
RTVSPost2010Prop47
 90
       50
102
RTVSPost2010PropOp47
 70
     1
102
RTVSPost2010Prop48
 90
       50
102
RTVSPost2010PropOp48
 70
     1
102
RTVSPost2010Prop49
280
     0
102
RTVSPost2010PropOp49
 70
     1
102
RTVSPost2010Prop50
 90
       50
102
RTVSPost2010PropOp50
 70
     1
102
RTVSPost2010Prop51ColorIndex
 90
      256
102
RTVSPost2010Prop51ColorRGB
 90
-16777216
102
RTVSPost2010PropOp51
 70
     0
102
RTVSPost2010Prop52
140
1.0
102
RTVSPost2010PropOp52
 70
     0
102
RTVSPost2010Prop53
 90
        2
102
RTVSPost2010PropOp53
 70
     1
102
RTVSPost2010Prop54
  1
strokes_ogs.tif
102
RTVSPost2010PropOp54
 70
     1
102
RTVSPost2010Prop55
280
     0
102
RTVSPost2010PropOp55
 70
     1
102
RTVSPost2010Prop56
140
1.0
102
RTVSPost2010PropOp56
 70
     1
102
RTVSPost2010Prop57
140
1.0
102
RTVSPost2010PropOp57
 70
     1
102
RTVSPropertyOp0
 70
     1
102
RTVSPropertyOp1
 70
     1
102
RTVSPropertyOp2
 70
     1
102
RTVSPropertyOp3
 70
     1
102
RTVSPropertyOp4
 70
     1
102
RTVSPropertyOp5
 70
     1
102
RTVSPropertyOp6
 70
     1
102
RTVSPropertyOp7
 70
     1
102
RTVSPropertyOp8
 70
     1
102
RTVSPropertyOp9
 70
     1
102
RTVSPropertyOp10
 70
     1
102
RTVSPropertyOp11
 70
     1
102
RTVSPropertyOp12
 70
     1
102
RTVSPropertyOp13
 70
     1
102
RTVSPropertyOp14
 70
     1
102
RTVSPropertyOp15
 70
     1
102
RTVSPropertyOp16
 70
     1
102
RTVSPropertyOp17
 70
     1
102
RTVSPropertyOp18
 70
     1
102
RTVSPropertyOp19
 70
     1
102
RTVSPropertyOp20
 70
     1
102
RTVSPropertyOp21
 70
     1
102
RTVSPropertyOp22
 70
     1
102
RTVSPropertyOp23
 70
     1
102
RTVSPropertyOp24
 70
     1
102
RTVSPropertyOp25
 70
     1
102
RTVSPropertyOp26
 70
     1
102
RTVSPropertyOp27
 70
     1
102
RTVSPropertyOp28
 70
     1
102
RTVSPropertyOp29
 70
     1
102
RTVSPropertyOp30
 70
     1
102
RTVSPropertyOp31
 70
     1
102
RTVSPropertyOp32
 70
     1
102
RTVSPropertyOp33
 70
     1
102
RTVSPropertyOp34
 70
     1
102
RTVSPropertyOp35
 70
     1
102
RTVSPropertyOp36
 70
     1
102
RTVSPropertyOp37
 70
     1
102
RTVSPropertyOp38
 70
     1
102
RTVSPropertyOp39
 70
     1
102
RTVSPropertyOp40
 70
     1
102
RTVSPropertyOp41
 70
     1
102
RTVSPropertyOp42
 70
     1
102
RTVSPropertyOp43
 70
     1
102
RTVSPropertyOp44
 70
     1
102
RTVSPropertyOp45
 70
     1
102
RTVSPropertyOp46
 70
     1
102
RTVSPropertyOp47
 70
     1
102
RTVSPropertyOp48
 70
     1
102
RTVSPropertyOp49
 70
     1
102
RTVSPropertyOp50
 70
     1
102
RTVSPropertyOp51
 70
     0
102
RTVSPropertyOp52
 70
     0
102
RTVSPropertyOp53
 70
     1
102
RTVSPropertyOp54
 70
     1
102
RTVSPropertyOp55
 70
     1
102
RTVSPropertyOp56
 70
     1
102
RTVSPropertyOp57
 70
     1
102
RTVSPropertyOp58
 70
     1
102
RTVSPropertyOp59
 70
     1
102
RTVSPropertyOp60
 70
     1
102
RTVSPropertyOp61
 70
     1
102
RTVSPropertyOp62
 70
     1
  0
XRECORD
  5
A203
102
{ACAD_REACTORS
330
A202
102
}
330
A202
100
AcDbXrecord
280
     1
102
RTVSPost2010Prop28
280
     0
102
RTVSPost2010PropOp28
 70
     1
102
RTVSPost2010Prop29
280
     1
102
RTVSPost2010PropOp29
 70
     1
102
RTVSPost2010Prop30
280
     1
102
RTVSPost2010PropOp30
 70
     1
102
RTVSPost2010Prop31
280
     0
102
RTVSPost2010PropOp31
 70
     1
102
RTVSPost2010Prop32
280
     0
102
RTVSPost2010PropOp32
 70
     1
102
RTVSPost2010Prop33
280
     0
102
RTVSPost2010PropOp33
 70
     1
102
RTVSPost2010Prop34
280
     0
102
RTVSPost2010PropOp34
 70
     1
102
RTVSPost2010Prop35
280
     0
102
RTVSPost2010PropOp35
 70
     1
102
RTVSPost2010Prop36
280
     0
102
RTVSPost2010PropOp36
 70
     1
102
RTVSPost2010Prop37
 90
       50
102
RTVSPost2010PropOp37
 70
     1
102
RTVSPost2010Prop38
140
0.0
102
RTVSPost2010PropOp38
 70
     1
102
RTVSPost2010Prop39
140
1.0
102
RTVSPost2010PropOp39
 70
     1
102
RTVSPost2010Prop40
 90
        0
102
RTVSPost2010PropOp40
 70
     1
102
RTVSPost2010Prop41ColorIndex
 90
       18
102
RTVSPost2010Prop41ColorRGB
 90
        0
102
RTVSPost2010PropOp41
 70
     1
102
RTVSPost2010Prop42
 90
       50
102
RTVSPost2010PropOp42
 70
     1
102
RTVSPost2010Prop43
 90
        3
102
RTVSPost2010PropOp43
 70
     1
102
RTVSPost2010Prop44ColorIndex
 90
        5
102
RTVSPost2010Prop44ColorRGB
 90
      255
102
RTVSPost2010PropOp44
 70
     1
102
RTVSPost2010Prop45
280
     0
102
RTVSPost2010PropOp45
 70
     1
102
RTVSPost2010Prop46
 90
       50
102
RTVSPost2010PropOp46
 70
     1
102
RTVSPost2010Prop47
 90
       50
102
RTVSPost2010PropOp47
 70
     1
102
RTVSPost2010Prop48
 90
       50
102
RTVSPost2010PropOp48
 70
     1
102
RTVSPost2010Prop49
280
     0
102
RTVSPost2010PropOp49
 70
     1
102
RTVSPost2010Prop50
 90
       50
102
RTVSPost2010PropOp50
 70
     1
102
RTVSPost2010Prop51ColorIndex
 90
      256
102
RTVSPost2010Prop51ColorRGB
 90
-16777216
102
RTVSPost2010PropOp51
 70
     0
102
RTVSPost2010Prop52
140
1.0
102
RTVSPost2010PropOp52
 70
     0
102
RTVSPost2010Prop53
 90
        2
102
RTVSPost2010PropOp53
 70
     1
102
RTVSPost2010Prop54
  1
strokes_ogs.tif
102
RTVSPost2010PropOp54
 70
     1
102
RTVSPost2010Prop55
280
     0
102
RTVSPost2010PropOp55
 70
     1
102
RTVSPost2010Prop56
140
1.0
102
RTVSPost2010PropOp56
 70
     1
102
RTVSPost2010Prop57
140
1.0
102
RTVSPost2010PropOp57
 70
     1
102
RTVSPropertyOp0
 70
     1
102
RTVSPropertyOp1
 70
     1
102
RTVSPropertyOp2
 70
     1
102
RTVSPropertyOp3
 70
     1
102
RTVSPropertyOp4
 70
     1
102
RTVSPropertyOp5
 70
     1
102
RTVSPropertyOp6
 70
     1
102
RTVSPropertyOp7
 70
     1
102
RTVSPropertyOp8
 70
     1
102
RTVSPropertyOp9
 70
     1
102
RTVSPropertyOp10
 70
     1
102
RTVSPropertyOp11
 70
     1
102
RTVSPropertyOp12
 70
     1
102
RTVSPropertyOp13
 70
     1
102
RTVSPropertyOp14
 70
     1
102
RTVSPropertyOp15
 70
     1
102
RTVSPropertyOp16
 70
     1
102
RTVSPropertyOp17
 70
     1
102
RTVSPropertyOp18
 70
     1
102
RTVSPropertyOp19
 70
     1
102
RTVSPropertyOp20
 70
     1
102
RTVSPropertyOp21
 70
     1
102
RTVSPropertyOp22
 70
     1
102
RTVSPropertyOp23
 70
     1
102
RTVSPropertyOp24
 70
     1
102
RTVSPropertyOp25
 70
     1
102
RTVSPropertyOp26
 70
     1
102
RTVSPropertyOp27
 70
     1
102
RTVSPropertyOp28
 70
     1
102
RTVSPropertyOp29
 70
     1
102
RTVSPropertyOp30
 70
     1
102
RTVSPropertyOp31
 70
     1
102
RTVSPropertyOp32
 70
     1
102
RTVSPropertyOp33
 70
     1
102
RTVSPropertyOp34
 70
     1
102
RTVSPropertyOp35
 70
     1
102
RTVSPropertyOp36
 70
     1
102
RTVSPropertyOp37
 70
     1
102
RTVSPropertyOp38
 70
     1
102
RTVSPropertyOp39
 70
     1
102
RTVSPropertyOp40
 70
     1
102
RTVSPropertyOp41
 70
     1
102
RTVSPropertyOp42
 70
     1
102
RTVSPropertyOp43
 70
     1
102
RTVSPropertyOp44
 70
     1
102
RTVSPropertyOp45
 70
     1
102
RTVSPropertyOp46
 70
     1
102
RTVSPropertyOp47
 70
     1
102
RTVSPropertyOp48
 70
     1
102
RTVSPropertyOp49
 70
     1
102
RTVSPropertyOp50
 70
     1
102
RTVSPropertyOp51
 70
     0
102
RTVSPropertyOp52
 70
     0
102
RTVSPropertyOp53
 70
     1
102
RTVSPropertyOp54
 70
     1
102
RTVSPropertyOp55
 70
     1
102
RTVSPropertyOp56
 70
     1
102
RTVSPropertyOp57
 70
     1
102
RTVSPropertyOp58
 70
     1
102
RTVSPropertyOp59
 70
     1
102
RTVSPropertyOp60
 70
     1
102
RTVSPropertyOp61
 70
     1
102
RTVSPropertyOp62
 70
     1
  0
XRECORD
  5
A1F5
102
{ACAD_REACTORS
330
A1F4
102
}
330
A1F4
100
AcDbXrecord
280
     1
102
RTVSPost2010Prop28
280
     0
102
RTVSPost2010PropOp28
 70
     1
102
RTVSPost2010Prop29
280
     1
102
RTVSPost2010PropOp29
 70
     1
102
RTVSPost2010Prop30
280
     1
102
RTVSPost2010PropOp30
 70
     1
102
RTVSPost2010Prop31
280
     0
102
RTVSPost2010PropOp31
 70
     1
102
RTVSPost2010Prop32
280
     0
102
RTVSPost2010PropOp32
 70
     1
102
RTVSPost2010Prop33
280
     0
102
RTVSPost2010PropOp33
 70
     1
102
RTVSPost2010Prop34
280
     0
102
RTVSPost2010PropOp34
 70
     1
102
RTVSPost2010Prop35
280
     0
102
RTVSPost2010PropOp35
 70
     1
102
RTVSPost2010Prop36
280
     0
102
RTVSPost2010PropOp36
 70
     1
102
RTVSPost2010Prop37
 90
       50
102
RTVSPost2010PropOp37
 70
     1
102
RTVSPost2010Prop38
140
0.0
102
RTVSPost2010PropOp38
 70
     1
102
RTVSPost2010Prop39
140
1.0
102
RTVSPost2010PropOp39
 70
     1
102
RTVSPost2010Prop40
 90
        0
102
RTVSPost2010PropOp40
 70
     1
102
RTVSPost2010Prop41ColorIndex
 90
       18
102
RTVSPost2010Prop41ColorRGB
 90
        0
102
RTVSPost2010PropOp41
 70
     1
102
RTVSPost2010Prop42
 90
       50
102
RTVSPost2010PropOp42
 70
     1
102
RTVSPost2010Prop43
 90
        3
102
RTVSPost2010PropOp43
 70
     1
102
RTVSPost2010Prop44ColorIndex
 90
        5
102
RTVSPost2010Prop44ColorRGB
 90
      255
102
RTVSPost2010PropOp44
 70
     1
102
RTVSPost2010Prop45
280
     0
102
RTVSPost2010PropOp45
 70
     1
102
RTVSPost2010Prop46
 90
       50
102
RTVSPost2010PropOp46
 70
     1
102
RTVSPost2010Prop47
 90
       50
102
RTVSPost2010PropOp47
 70
     1
102
RTVSPost2010Prop48
 90
       50
102
RTVSPost2010PropOp48
 70
     1
102
RTVSPost2010Prop49
280
     0
102
RTVSPost2010PropOp49
 70
     1
102
RTVSPost2010Prop50
 90
       50
102
RTVSPost2010PropOp50
 70
     1
102
RTVSPost2010Prop51ColorIndex
 90
      256
102
RTVSPost2010Prop51ColorRGB
 90
-16777216
102
RTVSPost2010PropOp51
 70
     0
102
RTVSPost2010Prop52
140
1.0
102
RTVSPost2010PropOp52
 70
     0
102
RTVSPost2010Prop53
 90
        2
102
RTVSPost2010PropOp53
 70
     1
102
RTVSPost2010Prop54
  1
strokes_ogs.tif
102
RTVSPost2010PropOp54
 70
     1
102
RTVSPost2010Prop55
280
     0
102
RTVSPost2010PropOp55
 70
     1
102
RTVSPost2010Prop56
140
1.0
102
RTVSPost2010PropOp56
 70
     1
102
RTVSPost2010Prop57
140
1.0
102
RTVSPost2010PropOp57
 70
     1
102
RTVSPropertyOp0
 70
     1
102
RTVSPropertyOp1
 70
     1
102
RTVSPropertyOp2
 70
     1
102
RTVSPropertyOp3
 70
     1
102
RTVSPropertyOp4
 70
     1
102
RTVSPropertyOp5
 70
     1
102
RTVSPropertyOp6
 70
     1
102
RTVSPropertyOp7
 70
     1
102
RTVSPropertyOp8
 70
     1
102
RTVSPropertyOp9
 70
     1
102
RTVSPropertyOp10
 70
     1
102
RTVSPropertyOp11
 70
     1
102
RTVSPropertyOp12
 70
     1
102
RTVSPropertyOp13
 70
     1
102
RTVSPropertyOp14
 70
     1
102
RTVSPropertyOp15
 70
     1
102
RTVSPropertyOp16
 70
     1
102
RTVSPropertyOp17
 70
     1
102
RTVSPropertyOp18
 70
     1
102
RTVSPropertyOp19
 70
     1
102
RTVSPropertyOp20
 70
     1
102
RTVSPropertyOp21
 70
     1
102
RTVSPropertyOp22
 70
     1
102
RTVSPropertyOp23
 70
     1
102
RTVSPropertyOp24
 70
     1
102
RTVSPropertyOp25
 70
     1
102
RTVSPropertyOp26
 70
     1
102
RTVSPropertyOp27
 70
     1
102
RTVSPropertyOp28
 70
     1
102
RTVSPropertyOp29
 70
     1
102
RTVSPropertyOp30
 70
     1
102
RTVSPropertyOp31
 70
     1
102
RTVSPropertyOp32
 70
     1
102
RTVSPropertyOp33
 70
     1
102
RTVSPropertyOp34
 70
     1
102
RTVSPropertyOp35
 70
     1
102
RTVSPropertyOp36
 70
     1
102
RTVSPropertyOp37
 70
     1
102
RTVSPropertyOp38
 70
     1
102
RTVSPropertyOp39
 70
     1
102
RTVSPropertyOp40
 70
     1
102
RTVSPropertyOp41
 70
     1
102
RTVSPropertyOp42
 70
     1
102
RTVSPropertyOp43
 70
     1
102
RTVSPropertyOp44
 70
     1
102
RTVSPropertyOp45
 70
     1
102
RTVSPropertyOp46
 70
     1
102
RTVSPropertyOp47
 70
     1
102
RTVSPropertyOp48
 70
     1
102
RTVSPropertyOp49
 70
     1
102
RTVSPropertyOp50
 70
     1
102
RTVSPropertyOp51
 70
     0
102
RTVSPropertyOp52
 70
     0
102
RTVSPropertyOp53
 70
     1
102
RTVSPropertyOp54
 70
     1
102
RTVSPropertyOp55
 70
     1
102
RTVSPropertyOp56
 70
     1
102
RTVSPropertyOp57
 70
     1
102
RTVSPropertyOp58
 70
     1
102
RTVSPropertyOp59
 70
     1
102
RTVSPropertyOp60
 70
     1
102
RTVSPropertyOp61
 70
     1
102
RTVSPropertyOp62
 70
     1
  0
XRECORD
  5
A1F9
102
{ACAD_REACTORS
330
A1F8
102
}
330
A1F8
100
AcDbXrecord
280
     1
102
RTVSPost2010Prop28
280
     0
102
RTVSPost2010PropOp28
 70
     1
102
RTVSPost2010Prop29
280
     1
102
RTVSPost2010PropOp29
 70
     1
102
RTVSPost2010Prop30
280
     1
102
RTVSPost2010PropOp30
 70
     1
102
RTVSPost2010Prop31
280
     0
102
RTVSPost2010PropOp31
 70
     1
102
RTVSPost2010Prop32
280
     0
102
RTVSPost2010PropOp32
 70
     1
102
RTVSPost2010Prop33
280
     0
102
RTVSPost2010PropOp33
 70
     1
102
RTVSPost2010Prop34
280
     0
102
RTVSPost2010PropOp34
 70
     1
102
RTVSPost2010Prop35
280
     0
102
RTVSPost2010PropOp35
 70
     1
102
RTVSPost2010Prop36
280
     0
102
RTVSPost2010PropOp36
 70
     1
102
RTVSPost2010Prop37
 90
       50
102
RTVSPost2010PropOp37
 70
     1
102
RTVSPost2010Prop38
140
0.0
102
RTVSPost2010PropOp38
 70
     1
102
RTVSPost2010Prop39
140
1.0
102
RTVSPost2010PropOp39
 70
     1
102
RTVSPost2010Prop40
 90
        0
102
RTVSPost2010PropOp40
 70
     1
102
RTVSPost2010Prop41ColorIndex
 90
       18
102
RTVSPost2010Prop41ColorRGB
 90
        0
102
RTVSPost2010PropOp41
 70
     1
102
RTVSPost2010Prop42
 90
       50
102
RTVSPost2010PropOp42
 70
     1
102
RTVSPost2010Prop43
 90
        3
102
RTVSPost2010PropOp43
 70
     1
102
RTVSPost2010Prop44ColorIndex
 90
        5
102
RTVSPost2010Prop44ColorRGB
 90
      255
102
RTVSPost2010PropOp44
 70
     1
102
RTVSPost2010Prop45
280
     0
102
RTVSPost2010PropOp45
 70
     1
102
RTVSPost2010Prop46
 90
       50
102
RTVSPost2010PropOp46
 70
     1
102
RTVSPost2010Prop47
 90
       50
102
RTVSPost2010PropOp47
 70
     1
102
RTVSPost2010Prop48
 90
       50
102
RTVSPost2010PropOp48
 70
     1
102
RTVSPost2010Prop49
280
     0
102
RTVSPost2010PropOp49
 70
     1
102
RTVSPost2010Prop50
 90
       50
102
RTVSPost2010PropOp50
 70
     1
102
RTVSPost2010Prop51ColorIndex
 90
      256
102
RTVSPost2010Prop51ColorRGB
 90
-16777216
102
RTVSPost2010PropOp51
 70
     0
102
RTVSPost2010Prop52
140
1.0
102
RTVSPost2010PropOp52
 70
     0
102
RTVSPost2010Prop53
 90
        2
102
RTVSPost2010PropOp53
 70
     1
102
RTVSPost2010Prop54
  1
strokes_ogs.tif
102
RTVSPost2010PropOp54
 70
     1
102
RTVSPost2010Prop55
280
     0
102
RTVSPost2010PropOp55
 70
     1
102
RTVSPost2010Prop56
140
1.0
102
RTVSPost2010PropOp56
 70
     1
102
RTVSPost2010Prop57
140
1.0
102
RTVSPost2010PropOp57
 70
     1
102
RTVSPropertyOp0
 70
     1
102
RTVSPropertyOp1
 70
     1
102
RTVSPropertyOp2
 70
     1
102
RTVSPropertyOp3
 70
     1
102
RTVSPropertyOp4
 70
     1
102
RTVSPropertyOp5
 70
     1
102
RTVSPropertyOp6
 70
     1
102
RTVSPropertyOp7
 70
     1
102
RTVSPropertyOp8
 70
     1
102
RTVSPropertyOp9
 70
     1
102
RTVSPropertyOp10
 70
     1
102
RTVSPropertyOp11
 70
     1
102
RTVSPropertyOp12
 70
     1
102
RTVSPropertyOp13
 70
     1
102
RTVSPropertyOp14
 70
     1
102
RTVSPropertyOp15
 70
     1
102
RTVSPropertyOp16
 70
     1
102
RTVSPropertyOp17
 70
     1
102
RTVSPropertyOp18
 70
     1
102
RTVSPropertyOp19
 70
     1
102
RTVSPropertyOp20
 70
     1
102
RTVSPropertyOp21
 70
     1
102
RTVSPropertyOp22
 70
     1
102
RTVSPropertyOp23
 70
     1
102
RTVSPropertyOp24
 70
     1
102
RTVSPropertyOp25
 70
     1
102
RTVSPropertyOp26
 70
     1
102
RTVSPropertyOp27
 70
     1
102
RTVSPropertyOp28
 70
     1
102
RTVSPropertyOp29
 70
     1
102
RTVSPropertyOp30
 70
     1
102
RTVSPropertyOp31
 70
     1
102
RTVSPropertyOp32
 70
     1
102
RTVSPropertyOp33
 70
     1
102
RTVSPropertyOp34
 70
     1
102
RTVSPropertyOp35
 70
     1
102
RTVSPropertyOp36
 70
     1
102
RTVSPropertyOp37
 70
     1
102
RTVSPropertyOp38
 70
     1
102
RTVSPropertyOp39
 70
     1
102
RTVSPropertyOp40
 70
     1
102
RTVSPropertyOp41
 70
     1
102
RTVSPropertyOp42
 70
     1
102
RTVSPropertyOp43
 70
     1
102
RTVSPropertyOp44
 70
     1
102
RTVSPropertyOp45
 70
     1
102
RTVSPropertyOp46
 70
     1
102
RTVSPropertyOp47
 70
     1
102
RTVSPropertyOp48
 70
     1
102
RTVSPropertyOp49
 70
     1
102
RTVSPropertyOp50
 70
     1
102
RTVSPropertyOp51
 70
     0
102
RTVSPropertyOp52
 70
     0
102
RTVSPropertyOp53
 70
     1
102
RTVSPropertyOp54
 70
     1
102
RTVSPropertyOp55
 70
     1
102
RTVSPropertyOp56
 70
     1
102
RTVSPropertyOp57
 70
     1
102
RTVSPropertyOp58
 70
     1
102
RTVSPropertyOp59
 70
     1
102
RTVSPropertyOp60
 70
     1
102
RTVSPropertyOp61
 70
     1
102
RTVSPropertyOp62
 70
     1
  0
XRECORD
  5
A213
102
{ACAD_REACTORS
330
A212
102
}
330
A212
100
AcDbXrecord
280
     1
102
RTVSPost2010Prop28
280
     0
102
RTVSPost2010PropOp28
 70
     1
102
RTVSPost2010Prop29
280
     1
102
RTVSPost2010PropOp29
 70
     1
102
RTVSPost2010Prop30
280
     1
102
RTVSPost2010PropOp30
 70
     1
102
RTVSPost2010Prop31
280
     0
102
RTVSPost2010PropOp31
 70
     1
102
RTVSPost2010Prop32
280
     0
102
RTVSPost2010PropOp32
 70
     1
102
RTVSPost2010Prop33
280
     0
102
RTVSPost2010PropOp33
 70
     1
102
RTVSPost2010Prop34
280
     0
102
RTVSPost2010PropOp34
 70
     1
102
RTVSPost2010Prop35
280
     0
102
RTVSPost2010PropOp35
 70
     1
102
RTVSPost2010Prop36
280
     0
102
RTVSPost2010PropOp36
 70
     1
102
RTVSPost2010Prop37
 90
       50
102
RTVSPost2010PropOp37
 70
     0
102
RTVSPost2010Prop38
140
0.0
102
RTVSPost2010PropOp38
 70
     0
102
RTVSPost2010Prop39
140
1.0
102
RTVSPost2010PropOp39
 70
     0
102
RTVSPost2010Prop40
 90
        0
102
RTVSPost2010PropOp40
 70
     0
102
RTVSPost2010Prop41ColorIndex
 90
       18
102
RTVSPost2010Prop41ColorRGB
 90
        0
102
RTVSPost2010PropOp41
 70
     0
102
RTVSPost2010Prop42
 90
       50
102
RTVSPost2010PropOp42
 70
     0
102
RTVSPost2010Prop43
 90
        3
102
RTVSPost2010PropOp43
 70
     0
102
RTVSPost2010Prop44ColorIndex
 90
        5
102
RTVSPost2010Prop44ColorRGB
 90
      255
102
RTVSPost2010PropOp44
 70
     0
102
RTVSPost2010Prop45
280
     0
102
RTVSPost2010PropOp45
 70
     1
102
RTVSPost2010Prop46
 90
       50
102
RTVSPost2010PropOp46
 70
     0
102
RTVSPost2010Prop47
 90
       50
102
RTVSPost2010PropOp47
 70
     0
102
RTVSPost2010Prop48
 90
       50
102
RTVSPost2010PropOp48
 70
     0
102
RTVSPost2010Prop49
280
     0
102
RTVSPost2010PropOp49
 70
     1
102
RTVSPost2010Prop50
 90
       50
102
RTVSPost2010PropOp50
 70
     0
102
RTVSPost2010Prop51ColorIndex
 90
      256
102
RTVSPost2010Prop51ColorRGB
 90
-16777216
102
RTVSPost2010PropOp51
 70
     0
102
RTVSPost2010Prop52
140
1.0
102
RTVSPost2010PropOp52
 70
     0
102
RTVSPost2010Prop53
 90
        2
102
RTVSPost2010PropOp53
 70
     0
102
RTVSPost2010Prop54
  1
strokes_ogs.tif
102
RTVSPost2010PropOp54
 70
     0
102
RTVSPost2010Prop55
280
     0
102
RTVSPost2010PropOp55
 70
     1
102
RTVSPost2010Prop56
140
1.0
102
RTVSPost2010PropOp56
 70
     0
102
RTVSPost2010Prop57
140
1.0
102
RTVSPost2010PropOp57
 70
     0
102
RTVSPropertyOp0
 70
     0
102
RTVSPropertyOp1
 70
     0
102
RTVSPropertyOp2
 70
     0
102
RTVSPropertyOp3
 70
     0
102
RTVSPropertyOp4
 70
     0
102
RTVSPropertyOp5
 70
     0
102
RTVSPropertyOp6
 70
     0
102
RTVSPropertyOp7
 70
     0
102
RTVSPropertyOp8
 70
     0
102
RTVSPropertyOp9
 70
     0
102
RTVSPropertyOp10
 70
     0
102
RTVSPropertyOp11
 70
     0
102
RTVSPropertyOp12
 70
     0
102
RTVSPropertyOp13
 70
     0
102
RTVSPropertyOp14
 70
     2
102
RTVSPropertyOp15
 70
     0
102
RTVSPropertyOp16
 70
     0
102
RTVSPropertyOp17
 70
     0
102
RTVSPropertyOp18
 70
     0
102
RTVSPropertyOp19
 70
     0
102
RTVSPropertyOp20
 70
     0
102
RTVSPropertyOp21
 70
     0
102
RTVSPropertyOp22
 70
     0
102
RTVSPropertyOp23
 70
     0
102
RTVSPropertyOp24
 70
     0
102
RTVSPropertyOp25
 70
     0
102
RTVSPropertyOp26
 70
     0
102
RTVSPropertyOp27
 70
     0
102
RTVSPropertyOp28
 70
     1
102
RTVSPropertyOp29
 70
     1
102
RTVSPropertyOp30
 70
     1
102
RTVSPropertyOp31
 70
     1
102
RTVSPropertyOp32
 70
     1
102
RTVSPropertyOp33
 70
     1
102
RTVSPropertyOp34
 70
     1
102
RTVSPropertyOp35
 70
     1
102
RTVSPropertyOp36
 70
     1
102
RTVSPropertyOp37
 70
     0
102
RTVSPropertyOp38
 70
     0
102
RTVSPropertyOp39
 70
     0
102
RTVSPropertyOp40
 70
     0
102
RTVSPropertyOp41
 70
     0
102
RTVSPropertyOp42
 70
     0
102
RTVSPropertyOp43
 70
     0
102
RTVSPropertyOp44
 70
     0
102
RTVSPropertyOp45
 70
     1
102
RTVSPropertyOp46
 70
     0
102
RTVSPropertyOp47
 70
     0
102
RTVSPropertyOp48
 70
     0
102
RTVSPropertyOp49
 70
     1
102
RTVSPropertyOp50
 70
     0
102
RTVSPropertyOp51
 70
     0
102
RTVSPropertyOp52
 70
     0
102
RTVSPropertyOp53
 70
     0
102
RTVSPropertyOp54
 70
     0
102
RTVSPropertyOp55
 70
     1
102
RTVSPropertyOp56
 70
     0
102
RTVSPropertyOp57
 70
     0
102
RTVSPropertyOp58
 70
     0
102
RTVSPropertyOp59
 70
     0
102
RTVSPropertyOp60
 70
     0
102
RTVSPropertyOp61
 70
     0
102
RTVSPropertyOp62
 70
     0
  0
XRECORD
  5
A201
102
{ACAD_REACTORS
330
A200
102
}
330
A200
100
AcDbXrecord
280
     1
102
RTVSPost2010Prop28
280
     0
102
RTVSPost2010PropOp28
 70
     1
102
RTVSPost2010Prop29
280
     1
102
RTVSPost2010PropOp29
 70
     1
102
RTVSPost2010Prop30
280
     1
102
RTVSPost2010PropOp30
 70
     1
102
RTVSPost2010Prop31
280
     0
102
RTVSPost2010PropOp31
 70
     1
102
RTVSPost2010Prop32
280
     0
102
RTVSPost2010PropOp32
 70
     1
102
RTVSPost2010Prop33
280
     0
102
RTVSPost2010PropOp33
 70
     1
102
RTVSPost2010Prop34
280
     0
102
RTVSPost2010PropOp34
 70
     1
102
RTVSPost2010Prop35
280
     0
102
RTVSPost2010PropOp35
 70
     1
102
RTVSPost2010Prop36
280
     0
102
RTVSPost2010PropOp36
 70
     1
102
RTVSPost2010Prop37
 90
       50
102
RTVSPost2010PropOp37
 70
     1
102
RTVSPost2010Prop38
140
0.0
102
RTVSPost2010PropOp38
 70
     1
102
RTVSPost2010Prop39
140
1.0
102
RTVSPost2010PropOp39
 70
     1
102
RTVSPost2010Prop40
 90
        0
102
RTVSPost2010PropOp40
 70
     1
102
RTVSPost2010Prop41ColorIndex
 90
       18
102
RTVSPost2010Prop41ColorRGB
 90
        0
102
RTVSPost2010PropOp41
 70
     1
102
RTVSPost2010Prop42
 90
       50
102
RTVSPost2010PropOp42
 70
     1
102
RTVSPost2010Prop43
 90
        3
102
RTVSPost2010PropOp43
 70
     1
102
RTVSPost2010Prop44ColorIndex
 90
        5
102
RTVSPost2010Prop44ColorRGB
 90
      255
102
RTVSPost2010PropOp44
 70
     1
102
RTVSPost2010Prop45
280
     0
102
RTVSPost2010PropOp45
 70
     1
102
RTVSPost2010Prop46
 90
       50
102
RTVSPost2010PropOp46
 70
     1
102
RTVSPost2010Prop47
 90
       50
102
RTVSPost2010PropOp47
 70
     1
102
RTVSPost2010Prop48
 90
       50
102
RTVSPost2010PropOp48
 70
     1
102
RTVSPost2010Prop49
280
     0
102
RTVSPost2010PropOp49
 70
     1
102
RTVSPost2010Prop50
 90
       50
102
RTVSPost2010PropOp50
 70
     1
102
RTVSPost2010Prop51ColorIndex
 90
      256
102
RTVSPost2010Prop51ColorRGB
 90
-16777216
102
RTVSPost2010PropOp51
 70
     0
102
RTVSPost2010Prop52
140
1.0
102
RTVSPost2010PropOp52
 70
     0
102
RTVSPost2010Prop53
 90
        2
102
RTVSPost2010PropOp53
 70
     1
102
RTVSPost2010Prop54
  1
strokes_ogs.tif
102
RTVSPost2010PropOp54
 70
     1
102
RTVSPost2010Prop55
280
     0
102
RTVSPost2010PropOp55
 70
     1
102
RTVSPost2010Prop56
140
1.0
102
RTVSPost2010PropOp56
 70
     1
102
RTVSPost2010Prop57
140
1.0
102
RTVSPost2010PropOp57
 70
     1
102
RTVSPropertyOp0
 70
     1
102
RTVSPropertyOp1
 70
     1
102
RTVSPropertyOp2
 70
     1
102
RTVSPropertyOp3
 70
     1
102
RTVSPropertyOp4
 70
     1
102
RTVSPropertyOp5
 70
     1
102
RTVSPropertyOp6
 70
     1
102
RTVSPropertyOp7
 70
     1
102
RTVSPropertyOp8
 70
     1
102
RTVSPropertyOp9
 70
     1
102
RTVSPropertyOp10
 70
     1
102
RTVSPropertyOp11
 70
     1
102
RTVSPropertyOp12
 70
     1
102
RTVSPropertyOp13
 70
     1
102
RTVSPropertyOp14
 70
     1
102
RTVSPropertyOp15
 70
     1
102
RTVSPropertyOp16
 70
     1
102
RTVSPropertyOp17
 70
     1
102
RTVSPropertyOp18
 70
     1
102
RTVSPropertyOp19
 70
     1
102
RTVSPropertyOp20
 70
     1
102
RTVSPropertyOp21
 70
     1
102
RTVSPropertyOp22
 70
     1
102
RTVSPropertyOp23
 70
     1
102
RTVSPropertyOp24
 70
     1
102
RTVSPropertyOp25
 70
     1
102
RTVSPropertyOp26
 70
     1
102
RTVSPropertyOp27
 70
     1
102
RTVSPropertyOp28
 70
     1
102
RTVSPropertyOp29
 70
     1
102
RTVSPropertyOp30
 70
     1
102
RTVSPropertyOp31
 70
     1
102
RTVSPropertyOp32
 70
     1
102
RTVSPropertyOp33
 70
     1
102
RTVSPropertyOp34
 70
     1
102
RTVSPropertyOp35
 70
     1
102
RTVSPropertyOp36
 70
     1
102
RTVSPropertyOp37
 70
     1
102
RTVSPropertyOp38
 70
     1
102
RTVSPropertyOp39
 70
     1
102
RTVSPropertyOp40
 70
     1
102
RTVSPropertyOp41
 70
     1
102
RTVSPropertyOp42
 70
     1
102
RTVSPropertyOp43
 70
     1
102
RTVSPropertyOp44
 70
     1
102
RTVSPropertyOp45
 70
     1
102
RTVSPropertyOp46
 70
     1
102
RTVSPropertyOp47
 70
     1
102
RTVSPropertyOp48
 70
     1
102
RTVSPropertyOp49
 70
     1
102
RTVSPropertyOp50
 70
     1
102
RTVSPropertyOp51
 70
     0
102
RTVSPropertyOp52
 70
     0
102
RTVSPropertyOp53
 70
     1
102
RTVSPropertyOp54
 70
     1
102
RTVSPropertyOp55
 70
     1
102
RTVSPropertyOp56
 70
     1
102
RTVSPropertyOp57
 70
     1
102
RTVSPropertyOp58
 70
     1
102
RTVSPropertyOp59
 70
     1
102
RTVSPropertyOp60
 70
     1
102
RTVSPropertyOp61
 70
     1
102
RTVSPropertyOp62
 70
     1
  0
XRECORD
  5
A1E5
102
{ACAD_REACTORS
330
A1E4
102
}
330
A1E4
100
AcDbXrecord
280
     1
102
RTVSPost2010Prop28
280
     0
102
RTVSPost2010PropOp28
 70
     1
102
RTVSPost2010Prop29
280
     1
102
RTVSPost2010PropOp29
 70
     1
102
RTVSPost2010Prop30
280
     1
102
RTVSPost2010PropOp30
 70
     1
102
RTVSPost2010Prop31
280
     0
102
RTVSPost2010PropOp31
 70
     1
102
RTVSPost2010Prop32
280
     0
102
RTVSPost2010PropOp32
 70
     1
102
RTVSPost2010Prop33
280
     0
102
RTVSPost2010PropOp33
 70
     1
102
RTVSPost2010Prop34
280
     0
102
RTVSPost2010PropOp34
 70
     1
102
RTVSPost2010Prop35
280
     0
102
RTVSPost2010PropOp35
 70
     1
102
RTVSPost2010Prop36
280
     0
102
RTVSPost2010PropOp36
 70
     1
102
RTVSPost2010Prop37
 90
       50
102
RTVSPost2010PropOp37
 70
     1
102
RTVSPost2010Prop38
140
0.0
102
RTVSPost2010PropOp38
 70
     1
102
RTVSPost2010Prop39
140
1.0
102
RTVSPost2010PropOp39
 70
     1
102
RTVSPost2010Prop40
 90
        0
102
RTVSPost2010PropOp40
 70
     1
102
RTVSPost2010Prop41ColorIndex
 90
       18
102
RTVSPost2010Prop41ColorRGB
 90
        0
102
RTVSPost2010PropOp41
 70
     1
102
RTVSPost2010Prop42
 90
       50
102
RTVSPost2010PropOp42
 70
     1
102
RTVSPost2010Prop43
 90
        3
102
RTVSPost2010PropOp43
 70
     1
102
RTVSPost2010Prop44ColorIndex
 90
        5
102
RTVSPost2010Prop44ColorRGB
 90
      255
102
RTVSPost2010PropOp44
 70
     1
102
RTVSPost2010Prop45
280
     0
102
RTVSPost2010PropOp45
 70
     1
102
RTVSPost2010Prop46
 90
       50
102
RTVSPost2010PropOp46
 70
     1
102
RTVSPost2010Prop47
 90
       50
102
RTVSPost2010PropOp47
 70
     1
102
RTVSPost2010Prop48
 90
       50
102
RTVSPost2010PropOp48
 70
     1
102
RTVSPost2010Prop49
280
     0
102
RTVSPost2010PropOp49
 70
     1
102
RTVSPost2010Prop50
 90
       50
102
RTVSPost2010PropOp50
 70
     1
102
RTVSPost2010Prop51ColorIndex
 90
      256
102
RTVSPost2010Prop51ColorRGB
 90
-16777216
102
RTVSPost2010PropOp51
 70
     0
102
RTVSPost2010Prop52
140
1.0
102
RTVSPost2010PropOp52
 70
     0
102
RTVSPost2010Prop53
 90
        2
102
RTVSPost2010PropOp53
 70
     1
102
RTVSPost2010Prop54
  1
strokes_ogs.tif
102
RTVSPost2010PropOp54
 70
     1
102
RTVSPost2010Prop55
280
     0
102
RTVSPost2010PropOp55
 70
     1
102
RTVSPost2010Prop56
140
1.0
102
RTVSPost2010PropOp56
 70
     1
102
RTVSPost2010Prop57
140
1.0
102
RTVSPost2010PropOp57
 70
     1
102
RTVSPropertyOp0
 70
     1
102
RTVSPropertyOp1
 70
     1
102
RTVSPropertyOp2
 70
     1
102
RTVSPropertyOp3
 70
     1
102
RTVSPropertyOp4
 70
     1
102
RTVSPropertyOp5
 70
     1
102
RTVSPropertyOp6
 70
     1
102
RTVSPropertyOp7
 70
     1
102
RTVSPropertyOp8
 70
     1
102
RTVSPropertyOp9
 70
     1
102
RTVSPropertyOp10
 70
     1
102
RTVSPropertyOp11
 70
     1
102
RTVSPropertyOp12
 70
     1
102
RTVSPropertyOp13
 70
     1
102
RTVSPropertyOp14
 70
     1
102
RTVSPropertyOp15
 70
     1
102
RTVSPropertyOp16
 70
     1
102
RTVSPropertyOp17
 70
     1
102
RTVSPropertyOp18
 70
     1
102
RTVSPropertyOp19
 70
     1
102
RTVSPropertyOp20
 70
     1
102
RTVSPropertyOp21
 70
     1
102
RTVSPropertyOp22
 70
     1
102
RTVSPropertyOp23
 70
     1
102
RTVSPropertyOp24
 70
     1
102
RTVSPropertyOp25
 70
     1
102
RTVSPropertyOp26
 70
     1
102
RTVSPropertyOp27
 70
     1
102
RTVSPropertyOp28
 70
     1
102
RTVSPropertyOp29
 70
     1
102
RTVSPropertyOp30
 70
     1
102
RTVSPropertyOp31
 70
     1
102
RTVSPropertyOp32
 70
     1
102
RTVSPropertyOp33
 70
     1
102
RTVSPropertyOp34
 70
     1
102
RTVSPropertyOp35
 70
     1
102
RTVSPropertyOp36
 70
     1
102
RTVSPropertyOp37
 70
     1
102
RTVSPropertyOp38
 70
     1
102
RTVSPropertyOp39
 70
     1
102
RTVSPropertyOp40
 70
     1
102
RTVSPropertyOp41
 70
     1
102
RTVSPropertyOp42
 70
     1
102
RTVSPropertyOp43
 70
     1
102
RTVSPropertyOp44
 70
     1
102
RTVSPropertyOp45
 70
     1
102
RTVSPropertyOp46
 70
     1
102
RTVSPropertyOp47
 70
     1
102
RTVSPropertyOp48
 70
     1
102
RTVSPropertyOp49
 70
     1
102
RTVSPropertyOp50
 70
     1
102
RTVSPropertyOp51
 70
     0
102
RTVSPropertyOp52
 70
     0
102
RTVSPropertyOp53
 70
     1
102
RTVSPropertyOp54
 70
     1
102
RTVSPropertyOp55
 70
     1
102
RTVSPropertyOp56
 70
     1
102
RTVSPropertyOp57
 70
     1
102
RTVSPropertyOp58
 70
     1
102
RTVSPropertyOp59
 70
     1
102
RTVSPropertyOp60
 70
     1
102
RTVSPropertyOp61
 70
     1
102
RTVSPropertyOp62
 70
     1
  0
XRECORD
  5
A1E7
102
{ACAD_REACTORS
330
A1E6
102
}
330
A1E6
100
AcDbXrecord
280
     1
102
RTVSPost2010Prop28
280
     0
102
RTVSPost2010PropOp28
 70
     1
102
RTVSPost2010Prop29
280
     1
102
RTVSPost2010PropOp29
 70
     1
102
RTVSPost2010Prop30
280
     1
102
RTVSPost2010PropOp30
 70
     1
102
RTVSPost2010Prop31
280
     0
102
RTVSPost2010PropOp31
 70
     1
102
RTVSPost2010Prop32
280
     0
102
RTVSPost2010PropOp32
 70
     1
102
RTVSPost2010Prop33
280
     0
102
RTVSPost2010PropOp33
 70
     1
102
RTVSPost2010Prop34
280
     0
102
RTVSPost2010PropOp34
 70
     1
102
RTVSPost2010Prop35
280
     0
102
RTVSPost2010PropOp35
 70
     1
102
RTVSPost2010Prop36
280
     0
102
RTVSPost2010PropOp36
 70
     1
102
RTVSPost2010Prop37
 90
       50
102
RTVSPost2010PropOp37
 70
     1
102
RTVSPost2010Prop38
140
0.0
102
RTVSPost2010PropOp38
 70
     1
102
RTVSPost2010Prop39
140
1.0
102
RTVSPost2010PropOp39
 70
     1
102
RTVSPost2010Prop40
 90
        0
102
RTVSPost2010PropOp40
 70
     1
102
RTVSPost2010Prop41ColorIndex
 90
       18
102
RTVSPost2010Prop41ColorRGB
 90
        0
102
RTVSPost2010PropOp41
 70
     1
102
RTVSPost2010Prop42
 90
       50
102
RTVSPost2010PropOp42
 70
     1
102
RTVSPost2010Prop43
 90
        3
102
RTVSPost2010PropOp43
 70
     1
102
RTVSPost2010Prop44ColorIndex
 90
        5
102
RTVSPost2010Prop44ColorRGB
 90
      255
102
RTVSPost2010PropOp44
 70
     1
102
RTVSPost2010Prop45
280
     0
102
RTVSPost2010PropOp45
 70
     1
102
RTVSPost2010Prop46
 90
       50
102
RTVSPost2010PropOp46
 70
     1
102
RTVSPost2010Prop47
 90
       50
102
RTVSPost2010PropOp47
 70
     1
102
RTVSPost2010Prop48
 90
       50
102
RTVSPost2010PropOp48
 70
     1
102
RTVSPost2010Prop49
280
     0
102
RTVSPost2010PropOp49
 70
     1
102
RTVSPost2010Prop50
 90
       50
102
RTVSPost2010PropOp50
 70
     1
102
RTVSPost2010Prop51ColorIndex
 90
      256
102
RTVSPost2010Prop51ColorRGB
 90
-16777216
102
RTVSPost2010PropOp51
 70
     0
102
RTVSPost2010Prop52
140
1.0
102
RTVSPost2010PropOp52
 70
     0
102
RTVSPost2010Prop53
 90
        2
102
RTVSPost2010PropOp53
 70
     1
102
RTVSPost2010Prop54
  1
strokes_ogs.tif
102
RTVSPost2010PropOp54
 70
     1
102
RTVSPost2010Prop55
280
     0
102
RTVSPost2010PropOp55
 70
     1
102
RTVSPost2010Prop56
140
1.0
102
RTVSPost2010PropOp56
 70
     1
102
RTVSPost2010Prop57
140
1.0
102
RTVSPost2010PropOp57
 70
     1
102
RTVSPropertyOp0
 70
     1
102
RTVSPropertyOp1
 70
     1
102
RTVSPropertyOp2
 70
     1
102
RTVSPropertyOp3
 70
     1
102
RTVSPropertyOp4
 70
     1
102
RTVSPropertyOp5
 70
     1
102
RTVSPropertyOp6
 70
     1
102
RTVSPropertyOp7
 70
     1
102
RTVSPropertyOp8
 70
     1
102
RTVSPropertyOp9
 70
     1
102
RTVSPropertyOp10
 70
     1
102
RTVSPropertyOp11
 70
     1
102
RTVSPropertyOp12
 70
     1
102
RTVSPropertyOp13
 70
     1
102
RTVSPropertyOp14
 70
     1
102
RTVSPropertyOp15
 70
     1
102
RTVSPropertyOp16
 70
     1
102
RTVSPropertyOp17
 70
     1
102
RTVSPropertyOp18
 70
     1
102
RTVSPropertyOp19
 70
     1
102
RTVSPropertyOp20
 70
     1
102
RTVSPropertyOp21
 70
     1
102
RTVSPropertyOp22
 70
     1
102
RTVSPropertyOp23
 70
     1
102
RTVSPropertyOp24
 70
     1
102
RTVSPropertyOp25
 70
     1
102
RTVSPropertyOp26
 70
     1
102
RTVSPropertyOp27
 70
     1
102
RTVSPropertyOp28
 70
     1
102
RTVSPropertyOp29
 70
     1
102
RTVSPropertyOp30
 70
     1
102
RTVSPropertyOp31
 70
     1
102
RTVSPropertyOp32
 70
     1
102
RTVSPropertyOp33
 70
     1
102
RTVSPropertyOp34
 70
     1
102
RTVSPropertyOp35
 70
     1
102
RTVSPropertyOp36
 70
     1
102
RTVSPropertyOp37
 70
     1
102
RTVSPropertyOp38
 70
     1
102
RTVSPropertyOp39
 70
     1
102
RTVSPropertyOp40
 70
     1
102
RTVSPropertyOp41
 70
     1
102
RTVSPropertyOp42
 70
     1
102
RTVSPropertyOp43
 70
     1
102
RTVSPropertyOp44
 70
     1
102
RTVSPropertyOp45
 70
     1
102
RTVSPropertyOp46
 70
     1
102
RTVSPropertyOp47
 70
     1
102
RTVSPropertyOp48
 70
     1
102
RTVSPropertyOp49
 70
     1
102
RTVSPropertyOp50
 70
     1
102
RTVSPropertyOp51
 70
     0
102
RTVSPropertyOp52
 70
     0
102
RTVSPropertyOp53
 70
     1
102
RTVSPropertyOp54
 70
     1
102
RTVSPropertyOp55
 70
     1
102
RTVSPropertyOp56
 70
     1
102
RTVSPropertyOp57
 70
     1
102
RTVSPropertyOp58
 70
     1
102
RTVSPropertyOp59
 70
     1
102
RTVSPropertyOp60
 70
     1
102
RTVSPropertyOp61
 70
     1
102
RTVSPropertyOp62
 70
     1
  0
XRECORD
  5
A1E9
102
{ACAD_REACTORS
330
A1E8
102
}
330
A1E8
100
AcDbXrecord
280
     1
102
RTVSPost2010Prop28
280
     0
102
RTVSPost2010PropOp28
 70
     1
102
RTVSPost2010Prop29
280
     1
102
RTVSPost2010PropOp29
 70
     1
102
RTVSPost2010Prop30
280
     1
102
RTVSPost2010PropOp30
 70
     1
102
RTVSPost2010Prop31
280
     0
102
RTVSPost2010PropOp31
 70
     1
102
RTVSPost2010Prop32
280
     0
102
RTVSPost2010PropOp32
 70
     1
102
RTVSPost2010Prop33
280
     0
102
RTVSPost2010PropOp33
 70
     1
102
RTVSPost2010Prop34
280
     0
102
RTVSPost2010PropOp34
 70
     1
102
RTVSPost2010Prop35
280
     0
102
RTVSPost2010PropOp35
 70
     1
102
RTVSPost2010Prop36
280
     0
102
RTVSPost2010PropOp36
 70
     1
102
RTVSPost2010Prop37
 90
       50
102
RTVSPost2010PropOp37
 70
     1
102
RTVSPost2010Prop38
140
0.0
102
RTVSPost2010PropOp38
 70
     1
102
RTVSPost2010Prop39
140
1.0
102
RTVSPost2010PropOp39
 70
     1
102
RTVSPost2010Prop40
 90
        0
102
RTVSPost2010PropOp40
 70
     1
102
RTVSPost2010Prop41ColorIndex
 90
       18
102
RTVSPost2010Prop41ColorRGB
 90
        0
102
RTVSPost2010PropOp41
 70
     1
102
RTVSPost2010Prop42
 90
       50
102
RTVSPost2010PropOp42
 70
     1
102
RTVSPost2010Prop43
 90
        3
102
RTVSPost2010PropOp43
 70
     1
102
RTVSPost2010Prop44ColorIndex
 90
        5
102
RTVSPost2010Prop44ColorRGB
 90
      255
102
RTVSPost2010PropOp44
 70
     1
102
RTVSPost2010Prop45
280
     0
102
RTVSPost2010PropOp45
 70
     1
102
RTVSPost2010Prop46
 90
       50
102
RTVSPost2010PropOp46
 70
     1
102
RTVSPost2010Prop47
 90
       50
102
RTVSPost2010PropOp47
 70
     1
102
RTVSPost2010Prop48
 90
       50
102
RTVSPost2010PropOp48
 70
     1
102
RTVSPost2010Prop49
280
     0
102
RTVSPost2010PropOp49
 70
     1
102
RTVSPost2010Prop50
 90
       50
102
RTVSPost2010PropOp50
 70
     1
102
RTVSPost2010Prop51ColorIndex
 90
      256
102
RTVSPost2010Prop51ColorRGB
 90
-16777216
102
RTVSPost2010PropOp51
 70
     0
102
RTVSPost2010Prop52
140
1.0
102
RTVSPost2010PropOp52
 70
     0
102
RTVSPost2010Prop53
 90
        2
102
RTVSPost2010PropOp53
 70
     1
102
RTVSPost2010Prop54
  1
strokes_ogs.tif
102
RTVSPost2010PropOp54
 70
     1
102
RTVSPost2010Prop55
280
     0
102
RTVSPost2010PropOp55
 70
     1
102
RTVSPost2010Prop56
140
1.0
102
RTVSPost2010PropOp56
 70
     1
102
RTVSPost2010Prop57
140
1.0
102
RTVSPost2010PropOp57
 70
     1
102
RTVSPropertyOp0
 70
     1
102
RTVSPropertyOp1
 70
     1
102
RTVSPropertyOp2
 70
     1
102
RTVSPropertyOp3
 70
     1
102
RTVSPropertyOp4
 70
     1
102
RTVSPropertyOp5
 70
     1
102
RTVSPropertyOp6
 70
     1
102
RTVSPropertyOp7
 70
     1
102
RTVSPropertyOp8
 70
     1
102
RTVSPropertyOp9
 70
     1
102
RTVSPropertyOp10
 70
     1
102
RTVSPropertyOp11
 70
     1
102
RTVSPropertyOp12
 70
     1
102
RTVSPropertyOp13
 70
     1
102
RTVSPropertyOp14
 70
     1
102
RTVSPropertyOp15
 70
     1
102
RTVSPropertyOp16
 70
     1
102
RTVSPropertyOp17
 70
     1
102
RTVSPropertyOp18
 70
     1
102
RTVSPropertyOp19
 70
     1
102
RTVSPropertyOp20
 70
     1
102
RTVSPropertyOp21
 70
     1
102
RTVSPropertyOp22
 70
     1
102
RTVSPropertyOp23
 70
     1
102
RTVSPropertyOp24
 70
     1
102
RTVSPropertyOp25
 70
     1
102
RTVSPropertyOp26
 70
     1
102
RTVSPropertyOp27
 70
     1
102
RTVSPropertyOp28
 70
     1
102
RTVSPropertyOp29
 70
     1
102
RTVSPropertyOp30
 70
     1
102
RTVSPropertyOp31
 70
     1
102
RTVSPropertyOp32
 70
     1
102
RTVSPropertyOp33
 70
     1
102
RTVSPropertyOp34
 70
     1
102
RTVSPropertyOp35
 70
     1
102
RTVSPropertyOp36
 70
     1
102
RTVSPropertyOp37
 70
     1
102
RTVSPropertyOp38
 70
     1
102
RTVSPropertyOp39
 70
     1
102
RTVSPropertyOp40
 70
     1
102
RTVSPropertyOp41
 70
     1
102
RTVSPropertyOp42
 70
     1
102
RTVSPropertyOp43
 70
     1
102
RTVSPropertyOp44
 70
     1
102
RTVSPropertyOp45
 70
     1
102
RTVSPropertyOp46
 70
     1
102
RTVSPropertyOp47
 70
     1
102
RTVSPropertyOp48
 70
     1
102
RTVSPropertyOp49
 70
     1
102
RTVSPropertyOp50
 70
     1
102
RTVSPropertyOp51
 70
     0
102
RTVSPropertyOp52
 70
     0
102
RTVSPropertyOp53
 70
     1
102
RTVSPropertyOp54
 70
     1
102
RTVSPropertyOp55
 70
     1
102
RTVSPropertyOp56
 70
     1
102
RTVSPropertyOp57
 70
     1
102
RTVSPropertyOp58
 70
     1
102
RTVSPropertyOp59
 70
     1
102
RTVSPropertyOp60
 70
     1
102
RTVSPropertyOp61
 70
     1
102
RTVSPropertyOp62
 70
     1
  0
XRECORD
  5
A1EB
102
{ACAD_REACTORS
330
A1EA
102
}
330
A1EA
100
AcDbXrecord
280
     1
102
RTVSPost2010Prop28
280
     0
102
RTVSPost2010PropOp28
 70
     1
102
RTVSPost2010Prop29
280
     1
102
RTVSPost2010PropOp29
 70
     1
102
RTVSPost2010Prop30
280
     1
102
RTVSPost2010PropOp30
 70
     1
102
RTVSPost2010Prop31
280
     0
102
RTVSPost2010PropOp31
 70
     1
102
RTVSPost2010Prop32
280
     0
102
RTVSPost2010PropOp32
 70
     1
102
RTVSPost2010Prop33
280
     0
102
RTVSPost2010PropOp33
 70
     1
102
RTVSPost2010Prop34
280
     0
102
RTVSPost2010PropOp34
 70
     1
102
RTVSPost2010Prop35
280
     0
102
RTVSPost2010PropOp35
 70
     1
102
RTVSPost2010Prop36
280
     0
102
RTVSPost2010PropOp36
 70
     1
102
RTVSPost2010Prop37
 90
       50
102
RTVSPost2010PropOp37
 70
     1
102
RTVSPost2010Prop38
140
0.0
102
RTVSPost2010PropOp38
 70
     1
102
RTVSPost2010Prop39
140
1.0
102
RTVSPost2010PropOp39
 70
     1
102
RTVSPost2010Prop40
 90
        0
102
RTVSPost2010PropOp40
 70
     1
102
RTVSPost2010Prop41ColorIndex
 90
       18
102
RTVSPost2010Prop41ColorRGB
 90
        0
102
RTVSPost2010PropOp41
 70
     1
102
RTVSPost2010Prop42
 90
       50
102
RTVSPost2010PropOp42
 70
     1
102
RTVSPost2010Prop43
 90
        3
102
RTVSPost2010PropOp43
 70
     1
102
RTVSPost2010Prop44ColorIndex
 90
        5
102
RTVSPost2010Prop44ColorRGB
 90
      255
102
RTVSPost2010PropOp44
 70
     1
102
RTVSPost2010Prop45
280
     0
102
RTVSPost2010PropOp45
 70
     1
102
RTVSPost2010Prop46
 90
       50
102
RTVSPost2010PropOp46
 70
     1
102
RTVSPost2010Prop47
 90
       50
102
RTVSPost2010PropOp47
 70
     1
102
RTVSPost2010Prop48
 90
       50
102
RTVSPost2010PropOp48
 70
     1
102
RTVSPost2010Prop49
280
     0
102
RTVSPost2010PropOp49
 70
     1
102
RTVSPost2010Prop50
 90
       50
102
RTVSPost2010PropOp50
 70
     1
102
RTVSPost2010Prop51ColorIndex
 90
      256
102
RTVSPost2010Prop51ColorRGB
 90
-16777216
102
RTVSPost2010PropOp51
 70
     0
102
RTVSPost2010Prop52
140
1.0
102
RTVSPost2010PropOp52
 70
     0
102
RTVSPost2010Prop53
 90
        2
102
RTVSPost2010PropOp53
 70
     1
102
RTVSPost2010Prop54
  1
strokes_ogs.tif
102
RTVSPost2010PropOp54
 70
     1
102
RTVSPost2010Prop55
280
     0
102
RTVSPost2010PropOp55
 70
     1
102
RTVSPost2010Prop56
140
1.0
102
RTVSPost2010PropOp56
 70
     1
102
RTVSPost2010Prop57
140
1.0
102
RTVSPost2010PropOp57
 70
     1
102
RTVSPropertyOp0
 70
     1
102
RTVSPropertyOp1
 70
     1
102
RTVSPropertyOp2
 70
     1
102
RTVSPropertyOp3
 70
     1
102
RTVSPropertyOp4
 70
     1
102
RTVSPropertyOp5
 70
     1
102
RTVSPropertyOp6
 70
     1
102
RTVSPropertyOp7
 70
     1
102
RTVSPropertyOp8
 70
     1
102
RTVSPropertyOp9
 70
     1
102
RTVSPropertyOp10
 70
     1
102
RTVSPropertyOp11
 70
     1
102
RTVSPropertyOp12
 70
     1
102
RTVSPropertyOp13
 70
     1
102
RTVSPropertyOp14
 70
     1
102
RTVSPropertyOp15
 70
     1
102
RTVSPropertyOp16
 70
     1
102
RTVSPropertyOp17
 70
     1
102
RTVSPropertyOp18
 70
     1
102
RTVSPropertyOp19
 70
     1
102
RTVSPropertyOp20
 70
     1
102
RTVSPropertyOp21
 70
     1
102
RTVSPropertyOp22
 70
     1
102
RTVSPropertyOp23
 70
     1
102
RTVSPropertyOp24
 70
     1
102
RTVSPropertyOp25
 70
     1
102
RTVSPropertyOp26
 70
     1
102
RTVSPropertyOp27
 70
     1
102
RTVSPropertyOp28
 70
     1
102
RTVSPropertyOp29
 70
     1
102
RTVSPropertyOp30
 70
     1
102
RTVSPropertyOp31
 70
     1
102
RTVSPropertyOp32
 70
     1
102
RTVSPropertyOp33
 70
     1
102
RTVSPropertyOp34
 70
     1
102
RTVSPropertyOp35
 70
     1
102
RTVSPropertyOp36
 70
     1
102
RTVSPropertyOp37
 70
     1
102
RTVSPropertyOp38
 70
     1
102
RTVSPropertyOp39
 70
     1
102
RTVSPropertyOp40
 70
     1
102
RTVSPropertyOp41
 70
     1
102
RTVSPropertyOp42
 70
     1
102
RTVSPropertyOp43
 70
     1
102
RTVSPropertyOp44
 70
     1
102
RTVSPropertyOp45
 70
     1
102
RTVSPropertyOp46
 70
     1
102
RTVSPropertyOp47
 70
     1
102
RTVSPropertyOp48
 70
     1
102
RTVSPropertyOp49
 70
     1
102
RTVSPropertyOp50
 70
     1
102
RTVSPropertyOp51
 70
     0
102
RTVSPropertyOp52
 70
     0
102
RTVSPropertyOp53
 70
     1
102
RTVSPropertyOp54
 70
     1
102
RTVSPropertyOp55
 70
     1
102
RTVSPropertyOp56
 70
     1
102
RTVSPropertyOp57
 70
     1
102
RTVSPropertyOp58
 70
     1
102
RTVSPropertyOp59
 70
     1
102
RTVSPropertyOp60
 70
     1
102
RTVSPropertyOp61
 70
     1
102
RTVSPropertyOp62
 70
     1
  0
XRECORD
  5
A1F3
102
{ACAD_REACTORS
330
A1F2
102
}
330
A1F2
100
AcDbXrecord
280
     1
102
RTVSPost2010Prop28
280
     0
102
RTVSPost2010PropOp28
 70
     1
102
RTVSPost2010Prop29
280
     1
102
RTVSPost2010PropOp29
 70
     1
102
RTVSPost2010Prop30
280
     1
102
RTVSPost2010PropOp30
 70
     1
102
RTVSPost2010Prop31
280
     0
102
RTVSPost2010PropOp31
 70
     1
102
RTVSPost2010Prop32
280
     0
102
RTVSPost2010PropOp32
 70
     1
102
RTVSPost2010Prop33
280
     0
102
RTVSPost2010PropOp33
 70
     1
102
RTVSPost2010Prop34
280
     0
102
RTVSPost2010PropOp34
 70
     1
102
RTVSPost2010Prop35
280
     0
102
RTVSPost2010PropOp35
 70
     1
102
RTVSPost2010Prop36
280
     0
102
RTVSPost2010PropOp36
 70
     1
102
RTVSPost2010Prop37
 90
       50
102
RTVSPost2010PropOp37
 70
     1
102
RTVSPost2010Prop38
140
0.0
102
RTVSPost2010PropOp38
 70
     1
102
RTVSPost2010Prop39
140
1.0
102
RTVSPost2010PropOp39
 70
     1
102
RTVSPost2010Prop40
 90
        0
102
RTVSPost2010PropOp40
 70
     1
102
RTVSPost2010Prop41ColorIndex
 90
       18
102
RTVSPost2010Prop41ColorRGB
 90
        0
102
RTVSPost2010PropOp41
 70
     1
102
RTVSPost2010Prop42
 90
       50
102
RTVSPost2010PropOp42
 70
     1
102
RTVSPost2010Prop43
 90
        3
102
RTVSPost2010PropOp43
 70
     1
102
RTVSPost2010Prop44ColorIndex
 90
        5
102
RTVSPost2010Prop44ColorRGB
 90
      255
102
RTVSPost2010PropOp44
 70
     1
102
RTVSPost2010Prop45
280
     0
102
RTVSPost2010PropOp45
 70
     1
102
RTVSPost2010Prop46
 90
       50
102
RTVSPost2010PropOp46
 70
     1
102
RTVSPost2010Prop47
 90
       50
102
RTVSPost2010PropOp47
 70
     1
102
RTVSPost2010Prop48
 90
       50
102
RTVSPost2010PropOp48
 70
     1
102
RTVSPost2010Prop49
280
     0
102
RTVSPost2010PropOp49
 70
     1
102
RTVSPost2010Prop50
 90
       50
102
RTVSPost2010PropOp50
 70
     1
102
RTVSPost2010Prop51ColorIndex
 90
      256
102
RTVSPost2010Prop51ColorRGB
 90
-16777216
102
RTVSPost2010PropOp51
 70
     0
102
RTVSPost2010Prop52
140
1.0
102
RTVSPost2010PropOp52
 70
     0
102
RTVSPost2010Prop53
 90
        2
102
RTVSPost2010PropOp53
 70
     1
102
RTVSPost2010Prop54
  1
strokes_ogs.tif
102
RTVSPost2010PropOp54
 70
     1
102
RTVSPost2010Prop55
280
     0
102
RTVSPost2010PropOp55
 70
     1
102
RTVSPost2010Prop56
140
1.0
102
RTVSPost2010PropOp56
 70
     1
102
RTVSPost2010Prop57
140
1.0
102
RTVSPost2010PropOp57
 70
     1
102
RTVSPropertyOp0
 70
     1
102
RTVSPropertyOp1
 70
     1
102
RTVSPropertyOp2
 70
     1
102
RTVSPropertyOp3
 70
     1
102
RTVSPropertyOp4
 70
     1
102
RTVSPropertyOp5
 70
     1
102
RTVSPropertyOp6
 70
     1
102
RTVSPropertyOp7
 70
     1
102
RTVSPropertyOp8
 70
     1
102
RTVSPropertyOp9
 70
     1
102
RTVSPropertyOp10
 70
     1
102
RTVSPropertyOp11
 70
     1
102
RTVSPropertyOp12
 70
     1
102
RTVSPropertyOp13
 70
     1
102
RTVSPropertyOp14
 70
     1
102
RTVSPropertyOp15
 70
     1
102
RTVSPropertyOp16
 70
     1
102
RTVSPropertyOp17
 70
     1
102
RTVSPropertyOp18
 70
     1
102
RTVSPropertyOp19
 70
     1
102
RTVSPropertyOp20
 70
     1
102
RTVSPropertyOp21
 70
     1
102
RTVSPropertyOp22
 70
     1
102
RTVSPropertyOp23
 70
     1
102
RTVSPropertyOp24
 70
     1
102
RTVSPropertyOp25
 70
     1
102
RTVSPropertyOp26
 70
     1
102
RTVSPropertyOp27
 70
     1
102
RTVSPropertyOp28
 70
     1
102
RTVSPropertyOp29
 70
     1
102
RTVSPropertyOp30
 70
     1
102
RTVSPropertyOp31
 70
     1
102
RTVSPropertyOp32
 70
     1
102
RTVSPropertyOp33
 70
     1
102
RTVSPropertyOp34
 70
     1
102
RTVSPropertyOp35
 70
     1
102
RTVSPropertyOp36
 70
     1
102
RTVSPropertyOp37
 70
     1
102
RTVSPropertyOp38
 70
     1
102
RTVSPropertyOp39
 70
     1
102
RTVSPropertyOp40
 70
     1
102
RTVSPropertyOp41
 70
     1
102
RTVSPropertyOp42
 70
     1
102
RTVSPropertyOp43
 70
     1
102
RTVSPropertyOp44
 70
     1
102
RTVSPropertyOp45
 70
     1
102
RTVSPropertyOp46
 70
     1
102
RTVSPropertyOp47
 70
     1
102
RTVSPropertyOp48
 70
     1
102
RTVSPropertyOp49
 70
     1
102
RTVSPropertyOp50
 70
     1
102
RTVSPropertyOp51
 70
     0
102
RTVSPropertyOp52
 70
     0
102
RTVSPropertyOp53
 70
     1
102
RTVSPropertyOp54
 70
     1
102
RTVSPropertyOp55
 70
     1
102
RTVSPropertyOp56
 70
     1
102
RTVSPropertyOp57
 70
     1
102
RTVSPropertyOp58
 70
     1
102
RTVSPropertyOp59
 70
     1
102
RTVSPropertyOp60
 70
     1
102
RTVSPropertyOp61
 70
     1
102
RTVSPropertyOp62
 70
     1
  0
XRECORD
  5
A20F
102
{ACAD_REACTORS
330
A20E
102
}
330
A20E
100
AcDbXrecord
280
     1
102
RTVSPost2010Prop28
280
     0
102
RTVSPost2010PropOp28
 70
     1
102
RTVSPost2010Prop29
280
     1
102
RTVSPost2010PropOp29
 70
     1
102
RTVSPost2010Prop30
280
     1
102
RTVSPost2010PropOp30
 70
     1
102
RTVSPost2010Prop31
280
     0
102
RTVSPost2010PropOp31
 70
     1
102
RTVSPost2010Prop32
280
     0
102
RTVSPost2010PropOp32
 70
     1
102
RTVSPost2010Prop33
280
     0
102
RTVSPost2010PropOp33
 70
     1
102
RTVSPost2010Prop34
280
     0
102
RTVSPost2010PropOp34
 70
     1
102
RTVSPost2010Prop35
280
     0
102
RTVSPost2010PropOp35
 70
     1
102
RTVSPost2010Prop36
280
     0
102
RTVSPost2010PropOp36
 70
     1
102
RTVSPost2010Prop37
 90
       50
102
RTVSPost2010PropOp37
 70
     0
102
RTVSPost2010Prop38
140
0.0
102
RTVSPost2010PropOp38
 70
     0
102
RTVSPost2010Prop39
140
1.0
102
RTVSPost2010PropOp39
 70
     0
102
RTVSPost2010Prop40
 90
        0
102
RTVSPost2010PropOp40
 70
     0
102
RTVSPost2010Prop41ColorIndex
 90
       18
102
RTVSPost2010Prop41ColorRGB
 90
        0
102
RTVSPost2010PropOp41
 70
     0
102
RTVSPost2010Prop42
 90
       50
102
RTVSPost2010PropOp42
 70
     0
102
RTVSPost2010Prop43
 90
        3
102
RTVSPost2010PropOp43
 70
     0
102
RTVSPost2010Prop44ColorIndex
 90
        5
102
RTVSPost2010Prop44ColorRGB
 90
      255
102
RTVSPost2010PropOp44
 70
     0
102
RTVSPost2010Prop45
280
     0
102
RTVSPost2010PropOp45
 70
     1
102
RTVSPost2010Prop46
 90
       50
102
RTVSPost2010PropOp46
 70
     0
102
RTVSPost2010Prop47
 90
       50
102
RTVSPost2010PropOp47
 70
     0
102
RTVSPost2010Prop48
 90
       50
102
RTVSPost2010PropOp48
 70
     0
102
RTVSPost2010Prop49
280
     0
102
RTVSPost2010PropOp49
 70
     1
102
RTVSPost2010Prop50
 90
       50
102
RTVSPost2010PropOp50
 70
     0
102
RTVSPost2010Prop51ColorIndex
 90
      256
102
RTVSPost2010Prop51ColorRGB
 90
-16777216
102
RTVSPost2010PropOp51
 70
     0
102
RTVSPost2010Prop52
140
1.0
102
RTVSPost2010PropOp52
 70
     0
102
RTVSPost2010Prop53
 90
        2
102
RTVSPost2010PropOp53
 70
     0
102
RTVSPost2010Prop54
  1
strokes_ogs.tif
102
RTVSPost2010PropOp54
 70
     0
102
RTVSPost2010Prop55
280
     0
102
RTVSPost2010PropOp55
 70
     1
102
RTVSPost2010Prop56
140
1.0
102
RTVSPost2010PropOp56
 70
     0
102
RTVSPost2010Prop57
140
1.0
102
RTVSPost2010PropOp57
 70
     0
102
RTVSPropertyOp0
 70
     0
102
RTVSPropertyOp1
 70
     0
102
RTVSPropertyOp2
 70
     0
102
RTVSPropertyOp3
 70
     0
102
RTVSPropertyOp4
 70
     0
102
RTVSPropertyOp5
 70
     0
102
RTVSPropertyOp6
 70
     0
102
RTVSPropertyOp7
 70
     0
102
RTVSPropertyOp8
 70
     0
102
RTVSPropertyOp9
 70
     0
102
RTVSPropertyOp10
 70
     0
102
RTVSPropertyOp11
 70
     0
102
RTVSPropertyOp12
 70
     0
102
RTVSPropertyOp13
 70
     0
102
RTVSPropertyOp14
 70
     2
102
RTVSPropertyOp15
 70
     0
102
RTVSPropertyOp16
 70
     0
102
RTVSPropertyOp17
 70
     0
102
RTVSPropertyOp18
 70
     0
102
RTVSPropertyOp19
 70
     0
102
RTVSPropertyOp20
 70
     0
102
RTVSPropertyOp21
 70
     0
102
RTVSPropertyOp22
 70
     0
102
RTVSPropertyOp23
 70
     0
102
RTVSPropertyOp24
 70
     0
102
RTVSPropertyOp25
 70
     0
102
RTVSPropertyOp26
 70
     0
102
RTVSPropertyOp27
 70
     0
102
RTVSPropertyOp28
 70
     1
102
RTVSPropertyOp29
 70
     1
102
RTVSPropertyOp30
 70
     1
102
RTVSPropertyOp31
 70
     1
102
RTVSPropertyOp32
 70
     1
102
RTVSPropertyOp33
 70
     1
102
RTVSPropertyOp34
 70
     1
102
RTVSPropertyOp35
 70
     1
102
RTVSPropertyOp36
 70
     1
102
RTVSPropertyOp37
 70
     0
102
RTVSPropertyOp38
 70
     0
102
RTVSPropertyOp39
 70
     0
102
RTVSPropertyOp40
 70
     0
102
RTVSPropertyOp41
 70
     0
102
RTVSPropertyOp42
 70
     0
102
RTVSPropertyOp43
 70
     0
102
RTVSPropertyOp44
 70
     0
102
RTVSPropertyOp45
 70
     1
102
RTVSPropertyOp46
 70
     0
102
RTVSPropertyOp47
 70
     0
102
RTVSPropertyOp48
 70
     0
102
RTVSPropertyOp49
 70
     1
102
RTVSPropertyOp50
 70
     0
102
RTVSPropertyOp51
 70
     0
102
RTVSPropertyOp52
 70
     0
102
RTVSPropertyOp53
 70
     0
102
RTVSPropertyOp54
 70
     0
102
RTVSPropertyOp55
 70
     1
102
RTVSPropertyOp56
 70
     0
102
RTVSPropertyOp57
 70
     0
102
RTVSPropertyOp58
 70
     0
102
RTVSPropertyOp59
 70
     0
102
RTVSPropertyOp60
 70
     0
102
RTVSPropertyOp61
 70
     0
102
RTVSPropertyOp62
 70
     0
  0
XRECORD
  5
A1FF
102
{ACAD_REACTORS
330
A1FE
102
}
330
A1FE
100
AcDbXrecord
280
     1
102
RTVSPost2010Prop28
280
     0
102
RTVSPost2010PropOp28
 70
     1
102
RTVSPost2010Prop29
280
     1
102
RTVSPost2010PropOp29
 70
     1
102
RTVSPost2010Prop30
280
     1
102
RTVSPost2010PropOp30
 70
     1
102
RTVSPost2010Prop31
280
     0
102
RTVSPost2010PropOp31
 70
     1
102
RTVSPost2010Prop32
280
     0
102
RTVSPost2010PropOp32
 70
     1
102
RTVSPost2010Prop33
280
     0
102
RTVSPost2010PropOp33
 70
     1
102
RTVSPost2010Prop34
280
     0
102
RTVSPost2010PropOp34
 70
     1
102
RTVSPost2010Prop35
280
     0
102
RTVSPost2010PropOp35
 70
     1
102
RTVSPost2010Prop36
280
     0
102
RTVSPost2010PropOp36
 70
     1
102
RTVSPost2010Prop37
 90
       50
102
RTVSPost2010PropOp37
 70
     1
102
RTVSPost2010Prop38
140
0.0
102
RTVSPost2010PropOp38
 70
     1
102
RTVSPost2010Prop39
140
1.0
102
RTVSPost2010PropOp39
 70
     1
102
RTVSPost2010Prop40
 90
        0
102
RTVSPost2010PropOp40
 70
     1
102
RTVSPost2010Prop41ColorIndex
 90
       18
102
RTVSPost2010Prop41ColorRGB
 90
        0
102
RTVSPost2010PropOp41
 70
     1
102
RTVSPost2010Prop42
 90
       50
102
RTVSPost2010PropOp42
 70
     1
102
RTVSPost2010Prop43
 90
        3
102
RTVSPost2010PropOp43
 70
     1
102
RTVSPost2010Prop44ColorIndex
 90
        5
102
RTVSPost2010Prop44ColorRGB
 90
      255
102
RTVSPost2010PropOp44
 70
     1
102
RTVSPost2010Prop45
280
     0
102
RTVSPost2010PropOp45
 70
     1
102
RTVSPost2010Prop46
 90
       50
102
RTVSPost2010PropOp46
 70
     1
102
RTVSPost2010Prop47
 90
       50
102
RTVSPost2010PropOp47
 70
     1
102
RTVSPost2010Prop48
 90
       50
102
RTVSPost2010PropOp48
 70
     1
102
RTVSPost2010Prop49
280
     0
102
RTVSPost2010PropOp49
 70
     1
102
RTVSPost2010Prop50
 90
       50
102
RTVSPost2010PropOp50
 70
     1
102
RTVSPost2010Prop51ColorIndex
 90
      256
102
RTVSPost2010Prop51ColorRGB
 90
-16777216
102
RTVSPost2010PropOp51
 70
     0
102
RTVSPost2010Prop52
140
1.0
102
RTVSPost2010PropOp52
 70
     0
102
RTVSPost2010Prop53
 90
        2
102
RTVSPost2010PropOp53
 70
     1
102
RTVSPost2010Prop54
  1
strokes_ogs.tif
102
RTVSPost2010PropOp54
 70
     1
102
RTVSPost2010Prop55
280
     0
102
RTVSPost2010PropOp55
 70
     1
102
RTVSPost2010Prop56
140
1.0
102
RTVSPost2010PropOp56
 70
     1
102
RTVSPost2010Prop57
140
1.0
102
RTVSPost2010PropOp57
 70
     1
102
RTVSPropertyOp0
 70
     1
102
RTVSPropertyOp1
 70
     1
102
RTVSPropertyOp2
 70
     1
102
RTVSPropertyOp3
 70
     1
102
RTVSPropertyOp4
 70
     1
102
RTVSPropertyOp5
 70
     1
102
RTVSPropertyOp6
 70
     1
102
RTVSPropertyOp7
 70
     1
102
RTVSPropertyOp8
 70
     1
102
RTVSPropertyOp9
 70
     1
102
RTVSPropertyOp10
 70
     1
102
RTVSPropertyOp11
 70
     1
102
RTVSPropertyOp12
 70
     1
102
RTVSPropertyOp13
 70
     1
102
RTVSPropertyOp14
 70
     1
102
RTVSPropertyOp15
 70
     1
102
RTVSPropertyOp16
 70
     1
102
RTVSPropertyOp17
 70
     1
102
RTVSPropertyOp18
 70
     1
102
RTVSPropertyOp19
 70
     1
102
RTVSPropertyOp20
 70
     1
102
RTVSPropertyOp21
 70
     1
102
RTVSPropertyOp22
 70
     1
102
RTVSPropertyOp23
 70
     1
102
RTVSPropertyOp24
 70
     1
102
RTVSPropertyOp25
 70
     1
102
RTVSPropertyOp26
 70
     1
102
RTVSPropertyOp27
 70
     1
102
RTVSPropertyOp28
 70
     1
102
RTVSPropertyOp29
 70
     1
102
RTVSPropertyOp30
 70
     1
102
RTVSPropertyOp31
 70
     1
102
RTVSPropertyOp32
 70
     1
102
RTVSPropertyOp33
 70
     1
102
RTVSPropertyOp34
 70
     1
102
RTVSPropertyOp35
 70
     1
102
RTVSPropertyOp36
 70
     1
102
RTVSPropertyOp37
 70
     1
102
RTVSPropertyOp38
 70
     1
102
RTVSPropertyOp39
 70
     1
102
RTVSPropertyOp40
 70
     1
102
RTVSPropertyOp41
 70
     1
102
RTVSPropertyOp42
 70
     1
102
RTVSPropertyOp43
 70
     1
102
RTVSPropertyOp44
 70
     1
102
RTVSPropertyOp45
 70
     1
102
RTVSPropertyOp46
 70
     1
102
RTVSPropertyOp47
 70
     1
102
RTVSPropertyOp48
 70
     1
102
RTVSPropertyOp49
 70
     1
102
RTVSPropertyOp50
 70
     1
102
RTVSPropertyOp51
 70
     0
102
RTVSPropertyOp52
 70
     0
102
RTVSPropertyOp53
 70
     1
102
RTVSPropertyOp54
 70
     1
102
RTVSPropertyOp55
 70
     1
102
RTVSPropertyOp56
 70
     1
102
RTVSPropertyOp57
 70
     1
102
RTVSPropertyOp58
 70
     1
102
RTVSPropertyOp59
 70
     1
102
RTVSPropertyOp60
 70
     1
102
RTVSPropertyOp61
 70
     1
102
RTVSPropertyOp62
 70
     1
  0
XRECORD
  5
A211
102
{ACAD_REACTORS
330
A210
102
}
330
A210
100
AcDbXrecord
280
     1
102
RTVSPost2010Prop28
280
     0
102
RTVSPost2010PropOp28
 70
     1
102
RTVSPost2010Prop29
280
     1
102
RTVSPost2010PropOp29
 70
     1
102
RTVSPost2010Prop30
280
     1
102
RTVSPost2010PropOp30
 70
     1
102
RTVSPost2010Prop31
280
     0
102
RTVSPost2010PropOp31
 70
     1
102
RTVSPost2010Prop32
280
     0
102
RTVSPost2010PropOp32
 70
     1
102
RTVSPost2010Prop33
280
     0
102
RTVSPost2010PropOp33
 70
     1
102
RTVSPost2010Prop34
280
     0
102
RTVSPost2010PropOp34
 70
     1
102
RTVSPost2010Prop35
280
     0
102
RTVSPost2010PropOp35
 70
     1
102
RTVSPost2010Prop36
280
     0
102
RTVSPost2010PropOp36
 70
     1
102
RTVSPost2010Prop37
 90
       50
102
RTVSPost2010PropOp37
 70
     0
102
RTVSPost2010Prop38
140
0.0
102
RTVSPost2010PropOp38
 70
     0
102
RTVSPost2010Prop39
140
1.0
102
RTVSPost2010PropOp39
 70
     0
102
RTVSPost2010Prop40
 90
        0
102
RTVSPost2010PropOp40
 70
     0
102
RTVSPost2010Prop41ColorIndex
 90
       18
102
RTVSPost2010Prop41ColorRGB
 90
        0
102
RTVSPost2010PropOp41
 70
     0
102
RTVSPost2010Prop42
 90
       50
102
RTVSPost2010PropOp42
 70
     0
102
RTVSPost2010Prop43
 90
        3
102
RTVSPost2010PropOp43
 70
     0
102
RTVSPost2010Prop44ColorIndex
 90
        5
102
RTVSPost2010Prop44ColorRGB
 90
      255
102
RTVSPost2010PropOp44
 70
     0
102
RTVSPost2010Prop45
280
     0
102
RTVSPost2010PropOp45
 70
     1
102
RTVSPost2010Prop46
 90
       50
102
RTVSPost2010PropOp46
 70
     0
102
RTVSPost2010Prop47
 90
       50
102
RTVSPost2010PropOp47
 70
     0
102
RTVSPost2010Prop48
 90
       50
102
RTVSPost2010PropOp48
 70
     0
102
RTVSPost2010Prop49
280
     0
102
RTVSPost2010PropOp49
 70
     1
102
RTVSPost2010Prop50
 90
       50
102
RTVSPost2010PropOp50
 70
     0
102
RTVSPost2010Prop51ColorIndex
 90
      256
102
RTVSPost2010Prop51ColorRGB
 90
-16777216
102
RTVSPost2010PropOp51
 70
     0
102
RTVSPost2010Prop52
140
1.0
102
RTVSPost2010PropOp52
 70
     0
102
RTVSPost2010Prop53
 90
        2
102
RTVSPost2010PropOp53
 70
     0
102
RTVSPost2010Prop54
  1
strokes_ogs.tif
102
RTVSPost2010PropOp54
 70
     0
102
RTVSPost2010Prop55
280
     0
102
RTVSPost2010PropOp55
 70
     1
102
RTVSPost2010Prop56
140
1.0
102
RTVSPost2010PropOp56
 70
     0
102
RTVSPost2010Prop57
140
1.0
102
RTVSPost2010PropOp57
 70
     0
102
RTVSPropertyOp0
 70
     0
102
RTVSPropertyOp1
 70
     0
102
RTVSPropertyOp2
 70
     0
102
RTVSPropertyOp3
 70
     0
102
RTVSPropertyOp4
 70
     0
102
RTVSPropertyOp5
 70
     0
102
RTVSPropertyOp6
 70
     0
102
RTVSPropertyOp7
 70
     0
102
RTVSPropertyOp8
 70
     0
102
RTVSPropertyOp9
 70
     0
102
RTVSPropertyOp10
 70
     0
102
RTVSPropertyOp11
 70
     0
102
RTVSPropertyOp12
 70
     0
102
RTVSPropertyOp13
 70
     0
102
RTVSPropertyOp14
 70
     2
102
RTVSPropertyOp15
 70
     0
102
RTVSPropertyOp16
 70
     0
102
RTVSPropertyOp17
 70
     0
102
RTVSPropertyOp18
 70
     0
102
RTVSPropertyOp19
 70
     0
102
RTVSPropertyOp20
 70
     0
102
RTVSPropertyOp21
 70
     0
102
RTVSPropertyOp22
 70
     0
102
RTVSPropertyOp23
 70
     0
102
RTVSPropertyOp24
 70
     0
102
RTVSPropertyOp25
 70
     0
102
RTVSPropertyOp26
 70
     0
102
RTVSPropertyOp27
 70
     0
102
RTVSPropertyOp28
 70
     1
102
RTVSPropertyOp29
 70
     1
102
RTVSPropertyOp30
 70
     1
102
RTVSPropertyOp31
 70
     1
102
RTVSPropertyOp32
 70
     1
102
RTVSPropertyOp33
 70
     1
102
RTVSPropertyOp34
 70
     1
102
RTVSPropertyOp35
 70
     1
102
RTVSPropertyOp36
 70
     1
102
RTVSPropertyOp37
 70
     0
102
RTVSPropertyOp38
 70
     0
102
RTVSPropertyOp39
 70
     0
102
RTVSPropertyOp40
 70
     0
102
RTVSPropertyOp41
 70
     0
102
RTVSPropertyOp42
 70
     0
102
RTVSPropertyOp43
 70
     0
102
RTVSPropertyOp44
 70
     0
102
RTVSPropertyOp45
 70
     1
102
RTVSPropertyOp46
 70
     0
102
RTVSPropertyOp47
 70
     0
102
RTVSPropertyOp48
 70
     0
102
RTVSPropertyOp49
 70
     1
102
RTVSPropertyOp50
 70
     0
102
RTVSPropertyOp51
 70
     0
102
RTVSPropertyOp52
 70
     0
102
RTVSPropertyOp53
 70
     0
102
RTVSPropertyOp54
 70
     0
102
RTVSPropertyOp55
 70
     1
102
RTVSPropertyOp56
 70
     0
102
RTVSPropertyOp57
 70
     0
102
RTVSPropertyOp58
 70
     0
102
RTVSPropertyOp59
 70
     0
102
RTVSPropertyOp60
 70
     0
102
RTVSPropertyOp61
 70
     0
102
RTVSPropertyOp62
 70
     0
  0
XRECORD
  5
A1F7
102
{ACAD_REACTORS
330
A1F6
102
}
330
A1F6
100
AcDbXrecord
280
     1
102
RTVSPost2010Prop28
280
     0
102
RTVSPost2010PropOp28
 70
     1
102
RTVSPost2010Prop29
280
     1
102
RTVSPost2010PropOp29
 70
     1
102
RTVSPost2010Prop30
280
     1
102
RTVSPost2010PropOp30
 70
     1
102
RTVSPost2010Prop31
280
     0
102
RTVSPost2010PropOp31
 70
     1
102
RTVSPost2010Prop32
280
     0
102
RTVSPost2010PropOp32
 70
     1
102
RTVSPost2010Prop33
280
     0
102
RTVSPost2010PropOp33
 70
     1
102
RTVSPost2010Prop34
280
     0
102
RTVSPost2010PropOp34
 70
     1
102
RTVSPost2010Prop35
280
     0
102
RTVSPost2010PropOp35
 70
     1
102
RTVSPost2010Prop36
280
     0
102
RTVSPost2010PropOp36
 70
     1
102
RTVSPost2010Prop37
 90
       50
102
RTVSPost2010PropOp37
 70
     1
102
RTVSPost2010Prop38
140
0.0
102
RTVSPost2010PropOp38
 70
     1
102
RTVSPost2010Prop39
140
1.0
102
RTVSPost2010PropOp39
 70
     1
102
RTVSPost2010Prop40
 90
        0
102
RTVSPost2010PropOp40
 70
     1
102
RTVSPost2010Prop41ColorIndex
 90
       18
102
RTVSPost2010Prop41ColorRGB
 90
        0
102
RTVSPost2010PropOp41
 70
     1
102
RTVSPost2010Prop42
 90
       50
102
RTVSPost2010PropOp42
 70
     1
102
RTVSPost2010Prop43
 90
        3
102
RTVSPost2010PropOp43
 70
     1
102
RTVSPost2010Prop44ColorIndex
 90
        5
102
RTVSPost2010Prop44ColorRGB
 90
      255
102
RTVSPost2010PropOp44
 70
     1
102
RTVSPost2010Prop45
280
     0
102
RTVSPost2010PropOp45
 70
     1
102
RTVSPost2010Prop46
 90
       50
102
RTVSPost2010PropOp46
 70
     1
102
RTVSPost2010Prop47
 90
       50
102
RTVSPost2010PropOp47
 70
     1
102
RTVSPost2010Prop48
 90
       50
102
RTVSPost2010PropOp48
 70
     1
102
RTVSPost2010Prop49
280
     0
102
RTVSPost2010PropOp49
 70
     1
102
RTVSPost2010Prop50
 90
       50
102
RTVSPost2010PropOp50
 70
     1
102
RTVSPost2010Prop51ColorIndex
 90
      256
102
RTVSPost2010Prop51ColorRGB
 90
-16777216
102
RTVSPost2010PropOp51
 70
     0
102
RTVSPost2010Prop52
140
1.0
102
RTVSPost2010PropOp52
 70
     0
102
RTVSPost2010Prop53
 90
        2
102
RTVSPost2010PropOp53
 70
     1
102
RTVSPost2010Prop54
  1
strokes_ogs.tif
102
RTVSPost2010PropOp54
 70
     1
102
RTVSPost2010Prop55
280
     0
102
RTVSPost2010PropOp55
 70
     1
102
RTVSPost2010Prop56
140
1.0
102
RTVSPost2010PropOp56
 70
     1
102
RTVSPost2010Prop57
140
1.0
102
RTVSPost2010PropOp57
 70
     1
102
RTVSPropertyOp0
 70
     1
102
RTVSPropertyOp1
 70
     1
102
RTVSPropertyOp2
 70
     1
102
RTVSPropertyOp3
 70
     1
102
RTVSPropertyOp4
 70
     1
102
RTVSPropertyOp5
 70
     1
102
RTVSPropertyOp6
 70
     1
102
RTVSPropertyOp7
 70
     1
102
RTVSPropertyOp8
 70
     1
102
RTVSPropertyOp9
 70
     1
102
RTVSPropertyOp10
 70
     1
102
RTVSPropertyOp11
 70
     1
102
RTVSPropertyOp12
 70
     1
102
RTVSPropertyOp13
 70
     1
102
RTVSPropertyOp14
 70
     1
102
RTVSPropertyOp15
 70
     1
102
RTVSPropertyOp16
 70
     1
102
RTVSPropertyOp17
 70
     1
102
RTVSPropertyOp18
 70
     1
102
RTVSPropertyOp19
 70
     1
102
RTVSPropertyOp20
 70
     1
102
RTVSPropertyOp21
 70
     1
102
RTVSPropertyOp22
 70
     1
102
RTVSPropertyOp23
 70
     1
102
RTVSPropertyOp24
 70
     1
102
RTVSPropertyOp25
 70
     1
102
RTVSPropertyOp26
 70
     1
102
RTVSPropertyOp27
 70
     1
102
RTVSPropertyOp28
 70
     1
102
RTVSPropertyOp29
 70
     1
102
RTVSPropertyOp30
 70
     1
102
RTVSPropertyOp31
 70
     1
102
RTVSPropertyOp32
 70
     1
102
RTVSPropertyOp33
 70
     1
102
RTVSPropertyOp34
 70
     1
102
RTVSPropertyOp35
 70
     1
102
RTVSPropertyOp36
 70
     1
102
RTVSPropertyOp37
 70
     1
102
RTVSPropertyOp38
 70
     1
102
RTVSPropertyOp39
 70
     1
102
RTVSPropertyOp40
 70
     1
102
RTVSPropertyOp41
 70
     1
102
RTVSPropertyOp42
 70
     1
102
RTVSPropertyOp43
 70
     1
102
RTVSPropertyOp44
 70
     1
102
RTVSPropertyOp45
 70
     1
102
RTVSPropertyOp46
 70
     1
102
RTVSPropertyOp47
 70
     1
102
RTVSPropertyOp48
 70
     1
102
RTVSPropertyOp49
 70
     1
102
RTVSPropertyOp50
 70
     1
102
RTVSPropertyOp51
 70
     0
102
RTVSPropertyOp52
 70
     0
102
RTVSPropertyOp53
 70
     1
102
RTVSPropertyOp54
 70
     1
102
RTVSPropertyOp55
 70
     1
102
RTVSPropertyOp56
 70
     1
102
RTVSPropertyOp57
 70
     1
102
RTVSPropertyOp58
 70
     1
102
RTVSPropertyOp59
 70
     1
102
RTVSPropertyOp60
 70
     1
102
RTVSPropertyOp61
 70
     1
102
RTVSPropertyOp62
 70
     1
  0
XRECORD
  5
A20D
102
{ACAD_REACTORS
330
A20C
102
}
330
A20C
100
AcDbXrecord
280
     1
102
RTVSPost2010Prop28
280
     0
102
RTVSPost2010PropOp28
 70
     1
102
RTVSPost2010Prop29
280
     1
102
RTVSPost2010PropOp29
 70
     1
102
RTVSPost2010Prop30
280
     1
102
RTVSPost2010PropOp30
 70
     1
102
RTVSPost2010Prop31
280
     0
102
RTVSPost2010PropOp31
 70
     1
102
RTVSPost2010Prop32
280
     0
102
RTVSPost2010PropOp32
 70
     1
102
RTVSPost2010Prop33
280
     0
102
RTVSPost2010PropOp33
 70
     1
102
RTVSPost2010Prop34
280
     0
102
RTVSPost2010PropOp34
 70
     1
102
RTVSPost2010Prop35
280
     0
102
RTVSPost2010PropOp35
 70
     1
102
RTVSPost2010Prop36
280
     0
102
RTVSPost2010PropOp36
 70
     1
102
RTVSPost2010Prop37
 90
       50
102
RTVSPost2010PropOp37
 70
     1
102
RTVSPost2010Prop38
140
0.0
102
RTVSPost2010PropOp38
 70
     1
102
RTVSPost2010Prop39
140
1.0
102
RTVSPost2010PropOp39
 70
     1
102
RTVSPost2010Prop40
 90
        0
102
RTVSPost2010PropOp40
 70
     1
102
RTVSPost2010Prop41ColorIndex
 90
       18
102
RTVSPost2010Prop41ColorRGB
 90
        0
102
RTVSPost2010PropOp41
 70
     1
102
RTVSPost2010Prop42
 90
       50
102
RTVSPost2010PropOp42
 70
     1
102
RTVSPost2010Prop43
 90
        3
102
RTVSPost2010PropOp43
 70
     1
102
RTVSPost2010Prop44ColorIndex
 90
        5
102
RTVSPost2010Prop44ColorRGB
 90
      255
102
RTVSPost2010PropOp44
 70
     1
102
RTVSPost2010Prop45
280
     0
102
RTVSPost2010PropOp45
 70
     1
102
RTVSPost2010Prop46
 90
       50
102
RTVSPost2010PropOp46
 70
     1
102
RTVSPost2010Prop47
 90
       50
102
RTVSPost2010PropOp47
 70
     1
102
RTVSPost2010Prop48
 90
       50
102
RTVSPost2010PropOp48
 70
     1
102
RTVSPost2010Prop49
280
     0
102
RTVSPost2010PropOp49
 70
     1
102
RTVSPost2010Prop50
 90
       50
102
RTVSPost2010PropOp50
 70
     1
102
RTVSPost2010Prop51ColorIndex
 90
      256
102
RTVSPost2010Prop51ColorRGB
 90
-16777216
102
RTVSPost2010PropOp51
 70
     0
102
RTVSPost2010Prop52
140
1.0
102
RTVSPost2010PropOp52
 70
     0
102
RTVSPost2010Prop53
 90
        2
102
RTVSPost2010PropOp53
 70
     1
102
RTVSPost2010Prop54
  1
strokes_ogs.tif
102
RTVSPost2010PropOp54
 70
     1
102
RTVSPost2010Prop55
280
     0
102
RTVSPost2010PropOp55
 70
     1
102
RTVSPost2010Prop56
140
1.0
102
RTVSPost2010PropOp56
 70
     1
102
RTVSPost2010Prop57
140
1.0
102
RTVSPost2010PropOp57
 70
     1
102
RTVSPropertyOp0
 70
     1
102
RTVSPropertyOp1
 70
     1
102
RTVSPropertyOp2
 70
     1
102
RTVSPropertyOp3
 70
     1
102
RTVSPropertyOp4
 70
     1
102
RTVSPropertyOp5
 70
     1
102
RTVSPropertyOp6
 70
     1
102
RTVSPropertyOp7
 70
     1
102
RTVSPropertyOp8
 70
     1
102
RTVSPropertyOp9
 70
     1
102
RTVSPropertyOp10
 70
     1
102
RTVSPropertyOp11
 70
     1
102
RTVSPropertyOp12
 70
     1
102
RTVSPropertyOp13
 70
     1
102
RTVSPropertyOp14
 70
     1
102
RTVSPropertyOp15
 70
     1
102
RTVSPropertyOp16
 70
     1
102
RTVSPropertyOp17
 70
     1
102
RTVSPropertyOp18
 70
     1
102
RTVSPropertyOp19
 70
     1
102
RTVSPropertyOp20
 70
     1
102
RTVSPropertyOp21
 70
     1
102
RTVSPropertyOp22
 70
     1
102
RTVSPropertyOp23
 70
     1
102
RTVSPropertyOp24
 70
     1
102
RTVSPropertyOp25
 70
     1
102
RTVSPropertyOp26
 70
     1
102
RTVSPropertyOp27
 70
     1
102
RTVSPropertyOp28
 70
     1
102
RTVSPropertyOp29
 70
     1
102
RTVSPropertyOp30
 70
     1
102
RTVSPropertyOp31
 70
     1
102
RTVSPropertyOp32
 70
     1
102
RTVSPropertyOp33
 70
     1
102
RTVSPropertyOp34
 70
     1
102
RTVSPropertyOp35
 70
     1
102
RTVSPropertyOp36
 70
     1
102
RTVSPropertyOp37
 70
     1
102
RTVSPropertyOp38
 70
     1
102
RTVSPropertyOp39
 70
     1
102
RTVSPropertyOp40
 70
     1
102
RTVSPropertyOp41
 70
     1
102
RTVSPropertyOp42
 70
     1
102
RTVSPropertyOp43
 70
     1
102
RTVSPropertyOp44
 70
     1
102
RTVSPropertyOp45
 70
     1
102
RTVSPropertyOp46
 70
     1
102
RTVSPropertyOp47
 70
     1
102
RTVSPropertyOp48
 70
     1
102
RTVSPropertyOp49
 70
     1
102
RTVSPropertyOp50
 70
     1
102
RTVSPropertyOp51
 70
     0
102
RTVSPropertyOp52
 70
     0
102
RTVSPropertyOp53
 70
     1
102
RTVSPropertyOp54
 70
     1
102
RTVSPropertyOp55
 70
     1
102
RTVSPropertyOp56
 70
     1
102
RTVSPropertyOp57
 70
     1
102
RTVSPropertyOp58
 70
     1
102
RTVSPropertyOp59
 70
     1
102
RTVSPropertyOp60
 70
     1
102
RTVSPropertyOp61
 70
     1
102
RTVSPropertyOp62
 70
     1
  0
XRECORD
  5
A20B
102
{ACAD_REACTORS
330
A20A
102
}
330
A20A
100
AcDbXrecord
280
     1
102
RTVSPost2010Prop28
280
     0
102
RTVSPost2010PropOp28
 70
     1
102
RTVSPost2010Prop29
280
     1
102
RTVSPost2010PropOp29
 70
     1
102
RTVSPost2010Prop30
280
     1
102
RTVSPost2010PropOp30
 70
     1
102
RTVSPost2010Prop31
280
     0
102
RTVSPost2010PropOp31
 70
     1
102
RTVSPost2010Prop32
280
     0
102
RTVSPost2010PropOp32
 70
     1
102
RTVSPost2010Prop33
280
     0
102
RTVSPost2010PropOp33
 70
     1
102
RTVSPost2010Prop34
280
     0
102
RTVSPost2010PropOp34
 70
     1
102
RTVSPost2010Prop35
280
     0
102
RTVSPost2010PropOp35
 70
     1
102
RTVSPost2010Prop36
280
     0
102
RTVSPost2010PropOp36
 70
     1
102
RTVSPost2010Prop37
 90
       50
102
RTVSPost2010PropOp37
 70
     1
102
RTVSPost2010Prop38
140
0.0
102
RTVSPost2010PropOp38
 70
     1
102
RTVSPost2010Prop39
140
1.0
102
RTVSPost2010PropOp39
 70
     1
102
RTVSPost2010Prop40
 90
        0
102
RTVSPost2010PropOp40
 70
     1
102
RTVSPost2010Prop41ColorIndex
 90
       18
102
RTVSPost2010Prop41ColorRGB
 90
        0
102
RTVSPost2010PropOp41
 70
     1
102
RTVSPost2010Prop42
 90
       50
102
RTVSPost2010PropOp42
 70
     1
102
RTVSPost2010Prop43
 90
        3
102
RTVSPost2010PropOp43
 70
     1
102
RTVSPost2010Prop44ColorIndex
 90
        5
102
RTVSPost2010Prop44ColorRGB
 90
      255
102
RTVSPost2010PropOp44
 70
     1
102
RTVSPost2010Prop45
280
     0
102
RTVSPost2010PropOp45
 70
     1
102
RTVSPost2010Prop46
 90
       50
102
RTVSPost2010PropOp46
 70
     1
102
RTVSPost2010Prop47
 90
       50
102
RTVSPost2010PropOp47
 70
     1
102
RTVSPost2010Prop48
 90
       50
102
RTVSPost2010PropOp48
 70
     1
102
RTVSPost2010Prop49
280
     0
102
RTVSPost2010PropOp49
 70
     1
102
RTVSPost2010Prop50
 90
       50
102
RTVSPost2010PropOp50
 70
     1
102
RTVSPost2010Prop51ColorIndex
 90
      256
102
RTVSPost2010Prop51ColorRGB
 90
-16777216
102
RTVSPost2010PropOp51
 70
     0
102
RTVSPost2010Prop52
140
1.0
102
RTVSPost2010PropOp52
 70
     0
102
RTVSPost2010Prop53
 90
        2
102
RTVSPost2010PropOp53
 70
     1
102
RTVSPost2010Prop54
  1
strokes_ogs.tif
102
RTVSPost2010PropOp54
 70
     1
102
RTVSPost2010Prop55
280
     0
102
RTVSPost2010PropOp55
 70
     1
102
RTVSPost2010Prop56
140
1.0
102
RTVSPost2010PropOp56
 70
     1
102
RTVSPost2010Prop57
140
1.0
102
RTVSPost2010PropOp57
 70
     1
102
RTVSPropertyOp0
 70
     1
102
RTVSPropertyOp1
 70
     1
102
RTVSPropertyOp2
 70
     1
102
RTVSPropertyOp3
 70
     1
102
RTVSPropertyOp4
 70
     1
102
RTVSPropertyOp5
 70
     1
102
RTVSPropertyOp6
 70
     1
102
RTVSPropertyOp7
 70
     1
102
RTVSPropertyOp8
 70
     1
102
RTVSPropertyOp9
 70
     1
102
RTVSPropertyOp10
 70
     1
102
RTVSPropertyOp11
 70
     1
102
RTVSPropertyOp12
 70
     1
102
RTVSPropertyOp13
 70
     1
102
RTVSPropertyOp14
 70
     1
102
RTVSPropertyOp15
 70
     1
102
RTVSPropertyOp16
 70
     1
102
RTVSPropertyOp17
 70
     1
102
RTVSPropertyOp18
 70
     1
102
RTVSPropertyOp19
 70
     1
102
RTVSPropertyOp20
 70
     1
102
RTVSPropertyOp21
 70
     1
102
RTVSPropertyOp22
 70
     1
102
RTVSPropertyOp23
 70
     1
102
RTVSPropertyOp24
 70
     1
102
RTVSPropertyOp25
 70
     1
102
RTVSPropertyOp26
 70
     1
102
RTVSPropertyOp27
 70
     1
102
RTVSPropertyOp28
 70
     1
102
RTVSPropertyOp29
 70
     1
102
RTVSPropertyOp30
 70
     1
102
RTVSPropertyOp31
 70
     1
102
RTVSPropertyOp32
 70
     1
102
RTVSPropertyOp33
 70
     1
102
RTVSPropertyOp34
 70
     1
102
RTVSPropertyOp35
 70
     1
102
RTVSPropertyOp36
 70
     1
102
RTVSPropertyOp37
 70
     1
102
RTVSPropertyOp38
 70
     1
102
RTVSPropertyOp39
 70
     1
102
RTVSPropertyOp40
 70
     1
102
RTVSPropertyOp41
 70
     1
102
RTVSPropertyOp42
 70
     1
102
RTVSPropertyOp43
 70
     1
102
RTVSPropertyOp44
 70
     1
102
RTVSPropertyOp45
 70
     1
102
RTVSPropertyOp46
 70
     1
102
RTVSPropertyOp47
 70
     1
102
RTVSPropertyOp48
 70
     1
102
RTVSPropertyOp49
 70
     1
102
RTVSPropertyOp50
 70
     1
102
RTVSPropertyOp51
 70
     0
102
RTVSPropertyOp52
 70
     0
102
RTVSPropertyOp53
 70
     1
102
RTVSPropertyOp54
 70
     1
102
RTVSPropertyOp55
 70
     1
102
RTVSPropertyOp56
 70
     1
102
RTVSPropertyOp57
 70
     1
102
RTVSPropertyOp58
 70
     1
102
RTVSPropertyOp59
 70
     1
102
RTVSPropertyOp60
 70
     1
102
RTVSPropertyOp61
 70
     1
102
RTVSPropertyOp62
 70
     1
  0
XRECORD
  5
A205
102
{ACAD_REACTORS
330
A204
102
}
330
A204
100
AcDbXrecord
280
     1
102
RTVSPost2010Prop28
280
     0
102
RTVSPost2010PropOp28
 70
     1
102
RTVSPost2010Prop29
280
     1
102
RTVSPost2010PropOp29
 70
     1
102
RTVSPost2010Prop30
280
     1
102
RTVSPost2010PropOp30
 70
     1
102
RTVSPost2010Prop31
280
     0
102
RTVSPost2010PropOp31
 70
     1
102
RTVSPost2010Prop32
280
     0
102
RTVSPost2010PropOp32
 70
     1
102
RTVSPost2010Prop33
280
     0
102
RTVSPost2010PropOp33
 70
     1
102
RTVSPost2010Prop34
280
     0
102
RTVSPost2010PropOp34
 70
     1
102
RTVSPost2010Prop35
280
     0
102
RTVSPost2010PropOp35
 70
     1
102
RTVSPost2010Prop36
280
     0
102
RTVSPost2010PropOp36
 70
     1
102
RTVSPost2010Prop37
 90
       50
102
RTVSPost2010PropOp37
 70
     1
102
RTVSPost2010Prop38
140
0.0
102
RTVSPost2010PropOp38
 70
     1
102
RTVSPost2010Prop39
140
1.0
102
RTVSPost2010PropOp39
 70
     1
102
RTVSPost2010Prop40
 90
        0
102
RTVSPost2010PropOp40
 70
     1
102
RTVSPost2010Prop41ColorIndex
 90
       18
102
RTVSPost2010Prop41ColorRGB
 90
        0
102
RTVSPost2010PropOp41
 70
     1
102
RTVSPost2010Prop42
 90
       50
102
RTVSPost2010PropOp42
 70
     1
102
RTVSPost2010Prop43
 90
        3
102
RTVSPost2010PropOp43
 70
     1
102
RTVSPost2010Prop44ColorIndex
 90
        5
102
RTVSPost2010Prop44ColorRGB
 90
      255
102
RTVSPost2010PropOp44
 70
     1
102
RTVSPost2010Prop45
280
     0
102
RTVSPost2010PropOp45
 70
     1
102
RTVSPost2010Prop46
 90
       50
102
RTVSPost2010PropOp46
 70
     1
102
RTVSPost2010Prop47
 90
       50
102
RTVSPost2010PropOp47
 70
     1
102
RTVSPost2010Prop48
 90
       50
102
RTVSPost2010PropOp48
 70
     1
102
RTVSPost2010Prop49
280
     0
102
RTVSPost2010PropOp49
 70
     1
102
RTVSPost2010Prop50
 90
       50
102
RTVSPost2010PropOp50
 70
     1
102
RTVSPost2010Prop51ColorIndex
 90
      256
102
RTVSPost2010Prop51ColorRGB
 90
-16777216
102
RTVSPost2010PropOp51
 70
     0
102
RTVSPost2010Prop52
140
1.0
102
RTVSPost2010PropOp52
 70
     0
102
RTVSPost2010Prop53
 90
        2
102
RTVSPost2010PropOp53
 70
     1
102
RTVSPost2010Prop54
  1
strokes_ogs.tif
102
RTVSPost2010PropOp54
 70
     1
102
RTVSPost2010Prop55
280
     0
102
RTVSPost2010PropOp55
 70
     1
102
RTVSPost2010Prop56
140
1.0
102
RTVSPost2010PropOp56
 70
     1
102
RTVSPost2010Prop57
140
1.0
102
RTVSPost2010PropOp57
 70
     1
102
RTVSPropertyOp0
 70
     1
102
RTVSPropertyOp1
 70
     1
102
RTVSPropertyOp2
 70
     1
102
RTVSPropertyOp3
 70
     1
102
RTVSPropertyOp4
 70
     1
102
RTVSPropertyOp5
 70
     1
102
RTVSPropertyOp6
 70
     1
102
RTVSPropertyOp7
 70
     1
102
RTVSPropertyOp8
 70
     1
102
RTVSPropertyOp9
 70
     1
102
RTVSPropertyOp10
 70
     1
102
RTVSPropertyOp11
 70
     1
102
RTVSPropertyOp12
 70
     1
102
RTVSPropertyOp13
 70
     1
102
RTVSPropertyOp14
 70
     1
102
RTVSPropertyOp15
 70
     1
102
RTVSPropertyOp16
 70
     1
102
RTVSPropertyOp17
 70
     1
102
RTVSPropertyOp18
 70
     1
102
RTVSPropertyOp19
 70
     1
102
RTVSPropertyOp20
 70
     1
102
RTVSPropertyOp21
 70
     1
102
RTVSPropertyOp22
 70
     1
102
RTVSPropertyOp23
 70
     1
102
RTVSPropertyOp24
 70
     1
102
RTVSPropertyOp25
 70
     1
102
RTVSPropertyOp26
 70
     1
102
RTVSPropertyOp27
 70
     1
102
RTVSPropertyOp28
 70
     1
102
RTVSPropertyOp29
 70
     1
102
RTVSPropertyOp30
 70
     1
102
RTVSPropertyOp31
 70
     1
102
RTVSPropertyOp32
 70
     1
102
RTVSPropertyOp33
 70
     1
102
RTVSPropertyOp34
 70
     1
102
RTVSPropertyOp35
 70
     1
102
RTVSPropertyOp36
 70
     1
102
RTVSPropertyOp37
 70
     1
102
RTVSPropertyOp38
 70
     1
102
RTVSPropertyOp39
 70
     1
102
RTVSPropertyOp40
 70
     1
102
RTVSPropertyOp41
 70
     1
102
RTVSPropertyOp42
 70
     1
102
RTVSPropertyOp43
 70
     1
102
RTVSPropertyOp44
 70
     1
102
RTVSPropertyOp45
 70
     1
102
RTVSPropertyOp46
 70
     1
102
RTVSPropertyOp47
 70
     1
102
RTVSPropertyOp48
 70
     1
102
RTVSPropertyOp49
 70
     1
102
RTVSPropertyOp50
 70
     1
102
RTVSPropertyOp51
 70
     0
102
RTVSPropertyOp52
 70
     0
102
RTVSPropertyOp53
 70
     1
102
RTVSPropertyOp54
 70
     1
102
RTVSPropertyOp55
 70
     1
102
RTVSPropertyOp56
 70
     1
102
RTVSPropertyOp57
 70
     1
102
RTVSPropertyOp58
 70
     1
102
RTVSPropertyOp59
 70
     1
102
RTVSPropertyOp60
 70
     1
102
RTVSPropertyOp61
 70
     1
102
RTVSPropertyOp62
 70
     1
  0
XRECORD
  5
A207
102
{ACAD_REACTORS
330
A206
102
}
330
A206
100
AcDbXrecord
280
     1
102
RTVSPost2010Prop28
280
     0
102
RTVSPost2010PropOp28
 70
     1
102
RTVSPost2010Prop29
280
     1
102
RTVSPost2010PropOp29
 70
     1
102
RTVSPost2010Prop30
280
     1
102
RTVSPost2010PropOp30
 70
     1
102
RTVSPost2010Prop31
280
     0
102
RTVSPost2010PropOp31
 70
     1
102
RTVSPost2010Prop32
280
     0
102
RTVSPost2010PropOp32
 70
     1
102
RTVSPost2010Prop33
280
     0
102
RTVSPost2010PropOp33
 70
     1
102
RTVSPost2010Prop34
280
     0
102
RTVSPost2010PropOp34
 70
     1
102
RTVSPost2010Prop35
280
     0
102
RTVSPost2010PropOp35
 70
     1
102
RTVSPost2010Prop36
280
     0
102
RTVSPost2010PropOp36
 70
     1
102
RTVSPost2010Prop37
 90
       50
102
RTVSPost2010PropOp37
 70
     1
102
RTVSPost2010Prop38
140
0.0
102
RTVSPost2010PropOp38
 70
     1
102
RTVSPost2010Prop39
140
1.0
102
RTVSPost2010PropOp39
 70
     1
102
RTVSPost2010Prop40
 90
        0
102
RTVSPost2010PropOp40
 70
     1
102
RTVSPost2010Prop41ColorIndex
 90
       18
102
RTVSPost2010Prop41ColorRGB
 90
        0
102
RTVSPost2010PropOp41
 70
     1
102
RTVSPost2010Prop42
 90
       50
102
RTVSPost2010PropOp42
 70
     1
102
RTVSPost2010Prop43
 90
        3
102
RTVSPost2010PropOp43
 70
     1
102
RTVSPost2010Prop44ColorIndex
 90
        5
102
RTVSPost2010Prop44ColorRGB
 90
      255
102
RTVSPost2010PropOp44
 70
     1
102
RTVSPost2010Prop45
280
     0
102
RTVSPost2010PropOp45
 70
     1
102
RTVSPost2010Prop46
 90
       50
102
RTVSPost2010PropOp46
 70
     1
102
RTVSPost2010Prop47
 90
       50
102
RTVSPost2010PropOp47
 70
     1
102
RTVSPost2010Prop48
 90
       50
102
RTVSPost2010PropOp48
 70
     1
102
RTVSPost2010Prop49
280
     0
102
RTVSPost2010PropOp49
 70
     1
102
RTVSPost2010Prop50
 90
       50
102
RTVSPost2010PropOp50
 70
     1
102
RTVSPost2010Prop51ColorIndex
 90
      256
102
RTVSPost2010Prop51ColorRGB
 90
-16777216
102
RTVSPost2010PropOp51
 70
     0
102
RTVSPost2010Prop52
140
1.0
102
RTVSPost2010PropOp52
 70
     0
102
RTVSPost2010Prop53
 90
        2
102
RTVSPost2010PropOp53
 70
     1
102
RTVSPost2010Prop54
  1
strokes_ogs.tif
102
RTVSPost2010PropOp54
 70
     1
102
RTVSPost2010Prop55
280
     0
102
RTVSPost2010PropOp55
 70
     1
102
RTVSPost2010Prop56
140
1.0
102
RTVSPost2010PropOp56
 70
     1
102
RTVSPost2010Prop57
140
1.0
102
RTVSPost2010PropOp57
 70
     1
102
RTVSPropertyOp0
 70
     1
102
RTVSPropertyOp1
 70
     1
102
RTVSPropertyOp2
 70
     1
102
RTVSPropertyOp3
 70
     1
102
RTVSPropertyOp4
 70
     1
102
RTVSPropertyOp5
 70
     1
102
RTVSPropertyOp6
 70
     1
102
RTVSPropertyOp7
 70
     1
102
RTVSPropertyOp8
 70
     1
102
RTVSPropertyOp9
 70
     1
102
RTVSPropertyOp10
 70
     1
102
RTVSPropertyOp11
 70
     1
102
RTVSPropertyOp12
 70
     1
102
RTVSPropertyOp13
 70
     1
102
RTVSPropertyOp14
 70
     1
102
RTVSPropertyOp15
 70
     1
102
RTVSPropertyOp16
 70
     1
102
RTVSPropertyOp17
 70
     1
102
RTVSPropertyOp18
 70
     1
102
RTVSPropertyOp19
 70
     1
102
RTVSPropertyOp20
 70
     1
102
RTVSPropertyOp21
 70
     1
102
RTVSPropertyOp22
 70
     1
102
RTVSPropertyOp23
 70
     1
102
RTVSPropertyOp24
 70
     1
102
RTVSPropertyOp25
 70
     1
102
RTVSPropertyOp26
 70
     1
102
RTVSPropertyOp27
 70
     1
102
RTVSPropertyOp28
 70
     1
102
RTVSPropertyOp29
 70
     1
102
RTVSPropertyOp30
 70
     1
102
RTVSPropertyOp31
 70
     1
102
RTVSPropertyOp32
 70
     1
102
RTVSPropertyOp33
 70
     1
102
RTVSPropertyOp34
 70
     1
102
RTVSPropertyOp35
 70
     1
102
RTVSPropertyOp36
 70
     1
102
RTVSPropertyOp37
 70
     1
102
RTVSPropertyOp38
 70
     1
102
RTVSPropertyOp39
 70
     1
102
RTVSPropertyOp40
 70
     1
102
RTVSPropertyOp41
 70
     1
102
RTVSPropertyOp42
 70
     1
102
RTVSPropertyOp43
 70
     1
102
RTVSPropertyOp44
 70
     1
102
RTVSPropertyOp45
 70
     1
102
RTVSPropertyOp46
 70
     1
102
RTVSPropertyOp47
 70
     1
102
RTVSPropertyOp48
 70
     1
102
RTVSPropertyOp49
 70
     1
102
RTVSPropertyOp50
 70
     1
102
RTVSPropertyOp51
 70
     0
102
RTVSPropertyOp52
 70
     0
102
RTVSPropertyOp53
 70
     1
102
RTVSPropertyOp54
 70
     1
102
RTVSPropertyOp55
 70
     1
102
RTVSPropertyOp56
 70
     1
102
RTVSPropertyOp57
 70
     1
102
RTVSPropertyOp58
 70
     1
102
RTVSPropertyOp59
 70
     1
102
RTVSPropertyOp60
 70
     1
102
RTVSPropertyOp61
 70
     1
102
RTVSPropertyOp62
 70
     1
  0
XRECORD
  5
A1FD
102
{ACAD_REACTORS
330
A1FC
102
}
330
A1FC
100
AcDbXrecord
280
     1
102
RTVSPost2010Prop28
280
     0
102
RTVSPost2010PropOp28
 70
     1
102
RTVSPost2010Prop29
280
     1
102
RTVSPost2010PropOp29
 70
     1
102
RTVSPost2010Prop30
280
     1
102
RTVSPost2010PropOp30
 70
     1
102
RTVSPost2010Prop31
280
     0
102
RTVSPost2010PropOp31
 70
     1
102
RTVSPost2010Prop32
280
     0
102
RTVSPost2010PropOp32
 70
     1
102
RTVSPost2010Prop33
280
     0
102
RTVSPost2010PropOp33
 70
     1
102
RTVSPost2010Prop34
280
     0
102
RTVSPost2010PropOp34
 70
     1
102
RTVSPost2010Prop35
280
     0
102
RTVSPost2010PropOp35
 70
     1
102
RTVSPost2010Prop36
280
     0
102
RTVSPost2010PropOp36
 70
     1
102
RTVSPost2010Prop37
 90
       50
102
RTVSPost2010PropOp37
 70
     1
102
RTVSPost2010Prop38
140
0.0
102
RTVSPost2010PropOp38
 70
     1
102
RTVSPost2010Prop39
140
1.0
102
RTVSPost2010PropOp39
 70
     1
102
RTVSPost2010Prop40
 90
        0
102
RTVSPost2010PropOp40
 70
     1
102
RTVSPost2010Prop41ColorIndex
 90
       18
102
RTVSPost2010Prop41ColorRGB
 90
        0
102
RTVSPost2010PropOp41
 70
     1
102
RTVSPost2010Prop42
 90
       50
102
RTVSPost2010PropOp42
 70
     1
102
RTVSPost2010Prop43
 90
        3
102
RTVSPost2010PropOp43
 70
     1
102
RTVSPost2010Prop44ColorIndex
 90
        5
102
RTVSPost2010Prop44ColorRGB
 90
      255
102
RTVSPost2010PropOp44
 70
     1
102
RTVSPost2010Prop45
280
     0
102
RTVSPost2010PropOp45
 70
     1
102
RTVSPost2010Prop46
 90
       50
102
RTVSPost2010PropOp46
 70
     1
102
RTVSPost2010Prop47
 90
       50
102
RTVSPost2010PropOp47
 70
     1
102
RTVSPost2010Prop48
 90
       50
102
RTVSPost2010PropOp48
 70
     1
102
RTVSPost2010Prop49
280
     0
102
RTVSPost2010PropOp49
 70
     1
102
RTVSPost2010Prop50
 90
       50
102
RTVSPost2010PropOp50
 70
     1
102
RTVSPost2010Prop51ColorIndex
 90
      256
102
RTVSPost2010Prop51ColorRGB
 90
-16777216
102
RTVSPost2010PropOp51
 70
     0
102
RTVSPost2010Prop52
140
1.0
102
RTVSPost2010PropOp52
 70
     0
102
RTVSPost2010Prop53
 90
        2
102
RTVSPost2010PropOp53
 70
     1
102
RTVSPost2010Prop54
  1
strokes_ogs.tif
102
RTVSPost2010PropOp54
 70
     1
102
RTVSPost2010Prop55
280
     0
102
RTVSPost2010PropOp55
 70
     1
102
RTVSPost2010Prop56
140
1.0
102
RTVSPost2010PropOp56
 70
     1
102
RTVSPost2010Prop57
140
1.0
102
RTVSPost2010PropOp57
 70
     1
102
RTVSPropertyOp0
 70
     1
102
RTVSPropertyOp1
 70
     1
102
RTVSPropertyOp2
 70
     1
102
RTVSPropertyOp3
 70
     1
102
RTVSPropertyOp4
 70
     1
102
RTVSPropertyOp5
 70
     1
102
RTVSPropertyOp6
 70
     1
102
RTVSPropertyOp7
 70
     1
102
RTVSPropertyOp8
 70
     1
102
RTVSPropertyOp9
 70
     1
102
RTVSPropertyOp10
 70
     1
102
RTVSPropertyOp11
 70
     1
102
RTVSPropertyOp12
 70
     1
102
RTVSPropertyOp13
 70
     1
102
RTVSPropertyOp14
 70
     1
102
RTVSPropertyOp15
 70
     1
102
RTVSPropertyOp16
 70
     1
102
RTVSPropertyOp17
 70
     1
102
RTVSPropertyOp18
 70
     1
102
RTVSPropertyOp19
 70
     1
102
RTVSPropertyOp20
 70
     1
102
RTVSPropertyOp21
 70
     1
102
RTVSPropertyOp22
 70
     1
102
RTVSPropertyOp23
 70
     1
102
RTVSPropertyOp24
 70
     1
102
RTVSPropertyOp25
 70
     1
102
RTVSPropertyOp26
 70
     1
102
RTVSPropertyOp27
 70
     1
102
RTVSPropertyOp28
 70
     1
102
RTVSPropertyOp29
 70
     1
102
RTVSPropertyOp30
 70
     1
102
RTVSPropertyOp31
 70
     1
102
RTVSPropertyOp32
 70
     1
102
RTVSPropertyOp33
 70
     1
102
RTVSPropertyOp34
 70
     1
102
RTVSPropertyOp35
 70
     1
102
RTVSPropertyOp36
 70
     1
102
RTVSPropertyOp37
 70
     1
102
RTVSPropertyOp38
 70
     1
102
RTVSPropertyOp39
 70
     1
102
RTVSPropertyOp40
 70
     1
102
RTVSPropertyOp41
 70
     1
102
RTVSPropertyOp42
 70
     1
102
RTVSPropertyOp43
 70
     1
102
RTVSPropertyOp44
 70
     1
102
RTVSPropertyOp45
 70
     1
102
RTVSPropertyOp46
 70
     1
102
RTVSPropertyOp47
 70
     1
102
RTVSPropertyOp48
 70
     1
102
RTVSPropertyOp49
 70
     1
102
RTVSPropertyOp50
 70
     1
102
RTVSPropertyOp51
 70
     0
102
RTVSPropertyOp52
 70
     0
102
RTVSPropertyOp53
 70
     1
102
RTVSPropertyOp54
 70
     1
102
RTVSPropertyOp55
 70
     1
102
RTVSPropertyOp56
 70
     1
102
RTVSPropertyOp57
 70
     1
102
RTVSPropertyOp58
 70
     1
102
RTVSPropertyOp59
 70
     1
102
RTVSPropertyOp60
 70
     1
102
RTVSPropertyOp61
 70
     1
102
RTVSPropertyOp62
 70
     1
  0
XRECORD
  5
A1F1
102
{ACAD_REACTORS
330
A1F0
102
}
330
A1F0
100
AcDbXrecord
280
     1
102
RTVSPost2010Prop28
280
     0
102
RTVSPost2010PropOp28
 70
     1
102
RTVSPost2010Prop29
280
     1
102
RTVSPost2010PropOp29
 70
     1
102
RTVSPost2010Prop30
280
     1
102
RTVSPost2010PropOp30
 70
     1
102
RTVSPost2010Prop31
280
     0
102
RTVSPost2010PropOp31
 70
     1
102
RTVSPost2010Prop32
280
     0
102
RTVSPost2010PropOp32
 70
     1
102
RTVSPost2010Prop33
280
     0
102
RTVSPost2010PropOp33
 70
     1
102
RTVSPost2010Prop34
280
     0
102
RTVSPost2010PropOp34
 70
     1
102
RTVSPost2010Prop35
280
     0
102
RTVSPost2010PropOp35
 70
     1
102
RTVSPost2010Prop36
280
     0
102
RTVSPost2010PropOp36
 70
     1
102
RTVSPost2010Prop37
 90
       50
102
RTVSPost2010PropOp37
 70
     1
102
RTVSPost2010Prop38
140
0.0
102
RTVSPost2010PropOp38
 70
     1
102
RTVSPost2010Prop39
140
1.0
102
RTVSPost2010PropOp39
 70
     1
102
RTVSPost2010Prop40
 90
        0
102
RTVSPost2010PropOp40
 70
     1
102
RTVSPost2010Prop41ColorIndex
 90
       18
102
RTVSPost2010Prop41ColorRGB
 90
        0
102
RTVSPost2010PropOp41
 70
     1
102
RTVSPost2010Prop42
 90
       50
102
RTVSPost2010PropOp42
 70
     1
102
RTVSPost2010Prop43
 90
        3
102
RTVSPost2010PropOp43
 70
     1
102
RTVSPost2010Prop44ColorIndex
 90
        5
102
RTVSPost2010Prop44ColorRGB
 90
      255
102
RTVSPost2010PropOp44
 70
     1
102
RTVSPost2010Prop45
280
     0
102
RTVSPost2010PropOp45
 70
     1
102
RTVSPost2010Prop46
 90
       50
102
RTVSPost2010PropOp46
 70
     1
102
RTVSPost2010Prop47
 90
       50
102
RTVSPost2010PropOp47
 70
     1
102
RTVSPost2010Prop48
 90
       50
102
RTVSPost2010PropOp48
 70
     1
102
RTVSPost2010Prop49
280
     0
102
RTVSPost2010PropOp49
 70
     1
102
RTVSPost2010Prop50
 90
       50
102
RTVSPost2010PropOp50
 70
     1
102
RTVSPost2010Prop51ColorIndex
 90
      256
102
RTVSPost2010Prop51ColorRGB
 90
-16777216
102
RTVSPost2010PropOp51
 70
     0
102
RTVSPost2010Prop52
140
1.0
102
RTVSPost2010PropOp52
 70
     0
102
RTVSPost2010Prop53
 90
        2
102
RTVSPost2010PropOp53
 70
     1
102
RTVSPost2010Prop54
  1
strokes_ogs.tif
102
RTVSPost2010PropOp54
 70
     1
102
RTVSPost2010Prop55
280
     0
102
RTVSPost2010PropOp55
 70
     1
102
RTVSPost2010Prop56
140
1.0
102
RTVSPost2010PropOp56
 70
     1
102
RTVSPost2010Prop57
140
1.0
102
RTVSPost2010PropOp57
 70
     1
102
RTVSPropertyOp0
 70
     1
102
RTVSPropertyOp1
 70
     1
102
RTVSPropertyOp2
 70
     1
102
RTVSPropertyOp3
 70
     1
102
RTVSPropertyOp4
 70
     1
102
RTVSPropertyOp5
 70
     1
102
RTVSPropertyOp6
 70
     1
102
RTVSPropertyOp7
 70
     1
102
RTVSPropertyOp8
 70
     1
102
RTVSPropertyOp9
 70
     1
102
RTVSPropertyOp10
 70
     1
102
RTVSPropertyOp11
 70
     1
102
RTVSPropertyOp12
 70
     1
102
RTVSPropertyOp13
 70
     1
102
RTVSPropertyOp14
 70
     1
102
RTVSPropertyOp15
 70
     1
102
RTVSPropertyOp16
 70
     1
102
RTVSPropertyOp17
 70
     1
102
RTVSPropertyOp18
 70
     1
102
RTVSPropertyOp19
 70
     1
102
RTVSPropertyOp20
 70
     1
102
RTVSPropertyOp21
 70
     1
102
RTVSPropertyOp22
 70
     1
102
RTVSPropertyOp23
 70
     1
102
RTVSPropertyOp24
 70
     1
102
RTVSPropertyOp25
 70
     1
102
RTVSPropertyOp26
 70
     1
102
RTVSPropertyOp27
 70
     1
102
RTVSPropertyOp28
 70
     1
102
RTVSPropertyOp29
 70
     1
102
RTVSPropertyOp30
 70
     1
102
RTVSPropertyOp31
 70
     1
102
RTVSPropertyOp32
 70
     1
102
RTVSPropertyOp33
 70
     1
102
RTVSPropertyOp34
 70
     1
102
RTVSPropertyOp35
 70
     1
102
RTVSPropertyOp36
 70
     1
102
RTVSPropertyOp37
 70
     1
102
RTVSPropertyOp38
 70
     1
102
RTVSPropertyOp39
 70
     1
102
RTVSPropertyOp40
 70
     1
102
RTVSPropertyOp41
 70
     1
102
RTVSPropertyOp42
 70
     1
102
RTVSPropertyOp43
 70
     1
102
RTVSPropertyOp44
 70
     1
102
RTVSPropertyOp45
 70
     1
102
RTVSPropertyOp46
 70
     1
102
RTVSPropertyOp47
 70
     1
102
RTVSPropertyOp48
 70
     1
102
RTVSPropertyOp49
 70
     1
102
RTVSPropertyOp50
 70
     1
102
RTVSPropertyOp51
 70
     0
102
RTVSPropertyOp52
 70
     0
102
RTVSPropertyOp53
 70
     1
102
RTVSPropertyOp54
 70
     1
102
RTVSPropertyOp55
 70
     1
102
RTVSPropertyOp56
 70
     1
102
RTVSPropertyOp57
 70
     1
102
RTVSPropertyOp58
 70
     1
102
RTVSPropertyOp59
 70
     1
102
RTVSPropertyOp60
 70
     1
102
RTVSPropertyOp61
 70
     1
102
RTVSPropertyOp62
 70
     1
  0
XRECORD
  5
A209
102
{ACAD_REACTORS
330
A208
102
}
330
A208
100
AcDbXrecord
280
     1
102
RTVSPost2010Prop28
280
     0
102
RTVSPost2010PropOp28
 70
     1
102
RTVSPost2010Prop29
280
     1
102
RTVSPost2010PropOp29
 70
     1
102
RTVSPost2010Prop30
280
     1
102
RTVSPost2010PropOp30
 70
     1
102
RTVSPost2010Prop31
280
     0
102
RTVSPost2010PropOp31
 70
     1
102
RTVSPost2010Prop32
280
     0
102
RTVSPost2010PropOp32
 70
     1
102
RTVSPost2010Prop33
280
     0
102
RTVSPost2010PropOp33
 70
     1
102
RTVSPost2010Prop34
280
     0
102
RTVSPost2010PropOp34
 70
     1
102
RTVSPost2010Prop35
280
     0
102
RTVSPost2010PropOp35
 70
     1
102
RTVSPost2010Prop36
280
     0
102
RTVSPost2010PropOp36
 70
     1
102
RTVSPost2010Prop37
 90
       50
102
RTVSPost2010PropOp37
 70
     1
102
RTVSPost2010Prop38
140
0.0
102
RTVSPost2010PropOp38
 70
     1
102
RTVSPost2010Prop39
140
1.0
102
RTVSPost2010PropOp39
 70
     1
102
RTVSPost2010Prop40
 90
        0
102
RTVSPost2010PropOp40
 70
     1
102
RTVSPost2010Prop41ColorIndex
 90
       18
102
RTVSPost2010Prop41ColorRGB
 90
        0
102
RTVSPost2010PropOp41
 70
     1
102
RTVSPost2010Prop42
 90
       50
102
RTVSPost2010PropOp42
 70
     1
102
RTVSPost2010Prop43
 90
        3
102
RTVSPost2010PropOp43
 70
     1
102
RTVSPost2010Prop44ColorIndex
 90
        5
102
RTVSPost2010Prop44ColorRGB
 90
      255
102
RTVSPost2010PropOp44
 70
     1
102
RTVSPost2010Prop45
280
     0
102
RTVSPost2010PropOp45
 70
     1
102
RTVSPost2010Prop46
 90
       50
102
RTVSPost2010PropOp46
 70
     1
102
RTVSPost2010Prop47
 90
       50
102
RTVSPost2010PropOp47
 70
     1
102
RTVSPost2010Prop48
 90
       50
102
RTVSPost2010PropOp48
 70
     1
102
RTVSPost2010Prop49
280
     0
102
RTVSPost2010PropOp49
 70
     1
102
RTVSPost2010Prop50
 90
       50
102
RTVSPost2010PropOp50
 70
     1
102
RTVSPost2010Prop51ColorIndex
 90
      256
102
RTVSPost2010Prop51ColorRGB
 90
-16777216
102
RTVSPost2010PropOp51
 70
     0
102
RTVSPost2010Prop52
140
1.0
102
RTVSPost2010PropOp52
 70
     0
102
RTVSPost2010Prop53
 90
        2
102
RTVSPost2010PropOp53
 70
     1
102
RTVSPost2010Prop54
  1
strokes_ogs.tif
102
RTVSPost2010PropOp54
 70
     1
102
RTVSPost2010Prop55
280
     0
102
RTVSPost2010PropOp55
 70
     1
102
RTVSPost2010Prop56
140
1.0
102
RTVSPost2010PropOp56
 70
     1
102
RTVSPost2010Prop57
140
1.0
102
RTVSPost2010PropOp57
 70
     1
102
RTVSPropertyOp0
 70
     1
102
RTVSPropertyOp1
 70
     1
102
RTVSPropertyOp2
 70
     1
102
RTVSPropertyOp3
 70
     1
102
RTVSPropertyOp4
 70
     1
102
RTVSPropertyOp5
 70
     1
102
RTVSPropertyOp6
 70
     1
102
RTVSPropertyOp7
 70
     1
102
RTVSPropertyOp8
 70
     1
102
RTVSPropertyOp9
 70
     1
102
RTVSPropertyOp10
 70
     1
102
RTVSPropertyOp11
 70
     1
102
RTVSPropertyOp12
 70
     1
102
RTVSPropertyOp13
 70
     1
102
RTVSPropertyOp14
 70
     1
102
RTVSPropertyOp15
 70
     1
102
RTVSPropertyOp16
 70
     1
102
RTVSPropertyOp17
 70
     1
102
RTVSPropertyOp18
 70
     1
102
RTVSPropertyOp19
 70
     1
102
RTVSPropertyOp20
 70
     1
102
RTVSPropertyOp21
 70
     1
102
RTVSPropertyOp22
 70
     1
102
RTVSPropertyOp23
 70
     1
102
RTVSPropertyOp24
 70
     1
102
RTVSPropertyOp25
 70
     1
102
RTVSPropertyOp26
 70
     1
102
RTVSPropertyOp27
 70
     1
102
RTVSPropertyOp28
 70
     1
102
RTVSPropertyOp29
 70
     1
102
RTVSPropertyOp30
 70
     1
102
RTVSPropertyOp31
 70
     1
102
RTVSPropertyOp32
 70
     1
102
RTVSPropertyOp33
 70
     1
102
RTVSPropertyOp34
 70
     1
102
RTVSPropertyOp35
 70
     1
102
RTVSPropertyOp36
 70
     1
102
RTVSPropertyOp37
 70
     1
102
RTVSPropertyOp38
 70
     1
102
RTVSPropertyOp39
 70
     1
102
RTVSPropertyOp40
 70
     1
102
RTVSPropertyOp41
 70
     1
102
RTVSPropertyOp42
 70
     1
102
RTVSPropertyOp43
 70
     1
102
RTVSPropertyOp44
 70
     1
102
RTVSPropertyOp45
 70
     1
102
RTVSPropertyOp46
 70
     1
102
RTVSPropertyOp47
 70
     1
102
RTVSPropertyOp48
 70
     1
102
RTVSPropertyOp49
 70
     1
102
RTVSPropertyOp50
 70
     1
102
RTVSPropertyOp51
 70
     0
102
RTVSPropertyOp52
 70
     0
102
RTVSPropertyOp53
 70
     1
102
RTVSPropertyOp54
 70
     1
102
RTVSPropertyOp55
 70
     1
102
RTVSPropertyOp56
 70
     1
102
RTVSPropertyOp57
 70
     1
102
RTVSPropertyOp58
 70
     1
102
RTVSPropertyOp59
 70
     1
102
RTVSPropertyOp60
 70
     1
102
RTVSPropertyOp61
 70
     1
102
RTVSPropertyOp62
 70
     1
  0
ENDSEC
  0
EOF
