  0
SECTION
  2
HEADER
  9
$ACADVER
  1
AC1015
  9
$ACADMAINTVER
 70
    20
  9
$DWGCODEPAGE
  3
ANSI_932
  9
$INSBASE
 10
0.0
 20
0.0
 30
0.0
  9
$EXTMIN
 10
10.0
 20
9.999999999999998
 30
0.0
  9
$EXTMAX
 10
394.5599209999999
 20
335.1929769999999
 30
0.0
  9
$LIMMIN
 10
0.0
 20
0.0
  9
$LIMMAX
 10
495.0
 20
341.25
  9
$ORTHOMODE
 70
     1
  9
$REGENMODE
 70
     1
  9
$FILLMODE
 70
     1
  9
$QTEXTMODE
 70
     0
  9
$MIRRTEXT
 70
     1
  9
$LTSCALE
 40
20.0
  9
$ATTMODE
 70
     1
  9
$TEXTSIZE
 40
5.0
  9
$TRACEWID
 40
1.0
  9
$TEXTSTYLE
  7
STANDARD
  9
$CLAYER
  8
0
  9
$CELTYPE
  6
BYLAYER
  9
$CECOLOR
 62
   256
  9
$CELTSCALE
 40
1.0
  9
$DISPSILH
 70
     0
  9
$DIMSCALE
 40
1.0
  9
$DIMASZ
 40
2.5
  9
$DIMEXO
 40
1.0
  9
$DIMDLI
 40
10.0
  9
$DIMRND
 40
0.0
  9
$DIMDLE
 40
0.0
  9
$DIMEXE
 40
1.0
  9
$DIMTP
 40
0.0
  9
$DIMTM
 40
0.0
  9
$DIMTXT
 40
3.2
  9
$DIMCEN
 40
0.0
  9
$DIMTSZ
 40
0.0
  9
$DIMTOL
 70
     0
  9
$DIMLIM
 70
     0
  9
$DIMTIH
 70
     0
  9
$DIMTOH
 70
     0
  9
$DIMSE1
 70
     0
  9
$DIMSE2
 70
     0
  9
$DIMTAD
 70
     3
  9
$DIMZIN
 70
     8
  9
$DIMBLK
  1

  9
$DIMASO
 70
     1
  9
$DIMSHO
 70
     1
  9
$DIMPOST
  1

  9
$DIMAPOST
  1

  9
$DIMALT
 70
     0
  9
$DIMALTD
 70
     2
  9
$DIMALTF
 40
25.4
  9
$DIMLFAC
 40
1.0
  9
$DIMTOFL
 70
     1
  9
$DIMTVP
 40
0.0
  9
$DIMTIX
 70
     0
  9
$DIMSOXD
 70
     0
  9
$DIMSAH
 70
     1
  9
$DIMBLK1
  1

  9
$DIMBLK2
  1

  9
$DIMSTYLE
  2
STANDARD
  9
$DIMCLRD
 70
     0
  9
$DIMCLRE
 70
     0
  9
$DIMCLRT
 70
     0
  9
$DIMTFAC
 40
1.0
  9
$DIMGAP
 40
1.0
  9
$DIMJUST
 70
     0
  9
$DIMSD1
 70
     0
  9
$DIMSD2
 70
     0
  9
$DIMTOLJ
 70
     1
  9
$DIMTZIN
 70
     0
  9
$DIMALTZ
 70
     0
  9
$DIMALTTZ
 70
     0
  9
$DIMUPT
 70
     0
  9
$DIMDEC
 70
     4
  9
$DIMTDEC
 70
     4
  9
$DIMALTU
 70
     2
  9
$DIMALTTD
 70
     2
  9
$DIMTXSTY
  7
STANDARD
  9
$DIMAUNIT
 70
     0
  9
$DIMADEC
 70
     0
  9
$DIMALTRND
 40
0.0
  9
$DIMAZIN
 70
     0
  9
$DIMDSEP
 70
    46
  9
$DIMATFIT
 70
     3
  9
$DIMFRAC
 70
     0
  9
$DIMLDRBLK
  1

  9
$DIMLUNIT
 70
     2
  9
$DIMLWD
 70
    -2
  9
$DIMLWE
 70
    -2
  9
$DIMTMOVE
 70
     0
  9
$LUNITS
 70
     2
  9
$LUPREC
 70
     4
  9
$SKETCHINC
 40
1.0
  9
$FILLETRAD
 40
4.0
  9
$AUNITS
 70
     0
  9
$AUPREC
 70
     2
  9
$MENU
  1
.
  9
$ELEVATION
 40
0.0
  9
$PELEVATION
 40
0.0
  9
$THICKNESS
 40
0.0
  9
$LIMCHECK
 70
     0
  9
$CHAMFERA
 40
10.0
  9
$CHAMFERB
 40
10.0
  9
$CHAMFERC
 40
0.0
  9
$CHAMFERD
 40
0.0
  9
$SKPOLY
 70
     0
  9
$TDCREATE
 40
2451301.436256482
  9
$TDUCREATE
 40
2451301.061256482
  9
$TDUPDATE
 40
2457192.690076921
  9
$TDUUPDATE
 40
2457192.315076921
  9
$TDINDWG
 40
0.1431013889
  9
$TDUSRTIMER
 40
0.1431009144
  9
$USRTIMER
 70
     1
  9
$ANGBASE
 50
0.0
  9
$ANGDIR
 70
     0
  9
$PDMODE
 70
     0
  9
$PDSIZE
 40
0.0
  9
$PLINEWID
 40
0.0
  9
$SPLFRAME
 70
     0
  9
$SPLINETYPE
 70
     6
  9
$SPLINESEGS
 70
     8
  9
$HANDSEED
  5
AA0C
  9
$SURFTAB1
 70
     6
  9
$SURFTAB2
 70
     6
  9
$SURFTYPE
 70
     6
  9
$SURFU
 70
     6
  9
$SURFV
 70
     6
  9
$UCSBASE
  2

  9
$UCSNAME
  2

  9
$UCSORG
 10
0.0
 20
0.0
 30
0.0
  9
$UCSXDIR
 10
1.0
 20
0.0
 30
0.0
  9
$UCSYDIR
 10
0.0
 20
1.0
 30
0.0
  9
$UCSORTHOREF
  2

  9
$UCSORTHOVIEW
 70
     0
  9
$UCSORGTOP
 10
0.0
 20
0.0
 30
0.0
  9
$UCSORGBOTTOM
 10
0.0
 20
0.0
 30
0.0
  9
$UCSORGLEFT
 10
0.0
 20
0.0
 30
0.0
  9
$UCSORGRIGHT
 10
0.0
 20
0.0
 30
0.0
  9
$UCSORGFRONT
 10
0.0
 20
0.0
 30
0.0
  9
$UCSORGBACK
 10
0.0
 20
0.0
 30
0.0
  9
$PUCSBASE
  2

  9
$PUCSNAME
  2

  9
$PUCSORG
 10
0.0
 20
0.0
 30
0.0
  9
$PUCSXDIR
 10
1.0
 20
0.0
 30
0.0
  9
$PUCSYDIR
 10
0.0
 20
1.0
 30
0.0
  9
$PUCSORTHOREF
  2

  9
$PUCSORTHOVIEW
 70
     0
  9
$PUCSORGTOP
 10
0.0
 20
0.0
 30
0.0
  9
$PUCSORGBOTTOM
 10
0.0
 20
0.0
 30
0.0
  9
$PUCSORGLEFT
 10
0.0
 20
0.0
 30
0.0
  9
$PUCSORGRIGHT
 10
0.0
 20
0.0
 30
0.0
  9
$PUCSORGFRONT
 10
0.0
 20
0.0
 30
0.0
  9
$PUCSORGBACK
 10
0.0
 20
0.0
 30
0.0
  9
$USERI1
 70
     0
  9
$USERI2
 70
     0
  9
$USERI3
 70
     0
  9
$USERI4
 70
     0
  9
$USERI5
 70
     0
  9
$USERR1
 40
0.0
  9
$USERR2
 40
0.0
  9
$USERR3
 40
0.0
  9
$USERR4
 40
0.0
  9
$USERR5
 40
0.0
  9
$WORLDVIEW
 70
     1
  9
$SHADEDGE
 70
     3
  9
$SHADEDIF
 70
    70
  9
$TILEMODE
 70
     1
  9
$MAXACTVP
 70
    16
  9
$PINSBASE
 10
0.0
 20
0.0
 30
0.0
  9
$PLIMCHECK
 70
     0
  9
$PEXTMIN
 10
1.000000000000000E+20
 20
1.000000000000000E+20
 30
1.000000000000000E+20
  9
$PEXTMAX
 10
-1.000000000000000E+20
 20
-1.000000000000000E+20
 30
-1.000000000000000E+20
  9
$PLIMMIN
 10
0.0
 20
0.0
  9
$PLIMMAX
 10
420.0
 20
297.0
  9
$UNITMODE
 70
     0
  9
$VISRETAIN
 70
     0
  9
$PLINEGEN
 70
     0
  9
$PSLTSCALE
 70
     0
  9
$TREEDEPTH
 70
  3020
  9
$CMLSTYLE
  2
STANDARD
  9
$CMLJUST
 70
     0
  9
$CMLSCALE
 40
1.0
  9
$PROXYGRAPHICS
 70
     1
  9
$MEASUREMENT
 70
     0
  9
$CELWEIGHT
370
    -1
  9
$ENDCAPS
280
     0
  9
$JOINSTYLE
280
     0
  9
$LWDISPLAY
290
     0
  9
$INSUNITS
 70
     0
  9
$HYPERLINKBASE
  1

  9
$STYLESHEET
  1

  9
$XEDIT
290
     1
  9
$CEPSNTYPE
380
     0
  9
$PSTYLEMODE
290
     1
  9
$FINGERPRINTGUID
  2
{E5908FB9-2F72-481F-BE70-C365486FF5A9}
  9
$VERSIONGUID
  2
{032ED036-E2E0-4A7F-B195-DEC75BB0B40A}
  9
$EXTNAMES
290
     1
  9
$PSVPSCALE
 40
0.0
  9
$OLESTARTUP
290
     0
  0
ENDSEC
  0
SECTION
  2
CLASSES
  0
CLASS
  1
ACDBDICTIONARYWDFLT
  2
AcDbDictionaryWithDefault
  3
ObjectDBX Classes
 90
        0
280
     0
281
     0
  0
CLASS
  1
ACDBPLACEHOLDER
  2
AcDbPlaceHolder
  3
ObjectDBX Classes
 90
        0
280
     0
281
     0
  0
CLASS
  1
LAYOUT
  2
AcDbLayout
  3
ObjectDBX Classes
 90
        0
280
     0
281
     0
  0
CLASS
  1
DICTIONARYVAR
  2
AcDbDictionaryVar
  3
ObjectDBX Classes
 90
        0
280
     0
281
     0
  0
CLASS
  1
MATERIAL
  2
AcDbMaterial
  3
ObjectDBX Classes
 90
     1153
280
     0
281
     0
  0
CLASS
  1
VISUALSTYLE
  2
AcDbVisualStyle
  3
ObjectDBX Classes
 90
     4095
280
     0
281
     0
  0
CLASS
  1
TABLESTYLE
  2
AcDbTableStyle
  3
ObjectDBX Classes
 90
     4095
280
     0
281
     0
  0
CLASS
  1
SCALE
  2
AcDbScale
  3
ObjectDBX Classes
 90
     1153
280
     0
281
     0
  0
CLASS
  1
MLEADERSTYLE
  2
AcDbMLeaderStyle
  3
ACDB_MLEADERSTYLE_CLASS
 90
     4095
280
     0
281
     0
  0
CLASS
  1
ACDBSECTIONVIEWSTYLE
  2
AcDbSectionViewStyle
  3
ObjectDBX Classes
 90
     1025
280
     0
281
     0
  0
CLASS
  1
ACDBDETAILVIEWSTYLE
  2
AcDbDetailViewStyle
  3
ObjectDBX Classes
 90
     1025
280
     0
281
     0
  0
CLASS
  1
CELLSTYLEMAP
  2
AcDbCellStyleMap
  3
ObjectDBX Classes
 90
     1152
280
     0
281
     0
  0
ENDSEC
  0
SECTION
  2
TABLES
  0
TABLE
  2
VPORT
  5
A6F6
330
0
100
AcDbSymbolTable
 70
     1
  0
VPORT
  5
A957
330
A6F6
100
AcDbSymbolTableRecord
100
AcDbViewportTableRecord
  2
*ACTIVE
 70
     0
 10
0.0
 20
0.0
 11
1.0
 21
1.0
 12
327.4665660582142
 22
172.5906666140835
 13
0.0
 23
0.0
 14
10.0
 24
10.0
 15
10.0
 25
10.0
 16
0.0
 26
0.0
 36
1.0
 17
0.0
 27
0.0
 37
0.0
 40
327.774466696537
 41
2.35006605019815
 42
50.0
 43
0.0
 44
0.0
 50
0.0
 51
0.0
 71
     0
 72
   100
 73
     1
 74
     0
 75
     0
 76
     0
 77
     0
 78
     0
281
     0
 65
     1
110
0.0
120
0.0
130
0.0
111
1.0
121
0.0
131
0.0
112
0.0
122
1.0
132
0.0
 79
     0
146
0.0
1001
ACAD_NAV_VCDISPLAY
1070
     3
  0
ENDTAB
  0
TABLE
  2
LTYPE
  5
A6F3
330
0
100
AcDbSymbolTable
 70
     4
  0
LTYPE
  5
A701
330
A6F3
100
AcDbSymbolTableRecord
100
AcDbLinetypeTableRecord
  2
BYBLOCK
 70
     0
  3

 72
    65
 73
     0
 40
0.0
  0
LTYPE
  5
A702
330
A6F3
100
AcDbSymbolTableRecord
100
AcDbLinetypeTableRecord
  2
BYLAYER
 70
     0
  3

 72
    65
 73
     0
 40
0.0
  0
LTYPE
  5
A703
330
A6F3
100
AcDbSymbolTableRecord
100
AcDbLinetypeTableRecord
  2
CONTINUOUS
 70
     0
  3
Solid line
 72
    65
 73
     0
 40
0.0
  0
LTYPE
  5
A711
330
A6F3
100
AcDbSymbolTableRecord
100
AcDbLinetypeTableRecord
  2
DASHED
 70
     0
  3
__ __ __ __ __ __ __ __ __ __ __ __ __ __ __ __
 72
    65
 73
     2
 40
0.75
 49
0.5
 74
     0
 49
-0.25
 74
     0
  0
LTYPE
  5
A712
330
A6F3
100
AcDbSymbolTableRecord
100
AcDbLinetypeTableRecord
  2
CENTER
 70
     0
  3
____ _ ____ _ ____ _ ____ _ ____ _ ____ _ ____ 
 72
    65
 73
     4
 40
2.0
 49
1.25
 74
     0
 49
-0.25
 74
     0
 49
0.25
 74
     0
 49
-0.25
 74
     0
  0
LTYPE
  5
A713
330
A6F3
100
AcDbSymbolTableRecord
100
AcDbLinetypeTableRecord
  2
PHANTOM
 70
     0
  3
______  __  __  ______  __  __  ______  __  __ 
 72
    65
 73
     6
 40
2.5
 49
1.25
 74
     0
 49
-0.25
 74
     0
 49
0.25
 74
     0
 49
-0.25
 74
     0
 49
0.25
 74
     0
 49
-0.25
 74
     0
  0
ENDTAB
  0
TABLE
  2
LAYER
  5
A6F0
330
0
100
AcDbSymbolTable
 70
     8
  0
LAYER
  5
A6FE
102
{ACAD_XDICTIONARY
360
A9B0
102
}
330
A6F0
100
AcDbSymbolTableRecord
100
AcDbLayerTableRecord
  2
0
 70
     0
 62
     7
  6
CONTINUOUS
370
    -3
390
A95E
  0
LAYER
  5
A714
102
{ACAD_XDICTIONARY
360
A9B2
102
}
330
A6F0
100
AcDbSymbolTableRecord
100
AcDbLayerTableRecord
  2
4
 70
     0
 62
     1
  6
CENTER
370
    -3
390
A95E
  0
LAYER
  5
A715
102
{ACAD_XDICTIONARY
360
A9B4
102
}
330
A6F0
100
AcDbSymbolTableRecord
100
AcDbLayerTableRecord
  2
5
 70
     0
 62
     6
  6
PHANTOM
370
    -3
390
A95E
  0
LAYER
  5
A716
102
{ACAD_XDICTIONARY
360
A9B6
102
}
330
A6F0
100
AcDbSymbolTableRecord
100
AcDbLayerTableRecord
  2
1
 70
     0
 62
     7
  6
CONTINUOUS
370
    -3
390
A95E
  0
LAYER
  5
A717
102
{ACAD_XDICTIONARY
360
A9B8
102
}
330
A6F0
100
AcDbSymbolTableRecord
100
AcDbLayerTableRecord
  2
2
 70
     0
 62
     4
  6
CONTINUOUS
370
    -3
390
A95E
  0
LAYER
  5
A718
102
{ACAD_XDICTIONARY
360
A9BA
102
}
330
A6F0
100
AcDbSymbolTableRecord
100
AcDbLayerTableRecord
  2
3
 70
     0
 62
     2
  6
DASHED
370
    -3
390
A95E
  0
LAYER
  5
A719
102
{ACAD_XDICTIONARY
360
A9BC
102
}
330
A6F0
100
AcDbSymbolTableRecord
100
AcDbLayerTableRecord
  2
6
 70
     0
 62
     5
  6
CONTINUOUS
370
    -3
390
A95E
  0
LAYER
  5
A71A
102
{ACAD_XDICTIONARY
360
A9BE
102
}
330
A6F0
100
AcDbSymbolTableRecord
100
AcDbLayerTableRecord
  2
7
 70
     0
 62
     3
  6
CONTINUOUS
370
    -3
390
A95E
  0
ENDTAB
  0
TABLE
  2
STYLE
  5
A6F1
330
0
100
AcDbSymbolTable
 70
     1
  0
STYLE
  5
A6FF
330
A6F1
100
AcDbSymbolTableRecord
100
AcDbTextStyleTableRecord
  2
STANDARD
 70
     0
 40
0.0
 41
1.0
 50
0.0
 71
     0
 42
5.0
  3
txt
  4

  0
ENDTAB
  0
TABLE
  2
VIEW
  5
A6F4
330
0
100
AcDbSymbolTable
 70
     0
  0
ENDTAB
  0
TABLE
  2
UCS
  5
A6F5
330
0
100
AcDbSymbolTable
 70
     0
  0
ENDTAB
  0
TABLE
  2
APPID
  5
A6F7
330
0
100
AcDbSymbolTable
 70
     3
  0
APPID
  5
A700
330
A6F7
100
AcDbSymbolTableRecord
100
AcDbRegAppTableRecord
  2
ACAD
 70
     0
  0
APPID
  5
A9CA
330
A6F7
100
AcDbSymbolTableRecord
100
AcDbRegAppTableRecord
  2
ACAD_NAV_VCDISPLAY
 70
     0
  0
APPID
  5
AA03
330
A6F7
100
AcDbSymbolTableRecord
100
AcDbRegAppTableRecord
  2
ACAD_MLEADERVER
 70
     0
  0
ENDTAB
  0
TABLE
  2
DIMSTYLE
  5
A6F8
330
0
100
AcDbSymbolTable
 70
     1
100
AcDbDimStyleTable
 71
     0
  0
DIMSTYLE
105
A71C
330
A6F8
100
AcDbSymbolTableRecord
100
AcDbDimStyleTableRecord
  2
STANDARD
 70
     0
 41
2.5
 42
1.0
 43
10.0
 44
1.0
 73
     0
 74
     0
 77
     3
 78
     8
140
3.2
141
0.0
147
1.0
172
     1
173
     1
284
     8
285
     8
286
     8
340
A6FF
  0
ENDTAB
  0
TABLE
  2
BLOCK_RECORD
  5
A6EF
330
0
100
AcDbSymbolTable
 70
     0
  0
BLOCK_RECORD
  5
A70C
102
{ACAD_XDICTIONARY
360
A93D
102
}
330
A6EF
100
AcDbSymbolTableRecord
100
AcDbBlockTableRecord
  2
*MODEL_SPACE
340
A9AC
  0
BLOCK_RECORD
  5
A708
102
{ACAD_XDICTIONARY
360
A93B
102
}
330
A6EF
100
AcDbSymbolTableRecord
100
AcDbBlockTableRecord
  2
*PAPER_SPACE
340
A9AD
  0
ENDTAB
  0
ENDSEC
  0
SECTION
  2
BLOCKS
  0
BLOCK
  5
A70D
330
A70C
100
AcDbEntity
  8
0
100
AcDbBlockBegin
  2
*MODEL_SPACE
 70
     0
 10
0.0
 20
0.0
 30
0.0
  3
*MODEL_SPACE
  1

  0
ENDBLK
  5
A70E
330
A70C
100
AcDbEntity
  8
0
100
AcDbBlockEnd
  0
BLOCK
  5
A709
330
A708
100
AcDbEntity
 67
     1
  8
0
100
AcDbBlockBegin
  2
*PAPER_SPACE
 70
     0
 10
0.0
 20
0.0
 30
0.0
  3
*PAPER_SPACE
  1

  0
ENDBLK
  5
A70A
330
A708
100
AcDbEntity
 67
     1
  8
0
100
AcDbBlockEnd
  0
ENDSEC
  0
SECTION
  2
ENTITIES
  0
TEXT
  5
A724
330
A70C
100
AcDbEntity
  8
7
  6
Continuous
100
AcDbText
 10
10.0
 20
18.0
 30
0.0
 40
3.0
  1
TYPE No.TCA-420EA-N65
100
AcDbText
  0
TEXT
  5
A725
330
A70C
100
AcDbEntity
  8
7
  6
Continuous
100
AcDbText
 10
10.0
 20
26.0
 30
0.0
 40
3.0
  1
CODE No.9772
100
AcDbText
  0
TEXT
  5
A726
330
A70C
100
AcDbEntity
  8
1
  6
Continuous
100
AcDbText
 10
10.0
 20
10.0
 30
0.0
 40
1.399999999999999
  1
LAYER
100
AcDbText
  0
TEXT
  5
A727
330
A70C
100
AcDbEntity
  8
1
  6
Continuous
100
AcDbText
 10
17.97951099999998
 20
10.04873699999998
 30
0.0
 40
1.399999999999999
  1
1
100
AcDbText
  0
TEXT
  5
A728
330
A70C
100
AcDbEntity
  8
7
  6
Continuous
100
AcDbText
 10
29.97951099999999
 20
10.04873699999998
 30
0.0
 40
1.399999999999999
  1
7
100
AcDbText
  0
TEXT
  5
A729
330
A70C
100
AcDbEntity
  8
4
  6
CENTER
100
AcDbText
 10
23.97951099999999
 20
10.04873699999998
 30
0.0
 40
1.399999999999999
  1
4
100
AcDbText
  0
TEXT
  5
A72A
330
A70C
100
AcDbEntity
  8
3
  6
DASHED
100
AcDbText
 10
21.979511
 20
10.04873699999998
 30
0.0
 40
1.399999999999999
  1
3
100
AcDbText
  0
TEXT
  5
A72B
330
A70C
100
AcDbEntity
  8
2
  6
Continuous
100
AcDbText
 10
19.97951099999998
 20
10.04873699999998
 30
0.0
 40
1.399999999999999
  1
2
100
AcDbText
  0
TEXT
  5
A72C
330
A70C
100
AcDbEntity
  8
6
  6
Continuous
100
AcDbText
 10
27.979511
 20
10.04873699999998
 30
0.0
 40
1.399999999999999
  1
6
100
AcDbText
  0
TEXT
  5
A72D
330
A70C
100
AcDbEntity
  8
5
  6
PHANTOM
100
AcDbText
 10
25.97951099999999
 20
10.04873699999998
 30
0.0
 40
1.399999999999999
  1
5
100
AcDbText
  0
LINE
  5
A72E
330
A70C
100
AcDbEntity
  8
4
  6
CENTER
 48
0.8
100
AcDbLine
 10
169.059921
 20
332.5949249999999
 30
0.0
 11
169.059921
 21
284.5949249999999
 31
0.0
  0
LINE
  5
A72F
330
A70C
100
AcDbEntity
  8
4
  6
CENTER
 48
0.8
100
AcDbLine
 10
193.0599209999999
 20
308.594925
 30
0.0
 11
107.559921
 21
308.594925
 31
0.0
  0
LINE
  5
A730
330
A70C
100
AcDbEntity
  8
4
  6
CENTER
 48
0.8
100
AcDbLine
 10
49.559921
 20
250.5734499999999
 30
0.0
 11
49.559921
 21
120.5734459999999
 31
0.0
  0
LINE
  5
A731
330
A70C
100
AcDbEntity
  8
4
  6
CENTER
 48
0.8
100
AcDbLine
 10
169.059921
 20
250.5734499999999
 30
0.0
 11
169.059921
 21
178.1804979999997
 31
0.0
  0
LINE
  5
A732
330
A70C
100
AcDbEntity
  8
1
  6
Continuous
100
AcDbLine
 10
153.059921
 20
201.4734489999999
 30
0.0
 11
185.059921
 21
201.4734489999999
 31
0.0
  0
LINE
  5
A733
330
A70C
100
AcDbEntity
  8
1
  6
Continuous
100
AcDbLine
 10
179.409973
 20
194.027858
 30
0.0
 11
188.0599209999997
 21
194.32992
 31
0.0
  0
LINE
  5
A734
330
A70C
100
AcDbEntity
  8
1
  6
Continuous
100
AcDbLine
 10
136.85992
 20
196.275405
 30
0.0
 11
154.3383629999999
 21
199.3573259999998
 31
0.0
  0
LINE
  5
A735
330
A70C
100
AcDbEntity
  8
1
  6
Continuous
100
AcDbLine
 10
137.2072139999999
 20
194.3057889999998
 30
0.0
 11
139.964681
 21
194.792005
 31
0.0
  0
LINE
  5
A736
330
A70C
100
AcDbEntity
  8
1
  6
Continuous
100
AcDbLine
 10
136.859926
 20
196.275404
 30
0.0
 11
137.2072219999997
 21
194.305787
 31
0.0
  0
LINE
  5
A737
330
A70C
100
AcDbEntity
  8
1
  6
Continuous
100
AcDbLine
 10
156.6599189999998
 20
198.7967629999999
 30
0.0
 11
156.6599189999998
 21
166.391594
 31
0.0
  0
LINE
  5
A738
330
A70C
100
AcDbEntity
  8
4
  6
CENTER
 48
0.8
100
AcDbLine
 10
182.559921
 20
158.0734459999999
 30
0.0
 11
107.559921
 21
158.0734459999999
 31
0.0
  0
LINE
  5
A739
330
A70C
100
AcDbEntity
  8
4
  6
CENTER
 48
0.8
100
AcDbLine
 10
145.059921
 20
191.4662649999999
 30
0.0
 11
145.059921
 21
120.5734459999999
 31
0.0
  0
LINE
  5
A73A
330
A70C
100
AcDbEntity
  8
1
  6
Continuous
100
AcDbLine
 10
139.789701
 20
196.7920039999999
 30
0.0
 11
139.964679
 21
194.792005
 31
0.0
  0
LINE
  5
A73B
330
A70C
100
AcDbEntity
  8
1
  6
Continuous
100
AcDbLine
 10
33.559921
 20
201.4734489999999
 30
0.0
 11
65.559921
 21
201.4734489999999
 31
0.0
  0
LINE
  5
A73C
330
A70C
100
AcDbEntity
  8
4
  6
CENTER
 48
0.8
100
AcDbLine
 10
22.961853
 20
158.0734459999999
 30
0.0
 11
72.057996
 21
158.0734459999999
 31
0.0
  0
LINE
  5
A73D
330
A70C
100
AcDbEntity
  8
1
  6
Continuous
100
AcDbLine
 10
34.57045
 20
149.5734459999999
 30
0.0
 11
36.57045699999999
 21
149.5734459999999
 31
0.0
  0
LINE
  5
A73E
330
A70C
100
AcDbEntity
  8
1
  6
Continuous
100
AcDbLine
 10
64.549392
 20
149.5734459999999
 30
0.0
 11
62.549385
 21
149.5734459999999
 31
0.0
  0
LINE
  5
A73F
330
A70C
100
AcDbEntity
  8
1
  6
Continuous
100
AcDbLine
 10
36.558571
 20
161.3234459999999
 30
0.0
 11
37.559921
 21
161.3234459999999
 31
0.0
  0
LINE
  5
A740
330
A70C
100
AcDbEntity
  8
1
  6
Continuous
100
AcDbLine
 10
36.56514699999997
 20
154.8234459999999
 30
0.0
 11
37.559921
 21
154.8234459999999
 31
0.0
  0
LINE
  5
A741
330
A70C
100
AcDbEntity
  8
1
  6
Continuous
100
AcDbLine
 10
64.56335
 20
163.373445
 30
0.0
 11
65.061329
 21
163.373445
 31
0.0
  0
LINE
  5
A742
330
A70C
100
AcDbEntity
  8
1
  6
Continuous
100
AcDbLine
 10
34.16185
 20
163.6734449999998
 30
0.0
 11
30.961853
 21
163.6734449999998
 31
0.0
  0
LINE
  5
A743
330
A70C
100
AcDbEntity
  8
1
  6
Continuous
100
AcDbLine
 10
34.16185
 20
161.0734459999999
 30
0.0
 11
30.961853
 21
161.0734459999999
 31
0.0
  0
LINE
  5
A744
330
A70C
100
AcDbEntity
  8
1
  6
Continuous
100
AcDbLine
 10
29.961853
 20
161.873449
 30
0.0
 11
29.961853
 21
154.273451
 31
0.0
  0
LINE
  5
A745
330
A70C
100
AcDbEntity
  8
1
  6
Continuous
100
AcDbLine
 10
34.16185
 20
152.473448
 30
0.0
 11
30.961853
 21
152.473448
 31
0.0
  0
LINE
  5
A746
330
A70C
100
AcDbEntity
  8
1
  6
Continuous
100
AcDbLine
 10
34.085052
 20
155.0734459999999
 30
0.0
 11
30.961853
 21
155.0734459999999
 31
0.0
  0
LINE
  5
A747
330
A70C
100
AcDbEntity
  8
1
  6
Continuous
100
AcDbLine
 10
28.961853
 20
161.0734459999999
 30
0.0
 11
29.961853
 21
161.0734459999999
 31
0.0
  0
LINE
  5
A748
330
A70C
100
AcDbEntity
  8
1
  6
Continuous
100
AcDbLine
 10
28.961853
 20
155.0734459999999
 30
0.0
 11
29.961853
 21
155.0734459999999
 31
0.0
  0
LINE
  5
A749
330
A70C
100
AcDbEntity
  8
1
  6
Continuous
100
AcDbLine
 10
27.961853
 20
160.0734459999999
 30
0.0
 11
27.961853
 21
156.0734459999999
 31
0.0
  0
LINE
  5
A74A
330
A70C
100
AcDbEntity
  8
1
  6
Continuous
100
AcDbLine
 10
29.961853
 20
154.273371
 30
0.0
 11
30.961853
 21
152.473448
 31
0.0
  0
LINE
  5
A74B
330
A70C
100
AcDbEntity
  8
1
  6
Continuous
100
AcDbLine
 10
29.961853
 20
161.8734719999999
 30
0.0
 11
30.961853
 21
163.673441
 31
0.0
  0
LINE
  5
A74C
330
A70C
100
AcDbEntity
  8
1
  6
Continuous
100
AcDbLine
 10
61.55992099999998
 20
161.3234459999999
 30
0.0
 11
62.561268
 21
161.3234459999999
 31
0.0
  0
LINE
  5
A74D
330
A70C
100
AcDbEntity
  8
1
  6
Continuous
100
AcDbLine
 10
61.55992099999998
 20
154.8234459999999
 30
0.0
 11
62.554695
 21
154.8234459999999
 31
0.0
  0
LINE
  5
A74E
330
A70C
100
AcDbEntity
  8
1
  6
Continuous
100
AcDbLine
 10
139.964679
 20
194.792005
 30
0.0
 11
137.180879
 21
157.6337569999997
 31
0.0
  0
LINE
  5
A74F
330
A70C
100
AcDbEntity
  8
1
  6
Continuous
100
AcDbLine
 10
172.7965799999997
 20
190.0938039999997
 30
0.0
 11
151.1235389999999
 21
153.2692889999998
 31
0.0
  0
ARC
  5
A750
330
A70C
100
AcDbEntity
  8
1
  6
Continuous
100
AcDbCircle
 10
161.598602
 20
202.6179519999999
 30
0.0
 40
1.984499999999996
100
AcDbArc
 50
324.7797499999998
 51
333.1367799999998
  0
ARC
  5
A751
330
A70C
100
AcDbEntity
  8
1
  6
Continuous
100
AcDbCircle
 10
53.48054499999999
 20
202.6179519999999
 30
0.0
 40
1.984499999999996
100
AcDbArc
 50
189.9969899999999
 51
215.2202999999999
  0
ARC
  5
A752
330
A70C
100
AcDbEntity
  8
1
  6
Continuous
100
AcDbCircle
 10
49.559921
 20
202.6179519999999
 30
0.0
 40
1.984499999999996
100
AcDbArc
 50
324.7796799999998
 51
350.00299
  0
ARC
  5
A753
330
A70C
100
AcDbEntity
  8
1
  6
Continuous
100
AcDbCircle
 10
57.02124
 20
202.6179519999999
 30
0.0
 40
1.984499999999996
100
AcDbArc
 50
206.86325
 51
215.2202999999999
  0
ARC
  5
A754
330
A70C
100
AcDbEntity
  8
1
  6
Continuous
100
AcDbCircle
 10
59.83890500000001
 20
202.6179519999999
 30
0.0
 40
1.984499999999996
100
AcDbArc
 50
324.77981
 51
350.00299
  0
ARC
  5
A755
330
A70C
100
AcDbEntity
  8
1
  6
Continuous
100
AcDbCircle
 10
61.66050699999999
 20
202.6179519999999
 30
0.0
 40
1.984499999999996
100
AcDbArc
 50
324.7797499999998
 51
350.00299
  0
ARC
  5
A756
330
A70C
100
AcDbEntity
  8
1
  6
Continuous
100
AcDbCircle
 10
62.30992099999999
 20
202.6179519999999
 30
0.0
 40
1.984499999999996
100
AcDbArc
 50
324.7797499999998
 51
350.00299
  0
ARC
  5
A757
330
A70C
100
AcDbEntity
  8
1
  6
Continuous
100
AcDbCircle
 10
45.639297
 20
202.6179519999999
 30
0.0
 40
1.984499999999996
100
AcDbArc
 50
189.99704
 51
215.2202999999999
  0
ARC
  5
A758
330
A70C
100
AcDbEntity
  8
1
  6
Continuous
100
AcDbCircle
 10
49.559921
 20
202.6179519999999
 30
0.0
 40
1.984499999999996
100
AcDbArc
 50
189.9970599999999
 51
215.2202999999999
  0
ARC
  5
A759
330
A70C
100
AcDbEntity
  8
1
  6
Continuous
100
AcDbCircle
 10
42.098602
 20
202.6179519999999
 30
0.0
 40
1.984499999999996
100
AcDbArc
 50
189.9970599999999
 51
215.2202999999999
  0
ARC
  5
A75A
330
A70C
100
AcDbEntity
  8
1
  6
Continuous
100
AcDbCircle
 10
39.280929
 20
202.6179519999999
 30
0.0
 40
1.984499999999996
100
AcDbArc
 50
189.9970599999999
 51
215.2202999999999
  0
ARC
  5
A75B
330
A70C
100
AcDbEntity
  8
1
  6
Continuous
100
AcDbCircle
 10
37.45933499999999
 20
202.6179519999999
 30
0.0
 40
1.984499999999996
100
AcDbArc
 50
189.9970599999999
 51
215.2202999999999
  0
ARC
  5
A75C
330
A70C
100
AcDbEntity
  8
1
  6
Continuous
100
AcDbCircle
 10
36.809921
 20
202.6179519999999
 30
0.0
 40
1.984499999999996
100
AcDbArc
 50
189.9970599999999
 51
215.2202999999999
  0
ARC
  5
A75D
330
A70C
100
AcDbEntity
  8
1
  6
Continuous
100
AcDbCircle
 10
172.980545
 20
202.6179519999999
 30
0.0
 40
1.984499999999996
100
AcDbArc
 50
189.9969899999999
 51
215.2202299999999
  0
ARC
  5
A75E
330
A70C
100
AcDbEntity
  8
1
  6
Continuous
100
AcDbCircle
 10
169.059921
 20
202.6179519999999
 30
0.0
 40
1.984499999999996
100
AcDbArc
 50
324.7797499999998
 51
350.00299
  0
ARC
  5
A75F
330
A70C
100
AcDbEntity
  8
1
  6
Continuous
100
AcDbCircle
 10
176.5212399999998
 20
202.6179519999999
 30
0.0
 40
1.984499999999996
100
AcDbArc
 50
206.86325
 51
215.2202299999999
  0
ARC
  5
A760
330
A70C
100
AcDbEntity
  8
1
  6
Continuous
100
AcDbCircle
 10
179.338905
 20
202.6179519999999
 30
0.0
 40
1.984499999999996
100
AcDbArc
 50
324.7797499999998
 51
350.00299
  0
ARC
  5
A761
330
A70C
100
AcDbEntity
  8
1
  6
Continuous
100
AcDbCircle
 10
181.1605069999997
 20
202.6179519999999
 30
0.0
 40
1.984499999999996
100
AcDbArc
 50
324.7797499999998
 51
350.00299
  0
ARC
  5
A762
330
A70C
100
AcDbEntity
  8
1
  6
Continuous
100
AcDbCircle
 10
181.8099209999997
 20
202.6179519999999
 30
0.0
 40
1.984499999999996
100
AcDbArc
 50
324.7796799999998
 51
350.00299
  0
ARC
  5
A763
330
A70C
100
AcDbEntity
  8
1
  6
Continuous
100
AcDbCircle
 10
165.139297
 20
202.6179519999999
 30
0.0
 40
1.984499999999996
100
AcDbArc
 50
189.99704
 51
215.2202299999999
  0
ARC
  5
A764
330
A70C
100
AcDbEntity
  8
1
  6
Continuous
100
AcDbCircle
 10
169.059921
 20
202.6179519999999
 30
0.0
 40
1.984499999999996
100
AcDbArc
 50
189.9970599999999
 51
215.2202299999999
  0
ARC
  5
A765
330
A70C
100
AcDbEntity
  8
1
  6
Continuous
100
AcDbCircle
 10
161.598602
 20
202.6179519999999
 30
0.0
 40
1.984499999999996
100
AcDbArc
 50
189.9970599999999
 51
215.2202299999999
  0
ARC
  5
A766
330
A70C
100
AcDbEntity
  8
1
  6
Continuous
100
AcDbCircle
 10
158.7809369999999
 20
202.6179519999999
 30
0.0
 40
1.984499999999996
100
AcDbArc
 50
189.9970599999999
 51
215.2202299999999
  0
ARC
  5
A767
330
A70C
100
AcDbEntity
  8
1
  6
Continuous
100
AcDbCircle
 10
156.959335
 20
202.6179519999999
 30
0.0
 40
1.984499999999996
100
AcDbArc
 50
189.99707
 51
215.2202299999999
  0
ARC
  5
A768
330
A70C
100
AcDbEntity
  8
1
  6
Continuous
100
AcDbCircle
 10
156.309921
 20
202.6179519999999
 30
0.0
 40
1.984499999999996
100
AcDbArc
 50
189.9970599999999
 51
215.2202299999999
  0
ARC
  5
A769
330
A70C
100
AcDbEntity
  8
1
  6
Continuous
100
AcDbCircle
 10
172.980545
 20
202.6179519999999
 30
0.0
 40
1.984499999999996
100
AcDbArc
 50
324.7797499999998
 51
350.00299
  0
ARC
  5
A76A
330
A70C
100
AcDbEntity
  8
1
  6
Continuous
100
AcDbCircle
 10
176.5212399999998
 20
202.6179519999999
 30
0.0
 40
1.984499999999996
100
AcDbArc
 50
324.7797499999998
 51
350.00299
  0
ARC
  5
A76B
330
A70C
100
AcDbEntity
  8
1
  6
Continuous
100
AcDbCircle
 10
45.639297
 20
202.6179519999999
 30
0.0
 40
1.984499999999996
100
AcDbArc
 50
324.7796799999998
 51
350.0030499999998
  0
ARC
  5
A76C
330
A70C
100
AcDbEntity
  8
1
  6
Continuous
100
AcDbCircle
 10
42.098602
 20
202.6179519999999
 30
0.0
 40
1.984499999999996
100
AcDbArc
 50
324.7796799999998
 51
333.1367799999998
  0
ARC
  5
A76D
330
A70C
100
AcDbEntity
  8
1
  6
Continuous
100
AcDbCircle
 10
53.48054499999999
 20
202.6179519999999
 30
0.0
 40
1.984499999999996
100
AcDbArc
 50
324.7796799999998
 51
350.00299
  0
ARC
  5
A76E
330
A70C
100
AcDbEntity
  8
1
  6
Continuous
100
AcDbCircle
 10
57.02124
 20
202.6179519999999
 30
0.0
 40
1.984499999999996
100
AcDbArc
 50
324.7796799999998
 51
350.00299
  0
ARC
  5
A76F
330
A70C
100
AcDbEntity
  8
1
  6
Continuous
100
AcDbCircle
 10
165.139297
 20
202.6179519999999
 30
0.0
 40
1.984499999999996
100
AcDbArc
 50
324.7797499999998
 51
350.0030499999998
  0
ARC
  5
A770
330
A70C
100
AcDbEntity
  8
1
  6
Continuous
100
AcDbCircle
 10
179.6891629999999
 20
186.032733
 30
0.0
 40
8.0
100
AcDbArc
 50
92.00003199999995
 51
149.52109
  0
ARC
  5
A771
330
A70C
100
AcDbEntity
  8
1
  6
Continuous
100
AcDbCircle
 10
144.659919
 20
157.0734459999999
 30
0.0
 40
7.5
100
AcDbArc
 50
175.71555
 51
329.5210799999998
  0
CIRCLE
  5
A772
330
A70C
100
AcDbEntity
  8
1
  6
Continuous
100
AcDbCircle
 10
145.059921
 20
158.0734459999999
 30
0.0
 40
5.4
  0
ARC
  5
A773
330
A70C
100
AcDbEntity
  8
1
  6
Continuous
100
AcDbCircle
 10
84.49803499999999
 20
182.7341529999999
 30
0.0
 40
54.0
100
AcDbArc
 50
182.743332
 51
200.669454
  0
ARC
  5
A774
330
A70C
100
AcDbEntity
  8
1
  6
Continuous
100
AcDbCircle
 10
49.559921
 20
356.27345
 30
0.0
 40
162.0
100
AcDbArc
 50
265.512
 51
274.4879879999999
  0
ARC
  5
A775
330
A70C
100
AcDbEntity
  8
1
  6
Continuous
100
AcDbCircle
 10
36.859932
 20
194.471099
 30
0.0
 40
0.3
100
AcDbArc
 50
85.51197399999997
 51
164.7781929999998
  0
ARC
  5
A776
330
A70C
100
AcDbEntity
  8
1
  6
Continuous
100
AcDbCircle
 10
49.559921
 20
358.2753999999998
 30
0.0
 40
162.0
100
AcDbArc
 50
265.1518299999997
 51
274.8481579999999
  0
ARC
  5
A777
330
A70C
100
AcDbEntity
  8
1
  6
Continuous
100
AcDbCircle
 10
62.25991
 20
194.471099
 30
0.0
 40
0.3
100
AcDbArc
 50
15.221807
 51
94.48798999999999
  0
ARC
  5
A778
330
A70C
100
AcDbEntity
  8
1
  6
Continuous
100
AcDbCircle
 10
49.559921
 20
298.67345
 30
0.0
 40
100.0
100
AcDbArc
 50
262.53039
 51
277.4695899999999
  0
ARC
  5
A779
330
A70C
100
AcDbEntity
  8
1
  6
Continuous
100
AcDbCircle
 10
36.024132
 20
195.363111
 30
0.0
 40
1.5
100
AcDbArc
 50
95.95749199999996
 51
165.7245169999999
  0
ARC
  5
A77A
330
A70C
100
AcDbEntity
  8
1
  6
Continuous
100
AcDbCircle
 10
63.09571
 20
195.363111
 30
0.0
 40
1.5
100
AcDbArc
 50
14.27548299999999
 51
84.042472
  0
ARC
  5
A77B
330
A70C
100
AcDbEntity
  8
1
  6
Continuous
100
AcDbCircle
 10
14.621811
 20
182.7341529999999
 30
0.0
 40
54.0
100
AcDbArc
 50
338.98996
 51
357.256579
  0
ARC
  5
A77C
330
A70C
100
AcDbEntity
  8
1
  6
Continuous
100
AcDbCircle
 10
65.061329
 20
161.373445
 30
0.0
 40
2.0
100
AcDbArc
 50
359.9420799999998
 51
89.99998199999996
  0
ARC
  5
A77D
330
A70C
100
AcDbEntity
  8
1
  6
Continuous
100
AcDbCircle
 10
32.24935099999999
 20
153.7734429999999
 30
0.0
 40
2.3125
100
AcDbArc
 50
325.79449
 51
34.20541
  0
ARC
  5
A77E
330
A70C
100
AcDbEntity
  8
1
  6
Continuous
100
AcDbCircle
 10
23.111851
 20
158.0734459999999
 30
0.0
 40
11.450001
100
AcDbArc
 50
344.8107199999999
 51
15.189285
  0
ARC
  5
A77F
330
A70C
100
AcDbEntity
  8
1
  6
Continuous
100
AcDbCircle
 10
32.24935099999999
 20
162.3734489999999
 30
0.0
 40
2.3125
100
AcDbArc
 50
325.79455
 51
34.205461
  0
ARC
  5
A780
330
A70C
100
AcDbEntity
  8
1
  6
Continuous
100
AcDbCircle
 10
32.87435099999999
 20
162.3734489999999
 30
0.0
 40
2.312498999999998
100
AcDbArc
 50
145.7945499999999
 51
214.2054299999998
  0
ARC
  5
A781
330
A70C
100
AcDbEntity
  8
1
  6
Continuous
100
AcDbCircle
 10
42.011848
 20
158.0734459999999
 30
0.0
 40
11.44999799999999
100
AcDbArc
 50
164.81073
 51
195.1892499999999
  0
ARC
  5
A782
330
A70C
100
AcDbEntity
  8
1
  6
Continuous
100
AcDbCircle
 10
32.87435099999999
 20
153.7734509999999
 30
0.0
 40
2.312498999999998
100
AcDbArc
 50
145.7945499999999
 51
214.2054299999998
  0
LINE
  5
A783
330
A70C
100
AcDbEntity
  8
4
  6
CENTER
 48
0.8
100
AcDbLine
 10
193.0599209999999
 20
62.07345
 30
0.0
 11
107.559921
 21
62.07345
 31
0.0
  0
LINE
  5
A784
330
A70C
100
AcDbEntity
  8
4
  6
CENTER
 48
0.8
100
AcDbLine
 10
169.059921
 20
38.07345
 30
0.0
 11
169.059921
 21
86.07345
 31
0.0
  0
LINE
  5
A785
330
A70C
100
AcDbEntity
  8
1
  6
Continuous
100
AcDbLine
 10
30.559921
 20
198.4734489999999
 30
0.0
 11
30.559921
 21
180.149611
 31
0.0
  0
LINE
  5
A786
330
A70C
100
AcDbEntity
  8
1
  6
Continuous
100
AcDbLine
 10
68.559921
 20
198.4734489999999
 30
0.0
 11
68.559921
 21
180.149527
 31
0.0
  0
ARC
  5
A787
330
A70C
100
AcDbEntity
  8
1
  6
Continuous
100
AcDbCircle
 10
65.559921
 20
198.4734489999999
 30
0.0
 40
3.0
100
AcDbArc
 50
0.0
 51
90.0
  0
ARC
  5
A788
330
A70C
100
AcDbEntity
  8
1
  6
Continuous
100
AcDbCircle
 10
33.559921
 20
198.4734489999999
 30
0.0
 40
3.0
100
AcDbArc
 50
90.0
 51
180.0
  0
LINE
  5
A789
330
A70C
100
AcDbEntity
  8
1
  6
Continuous
100
AcDbLine
 10
34.57045
 20
149.5734459999999
 30
0.0
 11
34.57045
 21
195.732987
 31
0.0
  0
LINE
  5
A78A
330
A70C
100
AcDbEntity
  8
1
  6
Continuous
100
AcDbLine
 10
36.57045699999999
 20
149.5734459999999
 30
0.0
 11
36.57045699999999
 21
194.5498659999999
 31
0.0
  0
LINE
  5
A78B
330
A70C
100
AcDbEntity
  8
1
  6
Continuous
100
AcDbLine
 10
62.549385
 20
149.5734459999999
 30
0.0
 11
62.549385
 21
194.5498659999999
 31
0.0
  0
LINE
  5
A78C
330
A70C
100
AcDbEntity
  8
1
  6
Continuous
100
AcDbLine
 10
64.549392
 20
149.5734459999999
 30
0.0
 11
64.549392
 21
195.732987
 31
0.0
  0
LINE
  5
A78D
330
A70C
100
AcDbEntity
  8
1
  6
Continuous
100
AcDbLine
 10
188.0599209999997
 20
198.4734489999999
 30
0.0
 11
188.0599209999997
 21
194.32992
 31
0.0
  0
ARC
  5
A78E
330
A70C
100
AcDbEntity
  8
1
  6
Continuous
100
AcDbCircle
 10
185.059921
 20
198.4734489999999
 30
0.0
 40
3.0
100
AcDbArc
 50
0.0
 51
90.0
  0
LINE
  5
A78F
330
A70C
100
AcDbEntity
  8
4
  6
CENTER
 48
0.8
100
AcDbLine
 10
145.059921
 20
35.475397
 30
0.0
 11
145.059921
 21
84.56844999999999
 31
0.0
  0
LINE
  5
A790
330
A70C
100
AcDbEntity
  8
1
  6
Continuous
100
AcDbLine
 10
156.083019
 20
47.083979
 30
0.0
 11
137.213819
 21
47.083979
 31
0.0
  0
LINE
  5
A791
330
A70C
100
AcDbEntity
  8
1
  6
Continuous
100
AcDbLine
 10
156.083009
 20
49.08398599999999
 30
0.0
 11
137.213819
 21
49.08398599999999
 31
0.0
  0
LINE
  5
A792
330
A70C
100
AcDbEntity
  8
1
  6
Continuous
100
AcDbLine
 10
141.809921
 20
49.0721
 30
0.0
 11
141.809921
 21
50.07345
 31
0.0
  0
LINE
  5
A793
330
A70C
100
AcDbEntity
  8
1
  6
Continuous
100
AcDbLine
 10
148.3099209999998
 20
49.078676
 30
0.0
 11
148.3099209999998
 21
50.07345
 31
0.0
  0
LINE
  5
A794
330
A70C
100
AcDbEntity
  8
1
  6
Continuous
100
AcDbLine
 10
156.083009
 20
75.06291400000002
 30
0.0
 11
137.213819
 21
75.06291400000002
 31
0.0
  0
LINE
  5
A795
330
A70C
100
AcDbEntity
  8
1
  6
Continuous
100
AcDbLine
 10
156.083019
 20
77.062921
 30
0.0
 11
137.213819
 21
77.062921
 31
0.0
  0
LINE
  5
A796
330
A70C
100
AcDbEntity
  8
1
  6
Continuous
100
AcDbLine
 10
141.809921
 20
74.07344999999998
 30
0.0
 11
141.809921
 21
75.06291400000002
 31
0.0
  0
LINE
  5
A797
330
A70C
100
AcDbEntity
  8
1
  6
Continuous
100
AcDbLine
 10
139.7599219999999
 20
77.076879
 30
0.0
 11
139.7599219999999
 21
77.57485799999997
 31
0.0
  0
ARC
  5
A798
330
A70C
100
AcDbEntity
  8
1
  6
Continuous
100
AcDbCircle
 10
141.7599219999999
 20
77.57485799999997
 30
0.0
 40
2.0
100
AcDbArc
 50
85.22653100000002
 51
179.999982
  0
LINE
  5
A799
330
A70C
100
AcDbEntity
  8
1
  6
Continuous
100
AcDbLine
 10
148.3099209999998
 20
74.07344999999998
 30
0.0
 11
148.3099209999998
 21
75.068224
 31
0.0
  0
LINE
  5
A79A
330
A70C
100
AcDbEntity
  8
1
  6
Continuous
100
AcDbLine
 10
137.213819
 20
77.062921
 30
0.0
 11
137.213819
 21
75.06291400000002
 31
0.0
  0
LINE
  5
A79B
330
A70C
100
AcDbEntity
  8
1
  6
Continuous
100
AcDbLine
 10
137.213819
 20
49.08398599999999
 30
0.0
 11
137.213819
 21
47.083979
 31
0.0
  0
ARC
  5
A79C
330
A70C
100
AcDbEntity
  8
1
  6
Continuous
100
AcDbCircle
 10
176.8940369999999
 20
62.11728299999999
 30
0.0
 40
40.03413499999999
100
AcDbArc
 50
161.1334629999998
 51
162.623505
  0
ARC
  5
A79D
330
A70C
100
AcDbEntity
  8
1
  6
Continuous
100
AcDbCircle
 10
176.8940369999999
 20
62.11728299999999
 30
0.0
 40
40.03413499999999
100
AcDbArc
 50
197.5080089999999
 51
198.9991789999996
  0
ARC
  5
A79E
330
A70C
100
AcDbEntity
  8
1
  6
Continuous
100
AcDbCircle
 10
169.059921
 20
62.07345
 30
0.0
 40
19.0
100
AcDbArc
 50
235.6523319999999
 51
124.3476679999999
  0
ARC
  5
A79F
330
A70C
100
AcDbEntity
  8
1
  6
Continuous
100
AcDbCircle
 10
169.059921
 20
62.07345
 30
0.0
 40
17.0
100
AcDbArc
 50
235.652301
 51
124.347699
  0
ARC
  5
A7A0
330
A70C
100
AcDbEntity
  8
1
  6
Continuous
100
AcDbCircle
 10
169.059921
 20
62.07345
 30
0.0
 40
13.0
100
AcDbArc
 50
233.8710729999998
 51
126.128927
  0
ARC
  5
A7A1
330
A70C
100
AcDbEntity
  8
1
  6
Continuous
100
AcDbCircle
 10
169.059921
 20
62.07345
 30
0.0
 40
10.5
100
AcDbArc
 50
320.7495269999999
 51
39.250473
  0
LINE
  5
A7A2
330
A70C
100
AcDbEntity
  8
4
  6
CENTER
 48
0.8
100
AcDbLine
 10
145.059921
 20
335.1929769999999
 30
0.0
 11
145.059921
 21
286.0999249999998
 31
0.0
  0
LINE
  5
A7A3
330
A70C
100
AcDbEntity
  8
1
  6
Continuous
100
AcDbLine
 10
145.059921
 20
42.965727
 30
0.0
 11
145.059921
 21
47.083979
 31
0.0
  0
LINE
  5
A7A4
330
A70C
100
AcDbEntity
  8
1
  6
Continuous
100
AcDbLine
 10
150.059921
 20
46.593231
 30
0.0
 11
150.059921
 21
42.965727
 31
0.0
  0
LINE
  5
A7A5
330
A70C
100
AcDbEntity
  8
1
  6
Continuous
100
AcDbLine
 10
142.559921
 20
42.47497899999999
 30
0.0
 11
147.559921
 21
42.47497899999999
 31
0.0
  0
LINE
  5
A7A6
330
A70C
100
AcDbEntity
  8
1
  6
Continuous
100
AcDbLine
 10
140.059921
 20
46.593231
 30
0.0
 11
140.059921
 21
42.965727
 31
0.0
  0
ARC
  5
A7A7
330
A70C
100
AcDbEntity
  8
1
  6
Continuous
100
AcDbCircle
 10
142.559921
 20
49.088187
 30
0.0
 40
6.613208
100
AcDbArc
 50
247.7882049999999
 51
292.211795
  0
ARC
  5
A7A8
330
A70C
100
AcDbEntity
  8
1
  6
Continuous
100
AcDbCircle
 10
147.559921
 20
49.088187
 30
0.0
 40
6.613208
100
AcDbArc
 50
247.7882049999999
 51
292.211795
  0
LINE
  5
A7A9
330
A70C
100
AcDbEntity
  8
1
  6
Continuous
100
AcDbLine
 10
352.0599209999998
 20
155.360197
 30
0.0
 11
352.0599209999998
 21
160.786695
 31
0.0
  0
CIRCLE
  5
A7AA
330
A70C
100
AcDbEntity
  8
1
  6
Continuous
100
AcDbCircle
 10
357.0599209999999
 20
158.0734459999999
 30
0.0
 40
3.0
  0
CIRCLE
  5
A7AB
330
A70C
100
AcDbEntity
  8
2
  6
Continuous
100
AcDbCircle
 10
357.0599209999999
 20
158.0734459999999
 30
0.0
 40
2.458499999999999
  0
CIRCLE
  5
A7AC
330
A70C
100
AcDbEntity
  8
1
  6
Continuous
100
AcDbCircle
 10
357.0599209999999
 20
158.0734459999999
 30
0.0
 40
2.0
  0
LINE
  5
A7AD
330
A70C
100
AcDbEntity
  8
2
  6
Continuous
100
AcDbLine
 10
28.420353
 20
160.531946
 30
0.0
 11
29.961853
 21
160.531946
 31
0.0
  0
LINE
  5
A7AE
330
A70C
100
AcDbEntity
  8
2
  6
Continuous
100
AcDbLine
 10
28.420353
 20
155.614946
 30
0.0
 11
29.961853
 21
155.614946
 31
0.0
  0
LINE
  5
A7AF
330
A70C
100
AcDbEntity
  8
1
  6
Continuous
100
AcDbLine
 10
28.961853
 20
161.0734459999999
 30
0.0
 11
28.961853
 21
155.0734459999999
 31
0.0
  0
LINE
  5
A7B0
330
A70C
100
AcDbEntity
  8
1
  6
Continuous
100
AcDbLine
 10
27.961853
 20
160.0734459999999
 30
0.0
 11
28.961853
 21
161.0734459999999
 31
0.0
  0
LINE
  5
A7B1
330
A70C
100
AcDbEntity
  8
1
  6
Continuous
100
AcDbLine
 10
27.961853
 20
156.0734459999999
 30
0.0
 11
28.961853
 21
155.0734459999999
 31
0.0
  0
CIRCLE
  5
A7B2
330
A70C
100
AcDbEntity
  8
1
  6
Continuous
100
AcDbCircle
 10
357.0599209999999
 20
158.0734459999999
 30
0.0
 40
3.799999999999998
  0
LINE
  5
A7B3
330
A70C
100
AcDbEntity
  8
1
  6
Continuous
100
AcDbLine
 10
352.0599209999998
 20
160.786695
 30
0.0
 11
357.0599209999999
 21
163.6734459999999
 31
0.0
  0
LINE
  5
A7B4
330
A70C
100
AcDbEntity
  8
1
  6
Continuous
100
AcDbLine
 10
352.0599209999998
 20
155.360197
 30
0.0
 11
357.0599209999999
 21
152.4734459999999
 31
0.0
  0
LINE
  5
A7B5
330
A70C
100
AcDbEntity
  8
1
  6
Continuous
100
AcDbLine
 10
362.0599209999999
 20
155.360197
 30
0.0
 11
362.0599209999999
 21
160.786695
 31
0.0
  0
LINE
  5
A7B6
330
A70C
100
AcDbEntity
  8
1
  6
Continuous
100
AcDbLine
 10
362.0599209999999
 20
160.786695
 30
0.0
 11
357.0599209999999
 21
163.6734459999999
 31
0.0
  0
LINE
  5
A7B7
330
A70C
100
AcDbEntity
  8
1
  6
Continuous
100
AcDbLine
 10
362.0599209999999
 20
155.360197
 30
0.0
 11
357.0599209999999
 21
152.4734459999999
 31
0.0
  0
ARC
  5
A7B8
330
A70C
100
AcDbEntity
  8
1
  6
Continuous
100
AcDbCircle
 10
147.559921
 20
40.470771
 30
0.0
 40
6.613208
100
AcDbArc
 50
67.78820500000001
 51
112.211795
  0
ARC
  5
A7B9
330
A70C
100
AcDbEntity
  8
1
  6
Continuous
100
AcDbCircle
 10
142.559921
 20
40.470771
 30
0.0
 40
6.613208
100
AcDbArc
 50
67.78820500000001
 51
112.211795
  0
LINE
  5
A7BA
330
A70C
100
AcDbEntity
  8
1
  6
Continuous
100
AcDbLine
 10
143.059921
 20
40.47539699999999
 30
0.0
 11
147.059921
 21
40.47539699999999
 31
0.0
  0
LINE
  5
A7BB
330
A70C
100
AcDbEntity
  8
1
  6
Continuous
100
AcDbLine
 10
142.0599209999998
 20
41.47539699999999
 30
0.0
 11
148.059921
 21
41.47539699999999
 31
0.0
  0
LINE
  5
A7BC
330
A70C
100
AcDbEntity
  8
1
  6
Continuous
100
AcDbLine
 10
147.059921
 20
40.47539699999999
 30
0.0
 11
148.059921
 21
41.47539699999999
 31
0.0
  0
LINE
  5
A7BD
330
A70C
100
AcDbEntity
  8
1
  6
Continuous
100
AcDbLine
 10
148.059921
 20
41.47539699999999
 30
0.0
 11
148.059921
 21
42.47539699999999
 31
0.0
  0
LINE
  5
A7BE
330
A70C
100
AcDbEntity
  8
2
  6
Continuous
100
AcDbLine
 10
147.5184209999999
 20
40.93389699999996
 30
0.0
 11
147.5184209999999
 21
42.47539699999999
 31
0.0
  0
LINE
  5
A7BF
330
A70C
100
AcDbEntity
  8
1
  6
Continuous
100
AcDbLine
 10
143.059921
 20
40.47539699999999
 30
0.0
 11
142.0599209999998
 21
41.47539699999999
 31
0.0
  0
LINE
  5
A7C0
330
A70C
100
AcDbEntity
  8
1
  6
Continuous
100
AcDbLine
 10
142.0599209999998
 20
41.47539699999999
 30
0.0
 11
142.0599209999998
 21
42.47539699999999
 31
0.0
  0
LINE
  5
A7C1
330
A70C
100
AcDbEntity
  8
2
  6
Continuous
100
AcDbLine
 10
142.6014209999999
 20
40.93389699999996
 30
0.0
 11
142.6014209999999
 21
42.47539699999999
 31
0.0
  0
LINE
  5
A7C2
330
A70C
100
AcDbEntity
  8
1
  6
Continuous
100
AcDbLine
 10
67.05485300000001
 20
161.534262
 30
0.0
 11
67.05485300000001
 21
154.61263
 31
0.0
  0
ARC
  5
A7C3
330
A70C
100
AcDbEntity
  8
1
  6
Continuous
100
AcDbCircle
 10
65.061329
 20
154.7734469999998
 30
0.0
 40
2.0
100
AcDbArc
 50
270.0000179999999
 51
0.05792
  0
LINE
  5
A7C4
330
A70C
100
AcDbEntity
  8
1
  6
Continuous
100
AcDbLine
 10
64.56335
 20
152.773447
 30
0.0
 11
65.061329
 21
152.773447
 31
0.0
  0
LINE
  5
A7C5
330
A70C
100
AcDbEntity
  8
1
  6
Continuous
100
AcDbLine
 10
148.519892
 20
79.56845
 30
0.0
 11
141.59995
 21
79.56845
 31
0.0
  0
ARC
  5
A7C6
330
A70C
100
AcDbEntity
  8
1
  6
Continuous
100
AcDbCircle
 10
148.35992
 20
77.57485799999997
 30
0.0
 40
2.0
100
AcDbArc
 50
0.000018
 51
94.77346899999997
  0
LINE
  5
A7C7
330
A70C
100
AcDbEntity
  8
1
  6
Continuous
100
AcDbLine
 10
150.35992
 20
77.076879
 30
0.0
 11
150.35992
 21
77.57485799999997
 31
0.0
  0
LINE
  5
A7C8
330
A70C
100
AcDbEntity
  8
4
  6
CENTER
 48
0.8
100
AcDbLine
 10
251.059921
 20
250.5734499999999
 30
0.0
 11
251.059921
 21
120.5734459999999
 31
0.0
  0
LINE
  5
A7C9
330
A70C
100
AcDbEntity
  8
4
  6
CENTER
 48
0.8
100
AcDbLine
 10
277.6579889999998
 20
158.0734459999999
 30
0.0
 11
228.561846
 21
158.0734459999999
 31
0.0
  0
LINE
  5
A7CA
330
A70C
100
AcDbEntity
  8
1
  6
Continuous
100
AcDbLine
 10
267.0599209999999
 20
201.4734489999999
 30
0.0
 11
235.0599209999999
 21
201.4734489999999
 31
0.0
  0
LINE
  5
A7CB
330
A70C
100
AcDbEntity
  8
1
  6
Continuous
100
AcDbLine
 10
236.07045
 20
149.5734459999999
 30
0.0
 11
238.0704569999998
 21
149.5734459999999
 31
0.0
  0
LINE
  5
A7CC
330
A70C
100
AcDbEntity
  8
1
  6
Continuous
100
AcDbLine
 10
264.0493849999999
 20
149.5734459999999
 30
0.0
 11
264.0493849999999
 21
194.32992
 31
0.0
  0
LINE
  5
A7CD
330
A70C
100
AcDbEntity
  8
1
  6
Continuous
100
AcDbLine
 10
238.0704569999998
 20
149.5734459999999
 30
0.0
 11
238.0704569999998
 21
194.32992
 31
0.0
  0
LINE
  5
A7CE
330
A70C
100
AcDbEntity
  8
1
  6
Continuous
100
AcDbLine
 10
266.0493919999999
 20
149.5734459999999
 30
0.0
 11
266.0493919999999
 21
164.120295
 31
0.0
  0
LINE
  5
A7CF
330
A70C
100
AcDbEntity
  8
1
  6
Continuous
100
AcDbLine
 10
266.5347899999998
 20
155.0734459999999
 30
0.0
 11
269.6579889999998
 21
155.0734459999999
 31
0.0
  0
LINE
  5
A7D0
330
A70C
100
AcDbEntity
  8
1
  6
Continuous
100
AcDbLine
 10
266.4579919999998
 20
152.473448
 30
0.0
 11
269.6579889999998
 21
152.473448
 31
0.0
  0
LINE
  5
A7D1
330
A70C
100
AcDbEntity
  8
1
  6
Continuous
100
AcDbLine
 10
266.4579919999998
 20
161.0734459999999
 30
0.0
 11
269.6579889999998
 21
161.0734459999999
 31
0.0
  0
LINE
  5
A7D2
330
A70C
100
AcDbEntity
  8
1
  6
Continuous
100
AcDbLine
 10
266.4579919999998
 20
163.6734449999998
 30
0.0
 11
269.6579889999998
 21
163.6734449999998
 31
0.0
  0
ARC
  5
A7D3
330
A70C
100
AcDbEntity
  8
1
  6
Continuous
100
AcDbCircle
 10
267.745491
 20
162.3734489999999
 30
0.0
 40
2.312498999999998
100
AcDbArc
 50
325.79457
 51
34.20545
  0
LINE
  5
A7D4
330
A70C
100
AcDbEntity
  8
1
  6
Continuous
100
AcDbLine
 10
270.6579889999998
 20
161.8734719999999
 30
0.0
 11
269.6579889999998
 21
163.673441
 31
0.0
  0
LINE
  5
A7D5
330
A70C
100
AcDbEntity
  8
2
  6
Continuous
100
AcDbLine
 10
272.199489
 20
155.614946
 30
0.0
 11
270.6579889999998
 21
155.614946
 31
0.0
  0
LINE
  5
A7D6
330
A70C
100
AcDbEntity
  8
2
  6
Continuous
100
AcDbLine
 10
272.199489
 20
160.531946
 30
0.0
 11
270.6579889999998
 21
160.531946
 31
0.0
  0
LINE
  5
A7D7
330
A70C
100
AcDbEntity
  8
1
  6
Continuous
100
AcDbLine
 10
271.6579889999997
 20
155.0734459999999
 30
0.0
 11
270.6579889999998
 21
155.0734459999999
 31
0.0
  0
LINE
  5
A7D8
330
A70C
100
AcDbEntity
  8
1
  6
Continuous
100
AcDbLine
 10
271.6579889999997
 20
161.0734459999999
 30
0.0
 11
270.6579889999998
 21
161.0734459999999
 31
0.0
  0
LINE
  5
A7D9
330
A70C
100
AcDbEntity
  8
1
  6
Continuous
100
AcDbLine
 10
272.657989
 20
156.0734459999999
 30
0.0
 11
271.6579889999997
 21
155.0734459999999
 31
0.0
  0
LINE
  5
A7DA
330
A70C
100
AcDbEntity
  8
1
  6
Continuous
100
AcDbLine
 10
272.657989
 20
160.0734459999999
 30
0.0
 11
271.6579889999997
 21
161.0734459999999
 31
0.0
  0
LINE
  5
A7DB
330
A70C
100
AcDbEntity
  8
1
  6
Continuous
100
AcDbLine
 10
271.6579889999997
 20
161.0734459999999
 30
0.0
 11
271.6579889999997
 21
155.0734459999999
 31
0.0
  0
LINE
  5
A7DC
330
A70C
100
AcDbEntity
  8
1
  6
Continuous
100
AcDbLine
 10
272.657989
 20
160.0734459999999
 30
0.0
 11
272.657989
 21
156.0734459999999
 31
0.0
  0
ARC
  5
A7DD
330
A70C
100
AcDbEntity
  8
1
  6
Continuous
100
AcDbCircle
 10
267.745491
 20
153.7734509999999
 30
0.0
 40
2.312498999999998
100
AcDbArc
 50
325.79457
 51
34.20545
  0
ARC
  5
A7DE
330
A70C
100
AcDbEntity
  8
1
  6
Continuous
100
AcDbCircle
 10
258.607994
 20
158.0734459999999
 30
0.0
 40
11.44999799999999
100
AcDbArc
 50
344.8107499999999
 51
15.18927
  0
LINE
  5
A7DF
330
A70C
100
AcDbEntity
  8
1
  6
Continuous
100
AcDbLine
 10
270.6579889999998
 20
154.273371
 30
0.0
 11
269.6579889999998
 21
152.473448
 31
0.0
  0
LINE
  5
A7E0
330
A70C
100
AcDbEntity
  8
1
  6
Continuous
100
AcDbLine
 10
270.6579889999998
 20
161.873449
 30
0.0
 11
270.6579889999998
 21
154.273451
 31
0.0
  0
ARC
  5
A7E1
330
A70C
100
AcDbEntity
  8
1
  6
Continuous
100
AcDbCircle
 10
268.370491
 20
162.3734489999999
 30
0.0
 40
2.3125
100
AcDbArc
 50
145.7945389999999
 51
214.2054499999999
  0
ARC
  5
A7E2
330
A70C
100
AcDbEntity
  8
1
  6
Continuous
100
AcDbCircle
 10
277.507991
 20
158.0734459999999
 30
0.0
 40
11.450001
100
AcDbArc
 50
164.8107149999999
 51
195.1892799999999
  0
ARC
  5
A7E3
330
A70C
100
AcDbEntity
  8
1
  6
Continuous
100
AcDbCircle
 10
268.370491
 20
153.7734429999999
 30
0.0
 40
2.3125
100
AcDbArc
 50
145.79459
 51
214.2055099999998
  0
LINE
  5
A7E4
330
A70C
100
AcDbEntity
  8
1
  6
Continuous
100
AcDbLine
 10
264.054695
 20
154.8234459999999
 30
0.0
 11
263.0599209999999
 21
154.8234459999999
 31
0.0
  0
LINE
  5
A7E5
330
A70C
100
AcDbEntity
  8
1
  6
Continuous
100
AcDbLine
 10
264.0612709999999
 20
161.3234459999999
 30
0.0
 11
263.0599209999999
 21
161.3234459999999
 31
0.0
  0
LINE
  5
A7E6
330
A70C
100
AcDbEntity
  8
1
  6
Continuous
100
AcDbLine
 10
266.0493919999999
 20
149.5734459999999
 30
0.0
 11
264.0493849999999
 21
149.5734459999999
 31
0.0
  0
LINE
  5
A7E7
330
A70C
100
AcDbEntity
  8
1
  6
Continuous
100
AcDbLine
 10
239.0599209999999
 20
154.8234459999999
 30
0.0
 11
238.065147
 21
154.8234459999999
 31
0.0
  0
LINE
  5
A7E8
330
A70C
100
AcDbEntity
  8
1
  6
Continuous
100
AcDbLine
 10
239.0599209999999
 20
161.3234459999999
 30
0.0
 11
238.0585739999999
 21
161.3234459999999
 31
0.0
  0
ARC
  5
A7E9
330
A70C
100
AcDbEntity
  8
1
  6
Continuous
100
AcDbCircle
 10
267.0599209999999
 20
198.4734489999999
 30
0.0
 40
3.0
100
AcDbArc
 50
0.0
 51
90.0
  0
ARC
  5
A7EA
330
A70C
100
AcDbEntity
  8
1
  6
Continuous
100
AcDbCircle
 10
251.059921
 20
202.6179519999999
 30
0.0
 40
1.984499999999996
100
AcDbArc
 50
324.7796999999998
 51
350.0029399999998
  0
ARC
  5
A7EB
330
A70C
100
AcDbEntity
  8
1
  6
Continuous
100
AcDbCircle
 10
258.5212399999999
 20
202.6179519999999
 30
0.0
 40
1.984499999999996
100
AcDbArc
 50
206.8632199999999
 51
215.2203199999999
  0
ARC
  5
A7EC
330
A70C
100
AcDbEntity
  8
1
  6
Continuous
100
AcDbCircle
 10
254.980545
 20
202.6179519999999
 30
0.0
 40
1.984499999999996
100
AcDbArc
 50
189.99695
 51
215.2203199999999
  0
ARC
  5
A7ED
330
A70C
100
AcDbEntity
  8
1
  6
Continuous
100
AcDbCircle
 10
263.8099209999999
 20
202.6179519999999
 30
0.0
 40
1.984499999999996
100
AcDbArc
 50
324.7796999999998
 51
350.0029399999998
  0
ARC
  5
A7EE
330
A70C
100
AcDbEntity
  8
1
  6
Continuous
100
AcDbCircle
 10
263.1605069999998
 20
202.6179519999999
 30
0.0
 40
1.984499999999996
100
AcDbArc
 50
324.7796999999998
 51
350.0029399999998
  0
ARC
  5
A7EF
330
A70C
100
AcDbEntity
  8
1
  6
Continuous
100
AcDbCircle
 10
261.3389129999998
 20
202.6179519999999
 30
0.0
 40
1.984499999999996
100
AcDbArc
 50
324.7796999999998
 51
350.0029399999998
  0
ARC
  5
A7F0
330
A70C
100
AcDbEntity
  8
1
  6
Continuous
100
AcDbCircle
 10
258.5212399999999
 20
202.6179519999999
 30
0.0
 40
1.984499999999996
100
AcDbArc
 50
324.7796999999998
 51
350.0029399999998
  0
ARC
  5
A7F1
330
A70C
100
AcDbEntity
  8
1
  6
Continuous
100
AcDbCircle
 10
254.980545
 20
202.6179519999999
 30
0.0
 40
1.984499999999996
100
AcDbArc
 50
324.7796999999998
 51
350.0029599999999
  0
ARC
  5
A7F2
330
A70C
100
AcDbEntity
  8
1
  6
Continuous
100
AcDbCircle
 10
243.598602
 20
202.6179519999999
 30
0.0
 40
1.984499999999996
100
AcDbArc
 50
189.99701
 51
215.2203199999999
  0
ARC
  5
A7F3
330
A70C
100
AcDbEntity
  8
1
  6
Continuous
100
AcDbCircle
 10
247.139297
 20
202.6179519999999
 30
0.0
 40
1.984499999999996
100
AcDbArc
 50
189.99701
 51
215.2203199999999
  0
ARC
  5
A7F4
330
A70C
100
AcDbEntity
  8
1
  6
Continuous
100
AcDbCircle
 10
238.959335
 20
202.6179519999999
 30
0.0
 40
1.984499999999996
100
AcDbArc
 50
189.99701
 51
215.22025
  0
ARC
  5
A7F5
330
A70C
100
AcDbEntity
  8
1
  6
Continuous
100
AcDbCircle
 10
240.7809369999999
 20
202.6179519999999
 30
0.0
 40
1.984499999999996
100
AcDbArc
 50
189.99701
 51
215.22019
  0
ARC
  5
A7F6
330
A70C
100
AcDbEntity
  8
1
  6
Continuous
100
AcDbCircle
 10
243.598602
 20
202.6179519999999
 30
0.0
 40
1.984499999999996
100
AcDbArc
 50
324.7796999999998
 51
333.13675
  0
ARC
  5
A7F7
330
A70C
100
AcDbEntity
  8
1
  6
Continuous
100
AcDbCircle
 10
251.059921
 20
202.6179519999999
 30
0.0
 40
1.984499999999996
100
AcDbArc
 50
189.99701
 51
215.2203199999999
  0
ARC
  5
A7F8
330
A70C
100
AcDbEntity
  8
1
  6
Continuous
100
AcDbCircle
 10
247.139297
 20
202.6179519999999
 30
0.0
 40
1.984499999999996
100
AcDbArc
 50
324.7796999999998
 51
350.00301
  0
LINE
  5
A7F9
330
A70C
100
AcDbEntity
  8
1
  6
Continuous
100
AcDbLine
 10
236.07045
 20
149.5734459999999
 30
0.0
 11
236.07045
 21
164.120295
 31
0.0
  0
LINE
  5
A7FA
330
A70C
100
AcDbEntity
  8
1
  6
Continuous
100
AcDbLine
 10
232.059921
 20
198.4734489999999
 30
0.0
 11
232.059921
 21
183.744873
 31
0.0
  0
ARC
  5
A7FB
330
A70C
100
AcDbEntity
  8
1
  6
Continuous
100
AcDbCircle
 10
235.5585129999997
 20
161.373445
 30
0.0
 40
2.0
100
AcDbArc
 50
90.00001800000005
 51
180.0579199999999
  0
LINE
  5
A7FC
330
A70C
100
AcDbEntity
  8
1
  6
Continuous
100
AcDbLine
 10
233.564989
 20
161.534262
 30
0.0
 11
233.564989
 21
154.61263
 31
0.0
  0
LINE
  5
A7FD
330
A70C
100
AcDbEntity
  8
1
  6
Continuous
100
AcDbLine
 10
236.0564919999999
 20
152.773447
 30
0.0
 11
235.5585129999997
 21
152.773447
 31
0.0
  0
ARC
  5
A7FE
330
A70C
100
AcDbEntity
  8
1
  6
Continuous
100
AcDbCircle
 10
235.5585129999997
 20
154.7734469999998
 30
0.0
 40
2.0
100
AcDbArc
 50
179.94208
 51
269.9999819999998
  0
LINE
  5
A7FF
330
A70C
100
AcDbEntity
  8
1
  6
Continuous
100
AcDbLine
 10
236.0564919999999
 20
163.373445
 30
0.0
 11
235.5585129999997
 21
163.373445
 31
0.0
  0
ARC
  5
A800
330
A70C
100
AcDbEntity
  8
1
  6
Continuous
100
AcDbCircle
 10
235.0599209999999
 20
198.4734489999999
 30
0.0
 40
3.0
100
AcDbArc
 50
90.0
 51
180.0
  0
ARC
  5
A801
330
A70C
100
AcDbEntity
  8
1
  6
Continuous
100
AcDbCircle
 10
238.309921
 20
202.6179519999999
 30
0.0
 40
1.984499999999996
100
AcDbArc
 50
189.99701
 51
215.22025
  0
LINE
  5
A802
330
A70C
100
AcDbEntity
  8
1
  6
Continuous
100
AcDbLine
 10
234.8335839999998
 20
194.32992
 30
0.0
 11
267.2862579999999
 21
194.32992
 31
0.0
  0
LINE
  5
A803
330
A70C
100
AcDbEntity
  8
1
  6
Continuous
100
AcDbLine
 10
270.0599209999999
 20
198.4734489999999
 30
0.0
 11
270.0599209999999
 21
183.744873
 31
0.0
  0
LINE
  5
A804
330
A70C
100
AcDbEntity
  8
4
  6
CENTER
 48
0.8
100
AcDbLine
 10
357.0599209999999
 20
191.4662649999999
 30
0.0
 11
357.0599209999999
 21
120.5734459999999
 31
0.0
  0
LINE
  5
A805
330
A70C
100
AcDbEntity
  8
4
  6
CENTER
 48
0.8
100
AcDbLine
 10
319.5599209999998
 20
158.0734459999999
 30
0.0
 11
394.5599209999999
 21
158.0734459999999
 31
0.0
  0
LINE
  5
A806
330
A70C
100
AcDbEntity
  8
1
  6
Continuous
100
AcDbLine
 10
349.0599209999999
 20
201.4734489999999
 30
0.0
 11
317.0599209999998
 21
201.4734489999999
 31
0.0
  0
LINE
  5
A807
330
A70C
100
AcDbEntity
  8
1
  6
Continuous
100
AcDbLine
 10
322.7098689999999
 20
194.027858
 30
0.0
 11
314.0599209999998
 21
194.32992
 31
0.0
  0
LINE
  5
A808
330
A70C
100
AcDbEntity
  8
1
  6
Continuous
100
AcDbLine
 10
329.3232619999999
 20
190.0938039999997
 30
0.0
 11
350.9963029999998
 21
153.2692889999998
 31
0.0
  0
LINE
  5
A809
330
A70C
100
AcDbEntity
  8
1
  6
Continuous
100
AcDbLine
 10
362.155163
 20
194.792005
 30
0.0
 11
364.9389629999998
 21
157.6337569999997
 31
0.0
  0
LINE
  5
A80A
330
A70C
100
AcDbEntity
  8
1
  6
Continuous
100
AcDbLine
 10
345.4599229999999
 20
198.7967629999999
 30
0.0
 11
345.4599229999999
 21
166.391594
 31
0.0
  0
LINE
  5
A80B
330
A70C
100
AcDbEntity
  8
4
  6
CENTER
 48
0.8
100
AcDbLine
 10
333.0599209999998
 20
250.5734499999999
 30
0.0
 11
333.0599209999998
 21
178.1804979999997
 31
0.0
  0
ARC
  5
A80C
330
A70C
100
AcDbEntity
  8
1
  6
Continuous
100
AcDbCircle
 10
357.459923
 20
157.0734459999999
 30
0.0
 40
7.5
100
AcDbArc
 50
210.47892
 51
4.284449999999996
  0
LINE
  5
A80D
330
A70C
100
AcDbEntity
  8
1
  6
Continuous
100
AcDbLine
 10
365.259922
 20
196.275405
 30
0.0
 11
347.781479
 21
199.3573259999998
 31
0.0
  0
LINE
  5
A80E
330
A70C
100
AcDbEntity
  8
1
  6
Continuous
100
AcDbLine
 10
365.2599159999998
 20
196.275404
 30
0.0
 11
364.9126199999998
 21
194.305787
 31
0.0
  0
LINE
  5
A80F
330
A70C
100
AcDbEntity
  8
1
  6
Continuous
100
AcDbLine
 10
362.330141
 20
196.7920039999999
 30
0.0
 11
362.155163
 21
194.792005
 31
0.0
  0
LINE
  5
A810
330
A70C
100
AcDbEntity
  8
1
  6
Continuous
100
AcDbLine
 10
364.9126279999999
 20
194.3057889999998
 30
0.0
 11
362.1551609999999
 21
194.792005
 31
0.0
  0
ARC
  5
A811
330
A70C
100
AcDbEntity
  8
1
  6
Continuous
100
AcDbCircle
 10
336.980545
 20
202.6179519999999
 30
0.0
 40
1.984499999999996
100
AcDbArc
 50
189.99695
 51
215.22025
  0
ARC
  5
A812
330
A70C
100
AcDbEntity
  8
1
  6
Continuous
100
AcDbCircle
 10
345.8099209999998
 20
202.6179519999999
 30
0.0
 40
1.984499999999996
100
AcDbArc
 50
324.77977
 51
350.0029399999998
  0
ARC
  5
A813
330
A70C
100
AcDbEntity
  8
1
  6
Continuous
100
AcDbCircle
 10
345.1605069999998
 20
202.6179519999999
 30
0.0
 40
1.984499999999996
100
AcDbArc
 50
324.77977
 51
350.00293
  0
ARC
  5
A814
330
A70C
100
AcDbEntity
  8
1
  6
Continuous
100
AcDbCircle
 10
343.3389049999997
 20
202.6179519999999
 30
0.0
 40
1.984499999999996
100
AcDbArc
 50
324.77977
 51
350.0029399999998
  0
ARC
  5
A815
330
A70C
100
AcDbEntity
  8
1
  6
Continuous
100
AcDbCircle
 10
340.5212399999998
 20
202.6179519999999
 30
0.0
 40
1.984499999999996
100
AcDbArc
 50
324.77977
 51
350.0029399999998
  0
ARC
  5
A816
330
A70C
100
AcDbEntity
  8
1
  6
Continuous
100
AcDbCircle
 10
333.0599209999998
 20
202.6179519999999
 30
0.0
 40
1.984499999999996
100
AcDbArc
 50
324.77977
 51
350.0029399999998
  0
ARC
  5
A817
330
A70C
100
AcDbEntity
  8
1
  6
Continuous
100
AcDbCircle
 10
336.980545
 20
202.6179519999999
 30
0.0
 40
1.984499999999996
100
AcDbArc
 50
324.77977
 51
350.0029599999999
  0
ARC
  5
A818
330
A70C
100
AcDbEntity
  8
1
  6
Continuous
100
AcDbCircle
 10
340.5212399999998
 20
202.6179519999999
 30
0.0
 40
1.984499999999996
100
AcDbArc
 50
206.8632199999999
 51
215.22025
  0
ARC
  5
A819
330
A70C
100
AcDbEntity
  8
1
  6
Continuous
100
AcDbCircle
 10
322.4306789999999
 20
186.032733
 30
0.0
 40
8.0
100
AcDbArc
 50
30.47891
 51
87.99996799999998
  0
ARC
  5
A81A
330
A70C
100
AcDbEntity
  8
1
  6
Continuous
100
AcDbCircle
 10
325.598602
 20
202.6179519999999
 30
0.0
 40
1.984499999999996
100
AcDbArc
 50
189.99701
 51
215.22025
  0
ARC
  5
A81B
330
A70C
100
AcDbEntity
  8
1
  6
Continuous
100
AcDbCircle
 10
329.1392969999999
 20
202.6179519999999
 30
0.0
 40
1.984499999999996
100
AcDbArc
 50
189.99701
 51
215.22025
  0
ARC
  5
A81C
330
A70C
100
AcDbEntity
  8
1
  6
Continuous
100
AcDbCircle
 10
320.3099209999998
 20
202.6179519999999
 30
0.0
 40
1.984499999999996
100
AcDbArc
 50
189.99701
 51
215.2203199999999
  0
ARC
  5
A81D
330
A70C
100
AcDbEntity
  8
1
  6
Continuous
100
AcDbCircle
 10
320.959335
 20
202.6179519999999
 30
0.0
 40
1.984499999999996
100
AcDbArc
 50
189.99701
 51
215.22025
  0
ARC
  5
A81E
330
A70C
100
AcDbEntity
  8
1
  6
Continuous
100
AcDbCircle
 10
322.780937
 20
202.6179519999999
 30
0.0
 40
1.984499999999996
100
AcDbArc
 50
189.99701
 51
215.22025
  0
ARC
  5
A81F
330
A70C
100
AcDbEntity
  8
1
  6
Continuous
100
AcDbCircle
 10
325.598602
 20
202.6179519999999
 30
0.0
 40
1.984499999999996
100
AcDbArc
 50
324.77977
 51
333.13675
  0
ARC
  5
A820
330
A70C
100
AcDbEntity
  8
1
  6
Continuous
100
AcDbCircle
 10
333.0599209999998
 20
202.6179519999999
 30
0.0
 40
1.984499999999996
100
AcDbArc
 50
189.99701
 51
215.22025
  0
ARC
  5
A821
330
A70C
100
AcDbEntity
  8
1
  6
Continuous
100
AcDbCircle
 10
329.1392969999999
 20
202.6179519999999
 30
0.0
 40
1.984499999999996
100
AcDbArc
 50
324.77977
 51
350.00301
  0
ARC
  5
A822
330
A70C
100
AcDbEntity
  8
1
  6
Continuous
100
AcDbCircle
 10
317.0599209999998
 20
198.4734489999999
 30
0.0
 40
3.0
100
AcDbArc
 50
90.0
 51
180.0
  0
LINE
  5
A823
330
A70C
100
AcDbEntity
  8
1
  6
Continuous
100
AcDbLine
 10
314.0599209999998
 20
198.4734489999999
 30
0.0
 11
314.0599209999998
 21
194.32992
 31
0.0
  0
ARC
  5
A824
330
A70C
100
AcDbEntity
  8
1
  6
Continuous
100
AcDbCircle
 10
282.0793049999998
 20
183.744873
 30
0.0
 40
50.019384
100
AcDbArc
 50
169.701121
 51
203.100145
  0
ARC
  5
A825
330
A70C
100
AcDbEntity
  8
1
  6
Continuous
100
AcDbCircle
 10
220.0405379999998
 20
183.744873
 30
0.0
 40
50.019384
100
AcDbArc
 50
336.899855
 51
10.298879
  0
ARC
  5
A826
330
A70C
100
AcDbEntity
  8
1
  6
Continuous
100
AcDbCircle
 10
220.0405379999998
 20
183.744873
 30
0.0
 40
48.019384
100
AcDbArc
 50
336.899855
 51
12.734456
  0
ARC
  5
A827
330
A70C
100
AcDbEntity
  8
1
  6
Continuous
100
AcDbCircle
 10
282.0793049999998
 20
183.744873
 30
0.0
 40
48.019384
100
AcDbArc
 50
167.2655439999997
 51
203.100145
  0
ARC
  5
A828
330
A70C
100
AcDbEntity
  8
1
  6
Continuous
100
AcDbCircle
 10
267.2862579999999
 20
192.3299199999999
 30
0.0
 40
2.0
100
AcDbArc
 50
10.298879
 51
90.0
  0
ARC
  5
A829
330
A70C
100
AcDbEntity
  8
1
  6
Continuous
100
AcDbCircle
 10
234.8335839999998
 20
192.3299199999999
 30
0.0
 40
2.0
100
AcDbArc
 50
90.0
 51
169.701121
  0
ARC
  5
A82A
330
A70C
100
AcDbEntity
  8
1
  6
Continuous
100
AcDbCircle
 10
156.083019
 20
81.062921
 30
0.0
 40
4.0
100
AcDbArc
 50
270.0
 51
304.3476679999999
  0
ARC
  5
A82B
330
A70C
100
AcDbEntity
  8
1
  6
Continuous
100
AcDbCircle
 10
156.083009
 20
81.06291400000001
 30
0.0
 40
6.0
100
AcDbArc
 50
270.0
 51
304.3476989999998
  0
ARC
  5
A82C
330
A70C
100
AcDbEntity
  8
1
  6
Continuous
100
AcDbCircle
 10
156.083009
 20
43.08398599999999
 30
0.0
 40
6.0
100
AcDbArc
 50
55.652301
 51
90.0
  0
ARC
  5
A82D
330
A70C
100
AcDbEntity
  8
1
  6
Continuous
100
AcDbCircle
 10
156.083019
 20
43.083979
 30
0.0
 40
4.0
100
AcDbArc
 50
55.65233199999998
 51
90.0
  0
LINE
  5
A82E
330
A70C
100
AcDbEntity
  8
1
  6
Continuous
100
AcDbLine
 10
327.0599209999998
 20
243.57345
 30
0.0
 11
327.0599209999998
 21
210.57345
 31
0.0
  0
LINE
  5
A82F
330
A70C
100
AcDbEntity
  8
1
  6
Continuous
100
AcDbLine
 10
339.0599209999998
 20
243.57345
 30
0.0
 11
339.0599209999998
 21
210.57345
 31
0.0
  0
LINE
  5
A830
330
A70C
100
AcDbEntity
  8
2
  6
Continuous
100
AcDbLine
 10
338.1129209999998
 20
244.52045
 30
0.0
 11
338.1129209999998
 21
212.213702
 31
0.0
  0
LINE
  5
A831
330
A70C
100
AcDbEntity
  8
2
  6
Continuous
100
AcDbLine
 10
328.0069209999998
 20
244.52045
 30
0.0
 11
328.0069209999998
 21
212.213702
 31
0.0
  0
LINE
  5
A832
330
A70C
100
AcDbEntity
  8
1
  6
Continuous
100
AcDbLine
 10
257.0599209999999
 20
243.57345
 30
0.0
 11
257.0599209999999
 21
210.57345
 31
0.0
  0
LINE
  5
A833
330
A70C
100
AcDbEntity
  8
2
  6
Continuous
100
AcDbLine
 10
256.1129209999999
 20
244.52045
 30
0.0
 11
256.1129209999999
 21
212.213702
 31
0.0
  0
LINE
  5
A834
330
A70C
100
AcDbEntity
  8
1
  6
Continuous
100
AcDbLine
 10
245.059921
 20
243.57345
 30
0.0
 11
245.059921
 21
210.57345
 31
0.0
  0
LINE
  5
A835
330
A70C
100
AcDbEntity
  8
2
  6
Continuous
100
AcDbLine
 10
246.0069209999999
 20
244.52045
 30
0.0
 11
246.0069209999999
 21
212.213702
 31
0.0
  0
LINE
  5
A836
330
A70C
100
AcDbEntity
  8
1
  6
Continuous
100
AcDbLine
 10
267.3599239999999
 20
203.873445
 30
0.0
 11
234.759918
 21
203.873445
 31
0.0
  0
LINE
  5
A837
330
A70C
100
AcDbEntity
  8
1
  6
Continuous
100
AcDbLine
 10
237.259923
 20
206.373445
 30
0.0
 11
264.8599239999999
 21
206.373445
 31
0.0
  0
LINE
  5
A838
330
A70C
100
AcDbEntity
  8
1
  6
Continuous
100
AcDbLine
 10
241.2457579999998
 20
210.57345
 30
0.0
 11
260.8740839999999
 21
210.57345
 31
0.0
  0
LINE
  5
A839
330
A70C
100
AcDbEntity
  8
1
  6
Continuous
100
AcDbLine
 10
267.3599239999999
 20
202.273447
 30
0.0
 11
234.759918
 21
202.273447
 31
0.0
  0
ARC
  5
A83A
330
A70C
100
AcDbEntity
  8
1
  6
Continuous
100
AcDbCircle
 10
238.393814
 20
203.062208
 30
0.0
 40
3.5
100
AcDbArc
 50
108.9031
 51
162.9964699999999
  0
ARC
  5
A83B
330
A70C
100
AcDbEntity
  8
1
  6
Continuous
100
AcDbCircle
 10
234.759918
 20
204.1734449999999
 30
0.0
 40
0.3
100
AcDbArc
 50
270.00002
 51
342.9964799999999
  0
LINE
  5
A83C
330
A70C
100
AcDbEntity
  8
1
  6
Continuous
100
AcDbLine
 10
234.759918
 20
203.873445
 30
0.0
 11
234.759918
 21
202.273447
 31
0.0
  0
ARC
  5
A83D
330
A70C
100
AcDbEntity
  8
1
  6
Continuous
100
AcDbCircle
 10
246.459923
 20
208.32345
 30
0.0
 40
6.0
100
AcDbArc
 50
161.4469
 51
198.96558
  0
ARC
  5
A83E
330
A70C
100
AcDbEntity
  8
1
  6
Continuous
100
AcDbCircle
 10
241.2457579999998
 20
210.07345
 30
0.0
 40
0.5
100
AcDbArc
 50
89.99998199999996
 51
161.44681
  0
LINE
  5
A83F
330
A70C
100
AcDbEntity
  8
2
  6
Continuous
100
AcDbLine
 10
256.1129209999999
 20
212.213702
 30
0.0
 11
257.0599209999999
 21
210.57345
 31
0.0
  0
ARC
  5
A840
330
A70C
100
AcDbEntity
  8
1
  6
Continuous
100
AcDbCircle
 10
252.2620499999999
 20
208.32345
 30
0.0
 40
3.5
100
AcDbArc
 50
326.14148
 51
40.005224
  0
ARC
  5
A841
330
A70C
100
AcDbEntity
  8
1
  6
Continuous
100
AcDbCircle
 10
260.436096
 20
208.32345
 30
0.0
 40
3.5
100
AcDbArc
 50
139.99477
 51
213.8584799999999
  0
LINE
  5
A842
330
A70C
100
AcDbEntity
  8
2
  6
Continuous
100
AcDbLine
 10
246.0069209999999
 20
212.213702
 30
0.0
 11
245.059921
 21
210.57345
 31
0.0
  0
ARC
  5
A843
330
A70C
100
AcDbEntity
  8
1
  6
Continuous
100
AcDbCircle
 10
249.857795
 20
208.32345
 30
0.0
 40
3.5
100
AcDbArc
 50
139.99471
 51
213.8584799999999
  0
ARC
  5
A844
330
A70C
100
AcDbEntity
  8
1
  6
Continuous
100
AcDbCircle
 10
241.6837459999999
 20
208.32345
 30
0.0
 40
3.5
100
AcDbArc
 50
326.14148
 51
40.005169
  0
LINE
  5
A845
330
A70C
100
AcDbEntity
  8
1
  6
Continuous
100
AcDbLine
 10
245.059921
 20
212.213702
 30
0.0
 11
257.0599209999999
 21
212.213702
 31
0.0
  0
ARC
  5
A846
330
A70C
100
AcDbEntity
  8
1
  6
Continuous
100
AcDbCircle
 10
263.726028
 20
203.062208
 30
0.0
 40
3.5
100
AcDbArc
 50
17.003496
 51
71.09685999999998
  0
ARC
  5
A847
330
A70C
100
AcDbEntity
  8
1
  6
Continuous
100
AcDbCircle
 10
267.3599239999999
 20
204.1734449999999
 30
0.0
 40
0.3
100
AcDbArc
 50
197.00351
 51
269.9999599999998
  0
LINE
  5
A848
330
A70C
100
AcDbEntity
  8
1
  6
Continuous
100
AcDbLine
 10
267.3599239999999
 20
203.873445
 30
0.0
 11
267.3599239999999
 21
202.273447
 31
0.0
  0
ARC
  5
A849
330
A70C
100
AcDbEntity
  8
1
  6
Continuous
100
AcDbCircle
 10
255.659919
 20
208.32345
 30
0.0
 40
6.0
100
AcDbArc
 50
341.03438
 51
18.553034
  0
ARC
  5
A84A
330
A70C
100
AcDbEntity
  8
1
  6
Continuous
100
AcDbCircle
 10
260.8740839999999
 20
210.07345
 30
0.0
 40
0.5
100
AcDbArc
 50
18.55312999999998
 51
89.99996800000003
  0
ARC
  5
A84B
330
A70C
100
AcDbEntity
  8
1
  6
Continuous
100
AcDbCircle
 10
345.7260279999999
 20
203.062208
 30
0.0
 40
3.5
100
AcDbArc
 50
17.003496
 51
71.09685999999998
  0
LINE
  5
A84C
330
A70C
100
AcDbEntity
  8
1
  6
Continuous
100
AcDbLine
 10
349.3599239999999
 20
203.873445
 30
0.0
 11
316.759918
 21
203.873445
 31
0.0
  0
LINE
  5
A84D
330
A70C
100
AcDbEntity
  8
1
  6
Continuous
100
AcDbLine
 10
349.3599239999999
 20
202.273447
 30
0.0
 11
316.759918
 21
202.273447
 31
0.0
  0
ARC
  5
A84E
330
A70C
100
AcDbEntity
  8
1
  6
Continuous
100
AcDbCircle
 10
320.393814
 20
203.062208
 30
0.0
 40
3.5
100
AcDbArc
 50
108.9031
 51
162.9964699999999
  0
ARC
  5
A84F
330
A70C
100
AcDbEntity
  8
1
  6
Continuous
100
AcDbCircle
 10
316.759918
 20
204.1734449999999
 30
0.0
 40
0.3
100
AcDbArc
 50
270.00002
 51
342.9964799999999
  0
LINE
  5
A850
330
A70C
100
AcDbEntity
  8
1
  6
Continuous
100
AcDbLine
 10
316.759918
 20
203.873445
 30
0.0
 11
316.759918
 21
202.273447
 31
0.0
  0
LINE
  5
A851
330
A70C
100
AcDbEntity
  8
1
  6
Continuous
100
AcDbLine
 10
327.0599209999998
 20
212.213702
 30
0.0
 11
339.0599209999998
 21
212.213702
 31
0.0
  0
LINE
  5
A852
330
A70C
100
AcDbEntity
  8
1
  6
Continuous
100
AcDbLine
 10
323.5599209999998
 20
210.57345
 30
0.0
 11
342.5599209999998
 21
210.57345
 31
0.0
  0
LINE
  5
A853
330
A70C
100
AcDbEntity
  8
1
  6
Continuous
100
AcDbLine
 10
346.8599189999998
 20
206.373445
 30
0.0
 11
319.2599180000001
 21
206.373445
 31
0.0
  0
LINE
  5
A854
330
A70C
100
AcDbEntity
  8
2
  6
Continuous
100
AcDbLine
 10
328.0069209999998
 20
212.213702
 30
0.0
 11
327.0599209999998
 21
210.57345
 31
0.0
  0
LINE
  5
A855
330
A70C
100
AcDbEntity
  8
1
  6
Continuous
100
AcDbLine
 10
323.5599209999998
 20
210.57345
 30
0.0
 11
323.5599209999998
 21
206.373445
 31
0.0
  0
ARC
  5
A856
330
A70C
100
AcDbEntity
  8
1
  6
Continuous
100
AcDbCircle
 10
327.0599209999998
 20
208.32345
 30
0.0
 40
3.0
100
AcDbArc
 50
131.4096399999999
 51
220.5416599999999
  0
LINE
  5
A857
330
A70C
100
AcDbEntity
  8
1
  6
Continuous
100
AcDbLine
 10
342.5599209999998
 20
210.57345
 30
0.0
 11
342.5599209999998
 21
206.373445
 31
0.0
  0
ARC
  5
A858
330
A70C
100
AcDbEntity
  8
1
  6
Continuous
100
AcDbCircle
 10
339.0599209999998
 20
208.32345
 30
0.0
 40
3.0
100
AcDbArc
 50
319.45831
 51
48.590321
  0
ARC
  5
A859
330
A70C
100
AcDbEntity
  8
1
  6
Continuous
100
AcDbCircle
 10
337.0599209999998
 20
208.32345
 30
0.0
 40
3.5
100
AcDbArc
 50
139.9947899999999
 51
213.8584799999999
  0
ARC
  5
A85A
330
A70C
100
AcDbEntity
  8
1
  6
Continuous
100
AcDbCircle
 10
329.0599209999998
 20
208.32345
 30
0.0
 40
3.5
100
AcDbArc
 50
326.14148
 51
40.005173
  0
LINE
  5
A85B
330
A70C
100
AcDbEntity
  8
2
  6
Continuous
100
AcDbLine
 10
338.1129209999998
 20
212.213702
 30
0.0
 11
339.0599209999998
 21
210.57345
 31
0.0
  0
ARC
  5
A85C
330
A70C
100
AcDbEntity
  8
1
  6
Continuous
100
AcDbCircle
 10
349.3599239999999
 20
204.1734449999999
 30
0.0
 40
0.3
100
AcDbArc
 50
197.00351
 51
269.9999599999998
  0
LINE
  5
A85D
330
A70C
100
AcDbEntity
  8
1
  6
Continuous
100
AcDbLine
 10
349.3599239999999
 20
203.873445
 30
0.0
 11
349.3599239999999
 21
202.273447
 31
0.0
  0
LINE
  5
A85E
330
A70C
100
AcDbEntity
  8
1
  6
Continuous
100
AcDbLine
 10
170.191139
 20
318.891816
 30
0.0
 11
177.429921
 21
314.7125029999999
 31
0.0
  0
LINE
  5
A85F
330
A70C
100
AcDbEntity
  8
1
  6
Continuous
100
AcDbLine
 10
170.191139
 20
298.2980339999998
 30
0.0
 11
177.429921
 21
302.4773469999999
 31
0.0
  0
CIRCLE
  5
A860
330
A70C
100
AcDbEntity
  8
1
  6
Continuous
100
AcDbCircle
 10
169.059921
 20
308.594925
 30
0.0
 40
4.0
  0
LINE
  5
A861
330
A70C
100
AcDbEntity
  8
1
  6
Continuous
100
AcDbLine
 10
159.559921
 20
304.434564
 30
0.0
 11
159.559921
 21
312.755286
 31
0.0
  0
CIRCLE
  5
A862
330
A70C
100
AcDbEntity
  8
1
  6
Continuous
100
AcDbCircle
 10
169.059921
 20
308.594925
 30
0.0
 40
6.0
  0
CIRCLE
  5
A863
330
A70C
100
AcDbEntity
  8
2
  6
Continuous
100
AcDbCircle
 10
169.059921
 20
308.594925
 30
0.0
 40
5.052999999999999
  0
LINE
  5
A864
330
A70C
100
AcDbEntity
  8
1
  6
Continuous
100
AcDbLine
 10
255.059921
 20
245.57345
 30
0.0
 11
257.0599209999999
 21
243.57345
 31
0.0
  0
LINE
  5
A865
330
A70C
100
AcDbEntity
  8
1
  6
Continuous
100
AcDbLine
 10
247.059921
 20
245.57345
 30
0.0
 11
245.059921
 21
243.57345
 31
0.0
  0
LINE
  5
A866
330
A70C
100
AcDbEntity
  8
1
  6
Continuous
100
AcDbLine
 10
247.059921
 20
245.57345
 30
0.0
 11
255.059921
 21
245.57345
 31
0.0
  0
LINE
  5
A867
330
A70C
100
AcDbEntity
  8
1
  6
Continuous
100
AcDbLine
 10
245.059921
 20
243.57345
 30
0.0
 11
257.0599209999999
 21
243.57345
 31
0.0
  0
ARC
  5
A868
330
A70C
100
AcDbEntity
  8
1
  6
Continuous
100
AcDbCircle
 10
161.819921
 20
304.434564
 30
0.0
 40
2.259999999999998
100
AcDbArc
 50
180.0
 51
239.9999999999999
  0
ARC
  5
A869
330
A70C
100
AcDbEntity
  8
1
  6
Continuous
100
AcDbCircle
 10
169.059921
 20
300.25736
 30
0.0
 40
2.262436
100
AcDbArc
 50
239.9999999999999
 51
300.0
  0
LINE
  5
A86A
330
A70C
100
AcDbEntity
  8
1
  6
Continuous
100
AcDbLine
 10
160.6899209999999
 20
302.4773469999999
 30
0.0
 11
167.928703
 21
298.2980339999998
 31
0.0
  0
ARC
  5
A86B
330
A70C
100
AcDbEntity
  8
1
  6
Continuous
100
AcDbCircle
 10
161.819921
 20
312.755286
 30
0.0
 40
2.259999999999998
100
AcDbArc
 50
119.9999999999999
 51
180.0
  0
ARC
  5
A86C
330
A70C
100
AcDbEntity
  8
1
  6
Continuous
100
AcDbCircle
 10
169.059921
 20
316.9324889999998
 30
0.0
 40
2.262436
100
AcDbArc
 50
60.0
 51
119.9999999999999
  0
LINE
  5
A86D
330
A70C
100
AcDbEntity
  8
1
  6
Continuous
100
AcDbLine
 10
160.6899209999999
 20
314.7125029999999
 30
0.0
 11
167.928703
 21
318.891816
 31
0.0
  0
LINE
  5
A86E
330
A70C
100
AcDbEntity
  8
1
  6
Continuous
100
AcDbLine
 10
178.5599209999998
 20
304.434564
 30
0.0
 11
178.5599209999998
 21
312.755286
 31
0.0
  0
LINE
  5
A86F
330
A70C
100
AcDbEntity
  8
1
  6
Continuous
100
AcDbLine
 10
329.0599209999998
 20
245.57345
 30
0.0
 11
337.0599209999998
 21
245.57345
 31
0.0
  0
LINE
  5
A870
330
A70C
100
AcDbEntity
  8
1
  6
Continuous
100
AcDbLine
 10
327.0599209999998
 20
243.57345
 30
0.0
 11
339.0599209999998
 21
243.57345
 31
0.0
  0
LINE
  5
A871
330
A70C
100
AcDbEntity
  8
1
  6
Continuous
100
AcDbLine
 10
329.0599209999998
 20
245.57345
 30
0.0
 11
327.0599209999998
 21
243.57345
 31
0.0
  0
LINE
  5
A872
330
A70C
100
AcDbEntity
  8
1
  6
Continuous
100
AcDbLine
 10
337.0599209999998
 20
245.57345
 30
0.0
 11
339.0599209999998
 21
243.57345
 31
0.0
  0
ARC
  5
A873
330
A70C
100
AcDbEntity
  8
1
  6
Continuous
100
AcDbCircle
 10
176.2999209999999
 20
304.434564
 30
0.0
 40
2.259999999999998
100
AcDbArc
 50
300.0
 51
0.0
  0
ARC
  5
A874
330
A70C
100
AcDbEntity
  8
1
  6
Continuous
100
AcDbCircle
 10
176.2999209999999
 20
312.755286
 30
0.0
 40
2.259999999999998
100
AcDbArc
 50
0.0
 51
60.0
  0
LINE
  5
A875
330
A70C
100
AcDbEntity
  8
1
  6
Continuous
100
AcDbLine
 10
163.0599209999997
 20
243.57345
 30
0.0
 11
163.0599209999997
 21
210.57345
 31
0.0
  0
LINE
  5
A876
330
A70C
100
AcDbEntity
  8
1
  6
Continuous
100
AcDbLine
 10
175.059921
 20
243.57345
 30
0.0
 11
175.059921
 21
210.57345
 31
0.0
  0
LINE
  5
A877
330
A70C
100
AcDbEntity
  8
2
  6
Continuous
100
AcDbLine
 10
174.1129209999997
 20
244.52045
 30
0.0
 11
174.1129209999997
 21
212.213702
 31
0.0
  0
LINE
  5
A878
330
A70C
100
AcDbEntity
  8
2
  6
Continuous
100
AcDbLine
 10
164.006921
 20
244.52045
 30
0.0
 11
164.006921
 21
212.213702
 31
0.0
  0
LINE
  5
A879
330
A70C
100
AcDbEntity
  8
1
  6
Continuous
100
AcDbLine
 10
185.359924
 20
203.873445
 30
0.0
 11
152.7599179999999
 21
203.873445
 31
0.0
  0
LINE
  5
A87A
330
A70C
100
AcDbEntity
  8
1
  6
Continuous
100
AcDbLine
 10
185.359924
 20
202.273447
 30
0.0
 11
152.7599179999999
 21
202.273447
 31
0.0
  0
LINE
  5
A87B
330
A70C
100
AcDbEntity
  8
1
  6
Continuous
100
AcDbLine
 10
159.559921
 20
210.57345
 30
0.0
 11
178.5599209999998
 21
210.57345
 31
0.0
  0
LINE
  5
A87C
330
A70C
100
AcDbEntity
  8
1
  6
Continuous
100
AcDbLine
 10
182.859919
 20
206.373445
 30
0.0
 11
155.259918
 21
206.373445
 31
0.0
  0
ARC
  5
A87D
330
A70C
100
AcDbEntity
  8
1
  6
Continuous
100
AcDbCircle
 10
156.3938139999999
 20
203.062208
 30
0.0
 40
3.5
100
AcDbArc
 50
108.9031
 51
162.9964699999999
  0
ARC
  5
A87E
330
A70C
100
AcDbEntity
  8
1
  6
Continuous
100
AcDbCircle
 10
152.7599179999999
 20
204.1734449999999
 30
0.0
 40
0.3
100
AcDbArc
 50
270.00002
 51
342.9964799999999
  0
LINE
  5
A87F
330
A70C
100
AcDbEntity
  8
1
  6
Continuous
100
AcDbLine
 10
152.7599179999999
 20
203.873445
 30
0.0
 11
152.7599179999999
 21
202.273447
 31
0.0
  0
LINE
  5
A880
330
A70C
100
AcDbEntity
  8
1
  6
Continuous
100
AcDbLine
 10
163.0599209999997
 20
212.213702
 30
0.0
 11
175.059921
 21
212.213702
 31
0.0
  0
LINE
  5
A881
330
A70C
100
AcDbEntity
  8
2
  6
Continuous
100
AcDbLine
 10
164.006921
 20
212.213702
 30
0.0
 11
163.0599209999997
 21
210.57345
 31
0.0
  0
LINE
  5
A882
330
A70C
100
AcDbEntity
  8
2
  6
Continuous
100
AcDbLine
 10
174.1129209999997
 20
212.213702
 30
0.0
 11
175.059921
 21
210.57345
 31
0.0
  0
ARC
  5
A883
330
A70C
100
AcDbEntity
  8
1
  6
Continuous
100
AcDbCircle
 10
173.059921
 20
208.32345
 30
0.0
 40
3.5
100
AcDbArc
 50
139.9947899999999
 51
213.8584799999999
  0
ARC
  5
A884
330
A70C
100
AcDbEntity
  8
1
  6
Continuous
100
AcDbCircle
 10
165.059921
 20
208.32345
 30
0.0
 40
3.5
100
AcDbArc
 50
326.14148
 51
40.005173
  0
LINE
  5
A885
330
A70C
100
AcDbEntity
  8
1
  6
Continuous
100
AcDbLine
 10
159.559921
 20
210.57345
 30
0.0
 11
159.559921
 21
206.373445
 31
0.0
  0
ARC
  5
A886
330
A70C
100
AcDbEntity
  8
1
  6
Continuous
100
AcDbCircle
 10
163.0599209999997
 20
208.32345
 30
0.0
 40
3.0
100
AcDbArc
 50
131.4096399999999
 51
220.5416599999999
  0
ARC
  5
A887
330
A70C
100
AcDbEntity
  8
1
  6
Continuous
100
AcDbCircle
 10
181.726028
 20
203.062208
 30
0.0
 40
3.5
100
AcDbArc
 50
17.003496
 51
71.09685999999998
  0
LINE
  5
A888
330
A70C
100
AcDbEntity
  8
1
  6
Continuous
100
AcDbLine
 10
178.5599209999998
 20
210.57345
 30
0.0
 11
178.5599209999998
 21
206.373445
 31
0.0
  0
ARC
  5
A889
330
A70C
100
AcDbEntity
  8
1
  6
Continuous
100
AcDbCircle
 10
175.059921
 20
208.32345
 30
0.0
 40
3.0
100
AcDbArc
 50
319.45831
 51
48.590321
  0
ARC
  5
A88A
330
A70C
100
AcDbEntity
  8
1
  6
Continuous
100
AcDbCircle
 10
185.359924
 20
204.1734449999999
 30
0.0
 40
0.3
100
AcDbArc
 50
197.00351
 51
269.9999599999998
  0
LINE
  5
A88B
330
A70C
100
AcDbEntity
  8
1
  6
Continuous
100
AcDbLine
 10
185.359924
 20
203.873445
 30
0.0
 11
185.359924
 21
202.273447
 31
0.0
  0
LINE
  5
A88C
330
A70C
100
AcDbEntity
  8
1
  6
Continuous
100
AcDbLine
 10
165.059921
 20
245.57345
 30
0.0
 11
173.059921
 21
245.57345
 31
0.0
  0
LINE
  5
A88D
330
A70C
100
AcDbEntity
  8
1
  6
Continuous
100
AcDbLine
 10
163.0599209999997
 20
243.57345
 30
0.0
 11
175.059921
 21
243.57345
 31
0.0
  0
LINE
  5
A88E
330
A70C
100
AcDbEntity
  8
1
  6
Continuous
100
AcDbLine
 10
165.059921
 20
245.57345
 30
0.0
 11
163.0599209999997
 21
243.57345
 31
0.0
  0
LINE
  5
A88F
330
A70C
100
AcDbEntity
  8
1
  6
Continuous
100
AcDbLine
 10
173.059921
 20
245.57345
 30
0.0
 11
175.059921
 21
243.57345
 31
0.0
  0
LINE
  5
A890
330
A70C
100
AcDbEntity
  8
1
  6
Continuous
100
AcDbLine
 10
55.559921
 20
243.57345
 30
0.0
 11
55.559921
 21
210.57345
 31
0.0
  0
LINE
  5
A891
330
A70C
100
AcDbEntity
  8
2
  6
Continuous
100
AcDbLine
 10
54.61292099999999
 20
244.52045
 30
0.0
 11
54.61292099999999
 21
212.213702
 31
0.0
  0
LINE
  5
A892
330
A70C
100
AcDbEntity
  8
1
  6
Continuous
100
AcDbLine
 10
43.559921
 20
243.57345
 30
0.0
 11
43.559921
 21
210.57345
 31
0.0
  0
LINE
  5
A893
330
A70C
100
AcDbEntity
  8
2
  6
Continuous
100
AcDbLine
 10
44.506921
 20
244.52045
 30
0.0
 11
44.506921
 21
212.213702
 31
0.0
  0
LINE
  5
A894
330
A70C
100
AcDbEntity
  8
1
  6
Continuous
100
AcDbLine
 10
43.559921
 20
212.213702
 30
0.0
 11
55.559921
 21
212.213702
 31
0.0
  0
LINE
  5
A895
330
A70C
100
AcDbEntity
  8
1
  6
Continuous
100
AcDbLine
 10
35.759923
 20
206.373445
 30
0.0
 11
63.359924
 21
206.373445
 31
0.0
  0
LINE
  5
A896
330
A70C
100
AcDbEntity
  8
1
  6
Continuous
100
AcDbLine
 10
39.745758
 20
210.57345
 30
0.0
 11
59.37408399999998
 21
210.57345
 31
0.0
  0
LINE
  5
A897
330
A70C
100
AcDbEntity
  8
1
  6
Continuous
100
AcDbLine
 10
65.85992399999999
 20
203.873445
 30
0.0
 11
33.259918
 21
203.873445
 31
0.0
  0
LINE
  5
A898
330
A70C
100
AcDbEntity
  8
1
  6
Continuous
100
AcDbLine
 10
65.85992399999999
 20
202.273447
 30
0.0
 11
33.259918
 21
202.273447
 31
0.0
  0
ARC
  5
A899
330
A70C
100
AcDbEntity
  8
1
  6
Continuous
100
AcDbCircle
 10
33.259918
 20
204.1734449999999
 30
0.0
 40
0.3
100
AcDbArc
 50
270.00002
 51
342.9964799999999
  0
ARC
  5
A89A
330
A70C
100
AcDbEntity
  8
1
  6
Continuous
100
AcDbCircle
 10
36.893814
 20
203.062208
 30
0.0
 40
3.5
100
AcDbArc
 50
108.9031
 51
162.9964699999999
  0
LINE
  5
A89B
330
A70C
100
AcDbEntity
  8
1
  6
Continuous
100
AcDbLine
 10
33.259918
 20
203.873445
 30
0.0
 11
33.259918
 21
202.273447
 31
0.0
  0
LINE
  5
A89C
330
A70C
100
AcDbEntity
  8
2
  6
Continuous
100
AcDbLine
 10
44.506921
 20
212.213702
 30
0.0
 11
43.559921
 21
210.57345
 31
0.0
  0
ARC
  5
A89D
330
A70C
100
AcDbEntity
  8
1
  6
Continuous
100
AcDbCircle
 10
44.959923
 20
208.32345
 30
0.0
 40
6.0
100
AcDbArc
 50
161.4469
 51
198.96558
  0
ARC
  5
A89E
330
A70C
100
AcDbEntity
  8
1
  6
Continuous
100
AcDbCircle
 10
39.745758
 20
210.07345
 30
0.0
 40
0.5
100
AcDbArc
 50
89.99998199999996
 51
161.44681
  0
ARC
  5
A89F
330
A70C
100
AcDbEntity
  8
1
  6
Continuous
100
AcDbCircle
 10
48.35779500000001
 20
208.32345
 30
0.0
 40
3.5
100
AcDbArc
 50
139.99471
 51
213.8584799999999
  0
ARC
  5
A8A0
330
A70C
100
AcDbEntity
  8
1
  6
Continuous
100
AcDbCircle
 10
40.183746
 20
208.32345
 30
0.0
 40
3.5
100
AcDbArc
 50
326.14148
 51
40.005169
  0
ARC
  5
A8A1
330
A70C
100
AcDbEntity
  8
1
  6
Continuous
100
AcDbCircle
 10
62.226028
 20
203.062208
 30
0.0
 40
3.5
100
AcDbArc
 50
17.003496
 51
71.09685999999998
  0
LINE
  5
A8A2
330
A70C
100
AcDbEntity
  8
2
  6
Continuous
100
AcDbLine
 10
54.61292099999999
 20
212.213702
 30
0.0
 11
55.559921
 21
210.57345
 31
0.0
  0
ARC
  5
A8A3
330
A70C
100
AcDbEntity
  8
1
  6
Continuous
100
AcDbCircle
 10
50.76205
 20
208.32345
 30
0.0
 40
3.5
100
AcDbArc
 50
326.14148
 51
40.005224
  0
ARC
  5
A8A4
330
A70C
100
AcDbEntity
  8
1
  6
Continuous
100
AcDbCircle
 10
58.936096
 20
208.32345
 30
0.0
 40
3.5
100
AcDbArc
 50
139.99477
 51
213.8584799999999
  0
ARC
  5
A8A5
330
A70C
100
AcDbEntity
  8
1
  6
Continuous
100
AcDbCircle
 10
54.15991899999998
 20
208.32345
 30
0.0
 40
6.0
100
AcDbArc
 50
341.03438
 51
18.553034
  0
ARC
  5
A8A6
330
A70C
100
AcDbEntity
  8
1
  6
Continuous
100
AcDbCircle
 10
59.37408399999998
 20
210.07345
 30
0.0
 40
0.5
100
AcDbArc
 50
18.55312999999998
 51
89.99996800000003
  0
ARC
  5
A8A7
330
A70C
100
AcDbEntity
  8
1
  6
Continuous
100
AcDbCircle
 10
65.85992399999999
 20
204.1734449999999
 30
0.0
 40
0.3
100
AcDbArc
 50
197.00351
 51
269.9999599999998
  0
LINE
  5
A8A8
330
A70C
100
AcDbEntity
  8
1
  6
Continuous
100
AcDbLine
 10
65.85992399999999
 20
203.873445
 30
0.0
 11
65.85992399999999
 21
202.273447
 31
0.0
  0
LINE
  5
A8A9
330
A70C
100
AcDbEntity
  8
1
  6
Continuous
100
AcDbLine
 10
45.559921
 20
245.57345
 30
0.0
 11
53.55992099999999
 21
245.57345
 31
0.0
  0
LINE
  5
A8AA
330
A70C
100
AcDbEntity
  8
1
  6
Continuous
100
AcDbLine
 10
43.559921
 20
243.57345
 30
0.0
 11
55.559921
 21
243.57345
 31
0.0
  0
LINE
  5
A8AB
330
A70C
100
AcDbEntity
  8
1
  6
Continuous
100
AcDbLine
 10
45.559921
 20
245.57345
 30
0.0
 11
43.559921
 21
243.57345
 31
0.0
  0
LINE
  5
A8AC
330
A70C
100
AcDbEntity
  8
1
  6
Continuous
100
AcDbLine
 10
53.55992099999999
 20
245.57345
 30
0.0
 11
55.559921
 21
243.57345
 31
0.0
  0
CIRCLE
  5
A8AD
330
A70C
100
AcDbEntity
  8
1
  6
Continuous
100
AcDbCircle
 10
169.059921
 20
308.594925
 30
0.0
 40
13.8
  0
CIRCLE
  5
A8AE
330
A70C
100
AcDbEntity
  8
1
  6
Continuous
100
AcDbCircle
 10
169.059921
 20
308.594925
 30
0.0
 40
16.3
  0
ARC
  5
A8AF
330
A70C
100
AcDbEntity
  8
1
  6
Continuous
100
AcDbCircle
 10
169.059921
 20
308.594925
 30
0.0
 40
19.0
100
AcDbArc
 50
235.6988470000001
 51
124.301153
  0
LINE
  5
A8B0
330
A70C
100
AcDbEntity
  8
1
  6
Continuous
100
AcDbLine
 10
156.0984399999999
 20
323.5949249999998
 30
0.0
 11
137.213819
 21
323.5949249999998
 31
0.0
  0
LINE
  5
A8B1
330
A70C
100
AcDbEntity
  8
1
  6
Continuous
100
AcDbLine
 10
156.0984399999999
 20
293.5949249999998
 30
0.0
 11
137.213819
 21
293.5949249999998
 31
0.0
  0
ARC
  5
A8B2
330
A70C
100
AcDbEntity
  8
1
  6
Continuous
100
AcDbCircle
 10
176.723585
 20
308.594925
 30
0.0
 40
39.86366499999999
100
AcDbArc
 50
157.896398
 51
202.1036019999999
  0
ARC
  5
A8B3
330
A70C
100
AcDbEntity
  8
1
  6
Continuous
100
AcDbCircle
 10
156.0984399999999
 20
327.594925
 30
0.0
 40
4.0
100
AcDbArc
 50
270.0
 51
304.301153
  0
ARC
  5
A8B4
330
A70C
100
AcDbEntity
  8
1
  6
Continuous
100
AcDbCircle
 10
156.0984399999999
 20
289.594925
 30
0.0
 40
4.0
100
AcDbArc
 50
55.69884700000001
 51
90.0
  0
LINE
  5
A8B5
330
A70C
100
AcDbEntity
  8
1
  6
Continuous
100
AcDbLine
 10
140.059921
 20
324.075143
 30
0.0
 11
140.059921
 21
327.7026479999999
 31
0.0
  0
LINE
  5
A8B6
330
A70C
100
AcDbEntity
  8
1
  6
Continuous
100
AcDbLine
 10
150.059921
 20
324.075143
 30
0.0
 11
150.059921
 21
327.7026479999999
 31
0.0
  0
LINE
  5
A8B7
330
A70C
100
AcDbEntity
  8
1
  6
Continuous
100
AcDbLine
 10
145.059921
 20
327.7026479999999
 30
0.0
 11
145.059921
 21
323.5843959999999
 31
0.0
  0
LINE
  5
A8B8
330
A70C
100
AcDbEntity
  8
1
  6
Continuous
100
AcDbLine
 10
142.0599209999998
 20
329.1929769999998
 30
0.0
 11
148.059921
 21
329.1929769999998
 31
0.0
  0
LINE
  5
A8B9
330
A70C
100
AcDbEntity
  8
1
  6
Continuous
100
AcDbLine
 10
143.059921
 20
330.192977
 30
0.0
 11
147.059921
 21
330.192977
 31
0.0
  0
ARC
  5
A8BA
330
A70C
100
AcDbEntity
  8
1
  6
Continuous
100
AcDbCircle
 10
142.559921
 20
321.5801879999999
 30
0.0
 40
6.613208
100
AcDbArc
 50
67.78820500000001
 51
112.211795
  0
LINE
  5
A8BB
330
A70C
100
AcDbEntity
  8
1
  6
Continuous
100
AcDbLine
 10
142.559921
 20
328.1933959999999
 30
0.0
 11
147.559921
 21
328.1933959999999
 31
0.0
  0
LINE
  5
A8BC
330
A70C
100
AcDbEntity
  8
2
  6
Continuous
100
AcDbLine
 10
142.6014209999999
 20
329.734477
 30
0.0
 11
142.6014209999999
 21
328.192977
 31
0.0
  0
LINE
  5
A8BD
330
A70C
100
AcDbEntity
  8
1
  6
Continuous
100
AcDbLine
 10
142.0599209999998
 20
329.1929769999998
 30
0.0
 11
142.0599209999998
 21
328.192977
 31
0.0
  0
LINE
  5
A8BE
330
A70C
100
AcDbEntity
  8
1
  6
Continuous
100
AcDbLine
 10
143.059921
 20
330.192977
 30
0.0
 11
142.0599209999998
 21
329.1929769999998
 31
0.0
  0
LINE
  5
A8BF
330
A70C
100
AcDbEntity
  8
2
  6
Continuous
100
AcDbLine
 10
147.5184209999999
 20
329.734477
 30
0.0
 11
147.5184209999999
 21
328.192977
 31
0.0
  0
LINE
  5
A8C0
330
A70C
100
AcDbEntity
  8
1
  6
Continuous
100
AcDbLine
 10
148.059921
 20
329.1929769999998
 30
0.0
 11
148.059921
 21
328.192977
 31
0.0
  0
LINE
  5
A8C1
330
A70C
100
AcDbEntity
  8
1
  6
Continuous
100
AcDbLine
 10
147.059921
 20
330.192977
 30
0.0
 11
148.059921
 21
329.1929769999998
 31
0.0
  0
ARC
  5
A8C2
330
A70C
100
AcDbEntity
  8
1
  6
Continuous
100
AcDbCircle
 10
147.559921
 20
321.5801879999999
 30
0.0
 40
6.613208
100
AcDbArc
 50
67.78820500000001
 51
112.211795
  0
ARC
  5
A8C3
330
A70C
100
AcDbEntity
  8
1
  6
Continuous
100
AcDbCircle
 10
142.559921
 20
330.1976029999999
 30
0.0
 40
6.613208
100
AcDbArc
 50
247.7882049999999
 51
292.211795
  0
ARC
  5
A8C4
330
A70C
100
AcDbEntity
  8
1
  6
Continuous
100
AcDbCircle
 10
176.8940369999999
 20
308.5510909999998
 30
0.0
 40
40.03413499999999
100
AcDbArc
 50
161.000821
 51
162.4919909999999
  0
LINE
  5
A8C5
330
A70C
100
AcDbEntity
  8
1
  6
Continuous
100
AcDbLine
 10
137.213819
 20
321.5949249999998
 30
0.0
 11
137.213819
 21
323.5949249999998
 31
0.0
  0
ARC
  5
A8C6
330
A70C
100
AcDbEntity
  8
1
  6
Continuous
100
AcDbCircle
 10
147.559921
 20
330.1976029999999
 30
0.0
 40
6.613208
100
AcDbArc
 50
247.7882049999999
 51
292.211795
  0
LINE
  5
A8C7
330
A70C
100
AcDbEntity
  8
1
  6
Continuous
100
AcDbLine
 10
148.519892
 20
291.0999249999998
 30
0.0
 11
141.59995
 21
291.0999249999998
 31
0.0
  0
LINE
  5
A8C8
330
A70C
100
AcDbEntity
  8
1
  6
Continuous
100
AcDbLine
 10
137.213819
 20
293.5949249999998
 30
0.0
 11
137.213819
 21
295.5949249999998
 31
0.0
  0
ARC
  5
A8C9
330
A70C
100
AcDbEntity
  8
1
  6
Continuous
100
AcDbCircle
 10
141.7599219999999
 20
293.093517
 30
0.0
 40
2.0
100
AcDbArc
 50
180.0000179999999
 51
274.7734689999999
  0
LINE
  5
A8CA
330
A70C
100
AcDbEntity
  8
1
  6
Continuous
100
AcDbLine
 10
139.7599219999999
 20
293.591496
 30
0.0
 11
139.7599219999999
 21
293.093517
 31
0.0
  0
LINE
  5
A8CB
330
A70C
100
AcDbEntity
  8
1
  6
Continuous
100
AcDbLine
 10
150.35992
 20
293.591496
 30
0.0
 11
150.35992
 21
293.093517
 31
0.0
  0
ARC
  5
A8CC
330
A70C
100
AcDbEntity
  8
1
  6
Continuous
100
AcDbCircle
 10
148.35992
 20
293.093517
 30
0.0
 40
2.0
100
AcDbArc
 50
265.226531
 51
359.9999819999999
  0
LINE
  5
A8CD
330
A70C
100
AcDbEntity
  8
1
  6
Continuous
100
AcDbLine
 10
139.0392139999997
 20
321.5949249999998
 30
0.0
 11
137.213819
 21
321.5949249999998
 31
0.0
  0
LINE
  5
A8CE
330
A70C
100
AcDbEntity
  8
1
  6
Continuous
100
AcDbLine
 10
139.0392139999997
 20
295.5949249999998
 30
0.0
 11
137.213819
 21
295.5949249999998
 31
0.0
  0
ARC
  5
A8CF
330
A70C
100
AcDbEntity
  8
1
  6
Continuous
100
AcDbCircle
 10
153.059921
 20
198.4734489999999
 30
0.0
 40
3.0
100
AcDbArc
 50
90.0
 51
177.516999
  0
ARC
  5
A8D0
330
A70C
100
AcDbEntity
  8
1
  6
Continuous
100
AcDbCircle
 10
169.059921
 20
308.594925
 30
0.0
 40
19.0
100
AcDbArc
 50
137.3365599999999
 51
222.971441
  0
ARC
  5
A8D1
330
A70C
100
AcDbEntity
  8
1
  6
Continuous
100
AcDbCircle
 10
349.0599209999999
 20
198.4734489999999
 30
0.0
 40
3.0
100
AcDbArc
 50
2.483000999999998
 51
90.0
  0
LINE
  5
A8D2
330
A70C
100
AcDbEntity
  8
1
  6
Continuous
100
AcDbLine
 10
138.2676129999999
 20
298.094925
 30
0.0
 11
114.756374
 21
298.094925
 31
0.0
  0
LINE
  5
A8D3
330
A70C
100
AcDbEntity
  8
1
  6
Continuous
100
AcDbLine
 10
138.2676129999999
 20
319.094925
 30
0.0
 11
114.756374
 21
319.094925
 31
0.0
  0
ARC
  5
A8D4
330
A70C
100
AcDbEntity
  8
1
  6
Continuous
100
AcDbCircle
 10
145.059921
 20
158.0734459999999
 30
0.0
 40
32.5
100
AcDbArc
 50
99.64599900000001
 51
45.884135
  0
ARC
  5
A8D5
330
A70C
100
AcDbEntity
  8
1
  6
Continuous
100
AcDbCircle
 10
145.059921
 20
158.0734459999999
 30
0.0
 40
27.0
100
AcDbArc
 50
102.560593
 51
43.03419799999999
  0
ARC
  5
A8D6
330
A70C
100
AcDbEntity
  8
1
  6
Continuous
100
AcDbCircle
 10
127.8476899999999
 20
142.073786
 30
0.0
 40
3.5
100
AcDbArc
 50
119.9999999999999
 51
222.9090699999999
  0
LINE
  5
A8D7
330
A70C
100
AcDbEntity
  8
1
  6
Continuous
100
AcDbLine
 10
124.3476899999997
 20
148.1359649999999
 30
0.0
 11
133.9037209999997
 21
153.6531379999999
 31
0.0
  0
LINE
  5
A8D8
330
A70C
100
AcDbEntity
  8
1
  6
Continuous
100
AcDbLine
 10
137.5138699999999
 20
320.1459469999998
 30
0.0
 11
137.4060719999999
 21
319.0949209999998
 31
0.0
  0
LINE
  5
A8D9
330
A70C
100
AcDbEntity
  8
1
  6
Continuous
100
AcDbLine
 10
138.7089589999999
 20
296.5949249999998
 30
0.0
 11
138.011262
 21
296.5949249999998
 31
0.0
  0
ARC
  5
A8DA
330
A70C
100
AcDbEntity
  8
1
  6
Continuous
100
AcDbCircle
 10
138.011262
 20
297.0949249999998
 30
0.0
 40
0.5
100
AcDbArc
 50
185.8564659999999
 51
270.00002
  0
LINE
  5
A8DB
330
A70C
100
AcDbEntity
  8
1
  6
Continuous
100
AcDbLine
 10
137.5138709999999
 20
297.0438919999998
 30
0.0
 11
137.4060729999999
 21
298.094925
 31
0.0
  0
LINE
  5
A8DC
330
A70C
100
AcDbEntity
  8
1
  6
Continuous
100
AcDbLine
 10
138.7089589999999
 20
320.5949249999998
 30
0.0
 11
138.011262
 21
320.5949249999998
 31
0.0
  0
ARC
  5
A8DD
330
A70C
100
AcDbEntity
  8
1
  6
Continuous
100
AcDbCircle
 10
138.011262
 20
320.0949249999998
 30
0.0
 40
0.5
100
AcDbArc
 50
90.00005499999994
 51
174.1436069999998
  0
ARC
  5
A8DE
330
A70C
100
AcDbEntity
  8
1
  6
Continuous
100
AcDbCircle
 10
122.597694
 20
151.167055
 30
0.0
 40
3.5
100
AcDbArc
 50
197.0909699999999
 51
299.9999799999999
  0
LINE
  5
A8DF
330
A70C
100
AcDbEntity
  8
1
  6
Continuous
100
AcDbLine
 10
156.6222149999999
 20
154.862049
 30
0.0
 11
153.217782
 21
156.8276029999998
 31
0.0
  0
ARC
  5
A8E0
330
A70C
100
AcDbEntity
  8
1
  6
Continuous
100
AcDbCircle
 10
145.059921
 20
158.0734459999999
 30
0.0
 40
12.0
100
AcDbArc
 50
315.5225199999998
 51
344.4775499999999
  0
LINE
  5
A8E1
330
A70C
100
AcDbEntity
  8
1
  6
Continuous
100
AcDbLine
 10
164.0221399999998
 20
145.1048669999998
 30
0.0
 11
154.466118
 21
150.6220439999998
 31
0.0
  0
LINE
  5
A8E2
330
A70C
100
AcDbEntity
  8
1
  6
Continuous
100
AcDbLine
 10
165.7721399999998
 20
148.135959
 30
0.0
 11
156.2161179999999
 21
153.6531359999998
 31
0.0
  0
LINE
  5
A8E3
330
A70C
100
AcDbEntity
  8
1
  6
Continuous
100
AcDbLine
 10
126.0976899999999
 20
145.1048759999999
 30
0.0
 11
135.6537169999997
 21
150.622049
 31
0.0
  0
LINE
  5
A8E4
330
A70C
100
AcDbEntity
  8
1
  6
Continuous
100
AcDbLine
 10
136.4976159999999
 20
149.6658959999997
 30
0.0
 11
139.654232
 21
151.4883679999998
 31
0.0
  0
LINE
  5
A8E5
330
A70C
100
AcDbEntity
  8
1
  6
Continuous
100
AcDbLine
 10
133.4976159999999
 20
154.862049
 30
0.0
 11
137.1605409999999
 21
156.9768399999998
 31
0.0
  0
ARC
  5
A8E6
330
A70C
100
AcDbEntity
  8
1
  6
Continuous
100
AcDbCircle
 10
145.059921
 20
158.0734459999999
 30
0.0
 40
12.0
100
AcDbArc
 50
195.5225199999999
 51
224.4775399999999
  0
LINE
  5
A8E7
330
A70C
100
AcDbEntity
  8
1
  6
Continuous
100
AcDbLine
 10
153.6222229999999
 20
149.6658919999999
 30
0.0
 11
149.9684649999998
 21
151.775395
 31
0.0
  0
ARC
  5
A8E8
330
A70C
100
AcDbEntity
  8
1
  6
Continuous
100
AcDbCircle
 10
162.2721399999998
 20
142.073779
 30
0.0
 40
3.5
100
AcDbArc
 50
317.09098
 51
59.999988
  0
ARC
  5
A8E9
330
A70C
100
AcDbEntity
  8
1
  6
Continuous
100
AcDbCircle
 10
167.5221479999999
 20
151.1670419999999
 30
0.0
 40
3.5
100
AcDbArc
 50
240.00002
 51
342.9090899999998
  0
ARC
  5
A8EA
330
A70C
100
AcDbEntity
  8
1
  6
Continuous
100
AcDbCircle
 10
114.756374
 20
299.5949249999998
 30
0.0
 40
1.5
100
AcDbArc
 50
188.8498309999999
 51
270.00002
  0
ARC
  5
A8EB
330
A70C
100
AcDbEntity
  8
1
  6
Continuous
100
AcDbCircle
 10
114.756374
 20
317.5949249999998
 30
0.0
 40
1.5
100
AcDbArc
 50
90.00005499999994
 51
171.1502429999999
  0
ARC
  5
A8EC
330
A70C
100
AcDbEntity
  8
1
  6
Continuous
100
AcDbCircle
 10
172.559921
 20
308.594925
 30
0.0
 40
60.0
100
AcDbArc
 50
171.1490689999999
 51
188.8499539999999
  0
ARC
  5
A8ED
330
A70C
100
AcDbEntity
  8
1
  6
Continuous
100
AcDbCircle
 10
357.0599209999999
 20
158.0734459999999
 30
0.0
 40
32.5
100
AcDbArc
 50
134.1158649999999
 51
80.35400099999998
  0
ARC
  5
A8EE
330
A70C
100
AcDbEntity
  8
1
  6
Continuous
100
AcDbCircle
 10
357.0599209999999
 20
158.0734459999999
 30
0.0
 40
27.0
100
AcDbArc
 50
136.9658019999999
 51
77.43940699999997
  0
LINE
  5
A8EF
330
A70C
100
AcDbEntity
  8
1
  6
Continuous
100
AcDbLine
 10
377.7721399999999
 20
148.135959
 30
0.0
 11
368.216118
 21
153.6531359999998
 31
0.0
  0
LINE
  5
A8F0
330
A70C
100
AcDbEntity
  8
1
  6
Continuous
100
AcDbLine
 10
376.0221399999999
 20
145.1048669999998
 30
0.0
 11
366.4661179999998
 21
150.6220439999998
 31
0.0
  0
ARC
  5
A8F1
330
A70C
100
AcDbEntity
  8
1
  6
Continuous
100
AcDbCircle
 10
357.0599209999999
 20
158.0734459999999
 30
0.0
 40
12.0
100
AcDbArc
 50
315.5225199999998
 51
344.4775499999999
  0
LINE
  5
A8F2
330
A70C
100
AcDbEntity
  8
1
  6
Continuous
100
AcDbLine
 10
365.622223
 20
149.6658919999999
 30
0.0
 11
362.46561
 21
151.4883669999998
 31
0.0
  0
ARC
  5
A8F3
330
A70C
100
AcDbEntity
  8
1
  6
Continuous
100
AcDbCircle
 10
379.522148
 20
151.1670419999999
 30
0.0
 40
3.5
100
AcDbArc
 50
240.00002
 51
342.9090899999998
  0
ARC
  5
A8F4
330
A70C
100
AcDbEntity
  8
1
  6
Continuous
100
AcDbCircle
 10
374.2721399999999
 20
142.073779
 30
0.0
 40
3.5
100
AcDbArc
 50
317.09098
 51
59.999988
  0
LINE
  5
A8F5
330
A70C
100
AcDbEntity
  8
1
  6
Continuous
100
AcDbLine
 10
336.34769
 20
148.1359649999999
 30
0.0
 11
345.903721
 21
153.6531379999999
 31
0.0
  0
LINE
  5
A8F6
330
A70C
100
AcDbEntity
  8
1
  6
Continuous
100
AcDbLine
 10
338.09769
 20
145.1048759999999
 30
0.0
 11
347.6537169999998
 21
150.622049
 31
0.0
  0
ARC
  5
A8F7
330
A70C
100
AcDbEntity
  8
1
  6
Continuous
100
AcDbCircle
 10
334.5976939999999
 20
151.167055
 30
0.0
 40
3.5
100
AcDbArc
 50
197.0909699999999
 51
299.9999799999999
  0
ARC
  5
A8F8
330
A70C
100
AcDbEntity
  8
1
  6
Continuous
100
AcDbCircle
 10
339.8476899999999
 20
142.073786
 30
0.0
 40
3.5
100
AcDbArc
 50
119.9999999999999
 51
222.9090699999999
  0
ARC
  5
A8F9
330
A70C
100
AcDbEntity
  8
1
  6
Continuous
100
AcDbCircle
 10
357.0599209999999
 20
158.0734459999999
 30
0.0
 40
12.0
100
AcDbArc
 50
195.5225199999999
 51
224.4775399999999
  0
LINE
  5
A8FA
330
A70C
100
AcDbEntity
  8
1
  6
Continuous
100
AcDbLine
 10
348.4976159999998
 20
149.6658959999997
 30
0.0
 11
352.151377
 21
151.775395
 31
0.0
  0
LINE
  5
A8FB
330
A70C
100
AcDbEntity
  8
1
  6
Continuous
100
AcDbLine
 10
368.6222149999999
 20
154.862049
 30
0.0
 11
364.9593009999999
 21
156.976838
 31
0.0
  0
LINE
  5
A8FC
330
A70C
100
AcDbEntity
  8
1
  6
Continuous
100
AcDbLine
 10
345.497616
 20
154.862049
 30
0.0
 11
348.9020589999999
 21
156.827605
 31
0.0
  0
LINE
  5
A8FD
330
A70C
100
AcDbEntity
  8
1
  6
Continuous
100
AcDbLine
 10
39.059921
 20
127.7698989999999
 30
0.0
 11
39.059921
 21
188.3769929999999
 31
0.0
  0
LINE
  5
A8FE
330
A70C
100
AcDbEntity
  8
1
  6
Continuous
100
AcDbLine
 10
60.059921
 20
127.7698989999999
 30
0.0
 11
60.059921
 21
188.3769929999999
 31
0.0
  0
ARC
  5
A8FF
330
A70C
100
AcDbEntity
  8
1
  6
Continuous
100
AcDbCircle
 10
40.559921
 20
127.7698989999999
 30
0.0
 40
1.5
100
AcDbArc
 50
179.9999799999999
 51
261.1501799999999
  0
ARC
  5
A900
330
A70C
100
AcDbEntity
  8
1
  6
Continuous
100
AcDbCircle
 10
49.559921
 20
185.5734459999999
 30
0.0
 40
60.0
100
AcDbArc
 50
261.1500459999999
 51
278.850931
  0
ARC
  5
A901
330
A70C
100
AcDbEntity
  8
1
  6
Continuous
100
AcDbCircle
 10
58.55992099999999
 20
127.7698989999999
 30
0.0
 40
1.5
100
AcDbArc
 50
278.8497599999999
 51
359.99995
  0
LINE
  5
A902
330
A70C
100
AcDbEntity
  8
1
  6
Continuous
100
AcDbLine
 10
37.559921
 20
151.024787
 30
0.0
 11
37.559921
 21
165.122105
 31
0.0
  0
ARC
  5
A903
330
A70C
100
AcDbEntity
  8
1
  6
Continuous
100
AcDbCircle
 10
38.059921
 20
151.024787
 30
0.0
 40
0.5
100
AcDbArc
 50
179.9999799999999
 51
264.14352
  0
LINE
  5
A904
330
A70C
100
AcDbEntity
  8
1
  6
Continuous
100
AcDbLine
 10
38.008888
 20
150.527396
 30
0.0
 11
39.059921
 21
150.419598
 31
0.0
  0
ARC
  5
A905
330
A70C
100
AcDbEntity
  8
1
  6
Continuous
100
AcDbCircle
 10
38.059921
 20
165.122105
 30
0.0
 40
0.5
100
AcDbArc
 50
95.856466
 51
180.00002
  0
LINE
  5
A906
330
A70C
100
AcDbEntity
  8
1
  6
Continuous
100
AcDbLine
 10
38.008888
 20
165.619496
 30
0.0
 11
39.059921
 21
165.727294
 31
0.0
  0
LINE
  5
A907
330
A70C
100
AcDbEntity
  8
1
  6
Continuous
100
AcDbLine
 10
61.55992099999998
 20
151.024787
 30
0.0
 11
61.55992099999998
 21
165.122105
 31
0.0
  0
LINE
  5
A908
330
A70C
100
AcDbEntity
  8
1
  6
Continuous
100
AcDbLine
 10
61.11094300000001
 20
150.5273949999998
 30
0.0
 11
60.059917
 21
150.419597
 31
0.0
  0
ARC
  5
A909
330
A70C
100
AcDbEntity
  8
1
  6
Continuous
100
AcDbCircle
 10
61.05992099999999
 20
151.024787
 30
0.0
 40
0.5
100
AcDbArc
 50
275.8563899999999
 51
359.99995
  0
LINE
  5
A90A
330
A70C
100
AcDbEntity
  8
1
  6
Continuous
100
AcDbLine
 10
61.11094300000001
 20
165.619497
 30
0.0
 11
60.059917
 21
165.727295
 31
0.0
  0
ARC
  5
A90B
330
A70C
100
AcDbEntity
  8
1
  6
Continuous
100
AcDbCircle
 10
61.05992099999999
 20
165.122105
 30
0.0
 40
0.5
100
AcDbArc
 50
0.000055
 51
84.14360700000001
  0
ARC
  5
A90C
330
A70C
100
AcDbEntity
  8
1
  6
Continuous
100
AcDbCircle
 10
40.559921
 20
188.3769929999999
 30
0.0
 40
1.5
100
AcDbArc
 50
98.84983100000004
 51
180.00002
  0
ARC
  5
A90D
330
A70C
100
AcDbEntity
  8
1
  6
Continuous
100
AcDbCircle
 10
49.559921
 20
130.5734459999999
 30
0.0
 40
60.0
100
AcDbArc
 50
81.14906899999999
 51
98.84995400000001
  0
ARC
  5
A90E
330
A70C
100
AcDbEntity
  8
1
  6
Continuous
100
AcDbCircle
 10
58.55992099999999
 20
188.3769929999999
 30
0.0
 40
1.5
100
AcDbArc
 50
0.000055
 51
81.15024299999998
  0
ARC
  5
A90F
330
A70C
100
AcDbEntity
  8
1
  6
Continuous
100
AcDbCircle
 10
262.5599209999999
 20
165.122105
 30
0.0
 40
0.5
100
AcDbArc
 50
0.000055
 51
84.14360700000001
  0
LINE
  5
A910
330
A70C
100
AcDbEntity
  8
1
  6
Continuous
100
AcDbLine
 10
262.610943
 20
165.619497
 30
0.0
 11
261.5599169999999
 21
165.727295
 31
0.0
  0
LINE
  5
A911
330
A70C
100
AcDbEntity
  8
1
  6
Continuous
100
AcDbLine
 10
239.5088879999999
 20
165.619496
 30
0.0
 11
240.559921
 21
165.727294
 31
0.0
  0
ARC
  5
A912
330
A70C
100
AcDbEntity
  8
1
  6
Continuous
100
AcDbCircle
 10
239.5599209999998
 20
165.122105
 30
0.0
 40
0.5
100
AcDbArc
 50
95.856466
 51
180.00002
  0
LINE
  5
A913
330
A70C
100
AcDbEntity
  8
1
  6
Continuous
100
AcDbLine
 10
261.5599209999999
 20
127.7698989999999
 30
0.0
 11
261.5599209999999
 21
188.3769929999999
 31
0.0
  0
LINE
  5
A914
330
A70C
100
AcDbEntity
  8
1
  6
Continuous
100
AcDbLine
 10
240.559921
 20
127.7698989999999
 30
0.0
 11
240.559921
 21
188.3769929999999
 31
0.0
  0
ARC
  5
A915
330
A70C
100
AcDbEntity
  8
1
  6
Continuous
100
AcDbCircle
 10
251.059921
 20
185.5734459999999
 30
0.0
 40
60.0
100
AcDbArc
 50
261.1500459999999
 51
278.850931
  0
ARC
  5
A916
330
A70C
100
AcDbEntity
  8
1
  6
Continuous
100
AcDbCircle
 10
242.059921
 20
127.7698989999999
 30
0.0
 40
1.5
100
AcDbArc
 50
179.9999799999999
 51
261.1501799999999
  0
ARC
  5
A917
330
A70C
100
AcDbEntity
  8
1
  6
Continuous
100
AcDbCircle
 10
260.0599209999999
 20
127.7698989999999
 30
0.0
 40
1.5
100
AcDbArc
 50
278.8497599999999
 51
359.99995
  0
LINE
  5
A918
330
A70C
100
AcDbEntity
  8
1
  6
Continuous
100
AcDbLine
 10
239.5088879999999
 20
150.527396
 30
0.0
 11
240.559921
 21
150.419598
 31
0.0
  0
ARC
  5
A919
330
A70C
100
AcDbEntity
  8
1
  6
Continuous
100
AcDbCircle
 10
239.5599209999998
 20
151.024787
 30
0.0
 40
0.5
100
AcDbArc
 50
179.9999799999999
 51
264.14352
  0
LINE
  5
A91A
330
A70C
100
AcDbEntity
  8
1
  6
Continuous
100
AcDbLine
 10
239.0599209999999
 20
151.024787
 30
0.0
 11
239.0599209999999
 21
165.122105
 31
0.0
  0
ARC
  5
A91B
330
A70C
100
AcDbEntity
  8
1
  6
Continuous
100
AcDbCircle
 10
262.5599209999999
 20
151.024787
 30
0.0
 40
0.5
100
AcDbArc
 50
275.8563899999999
 51
359.99995
  0
LINE
  5
A91C
330
A70C
100
AcDbEntity
  8
1
  6
Continuous
100
AcDbLine
 10
262.610943
 20
150.5273949999998
 30
0.0
 11
261.5599169999999
 21
150.419597
 31
0.0
  0
LINE
  5
A91D
330
A70C
100
AcDbEntity
  8
1
  6
Continuous
100
AcDbLine
 10
263.0599209999999
 20
151.024787
 30
0.0
 11
263.0599209999999
 21
165.122105
 31
0.0
  0
ARC
  5
A91E
330
A70C
100
AcDbEntity
  8
1
  6
Continuous
100
AcDbCircle
 10
251.059921
 20
130.5734459999999
 30
0.0
 40
60.0
100
AcDbArc
 50
81.14906899999999
 51
98.84995400000001
  0
ARC
  5
A91F
330
A70C
100
AcDbEntity
  8
1
  6
Continuous
100
AcDbCircle
 10
242.059921
 20
188.3769929999999
 30
0.0
 40
1.5
100
AcDbArc
 50
98.84983100000004
 51
180.00002
  0
ARC
  5
A920
330
A70C
100
AcDbEntity
  8
1
  6
Continuous
100
AcDbCircle
 10
260.0599209999999
 20
188.3769929999999
 30
0.0
 40
1.5
100
AcDbArc
 50
0.000055
 51
81.15024299999998
  0
ARC
  5
A921
330
A70C
100
AcDbEntity
  8
1
  6
Continuous
100
AcDbCircle
 10
172.559921
 20
62.07345
 30
0.0
 40
60.0
100
AcDbArc
 50
171.1490689999999
 51
188.8499539999999
  0
ARC
  5
A922
330
A70C
100
AcDbEntity
  8
1
  6
Continuous
100
AcDbCircle
 10
117.559921
 20
62.07345
 30
0.0
 40
60.0
100
AcDbArc
 50
351.1500459999999
 51
8.850930999999997
  0
LINE
  5
A923
330
A70C
100
AcDbEntity
  8
1
  6
Continuous
100
AcDbLine
 10
175.3634679999999
 20
51.57345
 30
0.0
 11
114.756374
 21
51.57345
 31
0.0
  0
ARC
  5
A924
330
A70C
100
AcDbEntity
  8
1
  6
Continuous
100
AcDbCircle
 10
114.756374
 20
53.07345
 30
0.0
 40
1.5
100
AcDbArc
 50
188.8498309999999
 51
270.00002
  0
ARC
  5
A925
330
A70C
100
AcDbEntity
  8
1
  6
Continuous
100
AcDbCircle
 10
138.011262
 20
50.57345
 30
0.0
 40
0.5
100
AcDbArc
 50
185.8564659999999
 51
270.00002
  0
LINE
  5
A926
330
A70C
100
AcDbEntity
  8
1
  6
Continuous
100
AcDbLine
 10
137.5138709999999
 20
50.52241699999999
 30
0.0
 11
137.4060729999999
 21
51.57345
 31
0.0
  0
LINE
  5
A927
330
A70C
100
AcDbEntity
  8
1
  6
Continuous
100
AcDbLine
 10
152.605971
 20
50.52241699999999
 30
0.0
 11
152.7137689999999
 21
51.57345
 31
0.0
  0
ARC
  5
A928
330
A70C
100
AcDbEntity
  8
1
  6
Continuous
100
AcDbCircle
 10
152.1085799999999
 20
50.57345
 30
0.0
 40
0.5
100
AcDbArc
 50
269.99998
 51
354.14352
  0
LINE
  5
A929
330
A70C
100
AcDbEntity
  8
1
  6
Continuous
100
AcDbLine
 10
152.1085799999999
 20
50.07345
 30
0.0
 11
138.011262
 21
50.07345
 31
0.0
  0
ARC
  5
A92A
330
A70C
100
AcDbEntity
  8
1
  6
Continuous
100
AcDbCircle
 10
175.3634679999999
 20
53.07345
 30
0.0
 40
1.5
100
AcDbArc
 50
269.99998
 51
351.15018
  0
LINE
  5
A92B
330
A70C
100
AcDbEntity
  8
1
  6
Continuous
100
AcDbLine
 10
175.3634679999999
 20
72.57344999999998
 30
0.0
 11
114.756374
 21
72.57344999999998
 31
0.0
  0
ARC
  5
A92C
330
A70C
100
AcDbEntity
  8
1
  6
Continuous
100
AcDbCircle
 10
114.756374
 20
71.07344999999998
 30
0.0
 40
1.5
100
AcDbArc
 50
90.00005499999994
 51
171.1502429999999
  0
ARC
  5
A92D
330
A70C
100
AcDbEntity
  8
1
  6
Continuous
100
AcDbCircle
 10
138.011262
 20
73.57344999999998
 30
0.0
 40
0.5
100
AcDbArc
 50
90.00005499999994
 51
174.1436069999998
  0
LINE
  5
A92E
330
A70C
100
AcDbEntity
  8
1
  6
Continuous
100
AcDbLine
 10
137.5138699999999
 20
73.62447199999998
 30
0.0
 11
137.4060719999999
 21
72.57344599999997
 31
0.0
  0
ARC
  5
A92F
330
A70C
100
AcDbEntity
  8
1
  6
Continuous
100
AcDbCircle
 10
152.1085799999999
 20
73.57344999999998
 30
0.0
 40
0.5
100
AcDbArc
 50
5.85639
 51
89.99995000000001
  0
LINE
  5
A930
330
A70C
100
AcDbEntity
  8
1
  6
Continuous
100
AcDbLine
 10
152.605972
 20
73.62447199999998
 30
0.0
 11
152.7137699999999
 21
72.57344599999997
 31
0.0
  0
LINE
  5
A931
330
A70C
100
AcDbEntity
  8
1
  6
Continuous
100
AcDbLine
 10
152.1085799999999
 20
74.07344999999998
 30
0.0
 11
138.011262
 21
74.07344999999998
 31
0.0
  0
ARC
  5
A932
330
A70C
100
AcDbEntity
  8
1
  6
Continuous
100
AcDbCircle
 10
175.3634679999999
 20
71.07344999999998
 30
0.0
 40
1.5
100
AcDbArc
 50
8.849759999999998
 51
89.99995000000001
  0
ENDSEC
  0
SECTION
  2
OBJECTS
  0
DICTIONARY
  5
A6FA
330
0
100
AcDbDictionary
281
     1
  3
ACAD_CIP_PREVIOUS_PRODUCT_INFO
350
A9AF
  3
ACAD_COLOR
350
A991
  3
ACAD_DETAILVIEWSTYLE
350
A9AA
  3
ACAD_GROUP
350
A6FB
  3
ACAD_LAYOUT
350
A707
  3
ACAD_MATERIAL
350
A95F
  3
ACAD_MLEADERSTYLE
350
A9A6
  3
ACAD_MLINESTYLE
350
A704
  3
ACAD_PLOTSETTINGS
350
A706
  3
ACAD_PLOTSTYLENAME
350
A95D
  3
ACAD_SCALELIST
350
A994
  3
ACAD_SECTIONVIEWSTYLE
350
A9A8
  3
ACAD_TABLESTYLE
350
A992
  3
ACAD_VISUALSTYLE
350
A978
  3
ACDB_RECOMPOSE_DATA
350
A9CD
  3
AcDbVariableDictionary
350
A9C0
  3
DWGPROPS
350
A9CE
  0
DICTIONARY
  5
A9B0
330
A6FE
100
AcDbDictionary
280
     1
281
     1
  3
ADSK_XREC_LAYER_RECONCILED
360
A9B1
  0
DICTIONARY
  5
A9B2
330
A714
100
AcDbDictionary
280
     1
281
     1
  3
ADSK_XREC_LAYER_RECONCILED
360
A9B3
  0
DICTIONARY
  5
A9B4
330
A715
100
AcDbDictionary
280
     1
281
     1
  3
ADSK_XREC_LAYER_RECONCILED
360
A9B5
  0
DICTIONARY
  5
A9B6
330
A716
100
AcDbDictionary
280
     1
281
     1
  3
ADSK_XREC_LAYER_RECONCILED
360
A9B7
  0
DICTIONARY
  5
A9B8
330
A717
100
AcDbDictionary
280
     1
281
     1
  3
ADSK_XREC_LAYER_RECONCILED
360
A9B9
  0
DICTIONARY
  5
A9BA
330
A718
100
AcDbDictionary
280
     1
281
     1
  3
ADSK_XREC_LAYER_RECONCILED
360
A9BB
  0
DICTIONARY
  5
A9BC
330
A719
100
AcDbDictionary
280
     1
281
     1
  3
ADSK_XREC_LAYER_RECONCILED
360
A9BD
  0
DICTIONARY
  5
A9BE
330
A71A
100
AcDbDictionary
280
     1
281
     1
  3
ADSK_XREC_LAYER_RECONCILED
360
A9BF
  0
DICTIONARY
  5
A93D
330
A70C
100
AcDbDictionary
281
     1
  3
ACAD_LAYOUTSELFREF
350
A959
  0
DICTIONARY
  5
A93B
330
A708
100
AcDbDictionary
281
     1
  3
ACAD_LAYOUTSELFREF
350
A958
  0
XRECORD
  5
A9AF
102
{ACAD_REACTORS
330
A6FA
102
}
330
A6FA
100
AcDbXrecord
280
     1
300
ACDLT
300
2014
300
ACDLT_F_S
  0
DICTIONARY
  5
A991
102
{ACAD_REACTORS
330
A6FA
102
}
330
A6FA
100
AcDbDictionary
281
     1
  0
DICTIONARY
  5
A9AA
102
{ACAD_REACTORS
330
A6FA
102
}
330
A6FA
100
AcDbDictionary
281
     1
  3
Imperial24
350
A9AB
  0
DICTIONARY
  5
A6FB
102
{ACAD_REACTORS
330
A6FA
102
}
330
A6FA
100
AcDbDictionary
281
     1
  0
DICTIONARY
  5
A707
102
{ACAD_REACTORS
330
A6FA
102
}
330
A6FA
100
AcDbDictionary
281
     1
  3
Model
350
A9AC
  3
レイアウト1
350
A9AD
  0
DICTIONARY
  5
A95F
102
{ACAD_REACTORS
330
A6FA
102
}
330
A6FA
100
AcDbDictionary
281
     1
  3
ByBlock
350
A968
  3
ByLayer
350
A960
  3
Global
350
A970
  0
DICTIONARY
  5
A9A6
102
{ACAD_REACTORS
330
A6FA
102
}
330
A6FA
100
AcDbDictionary
281
     1
  3
Standard
350
A9A7
  0
DICTIONARY
  5
A704
102
{ACAD_REACTORS
330
A6FA
102
}
330
A6FA
100
AcDbDictionary
281
     1
  3
STANDARD
350
A705
  0
DICTIONARY
  5
A706
102
{ACAD_REACTORS
330
A6FA
102
}
330
A6FA
100
AcDbDictionary
281
     1
  0
ACDBDICTIONARYWDFLT
  5
A95D
102
{ACAD_REACTORS
330
A6FA
102
}
330
A6FA
100
AcDbDictionary
281
     1
  3
Normal
350
A95E
100
AcDbDictionaryWithDefault
340
A95E
  0
DICTIONARY
  5
A994
102
{ACAD_REACTORS
330
A6FA
102
}
330
A6FA
100
AcDbDictionary
281
     1
  3
A0
350
A995
  3
A1
350
A996
  3
A2
350
A997
  3
A3
350
A998
  3
A4
350
A999
  3
A5
350
A99A
  3
A6
350
A99B
  3
A7
350
A99C
  3
A8
350
A99D
  3
A9
350
A99E
  3
B0
350
A99F
  3
B1
350
A9A0
  3
B2
350
A9A1
  3
B3
350
A9A2
  3
B4
350
A9A3
  3
B5
350
A9A4
  3
B6
350
A9A5
  0
DICTIONARY
  5
A9A8
102
{ACAD_REACTORS
330
A6FA
102
}
330
A6FA
100
AcDbDictionary
281
     1
  3
Imperial24
350
A9A9
  0
DICTIONARY
  5
A992
102
{ACAD_REACTORS
330
A6FA
102
}
330
A6FA
100
AcDbDictionary
281
     1
  3
Standard
350
A993
  0
DICTIONARY
  5
A978
102
{ACAD_REACTORS
330
A6FA
102
}
330
A6FA
100
AcDbDictionary
281
     1
  3
2dWireframe
350
A97E
  3
Basic
350
A97D
  3
Brighten
350
A984
  3
ColorChange
350
A988
  3
Conceptual
350
A981
  3
Dim
350
A983
  3
EdgeColorOff
350
A990
  3
Facepattern
350
A987
  3
Flat
350
A979
  3
FlatWithEdges
350
A97A
  3
Gouraud
350
A97B
  3
GouraudWithEdges
350
A97C
  3
Hidden
350
A980
  3
JitterOff
350
A98E
  3
Linepattern
350
A986
  3
OverhangOff
350
A98F
  3
Realistic
350
A982
  3
Shaded
350
A98D
  3
Shaded with edges
350
A98C
  3
Shades of Gray
350
A989
  3
Sketchy
350
A98A
  3
Thicken
350
A985
  3
Wireframe
350
A97F
  3
X-Ray
350
A98B
  0
XRECORD
  5
A9CD
102
{ACAD_REACTORS
330
A6FA
102
}
330
A6FA
100
AcDbXrecord
280
     1
 90
        1
330
A993
  0
DICTIONARY
  5
A9C0
102
{ACAD_REACTORS
330
A6FA
102
}
330
A6FA
100
AcDbDictionary
281
     1
  3
CANNOSCALE
350
A9C5
  3
CMLEADERSTYLE
350
A9C2
  3
CTABLESTYLE
350
A9C1
  3
CVIEWDETAILSTYLE
350
A9C3
  3
CVIEWSECTIONSTYLE
350
A9C4
  3
DIMASSOC
350
A9C8
  3
INDEXCTL
350
A9C7
  3
SORTENTS
350
A9C6
  3
XCLIPFRAME
350
A9C9
  0
XRECORD
  5
A9CE
102
{ACAD_REACTORS
330
A6FA
102
}
330
A6FA
100
AcDbXrecord
280
     1
  1
DWGPROPS COOKIE
  2

  3

  4

  6

  7

  8
Yoshitsune
  9

300
=
301
=
302
=
303
=
304
=
305
=
306
=
307
=
308
=
309
=
 40
0.1431007175925926
 41
2451301.436256482
 42
2457192.690076921
  1

 90
        0
  0
XRECORD
  5
A9B1
102
{ACAD_REACTORS
330
A9B0
102
}
330
A9B0
100
AcDbXrecord
280
     1
290
     1
  0
XRECORD
  5
A9B3
102
{ACAD_REACTORS
330
A9B2
102
}
330
A9B2
100
AcDbXrecord
280
     1
290
     1
  0
XRECORD
  5
A9B5
102
{ACAD_REACTORS
330
A9B4
102
}
330
A9B4
100
AcDbXrecord
280
     1
290
     1
  0
XRECORD
  5
A9B7
102
{ACAD_REACTORS
330
A9B6
102
}
330
A9B6
100
AcDbXrecord
280
     1
290
     1
  0
XRECORD
  5
A9B9
102
{ACAD_REACTORS
330
A9B8
102
}
330
A9B8
100
AcDbXrecord
280
     1
290
     1
  0
XRECORD
  5
A9BB
102
{ACAD_REACTORS
330
A9BA
102
}
330
A9BA
100
AcDbXrecord
280
     1
290
     1
  0
XRECORD
  5
A9BD
102
{ACAD_REACTORS
330
A9BC
102
}
330
A9BC
100
AcDbXrecord
280
     1
290
     1
  0
XRECORD
  5
A9BF
102
{ACAD_REACTORS
330
A9BE
102
}
330
A9BE
100
AcDbXrecord
280
     1
290
     1
  0
XRECORD
  5
A959
102
{ACAD_REACTORS
330
A93D
102
}
330
A93D
100
AcDbXrecord
280
     1
340
A70C
  0
XRECORD
  5
A958
102
{ACAD_REACTORS
330
A93B
102
}
330
A93B
100
AcDbXrecord
280
     1
340
A708
  0
ACDBDETAILVIEWSTYLE
  5
A9AB
102
{ACAD_XDICTIONARY
360
AA06
102
}
102
{ACAD_REACTORS
330
A9AA
102
}
330
A9AA
100
AcDbModelDocViewStyle
 70
     0
  3
Imperial24
290
     0
100
AcDbDetailViewStyle
 70
     0
 71
     0
 90
        3
 71
     1
340
A6FF
 40
0.24
340
0
 40
0.24
300

 40
0.36
280
     3
 71
     2
340
A703
 90
       25
 71
     3
340
A6FF
 40
0.24
 90
        1
 40
0.75
 90
        1
300
%<\AcVar ViewType \f "%tc1">% %<\AcVar ViewDetailId>%\PSCALE %<\AcVar ViewScale \f "%sn">%
 71
     4
340
A703
 90
       25
340
A703
 90
       25
280
     0
  0
LAYOUT
  5
A9AC
102
{ACAD_XDICTIONARY
360
AA08
102
}
102
{ACAD_REACTORS
330
A707
102
}
330
A707
100
AcDbPlotSettings
  1

  2
Canon LBP9100C
  4

  6

 40
0.0
 41
0.0
 42
0.0
 43
0.0
 44
0.0
 45
0.0
 46
0.0
 47
0.0
 48
0.0
 49
0.0
140
0.0
141
0.0
142
1.0
143
1.0
 70
  1712
 72
     0
 73
     0
 74
     0
  7

 75
     0
147
1.0
148
0.0
149
0.0
100
AcDbLayout
  1
Model
 70
     1
 71
     0
 10
0.0
 20
0.0
 11
12.0
 21
9.0
 12
0.0
 22
0.0
 32
0.0
 14
0.0
 24
0.0
 34
0.0
 15
0.0
 25
0.0
 35
0.0
146
0.0
 13
0.0
 23
0.0
 33
0.0
 16
1.0
 26
0.0
 36
0.0
 17
0.0
 27
1.0
 37
0.0
 76
     0
330
A70C
331
A957
  0
LAYOUT
  5
A9AD
102
{ACAD_XDICTIONARY
360
AA0A
102
}
102
{ACAD_REACTORS
330
A707
102
}
330
A707
100
AcDbPlotSettings
  1

  2
Canon LBP9100C
  4

  6

 40
0.0
 41
0.0
 42
0.0
 43
0.0
 44
0.0
 45
0.0
 46
0.0
 47
0.0
 48
0.0
 49
0.0
140
0.0
141
0.0
142
1.0
143
1.0
 70
   688
 72
     0
 73
     0
 74
     5
  7

 75
    16
147
1.0
148
0.0
149
0.0
100
AcDbLayout
  1
レイアウト1
 70
     0
 71
     1
 10
0.0
 20
0.0
 11
420.0
 21
297.0
 12
0.0
 22
0.0
 32
0.0
 14
1.000000000000000E+20
 24
1.000000000000000E+20
 34
1.000000000000000E+20
 15
-1.000000000000000E+20
 25
-1.000000000000000E+20
 35
-1.000000000000000E+20
146
0.0
 13
0.0
 23
0.0
 33
0.0
 16
1.0
 26
0.0
 36
0.0
 17
0.0
 27
1.0
 37
0.0
 76
     0
330
A708
  0
MATERIAL
  5
A968
102
{ACAD_XDICTIONARY
360
A969
102
}
102
{ACAD_REACTORS
330
A95F
102
}
330
A95F
100
AcDbMaterial
  1
ByBlock
 72
     0
 43
0.0208333333333333
 43
0.0
 43
0.0
 43
0.0
 43
0.0
 43
0.0208333333333333
 43
0.0
 43
0.0
 43
0.0
 43
0.0
 43
1.0
 43
0.0
 43
0.0
 43
0.0
 43
0.0
 43
1.0
 77
     0
 47
0.0208333333333333
 47
0.0
 47
0.0
 47
0.0
 47
0.0
 47
0.0208333333333333
 47
0.0
 47
0.0
 47
0.0
 47
0.0
 47
1.0
 47
0.0
 47
0.0
 47
0.0
 47
0.0
 47
1.0
171
     0
 49
0.0208333333333333
 49
0.0
 49
0.0
 49
0.0
 49
0.0
 49
0.0208333333333333
 49
0.0
 49
0.0
 49
0.0
 49
0.0
 49
1.0
 49
0.0
 49
0.0
 49
0.0
 49
0.0
 49
1.0
175
     0
142
0.0208333333333333
142
0.0
142
0.0
142
0.0
142
0.0
142
0.0208333333333333
142
0.0
142
0.0
142
0.0
142
0.0
142
1.0
142
0.0
142
0.0
142
0.0
142
0.0
142
1.0
179
     0
144
0.0208333333333333
144
0.0
144
0.0
144
0.0
144
0.0
144
0.0208333333333333
144
0.0
144
0.0
144
0.0
144
0.0
144
1.0
144
0.0
144
0.0
144
0.0
144
0.0
144
1.0
147
0.0208333333333333
147
0.0
147
0.0
147
0.0
147
0.0
147
0.0208333333333333
147
0.0
147
0.0
147
0.0
147
0.0
147
1.0
147
0.0
147
0.0
147
0.0
147
0.0
147
1.0
  0
MATERIAL
  5
A960
102
{ACAD_XDICTIONARY
360
A961
102
}
102
{ACAD_REACTORS
330
A95F
102
}
330
A95F
100
AcDbMaterial
  1
ByLayer
 72
     0
 43
0.0208333333333333
 43
0.0
 43
0.0
 43
0.0
 43
0.0
 43
0.0208333333333333
 43
0.0
 43
0.0
 43
0.0
 43
0.0
 43
1.0
 43
0.0
 43
0.0
 43
0.0
 43
0.0
 43
1.0
 77
     0
 47
0.0208333333333333
 47
0.0
 47
0.0
 47
0.0
 47
0.0
 47
0.0208333333333333
 47
0.0
 47
0.0
 47
0.0
 47
0.0
 47
1.0
 47
0.0
 47
0.0
 47
0.0
 47
0.0
 47
1.0
171
     0
 49
0.0208333333333333
 49
0.0
 49
0.0
 49
0.0
 49
0.0
 49
0.0208333333333333
 49
0.0
 49
0.0
 49
0.0
 49
0.0
 49
1.0
 49
0.0
 49
0.0
 49
0.0
 49
0.0
 49
1.0
175
     0
142
0.0208333333333333
142
0.0
142
0.0
142
0.0
142
0.0
142
0.0208333333333333
142
0.0
142
0.0
142
0.0
142
0.0
142
1.0
142
0.0
142
0.0
142
0.0
142
0.0
142
1.0
179
     0
144
0.0208333333333333
144
0.0
144
0.0
144
0.0
144
0.0
144
0.0208333333333333
144
0.0
144
0.0
144
0.0
144
0.0
144
1.0
144
0.0
144
0.0
144
0.0
144
0.0
144
1.0
147
0.0208333333333333
147
0.0
147
0.0
147
0.0
147
0.0
147
0.0208333333333333
147
0.0
147
0.0
147
0.0
147
0.0
147
1.0
147
0.0
147
0.0
147
0.0
147
0.0
147
1.0
  0
MATERIAL
  5
A970
102
{ACAD_XDICTIONARY
360
A971
102
}
102
{ACAD_REACTORS
330
A95F
102
}
330
A95F
100
AcDbMaterial
  1
Global
 72
     0
 43
0.0208333333333333
 43
0.0
 43
0.0
 43
0.0
 43
0.0
 43
0.0208333333333333
 43
0.0
 43
0.0
 43
0.0
 43
0.0
 43
1.0
 43
0.0
 43
0.0
 43
0.0
 43
0.0
 43
1.0
 77
     0
 47
0.0208333333333333
 47
0.0
 47
0.0
 47
0.0
 47
0.0
 47
0.0208333333333333
 47
0.0
 47
0.0
 47
0.0
 47
0.0
 47
1.0
 47
0.0
 47
0.0
 47
0.0
 47
0.0
 47
1.0
171
     0
 49
0.0208333333333333
 49
0.0
 49
0.0
 49
0.0
 49
0.0
 49
0.0208333333333333
 49
0.0
 49
0.0
 49
0.0
 49
0.0
 49
1.0
 49
0.0
 49
0.0
 49
0.0
 49
0.0
 49
1.0
175
     0
142
0.0208333333333333
142
0.0
142
0.0
142
0.0
142
0.0
142
0.0208333333333333
142
0.0
142
0.0
142
0.0
142
0.0
142
1.0
142
0.0
142
0.0
142
0.0
142
0.0
142
1.0
179
     0
144
0.0208333333333333
144
0.0
144
0.0
144
0.0
144
0.0
144
0.0208333333333333
144
0.0
144
0.0
144
0.0
144
0.0
144
1.0
144
0.0
144
0.0
144
0.0
144
0.0
144
1.0
147
0.0208333333333333
147
0.0
147
0.0
147
0.0
147
0.0
147
0.0208333333333333
147
0.0
147
0.0
147
0.0
147
0.0
147
1.0
147
0.0
147
0.0
147
0.0
147
0.0
147
1.0
  0
MLEADERSTYLE
  5
A9A7
102
{ACAD_REACTORS
330
A9A6
102
}
330
A9A6
100
AcDbMLeaderStyle
170
     2
171
     1
172
     0
 90
        2
 40
0.0
 41
0.0
173
     1
 91
-1056964608
340
A701
 92
       -2
290
     1
 42
0.09
291
     1
 43
0.36
  3
Standard
 44
0.18
300

342
A6FF
174
     1
178
     6
175
     1
176
     0
 93
-1056964608
 45
0.18
292
     0
297
     0
 46
0.18
 94
-1056964608
 47
1.0
 49
1.0
140
1.0
293
     1
141
0.0
294
     1
177
     0
142
1.0
295
     0
296
     0
143
0.125
1001
ACAD_MLEADERVER
1070
     2
  0
MLINESTYLE
  5
A705
102
{ACAD_REACTORS
330
A704
102
}
330
A704
100
AcDbMlineStyle
  2
STANDARD
 70
     0
  3

 62
   256
 51
90.0
 52
90.0
 71
     2
 49
0.5
 62
   256
  6
BYLAYER
 49
-0.5
 62
   256
  6
BYLAYER
  0
ACDBPLACEHOLDER
  5
A95E
102
{ACAD_REACTORS
330
A95D
102
}
330
A95D
  0
SCALE
  5
A995
102
{ACAD_REACTORS
330
A994
102
}
330
A994
100
AcDbScale
 70
     0
300
1:1
140
1.0
141
1.0
290
     1
  0
SCALE
  5
A996
102
{ACAD_REACTORS
330
A994
102
}
330
A994
100
AcDbScale
 70
     0
300
1/128" = 1'-0"
140
0.0078125
141
12.0
290
     0
  0
SCALE
  5
A997
102
{ACAD_REACTORS
330
A994
102
}
330
A994
100
AcDbScale
 70
     0
300
1/64" = 1'-0"
140
0.015625
141
12.0
290
     0
  0
SCALE
  5
A998
102
{ACAD_REACTORS
330
A994
102
}
330
A994
100
AcDbScale
 70
     0
300
1/32" = 1'-0"
140
0.03125
141
12.0
290
     0
  0
SCALE
  5
A999
102
{ACAD_REACTORS
330
A994
102
}
330
A994
100
AcDbScale
 70
     0
300
1/16" = 1'-0"
140
0.0625
141
12.0
290
     0
  0
SCALE
  5
A99A
102
{ACAD_REACTORS
330
A994
102
}
330
A994
100
AcDbScale
 70
     0
300
3/32" = 1'-0"
140
0.09375
141
12.0
290
     0
  0
SCALE
  5
A99B
102
{ACAD_REACTORS
330
A994
102
}
330
A994
100
AcDbScale
 70
     0
300
1/8" = 1'-0"
140
0.125
141
12.0
290
     0
  0
SCALE
  5
A99C
102
{ACAD_REACTORS
330
A994
102
}
330
A994
100
AcDbScale
 70
     0
300
3/16" = 1'-0"
140
0.1875
141
12.0
290
     0
  0
SCALE
  5
A99D
102
{ACAD_REACTORS
330
A994
102
}
330
A994
100
AcDbScale
 70
     0
300
1/4" = 1'-0"
140
0.25
141
12.0
290
     0
  0
SCALE
  5
A99E
102
{ACAD_REACTORS
330
A994
102
}
330
A994
100
AcDbScale
 70
     0
300
3/8" = 1'-0"
140
0.375
141
12.0
290
     0
  0
SCALE
  5
A99F
102
{ACAD_REACTORS
330
A994
102
}
330
A994
100
AcDbScale
 70
     0
300
1/2" = 1'-0"
140
0.5
141
12.0
290
     0
  0
SCALE
  5
A9A0
102
{ACAD_REACTORS
330
A994
102
}
330
A994
100
AcDbScale
 70
     0
300
3/4" = 1'-0"
140
0.75
141
12.0
290
     0
  0
SCALE
  5
A9A1
102
{ACAD_REACTORS
330
A994
102
}
330
A994
100
AcDbScale
 70
     0
300
1" = 1'-0"
140
1.0
141
12.0
290
     0
  0
SCALE
  5
A9A2
102
{ACAD_REACTORS
330
A994
102
}
330
A994
100
AcDbScale
 70
     0
300
1-1/2" = 1'-0"
140
1.5
141
12.0
290
     0
  0
SCALE
  5
A9A3
102
{ACAD_REACTORS
330
A994
102
}
330
A994
100
AcDbScale
 70
     0
300
3" = 1'-0"
140
3.0
141
12.0
290
     0
  0
SCALE
  5
A9A4
102
{ACAD_REACTORS
330
A994
102
}
330
A994
100
AcDbScale
 70
     0
300
6" = 1'-0"
140
6.0
141
12.0
290
     0
  0
SCALE
  5
A9A5
102
{ACAD_REACTORS
330
A994
102
}
330
A994
100
AcDbScale
 70
     0
300
1'-0" = 1'-0"
140
12.0
141
12.0
290
     0
  0
ACDBSECTIONVIEWSTYLE
  5
A9A9
102
{ACAD_XDICTIONARY
360
AA04
102
}
102
{ACAD_REACTORS
330
A9A8
102
}
330
A9A8
100
AcDbModelDocViewStyle
 70
     0
  3
Imperial24
290
     0
100
AcDbSectionViewStyle
 70
     0
 71
     0
 90
       78
 71
     1
340
A6FF
 40
0.24
340
0
340
0
 40
0.24
300
I, O, Q, S, X, Z
 40
0.48
 90
        3
 40
0.18
 90
        1
 71
     2
340
A703
 90
       25
340
A703
 90
       50
 40
0.24
 40
0.0
 40
0.24
 71
     3
340
A6FF
 40
0.24
 90
        1
 40
0.75
 90
        1
300
%<\AcVar ViewType \f "%tc1">% %<\AcVar ViewSectionStartId>%-%<\AcVar ViewSectionEndId>%\PSCALE %<\AcVar ViewScale \f "%sn">%
 71
     4
300
ANSI31
 40
1.0
 90
        0
290
     0
290
     0
 90
        6
 40
0.0
 40
1.570796326794896
 40
0.2617993877991494
 40
1.308996938995747
 40
-0.2617993877991494
 40
1.832595714594046
  0
TABLESTYLE
  5
A993
102
{ACAD_XDICTIONARY
360
A9CB
102
}
102
{ACAD_REACTORS
330
A992
102
}
330
A992
100
AcDbTableStyle
  3
Standard
 70
     0
 71
     0
 40
0.06
 41
0.06
280
     0
281
     0
  7
STANDARD
140
0.18
170
     2
 62
     0
 63
     7
283
     0
274
    -2
284
     1
 64
     0
275
    -2
285
     1
 65
     0
276
    -2
286
     1
 66
     0
277
    -2
287
     1
 67
     0
278
    -2
288
     1
 68
     0
279
    -2
289
     1
 69
     0
  7
STANDARD
140
0.25
170
     5
 62
     0
 63
     7
283
     0
274
    -2
284
     1
 64
     0
275
    -2
285
     1
 65
     0
276
    -2
286
     1
 66
     0
277
    -2
287
     1
 67
     0
278
    -2
288
     1
 68
     0
279
    -2
289
     1
 69
     0
  7
STANDARD
140
0.18
170
     5
 62
     0
 63
     7
283
     0
274
    -2
284
     1
 64
     0
275
    -2
285
     1
 65
     0
276
    -2
286
     1
 66
     0
277
    -2
287
     1
 67
     0
278
    -2
288
     1
 68
     0
279
    -2
289
     1
 69
     0
  0
VISUALSTYLE
  5
A97E
102
{ACAD_XDICTIONARY
360
A9DC
102
}
102
{ACAD_REACTORS
330
A978
102
}
330
A978
100
AcDbVisualStyle
  2
2dWireframe
 70
     4
 71
     0
 72
     2
 73
     0
 90
        0
 40
-0.6
 41
-30.0
 62
     5
 63
     7
 74
     1
 91
        4
 64
     7
 65
   257
 75
     1
175
     1
 42
1.0
 92
        0
 66
   257
 43
1.0
 76
     1
 77
     6
 78
     2
 67
     7
 79
     5
170
     0
171
     0
290
     0
174
     0
 93
        1
 44
0.0
173
     0
291
     0
 45
0.0
1001
ACAD
1000
AcDbSavedByObjectVersion
1070
     0
  0
VISUALSTYLE
  5
A97D
102
{ACAD_XDICTIONARY
360
A9DA
102
}
102
{ACAD_REACTORS
330
A978
102
}
330
A978
100
AcDbVisualStyle
  2
Basic
 70
     7
 71
     1
 72
     0
 73
     1
 90
        0
 40
-0.6
 41
-30.0
 62
     5
 63
     7
 74
     0
 91
        4
 64
     7
 65
   257
 75
     1
175
     1
 42
1.0
 92
        8
 66
     7
 43
1.0
 76
     1
 77
     6
 78
     2
 67
     7
 79
     5
170
     0
171
     0
290
     0
174
     0
 93
        1
 44
0.0
173
     0
291
     1
 45
0.0
1001
ACAD
1000
AcDbSavedByObjectVersion
1070
     0
  0
VISUALSTYLE
  5
A984
102
{ACAD_XDICTIONARY
360
A9E8
102
}
102
{ACAD_REACTORS
330
A978
102
}
330
A978
100
AcDbVisualStyle
  2
Brighten
 70
    12
 71
     2
 72
     2
 73
     0
 90
        0
 40
-0.6
 41
-30.0
 62
     5
 63
     7
 74
     1
 91
        4
 64
     7
 65
   257
 75
     1
175
     1
 42
1.0
 92
        8
 66
     7
 43
1.0
 76
     1
 77
     6
 78
     2
 67
     7
 79
     5
170
     0
171
     0
290
     0
174
     0
 93
        1
 44
50.0
173
     0
291
     1
 45
0.0
1001
ACAD
1000
AcDbSavedByObjectVersion
1070
     0
  0
VISUALSTYLE
  5
A988
102
{ACAD_XDICTIONARY
360
A9F0
102
}
102
{ACAD_REACTORS
330
A978
102
}
330
A978
100
AcDbVisualStyle
  2
ColorChange
 70
    16
 71
     2
 72
     2
 73
     3
 90
        0
 40
-0.6
 41
-30.0
 62
     5
 63
     8
 74
     1
 91
        4
 64
     7
 65
   257
 75
     1
175
     1
 42
1.0
 92
        8
 66
     8
 43
1.0
 76
     1
 77
     6
 78
     2
 67
     7
 79
     5
170
     0
171
     0
290
     0
174
     0
 93
        1
 44
0.0
173
     0
291
     1
 45
0.0
1001
ACAD
1000
AcDbSavedByObjectVersion
1070
     0
  0
VISUALSTYLE
  5
A981
102
{ACAD_XDICTIONARY
360
A9E2
102
}
102
{ACAD_REACTORS
330
A978
102
}
330
A978
100
AcDbVisualStyle
  2
Conceptual
 70
     9
 71
     3
 72
     2
 73
     0
 90
        0
 40
-0.6
 41
-30.0
 62
     5
 63
     7
 74
     2
 91
        2
 64
     7
 65
   257
 75
     1
175
     1
 42
179.0
 92
        8
 66
     7
 43
1.0
 76
     1
 77
     6
 78
     2
 67
     7
 79
     3
170
     0
171
     0
290
     0
174
     0
 93
        1
 44
0.0
173
     0
291
     0
 45
0.0
1001
ACAD
1000
AcDbSavedByObjectVersion
1070
     0
  0
VISUALSTYLE
  5
A983
102
{ACAD_XDICTIONARY
360
A9E6
102
}
102
{ACAD_REACTORS
330
A978
102
}
330
A978
100
AcDbVisualStyle
  2
Dim
 70
    11
 71
     2
 72
     2
 73
     0
 90
        0
 40
-0.6
 41
-30.0
 62
     5
 63
     7
 74
     1
 91
        4
 64
     7
 65
   257
 75
     1
175
     1
 42
1.0
 92
        8
 66
     7
 43
1.0
 76
     1
 77
     6
 78
     2
 67
     7
 79
     5
170
     0
171
     0
290
     0
174
     0
 93
        1
 44
-50.0
173
     0
291
     1
 45
0.0
1001
ACAD
1000
AcDbSavedByObjectVersion
1070
     0
  0
VISUALSTYLE
  5
A990
102
{ACAD_XDICTIONARY
360
AA00
102
}
102
{ACAD_REACTORS
330
A978
102
}
330
A978
100
AcDbVisualStyle
  2
EdgeColorOff
 70
    22
 71
     2
 72
     2
 73
     0
 90
        0
 40
-0.6
 41
-30.0
 62
     5
 63
     7
 74
     1
 91
        4
 64
     7
 65
   257
 75
     1
175
     1
 42
1.0
 92
        8
 66
     7
 43
1.0
 76
     1
 77
     6
 78
     2
 67
     7
 79
     5
170
     0
171
     0
290
     0
174
     0
 93
        1
 44
0.0
173
     0
291
     1
 45
0.0
1001
ACAD
1000
AcDbSavedByObjectVersion
1070
     0
  0
VISUALSTYLE
  5
A987
102
{ACAD_XDICTIONARY
360
A9EE
102
}
102
{ACAD_REACTORS
330
A978
102
}
330
A978
100
AcDbVisualStyle
  2
Facepattern
 70
    15
 71
     2
 72
     2
 73
     0
 90
        0
 40
-0.6
 41
-30.0
 62
     5
 63
     7
 74
     1
 91
        4
 64
     7
 65
   257
 75
     1
175
     1
 42
1.0
 92
        8
 66
     7
 43
1.0
 76
     1
 77
     6
 78
     2
 67
     7
 79
     5
170
     0
171
     0
290
     0
174
     0
 93
        1
 44
0.0
173
     0
291
     1
 45
0.0
1001
ACAD
1000
AcDbSavedByObjectVersion
1070
     0
  0
VISUALSTYLE
  5
A979
102
{ACAD_XDICTIONARY
360
A9D2
102
}
102
{ACAD_REACTORS
330
A978
102
}
330
A978
100
AcDbVisualStyle
  2
Flat
 70
     0
 71
     2
 72
     1
 73
     1
 90
        2
 40
-0.6
 41
30.0
 62
     5
 63
     7
 74
     0
 91
        0
 64
     7
 65
   257
 75
     1
175
     1
 42
1.0
 92
        8
 66
     7
 43
1.0
 76
     1
 77
     6
 78
     2
 67
     7
 79
     5
170
     0
171
     0
290
     0
174
     0
 93
       13
 44
0.0
173
     0
291
     1
 45
0.0
1001
ACAD
1000
AcDbSavedByObjectVersion
1070
     0
  0
VISUALSTYLE
  5
A97A
102
{ACAD_XDICTIONARY
360
A9D4
102
}
102
{ACAD_REACTORS
330
A978
102
}
330
A978
100
AcDbVisualStyle
  2
FlatWithEdges
 70
     1
 71
     2
 72
     1
 73
     1
 90
        2
 40
-0.6
 41
30.0
 62
     5
 63
     7
 74
     1
 91
        0
 64
     7
 65
   257
 75
     1
175
     1
 42
1.0
 92
        0
 66
   257
 43
1.0
 76
     1
 77
     6
 78
     2
 67
     7
 79
     5
170
     0
171
     0
290
     0
174
     0
 93
       13
 44
0.0
173
     0
291
     1
 45
0.0
1001
ACAD
1000
AcDbSavedByObjectVersion
1070
     0
  0
VISUALSTYLE
  5
A97B
102
{ACAD_XDICTIONARY
360
A9D6
102
}
102
{ACAD_REACTORS
330
A978
102
}
330
A978
100
AcDbVisualStyle
  2
Gouraud
 70
     2
 71
     2
 72
     2
 73
     1
 90
        2
 40
-0.6
 41
30.0
 62
     5
 63
     7
 74
     0
 91
        0
 64
     7
 65
   257
 75
     1
175
     1
 42
1.0
 92
        0
 66
     7
 43
1.0
 76
     1
 77
     6
 78
     2
 67
     7
 79
     5
170
     0
171
     0
290
     0
174
     0
 93
       13
 44
0.0
173
     0
291
     1
 45
0.0
1001
ACAD
1000
AcDbSavedByObjectVersion
1070
     0
  0
VISUALSTYLE
  5
A97C
102
{ACAD_XDICTIONARY
360
A9D8
102
}
102
{ACAD_REACTORS
330
A978
102
}
330
A978
100
AcDbVisualStyle
  2
GouraudWithEdges
 70
     3
 71
     2
 72
     2
 73
     1
 90
        2
 40
-0.6
 41
30.0
 62
     5
 63
     7
 74
     1
 91
        0
 64
     7
 65
   257
 75
     1
175
     1
 42
1.0
 92
        0
 66
   257
 43
1.0
 76
     1
 77
     6
 78
     2
 67
     7
 79
     5
170
     0
171
     0
290
     0
174
     0
 93
       13
 44
0.0
173
     0
291
     1
 45
0.0
1001
ACAD
1000
AcDbSavedByObjectVersion
1070
     0
  0
VISUALSTYLE
  5
A980
102
{ACAD_XDICTIONARY
360
A9E0
102
}
102
{ACAD_REACTORS
330
A978
102
}
330
A978
100
AcDbVisualStyle
  2
Hidden
 70
     6
 71
     1
 72
     2
 73
     2
 90
        0
 40
-0.6
 41
-30.0
 62
     5
 63
     7
 74
     2
 91
        2
 64
     7
 65
   257
 75
     2
175
     1
 42
40.0
 92
        0
 66
   257
 43
1.0
 76
     1
 77
     6
 78
     2
 67
     7
 79
     3
170
     0
171
     0
290
     0
174
     0
 93
        1
 44
0.0
173
     0
291
     0
 45
0.0
1001
ACAD
1000
AcDbSavedByObjectVersion
1070
     0
  0
VISUALSTYLE
  5
A98E
102
{ACAD_XDICTIONARY
360
A9FC
102
}
102
{ACAD_REACTORS
330
A978
102
}
330
A978
100
AcDbVisualStyle
  2
JitterOff
 70
    20
 71
     2
 72
     2
 73
     0
 90
        0
 40
-0.6
 41
-30.0
 62
     5
 63
     7
 74
     1
 91
        4
 64
     7
 65
   257
 75
     1
175
     1
 42
1.0
 92
       10
 66
     7
 43
1.0
 76
     1
 77
     6
 78
     2
 67
     7
 79
     5
170
     0
171
     0
290
     0
174
     0
 93
        1
 44
0.0
173
     0
291
     1
 45
0.0
1001
ACAD
1000
AcDbSavedByObjectVersion
1070
     0
  0
VISUALSTYLE
  5
A986
102
{ACAD_XDICTIONARY
360
A9EC
102
}
102
{ACAD_REACTORS
330
A978
102
}
330
A978
100
AcDbVisualStyle
  2
Linepattern
 70
    14
 71
     2
 72
     2
 73
     0
 90
        0
 40
-0.6
 41
-30.0
 62
     5
 63
     7
 74
     1
 91
        4
 64
     7
 65
   257
 75
     7
175
     7
 42
1.0
 92
        8
 66
     7
 43
1.0
 76
     1
 77
     6
 78
     2
 67
     7
 79
     5
170
     0
171
     0
290
     0
174
     0
 93
        1
 44
0.0
173
     0
291
     1
 45
0.0
1001
ACAD
1000
AcDbSavedByObjectVersion
1070
     0
  0
VISUALSTYLE
  5
A98F
102
{ACAD_XDICTIONARY
360
A9FE
102
}
102
{ACAD_REACTORS
330
A978
102
}
330
A978
100
AcDbVisualStyle
  2
OverhangOff
 70
    21
 71
     2
 72
     2
 73
     0
 90
        0
 40
-0.6
 41
-30.0
 62
     5
 63
     7
 74
     1
 91
        4
 64
     7
 65
   257
 75
     1
175
     1
 42
1.0
 92
        9
 66
     7
 43
1.0
 76
     1
 77
     6
 78
     2
 67
     7
 79
     5
170
     0
171
     0
290
     0
174
     0
 93
        1
 44
0.0
173
     0
291
     1
 45
0.0
1001
ACAD
1000
AcDbSavedByObjectVersion
1070
     0
  0
VISUALSTYLE
  5
A982
102
{ACAD_XDICTIONARY
360
A9E4
102
}
102
{ACAD_REACTORS
330
A978
102
}
330
A978
100
AcDbVisualStyle
  2
Realistic
 70
     8
 71
     2
 72
     3
 73
     0
 90
        2
 40
-0.6
 41
30.0
 62
     5
 63
     7
 74
     0
 91
        0
 64
     7
 65
   257
 75
     1
175
     1
 42
1.0
 92
        8
 66
   257
 43
1.0
 76
     1
 77
     6
 78
     2
 67
     7
 79
     3
170
     0
171
     0
290
     0
174
     0
 93
       13
 44
0.0
173
     0
291
     0
 45
0.0
1001
ACAD
1000
AcDbSavedByObjectVersion
1070
     0
  0
VISUALSTYLE
  5
A98D
102
{ACAD_XDICTIONARY
360
A9FA
102
}
102
{ACAD_REACTORS
330
A978
102
}
330
A978
100
AcDbVisualStyle
  2
Shaded
 70
    27
 71
     2
 72
     2
 73
     1
 90
        2
 40
-0.6
 41
30.0
 62
     5
 63
     7
 74
     0
 91
        4
 64
     7
 65
   257
 75
     1
175
     1
 42
1.0
 92
        8
 66
   257
 43
1.0
 76
     1
 77
     6
 78
     2
 67
     8
 79
     3
170
     0
171
     0
290
     0
174
     0
 93
        5
 44
0.0
173
     0
291
     0
 45
0.0
1001
ACAD
1000
AcDbSavedByObjectVersion
1070
     0
  0
VISUALSTYLE
  5
A98C
102
{ACAD_XDICTIONARY
360
A9F8
102
}
102
{ACAD_REACTORS
330
A978
102
}
330
A978
100
AcDbVisualStyle
  2
Shaded with edges
 70
    26
 71
     2
 72
     2
 73
     1
 90
        2
 40
-0.6
 41
30.0
 62
     5
 63
     7
 74
     1
 91
       10
 64
     7
 65
   257
 75
     2
175
     1
 42
1.0
 92
        8
 66
   257
 43
1.0
 76
     1
 77
     6
 78
     2
 67
     7
 79
     3
170
     0
171
     0
290
     0
174
     0
 93
        5
 44
0.0
173
     0
291
     0
 45
0.0
1001
ACAD
1000
AcDbSavedByObjectVersion
1070
     0
  0
VISUALSTYLE
  5
A989
102
{ACAD_XDICTIONARY
360
A9F2
102
}
102
{ACAD_REACTORS
330
A978
102
}
330
A978
100
AcDbVisualStyle
  2
Shades of Gray
 70
    23
 71
     2
 72
     2
 73
     3
 90
        0
 40
-0.6
 41
-30.0
 62
     5
 63
     7
 74
     2
 91
        2
 64
     7
 65
     7
 75
     1
175
     1
 42
40.0
 92
        8
 66
     7
 43
1.0
 76
     1
 77
     6
 78
     2
 67
     7
 79
     3
170
     0
171
     0
290
     0
174
     0
 93
        1
 44
0.0
173
     0
291
     0
 45
0.0
1001
ACAD
1000
AcDbSavedByObjectVersion
1070
     0
  0
VISUALSTYLE
  5
A98A
102
{ACAD_XDICTIONARY
360
A9F4
102
}
102
{ACAD_REACTORS
330
A978
102
}
330
A978
100
AcDbVisualStyle
  2
Sketchy
 70
    24
 71
     1
 72
     2
 73
     2
 90
        0
 40
-0.6
 41
-30.0
 62
     5
 63
     7
 74
     2
 91
        2
 64
     7
 65
     7
 75
     1
175
     1
 42
40.0
 92
       11
 66
     7
 43
1.0
 76
     1
 77
     6
 78
     2
 67
     7
 79
     6
170
     0
171
     0
290
     0
174
     0
 93
        1
 44
0.0
173
     0
291
     0
 45
0.0
1001
ACAD
1000
AcDbSavedByObjectVersion
1070
     0
  0
VISUALSTYLE
  5
A985
102
{ACAD_XDICTIONARY
360
A9EA
102
}
102
{ACAD_REACTORS
330
A978
102
}
330
A978
100
AcDbVisualStyle
  2
Thicken
 70
    13
 71
     2
 72
     2
 73
     0
 90
        0
 40
-0.6
 41
-30.0
 62
     5
 63
     7
 74
     1
 91
        4
 64
     7
 65
   257
 75
     1
175
     1
 42
1.0
 92
       12
 66
     7
 43
1.0
 76
     1
 77
     6
 78
     2
 67
     7
 79
     5
170
     0
171
     0
290
     0
174
     0
 93
        1
 44
0.0
173
     0
291
     1
 45
0.0
1001
ACAD
1000
AcDbSavedByObjectVersion
1070
     0
  0
VISUALSTYLE
  5
A97F
102
{ACAD_XDICTIONARY
360
A9DE
102
}
102
{ACAD_REACTORS
330
A978
102
}
330
A978
100
AcDbVisualStyle
  2
Wireframe
 70
     5
 71
     0
 72
     2
 73
     0
 90
        0
 40
-0.6
 41
-30.0
 62
     5
 63
     7
 74
     1
 91
        4
 64
     7
 65
   257
 75
     1
175
     1
 42
1.0
 92
        0
 66
   257
 43
1.0
 76
     1
 77
     6
 78
     2
 67
     7
 79
     3
170
     0
171
     0
290
     0
174
     0
 93
        1
 44
0.0
173
     0
291
     0
 45
0.0
1001
ACAD
1000
AcDbSavedByObjectVersion
1070
     0
  0
VISUALSTYLE
  5
A98B
102
{ACAD_XDICTIONARY
360
A9F6
102
}
102
{ACAD_REACTORS
330
A978
102
}
330
A978
100
AcDbVisualStyle
  2
X-Ray
 70
    25
 71
     2
 72
     2
 73
     1
 90
        1
 40
0.5
 41
-30.0
 62
     5
 63
     7
 74
     1
 91
        0
 64
     7
 65
   257
 75
     1
175
     1
 42
1.0
 92
        8
 66
     7
 43
1.0
 76
     1
 77
     6
 78
     2
 67
     7
 79
     3
170
     0
171
     0
290
     0
174
     0
 93
       13
 44
0.0
173
     0
291
     0
 45
0.0
1001
ACAD
1000
AcDbSavedByObjectVersion
1070
     0
  0
DICTIONARYVAR
  5
A9C5
102
{ACAD_REACTORS
330
A9C0
102
}
330
A9C0
100
DictionaryVariables
280
     0
  1
1:1
  0
DICTIONARYVAR
  5
A9C2
102
{ACAD_REACTORS
330
A9C0
102
}
330
A9C0
100
DictionaryVariables
280
     0
  1
STANDARD
  0
DICTIONARYVAR
  5
A9C1
102
{ACAD_REACTORS
330
A9C0
102
}
330
A9C0
100
DictionaryVariables
280
     0
  1
STANDARD
  0
DICTIONARYVAR
  5
A9C3
102
{ACAD_REACTORS
330
A9C0
102
}
330
A9C0
100
DictionaryVariables
280
     0
  1
Imperial24
  0
DICTIONARYVAR
  5
A9C4
102
{ACAD_REACTORS
330
A9C0
102
}
330
A9C0
100
DictionaryVariables
280
     0
  1
Imperial24
  0
DICTIONARYVAR
  5
A9C8
102
{ACAD_REACTORS
330
A9C0
102
}
330
A9C0
100
DictionaryVariables
280
     0
  1
1
  0
DICTIONARYVAR
  5
A9C7
102
{ACAD_REACTORS
330
A9C0
102
}
330
A9C0
100
DictionaryVariables
280
     0
  1
0
  0
DICTIONARYVAR
  5
A9C6
102
{ACAD_REACTORS
330
A9C0
102
}
330
A9C0
100
DictionaryVariables
280
     0
  1
127
  0
DICTIONARYVAR
  5
A9C9
102
{ACAD_REACTORS
330
A9C0
102
}
330
A9C0
100
DictionaryVariables
280
     0
  1
2
  0
DICTIONARY
  5
AA06
330
A9AB
100
AcDbDictionary
280
     1
281
     1
  3
ACAD_XREC_ROUNDTRIP
360
AA07
  0
DICTIONARY
  5
AA08
330
A9AC
100
AcDbDictionary
280
     1
281
     1
  3
ACAD_XREC_ROUNDTRIP
360
AA09
  0
DICTIONARY
  5
AA0A
330
A9AD
100
AcDbDictionary
280
     1
281
     1
  3
ACAD_XREC_ROUNDTRIP
360
AA0B
  0
DICTIONARY
  5
A969
330
A968
100
AcDbDictionary
280
     1
281
     1
  3
ACAD_XREC_ROUNDTRIP
360
A9D0
  3
BUMPTILE
360
A96B
  3
DIFFUSETILE
360
A96A
  3
OPACITYTILE
360
A96E
  3
REFLECTIONTILE
360
A96D
  3
REFRACTIONTILE
360
A96F
  3
SPECULARTILE
360
A96C
  0
DICTIONARY
  5
A961
330
A960
100
AcDbDictionary
280
     1
281
     1
  3
ACAD_XREC_ROUNDTRIP
360
A9CF
  3
BUMPTILE
360
A963
  3
DIFFUSETILE
360
A962
  3
OPACITYTILE
360
A966
  3
REFLECTIONTILE
360
A965
  3
REFRACTIONTILE
360
A967
  3
SPECULARTILE
360
A964
  0
DICTIONARY
  5
A971
330
A970
100
AcDbDictionary
280
     1
281
     1
  3
ACAD_XREC_ROUNDTRIP
360
A9D1
  3
BUMPTILE
360
A973
  3
DIFFUSETILE
360
A972
  3
OPACITYTILE
360
A976
  3
REFLECTIONTILE
360
A975
  3
REFRACTIONTILE
360
A977
  3
SPECULARTILE
360
A974
  0
DICTIONARY
  5
AA04
330
A9A9
100
AcDbDictionary
280
     1
281
     1
  3
ACAD_XREC_ROUNDTRIP
360
AA05
  0
DICTIONARY
  5
A9CB
330
A993
100
AcDbDictionary
280
     1
281
     1
  3
ACAD_ROUNDTRIP_2008_TABLESTYLE_CELLSTYLEMAP
360
A9CC
  3
ACAD_XREC_ROUNDTRIP
360
AA02
  0
DICTIONARY
  5
A9DC
330
A97E
100
AcDbDictionary
280
     1
281
     1
  3
ACAD_XREC_ROUNDTRIP
360
A9DD
  0
DICTIONARY
  5
A9DA
330
A97D
100
AcDbDictionary
280
     1
281
     1
  3
ACAD_XREC_ROUNDTRIP
360
A9DB
  0
DICTIONARY
  5
A9E8
330
A984
100
AcDbDictionary
280
     1
281
     1
  3
ACAD_XREC_ROUNDTRIP
360
A9E9
  0
DICTIONARY
  5
A9F0
330
A988
100
AcDbDictionary
280
     1
281
     1
  3
ACAD_XREC_ROUNDTRIP
360
A9F1
  0
DICTIONARY
  5
A9E2
330
A981
100
AcDbDictionary
280
     1
281
     1
  3
ACAD_XREC_ROUNDTRIP
360
A9E3
  0
DICTIONARY
  5
A9E6
330
A983
100
AcDbDictionary
280
     1
281
     1
  3
ACAD_XREC_ROUNDTRIP
360
A9E7
  0
DICTIONARY
  5
AA00
330
A990
100
AcDbDictionary
280
     1
281
     1
  3
ACAD_XREC_ROUNDTRIP
360
AA01
  0
DICTIONARY
  5
A9EE
330
A987
100
AcDbDictionary
280
     1
281
     1
  3
ACAD_XREC_ROUNDTRIP
360
A9EF
  0
DICTIONARY
  5
A9D2
330
A979
100
AcDbDictionary
280
     1
281
     1
  3
ACAD_XREC_ROUNDTRIP
360
A9D3
  0
DICTIONARY
  5
A9D4
330
A97A
100
AcDbDictionary
280
     1
281
     1
  3
ACAD_XREC_ROUNDTRIP
360
A9D5
  0
DICTIONARY
  5
A9D6
330
A97B
100
AcDbDictionary
280
     1
281
     1
  3
ACAD_XREC_ROUNDTRIP
360
A9D7
  0
DICTIONARY
  5
A9D8
330
A97C
100
AcDbDictionary
280
     1
281
     1
  3
ACAD_XREC_ROUNDTRIP
360
A9D9
  0
DICTIONARY
  5
A9E0
330
A980
100
AcDbDictionary
280
     1
281
     1
  3
ACAD_XREC_ROUNDTRIP
360
A9E1
  0
DICTIONARY
  5
A9FC
330
A98E
100
AcDbDictionary
280
     1
281
     1
  3
ACAD_XREC_ROUNDTRIP
360
A9FD
  0
DICTIONARY
  5
A9EC
330
A986
100
AcDbDictionary
280
     1
281
     1
  3
ACAD_XREC_ROUNDTRIP
360
A9ED
  0
DICTIONARY
  5
A9FE
330
A98F
100
AcDbDictionary
280
     1
281
     1
  3
ACAD_XREC_ROUNDTRIP
360
A9FF
  0
DICTIONARY
  5
A9E4
330
A982
100
AcDbDictionary
280
     1
281
     1
  3
ACAD_XREC_ROUNDTRIP
360
A9E5
  0
DICTIONARY
  5
A9FA
330
A98D
100
AcDbDictionary
280
     1
281
     1
  3
ACAD_XREC_ROUNDTRIP
360
A9FB
  0
DICTIONARY
  5
A9F8
330
A98C
100
AcDbDictionary
280
     1
281
     1
  3
ACAD_XREC_ROUNDTRIP
360
A9F9
  0
DICTIONARY
  5
A9F2
330
A989
100
AcDbDictionary
280
     1
281
     1
  3
ACAD_XREC_ROUNDTRIP
360
A9F3
  0
DICTIONARY
  5
A9F4
330
A98A
100
AcDbDictionary
280
     1
281
     1
  3
ACAD_XREC_ROUNDTRIP
360
A9F5
  0
DICTIONARY
  5
A9EA
330
A985
100
AcDbDictionary
280
     1
281
     1
  3
ACAD_XREC_ROUNDTRIP
360
A9EB
  0
DICTIONARY
  5
A9DE
330
A97F
100
AcDbDictionary
280
     1
281
     1
  3
ACAD_XREC_ROUNDTRIP
360
A9DF
  0
DICTIONARY
  5
A9F6
330
A98B
100
AcDbDictionary
280
     1
281
     1
  3
ACAD_XREC_ROUNDTRIP
360
A9F7
  0
XRECORD
  5
AA07
102
{ACAD_REACTORS
330
AA06
102
}
330
AA06
100
AcDbXrecord
280
     1
102
DISPLAYNAME
  1
Imperial24
102
FLAGS
 90
        0
  0
XRECORD
  5
AA09
102
{ACAD_REACTORS
330
AA08
102
}
330
AA08
100
AcDbXrecord
280
     1
102
SHADEPLOT
 70
     0
102
SHADEPLOTRESLEVEL
 70
     2
102
SHADEPLOTCUSTOMDPI
 70
   300
  0
XRECORD
  5
AA0B
102
{ACAD_REACTORS
330
AA0A
102
}
330
AA0A
100
AcDbXrecord
280
     1
102
SHADEPLOT
 70
     0
102
SHADEPLOTRESLEVEL
 70
     2
102
SHADEPLOTCUSTOMDPI
 70
   300
  0
XRECORD
  5
A9D0
102
{ACAD_REACTORS
330
A969
102
}
330
A969
100
AcDbXrecord
280
     1
102
MATERIAL
148
0.0
149
0.0
149
0.0
 93
        0
 94
      127
282
     0
 72
     0
 77
     0
171
     0
175
     0
179
     0
273
     0
  0
XRECORD
  5
A96B
102
{ACAD_REACTORS
330
A969
102
}
330
A969
100
AcDbXrecord
280
     1
270
     1
271
     1
  0
XRECORD
  5
A96A
102
{ACAD_REACTORS
330
A969
102
}
330
A969
100
AcDbXrecord
280
     1
270
     1
271
     1
  0
XRECORD
  5
A96E
102
{ACAD_REACTORS
330
A969
102
}
330
A969
100
AcDbXrecord
280
     1
270
     1
271
     1
  0
XRECORD
  5
A96D
102
{ACAD_REACTORS
330
A969
102
}
330
A969
100
AcDbXrecord
280
     1
270
     1
271
     1
  0
XRECORD
  5
A96F
102
{ACAD_REACTORS
330
A969
102
}
330
A969
100
AcDbXrecord
280
     1
270
     1
271
     1
  0
XRECORD
  5
A96C
102
{ACAD_REACTORS
330
A969
102
}
330
A969
100
AcDbXrecord
280
     1
270
     1
271
     1
  0
XRECORD
  5
A9CF
102
{ACAD_REACTORS
330
A961
102
}
330
A961
100
AcDbXrecord
280
     1
102
MATERIAL
148
0.0
149
0.0
149
0.0
 93
        0
 94
      127
282
     0
 72
     0
 77
     0
171
     0
175
     0
179
     0
273
     0
  0
XRECORD
  5
A963
102
{ACAD_REACTORS
330
A961
102
}
330
A961
100
AcDbXrecord
280
     1
270
     1
271
     1
  0
XRECORD
  5
A962
102
{ACAD_REACTORS
330
A961
102
}
330
A961
100
AcDbXrecord
280
     1
270
     1
271
     1
  0
XRECORD
  5
A966
102
{ACAD_REACTORS
330
A961
102
}
330
A961
100
AcDbXrecord
280
     1
270
     1
271
     1
  0
XRECORD
  5
A965
102
{ACAD_REACTORS
330
A961
102
}
330
A961
100
AcDbXrecord
280
     1
270
     1
271
     1
  0
XRECORD
  5
A967
102
{ACAD_REACTORS
330
A961
102
}
330
A961
100
AcDbXrecord
280
     1
270
     1
271
     1
  0
XRECORD
  5
A964
102
{ACAD_REACTORS
330
A961
102
}
330
A961
100
AcDbXrecord
280
     1
270
     1
271
     1
  0
XRECORD
  5
A9D1
102
{ACAD_REACTORS
330
A971
102
}
330
A971
100
AcDbXrecord
280
     1
102
MATERIAL
148
0.0
149
0.0
149
0.0
 93
        0
 94
      127
282
     0
 72
     0
 77
     0
171
     0
175
     0
179
     0
273
     0
  0
XRECORD
  5
A973
102
{ACAD_REACTORS
330
A971
102
}
330
A971
100
AcDbXrecord
280
     1
270
     1
271
     1
  0
XRECORD
  5
A972
102
{ACAD_REACTORS
330
A971
102
}
330
A971
100
AcDbXrecord
280
     1
270
     1
271
     1
  0
XRECORD
  5
A976
102
{ACAD_REACTORS
330
A971
102
}
330
A971
100
AcDbXrecord
280
     1
270
     1
271
     1
  0
XRECORD
  5
A975
102
{ACAD_REACTORS
330
A971
102
}
330
A971
100
AcDbXrecord
280
     1
270
     1
271
     1
  0
XRECORD
  5
A977
102
{ACAD_REACTORS
330
A971
102
}
330
A971
100
AcDbXrecord
280
     1
270
     1
271
     1
  0
XRECORD
  5
A974
102
{ACAD_REACTORS
330
A971
102
}
330
A971
100
AcDbXrecord
280
     1
270
     1
271
     1
  0
XRECORD
  5
AA05
102
{ACAD_REACTORS
330
AA04
102
}
330
AA04
100
AcDbXrecord
280
     1
102
DISPLAYNAME
  1
Imperial24
102
FLAGS
 90
        0
  0
CELLSTYLEMAP
  5
A9CC
102
{ACAD_REACTORS
330
A9CB
102
}
330
A9CB
100
AcDbCellStyleMap
 90
        3
300
CELLSTYLE
  1
TABLEFORMAT_BEGIN
 90
        5
170
     1
 91
        0
 92
    32768
 62
   257
 93
        1
300
CONTENTFORMAT
  1
CONTENTFORMAT_BEGIN
 90
        0
 91
        0
 92
      512
 93
        0
300

 40
0.0
140
1.0
 94
        5
 62
     0
340
A6FF
144
0.25
309
CONTENTFORMAT_END
171
     0
 94
        0
309
TABLEFORMAT_END
  1
CELLSTYLE_BEGIN
 90
        1
 91
        1
300
_TITLE
309
CELLSTYLE_END
300
CELLSTYLE
  1
TABLEFORMAT_BEGIN
 90
        5
170
     1
 91
        0
 92
        0
 62
   257
 93
        1
300
CONTENTFORMAT
  1
CONTENTFORMAT_BEGIN
 90
        0
 91
        0
 92
      512
 93
        0
300

 40
0.0
140
1.0
 94
        5
 62
     0
340
A6FF
144
0.18
309
CONTENTFORMAT_END
171
     0
 94
        0
309
TABLEFORMAT_END
  1
CELLSTYLE_BEGIN
 90
        2
 91
        1
300
_HEADER
309
CELLSTYLE_END
300
CELLSTYLE
  1
TABLEFORMAT_BEGIN
 90
        5
170
     1
 91
        0
 92
        0
 62
   257
 93
        1
300
CONTENTFORMAT
  1
CONTENTFORMAT_BEGIN
 90
        0
 91
        0
 92
      512
 93
        0
300

 40
0.0
140
1.0
 94
        2
 62
     0
340
A6FF
144
0.18
309
CONTENTFORMAT_END
171
     0
 94
        0
309
TABLEFORMAT_END
  1
CELLSTYLE_BEGIN
 90
        3
 91
        2
300
_DATA
309
CELLSTYLE_END
  0
XRECORD
  5
AA02
102
{ACAD_REACTORS
330
A9CB
102
}
330
A9CB
100
AcDbXrecord
280
     1
102
ACAD_ROUNDTRIP_PRE2007_TABLESTYLE
 90
      512
 91
        0
  1

 92
      512
 93
        0
  2

 94
      512
 95
        0
  3

  0
XRECORD
  5
A9DD
102
{ACAD_REACTORS
330
A9DC
102
}
330
A9DC
100
AcDbXrecord
280
     1
102
RTVSPost2010Prop28
280
     1
102
RTVSPost2010PropOp28
 70
     1
102
RTVSPost2010Prop29
280
     1
102
RTVSPost2010PropOp29
 70
     1
102
RTVSPost2010Prop30
280
     0
102
RTVSPost2010PropOp30
 70
     1
102
RTVSPost2010Prop31
280
     0
102
RTVSPost2010PropOp31
 70
     1
102
RTVSPost2010Prop32
280
     0
102
RTVSPost2010PropOp32
 70
     1
102
RTVSPost2010Prop33
280
     0
102
RTVSPost2010PropOp33
 70
     1
102
RTVSPost2010Prop34
280
     0
102
RTVSPost2010PropOp34
 70
     1
102
RTVSPost2010Prop35
280
     0
102
RTVSPost2010PropOp35
 70
     1
102
RTVSPost2010Prop36
280
     0
102
RTVSPost2010PropOp36
 70
     1
102
RTVSPost2010Prop37
 90
       50
102
RTVSPost2010PropOp37
 70
     1
102
RTVSPost2010Prop38
140
0.0
102
RTVSPost2010PropOp38
 70
     1
102
RTVSPost2010Prop39
140
1.0
102
RTVSPost2010PropOp39
 70
     1
102
RTVSPost2010Prop40
 90
        0
102
RTVSPost2010PropOp40
 70
     1
102
RTVSPost2010Prop41ColorIndex
 90
       18
102
RTVSPost2010Prop41ColorRGB
 90
        0
102
RTVSPost2010PropOp41
 70
     1
102
RTVSPost2010Prop42
 90
       50
102
RTVSPost2010PropOp42
 70
     1
102
RTVSPost2010Prop43
 90
        3
102
RTVSPost2010PropOp43
 70
     1
102
RTVSPost2010Prop44ColorIndex
 90
        5
102
RTVSPost2010Prop44ColorRGB
 90
      255
102
RTVSPost2010PropOp44
 70
     1
102
RTVSPost2010Prop45
280
     0
102
RTVSPost2010PropOp45
 70
     1
102
RTVSPost2010Prop46
 90
       50
102
RTVSPost2010PropOp46
 70
     1
102
RTVSPost2010Prop47
 90
       50
102
RTVSPost2010PropOp47
 70
     1
102
RTVSPost2010Prop48
 90
       50
102
RTVSPost2010PropOp48
 70
     1
102
RTVSPost2010Prop49
280
     0
102
RTVSPost2010PropOp49
 70
     1
102
RTVSPost2010Prop50
 90
       50
102
RTVSPost2010PropOp50
 70
     1
102
RTVSPost2010Prop51ColorIndex
 90
      256
102
RTVSPost2010Prop51ColorRGB
 90
-16777216
102
RTVSPost2010PropOp51
 70
     0
102
RTVSPost2010Prop52
140
1.0
102
RTVSPost2010PropOp52
 70
     0
102
RTVSPost2010Prop53
 90
        2
102
RTVSPost2010PropOp53
 70
     1
102
RTVSPost2010Prop54
  1
strokes_ogs.tif
102
RTVSPost2010PropOp54
 70
     1
102
RTVSPost2010Prop55
280
     0
102
RTVSPost2010PropOp55
 70
     1
102
RTVSPost2010Prop56
140
1.0
102
RTVSPost2010PropOp56
 70
     1
102
RTVSPost2010Prop57
140
1.0
102
RTVSPost2010PropOp57
 70
     1
102
RTVSPropertyOp0
 70
     1
102
RTVSPropertyOp1
 70
     1
102
RTVSPropertyOp2
 70
     1
102
RTVSPropertyOp3
 70
     1
102
RTVSPropertyOp4
 70
     1
102
RTVSPropertyOp5
 70
     1
102
RTVSPropertyOp6
 70
     1
102
RTVSPropertyOp7
 70
     1
102
RTVSPropertyOp8
 70
     1
102
RTVSPropertyOp9
 70
     1
102
RTVSPropertyOp10
 70
     1
102
RTVSPropertyOp11
 70
     1
102
RTVSPropertyOp12
 70
     1
102
RTVSPropertyOp13
 70
     1
102
RTVSPropertyOp14
 70
     1
102
RTVSPropertyOp15
 70
     1
102
RTVSPropertyOp16
 70
     1
102
RTVSPropertyOp17
 70
     1
102
RTVSPropertyOp18
 70
     1
102
RTVSPropertyOp19
 70
     1
102
RTVSPropertyOp20
 70
     1
102
RTVSPropertyOp21
 70
     1
102
RTVSPropertyOp22
 70
     1
102
RTVSPropertyOp23
 70
     1
102
RTVSPropertyOp24
 70
     1
102
RTVSPropertyOp25
 70
     1
102
RTVSPropertyOp26
 70
     1
102
RTVSPropertyOp27
 70
     1
102
RTVSPropertyOp28
 70
     1
102
RTVSPropertyOp29
 70
     1
102
RTVSPropertyOp30
 70
     1
102
RTVSPropertyOp31
 70
     1
102
RTVSPropertyOp32
 70
     1
102
RTVSPropertyOp33
 70
     1
102
RTVSPropertyOp34
 70
     1
102
RTVSPropertyOp35
 70
     1
102
RTVSPropertyOp36
 70
     1
102
RTVSPropertyOp37
 70
     1
102
RTVSPropertyOp38
 70
     1
102
RTVSPropertyOp39
 70
     1
102
RTVSPropertyOp40
 70
     1
102
RTVSPropertyOp41
 70
     1
102
RTVSPropertyOp42
 70
     1
102
RTVSPropertyOp43
 70
     1
102
RTVSPropertyOp44
 70
     1
102
RTVSPropertyOp45
 70
     1
102
RTVSPropertyOp46
 70
     1
102
RTVSPropertyOp47
 70
     1
102
RTVSPropertyOp48
 70
     1
102
RTVSPropertyOp49
 70
     1
102
RTVSPropertyOp50
 70
     1
102
RTVSPropertyOp51
 70
     0
102
RTVSPropertyOp52
 70
     0
102
RTVSPropertyOp53
 70
     1
102
RTVSPropertyOp54
 70
     1
102
RTVSPropertyOp55
 70
     1
102
RTVSPropertyOp56
 70
     1
102
RTVSPropertyOp57
 70
     1
102
RTVSPropertyOp58
 70
     1
102
RTVSPropertyOp59
 70
     1
102
RTVSPropertyOp60
 70
     1
102
RTVSPropertyOp61
 70
     1
102
RTVSPropertyOp62
 70
     1
  0
XRECORD
  5
A9DB
102
{ACAD_REACTORS
330
A9DA
102
}
330
A9DA
100
AcDbXrecord
280
     1
102
RTVSPost2010Prop28
280
     0
102
RTVSPost2010PropOp28
 70
     1
102
RTVSPost2010Prop29
280
     1
102
RTVSPost2010PropOp29
 70
     1
102
RTVSPost2010Prop30
280
     1
102
RTVSPost2010PropOp30
 70
     1
102
RTVSPost2010Prop31
280
     0
102
RTVSPost2010PropOp31
 70
     1
102
RTVSPost2010Prop32
280
     0
102
RTVSPost2010PropOp32
 70
     1
102
RTVSPost2010Prop33
280
     0
102
RTVSPost2010PropOp33
 70
     1
102
RTVSPost2010Prop34
280
     0
102
RTVSPost2010PropOp34
 70
     1
102
RTVSPost2010Prop35
280
     0
102
RTVSPost2010PropOp35
 70
     1
102
RTVSPost2010Prop36
280
     0
102
RTVSPost2010PropOp36
 70
     1
102
RTVSPost2010Prop37
 90
       50
102
RTVSPost2010PropOp37
 70
     1
102
RTVSPost2010Prop38
140
0.0
102
RTVSPost2010PropOp38
 70
     1
102
RTVSPost2010Prop39
140
1.0
102
RTVSPost2010PropOp39
 70
     1
102
RTVSPost2010Prop40
 90
        0
102
RTVSPost2010PropOp40
 70
     1
102
RTVSPost2010Prop41ColorIndex
 90
       18
102
RTVSPost2010Prop41ColorRGB
 90
        0
102
RTVSPost2010PropOp41
 70
     1
102
RTVSPost2010Prop42
 90
       50
102
RTVSPost2010PropOp42
 70
     1
102
RTVSPost2010Prop43
 90
        3
102
RTVSPost2010PropOp43
 70
     1
102
RTVSPost2010Prop44ColorIndex
 90
        5
102
RTVSPost2010Prop44ColorRGB
 90
      255
102
RTVSPost2010PropOp44
 70
     1
102
RTVSPost2010Prop45
280
     0
102
RTVSPost2010PropOp45
 70
     1
102
RTVSPost2010Prop46
 90
       50
102
RTVSPost2010PropOp46
 70
     1
102
RTVSPost2010Prop47
 90
       50
102
RTVSPost2010PropOp47
 70
     1
102
RTVSPost2010Prop48
 90
       50
102
RTVSPost2010PropOp48
 70
     1
102
RTVSPost2010Prop49
280
     0
102
RTVSPost2010PropOp49
 70
     1
102
RTVSPost2010Prop50
 90
       50
102
RTVSPost2010PropOp50
 70
     1
102
RTVSPost2010Prop51ColorIndex
 90
      256
102
RTVSPost2010Prop51ColorRGB
 90
-16777216
102
RTVSPost2010PropOp51
 70
     0
102
RTVSPost2010Prop52
140
1.0
102
RTVSPost2010PropOp52
 70
     0
102
RTVSPost2010Prop53
 90
        2
102
RTVSPost2010PropOp53
 70
     1
102
RTVSPost2010Prop54
  1
strokes_ogs.tif
102
RTVSPost2010PropOp54
 70
     1
102
RTVSPost2010Prop55
280
     0
102
RTVSPost2010PropOp55
 70
     1
102
RTVSPost2010Prop56
140
1.0
102
RTVSPost2010PropOp56
 70
     1
102
RTVSPost2010Prop57
140
1.0
102
RTVSPost2010PropOp57
 70
     1
102
RTVSPropertyOp0
 70
     1
102
RTVSPropertyOp1
 70
     1
102
RTVSPropertyOp2
 70
     1
102
RTVSPropertyOp3
 70
     1
102
RTVSPropertyOp4
 70
     1
102
RTVSPropertyOp5
 70
     1
102
RTVSPropertyOp6
 70
     1
102
RTVSPropertyOp7
 70
     1
102
RTVSPropertyOp8
 70
     1
102
RTVSPropertyOp9
 70
     1
102
RTVSPropertyOp10
 70
     1
102
RTVSPropertyOp11
 70
     1
102
RTVSPropertyOp12
 70
     1
102
RTVSPropertyOp13
 70
     1
102
RTVSPropertyOp14
 70
     1
102
RTVSPropertyOp15
 70
     1
102
RTVSPropertyOp16
 70
     1
102
RTVSPropertyOp17
 70
     1
102
RTVSPropertyOp18
 70
     1
102
RTVSPropertyOp19
 70
     1
102
RTVSPropertyOp20
 70
     1
102
RTVSPropertyOp21
 70
     1
102
RTVSPropertyOp22
 70
     1
102
RTVSPropertyOp23
 70
     1
102
RTVSPropertyOp24
 70
     1
102
RTVSPropertyOp25
 70
     1
102
RTVSPropertyOp26
 70
     1
102
RTVSPropertyOp27
 70
     1
102
RTVSPropertyOp28
 70
     1
102
RTVSPropertyOp29
 70
     1
102
RTVSPropertyOp30
 70
     1
102
RTVSPropertyOp31
 70
     1
102
RTVSPropertyOp32
 70
     1
102
RTVSPropertyOp33
 70
     1
102
RTVSPropertyOp34
 70
     1
102
RTVSPropertyOp35
 70
     1
102
RTVSPropertyOp36
 70
     1
102
RTVSPropertyOp37
 70
     1
102
RTVSPropertyOp38
 70
     1
102
RTVSPropertyOp39
 70
     1
102
RTVSPropertyOp40
 70
     1
102
RTVSPropertyOp41
 70
     1
102
RTVSPropertyOp42
 70
     1
102
RTVSPropertyOp43
 70
     1
102
RTVSPropertyOp44
 70
     1
102
RTVSPropertyOp45
 70
     1
102
RTVSPropertyOp46
 70
     1
102
RTVSPropertyOp47
 70
     1
102
RTVSPropertyOp48
 70
     1
102
RTVSPropertyOp49
 70
     1
102
RTVSPropertyOp50
 70
     1
102
RTVSPropertyOp51
 70
     0
102
RTVSPropertyOp52
 70
     0
102
RTVSPropertyOp53
 70
     1
102
RTVSPropertyOp54
 70
     1
102
RTVSPropertyOp55
 70
     1
102
RTVSPropertyOp56
 70
     1
102
RTVSPropertyOp57
 70
     1
102
RTVSPropertyOp58
 70
     1
102
RTVSPropertyOp59
 70
     1
102
RTVSPropertyOp60
 70
     1
102
RTVSPropertyOp61
 70
     1
102
RTVSPropertyOp62
 70
     1
  0
XRECORD
  5
A9E9
102
{ACAD_REACTORS
330
A9E8
102
}
330
A9E8
100
AcDbXrecord
280
     1
102
RTVSPost2010Prop28
280
     0
102
RTVSPost2010PropOp28
 70
     1
102
RTVSPost2010Prop29
280
     1
102
RTVSPost2010PropOp29
 70
     1
102
RTVSPost2010Prop30
280
     1
102
RTVSPost2010PropOp30
 70
     1
102
RTVSPost2010Prop31
280
     0
102
RTVSPost2010PropOp31
 70
     1
102
RTVSPost2010Prop32
280
     0
102
RTVSPost2010PropOp32
 70
     1
102
RTVSPost2010Prop33
280
     0
102
RTVSPost2010PropOp33
 70
     1
102
RTVSPost2010Prop34
280
     0
102
RTVSPost2010PropOp34
 70
     1
102
RTVSPost2010Prop35
280
     0
102
RTVSPost2010PropOp35
 70
     1
102
RTVSPost2010Prop36
280
     0
102
RTVSPost2010PropOp36
 70
     1
102
RTVSPost2010Prop37
 90
       50
102
RTVSPost2010PropOp37
 70
     1
102
RTVSPost2010Prop38
140
0.0
102
RTVSPost2010PropOp38
 70
     1
102
RTVSPost2010Prop39
140
1.0
102
RTVSPost2010PropOp39
 70
     1
102
RTVSPost2010Prop40
 90
        0
102
RTVSPost2010PropOp40
 70
     1
102
RTVSPost2010Prop41ColorIndex
 90
       18
102
RTVSPost2010Prop41ColorRGB
 90
        0
102
RTVSPost2010PropOp41
 70
     1
102
RTVSPost2010Prop42
 90
       50
102
RTVSPost2010PropOp42
 70
     1
102
RTVSPost2010Prop43
 90
        3
102
RTVSPost2010PropOp43
 70
     1
102
RTVSPost2010Prop44ColorIndex
 90
        5
102
RTVSPost2010Prop44ColorRGB
 90
      255
102
RTVSPost2010PropOp44
 70
     1
102
RTVSPost2010Prop45
280
     0
102
RTVSPost2010PropOp45
 70
     1
102
RTVSPost2010Prop46
 90
       50
102
RTVSPost2010PropOp46
 70
     1
102
RTVSPost2010Prop47
 90
       50
102
RTVSPost2010PropOp47
 70
     1
102
RTVSPost2010Prop48
 90
       50
102
RTVSPost2010PropOp48
 70
     1
102
RTVSPost2010Prop49
280
     0
102
RTVSPost2010PropOp49
 70
     1
102
RTVSPost2010Prop50
 90
       50
102
RTVSPost2010PropOp50
 70
     1
102
RTVSPost2010Prop51ColorIndex
 90
      256
102
RTVSPost2010Prop51ColorRGB
 90
-16777216
102
RTVSPost2010PropOp51
 70
     0
102
RTVSPost2010Prop52
140
1.0
102
RTVSPost2010PropOp52
 70
     0
102
RTVSPost2010Prop53
 90
        2
102
RTVSPost2010PropOp53
 70
     1
102
RTVSPost2010Prop54
  1
strokes_ogs.tif
102
RTVSPost2010PropOp54
 70
     1
102
RTVSPost2010Prop55
280
     0
102
RTVSPost2010PropOp55
 70
     1
102
RTVSPost2010Prop56
140
1.0
102
RTVSPost2010PropOp56
 70
     1
102
RTVSPost2010Prop57
140
1.0
102
RTVSPost2010PropOp57
 70
     1
102
RTVSPropertyOp0
 70
     1
102
RTVSPropertyOp1
 70
     1
102
RTVSPropertyOp2
 70
     1
102
RTVSPropertyOp3
 70
     1
102
RTVSPropertyOp4
 70
     1
102
RTVSPropertyOp5
 70
     1
102
RTVSPropertyOp6
 70
     1
102
RTVSPropertyOp7
 70
     1
102
RTVSPropertyOp8
 70
     1
102
RTVSPropertyOp9
 70
     1
102
RTVSPropertyOp10
 70
     1
102
RTVSPropertyOp11
 70
     1
102
RTVSPropertyOp12
 70
     1
102
RTVSPropertyOp13
 70
     1
102
RTVSPropertyOp14
 70
     1
102
RTVSPropertyOp15
 70
     1
102
RTVSPropertyOp16
 70
     1
102
RTVSPropertyOp17
 70
     1
102
RTVSPropertyOp18
 70
     1
102
RTVSPropertyOp19
 70
     1
102
RTVSPropertyOp20
 70
     1
102
RTVSPropertyOp21
 70
     1
102
RTVSPropertyOp22
 70
     1
102
RTVSPropertyOp23
 70
     1
102
RTVSPropertyOp24
 70
     1
102
RTVSPropertyOp25
 70
     1
102
RTVSPropertyOp26
 70
     1
102
RTVSPropertyOp27
 70
     1
102
RTVSPropertyOp28
 70
     1
102
RTVSPropertyOp29
 70
     1
102
RTVSPropertyOp30
 70
     1
102
RTVSPropertyOp31
 70
     1
102
RTVSPropertyOp32
 70
     1
102
RTVSPropertyOp33
 70
     1
102
RTVSPropertyOp34
 70
     1
102
RTVSPropertyOp35
 70
     1
102
RTVSPropertyOp36
 70
     1
102
RTVSPropertyOp37
 70
     1
102
RTVSPropertyOp38
 70
     1
102
RTVSPropertyOp39
 70
     1
102
RTVSPropertyOp40
 70
     1
102
RTVSPropertyOp41
 70
     1
102
RTVSPropertyOp42
 70
     1
102
RTVSPropertyOp43
 70
     1
102
RTVSPropertyOp44
 70
     1
102
RTVSPropertyOp45
 70
     1
102
RTVSPropertyOp46
 70
     1
102
RTVSPropertyOp47
 70
     1
102
RTVSPropertyOp48
 70
     1
102
RTVSPropertyOp49
 70
     1
102
RTVSPropertyOp50
 70
     1
102
RTVSPropertyOp51
 70
     0
102
RTVSPropertyOp52
 70
     0
102
RTVSPropertyOp53
 70
     1
102
RTVSPropertyOp54
 70
     1
102
RTVSPropertyOp55
 70
     1
102
RTVSPropertyOp56
 70
     1
102
RTVSPropertyOp57
 70
     1
102
RTVSPropertyOp58
 70
     1
102
RTVSPropertyOp59
 70
     1
102
RTVSPropertyOp60
 70
     1
102
RTVSPropertyOp61
 70
     1
102
RTVSPropertyOp62
 70
     1
  0
XRECORD
  5
A9F1
102
{ACAD_REACTORS
330
A9F0
102
}
330
A9F0
100
AcDbXrecord
280
     1
102
RTVSPost2010Prop28
280
     0
102
RTVSPost2010PropOp28
 70
     1
102
RTVSPost2010Prop29
280
     1
102
RTVSPost2010PropOp29
 70
     1
102
RTVSPost2010Prop30
280
     1
102
RTVSPost2010PropOp30
 70
     1
102
RTVSPost2010Prop31
280
     0
102
RTVSPost2010PropOp31
 70
     1
102
RTVSPost2010Prop32
280
     0
102
RTVSPost2010PropOp32
 70
     1
102
RTVSPost2010Prop33
280
     0
102
RTVSPost2010PropOp33
 70
     1
102
RTVSPost2010Prop34
280
     0
102
RTVSPost2010PropOp34
 70
     1
102
RTVSPost2010Prop35
280
     0
102
RTVSPost2010PropOp35
 70
     1
102
RTVSPost2010Prop36
280
     0
102
RTVSPost2010PropOp36
 70
     1
102
RTVSPost2010Prop37
 90
       50
102
RTVSPost2010PropOp37
 70
     1
102
RTVSPost2010Prop38
140
0.0
102
RTVSPost2010PropOp38
 70
     1
102
RTVSPost2010Prop39
140
1.0
102
RTVSPost2010PropOp39
 70
     1
102
RTVSPost2010Prop40
 90
        0
102
RTVSPost2010PropOp40
 70
     1
102
RTVSPost2010Prop41ColorIndex
 90
       18
102
RTVSPost2010Prop41ColorRGB
 90
        0
102
RTVSPost2010PropOp41
 70
     1
102
RTVSPost2010Prop42
 90
       50
102
RTVSPost2010PropOp42
 70
     1
102
RTVSPost2010Prop43
 90
        3
102
RTVSPost2010PropOp43
 70
     1
102
RTVSPost2010Prop44ColorIndex
 90
        5
102
RTVSPost2010Prop44ColorRGB
 90
      255
102
RTVSPost2010PropOp44
 70
     1
102
RTVSPost2010Prop45
280
     0
102
RTVSPost2010PropOp45
 70
     1
102
RTVSPost2010Prop46
 90
       50
102
RTVSPost2010PropOp46
 70
     1
102
RTVSPost2010Prop47
 90
       50
102
RTVSPost2010PropOp47
 70
     1
102
RTVSPost2010Prop48
 90
       50
102
RTVSPost2010PropOp48
 70
     1
102
RTVSPost2010Prop49
280
     0
102
RTVSPost2010PropOp49
 70
     1
102
RTVSPost2010Prop50
 90
       50
102
RTVSPost2010PropOp50
 70
     1
102
RTVSPost2010Prop51ColorIndex
 90
      256
102
RTVSPost2010Prop51ColorRGB
 90
-16777216
102
RTVSPost2010PropOp51
 70
     0
102
RTVSPost2010Prop52
140
1.0
102
RTVSPost2010PropOp52
 70
     0
102
RTVSPost2010Prop53
 90
        2
102
RTVSPost2010PropOp53
 70
     1
102
RTVSPost2010Prop54
  1
strokes_ogs.tif
102
RTVSPost2010PropOp54
 70
     1
102
RTVSPost2010Prop55
280
     0
102
RTVSPost2010PropOp55
 70
     1
102
RTVSPost2010Prop56
140
1.0
102
RTVSPost2010PropOp56
 70
     1
102
RTVSPost2010Prop57
140
1.0
102
RTVSPost2010PropOp57
 70
     1
102
RTVSPropertyOp0
 70
     1
102
RTVSPropertyOp1
 70
     1
102
RTVSPropertyOp2
 70
     1
102
RTVSPropertyOp3
 70
     1
102
RTVSPropertyOp4
 70
     1
102
RTVSPropertyOp5
 70
     1
102
RTVSPropertyOp6
 70
     1
102
RTVSPropertyOp7
 70
     1
102
RTVSPropertyOp8
 70
     1
102
RTVSPropertyOp9
 70
     1
102
RTVSPropertyOp10
 70
     1
102
RTVSPropertyOp11
 70
     1
102
RTVSPropertyOp12
 70
     1
102
RTVSPropertyOp13
 70
     1
102
RTVSPropertyOp14
 70
     1
102
RTVSPropertyOp15
 70
     1
102
RTVSPropertyOp16
 70
     1
102
RTVSPropertyOp17
 70
     1
102
RTVSPropertyOp18
 70
     1
102
RTVSPropertyOp19
 70
     1
102
RTVSPropertyOp20
 70
     1
102
RTVSPropertyOp21
 70
     1
102
RTVSPropertyOp22
 70
     1
102
RTVSPropertyOp23
 70
     1
102
RTVSPropertyOp24
 70
     1
102
RTVSPropertyOp25
 70
     1
102
RTVSPropertyOp26
 70
     1
102
RTVSPropertyOp27
 70
     1
102
RTVSPropertyOp28
 70
     1
102
RTVSPropertyOp29
 70
     1
102
RTVSPropertyOp30
 70
     1
102
RTVSPropertyOp31
 70
     1
102
RTVSPropertyOp32
 70
     1
102
RTVSPropertyOp33
 70
     1
102
RTVSPropertyOp34
 70
     1
102
RTVSPropertyOp35
 70
     1
102
RTVSPropertyOp36
 70
     1
102
RTVSPropertyOp37
 70
     1
102
RTVSPropertyOp38
 70
     1
102
RTVSPropertyOp39
 70
     1
102
RTVSPropertyOp40
 70
     1
102
RTVSPropertyOp41
 70
     1
102
RTVSPropertyOp42
 70
     1
102
RTVSPropertyOp43
 70
     1
102
RTVSPropertyOp44
 70
     1
102
RTVSPropertyOp45
 70
     1
102
RTVSPropertyOp46
 70
     1
102
RTVSPropertyOp47
 70
     1
102
RTVSPropertyOp48
 70
     1
102
RTVSPropertyOp49
 70
     1
102
RTVSPropertyOp50
 70
     1
102
RTVSPropertyOp51
 70
     0
102
RTVSPropertyOp52
 70
     0
102
RTVSPropertyOp53
 70
     1
102
RTVSPropertyOp54
 70
     1
102
RTVSPropertyOp55
 70
     1
102
RTVSPropertyOp56
 70
     1
102
RTVSPropertyOp57
 70
     1
102
RTVSPropertyOp58
 70
     1
102
RTVSPropertyOp59
 70
     1
102
RTVSPropertyOp60
 70
     1
102
RTVSPropertyOp61
 70
     1
102
RTVSPropertyOp62
 70
     1
  0
XRECORD
  5
A9E3
102
{ACAD_REACTORS
330
A9E2
102
}
330
A9E2
100
AcDbXrecord
280
     1
102
RTVSPost2010Prop28
280
     0
102
RTVSPost2010PropOp28
 70
     1
102
RTVSPost2010Prop29
280
     1
102
RTVSPost2010PropOp29
 70
     1
102
RTVSPost2010Prop30
280
     1
102
RTVSPost2010PropOp30
 70
     1
102
RTVSPost2010Prop31
280
     0
102
RTVSPost2010PropOp31
 70
     1
102
RTVSPost2010Prop32
280
     0
102
RTVSPost2010PropOp32
 70
     1
102
RTVSPost2010Prop33
280
     0
102
RTVSPost2010PropOp33
 70
     1
102
RTVSPost2010Prop34
280
     0
102
RTVSPost2010PropOp34
 70
     1
102
RTVSPost2010Prop35
280
     0
102
RTVSPost2010PropOp35
 70
     1
102
RTVSPost2010Prop36
280
     0
102
RTVSPost2010PropOp36
 70
     1
102
RTVSPost2010Prop37
 90
       50
102
RTVSPost2010PropOp37
 70
     1
102
RTVSPost2010Prop38
140
0.0
102
RTVSPost2010PropOp38
 70
     1
102
RTVSPost2010Prop39
140
1.0
102
RTVSPost2010PropOp39
 70
     1
102
RTVSPost2010Prop40
 90
        0
102
RTVSPost2010PropOp40
 70
     1
102
RTVSPost2010Prop41ColorIndex
 90
       18
102
RTVSPost2010Prop41ColorRGB
 90
        0
102
RTVSPost2010PropOp41
 70
     1
102
RTVSPost2010Prop42
 90
       50
102
RTVSPost2010PropOp42
 70
     1
102
RTVSPost2010Prop43
 90
        3
102
RTVSPost2010PropOp43
 70
     1
102
RTVSPost2010Prop44ColorIndex
 90
        5
102
RTVSPost2010Prop44ColorRGB
 90
      255
102
RTVSPost2010PropOp44
 70
     1
102
RTVSPost2010Prop45
280
     0
102
RTVSPost2010PropOp45
 70
     1
102
RTVSPost2010Prop46
 90
       50
102
RTVSPost2010PropOp46
 70
     1
102
RTVSPost2010Prop47
 90
       50
102
RTVSPost2010PropOp47
 70
     1
102
RTVSPost2010Prop48
 90
       50
102
RTVSPost2010PropOp48
 70
     1
102
RTVSPost2010Prop49
280
     0
102
RTVSPost2010PropOp49
 70
     1
102
RTVSPost2010Prop50
 90
       50
102
RTVSPost2010PropOp50
 70
     1
102
RTVSPost2010Prop51ColorIndex
 90
      256
102
RTVSPost2010Prop51ColorRGB
 90
-16777216
102
RTVSPost2010PropOp51
 70
     0
102
RTVSPost2010Prop52
140
1.0
102
RTVSPost2010PropOp52
 70
     0
102
RTVSPost2010Prop53
 90
        2
102
RTVSPost2010PropOp53
 70
     1
102
RTVSPost2010Prop54
  1
strokes_ogs.tif
102
RTVSPost2010PropOp54
 70
     1
102
RTVSPost2010Prop55
280
     0
102
RTVSPost2010PropOp55
 70
     1
102
RTVSPost2010Prop56
140
1.0
102
RTVSPost2010PropOp56
 70
     1
102
RTVSPost2010Prop57
140
1.0
102
RTVSPost2010PropOp57
 70
     1
102
RTVSPropertyOp0
 70
     1
102
RTVSPropertyOp1
 70
     1
102
RTVSPropertyOp2
 70
     1
102
RTVSPropertyOp3
 70
     1
102
RTVSPropertyOp4
 70
     1
102
RTVSPropertyOp5
 70
     1
102
RTVSPropertyOp6
 70
     1
102
RTVSPropertyOp7
 70
     1
102
RTVSPropertyOp8
 70
     1
102
RTVSPropertyOp9
 70
     1
102
RTVSPropertyOp10
 70
     1
102
RTVSPropertyOp11
 70
     1
102
RTVSPropertyOp12
 70
     1
102
RTVSPropertyOp13
 70
     1
102
RTVSPropertyOp14
 70
     1
102
RTVSPropertyOp15
 70
     1
102
RTVSPropertyOp16
 70
     1
102
RTVSPropertyOp17
 70
     1
102
RTVSPropertyOp18
 70
     1
102
RTVSPropertyOp19
 70
     1
102
RTVSPropertyOp20
 70
     1
102
RTVSPropertyOp21
 70
     1
102
RTVSPropertyOp22
 70
     1
102
RTVSPropertyOp23
 70
     1
102
RTVSPropertyOp24
 70
     1
102
RTVSPropertyOp25
 70
     1
102
RTVSPropertyOp26
 70
     1
102
RTVSPropertyOp27
 70
     1
102
RTVSPropertyOp28
 70
     1
102
RTVSPropertyOp29
 70
     1
102
RTVSPropertyOp30
 70
     1
102
RTVSPropertyOp31
 70
     1
102
RTVSPropertyOp32
 70
     1
102
RTVSPropertyOp33
 70
     1
102
RTVSPropertyOp34
 70
     1
102
RTVSPropertyOp35
 70
     1
102
RTVSPropertyOp36
 70
     1
102
RTVSPropertyOp37
 70
     1
102
RTVSPropertyOp38
 70
     1
102
RTVSPropertyOp39
 70
     1
102
RTVSPropertyOp40
 70
     1
102
RTVSPropertyOp41
 70
     1
102
RTVSPropertyOp42
 70
     1
102
RTVSPropertyOp43
 70
     1
102
RTVSPropertyOp44
 70
     1
102
RTVSPropertyOp45
 70
     1
102
RTVSPropertyOp46
 70
     1
102
RTVSPropertyOp47
 70
     1
102
RTVSPropertyOp48
 70
     1
102
RTVSPropertyOp49
 70
     1
102
RTVSPropertyOp50
 70
     1
102
RTVSPropertyOp51
 70
     0
102
RTVSPropertyOp52
 70
     0
102
RTVSPropertyOp53
 70
     1
102
RTVSPropertyOp54
 70
     1
102
RTVSPropertyOp55
 70
     1
102
RTVSPropertyOp56
 70
     1
102
RTVSPropertyOp57
 70
     1
102
RTVSPropertyOp58
 70
     1
102
RTVSPropertyOp59
 70
     1
102
RTVSPropertyOp60
 70
     1
102
RTVSPropertyOp61
 70
     1
102
RTVSPropertyOp62
 70
     1
  0
XRECORD
  5
A9E7
102
{ACAD_REACTORS
330
A9E6
102
}
330
A9E6
100
AcDbXrecord
280
     1
102
RTVSPost2010Prop28
280
     0
102
RTVSPost2010PropOp28
 70
     1
102
RTVSPost2010Prop29
280
     1
102
RTVSPost2010PropOp29
 70
     1
102
RTVSPost2010Prop30
280
     1
102
RTVSPost2010PropOp30
 70
     1
102
RTVSPost2010Prop31
280
     0
102
RTVSPost2010PropOp31
 70
     1
102
RTVSPost2010Prop32
280
     0
102
RTVSPost2010PropOp32
 70
     1
102
RTVSPost2010Prop33
280
     0
102
RTVSPost2010PropOp33
 70
     1
102
RTVSPost2010Prop34
280
     0
102
RTVSPost2010PropOp34
 70
     1
102
RTVSPost2010Prop35
280
     0
102
RTVSPost2010PropOp35
 70
     1
102
RTVSPost2010Prop36
280
     0
102
RTVSPost2010PropOp36
 70
     1
102
RTVSPost2010Prop37
 90
       50
102
RTVSPost2010PropOp37
 70
     1
102
RTVSPost2010Prop38
140
0.0
102
RTVSPost2010PropOp38
 70
     1
102
RTVSPost2010Prop39
140
1.0
102
RTVSPost2010PropOp39
 70
     1
102
RTVSPost2010Prop40
 90
        0
102
RTVSPost2010PropOp40
 70
     1
102
RTVSPost2010Prop41ColorIndex
 90
       18
102
RTVSPost2010Prop41ColorRGB
 90
        0
102
RTVSPost2010PropOp41
 70
     1
102
RTVSPost2010Prop42
 90
       50
102
RTVSPost2010PropOp42
 70
     1
102
RTVSPost2010Prop43
 90
        3
102
RTVSPost2010PropOp43
 70
     1
102
RTVSPost2010Prop44ColorIndex
 90
        5
102
RTVSPost2010Prop44ColorRGB
 90
      255
102
RTVSPost2010PropOp44
 70
     1
102
RTVSPost2010Prop45
280
     0
102
RTVSPost2010PropOp45
 70
     1
102
RTVSPost2010Prop46
 90
       50
102
RTVSPost2010PropOp46
 70
     1
102
RTVSPost2010Prop47
 90
       50
102
RTVSPost2010PropOp47
 70
     1
102
RTVSPost2010Prop48
 90
       50
102
RTVSPost2010PropOp48
 70
     1
102
RTVSPost2010Prop49
280
     0
102
RTVSPost2010PropOp49
 70
     1
102
RTVSPost2010Prop50
 90
       50
102
RTVSPost2010PropOp50
 70
     1
102
RTVSPost2010Prop51ColorIndex
 90
      256
102
RTVSPost2010Prop51ColorRGB
 90
-16777216
102
RTVSPost2010PropOp51
 70
     0
102
RTVSPost2010Prop52
140
1.0
102
RTVSPost2010PropOp52
 70
     0
102
RTVSPost2010Prop53
 90
        2
102
RTVSPost2010PropOp53
 70
     1
102
RTVSPost2010Prop54
  1
strokes_ogs.tif
102
RTVSPost2010PropOp54
 70
     1
102
RTVSPost2010Prop55
280
     0
102
RTVSPost2010PropOp55
 70
     1
102
RTVSPost2010Prop56
140
1.0
102
RTVSPost2010PropOp56
 70
     1
102
RTVSPost2010Prop57
140
1.0
102
RTVSPost2010PropOp57
 70
     1
102
RTVSPropertyOp0
 70
     1
102
RTVSPropertyOp1
 70
     1
102
RTVSPropertyOp2
 70
     1
102
RTVSPropertyOp3
 70
     1
102
RTVSPropertyOp4
 70
     1
102
RTVSPropertyOp5
 70
     1
102
RTVSPropertyOp6
 70
     1
102
RTVSPropertyOp7
 70
     1
102
RTVSPropertyOp8
 70
     1
102
RTVSPropertyOp9
 70
     1
102
RTVSPropertyOp10
 70
     1
102
RTVSPropertyOp11
 70
     1
102
RTVSPropertyOp12
 70
     1
102
RTVSPropertyOp13
 70
     1
102
RTVSPropertyOp14
 70
     1
102
RTVSPropertyOp15
 70
     1
102
RTVSPropertyOp16
 70
     1
102
RTVSPropertyOp17
 70
     1
102
RTVSPropertyOp18
 70
     1
102
RTVSPropertyOp19
 70
     1
102
RTVSPropertyOp20
 70
     1
102
RTVSPropertyOp21
 70
     1
102
RTVSPropertyOp22
 70
     1
102
RTVSPropertyOp23
 70
     1
102
RTVSPropertyOp24
 70
     1
102
RTVSPropertyOp25
 70
     1
102
RTVSPropertyOp26
 70
     1
102
RTVSPropertyOp27
 70
     1
102
RTVSPropertyOp28
 70
     1
102
RTVSPropertyOp29
 70
     1
102
RTVSPropertyOp30
 70
     1
102
RTVSPropertyOp31
 70
     1
102
RTVSPropertyOp32
 70
     1
102
RTVSPropertyOp33
 70
     1
102
RTVSPropertyOp34
 70
     1
102
RTVSPropertyOp35
 70
     1
102
RTVSPropertyOp36
 70
     1
102
RTVSPropertyOp37
 70
     1
102
RTVSPropertyOp38
 70
     1
102
RTVSPropertyOp39
 70
     1
102
RTVSPropertyOp40
 70
     1
102
RTVSPropertyOp41
 70
     1
102
RTVSPropertyOp42
 70
     1
102
RTVSPropertyOp43
 70
     1
102
RTVSPropertyOp44
 70
     1
102
RTVSPropertyOp45
 70
     1
102
RTVSPropertyOp46
 70
     1
102
RTVSPropertyOp47
 70
     1
102
RTVSPropertyOp48
 70
     1
102
RTVSPropertyOp49
 70
     1
102
RTVSPropertyOp50
 70
     1
102
RTVSPropertyOp51
 70
     0
102
RTVSPropertyOp52
 70
     0
102
RTVSPropertyOp53
 70
     1
102
RTVSPropertyOp54
 70
     1
102
RTVSPropertyOp55
 70
     1
102
RTVSPropertyOp56
 70
     1
102
RTVSPropertyOp57
 70
     1
102
RTVSPropertyOp58
 70
     1
102
RTVSPropertyOp59
 70
     1
102
RTVSPropertyOp60
 70
     1
102
RTVSPropertyOp61
 70
     1
102
RTVSPropertyOp62
 70
     1
  0
XRECORD
  5
AA01
102
{ACAD_REACTORS
330
AA00
102
}
330
AA00
100
AcDbXrecord
280
     1
102
RTVSPost2010Prop28
280
     0
102
RTVSPost2010PropOp28
 70
     1
102
RTVSPost2010Prop29
280
     1
102
RTVSPost2010PropOp29
 70
     1
102
RTVSPost2010Prop30
280
     1
102
RTVSPost2010PropOp30
 70
     1
102
RTVSPost2010Prop31
280
     0
102
RTVSPost2010PropOp31
 70
     1
102
RTVSPost2010Prop32
280
     0
102
RTVSPost2010PropOp32
 70
     1
102
RTVSPost2010Prop33
280
     0
102
RTVSPost2010PropOp33
 70
     1
102
RTVSPost2010Prop34
280
     0
102
RTVSPost2010PropOp34
 70
     1
102
RTVSPost2010Prop35
280
     0
102
RTVSPost2010PropOp35
 70
     1
102
RTVSPost2010Prop36
280
     0
102
RTVSPost2010PropOp36
 70
     1
102
RTVSPost2010Prop37
 90
       50
102
RTVSPost2010PropOp37
 70
     0
102
RTVSPost2010Prop38
140
0.0
102
RTVSPost2010PropOp38
 70
     0
102
RTVSPost2010Prop39
140
1.0
102
RTVSPost2010PropOp39
 70
     0
102
RTVSPost2010Prop40
 90
        0
102
RTVSPost2010PropOp40
 70
     0
102
RTVSPost2010Prop41ColorIndex
 90
       18
102
RTVSPost2010Prop41ColorRGB
 90
        0
102
RTVSPost2010PropOp41
 70
     0
102
RTVSPost2010Prop42
 90
       50
102
RTVSPost2010PropOp42
 70
     0
102
RTVSPost2010Prop43
 90
        3
102
RTVSPost2010PropOp43
 70
     0
102
RTVSPost2010Prop44ColorIndex
 90
        5
102
RTVSPost2010Prop44ColorRGB
 90
      255
102
RTVSPost2010PropOp44
 70
     0
102
RTVSPost2010Prop45
280
     0
102
RTVSPost2010PropOp45
 70
     1
102
RTVSPost2010Prop46
 90
       50
102
RTVSPost2010PropOp46
 70
     0
102
RTVSPost2010Prop47
 90
       50
102
RTVSPost2010PropOp47
 70
     0
102
RTVSPost2010Prop48
 90
       50
102
RTVSPost2010PropOp48
 70
     0
102
RTVSPost2010Prop49
280
     0
102
RTVSPost2010PropOp49
 70
     1
102
RTVSPost2010Prop50
 90
       50
102
RTVSPost2010PropOp50
 70
     0
102
RTVSPost2010Prop51ColorIndex
 90
      256
102
RTVSPost2010Prop51ColorRGB
 90
-16777216
102
RTVSPost2010PropOp51
 70
     0
102
RTVSPost2010Prop52
140
1.0
102
RTVSPost2010PropOp52
 70
     0
102
RTVSPost2010Prop53
 90
        2
102
RTVSPost2010PropOp53
 70
     0
102
RTVSPost2010Prop54
  1
strokes_ogs.tif
102
RTVSPost2010PropOp54
 70
     0
102
RTVSPost2010Prop55
280
     0
102
RTVSPost2010PropOp55
 70
     1
102
RTVSPost2010Prop56
140
1.0
102
RTVSPost2010PropOp56
 70
     0
102
RTVSPost2010Prop57
140
1.0
102
RTVSPost2010PropOp57
 70
     0
102
RTVSPropertyOp0
 70
     0
102
RTVSPropertyOp1
 70
     0
102
RTVSPropertyOp2
 70
     0
102
RTVSPropertyOp3
 70
     0
102
RTVSPropertyOp4
 70
     0
102
RTVSPropertyOp5
 70
     0
102
RTVSPropertyOp6
 70
     0
102
RTVSPropertyOp7
 70
     0
102
RTVSPropertyOp8
 70
     0
102
RTVSPropertyOp9
 70
     0
102
RTVSPropertyOp10
 70
     0
102
RTVSPropertyOp11
 70
     0
102
RTVSPropertyOp12
 70
     0
102
RTVSPropertyOp13
 70
     0
102
RTVSPropertyOp14
 70
     2
102
RTVSPropertyOp15
 70
     0
102
RTVSPropertyOp16
 70
     0
102
RTVSPropertyOp17
 70
     0
102
RTVSPropertyOp18
 70
     0
102
RTVSPropertyOp19
 70
     0
102
RTVSPropertyOp20
 70
     0
102
RTVSPropertyOp21
 70
     0
102
RTVSPropertyOp22
 70
     0
102
RTVSPropertyOp23
 70
     0
102
RTVSPropertyOp24
 70
     0
102
RTVSPropertyOp25
 70
     0
102
RTVSPropertyOp26
 70
     0
102
RTVSPropertyOp27
 70
     0
102
RTVSPropertyOp28
 70
     1
102
RTVSPropertyOp29
 70
     1
102
RTVSPropertyOp30
 70
     1
102
RTVSPropertyOp31
 70
     1
102
RTVSPropertyOp32
 70
     1
102
RTVSPropertyOp33
 70
     1
102
RTVSPropertyOp34
 70
     1
102
RTVSPropertyOp35
 70
     1
102
RTVSPropertyOp36
 70
     1
102
RTVSPropertyOp37
 70
     0
102
RTVSPropertyOp38
 70
     0
102
RTVSPropertyOp39
 70
     0
102
RTVSPropertyOp40
 70
     0
102
RTVSPropertyOp41
 70
     0
102
RTVSPropertyOp42
 70
     0
102
RTVSPropertyOp43
 70
     0
102
RTVSPropertyOp44
 70
     0
102
RTVSPropertyOp45
 70
     1
102
RTVSPropertyOp46
 70
     0
102
RTVSPropertyOp47
 70
     0
102
RTVSPropertyOp48
 70
     0
102
RTVSPropertyOp49
 70
     1
102
RTVSPropertyOp50
 70
     0
102
RTVSPropertyOp51
 70
     0
102
RTVSPropertyOp52
 70
     0
102
RTVSPropertyOp53
 70
     0
102
RTVSPropertyOp54
 70
     0
102
RTVSPropertyOp55
 70
     1
102
RTVSPropertyOp56
 70
     0
102
RTVSPropertyOp57
 70
     0
102
RTVSPropertyOp58
 70
     0
102
RTVSPropertyOp59
 70
     0
102
RTVSPropertyOp60
 70
     0
102
RTVSPropertyOp61
 70
     0
102
RTVSPropertyOp62
 70
     0
  0
XRECORD
  5
A9EF
102
{ACAD_REACTORS
330
A9EE
102
}
330
A9EE
100
AcDbXrecord
280
     1
102
RTVSPost2010Prop28
280
     0
102
RTVSPost2010PropOp28
 70
     1
102
RTVSPost2010Prop29
280
     1
102
RTVSPost2010PropOp29
 70
     1
102
RTVSPost2010Prop30
280
     1
102
RTVSPost2010PropOp30
 70
     1
102
RTVSPost2010Prop31
280
     0
102
RTVSPost2010PropOp31
 70
     1
102
RTVSPost2010Prop32
280
     0
102
RTVSPost2010PropOp32
 70
     1
102
RTVSPost2010Prop33
280
     0
102
RTVSPost2010PropOp33
 70
     1
102
RTVSPost2010Prop34
280
     0
102
RTVSPost2010PropOp34
 70
     1
102
RTVSPost2010Prop35
280
     0
102
RTVSPost2010PropOp35
 70
     1
102
RTVSPost2010Prop36
280
     0
102
RTVSPost2010PropOp36
 70
     1
102
RTVSPost2010Prop37
 90
       50
102
RTVSPost2010PropOp37
 70
     1
102
RTVSPost2010Prop38
140
0.0
102
RTVSPost2010PropOp38
 70
     1
102
RTVSPost2010Prop39
140
1.0
102
RTVSPost2010PropOp39
 70
     1
102
RTVSPost2010Prop40
 90
        0
102
RTVSPost2010PropOp40
 70
     1
102
RTVSPost2010Prop41ColorIndex
 90
       18
102
RTVSPost2010Prop41ColorRGB
 90
        0
102
RTVSPost2010PropOp41
 70
     1
102
RTVSPost2010Prop42
 90
       50
102
RTVSPost2010PropOp42
 70
     1
102
RTVSPost2010Prop43
 90
        3
102
RTVSPost2010PropOp43
 70
     1
102
RTVSPost2010Prop44ColorIndex
 90
        5
102
RTVSPost2010Prop44ColorRGB
 90
      255
102
RTVSPost2010PropOp44
 70
     1
102
RTVSPost2010Prop45
280
     0
102
RTVSPost2010PropOp45
 70
     1
102
RTVSPost2010Prop46
 90
       50
102
RTVSPost2010PropOp46
 70
     1
102
RTVSPost2010Prop47
 90
       50
102
RTVSPost2010PropOp47
 70
     1
102
RTVSPost2010Prop48
 90
       50
102
RTVSPost2010PropOp48
 70
     1
102
RTVSPost2010Prop49
280
     0
102
RTVSPost2010PropOp49
 70
     1
102
RTVSPost2010Prop50
 90
       50
102
RTVSPost2010PropOp50
 70
     1
102
RTVSPost2010Prop51ColorIndex
 90
      256
102
RTVSPost2010Prop51ColorRGB
 90
-16777216
102
RTVSPost2010PropOp51
 70
     0
102
RTVSPost2010Prop52
140
1.0
102
RTVSPost2010PropOp52
 70
     0
102
RTVSPost2010Prop53
 90
        2
102
RTVSPost2010PropOp53
 70
     1
102
RTVSPost2010Prop54
  1
strokes_ogs.tif
102
RTVSPost2010PropOp54
 70
     1
102
RTVSPost2010Prop55
280
     0
102
RTVSPost2010PropOp55
 70
     1
102
RTVSPost2010Prop56
140
1.0
102
RTVSPost2010PropOp56
 70
     1
102
RTVSPost2010Prop57
140
1.0
102
RTVSPost2010PropOp57
 70
     1
102
RTVSPropertyOp0
 70
     1
102
RTVSPropertyOp1
 70
     1
102
RTVSPropertyOp2
 70
     1
102
RTVSPropertyOp3
 70
     1
102
RTVSPropertyOp4
 70
     1
102
RTVSPropertyOp5
 70
     1
102
RTVSPropertyOp6
 70
     1
102
RTVSPropertyOp7
 70
     1
102
RTVSPropertyOp8
 70
     1
102
RTVSPropertyOp9
 70
     1
102
RTVSPropertyOp10
 70
     1
102
RTVSPropertyOp11
 70
     1
102
RTVSPropertyOp12
 70
     1
102
RTVSPropertyOp13
 70
     1
102
RTVSPropertyOp14
 70
     1
102
RTVSPropertyOp15
 70
     1
102
RTVSPropertyOp16
 70
     1
102
RTVSPropertyOp17
 70
     1
102
RTVSPropertyOp18
 70
     1
102
RTVSPropertyOp19
 70
     1
102
RTVSPropertyOp20
 70
     1
102
RTVSPropertyOp21
 70
     1
102
RTVSPropertyOp22
 70
     1
102
RTVSPropertyOp23
 70
     1
102
RTVSPropertyOp24
 70
     1
102
RTVSPropertyOp25
 70
     1
102
RTVSPropertyOp26
 70
     1
102
RTVSPropertyOp27
 70
     1
102
RTVSPropertyOp28
 70
     1
102
RTVSPropertyOp29
 70
     1
102
RTVSPropertyOp30
 70
     1
102
RTVSPropertyOp31
 70
     1
102
RTVSPropertyOp32
 70
     1
102
RTVSPropertyOp33
 70
     1
102
RTVSPropertyOp34
 70
     1
102
RTVSPropertyOp35
 70
     1
102
RTVSPropertyOp36
 70
     1
102
RTVSPropertyOp37
 70
     1
102
RTVSPropertyOp38
 70
     1
102
RTVSPropertyOp39
 70
     1
102
RTVSPropertyOp40
 70
     1
102
RTVSPropertyOp41
 70
     1
102
RTVSPropertyOp42
 70
     1
102
RTVSPropertyOp43
 70
     1
102
RTVSPropertyOp44
 70
     1
102
RTVSPropertyOp45
 70
     1
102
RTVSPropertyOp46
 70
     1
102
RTVSPropertyOp47
 70
     1
102
RTVSPropertyOp48
 70
     1
102
RTVSPropertyOp49
 70
     1
102
RTVSPropertyOp50
 70
     1
102
RTVSPropertyOp51
 70
     0
102
RTVSPropertyOp52
 70
     0
102
RTVSPropertyOp53
 70
     1
102
RTVSPropertyOp54
 70
     1
102
RTVSPropertyOp55
 70
     1
102
RTVSPropertyOp56
 70
     1
102
RTVSPropertyOp57
 70
     1
102
RTVSPropertyOp58
 70
     1
102
RTVSPropertyOp59
 70
     1
102
RTVSPropertyOp60
 70
     1
102
RTVSPropertyOp61
 70
     1
102
RTVSPropertyOp62
 70
     1
  0
XRECORD
  5
A9D3
102
{ACAD_REACTORS
330
A9D2
102
}
330
A9D2
100
AcDbXrecord
280
     1
102
RTVSPost2010Prop28
280
     0
102
RTVSPost2010PropOp28
 70
     1
102
RTVSPost2010Prop29
280
     1
102
RTVSPost2010PropOp29
 70
     1
102
RTVSPost2010Prop30
280
     1
102
RTVSPost2010PropOp30
 70
     1
102
RTVSPost2010Prop31
280
     0
102
RTVSPost2010PropOp31
 70
     1
102
RTVSPost2010Prop32
280
     0
102
RTVSPost2010PropOp32
 70
     1
102
RTVSPost2010Prop33
280
     0
102
RTVSPost2010PropOp33
 70
     1
102
RTVSPost2010Prop34
280
     0
102
RTVSPost2010PropOp34
 70
     1
102
RTVSPost2010Prop35
280
     0
102
RTVSPost2010PropOp35
 70
     1
102
RTVSPost2010Prop36
280
     0
102
RTVSPost2010PropOp36
 70
     1
102
RTVSPost2010Prop37
 90
       50
102
RTVSPost2010PropOp37
 70
     1
102
RTVSPost2010Prop38
140
0.0
102
RTVSPost2010PropOp38
 70
     1
102
RTVSPost2010Prop39
140
1.0
102
RTVSPost2010PropOp39
 70
     1
102
RTVSPost2010Prop40
 90
        0
102
RTVSPost2010PropOp40
 70
     1
102
RTVSPost2010Prop41ColorIndex
 90
       18
102
RTVSPost2010Prop41ColorRGB
 90
        0
102
RTVSPost2010PropOp41
 70
     1
102
RTVSPost2010Prop42
 90
       50
102
RTVSPost2010PropOp42
 70
     1
102
RTVSPost2010Prop43
 90
        3
102
RTVSPost2010PropOp43
 70
     1
102
RTVSPost2010Prop44ColorIndex
 90
        5
102
RTVSPost2010Prop44ColorRGB
 90
      255
102
RTVSPost2010PropOp44
 70
     1
102
RTVSPost2010Prop45
280
     0
102
RTVSPost2010PropOp45
 70
     1
102
RTVSPost2010Prop46
 90
       50
102
RTVSPost2010PropOp46
 70
     1
102
RTVSPost2010Prop47
 90
       50
102
RTVSPost2010PropOp47
 70
     1
102
RTVSPost2010Prop48
 90
       50
102
RTVSPost2010PropOp48
 70
     1
102
RTVSPost2010Prop49
280
     0
102
RTVSPost2010PropOp49
 70
     1
102
RTVSPost2010Prop50
 90
       50
102
RTVSPost2010PropOp50
 70
     1
102
RTVSPost2010Prop51ColorIndex
 90
      256
102
RTVSPost2010Prop51ColorRGB
 90
-16777216
102
RTVSPost2010PropOp51
 70
     0
102
RTVSPost2010Prop52
140
1.0
102
RTVSPost2010PropOp52
 70
     0
102
RTVSPost2010Prop53
 90
        2
102
RTVSPost2010PropOp53
 70
     1
102
RTVSPost2010Prop54
  1
strokes_ogs.tif
102
RTVSPost2010PropOp54
 70
     1
102
RTVSPost2010Prop55
280
     0
102
RTVSPost2010PropOp55
 70
     1
102
RTVSPost2010Prop56
140
1.0
102
RTVSPost2010PropOp56
 70
     1
102
RTVSPost2010Prop57
140
1.0
102
RTVSPost2010PropOp57
 70
     1
102
RTVSPropertyOp0
 70
     1
102
RTVSPropertyOp1
 70
     1
102
RTVSPropertyOp2
 70
     1
102
RTVSPropertyOp3
 70
     1
102
RTVSPropertyOp4
 70
     1
102
RTVSPropertyOp5
 70
     1
102
RTVSPropertyOp6
 70
     1
102
RTVSPropertyOp7
 70
     1
102
RTVSPropertyOp8
 70
     1
102
RTVSPropertyOp9
 70
     1
102
RTVSPropertyOp10
 70
     1
102
RTVSPropertyOp11
 70
     1
102
RTVSPropertyOp12
 70
     1
102
RTVSPropertyOp13
 70
     1
102
RTVSPropertyOp14
 70
     1
102
RTVSPropertyOp15
 70
     1
102
RTVSPropertyOp16
 70
     1
102
RTVSPropertyOp17
 70
     1
102
RTVSPropertyOp18
 70
     1
102
RTVSPropertyOp19
 70
     1
102
RTVSPropertyOp20
 70
     1
102
RTVSPropertyOp21
 70
     1
102
RTVSPropertyOp22
 70
     1
102
RTVSPropertyOp23
 70
     1
102
RTVSPropertyOp24
 70
     1
102
RTVSPropertyOp25
 70
     1
102
RTVSPropertyOp26
 70
     1
102
RTVSPropertyOp27
 70
     1
102
RTVSPropertyOp28
 70
     1
102
RTVSPropertyOp29
 70
     1
102
RTVSPropertyOp30
 70
     1
102
RTVSPropertyOp31
 70
     1
102
RTVSPropertyOp32
 70
     1
102
RTVSPropertyOp33
 70
     1
102
RTVSPropertyOp34
 70
     1
102
RTVSPropertyOp35
 70
     1
102
RTVSPropertyOp36
 70
     1
102
RTVSPropertyOp37
 70
     1
102
RTVSPropertyOp38
 70
     1
102
RTVSPropertyOp39
 70
     1
102
RTVSPropertyOp40
 70
     1
102
RTVSPropertyOp41
 70
     1
102
RTVSPropertyOp42
 70
     1
102
RTVSPropertyOp43
 70
     1
102
RTVSPropertyOp44
 70
     1
102
RTVSPropertyOp45
 70
     1
102
RTVSPropertyOp46
 70
     1
102
RTVSPropertyOp47
 70
     1
102
RTVSPropertyOp48
 70
     1
102
RTVSPropertyOp49
 70
     1
102
RTVSPropertyOp50
 70
     1
102
RTVSPropertyOp51
 70
     0
102
RTVSPropertyOp52
 70
     0
102
RTVSPropertyOp53
 70
     1
102
RTVSPropertyOp54
 70
     1
102
RTVSPropertyOp55
 70
     1
102
RTVSPropertyOp56
 70
     1
102
RTVSPropertyOp57
 70
     1
102
RTVSPropertyOp58
 70
     1
102
RTVSPropertyOp59
 70
     1
102
RTVSPropertyOp60
 70
     1
102
RTVSPropertyOp61
 70
     1
102
RTVSPropertyOp62
 70
     1
  0
XRECORD
  5
A9D5
102
{ACAD_REACTORS
330
A9D4
102
}
330
A9D4
100
AcDbXrecord
280
     1
102
RTVSPost2010Prop28
280
     0
102
RTVSPost2010PropOp28
 70
     1
102
RTVSPost2010Prop29
280
     1
102
RTVSPost2010PropOp29
 70
     1
102
RTVSPost2010Prop30
280
     1
102
RTVSPost2010PropOp30
 70
     1
102
RTVSPost2010Prop31
280
     0
102
RTVSPost2010PropOp31
 70
     1
102
RTVSPost2010Prop32
280
     0
102
RTVSPost2010PropOp32
 70
     1
102
RTVSPost2010Prop33
280
     0
102
RTVSPost2010PropOp33
 70
     1
102
RTVSPost2010Prop34
280
     0
102
RTVSPost2010PropOp34
 70
     1
102
RTVSPost2010Prop35
280
     0
102
RTVSPost2010PropOp35
 70
     1
102
RTVSPost2010Prop36
280
     0
102
RTVSPost2010PropOp36
 70
     1
102
RTVSPost2010Prop37
 90
       50
102
RTVSPost2010PropOp37
 70
     1
102
RTVSPost2010Prop38
140
0.0
102
RTVSPost2010PropOp38
 70
     1
102
RTVSPost2010Prop39
140
1.0
102
RTVSPost2010PropOp39
 70
     1
102
RTVSPost2010Prop40
 90
        0
102
RTVSPost2010PropOp40
 70
     1
102
RTVSPost2010Prop41ColorIndex
 90
       18
102
RTVSPost2010Prop41ColorRGB
 90
        0
102
RTVSPost2010PropOp41
 70
     1
102
RTVSPost2010Prop42
 90
       50
102
RTVSPost2010PropOp42
 70
     1
102
RTVSPost2010Prop43
 90
        3
102
RTVSPost2010PropOp43
 70
     1
102
RTVSPost2010Prop44ColorIndex
 90
        5
102
RTVSPost2010Prop44ColorRGB
 90
      255
102
RTVSPost2010PropOp44
 70
     1
102
RTVSPost2010Prop45
280
     0
102
RTVSPost2010PropOp45
 70
     1
102
RTVSPost2010Prop46
 90
       50
102
RTVSPost2010PropOp46
 70
     1
102
RTVSPost2010Prop47
 90
       50
102
RTVSPost2010PropOp47
 70
     1
102
RTVSPost2010Prop48
 90
       50
102
RTVSPost2010PropOp48
 70
     1
102
RTVSPost2010Prop49
280
     0
102
RTVSPost2010PropOp49
 70
     1
102
RTVSPost2010Prop50
 90
       50
102
RTVSPost2010PropOp50
 70
     1
102
RTVSPost2010Prop51ColorIndex
 90
      256
102
RTVSPost2010Prop51ColorRGB
 90
-16777216
102
RTVSPost2010PropOp51
 70
     0
102
RTVSPost2010Prop52
140
1.0
102
RTVSPost2010PropOp52
 70
     0
102
RTVSPost2010Prop53
 90
        2
102
RTVSPost2010PropOp53
 70
     1
102
RTVSPost2010Prop54
  1
strokes_ogs.tif
102
RTVSPost2010PropOp54
 70
     1
102
RTVSPost2010Prop55
280
     0
102
RTVSPost2010PropOp55
 70
     1
102
RTVSPost2010Prop56
140
1.0
102
RTVSPost2010PropOp56
 70
     1
102
RTVSPost2010Prop57
140
1.0
102
RTVSPost2010PropOp57
 70
     1
102
RTVSPropertyOp0
 70
     1
102
RTVSPropertyOp1
 70
     1
102
RTVSPropertyOp2
 70
     1
102
RTVSPropertyOp3
 70
     1
102
RTVSPropertyOp4
 70
     1
102
RTVSPropertyOp5
 70
     1
102
RTVSPropertyOp6
 70
     1
102
RTVSPropertyOp7
 70
     1
102
RTVSPropertyOp8
 70
     1
102
RTVSPropertyOp9
 70
     1
102
RTVSPropertyOp10
 70
     1
102
RTVSPropertyOp11
 70
     1
102
RTVSPropertyOp12
 70
     1
102
RTVSPropertyOp13
 70
     1
102
RTVSPropertyOp14
 70
     1
102
RTVSPropertyOp15
 70
     1
102
RTVSPropertyOp16
 70
     1
102
RTVSPropertyOp17
 70
     1
102
RTVSPropertyOp18
 70
     1
102
RTVSPropertyOp19
 70
     1
102
RTVSPropertyOp20
 70
     1
102
RTVSPropertyOp21
 70
     1
102
RTVSPropertyOp22
 70
     1
102
RTVSPropertyOp23
 70
     1
102
RTVSPropertyOp24
 70
     1
102
RTVSPropertyOp25
 70
     1
102
RTVSPropertyOp26
 70
     1
102
RTVSPropertyOp27
 70
     1
102
RTVSPropertyOp28
 70
     1
102
RTVSPropertyOp29
 70
     1
102
RTVSPropertyOp30
 70
     1
102
RTVSPropertyOp31
 70
     1
102
RTVSPropertyOp32
 70
     1
102
RTVSPropertyOp33
 70
     1
102
RTVSPropertyOp34
 70
     1
102
RTVSPropertyOp35
 70
     1
102
RTVSPropertyOp36
 70
     1
102
RTVSPropertyOp37
 70
     1
102
RTVSPropertyOp38
 70
     1
102
RTVSPropertyOp39
 70
     1
102
RTVSPropertyOp40
 70
     1
102
RTVSPropertyOp41
 70
     1
102
RTVSPropertyOp42
 70
     1
102
RTVSPropertyOp43
 70
     1
102
RTVSPropertyOp44
 70
     1
102
RTVSPropertyOp45
 70
     1
102
RTVSPropertyOp46
 70
     1
102
RTVSPropertyOp47
 70
     1
102
RTVSPropertyOp48
 70
     1
102
RTVSPropertyOp49
 70
     1
102
RTVSPropertyOp50
 70
     1
102
RTVSPropertyOp51
 70
     0
102
RTVSPropertyOp52
 70
     0
102
RTVSPropertyOp53
 70
     1
102
RTVSPropertyOp54
 70
     1
102
RTVSPropertyOp55
 70
     1
102
RTVSPropertyOp56
 70
     1
102
RTVSPropertyOp57
 70
     1
102
RTVSPropertyOp58
 70
     1
102
RTVSPropertyOp59
 70
     1
102
RTVSPropertyOp60
 70
     1
102
RTVSPropertyOp61
 70
     1
102
RTVSPropertyOp62
 70
     1
  0
XRECORD
  5
A9D7
102
{ACAD_REACTORS
330
A9D6
102
}
330
A9D6
100
AcDbXrecord
280
     1
102
RTVSPost2010Prop28
280
     0
102
RTVSPost2010PropOp28
 70
     1
102
RTVSPost2010Prop29
280
     1
102
RTVSPost2010PropOp29
 70
     1
102
RTVSPost2010Prop30
280
     1
102
RTVSPost2010PropOp30
 70
     1
102
RTVSPost2010Prop31
280
     0
102
RTVSPost2010PropOp31
 70
     1
102
RTVSPost2010Prop32
280
     0
102
RTVSPost2010PropOp32
 70
     1
102
RTVSPost2010Prop33
280
     0
102
RTVSPost2010PropOp33
 70
     1
102
RTVSPost2010Prop34
280
     0
102
RTVSPost2010PropOp34
 70
     1
102
RTVSPost2010Prop35
280
     0
102
RTVSPost2010PropOp35
 70
     1
102
RTVSPost2010Prop36
280
     0
102
RTVSPost2010PropOp36
 70
     1
102
RTVSPost2010Prop37
 90
       50
102
RTVSPost2010PropOp37
 70
     1
102
RTVSPost2010Prop38
140
0.0
102
RTVSPost2010PropOp38
 70
     1
102
RTVSPost2010Prop39
140
1.0
102
RTVSPost2010PropOp39
 70
     1
102
RTVSPost2010Prop40
 90
        0
102
RTVSPost2010PropOp40
 70
     1
102
RTVSPost2010Prop41ColorIndex
 90
       18
102
RTVSPost2010Prop41ColorRGB
 90
        0
102
RTVSPost2010PropOp41
 70
     1
102
RTVSPost2010Prop42
 90
       50
102
RTVSPost2010PropOp42
 70
     1
102
RTVSPost2010Prop43
 90
        3
102
RTVSPost2010PropOp43
 70
     1
102
RTVSPost2010Prop44ColorIndex
 90
        5
102
RTVSPost2010Prop44ColorRGB
 90
      255
102
RTVSPost2010PropOp44
 70
     1
102
RTVSPost2010Prop45
280
     0
102
RTVSPost2010PropOp45
 70
     1
102
RTVSPost2010Prop46
 90
       50
102
RTVSPost2010PropOp46
 70
     1
102
RTVSPost2010Prop47
 90
       50
102
RTVSPost2010PropOp47
 70
     1
102
RTVSPost2010Prop48
 90
       50
102
RTVSPost2010PropOp48
 70
     1
102
RTVSPost2010Prop49
280
     0
102
RTVSPost2010PropOp49
 70
     1
102
RTVSPost2010Prop50
 90
       50
102
RTVSPost2010PropOp50
 70
     1
102
RTVSPost2010Prop51ColorIndex
 90
      256
102
RTVSPost2010Prop51ColorRGB
 90
-16777216
102
RTVSPost2010PropOp51
 70
     0
102
RTVSPost2010Prop52
140
1.0
102
RTVSPost2010PropOp52
 70
     0
102
RTVSPost2010Prop53
 90
        2
102
RTVSPost2010PropOp53
 70
     1
102
RTVSPost2010Prop54
  1
strokes_ogs.tif
102
RTVSPost2010PropOp54
 70
     1
102
RTVSPost2010Prop55
280
     0
102
RTVSPost2010PropOp55
 70
     1
102
RTVSPost2010Prop56
140
1.0
102
RTVSPost2010PropOp56
 70
     1
102
RTVSPost2010Prop57
140
1.0
102
RTVSPost2010PropOp57
 70
     1
102
RTVSPropertyOp0
 70
     1
102
RTVSPropertyOp1
 70
     1
102
RTVSPropertyOp2
 70
     1
102
RTVSPropertyOp3
 70
     1
102
RTVSPropertyOp4
 70
     1
102
RTVSPropertyOp5
 70
     1
102
RTVSPropertyOp6
 70
     1
102
RTVSPropertyOp7
 70
     1
102
RTVSPropertyOp8
 70
     1
102
RTVSPropertyOp9
 70
     1
102
RTVSPropertyOp10
 70
     1
102
RTVSPropertyOp11
 70
     1
102
RTVSPropertyOp12
 70
     1
102
RTVSPropertyOp13
 70
     1
102
RTVSPropertyOp14
 70
     1
102
RTVSPropertyOp15
 70
     1
102
RTVSPropertyOp16
 70
     1
102
RTVSPropertyOp17
 70
     1
102
RTVSPropertyOp18
 70
     1
102
RTVSPropertyOp19
 70
     1
102
RTVSPropertyOp20
 70
     1
102
RTVSPropertyOp21
 70
     1
102
RTVSPropertyOp22
 70
     1
102
RTVSPropertyOp23
 70
     1
102
RTVSPropertyOp24
 70
     1
102
RTVSPropertyOp25
 70
     1
102
RTVSPropertyOp26
 70
     1
102
RTVSPropertyOp27
 70
     1
102
RTVSPropertyOp28
 70
     1
102
RTVSPropertyOp29
 70
     1
102
RTVSPropertyOp30
 70
     1
102
RTVSPropertyOp31
 70
     1
102
RTVSPropertyOp32
 70
     1
102
RTVSPropertyOp33
 70
     1
102
RTVSPropertyOp34
 70
     1
102
RTVSPropertyOp35
 70
     1
102
RTVSPropertyOp36
 70
     1
102
RTVSPropertyOp37
 70
     1
102
RTVSPropertyOp38
 70
     1
102
RTVSPropertyOp39
 70
     1
102
RTVSPropertyOp40
 70
     1
102
RTVSPropertyOp41
 70
     1
102
RTVSPropertyOp42
 70
     1
102
RTVSPropertyOp43
 70
     1
102
RTVSPropertyOp44
 70
     1
102
RTVSPropertyOp45
 70
     1
102
RTVSPropertyOp46
 70
     1
102
RTVSPropertyOp47
 70
     1
102
RTVSPropertyOp48
 70
     1
102
RTVSPropertyOp49
 70
     1
102
RTVSPropertyOp50
 70
     1
102
RTVSPropertyOp51
 70
     0
102
RTVSPropertyOp52
 70
     0
102
RTVSPropertyOp53
 70
     1
102
RTVSPropertyOp54
 70
     1
102
RTVSPropertyOp55
 70
     1
102
RTVSPropertyOp56
 70
     1
102
RTVSPropertyOp57
 70
     1
102
RTVSPropertyOp58
 70
     1
102
RTVSPropertyOp59
 70
     1
102
RTVSPropertyOp60
 70
     1
102
RTVSPropertyOp61
 70
     1
102
RTVSPropertyOp62
 70
     1
  0
XRECORD
  5
A9D9
102
{ACAD_REACTORS
330
A9D8
102
}
330
A9D8
100
AcDbXrecord
280
     1
102
RTVSPost2010Prop28
280
     0
102
RTVSPost2010PropOp28
 70
     1
102
RTVSPost2010Prop29
280
     1
102
RTVSPost2010PropOp29
 70
     1
102
RTVSPost2010Prop30
280
     1
102
RTVSPost2010PropOp30
 70
     1
102
RTVSPost2010Prop31
280
     0
102
RTVSPost2010PropOp31
 70
     1
102
RTVSPost2010Prop32
280
     0
102
RTVSPost2010PropOp32
 70
     1
102
RTVSPost2010Prop33
280
     0
102
RTVSPost2010PropOp33
 70
     1
102
RTVSPost2010Prop34
280
     0
102
RTVSPost2010PropOp34
 70
     1
102
RTVSPost2010Prop35
280
     0
102
RTVSPost2010PropOp35
 70
     1
102
RTVSPost2010Prop36
280
     0
102
RTVSPost2010PropOp36
 70
     1
102
RTVSPost2010Prop37
 90
       50
102
RTVSPost2010PropOp37
 70
     1
102
RTVSPost2010Prop38
140
0.0
102
RTVSPost2010PropOp38
 70
     1
102
RTVSPost2010Prop39
140
1.0
102
RTVSPost2010PropOp39
 70
     1
102
RTVSPost2010Prop40
 90
        0
102
RTVSPost2010PropOp40
 70
     1
102
RTVSPost2010Prop41ColorIndex
 90
       18
102
RTVSPost2010Prop41ColorRGB
 90
        0
102
RTVSPost2010PropOp41
 70
     1
102
RTVSPost2010Prop42
 90
       50
102
RTVSPost2010PropOp42
 70
     1
102
RTVSPost2010Prop43
 90
        3
102
RTVSPost2010PropOp43
 70
     1
102
RTVSPost2010Prop44ColorIndex
 90
        5
102
RTVSPost2010Prop44ColorRGB
 90
      255
102
RTVSPost2010PropOp44
 70
     1
102
RTVSPost2010Prop45
280
     0
102
RTVSPost2010PropOp45
 70
     1
102
RTVSPost2010Prop46
 90
       50
102
RTVSPost2010PropOp46
 70
     1
102
RTVSPost2010Prop47
 90
       50
102
RTVSPost2010PropOp47
 70
     1
102
RTVSPost2010Prop48
 90
       50
102
RTVSPost2010PropOp48
 70
     1
102
RTVSPost2010Prop49
280
     0
102
RTVSPost2010PropOp49
 70
     1
102
RTVSPost2010Prop50
 90
       50
102
RTVSPost2010PropOp50
 70
     1
102
RTVSPost2010Prop51ColorIndex
 90
      256
102
RTVSPost2010Prop51ColorRGB
 90
-16777216
102
RTVSPost2010PropOp51
 70
     0
102
RTVSPost2010Prop52
140
1.0
102
RTVSPost2010PropOp52
 70
     0
102
RTVSPost2010Prop53
 90
        2
102
RTVSPost2010PropOp53
 70
     1
102
RTVSPost2010Prop54
  1
strokes_ogs.tif
102
RTVSPost2010PropOp54
 70
     1
102
RTVSPost2010Prop55
280
     0
102
RTVSPost2010PropOp55
 70
     1
102
RTVSPost2010Prop56
140
1.0
102
RTVSPost2010PropOp56
 70
     1
102
RTVSPost2010Prop57
140
1.0
102
RTVSPost2010PropOp57
 70
     1
102
RTVSPropertyOp0
 70
     1
102
RTVSPropertyOp1
 70
     1
102
RTVSPropertyOp2
 70
     1
102
RTVSPropertyOp3
 70
     1
102
RTVSPropertyOp4
 70
     1
102
RTVSPropertyOp5
 70
     1
102
RTVSPropertyOp6
 70
     1
102
RTVSPropertyOp7
 70
     1
102
RTVSPropertyOp8
 70
     1
102
RTVSPropertyOp9
 70
     1
102
RTVSPropertyOp10
 70
     1
102
RTVSPropertyOp11
 70
     1
102
RTVSPropertyOp12
 70
     1
102
RTVSPropertyOp13
 70
     1
102
RTVSPropertyOp14
 70
     1
102
RTVSPropertyOp15
 70
     1
102
RTVSPropertyOp16
 70
     1
102
RTVSPropertyOp17
 70
     1
102
RTVSPropertyOp18
 70
     1
102
RTVSPropertyOp19
 70
     1
102
RTVSPropertyOp20
 70
     1
102
RTVSPropertyOp21
 70
     1
102
RTVSPropertyOp22
 70
     1
102
RTVSPropertyOp23
 70
     1
102
RTVSPropertyOp24
 70
     1
102
RTVSPropertyOp25
 70
     1
102
RTVSPropertyOp26
 70
     1
102
RTVSPropertyOp27
 70
     1
102
RTVSPropertyOp28
 70
     1
102
RTVSPropertyOp29
 70
     1
102
RTVSPropertyOp30
 70
     1
102
RTVSPropertyOp31
 70
     1
102
RTVSPropertyOp32
 70
     1
102
RTVSPropertyOp33
 70
     1
102
RTVSPropertyOp34
 70
     1
102
RTVSPropertyOp35
 70
     1
102
RTVSPropertyOp36
 70
     1
102
RTVSPropertyOp37
 70
     1
102
RTVSPropertyOp38
 70
     1
102
RTVSPropertyOp39
 70
     1
102
RTVSPropertyOp40
 70
     1
102
RTVSPropertyOp41
 70
     1
102
RTVSPropertyOp42
 70
     1
102
RTVSPropertyOp43
 70
     1
102
RTVSPropertyOp44
 70
     1
102
RTVSPropertyOp45
 70
     1
102
RTVSPropertyOp46
 70
     1
102
RTVSPropertyOp47
 70
     1
102
RTVSPropertyOp48
 70
     1
102
RTVSPropertyOp49
 70
     1
102
RTVSPropertyOp50
 70
     1
102
RTVSPropertyOp51
 70
     0
102
RTVSPropertyOp52
 70
     0
102
RTVSPropertyOp53
 70
     1
102
RTVSPropertyOp54
 70
     1
102
RTVSPropertyOp55
 70
     1
102
RTVSPropertyOp56
 70
     1
102
RTVSPropertyOp57
 70
     1
102
RTVSPropertyOp58
 70
     1
102
RTVSPropertyOp59
 70
     1
102
RTVSPropertyOp60
 70
     1
102
RTVSPropertyOp61
 70
     1
102
RTVSPropertyOp62
 70
     1
  0
XRECORD
  5
A9E1
102
{ACAD_REACTORS
330
A9E0
102
}
330
A9E0
100
AcDbXrecord
280
     1
102
RTVSPost2010Prop28
280
     0
102
RTVSPost2010PropOp28
 70
     1
102
RTVSPost2010Prop29
280
     1
102
RTVSPost2010PropOp29
 70
     1
102
RTVSPost2010Prop30
280
     1
102
RTVSPost2010PropOp30
 70
     1
102
RTVSPost2010Prop31
280
     0
102
RTVSPost2010PropOp31
 70
     1
102
RTVSPost2010Prop32
280
     0
102
RTVSPost2010PropOp32
 70
     1
102
RTVSPost2010Prop33
280
     0
102
RTVSPost2010PropOp33
 70
     1
102
RTVSPost2010Prop34
280
     0
102
RTVSPost2010PropOp34
 70
     1
102
RTVSPost2010Prop35
280
     0
102
RTVSPost2010PropOp35
 70
     1
102
RTVSPost2010Prop36
280
     0
102
RTVSPost2010PropOp36
 70
     1
102
RTVSPost2010Prop37
 90
       50
102
RTVSPost2010PropOp37
 70
     1
102
RTVSPost2010Prop38
140
0.0
102
RTVSPost2010PropOp38
 70
     1
102
RTVSPost2010Prop39
140
1.0
102
RTVSPost2010PropOp39
 70
     1
102
RTVSPost2010Prop40
 90
        0
102
RTVSPost2010PropOp40
 70
     1
102
RTVSPost2010Prop41ColorIndex
 90
       18
102
RTVSPost2010Prop41ColorRGB
 90
        0
102
RTVSPost2010PropOp41
 70
     1
102
RTVSPost2010Prop42
 90
       50
102
RTVSPost2010PropOp42
 70
     1
102
RTVSPost2010Prop43
 90
        3
102
RTVSPost2010PropOp43
 70
     1
102
RTVSPost2010Prop44ColorIndex
 90
        5
102
RTVSPost2010Prop44ColorRGB
 90
      255
102
RTVSPost2010PropOp44
 70
     1
102
RTVSPost2010Prop45
280
     0
102
RTVSPost2010PropOp45
 70
     1
102
RTVSPost2010Prop46
 90
       50
102
RTVSPost2010PropOp46
 70
     1
102
RTVSPost2010Prop47
 90
       50
102
RTVSPost2010PropOp47
 70
     1
102
RTVSPost2010Prop48
 90
       50
102
RTVSPost2010PropOp48
 70
     1
102
RTVSPost2010Prop49
280
     0
102
RTVSPost2010PropOp49
 70
     1
102
RTVSPost2010Prop50
 90
       50
102
RTVSPost2010PropOp50
 70
     1
102
RTVSPost2010Prop51ColorIndex
 90
      256
102
RTVSPost2010Prop51ColorRGB
 90
-16777216
102
RTVSPost2010PropOp51
 70
     0
102
RTVSPost2010Prop52
140
1.0
102
RTVSPost2010PropOp52
 70
     0
102
RTVSPost2010Prop53
 90
        2
102
RTVSPost2010PropOp53
 70
     1
102
RTVSPost2010Prop54
  1
strokes_ogs.tif
102
RTVSPost2010PropOp54
 70
     1
102
RTVSPost2010Prop55
280
     0
102
RTVSPost2010PropOp55
 70
     1
102
RTVSPost2010Prop56
140
1.0
102
RTVSPost2010PropOp56
 70
     1
102
RTVSPost2010Prop57
140
1.0
102
RTVSPost2010PropOp57
 70
     1
102
RTVSPropertyOp0
 70
     1
102
RTVSPropertyOp1
 70
     1
102
RTVSPropertyOp2
 70
     1
102
RTVSPropertyOp3
 70
     1
102
RTVSPropertyOp4
 70
     1
102
RTVSPropertyOp5
 70
     1
102
RTVSPropertyOp6
 70
     1
102
RTVSPropertyOp7
 70
     1
102
RTVSPropertyOp8
 70
     1
102
RTVSPropertyOp9
 70
     1
102
RTVSPropertyOp10
 70
     1
102
RTVSPropertyOp11
 70
     1
102
RTVSPropertyOp12
 70
     1
102
RTVSPropertyOp13
 70
     1
102
RTVSPropertyOp14
 70
     1
102
RTVSPropertyOp15
 70
     1
102
RTVSPropertyOp16
 70
     1
102
RTVSPropertyOp17
 70
     1
102
RTVSPropertyOp18
 70
     1
102
RTVSPropertyOp19
 70
     1
102
RTVSPropertyOp20
 70
     1
102
RTVSPropertyOp21
 70
     1
102
RTVSPropertyOp22
 70
     1
102
RTVSPropertyOp23
 70
     1
102
RTVSPropertyOp24
 70
     1
102
RTVSPropertyOp25
 70
     1
102
RTVSPropertyOp26
 70
     1
102
RTVSPropertyOp27
 70
     1
102
RTVSPropertyOp28
 70
     1
102
RTVSPropertyOp29
 70
     1
102
RTVSPropertyOp30
 70
     1
102
RTVSPropertyOp31
 70
     1
102
RTVSPropertyOp32
 70
     1
102
RTVSPropertyOp33
 70
     1
102
RTVSPropertyOp34
 70
     1
102
RTVSPropertyOp35
 70
     1
102
RTVSPropertyOp36
 70
     1
102
RTVSPropertyOp37
 70
     1
102
RTVSPropertyOp38
 70
     1
102
RTVSPropertyOp39
 70
     1
102
RTVSPropertyOp40
 70
     1
102
RTVSPropertyOp41
 70
     1
102
RTVSPropertyOp42
 70
     1
102
RTVSPropertyOp43
 70
     1
102
RTVSPropertyOp44
 70
     1
102
RTVSPropertyOp45
 70
     1
102
RTVSPropertyOp46
 70
     1
102
RTVSPropertyOp47
 70
     1
102
RTVSPropertyOp48
 70
     1
102
RTVSPropertyOp49
 70
     1
102
RTVSPropertyOp50
 70
     1
102
RTVSPropertyOp51
 70
     0
102
RTVSPropertyOp52
 70
     0
102
RTVSPropertyOp53
 70
     1
102
RTVSPropertyOp54
 70
     1
102
RTVSPropertyOp55
 70
     1
102
RTVSPropertyOp56
 70
     1
102
RTVSPropertyOp57
 70
     1
102
RTVSPropertyOp58
 70
     1
102
RTVSPropertyOp59
 70
     1
102
RTVSPropertyOp60
 70
     1
102
RTVSPropertyOp61
 70
     1
102
RTVSPropertyOp62
 70
     1
  0
XRECORD
  5
A9FD
102
{ACAD_REACTORS
330
A9FC
102
}
330
A9FC
100
AcDbXrecord
280
     1
102
RTVSPost2010Prop28
280
     0
102
RTVSPost2010PropOp28
 70
     1
102
RTVSPost2010Prop29
280
     1
102
RTVSPost2010PropOp29
 70
     1
102
RTVSPost2010Prop30
280
     1
102
RTVSPost2010PropOp30
 70
     1
102
RTVSPost2010Prop31
280
     0
102
RTVSPost2010PropOp31
 70
     1
102
RTVSPost2010Prop32
280
     0
102
RTVSPost2010PropOp32
 70
     1
102
RTVSPost2010Prop33
280
     0
102
RTVSPost2010PropOp33
 70
     1
102
RTVSPost2010Prop34
280
     0
102
RTVSPost2010PropOp34
 70
     1
102
RTVSPost2010Prop35
280
     0
102
RTVSPost2010PropOp35
 70
     1
102
RTVSPost2010Prop36
280
     0
102
RTVSPost2010PropOp36
 70
     1
102
RTVSPost2010Prop37
 90
       50
102
RTVSPost2010PropOp37
 70
     0
102
RTVSPost2010Prop38
140
0.0
102
RTVSPost2010PropOp38
 70
     0
102
RTVSPost2010Prop39
140
1.0
102
RTVSPost2010PropOp39
 70
     0
102
RTVSPost2010Prop40
 90
        0
102
RTVSPost2010PropOp40
 70
     0
102
RTVSPost2010Prop41ColorIndex
 90
       18
102
RTVSPost2010Prop41ColorRGB
 90
        0
102
RTVSPost2010PropOp41
 70
     0
102
RTVSPost2010Prop42
 90
       50
102
RTVSPost2010PropOp42
 70
     0
102
RTVSPost2010Prop43
 90
        3
102
RTVSPost2010PropOp43
 70
     0
102
RTVSPost2010Prop44ColorIndex
 90
        5
102
RTVSPost2010Prop44ColorRGB
 90
      255
102
RTVSPost2010PropOp44
 70
     0
102
RTVSPost2010Prop45
280
     0
102
RTVSPost2010PropOp45
 70
     1
102
RTVSPost2010Prop46
 90
       50
102
RTVSPost2010PropOp46
 70
     0
102
RTVSPost2010Prop47
 90
       50
102
RTVSPost2010PropOp47
 70
     0
102
RTVSPost2010Prop48
 90
       50
102
RTVSPost2010PropOp48
 70
     0
102
RTVSPost2010Prop49
280
     0
102
RTVSPost2010PropOp49
 70
     1
102
RTVSPost2010Prop50
 90
       50
102
RTVSPost2010PropOp50
 70
     0
102
RTVSPost2010Prop51ColorIndex
 90
      256
102
RTVSPost2010Prop51ColorRGB
 90
-16777216
102
RTVSPost2010PropOp51
 70
     0
102
RTVSPost2010Prop52
140
1.0
102
RTVSPost2010PropOp52
 70
     0
102
RTVSPost2010Prop53
 90
        2
102
RTVSPost2010PropOp53
 70
     0
102
RTVSPost2010Prop54
  1
strokes_ogs.tif
102
RTVSPost2010PropOp54
 70
     0
102
RTVSPost2010Prop55
280
     0
102
RTVSPost2010PropOp55
 70
     1
102
RTVSPost2010Prop56
140
1.0
102
RTVSPost2010PropOp56
 70
     0
102
RTVSPost2010Prop57
140
1.0
102
RTVSPost2010PropOp57
 70
     0
102
RTVSPropertyOp0
 70
     0
102
RTVSPropertyOp1
 70
     0
102
RTVSPropertyOp2
 70
     0
102
RTVSPropertyOp3
 70
     0
102
RTVSPropertyOp4
 70
     0
102
RTVSPropertyOp5
 70
     0
102
RTVSPropertyOp6
 70
     0
102
RTVSPropertyOp7
 70
     0
102
RTVSPropertyOp8
 70
     0
102
RTVSPropertyOp9
 70
     0
102
RTVSPropertyOp10
 70
     0
102
RTVSPropertyOp11
 70
     0
102
RTVSPropertyOp12
 70
     0
102
RTVSPropertyOp13
 70
     0
102
RTVSPropertyOp14
 70
     2
102
RTVSPropertyOp15
 70
     0
102
RTVSPropertyOp16
 70
     0
102
RTVSPropertyOp17
 70
     0
102
RTVSPropertyOp18
 70
     0
102
RTVSPropertyOp19
 70
     0
102
RTVSPropertyOp20
 70
     0
102
RTVSPropertyOp21
 70
     0
102
RTVSPropertyOp22
 70
     0
102
RTVSPropertyOp23
 70
     0
102
RTVSPropertyOp24
 70
     0
102
RTVSPropertyOp25
 70
     0
102
RTVSPropertyOp26
 70
     0
102
RTVSPropertyOp27
 70
     0
102
RTVSPropertyOp28
 70
     1
102
RTVSPropertyOp29
 70
     1
102
RTVSPropertyOp30
 70
     1
102
RTVSPropertyOp31
 70
     1
102
RTVSPropertyOp32
 70
     1
102
RTVSPropertyOp33
 70
     1
102
RTVSPropertyOp34
 70
     1
102
RTVSPropertyOp35
 70
     1
102
RTVSPropertyOp36
 70
     1
102
RTVSPropertyOp37
 70
     0
102
RTVSPropertyOp38
 70
     0
102
RTVSPropertyOp39
 70
     0
102
RTVSPropertyOp40
 70
     0
102
RTVSPropertyOp41
 70
     0
102
RTVSPropertyOp42
 70
     0
102
RTVSPropertyOp43
 70
     0
102
RTVSPropertyOp44
 70
     0
102
RTVSPropertyOp45
 70
     1
102
RTVSPropertyOp46
 70
     0
102
RTVSPropertyOp47
 70
     0
102
RTVSPropertyOp48
 70
     0
102
RTVSPropertyOp49
 70
     1
102
RTVSPropertyOp50
 70
     0
102
RTVSPropertyOp51
 70
     0
102
RTVSPropertyOp52
 70
     0
102
RTVSPropertyOp53
 70
     0
102
RTVSPropertyOp54
 70
     0
102
RTVSPropertyOp55
 70
     1
102
RTVSPropertyOp56
 70
     0
102
RTVSPropertyOp57
 70
     0
102
RTVSPropertyOp58
 70
     0
102
RTVSPropertyOp59
 70
     0
102
RTVSPropertyOp60
 70
     0
102
RTVSPropertyOp61
 70
     0
102
RTVSPropertyOp62
 70
     0
  0
XRECORD
  5
A9ED
102
{ACAD_REACTORS
330
A9EC
102
}
330
A9EC
100
AcDbXrecord
280
     1
102
RTVSPost2010Prop28
280
     0
102
RTVSPost2010PropOp28
 70
     1
102
RTVSPost2010Prop29
280
     1
102
RTVSPost2010PropOp29
 70
     1
102
RTVSPost2010Prop30
280
     1
102
RTVSPost2010PropOp30
 70
     1
102
RTVSPost2010Prop31
280
     0
102
RTVSPost2010PropOp31
 70
     1
102
RTVSPost2010Prop32
280
     0
102
RTVSPost2010PropOp32
 70
     1
102
RTVSPost2010Prop33
280
     0
102
RTVSPost2010PropOp33
 70
     1
102
RTVSPost2010Prop34
280
     0
102
RTVSPost2010PropOp34
 70
     1
102
RTVSPost2010Prop35
280
     0
102
RTVSPost2010PropOp35
 70
     1
102
RTVSPost2010Prop36
280
     0
102
RTVSPost2010PropOp36
 70
     1
102
RTVSPost2010Prop37
 90
       50
102
RTVSPost2010PropOp37
 70
     1
102
RTVSPost2010Prop38
140
0.0
102
RTVSPost2010PropOp38
 70
     1
102
RTVSPost2010Prop39
140
1.0
102
RTVSPost2010PropOp39
 70
     1
102
RTVSPost2010Prop40
 90
        0
102
RTVSPost2010PropOp40
 70
     1
102
RTVSPost2010Prop41ColorIndex
 90
       18
102
RTVSPost2010Prop41ColorRGB
 90
        0
102
RTVSPost2010PropOp41
 70
     1
102
RTVSPost2010Prop42
 90
       50
102
RTVSPost2010PropOp42
 70
     1
102
RTVSPost2010Prop43
 90
        3
102
RTVSPost2010PropOp43
 70
     1
102
RTVSPost2010Prop44ColorIndex
 90
        5
102
RTVSPost2010Prop44ColorRGB
 90
      255
102
RTVSPost2010PropOp44
 70
     1
102
RTVSPost2010Prop45
280
     0
102
RTVSPost2010PropOp45
 70
     1
102
RTVSPost2010Prop46
 90
       50
102
RTVSPost2010PropOp46
 70
     1
102
RTVSPost2010Prop47
 90
       50
102
RTVSPost2010PropOp47
 70
     1
102
RTVSPost2010Prop48
 90
       50
102
RTVSPost2010PropOp48
 70
     1
102
RTVSPost2010Prop49
280
     0
102
RTVSPost2010PropOp49
 70
     1
102
RTVSPost2010Prop50
 90
       50
102
RTVSPost2010PropOp50
 70
     1
102
RTVSPost2010Prop51ColorIndex
 90
      256
102
RTVSPost2010Prop51ColorRGB
 90
-16777216
102
RTVSPost2010PropOp51
 70
     0
102
RTVSPost2010Prop52
140
1.0
102
RTVSPost2010PropOp52
 70
     0
102
RTVSPost2010Prop53
 90
        2
102
RTVSPost2010PropOp53
 70
     1
102
RTVSPost2010Prop54
  1
strokes_ogs.tif
102
RTVSPost2010PropOp54
 70
     1
102
RTVSPost2010Prop55
280
     0
102
RTVSPost2010PropOp55
 70
     1
102
RTVSPost2010Prop56
140
1.0
102
RTVSPost2010PropOp56
 70
     1
102
RTVSPost2010Prop57
140
1.0
102
RTVSPost2010PropOp57
 70
     1
102
RTVSPropertyOp0
 70
     1
102
RTVSPropertyOp1
 70
     1
102
RTVSPropertyOp2
 70
     1
102
RTVSPropertyOp3
 70
     1
102
RTVSPropertyOp4
 70
     1
102
RTVSPropertyOp5
 70
     1
102
RTVSPropertyOp6
 70
     1
102
RTVSPropertyOp7
 70
     1
102
RTVSPropertyOp8
 70
     1
102
RTVSPropertyOp9
 70
     1
102
RTVSPropertyOp10
 70
     1
102
RTVSPropertyOp11
 70
     1
102
RTVSPropertyOp12
 70
     1
102
RTVSPropertyOp13
 70
     1
102
RTVSPropertyOp14
 70
     1
102
RTVSPropertyOp15
 70
     1
102
RTVSPropertyOp16
 70
     1
102
RTVSPropertyOp17
 70
     1
102
RTVSPropertyOp18
 70
     1
102
RTVSPropertyOp19
 70
     1
102
RTVSPropertyOp20
 70
     1
102
RTVSPropertyOp21
 70
     1
102
RTVSPropertyOp22
 70
     1
102
RTVSPropertyOp23
 70
     1
102
RTVSPropertyOp24
 70
     1
102
RTVSPropertyOp25
 70
     1
102
RTVSPropertyOp26
 70
     1
102
RTVSPropertyOp27
 70
     1
102
RTVSPropertyOp28
 70
     1
102
RTVSPropertyOp29
 70
     1
102
RTVSPropertyOp30
 70
     1
102
RTVSPropertyOp31
 70
     1
102
RTVSPropertyOp32
 70
     1
102
RTVSPropertyOp33
 70
     1
102
RTVSPropertyOp34
 70
     1
102
RTVSPropertyOp35
 70
     1
102
RTVSPropertyOp36
 70
     1
102
RTVSPropertyOp37
 70
     1
102
RTVSPropertyOp38
 70
     1
102
RTVSPropertyOp39
 70
     1
102
RTVSPropertyOp40
 70
     1
102
RTVSPropertyOp41
 70
     1
102
RTVSPropertyOp42
 70
     1
102
RTVSPropertyOp43
 70
     1
102
RTVSPropertyOp44
 70
     1
102
RTVSPropertyOp45
 70
     1
102
RTVSPropertyOp46
 70
     1
102
RTVSPropertyOp47
 70
     1
102
RTVSPropertyOp48
 70
     1
102
RTVSPropertyOp49
 70
     1
102
RTVSPropertyOp50
 70
     1
102
RTVSPropertyOp51
 70
     0
102
RTVSPropertyOp52
 70
     0
102
RTVSPropertyOp53
 70
     1
102
RTVSPropertyOp54
 70
     1
102
RTVSPropertyOp55
 70
     1
102
RTVSPropertyOp56
 70
     1
102
RTVSPropertyOp57
 70
     1
102
RTVSPropertyOp58
 70
     1
102
RTVSPropertyOp59
 70
     1
102
RTVSPropertyOp60
 70
     1
102
RTVSPropertyOp61
 70
     1
102
RTVSPropertyOp62
 70
     1
  0
XRECORD
  5
A9FF
102
{ACAD_REACTORS
330
A9FE
102
}
330
A9FE
100
AcDbXrecord
280
     1
102
RTVSPost2010Prop28
280
     0
102
RTVSPost2010PropOp28
 70
     1
102
RTVSPost2010Prop29
280
     1
102
RTVSPost2010PropOp29
 70
     1
102
RTVSPost2010Prop30
280
     1
102
RTVSPost2010PropOp30
 70
     1
102
RTVSPost2010Prop31
280
     0
102
RTVSPost2010PropOp31
 70
     1
102
RTVSPost2010Prop32
280
     0
102
RTVSPost2010PropOp32
 70
     1
102
RTVSPost2010Prop33
280
     0
102
RTVSPost2010PropOp33
 70
     1
102
RTVSPost2010Prop34
280
     0
102
RTVSPost2010PropOp34
 70
     1
102
RTVSPost2010Prop35
280
     0
102
RTVSPost2010PropOp35
 70
     1
102
RTVSPost2010Prop36
280
     0
102
RTVSPost2010PropOp36
 70
     1
102
RTVSPost2010Prop37
 90
       50
102
RTVSPost2010PropOp37
 70
     0
102
RTVSPost2010Prop38
140
0.0
102
RTVSPost2010PropOp38
 70
     0
102
RTVSPost2010Prop39
140
1.0
102
RTVSPost2010PropOp39
 70
     0
102
RTVSPost2010Prop40
 90
        0
102
RTVSPost2010PropOp40
 70
     0
102
RTVSPost2010Prop41ColorIndex
 90
       18
102
RTVSPost2010Prop41ColorRGB
 90
        0
102
RTVSPost2010PropOp41
 70
     0
102
RTVSPost2010Prop42
 90
       50
102
RTVSPost2010PropOp42
 70
     0
102
RTVSPost2010Prop43
 90
        3
102
RTVSPost2010PropOp43
 70
     0
102
RTVSPost2010Prop44ColorIndex
 90
        5
102
RTVSPost2010Prop44ColorRGB
 90
      255
102
RTVSPost2010PropOp44
 70
     0
102
RTVSPost2010Prop45
280
     0
102
RTVSPost2010PropOp45
 70
     1
102
RTVSPost2010Prop46
 90
       50
102
RTVSPost2010PropOp46
 70
     0
102
RTVSPost2010Prop47
 90
       50
102
RTVSPost2010PropOp47
 70
     0
102
RTVSPost2010Prop48
 90
       50
102
RTVSPost2010PropOp48
 70
     0
102
RTVSPost2010Prop49
280
     0
102
RTVSPost2010PropOp49
 70
     1
102
RTVSPost2010Prop50
 90
       50
102
RTVSPost2010PropOp50
 70
     0
102
RTVSPost2010Prop51ColorIndex
 90
      256
102
RTVSPost2010Prop51ColorRGB
 90
-16777216
102
RTVSPost2010PropOp51
 70
     0
102
RTVSPost2010Prop52
140
1.0
102
RTVSPost2010PropOp52
 70
     0
102
RTVSPost2010Prop53
 90
        2
102
RTVSPost2010PropOp53
 70
     0
102
RTVSPost2010Prop54
  1
strokes_ogs.tif
102
RTVSPost2010PropOp54
 70
     0
102
RTVSPost2010Prop55
280
     0
102
RTVSPost2010PropOp55
 70
     1
102
RTVSPost2010Prop56
140
1.0
102
RTVSPost2010PropOp56
 70
     0
102
RTVSPost2010Prop57
140
1.0
102
RTVSPost2010PropOp57
 70
     0
102
RTVSPropertyOp0
 70
     0
102
RTVSPropertyOp1
 70
     0
102
RTVSPropertyOp2
 70
     0
102
RTVSPropertyOp3
 70
     0
102
RTVSPropertyOp4
 70
     0
102
RTVSPropertyOp5
 70
     0
102
RTVSPropertyOp6
 70
     0
102
RTVSPropertyOp7
 70
     0
102
RTVSPropertyOp8
 70
     0
102
RTVSPropertyOp9
 70
     0
102
RTVSPropertyOp10
 70
     0
102
RTVSPropertyOp11
 70
     0
102
RTVSPropertyOp12
 70
     0
102
RTVSPropertyOp13
 70
     0
102
RTVSPropertyOp14
 70
     2
102
RTVSPropertyOp15
 70
     0
102
RTVSPropertyOp16
 70
     0
102
RTVSPropertyOp17
 70
     0
102
RTVSPropertyOp18
 70
     0
102
RTVSPropertyOp19
 70
     0
102
RTVSPropertyOp20
 70
     0
102
RTVSPropertyOp21
 70
     0
102
RTVSPropertyOp22
 70
     0
102
RTVSPropertyOp23
 70
     0
102
RTVSPropertyOp24
 70
     0
102
RTVSPropertyOp25
 70
     0
102
RTVSPropertyOp26
 70
     0
102
RTVSPropertyOp27
 70
     0
102
RTVSPropertyOp28
 70
     1
102
RTVSPropertyOp29
 70
     1
102
RTVSPropertyOp30
 70
     1
102
RTVSPropertyOp31
 70
     1
102
RTVSPropertyOp32
 70
     1
102
RTVSPropertyOp33
 70
     1
102
RTVSPropertyOp34
 70
     1
102
RTVSPropertyOp35
 70
     1
102
RTVSPropertyOp36
 70
     1
102
RTVSPropertyOp37
 70
     0
102
RTVSPropertyOp38
 70
     0
102
RTVSPropertyOp39
 70
     0
102
RTVSPropertyOp40
 70
     0
102
RTVSPropertyOp41
 70
     0
102
RTVSPropertyOp42
 70
     0
102
RTVSPropertyOp43
 70
     0
102
RTVSPropertyOp44
 70
     0
102
RTVSPropertyOp45
 70
     1
102
RTVSPropertyOp46
 70
     0
102
RTVSPropertyOp47
 70
     0
102
RTVSPropertyOp48
 70
     0
102
RTVSPropertyOp49
 70
     1
102
RTVSPropertyOp50
 70
     0
102
RTVSPropertyOp51
 70
     0
102
RTVSPropertyOp52
 70
     0
102
RTVSPropertyOp53
 70
     0
102
RTVSPropertyOp54
 70
     0
102
RTVSPropertyOp55
 70
     1
102
RTVSPropertyOp56
 70
     0
102
RTVSPropertyOp57
 70
     0
102
RTVSPropertyOp58
 70
     0
102
RTVSPropertyOp59
 70
     0
102
RTVSPropertyOp60
 70
     0
102
RTVSPropertyOp61
 70
     0
102
RTVSPropertyOp62
 70
     0
  0
XRECORD
  5
A9E5
102
{ACAD_REACTORS
330
A9E4
102
}
330
A9E4
100
AcDbXrecord
280
     1
102
RTVSPost2010Prop28
280
     0
102
RTVSPost2010PropOp28
 70
     1
102
RTVSPost2010Prop29
280
     1
102
RTVSPost2010PropOp29
 70
     1
102
RTVSPost2010Prop30
280
     1
102
RTVSPost2010PropOp30
 70
     1
102
RTVSPost2010Prop31
280
     0
102
RTVSPost2010PropOp31
 70
     1
102
RTVSPost2010Prop32
280
     0
102
RTVSPost2010PropOp32
 70
     1
102
RTVSPost2010Prop33
280
     0
102
RTVSPost2010PropOp33
 70
     1
102
RTVSPost2010Prop34
280
     0
102
RTVSPost2010PropOp34
 70
     1
102
RTVSPost2010Prop35
280
     0
102
RTVSPost2010PropOp35
 70
     1
102
RTVSPost2010Prop36
280
     0
102
RTVSPost2010PropOp36
 70
     1
102
RTVSPost2010Prop37
 90
       50
102
RTVSPost2010PropOp37
 70
     1
102
RTVSPost2010Prop38
140
0.0
102
RTVSPost2010PropOp38
 70
     1
102
RTVSPost2010Prop39
140
1.0
102
RTVSPost2010PropOp39
 70
     1
102
RTVSPost2010Prop40
 90
        0
102
RTVSPost2010PropOp40
 70
     1
102
RTVSPost2010Prop41ColorIndex
 90
       18
102
RTVSPost2010Prop41ColorRGB
 90
        0
102
RTVSPost2010PropOp41
 70
     1
102
RTVSPost2010Prop42
 90
       50
102
RTVSPost2010PropOp42
 70
     1
102
RTVSPost2010Prop43
 90
        3
102
RTVSPost2010PropOp43
 70
     1
102
RTVSPost2010Prop44ColorIndex
 90
        5
102
RTVSPost2010Prop44ColorRGB
 90
      255
102
RTVSPost2010PropOp44
 70
     1
102
RTVSPost2010Prop45
280
     0
102
RTVSPost2010PropOp45
 70
     1
102
RTVSPost2010Prop46
 90
       50
102
RTVSPost2010PropOp46
 70
     1
102
RTVSPost2010Prop47
 90
       50
102
RTVSPost2010PropOp47
 70
     1
102
RTVSPost2010Prop48
 90
       50
102
RTVSPost2010PropOp48
 70
     1
102
RTVSPost2010Prop49
280
     0
102
RTVSPost2010PropOp49
 70
     1
102
RTVSPost2010Prop50
 90
       50
102
RTVSPost2010PropOp50
 70
     1
102
RTVSPost2010Prop51ColorIndex
 90
      256
102
RTVSPost2010Prop51ColorRGB
 90
-16777216
102
RTVSPost2010PropOp51
 70
     0
102
RTVSPost2010Prop52
140
1.0
102
RTVSPost2010PropOp52
 70
     0
102
RTVSPost2010Prop53
 90
        2
102
RTVSPost2010PropOp53
 70
     1
102
RTVSPost2010Prop54
  1
strokes_ogs.tif
102
RTVSPost2010PropOp54
 70
     1
102
RTVSPost2010Prop55
280
     0
102
RTVSPost2010PropOp55
 70
     1
102
RTVSPost2010Prop56
140
1.0
102
RTVSPost2010PropOp56
 70
     1
102
RTVSPost2010Prop57
140
1.0
102
RTVSPost2010PropOp57
 70
     1
102
RTVSPropertyOp0
 70
     1
102
RTVSPropertyOp1
 70
     1
102
RTVSPropertyOp2
 70
     1
102
RTVSPropertyOp3
 70
     1
102
RTVSPropertyOp4
 70
     1
102
RTVSPropertyOp5
 70
     1
102
RTVSPropertyOp6
 70
     1
102
RTVSPropertyOp7
 70
     1
102
RTVSPropertyOp8
 70
     1
102
RTVSPropertyOp9
 70
     1
102
RTVSPropertyOp10
 70
     1
102
RTVSPropertyOp11
 70
     1
102
RTVSPropertyOp12
 70
     1
102
RTVSPropertyOp13
 70
     1
102
RTVSPropertyOp14
 70
     1
102
RTVSPropertyOp15
 70
     1
102
RTVSPropertyOp16
 70
     1
102
RTVSPropertyOp17
 70
     1
102
RTVSPropertyOp18
 70
     1
102
RTVSPropertyOp19
 70
     1
102
RTVSPropertyOp20
 70
     1
102
RTVSPropertyOp21
 70
     1
102
RTVSPropertyOp22
 70
     1
102
RTVSPropertyOp23
 70
     1
102
RTVSPropertyOp24
 70
     1
102
RTVSPropertyOp25
 70
     1
102
RTVSPropertyOp26
 70
     1
102
RTVSPropertyOp27
 70
     1
102
RTVSPropertyOp28
 70
     1
102
RTVSPropertyOp29
 70
     1
102
RTVSPropertyOp30
 70
     1
102
RTVSPropertyOp31
 70
     1
102
RTVSPropertyOp32
 70
     1
102
RTVSPropertyOp33
 70
     1
102
RTVSPropertyOp34
 70
     1
102
RTVSPropertyOp35
 70
     1
102
RTVSPropertyOp36
 70
     1
102
RTVSPropertyOp37
 70
     1
102
RTVSPropertyOp38
 70
     1
102
RTVSPropertyOp39
 70
     1
102
RTVSPropertyOp40
 70
     1
102
RTVSPropertyOp41
 70
     1
102
RTVSPropertyOp42
 70
     1
102
RTVSPropertyOp43
 70
     1
102
RTVSPropertyOp44
 70
     1
102
RTVSPropertyOp45
 70
     1
102
RTVSPropertyOp46
 70
     1
102
RTVSPropertyOp47
 70
     1
102
RTVSPropertyOp48
 70
     1
102
RTVSPropertyOp49
 70
     1
102
RTVSPropertyOp50
 70
     1
102
RTVSPropertyOp51
 70
     0
102
RTVSPropertyOp52
 70
     0
102
RTVSPropertyOp53
 70
     1
102
RTVSPropertyOp54
 70
     1
102
RTVSPropertyOp55
 70
     1
102
RTVSPropertyOp56
 70
     1
102
RTVSPropertyOp57
 70
     1
102
RTVSPropertyOp58
 70
     1
102
RTVSPropertyOp59
 70
     1
102
RTVSPropertyOp60
 70
     1
102
RTVSPropertyOp61
 70
     1
102
RTVSPropertyOp62
 70
     1
  0
XRECORD
  5
A9FB
102
{ACAD_REACTORS
330
A9FA
102
}
330
A9FA
100
AcDbXrecord
280
     1
102
RTVSPost2010Prop28
280
     0
102
RTVSPost2010PropOp28
 70
     1
102
RTVSPost2010Prop29
280
     1
102
RTVSPost2010PropOp29
 70
     1
102
RTVSPost2010Prop30
280
     1
102
RTVSPost2010PropOp30
 70
     1
102
RTVSPost2010Prop31
280
     0
102
RTVSPost2010PropOp31
 70
     1
102
RTVSPost2010Prop32
280
     0
102
RTVSPost2010PropOp32
 70
     1
102
RTVSPost2010Prop33
280
     0
102
RTVSPost2010PropOp33
 70
     1
102
RTVSPost2010Prop34
280
     0
102
RTVSPost2010PropOp34
 70
     1
102
RTVSPost2010Prop35
280
     0
102
RTVSPost2010PropOp35
 70
     1
102
RTVSPost2010Prop36
280
     0
102
RTVSPost2010PropOp36
 70
     1
102
RTVSPost2010Prop37
 90
       50
102
RTVSPost2010PropOp37
 70
     1
102
RTVSPost2010Prop38
140
0.0
102
RTVSPost2010PropOp38
 70
     1
102
RTVSPost2010Prop39
140
1.0
102
RTVSPost2010PropOp39
 70
     1
102
RTVSPost2010Prop40
 90
        0
102
RTVSPost2010PropOp40
 70
     1
102
RTVSPost2010Prop41ColorIndex
 90
       18
102
RTVSPost2010Prop41ColorRGB
 90
        0
102
RTVSPost2010PropOp41
 70
     1
102
RTVSPost2010Prop42
 90
       50
102
RTVSPost2010PropOp42
 70
     1
102
RTVSPost2010Prop43
 90
        3
102
RTVSPost2010PropOp43
 70
     1
102
RTVSPost2010Prop44ColorIndex
 90
        5
102
RTVSPost2010Prop44ColorRGB
 90
      255
102
RTVSPost2010PropOp44
 70
     1
102
RTVSPost2010Prop45
280
     0
102
RTVSPost2010PropOp45
 70
     1
102
RTVSPost2010Prop46
 90
       50
102
RTVSPost2010PropOp46
 70
     1
102
RTVSPost2010Prop47
 90
       50
102
RTVSPost2010PropOp47
 70
     1
102
RTVSPost2010Prop48
 90
       50
102
RTVSPost2010PropOp48
 70
     1
102
RTVSPost2010Prop49
280
     0
102
RTVSPost2010PropOp49
 70
     1
102
RTVSPost2010Prop50
 90
       50
102
RTVSPost2010PropOp50
 70
     1
102
RTVSPost2010Prop51ColorIndex
 90
      256
102
RTVSPost2010Prop51ColorRGB
 90
-16777216
102
RTVSPost2010PropOp51
 70
     0
102
RTVSPost2010Prop52
140
1.0
102
RTVSPost2010PropOp52
 70
     0
102
RTVSPost2010Prop53
 90
        2
102
RTVSPost2010PropOp53
 70
     1
102
RTVSPost2010Prop54
  1
strokes_ogs.tif
102
RTVSPost2010PropOp54
 70
     1
102
RTVSPost2010Prop55
280
     0
102
RTVSPost2010PropOp55
 70
     1
102
RTVSPost2010Prop56
140
1.0
102
RTVSPost2010PropOp56
 70
     1
102
RTVSPost2010Prop57
140
1.0
102
RTVSPost2010PropOp57
 70
     1
102
RTVSPropertyOp0
 70
     1
102
RTVSPropertyOp1
 70
     1
102
RTVSPropertyOp2
 70
     1
102
RTVSPropertyOp3
 70
     1
102
RTVSPropertyOp4
 70
     1
102
RTVSPropertyOp5
 70
     1
102
RTVSPropertyOp6
 70
     1
102
RTVSPropertyOp7
 70
     1
102
RTVSPropertyOp8
 70
     1
102
RTVSPropertyOp9
 70
     1
102
RTVSPropertyOp10
 70
     1
102
RTVSPropertyOp11
 70
     1
102
RTVSPropertyOp12
 70
     1
102
RTVSPropertyOp13
 70
     1
102
RTVSPropertyOp14
 70
     1
102
RTVSPropertyOp15
 70
     1
102
RTVSPropertyOp16
 70
     1
102
RTVSPropertyOp17
 70
     1
102
RTVSPropertyOp18
 70
     1
102
RTVSPropertyOp19
 70
     1
102
RTVSPropertyOp20
 70
     1
102
RTVSPropertyOp21
 70
     1
102
RTVSPropertyOp22
 70
     1
102
RTVSPropertyOp23
 70
     1
102
RTVSPropertyOp24
 70
     1
102
RTVSPropertyOp25
 70
     1
102
RTVSPropertyOp26
 70
     1
102
RTVSPropertyOp27
 70
     1
102
RTVSPropertyOp28
 70
     1
102
RTVSPropertyOp29
 70
     1
102
RTVSPropertyOp30
 70
     1
102
RTVSPropertyOp31
 70
     1
102
RTVSPropertyOp32
 70
     1
102
RTVSPropertyOp33
 70
     1
102
RTVSPropertyOp34
 70
     1
102
RTVSPropertyOp35
 70
     1
102
RTVSPropertyOp36
 70
     1
102
RTVSPropertyOp37
 70
     1
102
RTVSPropertyOp38
 70
     1
102
RTVSPropertyOp39
 70
     1
102
RTVSPropertyOp40
 70
     1
102
RTVSPropertyOp41
 70
     1
102
RTVSPropertyOp42
 70
     1
102
RTVSPropertyOp43
 70
     1
102
RTVSPropertyOp44
 70
     1
102
RTVSPropertyOp45
 70
     1
102
RTVSPropertyOp46
 70
     1
102
RTVSPropertyOp47
 70
     1
102
RTVSPropertyOp48
 70
     1
102
RTVSPropertyOp49
 70
     1
102
RTVSPropertyOp50
 70
     1
102
RTVSPropertyOp51
 70
     0
102
RTVSPropertyOp52
 70
     0
102
RTVSPropertyOp53
 70
     1
102
RTVSPropertyOp54
 70
     1
102
RTVSPropertyOp55
 70
     1
102
RTVSPropertyOp56
 70
     1
102
RTVSPropertyOp57
 70
     1
102
RTVSPropertyOp58
 70
     1
102
RTVSPropertyOp59
 70
     1
102
RTVSPropertyOp60
 70
     1
102
RTVSPropertyOp61
 70
     1
102
RTVSPropertyOp62
 70
     1
  0
XRECORD
  5
A9F9
102
{ACAD_REACTORS
330
A9F8
102
}
330
A9F8
100
AcDbXrecord
280
     1
102
RTVSPost2010Prop28
280
     0
102
RTVSPost2010PropOp28
 70
     1
102
RTVSPost2010Prop29
280
     1
102
RTVSPost2010PropOp29
 70
     1
102
RTVSPost2010Prop30
280
     1
102
RTVSPost2010PropOp30
 70
     1
102
RTVSPost2010Prop31
280
     0
102
RTVSPost2010PropOp31
 70
     1
102
RTVSPost2010Prop32
280
     0
102
RTVSPost2010PropOp32
 70
     1
102
RTVSPost2010Prop33
280
     0
102
RTVSPost2010PropOp33
 70
     1
102
RTVSPost2010Prop34
280
     0
102
RTVSPost2010PropOp34
 70
     1
102
RTVSPost2010Prop35
280
     0
102
RTVSPost2010PropOp35
 70
     1
102
RTVSPost2010Prop36
280
     0
102
RTVSPost2010PropOp36
 70
     1
102
RTVSPost2010Prop37
 90
       50
102
RTVSPost2010PropOp37
 70
     1
102
RTVSPost2010Prop38
140
0.0
102
RTVSPost2010PropOp38
 70
     1
102
RTVSPost2010Prop39
140
1.0
102
RTVSPost2010PropOp39
 70
     1
102
RTVSPost2010Prop40
 90
        0
102
RTVSPost2010PropOp40
 70
     1
102
RTVSPost2010Prop41ColorIndex
 90
       18
102
RTVSPost2010Prop41ColorRGB
 90
        0
102
RTVSPost2010PropOp41
 70
     1
102
RTVSPost2010Prop42
 90
       50
102
RTVSPost2010PropOp42
 70
     1
102
RTVSPost2010Prop43
 90
        3
102
RTVSPost2010PropOp43
 70
     1
102
RTVSPost2010Prop44ColorIndex
 90
        5
102
RTVSPost2010Prop44ColorRGB
 90
      255
102
RTVSPost2010PropOp44
 70
     1
102
RTVSPost2010Prop45
280
     0
102
RTVSPost2010PropOp45
 70
     1
102
RTVSPost2010Prop46
 90
       50
102
RTVSPost2010PropOp46
 70
     1
102
RTVSPost2010Prop47
 90
       50
102
RTVSPost2010PropOp47
 70
     1
102
RTVSPost2010Prop48
 90
       50
102
RTVSPost2010PropOp48
 70
     1
102
RTVSPost2010Prop49
280
     0
102
RTVSPost2010PropOp49
 70
     1
102
RTVSPost2010Prop50
 90
       50
102
RTVSPost2010PropOp50
 70
     1
102
RTVSPost2010Prop51ColorIndex
 90
      256
102
RTVSPost2010Prop51ColorRGB
 90
-16777216
102
RTVSPost2010PropOp51
 70
     0
102
RTVSPost2010Prop52
140
1.0
102
RTVSPost2010PropOp52
 70
     0
102
RTVSPost2010Prop53
 90
        2
102
RTVSPost2010PropOp53
 70
     1
102
RTVSPost2010Prop54
  1
strokes_ogs.tif
102
RTVSPost2010PropOp54
 70
     1
102
RTVSPost2010Prop55
280
     0
102
RTVSPost2010PropOp55
 70
     1
102
RTVSPost2010Prop56
140
1.0
102
RTVSPost2010PropOp56
 70
     1
102
RTVSPost2010Prop57
140
1.0
102
RTVSPost2010PropOp57
 70
     1
102
RTVSPropertyOp0
 70
     1
102
RTVSPropertyOp1
 70
     1
102
RTVSPropertyOp2
 70
     1
102
RTVSPropertyOp3
 70
     1
102
RTVSPropertyOp4
 70
     1
102
RTVSPropertyOp5
 70
     1
102
RTVSPropertyOp6
 70
     1
102
RTVSPropertyOp7
 70
     1
102
RTVSPropertyOp8
 70
     1
102
RTVSPropertyOp9
 70
     1
102
RTVSPropertyOp10
 70
     1
102
RTVSPropertyOp11
 70
     1
102
RTVSPropertyOp12
 70
     1
102
RTVSPropertyOp13
 70
     1
102
RTVSPropertyOp14
 70
     1
102
RTVSPropertyOp15
 70
     1
102
RTVSPropertyOp16
 70
     1
102
RTVSPropertyOp17
 70
     1
102
RTVSPropertyOp18
 70
     1
102
RTVSPropertyOp19
 70
     1
102
RTVSPropertyOp20
 70
     1
102
RTVSPropertyOp21
 70
     1
102
RTVSPropertyOp22
 70
     1
102
RTVSPropertyOp23
 70
     1
102
RTVSPropertyOp24
 70
     1
102
RTVSPropertyOp25
 70
     1
102
RTVSPropertyOp26
 70
     1
102
RTVSPropertyOp27
 70
     1
102
RTVSPropertyOp28
 70
     1
102
RTVSPropertyOp29
 70
     1
102
RTVSPropertyOp30
 70
     1
102
RTVSPropertyOp31
 70
     1
102
RTVSPropertyOp32
 70
     1
102
RTVSPropertyOp33
 70
     1
102
RTVSPropertyOp34
 70
     1
102
RTVSPropertyOp35
 70
     1
102
RTVSPropertyOp36
 70
     1
102
RTVSPropertyOp37
 70
     1
102
RTVSPropertyOp38
 70
     1
102
RTVSPropertyOp39
 70
     1
102
RTVSPropertyOp40
 70
     1
102
RTVSPropertyOp41
 70
     1
102
RTVSPropertyOp42
 70
     1
102
RTVSPropertyOp43
 70
     1
102
RTVSPropertyOp44
 70
     1
102
RTVSPropertyOp45
 70
     1
102
RTVSPropertyOp46
 70
     1
102
RTVSPropertyOp47
 70
     1
102
RTVSPropertyOp48
 70
     1
102
RTVSPropertyOp49
 70
     1
102
RTVSPropertyOp50
 70
     1
102
RTVSPropertyOp51
 70
     0
102
RTVSPropertyOp52
 70
     0
102
RTVSPropertyOp53
 70
     1
102
RTVSPropertyOp54
 70
     1
102
RTVSPropertyOp55
 70
     1
102
RTVSPropertyOp56
 70
     1
102
RTVSPropertyOp57
 70
     1
102
RTVSPropertyOp58
 70
     1
102
RTVSPropertyOp59
 70
     1
102
RTVSPropertyOp60
 70
     1
102
RTVSPropertyOp61
 70
     1
102
RTVSPropertyOp62
 70
     1
  0
XRECORD
  5
A9F3
102
{ACAD_REACTORS
330
A9F2
102
}
330
A9F2
100
AcDbXrecord
280
     1
102
RTVSPost2010Prop28
280
     0
102
RTVSPost2010PropOp28
 70
     1
102
RTVSPost2010Prop29
280
     1
102
RTVSPost2010PropOp29
 70
     1
102
RTVSPost2010Prop30
280
     1
102
RTVSPost2010PropOp30
 70
     1
102
RTVSPost2010Prop31
280
     0
102
RTVSPost2010PropOp31
 70
     1
102
RTVSPost2010Prop32
280
     0
102
RTVSPost2010PropOp32
 70
     1
102
RTVSPost2010Prop33
280
     0
102
RTVSPost2010PropOp33
 70
     1
102
RTVSPost2010Prop34
280
     0
102
RTVSPost2010PropOp34
 70
     1
102
RTVSPost2010Prop35
280
     0
102
RTVSPost2010PropOp35
 70
     1
102
RTVSPost2010Prop36
280
     0
102
RTVSPost2010PropOp36
 70
     1
102
RTVSPost2010Prop37
 90
       50
102
RTVSPost2010PropOp37
 70
     1
102
RTVSPost2010Prop38
140
0.0
102
RTVSPost2010PropOp38
 70
     1
102
RTVSPost2010Prop39
140
1.0
102
RTVSPost2010PropOp39
 70
     1
102
RTVSPost2010Prop40
 90
        0
102
RTVSPost2010PropOp40
 70
     1
102
RTVSPost2010Prop41ColorIndex
 90
       18
102
RTVSPost2010Prop41ColorRGB
 90
        0
102
RTVSPost2010PropOp41
 70
     1
102
RTVSPost2010Prop42
 90
       50
102
RTVSPost2010PropOp42
 70
     1
102
RTVSPost2010Prop43
 90
        3
102
RTVSPost2010PropOp43
 70
     1
102
RTVSPost2010Prop44ColorIndex
 90
        5
102
RTVSPost2010Prop44ColorRGB
 90
      255
102
RTVSPost2010PropOp44
 70
     1
102
RTVSPost2010Prop45
280
     0
102
RTVSPost2010PropOp45
 70
     1
102
RTVSPost2010Prop46
 90
       50
102
RTVSPost2010PropOp46
 70
     1
102
RTVSPost2010Prop47
 90
       50
102
RTVSPost2010PropOp47
 70
     1
102
RTVSPost2010Prop48
 90
       50
102
RTVSPost2010PropOp48
 70
     1
102
RTVSPost2010Prop49
280
     0
102
RTVSPost2010PropOp49
 70
     1
102
RTVSPost2010Prop50
 90
       50
102
RTVSPost2010PropOp50
 70
     1
102
RTVSPost2010Prop51ColorIndex
 90
      256
102
RTVSPost2010Prop51ColorRGB
 90
-16777216
102
RTVSPost2010PropOp51
 70
     0
102
RTVSPost2010Prop52
140
1.0
102
RTVSPost2010PropOp52
 70
     0
102
RTVSPost2010Prop53
 90
        2
102
RTVSPost2010PropOp53
 70
     1
102
RTVSPost2010Prop54
  1
strokes_ogs.tif
102
RTVSPost2010PropOp54
 70
     1
102
RTVSPost2010Prop55
280
     0
102
RTVSPost2010PropOp55
 70
     1
102
RTVSPost2010Prop56
140
1.0
102
RTVSPost2010PropOp56
 70
     1
102
RTVSPost2010Prop57
140
1.0
102
RTVSPost2010PropOp57
 70
     1
102
RTVSPropertyOp0
 70
     1
102
RTVSPropertyOp1
 70
     1
102
RTVSPropertyOp2
 70
     1
102
RTVSPropertyOp3
 70
     1
102
RTVSPropertyOp4
 70
     1
102
RTVSPropertyOp5
 70
     1
102
RTVSPropertyOp6
 70
     1
102
RTVSPropertyOp7
 70
     1
102
RTVSPropertyOp8
 70
     1
102
RTVSPropertyOp9
 70
     1
102
RTVSPropertyOp10
 70
     1
102
RTVSPropertyOp11
 70
     1
102
RTVSPropertyOp12
 70
     1
102
RTVSPropertyOp13
 70
     1
102
RTVSPropertyOp14
 70
     1
102
RTVSPropertyOp15
 70
     1
102
RTVSPropertyOp16
 70
     1
102
RTVSPropertyOp17
 70
     1
102
RTVSPropertyOp18
 70
     1
102
RTVSPropertyOp19
 70
     1
102
RTVSPropertyOp20
 70
     1
102
RTVSPropertyOp21
 70
     1
102
RTVSPropertyOp22
 70
     1
102
RTVSPropertyOp23
 70
     1
102
RTVSPropertyOp24
 70
     1
102
RTVSPropertyOp25
 70
     1
102
RTVSPropertyOp26
 70
     1
102
RTVSPropertyOp27
 70
     1
102
RTVSPropertyOp28
 70
     1
102
RTVSPropertyOp29
 70
     1
102
RTVSPropertyOp30
 70
     1
102
RTVSPropertyOp31
 70
     1
102
RTVSPropertyOp32
 70
     1
102
RTVSPropertyOp33
 70
     1
102
RTVSPropertyOp34
 70
     1
102
RTVSPropertyOp35
 70
     1
102
RTVSPropertyOp36
 70
     1
102
RTVSPropertyOp37
 70
     1
102
RTVSPropertyOp38
 70
     1
102
RTVSPropertyOp39
 70
     1
102
RTVSPropertyOp40
 70
     1
102
RTVSPropertyOp41
 70
     1
102
RTVSPropertyOp42
 70
     1
102
RTVSPropertyOp43
 70
     1
102
RTVSPropertyOp44
 70
     1
102
RTVSPropertyOp45
 70
     1
102
RTVSPropertyOp46
 70
     1
102
RTVSPropertyOp47
 70
     1
102
RTVSPropertyOp48
 70
     1
102
RTVSPropertyOp49
 70
     1
102
RTVSPropertyOp50
 70
     1
102
RTVSPropertyOp51
 70
     0
102
RTVSPropertyOp52
 70
     0
102
RTVSPropertyOp53
 70
     1
102
RTVSPropertyOp54
 70
     1
102
RTVSPropertyOp55
 70
     1
102
RTVSPropertyOp56
 70
     1
102
RTVSPropertyOp57
 70
     1
102
RTVSPropertyOp58
 70
     1
102
RTVSPropertyOp59
 70
     1
102
RTVSPropertyOp60
 70
     1
102
RTVSPropertyOp61
 70
     1
102
RTVSPropertyOp62
 70
     1
  0
XRECORD
  5
A9F5
102
{ACAD_REACTORS
330
A9F4
102
}
330
A9F4
100
AcDbXrecord
280
     1
102
RTVSPost2010Prop28
280
     0
102
RTVSPost2010PropOp28
 70
     1
102
RTVSPost2010Prop29
280
     1
102
RTVSPost2010PropOp29
 70
     1
102
RTVSPost2010Prop30
280
     1
102
RTVSPost2010PropOp30
 70
     1
102
RTVSPost2010Prop31
280
     0
102
RTVSPost2010PropOp31
 70
     1
102
RTVSPost2010Prop32
280
     0
102
RTVSPost2010PropOp32
 70
     1
102
RTVSPost2010Prop33
280
     0
102
RTVSPost2010PropOp33
 70
     1
102
RTVSPost2010Prop34
280
     0
102
RTVSPost2010PropOp34
 70
     1
102
RTVSPost2010Prop35
280
     0
102
RTVSPost2010PropOp35
 70
     1
102
RTVSPost2010Prop36
280
     0
102
RTVSPost2010PropOp36
 70
     1
102
RTVSPost2010Prop37
 90
       50
102
RTVSPost2010PropOp37
 70
     1
102
RTVSPost2010Prop38
140
0.0
102
RTVSPost2010PropOp38
 70
     1
102
RTVSPost2010Prop39
140
1.0
102
RTVSPost2010PropOp39
 70
     1
102
RTVSPost2010Prop40
 90
        0
102
RTVSPost2010PropOp40
 70
     1
102
RTVSPost2010Prop41ColorIndex
 90
       18
102
RTVSPost2010Prop41ColorRGB
 90
        0
102
RTVSPost2010PropOp41
 70
     1
102
RTVSPost2010Prop42
 90
       50
102
RTVSPost2010PropOp42
 70
     1
102
RTVSPost2010Prop43
 90
        3
102
RTVSPost2010PropOp43
 70
     1
102
RTVSPost2010Prop44ColorIndex
 90
        5
102
RTVSPost2010Prop44ColorRGB
 90
      255
102
RTVSPost2010PropOp44
 70
     1
102
RTVSPost2010Prop45
280
     0
102
RTVSPost2010PropOp45
 70
     1
102
RTVSPost2010Prop46
 90
       50
102
RTVSPost2010PropOp46
 70
     1
102
RTVSPost2010Prop47
 90
       50
102
RTVSPost2010PropOp47
 70
     1
102
RTVSPost2010Prop48
 90
       50
102
RTVSPost2010PropOp48
 70
     1
102
RTVSPost2010Prop49
280
     0
102
RTVSPost2010PropOp49
 70
     1
102
RTVSPost2010Prop50
 90
       50
102
RTVSPost2010PropOp50
 70
     1
102
RTVSPost2010Prop51ColorIndex
 90
      256
102
RTVSPost2010Prop51ColorRGB
 90
-16777216
102
RTVSPost2010PropOp51
 70
     0
102
RTVSPost2010Prop52
140
1.0
102
RTVSPost2010PropOp52
 70
     0
102
RTVSPost2010Prop53
 90
        2
102
RTVSPost2010PropOp53
 70
     1
102
RTVSPost2010Prop54
  1
strokes_ogs.tif
102
RTVSPost2010PropOp54
 70
     1
102
RTVSPost2010Prop55
280
     0
102
RTVSPost2010PropOp55
 70
     1
102
RTVSPost2010Prop56
140
1.0
102
RTVSPost2010PropOp56
 70
     1
102
RTVSPost2010Prop57
140
1.0
102
RTVSPost2010PropOp57
 70
     1
102
RTVSPropertyOp0
 70
     1
102
RTVSPropertyOp1
 70
     1
102
RTVSPropertyOp2
 70
     1
102
RTVSPropertyOp3
 70
     1
102
RTVSPropertyOp4
 70
     1
102
RTVSPropertyOp5
 70
     1
102
RTVSPropertyOp6
 70
     1
102
RTVSPropertyOp7
 70
     1
102
RTVSPropertyOp8
 70
     1
102
RTVSPropertyOp9
 70
     1
102
RTVSPropertyOp10
 70
     1
102
RTVSPropertyOp11
 70
     1
102
RTVSPropertyOp12
 70
     1
102
RTVSPropertyOp13
 70
     1
102
RTVSPropertyOp14
 70
     1
102
RTVSPropertyOp15
 70
     1
102
RTVSPropertyOp16
 70
     1
102
RTVSPropertyOp17
 70
     1
102
RTVSPropertyOp18
 70
     1
102
RTVSPropertyOp19
 70
     1
102
RTVSPropertyOp20
 70
     1
102
RTVSPropertyOp21
 70
     1
102
RTVSPropertyOp22
 70
     1
102
RTVSPropertyOp23
 70
     1
102
RTVSPropertyOp24
 70
     1
102
RTVSPropertyOp25
 70
     1
102
RTVSPropertyOp26
 70
     1
102
RTVSPropertyOp27
 70
     1
102
RTVSPropertyOp28
 70
     1
102
RTVSPropertyOp29
 70
     1
102
RTVSPropertyOp30
 70
     1
102
RTVSPropertyOp31
 70
     1
102
RTVSPropertyOp32
 70
     1
102
RTVSPropertyOp33
 70
     1
102
RTVSPropertyOp34
 70
     1
102
RTVSPropertyOp35
 70
     1
102
RTVSPropertyOp36
 70
     1
102
RTVSPropertyOp37
 70
     1
102
RTVSPropertyOp38
 70
     1
102
RTVSPropertyOp39
 70
     1
102
RTVSPropertyOp40
 70
     1
102
RTVSPropertyOp41
 70
     1
102
RTVSPropertyOp42
 70
     1
102
RTVSPropertyOp43
 70
     1
102
RTVSPropertyOp44
 70
     1
102
RTVSPropertyOp45
 70
     1
102
RTVSPropertyOp46
 70
     1
102
RTVSPropertyOp47
 70
     1
102
RTVSPropertyOp48
 70
     1
102
RTVSPropertyOp49
 70
     1
102
RTVSPropertyOp50
 70
     1
102
RTVSPropertyOp51
 70
     0
102
RTVSPropertyOp52
 70
     0
102
RTVSPropertyOp53
 70
     1
102
RTVSPropertyOp54
 70
     1
102
RTVSPropertyOp55
 70
     1
102
RTVSPropertyOp56
 70
     1
102
RTVSPropertyOp57
 70
     1
102
RTVSPropertyOp58
 70
     1
102
RTVSPropertyOp59
 70
     1
102
RTVSPropertyOp60
 70
     1
102
RTVSPropertyOp61
 70
     1
102
RTVSPropertyOp62
 70
     1
  0
XRECORD
  5
A9EB
102
{ACAD_REACTORS
330
A9EA
102
}
330
A9EA
100
AcDbXrecord
280
     1
102
RTVSPost2010Prop28
280
     0
102
RTVSPost2010PropOp28
 70
     1
102
RTVSPost2010Prop29
280
     1
102
RTVSPost2010PropOp29
 70
     1
102
RTVSPost2010Prop30
280
     1
102
RTVSPost2010PropOp30
 70
     1
102
RTVSPost2010Prop31
280
     0
102
RTVSPost2010PropOp31
 70
     1
102
RTVSPost2010Prop32
280
     0
102
RTVSPost2010PropOp32
 70
     1
102
RTVSPost2010Prop33
280
     0
102
RTVSPost2010PropOp33
 70
     1
102
RTVSPost2010Prop34
280
     0
102
RTVSPost2010PropOp34
 70
     1
102
RTVSPost2010Prop35
280
     0
102
RTVSPost2010PropOp35
 70
     1
102
RTVSPost2010Prop36
280
     0
102
RTVSPost2010PropOp36
 70
     1
102
RTVSPost2010Prop37
 90
       50
102
RTVSPost2010PropOp37
 70
     1
102
RTVSPost2010Prop38
140
0.0
102
RTVSPost2010PropOp38
 70
     1
102
RTVSPost2010Prop39
140
1.0
102
RTVSPost2010PropOp39
 70
     1
102
RTVSPost2010Prop40
 90
        0
102
RTVSPost2010PropOp40
 70
     1
102
RTVSPost2010Prop41ColorIndex
 90
       18
102
RTVSPost2010Prop41ColorRGB
 90
        0
102
RTVSPost2010PropOp41
 70
     1
102
RTVSPost2010Prop42
 90
       50
102
RTVSPost2010PropOp42
 70
     1
102
RTVSPost2010Prop43
 90
        3
102
RTVSPost2010PropOp43
 70
     1
102
RTVSPost2010Prop44ColorIndex
 90
        5
102
RTVSPost2010Prop44ColorRGB
 90
      255
102
RTVSPost2010PropOp44
 70
     1
102
RTVSPost2010Prop45
280
     0
102
RTVSPost2010PropOp45
 70
     1
102
RTVSPost2010Prop46
 90
       50
102
RTVSPost2010PropOp46
 70
     1
102
RTVSPost2010Prop47
 90
       50
102
RTVSPost2010PropOp47
 70
     1
102
RTVSPost2010Prop48
 90
       50
102
RTVSPost2010PropOp48
 70
     1
102
RTVSPost2010Prop49
280
     0
102
RTVSPost2010PropOp49
 70
     1
102
RTVSPost2010Prop50
 90
       50
102
RTVSPost2010PropOp50
 70
     1
102
RTVSPost2010Prop51ColorIndex
 90
      256
102
RTVSPost2010Prop51ColorRGB
 90
-16777216
102
RTVSPost2010PropOp51
 70
     0
102
RTVSPost2010Prop52
140
1.0
102
RTVSPost2010PropOp52
 70
     0
102
RTVSPost2010Prop53
 90
        2
102
RTVSPost2010PropOp53
 70
     1
102
RTVSPost2010Prop54
  1
strokes_ogs.tif
102
RTVSPost2010PropOp54
 70
     1
102
RTVSPost2010Prop55
280
     0
102
RTVSPost2010PropOp55
 70
     1
102
RTVSPost2010Prop56
140
1.0
102
RTVSPost2010PropOp56
 70
     1
102
RTVSPost2010Prop57
140
1.0
102
RTVSPost2010PropOp57
 70
     1
102
RTVSPropertyOp0
 70
     1
102
RTVSPropertyOp1
 70
     1
102
RTVSPropertyOp2
 70
     1
102
RTVSPropertyOp3
 70
     1
102
RTVSPropertyOp4
 70
     1
102
RTVSPropertyOp5
 70
     1
102
RTVSPropertyOp6
 70
     1
102
RTVSPropertyOp7
 70
     1
102
RTVSPropertyOp8
 70
     1
102
RTVSPropertyOp9
 70
     1
102
RTVSPropertyOp10
 70
     1
102
RTVSPropertyOp11
 70
     1
102
RTVSPropertyOp12
 70
     1
102
RTVSPropertyOp13
 70
     1
102
RTVSPropertyOp14
 70
     1
102
RTVSPropertyOp15
 70
     1
102
RTVSPropertyOp16
 70
     1
102
RTVSPropertyOp17
 70
     1
102
RTVSPropertyOp18
 70
     1
102
RTVSPropertyOp19
 70
     1
102
RTVSPropertyOp20
 70
     1
102
RTVSPropertyOp21
 70
     1
102
RTVSPropertyOp22
 70
     1
102
RTVSPropertyOp23
 70
     1
102
RTVSPropertyOp24
 70
     1
102
RTVSPropertyOp25
 70
     1
102
RTVSPropertyOp26
 70
     1
102
RTVSPropertyOp27
 70
     1
102
RTVSPropertyOp28
 70
     1
102
RTVSPropertyOp29
 70
     1
102
RTVSPropertyOp30
 70
     1
102
RTVSPropertyOp31
 70
     1
102
RTVSPropertyOp32
 70
     1
102
RTVSPropertyOp33
 70
     1
102
RTVSPropertyOp34
 70
     1
102
RTVSPropertyOp35
 70
     1
102
RTVSPropertyOp36
 70
     1
102
RTVSPropertyOp37
 70
     1
102
RTVSPropertyOp38
 70
     1
102
RTVSPropertyOp39
 70
     1
102
RTVSPropertyOp40
 70
     1
102
RTVSPropertyOp41
 70
     1
102
RTVSPropertyOp42
 70
     1
102
RTVSPropertyOp43
 70
     1
102
RTVSPropertyOp44
 70
     1
102
RTVSPropertyOp45
 70
     1
102
RTVSPropertyOp46
 70
     1
102
RTVSPropertyOp47
 70
     1
102
RTVSPropertyOp48
 70
     1
102
RTVSPropertyOp49
 70
     1
102
RTVSPropertyOp50
 70
     1
102
RTVSPropertyOp51
 70
     0
102
RTVSPropertyOp52
 70
     0
102
RTVSPropertyOp53
 70
     1
102
RTVSPropertyOp54
 70
     1
102
RTVSPropertyOp55
 70
     1
102
RTVSPropertyOp56
 70
     1
102
RTVSPropertyOp57
 70
     1
102
RTVSPropertyOp58
 70
     1
102
RTVSPropertyOp59
 70
     1
102
RTVSPropertyOp60
 70
     1
102
RTVSPropertyOp61
 70
     1
102
RTVSPropertyOp62
 70
     1
  0
XRECORD
  5
A9DF
102
{ACAD_REACTORS
330
A9DE
102
}
330
A9DE
100
AcDbXrecord
280
     1
102
RTVSPost2010Prop28
280
     0
102
RTVSPost2010PropOp28
 70
     1
102
RTVSPost2010Prop29
280
     1
102
RTVSPost2010PropOp29
 70
     1
102
RTVSPost2010Prop30
280
     1
102
RTVSPost2010PropOp30
 70
     1
102
RTVSPost2010Prop31
280
     0
102
RTVSPost2010PropOp31
 70
     1
102
RTVSPost2010Prop32
280
     0
102
RTVSPost2010PropOp32
 70
     1
102
RTVSPost2010Prop33
280
     0
102
RTVSPost2010PropOp33
 70
     1
102
RTVSPost2010Prop34
280
     0
102
RTVSPost2010PropOp34
 70
     1
102
RTVSPost2010Prop35
280
     0
102
RTVSPost2010PropOp35
 70
     1
102
RTVSPost2010Prop36
280
     0
102
RTVSPost2010PropOp36
 70
     1
102
RTVSPost2010Prop37
 90
       50
102
RTVSPost2010PropOp37
 70
     1
102
RTVSPost2010Prop38
140
0.0
102
RTVSPost2010PropOp38
 70
     1
102
RTVSPost2010Prop39
140
1.0
102
RTVSPost2010PropOp39
 70
     1
102
RTVSPost2010Prop40
 90
        0
102
RTVSPost2010PropOp40
 70
     1
102
RTVSPost2010Prop41ColorIndex
 90
       18
102
RTVSPost2010Prop41ColorRGB
 90
        0
102
RTVSPost2010PropOp41
 70
     1
102
RTVSPost2010Prop42
 90
       50
102
RTVSPost2010PropOp42
 70
     1
102
RTVSPost2010Prop43
 90
        3
102
RTVSPost2010PropOp43
 70
     1
102
RTVSPost2010Prop44ColorIndex
 90
        5
102
RTVSPost2010Prop44ColorRGB
 90
      255
102
RTVSPost2010PropOp44
 70
     1
102
RTVSPost2010Prop45
280
     0
102
RTVSPost2010PropOp45
 70
     1
102
RTVSPost2010Prop46
 90
       50
102
RTVSPost2010PropOp46
 70
     1
102
RTVSPost2010Prop47
 90
       50
102
RTVSPost2010PropOp47
 70
     1
102
RTVSPost2010Prop48
 90
       50
102
RTVSPost2010PropOp48
 70
     1
102
RTVSPost2010Prop49
280
     0
102
RTVSPost2010PropOp49
 70
     1
102
RTVSPost2010Prop50
 90
       50
102
RTVSPost2010PropOp50
 70
     1
102
RTVSPost2010Prop51ColorIndex
 90
      256
102
RTVSPost2010Prop51ColorRGB
 90
-16777216
102
RTVSPost2010PropOp51
 70
     0
102
RTVSPost2010Prop52
140
1.0
102
RTVSPost2010PropOp52
 70
     0
102
RTVSPost2010Prop53
 90
        2
102
RTVSPost2010PropOp53
 70
     1
102
RTVSPost2010Prop54
  1
strokes_ogs.tif
102
RTVSPost2010PropOp54
 70
     1
102
RTVSPost2010Prop55
280
     0
102
RTVSPost2010PropOp55
 70
     1
102
RTVSPost2010Prop56
140
1.0
102
RTVSPost2010PropOp56
 70
     1
102
RTVSPost2010Prop57
140
1.0
102
RTVSPost2010PropOp57
 70
     1
102
RTVSPropertyOp0
 70
     1
102
RTVSPropertyOp1
 70
     1
102
RTVSPropertyOp2
 70
     1
102
RTVSPropertyOp3
 70
     1
102
RTVSPropertyOp4
 70
     1
102
RTVSPropertyOp5
 70
     1
102
RTVSPropertyOp6
 70
     1
102
RTVSPropertyOp7
 70
     1
102
RTVSPropertyOp8
 70
     1
102
RTVSPropertyOp9
 70
     1
102
RTVSPropertyOp10
 70
     1
102
RTVSPropertyOp11
 70
     1
102
RTVSPropertyOp12
 70
     1
102
RTVSPropertyOp13
 70
     1
102
RTVSPropertyOp14
 70
     1
102
RTVSPropertyOp15
 70
     1
102
RTVSPropertyOp16
 70
     1
102
RTVSPropertyOp17
 70
     1
102
RTVSPropertyOp18
 70
     1
102
RTVSPropertyOp19
 70
     1
102
RTVSPropertyOp20
 70
     1
102
RTVSPropertyOp21
 70
     1
102
RTVSPropertyOp22
 70
     1
102
RTVSPropertyOp23
 70
     1
102
RTVSPropertyOp24
 70
     1
102
RTVSPropertyOp25
 70
     1
102
RTVSPropertyOp26
 70
     1
102
RTVSPropertyOp27
 70
     1
102
RTVSPropertyOp28
 70
     1
102
RTVSPropertyOp29
 70
     1
102
RTVSPropertyOp30
 70
     1
102
RTVSPropertyOp31
 70
     1
102
RTVSPropertyOp32
 70
     1
102
RTVSPropertyOp33
 70
     1
102
RTVSPropertyOp34
 70
     1
102
RTVSPropertyOp35
 70
     1
102
RTVSPropertyOp36
 70
     1
102
RTVSPropertyOp37
 70
     1
102
RTVSPropertyOp38
 70
     1
102
RTVSPropertyOp39
 70
     1
102
RTVSPropertyOp40
 70
     1
102
RTVSPropertyOp41
 70
     1
102
RTVSPropertyOp42
 70
     1
102
RTVSPropertyOp43
 70
     1
102
RTVSPropertyOp44
 70
     1
102
RTVSPropertyOp45
 70
     1
102
RTVSPropertyOp46
 70
     1
102
RTVSPropertyOp47
 70
     1
102
RTVSPropertyOp48
 70
     1
102
RTVSPropertyOp49
 70
     1
102
RTVSPropertyOp50
 70
     1
102
RTVSPropertyOp51
 70
     0
102
RTVSPropertyOp52
 70
     0
102
RTVSPropertyOp53
 70
     1
102
RTVSPropertyOp54
 70
     1
102
RTVSPropertyOp55
 70
     1
102
RTVSPropertyOp56
 70
     1
102
RTVSPropertyOp57
 70
     1
102
RTVSPropertyOp58
 70
     1
102
RTVSPropertyOp59
 70
     1
102
RTVSPropertyOp60
 70
     1
102
RTVSPropertyOp61
 70
     1
102
RTVSPropertyOp62
 70
     1
  0
XRECORD
  5
A9F7
102
{ACAD_REACTORS
330
A9F6
102
}
330
A9F6
100
AcDbXrecord
280
     1
102
RTVSPost2010Prop28
280
     0
102
RTVSPost2010PropOp28
 70
     1
102
RTVSPost2010Prop29
280
     1
102
RTVSPost2010PropOp29
 70
     1
102
RTVSPost2010Prop30
280
     1
102
RTVSPost2010PropOp30
 70
     1
102
RTVSPost2010Prop31
280
     0
102
RTVSPost2010PropOp31
 70
     1
102
RTVSPost2010Prop32
280
     0
102
RTVSPost2010PropOp32
 70
     1
102
RTVSPost2010Prop33
280
     0
102
RTVSPost2010PropOp33
 70
     1
102
RTVSPost2010Prop34
280
     0
102
RTVSPost2010PropOp34
 70
     1
102
RTVSPost2010Prop35
280
     0
102
RTVSPost2010PropOp35
 70
     1
102
RTVSPost2010Prop36
280
     0
102
RTVSPost2010PropOp36
 70
     1
102
RTVSPost2010Prop37
 90
       50
102
RTVSPost2010PropOp37
 70
     1
102
RTVSPost2010Prop38
140
0.0
102
RTVSPost2010PropOp38
 70
     1
102
RTVSPost2010Prop39
140
1.0
102
RTVSPost2010PropOp39
 70
     1
102
RTVSPost2010Prop40
 90
        0
102
RTVSPost2010PropOp40
 70
     1
102
RTVSPost2010Prop41ColorIndex
 90
       18
102
RTVSPost2010Prop41ColorRGB
 90
        0
102
RTVSPost2010PropOp41
 70
     1
102
RTVSPost2010Prop42
 90
       50
102
RTVSPost2010PropOp42
 70
     1
102
RTVSPost2010Prop43
 90
        3
102
RTVSPost2010PropOp43
 70
     1
102
RTVSPost2010Prop44ColorIndex
 90
        5
102
RTVSPost2010Prop44ColorRGB
 90
      255
102
RTVSPost2010PropOp44
 70
     1
102
RTVSPost2010Prop45
280
     0
102
RTVSPost2010PropOp45
 70
     1
102
RTVSPost2010Prop46
 90
       50
102
RTVSPost2010PropOp46
 70
     1
102
RTVSPost2010Prop47
 90
       50
102
RTVSPost2010PropOp47
 70
     1
102
RTVSPost2010Prop48
 90
       50
102
RTVSPost2010PropOp48
 70
     1
102
RTVSPost2010Prop49
280
     0
102
RTVSPost2010PropOp49
 70
     1
102
RTVSPost2010Prop50
 90
       50
102
RTVSPost2010PropOp50
 70
     1
102
RTVSPost2010Prop51ColorIndex
 90
      256
102
RTVSPost2010Prop51ColorRGB
 90
-16777216
102
RTVSPost2010PropOp51
 70
     0
102
RTVSPost2010Prop52
140
1.0
102
RTVSPost2010PropOp52
 70
     0
102
RTVSPost2010Prop53
 90
        2
102
RTVSPost2010PropOp53
 70
     1
102
RTVSPost2010Prop54
  1
strokes_ogs.tif
102
RTVSPost2010PropOp54
 70
     1
102
RTVSPost2010Prop55
280
     0
102
RTVSPost2010PropOp55
 70
     1
102
RTVSPost2010Prop56
140
1.0
102
RTVSPost2010PropOp56
 70
     1
102
RTVSPost2010Prop57
140
1.0
102
RTVSPost2010PropOp57
 70
     1
102
RTVSPropertyOp0
 70
     1
102
RTVSPropertyOp1
 70
     1
102
RTVSPropertyOp2
 70
     1
102
RTVSPropertyOp3
 70
     1
102
RTVSPropertyOp4
 70
     1
102
RTVSPropertyOp5
 70
     1
102
RTVSPropertyOp6
 70
     1
102
RTVSPropertyOp7
 70
     1
102
RTVSPropertyOp8
 70
     1
102
RTVSPropertyOp9
 70
     1
102
RTVSPropertyOp10
 70
     1
102
RTVSPropertyOp11
 70
     1
102
RTVSPropertyOp12
 70
     1
102
RTVSPropertyOp13
 70
     1
102
RTVSPropertyOp14
 70
     1
102
RTVSPropertyOp15
 70
     1
102
RTVSPropertyOp16
 70
     1
102
RTVSPropertyOp17
 70
     1
102
RTVSPropertyOp18
 70
     1
102
RTVSPropertyOp19
 70
     1
102
RTVSPropertyOp20
 70
     1
102
RTVSPropertyOp21
 70
     1
102
RTVSPropertyOp22
 70
     1
102
RTVSPropertyOp23
 70
     1
102
RTVSPropertyOp24
 70
     1
102
RTVSPropertyOp25
 70
     1
102
RTVSPropertyOp26
 70
     1
102
RTVSPropertyOp27
 70
     1
102
RTVSPropertyOp28
 70
     1
102
RTVSPropertyOp29
 70
     1
102
RTVSPropertyOp30
 70
     1
102
RTVSPropertyOp31
 70
     1
102
RTVSPropertyOp32
 70
     1
102
RTVSPropertyOp33
 70
     1
102
RTVSPropertyOp34
 70
     1
102
RTVSPropertyOp35
 70
     1
102
RTVSPropertyOp36
 70
     1
102
RTVSPropertyOp37
 70
     1
102
RTVSPropertyOp38
 70
     1
102
RTVSPropertyOp39
 70
     1
102
RTVSPropertyOp40
 70
     1
102
RTVSPropertyOp41
 70
     1
102
RTVSPropertyOp42
 70
     1
102
RTVSPropertyOp43
 70
     1
102
RTVSPropertyOp44
 70
     1
102
RTVSPropertyOp45
 70
     1
102
RTVSPropertyOp46
 70
     1
102
RTVSPropertyOp47
 70
     1
102
RTVSPropertyOp48
 70
     1
102
RTVSPropertyOp49
 70
     1
102
RTVSPropertyOp50
 70
     1
102
RTVSPropertyOp51
 70
     0
102
RTVSPropertyOp52
 70
     0
102
RTVSPropertyOp53
 70
     1
102
RTVSPropertyOp54
 70
     1
102
RTVSPropertyOp55
 70
     1
102
RTVSPropertyOp56
 70
     1
102
RTVSPropertyOp57
 70
     1
102
RTVSPropertyOp58
 70
     1
102
RTVSPropertyOp59
 70
     1
102
RTVSPropertyOp60
 70
     1
102
RTVSPropertyOp61
 70
     1
102
RTVSPropertyOp62
 70
     1
  0
ENDSEC
  0
EOF
