  0
SECTION
  2
HEADER
  9
$ACADVER
  1
AC1015
  9
$ACADMAINTVER
 70
    20
  9
$DWGCODEPAGE
  3
ANSI_932
  9
$INSBASE
 10
0.0
 20
0.0
 30
0.0
  9
$EXTMIN
 10
10.0
 20
9.999999999999998
 30
0.0
  9
$EXTMAX
 10
493.2202229999998
 20
416.9732119999998
 30
0.0
  9
$LIMMIN
 10
0.0
 20
0.0
  9
$LIMMAX
 10
630.7160349999998
 20
434.8118119999998
  9
$ORTHOMODE
 70
     1
  9
$REGENMODE
 70
     1
  9
$FILLMODE
 70
     1
  9
$QTEXTMODE
 70
     0
  9
$MIRRTEXT
 70
     1
  9
$LTSCALE
 40
20.0
  9
$ATTMODE
 70
     1
  9
$TEXTSIZE
 40
5.0
  9
$TRACEWID
 40
1.0
  9
$TEXTSTYLE
  7
STANDARD
  9
$CLAYER
  8
0
  9
$CELTYPE
  6
BYLAYER
  9
$CECOLOR
 62
   256
  9
$CELTSCALE
 40
1.0
  9
$DISPSILH
 70
     0
  9
$DIMSCALE
 40
1.0
  9
$DIMASZ
 40
2.5
  9
$DIMEXO
 40
1.0
  9
$DIMDLI
 40
10.0
  9
$DIMRND
 40
0.0
  9
$DIMDLE
 40
0.0
  9
$DIMEXE
 40
1.0
  9
$DIMTP
 40
0.0
  9
$DIMTM
 40
0.0
  9
$DIMTXT
 40
3.2
  9
$DIMCEN
 40
0.0
  9
$DIMTSZ
 40
0.0
  9
$DIMTOL
 70
     0
  9
$DIMLIM
 70
     0
  9
$DIMTIH
 70
     0
  9
$DIMTOH
 70
     0
  9
$DIMSE1
 70
     0
  9
$DIMSE2
 70
     0
  9
$DIMTAD
 70
     3
  9
$DIMZIN
 70
     8
  9
$DIMBLK
  1

  9
$DIMASO
 70
     1
  9
$DIMSHO
 70
     1
  9
$DIMPOST
  1

  9
$DIMAPOST
  1

  9
$DIMALT
 70
     0
  9
$DIMALTD
 70
     2
  9
$DIMALTF
 40
25.4
  9
$DIMLFAC
 40
1.0
  9
$DIMTOFL
 70
     1
  9
$DIMTVP
 40
0.0
  9
$DIMTIX
 70
     0
  9
$DIMSOXD
 70
     0
  9
$DIMSAH
 70
     1
  9
$DIMBLK1
  1

  9
$DIMBLK2
  1

  9
$DIMSTYLE
  2
STANDARD
  9
$DIMCLRD
 70
     0
  9
$DIMCLRE
 70
     0
  9
$DIMCLRT
 70
     0
  9
$DIMTFAC
 40
1.0
  9
$DIMGAP
 40
1.0
  9
$DIMJUST
 70
     0
  9
$DIMSD1
 70
     0
  9
$DIMSD2
 70
     0
  9
$DIMTOLJ
 70
     1
  9
$DIMTZIN
 70
     0
  9
$DIMALTZ
 70
     0
  9
$DIMALTTZ
 70
     0
  9
$DIMUPT
 70
     0
  9
$DIMDEC
 70
     4
  9
$DIMTDEC
 70
     4
  9
$DIMALTU
 70
     2
  9
$DIMALTTD
 70
     2
  9
$DIMTXSTY
  7
STANDARD
  9
$DIMAUNIT
 70
     0
  9
$DIMADEC
 70
     0
  9
$DIMALTRND
 40
0.0
  9
$DIMAZIN
 70
     0
  9
$DIMDSEP
 70
    46
  9
$DIMATFIT
 70
     3
  9
$DIMFRAC
 70
     0
  9
$DIMLDRBLK
  1

  9
$DIMLUNIT
 70
     2
  9
$DIMLWD
 70
    -2
  9
$DIMLWE
 70
    -2
  9
$DIMTMOVE
 70
     0
  9
$LUNITS
 70
     2
  9
$LUPREC
 70
     4
  9
$SKETCHINC
 40
1.0
  9
$FILLETRAD
 40
4.0
  9
$AUNITS
 70
     0
  9
$AUPREC
 70
     2
  9
$MENU
  1
.
  9
$ELEVATION
 40
0.0
  9
$PELEVATION
 40
0.0
  9
$THICKNESS
 40
0.0
  9
$LIMCHECK
 70
     0
  9
$CHAMFERA
 40
10.0
  9
$CHAMFERB
 40
10.0
  9
$CHAMFERC
 40
0.0
  9
$CHAMFERD
 40
0.0
  9
$SKPOLY
 70
     0
  9
$TDCREATE
 40
2451301.437021065
  9
$TDUCREATE
 40
2451301.062021065
  9
$TDUPDATE
 40
2457192.690100255
  9
$TDUUPDATE
 40
2457192.315100254
  9
$TDINDWG
 40
0.1412970255
  9
$TDUSRTIMER
 40
0.1412967130
  9
$USRTIMER
 70
     1
  9
$ANGBASE
 50
0.0
  9
$ANGDIR
 70
     0
  9
$PDMODE
 70
     0
  9
$PDSIZE
 40
0.0
  9
$PLINEWID
 40
0.0
  9
$SPLFRAME
 70
     0
  9
$SPLINETYPE
 70
     6
  9
$SPLINESEGS
 70
     8
  9
$HANDSEED
  5
A025
  9
$SURFTAB1
 70
     6
  9
$SURFTAB2
 70
     6
  9
$SURFTYPE
 70
     6
  9
$SURFU
 70
     6
  9
$SURFV
 70
     6
  9
$UCSBASE
  2

  9
$UCSNAME
  2

  9
$UCSORG
 10
0.0
 20
0.0
 30
0.0
  9
$UCSXDIR
 10
1.0
 20
0.0
 30
0.0
  9
$UCSYDIR
 10
0.0
 20
1.0
 30
0.0
  9
$UCSORTHOREF
  2

  9
$UCSORTHOVIEW
 70
     0
  9
$UCSORGTOP
 10
0.0
 20
0.0
 30
0.0
  9
$UCSORGBOTTOM
 10
0.0
 20
0.0
 30
0.0
  9
$UCSORGLEFT
 10
0.0
 20
0.0
 30
0.0
  9
$UCSORGRIGHT
 10
0.0
 20
0.0
 30
0.0
  9
$UCSORGFRONT
 10
0.0
 20
0.0
 30
0.0
  9
$UCSORGBACK
 10
0.0
 20
0.0
 30
0.0
  9
$PUCSBASE
  2

  9
$PUCSNAME
  2

  9
$PUCSORG
 10
0.0
 20
0.0
 30
0.0
  9
$PUCSXDIR
 10
1.0
 20
0.0
 30
0.0
  9
$PUCSYDIR
 10
0.0
 20
1.0
 30
0.0
  9
$PUCSORTHOREF
  2

  9
$PUCSORTHOVIEW
 70
     0
  9
$PUCSORGTOP
 10
0.0
 20
0.0
 30
0.0
  9
$PUCSORGBOTTOM
 10
0.0
 20
0.0
 30
0.0
  9
$PUCSORGLEFT
 10
0.0
 20
0.0
 30
0.0
  9
$PUCSORGRIGHT
 10
0.0
 20
0.0
 30
0.0
  9
$PUCSORGFRONT
 10
0.0
 20
0.0
 30
0.0
  9
$PUCSORGBACK
 10
0.0
 20
0.0
 30
0.0
  9
$USERI1
 70
     0
  9
$USERI2
 70
     0
  9
$USERI3
 70
     0
  9
$USERI4
 70
     0
  9
$USERI5
 70
     0
  9
$USERR1
 40
0.0
  9
$USERR2
 40
0.0
  9
$USERR3
 40
0.0
  9
$USERR4
 40
0.0
  9
$USERR5
 40
0.0
  9
$WORLDVIEW
 70
     1
  9
$SHADEDGE
 70
     3
  9
$SHADEDIF
 70
    70
  9
$TILEMODE
 70
     1
  9
$MAXACTVP
 70
    16
  9
$PINSBASE
 10
0.0
 20
0.0
 30
0.0
  9
$PLIMCHECK
 70
     0
  9
$PEXTMIN
 10
1.000000000000000E+20
 20
1.000000000000000E+20
 30
1.000000000000000E+20
  9
$PEXTMAX
 10
-1.000000000000000E+20
 20
-1.000000000000000E+20
 30
-1.000000000000000E+20
  9
$PLIMMIN
 10
0.0
 20
0.0
  9
$PLIMMAX
 10
420.0
 20
297.0
  9
$UNITMODE
 70
     0
  9
$VISRETAIN
 70
     0
  9
$PLINEGEN
 70
     0
  9
$PSLTSCALE
 70
     0
  9
$TREEDEPTH
 70
  3020
  9
$CMLSTYLE
  2
STANDARD
  9
$CMLJUST
 70
     0
  9
$CMLSCALE
 40
1.0
  9
$PROXYGRAPHICS
 70
     1
  9
$MEASUREMENT
 70
     0
  9
$CELWEIGHT
370
    -1
  9
$ENDCAPS
280
     0
  9
$JOINSTYLE
280
     0
  9
$LWDISPLAY
290
     0
  9
$INSUNITS
 70
     0
  9
$HYPERLINKBASE
  1

  9
$STYLESHEET
  1

  9
$XEDIT
290
     1
  9
$CEPSNTYPE
380
     0
  9
$PSTYLEMODE
290
     1
  9
$FINGERPRINTGUID
  2
{B0532E77-B533-4789-B0A3-B7B30F33FC81}
  9
$VERSIONGUID
  2
{1BBD221B-3AD7-48C4-8808-D7AE90723F21}
  9
$EXTNAMES
290
     1
  9
$PSVPSCALE
 40
0.0
  9
$OLESTARTUP
290
     0
  0
ENDSEC
  0
SECTION
  2
CLASSES
  0
CLASS
  1
ACDBDICTIONARYWDFLT
  2
AcDbDictionaryWithDefault
  3
ObjectDBX Classes
 90
        0
280
     0
281
     0
  0
CLASS
  1
ACDBPLACEHOLDER
  2
AcDbPlaceHolder
  3
ObjectDBX Classes
 90
        0
280
     0
281
     0
  0
CLASS
  1
LAYOUT
  2
AcDbLayout
  3
ObjectDBX Classes
 90
        0
280
     0
281
     0
  0
CLASS
  1
DICTIONARYVAR
  2
AcDbDictionaryVar
  3
ObjectDBX Classes
 90
        0
280
     0
281
     0
  0
CLASS
  1
MATERIAL
  2
AcDbMaterial
  3
ObjectDBX Classes
 90
     1153
280
     0
281
     0
  0
CLASS
  1
VISUALSTYLE
  2
AcDbVisualStyle
  3
ObjectDBX Classes
 90
     4095
280
     0
281
     0
  0
CLASS
  1
TABLESTYLE
  2
AcDbTableStyle
  3
ObjectDBX Classes
 90
     4095
280
     0
281
     0
  0
CLASS
  1
SCALE
  2
AcDbScale
  3
ObjectDBX Classes
 90
     1153
280
     0
281
     0
  0
CLASS
  1
MLEADERSTYLE
  2
AcDbMLeaderStyle
  3
ACDB_MLEADERSTYLE_CLASS
 90
     4095
280
     0
281
     0
  0
CLASS
  1
ACDBSECTIONVIEWSTYLE
  2
AcDbSectionViewStyle
  3
ObjectDBX Classes
 90
     1025
280
     0
281
     0
  0
CLASS
  1
ACDBDETAILVIEWSTYLE
  2
AcDbDetailViewStyle
  3
ObjectDBX Classes
 90
     1025
280
     0
281
     0
  0
CLASS
  1
CELLSTYLEMAP
  2
AcDbCellStyleMap
  3
ObjectDBX Classes
 90
     1152
280
     0
281
     0
  0
ENDSEC
  0
SECTION
  2
TABLES
  0
TABLE
  2
VPORT
  5
9D43
330
0
100
AcDbSymbolTable
 70
     1
  0
VPORT
  5
9F70
330
9D43
100
AcDbSymbolTableRecord
100
AcDbViewportTableRecord
  2
*ACTIVE
 70
     0
 10
0.0
 20
0.0
 11
1.0
 21
1.0
 12
408.2794489982383
 22
213.4748462379926
 13
0.0
 23
0.0
 14
10.0
 24
10.0
 15
10.0
 25
10.0
 16
0.0
 26
0.0
 36
1.0
 17
0.0
 27
0.0
 37
0.0
 40
410.2189805571748
 41
2.35006605019815
 42
50.0
 43
0.0
 44
0.0
 50
0.0
 51
0.0
 71
     0
 72
   100
 73
     1
 74
     0
 75
     0
 76
     0
 77
     0
 78
     0
281
     0
 65
     1
110
0.0
120
0.0
130
0.0
111
1.0
121
0.0
131
0.0
112
0.0
122
1.0
132
0.0
 79
     0
146
0.0
1001
ACAD_NAV_VCDISPLAY
1070
     3
  0
ENDTAB
  0
TABLE
  2
LTYPE
  5
9D40
330
0
100
AcDbSymbolTable
 70
     4
  0
LTYPE
  5
9D4E
330
9D40
100
AcDbSymbolTableRecord
100
AcDbLinetypeTableRecord
  2
BYBLOCK
 70
     0
  3

 72
    65
 73
     0
 40
0.0
  0
LTYPE
  5
9D4F
330
9D40
100
AcDbSymbolTableRecord
100
AcDbLinetypeTableRecord
  2
BYLAYER
 70
     0
  3

 72
    65
 73
     0
 40
0.0
  0
LTYPE
  5
9D50
330
9D40
100
AcDbSymbolTableRecord
100
AcDbLinetypeTableRecord
  2
CONTINUOUS
 70
     0
  3
Solid line
 72
    65
 73
     0
 40
0.0
  0
LTYPE
  5
9D5E
330
9D40
100
AcDbSymbolTableRecord
100
AcDbLinetypeTableRecord
  2
DASHED
 70
     0
  3
__ __ __ __ __ __ __ __ __ __ __ __ __ __ __ __
 72
    65
 73
     2
 40
0.75
 49
0.5
 74
     0
 49
-0.25
 74
     0
  0
LTYPE
  5
9D5F
330
9D40
100
AcDbSymbolTableRecord
100
AcDbLinetypeTableRecord
  2
CENTER
 70
     0
  3
____ _ ____ _ ____ _ ____ _ ____ _ ____ _ ____ 
 72
    65
 73
     4
 40
2.0
 49
1.25
 74
     0
 49
-0.25
 74
     0
 49
0.25
 74
     0
 49
-0.25
 74
     0
  0
LTYPE
  5
9D60
330
9D40
100
AcDbSymbolTableRecord
100
AcDbLinetypeTableRecord
  2
PHANTOM
 70
     0
  3
______  __  __  ______  __  __  ______  __  __ 
 72
    65
 73
     6
 40
2.5
 49
1.25
 74
     0
 49
-0.25
 74
     0
 49
0.25
 74
     0
 49
-0.25
 74
     0
 49
0.25
 74
     0
 49
-0.25
 74
     0
  0
ENDTAB
  0
TABLE
  2
LAYER
  5
9D3D
330
0
100
AcDbSymbolTable
 70
     8
  0
LAYER
  5
9D4B
102
{ACAD_XDICTIONARY
360
9FC9
102
}
330
9D3D
100
AcDbSymbolTableRecord
100
AcDbLayerTableRecord
  2
0
 70
     0
 62
     7
  6
CONTINUOUS
370
    -3
390
9F77
  0
LAYER
  5
9D61
102
{ACAD_XDICTIONARY
360
9FCB
102
}
330
9D3D
100
AcDbSymbolTableRecord
100
AcDbLayerTableRecord
  2
4
 70
     0
 62
     1
  6
CENTER
370
    -3
390
9F77
  0
LAYER
  5
9D62
102
{ACAD_XDICTIONARY
360
9FCD
102
}
330
9D3D
100
AcDbSymbolTableRecord
100
AcDbLayerTableRecord
  2
5
 70
     0
 62
     6
  6
PHANTOM
370
    -3
390
9F77
  0
LAYER
  5
9D63
102
{ACAD_XDICTIONARY
360
9FCF
102
}
330
9D3D
100
AcDbSymbolTableRecord
100
AcDbLayerTableRecord
  2
1
 70
     0
 62
     7
  6
CONTINUOUS
370
    -3
390
9F77
  0
LAYER
  5
9D64
102
{ACAD_XDICTIONARY
360
9FD1
102
}
330
9D3D
100
AcDbSymbolTableRecord
100
AcDbLayerTableRecord
  2
2
 70
     0
 62
     4
  6
CONTINUOUS
370
    -3
390
9F77
  0
LAYER
  5
9D65
102
{ACAD_XDICTIONARY
360
9FD3
102
}
330
9D3D
100
AcDbSymbolTableRecord
100
AcDbLayerTableRecord
  2
3
 70
     0
 62
     2
  6
DASHED
370
    -3
390
9F77
  0
LAYER
  5
9D66
102
{ACAD_XDICTIONARY
360
9FD5
102
}
330
9D3D
100
AcDbSymbolTableRecord
100
AcDbLayerTableRecord
  2
6
 70
     0
 62
     5
  6
CONTINUOUS
370
    -3
390
9F77
  0
LAYER
  5
9D67
102
{ACAD_XDICTIONARY
360
9FD7
102
}
330
9D3D
100
AcDbSymbolTableRecord
100
AcDbLayerTableRecord
  2
7
 70
     0
 62
     3
  6
CONTINUOUS
370
    -3
390
9F77
  0
ENDTAB
  0
TABLE
  2
STYLE
  5
9D3E
330
0
100
AcDbSymbolTable
 70
     1
  0
STYLE
  5
9D4C
330
9D3E
100
AcDbSymbolTableRecord
100
AcDbTextStyleTableRecord
  2
STANDARD
 70
     0
 40
0.0
 41
1.0
 50
0.0
 71
     0
 42
5.0
  3
txt
  4

  0
ENDTAB
  0
TABLE
  2
VIEW
  5
9D41
330
0
100
AcDbSymbolTable
 70
     0
  0
ENDTAB
  0
TABLE
  2
UCS
  5
9D42
330
0
100
AcDbSymbolTable
 70
     0
  0
ENDTAB
  0
TABLE
  2
APPID
  5
9D44
330
0
100
AcDbSymbolTable
 70
     3
  0
APPID
  5
9D4D
330
9D44
100
AcDbSymbolTableRecord
100
AcDbRegAppTableRecord
  2
ACAD
 70
     0
  0
APPID
  5
9FE3
330
9D44
100
AcDbSymbolTableRecord
100
AcDbRegAppTableRecord
  2
ACAD_NAV_VCDISPLAY
 70
     0
  0
APPID
  5
A01C
330
9D44
100
AcDbSymbolTableRecord
100
AcDbRegAppTableRecord
  2
ACAD_MLEADERVER
 70
     0
  0
ENDTAB
  0
TABLE
  2
DIMSTYLE
  5
9D45
330
0
100
AcDbSymbolTable
 70
     1
100
AcDbDimStyleTable
 71
     0
  0
DIMSTYLE
105
9D69
330
9D45
100
AcDbSymbolTableRecord
100
AcDbDimStyleTableRecord
  2
STANDARD
 70
     0
 41
2.5
 42
1.0
 43
10.0
 44
1.0
 73
     0
 74
     0
 77
     3
 78
     8
140
3.2
141
0.0
147
1.0
172
     1
173
     1
284
     8
285
     8
286
     8
340
9D4C
  0
ENDTAB
  0
TABLE
  2
BLOCK_RECORD
  5
9D3C
330
0
100
AcDbSymbolTable
 70
     0
  0
BLOCK_RECORD
  5
9D59
102
{ACAD_XDICTIONARY
360
9F55
102
}
330
9D3C
100
AcDbSymbolTableRecord
100
AcDbBlockTableRecord
  2
*MODEL_SPACE
340
9FC5
  0
BLOCK_RECORD
  5
9D55
102
{ACAD_XDICTIONARY
360
9F53
102
}
330
9D3C
100
AcDbSymbolTableRecord
100
AcDbBlockTableRecord
  2
*PAPER_SPACE
340
9FC6
  0
ENDTAB
  0
ENDSEC
  0
SECTION
  2
BLOCKS
  0
BLOCK
  5
9D5A
330
9D59
100
AcDbEntity
  8
0
100
AcDbBlockBegin
  2
*MODEL_SPACE
 70
     0
 10
0.0
 20
0.0
 30
0.0
  3
*MODEL_SPACE
  1

  0
ENDBLK
  5
9D5B
330
9D59
100
AcDbEntity
  8
0
100
AcDbBlockEnd
  0
BLOCK
  5
9D56
330
9D55
100
AcDbEntity
 67
     1
  8
0
100
AcDbBlockBegin
  2
*PAPER_SPACE
 70
     0
 10
0.0
 20
0.0
 30
0.0
  3
*PAPER_SPACE
  1

  0
ENDBLK
  5
9D57
330
9D55
100
AcDbEntity
 67
     1
  8
0
100
AcDbBlockEnd
  0
ENDSEC
  0
SECTION
  2
ENTITIES
  0
TEXT
  5
9D71
330
9D59
100
AcDbEntity
  8
7
  6
Continuous
100
AcDbText
 10
10.0
 20
18.0
 30
0.0
 40
3.0
  1
TYPE No.TCA-420EA-R100
100
AcDbText
  0
TEXT
  5
9D72
330
9D59
100
AcDbEntity
  8
7
  6
Continuous
100
AcDbText
 10
10.0
 20
26.0
 30
0.0
 40
3.0
  1
CODE No.9768
100
AcDbText
  0
TEXT
  5
9D73
330
9D59
100
AcDbEntity
  8
1
  6
Continuous
100
AcDbText
 10
10.0
 20
10.0
 30
0.0
 40
1.399999999999999
  1
LAYER
100
AcDbText
  0
TEXT
  5
9D74
330
9D59
100
AcDbEntity
  8
1
  6
Continuous
100
AcDbText
 10
17.97951099999998
 20
10.04873699999998
 30
0.0
 40
1.399999999999999
  1
1
100
AcDbText
  0
TEXT
  5
9D75
330
9D59
100
AcDbEntity
  8
7
  6
Continuous
100
AcDbText
 10
29.97951099999999
 20
10.04873699999998
 30
0.0
 40
1.399999999999999
  1
7
100
AcDbText
  0
TEXT
  5
9D76
330
9D59
100
AcDbEntity
  8
4
  6
CENTER
100
AcDbText
 10
23.97951099999999
 20
10.04873699999998
 30
0.0
 40
1.399999999999999
  1
4
100
AcDbText
  0
TEXT
  5
9D77
330
9D59
100
AcDbEntity
  8
3
  6
DASHED
100
AcDbText
 10
21.979511
 20
10.04873699999998
 30
0.0
 40
1.399999999999999
  1
3
100
AcDbText
  0
TEXT
  5
9D78
330
9D59
100
AcDbEntity
  8
2
  6
Continuous
100
AcDbText
 10
19.97951099999998
 20
10.04873699999998
 30
0.0
 40
1.399999999999999
  1
2
100
AcDbText
  0
TEXT
  5
9D79
330
9D59
100
AcDbEntity
  8
6
  6
Continuous
100
AcDbText
 10
27.979511
 20
10.04873699999998
 30
0.0
 40
1.399999999999999
  1
6
100
AcDbText
  0
TEXT
  5
9D7A
330
9D59
100
AcDbEntity
  8
5
  6
PHANTOM
100
AcDbText
 10
25.97951099999999
 20
10.04873699999998
 30
0.0
 40
1.399999999999999
  1
5
100
AcDbText
  0
LINE
  5
9D7B
330
9D59
100
AcDbEntity
  8
4
  6
CENTER
 48
0.8
100
AcDbLine
 10
57.22022299999999
 20
317.8716129999999
 30
0.0
 11
57.22022299999999
 21
141.871609
 31
0.0
  0
LINE
  5
9D7C
330
9D59
100
AcDbEntity
  8
4
  6
CENTER
 48
0.8
100
AcDbLine
 10
26.92023300000001
 20
196.871609
 30
0.0
 11
83.72021499999998
 21
196.871609
 31
0.0
  0
LINE
  5
9D7D
330
9D59
100
AcDbEntity
  8
1
  6
Continuous
100
AcDbLine
 10
73.220223
 20
250.97366
 30
0.0
 11
73.220223
 21
185.871609
 31
0.0
  0
LINE
  5
9D7E
330
9D59
100
AcDbEntity
  8
1
  6
Continuous
100
AcDbLine
 10
41.220223
 20
250.97366
 30
0.0
 11
41.220223
 21
185.871609
 31
0.0
  0
LINE
  5
9D7F
330
9D59
100
AcDbEntity
  8
1
  6
Continuous
100
AcDbLine
 10
38.920233
 20
185.871609
 30
0.0
 11
41.220223
 21
185.871609
 31
0.0
  0
LINE
  5
9D80
330
9D59
100
AcDbEntity
  8
1
  6
Continuous
100
AcDbLine
 10
75.520218
 20
185.871609
 30
0.0
 11
73.220223
 21
185.871609
 31
0.0
  0
LINE
  5
9D81
330
9D59
100
AcDbEntity
  8
1
  6
Continuous
100
AcDbLine
 10
32.22022299999999
 20
255.9716009999999
 30
0.0
 11
32.22022299999999
 21
229.5590939999999
 31
0.0
  0
LINE
  5
9D82
330
9D59
100
AcDbEntity
  8
1
  6
Continuous
100
AcDbLine
 10
82.220223
 20
255.9716009999999
 30
0.0
 11
82.220223
 21
229.5590939999999
 31
0.0
  0
LINE
  5
9D83
330
9D59
100
AcDbEntity
  8
1
  6
Continuous
100
AcDbLine
 10
41.220223
 20
200.871609
 30
0.0
 11
42.22022299999999
 21
200.871609
 31
0.0
  0
LINE
  5
9D84
330
9D59
100
AcDbEntity
  8
1
  6
Continuous
100
AcDbLine
 10
41.220223
 20
192.871609
 30
0.0
 11
42.22022299999999
 21
192.871609
 31
0.0
  0
LINE
  5
9D85
330
9D59
100
AcDbEntity
  8
4
  6
CENTER
 48
0.8
100
AcDbLine
 10
212.220223
 20
317.8716129999999
 30
0.0
 11
212.220223
 21
214.6049389999999
 31
0.0
  0
LINE
  5
9D86
330
9D59
100
AcDbEntity
  8
1
  6
Continuous
100
AcDbLine
 10
233.1957099999999
 20
252.071608
 30
0.0
 11
237.220223
 21
252.071608
 31
0.0
  0
LINE
  5
9D87
330
9D59
100
AcDbEntity
  8
4
  6
CENTER
 48
0.8
100
AcDbLine
 10
125.2202229999999
 20
196.871609
 30
0.0
 11
235.220223
 21
196.871609
 31
0.0
  0
LINE
  5
9D88
330
9D59
100
AcDbEntity
  8
4
  6
CENTER
 48
0.8
100
AcDbLine
 10
180.2202229999998
 20
256.3725949999999
 30
0.0
 11
180.2202229999998
 21
141.871609
 31
0.0
  0
LINE
  5
9D89
330
9D59
100
AcDbEntity
  8
1
  6
Continuous
100
AcDbLine
 10
191.220223
 20
251.771612
 30
0.0
 11
191.220223
 21
199.371609
 31
0.0
  0
LINE
  5
9D8A
330
9D59
100
AcDbEntity
  8
1
  6
Continuous
100
AcDbLine
 10
189.7663579999999
 20
191.406155
 30
0.0
 11
220.1782389999999
 21
244.524497
 31
0.0
  0
LINE
  5
9D8B
330
9D59
100
AcDbEntity
  8
1
  6
Continuous
100
AcDbLine
 10
174.912256
 20
250.8315
 30
0.0
 11
169.2822429999999
 21
198.03806
 31
0.0
  0
LINE
  5
9D8C
330
9D59
100
AcDbEntity
  8
4
  6
CENTER
 48
0.8
100
AcDbLine
 10
125.2202229999999
 20
386.673222
 30
0.0
 11
242.2202229999999
 21
386.673222
 31
0.0
  0
LINE
  5
9D8D
330
9D59
100
AcDbEntity
  8
4
  6
CENTER
 48
0.8
100
AcDbLine
 10
212.220223
 20
416.673222
 30
0.0
 11
212.220223
 21
356.673222
 31
0.0
  0
LINE
  5
9D8E
330
9D59
100
AcDbEntity
  8
1
  6
Continuous
100
AcDbLine
 10
170.931713
 20
253.371624
 30
0.0
 11
189.823926
 21
256.70283
 31
0.0
  0
LINE
  5
9D8F
330
9D59
100
AcDbEntity
  8
1
  6
Continuous
100
AcDbLine
 10
170.931713
 20
253.371624
 30
0.0
 11
171.331104
 21
251.1065659999999
 31
0.0
  0
LINE
  5
9D90
330
9D59
100
AcDbEntity
  8
1
  6
Continuous
100
AcDbLine
 10
171.331104
 20
251.1065659999999
 30
0.0
 11
173.701828
 21
251.524589
 31
0.0
  0
LINE
  5
9D91
330
9D59
100
AcDbEntity
  8
1
  6
Continuous
100
AcDbLine
 10
33.920233
 20
201.9736219999999
 30
0.0
 11
33.920233
 21
191.7695959999998
 31
0.0
  0
LINE
  5
9D92
330
9D59
100
AcDbEntity
  8
1
  6
Continuous
100
AcDbLine
 10
35.39518300000001
 20
193.621609
 30
0.0
 11
38.44529299999999
 21
193.621609
 31
0.0
  0
LINE
  5
9D93
330
9D59
100
AcDbEntity
  8
1
  6
Continuous
100
AcDbLine
 10
35.36872299999997
 20
200.121609
 30
0.0
 11
38.47175299999999
 21
200.121609
 31
0.0
  0
LINE
  5
9D94
330
9D59
100
AcDbEntity
  8
1
  6
Continuous
100
AcDbLine
 10
35.318233
 20
190.3716089999998
 30
0.0
 11
38.52224299999999
 21
190.3716089999998
 31
0.0
  0
LINE
  5
9D95
330
9D59
100
AcDbEntity
  8
1
  6
Continuous
100
AcDbLine
 10
35.318233
 20
203.3716089999999
 30
0.0
 11
38.52224299999999
 21
203.3716089999999
 31
0.0
  0
LINE
  5
9D96
330
9D59
100
AcDbEntity
  8
1
  6
Continuous
100
AcDbLine
 10
35.318233
 20
190.371613
 30
0.0
 11
33.920233
 21
191.7696
 31
0.0
  0
LINE
  5
9D97
330
9D59
100
AcDbEntity
  8
1
  6
Continuous
100
AcDbLine
 10
33.920253
 20
201.973625
 30
0.0
 11
35.318233
 21
203.371613
 31
0.0
  0
LINE
  5
9D98
330
9D59
100
AcDbEntity
  8
1
  6
Continuous
100
AcDbLine
 10
78.72021499999998
 20
201.121609
 30
0.0
 11
78.72021499999998
 21
192.621609
 31
0.0
  0
LINE
  5
9D99
330
9D59
100
AcDbEntity
  8
1
  6
Continuous
100
AcDbLine
 10
75.520218
 20
190.621609
 30
0.0
 11
76.72021499999998
 21
190.621609
 31
0.0
  0
LINE
  5
9D9A
330
9D59
100
AcDbEntity
  8
1
  6
Continuous
100
AcDbLine
 10
75.520218
 20
203.121609
 30
0.0
 11
76.72021499999998
 21
203.121609
 31
0.0
  0
LINE
  5
9D9B
330
9D59
100
AcDbEntity
  8
1
  6
Continuous
100
AcDbLine
 10
75.520218
 20
250.9432789999999
 30
0.0
 11
75.520218
 21
185.871609
 31
0.0
  0
LINE
  5
9D9C
330
9D59
100
AcDbEntity
  8
1
  6
Continuous
100
AcDbLine
 10
38.920233
 20
250.9432789999999
 30
0.0
 11
38.920233
 21
185.871609
 31
0.0
  0
LINE
  5
9D9D
330
9D59
100
AcDbEntity
  8
1
  6
Continuous
100
AcDbLine
 10
192.220223
 20
260.9716049999998
 30
0.0
 11
232.220223
 21
260.9716049999998
 31
0.0
  0
LINE
  5
9D9E
330
9D59
100
AcDbEntity
  8
1
  6
Continuous
100
AcDbLine
 10
37.22022299999999
 20
260.9716009999999
 30
0.0
 11
77.220223
 21
260.9716009999999
 31
0.0
  0
LINE
  5
9D9F
330
9D59
100
AcDbEntity
  8
1
  6
Continuous
100
AcDbLine
 10
70.720223
 20
149.8510939999999
 30
0.0
 11
70.720223
 21
243.892124
 31
0.0
  0
LINE
  5
9DA0
330
9D59
100
AcDbEntity
  8
1
  6
Continuous
100
AcDbLine
 10
42.22022299999999
 20
209.371609
 30
0.0
 11
42.22022299999999
 21
184.371606
 31
0.0
  0
LINE
  5
9DA1
330
9D59
100
AcDbEntity
  8
1
  6
Continuous
100
AcDbLine
 10
43.720223
 20
149.8510939999999
 30
0.0
 11
43.720223
 21
243.892124
 31
0.0
  0
LINE
  5
9DA2
330
9D59
100
AcDbEntity
  8
1
  6
Continuous
100
AcDbLine
 10
72.220223
 20
209.371609
 30
0.0
 11
72.220223
 21
184.371606
 31
0.0
  0
LINE
  5
9DA3
330
9D59
100
AcDbEntity
  8
1
  6
Continuous
100
AcDbLine
 10
72.220223
 20
200.871609
 30
0.0
 11
73.22023100000001
 21
200.871609
 31
0.0
  0
LINE
  5
9DA4
330
9D59
100
AcDbEntity
  8
1
  6
Continuous
100
AcDbLine
 10
72.220223
 20
192.871609
 30
0.0
 11
73.22023100000001
 21
192.871609
 31
0.0
  0
ARC
  5
9DA5
330
9D59
100
AcDbEntity
  8
1
  6
Continuous
100
AcDbCircle
 10
57.22022299999999
 20
379.571619
 30
0.0
 40
126.2
100
AcDbArc
 50
263.34848
 51
276.6515
  0
ARC
  5
9DA6
330
9D59
100
AcDbEntity
  8
1
  6
Continuous
100
AcDbCircle
 10
180.2202229999998
 20
196.871609
 30
0.0
 40
11.0
100
AcDbArc
 50
173.91287
 51
330.2075199999998
  0
ARC
  5
9DA7
330
9D59
100
AcDbEntity
  8
1
  6
Continuous
100
AcDbCircle
 10
233.1957099999999
 20
237.071608
 30
0.0
 40
15.0
100
AcDbArc
 50
89.99998199999996
 51
150.2075699999998
  0
ARC
  5
9DA8
330
9D59
100
AcDbEntity
  8
1
  6
Continuous
100
AcDbCircle
 10
172.426352
 20
251.096602
 30
0.0
 40
2.5
100
AcDbArc
 50
353.9128499999998
 51
100.0000199999999
  0
ARC
  5
9DA9
330
9D59
100
AcDbEntity
  8
1
  6
Continuous
100
AcDbCircle
 10
57.22022299999999
 20
384.573819
 30
0.0
 40
128.4999999999998
100
AcDbArc
 50
262.8473099999999
 51
277.1526699999999
  0
ARC
  5
9DAA
330
9D59
100
AcDbEntity
  8
1
  6
Continuous
100
AcDbCircle
 10
173.8754769999999
 20
250.539781
 30
0.0
 40
1.0
100
AcDbArc
 50
353.9128499999998
 51
100.00003
  0
ARC
  5
9DAB
330
9D59
100
AcDbEntity
  8
1
  6
Continuous
100
AcDbCircle
 10
57.22022299999999
 20
379.601999
 30
0.0
 40
128.4999999999998
100
AcDbArc
 50
263.34847
 51
276.6515
  0
ARC
  5
9DAC
330
9D59
100
AcDbEntity
  8
1
  6
Continuous
100
AcDbCircle
 10
72.220223
 20
250.97366
 30
0.0
 40
1.0
100
AcDbArc
 50
0.0
 51
96.65148000000002
  0
ARC
  5
9DAD
330
9D59
100
AcDbEntity
  8
1
  6
Continuous
100
AcDbCircle
 10
42.22022299999999
 20
250.97366
 30
0.0
 40
1.0
100
AcDbArc
 50
83.348539
 51
179.9999599999999
  0
CIRCLE
  5
9DAE
330
9D59
100
AcDbEntity
  8
1
  6
Continuous
100
AcDbCircle
 10
180.2202229999998
 20
196.871609
 30
0.0
 40
1.5
  0
CIRCLE
  5
9DAF
330
9D59
100
AcDbEntity
  8
1
  6
Continuous
100
AcDbCircle
 10
180.2202229999998
 20
196.871609
 30
0.0
 40
6.25
  0
ARC
  5
9DB0
330
9D59
100
AcDbEntity
  8
1
  6
Continuous
100
AcDbCircle
 10
46.920233
 20
196.871609
 30
0.0
 40
12.0
100
AcDbArc
 50
164.2861599999999
 51
195.71383
  0
ARC
  5
9DB1
330
9D59
100
AcDbEntity
  8
1
  6
Continuous
100
AcDbCircle
 10
26.92023300000001
 20
196.871609
 30
0.0
 40
12.0
100
AcDbArc
 50
344.2861399999999
 51
15.71386099999998
  0
ARC
  5
9DB2
330
9D59
100
AcDbEntity
  8
1
  6
Continuous
100
AcDbCircle
 10
38.17023300000001
 20
201.813237
 30
0.0
 40
3.25
100
AcDbArc
 50
151.34725
 51
211.3657499999999
  0
ARC
  5
9DB3
330
9D59
100
AcDbEntity
  8
1
  6
Continuous
100
AcDbCircle
 10
35.67023300000001
 20
201.813237
 30
0.0
 40
3.25
100
AcDbArc
 50
328.6342
 51
28.65276699999999
  0
ARC
  5
9DB4
330
9D59
100
AcDbEntity
  8
1
  6
Continuous
100
AcDbCircle
 10
35.67023300000001
 20
191.929981
 30
0.0
 40
3.25
100
AcDbArc
 50
331.3472299999999
 51
31.365793
  0
ARC
  5
9DB5
330
9D59
100
AcDbEntity
  8
1
  6
Continuous
100
AcDbCircle
 10
38.17023300000001
 20
191.929981
 30
0.0
 40
3.25
100
AcDbArc
 50
148.63423
 51
208.6527299999999
  0
ARC
  5
9DB6
330
9D59
100
AcDbEntity
  8
1
  6
Continuous
100
AcDbCircle
 10
76.72021499999998
 20
201.121609
 30
0.0
 40
2.0
100
AcDbArc
 50
0.0
 51
89.99998199999996
  0
ARC
  5
9DB7
330
9D59
100
AcDbEntity
  8
1
  6
Continuous
100
AcDbCircle
 10
76.72021499999998
 20
192.621609
 30
0.0
 40
2.0
100
AcDbArc
 50
270.00002
 51
0.0
  0
ARC
  5
9DB8
330
9D59
100
AcDbEntity
  8
1
  6
Continuous
100
AcDbCircle
 10
92.220223
 20
229.5590939999999
 30
0.0
 40
60.0
100
AcDbArc
 50
179.9999799999999
 51
205.8780899999999
  0
ARC
  5
9DB9
330
9D59
100
AcDbEntity
  8
1
  6
Continuous
100
AcDbCircle
 10
22.219913
 20
229.5590939999999
 30
0.0
 40
60.0
100
AcDbArc
 50
333.85625
 51
0.0
  0
ARC
  5
9DBA
330
9D59
100
AcDbEntity
  8
1
  6
Continuous
100
AcDbCircle
 10
72.22021499999998
 20
250.9432789999999
 30
0.0
 40
3.299999999999998
100
AcDbArc
 50
0.0
 51
96.65153400000001
  0
ARC
  5
9DBB
330
9D59
100
AcDbEntity
  8
1
  6
Continuous
100
AcDbCircle
 10
42.220243
 20
250.9432789999999
 30
0.0
 40
3.299999999999998
100
AcDbArc
 50
83.348484
 51
179.9999599999999
  0
ARC
  5
9DBC
330
9D59
100
AcDbEntity
  8
1
  6
Continuous
100
AcDbCircle
 10
230.020218
 20
262.4496119999998
 30
0.0
 40
2.778
100
AcDbArc
 50
327.85663
 51
350.09193
  0
ARC
  5
9DBD
330
9D59
100
AcDbEntity
  8
1
  6
Continuous
100
AcDbCircle
 10
212.220208
 20
262.4496119999998
 30
0.0
 40
2.778
100
AcDbArc
 50
327.8565799999999
 51
350.09193
  0
ARC
  5
9DBE
330
9D59
100
AcDbEntity
  8
1
  6
Continuous
100
AcDbCircle
 10
217.708123
 20
262.4496119999998
 30
0.0
 40
2.778
100
AcDbArc
 50
189.90804
 51
212.1434
  0
ARC
  5
9DBF
330
9D59
100
AcDbEntity
  8
1
  6
Continuous
100
AcDbCircle
 10
226.5973359999999
 20
262.4496119999998
 30
0.0
 40
2.778
100
AcDbArc
 50
327.85663
 51
350.09193
  0
ARC
  5
9DC0
330
9D59
100
AcDbEntity
  8
1
  6
Continuous
100
AcDbCircle
 10
229.1325769999999
 20
262.4496119999998
 30
0.0
 40
2.778
100
AcDbArc
 50
327.85663
 51
350.09193
  0
ARC
  5
9DC1
330
9D59
100
AcDbEntity
  8
1
  6
Continuous
100
AcDbCircle
 10
194.420197
 20
262.4496119999998
 30
0.0
 40
2.778
100
AcDbArc
 50
189.9080999999999
 51
212.1433699999999
  0
ARC
  5
9DC2
330
9D59
100
AcDbEntity
  8
1
  6
Continuous
100
AcDbCircle
 10
212.220208
 20
262.4496119999998
 30
0.0
 40
2.778
100
AcDbArc
 50
189.9080999999999
 51
212.1434
  0
ARC
  5
9DC3
330
9D59
100
AcDbEntity
  8
1
  6
Continuous
100
AcDbCircle
 10
206.732293
 20
262.4496119999998
 30
0.0
 40
2.778
100
AcDbArc
 50
189.9080999999999
 51
212.1434
  0
ARC
  5
9DC4
330
9D59
100
AcDbEntity
  8
1
  6
Continuous
100
AcDbCircle
 10
201.779053
 20
262.4496119999998
 30
0.0
 40
2.778
100
AcDbArc
 50
189.9080999999999
 51
212.1434
  0
ARC
  5
9DC5
330
9D59
100
AcDbEntity
  8
1
  6
Continuous
100
AcDbCircle
 10
197.8430789999999
 20
262.4496119999998
 30
0.0
 40
2.778
100
AcDbArc
 50
189.9080999999999
 51
212.1434
  0
ARC
  5
9DC6
330
9D59
100
AcDbEntity
  8
1
  6
Continuous
100
AcDbCircle
 10
195.307839
 20
262.4496119999998
 30
0.0
 40
2.778
100
AcDbArc
 50
189.9080999999999
 51
212.1433699999999
  0
ARC
  5
9DC7
330
9D59
100
AcDbEntity
  8
1
  6
Continuous
100
AcDbCircle
 10
206.732293
 20
262.4496119999998
 30
0.0
 40
2.778
100
AcDbArc
 50
327.8565799999999
 51
350.0919899999999
  0
ARC
  5
9DC8
330
9D59
100
AcDbEntity
  8
1
  6
Continuous
100
AcDbCircle
 10
217.708123
 20
262.4496119999998
 30
0.0
 40
2.778
100
AcDbArc
 50
327.8565799999999
 51
350.09193
  0
ARC
  5
9DC9
330
9D59
100
AcDbEntity
  8
1
  6
Continuous
100
AcDbCircle
 10
222.661362
 20
262.4496119999998
 30
0.0
 40
2.778
100
AcDbArc
 50
327.8565799999999
 51
350.09193
  0
ARC
  5
9DCA
330
9D59
100
AcDbEntity
  8
1
  6
Continuous
100
AcDbCircle
 10
46.779063
 20
262.4496119999998
 30
0.0
 40
2.778
100
AcDbArc
 50
327.8564799999998
 51
333.0638399999999
  0
ARC
  5
9DCB
330
9D59
100
AcDbEntity
  8
1
  6
Continuous
100
AcDbCircle
 10
67.661355
 20
262.4496119999998
 30
0.0
 40
2.778
100
AcDbArc
 50
327.8564799999998
 51
350.09193
  0
ARC
  5
9DCC
330
9D59
100
AcDbEntity
  8
1
  6
Continuous
100
AcDbCircle
 10
77.220223
 20
255.9716009999999
 30
0.0
 40
5.0
100
AcDbArc
 50
0.0
 51
89.99998199999996
  0
ARC
  5
9DCD
330
9D59
100
AcDbEntity
  8
1
  6
Continuous
100
AcDbCircle
 10
37.22022299999999
 20
255.9716009999999
 30
0.0
 40
5.0
100
AcDbArc
 50
89.99998199999996
 51
179.9999599999999
  0
ARC
  5
9DCE
330
9D59
100
AcDbEntity
  8
1
  6
Continuous
100
AcDbCircle
 10
62.708123
 20
262.4496119999998
 30
0.0
 40
2.778
100
AcDbArc
 50
327.8564799999998
 51
350.09193
  0
ARC
  5
9DCF
330
9D59
100
AcDbEntity
  8
1
  6
Continuous
100
AcDbCircle
 10
75.020218
 20
262.4496119999998
 30
0.0
 40
2.778
100
AcDbArc
 50
327.80113
 51
350.09193
  0
ARC
  5
9DD0
330
9D59
100
AcDbEntity
  8
1
  6
Continuous
100
AcDbCircle
 10
57.220203
 20
262.4496119999998
 30
0.0
 40
2.778
100
AcDbArc
 50
327.8564799999998
 51
350.09193
  0
ARC
  5
9DD1
330
9D59
100
AcDbEntity
  8
1
  6
Continuous
100
AcDbCircle
 10
62.708123
 20
262.4496119999998
 30
0.0
 40
2.778
100
AcDbArc
 50
189.90804
 51
212.14351
  0
ARC
  5
9DD2
330
9D59
100
AcDbEntity
  8
1
  6
Continuous
100
AcDbCircle
 10
67.661355
 20
262.4496119999998
 30
0.0
 40
2.778
100
AcDbArc
 50
206.9362
 51
212.14351
  0
ARC
  5
9DD3
330
9D59
100
AcDbEntity
  8
1
  6
Continuous
100
AcDbCircle
 10
71.597329
 20
262.4496119999998
 30
0.0
 40
2.778
100
AcDbArc
 50
327.8564799999998
 51
350.09193
  0
ARC
  5
9DD4
330
9D59
100
AcDbEntity
  8
1
  6
Continuous
100
AcDbCircle
 10
74.13257699999999
 20
262.4496119999998
 30
0.0
 40
2.778
100
AcDbArc
 50
327.8564799999998
 51
350.09193
  0
ARC
  5
9DD5
330
9D59
100
AcDbEntity
  8
1
  6
Continuous
100
AcDbCircle
 10
39.420203
 20
262.4496119999998
 30
0.0
 40
2.778
100
AcDbArc
 50
189.9080999999999
 51
212.14351
  0
ARC
  5
9DD6
330
9D59
100
AcDbEntity
  8
1
  6
Continuous
100
AcDbCircle
 10
57.220203
 20
262.4496119999998
 30
0.0
 40
2.778
100
AcDbArc
 50
189.9080999999999
 51
212.14351
  0
ARC
  5
9DD7
330
9D59
100
AcDbEntity
  8
1
  6
Continuous
100
AcDbCircle
 10
51.732293
 20
262.4496119999998
 30
0.0
 40
2.778
100
AcDbArc
 50
189.9080999999999
 51
212.14351
  0
ARC
  5
9DD8
330
9D59
100
AcDbEntity
  8
1
  6
Continuous
100
AcDbCircle
 10
46.779063
 20
262.4496119999998
 30
0.0
 40
2.778
100
AcDbArc
 50
189.9080999999999
 51
212.14351
  0
ARC
  5
9DD9
330
9D59
100
AcDbEntity
  8
1
  6
Continuous
100
AcDbCircle
 10
42.843083
 20
262.4496119999998
 30
0.0
 40
2.778
100
AcDbArc
 50
189.9080999999999
 51
212.14351
  0
ARC
  5
9DDA
330
9D59
100
AcDbEntity
  8
1
  6
Continuous
100
AcDbCircle
 10
40.30784299999999
 20
262.4496119999998
 30
0.0
 40
2.778
100
AcDbArc
 50
189.9080999999999
 51
212.14351
  0
ARC
  5
9DDB
330
9D59
100
AcDbEntity
  8
1
  6
Continuous
100
AcDbCircle
 10
51.732293
 20
262.4496119999998
 30
0.0
 40
2.778
100
AcDbArc
 50
327.8564799999998
 51
350.0919899999999
  0
ARC
  5
9DDC
330
9D59
100
AcDbEntity
  8
1
  6
Continuous
100
AcDbCircle
 10
180.2202229999998
 20
196.871609
 30
0.0
 40
50.0
100
AcDbArc
 50
96.62188500000002
 51
47.498512
  0
ARC
  5
9DDD
330
9D59
100
AcDbEntity
  8
1
  6
Continuous
100
AcDbCircle
 10
180.2202229999998
 20
196.871609
 30
0.0
 40
34.5
100
AcDbArc
 50
102.5056799999999
 51
41.614713
  0
ARC
  5
9DDE
330
9D59
100
AcDbEntity
  8
1
  6
Continuous
100
AcDbCircle
 10
180.2202229999998
 20
196.871609
 30
0.0
 40
15.5
100
AcDbArc
 50
129.12153
 51
14.998887
  0
ARC
  5
9DDF
330
9D59
100
AcDbEntity
  8
1
  6
Continuous
100
AcDbCircle
 10
45.72022299999999
 20
149.8510939999999
 30
0.0
 40
2.0
100
AcDbArc
 50
180.00002
 51
260.2634799999999
  0
ARC
  5
9DE0
330
9D59
100
AcDbEntity
  8
1
  6
Continuous
100
AcDbCircle
 10
45.22022299999998
 20
184.371609
 30
0.0
 40
3.0
100
AcDbArc
 50
180.0000399999998
 51
239.99998
  0
ARC
  5
9DE1
330
9D59
100
AcDbEntity
  8
1
  6
Continuous
100
AcDbCircle
 10
45.22022299999998
 20
209.371609
 30
0.0
 40
3.0
100
AcDbArc
 50
120.0000199999999
 51
179.9999599999999
  0
ARC
  5
9DE2
330
9D59
100
AcDbEntity
  8
1
  6
Continuous
100
AcDbCircle
 10
68.72022300000001
 20
243.892124
 30
0.0
 40
2.0
100
AcDbArc
 50
0.000055
 51
80.26353399999996
  0
ARC
  5
9DE3
330
9D59
100
AcDbEntity
  8
1
  6
Continuous
100
AcDbCircle
 10
69.220223
 20
209.371609
 30
0.0
 40
3.0
100
AcDbArc
 50
0.000055
 51
59.999995
  0
ARC
  5
9DE4
330
9D59
100
AcDbEntity
  8
1
  6
Continuous
100
AcDbCircle
 10
69.220223
 20
184.371609
 30
0.0
 40
3.0
100
AcDbArc
 50
300.00001
 51
359.99995
  0
ARC
  5
9DE5
330
9D59
100
AcDbEntity
  8
1
  6
Continuous
100
AcDbCircle
 10
68.72022300000001
 20
149.8510939999999
 30
0.0
 40
2.0
100
AcDbArc
 50
279.73647
 51
359.99995
  0
ARC
  5
9DE6
330
9D59
100
AcDbEntity
  8
1
  6
Continuous
100
AcDbCircle
 10
57.22022299999999
 20
176.871609
 30
0.0
 40
70.0
100
AcDbArc
 50
80.26348
 51
99.73649899999999
  0
ARC
  5
9DE7
330
9D59
100
AcDbEntity
  8
1
  6
Continuous
100
AcDbCircle
 10
45.72022299999999
 20
243.892124
 30
0.0
 40
2.0
100
AcDbArc
 50
99.736519
 51
179.9999799999999
  0
ARC
  5
9DE8
330
9D59
100
AcDbEntity
  8
1
  6
Continuous
100
AcDbCircle
 10
57.22022299999999
 20
216.8716089999997
 30
0.0
 40
70.0
100
AcDbArc
 50
260.2635009999999
 51
279.7365199999999
  0
LINE
  5
9DE9
330
9D59
100
AcDbEntity
  8
1
  6
Continuous
100
AcDbLine
 10
237.220223
 20
255.971605
 30
0.0
 11
237.220223
 21
252.071608
 31
0.0
  0
ARC
  5
9DEA
330
9D59
100
AcDbEntity
  8
1
  6
Continuous
100
AcDbCircle
 10
232.220223
 20
255.971605
 30
0.0
 40
5.0
100
AcDbArc
 50
0.0
 51
90.0
  0
LINE
  5
9DEB
330
9D59
100
AcDbEntity
  8
4
  6
CENTER
 48
0.8
100
AcDbLine
 10
180.2202229999998
 20
416.9732119999998
 30
0.0
 11
180.2202229999998
 21
360.1732299999997
 31
0.0
  0
LINE
  5
9DEC
330
9D59
100
AcDbEntity
  8
4
  6
CENTER
 48
0.8
100
AcDbLine
 10
180.2202229999998
 20
43.571619
 30
0.0
 11
180.2202229999998
 21
100.3716009999999
 31
0.0
  0
LINE
  5
9DED
330
9D59
100
AcDbEntity
  8
4
  6
CENTER
 48
0.8
100
AcDbLine
 10
212.220223
 20
43.87160899999996
 30
0.0
 11
212.220223
 21
103.8716089999999
 31
0.0
  0
LINE
  5
9DEE
330
9D59
100
AcDbEntity
  8
4
  6
CENTER
 48
0.8
100
AcDbLine
 10
125.2202229999999
 20
73.87160899999997
 30
0.0
 11
242.2202229999999
 21
73.87160899999997
 31
0.0
  0
LINE
  5
9DEF
330
9D59
100
AcDbEntity
  8
1
  6
Continuous
100
AcDbLine
 10
171.507972
 20
373.173222
 30
0.0
 11
133.1997069999999
 21
373.173222
 31
0.0
  0
LINE
  5
9DF0
330
9D59
100
AcDbEntity
  8
1
  6
Continuous
100
AcDbLine
 10
171.507972
 20
400.173222
 30
0.0
 11
133.1997069999999
 21
400.173222
 31
0.0
  0
ARC
  5
9DF1
330
9D59
100
AcDbEntity
  8
1
  6
Continuous
100
AcDbCircle
 10
200.2202229999999
 20
386.673222
 30
0.0
 40
70.0
100
AcDbArc
 50
170.26348
 51
189.7364989999998
  0
ARC
  5
9DF2
330
9D59
100
AcDbEntity
  8
1
  6
Continuous
100
AcDbCircle
 10
133.1997069999999
 20
375.173222
 30
0.0
 40
2.0
100
AcDbArc
 50
189.736519
 51
269.99998
  0
ARC
  5
9DF3
330
9D59
100
AcDbEntity
  8
1
  6
Continuous
100
AcDbCircle
 10
133.1997069999999
 20
398.1732219999998
 30
0.0
 40
2.0
100
AcDbArc
 50
90.00005499999994
 51
170.263534
  0
LINE
  5
9DF4
330
9D59
100
AcDbEntity
  8
1
  6
Continuous
100
AcDbLine
 10
169.220223
 20
89.87160899999997
 30
0.0
 11
193.6808049999999
 21
89.87160899999997
 31
0.0
  0
LINE
  5
9DF5
330
9D59
100
AcDbEntity
  8
1
  6
Continuous
100
AcDbLine
 10
169.220223
 20
92.171604
 30
0.0
 11
193.680799
 21
92.171604
 31
0.0
  0
LINE
  5
9DF6
330
9D59
100
AcDbEntity
  8
1
  6
Continuous
100
AcDbLine
 10
169.220223
 20
57.87160899999999
 30
0.0
 11
193.6808049999999
 21
57.87160899999999
 31
0.0
  0
LINE
  5
9DF7
330
9D59
100
AcDbEntity
  8
1
  6
Continuous
100
AcDbLine
 10
169.220223
 20
55.57161899999999
 30
0.0
 11
193.680793
 21
55.57161899999999
 31
0.0
  0
LINE
  5
9DF8
330
9D59
100
AcDbEntity
  8
1
  6
Continuous
100
AcDbLine
 10
227.240738
 20
87.37160899999997
 30
0.0
 11
133.1997069999999
 21
87.37160899999997
 31
0.0
  0
LINE
  5
9DF9
330
9D59
100
AcDbEntity
  8
1
  6
Continuous
100
AcDbLine
 10
227.240738
 20
60.37160899999999
 30
0.0
 11
133.1997069999999
 21
60.37160899999999
 31
0.0
  0
ARC
  5
9DFA
330
9D59
100
AcDbEntity
  8
1
  6
Continuous
100
AcDbCircle
 10
200.2202229999999
 20
73.87160899999997
 30
0.0
 40
70.0
100
AcDbArc
 50
170.26348
 51
189.7364989999998
  0
ARC
  5
9DFB
330
9D59
100
AcDbEntity
  8
1
  6
Continuous
100
AcDbCircle
 10
133.1997069999999
 20
62.371609
 30
0.0
 40
2.0
100
AcDbArc
 50
189.736519
 51
269.99998
  0
ARC
  5
9DFC
330
9D59
100
AcDbEntity
  8
1
  6
Continuous
100
AcDbCircle
 10
133.1997069999999
 20
85.37160899999998
 30
0.0
 40
2.0
100
AcDbArc
 50
90.00005499999994
 51
170.263534
  0
LINE
  5
9DFD
330
9D59
100
AcDbEntity
  8
1
  6
Continuous
100
AcDbLine
 10
186.4702229999998
 20
92.171604
 30
0.0
 11
186.4702229999998
 21
93.371601
 31
0.0
  0
LINE
  5
9DFE
330
9D59
100
AcDbEntity
  8
1
  6
Continuous
100
AcDbLine
 10
173.9702229999998
 20
92.171604
 30
0.0
 11
173.9702229999998
 21
93.371601
 31
0.0
  0
LINE
  5
9DFF
330
9D59
100
AcDbEntity
  8
1
  6
Continuous
100
AcDbLine
 10
167.7202229999998
 20
88.87160899999996
 30
0.0
 11
192.720225
 21
88.87160899999996
 31
0.0
  0
LINE
  5
9E00
330
9D59
100
AcDbEntity
  8
1
  6
Continuous
100
AcDbLine
 10
167.7202229999998
 20
58.871609
 30
0.0
 11
192.720225
 21
58.871609
 31
0.0
  0
ARC
  5
9E01
330
9D59
100
AcDbEntity
  8
1
  6
Continuous
100
AcDbCircle
 10
167.7202229999998
 20
61.871609
 30
0.0
 40
3.0
100
AcDbArc
 50
210.00002
 51
269.9999599999998
  0
LINE
  5
9E02
330
9D59
100
AcDbEntity
  8
1
  6
Continuous
100
AcDbLine
 10
176.2202229999997
 20
57.87160899999999
 30
0.0
 11
176.2202229999997
 21
58.871609
 31
0.0
  0
ARC
  5
9E03
330
9D59
100
AcDbEntity
  8
1
  6
Continuous
100
AcDbCircle
 10
167.7202229999998
 20
85.87160899999998
 30
0.0
 40
3.0
100
AcDbArc
 50
90.00005499999994
 51
149.9999949999998
  0
LINE
  5
9E04
330
9D59
100
AcDbEntity
  8
1
  6
Continuous
100
AcDbLine
 10
176.2202229999997
 20
88.87160899999996
 30
0.0
 11
176.2202229999997
 21
89.87161699999999
 31
0.0
  0
LINE
  5
9E05
330
9D59
100
AcDbEntity
  8
1
  6
Continuous
100
AcDbLine
 10
184.220223
 20
57.87160899999999
 30
0.0
 11
184.220223
 21
58.871609
 31
0.0
  0
ARC
  5
9E06
330
9D59
100
AcDbEntity
  8
1
  6
Continuous
100
AcDbCircle
 10
192.7202229999998
 20
61.871609
 30
0.0
 40
3.0
100
AcDbArc
 50
270.0000399999999
 51
329.99998
  0
LINE
  5
9E07
330
9D59
100
AcDbEntity
  8
1
  6
Continuous
100
AcDbLine
 10
184.220223
 20
88.87160899999996
 30
0.0
 11
184.220223
 21
89.87161699999999
 31
0.0
  0
ARC
  5
9E08
330
9D59
100
AcDbEntity
  8
1
  6
Continuous
100
AcDbCircle
 10
192.7202229999998
 20
85.87160899999998
 30
0.0
 40
3.0
100
AcDbArc
 50
30.00001
 51
89.99995000000001
  0
LINE
  5
9E09
330
9D59
100
AcDbEntity
  8
1
  6
Continuous
100
AcDbLine
 10
175.970223
 20
95.37160099999999
 30
0.0
 11
184.470223
 21
95.37160099999999
 31
0.0
  0
ARC
  5
9E0A
330
9D59
100
AcDbEntity
  8
1
  6
Continuous
100
AcDbCircle
 10
175.970223
 20
93.371601
 30
0.0
 40
2.0
100
AcDbArc
 50
90.0
 51
179.999982
  0
ARC
  5
9E0B
330
9D59
100
AcDbEntity
  8
1
  6
Continuous
100
AcDbCircle
 10
184.470223
 20
93.371601
 30
0.0
 40
2.0
100
AcDbArc
 50
0.00002
 51
90.0
  0
ARC
  5
9E0C
330
9D59
100
AcDbEntity
  8
1
  6
Continuous
100
AcDbCircle
 10
160.220223
 20
73.87160899999997
 30
0.0
 40
70.0
100
AcDbArc
 50
350.2635009999999
 51
9.73652
  0
ARC
  5
9E0D
330
9D59
100
AcDbEntity
  8
1
  6
Continuous
100
AcDbCircle
 10
227.240738
 20
62.371609
 30
0.0
 40
2.0
100
AcDbArc
 50
270.00002
 51
350.2634799999999
  0
ARC
  5
9E0E
330
9D59
100
AcDbEntity
  8
1
  6
Continuous
100
AcDbCircle
 10
227.240738
 20
85.37160899999998
 30
0.0
 40
2.0
100
AcDbArc
 50
9.736469999999997
 51
89.99995000000001
  0
LINE
  5
9E0F
330
9D59
100
AcDbEntity
  8
1
  6
Continuous
100
AcDbLine
 10
169.220223
 20
92.171604
 30
0.0
 11
169.220223
 21
89.87160899999997
 31
0.0
  0
LINE
  5
9E10
330
9D59
100
AcDbEntity
  8
1
  6
Continuous
100
AcDbLine
 10
169.220223
 20
57.87160899999999
 30
0.0
 11
169.220223
 21
55.57161899999999
 31
0.0
  0
ARC
  5
9E11
330
9D59
100
AcDbEntity
  8
1
  6
Continuous
100
AcDbCircle
 10
214.8902839999998
 20
73.86203899999998
 30
0.0
 40
43.958572
100
AcDbArc
 50
158.641841
 51
160.0348759999999
  0
ARC
  5
9E12
330
9D59
100
AcDbEntity
  8
1
  6
Continuous
100
AcDbCircle
 10
214.8902839999998
 20
73.86203899999998
 30
0.0
 40
43.958572
100
AcDbArc
 50
199.938584
 51
201.331375
  0
ARC
  5
9E13
330
9D59
100
AcDbEntity
  8
1
  6
Continuous
100
AcDbCircle
 10
212.220223
 20
73.87160899999997
 30
0.0
 40
25.0
100
AcDbArc
 50
230.2610529999999
 51
129.738932
  0
ARC
  5
9E14
330
9D59
100
AcDbEntity
  8
1
  6
Continuous
100
AcDbCircle
 10
212.220223
 20
73.87160899999997
 30
0.0
 40
22.7
100
AcDbArc
 50
230.2610839999999
 51
129.7389159999999
  0
ARC
  5
9E15
330
9D59
100
AcDbEntity
  8
1
  6
Continuous
100
AcDbCircle
 10
212.220223
 20
73.87160899999997
 30
0.0
 40
17.0
100
AcDbArc
 50
232.5719939999999
 51
307.4280059999998
  0
ARC
  5
9E16
330
9D59
100
AcDbEntity
  8
1
  6
Continuous
100
AcDbCircle
 10
212.220223
 20
73.87160899999997
 30
0.0
 40
20.69999999999998
100
AcDbArc
 50
220.7057069999999
 51
319.936096
  0
ARC
  5
9E17
330
9D59
100
AcDbEntity
  8
1
  6
Continuous
100
AcDbCircle
 10
212.220223
 20
73.87160899999997
 30
0.0
 40
17.0
100
AcDbArc
 50
52.571994
 51
127.428006
  0
ARC
  5
9E18
330
9D59
100
AcDbEntity
  8
1
  6
Continuous
100
AcDbCircle
 10
212.220223
 20
73.87160899999997
 30
0.0
 40
20.69999999999998
100
AcDbArc
 50
40.06390399999999
 51
139.2942929999997
  0
ARC
  5
9E19
330
9D59
100
AcDbEntity
  8
1
  6
Continuous
100
AcDbCircle
 10
212.220223
 20
73.87160899999997
 30
0.0
 40
20.69999999999998
100
AcDbArc
 50
325.1878759999998
 51
34.81212399999999
  0
CIRCLE
  5
9E1A
330
9D59
100
AcDbEntity
  8
2
  6
Continuous
100
AcDbCircle
 10
438.2202229999998
 20
196.871609
 30
0.0
 40
3.3235
  0
CIRCLE
  5
9E1B
330
9D59
100
AcDbEntity
  8
1
  6
Continuous
100
AcDbCircle
 10
438.2202229999998
 20
196.871609
 30
0.0
 40
4.0
  0
ARC
  5
9E1C
330
9D59
100
AcDbEntity
  8
1
  6
Continuous
100
AcDbCircle
 10
177.2202229999997
 20
48.730018
 30
0.0
 40
6.841600999999998
100
AcDbArc
 50
63.992176
 51
116.007824
  0
ARC
  5
9E1D
330
9D59
100
AcDbEntity
  8
1
  6
Continuous
100
AcDbCircle
 10
177.2202229999997
 20
57.41321899999999
 30
0.0
 40
6.841600999999998
100
AcDbArc
 50
243.992176
 51
296.0078240000001
  0
LINE
  5
9E1E
330
9D59
100
AcDbEntity
  8
1
  6
Continuous
100
AcDbLine
 10
177.470223
 20
50.571619
 30
0.0
 11
182.970223
 21
50.571619
 31
0.0
  0
LINE
  5
9E1F
330
9D59
100
AcDbEntity
  8
1
  6
Continuous
100
AcDbLine
 10
174.220223
 20
54.87879799999999
 30
0.0
 11
174.220223
 21
51.264439
 31
0.0
  0
LINE
  5
9E20
330
9D59
100
AcDbEntity
  8
1
  6
Continuous
100
AcDbLine
 10
180.2202229999998
 20
55.57161899999999
 30
0.0
 11
180.2202229999998
 21
51.264439
 31
0.0
  0
LINE
  5
9E21
330
9D59
100
AcDbEntity
  8
1
  6
Continuous
100
AcDbLine
 10
186.220223
 20
54.87879799999999
 30
0.0
 11
186.220223
 21
51.264439
 31
0.0
  0
ARC
  5
9E22
330
9D59
100
AcDbEntity
  8
1
  6
Continuous
100
AcDbCircle
 10
183.220223
 20
48.730018
 30
0.0
 40
6.841600999999998
100
AcDbArc
 50
63.992176
 51
116.007824
  0
ARC
  5
9E23
330
9D59
100
AcDbEntity
  8
1
  6
Continuous
100
AcDbCircle
 10
183.220223
 20
57.41321899999999
 30
0.0
 40
6.841600999999998
100
AcDbArc
 50
243.992176
 51
296.0078240000001
  0
LINE
  5
9E24
330
9D59
100
AcDbEntity
  8
4
  6
CENTER
 48
0.8
100
AcDbLine
 10
310.3197999999999
 20
317.871629
 30
0.0
 11
310.3197999999999
 21
141.8716249999999
 31
0.0
  0
ARC
  5
9E25
330
9D59
100
AcDbEntity
  8
1
  6
Continuous
100
AcDbCircle
 10
298.8198
 20
149.8511099999998
 30
0.0
 40
2.0
100
AcDbArc
 50
180.0000499999999
 51
260.26353
  0
ARC
  5
9E26
330
9D59
100
AcDbEntity
  8
1
  6
Continuous
100
AcDbCircle
 10
321.8198
 20
149.8511099999998
 30
0.0
 40
2.0
100
AcDbArc
 50
279.7365199999999
 51
359.9999799999998
  0
ARC
  5
9E27
330
9D59
100
AcDbEntity
  8
1
  6
Continuous
100
AcDbCircle
 10
310.3197999999999
 20
216.871625
 30
0.0
 40
70.0
100
AcDbArc
 50
260.2634799999999
 51
279.7364989999999
  0
LINE
  5
9E28
330
9D59
100
AcDbEntity
  8
1
  6
Continuous
100
AcDbLine
 10
323.8198
 20
149.8511099999998
 30
0.0
 11
323.8198
 21
243.892141
 31
0.0
  0
LINE
  5
9E29
330
9D59
100
AcDbEntity
  8
1
  6
Continuous
100
AcDbLine
 10
296.8198
 20
149.8511099999998
 30
0.0
 11
296.8198
 21
243.892141
 31
0.0
  0
LINE
  5
9E2A
330
9D59
100
AcDbEntity
  8
1
  6
Continuous
100
AcDbLine
 10
285.3197999999998
 20
255.9716169999999
 30
0.0
 11
285.3197999999998
 21
231.823477
 31
0.0
  0
LINE
  5
9E2B
330
9D59
100
AcDbEntity
  8
1
  6
Continuous
100
AcDbLine
 10
292.0198049999999
 20
201.845008
 30
0.0
 11
292.0198049999999
 21
185.871625
 31
0.0
  0
LINE
  5
9E2C
330
9D59
100
AcDbEntity
  8
1
  6
Continuous
100
AcDbLine
 10
294.3197999999998
 20
250.973676
 30
0.0
 11
294.3197999999998
 21
185.871625
 31
0.0
  0
LINE
  5
9E2D
330
9D59
100
AcDbEntity
  8
1
  6
Continuous
100
AcDbLine
 10
328.6197899999999
 20
201.844997
 30
0.0
 11
328.6197899999999
 21
185.871625
 31
0.0
  0
LINE
  5
9E2E
330
9D59
100
AcDbEntity
  8
1
  6
Continuous
100
AcDbLine
 10
326.3198
 20
250.973676
 30
0.0
 11
326.3198
 21
185.871625
 31
0.0
  0
LINE
  5
9E2F
330
9D59
100
AcDbEntity
  8
4
  6
CENTER
 48
0.8
100
AcDbLine
 10
340.6197899999999
 20
196.8716249999999
 30
0.0
 11
283.819808
 21
196.8716249999999
 31
0.0
  0
LINE
  5
9E30
330
9D59
100
AcDbEntity
  8
1
  6
Continuous
100
AcDbLine
 10
325.3197999999998
 20
209.3716249999999
 30
0.0
 11
325.3197999999998
 21
184.371623
 31
0.0
  0
LINE
  5
9E31
330
9D59
100
AcDbEntity
  8
1
  6
Continuous
100
AcDbLine
 10
333.6197899999999
 20
201.9736379999999
 30
0.0
 11
333.6197899999999
 21
191.769612
 31
0.0
  0
ARC
  5
9E32
330
9D59
100
AcDbEntity
  8
1
  6
Continuous
100
AcDbCircle
 10
331.8697899999999
 20
191.9299969999999
 30
0.0
 40
3.25
100
AcDbArc
 50
148.634207
 51
208.6527699999999
  0
ARC
  5
9E33
330
9D59
100
AcDbEntity
  8
1
  6
Continuous
100
AcDbCircle
 10
329.3697899999999
 20
191.9299969999999
 30
0.0
 40
3.25
100
AcDbArc
 50
331.3472699999998
 51
31.36577
  0
LINE
  5
9E34
330
9D59
100
AcDbEntity
  8
1
  6
Continuous
100
AcDbLine
 10
326.3198
 20
192.8716249999999
 30
0.0
 11
325.3197999999998
 21
192.8716249999999
 31
0.0
  0
ARC
  5
9E35
330
9D59
100
AcDbEntity
  8
1
  6
Continuous
100
AcDbCircle
 10
322.3198
 20
184.3716249999999
 30
0.0
 40
3.0
100
AcDbArc
 50
300.00002
 51
359.9999599999999
  0
LINE
  5
9E36
330
9D59
100
AcDbEntity
  8
1
  6
Continuous
100
AcDbLine
 10
332.22179
 20
190.371625
 30
0.0
 11
329.0177799999999
 21
190.371625
 31
0.0
  0
LINE
  5
9E37
330
9D59
100
AcDbEntity
  8
1
  6
Continuous
100
AcDbLine
 10
328.6197899999999
 20
185.871625
 30
0.0
 11
326.3198
 21
185.871625
 31
0.0
  0
LINE
  5
9E38
330
9D59
100
AcDbEntity
  8
1
  6
Continuous
100
AcDbLine
 10
332.22179
 20
190.371629
 30
0.0
 11
333.6197899999999
 21
191.769616
 31
0.0
  0
ARC
  5
9E39
330
9D59
100
AcDbEntity
  8
1
  6
Continuous
100
AcDbCircle
 10
322.3198
 20
209.3716249999999
 30
0.0
 40
3.0
100
AcDbArc
 50
0.00004
 51
59.99998000000001
  0
ARC
  5
9E3A
330
9D59
100
AcDbEntity
  8
1
  6
Continuous
100
AcDbCircle
 10
340.6197899999999
 20
196.8716249999999
 30
0.0
 40
12.0
100
AcDbArc
 50
164.286139
 51
195.71386
  0
LINE
  5
9E3B
330
9D59
100
AcDbEntity
  8
1
  6
Continuous
100
AcDbLine
 10
332.22179
 20
203.3716249999999
 30
0.0
 11
329.2212119999998
 21
203.3716249999999
 31
0.0
  0
LINE
  5
9E3C
330
9D59
100
AcDbEntity
  8
1
  6
Continuous
100
AcDbLine
 10
332.1712999999998
 20
200.121625
 30
0.0
 11
329.06827
 21
200.121625
 31
0.0
  0
LINE
  5
9E3D
330
9D59
100
AcDbEntity
  8
1
  6
Continuous
100
AcDbLine
 10
332.1448399999998
 20
193.621625
 30
0.0
 11
329.0947299999999
 21
193.621625
 31
0.0
  0
LINE
  5
9E3E
330
9D59
100
AcDbEntity
  8
1
  6
Continuous
100
AcDbLine
 10
326.3198
 20
200.8716249999999
 30
0.0
 11
325.3197999999998
 21
200.8716249999999
 31
0.0
  0
ARC
  5
9E3F
330
9D59
100
AcDbEntity
  8
1
  6
Continuous
100
AcDbCircle
 10
329.3697899999999
 20
201.8132529999999
 30
0.0
 40
3.25
100
AcDbArc
 50
328.6342499999999
 51
28.65275
  0
ARC
  5
9E40
330
9D59
100
AcDbEntity
  8
1
  6
Continuous
100
AcDbCircle
 10
320.6197899999999
 20
196.8716249999999
 30
0.0
 40
12.0
100
AcDbArc
 50
344.28617
 51
15.71384
  0
LINE
  5
9E41
330
9D59
100
AcDbEntity
  8
1
  6
Continuous
100
AcDbLine
 10
333.61977
 20
201.9736409999999
 30
0.0
 11
332.22179
 21
203.371629
 31
0.0
  0
LINE
  5
9E42
330
9D59
100
AcDbEntity
  8
1
  6
Continuous
100
AcDbLine
 10
295.3198
 20
209.3716249999999
 30
0.0
 11
295.3198
 21
184.371623
 31
0.0
  0
LINE
  5
9E43
330
9D59
100
AcDbEntity
  8
1
  6
Continuous
100
AcDbLine
 10
288.819808
 20
201.1216249999999
 30
0.0
 11
288.819808
 21
192.6216249999999
 31
0.0
  0
LINE
  5
9E44
330
9D59
100
AcDbEntity
  8
1
  6
Continuous
100
AcDbLine
 10
295.3198
 20
192.8716249999999
 30
0.0
 11
294.319792
 21
192.8716249999999
 31
0.0
  0
ARC
  5
9E45
330
9D59
100
AcDbEntity
  8
1
  6
Continuous
100
AcDbCircle
 10
298.3197999999998
 20
184.3716249999999
 30
0.0
 40
3.0
100
AcDbArc
 50
180.0000499999999
 51
239.99999
  0
LINE
  5
9E46
330
9D59
100
AcDbEntity
  8
1
  6
Continuous
100
AcDbLine
 10
292.0198049999999
 20
190.6216249999999
 30
0.0
 11
290.819808
 21
190.6216249999999
 31
0.0
  0
LINE
  5
9E47
330
9D59
100
AcDbEntity
  8
1
  6
Continuous
100
AcDbLine
 10
292.0198049999999
 20
185.871625
 30
0.0
 11
294.3197999999998
 21
185.871625
 31
0.0
  0
ARC
  5
9E48
330
9D59
100
AcDbEntity
  8
1
  6
Continuous
100
AcDbCircle
 10
290.819808
 20
192.6216249999999
 30
0.0
 40
2.0
100
AcDbArc
 50
180.0
 51
269.99998
  0
ARC
  5
9E49
330
9D59
100
AcDbEntity
  8
1
  6
Continuous
100
AcDbCircle
 10
298.3197999999998
 20
209.3716249999999
 30
0.0
 40
3.0
100
AcDbArc
 50
120.000005
 51
179.999945
  0
ARC
  5
9E4A
330
9D59
100
AcDbEntity
  8
1
  6
Continuous
100
AcDbCircle
 10
290.819808
 20
201.1216249999999
 30
0.0
 40
2.0
100
AcDbArc
 50
90.0
 51
180.0
  0
LINE
  5
9E4B
330
9D59
100
AcDbEntity
  8
1
  6
Continuous
100
AcDbLine
 10
295.3198
 20
200.8716249999999
 30
0.0
 11
294.319792
 21
200.8716249999999
 31
0.0
  0
ARC
  5
9E4C
330
9D59
100
AcDbEntity
  8
1
  6
Continuous
100
AcDbCircle
 10
310.3197999999999
 20
176.8716249999999
 30
0.0
 40
70.0
100
AcDbArc
 50
80.263501
 51
99.73652000000001
  0
LINE
  5
9E4D
330
9D59
100
AcDbEntity
  8
1
  6
Continuous
100
AcDbLine
 10
330.3198
 20
260.971617
 30
0.0
 11
290.3197999999998
 21
260.971617
 31
0.0
  0
ARC
  5
9E4E
330
9D59
100
AcDbEntity
  8
1
  6
Continuous
100
AcDbCircle
 10
330.3198
 20
255.9716169999999
 30
0.0
 40
5.0
100
AcDbArc
 50
0.00004
 51
90.00001800000005
  0
ARC
  5
9E4F
330
9D59
100
AcDbEntity
  8
1
  6
Continuous
100
AcDbCircle
 10
321.8198
 20
243.892141
 30
0.0
 40
2.0
100
AcDbArc
 50
0.00002
 51
80.26348100000001
  0
ARC
  5
9E50
330
9D59
100
AcDbEntity
  8
1
  6
Continuous
100
AcDbCircle
 10
327.2321799999998
 20
262.4496279999998
 30
0.0
 40
2.778
100
AcDbArc
 50
327.85649
 51
350.0919
  0
ARC
  5
9E51
330
9D59
100
AcDbEntity
  8
1
  6
Continuous
100
AcDbCircle
 10
324.6969399999998
 20
262.4496279999998
 30
0.0
 40
2.778
100
AcDbArc
 50
327.85649
 51
350.0919
  0
ARC
  5
9E52
330
9D59
100
AcDbEntity
  8
1
  6
Continuous
100
AcDbCircle
 10
320.76096
 20
262.4496279999998
 30
0.0
 40
2.778
100
AcDbArc
 50
327.85649
 51
350.0919
  0
ARC
  5
9E53
330
9D59
100
AcDbEntity
  8
1
  6
Continuous
100
AcDbCircle
 10
328.1198199999999
 20
262.4496279999998
 30
0.0
 40
2.778
100
AcDbArc
 50
327.85649
 51
350.0919
  0
ARC
  5
9E54
330
9D59
100
AcDbEntity
  8
1
  6
Continuous
100
AcDbCircle
 10
315.8077299999998
 20
262.4496279999998
 30
0.0
 40
2.778
100
AcDbArc
 50
327.85649
 51
350.0919
  0
ARC
  5
9E55
330
9D59
100
AcDbEntity
  8
1
  6
Continuous
100
AcDbCircle
 10
320.76096
 20
262.4496279999998
 30
0.0
 40
2.778
100
AcDbArc
 50
206.93616
 51
212.14352
  0
ARC
  5
9E56
330
9D59
100
AcDbEntity
  8
1
  6
Continuous
100
AcDbCircle
 10
304.8319
 20
262.4496279999998
 30
0.0
 40
2.778
100
AcDbArc
 50
327.85649
 51
350.0919599999999
  0
ARC
  5
9E57
330
9D59
100
AcDbEntity
  8
1
  6
Continuous
100
AcDbCircle
 10
310.31982
 20
262.4496279999998
 30
0.0
 40
2.778
100
AcDbArc
 50
189.90807
 51
212.14352
  0
ARC
  5
9E58
330
9D59
100
AcDbEntity
  8
1
  6
Continuous
100
AcDbCircle
 10
315.8077299999998
 20
262.4496279999998
 30
0.0
 40
2.778
100
AcDbArc
 50
189.9080099999999
 51
212.14352
  0
ARC
  5
9E59
330
9D59
100
AcDbEntity
  8
1
  6
Continuous
100
AcDbCircle
 10
310.31982
 20
262.4496279999998
 30
0.0
 40
2.778
100
AcDbArc
 50
327.85649
 51
350.0919
  0
ARC
  5
9E5A
330
9D59
100
AcDbEntity
  8
1
  6
Continuous
100
AcDbCircle
 10
290.3197999999998
 20
255.9716169999999
 30
0.0
 40
5.0
100
AcDbArc
 50
90.00001800000005
 51
180.0
  0
ARC
  5
9E5B
330
9D59
100
AcDbEntity
  8
1
  6
Continuous
100
AcDbCircle
 10
298.8198
 20
243.892141
 30
0.0
 40
2.0
100
AcDbArc
 50
99.73646600000002
 51
179.999945
  0
ARC
  5
9E5C
330
9D59
100
AcDbEntity
  8
1
  6
Continuous
100
AcDbCircle
 10
293.407446
 20
262.4496279999998
 30
0.0
 40
2.778
100
AcDbArc
 50
189.90807
 51
212.14352
  0
ARC
  5
9E5D
330
9D59
100
AcDbEntity
  8
1
  6
Continuous
100
AcDbCircle
 10
295.942694
 20
262.4496279999998
 30
0.0
 40
2.778
100
AcDbArc
 50
189.90807
 51
212.14352
  0
ARC
  5
9E5E
330
9D59
100
AcDbEntity
  8
1
  6
Continuous
100
AcDbCircle
 10
299.878668
 20
262.4496279999998
 30
0.0
 40
2.778
100
AcDbArc
 50
327.85649
 51
333.0638
  0
ARC
  5
9E5F
330
9D59
100
AcDbEntity
  8
1
  6
Continuous
100
AcDbCircle
 10
292.5198049999999
 20
262.4496279999998
 30
0.0
 40
2.778
100
AcDbArc
 50
189.90807
 51
212.19887
  0
ARC
  5
9E60
330
9D59
100
AcDbEntity
  8
1
  6
Continuous
100
AcDbCircle
 10
304.8319
 20
262.4496279999998
 30
0.0
 40
2.778
100
AcDbArc
 50
189.90807
 51
212.14352
  0
ARC
  5
9E61
330
9D59
100
AcDbEntity
  8
1
  6
Continuous
100
AcDbCircle
 10
299.878668
 20
262.4496279999998
 30
0.0
 40
2.778
100
AcDbArc
 50
189.90807
 51
212.14352
  0
LINE
  5
9E62
330
9D59
100
AcDbEntity
  8
1
  6
Continuous
100
AcDbLine
 10
335.3197999999999
 20
255.9716169999999
 30
0.0
 11
335.3197999999999
 21
231.823477
 31
0.0
  0
LINE
  5
9E63
330
9D59
100
AcDbEntity
  8
4
  6
CENTER
 48
0.8
100
AcDbLine
 10
438.2202229999998
 20
256.3725949999999
 30
0.0
 11
438.2202229999998
 21
141.871609
 31
0.0
  0
ARC
  5
9E64
330
9D59
100
AcDbEntity
  8
1
  6
Continuous
100
AcDbCircle
 10
438.2202229999998
 20
196.871609
 30
0.0
 40
50.0
100
AcDbArc
 50
132.5014879999999
 51
83.37811499999999
  0
LINE
  5
9E65
330
9D59
100
AcDbEntity
  8
4
  6
CENTER
 48
0.8
100
AcDbLine
 10
493.2202229999998
 20
196.871609
 30
0.0
 11
383.220223
 21
196.871609
 31
0.0
  0
LINE
  5
9E66
330
9D59
100
AcDbEntity
  8
1
  6
Continuous
100
AcDbLine
 10
428.6740879999999
 20
191.406155
 30
0.0
 11
398.262206
 21
244.524497
 31
0.0
  0
LINE
  5
9E67
330
9D59
100
AcDbEntity
  8
1
  6
Continuous
100
AcDbLine
 10
443.52819
 20
250.8315
 30
0.0
 11
449.158203
 21
198.03806
 31
0.0
  0
LINE
  5
9E68
330
9D59
100
AcDbEntity
  8
1
  6
Continuous
100
AcDbLine
 10
427.2202229999998
 20
251.771612
 30
0.0
 11
427.2202229999998
 21
199.371609
 31
0.0
  0
LINE
  5
9E69
330
9D59
100
AcDbEntity
  8
4
  6
CENTER
 48
0.8
100
AcDbLine
 10
406.2202229999998
 20
317.8716129999999
 30
0.0
 11
406.2202229999998
 21
214.6049389999999
 31
0.0
  0
ARC
  5
9E6A
330
9D59
100
AcDbEntity
  8
1
  6
Continuous
100
AcDbCircle
 10
438.2202229999998
 20
196.871609
 30
0.0
 40
15.5
100
AcDbArc
 50
165.001113
 51
50.87847
  0
ARC
  5
9E6B
330
9D59
100
AcDbEntity
  8
1
  6
Continuous
100
AcDbCircle
 10
438.2202229999998
 20
196.871609
 30
0.0
 40
34.5
100
AcDbArc
 50
138.385287
 51
77.49432
  0
ARC
  5
9E6C
330
9D59
100
AcDbEntity
  8
1
  6
Continuous
100
AcDbCircle
 10
438.2202229999998
 20
196.871609
 30
0.0
 40
11.0
100
AcDbArc
 50
209.7924799999999
 51
6.08713
  0
LINE
  5
9E6D
330
9D59
100
AcDbEntity
  8
1
  6
Continuous
100
AcDbLine
 10
427.2202229999998
 20
260.9716049999998
 30
0.0
 11
386.2202229999999
 21
260.9716049999998
 31
0.0
  0
ARC
  5
9E6E
330
9D59
100
AcDbEntity
  8
1
  6
Continuous
100
AcDbCircle
 10
446.014094
 20
251.096602
 30
0.0
 40
2.5
100
AcDbArc
 50
79.99997999999997
 51
186.08715
  0
LINE
  5
9E6F
330
9D59
100
AcDbEntity
  8
1
  6
Continuous
100
AcDbLine
 10
447.508732
 20
253.371624
 30
0.0
 11
428.61652
 21
256.70283
 31
0.0
  0
ARC
  5
9E70
330
9D59
100
AcDbEntity
  8
1
  6
Continuous
100
AcDbCircle
 10
444.564969
 20
250.539781
 30
0.0
 40
1.0
100
AcDbArc
 50
79.99996999999997
 51
186.08715
  0
LINE
  5
9E71
330
9D59
100
AcDbEntity
  8
1
  6
Continuous
100
AcDbLine
 10
447.1093419999998
 20
251.1065659999999
 30
0.0
 11
444.7386169999998
 21
251.524589
 31
0.0
  0
LINE
  5
9E72
330
9D59
100
AcDbEntity
  8
1
  6
Continuous
100
AcDbLine
 10
447.508732
 20
253.371624
 30
0.0
 11
447.1093419999998
 21
251.1065659999999
 31
0.0
  0
ARC
  5
9E73
330
9D59
100
AcDbEntity
  8
1
  6
Continuous
100
AcDbCircle
 10
385.2447359999999
 20
237.071608
 30
0.0
 40
15.0
100
AcDbArc
 50
29.79243
 51
90.00001800000005
  0
ARC
  5
9E74
330
9D59
100
AcDbEntity
  8
1
  6
Continuous
100
AcDbCircle
 10
423.1326069999998
 20
262.4496119999998
 30
0.0
 40
2.778
100
AcDbArc
 50
327.85663
 51
350.0919
  0
ARC
  5
9E75
330
9D59
100
AcDbEntity
  8
1
  6
Continuous
100
AcDbCircle
 10
420.597367
 20
262.4496119999998
 30
0.0
 40
2.778
100
AcDbArc
 50
327.8566
 51
350.0919
  0
ARC
  5
9E76
330
9D59
100
AcDbEntity
  8
1
  6
Continuous
100
AcDbCircle
 10
416.6613929999998
 20
262.4496119999998
 30
0.0
 40
2.778
100
AcDbArc
 50
327.8566
 51
350.0919
  0
ARC
  5
9E77
330
9D59
100
AcDbEntity
  8
1
  6
Continuous
100
AcDbCircle
 10
411.708153
 20
262.4496119999998
 30
0.0
 40
2.778
100
AcDbArc
 50
327.8566
 51
350.0919
  0
ARC
  5
9E78
330
9D59
100
AcDbEntity
  8
1
  6
Continuous
100
AcDbCircle
 10
424.0202489999998
 20
262.4496119999998
 30
0.0
 40
2.778
100
AcDbArc
 50
327.85663
 51
350.0919
  0
ARC
  5
9E79
330
9D59
100
AcDbEntity
  8
1
  6
Continuous
100
AcDbCircle
 10
400.7323229999998
 20
262.4496119999998
 30
0.0
 40
2.778
100
AcDbArc
 50
189.90807
 51
212.1434199999999
  0
ARC
  5
9E7A
330
9D59
100
AcDbEntity
  8
1
  6
Continuous
100
AcDbCircle
 10
411.708153
 20
262.4496119999998
 30
0.0
 40
2.778
100
AcDbArc
 50
189.9080099999999
 51
212.1434199999999
  0
ARC
  5
9E7B
330
9D59
100
AcDbEntity
  8
1
  6
Continuous
100
AcDbCircle
 10
406.220238
 20
262.4496119999998
 30
0.0
 40
2.778
100
AcDbArc
 50
327.8566
 51
350.0919
  0
ARC
  5
9E7C
330
9D59
100
AcDbEntity
  8
1
  6
Continuous
100
AcDbCircle
 10
400.7323229999998
 20
262.4496119999998
 30
0.0
 40
2.778
100
AcDbArc
 50
327.8566
 51
350.0919599999999
  0
ARC
  5
9E7D
330
9D59
100
AcDbEntity
  8
1
  6
Continuous
100
AcDbCircle
 10
406.220238
 20
262.4496119999998
 30
0.0
 40
2.778
100
AcDbArc
 50
189.90807
 51
212.1434199999999
  0
ARC
  5
9E7E
330
9D59
100
AcDbEntity
  8
1
  6
Continuous
100
AcDbCircle
 10
386.2202229999999
 20
255.971605
 30
0.0
 40
5.0
100
AcDbArc
 50
90.0
 51
180.0
  0
LINE
  5
9E7F
330
9D59
100
AcDbEntity
  8
1
  6
Continuous
100
AcDbLine
 10
381.220223
 20
255.971605
 30
0.0
 11
381.220223
 21
252.071608
 31
0.0
  0
LINE
  5
9E80
330
9D59
100
AcDbEntity
  8
1
  6
Continuous
100
AcDbLine
 10
385.2447359999999
 20
252.071608
 30
0.0
 11
381.220223
 21
252.071608
 31
0.0
  0
ARC
  5
9E81
330
9D59
100
AcDbEntity
  8
1
  6
Continuous
100
AcDbCircle
 10
395.779084
 20
262.4496119999998
 30
0.0
 40
2.778
100
AcDbArc
 50
189.90807
 51
212.1434199999999
  0
ARC
  5
9E82
330
9D59
100
AcDbEntity
  8
1
  6
Continuous
100
AcDbCircle
 10
389.3078689999999
 20
262.4496119999998
 30
0.0
 40
2.778
100
AcDbArc
 50
189.90807
 51
212.1433699999999
  0
ARC
  5
9E83
330
9D59
100
AcDbEntity
  8
1
  6
Continuous
100
AcDbCircle
 10
391.84311
 20
262.4496119999998
 30
0.0
 40
2.778
100
AcDbArc
 50
189.90807
 51
212.1433699999999
  0
ARC
  5
9E84
330
9D59
100
AcDbEntity
  8
1
  6
Continuous
100
AcDbCircle
 10
388.4202279999998
 20
262.4496119999998
 30
0.0
 40
2.778
100
AcDbArc
 50
189.90807
 51
212.1433699999999
  0
LINE
  5
9E85
330
9D59
100
AcDbEntity
  8
1
  6
Continuous
100
AcDbLine
 10
438.2202229999998
 20
203.3716029999999
 30
0.0
 11
432.591062
 21
200.1216059999999
 31
0.0
  0
LINE
  5
9E86
330
9D59
100
AcDbEntity
  8
1
  6
Continuous
100
AcDbLine
 10
432.591062
 20
200.1216059999999
 30
0.0
 11
432.591062
 21
193.621611
 31
0.0
  0
LINE
  5
9E87
330
9D59
100
AcDbEntity
  8
1
  6
Continuous
100
AcDbLine
 10
432.591062
 20
193.621611
 30
0.0
 11
438.2202229999998
 21
190.371614
 31
0.0
  0
LINE
  5
9E88
330
9D59
100
AcDbEntity
  8
1
  6
Continuous
100
AcDbLine
 10
438.2202229999998
 20
190.371614
 30
0.0
 11
443.8493829999998
 21
193.621611
 31
0.0
  0
LINE
  5
9E89
330
9D59
100
AcDbEntity
  8
1
  6
Continuous
100
AcDbLine
 10
443.8493829999998
 20
193.621611
 30
0.0
 11
443.8493829999998
 21
200.1216059999999
 31
0.0
  0
LINE
  5
9E8A
330
9D59
100
AcDbEntity
  8
1
  6
Continuous
100
AcDbLine
 10
443.8493829999998
 20
200.1216059999999
 30
0.0
 11
438.2202229999998
 21
203.3716029999999
 31
0.0
  0
LINE
  5
9E8B
330
9D59
100
AcDbEntity
  8
1
  6
Continuous
100
AcDbLine
 10
33.12023299999999
 20
192.871609
 30
0.0
 11
33.920233
 21
192.871609
 31
0.0
  0
LINE
  5
9E8C
330
9D59
100
AcDbEntity
  8
2
  6
Continuous
100
AcDbLine
 10
32.443733
 20
193.548109
 30
0.0
 11
33.920233
 21
193.548109
 31
0.0
  0
LINE
  5
9E8D
330
9D59
100
AcDbEntity
  8
1
  6
Continuous
100
AcDbLine
 10
33.12023299999999
 20
200.871609
 30
0.0
 11
33.920233
 21
200.871609
 31
0.0
  0
LINE
  5
9E8E
330
9D59
100
AcDbEntity
  8
2
  6
Continuous
100
AcDbLine
 10
32.443733
 20
200.1951089999999
 30
0.0
 11
33.920233
 21
200.1951089999999
 31
0.0
  0
LINE
  5
9E8F
330
9D59
100
AcDbEntity
  8
1
  6
Continuous
100
AcDbLine
 10
31.92023300000001
 20
194.071609
 30
0.0
 11
33.12023299999999
 21
192.871609
 31
0.0
  0
LINE
  5
9E90
330
9D59
100
AcDbEntity
  8
1
  6
Continuous
100
AcDbLine
 10
33.12023299999999
 20
192.871609
 30
0.0
 11
33.12023299999999
 21
200.871609
 31
0.0
  0
LINE
  5
9E91
330
9D59
100
AcDbEntity
  8
1
  6
Continuous
100
AcDbLine
 10
31.92023300000001
 20
199.6716089999999
 30
0.0
 11
33.12023299999999
 21
200.871609
 31
0.0
  0
LINE
  5
9E92
330
9D59
100
AcDbEntity
  8
1
  6
Continuous
100
AcDbLine
 10
31.92023300000001
 20
194.071609
 30
0.0
 11
31.92023300000001
 21
199.6716089999999
 31
0.0
  0
LINE
  5
9E93
330
9D59
100
AcDbEntity
  8
1
  6
Continuous
100
AcDbLine
 10
184.220223
 20
49.771619
 30
0.0
 11
184.220223
 21
50.571619
 31
0.0
  0
LINE
  5
9E94
330
9D59
100
AcDbEntity
  8
2
  6
Continuous
100
AcDbLine
 10
183.543723
 20
49.095119
 30
0.0
 11
183.543723
 21
50.571619
 31
0.0
  0
LINE
  5
9E95
330
9D59
100
AcDbEntity
  8
1
  6
Continuous
100
AcDbLine
 10
176.2202229999997
 20
49.771619
 30
0.0
 11
176.2202229999997
 21
50.571619
 31
0.0
  0
LINE
  5
9E96
330
9D59
100
AcDbEntity
  8
2
  6
Continuous
100
AcDbLine
 10
176.896723
 20
49.095119
 30
0.0
 11
176.896723
 21
50.571619
 31
0.0
  0
LINE
  5
9E97
330
9D59
100
AcDbEntity
  8
1
  6
Continuous
100
AcDbLine
 10
183.0202229999999
 20
48.571619
 30
0.0
 11
184.220223
 21
49.771619
 31
0.0
  0
LINE
  5
9E98
330
9D59
100
AcDbEntity
  8
1
  6
Continuous
100
AcDbLine
 10
184.220223
 20
49.771619
 30
0.0
 11
176.2202229999997
 21
49.771619
 31
0.0
  0
LINE
  5
9E99
330
9D59
100
AcDbEntity
  8
1
  6
Continuous
100
AcDbLine
 10
177.420223
 20
48.571619
 30
0.0
 11
176.2202229999997
 21
49.771619
 31
0.0
  0
LINE
  5
9E9A
330
9D59
100
AcDbEntity
  8
1
  6
Continuous
100
AcDbLine
 10
183.0202229999999
 20
48.571619
 30
0.0
 11
177.420223
 21
48.571619
 31
0.0
  0
LINE
  5
9E9B
330
9D59
100
AcDbEntity
  8
1
  6
Continuous
100
AcDbLine
 10
334.4197899999998
 20
200.8716249999999
 30
0.0
 11
334.4197899999998
 21
192.8716249999999
 31
0.0
  0
LINE
  5
9E9C
330
9D59
100
AcDbEntity
  8
1
  6
Continuous
100
AcDbLine
 10
335.6197899999999
 20
199.671625
 30
0.0
 11
334.4197899999998
 21
200.8716249999999
 31
0.0
  0
LINE
  5
9E9D
330
9D59
100
AcDbEntity
  8
1
  6
Continuous
100
AcDbLine
 10
335.6197899999999
 20
199.671625
 30
0.0
 11
335.6197899999999
 21
194.071625
 31
0.0
  0
LINE
  5
9E9E
330
9D59
100
AcDbEntity
  8
1
  6
Continuous
100
AcDbLine
 10
335.6197899999999
 20
194.071625
 30
0.0
 11
334.4197899999998
 21
192.8716249999999
 31
0.0
  0
LINE
  5
9E9F
330
9D59
100
AcDbEntity
  8
2
  6
Continuous
100
AcDbLine
 10
335.09629
 20
193.548125
 30
0.0
 11
333.6197899999999
 21
193.548125
 31
0.0
  0
LINE
  5
9EA0
330
9D59
100
AcDbEntity
  8
1
  6
Continuous
100
AcDbLine
 10
334.4197899999998
 20
192.8716249999999
 30
0.0
 11
333.6197899999999
 21
192.8716249999999
 31
0.0
  0
LINE
  5
9EA1
330
9D59
100
AcDbEntity
  8
2
  6
Continuous
100
AcDbLine
 10
335.09629
 20
200.1951249999999
 30
0.0
 11
333.6197899999999
 21
200.1951249999999
 31
0.0
  0
LINE
  5
9EA2
330
9D59
100
AcDbEntity
  8
1
  6
Continuous
100
AcDbLine
 10
334.4197899999998
 20
200.8716249999999
 30
0.0
 11
333.6197899999999
 21
200.8716249999999
 31
0.0
  0
CIRCLE
  5
9EA3
330
9D59
100
AcDbEntity
  8
1
  6
Continuous
100
AcDbCircle
 10
438.2202229999998
 20
196.871609
 30
0.0
 40
2.799999999999998
  0
CIRCLE
  5
9EA4
330
9D59
100
AcDbEntity
  8
1
  6
Continuous
100
AcDbCircle
 10
438.2202229999998
 20
196.871609
 30
0.0
 40
5.102012999999998
  0
ARC
  5
9EA5
330
9D59
100
AcDbEntity
  8
1
  6
Continuous
100
AcDbCircle
 10
354.7375599999999
 20
231.823477
 30
0.0
 40
69.417761
100
AcDbArc
 50
164.295714
 51
205.1964439999999
  0
ARC
  5
9EA6
330
9D59
100
AcDbEntity
  8
1
  6
Continuous
100
AcDbCircle
 10
265.902039
 20
231.823477
 30
0.0
 40
69.417761
100
AcDbArc
 50
334.8035469999998
 51
15.70428599999999
  0
LINE
  5
9EA7
330
9D59
100
AcDbEntity
  8
1
  6
Continuous
100
AcDbLine
 10
291.531317
 20
203.1216249999999
 30
0.0
 11
290.819808
 21
203.1216249999999
 31
0.0
  0
ARC
  5
9EA8
330
9D59
100
AcDbEntity
  8
1
  6
Continuous
100
AcDbCircle
 10
265.902039
 20
231.823477
 30
0.0
 40
67.117761
100
AcDbArc
 50
334.8035659999998
 51
17.55857599999999
  0
ARC
  5
9EA9
330
9D59
100
AcDbEntity
  8
1
  6
Continuous
100
AcDbCircle
 10
354.7375599999999
 20
231.823477
 30
0.0
 40
67.117761
100
AcDbArc
 50
162.441424
 51
205.196434
  0
ARC
  5
9EAA
330
9D59
100
AcDbEntity
  8
1
  6
Continuous
100
AcDbCircle
 10
310.3197999999999
 20
379.6020149999998
 30
0.0
 40
128.4999999999998
100
AcDbArc
 50
263.34847
 51
276.6515
  0
ARC
  5
9EAB
330
9D59
100
AcDbEntity
  8
1
  6
Continuous
100
AcDbCircle
 10
295.3198
 20
250.973676
 30
0.0
 40
1.0
100
AcDbArc
 50
83.348539
 51
179.9999599999999
  0
ARC
  5
9EAC
330
9D59
100
AcDbEntity
  8
1
  6
Continuous
100
AcDbCircle
 10
325.3197999999998
 20
250.973676
 30
0.0
 40
1.0
100
AcDbArc
 50
0.00004
 51
96.65146100000001
  0
LINE
  5
9EAD
330
9D59
100
AcDbEntity
  8
1
  6
Continuous
100
AcDbLine
 10
289.8364029999999
 20
252.071608
 30
0.0
 11
330.803196
 21
252.071608
 31
0.0
  0
ARC
  5
9EAE
330
9D59
100
AcDbEntity
  8
1
  6
Continuous
100
AcDbCircle
 10
330.803196
 20
250.071608
 30
0.0
 40
2.0
100
AcDbArc
 50
15.70428599999999
 51
90.0
  0
ARC
  5
9EAF
330
9D59
100
AcDbEntity
  8
1
  6
Continuous
100
AcDbCircle
 10
289.8364029999999
 20
250.071608
 30
0.0
 40
2.0
100
AcDbArc
 50
90.0
 51
164.295714
  0
ARC
  5
9EB0
330
9D59
100
AcDbEntity
  8
1
  6
Continuous
100
AcDbCircle
 10
193.680799
 20
96.17160400000001
 30
0.0
 40
4.0
100
AcDbArc
 50
270.0
 51
309.738932
  0
ARC
  5
9EB1
330
9D59
100
AcDbEntity
  8
1
  6
Continuous
100
AcDbCircle
 10
193.6808049999999
 20
96.17160900000001
 30
0.0
 40
6.299999999999998
100
AcDbArc
 50
270.0
 51
309.738916
  0
ARC
  5
9EB2
330
9D59
100
AcDbEntity
  8
1
  6
Continuous
100
AcDbCircle
 10
193.6808049999999
 20
51.571609
 30
0.0
 40
6.299999999999998
100
AcDbArc
 50
50.261084
 51
90.0
  0
ARC
  5
9EB3
330
9D59
100
AcDbEntity
  8
1
  6
Continuous
100
AcDbCircle
 10
193.680793
 20
51.571619
 30
0.0
 40
4.0
100
AcDbArc
 50
50.26105300000001
 51
90.0
  0
ARC
  5
9EB4
330
9D59
100
AcDbEntity
  8
1
  6
Continuous
100
AcDbCircle
 10
291.0198049999999
 20
201.845008
 30
0.0
 40
1.0
100
AcDbArc
 50
0.0
 51
25.196444
  0
ARC
  5
9EB5
330
9D59
100
AcDbEntity
  8
1
  6
Continuous
100
AcDbCircle
 10
291.0197999999998
 20
201.8450179999999
 30
0.0
 40
3.299999999999998
100
AcDbArc
 50
0.0
 51
25.196434
  0
ARC
  5
9EB6
330
9D59
100
AcDbEntity
  8
1
  6
Continuous
100
AcDbCircle
 10
329.6197899999999
 20
201.844997
 30
0.0
 40
1.0
100
AcDbArc
 50
154.803547
 51
180.0
  0
ARC
  5
9EB7
330
9D59
100
AcDbEntity
  8
1
  6
Continuous
100
AcDbCircle
 10
329.6197999999999
 20
201.8450179999999
 30
0.0
 40
3.299999999999998
100
AcDbArc
 50
154.803566
 51
180.0
  0
LINE
  5
9EB8
330
9D59
100
AcDbEntity
  8
1
  6
Continuous
100
AcDbLine
 10
428.720223
 20
265.7716019999999
 30
0.0
 11
428.720223
 21
263.2716019999999
 31
0.0
  0
LINE
  5
9EB9
330
9D59
100
AcDbEntity
  8
1
  6
Continuous
100
AcDbLine
 10
383.7202229999999
 20
265.7716019999999
 30
0.0
 11
383.7202229999999
 21
263.2716019999999
 31
0.0
  0
LINE
  5
9EBA
330
9D59
100
AcDbEntity
  8
1
  6
Continuous
100
AcDbLine
 10
428.3202389999998
 20
261.9716069999999
 30
0.0
 11
384.1202129999999
 21
261.9716069999999
 31
0.0
  0
LINE
  5
9EBB
330
9D59
100
AcDbEntity
  8
1
  6
Continuous
100
AcDbLine
 10
384.120243
 20
261.9716029999997
 30
0.0
 11
383.7202429999999
 21
263.27161
 31
0.0
  0
LINE
  5
9EBC
330
9D59
100
AcDbEntity
  8
1
  6
Continuous
100
AcDbLine
 10
428.320237
 20
261.971599
 30
0.0
 11
428.720238
 21
263.2716019999999
 31
0.0
  0
LINE
  5
9EBD
330
9D59
100
AcDbEntity
  8
2
  6
Continuous
100
AcDbLine
 10
413.137723
 20
274.746558
 30
0.0
 11
413.137723
 21
311.9541129999999
 31
0.0
  0
LINE
  5
9EBE
330
9D59
100
AcDbEntity
  8
2
  6
Continuous
100
AcDbLine
 10
399.302723
 20
274.746558
 30
0.0
 11
399.302723
 21
311.9541129999999
 31
0.0
  0
LINE
  5
9EBF
330
9D59
100
AcDbEntity
  8
1
  6
Continuous
100
AcDbLine
 10
414.2202229999998
 20
272.8716129999999
 30
0.0
 11
414.2202229999998
 21
310.8716129999999
 31
0.0
  0
LINE
  5
9EC0
330
9D59
100
AcDbEntity
  8
1
  6
Continuous
100
AcDbLine
 10
398.220223
 20
272.8716129999999
 30
0.0
 11
398.220223
 21
310.8716129999999
 31
0.0
  0
LINE
  5
9EC1
330
9D59
100
AcDbEntity
  8
1
  6
Continuous
100
AcDbLine
 10
398.220223
 20
274.746558
 30
0.0
 11
414.2202229999998
 21
274.746558
 31
0.0
  0
LINE
  5
9EC2
330
9D59
100
AcDbEntity
  8
2
  6
Continuous
100
AcDbLine
 10
399.302723
 20
274.746558
 30
0.0
 11
398.220223
 21
272.8716129999999
 31
0.0
  0
LINE
  5
9EC3
330
9D59
100
AcDbEntity
  8
1
  6
Continuous
100
AcDbLine
 10
424.47029
 20
267.7716019999999
 30
0.0
 11
387.9702229999999
 21
267.7716019999999
 31
0.0
  0
LINE
  5
9EC4
330
9D59
100
AcDbEntity
  8
1
  6
Continuous
100
AcDbLine
 10
428.720223
 20
265.7716019999999
 30
0.0
 11
383.7202229999999
 21
265.7716019999999
 31
0.0
  0
ARC
  5
9EC5
330
9D59
100
AcDbEntity
  8
1
  6
Continuous
100
AcDbCircle
 10
388.196163
 20
261.77586
 30
0.0
 40
6.0
100
AcDbArc
 50
92.158028
 51
138.2442
  0
LINE
  5
9EC6
330
9D59
100
AcDbEntity
  8
2
  6
Continuous
100
AcDbLine
 10
413.137723
 20
274.746558
 30
0.0
 11
414.2202229999998
 21
272.8716129999999
 31
0.0
  0
ARC
  5
9EC7
330
9D59
100
AcDbEntity
  8
1
  6
Continuous
100
AcDbCircle
 10
424.2442859999998
 20
261.77586
 30
0.0
 40
6.0
100
AcDbArc
 50
41.75575999999996
 51
87.841936
  0
LINE
  5
9EC8
330
9D59
100
AcDbEntity
  8
1
  6
Continuous
100
AcDbLine
 10
398.220223
 20
310.8716129999999
 30
0.0
 11
400.2202229999999
 21
312.8716129999999
 31
0.0
  0
LINE
  5
9EC9
330
9D59
100
AcDbEntity
  8
1
  6
Continuous
100
AcDbLine
 10
398.220223
 20
310.8716129999999
 30
0.0
 11
414.2202229999998
 21
310.8716129999999
 31
0.0
  0
LINE
  5
9ECA
330
9D59
100
AcDbEntity
  8
1
  6
Continuous
100
AcDbLine
 10
412.220223
 20
312.8716129999999
 30
0.0
 11
414.2202229999998
 21
310.8716129999999
 31
0.0
  0
LINE
  5
9ECB
330
9D59
100
AcDbEntity
  8
1
  6
Continuous
100
AcDbLine
 10
400.2202229999999
 20
312.8716129999999
 30
0.0
 11
412.220223
 21
312.8716129999999
 31
0.0
  0
CIRCLE
  5
9ECC
330
9D59
100
AcDbEntity
  8
1
  6
Continuous
100
AcDbCircle
 10
212.220223
 20
386.673222
 30
0.0
 40
8.0
  0
CIRCLE
  5
9ECD
330
9D59
100
AcDbEntity
  8
2
  6
Continuous
100
AcDbCircle
 10
212.220223
 20
386.673222
 30
0.0
 40
6.9175
  0
LINE
  5
9ECE
330
9D59
100
AcDbEntity
  8
1
  6
Continuous
100
AcDbLine
 10
287.8197999999999
 20
265.7716259999999
 30
0.0
 11
287.8197999999999
 21
263.2716259999999
 31
0.0
  0
LINE
  5
9ECF
330
9D59
100
AcDbEntity
  8
1
  6
Continuous
100
AcDbLine
 10
332.8197999999998
 20
265.7716259999999
 30
0.0
 11
332.8197999999998
 21
263.2716259999999
 31
0.0
  0
LINE
  5
9ED0
330
9D59
100
AcDbEntity
  8
1
  6
Continuous
100
AcDbLine
 10
332.4197909999998
 20
261.971623
 30
0.0
 11
288.2198
 21
261.971623
 31
0.0
  0
LINE
  5
9ED1
330
9D59
100
AcDbEntity
  8
1
  6
Continuous
100
AcDbLine
 10
288.2197959999998
 20
261.9716189999999
 30
0.0
 11
287.8197959999998
 21
263.2716219999999
 31
0.0
  0
LINE
  5
9ED2
330
9D59
100
AcDbEntity
  8
1
  6
Continuous
100
AcDbLine
 10
332.4197909999998
 20
261.971627
 30
0.0
 11
332.819792
 21
263.2716259999999
 31
0.0
  0
LINE
  5
9ED3
330
9D59
100
AcDbEntity
  8
1
  6
Continuous
100
AcDbLine
 10
318.3197999999998
 20
272.8716289999999
 30
0.0
 11
318.3197999999998
 21
310.8716289999998
 31
0.0
  0
LINE
  5
9ED4
330
9D59
100
AcDbEntity
  8
2
  6
Continuous
100
AcDbLine
 10
317.2373
 20
274.746571
 30
0.0
 11
317.2373
 21
311.954129
 31
0.0
  0
LINE
  5
9ED5
330
9D59
100
AcDbEntity
  8
1
  6
Continuous
100
AcDbLine
 10
302.3197999999998
 20
272.8716289999999
 30
0.0
 11
302.3197999999998
 21
310.8716289999998
 31
0.0
  0
LINE
  5
9ED6
330
9D59
100
AcDbEntity
  8
2
  6
Continuous
100
AcDbLine
 10
303.4023
 20
274.746571
 30
0.0
 11
303.4023
 21
311.954129
 31
0.0
  0
LINE
  5
9ED7
330
9D59
100
AcDbEntity
  8
1
  6
Continuous
100
AcDbLine
 10
328.3476639999999
 20
267.7716259999999
 30
0.0
 11
292.0697999999998
 21
267.7716259999999
 31
0.0
  0
LINE
  5
9ED8
330
9D59
100
AcDbEntity
  8
1
  6
Continuous
100
AcDbLine
 10
332.8197999999998
 20
265.7716259999999
 30
0.0
 11
287.8197999999999
 21
265.7716259999999
 31
0.0
  0
LINE
  5
9ED9
330
9D59
100
AcDbEntity
  8
1
  6
Continuous
100
AcDbLine
 10
302.3197999999998
 20
274.746571
 30
0.0
 11
318.3197999999998
 21
274.746571
 31
0.0
  0
ARC
  5
9EDA
330
9D59
100
AcDbEntity
  8
1
  6
Continuous
100
AcDbCircle
 10
292.295739
 20
261.7758789999999
 30
0.0
 40
6.0
100
AcDbArc
 50
92.158028
 51
138.2442
  0
LINE
  5
9EDB
330
9D59
100
AcDbEntity
  8
2
  6
Continuous
100
AcDbLine
 10
303.4023
 20
274.746571
 30
0.0
 11
302.3197999999998
 21
272.871626
 31
0.0
  0
LINE
  5
9EDC
330
9D59
100
AcDbEntity
  8
2
  6
Continuous
100
AcDbLine
 10
317.2373
 20
274.746571
 30
0.0
 11
318.3197999999998
 21
272.871626
 31
0.0
  0
ARC
  5
9EDD
330
9D59
100
AcDbEntity
  8
1
  6
Continuous
100
AcDbCircle
 10
328.3476639999999
 20
261.7716259999999
 30
0.0
 40
6.0
100
AcDbArc
 50
41.810315
 51
90.0
  0
LINE
  5
9EDE
330
9D59
100
AcDbEntity
  8
1
  6
Continuous
100
AcDbLine
 10
304.3197999999998
 20
312.8716289999998
 30
0.0
 11
316.3197999999998
 21
312.8716289999998
 31
0.0
  0
LINE
  5
9EDF
330
9D59
100
AcDbEntity
  8
1
  6
Continuous
100
AcDbLine
 10
302.3197999999998
 20
310.8716289999998
 30
0.0
 11
318.3197999999998
 21
310.8716289999998
 31
0.0
  0
LINE
  5
9EE0
330
9D59
100
AcDbEntity
  8
1
  6
Continuous
100
AcDbLine
 10
302.3197999999998
 20
310.8716289999998
 30
0.0
 11
304.3197999999998
 21
312.8716289999998
 31
0.0
  0
LINE
  5
9EE1
330
9D59
100
AcDbEntity
  8
1
  6
Continuous
100
AcDbLine
 10
316.3197999999998
 20
312.8716289999998
 30
0.0
 11
318.3197999999998
 21
310.8716289999998
 31
0.0
  0
CIRCLE
  5
9EE2
330
9D59
100
AcDbEntity
  8
1
  6
Continuous
100
AcDbCircle
 10
212.220223
 20
386.673222
 30
0.0
 40
6.0
  0
LINE
  5
9EE3
330
9D59
100
AcDbEntity
  8
1
  6
Continuous
100
AcDbLine
 10
204.220223
 20
310.8716129999999
 30
0.0
 11
220.220223
 21
310.8716129999999
 31
0.0
  0
LINE
  5
9EE4
330
9D59
100
AcDbEntity
  8
1
  6
Continuous
100
AcDbLine
 10
206.220223
 20
312.8716129999999
 30
0.0
 11
218.220223
 21
312.8716129999999
 31
0.0
  0
LINE
  5
9EE5
330
9D59
100
AcDbEntity
  8
1
  6
Continuous
100
AcDbLine
 10
204.220223
 20
274.746558
 30
0.0
 11
220.220223
 21
274.746558
 31
0.0
  0
LINE
  5
9EE6
330
9D59
100
AcDbEntity
  8
1
  6
Continuous
100
AcDbLine
 10
230.4702899999998
 20
267.7716019999999
 30
0.0
 11
193.970223
 21
267.7716019999999
 31
0.0
  0
LINE
  5
9EE7
330
9D59
100
AcDbEntity
  8
1
  6
Continuous
100
AcDbLine
 10
234.320239
 20
261.9716069999999
 30
0.0
 11
190.1202129999999
 21
261.9716069999999
 31
0.0
  0
LINE
  5
9EE8
330
9D59
100
AcDbEntity
  8
1
  6
Continuous
100
AcDbLine
 10
234.720223
 20
265.7716019999999
 30
0.0
 11
189.7202229999997
 21
265.7716019999999
 31
0.0
  0
LINE
  5
9EE9
330
9D59
100
AcDbEntity
  8
2
  6
Continuous
100
AcDbLine
 10
205.302723
 20
274.746558
 30
0.0
 11
205.302723
 21
311.9541129999999
 31
0.0
  0
LINE
  5
9EEA
330
9D59
100
AcDbEntity
  8
1
  6
Continuous
100
AcDbLine
 10
204.220223
 20
272.8716129999999
 30
0.0
 11
204.220223
 21
310.8716129999999
 31
0.0
  0
LINE
  5
9EEB
330
9D59
100
AcDbEntity
  8
1
  6
Continuous
100
AcDbLine
 10
189.7202229999997
 20
265.7716019999999
 30
0.0
 11
189.7202229999997
 21
263.2716019999999
 31
0.0
  0
LINE
  5
9EEC
330
9D59
100
AcDbEntity
  8
1
  6
Continuous
100
AcDbLine
 10
190.1202429999999
 20
261.9716029999997
 30
0.0
 11
189.7202429999999
 21
263.27161
 31
0.0
  0
ARC
  5
9EED
330
9D59
100
AcDbEntity
  8
1
  6
Continuous
100
AcDbCircle
 10
194.1961629999999
 20
261.77586
 30
0.0
 40
6.0
100
AcDbArc
 50
92.158028
 51
138.2442
  0
LINE
  5
9EEE
330
9D59
100
AcDbEntity
  8
2
  6
Continuous
100
AcDbLine
 10
205.302723
 20
274.746558
 30
0.0
 11
204.220223
 21
272.8716129999999
 31
0.0
  0
LINE
  5
9EEF
330
9D59
100
AcDbEntity
  8
1
  6
Continuous
100
AcDbLine
 10
204.220223
 20
310.8716129999999
 30
0.0
 11
206.220223
 21
312.8716129999999
 31
0.0
  0
LINE
  5
9EF0
330
9D59
100
AcDbEntity
  8
2
  6
Continuous
100
AcDbLine
 10
219.137723
 20
274.746558
 30
0.0
 11
219.137723
 21
311.9541129999999
 31
0.0
  0
LINE
  5
9EF1
330
9D59
100
AcDbEntity
  8
1
  6
Continuous
100
AcDbLine
 10
220.220223
 20
272.8716129999999
 30
0.0
 11
220.220223
 21
310.8716129999999
 31
0.0
  0
LINE
  5
9EF2
330
9D59
100
AcDbEntity
  8
2
  6
Continuous
100
AcDbLine
 10
219.137723
 20
274.746558
 30
0.0
 11
220.220223
 21
272.8716129999999
 31
0.0
  0
LINE
  5
9EF3
330
9D59
100
AcDbEntity
  8
1
  6
Continuous
100
AcDbLine
 10
234.720223
 20
265.7716019999999
 30
0.0
 11
234.720223
 21
263.2716019999999
 31
0.0
  0
LINE
  5
9EF4
330
9D59
100
AcDbEntity
  8
1
  6
Continuous
100
AcDbLine
 10
234.3202369999999
 20
261.971599
 30
0.0
 11
234.720238
 21
263.2716019999999
 31
0.0
  0
ARC
  5
9EF5
330
9D59
100
AcDbEntity
  8
1
  6
Continuous
100
AcDbCircle
 10
230.2442859999999
 20
261.77586
 30
0.0
 40
6.0
100
AcDbArc
 50
41.75575999999996
 51
87.841936
  0
LINE
  5
9EF6
330
9D59
100
AcDbEntity
  8
1
  6
Continuous
100
AcDbLine
 10
218.220223
 20
312.8716129999999
 30
0.0
 11
220.220223
 21
310.8716129999999
 31
0.0
  0
LINE
  5
9EF7
330
9D59
100
AcDbEntity
  8
1
  6
Continuous
100
AcDbLine
 10
79.320214
 20
261.9716069999999
 30
0.0
 11
35.12022299999999
 21
261.9716069999999
 31
0.0
  0
LINE
  5
9EF8
330
9D59
100
AcDbEntity
  8
1
  6
Continuous
100
AcDbLine
 10
75.248087
 20
267.77161
 30
0.0
 11
38.97022299999999
 21
267.77161
 31
0.0
  0
LINE
  5
9EF9
330
9D59
100
AcDbEntity
  8
1
  6
Continuous
100
AcDbLine
 10
79.720223
 20
265.77161
 30
0.0
 11
34.72022299999999
 21
265.77161
 31
0.0
  0
LINE
  5
9EFA
330
9D59
100
AcDbEntity
  8
1
  6
Continuous
100
AcDbLine
 10
65.220223
 20
272.8716129999999
 30
0.0
 11
65.220223
 21
310.8716129999999
 31
0.0
  0
LINE
  5
9EFB
330
9D59
100
AcDbEntity
  8
2
  6
Continuous
100
AcDbLine
 10
64.13772299999999
 20
274.746558
 30
0.0
 11
64.13772299999999
 21
311.9541129999999
 31
0.0
  0
LINE
  5
9EFC
330
9D59
100
AcDbEntity
  8
1
  6
Continuous
100
AcDbLine
 10
49.220223
 20
272.8716129999999
 30
0.0
 11
49.220223
 21
310.8716129999999
 31
0.0
  0
LINE
  5
9EFD
330
9D59
100
AcDbEntity
  8
2
  6
Continuous
100
AcDbLine
 10
50.302723
 20
274.746558
 30
0.0
 11
50.302723
 21
311.9541129999999
 31
0.0
  0
LINE
  5
9EFE
330
9D59
100
AcDbEntity
  8
2
  6
Continuous
100
AcDbLine
 10
50.302723
 20
274.746558
 30
0.0
 11
49.220223
 21
272.8716129999999
 31
0.0
  0
LINE
  5
9EFF
330
9D59
100
AcDbEntity
  8
2
  6
Continuous
100
AcDbLine
 10
64.13772299999999
 20
274.746558
 30
0.0
 11
65.220223
 21
272.8716129999999
 31
0.0
  0
LINE
  5
9F00
330
9D59
100
AcDbEntity
  8
1
  6
Continuous
100
AcDbLine
 10
34.72022299999999
 20
265.77161
 30
0.0
 11
34.72022299999999
 21
263.27161
 31
0.0
  0
LINE
  5
9F01
330
9D59
100
AcDbEntity
  8
1
  6
Continuous
100
AcDbLine
 10
35.120219
 20
261.9716029999997
 30
0.0
 11
34.720219
 21
263.271606
 31
0.0
  0
ARC
  5
9F02
330
9D59
100
AcDbEntity
  8
1
  6
Continuous
100
AcDbCircle
 10
39.196162
 20
261.775863
 30
0.0
 40
6.0
100
AcDbArc
 50
92.158028
 51
138.2442
  0
LINE
  5
9F03
330
9D59
100
AcDbEntity
  8
1
  6
Continuous
100
AcDbLine
 10
49.220223
 20
274.746558
 30
0.0
 11
65.220223
 21
274.746558
 31
0.0
  0
LINE
  5
9F04
330
9D59
100
AcDbEntity
  8
1
  6
Continuous
100
AcDbLine
 10
49.220223
 20
310.8716129999999
 30
0.0
 11
51.220223
 21
312.8716129999999
 31
0.0
  0
LINE
  5
9F05
330
9D59
100
AcDbEntity
  8
1
  6
Continuous
100
AcDbLine
 10
49.220223
 20
310.8716129999999
 30
0.0
 11
65.220223
 21
310.8716129999999
 31
0.0
  0
LINE
  5
9F06
330
9D59
100
AcDbEntity
  8
1
  6
Continuous
100
AcDbLine
 10
51.220223
 20
312.8716129999999
 30
0.0
 11
63.220223
 21
312.8716129999999
 31
0.0
  0
LINE
  5
9F07
330
9D59
100
AcDbEntity
  8
1
  6
Continuous
100
AcDbLine
 10
63.220223
 20
312.8716129999999
 30
0.0
 11
65.220223
 21
310.8716129999999
 31
0.0
  0
LINE
  5
9F08
330
9D59
100
AcDbEntity
  8
1
  6
Continuous
100
AcDbLine
 10
79.720223
 20
265.77161
 30
0.0
 11
79.720223
 21
263.27161
 31
0.0
  0
LINE
  5
9F09
330
9D59
100
AcDbEntity
  8
1
  6
Continuous
100
AcDbLine
 10
79.320214
 20
261.971611
 30
0.0
 11
79.72021499999998
 21
263.27161
 31
0.0
  0
ARC
  5
9F0A
330
9D59
100
AcDbEntity
  8
1
  6
Continuous
100
AcDbCircle
 10
75.248087
 20
261.7716099999999
 30
0.0
 40
6.0
100
AcDbArc
 50
41.810315
 51
90.0
  0
CIRCLE
  5
9F0B
330
9D59
100
AcDbEntity
  8
1
  6
Continuous
100
AcDbCircle
 10
212.220223
 20
386.673222
 30
0.0
 40
18.25
  0
CIRCLE
  5
9F0C
330
9D59
100
AcDbEntity
  8
1
  6
Continuous
100
AcDbCircle
 10
212.220223
 20
386.673222
 30
0.0
 40
22.5
  0
ARC
  5
9F0D
330
9D59
100
AcDbEntity
  8
1
  6
Continuous
100
AcDbCircle
 10
212.220223
 20
386.673222
 30
0.0
 40
25.0
100
AcDbArc
 50
230.2610839999999
 51
129.7389159999999
  0
LINE
  5
9F0E
330
9D59
100
AcDbEntity
  8
1
  6
Continuous
100
AcDbLine
 10
169.220223
 20
404.973222
 30
0.0
 11
193.6808049999999
 21
404.973222
 31
0.0
  0
LINE
  5
9F0F
330
9D59
100
AcDbEntity
  8
1
  6
Continuous
100
AcDbLine
 10
169.220223
 20
368.373222
 30
0.0
 11
193.6808049999999
 21
368.373222
 31
0.0
  0
ARC
  5
9F10
330
9D59
100
AcDbEntity
  8
1
  6
Continuous
100
AcDbCircle
 10
329.3518849999998
 20
386.673222
 30
0.0
 40
158.420172
100
AcDbArc
 50
173.3666359999998
 51
186.633364
  0
ARC
  5
9F11
330
9D59
100
AcDbEntity
  8
1
  6
Continuous
100
AcDbCircle
 10
193.6808049999999
 20
408.973222
 30
0.0
 40
4.0
100
AcDbArc
 50
270.0
 51
309.738916
  0
ARC
  5
9F12
330
9D59
100
AcDbEntity
  8
1
  6
Continuous
100
AcDbCircle
 10
193.6808049999999
 20
364.3732219999998
 30
0.0
 40
4.0
100
AcDbArc
 50
50.261084
 51
90.0
  0
LINE
  5
9F13
330
9D59
100
AcDbEntity
  8
1
  6
Continuous
100
AcDbLine
 10
169.220223
 20
368.373222
 30
0.0
 11
169.220223
 21
370.673222
 31
0.0
  0
LINE
  5
9F14
330
9D59
100
AcDbEntity
  8
1
  6
Continuous
100
AcDbLine
 10
169.220223
 20
402.673222
 30
0.0
 11
171.7417619999999
 21
402.673222
 31
0.0
  0
LINE
  5
9F15
330
9D59
100
AcDbEntity
  8
1
  6
Continuous
100
AcDbLine
 10
169.220223
 20
370.673222
 30
0.0
 11
171.7417619999999
 21
370.673222
 31
0.0
  0
LINE
  5
9F16
330
9D59
100
AcDbEntity
  8
1
  6
Continuous
100
AcDbLine
 10
169.220223
 20
402.673222
 30
0.0
 11
169.220223
 21
404.973222
 31
0.0
  0
ARC
  5
9F17
330
9D59
100
AcDbEntity
  8
1
  6
Continuous
100
AcDbCircle
 10
167.7202229999998
 20
374.673222
 30
0.0
 40
3.0
100
AcDbArc
 50
210.0000049999999
 51
269.999945
  0
LINE
  5
9F18
330
9D59
100
AcDbEntity
  8
1
  6
Continuous
100
AcDbLine
 10
167.7202229999998
 20
401.6732219999998
 30
0.0
 11
171.643449
 21
401.6732219999998
 31
0.0
  0
ARC
  5
9F19
330
9D59
100
AcDbEntity
  8
1
  6
Continuous
100
AcDbCircle
 10
177.2202229999997
 20
403.1316109999998
 30
0.0
 40
6.841600999999998
100
AcDbArc
 50
63.992176
 51
116.007824
  0
ARC
  5
9F1A
330
9D59
100
AcDbEntity
  8
1
  6
Continuous
100
AcDbCircle
 10
177.2202229999997
 20
411.8148129999998
 30
0.0
 40
6.841600999999998
100
AcDbArc
 50
243.992176
 51
296.0078240000001
  0
LINE
  5
9F1B
330
9D59
100
AcDbEntity
  8
1
  6
Continuous
100
AcDbLine
 10
174.220223
 20
405.666033
 30
0.0
 11
174.220223
 21
409.2803919999998
 31
0.0
  0
ARC
  5
9F1C
330
9D59
100
AcDbEntity
  8
1
  6
Continuous
100
AcDbCircle
 10
167.7202229999998
 20
398.673222
 30
0.0
 40
3.0
100
AcDbArc
 50
90.00004000000002
 51
149.9999799999999
  0
LINE
  5
9F1D
330
9D59
100
AcDbEntity
  8
1
  6
Continuous
100
AcDbLine
 10
183.0202229999999
 20
411.973212
 30
0.0
 11
177.420223
 21
411.973212
 31
0.0
  0
LINE
  5
9F1E
330
9D59
100
AcDbEntity
  8
1
  6
Continuous
100
AcDbLine
 10
177.420223
 20
411.973212
 30
0.0
 11
176.2202229999997
 21
410.7732119999998
 31
0.0
  0
LINE
  5
9F1F
330
9D59
100
AcDbEntity
  8
1
  6
Continuous
100
AcDbLine
 10
184.220223
 20
410.7732119999998
 30
0.0
 11
176.2202229999997
 21
410.7732119999998
 31
0.0
  0
LINE
  5
9F20
330
9D59
100
AcDbEntity
  8
1
  6
Continuous
100
AcDbLine
 10
183.0202229999999
 20
411.973212
 30
0.0
 11
184.220223
 21
410.7732119999998
 31
0.0
  0
LINE
  5
9F21
330
9D59
100
AcDbEntity
  8
2
  6
Continuous
100
AcDbLine
 10
176.896723
 20
411.449712
 30
0.0
 11
176.896723
 21
409.9732119999996
 31
0.0
  0
LINE
  5
9F22
330
9D59
100
AcDbEntity
  8
1
  6
Continuous
100
AcDbLine
 10
176.2202229999997
 20
410.7732119999998
 30
0.0
 11
176.2202229999997
 21
409.9732119999996
 31
0.0
  0
LINE
  5
9F23
330
9D59
100
AcDbEntity
  8
2
  6
Continuous
100
AcDbLine
 10
183.543723
 20
411.449712
 30
0.0
 11
183.543723
 21
409.9732119999996
 31
0.0
  0
LINE
  5
9F24
330
9D59
100
AcDbEntity
  8
1
  6
Continuous
100
AcDbLine
 10
184.220223
 20
410.7732119999998
 30
0.0
 11
184.220223
 21
409.9732119999996
 31
0.0
  0
ARC
  5
9F25
330
9D59
100
AcDbEntity
  8
1
  6
Continuous
100
AcDbCircle
 10
183.220223
 20
403.1316109999998
 30
0.0
 40
6.841600999999998
100
AcDbArc
 50
63.992176
 51
116.007824
  0
ARC
  5
9F26
330
9D59
100
AcDbEntity
  8
1
  6
Continuous
100
AcDbCircle
 10
183.220223
 20
411.8148129999998
 30
0.0
 40
6.841600999999998
100
AcDbArc
 50
243.992176
 51
296.0078240000001
  0
LINE
  5
9F27
330
9D59
100
AcDbEntity
  8
1
  6
Continuous
100
AcDbLine
 10
186.220223
 20
405.666033
 30
0.0
 11
186.220223
 21
409.2803919999998
 31
0.0
  0
LINE
  5
9F28
330
9D59
100
AcDbEntity
  8
1
  6
Continuous
100
AcDbLine
 10
180.2202229999998
 20
404.9732119999998
 30
0.0
 11
180.2202229999998
 21
409.2803919999998
 31
0.0
  0
LINE
  5
9F29
330
9D59
100
AcDbEntity
  8
1
  6
Continuous
100
AcDbLine
 10
177.470223
 20
409.9732119999996
 30
0.0
 11
182.970223
 21
409.9732119999996
 31
0.0
  0
LINE
  5
9F2A
330
9D59
100
AcDbEntity
  8
1
  6
Continuous
100
AcDbLine
 10
167.7202229999998
 20
371.673222
 30
0.0
 11
171.643449
 21
371.673222
 31
0.0
  0
ARC
  5
9F2B
330
9D59
100
AcDbEntity
  8
1
  6
Continuous
100
AcDbCircle
 10
175.970223
 20
367.1732299999998
 30
0.0
 40
2.0
100
AcDbArc
 50
180.0000179999999
 51
270.0
  0
LINE
  5
9F2C
330
9D59
100
AcDbEntity
  8
1
  6
Continuous
100
AcDbLine
 10
173.9702229999998
 20
368.373227
 30
0.0
 11
173.9702229999998
 21
367.1732299999998
 31
0.0
  0
ARC
  5
9F2D
330
9D59
100
AcDbEntity
  8
1
  6
Continuous
100
AcDbCircle
 10
184.470223
 20
367.1732299999998
 30
0.0
 40
2.0
100
AcDbArc
 50
270.0
 51
359.9999799999998
  0
LINE
  5
9F2E
330
9D59
100
AcDbEntity
  8
1
  6
Continuous
100
AcDbLine
 10
175.970223
 20
365.1732299999998
 30
0.0
 11
184.470223
 21
365.1732299999998
 31
0.0
  0
LINE
  5
9F2F
330
9D59
100
AcDbEntity
  8
1
  6
Continuous
100
AcDbLine
 10
186.4702229999998
 20
368.373227
 30
0.0
 11
186.4702229999998
 21
367.1732299999998
 31
0.0
  0
ARC
  5
9F30
330
9D59
100
AcDbEntity
  8
1
  6
Continuous
100
AcDbCircle
 10
192.220223
 20
255.971605
 30
0.0
 40
5.0
100
AcDbArc
 50
90.0
 51
176.865023
  0
ARC
  5
9F31
330
9D59
100
AcDbEntity
  8
1
  6
Continuous
100
AcDbCircle
 10
212.220223
 20
386.673222
 30
0.0
 40
25.0
100
AcDbArc
 50
142.6027479999999
 51
217.3972519999999
  0
ARC
  5
9F32
330
9D59
100
AcDbEntity
  8
1
  6
Continuous
100
AcDbCircle
 10
426.2202229999998
 20
255.971605
 30
0.0
 40
5.0
100
AcDbArc
 50
3.134977
 51
90.0
  0
LINE
  5
9F33
330
9D59
100
AcDbEntity
  8
1
  6
Continuous
100
AcDbLine
 10
297.319745
 20
272.871626
 30
0.0
 11
323.3198549999999
 21
272.871626
 31
0.0
  0
LINE
  5
9F34
330
9D59
100
AcDbEntity
  8
1
  6
Continuous
100
AcDbLine
 10
303.680272
 20
272.871626
 30
0.0
 11
303.680272
 21
267.7716229999999
 31
0.0
  0
LINE
  5
9F35
330
9D59
100
AcDbEntity
  8
1
  6
Continuous
100
AcDbLine
 10
297.319745
 20
272.871626
 30
0.0
 11
297.319745
 21
267.7716229999999
 31
0.0
  0
LINE
  5
9F36
330
9D59
100
AcDbEntity
  8
1
  6
Continuous
100
AcDbLine
 10
316.9593279999998
 20
272.871626
 30
0.0
 11
316.9593279999998
 21
267.7716229999999
 31
0.0
  0
LINE
  5
9F37
330
9D59
100
AcDbEntity
  8
1
  6
Continuous
100
AcDbLine
 10
323.3198549999999
 20
272.871626
 30
0.0
 11
323.3198549999999
 21
267.7716229999999
 31
0.0
  0
LINE
  5
9F38
330
9D59
100
AcDbEntity
  8
1
  6
Continuous
100
AcDbLine
 10
44.220168
 20
272.8716099999999
 30
0.0
 11
70.220278
 21
272.8716099999999
 31
0.0
  0
LINE
  5
9F39
330
9D59
100
AcDbEntity
  8
1
  6
Continuous
100
AcDbLine
 10
63.859751
 20
272.8716099999999
 30
0.0
 11
63.859751
 21
267.7716069999998
 31
0.0
  0
LINE
  5
9F3A
330
9D59
100
AcDbEntity
  8
1
  6
Continuous
100
AcDbLine
 10
50.580695
 20
272.8716099999999
 30
0.0
 11
50.580695
 21
267.7716069999998
 31
0.0
  0
LINE
  5
9F3B
330
9D59
100
AcDbEntity
  8
1
  6
Continuous
100
AcDbLine
 10
44.220168
 20
272.8716099999999
 30
0.0
 11
44.220168
 21
267.7716069999998
 31
0.0
  0
LINE
  5
9F3C
330
9D59
100
AcDbEntity
  8
1
  6
Continuous
100
AcDbLine
 10
70.220278
 20
272.8716099999999
 30
0.0
 11
70.220278
 21
267.7716069999998
 31
0.0
  0
LINE
  5
9F3D
330
9D59
100
AcDbEntity
  8
1
  6
Continuous
100
AcDbLine
 10
394.820223
 20
272.8716129999999
 30
0.0
 11
417.620223
 21
272.8716129999999
 31
0.0
  0
LINE
  5
9F3E
330
9D59
100
AcDbEntity
  8
1
  6
Continuous
100
AcDbLine
 10
406.2202229999998
 20
272.8716129999999
 30
0.0
 11
406.2202229999998
 21
267.7716019999999
 31
0.0
  0
LINE
  5
9F3F
330
9D59
100
AcDbEntity
  8
1
  6
Continuous
100
AcDbLine
 10
200.820223
 20
380.255015
 30
0.0
 11
200.820223
 21
393.091429
 31
0.0
  0
LINE
  5
9F40
330
9D59
100
AcDbEntity
  8
1
  6
Continuous
100
AcDbLine
 10
223.6202229999999
 20
380.255015
 30
0.0
 11
223.6202229999999
 21
393.091429
 31
0.0
  0
LINE
  5
9F41
330
9D59
100
AcDbEntity
  8
1
  6
Continuous
100
AcDbLine
 10
212.220223
 20
399.673222
 30
0.0
 11
200.820223
 21
393.091429
 31
0.0
  0
LINE
  5
9F42
330
9D59
100
AcDbEntity
  8
1
  6
Continuous
100
AcDbLine
 10
223.6202229999999
 20
380.255015
 30
0.0
 11
212.220223
 21
373.673222
 31
0.0
  0
LINE
  5
9F43
330
9D59
100
AcDbEntity
  8
1
  6
Continuous
100
AcDbLine
 10
212.220223
 20
399.673222
 30
0.0
 11
223.6202229999999
 21
393.091429
 31
0.0
  0
LINE
  5
9F44
330
9D59
100
AcDbEntity
  8
1
  6
Continuous
100
AcDbLine
 10
200.820223
 20
380.255015
 30
0.0
 11
212.220223
 21
373.673222
 31
0.0
  0
LINE
  5
9F45
330
9D59
100
AcDbEntity
  8
1
  6
Continuous
100
AcDbLine
 10
394.820223
 20
272.8716129999999
 30
0.0
 11
394.820223
 21
267.7716019999999
 31
0.0
  0
LINE
  5
9F46
330
9D59
100
AcDbEntity
  8
1
  6
Continuous
100
AcDbLine
 10
417.620223
 20
272.8716129999999
 30
0.0
 11
417.620223
 21
267.7716019999999
 31
0.0
  0
LINE
  5
9F47
330
9D59
100
AcDbEntity
  8
1
  6
Continuous
100
AcDbLine
 10
200.820223
 20
272.8716129999999
 30
0.0
 11
223.6202229999999
 21
272.8716129999999
 31
0.0
  0
LINE
  5
9F48
330
9D59
100
AcDbEntity
  8
1
  6
Continuous
100
AcDbLine
 10
212.220223
 20
272.8716129999999
 30
0.0
 11
212.220223
 21
267.7716019999999
 31
0.0
  0
LINE
  5
9F49
330
9D59
100
AcDbEntity
  8
1
  6
Continuous
100
AcDbLine
 10
223.6202229999999
 20
272.8716129999999
 30
0.0
 11
223.6202229999999
 21
267.7716019999999
 31
0.0
  0
LINE
  5
9F4A
330
9D59
100
AcDbEntity
  8
1
  6
Continuous
100
AcDbLine
 10
200.820223
 20
272.8716129999999
 30
0.0
 11
200.820223
 21
267.7716019999999
 31
0.0
  0
ENDSEC
  0
SECTION
  2
OBJECTS
  0
DICTIONARY
  5
9D47
330
0
100
AcDbDictionary
281
     1
  3
ACAD_CIP_PREVIOUS_PRODUCT_INFO
350
9FC8
  3
ACAD_COLOR
350
9FAA
  3
ACAD_DETAILVIEWSTYLE
350
9FC3
  3
ACAD_GROUP
350
9D48
  3
ACAD_LAYOUT
350
9D54
  3
ACAD_MATERIAL
350
9F78
  3
ACAD_MLEADERSTYLE
350
9FBF
  3
ACAD_MLINESTYLE
350
9D51
  3
ACAD_PLOTSETTINGS
350
9D53
  3
ACAD_PLOTSTYLENAME
350
9F76
  3
ACAD_SCALELIST
350
9FAD
  3
ACAD_SECTIONVIEWSTYLE
350
9FC1
  3
ACAD_TABLESTYLE
350
9FAB
  3
ACAD_VISUALSTYLE
350
9F91
  3
ACDB_RECOMPOSE_DATA
350
9FE6
  3
AcDbVariableDictionary
350
9FD9
  3
DWGPROPS
350
9FE7
  0
DICTIONARY
  5
9FC9
330
9D4B
100
AcDbDictionary
280
     1
281
     1
  3
ADSK_XREC_LAYER_RECONCILED
360
9FCA
  0
DICTIONARY
  5
9FCB
330
9D61
100
AcDbDictionary
280
     1
281
     1
  3
ADSK_XREC_LAYER_RECONCILED
360
9FCC
  0
DICTIONARY
  5
9FCD
330
9D62
100
AcDbDictionary
280
     1
281
     1
  3
ADSK_XREC_LAYER_RECONCILED
360
9FCE
  0
DICTIONARY
  5
9FCF
330
9D63
100
AcDbDictionary
280
     1
281
     1
  3
ADSK_XREC_LAYER_RECONCILED
360
9FD0
  0
DICTIONARY
  5
9FD1
330
9D64
100
AcDbDictionary
280
     1
281
     1
  3
ADSK_XREC_LAYER_RECONCILED
360
9FD2
  0
DICTIONARY
  5
9FD3
330
9D65
100
AcDbDictionary
280
     1
281
     1
  3
ADSK_XREC_LAYER_RECONCILED
360
9FD4
  0
DICTIONARY
  5
9FD5
330
9D66
100
AcDbDictionary
280
     1
281
     1
  3
ADSK_XREC_LAYER_RECONCILED
360
9FD6
  0
DICTIONARY
  5
9FD7
330
9D67
100
AcDbDictionary
280
     1
281
     1
  3
ADSK_XREC_LAYER_RECONCILED
360
9FD8
  0
DICTIONARY
  5
9F55
330
9D59
100
AcDbDictionary
281
     1
  3
ACAD_LAYOUTSELFREF
350
9F72
  0
DICTIONARY
  5
9F53
330
9D55
100
AcDbDictionary
281
     1
  3
ACAD_LAYOUTSELFREF
350
9F71
  0
XRECORD
  5
9FC8
102
{ACAD_REACTORS
330
9D47
102
}
330
9D47
100
AcDbXrecord
280
     1
300
ACDLT
300
2014
300
ACDLT_F_S
  0
DICTIONARY
  5
9FAA
102
{ACAD_REACTORS
330
9D47
102
}
330
9D47
100
AcDbDictionary
281
     1
  0
DICTIONARY
  5
9FC3
102
{ACAD_REACTORS
330
9D47
102
}
330
9D47
100
AcDbDictionary
281
     1
  3
Imperial24
350
9FC4
  0
DICTIONARY
  5
9D48
102
{ACAD_REACTORS
330
9D47
102
}
330
9D47
100
AcDbDictionary
281
     1
  0
DICTIONARY
  5
9D54
102
{ACAD_REACTORS
330
9D47
102
}
330
9D47
100
AcDbDictionary
281
     1
  3
Model
350
9FC5
  3
レイアウト1
350
9FC6
  0
DICTIONARY
  5
9F78
102
{ACAD_REACTORS
330
9D47
102
}
330
9D47
100
AcDbDictionary
281
     1
  3
ByBlock
350
9F81
  3
ByLayer
350
9F79
  3
Global
350
9F89
  0
DICTIONARY
  5
9FBF
102
{ACAD_REACTORS
330
9D47
102
}
330
9D47
100
AcDbDictionary
281
     1
  3
Standard
350
9FC0
  0
DICTIONARY
  5
9D51
102
{ACAD_REACTORS
330
9D47
102
}
330
9D47
100
AcDbDictionary
281
     1
  3
STANDARD
350
9D52
  0
DICTIONARY
  5
9D53
102
{ACAD_REACTORS
330
9D47
102
}
330
9D47
100
AcDbDictionary
281
     1
  0
ACDBDICTIONARYWDFLT
  5
9F76
102
{ACAD_REACTORS
330
9D47
102
}
330
9D47
100
AcDbDictionary
281
     1
  3
Normal
350
9F77
100
AcDbDictionaryWithDefault
340
9F77
  0
DICTIONARY
  5
9FAD
102
{ACAD_REACTORS
330
9D47
102
}
330
9D47
100
AcDbDictionary
281
     1
  3
A0
350
9FAE
  3
A1
350
9FAF
  3
A2
350
9FB0
  3
A3
350
9FB1
  3
A4
350
9FB2
  3
A5
350
9FB3
  3
A6
350
9FB4
  3
A7
350
9FB5
  3
A8
350
9FB6
  3
A9
350
9FB7
  3
B0
350
9FB8
  3
B1
350
9FB9
  3
B2
350
9FBA
  3
B3
350
9FBB
  3
B4
350
9FBC
  3
B5
350
9FBD
  3
B6
350
9FBE
  0
DICTIONARY
  5
9FC1
102
{ACAD_REACTORS
330
9D47
102
}
330
9D47
100
AcDbDictionary
281
     1
  3
Imperial24
350
9FC2
  0
DICTIONARY
  5
9FAB
102
{ACAD_REACTORS
330
9D47
102
}
330
9D47
100
AcDbDictionary
281
     1
  3
Standard
350
9FAC
  0
DICTIONARY
  5
9F91
102
{ACAD_REACTORS
330
9D47
102
}
330
9D47
100
AcDbDictionary
281
     1
  3
2dWireframe
350
9F97
  3
Basic
350
9F96
  3
Brighten
350
9F9D
  3
ColorChange
350
9FA1
  3
Conceptual
350
9F9A
  3
Dim
350
9F9C
  3
EdgeColorOff
350
9FA9
  3
Facepattern
350
9FA0
  3
Flat
350
9F92
  3
FlatWithEdges
350
9F93
  3
Gouraud
350
9F94
  3
GouraudWithEdges
350
9F95
  3
Hidden
350
9F99
  3
JitterOff
350
9FA7
  3
Linepattern
350
9F9F
  3
OverhangOff
350
9FA8
  3
Realistic
350
9F9B
  3
Shaded
350
9FA6
  3
Shaded with edges
350
9FA5
  3
Shades of Gray
350
9FA2
  3
Sketchy
350
9FA3
  3
Thicken
350
9F9E
  3
Wireframe
350
9F98
  3
X-Ray
350
9FA4
  0
XRECORD
  5
9FE6
102
{ACAD_REACTORS
330
9D47
102
}
330
9D47
100
AcDbXrecord
280
     1
 90
        1
330
9FAC
  0
DICTIONARY
  5
9FD9
102
{ACAD_REACTORS
330
9D47
102
}
330
9D47
100
AcDbDictionary
281
     1
  3
CANNOSCALE
350
9FDE
  3
CMLEADERSTYLE
350
9FDB
  3
CTABLESTYLE
350
9FDA
  3
CVIEWDETAILSTYLE
350
9FDC
  3
CVIEWSECTIONSTYLE
350
9FDD
  3
DIMASSOC
350
9FE1
  3
INDEXCTL
350
9FE0
  3
SORTENTS
350
9FDF
  3
XCLIPFRAME
350
9FE2
  0
XRECORD
  5
9FE7
102
{ACAD_REACTORS
330
9D47
102
}
330
9D47
100
AcDbXrecord
280
     1
  1
DWGPROPS COOKIE
  2

  3

  4

  6

  7

  8
Yoshitsune
  9

300
=
301
=
302
=
303
=
304
=
305
=
306
=
307
=
308
=
309
=
 40
0.1412963541666667
 41
2451301.437021065
 42
2457192.690100255
  1

 90
        0
  0
XRECORD
  5
9FCA
102
{ACAD_REACTORS
330
9FC9
102
}
330
9FC9
100
AcDbXrecord
280
     1
290
     1
  0
XRECORD
  5
9FCC
102
{ACAD_REACTORS
330
9FCB
102
}
330
9FCB
100
AcDbXrecord
280
     1
290
     1
  0
XRECORD
  5
9FCE
102
{ACAD_REACTORS
330
9FCD
102
}
330
9FCD
100
AcDbXrecord
280
     1
290
     1
  0
XRECORD
  5
9FD0
102
{ACAD_REACTORS
330
9FCF
102
}
330
9FCF
100
AcDbXrecord
280
     1
290
     1
  0
XRECORD
  5
9FD2
102
{ACAD_REACTORS
330
9FD1
102
}
330
9FD1
100
AcDbXrecord
280
     1
290
     1
  0
XRECORD
  5
9FD4
102
{ACAD_REACTORS
330
9FD3
102
}
330
9FD3
100
AcDbXrecord
280
     1
290
     1
  0
XRECORD
  5
9FD6
102
{ACAD_REACTORS
330
9FD5
102
}
330
9FD5
100
AcDbXrecord
280
     1
290
     1
  0
XRECORD
  5
9FD8
102
{ACAD_REACTORS
330
9FD7
102
}
330
9FD7
100
AcDbXrecord
280
     1
290
     1
  0
XRECORD
  5
9F72
102
{ACAD_REACTORS
330
9F55
102
}
330
9F55
100
AcDbXrecord
280
     1
340
9D59
  0
XRECORD
  5
9F71
102
{ACAD_REACTORS
330
9F53
102
}
330
9F53
100
AcDbXrecord
280
     1
340
9D55
  0
ACDBDETAILVIEWSTYLE
  5
9FC4
102
{ACAD_XDICTIONARY
360
A01F
102
}
102
{ACAD_REACTORS
330
9FC3
102
}
330
9FC3
100
AcDbModelDocViewStyle
 70
     0
  3
Imperial24
290
     0
100
AcDbDetailViewStyle
 70
     0
 71
     0
 90
        3
 71
     1
340
9D4C
 40
0.24
340
0
 40
0.24
300

 40
0.36
280
     3
 71
     2
340
9D50
 90
       25
 71
     3
340
9D4C
 40
0.24
 90
        1
 40
0.75
 90
        1
300
%<\AcVar ViewType \f "%tc1">% %<\AcVar ViewDetailId>%\PSCALE %<\AcVar ViewScale \f "%sn">%
 71
     4
340
9D50
 90
       25
340
9D50
 90
       25
280
     0
  0
LAYOUT
  5
9FC5
102
{ACAD_XDICTIONARY
360
A021
102
}
102
{ACAD_REACTORS
330
9D54
102
}
330
9D54
100
AcDbPlotSettings
  1

  2
Canon LBP9100C
  4

  6

 40
0.0
 41
0.0
 42
0.0
 43
0.0
 44
0.0
 45
0.0
 46
0.0
 47
0.0
 48
0.0
 49
0.0
140
0.0
141
0.0
142
1.0
143
1.0
 70
  1712
 72
     0
 73
     0
 74
     0
  7

 75
     0
147
1.0
148
0.0
149
0.0
100
AcDbLayout
  1
Model
 70
     1
 71
     0
 10
0.0
 20
0.0
 11
12.0
 21
9.0
 12
0.0
 22
0.0
 32
0.0
 14
0.0
 24
0.0
 34
0.0
 15
0.0
 25
0.0
 35
0.0
146
0.0
 13
0.0
 23
0.0
 33
0.0
 16
1.0
 26
0.0
 36
0.0
 17
0.0
 27
1.0
 37
0.0
 76
     0
330
9D59
331
9F70
  0
LAYOUT
  5
9FC6
102
{ACAD_XDICTIONARY
360
A023
102
}
102
{ACAD_REACTORS
330
9D54
102
}
330
9D54
100
AcDbPlotSettings
  1

  2
Canon LBP9100C
  4

  6

 40
0.0
 41
0.0
 42
0.0
 43
0.0
 44
0.0
 45
0.0
 46
0.0
 47
0.0
 48
0.0
 49
0.0
140
0.0
141
0.0
142
1.0
143
1.0
 70
   688
 72
     0
 73
     0
 74
     5
  7

 75
    16
147
1.0
148
0.0
149
0.0
100
AcDbLayout
  1
レイアウト1
 70
     0
 71
     1
 10
0.0
 20
0.0
 11
420.0
 21
297.0
 12
0.0
 22
0.0
 32
0.0
 14
1.000000000000000E+20
 24
1.000000000000000E+20
 34
1.000000000000000E+20
 15
-1.000000000000000E+20
 25
-1.000000000000000E+20
 35
-1.000000000000000E+20
146
0.0
 13
0.0
 23
0.0
 33
0.0
 16
1.0
 26
0.0
 36
0.0
 17
0.0
 27
1.0
 37
0.0
 76
     0
330
9D55
  0
MATERIAL
  5
9F81
102
{ACAD_XDICTIONARY
360
9F82
102
}
102
{ACAD_REACTORS
330
9F78
102
}
330
9F78
100
AcDbMaterial
  1
ByBlock
 72
     0
 43
0.0208333333333333
 43
0.0
 43
0.0
 43
0.0
 43
0.0
 43
0.0208333333333333
 43
0.0
 43
0.0
 43
0.0
 43
0.0
 43
1.0
 43
0.0
 43
0.0
 43
0.0
 43
0.0
 43
1.0
 77
     0
 47
0.0208333333333333
 47
0.0
 47
0.0
 47
0.0
 47
0.0
 47
0.0208333333333333
 47
0.0
 47
0.0
 47
0.0
 47
0.0
 47
1.0
 47
0.0
 47
0.0
 47
0.0
 47
0.0
 47
1.0
171
     0
 49
0.0208333333333333
 49
0.0
 49
0.0
 49
0.0
 49
0.0
 49
0.0208333333333333
 49
0.0
 49
0.0
 49
0.0
 49
0.0
 49
1.0
 49
0.0
 49
0.0
 49
0.0
 49
0.0
 49
1.0
175
     0
142
0.0208333333333333
142
0.0
142
0.0
142
0.0
142
0.0
142
0.0208333333333333
142
0.0
142
0.0
142
0.0
142
0.0
142
1.0
142
0.0
142
0.0
142
0.0
142
0.0
142
1.0
179
     0
144
0.0208333333333333
144
0.0
144
0.0
144
0.0
144
0.0
144
0.0208333333333333
144
0.0
144
0.0
144
0.0
144
0.0
144
1.0
144
0.0
144
0.0
144
0.0
144
0.0
144
1.0
147
0.0208333333333333
147
0.0
147
0.0
147
0.0
147
0.0
147
0.0208333333333333
147
0.0
147
0.0
147
0.0
147
0.0
147
1.0
147
0.0
147
0.0
147
0.0
147
0.0
147
1.0
  0
MATERIAL
  5
9F79
102
{ACAD_XDICTIONARY
360
9F7A
102
}
102
{ACAD_REACTORS
330
9F78
102
}
330
9F78
100
AcDbMaterial
  1
ByLayer
 72
     0
 43
0.0208333333333333
 43
0.0
 43
0.0
 43
0.0
 43
0.0
 43
0.0208333333333333
 43
0.0
 43
0.0
 43
0.0
 43
0.0
 43
1.0
 43
0.0
 43
0.0
 43
0.0
 43
0.0
 43
1.0
 77
     0
 47
0.0208333333333333
 47
0.0
 47
0.0
 47
0.0
 47
0.0
 47
0.0208333333333333
 47
0.0
 47
0.0
 47
0.0
 47
0.0
 47
1.0
 47
0.0
 47
0.0
 47
0.0
 47
0.0
 47
1.0
171
     0
 49
0.0208333333333333
 49
0.0
 49
0.0
 49
0.0
 49
0.0
 49
0.0208333333333333
 49
0.0
 49
0.0
 49
0.0
 49
0.0
 49
1.0
 49
0.0
 49
0.0
 49
0.0
 49
0.0
 49
1.0
175
     0
142
0.0208333333333333
142
0.0
142
0.0
142
0.0
142
0.0
142
0.0208333333333333
142
0.0
142
0.0
142
0.0
142
0.0
142
1.0
142
0.0
142
0.0
142
0.0
142
0.0
142
1.0
179
     0
144
0.0208333333333333
144
0.0
144
0.0
144
0.0
144
0.0
144
0.0208333333333333
144
0.0
144
0.0
144
0.0
144
0.0
144
1.0
144
0.0
144
0.0
144
0.0
144
0.0
144
1.0
147
0.0208333333333333
147
0.0
147
0.0
147
0.0
147
0.0
147
0.0208333333333333
147
0.0
147
0.0
147
0.0
147
0.0
147
1.0
147
0.0
147
0.0
147
0.0
147
0.0
147
1.0
  0
MATERIAL
  5
9F89
102
{ACAD_XDICTIONARY
360
9F8A
102
}
102
{ACAD_REACTORS
330
9F78
102
}
330
9F78
100
AcDbMaterial
  1
Global
 72
     0
 43
0.0208333333333333
 43
0.0
 43
0.0
 43
0.0
 43
0.0
 43
0.0208333333333333
 43
0.0
 43
0.0
 43
0.0
 43
0.0
 43
1.0
 43
0.0
 43
0.0
 43
0.0
 43
0.0
 43
1.0
 77
     0
 47
0.0208333333333333
 47
0.0
 47
0.0
 47
0.0
 47
0.0
 47
0.0208333333333333
 47
0.0
 47
0.0
 47
0.0
 47
0.0
 47
1.0
 47
0.0
 47
0.0
 47
0.0
 47
0.0
 47
1.0
171
     0
 49
0.0208333333333333
 49
0.0
 49
0.0
 49
0.0
 49
0.0
 49
0.0208333333333333
 49
0.0
 49
0.0
 49
0.0
 49
0.0
 49
1.0
 49
0.0
 49
0.0
 49
0.0
 49
0.0
 49
1.0
175
     0
142
0.0208333333333333
142
0.0
142
0.0
142
0.0
142
0.0
142
0.0208333333333333
142
0.0
142
0.0
142
0.0
142
0.0
142
1.0
142
0.0
142
0.0
142
0.0
142
0.0
142
1.0
179
     0
144
0.0208333333333333
144
0.0
144
0.0
144
0.0
144
0.0
144
0.0208333333333333
144
0.0
144
0.0
144
0.0
144
0.0
144
1.0
144
0.0
144
0.0
144
0.0
144
0.0
144
1.0
147
0.0208333333333333
147
0.0
147
0.0
147
0.0
147
0.0
147
0.0208333333333333
147
0.0
147
0.0
147
0.0
147
0.0
147
1.0
147
0.0
147
0.0
147
0.0
147
0.0
147
1.0
  0
MLEADERSTYLE
  5
9FC0
102
{ACAD_REACTORS
330
9FBF
102
}
330
9FBF
100
AcDbMLeaderStyle
170
     2
171
     1
172
     0
 90
        2
 40
0.0
 41
0.0
173
     1
 91
-1056964608
340
9D4E
 92
       -2
290
     1
 42
0.09
291
     1
 43
0.36
  3
Standard
 44
0.18
300

342
9D4C
174
     1
178
     6
175
     1
176
     0
 93
-1056964608
 45
0.18
292
     0
297
     0
 46
0.18
 94
-1056964608
 47
1.0
 49
1.0
140
1.0
293
     1
141
0.0
294
     1
177
     0
142
1.0
295
     0
296
     0
143
0.125
1001
ACAD_MLEADERVER
1070
     2
  0
MLINESTYLE
  5
9D52
102
{ACAD_REACTORS
330
9D51
102
}
330
9D51
100
AcDbMlineStyle
  2
STANDARD
 70
     0
  3

 62
   256
 51
90.0
 52
90.0
 71
     2
 49
0.5
 62
   256
  6
BYLAYER
 49
-0.5
 62
   256
  6
BYLAYER
  0
ACDBPLACEHOLDER
  5
9F77
102
{ACAD_REACTORS
330
9F76
102
}
330
9F76
  0
SCALE
  5
9FAE
102
{ACAD_REACTORS
330
9FAD
102
}
330
9FAD
100
AcDbScale
 70
     0
300
1:1
140
1.0
141
1.0
290
     1
  0
SCALE
  5
9FAF
102
{ACAD_REACTORS
330
9FAD
102
}
330
9FAD
100
AcDbScale
 70
     0
300
1/128" = 1'-0"
140
0.0078125
141
12.0
290
     0
  0
SCALE
  5
9FB0
102
{ACAD_REACTORS
330
9FAD
102
}
330
9FAD
100
AcDbScale
 70
     0
300
1/64" = 1'-0"
140
0.015625
141
12.0
290
     0
  0
SCALE
  5
9FB1
102
{ACAD_REACTORS
330
9FAD
102
}
330
9FAD
100
AcDbScale
 70
     0
300
1/32" = 1'-0"
140
0.03125
141
12.0
290
     0
  0
SCALE
  5
9FB2
102
{ACAD_REACTORS
330
9FAD
102
}
330
9FAD
100
AcDbScale
 70
     0
300
1/16" = 1'-0"
140
0.0625
141
12.0
290
     0
  0
SCALE
  5
9FB3
102
{ACAD_REACTORS
330
9FAD
102
}
330
9FAD
100
AcDbScale
 70
     0
300
3/32" = 1'-0"
140
0.09375
141
12.0
290
     0
  0
SCALE
  5
9FB4
102
{ACAD_REACTORS
330
9FAD
102
}
330
9FAD
100
AcDbScale
 70
     0
300
1/8" = 1'-0"
140
0.125
141
12.0
290
     0
  0
SCALE
  5
9FB5
102
{ACAD_REACTORS
330
9FAD
102
}
330
9FAD
100
AcDbScale
 70
     0
300
3/16" = 1'-0"
140
0.1875
141
12.0
290
     0
  0
SCALE
  5
9FB6
102
{ACAD_REACTORS
330
9FAD
102
}
330
9FAD
100
AcDbScale
 70
     0
300
1/4" = 1'-0"
140
0.25
141
12.0
290
     0
  0
SCALE
  5
9FB7
102
{ACAD_REACTORS
330
9FAD
102
}
330
9FAD
100
AcDbScale
 70
     0
300
3/8" = 1'-0"
140
0.375
141
12.0
290
     0
  0
SCALE
  5
9FB8
102
{ACAD_REACTORS
330
9FAD
102
}
330
9FAD
100
AcDbScale
 70
     0
300
1/2" = 1'-0"
140
0.5
141
12.0
290
     0
  0
SCALE
  5
9FB9
102
{ACAD_REACTORS
330
9FAD
102
}
330
9FAD
100
AcDbScale
 70
     0
300
3/4" = 1'-0"
140
0.75
141
12.0
290
     0
  0
SCALE
  5
9FBA
102
{ACAD_REACTORS
330
9FAD
102
}
330
9FAD
100
AcDbScale
 70
     0
300
1" = 1'-0"
140
1.0
141
12.0
290
     0
  0
SCALE
  5
9FBB
102
{ACAD_REACTORS
330
9FAD
102
}
330
9FAD
100
AcDbScale
 70
     0
300
1-1/2" = 1'-0"
140
1.5
141
12.0
290
     0
  0
SCALE
  5
9FBC
102
{ACAD_REACTORS
330
9FAD
102
}
330
9FAD
100
AcDbScale
 70
     0
300
3" = 1'-0"
140
3.0
141
12.0
290
     0
  0
SCALE
  5
9FBD
102
{ACAD_REACTORS
330
9FAD
102
}
330
9FAD
100
AcDbScale
 70
     0
300
6" = 1'-0"
140
6.0
141
12.0
290
     0
  0
SCALE
  5
9FBE
102
{ACAD_REACTORS
330
9FAD
102
}
330
9FAD
100
AcDbScale
 70
     0
300
1'-0" = 1'-0"
140
12.0
141
12.0
290
     0
  0
ACDBSECTIONVIEWSTYLE
  5
9FC2
102
{ACAD_XDICTIONARY
360
A01D
102
}
102
{ACAD_REACTORS
330
9FC1
102
}
330
9FC1
100
AcDbModelDocViewStyle
 70
     0
  3
Imperial24
290
     0
100
AcDbSectionViewStyle
 70
     0
 71
     0
 90
       78
 71
     1
340
9D4C
 40
0.24
340
0
340
0
 40
0.24
300
I, O, Q, S, X, Z
 40
0.48
 90
        3
 40
0.18
 90
        1
 71
     2
340
9D50
 90
       25
340
9D50
 90
       50
 40
0.24
 40
0.0
 40
0.24
 71
     3
340
9D4C
 40
0.24
 90
        1
 40
0.75
 90
        1
300
%<\AcVar ViewType \f "%tc1">% %<\AcVar ViewSectionStartId>%-%<\AcVar ViewSectionEndId>%\PSCALE %<\AcVar ViewScale \f "%sn">%
 71
     4
300
ANSI31
 40
1.0
 90
        0
290
     0
290
     0
 90
        6
 40
0.0
 40
1.570796326794896
 40
0.2617993877991494
 40
1.308996938995747
 40
-0.2617993877991494
 40
1.832595714594046
  0
TABLESTYLE
  5
9FAC
102
{ACAD_XDICTIONARY
360
9FE4
102
}
102
{ACAD_REACTORS
330
9FAB
102
}
330
9FAB
100
AcDbTableStyle
  3
Standard
 70
     0
 71
     0
 40
0.06
 41
0.06
280
     0
281
     0
  7
STANDARD
140
0.18
170
     2
 62
     0
 63
     7
283
     0
274
    -2
284
     1
 64
     0
275
    -2
285
     1
 65
     0
276
    -2
286
     1
 66
     0
277
    -2
287
     1
 67
     0
278
    -2
288
     1
 68
     0
279
    -2
289
     1
 69
     0
  7
STANDARD
140
0.25
170
     5
 62
     0
 63
     7
283
     0
274
    -2
284
     1
 64
     0
275
    -2
285
     1
 65
     0
276
    -2
286
     1
 66
     0
277
    -2
287
     1
 67
     0
278
    -2
288
     1
 68
     0
279
    -2
289
     1
 69
     0
  7
STANDARD
140
0.18
170
     5
 62
     0
 63
     7
283
     0
274
    -2
284
     1
 64
     0
275
    -2
285
     1
 65
     0
276
    -2
286
     1
 66
     0
277
    -2
287
     1
 67
     0
278
    -2
288
     1
 68
     0
279
    -2
289
     1
 69
     0
  0
VISUALSTYLE
  5
9F97
102
{ACAD_XDICTIONARY
360
9FF5
102
}
102
{ACAD_REACTORS
330
9F91
102
}
330
9F91
100
AcDbVisualStyle
  2
2dWireframe
 70
     4
 71
     0
 72
     2
 73
     0
 90
        0
 40
-0.6
 41
-30.0
 62
     5
 63
     7
 74
     1
 91
        4
 64
     7
 65
   257
 75
     1
175
     1
 42
1.0
 92
        0
 66
   257
 43
1.0
 76
     1
 77
     6
 78
     2
 67
     7
 79
     5
170
     0
171
     0
290
     0
174
     0
 93
        1
 44
0.0
173
     0
291
     0
 45
0.0
1001
ACAD
1000
AcDbSavedByObjectVersion
1070
     0
  0
VISUALSTYLE
  5
9F96
102
{ACAD_XDICTIONARY
360
9FF3
102
}
102
{ACAD_REACTORS
330
9F91
102
}
330
9F91
100
AcDbVisualStyle
  2
Basic
 70
     7
 71
     1
 72
     0
 73
     1
 90
        0
 40
-0.6
 41
-30.0
 62
     5
 63
     7
 74
     0
 91
        4
 64
     7
 65
   257
 75
     1
175
     1
 42
1.0
 92
        8
 66
     7
 43
1.0
 76
     1
 77
     6
 78
     2
 67
     7
 79
     5
170
     0
171
     0
290
     0
174
     0
 93
        1
 44
0.0
173
     0
291
     1
 45
0.0
1001
ACAD
1000
AcDbSavedByObjectVersion
1070
     0
  0
VISUALSTYLE
  5
9F9D
102
{ACAD_XDICTIONARY
360
A001
102
}
102
{ACAD_REACTORS
330
9F91
102
}
330
9F91
100
AcDbVisualStyle
  2
Brighten
 70
    12
 71
     2
 72
     2
 73
     0
 90
        0
 40
-0.6
 41
-30.0
 62
     5
 63
     7
 74
     1
 91
        4
 64
     7
 65
   257
 75
     1
175
     1
 42
1.0
 92
        8
 66
     7
 43
1.0
 76
     1
 77
     6
 78
     2
 67
     7
 79
     5
170
     0
171
     0
290
     0
174
     0
 93
        1
 44
50.0
173
     0
291
     1
 45
0.0
1001
ACAD
1000
AcDbSavedByObjectVersion
1070
     0
  0
VISUALSTYLE
  5
9FA1
102
{ACAD_XDICTIONARY
360
A009
102
}
102
{ACAD_REACTORS
330
9F91
102
}
330
9F91
100
AcDbVisualStyle
  2
ColorChange
 70
    16
 71
     2
 72
     2
 73
     3
 90
        0
 40
-0.6
 41
-30.0
 62
     5
 63
     8
 74
     1
 91
        4
 64
     7
 65
   257
 75
     1
175
     1
 42
1.0
 92
        8
 66
     8
 43
1.0
 76
     1
 77
     6
 78
     2
 67
     7
 79
     5
170
     0
171
     0
290
     0
174
     0
 93
        1
 44
0.0
173
     0
291
     1
 45
0.0
1001
ACAD
1000
AcDbSavedByObjectVersion
1070
     0
  0
VISUALSTYLE
  5
9F9A
102
{ACAD_XDICTIONARY
360
9FFB
102
}
102
{ACAD_REACTORS
330
9F91
102
}
330
9F91
100
AcDbVisualStyle
  2
Conceptual
 70
     9
 71
     3
 72
     2
 73
     0
 90
        0
 40
-0.6
 41
-30.0
 62
     5
 63
     7
 74
     2
 91
        2
 64
     7
 65
   257
 75
     1
175
     1
 42
179.0
 92
        8
 66
     7
 43
1.0
 76
     1
 77
     6
 78
     2
 67
     7
 79
     3
170
     0
171
     0
290
     0
174
     0
 93
        1
 44
0.0
173
     0
291
     0
 45
0.0
1001
ACAD
1000
AcDbSavedByObjectVersion
1070
     0
  0
VISUALSTYLE
  5
9F9C
102
{ACAD_XDICTIONARY
360
9FFF
102
}
102
{ACAD_REACTORS
330
9F91
102
}
330
9F91
100
AcDbVisualStyle
  2
Dim
 70
    11
 71
     2
 72
     2
 73
     0
 90
        0
 40
-0.6
 41
-30.0
 62
     5
 63
     7
 74
     1
 91
        4
 64
     7
 65
   257
 75
     1
175
     1
 42
1.0
 92
        8
 66
     7
 43
1.0
 76
     1
 77
     6
 78
     2
 67
     7
 79
     5
170
     0
171
     0
290
     0
174
     0
 93
        1
 44
-50.0
173
     0
291
     1
 45
0.0
1001
ACAD
1000
AcDbSavedByObjectVersion
1070
     0
  0
VISUALSTYLE
  5
9FA9
102
{ACAD_XDICTIONARY
360
A019
102
}
102
{ACAD_REACTORS
330
9F91
102
}
330
9F91
100
AcDbVisualStyle
  2
EdgeColorOff
 70
    22
 71
     2
 72
     2
 73
     0
 90
        0
 40
-0.6
 41
-30.0
 62
     5
 63
     7
 74
     1
 91
        4
 64
     7
 65
   257
 75
     1
175
     1
 42
1.0
 92
        8
 66
     7
 43
1.0
 76
     1
 77
     6
 78
     2
 67
     7
 79
     5
170
     0
171
     0
290
     0
174
     0
 93
        1
 44
0.0
173
     0
291
     1
 45
0.0
1001
ACAD
1000
AcDbSavedByObjectVersion
1070
     0
  0
VISUALSTYLE
  5
9FA0
102
{ACAD_XDICTIONARY
360
A007
102
}
102
{ACAD_REACTORS
330
9F91
102
}
330
9F91
100
AcDbVisualStyle
  2
Facepattern
 70
    15
 71
     2
 72
     2
 73
     0
 90
        0
 40
-0.6
 41
-30.0
 62
     5
 63
     7
 74
     1
 91
        4
 64
     7
 65
   257
 75
     1
175
     1
 42
1.0
 92
        8
 66
     7
 43
1.0
 76
     1
 77
     6
 78
     2
 67
     7
 79
     5
170
     0
171
     0
290
     0
174
     0
 93
        1
 44
0.0
173
     0
291
     1
 45
0.0
1001
ACAD
1000
AcDbSavedByObjectVersion
1070
     0
  0
VISUALSTYLE
  5
9F92
102
{ACAD_XDICTIONARY
360
9FEB
102
}
102
{ACAD_REACTORS
330
9F91
102
}
330
9F91
100
AcDbVisualStyle
  2
Flat
 70
     0
 71
     2
 72
     1
 73
     1
 90
        2
 40
-0.6
 41
30.0
 62
     5
 63
     7
 74
     0
 91
        0
 64
     7
 65
   257
 75
     1
175
     1
 42
1.0
 92
        8
 66
     7
 43
1.0
 76
     1
 77
     6
 78
     2
 67
     7
 79
     5
170
     0
171
     0
290
     0
174
     0
 93
       13
 44
0.0
173
     0
291
     1
 45
0.0
1001
ACAD
1000
AcDbSavedByObjectVersion
1070
     0
  0
VISUALSTYLE
  5
9F93
102
{ACAD_XDICTIONARY
360
9FED
102
}
102
{ACAD_REACTORS
330
9F91
102
}
330
9F91
100
AcDbVisualStyle
  2
FlatWithEdges
 70
     1
 71
     2
 72
     1
 73
     1
 90
        2
 40
-0.6
 41
30.0
 62
     5
 63
     7
 74
     1
 91
        0
 64
     7
 65
   257
 75
     1
175
     1
 42
1.0
 92
        0
 66
   257
 43
1.0
 76
     1
 77
     6
 78
     2
 67
     7
 79
     5
170
     0
171
     0
290
     0
174
     0
 93
       13
 44
0.0
173
     0
291
     1
 45
0.0
1001
ACAD
1000
AcDbSavedByObjectVersion
1070
     0
  0
VISUALSTYLE
  5
9F94
102
{ACAD_XDICTIONARY
360
9FEF
102
}
102
{ACAD_REACTORS
330
9F91
102
}
330
9F91
100
AcDbVisualStyle
  2
Gouraud
 70
     2
 71
     2
 72
     2
 73
     1
 90
        2
 40
-0.6
 41
30.0
 62
     5
 63
     7
 74
     0
 91
        0
 64
     7
 65
   257
 75
     1
175
     1
 42
1.0
 92
        0
 66
     7
 43
1.0
 76
     1
 77
     6
 78
     2
 67
     7
 79
     5
170
     0
171
     0
290
     0
174
     0
 93
       13
 44
0.0
173
     0
291
     1
 45
0.0
1001
ACAD
1000
AcDbSavedByObjectVersion
1070
     0
  0
VISUALSTYLE
  5
9F95
102
{ACAD_XDICTIONARY
360
9FF1
102
}
102
{ACAD_REACTORS
330
9F91
102
}
330
9F91
100
AcDbVisualStyle
  2
GouraudWithEdges
 70
     3
 71
     2
 72
     2
 73
     1
 90
        2
 40
-0.6
 41
30.0
 62
     5
 63
     7
 74
     1
 91
        0
 64
     7
 65
   257
 75
     1
175
     1
 42
1.0
 92
        0
 66
   257
 43
1.0
 76
     1
 77
     6
 78
     2
 67
     7
 79
     5
170
     0
171
     0
290
     0
174
     0
 93
       13
 44
0.0
173
     0
291
     1
 45
0.0
1001
ACAD
1000
AcDbSavedByObjectVersion
1070
     0
  0
VISUALSTYLE
  5
9F99
102
{ACAD_XDICTIONARY
360
9FF9
102
}
102
{ACAD_REACTORS
330
9F91
102
}
330
9F91
100
AcDbVisualStyle
  2
Hidden
 70
     6
 71
     1
 72
     2
 73
     2
 90
        0
 40
-0.6
 41
-30.0
 62
     5
 63
     7
 74
     2
 91
        2
 64
     7
 65
   257
 75
     2
175
     1
 42
40.0
 92
        0
 66
   257
 43
1.0
 76
     1
 77
     6
 78
     2
 67
     7
 79
     3
170
     0
171
     0
290
     0
174
     0
 93
        1
 44
0.0
173
     0
291
     0
 45
0.0
1001
ACAD
1000
AcDbSavedByObjectVersion
1070
     0
  0
VISUALSTYLE
  5
9FA7
102
{ACAD_XDICTIONARY
360
A015
102
}
102
{ACAD_REACTORS
330
9F91
102
}
330
9F91
100
AcDbVisualStyle
  2
JitterOff
 70
    20
 71
     2
 72
     2
 73
     0
 90
        0
 40
-0.6
 41
-30.0
 62
     5
 63
     7
 74
     1
 91
        4
 64
     7
 65
   257
 75
     1
175
     1
 42
1.0
 92
       10
 66
     7
 43
1.0
 76
     1
 77
     6
 78
     2
 67
     7
 79
     5
170
     0
171
     0
290
     0
174
     0
 93
        1
 44
0.0
173
     0
291
     1
 45
0.0
1001
ACAD
1000
AcDbSavedByObjectVersion
1070
     0
  0
VISUALSTYLE
  5
9F9F
102
{ACAD_XDICTIONARY
360
A005
102
}
102
{ACAD_REACTORS
330
9F91
102
}
330
9F91
100
AcDbVisualStyle
  2
Linepattern
 70
    14
 71
     2
 72
     2
 73
     0
 90
        0
 40
-0.6
 41
-30.0
 62
     5
 63
     7
 74
     1
 91
        4
 64
     7
 65
   257
 75
     7
175
     7
 42
1.0
 92
        8
 66
     7
 43
1.0
 76
     1
 77
     6
 78
     2
 67
     7
 79
     5
170
     0
171
     0
290
     0
174
     0
 93
        1
 44
0.0
173
     0
291
     1
 45
0.0
1001
ACAD
1000
AcDbSavedByObjectVersion
1070
     0
  0
VISUALSTYLE
  5
9FA8
102
{ACAD_XDICTIONARY
360
A017
102
}
102
{ACAD_REACTORS
330
9F91
102
}
330
9F91
100
AcDbVisualStyle
  2
OverhangOff
 70
    21
 71
     2
 72
     2
 73
     0
 90
        0
 40
-0.6
 41
-30.0
 62
     5
 63
     7
 74
     1
 91
        4
 64
     7
 65
   257
 75
     1
175
     1
 42
1.0
 92
        9
 66
     7
 43
1.0
 76
     1
 77
     6
 78
     2
 67
     7
 79
     5
170
     0
171
     0
290
     0
174
     0
 93
        1
 44
0.0
173
     0
291
     1
 45
0.0
1001
ACAD
1000
AcDbSavedByObjectVersion
1070
     0
  0
VISUALSTYLE
  5
9F9B
102
{ACAD_XDICTIONARY
360
9FFD
102
}
102
{ACAD_REACTORS
330
9F91
102
}
330
9F91
100
AcDbVisualStyle
  2
Realistic
 70
     8
 71
     2
 72
     3
 73
     0
 90
        2
 40
-0.6
 41
30.0
 62
     5
 63
     7
 74
     0
 91
        0
 64
     7
 65
   257
 75
     1
175
     1
 42
1.0
 92
        8
 66
   257
 43
1.0
 76
     1
 77
     6
 78
     2
 67
     7
 79
     3
170
     0
171
     0
290
     0
174
     0
 93
       13
 44
0.0
173
     0
291
     0
 45
0.0
1001
ACAD
1000
AcDbSavedByObjectVersion
1070
     0
  0
VISUALSTYLE
  5
9FA6
102
{ACAD_XDICTIONARY
360
A013
102
}
102
{ACAD_REACTORS
330
9F91
102
}
330
9F91
100
AcDbVisualStyle
  2
Shaded
 70
    27
 71
     2
 72
     2
 73
     1
 90
        2
 40
-0.6
 41
30.0
 62
     5
 63
     7
 74
     0
 91
        4
 64
     7
 65
   257
 75
     1
175
     1
 42
1.0
 92
        8
 66
   257
 43
1.0
 76
     1
 77
     6
 78
     2
 67
     8
 79
     3
170
     0
171
     0
290
     0
174
     0
 93
        5
 44
0.0
173
     0
291
     0
 45
0.0
1001
ACAD
1000
AcDbSavedByObjectVersion
1070
     0
  0
VISUALSTYLE
  5
9FA5
102
{ACAD_XDICTIONARY
360
A011
102
}
102
{ACAD_REACTORS
330
9F91
102
}
330
9F91
100
AcDbVisualStyle
  2
Shaded with edges
 70
    26
 71
     2
 72
     2
 73
     1
 90
        2
 40
-0.6
 41
30.0
 62
     5
 63
     7
 74
     1
 91
       10
 64
     7
 65
   257
 75
     2
175
     1
 42
1.0
 92
        8
 66
   257
 43
1.0
 76
     1
 77
     6
 78
     2
 67
     7
 79
     3
170
     0
171
     0
290
     0
174
     0
 93
        5
 44
0.0
173
     0
291
     0
 45
0.0
1001
ACAD
1000
AcDbSavedByObjectVersion
1070
     0
  0
VISUALSTYLE
  5
9FA2
102
{ACAD_XDICTIONARY
360
A00B
102
}
102
{ACAD_REACTORS
330
9F91
102
}
330
9F91
100
AcDbVisualStyle
  2
Shades of Gray
 70
    23
 71
     2
 72
     2
 73
     3
 90
        0
 40
-0.6
 41
-30.0
 62
     5
 63
     7
 74
     2
 91
        2
 64
     7
 65
     7
 75
     1
175
     1
 42
40.0
 92
        8
 66
     7
 43
1.0
 76
     1
 77
     6
 78
     2
 67
     7
 79
     3
170
     0
171
     0
290
     0
174
     0
 93
        1
 44
0.0
173
     0
291
     0
 45
0.0
1001
ACAD
1000
AcDbSavedByObjectVersion
1070
     0
  0
VISUALSTYLE
  5
9FA3
102
{ACAD_XDICTIONARY
360
A00D
102
}
102
{ACAD_REACTORS
330
9F91
102
}
330
9F91
100
AcDbVisualStyle
  2
Sketchy
 70
    24
 71
     1
 72
     2
 73
     2
 90
        0
 40
-0.6
 41
-30.0
 62
     5
 63
     7
 74
     2
 91
        2
 64
     7
 65
     7
 75
     1
175
     1
 42
40.0
 92
       11
 66
     7
 43
1.0
 76
     1
 77
     6
 78
     2
 67
     7
 79
     6
170
     0
171
     0
290
     0
174
     0
 93
        1
 44
0.0
173
     0
291
     0
 45
0.0
1001
ACAD
1000
AcDbSavedByObjectVersion
1070
     0
  0
VISUALSTYLE
  5
9F9E
102
{ACAD_XDICTIONARY
360
A003
102
}
102
{ACAD_REACTORS
330
9F91
102
}
330
9F91
100
AcDbVisualStyle
  2
Thicken
 70
    13
 71
     2
 72
     2
 73
     0
 90
        0
 40
-0.6
 41
-30.0
 62
     5
 63
     7
 74
     1
 91
        4
 64
     7
 65
   257
 75
     1
175
     1
 42
1.0
 92
       12
 66
     7
 43
1.0
 76
     1
 77
     6
 78
     2
 67
     7
 79
     5
170
     0
171
     0
290
     0
174
     0
 93
        1
 44
0.0
173
     0
291
     1
 45
0.0
1001
ACAD
1000
AcDbSavedByObjectVersion
1070
     0
  0
VISUALSTYLE
  5
9F98
102
{ACAD_XDICTIONARY
360
9FF7
102
}
102
{ACAD_REACTORS
330
9F91
102
}
330
9F91
100
AcDbVisualStyle
  2
Wireframe
 70
     5
 71
     0
 72
     2
 73
     0
 90
        0
 40
-0.6
 41
-30.0
 62
     5
 63
     7
 74
     1
 91
        4
 64
     7
 65
   257
 75
     1
175
     1
 42
1.0
 92
        0
 66
   257
 43
1.0
 76
     1
 77
     6
 78
     2
 67
     7
 79
     3
170
     0
171
     0
290
     0
174
     0
 93
        1
 44
0.0
173
     0
291
     0
 45
0.0
1001
ACAD
1000
AcDbSavedByObjectVersion
1070
     0
  0
VISUALSTYLE
  5
9FA4
102
{ACAD_XDICTIONARY
360
A00F
102
}
102
{ACAD_REACTORS
330
9F91
102
}
330
9F91
100
AcDbVisualStyle
  2
X-Ray
 70
    25
 71
     2
 72
     2
 73
     1
 90
        1
 40
0.5
 41
-30.0
 62
     5
 63
     7
 74
     1
 91
        0
 64
     7
 65
   257
 75
     1
175
     1
 42
1.0
 92
        8
 66
     7
 43
1.0
 76
     1
 77
     6
 78
     2
 67
     7
 79
     3
170
     0
171
     0
290
     0
174
     0
 93
       13
 44
0.0
173
     0
291
     0
 45
0.0
1001
ACAD
1000
AcDbSavedByObjectVersion
1070
     0
  0
DICTIONARYVAR
  5
9FDE
102
{ACAD_REACTORS
330
9FD9
102
}
330
9FD9
100
DictionaryVariables
280
     0
  1
1:1
  0
DICTIONARYVAR
  5
9FDB
102
{ACAD_REACTORS
330
9FD9
102
}
330
9FD9
100
DictionaryVariables
280
     0
  1
STANDARD
  0
DICTIONARYVAR
  5
9FDA
102
{ACAD_REACTORS
330
9FD9
102
}
330
9FD9
100
DictionaryVariables
280
     0
  1
STANDARD
  0
DICTIONARYVAR
  5
9FDC
102
{ACAD_REACTORS
330
9FD9
102
}
330
9FD9
100
DictionaryVariables
280
     0
  1
Imperial24
  0
DICTIONARYVAR
  5
9FDD
102
{ACAD_REACTORS
330
9FD9
102
}
330
9FD9
100
DictionaryVariables
280
     0
  1
Imperial24
  0
DICTIONARYVAR
  5
9FE1
102
{ACAD_REACTORS
330
9FD9
102
}
330
9FD9
100
DictionaryVariables
280
     0
  1
1
  0
DICTIONARYVAR
  5
9FE0
102
{ACAD_REACTORS
330
9FD9
102
}
330
9FD9
100
DictionaryVariables
280
     0
  1
0
  0
DICTIONARYVAR
  5
9FDF
102
{ACAD_REACTORS
330
9FD9
102
}
330
9FD9
100
DictionaryVariables
280
     0
  1
127
  0
DICTIONARYVAR
  5
9FE2
102
{ACAD_REACTORS
330
9FD9
102
}
330
9FD9
100
DictionaryVariables
280
     0
  1
2
  0
DICTIONARY
  5
A01F
330
9FC4
100
AcDbDictionary
280
     1
281
     1
  3
ACAD_XREC_ROUNDTRIP
360
A020
  0
DICTIONARY
  5
A021
330
9FC5
100
AcDbDictionary
280
     1
281
     1
  3
ACAD_XREC_ROUNDTRIP
360
A022
  0
DICTIONARY
  5
A023
330
9FC6
100
AcDbDictionary
280
     1
281
     1
  3
ACAD_XREC_ROUNDTRIP
360
A024
  0
DICTIONARY
  5
9F82
330
9F81
100
AcDbDictionary
280
     1
281
     1
  3
ACAD_XREC_ROUNDTRIP
360
9FE9
  3
BUMPTILE
360
9F84
  3
DIFFUSETILE
360
9F83
  3
OPACITYTILE
360
9F87
  3
REFLECTIONTILE
360
9F86
  3
REFRACTIONTILE
360
9F88
  3
SPECULARTILE
360
9F85
  0
DICTIONARY
  5
9F7A
330
9F79
100
AcDbDictionary
280
     1
281
     1
  3
ACAD_XREC_ROUNDTRIP
360
9FE8
  3
BUMPTILE
360
9F7C
  3
DIFFUSETILE
360
9F7B
  3
OPACITYTILE
360
9F7F
  3
REFLECTIONTILE
360
9F7E
  3
REFRACTIONTILE
360
9F80
  3
SPECULARTILE
360
9F7D
  0
DICTIONARY
  5
9F8A
330
9F89
100
AcDbDictionary
280
     1
281
     1
  3
ACAD_XREC_ROUNDTRIP
360
9FEA
  3
BUMPTILE
360
9F8C
  3
DIFFUSETILE
360
9F8B
  3
OPACITYTILE
360
9F8F
  3
REFLECTIONTILE
360
9F8E
  3
REFRACTIONTILE
360
9F90
  3
SPECULARTILE
360
9F8D
  0
DICTIONARY
  5
A01D
330
9FC2
100
AcDbDictionary
280
     1
281
     1
  3
ACAD_XREC_ROUNDTRIP
360
A01E
  0
DICTIONARY
  5
9FE4
330
9FAC
100
AcDbDictionary
280
     1
281
     1
  3
ACAD_ROUNDTRIP_2008_TABLESTYLE_CELLSTYLEMAP
360
9FE5
  3
ACAD_XREC_ROUNDTRIP
360
A01B
  0
DICTIONARY
  5
9FF5
330
9F97
100
AcDbDictionary
280
     1
281
     1
  3
ACAD_XREC_ROUNDTRIP
360
9FF6
  0
DICTIONARY
  5
9FF3
330
9F96
100
AcDbDictionary
280
     1
281
     1
  3
ACAD_XREC_ROUNDTRIP
360
9FF4
  0
DICTIONARY
  5
A001
330
9F9D
100
AcDbDictionary
280
     1
281
     1
  3
ACAD_XREC_ROUNDTRIP
360
A002
  0
DICTIONARY
  5
A009
330
9FA1
100
AcDbDictionary
280
     1
281
     1
  3
ACAD_XREC_ROUNDTRIP
360
A00A
  0
DICTIONARY
  5
9FFB
330
9F9A
100
AcDbDictionary
280
     1
281
     1
  3
ACAD_XREC_ROUNDTRIP
360
9FFC
  0
DICTIONARY
  5
9FFF
330
9F9C
100
AcDbDictionary
280
     1
281
     1
  3
ACAD_XREC_ROUNDTRIP
360
A000
  0
DICTIONARY
  5
A019
330
9FA9
100
AcDbDictionary
280
     1
281
     1
  3
ACAD_XREC_ROUNDTRIP
360
A01A
  0
DICTIONARY
  5
A007
330
9FA0
100
AcDbDictionary
280
     1
281
     1
  3
ACAD_XREC_ROUNDTRIP
360
A008
  0
DICTIONARY
  5
9FEB
330
9F92
100
AcDbDictionary
280
     1
281
     1
  3
ACAD_XREC_ROUNDTRIP
360
9FEC
  0
DICTIONARY
  5
9FED
330
9F93
100
AcDbDictionary
280
     1
281
     1
  3
ACAD_XREC_ROUNDTRIP
360
9FEE
  0
DICTIONARY
  5
9FEF
330
9F94
100
AcDbDictionary
280
     1
281
     1
  3
ACAD_XREC_ROUNDTRIP
360
9FF0
  0
DICTIONARY
  5
9FF1
330
9F95
100
AcDbDictionary
280
     1
281
     1
  3
ACAD_XREC_ROUNDTRIP
360
9FF2
  0
DICTIONARY
  5
9FF9
330
9F99
100
AcDbDictionary
280
     1
281
     1
  3
ACAD_XREC_ROUNDTRIP
360
9FFA
  0
DICTIONARY
  5
A015
330
9FA7
100
AcDbDictionary
280
     1
281
     1
  3
ACAD_XREC_ROUNDTRIP
360
A016
  0
DICTIONARY
  5
A005
330
9F9F
100
AcDbDictionary
280
     1
281
     1
  3
ACAD_XREC_ROUNDTRIP
360
A006
  0
DICTIONARY
  5
A017
330
9FA8
100
AcDbDictionary
280
     1
281
     1
  3
ACAD_XREC_ROUNDTRIP
360
A018
  0
DICTIONARY
  5
9FFD
330
9F9B
100
AcDbDictionary
280
     1
281
     1
  3
ACAD_XREC_ROUNDTRIP
360
9FFE
  0
DICTIONARY
  5
A013
330
9FA6
100
AcDbDictionary
280
     1
281
     1
  3
ACAD_XREC_ROUNDTRIP
360
A014
  0
DICTIONARY
  5
A011
330
9FA5
100
AcDbDictionary
280
     1
281
     1
  3
ACAD_XREC_ROUNDTRIP
360
A012
  0
DICTIONARY
  5
A00B
330
9FA2
100
AcDbDictionary
280
     1
281
     1
  3
ACAD_XREC_ROUNDTRIP
360
A00C
  0
DICTIONARY
  5
A00D
330
9FA3
100
AcDbDictionary
280
     1
281
     1
  3
ACAD_XREC_ROUNDTRIP
360
A00E
  0
DICTIONARY
  5
A003
330
9F9E
100
AcDbDictionary
280
     1
281
     1
  3
ACAD_XREC_ROUNDTRIP
360
A004
  0
DICTIONARY
  5
9FF7
330
9F98
100
AcDbDictionary
280
     1
281
     1
  3
ACAD_XREC_ROUNDTRIP
360
9FF8
  0
DICTIONARY
  5
A00F
330
9FA4
100
AcDbDictionary
280
     1
281
     1
  3
ACAD_XREC_ROUNDTRIP
360
A010
  0
XRECORD
  5
A020
102
{ACAD_REACTORS
330
A01F
102
}
330
A01F
100
AcDbXrecord
280
     1
102
DISPLAYNAME
  1
Imperial24
102
FLAGS
 90
        0
  0
XRECORD
  5
A022
102
{ACAD_REACTORS
330
A021
102
}
330
A021
100
AcDbXrecord
280
     1
102
SHADEPLOT
 70
     0
102
SHADEPLOTRESLEVEL
 70
     2
102
SHADEPLOTCUSTOMDPI
 70
   300
  0
XRECORD
  5
A024
102
{ACAD_REACTORS
330
A023
102
}
330
A023
100
AcDbXrecord
280
     1
102
SHADEPLOT
 70
     0
102
SHADEPLOTRESLEVEL
 70
     2
102
SHADEPLOTCUSTOMDPI
 70
   300
  0
XRECORD
  5
9FE9
102
{ACAD_REACTORS
330
9F82
102
}
330
9F82
100
AcDbXrecord
280
     1
102
MATERIAL
148
0.0
149
0.0
149
0.0
 93
        0
 94
      127
282
     0
 72
     0
 77
     0
171
     0
175
     0
179
     0
273
     0
  0
XRECORD
  5
9F84
102
{ACAD_REACTORS
330
9F82
102
}
330
9F82
100
AcDbXrecord
280
     1
270
     1
271
     1
  0
XRECORD
  5
9F83
102
{ACAD_REACTORS
330
9F82
102
}
330
9F82
100
AcDbXrecord
280
     1
270
     1
271
     1
  0
XRECORD
  5
9F87
102
{ACAD_REACTORS
330
9F82
102
}
330
9F82
100
AcDbXrecord
280
     1
270
     1
271
     1
  0
XRECORD
  5
9F86
102
{ACAD_REACTORS
330
9F82
102
}
330
9F82
100
AcDbXrecord
280
     1
270
     1
271
     1
  0
XRECORD
  5
9F88
102
{ACAD_REACTORS
330
9F82
102
}
330
9F82
100
AcDbXrecord
280
     1
270
     1
271
     1
  0
XRECORD
  5
9F85
102
{ACAD_REACTORS
330
9F82
102
}
330
9F82
100
AcDbXrecord
280
     1
270
     1
271
     1
  0
XRECORD
  5
9FE8
102
{ACAD_REACTORS
330
9F7A
102
}
330
9F7A
100
AcDbXrecord
280
     1
102
MATERIAL
148
0.0
149
0.0
149
0.0
 93
        0
 94
      127
282
     0
 72
     0
 77
     0
171
     0
175
     0
179
     0
273
     0
  0
XRECORD
  5
9F7C
102
{ACAD_REACTORS
330
9F7A
102
}
330
9F7A
100
AcDbXrecord
280
     1
270
     1
271
     1
  0
XRECORD
  5
9F7B
102
{ACAD_REACTORS
330
9F7A
102
}
330
9F7A
100
AcDbXrecord
280
     1
270
     1
271
     1
  0
XRECORD
  5
9F7F
102
{ACAD_REACTORS
330
9F7A
102
}
330
9F7A
100
AcDbXrecord
280
     1
270
     1
271
     1
  0
XRECORD
  5
9F7E
102
{ACAD_REACTORS
330
9F7A
102
}
330
9F7A
100
AcDbXrecord
280
     1
270
     1
271
     1
  0
XRECORD
  5
9F80
102
{ACAD_REACTORS
330
9F7A
102
}
330
9F7A
100
AcDbXrecord
280
     1
270
     1
271
     1
  0
XRECORD
  5
9F7D
102
{ACAD_REACTORS
330
9F7A
102
}
330
9F7A
100
AcDbXrecord
280
     1
270
     1
271
     1
  0
XRECORD
  5
9FEA
102
{ACAD_REACTORS
330
9F8A
102
}
330
9F8A
100
AcDbXrecord
280
     1
102
MATERIAL
148
0.0
149
0.0
149
0.0
 93
        0
 94
      127
282
     0
 72
     0
 77
     0
171
     0
175
     0
179
     0
273
     0
  0
XRECORD
  5
9F8C
102
{ACAD_REACTORS
330
9F8A
102
}
330
9F8A
100
AcDbXrecord
280
     1
270
     1
271
     1
  0
XRECORD
  5
9F8B
102
{ACAD_REACTORS
330
9F8A
102
}
330
9F8A
100
AcDbXrecord
280
     1
270
     1
271
     1
  0
XRECORD
  5
9F8F
102
{ACAD_REACTORS
330
9F8A
102
}
330
9F8A
100
AcDbXrecord
280
     1
270
     1
271
     1
  0
XRECORD
  5
9F8E
102
{ACAD_REACTORS
330
9F8A
102
}
330
9F8A
100
AcDbXrecord
280
     1
270
     1
271
     1
  0
XRECORD
  5
9F90
102
{ACAD_REACTORS
330
9F8A
102
}
330
9F8A
100
AcDbXrecord
280
     1
270
     1
271
     1
  0
XRECORD
  5
9F8D
102
{ACAD_REACTORS
330
9F8A
102
}
330
9F8A
100
AcDbXrecord
280
     1
270
     1
271
     1
  0
XRECORD
  5
A01E
102
{ACAD_REACTORS
330
A01D
102
}
330
A01D
100
AcDbXrecord
280
     1
102
DISPLAYNAME
  1
Imperial24
102
FLAGS
 90
        0
  0
CELLSTYLEMAP
  5
9FE5
102
{ACAD_REACTORS
330
9FE4
102
}
330
9FE4
100
AcDbCellStyleMap
 90
        3
300
CELLSTYLE
  1
TABLEFORMAT_BEGIN
 90
        5
170
     1
 91
        0
 92
    32768
 62
   257
 93
        1
300
CONTENTFORMAT
  1
CONTENTFORMAT_BEGIN
 90
        0
 91
        0
 92
      512
 93
        0
300

 40
0.0
140
1.0
 94
        5
 62
     0
340
9D4C
144
0.25
309
CONTENTFORMAT_END
171
     0
 94
        0
309
TABLEFORMAT_END
  1
CELLSTYLE_BEGIN
 90
        1
 91
        1
300
_TITLE
309
CELLSTYLE_END
300
CELLSTYLE
  1
TABLEFORMAT_BEGIN
 90
        5
170
     1
 91
        0
 92
        0
 62
   257
 93
        1
300
CONTENTFORMAT
  1
CONTENTFORMAT_BEGIN
 90
        0
 91
        0
 92
      512
 93
        0
300

 40
0.0
140
1.0
 94
        5
 62
     0
340
9D4C
144
0.18
309
CONTENTFORMAT_END
171
     0
 94
        0
309
TABLEFORMAT_END
  1
CELLSTYLE_BEGIN
 90
        2
 91
        1
300
_HEADER
309
CELLSTYLE_END
300
CELLSTYLE
  1
TABLEFORMAT_BEGIN
 90
        5
170
     1
 91
        0
 92
        0
 62
   257
 93
        1
300
CONTENTFORMAT
  1
CONTENTFORMAT_BEGIN
 90
        0
 91
        0
 92
      512
 93
        0
300

 40
0.0
140
1.0
 94
        2
 62
     0
340
9D4C
144
0.18
309
CONTENTFORMAT_END
171
     0
 94
        0
309
TABLEFORMAT_END
  1
CELLSTYLE_BEGIN
 90
        3
 91
        2
300
_DATA
309
CELLSTYLE_END
  0
XRECORD
  5
A01B
102
{ACAD_REACTORS
330
9FE4
102
}
330
9FE4
100
AcDbXrecord
280
     1
102
ACAD_ROUNDTRIP_PRE2007_TABLESTYLE
 90
      512
 91
        0
  1

 92
      512
 93
        0
  2

 94
      512
 95
        0
  3

  0
XRECORD
  5
9FF6
102
{ACAD_REACTORS
330
9FF5
102
}
330
9FF5
100
AcDbXrecord
280
     1
102
RTVSPost2010Prop28
280
     1
102
RTVSPost2010PropOp28
 70
     1
102
RTVSPost2010Prop29
280
     1
102
RTVSPost2010PropOp29
 70
     1
102
RTVSPost2010Prop30
280
     0
102
RTVSPost2010PropOp30
 70
     1
102
RTVSPost2010Prop31
280
     0
102
RTVSPost2010PropOp31
 70
     1
102
RTVSPost2010Prop32
280
     0
102
RTVSPost2010PropOp32
 70
     1
102
RTVSPost2010Prop33
280
     0
102
RTVSPost2010PropOp33
 70
     1
102
RTVSPost2010Prop34
280
     0
102
RTVSPost2010PropOp34
 70
     1
102
RTVSPost2010Prop35
280
     0
102
RTVSPost2010PropOp35
 70
     1
102
RTVSPost2010Prop36
280
     0
102
RTVSPost2010PropOp36
 70
     1
102
RTVSPost2010Prop37
 90
       50
102
RTVSPost2010PropOp37
 70
     1
102
RTVSPost2010Prop38
140
0.0
102
RTVSPost2010PropOp38
 70
     1
102
RTVSPost2010Prop39
140
1.0
102
RTVSPost2010PropOp39
 70
     1
102
RTVSPost2010Prop40
 90
        0
102
RTVSPost2010PropOp40
 70
     1
102
RTVSPost2010Prop41ColorIndex
 90
       18
102
RTVSPost2010Prop41ColorRGB
 90
        0
102
RTVSPost2010PropOp41
 70
     1
102
RTVSPost2010Prop42
 90
       50
102
RTVSPost2010PropOp42
 70
     1
102
RTVSPost2010Prop43
 90
        3
102
RTVSPost2010PropOp43
 70
     1
102
RTVSPost2010Prop44ColorIndex
 90
        5
102
RTVSPost2010Prop44ColorRGB
 90
      255
102
RTVSPost2010PropOp44
 70
     1
102
RTVSPost2010Prop45
280
     0
102
RTVSPost2010PropOp45
 70
     1
102
RTVSPost2010Prop46
 90
       50
102
RTVSPost2010PropOp46
 70
     1
102
RTVSPost2010Prop47
 90
       50
102
RTVSPost2010PropOp47
 70
     1
102
RTVSPost2010Prop48
 90
       50
102
RTVSPost2010PropOp48
 70
     1
102
RTVSPost2010Prop49
280
     0
102
RTVSPost2010PropOp49
 70
     1
102
RTVSPost2010Prop50
 90
       50
102
RTVSPost2010PropOp50
 70
     1
102
RTVSPost2010Prop51ColorIndex
 90
      256
102
RTVSPost2010Prop51ColorRGB
 90
-16777216
102
RTVSPost2010PropOp51
 70
     0
102
RTVSPost2010Prop52
140
1.0
102
RTVSPost2010PropOp52
 70
     0
102
RTVSPost2010Prop53
 90
        2
102
RTVSPost2010PropOp53
 70
     1
102
RTVSPost2010Prop54
  1
strokes_ogs.tif
102
RTVSPost2010PropOp54
 70
     1
102
RTVSPost2010Prop55
280
     0
102
RTVSPost2010PropOp55
 70
     1
102
RTVSPost2010Prop56
140
1.0
102
RTVSPost2010PropOp56
 70
     1
102
RTVSPost2010Prop57
140
1.0
102
RTVSPost2010PropOp57
 70
     1
102
RTVSPropertyOp0
 70
     1
102
RTVSPropertyOp1
 70
     1
102
RTVSPropertyOp2
 70
     1
102
RTVSPropertyOp3
 70
     1
102
RTVSPropertyOp4
 70
     1
102
RTVSPropertyOp5
 70
     1
102
RTVSPropertyOp6
 70
     1
102
RTVSPropertyOp7
 70
     1
102
RTVSPropertyOp8
 70
     1
102
RTVSPropertyOp9
 70
     1
102
RTVSPropertyOp10
 70
     1
102
RTVSPropertyOp11
 70
     1
102
RTVSPropertyOp12
 70
     1
102
RTVSPropertyOp13
 70
     1
102
RTVSPropertyOp14
 70
     1
102
RTVSPropertyOp15
 70
     1
102
RTVSPropertyOp16
 70
     1
102
RTVSPropertyOp17
 70
     1
102
RTVSPropertyOp18
 70
     1
102
RTVSPropertyOp19
 70
     1
102
RTVSPropertyOp20
 70
     1
102
RTVSPropertyOp21
 70
     1
102
RTVSPropertyOp22
 70
     1
102
RTVSPropertyOp23
 70
     1
102
RTVSPropertyOp24
 70
     1
102
RTVSPropertyOp25
 70
     1
102
RTVSPropertyOp26
 70
     1
102
RTVSPropertyOp27
 70
     1
102
RTVSPropertyOp28
 70
     1
102
RTVSPropertyOp29
 70
     1
102
RTVSPropertyOp30
 70
     1
102
RTVSPropertyOp31
 70
     1
102
RTVSPropertyOp32
 70
     1
102
RTVSPropertyOp33
 70
     1
102
RTVSPropertyOp34
 70
     1
102
RTVSPropertyOp35
 70
     1
102
RTVSPropertyOp36
 70
     1
102
RTVSPropertyOp37
 70
     1
102
RTVSPropertyOp38
 70
     1
102
RTVSPropertyOp39
 70
     1
102
RTVSPropertyOp40
 70
     1
102
RTVSPropertyOp41
 70
     1
102
RTVSPropertyOp42
 70
     1
102
RTVSPropertyOp43
 70
     1
102
RTVSPropertyOp44
 70
     1
102
RTVSPropertyOp45
 70
     1
102
RTVSPropertyOp46
 70
     1
102
RTVSPropertyOp47
 70
     1
102
RTVSPropertyOp48
 70
     1
102
RTVSPropertyOp49
 70
     1
102
RTVSPropertyOp50
 70
     1
102
RTVSPropertyOp51
 70
     0
102
RTVSPropertyOp52
 70
     0
102
RTVSPropertyOp53
 70
     1
102
RTVSPropertyOp54
 70
     1
102
RTVSPropertyOp55
 70
     1
102
RTVSPropertyOp56
 70
     1
102
RTVSPropertyOp57
 70
     1
102
RTVSPropertyOp58
 70
     1
102
RTVSPropertyOp59
 70
     1
102
RTVSPropertyOp60
 70
     1
102
RTVSPropertyOp61
 70
     1
102
RTVSPropertyOp62
 70
     1
  0
XRECORD
  5
9FF4
102
{ACAD_REACTORS
330
9FF3
102
}
330
9FF3
100
AcDbXrecord
280
     1
102
RTVSPost2010Prop28
280
     0
102
RTVSPost2010PropOp28
 70
     1
102
RTVSPost2010Prop29
280
     1
102
RTVSPost2010PropOp29
 70
     1
102
RTVSPost2010Prop30
280
     1
102
RTVSPost2010PropOp30
 70
     1
102
RTVSPost2010Prop31
280
     0
102
RTVSPost2010PropOp31
 70
     1
102
RTVSPost2010Prop32
280
     0
102
RTVSPost2010PropOp32
 70
     1
102
RTVSPost2010Prop33
280
     0
102
RTVSPost2010PropOp33
 70
     1
102
RTVSPost2010Prop34
280
     0
102
RTVSPost2010PropOp34
 70
     1
102
RTVSPost2010Prop35
280
     0
102
RTVSPost2010PropOp35
 70
     1
102
RTVSPost2010Prop36
280
     0
102
RTVSPost2010PropOp36
 70
     1
102
RTVSPost2010Prop37
 90
       50
102
RTVSPost2010PropOp37
 70
     1
102
RTVSPost2010Prop38
140
0.0
102
RTVSPost2010PropOp38
 70
     1
102
RTVSPost2010Prop39
140
1.0
102
RTVSPost2010PropOp39
 70
     1
102
RTVSPost2010Prop40
 90
        0
102
RTVSPost2010PropOp40
 70
     1
102
RTVSPost2010Prop41ColorIndex
 90
       18
102
RTVSPost2010Prop41ColorRGB
 90
        0
102
RTVSPost2010PropOp41
 70
     1
102
RTVSPost2010Prop42
 90
       50
102
RTVSPost2010PropOp42
 70
     1
102
RTVSPost2010Prop43
 90
        3
102
RTVSPost2010PropOp43
 70
     1
102
RTVSPost2010Prop44ColorIndex
 90
        5
102
RTVSPost2010Prop44ColorRGB
 90
      255
102
RTVSPost2010PropOp44
 70
     1
102
RTVSPost2010Prop45
280
     0
102
RTVSPost2010PropOp45
 70
     1
102
RTVSPost2010Prop46
 90
       50
102
RTVSPost2010PropOp46
 70
     1
102
RTVSPost2010Prop47
 90
       50
102
RTVSPost2010PropOp47
 70
     1
102
RTVSPost2010Prop48
 90
       50
102
RTVSPost2010PropOp48
 70
     1
102
RTVSPost2010Prop49
280
     0
102
RTVSPost2010PropOp49
 70
     1
102
RTVSPost2010Prop50
 90
       50
102
RTVSPost2010PropOp50
 70
     1
102
RTVSPost2010Prop51ColorIndex
 90
      256
102
RTVSPost2010Prop51ColorRGB
 90
-16777216
102
RTVSPost2010PropOp51
 70
     0
102
RTVSPost2010Prop52
140
1.0
102
RTVSPost2010PropOp52
 70
     0
102
RTVSPost2010Prop53
 90
        2
102
RTVSPost2010PropOp53
 70
     1
102
RTVSPost2010Prop54
  1
strokes_ogs.tif
102
RTVSPost2010PropOp54
 70
     1
102
RTVSPost2010Prop55
280
     0
102
RTVSPost2010PropOp55
 70
     1
102
RTVSPost2010Prop56
140
1.0
102
RTVSPost2010PropOp56
 70
     1
102
RTVSPost2010Prop57
140
1.0
102
RTVSPost2010PropOp57
 70
     1
102
RTVSPropertyOp0
 70
     1
102
RTVSPropertyOp1
 70
     1
102
RTVSPropertyOp2
 70
     1
102
RTVSPropertyOp3
 70
     1
102
RTVSPropertyOp4
 70
     1
102
RTVSPropertyOp5
 70
     1
102
RTVSPropertyOp6
 70
     1
102
RTVSPropertyOp7
 70
     1
102
RTVSPropertyOp8
 70
     1
102
RTVSPropertyOp9
 70
     1
102
RTVSPropertyOp10
 70
     1
102
RTVSPropertyOp11
 70
     1
102
RTVSPropertyOp12
 70
     1
102
RTVSPropertyOp13
 70
     1
102
RTVSPropertyOp14
 70
     1
102
RTVSPropertyOp15
 70
     1
102
RTVSPropertyOp16
 70
     1
102
RTVSPropertyOp17
 70
     1
102
RTVSPropertyOp18
 70
     1
102
RTVSPropertyOp19
 70
     1
102
RTVSPropertyOp20
 70
     1
102
RTVSPropertyOp21
 70
     1
102
RTVSPropertyOp22
 70
     1
102
RTVSPropertyOp23
 70
     1
102
RTVSPropertyOp24
 70
     1
102
RTVSPropertyOp25
 70
     1
102
RTVSPropertyOp26
 70
     1
102
RTVSPropertyOp27
 70
     1
102
RTVSPropertyOp28
 70
     1
102
RTVSPropertyOp29
 70
     1
102
RTVSPropertyOp30
 70
     1
102
RTVSPropertyOp31
 70
     1
102
RTVSPropertyOp32
 70
     1
102
RTVSPropertyOp33
 70
     1
102
RTVSPropertyOp34
 70
     1
102
RTVSPropertyOp35
 70
     1
102
RTVSPropertyOp36
 70
     1
102
RTVSPropertyOp37
 70
     1
102
RTVSPropertyOp38
 70
     1
102
RTVSPropertyOp39
 70
     1
102
RTVSPropertyOp40
 70
     1
102
RTVSPropertyOp41
 70
     1
102
RTVSPropertyOp42
 70
     1
102
RTVSPropertyOp43
 70
     1
102
RTVSPropertyOp44
 70
     1
102
RTVSPropertyOp45
 70
     1
102
RTVSPropertyOp46
 70
     1
102
RTVSPropertyOp47
 70
     1
102
RTVSPropertyOp48
 70
     1
102
RTVSPropertyOp49
 70
     1
102
RTVSPropertyOp50
 70
     1
102
RTVSPropertyOp51
 70
     0
102
RTVSPropertyOp52
 70
     0
102
RTVSPropertyOp53
 70
     1
102
RTVSPropertyOp54
 70
     1
102
RTVSPropertyOp55
 70
     1
102
RTVSPropertyOp56
 70
     1
102
RTVSPropertyOp57
 70
     1
102
RTVSPropertyOp58
 70
     1
102
RTVSPropertyOp59
 70
     1
102
RTVSPropertyOp60
 70
     1
102
RTVSPropertyOp61
 70
     1
102
RTVSPropertyOp62
 70
     1
  0
XRECORD
  5
A002
102
{ACAD_REACTORS
330
A001
102
}
330
A001
100
AcDbXrecord
280
     1
102
RTVSPost2010Prop28
280
     0
102
RTVSPost2010PropOp28
 70
     1
102
RTVSPost2010Prop29
280
     1
102
RTVSPost2010PropOp29
 70
     1
102
RTVSPost2010Prop30
280
     1
102
RTVSPost2010PropOp30
 70
     1
102
RTVSPost2010Prop31
280
     0
102
RTVSPost2010PropOp31
 70
     1
102
RTVSPost2010Prop32
280
     0
102
RTVSPost2010PropOp32
 70
     1
102
RTVSPost2010Prop33
280
     0
102
RTVSPost2010PropOp33
 70
     1
102
RTVSPost2010Prop34
280
     0
102
RTVSPost2010PropOp34
 70
     1
102
RTVSPost2010Prop35
280
     0
102
RTVSPost2010PropOp35
 70
     1
102
RTVSPost2010Prop36
280
     0
102
RTVSPost2010PropOp36
 70
     1
102
RTVSPost2010Prop37
 90
       50
102
RTVSPost2010PropOp37
 70
     1
102
RTVSPost2010Prop38
140
0.0
102
RTVSPost2010PropOp38
 70
     1
102
RTVSPost2010Prop39
140
1.0
102
RTVSPost2010PropOp39
 70
     1
102
RTVSPost2010Prop40
 90
        0
102
RTVSPost2010PropOp40
 70
     1
102
RTVSPost2010Prop41ColorIndex
 90
       18
102
RTVSPost2010Prop41ColorRGB
 90
        0
102
RTVSPost2010PropOp41
 70
     1
102
RTVSPost2010Prop42
 90
       50
102
RTVSPost2010PropOp42
 70
     1
102
RTVSPost2010Prop43
 90
        3
102
RTVSPost2010PropOp43
 70
     1
102
RTVSPost2010Prop44ColorIndex
 90
        5
102
RTVSPost2010Prop44ColorRGB
 90
      255
102
RTVSPost2010PropOp44
 70
     1
102
RTVSPost2010Prop45
280
     0
102
RTVSPost2010PropOp45
 70
     1
102
RTVSPost2010Prop46
 90
       50
102
RTVSPost2010PropOp46
 70
     1
102
RTVSPost2010Prop47
 90
       50
102
RTVSPost2010PropOp47
 70
     1
102
RTVSPost2010Prop48
 90
       50
102
RTVSPost2010PropOp48
 70
     1
102
RTVSPost2010Prop49
280
     0
102
RTVSPost2010PropOp49
 70
     1
102
RTVSPost2010Prop50
 90
       50
102
RTVSPost2010PropOp50
 70
     1
102
RTVSPost2010Prop51ColorIndex
 90
      256
102
RTVSPost2010Prop51ColorRGB
 90
-16777216
102
RTVSPost2010PropOp51
 70
     0
102
RTVSPost2010Prop52
140
1.0
102
RTVSPost2010PropOp52
 70
     0
102
RTVSPost2010Prop53
 90
        2
102
RTVSPost2010PropOp53
 70
     1
102
RTVSPost2010Prop54
  1
strokes_ogs.tif
102
RTVSPost2010PropOp54
 70
     1
102
RTVSPost2010Prop55
280
     0
102
RTVSPost2010PropOp55
 70
     1
102
RTVSPost2010Prop56
140
1.0
102
RTVSPost2010PropOp56
 70
     1
102
RTVSPost2010Prop57
140
1.0
102
RTVSPost2010PropOp57
 70
     1
102
RTVSPropertyOp0
 70
     1
102
RTVSPropertyOp1
 70
     1
102
RTVSPropertyOp2
 70
     1
102
RTVSPropertyOp3
 70
     1
102
RTVSPropertyOp4
 70
     1
102
RTVSPropertyOp5
 70
     1
102
RTVSPropertyOp6
 70
     1
102
RTVSPropertyOp7
 70
     1
102
RTVSPropertyOp8
 70
     1
102
RTVSPropertyOp9
 70
     1
102
RTVSPropertyOp10
 70
     1
102
RTVSPropertyOp11
 70
     1
102
RTVSPropertyOp12
 70
     1
102
RTVSPropertyOp13
 70
     1
102
RTVSPropertyOp14
 70
     1
102
RTVSPropertyOp15
 70
     1
102
RTVSPropertyOp16
 70
     1
102
RTVSPropertyOp17
 70
     1
102
RTVSPropertyOp18
 70
     1
102
RTVSPropertyOp19
 70
     1
102
RTVSPropertyOp20
 70
     1
102
RTVSPropertyOp21
 70
     1
102
RTVSPropertyOp22
 70
     1
102
RTVSPropertyOp23
 70
     1
102
RTVSPropertyOp24
 70
     1
102
RTVSPropertyOp25
 70
     1
102
RTVSPropertyOp26
 70
     1
102
RTVSPropertyOp27
 70
     1
102
RTVSPropertyOp28
 70
     1
102
RTVSPropertyOp29
 70
     1
102
RTVSPropertyOp30
 70
     1
102
RTVSPropertyOp31
 70
     1
102
RTVSPropertyOp32
 70
     1
102
RTVSPropertyOp33
 70
     1
102
RTVSPropertyOp34
 70
     1
102
RTVSPropertyOp35
 70
     1
102
RTVSPropertyOp36
 70
     1
102
RTVSPropertyOp37
 70
     1
102
RTVSPropertyOp38
 70
     1
102
RTVSPropertyOp39
 70
     1
102
RTVSPropertyOp40
 70
     1
102
RTVSPropertyOp41
 70
     1
102
RTVSPropertyOp42
 70
     1
102
RTVSPropertyOp43
 70
     1
102
RTVSPropertyOp44
 70
     1
102
RTVSPropertyOp45
 70
     1
102
RTVSPropertyOp46
 70
     1
102
RTVSPropertyOp47
 70
     1
102
RTVSPropertyOp48
 70
     1
102
RTVSPropertyOp49
 70
     1
102
RTVSPropertyOp50
 70
     1
102
RTVSPropertyOp51
 70
     0
102
RTVSPropertyOp52
 70
     0
102
RTVSPropertyOp53
 70
     1
102
RTVSPropertyOp54
 70
     1
102
RTVSPropertyOp55
 70
     1
102
RTVSPropertyOp56
 70
     1
102
RTVSPropertyOp57
 70
     1
102
RTVSPropertyOp58
 70
     1
102
RTVSPropertyOp59
 70
     1
102
RTVSPropertyOp60
 70
     1
102
RTVSPropertyOp61
 70
     1
102
RTVSPropertyOp62
 70
     1
  0
XRECORD
  5
A00A
102
{ACAD_REACTORS
330
A009
102
}
330
A009
100
AcDbXrecord
280
     1
102
RTVSPost2010Prop28
280
     0
102
RTVSPost2010PropOp28
 70
     1
102
RTVSPost2010Prop29
280
     1
102
RTVSPost2010PropOp29
 70
     1
102
RTVSPost2010Prop30
280
     1
102
RTVSPost2010PropOp30
 70
     1
102
RTVSPost2010Prop31
280
     0
102
RTVSPost2010PropOp31
 70
     1
102
RTVSPost2010Prop32
280
     0
102
RTVSPost2010PropOp32
 70
     1
102
RTVSPost2010Prop33
280
     0
102
RTVSPost2010PropOp33
 70
     1
102
RTVSPost2010Prop34
280
     0
102
RTVSPost2010PropOp34
 70
     1
102
RTVSPost2010Prop35
280
     0
102
RTVSPost2010PropOp35
 70
     1
102
RTVSPost2010Prop36
280
     0
102
RTVSPost2010PropOp36
 70
     1
102
RTVSPost2010Prop37
 90
       50
102
RTVSPost2010PropOp37
 70
     1
102
RTVSPost2010Prop38
140
0.0
102
RTVSPost2010PropOp38
 70
     1
102
RTVSPost2010Prop39
140
1.0
102
RTVSPost2010PropOp39
 70
     1
102
RTVSPost2010Prop40
 90
        0
102
RTVSPost2010PropOp40
 70
     1
102
RTVSPost2010Prop41ColorIndex
 90
       18
102
RTVSPost2010Prop41ColorRGB
 90
        0
102
RTVSPost2010PropOp41
 70
     1
102
RTVSPost2010Prop42
 90
       50
102
RTVSPost2010PropOp42
 70
     1
102
RTVSPost2010Prop43
 90
        3
102
RTVSPost2010PropOp43
 70
     1
102
RTVSPost2010Prop44ColorIndex
 90
        5
102
RTVSPost2010Prop44ColorRGB
 90
      255
102
RTVSPost2010PropOp44
 70
     1
102
RTVSPost2010Prop45
280
     0
102
RTVSPost2010PropOp45
 70
     1
102
RTVSPost2010Prop46
 90
       50
102
RTVSPost2010PropOp46
 70
     1
102
RTVSPost2010Prop47
 90
       50
102
RTVSPost2010PropOp47
 70
     1
102
RTVSPost2010Prop48
 90
       50
102
RTVSPost2010PropOp48
 70
     1
102
RTVSPost2010Prop49
280
     0
102
RTVSPost2010PropOp49
 70
     1
102
RTVSPost2010Prop50
 90
       50
102
RTVSPost2010PropOp50
 70
     1
102
RTVSPost2010Prop51ColorIndex
 90
      256
102
RTVSPost2010Prop51ColorRGB
 90
-16777216
102
RTVSPost2010PropOp51
 70
     0
102
RTVSPost2010Prop52
140
1.0
102
RTVSPost2010PropOp52
 70
     0
102
RTVSPost2010Prop53
 90
        2
102
RTVSPost2010PropOp53
 70
     1
102
RTVSPost2010Prop54
  1
strokes_ogs.tif
102
RTVSPost2010PropOp54
 70
     1
102
RTVSPost2010Prop55
280
     0
102
RTVSPost2010PropOp55
 70
     1
102
RTVSPost2010Prop56
140
1.0
102
RTVSPost2010PropOp56
 70
     1
102
RTVSPost2010Prop57
140
1.0
102
RTVSPost2010PropOp57
 70
     1
102
RTVSPropertyOp0
 70
     1
102
RTVSPropertyOp1
 70
     1
102
RTVSPropertyOp2
 70
     1
102
RTVSPropertyOp3
 70
     1
102
RTVSPropertyOp4
 70
     1
102
RTVSPropertyOp5
 70
     1
102
RTVSPropertyOp6
 70
     1
102
RTVSPropertyOp7
 70
     1
102
RTVSPropertyOp8
 70
     1
102
RTVSPropertyOp9
 70
     1
102
RTVSPropertyOp10
 70
     1
102
RTVSPropertyOp11
 70
     1
102
RTVSPropertyOp12
 70
     1
102
RTVSPropertyOp13
 70
     1
102
RTVSPropertyOp14
 70
     1
102
RTVSPropertyOp15
 70
     1
102
RTVSPropertyOp16
 70
     1
102
RTVSPropertyOp17
 70
     1
102
RTVSPropertyOp18
 70
     1
102
RTVSPropertyOp19
 70
     1
102
RTVSPropertyOp20
 70
     1
102
RTVSPropertyOp21
 70
     1
102
RTVSPropertyOp22
 70
     1
102
RTVSPropertyOp23
 70
     1
102
RTVSPropertyOp24
 70
     1
102
RTVSPropertyOp25
 70
     1
102
RTVSPropertyOp26
 70
     1
102
RTVSPropertyOp27
 70
     1
102
RTVSPropertyOp28
 70
     1
102
RTVSPropertyOp29
 70
     1
102
RTVSPropertyOp30
 70
     1
102
RTVSPropertyOp31
 70
     1
102
RTVSPropertyOp32
 70
     1
102
RTVSPropertyOp33
 70
     1
102
RTVSPropertyOp34
 70
     1
102
RTVSPropertyOp35
 70
     1
102
RTVSPropertyOp36
 70
     1
102
RTVSPropertyOp37
 70
     1
102
RTVSPropertyOp38
 70
     1
102
RTVSPropertyOp39
 70
     1
102
RTVSPropertyOp40
 70
     1
102
RTVSPropertyOp41
 70
     1
102
RTVSPropertyOp42
 70
     1
102
RTVSPropertyOp43
 70
     1
102
RTVSPropertyOp44
 70
     1
102
RTVSPropertyOp45
 70
     1
102
RTVSPropertyOp46
 70
     1
102
RTVSPropertyOp47
 70
     1
102
RTVSPropertyOp48
 70
     1
102
RTVSPropertyOp49
 70
     1
102
RTVSPropertyOp50
 70
     1
102
RTVSPropertyOp51
 70
     0
102
RTVSPropertyOp52
 70
     0
102
RTVSPropertyOp53
 70
     1
102
RTVSPropertyOp54
 70
     1
102
RTVSPropertyOp55
 70
     1
102
RTVSPropertyOp56
 70
     1
102
RTVSPropertyOp57
 70
     1
102
RTVSPropertyOp58
 70
     1
102
RTVSPropertyOp59
 70
     1
102
RTVSPropertyOp60
 70
     1
102
RTVSPropertyOp61
 70
     1
102
RTVSPropertyOp62
 70
     1
  0
XRECORD
  5
9FFC
102
{ACAD_REACTORS
330
9FFB
102
}
330
9FFB
100
AcDbXrecord
280
     1
102
RTVSPost2010Prop28
280
     0
102
RTVSPost2010PropOp28
 70
     1
102
RTVSPost2010Prop29
280
     1
102
RTVSPost2010PropOp29
 70
     1
102
RTVSPost2010Prop30
280
     1
102
RTVSPost2010PropOp30
 70
     1
102
RTVSPost2010Prop31
280
     0
102
RTVSPost2010PropOp31
 70
     1
102
RTVSPost2010Prop32
280
     0
102
RTVSPost2010PropOp32
 70
     1
102
RTVSPost2010Prop33
280
     0
102
RTVSPost2010PropOp33
 70
     1
102
RTVSPost2010Prop34
280
     0
102
RTVSPost2010PropOp34
 70
     1
102
RTVSPost2010Prop35
280
     0
102
RTVSPost2010PropOp35
 70
     1
102
RTVSPost2010Prop36
280
     0
102
RTVSPost2010PropOp36
 70
     1
102
RTVSPost2010Prop37
 90
       50
102
RTVSPost2010PropOp37
 70
     1
102
RTVSPost2010Prop38
140
0.0
102
RTVSPost2010PropOp38
 70
     1
102
RTVSPost2010Prop39
140
1.0
102
RTVSPost2010PropOp39
 70
     1
102
RTVSPost2010Prop40
 90
        0
102
RTVSPost2010PropOp40
 70
     1
102
RTVSPost2010Prop41ColorIndex
 90
       18
102
RTVSPost2010Prop41ColorRGB
 90
        0
102
RTVSPost2010PropOp41
 70
     1
102
RTVSPost2010Prop42
 90
       50
102
RTVSPost2010PropOp42
 70
     1
102
RTVSPost2010Prop43
 90
        3
102
RTVSPost2010PropOp43
 70
     1
102
RTVSPost2010Prop44ColorIndex
 90
        5
102
RTVSPost2010Prop44ColorRGB
 90
      255
102
RTVSPost2010PropOp44
 70
     1
102
RTVSPost2010Prop45
280
     0
102
RTVSPost2010PropOp45
 70
     1
102
RTVSPost2010Prop46
 90
       50
102
RTVSPost2010PropOp46
 70
     1
102
RTVSPost2010Prop47
 90
       50
102
RTVSPost2010PropOp47
 70
     1
102
RTVSPost2010Prop48
 90
       50
102
RTVSPost2010PropOp48
 70
     1
102
RTVSPost2010Prop49
280
     0
102
RTVSPost2010PropOp49
 70
     1
102
RTVSPost2010Prop50
 90
       50
102
RTVSPost2010PropOp50
 70
     1
102
RTVSPost2010Prop51ColorIndex
 90
      256
102
RTVSPost2010Prop51ColorRGB
 90
-16777216
102
RTVSPost2010PropOp51
 70
     0
102
RTVSPost2010Prop52
140
1.0
102
RTVSPost2010PropOp52
 70
     0
102
RTVSPost2010Prop53
 90
        2
102
RTVSPost2010PropOp53
 70
     1
102
RTVSPost2010Prop54
  1
strokes_ogs.tif
102
RTVSPost2010PropOp54
 70
     1
102
RTVSPost2010Prop55
280
     0
102
RTVSPost2010PropOp55
 70
     1
102
RTVSPost2010Prop56
140
1.0
102
RTVSPost2010PropOp56
 70
     1
102
RTVSPost2010Prop57
140
1.0
102
RTVSPost2010PropOp57
 70
     1
102
RTVSPropertyOp0
 70
     1
102
RTVSPropertyOp1
 70
     1
102
RTVSPropertyOp2
 70
     1
102
RTVSPropertyOp3
 70
     1
102
RTVSPropertyOp4
 70
     1
102
RTVSPropertyOp5
 70
     1
102
RTVSPropertyOp6
 70
     1
102
RTVSPropertyOp7
 70
     1
102
RTVSPropertyOp8
 70
     1
102
RTVSPropertyOp9
 70
     1
102
RTVSPropertyOp10
 70
     1
102
RTVSPropertyOp11
 70
     1
102
RTVSPropertyOp12
 70
     1
102
RTVSPropertyOp13
 70
     1
102
RTVSPropertyOp14
 70
     1
102
RTVSPropertyOp15
 70
     1
102
RTVSPropertyOp16
 70
     1
102
RTVSPropertyOp17
 70
     1
102
RTVSPropertyOp18
 70
     1
102
RTVSPropertyOp19
 70
     1
102
RTVSPropertyOp20
 70
     1
102
RTVSPropertyOp21
 70
     1
102
RTVSPropertyOp22
 70
     1
102
RTVSPropertyOp23
 70
     1
102
RTVSPropertyOp24
 70
     1
102
RTVSPropertyOp25
 70
     1
102
RTVSPropertyOp26
 70
     1
102
RTVSPropertyOp27
 70
     1
102
RTVSPropertyOp28
 70
     1
102
RTVSPropertyOp29
 70
     1
102
RTVSPropertyOp30
 70
     1
102
RTVSPropertyOp31
 70
     1
102
RTVSPropertyOp32
 70
     1
102
RTVSPropertyOp33
 70
     1
102
RTVSPropertyOp34
 70
     1
102
RTVSPropertyOp35
 70
     1
102
RTVSPropertyOp36
 70
     1
102
RTVSPropertyOp37
 70
     1
102
RTVSPropertyOp38
 70
     1
102
RTVSPropertyOp39
 70
     1
102
RTVSPropertyOp40
 70
     1
102
RTVSPropertyOp41
 70
     1
102
RTVSPropertyOp42
 70
     1
102
RTVSPropertyOp43
 70
     1
102
RTVSPropertyOp44
 70
     1
102
RTVSPropertyOp45
 70
     1
102
RTVSPropertyOp46
 70
     1
102
RTVSPropertyOp47
 70
     1
102
RTVSPropertyOp48
 70
     1
102
RTVSPropertyOp49
 70
     1
102
RTVSPropertyOp50
 70
     1
102
RTVSPropertyOp51
 70
     0
102
RTVSPropertyOp52
 70
     0
102
RTVSPropertyOp53
 70
     1
102
RTVSPropertyOp54
 70
     1
102
RTVSPropertyOp55
 70
     1
102
RTVSPropertyOp56
 70
     1
102
RTVSPropertyOp57
 70
     1
102
RTVSPropertyOp58
 70
     1
102
RTVSPropertyOp59
 70
     1
102
RTVSPropertyOp60
 70
     1
102
RTVSPropertyOp61
 70
     1
102
RTVSPropertyOp62
 70
     1
  0
XRECORD
  5
A000
102
{ACAD_REACTORS
330
9FFF
102
}
330
9FFF
100
AcDbXrecord
280
     1
102
RTVSPost2010Prop28
280
     0
102
RTVSPost2010PropOp28
 70
     1
102
RTVSPost2010Prop29
280
     1
102
RTVSPost2010PropOp29
 70
     1
102
RTVSPost2010Prop30
280
     1
102
RTVSPost2010PropOp30
 70
     1
102
RTVSPost2010Prop31
280
     0
102
RTVSPost2010PropOp31
 70
     1
102
RTVSPost2010Prop32
280
     0
102
RTVSPost2010PropOp32
 70
     1
102
RTVSPost2010Prop33
280
     0
102
RTVSPost2010PropOp33
 70
     1
102
RTVSPost2010Prop34
280
     0
102
RTVSPost2010PropOp34
 70
     1
102
RTVSPost2010Prop35
280
     0
102
RTVSPost2010PropOp35
 70
     1
102
RTVSPost2010Prop36
280
     0
102
RTVSPost2010PropOp36
 70
     1
102
RTVSPost2010Prop37
 90
       50
102
RTVSPost2010PropOp37
 70
     1
102
RTVSPost2010Prop38
140
0.0
102
RTVSPost2010PropOp38
 70
     1
102
RTVSPost2010Prop39
140
1.0
102
RTVSPost2010PropOp39
 70
     1
102
RTVSPost2010Prop40
 90
        0
102
RTVSPost2010PropOp40
 70
     1
102
RTVSPost2010Prop41ColorIndex
 90
       18
102
RTVSPost2010Prop41ColorRGB
 90
        0
102
RTVSPost2010PropOp41
 70
     1
102
RTVSPost2010Prop42
 90
       50
102
RTVSPost2010PropOp42
 70
     1
102
RTVSPost2010Prop43
 90
        3
102
RTVSPost2010PropOp43
 70
     1
102
RTVSPost2010Prop44ColorIndex
 90
        5
102
RTVSPost2010Prop44ColorRGB
 90
      255
102
RTVSPost2010PropOp44
 70
     1
102
RTVSPost2010Prop45
280
     0
102
RTVSPost2010PropOp45
 70
     1
102
RTVSPost2010Prop46
 90
       50
102
RTVSPost2010PropOp46
 70
     1
102
RTVSPost2010Prop47
 90
       50
102
RTVSPost2010PropOp47
 70
     1
102
RTVSPost2010Prop48
 90
       50
102
RTVSPost2010PropOp48
 70
     1
102
RTVSPost2010Prop49
280
     0
102
RTVSPost2010PropOp49
 70
     1
102
RTVSPost2010Prop50
 90
       50
102
RTVSPost2010PropOp50
 70
     1
102
RTVSPost2010Prop51ColorIndex
 90
      256
102
RTVSPost2010Prop51ColorRGB
 90
-16777216
102
RTVSPost2010PropOp51
 70
     0
102
RTVSPost2010Prop52
140
1.0
102
RTVSPost2010PropOp52
 70
     0
102
RTVSPost2010Prop53
 90
        2
102
RTVSPost2010PropOp53
 70
     1
102
RTVSPost2010Prop54
  1
strokes_ogs.tif
102
RTVSPost2010PropOp54
 70
     1
102
RTVSPost2010Prop55
280
     0
102
RTVSPost2010PropOp55
 70
     1
102
RTVSPost2010Prop56
140
1.0
102
RTVSPost2010PropOp56
 70
     1
102
RTVSPost2010Prop57
140
1.0
102
RTVSPost2010PropOp57
 70
     1
102
RTVSPropertyOp0
 70
     1
102
RTVSPropertyOp1
 70
     1
102
RTVSPropertyOp2
 70
     1
102
RTVSPropertyOp3
 70
     1
102
RTVSPropertyOp4
 70
     1
102
RTVSPropertyOp5
 70
     1
102
RTVSPropertyOp6
 70
     1
102
RTVSPropertyOp7
 70
     1
102
RTVSPropertyOp8
 70
     1
102
RTVSPropertyOp9
 70
     1
102
RTVSPropertyOp10
 70
     1
102
RTVSPropertyOp11
 70
     1
102
RTVSPropertyOp12
 70
     1
102
RTVSPropertyOp13
 70
     1
102
RTVSPropertyOp14
 70
     1
102
RTVSPropertyOp15
 70
     1
102
RTVSPropertyOp16
 70
     1
102
RTVSPropertyOp17
 70
     1
102
RTVSPropertyOp18
 70
     1
102
RTVSPropertyOp19
 70
     1
102
RTVSPropertyOp20
 70
     1
102
RTVSPropertyOp21
 70
     1
102
RTVSPropertyOp22
 70
     1
102
RTVSPropertyOp23
 70
     1
102
RTVSPropertyOp24
 70
     1
102
RTVSPropertyOp25
 70
     1
102
RTVSPropertyOp26
 70
     1
102
RTVSPropertyOp27
 70
     1
102
RTVSPropertyOp28
 70
     1
102
RTVSPropertyOp29
 70
     1
102
RTVSPropertyOp30
 70
     1
102
RTVSPropertyOp31
 70
     1
102
RTVSPropertyOp32
 70
     1
102
RTVSPropertyOp33
 70
     1
102
RTVSPropertyOp34
 70
     1
102
RTVSPropertyOp35
 70
     1
102
RTVSPropertyOp36
 70
     1
102
RTVSPropertyOp37
 70
     1
102
RTVSPropertyOp38
 70
     1
102
RTVSPropertyOp39
 70
     1
102
RTVSPropertyOp40
 70
     1
102
RTVSPropertyOp41
 70
     1
102
RTVSPropertyOp42
 70
     1
102
RTVSPropertyOp43
 70
     1
102
RTVSPropertyOp44
 70
     1
102
RTVSPropertyOp45
 70
     1
102
RTVSPropertyOp46
 70
     1
102
RTVSPropertyOp47
 70
     1
102
RTVSPropertyOp48
 70
     1
102
RTVSPropertyOp49
 70
     1
102
RTVSPropertyOp50
 70
     1
102
RTVSPropertyOp51
 70
     0
102
RTVSPropertyOp52
 70
     0
102
RTVSPropertyOp53
 70
     1
102
RTVSPropertyOp54
 70
     1
102
RTVSPropertyOp55
 70
     1
102
RTVSPropertyOp56
 70
     1
102
RTVSPropertyOp57
 70
     1
102
RTVSPropertyOp58
 70
     1
102
RTVSPropertyOp59
 70
     1
102
RTVSPropertyOp60
 70
     1
102
RTVSPropertyOp61
 70
     1
102
RTVSPropertyOp62
 70
     1
  0
XRECORD
  5
A01A
102
{ACAD_REACTORS
330
A019
102
}
330
A019
100
AcDbXrecord
280
     1
102
RTVSPost2010Prop28
280
     0
102
RTVSPost2010PropOp28
 70
     1
102
RTVSPost2010Prop29
280
     1
102
RTVSPost2010PropOp29
 70
     1
102
RTVSPost2010Prop30
280
     1
102
RTVSPost2010PropOp30
 70
     1
102
RTVSPost2010Prop31
280
     0
102
RTVSPost2010PropOp31
 70
     1
102
RTVSPost2010Prop32
280
     0
102
RTVSPost2010PropOp32
 70
     1
102
RTVSPost2010Prop33
280
     0
102
RTVSPost2010PropOp33
 70
     1
102
RTVSPost2010Prop34
280
     0
102
RTVSPost2010PropOp34
 70
     1
102
RTVSPost2010Prop35
280
     0
102
RTVSPost2010PropOp35
 70
     1
102
RTVSPost2010Prop36
280
     0
102
RTVSPost2010PropOp36
 70
     1
102
RTVSPost2010Prop37
 90
       50
102
RTVSPost2010PropOp37
 70
     0
102
RTVSPost2010Prop38
140
0.0
102
RTVSPost2010PropOp38
 70
     0
102
RTVSPost2010Prop39
140
1.0
102
RTVSPost2010PropOp39
 70
     0
102
RTVSPost2010Prop40
 90
        0
102
RTVSPost2010PropOp40
 70
     0
102
RTVSPost2010Prop41ColorIndex
 90
       18
102
RTVSPost2010Prop41ColorRGB
 90
        0
102
RTVSPost2010PropOp41
 70
     0
102
RTVSPost2010Prop42
 90
       50
102
RTVSPost2010PropOp42
 70
     0
102
RTVSPost2010Prop43
 90
        3
102
RTVSPost2010PropOp43
 70
     0
102
RTVSPost2010Prop44ColorIndex
 90
        5
102
RTVSPost2010Prop44ColorRGB
 90
      255
102
RTVSPost2010PropOp44
 70
     0
102
RTVSPost2010Prop45
280
     0
102
RTVSPost2010PropOp45
 70
     1
102
RTVSPost2010Prop46
 90
       50
102
RTVSPost2010PropOp46
 70
     0
102
RTVSPost2010Prop47
 90
       50
102
RTVSPost2010PropOp47
 70
     0
102
RTVSPost2010Prop48
 90
       50
102
RTVSPost2010PropOp48
 70
     0
102
RTVSPost2010Prop49
280
     0
102
RTVSPost2010PropOp49
 70
     1
102
RTVSPost2010Prop50
 90
       50
102
RTVSPost2010PropOp50
 70
     0
102
RTVSPost2010Prop51ColorIndex
 90
      256
102
RTVSPost2010Prop51ColorRGB
 90
-16777216
102
RTVSPost2010PropOp51
 70
     0
102
RTVSPost2010Prop52
140
1.0
102
RTVSPost2010PropOp52
 70
     0
102
RTVSPost2010Prop53
 90
        2
102
RTVSPost2010PropOp53
 70
     0
102
RTVSPost2010Prop54
  1
strokes_ogs.tif
102
RTVSPost2010PropOp54
 70
     0
102
RTVSPost2010Prop55
280
     0
102
RTVSPost2010PropOp55
 70
     1
102
RTVSPost2010Prop56
140
1.0
102
RTVSPost2010PropOp56
 70
     0
102
RTVSPost2010Prop57
140
1.0
102
RTVSPost2010PropOp57
 70
     0
102
RTVSPropertyOp0
 70
     0
102
RTVSPropertyOp1
 70
     0
102
RTVSPropertyOp2
 70
     0
102
RTVSPropertyOp3
 70
     0
102
RTVSPropertyOp4
 70
     0
102
RTVSPropertyOp5
 70
     0
102
RTVSPropertyOp6
 70
     0
102
RTVSPropertyOp7
 70
     0
102
RTVSPropertyOp8
 70
     0
102
RTVSPropertyOp9
 70
     0
102
RTVSPropertyOp10
 70
     0
102
RTVSPropertyOp11
 70
     0
102
RTVSPropertyOp12
 70
     0
102
RTVSPropertyOp13
 70
     0
102
RTVSPropertyOp14
 70
     2
102
RTVSPropertyOp15
 70
     0
102
RTVSPropertyOp16
 70
     0
102
RTVSPropertyOp17
 70
     0
102
RTVSPropertyOp18
 70
     0
102
RTVSPropertyOp19
 70
     0
102
RTVSPropertyOp20
 70
     0
102
RTVSPropertyOp21
 70
     0
102
RTVSPropertyOp22
 70
     0
102
RTVSPropertyOp23
 70
     0
102
RTVSPropertyOp24
 70
     0
102
RTVSPropertyOp25
 70
     0
102
RTVSPropertyOp26
 70
     0
102
RTVSPropertyOp27
 70
     0
102
RTVSPropertyOp28
 70
     1
102
RTVSPropertyOp29
 70
     1
102
RTVSPropertyOp30
 70
     1
102
RTVSPropertyOp31
 70
     1
102
RTVSPropertyOp32
 70
     1
102
RTVSPropertyOp33
 70
     1
102
RTVSPropertyOp34
 70
     1
102
RTVSPropertyOp35
 70
     1
102
RTVSPropertyOp36
 70
     1
102
RTVSPropertyOp37
 70
     0
102
RTVSPropertyOp38
 70
     0
102
RTVSPropertyOp39
 70
     0
102
RTVSPropertyOp40
 70
     0
102
RTVSPropertyOp41
 70
     0
102
RTVSPropertyOp42
 70
     0
102
RTVSPropertyOp43
 70
     0
102
RTVSPropertyOp44
 70
     0
102
RTVSPropertyOp45
 70
     1
102
RTVSPropertyOp46
 70
     0
102
RTVSPropertyOp47
 70
     0
102
RTVSPropertyOp48
 70
     0
102
RTVSPropertyOp49
 70
     1
102
RTVSPropertyOp50
 70
     0
102
RTVSPropertyOp51
 70
     0
102
RTVSPropertyOp52
 70
     0
102
RTVSPropertyOp53
 70
     0
102
RTVSPropertyOp54
 70
     0
102
RTVSPropertyOp55
 70
     1
102
RTVSPropertyOp56
 70
     0
102
RTVSPropertyOp57
 70
     0
102
RTVSPropertyOp58
 70
     0
102
RTVSPropertyOp59
 70
     0
102
RTVSPropertyOp60
 70
     0
102
RTVSPropertyOp61
 70
     0
102
RTVSPropertyOp62
 70
     0
  0
XRECORD
  5
A008
102
{ACAD_REACTORS
330
A007
102
}
330
A007
100
AcDbXrecord
280
     1
102
RTVSPost2010Prop28
280
     0
102
RTVSPost2010PropOp28
 70
     1
102
RTVSPost2010Prop29
280
     1
102
RTVSPost2010PropOp29
 70
     1
102
RTVSPost2010Prop30
280
     1
102
RTVSPost2010PropOp30
 70
     1
102
RTVSPost2010Prop31
280
     0
102
RTVSPost2010PropOp31
 70
     1
102
RTVSPost2010Prop32
280
     0
102
RTVSPost2010PropOp32
 70
     1
102
RTVSPost2010Prop33
280
     0
102
RTVSPost2010PropOp33
 70
     1
102
RTVSPost2010Prop34
280
     0
102
RTVSPost2010PropOp34
 70
     1
102
RTVSPost2010Prop35
280
     0
102
RTVSPost2010PropOp35
 70
     1
102
RTVSPost2010Prop36
280
     0
102
RTVSPost2010PropOp36
 70
     1
102
RTVSPost2010Prop37
 90
       50
102
RTVSPost2010PropOp37
 70
     1
102
RTVSPost2010Prop38
140
0.0
102
RTVSPost2010PropOp38
 70
     1
102
RTVSPost2010Prop39
140
1.0
102
RTVSPost2010PropOp39
 70
     1
102
RTVSPost2010Prop40
 90
        0
102
RTVSPost2010PropOp40
 70
     1
102
RTVSPost2010Prop41ColorIndex
 90
       18
102
RTVSPost2010Prop41ColorRGB
 90
        0
102
RTVSPost2010PropOp41
 70
     1
102
RTVSPost2010Prop42
 90
       50
102
RTVSPost2010PropOp42
 70
     1
102
RTVSPost2010Prop43
 90
        3
102
RTVSPost2010PropOp43
 70
     1
102
RTVSPost2010Prop44ColorIndex
 90
        5
102
RTVSPost2010Prop44ColorRGB
 90
      255
102
RTVSPost2010PropOp44
 70
     1
102
RTVSPost2010Prop45
280
     0
102
RTVSPost2010PropOp45
 70
     1
102
RTVSPost2010Prop46
 90
       50
102
RTVSPost2010PropOp46
 70
     1
102
RTVSPost2010Prop47
 90
       50
102
RTVSPost2010PropOp47
 70
     1
102
RTVSPost2010Prop48
 90
       50
102
RTVSPost2010PropOp48
 70
     1
102
RTVSPost2010Prop49
280
     0
102
RTVSPost2010PropOp49
 70
     1
102
RTVSPost2010Prop50
 90
       50
102
RTVSPost2010PropOp50
 70
     1
102
RTVSPost2010Prop51ColorIndex
 90
      256
102
RTVSPost2010Prop51ColorRGB
 90
-16777216
102
RTVSPost2010PropOp51
 70
     0
102
RTVSPost2010Prop52
140
1.0
102
RTVSPost2010PropOp52
 70
     0
102
RTVSPost2010Prop53
 90
        2
102
RTVSPost2010PropOp53
 70
     1
102
RTVSPost2010Prop54
  1
strokes_ogs.tif
102
RTVSPost2010PropOp54
 70
     1
102
RTVSPost2010Prop55
280
     0
102
RTVSPost2010PropOp55
 70
     1
102
RTVSPost2010Prop56
140
1.0
102
RTVSPost2010PropOp56
 70
     1
102
RTVSPost2010Prop57
140
1.0
102
RTVSPost2010PropOp57
 70
     1
102
RTVSPropertyOp0
 70
     1
102
RTVSPropertyOp1
 70
     1
102
RTVSPropertyOp2
 70
     1
102
RTVSPropertyOp3
 70
     1
102
RTVSPropertyOp4
 70
     1
102
RTVSPropertyOp5
 70
     1
102
RTVSPropertyOp6
 70
     1
102
RTVSPropertyOp7
 70
     1
102
RTVSPropertyOp8
 70
     1
102
RTVSPropertyOp9
 70
     1
102
RTVSPropertyOp10
 70
     1
102
RTVSPropertyOp11
 70
     1
102
RTVSPropertyOp12
 70
     1
102
RTVSPropertyOp13
 70
     1
102
RTVSPropertyOp14
 70
     1
102
RTVSPropertyOp15
 70
     1
102
RTVSPropertyOp16
 70
     1
102
RTVSPropertyOp17
 70
     1
102
RTVSPropertyOp18
 70
     1
102
RTVSPropertyOp19
 70
     1
102
RTVSPropertyOp20
 70
     1
102
RTVSPropertyOp21
 70
     1
102
RTVSPropertyOp22
 70
     1
102
RTVSPropertyOp23
 70
     1
102
RTVSPropertyOp24
 70
     1
102
RTVSPropertyOp25
 70
     1
102
RTVSPropertyOp26
 70
     1
102
RTVSPropertyOp27
 70
     1
102
RTVSPropertyOp28
 70
     1
102
RTVSPropertyOp29
 70
     1
102
RTVSPropertyOp30
 70
     1
102
RTVSPropertyOp31
 70
     1
102
RTVSPropertyOp32
 70
     1
102
RTVSPropertyOp33
 70
     1
102
RTVSPropertyOp34
 70
     1
102
RTVSPropertyOp35
 70
     1
102
RTVSPropertyOp36
 70
     1
102
RTVSPropertyOp37
 70
     1
102
RTVSPropertyOp38
 70
     1
102
RTVSPropertyOp39
 70
     1
102
RTVSPropertyOp40
 70
     1
102
RTVSPropertyOp41
 70
     1
102
RTVSPropertyOp42
 70
     1
102
RTVSPropertyOp43
 70
     1
102
RTVSPropertyOp44
 70
     1
102
RTVSPropertyOp45
 70
     1
102
RTVSPropertyOp46
 70
     1
102
RTVSPropertyOp47
 70
     1
102
RTVSPropertyOp48
 70
     1
102
RTVSPropertyOp49
 70
     1
102
RTVSPropertyOp50
 70
     1
102
RTVSPropertyOp51
 70
     0
102
RTVSPropertyOp52
 70
     0
102
RTVSPropertyOp53
 70
     1
102
RTVSPropertyOp54
 70
     1
102
RTVSPropertyOp55
 70
     1
102
RTVSPropertyOp56
 70
     1
102
RTVSPropertyOp57
 70
     1
102
RTVSPropertyOp58
 70
     1
102
RTVSPropertyOp59
 70
     1
102
RTVSPropertyOp60
 70
     1
102
RTVSPropertyOp61
 70
     1
102
RTVSPropertyOp62
 70
     1
  0
XRECORD
  5
9FEC
102
{ACAD_REACTORS
330
9FEB
102
}
330
9FEB
100
AcDbXrecord
280
     1
102
RTVSPost2010Prop28
280
     0
102
RTVSPost2010PropOp28
 70
     1
102
RTVSPost2010Prop29
280
     1
102
RTVSPost2010PropOp29
 70
     1
102
RTVSPost2010Prop30
280
     1
102
RTVSPost2010PropOp30
 70
     1
102
RTVSPost2010Prop31
280
     0
102
RTVSPost2010PropOp31
 70
     1
102
RTVSPost2010Prop32
280
     0
102
RTVSPost2010PropOp32
 70
     1
102
RTVSPost2010Prop33
280
     0
102
RTVSPost2010PropOp33
 70
     1
102
RTVSPost2010Prop34
280
     0
102
RTVSPost2010PropOp34
 70
     1
102
RTVSPost2010Prop35
280
     0
102
RTVSPost2010PropOp35
 70
     1
102
RTVSPost2010Prop36
280
     0
102
RTVSPost2010PropOp36
 70
     1
102
RTVSPost2010Prop37
 90
       50
102
RTVSPost2010PropOp37
 70
     1
102
RTVSPost2010Prop38
140
0.0
102
RTVSPost2010PropOp38
 70
     1
102
RTVSPost2010Prop39
140
1.0
102
RTVSPost2010PropOp39
 70
     1
102
RTVSPost2010Prop40
 90
        0
102
RTVSPost2010PropOp40
 70
     1
102
RTVSPost2010Prop41ColorIndex
 90
       18
102
RTVSPost2010Prop41ColorRGB
 90
        0
102
RTVSPost2010PropOp41
 70
     1
102
RTVSPost2010Prop42
 90
       50
102
RTVSPost2010PropOp42
 70
     1
102
RTVSPost2010Prop43
 90
        3
102
RTVSPost2010PropOp43
 70
     1
102
RTVSPost2010Prop44ColorIndex
 90
        5
102
RTVSPost2010Prop44ColorRGB
 90
      255
102
RTVSPost2010PropOp44
 70
     1
102
RTVSPost2010Prop45
280
     0
102
RTVSPost2010PropOp45
 70
     1
102
RTVSPost2010Prop46
 90
       50
102
RTVSPost2010PropOp46
 70
     1
102
RTVSPost2010Prop47
 90
       50
102
RTVSPost2010PropOp47
 70
     1
102
RTVSPost2010Prop48
 90
       50
102
RTVSPost2010PropOp48
 70
     1
102
RTVSPost2010Prop49
280
     0
102
RTVSPost2010PropOp49
 70
     1
102
RTVSPost2010Prop50
 90
       50
102
RTVSPost2010PropOp50
 70
     1
102
RTVSPost2010Prop51ColorIndex
 90
      256
102
RTVSPost2010Prop51ColorRGB
 90
-16777216
102
RTVSPost2010PropOp51
 70
     0
102
RTVSPost2010Prop52
140
1.0
102
RTVSPost2010PropOp52
 70
     0
102
RTVSPost2010Prop53
 90
        2
102
RTVSPost2010PropOp53
 70
     1
102
RTVSPost2010Prop54
  1
strokes_ogs.tif
102
RTVSPost2010PropOp54
 70
     1
102
RTVSPost2010Prop55
280
     0
102
RTVSPost2010PropOp55
 70
     1
102
RTVSPost2010Prop56
140
1.0
102
RTVSPost2010PropOp56
 70
     1
102
RTVSPost2010Prop57
140
1.0
102
RTVSPost2010PropOp57
 70
     1
102
RTVSPropertyOp0
 70
     1
102
RTVSPropertyOp1
 70
     1
102
RTVSPropertyOp2
 70
     1
102
RTVSPropertyOp3
 70
     1
102
RTVSPropertyOp4
 70
     1
102
RTVSPropertyOp5
 70
     1
102
RTVSPropertyOp6
 70
     1
102
RTVSPropertyOp7
 70
     1
102
RTVSPropertyOp8
 70
     1
102
RTVSPropertyOp9
 70
     1
102
RTVSPropertyOp10
 70
     1
102
RTVSPropertyOp11
 70
     1
102
RTVSPropertyOp12
 70
     1
102
RTVSPropertyOp13
 70
     1
102
RTVSPropertyOp14
 70
     1
102
RTVSPropertyOp15
 70
     1
102
RTVSPropertyOp16
 70
     1
102
RTVSPropertyOp17
 70
     1
102
RTVSPropertyOp18
 70
     1
102
RTVSPropertyOp19
 70
     1
102
RTVSPropertyOp20
 70
     1
102
RTVSPropertyOp21
 70
     1
102
RTVSPropertyOp22
 70
     1
102
RTVSPropertyOp23
 70
     1
102
RTVSPropertyOp24
 70
     1
102
RTVSPropertyOp25
 70
     1
102
RTVSPropertyOp26
 70
     1
102
RTVSPropertyOp27
 70
     1
102
RTVSPropertyOp28
 70
     1
102
RTVSPropertyOp29
 70
     1
102
RTVSPropertyOp30
 70
     1
102
RTVSPropertyOp31
 70
     1
102
RTVSPropertyOp32
 70
     1
102
RTVSPropertyOp33
 70
     1
102
RTVSPropertyOp34
 70
     1
102
RTVSPropertyOp35
 70
     1
102
RTVSPropertyOp36
 70
     1
102
RTVSPropertyOp37
 70
     1
102
RTVSPropertyOp38
 70
     1
102
RTVSPropertyOp39
 70
     1
102
RTVSPropertyOp40
 70
     1
102
RTVSPropertyOp41
 70
     1
102
RTVSPropertyOp42
 70
     1
102
RTVSPropertyOp43
 70
     1
102
RTVSPropertyOp44
 70
     1
102
RTVSPropertyOp45
 70
     1
102
RTVSPropertyOp46
 70
     1
102
RTVSPropertyOp47
 70
     1
102
RTVSPropertyOp48
 70
     1
102
RTVSPropertyOp49
 70
     1
102
RTVSPropertyOp50
 70
     1
102
RTVSPropertyOp51
 70
     0
102
RTVSPropertyOp52
 70
     0
102
RTVSPropertyOp53
 70
     1
102
RTVSPropertyOp54
 70
     1
102
RTVSPropertyOp55
 70
     1
102
RTVSPropertyOp56
 70
     1
102
RTVSPropertyOp57
 70
     1
102
RTVSPropertyOp58
 70
     1
102
RTVSPropertyOp59
 70
     1
102
RTVSPropertyOp60
 70
     1
102
RTVSPropertyOp61
 70
     1
102
RTVSPropertyOp62
 70
     1
  0
XRECORD
  5
9FEE
102
{ACAD_REACTORS
330
9FED
102
}
330
9FED
100
AcDbXrecord
280
     1
102
RTVSPost2010Prop28
280
     0
102
RTVSPost2010PropOp28
 70
     1
102
RTVSPost2010Prop29
280
     1
102
RTVSPost2010PropOp29
 70
     1
102
RTVSPost2010Prop30
280
     1
102
RTVSPost2010PropOp30
 70
     1
102
RTVSPost2010Prop31
280
     0
102
RTVSPost2010PropOp31
 70
     1
102
RTVSPost2010Prop32
280
     0
102
RTVSPost2010PropOp32
 70
     1
102
RTVSPost2010Prop33
280
     0
102
RTVSPost2010PropOp33
 70
     1
102
RTVSPost2010Prop34
280
     0
102
RTVSPost2010PropOp34
 70
     1
102
RTVSPost2010Prop35
280
     0
102
RTVSPost2010PropOp35
 70
     1
102
RTVSPost2010Prop36
280
     0
102
RTVSPost2010PropOp36
 70
     1
102
RTVSPost2010Prop37
 90
       50
102
RTVSPost2010PropOp37
 70
     1
102
RTVSPost2010Prop38
140
0.0
102
RTVSPost2010PropOp38
 70
     1
102
RTVSPost2010Prop39
140
1.0
102
RTVSPost2010PropOp39
 70
     1
102
RTVSPost2010Prop40
 90
        0
102
RTVSPost2010PropOp40
 70
     1
102
RTVSPost2010Prop41ColorIndex
 90
       18
102
RTVSPost2010Prop41ColorRGB
 90
        0
102
RTVSPost2010PropOp41
 70
     1
102
RTVSPost2010Prop42
 90
       50
102
RTVSPost2010PropOp42
 70
     1
102
RTVSPost2010Prop43
 90
        3
102
RTVSPost2010PropOp43
 70
     1
102
RTVSPost2010Prop44ColorIndex
 90
        5
102
RTVSPost2010Prop44ColorRGB
 90
      255
102
RTVSPost2010PropOp44
 70
     1
102
RTVSPost2010Prop45
280
     0
102
RTVSPost2010PropOp45
 70
     1
102
RTVSPost2010Prop46
 90
       50
102
RTVSPost2010PropOp46
 70
     1
102
RTVSPost2010Prop47
 90
       50
102
RTVSPost2010PropOp47
 70
     1
102
RTVSPost2010Prop48
 90
       50
102
RTVSPost2010PropOp48
 70
     1
102
RTVSPost2010Prop49
280
     0
102
RTVSPost2010PropOp49
 70
     1
102
RTVSPost2010Prop50
 90
       50
102
RTVSPost2010PropOp50
 70
     1
102
RTVSPost2010Prop51ColorIndex
 90
      256
102
RTVSPost2010Prop51ColorRGB
 90
-16777216
102
RTVSPost2010PropOp51
 70
     0
102
RTVSPost2010Prop52
140
1.0
102
RTVSPost2010PropOp52
 70
     0
102
RTVSPost2010Prop53
 90
        2
102
RTVSPost2010PropOp53
 70
     1
102
RTVSPost2010Prop54
  1
strokes_ogs.tif
102
RTVSPost2010PropOp54
 70
     1
102
RTVSPost2010Prop55
280
     0
102
RTVSPost2010PropOp55
 70
     1
102
RTVSPost2010Prop56
140
1.0
102
RTVSPost2010PropOp56
 70
     1
102
RTVSPost2010Prop57
140
1.0
102
RTVSPost2010PropOp57
 70
     1
102
RTVSPropertyOp0
 70
     1
102
RTVSPropertyOp1
 70
     1
102
RTVSPropertyOp2
 70
     1
102
RTVSPropertyOp3
 70
     1
102
RTVSPropertyOp4
 70
     1
102
RTVSPropertyOp5
 70
     1
102
RTVSPropertyOp6
 70
     1
102
RTVSPropertyOp7
 70
     1
102
RTVSPropertyOp8
 70
     1
102
RTVSPropertyOp9
 70
     1
102
RTVSPropertyOp10
 70
     1
102
RTVSPropertyOp11
 70
     1
102
RTVSPropertyOp12
 70
     1
102
RTVSPropertyOp13
 70
     1
102
RTVSPropertyOp14
 70
     1
102
RTVSPropertyOp15
 70
     1
102
RTVSPropertyOp16
 70
     1
102
RTVSPropertyOp17
 70
     1
102
RTVSPropertyOp18
 70
     1
102
RTVSPropertyOp19
 70
     1
102
RTVSPropertyOp20
 70
     1
102
RTVSPropertyOp21
 70
     1
102
RTVSPropertyOp22
 70
     1
102
RTVSPropertyOp23
 70
     1
102
RTVSPropertyOp24
 70
     1
102
RTVSPropertyOp25
 70
     1
102
RTVSPropertyOp26
 70
     1
102
RTVSPropertyOp27
 70
     1
102
RTVSPropertyOp28
 70
     1
102
RTVSPropertyOp29
 70
     1
102
RTVSPropertyOp30
 70
     1
102
RTVSPropertyOp31
 70
     1
102
RTVSPropertyOp32
 70
     1
102
RTVSPropertyOp33
 70
     1
102
RTVSPropertyOp34
 70
     1
102
RTVSPropertyOp35
 70
     1
102
RTVSPropertyOp36
 70
     1
102
RTVSPropertyOp37
 70
     1
102
RTVSPropertyOp38
 70
     1
102
RTVSPropertyOp39
 70
     1
102
RTVSPropertyOp40
 70
     1
102
RTVSPropertyOp41
 70
     1
102
RTVSPropertyOp42
 70
     1
102
RTVSPropertyOp43
 70
     1
102
RTVSPropertyOp44
 70
     1
102
RTVSPropertyOp45
 70
     1
102
RTVSPropertyOp46
 70
     1
102
RTVSPropertyOp47
 70
     1
102
RTVSPropertyOp48
 70
     1
102
RTVSPropertyOp49
 70
     1
102
RTVSPropertyOp50
 70
     1
102
RTVSPropertyOp51
 70
     0
102
RTVSPropertyOp52
 70
     0
102
RTVSPropertyOp53
 70
     1
102
RTVSPropertyOp54
 70
     1
102
RTVSPropertyOp55
 70
     1
102
RTVSPropertyOp56
 70
     1
102
RTVSPropertyOp57
 70
     1
102
RTVSPropertyOp58
 70
     1
102
RTVSPropertyOp59
 70
     1
102
RTVSPropertyOp60
 70
     1
102
RTVSPropertyOp61
 70
     1
102
RTVSPropertyOp62
 70
     1
  0
XRECORD
  5
9FF0
102
{ACAD_REACTORS
330
9FEF
102
}
330
9FEF
100
AcDbXrecord
280
     1
102
RTVSPost2010Prop28
280
     0
102
RTVSPost2010PropOp28
 70
     1
102
RTVSPost2010Prop29
280
     1
102
RTVSPost2010PropOp29
 70
     1
102
RTVSPost2010Prop30
280
     1
102
RTVSPost2010PropOp30
 70
     1
102
RTVSPost2010Prop31
280
     0
102
RTVSPost2010PropOp31
 70
     1
102
RTVSPost2010Prop32
280
     0
102
RTVSPost2010PropOp32
 70
     1
102
RTVSPost2010Prop33
280
     0
102
RTVSPost2010PropOp33
 70
     1
102
RTVSPost2010Prop34
280
     0
102
RTVSPost2010PropOp34
 70
     1
102
RTVSPost2010Prop35
280
     0
102
RTVSPost2010PropOp35
 70
     1
102
RTVSPost2010Prop36
280
     0
102
RTVSPost2010PropOp36
 70
     1
102
RTVSPost2010Prop37
 90
       50
102
RTVSPost2010PropOp37
 70
     1
102
RTVSPost2010Prop38
140
0.0
102
RTVSPost2010PropOp38
 70
     1
102
RTVSPost2010Prop39
140
1.0
102
RTVSPost2010PropOp39
 70
     1
102
RTVSPost2010Prop40
 90
        0
102
RTVSPost2010PropOp40
 70
     1
102
RTVSPost2010Prop41ColorIndex
 90
       18
102
RTVSPost2010Prop41ColorRGB
 90
        0
102
RTVSPost2010PropOp41
 70
     1
102
RTVSPost2010Prop42
 90
       50
102
RTVSPost2010PropOp42
 70
     1
102
RTVSPost2010Prop43
 90
        3
102
RTVSPost2010PropOp43
 70
     1
102
RTVSPost2010Prop44ColorIndex
 90
        5
102
RTVSPost2010Prop44ColorRGB
 90
      255
102
RTVSPost2010PropOp44
 70
     1
102
RTVSPost2010Prop45
280
     0
102
RTVSPost2010PropOp45
 70
     1
102
RTVSPost2010Prop46
 90
       50
102
RTVSPost2010PropOp46
 70
     1
102
RTVSPost2010Prop47
 90
       50
102
RTVSPost2010PropOp47
 70
     1
102
RTVSPost2010Prop48
 90
       50
102
RTVSPost2010PropOp48
 70
     1
102
RTVSPost2010Prop49
280
     0
102
RTVSPost2010PropOp49
 70
     1
102
RTVSPost2010Prop50
 90
       50
102
RTVSPost2010PropOp50
 70
     1
102
RTVSPost2010Prop51ColorIndex
 90
      256
102
RTVSPost2010Prop51ColorRGB
 90
-16777216
102
RTVSPost2010PropOp51
 70
     0
102
RTVSPost2010Prop52
140
1.0
102
RTVSPost2010PropOp52
 70
     0
102
RTVSPost2010Prop53
 90
        2
102
RTVSPost2010PropOp53
 70
     1
102
RTVSPost2010Prop54
  1
strokes_ogs.tif
102
RTVSPost2010PropOp54
 70
     1
102
RTVSPost2010Prop55
280
     0
102
RTVSPost2010PropOp55
 70
     1
102
RTVSPost2010Prop56
140
1.0
102
RTVSPost2010PropOp56
 70
     1
102
RTVSPost2010Prop57
140
1.0
102
RTVSPost2010PropOp57
 70
     1
102
RTVSPropertyOp0
 70
     1
102
RTVSPropertyOp1
 70
     1
102
RTVSPropertyOp2
 70
     1
102
RTVSPropertyOp3
 70
     1
102
RTVSPropertyOp4
 70
     1
102
RTVSPropertyOp5
 70
     1
102
RTVSPropertyOp6
 70
     1
102
RTVSPropertyOp7
 70
     1
102
RTVSPropertyOp8
 70
     1
102
RTVSPropertyOp9
 70
     1
102
RTVSPropertyOp10
 70
     1
102
RTVSPropertyOp11
 70
     1
102
RTVSPropertyOp12
 70
     1
102
RTVSPropertyOp13
 70
     1
102
RTVSPropertyOp14
 70
     1
102
RTVSPropertyOp15
 70
     1
102
RTVSPropertyOp16
 70
     1
102
RTVSPropertyOp17
 70
     1
102
RTVSPropertyOp18
 70
     1
102
RTVSPropertyOp19
 70
     1
102
RTVSPropertyOp20
 70
     1
102
RTVSPropertyOp21
 70
     1
102
RTVSPropertyOp22
 70
     1
102
RTVSPropertyOp23
 70
     1
102
RTVSPropertyOp24
 70
     1
102
RTVSPropertyOp25
 70
     1
102
RTVSPropertyOp26
 70
     1
102
RTVSPropertyOp27
 70
     1
102
RTVSPropertyOp28
 70
     1
102
RTVSPropertyOp29
 70
     1
102
RTVSPropertyOp30
 70
     1
102
RTVSPropertyOp31
 70
     1
102
RTVSPropertyOp32
 70
     1
102
RTVSPropertyOp33
 70
     1
102
RTVSPropertyOp34
 70
     1
102
RTVSPropertyOp35
 70
     1
102
RTVSPropertyOp36
 70
     1
102
RTVSPropertyOp37
 70
     1
102
RTVSPropertyOp38
 70
     1
102
RTVSPropertyOp39
 70
     1
102
RTVSPropertyOp40
 70
     1
102
RTVSPropertyOp41
 70
     1
102
RTVSPropertyOp42
 70
     1
102
RTVSPropertyOp43
 70
     1
102
RTVSPropertyOp44
 70
     1
102
RTVSPropertyOp45
 70
     1
102
RTVSPropertyOp46
 70
     1
102
RTVSPropertyOp47
 70
     1
102
RTVSPropertyOp48
 70
     1
102
RTVSPropertyOp49
 70
     1
102
RTVSPropertyOp50
 70
     1
102
RTVSPropertyOp51
 70
     0
102
RTVSPropertyOp52
 70
     0
102
RTVSPropertyOp53
 70
     1
102
RTVSPropertyOp54
 70
     1
102
RTVSPropertyOp55
 70
     1
102
RTVSPropertyOp56
 70
     1
102
RTVSPropertyOp57
 70
     1
102
RTVSPropertyOp58
 70
     1
102
RTVSPropertyOp59
 70
     1
102
RTVSPropertyOp60
 70
     1
102
RTVSPropertyOp61
 70
     1
102
RTVSPropertyOp62
 70
     1
  0
XRECORD
  5
9FF2
102
{ACAD_REACTORS
330
9FF1
102
}
330
9FF1
100
AcDbXrecord
280
     1
102
RTVSPost2010Prop28
280
     0
102
RTVSPost2010PropOp28
 70
     1
102
RTVSPost2010Prop29
280
     1
102
RTVSPost2010PropOp29
 70
     1
102
RTVSPost2010Prop30
280
     1
102
RTVSPost2010PropOp30
 70
     1
102
RTVSPost2010Prop31
280
     0
102
RTVSPost2010PropOp31
 70
     1
102
RTVSPost2010Prop32
280
     0
102
RTVSPost2010PropOp32
 70
     1
102
RTVSPost2010Prop33
280
     0
102
RTVSPost2010PropOp33
 70
     1
102
RTVSPost2010Prop34
280
     0
102
RTVSPost2010PropOp34
 70
     1
102
RTVSPost2010Prop35
280
     0
102
RTVSPost2010PropOp35
 70
     1
102
RTVSPost2010Prop36
280
     0
102
RTVSPost2010PropOp36
 70
     1
102
RTVSPost2010Prop37
 90
       50
102
RTVSPost2010PropOp37
 70
     1
102
RTVSPost2010Prop38
140
0.0
102
RTVSPost2010PropOp38
 70
     1
102
RTVSPost2010Prop39
140
1.0
102
RTVSPost2010PropOp39
 70
     1
102
RTVSPost2010Prop40
 90
        0
102
RTVSPost2010PropOp40
 70
     1
102
RTVSPost2010Prop41ColorIndex
 90
       18
102
RTVSPost2010Prop41ColorRGB
 90
        0
102
RTVSPost2010PropOp41
 70
     1
102
RTVSPost2010Prop42
 90
       50
102
RTVSPost2010PropOp42
 70
     1
102
RTVSPost2010Prop43
 90
        3
102
RTVSPost2010PropOp43
 70
     1
102
RTVSPost2010Prop44ColorIndex
 90
        5
102
RTVSPost2010Prop44ColorRGB
 90
      255
102
RTVSPost2010PropOp44
 70
     1
102
RTVSPost2010Prop45
280
     0
102
RTVSPost2010PropOp45
 70
     1
102
RTVSPost2010Prop46
 90
       50
102
RTVSPost2010PropOp46
 70
     1
102
RTVSPost2010Prop47
 90
       50
102
RTVSPost2010PropOp47
 70
     1
102
RTVSPost2010Prop48
 90
       50
102
RTVSPost2010PropOp48
 70
     1
102
RTVSPost2010Prop49
280
     0
102
RTVSPost2010PropOp49
 70
     1
102
RTVSPost2010Prop50
 90
       50
102
RTVSPost2010PropOp50
 70
     1
102
RTVSPost2010Prop51ColorIndex
 90
      256
102
RTVSPost2010Prop51ColorRGB
 90
-16777216
102
RTVSPost2010PropOp51
 70
     0
102
RTVSPost2010Prop52
140
1.0
102
RTVSPost2010PropOp52
 70
     0
102
RTVSPost2010Prop53
 90
        2
102
RTVSPost2010PropOp53
 70
     1
102
RTVSPost2010Prop54
  1
strokes_ogs.tif
102
RTVSPost2010PropOp54
 70
     1
102
RTVSPost2010Prop55
280
     0
102
RTVSPost2010PropOp55
 70
     1
102
RTVSPost2010Prop56
140
1.0
102
RTVSPost2010PropOp56
 70
     1
102
RTVSPost2010Prop57
140
1.0
102
RTVSPost2010PropOp57
 70
     1
102
RTVSPropertyOp0
 70
     1
102
RTVSPropertyOp1
 70
     1
102
RTVSPropertyOp2
 70
     1
102
RTVSPropertyOp3
 70
     1
102
RTVSPropertyOp4
 70
     1
102
RTVSPropertyOp5
 70
     1
102
RTVSPropertyOp6
 70
     1
102
RTVSPropertyOp7
 70
     1
102
RTVSPropertyOp8
 70
     1
102
RTVSPropertyOp9
 70
     1
102
RTVSPropertyOp10
 70
     1
102
RTVSPropertyOp11
 70
     1
102
RTVSPropertyOp12
 70
     1
102
RTVSPropertyOp13
 70
     1
102
RTVSPropertyOp14
 70
     1
102
RTVSPropertyOp15
 70
     1
102
RTVSPropertyOp16
 70
     1
102
RTVSPropertyOp17
 70
     1
102
RTVSPropertyOp18
 70
     1
102
RTVSPropertyOp19
 70
     1
102
RTVSPropertyOp20
 70
     1
102
RTVSPropertyOp21
 70
     1
102
RTVSPropertyOp22
 70
     1
102
RTVSPropertyOp23
 70
     1
102
RTVSPropertyOp24
 70
     1
102
RTVSPropertyOp25
 70
     1
102
RTVSPropertyOp26
 70
     1
102
RTVSPropertyOp27
 70
     1
102
RTVSPropertyOp28
 70
     1
102
RTVSPropertyOp29
 70
     1
102
RTVSPropertyOp30
 70
     1
102
RTVSPropertyOp31
 70
     1
102
RTVSPropertyOp32
 70
     1
102
RTVSPropertyOp33
 70
     1
102
RTVSPropertyOp34
 70
     1
102
RTVSPropertyOp35
 70
     1
102
RTVSPropertyOp36
 70
     1
102
RTVSPropertyOp37
 70
     1
102
RTVSPropertyOp38
 70
     1
102
RTVSPropertyOp39
 70
     1
102
RTVSPropertyOp40
 70
     1
102
RTVSPropertyOp41
 70
     1
102
RTVSPropertyOp42
 70
     1
102
RTVSPropertyOp43
 70
     1
102
RTVSPropertyOp44
 70
     1
102
RTVSPropertyOp45
 70
     1
102
RTVSPropertyOp46
 70
     1
102
RTVSPropertyOp47
 70
     1
102
RTVSPropertyOp48
 70
     1
102
RTVSPropertyOp49
 70
     1
102
RTVSPropertyOp50
 70
     1
102
RTVSPropertyOp51
 70
     0
102
RTVSPropertyOp52
 70
     0
102
RTVSPropertyOp53
 70
     1
102
RTVSPropertyOp54
 70
     1
102
RTVSPropertyOp55
 70
     1
102
RTVSPropertyOp56
 70
     1
102
RTVSPropertyOp57
 70
     1
102
RTVSPropertyOp58
 70
     1
102
RTVSPropertyOp59
 70
     1
102
RTVSPropertyOp60
 70
     1
102
RTVSPropertyOp61
 70
     1
102
RTVSPropertyOp62
 70
     1
  0
XRECORD
  5
9FFA
102
{ACAD_REACTORS
330
9FF9
102
}
330
9FF9
100
AcDbXrecord
280
     1
102
RTVSPost2010Prop28
280
     0
102
RTVSPost2010PropOp28
 70
     1
102
RTVSPost2010Prop29
280
     1
102
RTVSPost2010PropOp29
 70
     1
102
RTVSPost2010Prop30
280
     1
102
RTVSPost2010PropOp30
 70
     1
102
RTVSPost2010Prop31
280
     0
102
RTVSPost2010PropOp31
 70
     1
102
RTVSPost2010Prop32
280
     0
102
RTVSPost2010PropOp32
 70
     1
102
RTVSPost2010Prop33
280
     0
102
RTVSPost2010PropOp33
 70
     1
102
RTVSPost2010Prop34
280
     0
102
RTVSPost2010PropOp34
 70
     1
102
RTVSPost2010Prop35
280
     0
102
RTVSPost2010PropOp35
 70
     1
102
RTVSPost2010Prop36
280
     0
102
RTVSPost2010PropOp36
 70
     1
102
RTVSPost2010Prop37
 90
       50
102
RTVSPost2010PropOp37
 70
     1
102
RTVSPost2010Prop38
140
0.0
102
RTVSPost2010PropOp38
 70
     1
102
RTVSPost2010Prop39
140
1.0
102
RTVSPost2010PropOp39
 70
     1
102
RTVSPost2010Prop40
 90
        0
102
RTVSPost2010PropOp40
 70
     1
102
RTVSPost2010Prop41ColorIndex
 90
       18
102
RTVSPost2010Prop41ColorRGB
 90
        0
102
RTVSPost2010PropOp41
 70
     1
102
RTVSPost2010Prop42
 90
       50
102
RTVSPost2010PropOp42
 70
     1
102
RTVSPost2010Prop43
 90
        3
102
RTVSPost2010PropOp43
 70
     1
102
RTVSPost2010Prop44ColorIndex
 90
        5
102
RTVSPost2010Prop44ColorRGB
 90
      255
102
RTVSPost2010PropOp44
 70
     1
102
RTVSPost2010Prop45
280
     0
102
RTVSPost2010PropOp45
 70
     1
102
RTVSPost2010Prop46
 90
       50
102
RTVSPost2010PropOp46
 70
     1
102
RTVSPost2010Prop47
 90
       50
102
RTVSPost2010PropOp47
 70
     1
102
RTVSPost2010Prop48
 90
       50
102
RTVSPost2010PropOp48
 70
     1
102
RTVSPost2010Prop49
280
     0
102
RTVSPost2010PropOp49
 70
     1
102
RTVSPost2010Prop50
 90
       50
102
RTVSPost2010PropOp50
 70
     1
102
RTVSPost2010Prop51ColorIndex
 90
      256
102
RTVSPost2010Prop51ColorRGB
 90
-16777216
102
RTVSPost2010PropOp51
 70
     0
102
RTVSPost2010Prop52
140
1.0
102
RTVSPost2010PropOp52
 70
     0
102
RTVSPost2010Prop53
 90
        2
102
RTVSPost2010PropOp53
 70
     1
102
RTVSPost2010Prop54
  1
strokes_ogs.tif
102
RTVSPost2010PropOp54
 70
     1
102
RTVSPost2010Prop55
280
     0
102
RTVSPost2010PropOp55
 70
     1
102
RTVSPost2010Prop56
140
1.0
102
RTVSPost2010PropOp56
 70
     1
102
RTVSPost2010Prop57
140
1.0
102
RTVSPost2010PropOp57
 70
     1
102
RTVSPropertyOp0
 70
     1
102
RTVSPropertyOp1
 70
     1
102
RTVSPropertyOp2
 70
     1
102
RTVSPropertyOp3
 70
     1
102
RTVSPropertyOp4
 70
     1
102
RTVSPropertyOp5
 70
     1
102
RTVSPropertyOp6
 70
     1
102
RTVSPropertyOp7
 70
     1
102
RTVSPropertyOp8
 70
     1
102
RTVSPropertyOp9
 70
     1
102
RTVSPropertyOp10
 70
     1
102
RTVSPropertyOp11
 70
     1
102
RTVSPropertyOp12
 70
     1
102
RTVSPropertyOp13
 70
     1
102
RTVSPropertyOp14
 70
     1
102
RTVSPropertyOp15
 70
     1
102
RTVSPropertyOp16
 70
     1
102
RTVSPropertyOp17
 70
     1
102
RTVSPropertyOp18
 70
     1
102
RTVSPropertyOp19
 70
     1
102
RTVSPropertyOp20
 70
     1
102
RTVSPropertyOp21
 70
     1
102
RTVSPropertyOp22
 70
     1
102
RTVSPropertyOp23
 70
     1
102
RTVSPropertyOp24
 70
     1
102
RTVSPropertyOp25
 70
     1
102
RTVSPropertyOp26
 70
     1
102
RTVSPropertyOp27
 70
     1
102
RTVSPropertyOp28
 70
     1
102
RTVSPropertyOp29
 70
     1
102
RTVSPropertyOp30
 70
     1
102
RTVSPropertyOp31
 70
     1
102
RTVSPropertyOp32
 70
     1
102
RTVSPropertyOp33
 70
     1
102
RTVSPropertyOp34
 70
     1
102
RTVSPropertyOp35
 70
     1
102
RTVSPropertyOp36
 70
     1
102
RTVSPropertyOp37
 70
     1
102
RTVSPropertyOp38
 70
     1
102
RTVSPropertyOp39
 70
     1
102
RTVSPropertyOp40
 70
     1
102
RTVSPropertyOp41
 70
     1
102
RTVSPropertyOp42
 70
     1
102
RTVSPropertyOp43
 70
     1
102
RTVSPropertyOp44
 70
     1
102
RTVSPropertyOp45
 70
     1
102
RTVSPropertyOp46
 70
     1
102
RTVSPropertyOp47
 70
     1
102
RTVSPropertyOp48
 70
     1
102
RTVSPropertyOp49
 70
     1
102
RTVSPropertyOp50
 70
     1
102
RTVSPropertyOp51
 70
     0
102
RTVSPropertyOp52
 70
     0
102
RTVSPropertyOp53
 70
     1
102
RTVSPropertyOp54
 70
     1
102
RTVSPropertyOp55
 70
     1
102
RTVSPropertyOp56
 70
     1
102
RTVSPropertyOp57
 70
     1
102
RTVSPropertyOp58
 70
     1
102
RTVSPropertyOp59
 70
     1
102
RTVSPropertyOp60
 70
     1
102
RTVSPropertyOp61
 70
     1
102
RTVSPropertyOp62
 70
     1
  0
XRECORD
  5
A016
102
{ACAD_REACTORS
330
A015
102
}
330
A015
100
AcDbXrecord
280
     1
102
RTVSPost2010Prop28
280
     0
102
RTVSPost2010PropOp28
 70
     1
102
RTVSPost2010Prop29
280
     1
102
RTVSPost2010PropOp29
 70
     1
102
RTVSPost2010Prop30
280
     1
102
RTVSPost2010PropOp30
 70
     1
102
RTVSPost2010Prop31
280
     0
102
RTVSPost2010PropOp31
 70
     1
102
RTVSPost2010Prop32
280
     0
102
RTVSPost2010PropOp32
 70
     1
102
RTVSPost2010Prop33
280
     0
102
RTVSPost2010PropOp33
 70
     1
102
RTVSPost2010Prop34
280
     0
102
RTVSPost2010PropOp34
 70
     1
102
RTVSPost2010Prop35
280
     0
102
RTVSPost2010PropOp35
 70
     1
102
RTVSPost2010Prop36
280
     0
102
RTVSPost2010PropOp36
 70
     1
102
RTVSPost2010Prop37
 90
       50
102
RTVSPost2010PropOp37
 70
     0
102
RTVSPost2010Prop38
140
0.0
102
RTVSPost2010PropOp38
 70
     0
102
RTVSPost2010Prop39
140
1.0
102
RTVSPost2010PropOp39
 70
     0
102
RTVSPost2010Prop40
 90
        0
102
RTVSPost2010PropOp40
 70
     0
102
RTVSPost2010Prop41ColorIndex
 90
       18
102
RTVSPost2010Prop41ColorRGB
 90
        0
102
RTVSPost2010PropOp41
 70
     0
102
RTVSPost2010Prop42
 90
       50
102
RTVSPost2010PropOp42
 70
     0
102
RTVSPost2010Prop43
 90
        3
102
RTVSPost2010PropOp43
 70
     0
102
RTVSPost2010Prop44ColorIndex
 90
        5
102
RTVSPost2010Prop44ColorRGB
 90
      255
102
RTVSPost2010PropOp44
 70
     0
102
RTVSPost2010Prop45
280
     0
102
RTVSPost2010PropOp45
 70
     1
102
RTVSPost2010Prop46
 90
       50
102
RTVSPost2010PropOp46
 70
     0
102
RTVSPost2010Prop47
 90
       50
102
RTVSPost2010PropOp47
 70
     0
102
RTVSPost2010Prop48
 90
       50
102
RTVSPost2010PropOp48
 70
     0
102
RTVSPost2010Prop49
280
     0
102
RTVSPost2010PropOp49
 70
     1
102
RTVSPost2010Prop50
 90
       50
102
RTVSPost2010PropOp50
 70
     0
102
RTVSPost2010Prop51ColorIndex
 90
      256
102
RTVSPost2010Prop51ColorRGB
 90
-16777216
102
RTVSPost2010PropOp51
 70
     0
102
RTVSPost2010Prop52
140
1.0
102
RTVSPost2010PropOp52
 70
     0
102
RTVSPost2010Prop53
 90
        2
102
RTVSPost2010PropOp53
 70
     0
102
RTVSPost2010Prop54
  1
strokes_ogs.tif
102
RTVSPost2010PropOp54
 70
     0
102
RTVSPost2010Prop55
280
     0
102
RTVSPost2010PropOp55
 70
     1
102
RTVSPost2010Prop56
140
1.0
102
RTVSPost2010PropOp56
 70
     0
102
RTVSPost2010Prop57
140
1.0
102
RTVSPost2010PropOp57
 70
     0
102
RTVSPropertyOp0
 70
     0
102
RTVSPropertyOp1
 70
     0
102
RTVSPropertyOp2
 70
     0
102
RTVSPropertyOp3
 70
     0
102
RTVSPropertyOp4
 70
     0
102
RTVSPropertyOp5
 70
     0
102
RTVSPropertyOp6
 70
     0
102
RTVSPropertyOp7
 70
     0
102
RTVSPropertyOp8
 70
     0
102
RTVSPropertyOp9
 70
     0
102
RTVSPropertyOp10
 70
     0
102
RTVSPropertyOp11
 70
     0
102
RTVSPropertyOp12
 70
     0
102
RTVSPropertyOp13
 70
     0
102
RTVSPropertyOp14
 70
     2
102
RTVSPropertyOp15
 70
     0
102
RTVSPropertyOp16
 70
     0
102
RTVSPropertyOp17
 70
     0
102
RTVSPropertyOp18
 70
     0
102
RTVSPropertyOp19
 70
     0
102
RTVSPropertyOp20
 70
     0
102
RTVSPropertyOp21
 70
     0
102
RTVSPropertyOp22
 70
     0
102
RTVSPropertyOp23
 70
     0
102
RTVSPropertyOp24
 70
     0
102
RTVSPropertyOp25
 70
     0
102
RTVSPropertyOp26
 70
     0
102
RTVSPropertyOp27
 70
     0
102
RTVSPropertyOp28
 70
     1
102
RTVSPropertyOp29
 70
     1
102
RTVSPropertyOp30
 70
     1
102
RTVSPropertyOp31
 70
     1
102
RTVSPropertyOp32
 70
     1
102
RTVSPropertyOp33
 70
     1
102
RTVSPropertyOp34
 70
     1
102
RTVSPropertyOp35
 70
     1
102
RTVSPropertyOp36
 70
     1
102
RTVSPropertyOp37
 70
     0
102
RTVSPropertyOp38
 70
     0
102
RTVSPropertyOp39
 70
     0
102
RTVSPropertyOp40
 70
     0
102
RTVSPropertyOp41
 70
     0
102
RTVSPropertyOp42
 70
     0
102
RTVSPropertyOp43
 70
     0
102
RTVSPropertyOp44
 70
     0
102
RTVSPropertyOp45
 70
     1
102
RTVSPropertyOp46
 70
     0
102
RTVSPropertyOp47
 70
     0
102
RTVSPropertyOp48
 70
     0
102
RTVSPropertyOp49
 70
     1
102
RTVSPropertyOp50
 70
     0
102
RTVSPropertyOp51
 70
     0
102
RTVSPropertyOp52
 70
     0
102
RTVSPropertyOp53
 70
     0
102
RTVSPropertyOp54
 70
     0
102
RTVSPropertyOp55
 70
     1
102
RTVSPropertyOp56
 70
     0
102
RTVSPropertyOp57
 70
     0
102
RTVSPropertyOp58
 70
     0
102
RTVSPropertyOp59
 70
     0
102
RTVSPropertyOp60
 70
     0
102
RTVSPropertyOp61
 70
     0
102
RTVSPropertyOp62
 70
     0
  0
XRECORD
  5
A006
102
{ACAD_REACTORS
330
A005
102
}
330
A005
100
AcDbXrecord
280
     1
102
RTVSPost2010Prop28
280
     0
102
RTVSPost2010PropOp28
 70
     1
102
RTVSPost2010Prop29
280
     1
102
RTVSPost2010PropOp29
 70
     1
102
RTVSPost2010Prop30
280
     1
102
RTVSPost2010PropOp30
 70
     1
102
RTVSPost2010Prop31
280
     0
102
RTVSPost2010PropOp31
 70
     1
102
RTVSPost2010Prop32
280
     0
102
RTVSPost2010PropOp32
 70
     1
102
RTVSPost2010Prop33
280
     0
102
RTVSPost2010PropOp33
 70
     1
102
RTVSPost2010Prop34
280
     0
102
RTVSPost2010PropOp34
 70
     1
102
RTVSPost2010Prop35
280
     0
102
RTVSPost2010PropOp35
 70
     1
102
RTVSPost2010Prop36
280
     0
102
RTVSPost2010PropOp36
 70
     1
102
RTVSPost2010Prop37
 90
       50
102
RTVSPost2010PropOp37
 70
     1
102
RTVSPost2010Prop38
140
0.0
102
RTVSPost2010PropOp38
 70
     1
102
RTVSPost2010Prop39
140
1.0
102
RTVSPost2010PropOp39
 70
     1
102
RTVSPost2010Prop40
 90
        0
102
RTVSPost2010PropOp40
 70
     1
102
RTVSPost2010Prop41ColorIndex
 90
       18
102
RTVSPost2010Prop41ColorRGB
 90
        0
102
RTVSPost2010PropOp41
 70
     1
102
RTVSPost2010Prop42
 90
       50
102
RTVSPost2010PropOp42
 70
     1
102
RTVSPost2010Prop43
 90
        3
102
RTVSPost2010PropOp43
 70
     1
102
RTVSPost2010Prop44ColorIndex
 90
        5
102
RTVSPost2010Prop44ColorRGB
 90
      255
102
RTVSPost2010PropOp44
 70
     1
102
RTVSPost2010Prop45
280
     0
102
RTVSPost2010PropOp45
 70
     1
102
RTVSPost2010Prop46
 90
       50
102
RTVSPost2010PropOp46
 70
     1
102
RTVSPost2010Prop47
 90
       50
102
RTVSPost2010PropOp47
 70
     1
102
RTVSPost2010Prop48
 90
       50
102
RTVSPost2010PropOp48
 70
     1
102
RTVSPost2010Prop49
280
     0
102
RTVSPost2010PropOp49
 70
     1
102
RTVSPost2010Prop50
 90
       50
102
RTVSPost2010PropOp50
 70
     1
102
RTVSPost2010Prop51ColorIndex
 90
      256
102
RTVSPost2010Prop51ColorRGB
 90
-16777216
102
RTVSPost2010PropOp51
 70
     0
102
RTVSPost2010Prop52
140
1.0
102
RTVSPost2010PropOp52
 70
     0
102
RTVSPost2010Prop53
 90
        2
102
RTVSPost2010PropOp53
 70
     1
102
RTVSPost2010Prop54
  1
strokes_ogs.tif
102
RTVSPost2010PropOp54
 70
     1
102
RTVSPost2010Prop55
280
     0
102
RTVSPost2010PropOp55
 70
     1
102
RTVSPost2010Prop56
140
1.0
102
RTVSPost2010PropOp56
 70
     1
102
RTVSPost2010Prop57
140
1.0
102
RTVSPost2010PropOp57
 70
     1
102
RTVSPropertyOp0
 70
     1
102
RTVSPropertyOp1
 70
     1
102
RTVSPropertyOp2
 70
     1
102
RTVSPropertyOp3
 70
     1
102
RTVSPropertyOp4
 70
     1
102
RTVSPropertyOp5
 70
     1
102
RTVSPropertyOp6
 70
     1
102
RTVSPropertyOp7
 70
     1
102
RTVSPropertyOp8
 70
     1
102
RTVSPropertyOp9
 70
     1
102
RTVSPropertyOp10
 70
     1
102
RTVSPropertyOp11
 70
     1
102
RTVSPropertyOp12
 70
     1
102
RTVSPropertyOp13
 70
     1
102
RTVSPropertyOp14
 70
     1
102
RTVSPropertyOp15
 70
     1
102
RTVSPropertyOp16
 70
     1
102
RTVSPropertyOp17
 70
     1
102
RTVSPropertyOp18
 70
     1
102
RTVSPropertyOp19
 70
     1
102
RTVSPropertyOp20
 70
     1
102
RTVSPropertyOp21
 70
     1
102
RTVSPropertyOp22
 70
     1
102
RTVSPropertyOp23
 70
     1
102
RTVSPropertyOp24
 70
     1
102
RTVSPropertyOp25
 70
     1
102
RTVSPropertyOp26
 70
     1
102
RTVSPropertyOp27
 70
     1
102
RTVSPropertyOp28
 70
     1
102
RTVSPropertyOp29
 70
     1
102
RTVSPropertyOp30
 70
     1
102
RTVSPropertyOp31
 70
     1
102
RTVSPropertyOp32
 70
     1
102
RTVSPropertyOp33
 70
     1
102
RTVSPropertyOp34
 70
     1
102
RTVSPropertyOp35
 70
     1
102
RTVSPropertyOp36
 70
     1
102
RTVSPropertyOp37
 70
     1
102
RTVSPropertyOp38
 70
     1
102
RTVSPropertyOp39
 70
     1
102
RTVSPropertyOp40
 70
     1
102
RTVSPropertyOp41
 70
     1
102
RTVSPropertyOp42
 70
     1
102
RTVSPropertyOp43
 70
     1
102
RTVSPropertyOp44
 70
     1
102
RTVSPropertyOp45
 70
     1
102
RTVSPropertyOp46
 70
     1
102
RTVSPropertyOp47
 70
     1
102
RTVSPropertyOp48
 70
     1
102
RTVSPropertyOp49
 70
     1
102
RTVSPropertyOp50
 70
     1
102
RTVSPropertyOp51
 70
     0
102
RTVSPropertyOp52
 70
     0
102
RTVSPropertyOp53
 70
     1
102
RTVSPropertyOp54
 70
     1
102
RTVSPropertyOp55
 70
     1
102
RTVSPropertyOp56
 70
     1
102
RTVSPropertyOp57
 70
     1
102
RTVSPropertyOp58
 70
     1
102
RTVSPropertyOp59
 70
     1
102
RTVSPropertyOp60
 70
     1
102
RTVSPropertyOp61
 70
     1
102
RTVSPropertyOp62
 70
     1
  0
XRECORD
  5
A018
102
{ACAD_REACTORS
330
A017
102
}
330
A017
100
AcDbXrecord
280
     1
102
RTVSPost2010Prop28
280
     0
102
RTVSPost2010PropOp28
 70
     1
102
RTVSPost2010Prop29
280
     1
102
RTVSPost2010PropOp29
 70
     1
102
RTVSPost2010Prop30
280
     1
102
RTVSPost2010PropOp30
 70
     1
102
RTVSPost2010Prop31
280
     0
102
RTVSPost2010PropOp31
 70
     1
102
RTVSPost2010Prop32
280
     0
102
RTVSPost2010PropOp32
 70
     1
102
RTVSPost2010Prop33
280
     0
102
RTVSPost2010PropOp33
 70
     1
102
RTVSPost2010Prop34
280
     0
102
RTVSPost2010PropOp34
 70
     1
102
RTVSPost2010Prop35
280
     0
102
RTVSPost2010PropOp35
 70
     1
102
RTVSPost2010Prop36
280
     0
102
RTVSPost2010PropOp36
 70
     1
102
RTVSPost2010Prop37
 90
       50
102
RTVSPost2010PropOp37
 70
     0
102
RTVSPost2010Prop38
140
0.0
102
RTVSPost2010PropOp38
 70
     0
102
RTVSPost2010Prop39
140
1.0
102
RTVSPost2010PropOp39
 70
     0
102
RTVSPost2010Prop40
 90
        0
102
RTVSPost2010PropOp40
 70
     0
102
RTVSPost2010Prop41ColorIndex
 90
       18
102
RTVSPost2010Prop41ColorRGB
 90
        0
102
RTVSPost2010PropOp41
 70
     0
102
RTVSPost2010Prop42
 90
       50
102
RTVSPost2010PropOp42
 70
     0
102
RTVSPost2010Prop43
 90
        3
102
RTVSPost2010PropOp43
 70
     0
102
RTVSPost2010Prop44ColorIndex
 90
        5
102
RTVSPost2010Prop44ColorRGB
 90
      255
102
RTVSPost2010PropOp44
 70
     0
102
RTVSPost2010Prop45
280
     0
102
RTVSPost2010PropOp45
 70
     1
102
RTVSPost2010Prop46
 90
       50
102
RTVSPost2010PropOp46
 70
     0
102
RTVSPost2010Prop47
 90
       50
102
RTVSPost2010PropOp47
 70
     0
102
RTVSPost2010Prop48
 90
       50
102
RTVSPost2010PropOp48
 70
     0
102
RTVSPost2010Prop49
280
     0
102
RTVSPost2010PropOp49
 70
     1
102
RTVSPost2010Prop50
 90
       50
102
RTVSPost2010PropOp50
 70
     0
102
RTVSPost2010Prop51ColorIndex
 90
      256
102
RTVSPost2010Prop51ColorRGB
 90
-16777216
102
RTVSPost2010PropOp51
 70
     0
102
RTVSPost2010Prop52
140
1.0
102
RTVSPost2010PropOp52
 70
     0
102
RTVSPost2010Prop53
 90
        2
102
RTVSPost2010PropOp53
 70
     0
102
RTVSPost2010Prop54
  1
strokes_ogs.tif
102
RTVSPost2010PropOp54
 70
     0
102
RTVSPost2010Prop55
280
     0
102
RTVSPost2010PropOp55
 70
     1
102
RTVSPost2010Prop56
140
1.0
102
RTVSPost2010PropOp56
 70
     0
102
RTVSPost2010Prop57
140
1.0
102
RTVSPost2010PropOp57
 70
     0
102
RTVSPropertyOp0
 70
     0
102
RTVSPropertyOp1
 70
     0
102
RTVSPropertyOp2
 70
     0
102
RTVSPropertyOp3
 70
     0
102
RTVSPropertyOp4
 70
     0
102
RTVSPropertyOp5
 70
     0
102
RTVSPropertyOp6
 70
     0
102
RTVSPropertyOp7
 70
     0
102
RTVSPropertyOp8
 70
     0
102
RTVSPropertyOp9
 70
     0
102
RTVSPropertyOp10
 70
     0
102
RTVSPropertyOp11
 70
     0
102
RTVSPropertyOp12
 70
     0
102
RTVSPropertyOp13
 70
     0
102
RTVSPropertyOp14
 70
     2
102
RTVSPropertyOp15
 70
     0
102
RTVSPropertyOp16
 70
     0
102
RTVSPropertyOp17
 70
     0
102
RTVSPropertyOp18
 70
     0
102
RTVSPropertyOp19
 70
     0
102
RTVSPropertyOp20
 70
     0
102
RTVSPropertyOp21
 70
     0
102
RTVSPropertyOp22
 70
     0
102
RTVSPropertyOp23
 70
     0
102
RTVSPropertyOp24
 70
     0
102
RTVSPropertyOp25
 70
     0
102
RTVSPropertyOp26
 70
     0
102
RTVSPropertyOp27
 70
     0
102
RTVSPropertyOp28
 70
     1
102
RTVSPropertyOp29
 70
     1
102
RTVSPropertyOp30
 70
     1
102
RTVSPropertyOp31
 70
     1
102
RTVSPropertyOp32
 70
     1
102
RTVSPropertyOp33
 70
     1
102
RTVSPropertyOp34
 70
     1
102
RTVSPropertyOp35
 70
     1
102
RTVSPropertyOp36
 70
     1
102
RTVSPropertyOp37
 70
     0
102
RTVSPropertyOp38
 70
     0
102
RTVSPropertyOp39
 70
     0
102
RTVSPropertyOp40
 70
     0
102
RTVSPropertyOp41
 70
     0
102
RTVSPropertyOp42
 70
     0
102
RTVSPropertyOp43
 70
     0
102
RTVSPropertyOp44
 70
     0
102
RTVSPropertyOp45
 70
     1
102
RTVSPropertyOp46
 70
     0
102
RTVSPropertyOp47
 70
     0
102
RTVSPropertyOp48
 70
     0
102
RTVSPropertyOp49
 70
     1
102
RTVSPropertyOp50
 70
     0
102
RTVSPropertyOp51
 70
     0
102
RTVSPropertyOp52
 70
     0
102
RTVSPropertyOp53
 70
     0
102
RTVSPropertyOp54
 70
     0
102
RTVSPropertyOp55
 70
     1
102
RTVSPropertyOp56
 70
     0
102
RTVSPropertyOp57
 70
     0
102
RTVSPropertyOp58
 70
     0
102
RTVSPropertyOp59
 70
     0
102
RTVSPropertyOp60
 70
     0
102
RTVSPropertyOp61
 70
     0
102
RTVSPropertyOp62
 70
     0
  0
XRECORD
  5
9FFE
102
{ACAD_REACTORS
330
9FFD
102
}
330
9FFD
100
AcDbXrecord
280
     1
102
RTVSPost2010Prop28
280
     0
102
RTVSPost2010PropOp28
 70
     1
102
RTVSPost2010Prop29
280
     1
102
RTVSPost2010PropOp29
 70
     1
102
RTVSPost2010Prop30
280
     1
102
RTVSPost2010PropOp30
 70
     1
102
RTVSPost2010Prop31
280
     0
102
RTVSPost2010PropOp31
 70
     1
102
RTVSPost2010Prop32
280
     0
102
RTVSPost2010PropOp32
 70
     1
102
RTVSPost2010Prop33
280
     0
102
RTVSPost2010PropOp33
 70
     1
102
RTVSPost2010Prop34
280
     0
102
RTVSPost2010PropOp34
 70
     1
102
RTVSPost2010Prop35
280
     0
102
RTVSPost2010PropOp35
 70
     1
102
RTVSPost2010Prop36
280
     0
102
RTVSPost2010PropOp36
 70
     1
102
RTVSPost2010Prop37
 90
       50
102
RTVSPost2010PropOp37
 70
     1
102
RTVSPost2010Prop38
140
0.0
102
RTVSPost2010PropOp38
 70
     1
102
RTVSPost2010Prop39
140
1.0
102
RTVSPost2010PropOp39
 70
     1
102
RTVSPost2010Prop40
 90
        0
102
RTVSPost2010PropOp40
 70
     1
102
RTVSPost2010Prop41ColorIndex
 90
       18
102
RTVSPost2010Prop41ColorRGB
 90
        0
102
RTVSPost2010PropOp41
 70
     1
102
RTVSPost2010Prop42
 90
       50
102
RTVSPost2010PropOp42
 70
     1
102
RTVSPost2010Prop43
 90
        3
102
RTVSPost2010PropOp43
 70
     1
102
RTVSPost2010Prop44ColorIndex
 90
        5
102
RTVSPost2010Prop44ColorRGB
 90
      255
102
RTVSPost2010PropOp44
 70
     1
102
RTVSPost2010Prop45
280
     0
102
RTVSPost2010PropOp45
 70
     1
102
RTVSPost2010Prop46
 90
       50
102
RTVSPost2010PropOp46
 70
     1
102
RTVSPost2010Prop47
 90
       50
102
RTVSPost2010PropOp47
 70
     1
102
RTVSPost2010Prop48
 90
       50
102
RTVSPost2010PropOp48
 70
     1
102
RTVSPost2010Prop49
280
     0
102
RTVSPost2010PropOp49
 70
     1
102
RTVSPost2010Prop50
 90
       50
102
RTVSPost2010PropOp50
 70
     1
102
RTVSPost2010Prop51ColorIndex
 90
      256
102
RTVSPost2010Prop51ColorRGB
 90
-16777216
102
RTVSPost2010PropOp51
 70
     0
102
RTVSPost2010Prop52
140
1.0
102
RTVSPost2010PropOp52
 70
     0
102
RTVSPost2010Prop53
 90
        2
102
RTVSPost2010PropOp53
 70
     1
102
RTVSPost2010Prop54
  1
strokes_ogs.tif
102
RTVSPost2010PropOp54
 70
     1
102
RTVSPost2010Prop55
280
     0
102
RTVSPost2010PropOp55
 70
     1
102
RTVSPost2010Prop56
140
1.0
102
RTVSPost2010PropOp56
 70
     1
102
RTVSPost2010Prop57
140
1.0
102
RTVSPost2010PropOp57
 70
     1
102
RTVSPropertyOp0
 70
     1
102
RTVSPropertyOp1
 70
     1
102
RTVSPropertyOp2
 70
     1
102
RTVSPropertyOp3
 70
     1
102
RTVSPropertyOp4
 70
     1
102
RTVSPropertyOp5
 70
     1
102
RTVSPropertyOp6
 70
     1
102
RTVSPropertyOp7
 70
     1
102
RTVSPropertyOp8
 70
     1
102
RTVSPropertyOp9
 70
     1
102
RTVSPropertyOp10
 70
     1
102
RTVSPropertyOp11
 70
     1
102
RTVSPropertyOp12
 70
     1
102
RTVSPropertyOp13
 70
     1
102
RTVSPropertyOp14
 70
     1
102
RTVSPropertyOp15
 70
     1
102
RTVSPropertyOp16
 70
     1
102
RTVSPropertyOp17
 70
     1
102
RTVSPropertyOp18
 70
     1
102
RTVSPropertyOp19
 70
     1
102
RTVSPropertyOp20
 70
     1
102
RTVSPropertyOp21
 70
     1
102
RTVSPropertyOp22
 70
     1
102
RTVSPropertyOp23
 70
     1
102
RTVSPropertyOp24
 70
     1
102
RTVSPropertyOp25
 70
     1
102
RTVSPropertyOp26
 70
     1
102
RTVSPropertyOp27
 70
     1
102
RTVSPropertyOp28
 70
     1
102
RTVSPropertyOp29
 70
     1
102
RTVSPropertyOp30
 70
     1
102
RTVSPropertyOp31
 70
     1
102
RTVSPropertyOp32
 70
     1
102
RTVSPropertyOp33
 70
     1
102
RTVSPropertyOp34
 70
     1
102
RTVSPropertyOp35
 70
     1
102
RTVSPropertyOp36
 70
     1
102
RTVSPropertyOp37
 70
     1
102
RTVSPropertyOp38
 70
     1
102
RTVSPropertyOp39
 70
     1
102
RTVSPropertyOp40
 70
     1
102
RTVSPropertyOp41
 70
     1
102
RTVSPropertyOp42
 70
     1
102
RTVSPropertyOp43
 70
     1
102
RTVSPropertyOp44
 70
     1
102
RTVSPropertyOp45
 70
     1
102
RTVSPropertyOp46
 70
     1
102
RTVSPropertyOp47
 70
     1
102
RTVSPropertyOp48
 70
     1
102
RTVSPropertyOp49
 70
     1
102
RTVSPropertyOp50
 70
     1
102
RTVSPropertyOp51
 70
     0
102
RTVSPropertyOp52
 70
     0
102
RTVSPropertyOp53
 70
     1
102
RTVSPropertyOp54
 70
     1
102
RTVSPropertyOp55
 70
     1
102
RTVSPropertyOp56
 70
     1
102
RTVSPropertyOp57
 70
     1
102
RTVSPropertyOp58
 70
     1
102
RTVSPropertyOp59
 70
     1
102
RTVSPropertyOp60
 70
     1
102
RTVSPropertyOp61
 70
     1
102
RTVSPropertyOp62
 70
     1
  0
XRECORD
  5
A014
102
{ACAD_REACTORS
330
A013
102
}
330
A013
100
AcDbXrecord
280
     1
102
RTVSPost2010Prop28
280
     0
102
RTVSPost2010PropOp28
 70
     1
102
RTVSPost2010Prop29
280
     1
102
RTVSPost2010PropOp29
 70
     1
102
RTVSPost2010Prop30
280
     1
102
RTVSPost2010PropOp30
 70
     1
102
RTVSPost2010Prop31
280
     0
102
RTVSPost2010PropOp31
 70
     1
102
RTVSPost2010Prop32
280
     0
102
RTVSPost2010PropOp32
 70
     1
102
RTVSPost2010Prop33
280
     0
102
RTVSPost2010PropOp33
 70
     1
102
RTVSPost2010Prop34
280
     0
102
RTVSPost2010PropOp34
 70
     1
102
RTVSPost2010Prop35
280
     0
102
RTVSPost2010PropOp35
 70
     1
102
RTVSPost2010Prop36
280
     0
102
RTVSPost2010PropOp36
 70
     1
102
RTVSPost2010Prop37
 90
       50
102
RTVSPost2010PropOp37
 70
     1
102
RTVSPost2010Prop38
140
0.0
102
RTVSPost2010PropOp38
 70
     1
102
RTVSPost2010Prop39
140
1.0
102
RTVSPost2010PropOp39
 70
     1
102
RTVSPost2010Prop40
 90
        0
102
RTVSPost2010PropOp40
 70
     1
102
RTVSPost2010Prop41ColorIndex
 90
       18
102
RTVSPost2010Prop41ColorRGB
 90
        0
102
RTVSPost2010PropOp41
 70
     1
102
RTVSPost2010Prop42
 90
       50
102
RTVSPost2010PropOp42
 70
     1
102
RTVSPost2010Prop43
 90
        3
102
RTVSPost2010PropOp43
 70
     1
102
RTVSPost2010Prop44ColorIndex
 90
        5
102
RTVSPost2010Prop44ColorRGB
 90
      255
102
RTVSPost2010PropOp44
 70
     1
102
RTVSPost2010Prop45
280
     0
102
RTVSPost2010PropOp45
 70
     1
102
RTVSPost2010Prop46
 90
       50
102
RTVSPost2010PropOp46
 70
     1
102
RTVSPost2010Prop47
 90
       50
102
RTVSPost2010PropOp47
 70
     1
102
RTVSPost2010Prop48
 90
       50
102
RTVSPost2010PropOp48
 70
     1
102
RTVSPost2010Prop49
280
     0
102
RTVSPost2010PropOp49
 70
     1
102
RTVSPost2010Prop50
 90
       50
102
RTVSPost2010PropOp50
 70
     1
102
RTVSPost2010Prop51ColorIndex
 90
      256
102
RTVSPost2010Prop51ColorRGB
 90
-16777216
102
RTVSPost2010PropOp51
 70
     0
102
RTVSPost2010Prop52
140
1.0
102
RTVSPost2010PropOp52
 70
     0
102
RTVSPost2010Prop53
 90
        2
102
RTVSPost2010PropOp53
 70
     1
102
RTVSPost2010Prop54
  1
strokes_ogs.tif
102
RTVSPost2010PropOp54
 70
     1
102
RTVSPost2010Prop55
280
     0
102
RTVSPost2010PropOp55
 70
     1
102
RTVSPost2010Prop56
140
1.0
102
RTVSPost2010PropOp56
 70
     1
102
RTVSPost2010Prop57
140
1.0
102
RTVSPost2010PropOp57
 70
     1
102
RTVSPropertyOp0
 70
     1
102
RTVSPropertyOp1
 70
     1
102
RTVSPropertyOp2
 70
     1
102
RTVSPropertyOp3
 70
     1
102
RTVSPropertyOp4
 70
     1
102
RTVSPropertyOp5
 70
     1
102
RTVSPropertyOp6
 70
     1
102
RTVSPropertyOp7
 70
     1
102
RTVSPropertyOp8
 70
     1
102
RTVSPropertyOp9
 70
     1
102
RTVSPropertyOp10
 70
     1
102
RTVSPropertyOp11
 70
     1
102
RTVSPropertyOp12
 70
     1
102
RTVSPropertyOp13
 70
     1
102
RTVSPropertyOp14
 70
     1
102
RTVSPropertyOp15
 70
     1
102
RTVSPropertyOp16
 70
     1
102
RTVSPropertyOp17
 70
     1
102
RTVSPropertyOp18
 70
     1
102
RTVSPropertyOp19
 70
     1
102
RTVSPropertyOp20
 70
     1
102
RTVSPropertyOp21
 70
     1
102
RTVSPropertyOp22
 70
     1
102
RTVSPropertyOp23
 70
     1
102
RTVSPropertyOp24
 70
     1
102
RTVSPropertyOp25
 70
     1
102
RTVSPropertyOp26
 70
     1
102
RTVSPropertyOp27
 70
     1
102
RTVSPropertyOp28
 70
     1
102
RTVSPropertyOp29
 70
     1
102
RTVSPropertyOp30
 70
     1
102
RTVSPropertyOp31
 70
     1
102
RTVSPropertyOp32
 70
     1
102
RTVSPropertyOp33
 70
     1
102
RTVSPropertyOp34
 70
     1
102
RTVSPropertyOp35
 70
     1
102
RTVSPropertyOp36
 70
     1
102
RTVSPropertyOp37
 70
     1
102
RTVSPropertyOp38
 70
     1
102
RTVSPropertyOp39
 70
     1
102
RTVSPropertyOp40
 70
     1
102
RTVSPropertyOp41
 70
     1
102
RTVSPropertyOp42
 70
     1
102
RTVSPropertyOp43
 70
     1
102
RTVSPropertyOp44
 70
     1
102
RTVSPropertyOp45
 70
     1
102
RTVSPropertyOp46
 70
     1
102
RTVSPropertyOp47
 70
     1
102
RTVSPropertyOp48
 70
     1
102
RTVSPropertyOp49
 70
     1
102
RTVSPropertyOp50
 70
     1
102
RTVSPropertyOp51
 70
     0
102
RTVSPropertyOp52
 70
     0
102
RTVSPropertyOp53
 70
     1
102
RTVSPropertyOp54
 70
     1
102
RTVSPropertyOp55
 70
     1
102
RTVSPropertyOp56
 70
     1
102
RTVSPropertyOp57
 70
     1
102
RTVSPropertyOp58
 70
     1
102
RTVSPropertyOp59
 70
     1
102
RTVSPropertyOp60
 70
     1
102
RTVSPropertyOp61
 70
     1
102
RTVSPropertyOp62
 70
     1
  0
XRECORD
  5
A012
102
{ACAD_REACTORS
330
A011
102
}
330
A011
100
AcDbXrecord
280
     1
102
RTVSPost2010Prop28
280
     0
102
RTVSPost2010PropOp28
 70
     1
102
RTVSPost2010Prop29
280
     1
102
RTVSPost2010PropOp29
 70
     1
102
RTVSPost2010Prop30
280
     1
102
RTVSPost2010PropOp30
 70
     1
102
RTVSPost2010Prop31
280
     0
102
RTVSPost2010PropOp31
 70
     1
102
RTVSPost2010Prop32
280
     0
102
RTVSPost2010PropOp32
 70
     1
102
RTVSPost2010Prop33
280
     0
102
RTVSPost2010PropOp33
 70
     1
102
RTVSPost2010Prop34
280
     0
102
RTVSPost2010PropOp34
 70
     1
102
RTVSPost2010Prop35
280
     0
102
RTVSPost2010PropOp35
 70
     1
102
RTVSPost2010Prop36
280
     0
102
RTVSPost2010PropOp36
 70
     1
102
RTVSPost2010Prop37
 90
       50
102
RTVSPost2010PropOp37
 70
     1
102
RTVSPost2010Prop38
140
0.0
102
RTVSPost2010PropOp38
 70
     1
102
RTVSPost2010Prop39
140
1.0
102
RTVSPost2010PropOp39
 70
     1
102
RTVSPost2010Prop40
 90
        0
102
RTVSPost2010PropOp40
 70
     1
102
RTVSPost2010Prop41ColorIndex
 90
       18
102
RTVSPost2010Prop41ColorRGB
 90
        0
102
RTVSPost2010PropOp41
 70
     1
102
RTVSPost2010Prop42
 90
       50
102
RTVSPost2010PropOp42
 70
     1
102
RTVSPost2010Prop43
 90
        3
102
RTVSPost2010PropOp43
 70
     1
102
RTVSPost2010Prop44ColorIndex
 90
        5
102
RTVSPost2010Prop44ColorRGB
 90
      255
102
RTVSPost2010PropOp44
 70
     1
102
RTVSPost2010Prop45
280
     0
102
RTVSPost2010PropOp45
 70
     1
102
RTVSPost2010Prop46
 90
       50
102
RTVSPost2010PropOp46
 70
     1
102
RTVSPost2010Prop47
 90
       50
102
RTVSPost2010PropOp47
 70
     1
102
RTVSPost2010Prop48
 90
       50
102
RTVSPost2010PropOp48
 70
     1
102
RTVSPost2010Prop49
280
     0
102
RTVSPost2010PropOp49
 70
     1
102
RTVSPost2010Prop50
 90
       50
102
RTVSPost2010PropOp50
 70
     1
102
RTVSPost2010Prop51ColorIndex
 90
      256
102
RTVSPost2010Prop51ColorRGB
 90
-16777216
102
RTVSPost2010PropOp51
 70
     0
102
RTVSPost2010Prop52
140
1.0
102
RTVSPost2010PropOp52
 70
     0
102
RTVSPost2010Prop53
 90
        2
102
RTVSPost2010PropOp53
 70
     1
102
RTVSPost2010Prop54
  1
strokes_ogs.tif
102
RTVSPost2010PropOp54
 70
     1
102
RTVSPost2010Prop55
280
     0
102
RTVSPost2010PropOp55
 70
     1
102
RTVSPost2010Prop56
140
1.0
102
RTVSPost2010PropOp56
 70
     1
102
RTVSPost2010Prop57
140
1.0
102
RTVSPost2010PropOp57
 70
     1
102
RTVSPropertyOp0
 70
     1
102
RTVSPropertyOp1
 70
     1
102
RTVSPropertyOp2
 70
     1
102
RTVSPropertyOp3
 70
     1
102
RTVSPropertyOp4
 70
     1
102
RTVSPropertyOp5
 70
     1
102
RTVSPropertyOp6
 70
     1
102
RTVSPropertyOp7
 70
     1
102
RTVSPropertyOp8
 70
     1
102
RTVSPropertyOp9
 70
     1
102
RTVSPropertyOp10
 70
     1
102
RTVSPropertyOp11
 70
     1
102
RTVSPropertyOp12
 70
     1
102
RTVSPropertyOp13
 70
     1
102
RTVSPropertyOp14
 70
     1
102
RTVSPropertyOp15
 70
     1
102
RTVSPropertyOp16
 70
     1
102
RTVSPropertyOp17
 70
     1
102
RTVSPropertyOp18
 70
     1
102
RTVSPropertyOp19
 70
     1
102
RTVSPropertyOp20
 70
     1
102
RTVSPropertyOp21
 70
     1
102
RTVSPropertyOp22
 70
     1
102
RTVSPropertyOp23
 70
     1
102
RTVSPropertyOp24
 70
     1
102
RTVSPropertyOp25
 70
     1
102
RTVSPropertyOp26
 70
     1
102
RTVSPropertyOp27
 70
     1
102
RTVSPropertyOp28
 70
     1
102
RTVSPropertyOp29
 70
     1
102
RTVSPropertyOp30
 70
     1
102
RTVSPropertyOp31
 70
     1
102
RTVSPropertyOp32
 70
     1
102
RTVSPropertyOp33
 70
     1
102
RTVSPropertyOp34
 70
     1
102
RTVSPropertyOp35
 70
     1
102
RTVSPropertyOp36
 70
     1
102
RTVSPropertyOp37
 70
     1
102
RTVSPropertyOp38
 70
     1
102
RTVSPropertyOp39
 70
     1
102
RTVSPropertyOp40
 70
     1
102
RTVSPropertyOp41
 70
     1
102
RTVSPropertyOp42
 70
     1
102
RTVSPropertyOp43
 70
     1
102
RTVSPropertyOp44
 70
     1
102
RTVSPropertyOp45
 70
     1
102
RTVSPropertyOp46
 70
     1
102
RTVSPropertyOp47
 70
     1
102
RTVSPropertyOp48
 70
     1
102
RTVSPropertyOp49
 70
     1
102
RTVSPropertyOp50
 70
     1
102
RTVSPropertyOp51
 70
     0
102
RTVSPropertyOp52
 70
     0
102
RTVSPropertyOp53
 70
     1
102
RTVSPropertyOp54
 70
     1
102
RTVSPropertyOp55
 70
     1
102
RTVSPropertyOp56
 70
     1
102
RTVSPropertyOp57
 70
     1
102
RTVSPropertyOp58
 70
     1
102
RTVSPropertyOp59
 70
     1
102
RTVSPropertyOp60
 70
     1
102
RTVSPropertyOp61
 70
     1
102
RTVSPropertyOp62
 70
     1
  0
XRECORD
  5
A00C
102
{ACAD_REACTORS
330
A00B
102
}
330
A00B
100
AcDbXrecord
280
     1
102
RTVSPost2010Prop28
280
     0
102
RTVSPost2010PropOp28
 70
     1
102
RTVSPost2010Prop29
280
     1
102
RTVSPost2010PropOp29
 70
     1
102
RTVSPost2010Prop30
280
     1
102
RTVSPost2010PropOp30
 70
     1
102
RTVSPost2010Prop31
280
     0
102
RTVSPost2010PropOp31
 70
     1
102
RTVSPost2010Prop32
280
     0
102
RTVSPost2010PropOp32
 70
     1
102
RTVSPost2010Prop33
280
     0
102
RTVSPost2010PropOp33
 70
     1
102
RTVSPost2010Prop34
280
     0
102
RTVSPost2010PropOp34
 70
     1
102
RTVSPost2010Prop35
280
     0
102
RTVSPost2010PropOp35
 70
     1
102
RTVSPost2010Prop36
280
     0
102
RTVSPost2010PropOp36
 70
     1
102
RTVSPost2010Prop37
 90
       50
102
RTVSPost2010PropOp37
 70
     1
102
RTVSPost2010Prop38
140
0.0
102
RTVSPost2010PropOp38
 70
     1
102
RTVSPost2010Prop39
140
1.0
102
RTVSPost2010PropOp39
 70
     1
102
RTVSPost2010Prop40
 90
        0
102
RTVSPost2010PropOp40
 70
     1
102
RTVSPost2010Prop41ColorIndex
 90
       18
102
RTVSPost2010Prop41ColorRGB
 90
        0
102
RTVSPost2010PropOp41
 70
     1
102
RTVSPost2010Prop42
 90
       50
102
RTVSPost2010PropOp42
 70
     1
102
RTVSPost2010Prop43
 90
        3
102
RTVSPost2010PropOp43
 70
     1
102
RTVSPost2010Prop44ColorIndex
 90
        5
102
RTVSPost2010Prop44ColorRGB
 90
      255
102
RTVSPost2010PropOp44
 70
     1
102
RTVSPost2010Prop45
280
     0
102
RTVSPost2010PropOp45
 70
     1
102
RTVSPost2010Prop46
 90
       50
102
RTVSPost2010PropOp46
 70
     1
102
RTVSPost2010Prop47
 90
       50
102
RTVSPost2010PropOp47
 70
     1
102
RTVSPost2010Prop48
 90
       50
102
RTVSPost2010PropOp48
 70
     1
102
RTVSPost2010Prop49
280
     0
102
RTVSPost2010PropOp49
 70
     1
102
RTVSPost2010Prop50
 90
       50
102
RTVSPost2010PropOp50
 70
     1
102
RTVSPost2010Prop51ColorIndex
 90
      256
102
RTVSPost2010Prop51ColorRGB
 90
-16777216
102
RTVSPost2010PropOp51
 70
     0
102
RTVSPost2010Prop52
140
1.0
102
RTVSPost2010PropOp52
 70
     0
102
RTVSPost2010Prop53
 90
        2
102
RTVSPost2010PropOp53
 70
     1
102
RTVSPost2010Prop54
  1
strokes_ogs.tif
102
RTVSPost2010PropOp54
 70
     1
102
RTVSPost2010Prop55
280
     0
102
RTVSPost2010PropOp55
 70
     1
102
RTVSPost2010Prop56
140
1.0
102
RTVSPost2010PropOp56
 70
     1
102
RTVSPost2010Prop57
140
1.0
102
RTVSPost2010PropOp57
 70
     1
102
RTVSPropertyOp0
 70
     1
102
RTVSPropertyOp1
 70
     1
102
RTVSPropertyOp2
 70
     1
102
RTVSPropertyOp3
 70
     1
102
RTVSPropertyOp4
 70
     1
102
RTVSPropertyOp5
 70
     1
102
RTVSPropertyOp6
 70
     1
102
RTVSPropertyOp7
 70
     1
102
RTVSPropertyOp8
 70
     1
102
RTVSPropertyOp9
 70
     1
102
RTVSPropertyOp10
 70
     1
102
RTVSPropertyOp11
 70
     1
102
RTVSPropertyOp12
 70
     1
102
RTVSPropertyOp13
 70
     1
102
RTVSPropertyOp14
 70
     1
102
RTVSPropertyOp15
 70
     1
102
RTVSPropertyOp16
 70
     1
102
RTVSPropertyOp17
 70
     1
102
RTVSPropertyOp18
 70
     1
102
RTVSPropertyOp19
 70
     1
102
RTVSPropertyOp20
 70
     1
102
RTVSPropertyOp21
 70
     1
102
RTVSPropertyOp22
 70
     1
102
RTVSPropertyOp23
 70
     1
102
RTVSPropertyOp24
 70
     1
102
RTVSPropertyOp25
 70
     1
102
RTVSPropertyOp26
 70
     1
102
RTVSPropertyOp27
 70
     1
102
RTVSPropertyOp28
 70
     1
102
RTVSPropertyOp29
 70
     1
102
RTVSPropertyOp30
 70
     1
102
RTVSPropertyOp31
 70
     1
102
RTVSPropertyOp32
 70
     1
102
RTVSPropertyOp33
 70
     1
102
RTVSPropertyOp34
 70
     1
102
RTVSPropertyOp35
 70
     1
102
RTVSPropertyOp36
 70
     1
102
RTVSPropertyOp37
 70
     1
102
RTVSPropertyOp38
 70
     1
102
RTVSPropertyOp39
 70
     1
102
RTVSPropertyOp40
 70
     1
102
RTVSPropertyOp41
 70
     1
102
RTVSPropertyOp42
 70
     1
102
RTVSPropertyOp43
 70
     1
102
RTVSPropertyOp44
 70
     1
102
RTVSPropertyOp45
 70
     1
102
RTVSPropertyOp46
 70
     1
102
RTVSPropertyOp47
 70
     1
102
RTVSPropertyOp48
 70
     1
102
RTVSPropertyOp49
 70
     1
102
RTVSPropertyOp50
 70
     1
102
RTVSPropertyOp51
 70
     0
102
RTVSPropertyOp52
 70
     0
102
RTVSPropertyOp53
 70
     1
102
RTVSPropertyOp54
 70
     1
102
RTVSPropertyOp55
 70
     1
102
RTVSPropertyOp56
 70
     1
102
RTVSPropertyOp57
 70
     1
102
RTVSPropertyOp58
 70
     1
102
RTVSPropertyOp59
 70
     1
102
RTVSPropertyOp60
 70
     1
102
RTVSPropertyOp61
 70
     1
102
RTVSPropertyOp62
 70
     1
  0
XRECORD
  5
A00E
102
{ACAD_REACTORS
330
A00D
102
}
330
A00D
100
AcDbXrecord
280
     1
102
RTVSPost2010Prop28
280
     0
102
RTVSPost2010PropOp28
 70
     1
102
RTVSPost2010Prop29
280
     1
102
RTVSPost2010PropOp29
 70
     1
102
RTVSPost2010Prop30
280
     1
102
RTVSPost2010PropOp30
 70
     1
102
RTVSPost2010Prop31
280
     0
102
RTVSPost2010PropOp31
 70
     1
102
RTVSPost2010Prop32
280
     0
102
RTVSPost2010PropOp32
 70
     1
102
RTVSPost2010Prop33
280
     0
102
RTVSPost2010PropOp33
 70
     1
102
RTVSPost2010Prop34
280
     0
102
RTVSPost2010PropOp34
 70
     1
102
RTVSPost2010Prop35
280
     0
102
RTVSPost2010PropOp35
 70
     1
102
RTVSPost2010Prop36
280
     0
102
RTVSPost2010PropOp36
 70
     1
102
RTVSPost2010Prop37
 90
       50
102
RTVSPost2010PropOp37
 70
     1
102
RTVSPost2010Prop38
140
0.0
102
RTVSPost2010PropOp38
 70
     1
102
RTVSPost2010Prop39
140
1.0
102
RTVSPost2010PropOp39
 70
     1
102
RTVSPost2010Prop40
 90
        0
102
RTVSPost2010PropOp40
 70
     1
102
RTVSPost2010Prop41ColorIndex
 90
       18
102
RTVSPost2010Prop41ColorRGB
 90
        0
102
RTVSPost2010PropOp41
 70
     1
102
RTVSPost2010Prop42
 90
       50
102
RTVSPost2010PropOp42
 70
     1
102
RTVSPost2010Prop43
 90
        3
102
RTVSPost2010PropOp43
 70
     1
102
RTVSPost2010Prop44ColorIndex
 90
        5
102
RTVSPost2010Prop44ColorRGB
 90
      255
102
RTVSPost2010PropOp44
 70
     1
102
RTVSPost2010Prop45
280
     0
102
RTVSPost2010PropOp45
 70
     1
102
RTVSPost2010Prop46
 90
       50
102
RTVSPost2010PropOp46
 70
     1
102
RTVSPost2010Prop47
 90
       50
102
RTVSPost2010PropOp47
 70
     1
102
RTVSPost2010Prop48
 90
       50
102
RTVSPost2010PropOp48
 70
     1
102
RTVSPost2010Prop49
280
     0
102
RTVSPost2010PropOp49
 70
     1
102
RTVSPost2010Prop50
 90
       50
102
RTVSPost2010PropOp50
 70
     1
102
RTVSPost2010Prop51ColorIndex
 90
      256
102
RTVSPost2010Prop51ColorRGB
 90
-16777216
102
RTVSPost2010PropOp51
 70
     0
102
RTVSPost2010Prop52
140
1.0
102
RTVSPost2010PropOp52
 70
     0
102
RTVSPost2010Prop53
 90
        2
102
RTVSPost2010PropOp53
 70
     1
102
RTVSPost2010Prop54
  1
strokes_ogs.tif
102
RTVSPost2010PropOp54
 70
     1
102
RTVSPost2010Prop55
280
     0
102
RTVSPost2010PropOp55
 70
     1
102
RTVSPost2010Prop56
140
1.0
102
RTVSPost2010PropOp56
 70
     1
102
RTVSPost2010Prop57
140
1.0
102
RTVSPost2010PropOp57
 70
     1
102
RTVSPropertyOp0
 70
     1
102
RTVSPropertyOp1
 70
     1
102
RTVSPropertyOp2
 70
     1
102
RTVSPropertyOp3
 70
     1
102
RTVSPropertyOp4
 70
     1
102
RTVSPropertyOp5
 70
     1
102
RTVSPropertyOp6
 70
     1
102
RTVSPropertyOp7
 70
     1
102
RTVSPropertyOp8
 70
     1
102
RTVSPropertyOp9
 70
     1
102
RTVSPropertyOp10
 70
     1
102
RTVSPropertyOp11
 70
     1
102
RTVSPropertyOp12
 70
     1
102
RTVSPropertyOp13
 70
     1
102
RTVSPropertyOp14
 70
     1
102
RTVSPropertyOp15
 70
     1
102
RTVSPropertyOp16
 70
     1
102
RTVSPropertyOp17
 70
     1
102
RTVSPropertyOp18
 70
     1
102
RTVSPropertyOp19
 70
     1
102
RTVSPropertyOp20
 70
     1
102
RTVSPropertyOp21
 70
     1
102
RTVSPropertyOp22
 70
     1
102
RTVSPropertyOp23
 70
     1
102
RTVSPropertyOp24
 70
     1
102
RTVSPropertyOp25
 70
     1
102
RTVSPropertyOp26
 70
     1
102
RTVSPropertyOp27
 70
     1
102
RTVSPropertyOp28
 70
     1
102
RTVSPropertyOp29
 70
     1
102
RTVSPropertyOp30
 70
     1
102
RTVSPropertyOp31
 70
     1
102
RTVSPropertyOp32
 70
     1
102
RTVSPropertyOp33
 70
     1
102
RTVSPropertyOp34
 70
     1
102
RTVSPropertyOp35
 70
     1
102
RTVSPropertyOp36
 70
     1
102
RTVSPropertyOp37
 70
     1
102
RTVSPropertyOp38
 70
     1
102
RTVSPropertyOp39
 70
     1
102
RTVSPropertyOp40
 70
     1
102
RTVSPropertyOp41
 70
     1
102
RTVSPropertyOp42
 70
     1
102
RTVSPropertyOp43
 70
     1
102
RTVSPropertyOp44
 70
     1
102
RTVSPropertyOp45
 70
     1
102
RTVSPropertyOp46
 70
     1
102
RTVSPropertyOp47
 70
     1
102
RTVSPropertyOp48
 70
     1
102
RTVSPropertyOp49
 70
     1
102
RTVSPropertyOp50
 70
     1
102
RTVSPropertyOp51
 70
     0
102
RTVSPropertyOp52
 70
     0
102
RTVSPropertyOp53
 70
     1
102
RTVSPropertyOp54
 70
     1
102
RTVSPropertyOp55
 70
     1
102
RTVSPropertyOp56
 70
     1
102
RTVSPropertyOp57
 70
     1
102
RTVSPropertyOp58
 70
     1
102
RTVSPropertyOp59
 70
     1
102
RTVSPropertyOp60
 70
     1
102
RTVSPropertyOp61
 70
     1
102
RTVSPropertyOp62
 70
     1
  0
XRECORD
  5
A004
102
{ACAD_REACTORS
330
A003
102
}
330
A003
100
AcDbXrecord
280
     1
102
RTVSPost2010Prop28
280
     0
102
RTVSPost2010PropOp28
 70
     1
102
RTVSPost2010Prop29
280
     1
102
RTVSPost2010PropOp29
 70
     1
102
RTVSPost2010Prop30
280
     1
102
RTVSPost2010PropOp30
 70
     1
102
RTVSPost2010Prop31
280
     0
102
RTVSPost2010PropOp31
 70
     1
102
RTVSPost2010Prop32
280
     0
102
RTVSPost2010PropOp32
 70
     1
102
RTVSPost2010Prop33
280
     0
102
RTVSPost2010PropOp33
 70
     1
102
RTVSPost2010Prop34
280
     0
102
RTVSPost2010PropOp34
 70
     1
102
RTVSPost2010Prop35
280
     0
102
RTVSPost2010PropOp35
 70
     1
102
RTVSPost2010Prop36
280
     0
102
RTVSPost2010PropOp36
 70
     1
102
RTVSPost2010Prop37
 90
       50
102
RTVSPost2010PropOp37
 70
     1
102
RTVSPost2010Prop38
140
0.0
102
RTVSPost2010PropOp38
 70
     1
102
RTVSPost2010Prop39
140
1.0
102
RTVSPost2010PropOp39
 70
     1
102
RTVSPost2010Prop40
 90
        0
102
RTVSPost2010PropOp40
 70
     1
102
RTVSPost2010Prop41ColorIndex
 90
       18
102
RTVSPost2010Prop41ColorRGB
 90
        0
102
RTVSPost2010PropOp41
 70
     1
102
RTVSPost2010Prop42
 90
       50
102
RTVSPost2010PropOp42
 70
     1
102
RTVSPost2010Prop43
 90
        3
102
RTVSPost2010PropOp43
 70
     1
102
RTVSPost2010Prop44ColorIndex
 90
        5
102
RTVSPost2010Prop44ColorRGB
 90
      255
102
RTVSPost2010PropOp44
 70
     1
102
RTVSPost2010Prop45
280
     0
102
RTVSPost2010PropOp45
 70
     1
102
RTVSPost2010Prop46
 90
       50
102
RTVSPost2010PropOp46
 70
     1
102
RTVSPost2010Prop47
 90
       50
102
RTVSPost2010PropOp47
 70
     1
102
RTVSPost2010Prop48
 90
       50
102
RTVSPost2010PropOp48
 70
     1
102
RTVSPost2010Prop49
280
     0
102
RTVSPost2010PropOp49
 70
     1
102
RTVSPost2010Prop50
 90
       50
102
RTVSPost2010PropOp50
 70
     1
102
RTVSPost2010Prop51ColorIndex
 90
      256
102
RTVSPost2010Prop51ColorRGB
 90
-16777216
102
RTVSPost2010PropOp51
 70
     0
102
RTVSPost2010Prop52
140
1.0
102
RTVSPost2010PropOp52
 70
     0
102
RTVSPost2010Prop53
 90
        2
102
RTVSPost2010PropOp53
 70
     1
102
RTVSPost2010Prop54
  1
strokes_ogs.tif
102
RTVSPost2010PropOp54
 70
     1
102
RTVSPost2010Prop55
280
     0
102
RTVSPost2010PropOp55
 70
     1
102
RTVSPost2010Prop56
140
1.0
102
RTVSPost2010PropOp56
 70
     1
102
RTVSPost2010Prop57
140
1.0
102
RTVSPost2010PropOp57
 70
     1
102
RTVSPropertyOp0
 70
     1
102
RTVSPropertyOp1
 70
     1
102
RTVSPropertyOp2
 70
     1
102
RTVSPropertyOp3
 70
     1
102
RTVSPropertyOp4
 70
     1
102
RTVSPropertyOp5
 70
     1
102
RTVSPropertyOp6
 70
     1
102
RTVSPropertyOp7
 70
     1
102
RTVSPropertyOp8
 70
     1
102
RTVSPropertyOp9
 70
     1
102
RTVSPropertyOp10
 70
     1
102
RTVSPropertyOp11
 70
     1
102
RTVSPropertyOp12
 70
     1
102
RTVSPropertyOp13
 70
     1
102
RTVSPropertyOp14
 70
     1
102
RTVSPropertyOp15
 70
     1
102
RTVSPropertyOp16
 70
     1
102
RTVSPropertyOp17
 70
     1
102
RTVSPropertyOp18
 70
     1
102
RTVSPropertyOp19
 70
     1
102
RTVSPropertyOp20
 70
     1
102
RTVSPropertyOp21
 70
     1
102
RTVSPropertyOp22
 70
     1
102
RTVSPropertyOp23
 70
     1
102
RTVSPropertyOp24
 70
     1
102
RTVSPropertyOp25
 70
     1
102
RTVSPropertyOp26
 70
     1
102
RTVSPropertyOp27
 70
     1
102
RTVSPropertyOp28
 70
     1
102
RTVSPropertyOp29
 70
     1
102
RTVSPropertyOp30
 70
     1
102
RTVSPropertyOp31
 70
     1
102
RTVSPropertyOp32
 70
     1
102
RTVSPropertyOp33
 70
     1
102
RTVSPropertyOp34
 70
     1
102
RTVSPropertyOp35
 70
     1
102
RTVSPropertyOp36
 70
     1
102
RTVSPropertyOp37
 70
     1
102
RTVSPropertyOp38
 70
     1
102
RTVSPropertyOp39
 70
     1
102
RTVSPropertyOp40
 70
     1
102
RTVSPropertyOp41
 70
     1
102
RTVSPropertyOp42
 70
     1
102
RTVSPropertyOp43
 70
     1
102
RTVSPropertyOp44
 70
     1
102
RTVSPropertyOp45
 70
     1
102
RTVSPropertyOp46
 70
     1
102
RTVSPropertyOp47
 70
     1
102
RTVSPropertyOp48
 70
     1
102
RTVSPropertyOp49
 70
     1
102
RTVSPropertyOp50
 70
     1
102
RTVSPropertyOp51
 70
     0
102
RTVSPropertyOp52
 70
     0
102
RTVSPropertyOp53
 70
     1
102
RTVSPropertyOp54
 70
     1
102
RTVSPropertyOp55
 70
     1
102
RTVSPropertyOp56
 70
     1
102
RTVSPropertyOp57
 70
     1
102
RTVSPropertyOp58
 70
     1
102
RTVSPropertyOp59
 70
     1
102
RTVSPropertyOp60
 70
     1
102
RTVSPropertyOp61
 70
     1
102
RTVSPropertyOp62
 70
     1
  0
XRECORD
  5
9FF8
102
{ACAD_REACTORS
330
9FF7
102
}
330
9FF7
100
AcDbXrecord
280
     1
102
RTVSPost2010Prop28
280
     0
102
RTVSPost2010PropOp28
 70
     1
102
RTVSPost2010Prop29
280
     1
102
RTVSPost2010PropOp29
 70
     1
102
RTVSPost2010Prop30
280
     1
102
RTVSPost2010PropOp30
 70
     1
102
RTVSPost2010Prop31
280
     0
102
RTVSPost2010PropOp31
 70
     1
102
RTVSPost2010Prop32
280
     0
102
RTVSPost2010PropOp32
 70
     1
102
RTVSPost2010Prop33
280
     0
102
RTVSPost2010PropOp33
 70
     1
102
RTVSPost2010Prop34
280
     0
102
RTVSPost2010PropOp34
 70
     1
102
RTVSPost2010Prop35
280
     0
102
RTVSPost2010PropOp35
 70
     1
102
RTVSPost2010Prop36
280
     0
102
RTVSPost2010PropOp36
 70
     1
102
RTVSPost2010Prop37
 90
       50
102
RTVSPost2010PropOp37
 70
     1
102
RTVSPost2010Prop38
140
0.0
102
RTVSPost2010PropOp38
 70
     1
102
RTVSPost2010Prop39
140
1.0
102
RTVSPost2010PropOp39
 70
     1
102
RTVSPost2010Prop40
 90
        0
102
RTVSPost2010PropOp40
 70
     1
102
RTVSPost2010Prop41ColorIndex
 90
       18
102
RTVSPost2010Prop41ColorRGB
 90
        0
102
RTVSPost2010PropOp41
 70
     1
102
RTVSPost2010Prop42
 90
       50
102
RTVSPost2010PropOp42
 70
     1
102
RTVSPost2010Prop43
 90
        3
102
RTVSPost2010PropOp43
 70
     1
102
RTVSPost2010Prop44ColorIndex
 90
        5
102
RTVSPost2010Prop44ColorRGB
 90
      255
102
RTVSPost2010PropOp44
 70
     1
102
RTVSPost2010Prop45
280
     0
102
RTVSPost2010PropOp45
 70
     1
102
RTVSPost2010Prop46
 90
       50
102
RTVSPost2010PropOp46
 70
     1
102
RTVSPost2010Prop47
 90
       50
102
RTVSPost2010PropOp47
 70
     1
102
RTVSPost2010Prop48
 90
       50
102
RTVSPost2010PropOp48
 70
     1
102
RTVSPost2010Prop49
280
     0
102
RTVSPost2010PropOp49
 70
     1
102
RTVSPost2010Prop50
 90
       50
102
RTVSPost2010PropOp50
 70
     1
102
RTVSPost2010Prop51ColorIndex
 90
      256
102
RTVSPost2010Prop51ColorRGB
 90
-16777216
102
RTVSPost2010PropOp51
 70
     0
102
RTVSPost2010Prop52
140
1.0
102
RTVSPost2010PropOp52
 70
     0
102
RTVSPost2010Prop53
 90
        2
102
RTVSPost2010PropOp53
 70
     1
102
RTVSPost2010Prop54
  1
strokes_ogs.tif
102
RTVSPost2010PropOp54
 70
     1
102
RTVSPost2010Prop55
280
     0
102
RTVSPost2010PropOp55
 70
     1
102
RTVSPost2010Prop56
140
1.0
102
RTVSPost2010PropOp56
 70
     1
102
RTVSPost2010Prop57
140
1.0
102
RTVSPost2010PropOp57
 70
     1
102
RTVSPropertyOp0
 70
     1
102
RTVSPropertyOp1
 70
     1
102
RTVSPropertyOp2
 70
     1
102
RTVSPropertyOp3
 70
     1
102
RTVSPropertyOp4
 70
     1
102
RTVSPropertyOp5
 70
     1
102
RTVSPropertyOp6
 70
     1
102
RTVSPropertyOp7
 70
     1
102
RTVSPropertyOp8
 70
     1
102
RTVSPropertyOp9
 70
     1
102
RTVSPropertyOp10
 70
     1
102
RTVSPropertyOp11
 70
     1
102
RTVSPropertyOp12
 70
     1
102
RTVSPropertyOp13
 70
     1
102
RTVSPropertyOp14
 70
     1
102
RTVSPropertyOp15
 70
     1
102
RTVSPropertyOp16
 70
     1
102
RTVSPropertyOp17
 70
     1
102
RTVSPropertyOp18
 70
     1
102
RTVSPropertyOp19
 70
     1
102
RTVSPropertyOp20
 70
     1
102
RTVSPropertyOp21
 70
     1
102
RTVSPropertyOp22
 70
     1
102
RTVSPropertyOp23
 70
     1
102
RTVSPropertyOp24
 70
     1
102
RTVSPropertyOp25
 70
     1
102
RTVSPropertyOp26
 70
     1
102
RTVSPropertyOp27
 70
     1
102
RTVSPropertyOp28
 70
     1
102
RTVSPropertyOp29
 70
     1
102
RTVSPropertyOp30
 70
     1
102
RTVSPropertyOp31
 70
     1
102
RTVSPropertyOp32
 70
     1
102
RTVSPropertyOp33
 70
     1
102
RTVSPropertyOp34
 70
     1
102
RTVSPropertyOp35
 70
     1
102
RTVSPropertyOp36
 70
     1
102
RTVSPropertyOp37
 70
     1
102
RTVSPropertyOp38
 70
     1
102
RTVSPropertyOp39
 70
     1
102
RTVSPropertyOp40
 70
     1
102
RTVSPropertyOp41
 70
     1
102
RTVSPropertyOp42
 70
     1
102
RTVSPropertyOp43
 70
     1
102
RTVSPropertyOp44
 70
     1
102
RTVSPropertyOp45
 70
     1
102
RTVSPropertyOp46
 70
     1
102
RTVSPropertyOp47
 70
     1
102
RTVSPropertyOp48
 70
     1
102
RTVSPropertyOp49
 70
     1
102
RTVSPropertyOp50
 70
     1
102
RTVSPropertyOp51
 70
     0
102
RTVSPropertyOp52
 70
     0
102
RTVSPropertyOp53
 70
     1
102
RTVSPropertyOp54
 70
     1
102
RTVSPropertyOp55
 70
     1
102
RTVSPropertyOp56
 70
     1
102
RTVSPropertyOp57
 70
     1
102
RTVSPropertyOp58
 70
     1
102
RTVSPropertyOp59
 70
     1
102
RTVSPropertyOp60
 70
     1
102
RTVSPropertyOp61
 70
     1
102
RTVSPropertyOp62
 70
     1
  0
XRECORD
  5
A010
102
{ACAD_REACTORS
330
A00F
102
}
330
A00F
100
AcDbXrecord
280
     1
102
RTVSPost2010Prop28
280
     0
102
RTVSPost2010PropOp28
 70
     1
102
RTVSPost2010Prop29
280
     1
102
RTVSPost2010PropOp29
 70
     1
102
RTVSPost2010Prop30
280
     1
102
RTVSPost2010PropOp30
 70
     1
102
RTVSPost2010Prop31
280
     0
102
RTVSPost2010PropOp31
 70
     1
102
RTVSPost2010Prop32
280
     0
102
RTVSPost2010PropOp32
 70
     1
102
RTVSPost2010Prop33
280
     0
102
RTVSPost2010PropOp33
 70
     1
102
RTVSPost2010Prop34
280
     0
102
RTVSPost2010PropOp34
 70
     1
102
RTVSPost2010Prop35
280
     0
102
RTVSPost2010PropOp35
 70
     1
102
RTVSPost2010Prop36
280
     0
102
RTVSPost2010PropOp36
 70
     1
102
RTVSPost2010Prop37
 90
       50
102
RTVSPost2010PropOp37
 70
     1
102
RTVSPost2010Prop38
140
0.0
102
RTVSPost2010PropOp38
 70
     1
102
RTVSPost2010Prop39
140
1.0
102
RTVSPost2010PropOp39
 70
     1
102
RTVSPost2010Prop40
 90
        0
102
RTVSPost2010PropOp40
 70
     1
102
RTVSPost2010Prop41ColorIndex
 90
       18
102
RTVSPost2010Prop41ColorRGB
 90
        0
102
RTVSPost2010PropOp41
 70
     1
102
RTVSPost2010Prop42
 90
       50
102
RTVSPost2010PropOp42
 70
     1
102
RTVSPost2010Prop43
 90
        3
102
RTVSPost2010PropOp43
 70
     1
102
RTVSPost2010Prop44ColorIndex
 90
        5
102
RTVSPost2010Prop44ColorRGB
 90
      255
102
RTVSPost2010PropOp44
 70
     1
102
RTVSPost2010Prop45
280
     0
102
RTVSPost2010PropOp45
 70
     1
102
RTVSPost2010Prop46
 90
       50
102
RTVSPost2010PropOp46
 70
     1
102
RTVSPost2010Prop47
 90
       50
102
RTVSPost2010PropOp47
 70
     1
102
RTVSPost2010Prop48
 90
       50
102
RTVSPost2010PropOp48
 70
     1
102
RTVSPost2010Prop49
280
     0
102
RTVSPost2010PropOp49
 70
     1
102
RTVSPost2010Prop50
 90
       50
102
RTVSPost2010PropOp50
 70
     1
102
RTVSPost2010Prop51ColorIndex
 90
      256
102
RTVSPost2010Prop51ColorRGB
 90
-16777216
102
RTVSPost2010PropOp51
 70
     0
102
RTVSPost2010Prop52
140
1.0
102
RTVSPost2010PropOp52
 70
     0
102
RTVSPost2010Prop53
 90
        2
102
RTVSPost2010PropOp53
 70
     1
102
RTVSPost2010Prop54
  1
strokes_ogs.tif
102
RTVSPost2010PropOp54
 70
     1
102
RTVSPost2010Prop55
280
     0
102
RTVSPost2010PropOp55
 70
     1
102
RTVSPost2010Prop56
140
1.0
102
RTVSPost2010PropOp56
 70
     1
102
RTVSPost2010Prop57
140
1.0
102
RTVSPost2010PropOp57
 70
     1
102
RTVSPropertyOp0
 70
     1
102
RTVSPropertyOp1
 70
     1
102
RTVSPropertyOp2
 70
     1
102
RTVSPropertyOp3
 70
     1
102
RTVSPropertyOp4
 70
     1
102
RTVSPropertyOp5
 70
     1
102
RTVSPropertyOp6
 70
     1
102
RTVSPropertyOp7
 70
     1
102
RTVSPropertyOp8
 70
     1
102
RTVSPropertyOp9
 70
     1
102
RTVSPropertyOp10
 70
     1
102
RTVSPropertyOp11
 70
     1
102
RTVSPropertyOp12
 70
     1
102
RTVSPropertyOp13
 70
     1
102
RTVSPropertyOp14
 70
     1
102
RTVSPropertyOp15
 70
     1
102
RTVSPropertyOp16
 70
     1
102
RTVSPropertyOp17
 70
     1
102
RTVSPropertyOp18
 70
     1
102
RTVSPropertyOp19
 70
     1
102
RTVSPropertyOp20
 70
     1
102
RTVSPropertyOp21
 70
     1
102
RTVSPropertyOp22
 70
     1
102
RTVSPropertyOp23
 70
     1
102
RTVSPropertyOp24
 70
     1
102
RTVSPropertyOp25
 70
     1
102
RTVSPropertyOp26
 70
     1
102
RTVSPropertyOp27
 70
     1
102
RTVSPropertyOp28
 70
     1
102
RTVSPropertyOp29
 70
     1
102
RTVSPropertyOp30
 70
     1
102
RTVSPropertyOp31
 70
     1
102
RTVSPropertyOp32
 70
     1
102
RTVSPropertyOp33
 70
     1
102
RTVSPropertyOp34
 70
     1
102
RTVSPropertyOp35
 70
     1
102
RTVSPropertyOp36
 70
     1
102
RTVSPropertyOp37
 70
     1
102
RTVSPropertyOp38
 70
     1
102
RTVSPropertyOp39
 70
     1
102
RTVSPropertyOp40
 70
     1
102
RTVSPropertyOp41
 70
     1
102
RTVSPropertyOp42
 70
     1
102
RTVSPropertyOp43
 70
     1
102
RTVSPropertyOp44
 70
     1
102
RTVSPropertyOp45
 70
     1
102
RTVSPropertyOp46
 70
     1
102
RTVSPropertyOp47
 70
     1
102
RTVSPropertyOp48
 70
     1
102
RTVSPropertyOp49
 70
     1
102
RTVSPropertyOp50
 70
     1
102
RTVSPropertyOp51
 70
     0
102
RTVSPropertyOp52
 70
     0
102
RTVSPropertyOp53
 70
     1
102
RTVSPropertyOp54
 70
     1
102
RTVSPropertyOp55
 70
     1
102
RTVSPropertyOp56
 70
     1
102
RTVSPropertyOp57
 70
     1
102
RTVSPropertyOp58
 70
     1
102
RTVSPropertyOp59
 70
     1
102
RTVSPropertyOp60
 70
     1
102
RTVSPropertyOp61
 70
     1
102
RTVSPropertyOp62
 70
     1
  0
ENDSEC
  0
EOF
