  0
SECTION
  2
HEADER
  9
$ACADVER
  1
AC1015
  9
$ACADMAINTVER
 70
    20
  9
$DWGCODEPAGE
  3
ANSI_932
  9
$INSBASE
 10
0.0
 20
0.0
 30
0.0
  9
$EXTMIN
 10
10.0
 20
9.999999999999998
 30
0.0
  9
$EXTMAX
 10
622.220223
 20
501.4594929999998
 30
0.0
  9
$LIMMIN
 10
0.0
 20
0.0
  9
$LIMMAX
 10
792.0
 20
546.0
  9
$ORTHOMODE
 70
     1
  9
$REGENMODE
 70
     1
  9
$FILLMODE
 70
     1
  9
$QTEXTMODE
 70
     0
  9
$MIRRTEXT
 70
     1
  9
$LTSCALE
 40
20.0
  9
$ATTMODE
 70
     1
  9
$TEXTSIZE
 40
5.0
  9
$TRACEWID
 40
1.0
  9
$TEXTSTYLE
  7
STANDARD
  9
$CLAYER
  8
0
  9
$CELTYPE
  6
BYLAYER
  9
$CECOLOR
 62
   256
  9
$CELTSCALE
 40
1.0
  9
$DISPSILH
 70
     0
  9
$DIMSCALE
 40
1.0
  9
$DIMASZ
 40
2.5
  9
$DIMEXO
 40
1.0
  9
$DIMDLI
 40
10.0
  9
$DIMRND
 40
0.0
  9
$DIMDLE
 40
0.0
  9
$DIMEXE
 40
1.0
  9
$DIMTP
 40
0.0
  9
$DIMTM
 40
0.0
  9
$DIMTXT
 40
3.2
  9
$DIMCEN
 40
0.0
  9
$DIMTSZ
 40
0.0
  9
$DIMTOL
 70
     0
  9
$DIMLIM
 70
     0
  9
$DIMTIH
 70
     0
  9
$DIMTOH
 70
     0
  9
$DIMSE1
 70
     0
  9
$DIMSE2
 70
     0
  9
$DIMTAD
 70
     3
  9
$DIMZIN
 70
     8
  9
$DIMBLK
  1

  9
$DIMASO
 70
     1
  9
$DIMSHO
 70
     1
  9
$DIMPOST
  1

  9
$DIMAPOST
  1

  9
$DIMALT
 70
     0
  9
$DIMALTD
 70
     2
  9
$DIMALTF
 40
25.4
  9
$DIMLFAC
 40
1.0
  9
$DIMTOFL
 70
     1
  9
$DIMTVP
 40
0.0
  9
$DIMTIX
 70
     0
  9
$DIMSOXD
 70
     0
  9
$DIMSAH
 70
     1
  9
$DIMBLK1
  1

  9
$DIMBLK2
  1

  9
$DIMSTYLE
  2
STANDARD
  9
$DIMCLRD
 70
     0
  9
$DIMCLRE
 70
     0
  9
$DIMCLRT
 70
     0
  9
$DIMTFAC
 40
1.0
  9
$DIMGAP
 40
1.0
  9
$DIMJUST
 70
     0
  9
$DIMSD1
 70
     0
  9
$DIMSD2
 70
     0
  9
$DIMTOLJ
 70
     1
  9
$DIMTZIN
 70
     0
  9
$DIMALTZ
 70
     0
  9
$DIMALTTZ
 70
     0
  9
$DIMUPT
 70
     0
  9
$DIMDEC
 70
     4
  9
$DIMTDEC
 70
     4
  9
$DIMALTU
 70
     2
  9
$DIMALTTD
 70
     2
  9
$DIMTXSTY
  7
STANDARD
  9
$DIMAUNIT
 70
     0
  9
$DIMADEC
 70
     0
  9
$DIMALTRND
 40
0.0
  9
$DIMAZIN
 70
     0
  9
$DIMDSEP
 70
    46
  9
$DIMATFIT
 70
     3
  9
$DIMFRAC
 70
     0
  9
$DIMLDRBLK
  1

  9
$DIMLUNIT
 70
     2
  9
$DIMLWD
 70
    -2
  9
$DIMLWE
 70
    -2
  9
$DIMTMOVE
 70
     0
  9
$LUNITS
 70
     2
  9
$LUPREC
 70
     4
  9
$SKETCHINC
 40
1.0
  9
$FILLETRAD
 40
4.0
  9
$AUNITS
 70
     0
  9
$AUPREC
 70
     2
  9
$MENU
  1
.
  9
$ELEVATION
 40
0.0
  9
$PELEVATION
 40
0.0
  9
$THICKNESS
 40
0.0
  9
$LIMCHECK
 70
     0
  9
$CHAMFERA
 40
10.0
  9
$CHAMFERB
 40
10.0
  9
$CHAMFERC
 40
0.0
  9
$CHAMFERD
 40
0.0
  9
$SKPOLY
 70
     0
  9
$TDCREATE
 40
2451301.437435185
  9
$TDUCREATE
 40
2451301.062435185
  9
$TDUPDATE
 40
2457192.690111088
  9
$TDUUPDATE
 40
2457192.315111088
  9
$TDINDWG
 40
0.1440680324
  9
$TDUSRTIMER
 40
0.1440678356
  9
$USRTIMER
 70
     1
  9
$ANGBASE
 50
0.0
  9
$ANGDIR
 70
     0
  9
$PDMODE
 70
     0
  9
$PDSIZE
 40
0.0
  9
$PLINEWID
 40
0.0
  9
$SPLFRAME
 70
     0
  9
$SPLINETYPE
 70
     6
  9
$SPLINESEGS
 70
     8
  9
$HANDSEED
  5
A4CE
  9
$SURFTAB1
 70
     6
  9
$SURFTAB2
 70
     6
  9
$SURFTYPE
 70
     6
  9
$SURFU
 70
     6
  9
$SURFV
 70
     6
  9
$UCSBASE
  2

  9
$UCSNAME
  2

  9
$UCSORG
 10
0.0
 20
0.0
 30
0.0
  9
$UCSXDIR
 10
1.0
 20
0.0
 30
0.0
  9
$UCSYDIR
 10
0.0
 20
1.0
 30
0.0
  9
$UCSORTHOREF
  2

  9
$UCSORTHOVIEW
 70
     0
  9
$UCSORGTOP
 10
0.0
 20
0.0
 30
0.0
  9
$UCSORGBOTTOM
 10
0.0
 20
0.0
 30
0.0
  9
$UCSORGLEFT
 10
0.0
 20
0.0
 30
0.0
  9
$UCSORGRIGHT
 10
0.0
 20
0.0
 30
0.0
  9
$UCSORGFRONT
 10
0.0
 20
0.0
 30
0.0
  9
$UCSORGBACK
 10
0.0
 20
0.0
 30
0.0
  9
$PUCSBASE
  2

  9
$PUCSNAME
  2

  9
$PUCSORG
 10
0.0
 20
0.0
 30
0.0
  9
$PUCSXDIR
 10
1.0
 20
0.0
 30
0.0
  9
$PUCSYDIR
 10
0.0
 20
1.0
 30
0.0
  9
$PUCSORTHOREF
  2

  9
$PUCSORTHOVIEW
 70
     0
  9
$PUCSORGTOP
 10
0.0
 20
0.0
 30
0.0
  9
$PUCSORGBOTTOM
 10
0.0
 20
0.0
 30
0.0
  9
$PUCSORGLEFT
 10
0.0
 20
0.0
 30
0.0
  9
$PUCSORGRIGHT
 10
0.0
 20
0.0
 30
0.0
  9
$PUCSORGFRONT
 10
0.0
 20
0.0
 30
0.0
  9
$PUCSORGBACK
 10
0.0
 20
0.0
 30
0.0
  9
$USERI1
 70
     0
  9
$USERI2
 70
     0
  9
$USERI3
 70
     0
  9
$USERI4
 70
     0
  9
$USERI5
 70
     0
  9
$USERR1
 40
0.0
  9
$USERR2
 40
0.0
  9
$USERR3
 40
0.0
  9
$USERR4
 40
0.0
  9
$USERR5
 40
0.0
  9
$WORLDVIEW
 70
     1
  9
$SHADEDGE
 70
     3
  9
$SHADEDIF
 70
    70
  9
$TILEMODE
 70
     1
  9
$MAXACTVP
 70
    16
  9
$PINSBASE
 10
0.0
 20
0.0
 30
0.0
  9
$PLIMCHECK
 70
     0
  9
$PEXTMIN
 10
1.000000000000000E+20
 20
1.000000000000000E+20
 30
1.000000000000000E+20
  9
$PEXTMAX
 10
-1.000000000000000E+20
 20
-1.000000000000000E+20
 30
-1.000000000000000E+20
  9
$PLIMMIN
 10
0.0
 20
0.0
  9
$PLIMMAX
 10
420.0
 20
297.0
  9
$UNITMODE
 70
     0
  9
$VISRETAIN
 70
     0
  9
$PLINEGEN
 70
     0
  9
$PSLTSCALE
 70
     0
  9
$TREEDEPTH
 70
  3020
  9
$CMLSTYLE
  2
STANDARD
  9
$CMLJUST
 70
     0
  9
$CMLSCALE
 40
1.0
  9
$PROXYGRAPHICS
 70
     1
  9
$MEASUREMENT
 70
     0
  9
$CELWEIGHT
370
    -1
  9
$ENDCAPS
280
     0
  9
$JOINSTYLE
280
     0
  9
$LWDISPLAY
290
     0
  9
$INSUNITS
 70
     0
  9
$HYPERLINKBASE
  1

  9
$STYLESHEET
  1

  9
$XEDIT
290
     1
  9
$CEPSNTYPE
380
     0
  9
$PSTYLEMODE
290
     1
  9
$FINGERPRINTGUID
  2
{5B4632BD-D4EE-4A85-9BE4-C390EEB784C4}
  9
$VERSIONGUID
  2
{C39C59F6-9DFB-44FE-8B38-F01EC35CD0B1}
  9
$EXTNAMES
290
     1
  9
$PSVPSCALE
 40
0.0
  9
$OLESTARTUP
290
     0
  0
ENDSEC
  0
SECTION
  2
CLASSES
  0
CLASS
  1
ACDBDICTIONARYWDFLT
  2
AcDbDictionaryWithDefault
  3
ObjectDBX Classes
 90
        0
280
     0
281
     0
  0
CLASS
  1
ACDBPLACEHOLDER
  2
AcDbPlaceHolder
  3
ObjectDBX Classes
 90
        0
280
     0
281
     0
  0
CLASS
  1
LAYOUT
  2
AcDbLayout
  3
ObjectDBX Classes
 90
        0
280
     0
281
     0
  0
CLASS
  1
DICTIONARYVAR
  2
AcDbDictionaryVar
  3
ObjectDBX Classes
 90
        0
280
     0
281
     0
  0
CLASS
  1
MATERIAL
  2
AcDbMaterial
  3
ObjectDBX Classes
 90
     1153
280
     0
281
     0
  0
CLASS
  1
VISUALSTYLE
  2
AcDbVisualStyle
  3
ObjectDBX Classes
 90
     4095
280
     0
281
     0
  0
CLASS
  1
TABLESTYLE
  2
AcDbTableStyle
  3
ObjectDBX Classes
 90
     4095
280
     0
281
     0
  0
CLASS
  1
SCALE
  2
AcDbScale
  3
ObjectDBX Classes
 90
     1153
280
     0
281
     0
  0
CLASS
  1
MLEADERSTYLE
  2
AcDbMLeaderStyle
  3
ACDB_MLEADERSTYLE_CLASS
 90
     4095
280
     0
281
     0
  0
CLASS
  1
ACDBSECTIONVIEWSTYLE
  2
AcDbSectionViewStyle
  3
ObjectDBX Classes
 90
     1025
280
     0
281
     0
  0
CLASS
  1
ACDBDETAILVIEWSTYLE
  2
AcDbDetailViewStyle
  3
ObjectDBX Classes
 90
     1025
280
     0
281
     0
  0
CLASS
  1
CELLSTYLEMAP
  2
AcDbCellStyleMap
  3
ObjectDBX Classes
 90
     1152
280
     0
281
     0
  0
ENDSEC
  0
SECTION
  2
TABLES
  0
TABLE
  2
VPORT
  5
A1E0
330
0
100
AcDbSymbolTable
 70
     1
  0
VPORT
  5
A419
330
A1E0
100
AcDbSymbolTableRecord
100
AcDbViewportTableRecord
  2
*ACTIVE
 70
     0
 10
0.0
 20
0.0
 11
1.0
 21
1.0
 12
505.267980398449
 22
255.7333844298651
 13
0.0
 23
0.0
 14
10.0
 24
10.0
 15
10.0
 25
10.0
 16
0.0
 26
0.0
 36
1.0
 17
0.0
 27
0.0
 37
0.0
 40
495.385276730492
 41
2.35006605019815
 42
50.0
 43
0.0
 44
0.0
 50
0.0
 51
0.0
 71
     0
 72
   100
 73
     1
 74
     0
 75
     0
 76
     0
 77
     0
 78
     0
281
     0
 65
     1
110
0.0
120
0.0
130
0.0
111
1.0
121
0.0
131
0.0
112
0.0
122
1.0
132
0.0
 79
     0
146
0.0
1001
ACAD_NAV_VCDISPLAY
1070
     3
  0
ENDTAB
  0
TABLE
  2
LTYPE
  5
A1DD
330
0
100
AcDbSymbolTable
 70
     4
  0
LTYPE
  5
A1EB
330
A1DD
100
AcDbSymbolTableRecord
100
AcDbLinetypeTableRecord
  2
BYBLOCK
 70
     0
  3

 72
    65
 73
     0
 40
0.0
  0
LTYPE
  5
A1EC
330
A1DD
100
AcDbSymbolTableRecord
100
AcDbLinetypeTableRecord
  2
BYLAYER
 70
     0
  3

 72
    65
 73
     0
 40
0.0
  0
LTYPE
  5
A1ED
330
A1DD
100
AcDbSymbolTableRecord
100
AcDbLinetypeTableRecord
  2
CONTINUOUS
 70
     0
  3
Solid line
 72
    65
 73
     0
 40
0.0
  0
LTYPE
  5
A1FB
330
A1DD
100
AcDbSymbolTableRecord
100
AcDbLinetypeTableRecord
  2
DASHED
 70
     0
  3
__ __ __ __ __ __ __ __ __ __ __ __ __ __ __ __
 72
    65
 73
     2
 40
0.75
 49
0.5
 74
     0
 49
-0.25
 74
     0
  0
LTYPE
  5
A1FC
330
A1DD
100
AcDbSymbolTableRecord
100
AcDbLinetypeTableRecord
  2
CENTER
 70
     0
  3
____ _ ____ _ ____ _ ____ _ ____ _ ____ _ ____ 
 72
    65
 73
     4
 40
2.0
 49
1.25
 74
     0
 49
-0.25
 74
     0
 49
0.25
 74
     0
 49
-0.25
 74
     0
  0
LTYPE
  5
A1FD
330
A1DD
100
AcDbSymbolTableRecord
100
AcDbLinetypeTableRecord
  2
PHANTOM
 70
     0
  3
______  __  __  ______  __  __  ______  __  __ 
 72
    65
 73
     6
 40
2.5
 49
1.25
 74
     0
 49
-0.25
 74
     0
 49
0.25
 74
     0
 49
-0.25
 74
     0
 49
0.25
 74
     0
 49
-0.25
 74
     0
  0
ENDTAB
  0
TABLE
  2
LAYER
  5
A1DA
330
0
100
AcDbSymbolTable
 70
     8
  0
LAYER
  5
A1E8
102
{ACAD_XDICTIONARY
360
A472
102
}
330
A1DA
100
AcDbSymbolTableRecord
100
AcDbLayerTableRecord
  2
0
 70
     0
 62
     7
  6
CONTINUOUS
370
    -3
390
A420
  0
LAYER
  5
A1FE
102
{ACAD_XDICTIONARY
360
A474
102
}
330
A1DA
100
AcDbSymbolTableRecord
100
AcDbLayerTableRecord
  2
4
 70
     0
 62
     1
  6
CENTER
370
    -3
390
A420
  0
LAYER
  5
A1FF
102
{ACAD_XDICTIONARY
360
A476
102
}
330
A1DA
100
AcDbSymbolTableRecord
100
AcDbLayerTableRecord
  2
5
 70
     0
 62
     6
  6
PHANTOM
370
    -3
390
A420
  0
LAYER
  5
A200
102
{ACAD_XDICTIONARY
360
A478
102
}
330
A1DA
100
AcDbSymbolTableRecord
100
AcDbLayerTableRecord
  2
1
 70
     0
 62
     7
  6
CONTINUOUS
370
    -3
390
A420
  0
LAYER
  5
A201
102
{ACAD_XDICTIONARY
360
A47A
102
}
330
A1DA
100
AcDbSymbolTableRecord
100
AcDbLayerTableRecord
  2
2
 70
     0
 62
     4
  6
CONTINUOUS
370
    -3
390
A420
  0
LAYER
  5
A202
102
{ACAD_XDICTIONARY
360
A47C
102
}
330
A1DA
100
AcDbSymbolTableRecord
100
AcDbLayerTableRecord
  2
3
 70
     0
 62
     2
  6
DASHED
370
    -3
390
A420
  0
LAYER
  5
A203
102
{ACAD_XDICTIONARY
360
A47E
102
}
330
A1DA
100
AcDbSymbolTableRecord
100
AcDbLayerTableRecord
  2
6
 70
     0
 62
     5
  6
CONTINUOUS
370
    -3
390
A420
  0
LAYER
  5
A204
102
{ACAD_XDICTIONARY
360
A480
102
}
330
A1DA
100
AcDbSymbolTableRecord
100
AcDbLayerTableRecord
  2
7
 70
     0
 62
     3
  6
CONTINUOUS
370
    -3
390
A420
  0
ENDTAB
  0
TABLE
  2
STYLE
  5
A1DB
330
0
100
AcDbSymbolTable
 70
     1
  0
STYLE
  5
A1E9
330
A1DB
100
AcDbSymbolTableRecord
100
AcDbTextStyleTableRecord
  2
STANDARD
 70
     0
 40
0.0
 41
1.0
 50
0.0
 71
     0
 42
5.0
  3
txt
  4

  0
ENDTAB
  0
TABLE
  2
VIEW
  5
A1DE
330
0
100
AcDbSymbolTable
 70
     0
  0
ENDTAB
  0
TABLE
  2
UCS
  5
A1DF
330
0
100
AcDbSymbolTable
 70
     0
  0
ENDTAB
  0
TABLE
  2
APPID
  5
A1E1
330
0
100
AcDbSymbolTable
 70
     3
  0
APPID
  5
A1EA
330
A1E1
100
AcDbSymbolTableRecord
100
AcDbRegAppTableRecord
  2
ACAD
 70
     0
  0
APPID
  5
A48C
330
A1E1
100
AcDbSymbolTableRecord
100
AcDbRegAppTableRecord
  2
ACAD_NAV_VCDISPLAY
 70
     0
  0
APPID
  5
A4C5
330
A1E1
100
AcDbSymbolTableRecord
100
AcDbRegAppTableRecord
  2
ACAD_MLEADERVER
 70
     0
  0
ENDTAB
  0
TABLE
  2
DIMSTYLE
  5
A1E2
330
0
100
AcDbSymbolTable
 70
     1
100
AcDbDimStyleTable
 71
     0
  0
DIMSTYLE
105
A206
330
A1E2
100
AcDbSymbolTableRecord
100
AcDbDimStyleTableRecord
  2
STANDARD
 70
     0
 41
2.5
 42
1.0
 43
10.0
 44
1.0
 73
     0
 74
     0
 77
     3
 78
     8
140
3.2
141
0.0
147
1.0
172
     1
173
     1
284
     8
285
     8
286
     8
340
A1E9
  0
ENDTAB
  0
TABLE
  2
BLOCK_RECORD
  5
A1D9
330
0
100
AcDbSymbolTable
 70
     0
  0
BLOCK_RECORD
  5
A1F6
102
{ACAD_XDICTIONARY
360
A3FD
102
}
330
A1D9
100
AcDbSymbolTableRecord
100
AcDbBlockTableRecord
  2
*MODEL_SPACE
340
A46E
  0
BLOCK_RECORD
  5
A1F2
102
{ACAD_XDICTIONARY
360
A3FB
102
}
330
A1D9
100
AcDbSymbolTableRecord
100
AcDbBlockTableRecord
  2
*PAPER_SPACE
340
A46F
  0
ENDTAB
  0
ENDSEC
  0
SECTION
  2
BLOCKS
  0
BLOCK
  5
A1F7
330
A1F6
100
AcDbEntity
  8
0
100
AcDbBlockBegin
  2
*MODEL_SPACE
 70
     0
 10
0.0
 20
0.0
 30
0.0
  3
*MODEL_SPACE
  1

  0
ENDBLK
  5
A1F8
330
A1F6
100
AcDbEntity
  8
0
100
AcDbBlockEnd
  0
BLOCK
  5
A1F3
330
A1F2
100
AcDbEntity
 67
     1
  8
0
100
AcDbBlockBegin
  2
*PAPER_SPACE
 70
     0
 10
0.0
 20
0.0
 30
0.0
  3
*PAPER_SPACE
  1

  0
ENDBLK
  5
A1F4
330
A1F2
100
AcDbEntity
 67
     1
  8
0
100
AcDbBlockEnd
  0
ENDSEC
  0
SECTION
  2
ENTITIES
  0
TEXT
  5
A20E
330
A1F6
100
AcDbEntity
  8
7
  6
Continuous
100
AcDbText
 10
10.0
 20
18.0
 30
0.0
 40
3.0
  1
TYPE No.TCA-420EA-R125
100
AcDbText
  0
TEXT
  5
A20F
330
A1F6
100
AcDbEntity
  8
7
  6
Continuous
100
AcDbText
 10
10.0
 20
26.0
 30
0.0
 40
3.0
  1
CODE No.9769
100
AcDbText
  0
TEXT
  5
A210
330
A1F6
100
AcDbEntity
  8
1
  6
Continuous
100
AcDbText
 10
10.0
 20
10.0
 30
0.0
 40
1.399999999999999
  1
LAYER
100
AcDbText
  0
TEXT
  5
A211
330
A1F6
100
AcDbEntity
  8
1
  6
Continuous
100
AcDbText
 10
17.97951099999998
 20
10.04873699999998
 30
0.0
 40
1.399999999999999
  1
1
100
AcDbText
  0
TEXT
  5
A212
330
A1F6
100
AcDbEntity
  8
7
  6
Continuous
100
AcDbText
 10
29.97951099999999
 20
10.04873699999998
 30
0.0
 40
1.399999999999999
  1
7
100
AcDbText
  0
TEXT
  5
A213
330
A1F6
100
AcDbEntity
  8
4
  6
CENTER
100
AcDbText
 10
23.97951099999999
 20
10.04873699999998
 30
0.0
 40
1.399999999999999
  1
4
100
AcDbText
  0
TEXT
  5
A214
330
A1F6
100
AcDbEntity
  8
3
  6
DASHED
100
AcDbText
 10
21.979511
 20
10.04873699999998
 30
0.0
 40
1.399999999999999
  1
3
100
AcDbText
  0
TEXT
  5
A215
330
A1F6
100
AcDbEntity
  8
2
  6
Continuous
100
AcDbText
 10
19.97951099999998
 20
10.04873699999998
 30
0.0
 40
1.399999999999999
  1
2
100
AcDbText
  0
TEXT
  5
A216
330
A1F6
100
AcDbEntity
  8
6
  6
Continuous
100
AcDbText
 10
27.979511
 20
10.04873699999998
 30
0.0
 40
1.399999999999999
  1
6
100
AcDbText
  0
TEXT
  5
A217
330
A1F6
100
AcDbEntity
  8
5
  6
PHANTOM
100
AcDbText
 10
25.97951099999999
 20
10.04873699999998
 30
0.0
 40
1.399999999999999
  1
5
100
AcDbText
  0
LINE
  5
A218
330
A1F6
100
AcDbEntity
  8
4
  6
CENTER
100
AcDbLine
 10
57.22022299999999
 20
372.8716129999999
 30
0.0
 11
57.22022299999999
 21
167.8716089999999
 31
0.0
  0
LINE
  5
A219
330
A1F6
100
AcDbEntity
  8
4
  6
CENTER
100
AcDbLine
 10
151.2202229999999
 20
468.1595029999998
 30
0.0
 11
294.7202229999998
 21
468.1595029999998
 31
0.0
  0
LINE
  5
A21A
330
A1F6
100
AcDbEntity
  8
4
  6
CENTER
100
AcDbLine
 10
260.7202229999999
 20
501.1595029999998
 30
0.0
 11
260.7202229999999
 21
435.1595029999998
 31
0.0
  0
LINE
  5
A21B
330
A1F6
100
AcDbEntity
  8
4
  6
CENTER
100
AcDbLine
 10
260.7202229999999
 20
40.87160899999996
 30
0.0
 11
260.7202229999999
 21
106.8716089999999
 31
0.0
  0
LINE
  5
A21C
330
A1F6
100
AcDbEntity
  8
4
  6
CENTER
100
AcDbLine
 10
151.2202229999999
 20
73.87160899999997
 30
0.0
 11
294.7202229999998
 21
73.87160899999997
 31
0.0
  0
LINE
  5
A21D
330
A1F6
100
AcDbEntity
  8
4
  6
CENTER
100
AcDbLine
 10
221.720223
 20
304.453911
 30
0.0
 11
221.720223
 21
167.8716089999998
 31
0.0
  0
LINE
  5
A21E
330
A1F6
100
AcDbEntity
  8
4
  6
CENTER
100
AcDbLine
 10
260.7202229999999
 20
372.8716129999999
 30
0.0
 11
260.7202229999999
 21
269.604939
 31
0.0
  0
LINE
  5
A21F
330
A1F6
100
AcDbEntity
  8
1
  6
Continuous
100
AcDbLine
 10
239.7202229999999
 20
306.771612
 30
0.0
 11
239.7202229999999
 21
254.3716089999997
 31
0.0
  0
LINE
  5
A220
330
A1F6
100
AcDbEntity
  8
1
  6
Continuous
100
AcDbLine
 10
231.311406
 20
232.985485
 30
0.0
 11
268.6364299999999
 21
299.450985
 31
0.0
  0
LINE
  5
A221
330
A1F6
100
AcDbEntity
  8
1
  6
Continuous
100
AcDbLine
 10
210.747018
 20
239.138924
 30
0.0
 11
215.3037669999999
 21
304.3034329999998
 31
0.0
  0
ARC
  5
A222
330
A1F6
100
AcDbEntity
  8
1
  6
Continuous
100
AcDbCircle
 10
221.720223
 20
238.3716089999999
 30
0.0
 40
62.5
100
AcDbArc
 50
96.136852
 51
50.54584099999998
  0
LINE
  5
A223
330
A1F6
100
AcDbEntity
  8
4
  6
CENTER
100
AcDbLine
 10
151.2202229999997
 20
238.3716089999999
 30
0.0
 11
292.2202229999998
 21
238.3716089999999
 31
0.0
  0
ARC
  5
A224
330
A1F6
100
AcDbEntity
  8
1
  6
Continuous
100
AcDbCircle
 10
221.720223
 20
238.3716089999999
 30
0.0
 40
31.5
100
AcDbArc
 50
106.4387799999997
 51
40.24386699999999
  0
ARC
  5
A225
330
A1F6
100
AcDbEntity
  8
1
  6
Continuous
100
AcDbCircle
 10
221.720223
 20
238.3716089999999
 30
0.0
 40
44.5
100
AcDbArc
 50
100.3113499999999
 51
46.37131199999998
  0
CIRCLE
  5
A226
330
A1F6
100
AcDbEntity
  8
1
  6
Continuous
100
AcDbCircle
 10
221.720223
 20
238.3716089999999
 30
0.0
 40
6.25
  0
ARC
  5
A227
330
A1F6
100
AcDbEntity
  8
1
  6
Continuous
100
AcDbCircle
 10
221.720223
 20
238.3716089999999
 30
0.0
 40
15.5
100
AcDbArc
 50
131.2086699999997
 51
15.47380399999999
  0
ARC
  5
A228
330
A1F6
100
AcDbEntity
  8
1
  6
Continuous
100
AcDbCircle
 10
221.720223
 20
238.3716089999999
 30
0.0
 40
11.0
100
AcDbArc
 50
176.00003
 51
330.68273
  0
CIRCLE
  5
A229
330
A1F6
100
AcDbEntity
  8
1
  6
Continuous
100
AcDbCircle
 10
221.720223
 20
238.3716089999999
 30
0.0
 40
1.5
  0
LINE
  5
A22A
330
A1F6
100
AcDbEntity
  8
1
  6
Continuous
100
AcDbLine
 10
240.720223
 20
315.971604
 30
0.0
 11
280.7202229999999
 21
315.971604
 31
0.0
  0
LINE
  5
A22B
330
A1F6
100
AcDbEntity
  8
1
  6
Continuous
100
AcDbLine
 10
209.720223
 20
306.471606
 30
0.0
 11
238.5617429999999
 21
311.557144
 31
0.0
  0
LINE
  5
A22C
330
A1F6
100
AcDbEntity
  8
1
  6
Continuous
100
AcDbLine
 10
210.119614
 20
304.206547
 30
0.0
 11
214.1011289999999
 21
304.9085959999998
 31
0.0
  0
LINE
  5
A22D
330
A1F6
100
AcDbEntity
  8
1
  6
Continuous
100
AcDbLine
 10
209.720223
 20
306.471606
 30
0.0
 11
210.119614
 21
304.206547
 31
0.0
  0
ARC
  5
A22E
330
A1F6
100
AcDbEntity
  8
1
  6
Continuous
100
AcDbCircle
 10
214.274777
 20
303.9237879999999
 30
0.0
 40
1.0
100
AcDbArc
 50
356.0
 51
100.00001
  0
ARC
  5
A22F
330
A1F6
100
AcDbEntity
  8
1
  6
Continuous
100
AcDbCircle
 10
212.809857
 20
304.4778239999998
 30
0.0
 40
2.5
100
AcDbArc
 50
356.0
 51
100.0000199999999
  0
ARC
  5
A230
330
A1F6
100
AcDbEntity
  8
1
  6
Continuous
100
AcDbCircle
 10
242.920197
 20
317.449612
 30
0.0
 40
2.778
100
AcDbArc
 50
189.9080999999999
 51
212.1433699999999
  0
ARC
  5
A231
330
A1F6
100
AcDbEntity
  8
1
  6
Continuous
100
AcDbCircle
 10
250.2790529999999
 20
317.449612
 30
0.0
 40
2.778
100
AcDbArc
 50
189.9080999999999
 51
212.1434
  0
ARC
  5
A232
330
A1F6
100
AcDbEntity
  8
1
  6
Continuous
100
AcDbCircle
 10
246.3430789999999
 20
317.449612
 30
0.0
 40
2.778
100
AcDbArc
 50
189.9080999999999
 51
212.1434
  0
ARC
  5
A233
330
A1F6
100
AcDbEntity
  8
1
  6
Continuous
100
AcDbCircle
 10
243.807839
 20
317.449612
 30
0.0
 40
2.778
100
AcDbArc
 50
189.9080999999999
 51
212.1433699999999
  0
LINE
  5
A234
330
A1F6
100
AcDbEntity
  8
1
  6
Continuous
100
AcDbLine
 10
281.69571
 20
307.071608
 30
0.0
 11
285.720223
 21
307.071608
 31
0.0
  0
ARC
  5
A235
330
A1F6
100
AcDbEntity
  8
1
  6
Continuous
100
AcDbCircle
 10
281.69571
 20
292.071608
 30
0.0
 40
15.0
100
AcDbArc
 50
89.99998199999996
 51
150.68277
  0
ARC
  5
A236
330
A1F6
100
AcDbEntity
  8
1
  6
Continuous
100
AcDbCircle
 10
260.7202079999999
 20
317.449612
 30
0.0
 40
2.778
100
AcDbArc
 50
327.8565799999999
 51
350.09193
  0
ARC
  5
A237
330
A1F6
100
AcDbEntity
  8
1
  6
Continuous
100
AcDbCircle
 10
266.208123
 20
317.449612
 30
0.0
 40
2.778
100
AcDbArc
 50
189.90804
 51
212.1434
  0
ARC
  5
A238
330
A1F6
100
AcDbEntity
  8
1
  6
Continuous
100
AcDbCircle
 10
260.7202079999999
 20
317.449612
 30
0.0
 40
2.778
100
AcDbArc
 50
189.9080999999999
 51
212.1434
  0
ARC
  5
A239
330
A1F6
100
AcDbEntity
  8
1
  6
Continuous
100
AcDbCircle
 10
255.232293
 20
317.449612
 30
0.0
 40
2.778
100
AcDbArc
 50
189.9080999999999
 51
212.1434
  0
ARC
  5
A23A
330
A1F6
100
AcDbEntity
  8
1
  6
Continuous
100
AcDbCircle
 10
255.232293
 20
317.449612
 30
0.0
 40
2.778
100
AcDbArc
 50
327.8565799999999
 51
350.0919899999999
  0
ARC
  5
A23B
330
A1F6
100
AcDbEntity
  8
1
  6
Continuous
100
AcDbCircle
 10
278.520218
 20
317.449612
 30
0.0
 40
2.778
100
AcDbArc
 50
327.85663
 51
350.09193
  0
ARC
  5
A23C
330
A1F6
100
AcDbEntity
  8
1
  6
Continuous
100
AcDbCircle
 10
275.0973359999999
 20
317.449612
 30
0.0
 40
2.778
100
AcDbArc
 50
327.85663
 51
350.09193
  0
ARC
  5
A23D
330
A1F6
100
AcDbEntity
  8
1
  6
Continuous
100
AcDbCircle
 10
277.632577
 20
317.449612
 30
0.0
 40
2.778
100
AcDbArc
 50
327.85663
 51
350.09193
  0
ARC
  5
A23E
330
A1F6
100
AcDbEntity
  8
1
  6
Continuous
100
AcDbCircle
 10
266.208123
 20
317.449612
 30
0.0
 40
2.778
100
AcDbArc
 50
327.8565799999999
 51
350.09193
  0
ARC
  5
A23F
330
A1F6
100
AcDbEntity
  8
1
  6
Continuous
100
AcDbCircle
 10
271.161362
 20
317.449612
 30
0.0
 40
2.778
100
AcDbArc
 50
327.8565799999999
 51
350.09193
  0
LINE
  5
A240
330
A1F6
100
AcDbEntity
  8
1
  6
Continuous
100
AcDbLine
 10
546.0910619999999
 20
241.6216059999999
 30
0.0
 11
546.0910619999999
 21
235.1216109999997
 31
0.0
  0
LINE
  5
A241
330
A1F6
100
AcDbEntity
  8
1
  6
Continuous
100
AcDbLine
 10
557.349383
 20
235.1216109999997
 30
0.0
 11
557.349383
 21
241.6216059999999
 31
0.0
  0
CIRCLE
  5
A242
330
A1F6
100
AcDbEntity
  8
1
  6
Continuous
100
AcDbCircle
 10
551.720223
 20
238.3716089999999
 30
0.0
 40
4.0
  0
CIRCLE
  5
A243
330
A1F6
100
AcDbEntity
  8
2
  6
Continuous
100
AcDbCircle
 10
551.720223
 20
238.3716089999999
 30
0.0
 40
3.3235
  0
LINE
  5
A244
330
A1F6
100
AcDbEntity
  8
1
  6
Continuous
100
AcDbLine
 10
546.0910619999999
 20
235.1216109999997
 30
0.0
 11
551.720223
 21
231.8716139999999
 31
0.0
  0
LINE
  5
A245
330
A1F6
100
AcDbEntity
  8
1
  6
Continuous
100
AcDbLine
 10
551.720223
 20
231.8716139999999
 30
0.0
 11
557.349383
 21
235.1216109999997
 31
0.0
  0
LINE
  5
A246
330
A1F6
100
AcDbEntity
  8
1
  6
Continuous
100
AcDbLine
 10
551.720223
 20
244.8716029999999
 30
0.0
 11
546.0910619999999
 21
241.6216059999999
 31
0.0
  0
LINE
  5
A247
330
A1F6
100
AcDbEntity
  8
1
  6
Continuous
100
AcDbLine
 10
557.349383
 20
241.6216059999999
 30
0.0
 11
551.720223
 21
244.8716029999999
 31
0.0
  0
LINE
  5
A248
330
A1F6
100
AcDbEntity
  8
1
  6
Continuous
100
AcDbLine
 10
43.720223
 20
297.892124
 30
0.0
 11
43.720223
 21
178.851087
 31
0.0
  0
LINE
  5
A249
330
A1F6
100
AcDbEntity
  8
1
  6
Continuous
100
AcDbLine
 10
70.720223
 20
297.892124
 30
0.0
 11
70.720223
 21
178.851087
 31
0.0
  0
LINE
  5
A24A
330
A1F6
100
AcDbEntity
  8
1
  6
Continuous
100
AcDbLine
 10
82.220223
 20
310.9716
 30
0.0
 11
82.220223
 21
285.354425
 31
0.0
  0
LINE
  5
A24B
330
A1F6
100
AcDbEntity
  8
1
  6
Continuous
100
AcDbLine
 10
32.22022299999999
 20
310.9716
 30
0.0
 11
32.22022299999999
 21
285.354425
 31
0.0
  0
LINE
  5
A24C
330
A1F6
100
AcDbEntity
  8
1
  6
Continuous
100
AcDbLine
 10
73.220223
 20
304.078213
 30
0.0
 11
73.220223
 21
227.3716089999997
 31
0.0
  0
LINE
  5
A24D
330
A1F6
100
AcDbEntity
  8
1
  6
Continuous
100
AcDbLine
 10
41.220223
 20
304.078213
 30
0.0
 11
41.220223
 21
227.3716089999997
 31
0.0
  0
LINE
  5
A24E
330
A1F6
100
AcDbEntity
  8
1
  6
Continuous
100
AcDbLine
 10
38.920233
 20
304.0279509999998
 30
0.0
 11
38.920233
 21
227.3716089999997
 31
0.0
  0
LINE
  5
A24F
330
A1F6
100
AcDbEntity
  8
1
  6
Continuous
100
AcDbLine
 10
75.520223
 20
304.0279509999998
 30
0.0
 11
75.520223
 21
227.3716089999997
 31
0.0
  0
ARC
  5
A250
330
A1F6
100
AcDbEntity
  8
1
  6
Continuous
100
AcDbCircle
 10
57.22022299999999
 20
245.8716089999998
 30
0.0
 40
70.0
100
AcDbArc
 50
260.26346
 51
279.737953
  0
ARC
  5
A251
330
A1F6
100
AcDbEntity
  8
1
  6
Continuous
100
AcDbCircle
 10
45.72022299999999
 20
178.8510889999997
 30
0.0
 40
2.0
100
AcDbArc
 50
179.9999799999999
 51
260.26346
  0
ARC
  5
A252
330
A1F6
100
AcDbEntity
  8
1
  6
Continuous
100
AcDbCircle
 10
68.72022300000001
 20
178.8510889999997
 30
0.0
 40
2.0
100
AcDbArc
 50
279.73647
 51
359.99995
  0
LINE
  5
A253
330
A1F6
100
AcDbEntity
  8
4
  6
CENTER
100
AcDbLine
 10
26.92023300000001
 20
238.3716089999999
 30
0.0
 11
83.720203
 21
238.3716089999999
 31
0.0
  0
LINE
  5
A254
330
A1F6
100
AcDbEntity
  8
1
  6
Continuous
100
AcDbLine
 10
42.22022299999999
 20
251.3716089999999
 30
0.0
 11
42.22022299999999
 21
225.371606
 31
0.0
  0
ARC
  5
A255
330
A1F6
100
AcDbEntity
  8
1
  6
Continuous
100
AcDbCircle
 10
38.17023300000001
 20
243.313237
 30
0.0
 40
3.25
100
AcDbArc
 50
151.34725
 51
211.3657499999999
  0
ARC
  5
A256
330
A1F6
100
AcDbEntity
  8
1
  6
Continuous
100
AcDbCircle
 10
35.67023300000001
 20
243.313237
 30
0.0
 40
3.25
100
AcDbArc
 50
328.6342
 51
28.65276699999999
  0
LINE
  5
A257
330
A1F6
100
AcDbEntity
  8
1
  6
Continuous
100
AcDbLine
 10
33.920233
 20
243.473622
 30
0.0
 11
33.920233
 21
233.269596
 31
0.0
  0
LINE
  5
A258
330
A1F6
100
AcDbEntity
  8
1
  6
Continuous
100
AcDbLine
 10
35.39518300000001
 20
235.1216089999998
 30
0.0
 11
38.44529299999999
 21
235.1216089999998
 31
0.0
  0
LINE
  5
A259
330
A1F6
100
AcDbEntity
  8
1
  6
Continuous
100
AcDbLine
 10
35.36872299999997
 20
241.6216089999998
 30
0.0
 11
38.47175299999999
 21
241.6216089999998
 31
0.0
  0
ARC
  5
A25A
330
A1F6
100
AcDbEntity
  8
1
  6
Continuous
100
AcDbCircle
 10
46.920233
 20
238.3716089999999
 30
0.0
 40
12.0
100
AcDbArc
 50
164.2861599999999
 51
195.71383
  0
ARC
  5
A25B
330
A1F6
100
AcDbEntity
  8
1
  6
Continuous
100
AcDbCircle
 10
26.92023300000001
 20
238.3716089999999
 30
0.0
 40
12.0
100
AcDbArc
 50
344.2861399999999
 51
15.71386099999998
  0
LINE
  5
A25C
330
A1F6
100
AcDbEntity
  8
1
  6
Continuous
100
AcDbLine
 10
38.920233
 20
227.3716089999997
 30
0.0
 11
41.220223
 21
227.3716089999997
 31
0.0
  0
LINE
  5
A25D
330
A1F6
100
AcDbEntity
  8
1
  6
Continuous
100
AcDbLine
 10
41.220223
 20
234.371609
 30
0.0
 11
42.22022299999999
 21
234.371609
 31
0.0
  0
LINE
  5
A25E
330
A1F6
100
AcDbEntity
  8
1
  6
Continuous
100
AcDbLine
 10
35.318233
 20
231.8716089999998
 30
0.0
 11
38.52224299999999
 21
231.8716089999998
 31
0.0
  0
LINE
  5
A25F
330
A1F6
100
AcDbEntity
  8
1
  6
Continuous
100
AcDbLine
 10
35.318263
 20
231.8716279999999
 30
0.0
 11
33.92028299999999
 21
233.269619
 31
0.0
  0
ARC
  5
A260
330
A1F6
100
AcDbEntity
  8
1
  6
Continuous
100
AcDbCircle
 10
45.22022299999998
 20
225.3716089999997
 30
0.0
 40
3.0
100
AcDbArc
 50
179.9999799999999
 51
239.99998
  0
ARC
  5
A261
330
A1F6
100
AcDbEntity
  8
1
  6
Continuous
100
AcDbCircle
 10
35.67023300000001
 20
233.429981
 30
0.0
 40
3.25
100
AcDbArc
 50
331.3472299999999
 51
31.365793
  0
ARC
  5
A262
330
A1F6
100
AcDbEntity
  8
1
  6
Continuous
100
AcDbCircle
 10
38.17023300000001
 20
233.429981
 30
0.0
 40
3.25
100
AcDbArc
 50
148.63423
 51
208.6527299999999
  0
ARC
  5
A263
330
A1F6
100
AcDbEntity
  8
1
  6
Continuous
100
AcDbCircle
 10
142.220223
 20
285.354425
 30
0.0
 40
110.0
100
AcDbArc
 50
179.9999799999999
 51
200.10056
  0
LINE
  5
A264
330
A1F6
100
AcDbEntity
  8
1
  6
Continuous
100
AcDbLine
 10
41.220223
 20
242.3716089999998
 30
0.0
 11
42.22022299999999
 21
242.3716089999998
 31
0.0
  0
LINE
  5
A265
330
A1F6
100
AcDbEntity
  8
1
  6
Continuous
100
AcDbLine
 10
35.318233
 20
244.871609
 30
0.0
 11
38.52224299999999
 21
244.871609
 31
0.0
  0
LINE
  5
A266
330
A1F6
100
AcDbEntity
  8
1
  6
Continuous
100
AcDbLine
 10
33.92026299999999
 20
243.473614
 30
0.0
 11
35.318243
 21
244.871598
 31
0.0
  0
ARC
  5
A267
330
A1F6
100
AcDbEntity
  8
1
  6
Continuous
100
AcDbCircle
 10
45.22022299999998
 20
251.3716089999999
 30
0.0
 40
3.0
100
AcDbArc
 50
120.0000199999999
 51
180.00002
  0
LINE
  5
A268
330
A1F6
100
AcDbEntity
  8
1
  6
Continuous
100
AcDbLine
 10
72.220223
 20
251.3716089999999
 30
0.0
 11
72.220223
 21
225.371606
 31
0.0
  0
LINE
  5
A269
330
A1F6
100
AcDbEntity
  8
1
  6
Continuous
100
AcDbLine
 10
78.72020299999999
 20
242.621609
 30
0.0
 11
78.72020299999999
 21
234.1216089999999
 31
0.0
  0
ARC
  5
A26A
330
A1F6
100
AcDbEntity
  8
1
  6
Continuous
100
AcDbCircle
 10
76.72020299999998
 20
234.1216089999999
 30
0.0
 40
2.0
100
AcDbArc
 50
270.00002
 51
0.0
  0
LINE
  5
A26B
330
A1F6
100
AcDbEntity
  8
1
  6
Continuous
100
AcDbLine
 10
75.520223
 20
227.3716089999997
 30
0.0
 11
73.220223
 21
227.3716089999997
 31
0.0
  0
LINE
  5
A26C
330
A1F6
100
AcDbEntity
  8
1
  6
Continuous
100
AcDbLine
 10
75.520223
 20
232.1216089999999
 30
0.0
 11
76.72020299999998
 21
232.1216089999999
 31
0.0
  0
LINE
  5
A26D
330
A1F6
100
AcDbEntity
  8
1
  6
Continuous
100
AcDbLine
 10
72.220223
 20
234.371609
 30
0.0
 11
73.220223
 21
234.371609
 31
0.0
  0
ARC
  5
A26E
330
A1F6
100
AcDbEntity
  8
1
  6
Continuous
100
AcDbCircle
 10
69.220223
 20
225.3716089999997
 30
0.0
 40
3.0
100
AcDbArc
 50
300.00001
 51
359.99995
  0
ARC
  5
A26F
330
A1F6
100
AcDbEntity
  8
1
  6
Continuous
100
AcDbCircle
 10
-27.779777
 20
285.354425
 30
0.0
 40
110.0
100
AcDbArc
 50
339.8994099999999
 51
359.9999899999998
  0
ARC
  5
A270
330
A1F6
100
AcDbEntity
  8
1
  6
Continuous
100
AcDbCircle
 10
76.72020299999998
 20
242.621609
 30
0.0
 40
2.0
100
AcDbArc
 50
0.0
 51
89.99998199999996
  0
LINE
  5
A271
330
A1F6
100
AcDbEntity
  8
1
  6
Continuous
100
AcDbLine
 10
75.520223
 20
244.6216089999999
 30
0.0
 11
76.72020299999998
 21
244.6216089999999
 31
0.0
  0
LINE
  5
A272
330
A1F6
100
AcDbEntity
  8
1
  6
Continuous
100
AcDbLine
 10
72.220223
 20
242.3716089999998
 30
0.0
 11
73.220223
 21
242.3716089999998
 31
0.0
  0
ARC
  5
A273
330
A1F6
100
AcDbEntity
  8
1
  6
Continuous
100
AcDbCircle
 10
69.220223
 20
251.3716089999999
 30
0.0
 40
3.0
100
AcDbArc
 50
0.000055
 51
59.999995
  0
ARC
  5
A274
330
A1F6
100
AcDbEntity
  8
1
  6
Continuous
100
AcDbCircle
 10
57.22022299999999
 20
230.8716089999998
 30
0.0
 40
70.0
100
AcDbArc
 50
80.26348
 51
99.73654000000003
  0
LINE
  5
A275
330
A1F6
100
AcDbEntity
  8
1
  6
Continuous
100
AcDbLine
 10
37.22022299999999
 20
315.9716
 30
0.0
 11
77.220223
 21
315.9716
 31
0.0
  0
ARC
  5
A276
330
A1F6
100
AcDbEntity
  8
1
  6
Continuous
100
AcDbCircle
 10
57.22022299999999
 20
439.573819
 30
0.0
 40
128.4999999999998
100
AcDbArc
 50
262.8473099999999
 51
277.1526699999999
  0
ARC
  5
A277
330
A1F6
100
AcDbEntity
  8
1
  6
Continuous
100
AcDbCircle
 10
57.22022299999999
 20
434.9715989999999
 30
0.0
 40
128.4999999999998
100
AcDbArc
 50
263.46506
 51
276.53492
  0
ARC
  5
A278
330
A1F6
100
AcDbEntity
  8
1
  6
Continuous
100
AcDbCircle
 10
57.22022299999999
 20
432.706559
 30
0.0
 40
128.4999999999998
100
AcDbArc
 50
263.34847
 51
276.6515099999999
  0
ARC
  5
A279
330
A1F6
100
AcDbEntity
  8
1
  6
Continuous
100
AcDbCircle
 10
42.220243
 20
304.0279509999998
 30
0.0
 40
3.299999999999998
100
AcDbArc
 50
83.465158
 51
179.9999599999999
  0
ARC
  5
A27A
330
A1F6
100
AcDbEntity
  8
1
  6
Continuous
100
AcDbCircle
 10
42.22022299999999
 20
304.078213
 30
0.0
 40
1.0
100
AcDbArc
 50
83.348539
 51
179.9999599999999
  0
ARC
  5
A27B
330
A1F6
100
AcDbEntity
  8
1
  6
Continuous
100
AcDbCircle
 10
45.72022299999999
 20
297.892124
 30
0.0
 40
2.0
100
AcDbArc
 50
99.73654000000003
 51
180.00002
  0
ARC
  5
A27C
330
A1F6
100
AcDbEntity
  8
1
  6
Continuous
100
AcDbCircle
 10
37.22022299999999
 20
310.9716
 30
0.0
 40
5.0
100
AcDbArc
 50
89.99998199999996
 51
179.9999599999999
  0
ARC
  5
A27D
330
A1F6
100
AcDbEntity
  8
1
  6
Continuous
100
AcDbCircle
 10
46.779063
 20
317.449612
 30
0.0
 40
2.778
100
AcDbArc
 50
189.9080999999999
 51
212.14351
  0
ARC
  5
A27E
330
A1F6
100
AcDbEntity
  8
1
  6
Continuous
100
AcDbCircle
 10
39.420203
 20
317.449612
 30
0.0
 40
2.778
100
AcDbArc
 50
189.9080999999999
 51
212.14351
  0
ARC
  5
A27F
330
A1F6
100
AcDbEntity
  8
1
  6
Continuous
100
AcDbCircle
 10
42.843083
 20
317.449612
 30
0.0
 40
2.778
100
AcDbArc
 50
189.9080999999999
 51
212.14351
  0
ARC
  5
A280
330
A1F6
100
AcDbEntity
  8
1
  6
Continuous
100
AcDbCircle
 10
40.30784299999999
 20
317.449612
 30
0.0
 40
2.778
100
AcDbArc
 50
189.9080999999999
 51
212.14351
  0
ARC
  5
A281
330
A1F6
100
AcDbEntity
  8
1
  6
Continuous
100
AcDbCircle
 10
62.708123
 20
317.449612
 30
0.0
 40
2.778
100
AcDbArc
 50
189.90804
 51
212.14351
  0
ARC
  5
A282
330
A1F6
100
AcDbEntity
  8
1
  6
Continuous
100
AcDbCircle
 10
57.220203
 20
317.449612
 30
0.0
 40
2.778
100
AcDbArc
 50
327.8564799999998
 51
350.09193
  0
ARC
  5
A283
330
A1F6
100
AcDbEntity
  8
1
  6
Continuous
100
AcDbCircle
 10
51.732293
 20
317.449612
 30
0.0
 40
2.778
100
AcDbArc
 50
189.9080999999999
 51
212.14351
  0
ARC
  5
A284
330
A1F6
100
AcDbEntity
  8
1
  6
Continuous
100
AcDbCircle
 10
57.220203
 20
317.449612
 30
0.0
 40
2.778
100
AcDbArc
 50
189.9080999999999
 51
212.14351
  0
ARC
  5
A285
330
A1F6
100
AcDbEntity
  8
1
  6
Continuous
100
AcDbCircle
 10
51.732293
 20
317.449612
 30
0.0
 40
2.778
100
AcDbArc
 50
327.8564799999998
 51
350.0919899999999
  0
ARC
  5
A286
330
A1F6
100
AcDbEntity
  8
1
  6
Continuous
100
AcDbCircle
 10
46.779063
 20
317.449612
 30
0.0
 40
2.778
100
AcDbArc
 50
327.8564799999998
 51
333.0638399999999
  0
ARC
  5
A287
330
A1F6
100
AcDbEntity
  8
1
  6
Continuous
100
AcDbCircle
 10
72.220223
 20
304.0279509999998
 30
0.0
 40
3.299999999999998
100
AcDbArc
 50
0.0
 51
96.53486100000002
  0
ARC
  5
A288
330
A1F6
100
AcDbEntity
  8
1
  6
Continuous
100
AcDbCircle
 10
72.220223
 20
304.078213
 30
0.0
 40
1.0
100
AcDbArc
 50
0.0
 51
96.65148000000002
  0
ARC
  5
A289
330
A1F6
100
AcDbEntity
  8
1
  6
Continuous
100
AcDbCircle
 10
68.72022300000001
 20
297.892124
 30
0.0
 40
2.0
100
AcDbArc
 50
0.000055
 51
80.26353399999996
  0
ARC
  5
A28A
330
A1F6
100
AcDbEntity
  8
1
  6
Continuous
100
AcDbCircle
 10
77.220223
 20
310.9716
 30
0.0
 40
5.0
100
AcDbArc
 50
0.0
 51
89.99998199999996
  0
ARC
  5
A28B
330
A1F6
100
AcDbEntity
  8
1
  6
Continuous
100
AcDbCircle
 10
75.020213
 20
317.449612
 30
0.0
 40
2.778
100
AcDbArc
 50
327.80113
 51
350.09193
  0
ARC
  5
A28C
330
A1F6
100
AcDbEntity
  8
1
  6
Continuous
100
AcDbCircle
 10
74.13257299999997
 20
317.449612
 30
0.0
 40
2.778
100
AcDbArc
 50
327.8564799999998
 51
350.09193
  0
ARC
  5
A28D
330
A1F6
100
AcDbEntity
  8
1
  6
Continuous
100
AcDbCircle
 10
71.59733299999998
 20
317.449612
 30
0.0
 40
2.778
100
AcDbArc
 50
327.8564799999998
 51
350.09193
  0
ARC
  5
A28E
330
A1F6
100
AcDbEntity
  8
1
  6
Continuous
100
AcDbCircle
 10
62.708123
 20
317.449612
 30
0.0
 40
2.778
100
AcDbArc
 50
327.8564799999998
 51
350.09193
  0
ARC
  5
A28F
330
A1F6
100
AcDbEntity
  8
1
  6
Continuous
100
AcDbCircle
 10
67.66135300000001
 20
317.449612
 30
0.0
 40
2.778
100
AcDbArc
 50
327.8564799999998
 51
350.09193
  0
ARC
  5
A290
330
A1F6
100
AcDbEntity
  8
1
  6
Continuous
100
AcDbCircle
 10
67.66135300000001
 20
317.449612
 30
0.0
 40
2.778
100
AcDbArc
 50
206.9362
 51
212.14351
  0
LINE
  5
A291
330
A1F6
100
AcDbEntity
  8
1
  6
Continuous
100
AcDbLine
 10
374.2202229999999
 20
297.892124
 30
0.0
 11
374.2202229999999
 21
178.851087
 31
0.0
  0
LINE
  5
A292
330
A1F6
100
AcDbEntity
  8
1
  6
Continuous
100
AcDbLine
 10
401.2202229999998
 20
297.892124
 30
0.0
 11
401.2202229999998
 21
178.851087
 31
0.0
  0
ARC
  5
A293
330
A1F6
100
AcDbEntity
  8
1
  6
Continuous
100
AcDbCircle
 10
387.7202229999999
 20
245.8716089999998
 30
0.0
 40
70.0
100
AcDbArc
 50
260.262047
 51
279.7365399999999
  0
ARC
  5
A294
330
A1F6
100
AcDbEntity
  8
1
  6
Continuous
100
AcDbCircle
 10
399.2202229999999
 20
178.8510889999997
 30
0.0
 40
2.0
100
AcDbArc
 50
279.7365399999999
 51
0.00002
  0
ARC
  5
A295
330
A1F6
100
AcDbEntity
  8
1
  6
Continuous
100
AcDbCircle
 10
376.2202229999999
 20
178.8510889999997
 30
0.0
 40
2.0
100
AcDbArc
 50
180.0000499999999
 51
260.26353
  0
LINE
  5
A296
330
A1F6
100
AcDbEntity
  8
1
  6
Continuous
100
AcDbLine
 10
362.7202229999999
 20
310.9716
 30
0.0
 11
362.7202229999999
 21
285.354425
 31
0.0
  0
LINE
  5
A297
330
A1F6
100
AcDbEntity
  8
1
  6
Continuous
100
AcDbLine
 10
412.7202229999999
 20
310.9716
 30
0.0
 11
412.7202229999999
 21
285.354425
 31
0.0
  0
LINE
  5
A298
330
A1F6
100
AcDbEntity
  8
1
  6
Continuous
100
AcDbLine
 10
369.420223
 20
254.7893939999999
 30
0.0
 11
369.420223
 21
227.3716089999997
 31
0.0
  0
LINE
  5
A299
330
A1F6
100
AcDbEntity
  8
1
  6
Continuous
100
AcDbLine
 10
406.020213
 20
254.7893719999999
 30
0.0
 11
406.020213
 21
227.3716089999997
 31
0.0
  0
LINE
  5
A29A
330
A1F6
100
AcDbEntity
  8
1
  6
Continuous
100
AcDbLine
 10
403.720223
 20
304.078213
 30
0.0
 11
403.720223
 21
227.3716089999997
 31
0.0
  0
LINE
  5
A29B
330
A1F6
100
AcDbEntity
  8
1
  6
Continuous
100
AcDbLine
 10
371.7202229999998
 20
304.078213
 30
0.0
 11
371.7202229999998
 21
227.3716089999997
 31
0.0
  0
LINE
  5
A29C
330
A1F6
100
AcDbEntity
  8
4
  6
CENTER
100
AcDbLine
 10
387.7202229999999
 20
372.8716129999999
 30
0.0
 11
387.7202229999999
 21
167.8716089999999
 31
0.0
  0
LINE
  5
A29D
330
A1F6
100
AcDbEntity
  8
4
  6
CENTER
100
AcDbLine
 10
418.020213
 20
238.3716089999999
 30
0.0
 11
361.2202429999999
 21
238.3716089999999
 31
0.0
  0
LINE
  5
A29E
330
A1F6
100
AcDbEntity
  8
1
  6
Continuous
100
AcDbLine
 10
402.7202229999998
 20
251.3716089999999
 30
0.0
 11
402.7202229999998
 21
225.371606
 31
0.0
  0
LINE
  5
A29F
330
A1F6
100
AcDbEntity
  8
1
  6
Continuous
100
AcDbLine
 10
406.020213
 20
227.3716089999997
 30
0.0
 11
403.720223
 21
227.3716089999997
 31
0.0
  0
ARC
  5
A2A0
330
A1F6
100
AcDbEntity
  8
1
  6
Continuous
100
AcDbCircle
 10
399.7202229999999
 20
225.3716089999997
 30
0.0
 40
3.0
100
AcDbArc
 50
300.00002
 51
0.00002
  0
LINE
  5
A2A1
330
A1F6
100
AcDbEntity
  8
1
  6
Continuous
100
AcDbLine
 10
411.0201829999998
 20
243.473614
 30
0.0
 11
409.6222029999998
 21
244.871598
 31
0.0
  0
LINE
  5
A2A2
330
A1F6
100
AcDbEntity
  8
1
  6
Continuous
100
AcDbLine
 10
409.622213
 20
244.871609
 30
0.0
 11
406.418203
 21
244.871609
 31
0.0
  0
ARC
  5
A2A3
330
A1F6
100
AcDbEntity
  8
1
  6
Continuous
100
AcDbCircle
 10
406.7702129999998
 20
233.429981
 30
0.0
 40
3.25
100
AcDbArc
 50
331.3472699999998
 51
31.36577
  0
ARC
  5
A2A4
330
A1F6
100
AcDbEntity
  8
1
  6
Continuous
100
AcDbCircle
 10
409.270213
 20
233.429981
 30
0.0
 40
3.25
100
AcDbArc
 50
148.634207
 51
208.6527699999999
  0
LINE
  5
A2A5
330
A1F6
100
AcDbEntity
  8
1
  6
Continuous
100
AcDbLine
 10
409.622183
 20
231.8716279999999
 30
0.0
 11
411.0201629999998
 21
233.269619
 31
0.0
  0
LINE
  5
A2A6
330
A1F6
100
AcDbEntity
  8
1
  6
Continuous
100
AcDbLine
 10
409.622213
 20
231.8716089999998
 30
0.0
 11
406.418203
 21
231.8716089999998
 31
0.0
  0
LINE
  5
A2A7
330
A1F6
100
AcDbEntity
  8
1
  6
Continuous
100
AcDbLine
 10
403.720223
 20
234.371609
 30
0.0
 11
402.7202229999998
 21
234.371609
 31
0.0
  0
ARC
  5
A2A8
330
A1F6
100
AcDbEntity
  8
1
  6
Continuous
100
AcDbCircle
 10
418.020213
 20
238.3716089999999
 30
0.0
 40
12.0
100
AcDbArc
 50
164.286139
 51
195.71386
  0
ARC
  5
A2A9
330
A1F6
100
AcDbEntity
  8
1
  6
Continuous
100
AcDbCircle
 10
398.020213
 20
238.3716089999999
 30
0.0
 40
12.0
100
AcDbArc
 50
344.28617
 51
15.71384
  0
LINE
  5
A2AA
330
A1F6
100
AcDbEntity
  8
1
  6
Continuous
100
AcDbLine
 10
409.5717229999998
 20
241.6216089999998
 30
0.0
 11
406.4686929999998
 21
241.6216089999998
 31
0.0
  0
LINE
  5
A2AB
330
A1F6
100
AcDbEntity
  8
1
  6
Continuous
100
AcDbLine
 10
409.5452629999998
 20
235.1216089999998
 30
0.0
 11
406.495153
 21
235.1216089999998
 31
0.0
  0
LINE
  5
A2AC
330
A1F6
100
AcDbEntity
  8
1
  6
Continuous
100
AcDbLine
 10
403.720223
 20
242.3716089999998
 30
0.0
 11
402.7202229999998
 21
242.3716089999998
 31
0.0
  0
LINE
  5
A2AD
330
A1F6
100
AcDbEntity
  8
1
  6
Continuous
100
AcDbLine
 10
411.020213
 20
243.473622
 30
0.0
 11
411.020213
 21
233.269596
 31
0.0
  0
ARC
  5
A2AE
330
A1F6
100
AcDbEntity
  8
1
  6
Continuous
100
AcDbCircle
 10
409.270213
 20
243.313237
 30
0.0
 40
3.25
100
AcDbArc
 50
151.3472329999999
 51
211.3658
  0
ARC
  5
A2AF
330
A1F6
100
AcDbEntity
  8
1
  6
Continuous
100
AcDbCircle
 10
406.7702129999998
 20
243.313237
 30
0.0
 40
3.25
100
AcDbArc
 50
328.6342499999999
 51
28.65275
  0
ARC
  5
A2B0
330
A1F6
100
AcDbEntity
  8
1
  6
Continuous
100
AcDbCircle
 10
399.7202229999999
 20
251.3716089999999
 30
0.0
 40
3.0
100
AcDbArc
 50
359.9999799999998
 51
59.99998000000001
  0
LINE
  5
A2B1
330
A1F6
100
AcDbEntity
  8
1
  6
Continuous
100
AcDbLine
 10
372.7202229999999
 20
251.3716089999999
 30
0.0
 11
372.7202229999999
 21
225.371606
 31
0.0
  0
ARC
  5
A2B2
330
A1F6
100
AcDbEntity
  8
1
  6
Continuous
100
AcDbCircle
 10
375.7202229999998
 20
225.3716089999997
 30
0.0
 40
3.0
100
AcDbArc
 50
180.0000499999999
 51
239.99999
  0
LINE
  5
A2B3
330
A1F6
100
AcDbEntity
  8
1
  6
Continuous
100
AcDbLine
 10
369.420223
 20
227.3716089999997
 30
0.0
 11
371.7202229999998
 21
227.3716089999997
 31
0.0
  0
LINE
  5
A2B4
330
A1F6
100
AcDbEntity
  8
1
  6
Continuous
100
AcDbLine
 10
369.420223
 20
244.6216089999999
 30
0.0
 11
368.2202429999999
 21
244.6216089999999
 31
0.0
  0
LINE
  5
A2B5
330
A1F6
100
AcDbEntity
  8
1
  6
Continuous
100
AcDbLine
 10
366.2202429999999
 20
242.621609
 30
0.0
 11
366.2202429999999
 21
234.1216089999999
 31
0.0
  0
LINE
  5
A2B6
330
A1F6
100
AcDbEntity
  8
1
  6
Continuous
100
AcDbLine
 10
372.7202229999999
 20
234.371609
 30
0.0
 11
371.7202229999998
 21
234.371609
 31
0.0
  0
LINE
  5
A2B7
330
A1F6
100
AcDbEntity
  8
1
  6
Continuous
100
AcDbLine
 10
369.420223
 20
232.1216089999999
 30
0.0
 11
368.2202429999999
 21
232.1216089999999
 31
0.0
  0
ARC
  5
A2B8
330
A1F6
100
AcDbEntity
  8
1
  6
Continuous
100
AcDbCircle
 10
368.2202429999999
 20
234.1216089999999
 30
0.0
 40
2.0
100
AcDbArc
 50
180.0
 51
269.99998
  0
LINE
  5
A2B9
330
A1F6
100
AcDbEntity
  8
1
  6
Continuous
100
AcDbLine
 10
372.7202229999999
 20
242.3716089999998
 30
0.0
 11
371.7202229999998
 21
242.3716089999998
 31
0.0
  0
ARC
  5
A2BA
330
A1F6
100
AcDbEntity
  8
1
  6
Continuous
100
AcDbCircle
 10
368.2202429999999
 20
242.621609
 30
0.0
 40
2.0
100
AcDbArc
 50
90.00001800000005
 51
180.0
  0
ARC
  5
A2BB
330
A1F6
100
AcDbEntity
  8
1
  6
Continuous
100
AcDbCircle
 10
375.7202229999998
 20
251.3716089999999
 30
0.0
 40
3.0
100
AcDbArc
 50
120.000005
 51
179.999945
  0
ARC
  5
A2BC
330
A1F6
100
AcDbEntity
  8
1
  6
Continuous
100
AcDbCircle
 10
387.7202229999999
 20
432.706559
 30
0.0
 40
128.4999999999998
100
AcDbArc
 50
263.3484899999999
 51
276.65153
  0
ARC
  5
A2BD
330
A1F6
100
AcDbEntity
  8
1
  6
Continuous
100
AcDbCircle
 10
387.7202229999999
 20
434.9715989999999
 30
0.0
 40
128.4999999999998
100
AcDbArc
 50
264.460965
 51
275.539035
  0
LINE
  5
A2BE
330
A1F6
100
AcDbEntity
  8
1
  6
Continuous
100
AcDbLine
 10
407.720223
 20
315.9716
 30
0.0
 11
367.7202229999999
 21
315.9716
 31
0.0
  0
ARC
  5
A2BF
330
A1F6
100
AcDbEntity
  8
1
  6
Continuous
100
AcDbCircle
 10
387.7202229999999
 20
230.8716089999998
 30
0.0
 40
70.0
100
AcDbArc
 50
80.26345999999998
 51
99.73652000000001
  0
ARC
  5
A2C0
330
A1F6
100
AcDbEntity
  8
1
  6
Continuous
100
AcDbCircle
 10
407.720223
 20
310.9716
 30
0.0
 40
5.0
100
AcDbArc
 50
0.00004
 51
90.00001800000005
  0
ARC
  5
A2C1
330
A1F6
100
AcDbEntity
  8
1
  6
Continuous
100
AcDbCircle
 10
398.161383
 20
317.449612
 30
0.0
 40
2.778
100
AcDbArc
 50
206.93616
 51
212.14352
  0
ARC
  5
A2C2
330
A1F6
100
AcDbEntity
  8
1
  6
Continuous
100
AcDbCircle
 10
393.2081529999999
 20
317.449612
 30
0.0
 40
2.778
100
AcDbArc
 50
189.9080099999999
 51
212.14352
  0
ARC
  5
A2C3
330
A1F6
100
AcDbEntity
  8
1
  6
Continuous
100
AcDbCircle
 10
387.720243
 20
317.449612
 30
0.0
 40
2.778
100
AcDbArc
 50
327.85649
 51
350.0919
  0
ARC
  5
A2C4
330
A1F6
100
AcDbEntity
  8
1
  6
Continuous
100
AcDbCircle
 10
393.2081529999999
 20
317.449612
 30
0.0
 40
2.778
100
AcDbArc
 50
327.85649
 51
350.0919
  0
ARC
  5
A2C5
330
A1F6
100
AcDbEntity
  8
1
  6
Continuous
100
AcDbCircle
 10
387.720243
 20
317.449612
 30
0.0
 40
2.778
100
AcDbArc
 50
189.90807
 51
212.14352
  0
ARC
  5
A2C6
330
A1F6
100
AcDbEntity
  8
1
  6
Continuous
100
AcDbCircle
 10
382.232323
 20
317.449612
 30
0.0
 40
2.778
100
AcDbArc
 50
327.85649
 51
350.0919599999999
  0
ARC
  5
A2C7
330
A1F6
100
AcDbEntity
  8
1
  6
Continuous
100
AcDbCircle
 10
404.6326029999998
 20
317.449612
 30
0.0
 40
2.778
100
AcDbArc
 50
327.85649
 51
350.0919
  0
ARC
  5
A2C8
330
A1F6
100
AcDbEntity
  8
1
  6
Continuous
100
AcDbCircle
 10
402.0973629999998
 20
317.449612
 30
0.0
 40
2.778
100
AcDbArc
 50
327.85649
 51
350.0919
  0
ARC
  5
A2C9
330
A1F6
100
AcDbEntity
  8
1
  6
Continuous
100
AcDbCircle
 10
405.5202429999998
 20
317.449612
 30
0.0
 40
2.778
100
AcDbArc
 50
327.85649
 51
350.0919
  0
ARC
  5
A2CA
330
A1F6
100
AcDbEntity
  8
1
  6
Continuous
100
AcDbCircle
 10
398.161383
 20
317.449612
 30
0.0
 40
2.778
100
AcDbArc
 50
327.85649
 51
350.0919
  0
ARC
  5
A2CB
330
A1F6
100
AcDbEntity
  8
1
  6
Continuous
100
AcDbCircle
 10
399.2202229999999
 20
297.892124
 30
0.0
 40
2.0
100
AcDbArc
 50
359.9999799999998
 51
80.26345999999998
  0
ARC
  5
A2CC
330
A1F6
100
AcDbEntity
  8
1
  6
Continuous
100
AcDbCircle
 10
402.7202229999998
 20
304.078213
 30
0.0
 40
1.0
100
AcDbArc
 50
0.00004
 51
96.65146100000001
  0
ARC
  5
A2CD
330
A1F6
100
AcDbEntity
  8
1
  6
Continuous
100
AcDbCircle
 10
377.2790929999999
 20
317.449612
 30
0.0
 40
2.778
100
AcDbArc
 50
327.85649
 51
333.0638
  0
ARC
  5
A2CE
330
A1F6
100
AcDbEntity
  8
1
  6
Continuous
100
AcDbCircle
 10
377.2790929999999
 20
317.449612
 30
0.0
 40
2.778
100
AcDbArc
 50
189.90807
 51
212.14352
  0
ARC
  5
A2CF
330
A1F6
100
AcDbEntity
  8
1
  6
Continuous
100
AcDbCircle
 10
382.232323
 20
317.449612
 30
0.0
 40
2.778
100
AcDbArc
 50
189.90807
 51
212.14352
  0
ARC
  5
A2D0
330
A1F6
100
AcDbEntity
  8
1
  6
Continuous
100
AcDbCircle
 10
373.343113
 20
317.449612
 30
0.0
 40
2.778
100
AcDbArc
 50
189.90807
 51
212.14352
  0
ARC
  5
A2D1
330
A1F6
100
AcDbEntity
  8
1
  6
Continuous
100
AcDbCircle
 10
370.8078729999999
 20
317.449612
 30
0.0
 40
2.778
100
AcDbArc
 50
189.90807
 51
212.14352
  0
ARC
  5
A2D2
330
A1F6
100
AcDbEntity
  8
1
  6
Continuous
100
AcDbCircle
 10
369.9202329999998
 20
317.449612
 30
0.0
 40
2.778
100
AcDbArc
 50
189.90807
 51
212.19887
  0
ARC
  5
A2D3
330
A1F6
100
AcDbEntity
  8
1
  6
Continuous
100
AcDbCircle
 10
367.7202229999999
 20
310.9716
 30
0.0
 40
5.0
100
AcDbArc
 50
90.00001800000005
 51
180.0
  0
ARC
  5
A2D4
330
A1F6
100
AcDbEntity
  8
1
  6
Continuous
100
AcDbCircle
 10
376.2202229999999
 20
297.892124
 30
0.0
 40
2.0
100
AcDbArc
 50
99.73646600000002
 51
179.999945
  0
ARC
  5
A2D5
330
A1F6
100
AcDbEntity
  8
1
  6
Continuous
100
AcDbCircle
 10
372.7202229999999
 20
304.078213
 30
0.0
 40
1.0
100
AcDbArc
 50
83.34851999999996
 51
180.0
  0
LINE
  5
A2D6
330
A1F6
100
AcDbEntity
  8
4
  6
CENTER
100
AcDbLine
 10
221.720223
 20
501.4594929999998
 30
0.0
 11
221.720223
 21
438.659523
 31
0.0
  0
LINE
  5
A2D7
330
A1F6
100
AcDbEntity
  8
4
  6
CENTER
100
AcDbLine
 10
221.720223
 20
40.57161899999999
 30
0.0
 11
221.7202229999999
 21
103.371589
 31
0.0
  0
LINE
  5
A2D8
330
A1F6
100
AcDbEntity
  8
1
  6
Continuous
100
AcDbLine
 10
162.1997069999999
 20
481.659503
 30
0.0
 11
212.62912
 21
481.659503
 31
0.0
  0
LINE
  5
A2D9
330
A1F6
100
AcDbEntity
  8
1
  6
Continuous
100
AcDbLine
 10
162.1997069999999
 20
454.6595029999998
 30
0.0
 11
212.629116
 21
454.6595029999998
 31
0.0
  0
ARC
  5
A2DA
330
A1F6
100
AcDbEntity
  8
1
  6
Continuous
100
AcDbCircle
 10
229.220223
 20
468.1595029999998
 30
0.0
 40
70.0
100
AcDbArc
 50
170.26348
 51
189.7365399999999
  0
ARC
  5
A2DB
330
A1F6
100
AcDbEntity
  8
1
  6
Continuous
100
AcDbCircle
 10
162.1997069999999
 20
456.659503
 30
0.0
 40
2.0
100
AcDbArc
 50
189.7365399999999
 51
270.00002
  0
ARC
  5
A2DC
330
A1F6
100
AcDbEntity
  8
1
  6
Continuous
100
AcDbCircle
 10
162.1997069999999
 20
479.6595029999998
 30
0.0
 40
2.0
100
AcDbArc
 50
90.00005499999994
 51
170.263534
  0
LINE
  5
A2DD
330
A1F6
100
AcDbEntity
  8
1
  6
Continuous
100
AcDbLine
 10
210.7202229999999
 20
89.87160899999997
 30
0.0
 11
242.180805
 21
89.87160899999997
 31
0.0
  0
LINE
  5
A2DE
330
A1F6
100
AcDbEntity
  8
1
  6
Continuous
100
AcDbLine
 10
210.7202229999999
 20
57.87160899999999
 30
0.0
 11
242.180805
 21
57.87160899999999
 31
0.0
  0
LINE
  5
A2DF
330
A1F6
100
AcDbEntity
  8
1
  6
Continuous
100
AcDbLine
 10
210.7202229999999
 20
55.57161899999999
 30
0.0
 11
242.1807929999999
 21
55.57161899999999
 31
0.0
  0
LINE
  5
A2E0
330
A1F6
100
AcDbEntity
  8
1
  6
Continuous
100
AcDbLine
 10
210.7202229999999
 20
92.17160900000001
 30
0.0
 11
242.180805
 21
92.17160900000001
 31
0.0
  0
ARC
  5
A2E1
330
A1F6
100
AcDbEntity
  8
1
  6
Continuous
100
AcDbCircle
 10
214.220223
 20
73.87160899999997
 30
0.0
 40
70.0
100
AcDbArc
 50
350.26346
 51
9.737952999999999
  0
ARC
  5
A2E2
330
A1F6
100
AcDbEntity
  8
1
  6
Continuous
100
AcDbCircle
 10
229.220223
 20
73.87160899999997
 30
0.0
 40
70.0
100
AcDbArc
 50
170.26348
 51
189.7365399999999
  0
LINE
  5
A2E3
330
A1F6
100
AcDbEntity
  8
1
  6
Continuous
100
AcDbLine
 10
162.1997069999999
 20
60.37160899999999
 30
0.0
 11
281.240745
 21
60.37160899999999
 31
0.0
  0
LINE
  5
A2E4
330
A1F6
100
AcDbEntity
  8
1
  6
Continuous
100
AcDbLine
 10
208.7202229999999
 20
58.871609
 30
0.0
 11
234.720225
 21
58.871609
 31
0.0
  0
ARC
  5
A2E5
330
A1F6
100
AcDbEntity
  8
1
  6
Continuous
100
AcDbCircle
 10
162.1997069999999
 20
62.371609
 30
0.0
 40
2.0
100
AcDbArc
 50
189.7365399999999
 51
270.00002
  0
ARC
  5
A2E6
330
A1F6
100
AcDbEntity
  8
1
  6
Continuous
100
AcDbCircle
 10
208.7202229999999
 20
61.871609
 30
0.0
 40
3.0
100
AcDbArc
 50
210.00002
 51
270.00002
  0
LINE
  5
A2E7
330
A1F6
100
AcDbEntity
  8
1
  6
Continuous
100
AcDbLine
 10
217.720223
 20
57.87160899999999
 30
0.0
 11
217.720223
 21
58.871609
 31
0.0
  0
ARC
  5
A2E8
330
A1F6
100
AcDbEntity
  8
1
  6
Continuous
100
AcDbCircle
 10
234.720223
 20
61.871609
 30
0.0
 40
3.0
100
AcDbArc
 50
269.99998
 51
329.99998
  0
LINE
  5
A2E9
330
A1F6
100
AcDbEntity
  8
1
  6
Continuous
100
AcDbLine
 10
225.720223
 20
57.87160899999999
 30
0.0
 11
225.720223
 21
58.871609
 31
0.0
  0
ARC
  5
A2EA
330
A1F6
100
AcDbEntity
  8
1
  6
Continuous
100
AcDbCircle
 10
281.240743
 20
62.371609
 30
0.0
 40
2.0
100
AcDbArc
 50
269.99998
 51
350.26346
  0
LINE
  5
A2EB
330
A1F6
100
AcDbEntity
  8
1
  6
Continuous
100
AcDbLine
 10
162.1997069999999
 20
87.37160899999997
 30
0.0
 11
281.240745
 21
87.37160899999997
 31
0.0
  0
LINE
  5
A2EC
330
A1F6
100
AcDbEntity
  8
1
  6
Continuous
100
AcDbLine
 10
208.7202229999999
 20
88.87160899999996
 30
0.0
 11
234.720225
 21
88.87160899999996
 31
0.0
  0
LINE
  5
A2ED
330
A1F6
100
AcDbEntity
  8
1
  6
Continuous
100
AcDbLine
 10
217.470223
 20
95.37158899999999
 30
0.0
 11
225.970223
 21
95.37158899999999
 31
0.0
  0
ARC
  5
A2EE
330
A1F6
100
AcDbEntity
  8
1
  6
Continuous
100
AcDbCircle
 10
162.1997069999999
 20
85.37160899999998
 30
0.0
 40
2.0
100
AcDbArc
 50
90.00005499999994
 51
170.263534
  0
ARC
  5
A2EF
330
A1F6
100
AcDbEntity
  8
1
  6
Continuous
100
AcDbCircle
 10
208.7202229999999
 20
85.87160899999998
 30
0.0
 40
3.0
100
AcDbArc
 50
90.00005499999994
 51
149.9999949999998
  0
LINE
  5
A2F0
330
A1F6
100
AcDbEntity
  8
1
  6
Continuous
100
AcDbLine
 10
217.720223
 20
88.87160899999996
 30
0.0
 11
217.720223
 21
89.87160899999997
 31
0.0
  0
ARC
  5
A2F1
330
A1F6
100
AcDbEntity
  8
1
  6
Continuous
100
AcDbCircle
 10
217.470223
 20
93.371589
 30
0.0
 40
2.0
100
AcDbArc
 50
90.0
 51
179.999982
  0
LINE
  5
A2F2
330
A1F6
100
AcDbEntity
  8
1
  6
Continuous
100
AcDbLine
 10
215.470223
 20
92.17160900000001
 30
0.0
 11
215.470223
 21
93.371589
 31
0.0
  0
ARC
  5
A2F3
330
A1F6
100
AcDbEntity
  8
1
  6
Continuous
100
AcDbCircle
 10
234.720223
 20
85.87160899999998
 30
0.0
 40
3.0
100
AcDbArc
 50
30.00001
 51
89.99995000000001
  0
LINE
  5
A2F4
330
A1F6
100
AcDbEntity
  8
1
  6
Continuous
100
AcDbLine
 10
225.720223
 20
88.87160899999996
 30
0.0
 11
225.720223
 21
89.87160899999997
 31
0.0
  0
ARC
  5
A2F5
330
A1F6
100
AcDbEntity
  8
1
  6
Continuous
100
AcDbCircle
 10
225.970223
 20
93.371589
 30
0.0
 40
2.0
100
AcDbArc
 50
0.00002
 51
90.0
  0
LINE
  5
A2F6
330
A1F6
100
AcDbEntity
  8
1
  6
Continuous
100
AcDbLine
 10
227.970223
 20
92.17160900000001
 30
0.0
 11
227.970223
 21
93.371589
 31
0.0
  0
ARC
  5
A2F7
330
A1F6
100
AcDbEntity
  8
1
  6
Continuous
100
AcDbCircle
 10
281.240743
 20
85.37160899999998
 30
0.0
 40
2.0
100
AcDbArc
 50
9.736469999999997
 51
89.99995000000001
  0
LINE
  5
A2F8
330
A1F6
100
AcDbEntity
  8
1
  6
Continuous
100
AcDbLine
 10
210.7202229999999
 20
92.17160900000001
 30
0.0
 11
210.7202229999999
 21
89.87160899999997
 31
0.0
  0
LINE
  5
A2F9
330
A1F6
100
AcDbEntity
  8
1
  6
Continuous
100
AcDbLine
 10
285.720223
 20
310.971604
 30
0.0
 11
285.720223
 21
307.071608
 31
0.0
  0
ARC
  5
A2FA
330
A1F6
100
AcDbEntity
  8
1
  6
Continuous
100
AcDbCircle
 10
280.7202229999999
 20
310.971604
 30
0.0
 40
5.0
100
AcDbArc
 50
0.0
 51
90.0
  0
ARC
  5
A2FB
330
A1F6
100
AcDbEntity
  8
1
  6
Continuous
100
AcDbCircle
 10
260.7202229999999
 20
73.87160899999997
 30
0.0
 40
25.0
100
AcDbArc
 50
230.2610529999999
 51
327.546033
  0
LINE
  5
A2FC
330
A1F6
100
AcDbEntity
  8
1
  6
Continuous
100
AcDbLine
 10
210.7202229999999
 20
57.87160899999999
 30
0.0
 11
210.7202229999999
 21
55.57161899999999
 31
0.0
  0
ARC
  5
A2FD
330
A1F6
100
AcDbEntity
  8
1
  6
Continuous
100
AcDbCircle
 10
128.2535629999999
 20
73.87160899999997
 30
0.0
 40
85.0
100
AcDbArc
 50
10.84078599999999
 51
10.849816
  0
ARC
  5
A2FE
330
A1F6
100
AcDbEntity
  8
1
  6
Continuous
100
AcDbCircle
 10
128.2535629999999
 20
73.87160899999997
 30
0.0
 40
85.0
100
AcDbArc
 50
349.1501839999998
 51
349.159218
  0
ARC
  5
A2FF
330
A1F6
100
AcDbEntity
  8
1
  6
Continuous
100
AcDbCircle
 10
274.1035719999999
 20
73.87161399999998
 30
0.0
 40
64.383349
100
AcDbArc
 50
165.6105589999999
 51
166.527454
  0
ARC
  5
A300
330
A1F6
100
AcDbEntity
  8
1
  6
Continuous
100
AcDbCircle
 10
274.1035719999999
 20
73.87161399999998
 30
0.0
 40
64.383349
100
AcDbArc
 50
193.4725549999997
 51
194.38945
  0
ARC
  5
A301
330
A1F6
100
AcDbEntity
  8
1
  6
Continuous
100
AcDbCircle
 10
260.7202229999999
 20
73.87160899999997
 30
0.0
 40
22.7
100
AcDbArc
 50
230.2610839999999
 51
323.5077779999998
  0
ARC
  5
A302
330
A1F6
100
AcDbEntity
  8
1
  6
Continuous
100
AcDbCircle
 10
260.7202229999999
 20
73.87160899999997
 30
0.0
 40
25.0
100
AcDbArc
 50
32.453967
 51
129.7389159999999
  0
ARC
  5
A303
330
A1F6
100
AcDbEntity
  8
1
  6
Continuous
100
AcDbCircle
 10
260.7202229999999
 20
73.87160899999997
 30
0.0
 40
25.0
100
AcDbArc
 50
335.327643
 51
24.672357
  0
ARC
  5
A304
330
A1F6
100
AcDbEntity
  8
1
  6
Continuous
100
AcDbCircle
 10
260.7202229999999
 20
73.87160899999997
 30
0.0
 40
22.7
100
AcDbArc
 50
36.492222
 51
129.7389159999999
  0
ARC
  5
A305
330
A1F6
100
AcDbEntity
  8
1
  6
Continuous
100
AcDbCircle
 10
260.7202229999999
 20
73.87160899999997
 30
0.0
 40
17.7
100
AcDbArc
 50
49.70385700000001
 51
130.296143
  0
ARC
  5
A306
330
A1F6
100
AcDbEntity
  8
1
  6
Continuous
100
AcDbCircle
 10
260.7202229999999
 20
73.87160899999997
 30
0.0
 40
17.7
100
AcDbArc
 50
229.7038569999999
 51
310.2961429999998
  0
LINE
  5
A307
330
A1F6
100
AcDbEntity
  8
1
  6
Continuous
100
AcDbLine
 10
367.551649
 20
307.071608
 30
0.0
 11
407.888797
 21
307.071608
 31
0.0
  0
LINE
  5
A308
330
A1F6
100
AcDbEntity
  8
1
  6
Continuous
100
AcDbLine
 10
221.720223
 20
55.57161899999999
 30
0.0
 11
221.720223
 21
51.264439
 31
0.0
  0
LINE
  5
A309
330
A1F6
100
AcDbEntity
  8
1
  6
Continuous
100
AcDbLine
 10
227.7202229999998
 20
54.87879799999999
 30
0.0
 11
227.7202229999998
 21
51.264439
 31
0.0
  0
LINE
  5
A30A
330
A1F6
100
AcDbEntity
  8
1
  6
Continuous
100
AcDbLine
 10
215.720223
 20
54.87879799999999
 30
0.0
 11
215.720223
 21
51.264439
 31
0.0
  0
ARC
  5
A30B
330
A1F6
100
AcDbEntity
  8
1
  6
Continuous
100
AcDbCircle
 10
218.720223
 20
57.41321899999999
 30
0.0
 40
6.841600999999998
100
AcDbArc
 50
243.992176
 51
296.0078240000001
  0
LINE
  5
A30C
330
A1F6
100
AcDbEntity
  8
1
  6
Continuous
100
AcDbLine
 10
218.9702229999999
 20
50.571619
 30
0.0
 11
224.470223
 21
50.571619
 31
0.0
  0
ARC
  5
A30D
330
A1F6
100
AcDbEntity
  8
1
  6
Continuous
100
AcDbCircle
 10
224.720223
 20
57.41321899999999
 30
0.0
 40
6.841600999999998
100
AcDbArc
 50
243.992176
 51
296.0078240000001
  0
ARC
  5
A30E
330
A1F6
100
AcDbEntity
  8
1
  6
Continuous
100
AcDbCircle
 10
218.720223
 20
48.730018
 30
0.0
 40
6.841600999999998
100
AcDbArc
 50
63.992176
 51
116.007824
  0
ARC
  5
A30F
330
A1F6
100
AcDbEntity
  8
1
  6
Continuous
100
AcDbCircle
 10
224.720223
 20
48.730018
 30
0.0
 40
6.841600999999998
100
AcDbArc
 50
63.992176
 51
116.007824
  0
ARC
  5
A310
330
A1F6
100
AcDbEntity
  8
1
  6
Continuous
100
AcDbCircle
 10
491.7447359999998
 20
292.071608
 30
0.0
 40
15.0
100
AcDbArc
 50
29.31722999999999
 51
90.00001800000005
  0
LINE
  5
A311
330
A1F6
100
AcDbEntity
  8
1
  6
Continuous
100
AcDbLine
 10
532.720223
 20
315.971604
 30
0.0
 11
492.7202229999998
 21
315.971604
 31
0.0
  0
LINE
  5
A312
330
A1F6
100
AcDbEntity
  8
4
  6
CENTER
100
AcDbLine
 10
622.220223
 20
238.3716089999999
 30
0.0
 11
481.2202229999998
 21
238.3716089999999
 31
0.0
  0
ARC
  5
A313
330
A1F6
100
AcDbEntity
  8
1
  6
Continuous
100
AcDbCircle
 10
551.720223
 20
238.3716089999999
 30
0.0
 40
62.5
100
AcDbArc
 50
129.454159
 51
83.86314799999999
  0
ARC
  5
A314
330
A1F6
100
AcDbEntity
  8
1
  6
Continuous
100
AcDbCircle
 10
551.720223
 20
238.3716089999999
 30
0.0
 40
44.5
100
AcDbArc
 50
133.6286879999997
 51
79.68864999999998
  0
LINE
  5
A315
330
A1F6
100
AcDbEntity
  8
4
  6
CENTER
100
AcDbLine
 10
551.720223
 20
304.453911
 30
0.0
 11
551.720223
 21
167.8716089999998
 31
0.0
  0
LINE
  5
A316
330
A1F6
100
AcDbEntity
  8
1
  6
Continuous
100
AcDbLine
 10
562.6934269999998
 20
239.138924
 30
0.0
 11
558.1366789999998
 21
304.3034329999998
 31
0.0
  0
LINE
  5
A317
330
A1F6
100
AcDbEntity
  8
1
  6
Continuous
100
AcDbLine
 10
542.12904
 20
232.985485
 30
0.0
 11
504.804016
 21
299.450985
 31
0.0
  0
LINE
  5
A318
330
A1F6
100
AcDbEntity
  8
1
  6
Continuous
100
AcDbLine
 10
533.720223
 20
306.771612
 30
0.0
 11
533.720223
 21
254.3716089999997
 31
0.0
  0
LINE
  5
A319
330
A1F6
100
AcDbEntity
  8
4
  6
CENTER
100
AcDbLine
 10
512.720223
 20
372.8716129999999
 30
0.0
 11
512.720223
 21
269.604939
 31
0.0
  0
ARC
  5
A31A
330
A1F6
100
AcDbEntity
  8
1
  6
Continuous
100
AcDbCircle
 10
551.720223
 20
238.3716089999999
 30
0.0
 40
11.0
100
AcDbArc
 50
209.31727
 51
3.999969999999999
  0
ARC
  5
A31B
330
A1F6
100
AcDbEntity
  8
1
  6
Continuous
100
AcDbCircle
 10
551.720223
 20
238.3716089999999
 30
0.0
 40
15.5
100
AcDbArc
 50
164.526196
 51
48.79133
  0
ARC
  5
A31C
330
A1F6
100
AcDbEntity
  8
1
  6
Continuous
100
AcDbCircle
 10
551.720223
 20
238.3716089999999
 30
0.0
 40
31.5
100
AcDbArc
 50
139.756133
 51
73.56121999999998
  0
ARC
  5
A31D
330
A1F6
100
AcDbEntity
  8
1
  6
Continuous
100
AcDbCircle
 10
560.6305889999998
 20
304.4778239999998
 30
0.0
 40
2.5
100
AcDbArc
 50
79.99997999999997
 51
183.9999999999998
  0
ARC
  5
A31E
330
A1F6
100
AcDbEntity
  8
1
  6
Continuous
100
AcDbCircle
 10
559.1656679999998
 20
303.9237879999999
 30
0.0
 40
1.0
100
AcDbArc
 50
79.99998999999998
 51
183.9999999999998
  0
LINE
  5
A31F
330
A1F6
100
AcDbEntity
  8
1
  6
Continuous
100
AcDbLine
 10
563.720223
 20
306.471606
 30
0.0
 11
534.8787029999998
 21
311.557144
 31
0.0
  0
LINE
  5
A320
330
A1F6
100
AcDbEntity
  8
1
  6
Continuous
100
AcDbLine
 10
563.720223
 20
306.471606
 30
0.0
 11
563.320832
 21
304.206547
 31
0.0
  0
LINE
  5
A321
330
A1F6
100
AcDbEntity
  8
1
  6
Continuous
100
AcDbLine
 10
563.320832
 20
304.206547
 30
0.0
 11
559.339316
 21
304.9085959999998
 31
0.0
  0
ARC
  5
A322
330
A1F6
100
AcDbEntity
  8
1
  6
Continuous
100
AcDbCircle
 10
532.720223
 20
310.971604
 30
0.0
 40
5.0
100
AcDbArc
 50
0.9698309999999999
 51
90.0
  0
ARC
  5
A323
330
A1F6
100
AcDbEntity
  8
1
  6
Continuous
100
AcDbCircle
 10
529.632607
 20
317.449612
 30
0.0
 40
2.778
100
AcDbArc
 50
327.85663
 51
350.0919
  0
ARC
  5
A324
330
A1F6
100
AcDbEntity
  8
1
  6
Continuous
100
AcDbCircle
 10
527.097367
 20
317.449612
 30
0.0
 40
2.778
100
AcDbArc
 50
327.8566
 51
350.0919
  0
ARC
  5
A325
330
A1F6
100
AcDbEntity
  8
1
  6
Continuous
100
AcDbCircle
 10
530.520249
 20
317.449612
 30
0.0
 40
2.778
100
AcDbArc
 50
327.85663
 51
350.0919
  0
ARC
  5
A326
330
A1F6
100
AcDbEntity
  8
1
  6
Continuous
100
AcDbCircle
 10
502.2790839999998
 20
317.449612
 30
0.0
 40
2.778
100
AcDbArc
 50
189.90807
 51
212.1434199999999
  0
ARC
  5
A327
330
A1F6
100
AcDbEntity
  8
1
  6
Continuous
100
AcDbCircle
 10
507.2323230000002
 20
317.449612
 30
0.0
 40
2.778
100
AcDbArc
 50
189.90807
 51
212.1434199999999
  0
ARC
  5
A328
330
A1F6
100
AcDbEntity
  8
1
  6
Continuous
100
AcDbCircle
 10
498.3431099999998
 20
317.449612
 30
0.0
 40
2.778
100
AcDbArc
 50
189.90807
 51
212.1433699999999
  0
ARC
  5
A329
330
A1F6
100
AcDbEntity
  8
1
  6
Continuous
100
AcDbCircle
 10
518.208153
 20
317.449612
 30
0.0
 40
2.778
100
AcDbArc
 50
189.9080099999999
 51
212.1434199999999
  0
ARC
  5
A32A
330
A1F6
100
AcDbEntity
  8
1
  6
Continuous
100
AcDbCircle
 10
518.208153
 20
317.449612
 30
0.0
 40
2.778
100
AcDbArc
 50
327.8566
 51
350.0919
  0
ARC
  5
A32B
330
A1F6
100
AcDbEntity
  8
1
  6
Continuous
100
AcDbCircle
 10
512.7202379999999
 20
317.449612
 30
0.0
 40
2.778
100
AcDbArc
 50
327.8566
 51
350.0919
  0
ARC
  5
A32C
330
A1F6
100
AcDbEntity
  8
1
  6
Continuous
100
AcDbCircle
 10
507.2323230000002
 20
317.449612
 30
0.0
 40
2.778
100
AcDbArc
 50
327.8566
 51
350.0919599999999
  0
ARC
  5
A32D
330
A1F6
100
AcDbEntity
  8
1
  6
Continuous
100
AcDbCircle
 10
512.7202379999999
 20
317.449612
 30
0.0
 40
2.778
100
AcDbArc
 50
189.90807
 51
212.1434199999999
  0
ARC
  5
A32E
330
A1F6
100
AcDbEntity
  8
1
  6
Continuous
100
AcDbCircle
 10
523.1613929999999
 20
317.449612
 30
0.0
 40
2.778
100
AcDbArc
 50
327.8566
 51
350.0919
  0
ARC
  5
A32F
330
A1F6
100
AcDbEntity
  8
1
  6
Continuous
100
AcDbCircle
 10
492.7202229999998
 20
310.971604
 30
0.0
 40
5.0
100
AcDbArc
 50
90.0
 51
180.0
  0
ARC
  5
A330
330
A1F6
100
AcDbEntity
  8
1
  6
Continuous
100
AcDbCircle
 10
495.8078689999998
 20
317.449612
 30
0.0
 40
2.778
100
AcDbArc
 50
189.90807
 51
212.1433699999999
  0
ARC
  5
A331
330
A1F6
100
AcDbEntity
  8
1
  6
Continuous
100
AcDbCircle
 10
494.920228
 20
317.449612
 30
0.0
 40
2.778
100
AcDbArc
 50
189.90807
 51
212.1433699999999
  0
LINE
  5
A332
330
A1F6
100
AcDbEntity
  8
1
  6
Continuous
100
AcDbLine
 10
487.7202229999999
 20
310.971604
 30
0.0
 11
487.7202229999999
 21
307.071608
 31
0.0
  0
LINE
  5
A333
330
A1F6
100
AcDbEntity
  8
1
  6
Continuous
100
AcDbLine
 10
491.7447359999998
 20
307.071608
 30
0.0
 11
487.7202229999999
 21
307.071608
 31
0.0
  0
LINE
  5
A334
330
A1F6
100
AcDbEntity
  8
2
  6
Continuous
100
AcDbLine
 10
412.4967129999998
 20
241.6951089999999
 30
0.0
 11
411.020213
 21
241.6951089999999
 31
0.0
  0
LINE
  5
A335
330
A1F6
100
AcDbEntity
  8
2
  6
Continuous
100
AcDbLine
 10
412.4967129999998
 20
235.0481089999999
 30
0.0
 11
411.020213
 21
235.0481089999999
 31
0.0
  0
LINE
  5
A336
330
A1F6
100
AcDbEntity
  8
4
  6
CENTER
100
AcDbLine
 10
413.0202129999998
 20
238.3716089999999
 30
0.0
 11
411.020213
 21
238.3716089999999
 31
0.0
  0
LINE
  5
A337
330
A1F6
100
AcDbEntity
  8
1
  6
Continuous
100
AcDbLine
 10
411.8202129999998
 20
234.371609
 30
0.0
 11
411.020213
 21
234.371609
 31
0.0
  0
LINE
  5
A338
330
A1F6
100
AcDbEntity
  8
1
  6
Continuous
100
AcDbLine
 10
411.8202129999998
 20
242.3716089999998
 30
0.0
 11
411.020213
 21
242.3716089999998
 31
0.0
  0
LINE
  5
A339
330
A1F6
100
AcDbEntity
  8
1
  6
Continuous
100
AcDbLine
 10
411.8202129999998
 20
242.3716089999998
 30
0.0
 11
411.8202129999998
 21
234.371609
 31
0.0
  0
LINE
  5
A33A
330
A1F6
100
AcDbEntity
  8
1
  6
Continuous
100
AcDbLine
 10
413.0202129999998
 20
241.171609
 30
0.0
 11
413.0202129999998
 21
235.571609
 31
0.0
  0
LINE
  5
A33B
330
A1F6
100
AcDbEntity
  8
1
  6
Continuous
100
AcDbLine
 10
413.0202129999998
 20
241.171609
 30
0.0
 11
411.8202129999998
 21
242.3716089999998
 31
0.0
  0
LINE
  5
A33C
330
A1F6
100
AcDbEntity
  8
1
  6
Continuous
100
AcDbLine
 10
413.0202129999998
 20
235.571609
 30
0.0
 11
411.8202129999998
 21
234.371609
 31
0.0
  0
LINE
  5
A33D
330
A1F6
100
AcDbEntity
  8
1
  6
Continuous
100
AcDbLine
 10
33.12023299999999
 20
234.371609
 30
0.0
 11
33.12023299999999
 21
242.3716089999998
 31
0.0
  0
LINE
  5
A33E
330
A1F6
100
AcDbEntity
  8
1
  6
Continuous
100
AcDbLine
 10
31.92023300000001
 20
235.571609
 30
0.0
 11
31.92023300000001
 21
241.171609
 31
0.0
  0
LINE
  5
A33F
330
A1F6
100
AcDbEntity
  8
1
  6
Continuous
100
AcDbLine
 10
33.12023299999999
 20
234.371609
 30
0.0
 11
33.920233
 21
234.371609
 31
0.0
  0
LINE
  5
A340
330
A1F6
100
AcDbEntity
  8
2
  6
Continuous
100
AcDbLine
 10
32.443733
 20
235.0481089999999
 30
0.0
 11
33.920233
 21
235.0481089999999
 31
0.0
  0
LINE
  5
A341
330
A1F6
100
AcDbEntity
  8
1
  6
Continuous
100
AcDbLine
 10
31.92023300000001
 20
235.571609
 30
0.0
 11
33.12023299999999
 21
234.371609
 31
0.0
  0
LINE
  5
A342
330
A1F6
100
AcDbEntity
  8
1
  6
Continuous
100
AcDbLine
 10
33.12023299999999
 20
242.3716089999998
 30
0.0
 11
33.920233
 21
242.3716089999998
 31
0.0
  0
LINE
  5
A343
330
A1F6
100
AcDbEntity
  8
2
  6
Continuous
100
AcDbLine
 10
32.443733
 20
241.6951089999999
 30
0.0
 11
33.920233
 21
241.6951089999999
 31
0.0
  0
LINE
  5
A344
330
A1F6
100
AcDbEntity
  8
1
  6
Continuous
100
AcDbLine
 10
31.92023300000001
 20
241.171609
 30
0.0
 11
33.12023299999999
 21
242.3716089999998
 31
0.0
  0
LINE
  5
A345
330
A1F6
100
AcDbEntity
  8
1
  6
Continuous
100
AcDbLine
 10
224.5202229999999
 20
48.571619
 30
0.0
 11
218.9202229999999
 21
48.571619
 31
0.0
  0
LINE
  5
A346
330
A1F6
100
AcDbEntity
  8
1
  6
Continuous
100
AcDbLine
 10
225.720223
 20
49.771619
 30
0.0
 11
217.720223
 21
49.771619
 31
0.0
  0
LINE
  5
A347
330
A1F6
100
AcDbEntity
  8
1
  6
Continuous
100
AcDbLine
 10
218.9202229999999
 20
48.571619
 30
0.0
 11
217.720223
 21
49.771619
 31
0.0
  0
LINE
  5
A348
330
A1F6
100
AcDbEntity
  8
2
  6
Continuous
100
AcDbLine
 10
218.3967229999999
 20
49.095119
 30
0.0
 11
218.3967229999999
 21
50.571619
 31
0.0
  0
LINE
  5
A349
330
A1F6
100
AcDbEntity
  8
1
  6
Continuous
100
AcDbLine
 10
217.720223
 20
49.771619
 30
0.0
 11
217.720223
 21
50.571619
 31
0.0
  0
LINE
  5
A34A
330
A1F6
100
AcDbEntity
  8
4
  6
CENTER
100
AcDbLine
 10
221.720223
 20
48.571619
 30
0.0
 11
221.720223
 21
50.571619
 31
0.0
  0
LINE
  5
A34B
330
A1F6
100
AcDbEntity
  8
2
  6
Continuous
100
AcDbLine
 10
225.043723
 20
49.095119
 30
0.0
 11
225.043723
 21
50.571619
 31
0.0
  0
LINE
  5
A34C
330
A1F6
100
AcDbEntity
  8
1
  6
Continuous
100
AcDbLine
 10
225.720223
 20
49.771619
 30
0.0
 11
225.720223
 21
50.571619
 31
0.0
  0
LINE
  5
A34D
330
A1F6
100
AcDbEntity
  8
1
  6
Continuous
100
AcDbLine
 10
224.5202229999999
 20
48.571619
 30
0.0
 11
225.720223
 21
49.771619
 31
0.0
  0
CIRCLE
  5
A34E
330
A1F6
100
AcDbEntity
  8
1
  6
Continuous
100
AcDbCircle
 10
551.720223
 20
238.3716089999999
 30
0.0
 40
2.799999999999998
  0
CIRCLE
  5
A34F
330
A1F6
100
AcDbEntity
  8
1
  6
Continuous
100
AcDbCircle
 10
551.720223
 20
238.3716089999999
 30
0.0
 40
5.102005
  0
LINE
  5
A350
330
A1F6
100
AcDbEntity
  8
4
  6
CENTER
100
AcDbLine
 10
221.720223
 20
493.4594929999998
 30
0.0
 11
221.720223
 21
491.4594929999998
 31
0.0
  0
ARC
  5
A351
330
A1F6
100
AcDbEntity
  8
1
  6
Continuous
100
AcDbCircle
 10
242.500997
 20
468.1594979999998
 30
0.0
 40
32.780774
100
AcDbArc
 50
146.064871
 51
213.935129
  0
ARC
  5
A352
330
A1F6
100
AcDbEntity
  8
1
  6
Continuous
100
AcDbCircle
 10
434.788189
 20
285.354419
 30
0.0
 40
72.067966
100
AcDbArc
 50
163.6561669999998
 51
204.7279049999999
  0
ARC
  5
A353
330
A1F6
100
AcDbEntity
  8
1
  6
Continuous
100
AcDbCircle
 10
340.6522569999999
 20
285.354419
 30
0.0
 40
72.067966
100
AcDbArc
 50
335.2720759999999
 51
16.343833
  0
ARC
  5
A354
330
A1F6
100
AcDbEntity
  8
1
  6
Continuous
100
AcDbCircle
 10
340.6522569999999
 20
285.354419
 30
0.0
 40
69.767966
100
AcDbArc
 50
335.2720949999998
 51
18.13622699999998
  0
ARC
  5
A355
330
A1F6
100
AcDbEntity
  8
1
  6
Continuous
100
AcDbCircle
 10
434.788189
 20
285.354419
 30
0.0
 40
69.767966
100
AcDbArc
 50
161.863773
 51
204.7279049999999
  0
ARC
  5
A356
330
A1F6
100
AcDbEntity
  8
1
  6
Continuous
100
AcDbCircle
 10
407.888797
 20
305.071608
 30
0.0
 40
2.0
100
AcDbArc
 50
16.343833
 51
90.0
  0
ARC
  5
A357
330
A1F6
100
AcDbEntity
  8
1
  6
Continuous
100
AcDbCircle
 10
367.551649
 20
305.071608
 30
0.0
 40
2.0
100
AcDbArc
 50
90.0
 51
163.6561669999998
  0
ARC
  5
A358
330
A1F6
100
AcDbEntity
  8
1
  6
Continuous
100
AcDbCircle
 10
242.180805
 20
96.17160900000001
 30
0.0
 40
4.0
100
AcDbArc
 50
270.0
 51
309.738916
  0
ARC
  5
A359
330
A1F6
100
AcDbEntity
  8
1
  6
Continuous
100
AcDbCircle
 10
242.180805
 20
96.17160900000001
 30
0.0
 40
6.299999999999998
100
AcDbArc
 50
270.0
 51
309.738916
  0
ARC
  5
A35A
330
A1F6
100
AcDbEntity
  8
1
  6
Continuous
100
AcDbCircle
 10
242.180805
 20
51.571609
 30
0.0
 40
6.299999999999998
100
AcDbArc
 50
50.261084
 51
90.0
  0
ARC
  5
A35B
330
A1F6
100
AcDbEntity
  8
1
  6
Continuous
100
AcDbCircle
 10
242.1807929999999
 20
51.571619
 30
0.0
 40
4.0
100
AcDbArc
 50
50.26105300000001
 51
90.0
  0
ARC
  5
A35C
330
A1F6
100
AcDbEntity
  8
1
  6
Continuous
100
AcDbCircle
 10
368.420223
 20
254.7893939999999
 30
0.0
 40
1.0
100
AcDbArc
 50
0.0
 51
24.727905
  0
ARC
  5
A35D
330
A1F6
100
AcDbEntity
  8
1
  6
Continuous
100
AcDbCircle
 10
368.420223
 20
254.7893939999999
 30
0.0
 40
3.299999999999998
100
AcDbArc
 50
0.0
 51
24.727905
  0
ARC
  5
A35E
330
A1F6
100
AcDbEntity
  8
1
  6
Continuous
100
AcDbCircle
 10
407.020213
 20
254.7893719999999
 30
0.0
 40
1.0
100
AcDbArc
 50
155.2720759999999
 51
180.0
  0
ARC
  5
A35F
330
A1F6
100
AcDbEntity
  8
1
  6
Continuous
100
AcDbCircle
 10
407.0202229999998
 20
254.7893939999999
 30
0.0
 40
3.299999999999998
100
AcDbArc
 50
155.272095
 51
180.0
  0
LINE
  5
A360
330
A1F6
100
AcDbEntity
  8
1
  6
Continuous
100
AcDbLine
 10
535.220223
 20
320.7716019999998
 30
0.0
 11
535.220223
 21
318.2716019999998
 31
0.0
  0
LINE
  5
A361
330
A1F6
100
AcDbEntity
  8
1
  6
Continuous
100
AcDbLine
 10
490.2202229999998
 20
320.7716019999998
 30
0.0
 11
490.2202229999998
 21
318.2716019999998
 31
0.0
  0
LINE
  5
A362
330
A1F6
100
AcDbEntity
  8
1
  6
Continuous
100
AcDbLine
 10
534.8202389999999
 20
316.971607
 30
0.0
 11
490.6202129999998
 21
316.971607
 31
0.0
  0
LINE
  5
A363
330
A1F6
100
AcDbEntity
  8
1
  6
Continuous
100
AcDbLine
 10
490.6202429999998
 20
316.9716029999999
 30
0.0
 11
490.2202429999999
 21
318.27161
 31
0.0
  0
LINE
  5
A364
330
A1F6
100
AcDbEntity
  8
1
  6
Continuous
100
AcDbLine
 10
534.820237
 20
316.971599
 30
0.0
 11
535.220238
 21
318.2716019999998
 31
0.0
  0
LINE
  5
A365
330
A1F6
100
AcDbEntity
  8
2
  6
Continuous
100
AcDbLine
 10
519.637723
 20
329.7465579999999
 30
0.0
 11
519.637723
 21
366.954113
 31
0.0
  0
LINE
  5
A366
330
A1F6
100
AcDbEntity
  8
2
  6
Continuous
100
AcDbLine
 10
505.802723
 20
329.7465579999999
 30
0.0
 11
505.802723
 21
366.954113
 31
0.0
  0
LINE
  5
A367
330
A1F6
100
AcDbEntity
  8
1
  6
Continuous
100
AcDbLine
 10
520.720223
 20
327.8716129999999
 30
0.0
 11
520.720223
 21
365.8716129999998
 31
0.0
  0
LINE
  5
A368
330
A1F6
100
AcDbEntity
  8
1
  6
Continuous
100
AcDbLine
 10
504.7202229999999
 20
327.8716129999999
 30
0.0
 11
504.7202229999999
 21
365.8716129999998
 31
0.0
  0
LINE
  5
A369
330
A1F6
100
AcDbEntity
  8
1
  6
Continuous
100
AcDbLine
 10
504.7202229999999
 20
329.7465579999999
 30
0.0
 11
520.720223
 21
329.7465579999999
 31
0.0
  0
LINE
  5
A36A
330
A1F6
100
AcDbEntity
  8
2
  6
Continuous
100
AcDbLine
 10
505.802723
 20
329.7465579999999
 30
0.0
 11
504.7202229999999
 21
327.8716129999999
 31
0.0
  0
LINE
  5
A36B
330
A1F6
100
AcDbEntity
  8
1
  6
Continuous
100
AcDbLine
 10
530.9702900000002
 20
322.7716019999998
 30
0.0
 11
494.4702229999998
 21
322.7716019999998
 31
0.0
  0
LINE
  5
A36C
330
A1F6
100
AcDbEntity
  8
1
  6
Continuous
100
AcDbLine
 10
535.220223
 20
320.7716019999998
 30
0.0
 11
490.2202229999998
 21
320.7716019999998
 31
0.0
  0
ARC
  5
A36D
330
A1F6
100
AcDbEntity
  8
1
  6
Continuous
100
AcDbCircle
 10
494.696163
 20
316.77586
 30
0.0
 40
6.0
100
AcDbArc
 50
92.158028
 51
138.2442
  0
LINE
  5
A36E
330
A1F6
100
AcDbEntity
  8
2
  6
Continuous
100
AcDbLine
 10
519.637723
 20
329.7465579999999
 30
0.0
 11
520.720223
 21
327.8716129999999
 31
0.0
  0
ARC
  5
A36F
330
A1F6
100
AcDbEntity
  8
1
  6
Continuous
100
AcDbCircle
 10
530.744286
 20
316.77586
 30
0.0
 40
6.0
100
AcDbArc
 50
41.75575999999996
 51
87.841936
  0
LINE
  5
A370
330
A1F6
100
AcDbEntity
  8
1
  6
Continuous
100
AcDbLine
 10
504.7202229999999
 20
365.8716129999998
 30
0.0
 11
506.7202229999998
 21
367.8716129999998
 31
0.0
  0
LINE
  5
A371
330
A1F6
100
AcDbEntity
  8
1
  6
Continuous
100
AcDbLine
 10
504.7202229999999
 20
365.8716129999998
 30
0.0
 11
520.720223
 21
365.8716129999998
 31
0.0
  0
LINE
  5
A372
330
A1F6
100
AcDbEntity
  8
1
  6
Continuous
100
AcDbLine
 10
518.720223
 20
367.8716129999998
 30
0.0
 11
520.720223
 21
365.8716129999998
 31
0.0
  0
LINE
  5
A373
330
A1F6
100
AcDbEntity
  8
1
  6
Continuous
100
AcDbLine
 10
506.7202229999998
 20
367.8716129999998
 30
0.0
 11
518.720223
 21
367.8716129999998
 31
0.0
  0
CIRCLE
  5
A374
330
A1F6
100
AcDbEntity
  8
1
  6
Continuous
100
AcDbCircle
 10
260.7202229999999
 20
468.1595029999998
 30
0.0
 40
8.0
  0
CIRCLE
  5
A375
330
A1F6
100
AcDbEntity
  8
2
  6
Continuous
100
AcDbCircle
 10
260.7202229999999
 20
468.1595029999998
 30
0.0
 40
6.9175
  0
LINE
  5
A376
330
A1F6
100
AcDbEntity
  8
1
  6
Continuous
100
AcDbLine
 10
365.2202229999998
 20
320.77161
 30
0.0
 11
365.2202229999998
 21
318.27161
 31
0.0
  0
LINE
  5
A377
330
A1F6
100
AcDbEntity
  8
1
  6
Continuous
100
AcDbLine
 10
410.2202229999998
 20
320.77161
 30
0.0
 11
410.2202229999998
 21
318.27161
 31
0.0
  0
LINE
  5
A378
330
A1F6
100
AcDbEntity
  8
1
  6
Continuous
100
AcDbLine
 10
409.820214
 20
316.971607
 30
0.0
 11
365.620223
 21
316.971607
 31
0.0
  0
LINE
  5
A379
330
A1F6
100
AcDbEntity
  8
1
  6
Continuous
100
AcDbLine
 10
365.620219
 20
316.9716029999999
 30
0.0
 11
365.220219
 21
318.271606
 31
0.0
  0
LINE
  5
A37A
330
A1F6
100
AcDbEntity
  8
1
  6
Continuous
100
AcDbLine
 10
409.820214
 20
316.9716109999999
 30
0.0
 11
410.220215
 21
318.27161
 31
0.0
  0
LINE
  5
A37B
330
A1F6
100
AcDbEntity
  8
1
  6
Continuous
100
AcDbLine
 10
395.720223
 20
327.8716129999999
 30
0.0
 11
395.720223
 21
365.8716129999998
 31
0.0
  0
LINE
  5
A37C
330
A1F6
100
AcDbEntity
  8
2
  6
Continuous
100
AcDbLine
 10
394.6377229999998
 20
329.7465579999999
 30
0.0
 11
394.6377229999998
 21
366.954113
 31
0.0
  0
LINE
  5
A37D
330
A1F6
100
AcDbEntity
  8
1
  6
Continuous
100
AcDbLine
 10
379.7202229999999
 20
327.8716129999999
 30
0.0
 11
379.7202229999999
 21
365.8716129999998
 31
0.0
  0
LINE
  5
A37E
330
A1F6
100
AcDbEntity
  8
2
  6
Continuous
100
AcDbLine
 10
380.802723
 20
329.7465579999999
 30
0.0
 11
380.802723
 21
366.954113
 31
0.0
  0
LINE
  5
A37F
330
A1F6
100
AcDbEntity
  8
1
  6
Continuous
100
AcDbLine
 10
405.748087
 20
322.77161
 30
0.0
 11
369.4702229999998
 21
322.77161
 31
0.0
  0
LINE
  5
A380
330
A1F6
100
AcDbEntity
  8
1
  6
Continuous
100
AcDbLine
 10
410.2202229999998
 20
320.77161
 30
0.0
 11
365.2202229999998
 21
320.77161
 31
0.0
  0
LINE
  5
A381
330
A1F6
100
AcDbEntity
  8
1
  6
Continuous
100
AcDbLine
 10
374.7201659999998
 20
327.8716129999999
 30
0.0
 11
400.7202759999998
 21
327.8716129999999
 31
0.0
  0
LINE
  5
A382
330
A1F6
100
AcDbEntity
  8
1
  6
Continuous
100
AcDbLine
 10
379.7202229999999
 20
329.7465579999999
 30
0.0
 11
395.720223
 21
329.7465579999999
 31
0.0
  0
ARC
  5
A383
330
A1F6
100
AcDbEntity
  8
1
  6
Continuous
100
AcDbCircle
 10
369.696162
 20
316.775863
 30
0.0
 40
6.0
100
AcDbArc
 50
92.158028
 51
138.2442
  0
LINE
  5
A384
330
A1F6
100
AcDbEntity
  8
1
  6
Continuous
100
AcDbLine
 10
381.080693
 20
327.8716129999999
 30
0.0
 11
381.080693
 21
322.77161
 31
0.0
  0
LINE
  5
A385
330
A1F6
100
AcDbEntity
  8
2
  6
Continuous
100
AcDbLine
 10
380.802723
 20
329.7465579999999
 30
0.0
 11
379.7202229999999
 21
327.8716129999999
 31
0.0
  0
LINE
  5
A386
330
A1F6
100
AcDbEntity
  8
1
  6
Continuous
100
AcDbLine
 10
394.359749
 20
327.8716129999999
 30
0.0
 11
394.359749
 21
322.77161
 31
0.0
  0
LINE
  5
A387
330
A1F6
100
AcDbEntity
  8
2
  6
Continuous
100
AcDbLine
 10
394.6377229999998
 20
329.7465579999999
 30
0.0
 11
395.720223
 21
327.8716129999999
 31
0.0
  0
ARC
  5
A388
330
A1F6
100
AcDbEntity
  8
1
  6
Continuous
100
AcDbCircle
 10
405.748087
 20
316.77161
 30
0.0
 40
6.0
100
AcDbArc
 50
41.810315
 51
90.0
  0
LINE
  5
A389
330
A1F6
100
AcDbEntity
  8
1
  6
Continuous
100
AcDbLine
 10
381.7202229999999
 20
367.8716129999998
 30
0.0
 11
393.720223
 21
367.8716129999998
 31
0.0
  0
LINE
  5
A38A
330
A1F6
100
AcDbEntity
  8
1
  6
Continuous
100
AcDbLine
 10
379.7202229999999
 20
365.8716129999998
 30
0.0
 11
395.720223
 21
365.8716129999998
 31
0.0
  0
LINE
  5
A38B
330
A1F6
100
AcDbEntity
  8
1
  6
Continuous
100
AcDbLine
 10
379.7202229999999
 20
365.8716129999998
 30
0.0
 11
381.7202229999999
 21
367.8716129999998
 31
0.0
  0
LINE
  5
A38C
330
A1F6
100
AcDbEntity
  8
1
  6
Continuous
100
AcDbLine
 10
393.720223
 20
367.8716129999998
 30
0.0
 11
395.720223
 21
365.8716129999998
 31
0.0
  0
CIRCLE
  5
A38D
330
A1F6
100
AcDbEntity
  8
1
  6
Continuous
100
AcDbCircle
 10
260.7202229999999
 20
468.1595029999998
 30
0.0
 40
6.0
  0
LINE
  5
A38E
330
A1F6
100
AcDbEntity
  8
1
  6
Continuous
100
AcDbLine
 10
49.220223
 20
365.8716129999998
 30
0.0
 11
65.220223
 21
365.8716129999998
 31
0.0
  0
LINE
  5
A38F
330
A1F6
100
AcDbEntity
  8
1
  6
Continuous
100
AcDbLine
 10
51.220223
 20
367.8716129999998
 30
0.0
 11
63.220223
 21
367.8716129999998
 31
0.0
  0
LINE
  5
A390
330
A1F6
100
AcDbEntity
  8
1
  6
Continuous
100
AcDbLine
 10
44.220166
 20
327.8716129999999
 30
0.0
 11
70.220276
 21
327.8716129999999
 31
0.0
  0
LINE
  5
A391
330
A1F6
100
AcDbEntity
  8
1
  6
Continuous
100
AcDbLine
 10
49.220223
 20
329.7465579999999
 30
0.0
 11
65.220223
 21
329.7465579999999
 31
0.0
  0
LINE
  5
A392
330
A1F6
100
AcDbEntity
  8
1
  6
Continuous
100
AcDbLine
 10
75.248087
 20
322.77161
 30
0.0
 11
38.97022299999999
 21
322.77161
 31
0.0
  0
LINE
  5
A393
330
A1F6
100
AcDbEntity
  8
1
  6
Continuous
100
AcDbLine
 10
79.720223
 20
320.77161
 30
0.0
 11
34.72022299999999
 21
320.77161
 31
0.0
  0
LINE
  5
A394
330
A1F6
100
AcDbEntity
  8
1
  6
Continuous
100
AcDbLine
 10
79.320214
 20
316.971607
 30
0.0
 11
35.12022299999999
 21
316.971607
 31
0.0
  0
LINE
  5
A395
330
A1F6
100
AcDbEntity
  8
2
  6
Continuous
100
AcDbLine
 10
50.302723
 20
329.7465579999999
 30
0.0
 11
50.302723
 21
366.954113
 31
0.0
  0
LINE
  5
A396
330
A1F6
100
AcDbEntity
  8
1
  6
Continuous
100
AcDbLine
 10
49.220223
 20
327.8716129999999
 30
0.0
 11
49.220223
 21
365.8716129999998
 31
0.0
  0
LINE
  5
A397
330
A1F6
100
AcDbEntity
  8
1
  6
Continuous
100
AcDbLine
 10
35.120219
 20
316.9716029999999
 30
0.0
 11
34.720219
 21
318.271606
 31
0.0
  0
LINE
  5
A398
330
A1F6
100
AcDbEntity
  8
1
  6
Continuous
100
AcDbLine
 10
34.72022299999999
 20
320.77161
 30
0.0
 11
34.72022299999999
 21
318.27161
 31
0.0
  0
ARC
  5
A399
330
A1F6
100
AcDbEntity
  8
1
  6
Continuous
100
AcDbCircle
 10
39.196162
 20
316.775863
 30
0.0
 40
6.0
100
AcDbArc
 50
92.158028
 51
138.2442
  0
LINE
  5
A39A
330
A1F6
100
AcDbEntity
  8
2
  6
Continuous
100
AcDbLine
 10
50.302723
 20
329.7465579999999
 30
0.0
 11
49.220223
 21
327.8716129999999
 31
0.0
  0
LINE
  5
A39B
330
A1F6
100
AcDbEntity
  8
1
  6
Continuous
100
AcDbLine
 10
50.58069299999999
 20
327.8716129999999
 30
0.0
 11
50.58069299999999
 21
322.77161
 31
0.0
  0
LINE
  5
A39C
330
A1F6
100
AcDbEntity
  8
1
  6
Continuous
100
AcDbLine
 10
49.220223
 20
365.8716129999998
 30
0.0
 11
51.220223
 21
367.8716129999998
 31
0.0
  0
LINE
  5
A39D
330
A1F6
100
AcDbEntity
  8
2
  6
Continuous
100
AcDbLine
 10
64.13772299999999
 20
329.7465579999999
 30
0.0
 11
64.13772299999999
 21
366.954113
 31
0.0
  0
LINE
  5
A39E
330
A1F6
100
AcDbEntity
  8
1
  6
Continuous
100
AcDbLine
 10
65.220223
 20
327.8716129999999
 30
0.0
 11
65.220223
 21
365.8716129999998
 31
0.0
  0
ARC
  5
A39F
330
A1F6
100
AcDbEntity
  8
1
  6
Continuous
100
AcDbCircle
 10
75.248087
 20
316.77161
 30
0.0
 40
6.0
100
AcDbArc
 50
41.810315
 51
90.0
  0
LINE
  5
A3A0
330
A1F6
100
AcDbEntity
  8
2
  6
Continuous
100
AcDbLine
 10
64.13772299999999
 20
329.7465579999999
 30
0.0
 11
65.220223
 21
327.8716129999999
 31
0.0
  0
LINE
  5
A3A1
330
A1F6
100
AcDbEntity
  8
1
  6
Continuous
100
AcDbLine
 10
63.859749
 20
327.8716129999999
 30
0.0
 11
63.859749
 21
322.77161
 31
0.0
  0
LINE
  5
A3A2
330
A1F6
100
AcDbEntity
  8
1
  6
Continuous
100
AcDbLine
 10
79.320214
 20
316.9716109999999
 30
0.0
 11
79.72021499999998
 21
318.27161
 31
0.0
  0
LINE
  5
A3A3
330
A1F6
100
AcDbEntity
  8
1
  6
Continuous
100
AcDbLine
 10
79.720223
 20
320.77161
 30
0.0
 11
79.720223
 21
318.27161
 31
0.0
  0
LINE
  5
A3A4
330
A1F6
100
AcDbEntity
  8
1
  6
Continuous
100
AcDbLine
 10
63.220223
 20
367.8716129999998
 30
0.0
 11
65.220223
 21
365.8716129999998
 31
0.0
  0
LINE
  5
A3A5
330
A1F6
100
AcDbEntity
  8
1
  6
Continuous
100
AcDbLine
 10
252.7202229999998
 20
327.8716129999999
 30
0.0
 11
252.7202229999998
 21
365.8716129999998
 31
0.0
  0
LINE
  5
A3A6
330
A1F6
100
AcDbEntity
  8
1
  6
Continuous
100
AcDbLine
 10
268.720223
 20
327.8716129999999
 30
0.0
 11
268.720223
 21
365.8716129999998
 31
0.0
  0
LINE
  5
A3A7
330
A1F6
100
AcDbEntity
  8
2
  6
Continuous
100
AcDbLine
 10
253.8027229999999
 20
329.7465579999999
 30
0.0
 11
253.8027229999999
 21
366.954113
 31
0.0
  0
LINE
  5
A3A8
330
A1F6
100
AcDbEntity
  8
2
  6
Continuous
100
AcDbLine
 10
267.6377229999999
 20
329.7465579999999
 30
0.0
 11
267.6377229999999
 21
366.954113
 31
0.0
  0
LINE
  5
A3A9
330
A1F6
100
AcDbEntity
  8
1
  6
Continuous
100
AcDbLine
 10
282.820239
 20
316.971607
 30
0.0
 11
238.620213
 21
316.971607
 31
0.0
  0
LINE
  5
A3AA
330
A1F6
100
AcDbEntity
  8
1
  6
Continuous
100
AcDbLine
 10
283.2202229999998
 20
320.7716019999998
 30
0.0
 11
238.220223
 21
320.7716019999998
 31
0.0
  0
LINE
  5
A3AB
330
A1F6
100
AcDbEntity
  8
1
  6
Continuous
100
AcDbLine
 10
278.9702899999999
 20
322.7716019999998
 30
0.0
 11
242.470223
 21
322.7716019999998
 31
0.0
  0
LINE
  5
A3AC
330
A1F6
100
AcDbEntity
  8
1
  6
Continuous
100
AcDbLine
 10
238.220223
 20
320.7716019999998
 30
0.0
 11
238.220223
 21
318.2716019999998
 31
0.0
  0
LINE
  5
A3AD
330
A1F6
100
AcDbEntity
  8
1
  6
Continuous
100
AcDbLine
 10
238.6202429999999
 20
316.9716029999999
 30
0.0
 11
238.2202429999999
 21
318.27161
 31
0.0
  0
ARC
  5
A3AE
330
A1F6
100
AcDbEntity
  8
1
  6
Continuous
100
AcDbCircle
 10
242.696163
 20
316.77586
 30
0.0
 40
6.0
100
AcDbArc
 50
92.158028
 51
138.2442
  0
LINE
  5
A3AF
330
A1F6
100
AcDbEntity
  8
1
  6
Continuous
100
AcDbLine
 10
252.7202229999998
 20
329.7465579999999
 30
0.0
 11
268.720223
 21
329.7465579999999
 31
0.0
  0
LINE
  5
A3B0
330
A1F6
100
AcDbEntity
  8
2
  6
Continuous
100
AcDbLine
 10
253.8027229999999
 20
329.7465579999999
 30
0.0
 11
252.7202229999998
 21
327.8716129999999
 31
0.0
  0
LINE
  5
A3B1
330
A1F6
100
AcDbEntity
  8
2
  6
Continuous
100
AcDbLine
 10
267.6377229999999
 20
329.7465579999999
 30
0.0
 11
268.720223
 21
327.8716129999999
 31
0.0
  0
LINE
  5
A3B2
330
A1F6
100
AcDbEntity
  8
1
  6
Continuous
100
AcDbLine
 10
283.2202229999998
 20
320.7716019999998
 30
0.0
 11
283.2202229999998
 21
318.2716019999998
 31
0.0
  0
LINE
  5
A3B3
330
A1F6
100
AcDbEntity
  8
1
  6
Continuous
100
AcDbLine
 10
282.8202369999999
 20
316.971599
 30
0.0
 11
283.220238
 21
318.2716019999998
 31
0.0
  0
ARC
  5
A3B4
330
A1F6
100
AcDbEntity
  8
1
  6
Continuous
100
AcDbCircle
 10
278.744286
 20
316.77586
 30
0.0
 40
6.0
100
AcDbArc
 50
41.75575999999996
 51
87.841936
  0
LINE
  5
A3B5
330
A1F6
100
AcDbEntity
  8
1
  6
Continuous
100
AcDbLine
 10
254.7202229999999
 20
367.8716129999998
 30
0.0
 11
266.720223
 21
367.8716129999998
 31
0.0
  0
LINE
  5
A3B6
330
A1F6
100
AcDbEntity
  8
1
  6
Continuous
100
AcDbLine
 10
252.7202229999998
 20
365.8716129999998
 30
0.0
 11
268.720223
 21
365.8716129999998
 31
0.0
  0
LINE
  5
A3B7
330
A1F6
100
AcDbEntity
  8
1
  6
Continuous
100
AcDbLine
 10
252.7202229999998
 20
365.8716129999998
 30
0.0
 11
254.7202229999999
 21
367.8716129999998
 31
0.0
  0
LINE
  5
A3B8
330
A1F6
100
AcDbEntity
  8
1
  6
Continuous
100
AcDbLine
 10
266.720223
 20
367.8716129999998
 30
0.0
 11
268.720223
 21
365.8716129999998
 31
0.0
  0
ARC
  5
A3B9
330
A1F6
100
AcDbEntity
  8
1
  6
Continuous
100
AcDbCircle
 10
240.720223
 20
310.971604
 30
0.0
 40
5.0
100
AcDbArc
 50
90.0
 51
179.030169
  0
CIRCLE
  5
A3BA
330
A1F6
100
AcDbEntity
  8
1
  6
Continuous
100
AcDbCircle
 10
260.7202229999999
 20
468.1595029999998
 30
0.0
 40
18.25
  0
CIRCLE
  5
A3BB
330
A1F6
100
AcDbEntity
  8
1
  6
Continuous
100
AcDbCircle
 10
260.7202229999999
 20
468.1595029999998
 30
0.0
 40
22.5
  0
ARC
  5
A3BC
330
A1F6
100
AcDbEntity
  8
1
  6
Continuous
100
AcDbCircle
 10
260.7202229999999
 20
468.1595029999998
 30
0.0
 40
25.0
100
AcDbArc
 50
140.403279
 51
220.291044
  0
ARC
  5
A3BD
330
A1F6
100
AcDbEntity
  8
1
  6
Continuous
100
AcDbCircle
 10
208.7202229999999
 20
456.1595029999998
 30
0.0
 40
3.0
100
AcDbArc
 50
210.0000049999999
 51
269.999945
  0
LINE
  5
A3BE
330
A1F6
100
AcDbEntity
  8
1
  6
Continuous
100
AcDbLine
 10
225.720223
 20
492.2594929999998
 30
0.0
 11
217.720223
 21
492.2594929999998
 31
0.0
  0
LINE
  5
A3BF
330
A1F6
100
AcDbEntity
  8
1
  6
Continuous
100
AcDbLine
 10
224.5202229999999
 20
493.4594929999998
 30
0.0
 11
218.9202229999999
 21
493.4594929999998
 31
0.0
  0
ARC
  5
A3C0
330
A1F6
100
AcDbEntity
  8
1
  6
Continuous
100
AcDbCircle
 10
224.720223
 20
493.3010939999999
 30
0.0
 40
6.841600999999998
100
AcDbArc
 50
243.992176
 51
296.0078240000001
  0
ARC
  5
A3C1
330
A1F6
100
AcDbEntity
  8
1
  6
Continuous
100
AcDbCircle
 10
224.720223
 20
484.6178919999998
 30
0.0
 40
6.841600999999998
100
AcDbArc
 50
63.992176
 51
116.007824
  0
LINE
  5
A3C2
330
A1F6
100
AcDbEntity
  8
1
  6
Continuous
100
AcDbLine
 10
218.9702229999999
 20
491.4594929999998
 30
0.0
 11
224.470223
 21
491.4594929999998
 31
0.0
  0
LINE
  5
A3C3
330
A1F6
100
AcDbEntity
  8
1
  6
Continuous
100
AcDbLine
 10
208.7202229999999
 20
483.1595029999999
 30
0.0
 11
213.353458
 21
483.1595029999999
 31
0.0
  0
LINE
  5
A3C4
330
A1F6
100
AcDbEntity
  8
1
  6
Continuous
100
AcDbLine
 10
210.7202229999999
 20
486.4594929999998
 30
0.0
 11
242.1807929999999
 21
486.4594929999998
 31
0.0
  0
LINE
  5
A3C5
330
A1F6
100
AcDbEntity
  8
1
  6
Continuous
100
AcDbLine
 10
210.7202229999999
 20
484.1595029999998
 30
0.0
 11
213.8901769999999
 21
484.1595029999998
 31
0.0
  0
ARC
  5
A3C6
330
A1F6
100
AcDbEntity
  8
1
  6
Continuous
100
AcDbCircle
 10
208.7202229999999
 20
480.1595029999998
 30
0.0
 40
3.0
100
AcDbArc
 50
89.99997999999996
 51
149.9999799999999
  0
LINE
  5
A3C7
330
A1F6
100
AcDbEntity
  8
4
  6
CENTER
100
AcDbLine
 10
221.720223
 20
493.4594929999998
 30
0.0
 11
221.720223
 21
491.4594929999998
 31
0.0
  0
LINE
  5
A3C8
330
A1F6
100
AcDbEntity
  8
1
  6
Continuous
100
AcDbLine
 10
217.720223
 20
492.2594929999998
 30
0.0
 11
217.720223
 21
491.4594929999998
 31
0.0
  0
LINE
  5
A3C9
330
A1F6
100
AcDbEntity
  8
2
  6
Continuous
100
AcDbLine
 10
218.3967229999999
 20
492.935993
 30
0.0
 11
218.3967229999999
 21
491.4594929999998
 31
0.0
  0
LINE
  5
A3CA
330
A1F6
100
AcDbEntity
  8
1
  6
Continuous
100
AcDbLine
 10
218.9202229999999
 20
493.4594929999998
 30
0.0
 11
217.720223
 21
492.2594929999998
 31
0.0
  0
ARC
  5
A3CB
330
A1F6
100
AcDbEntity
  8
1
  6
Continuous
100
AcDbCircle
 10
218.720223
 20
493.3010939999999
 30
0.0
 40
6.841600999999998
100
AcDbArc
 50
243.992176
 51
296.0078240000001
  0
ARC
  5
A3CC
330
A1F6
100
AcDbEntity
  8
1
  6
Continuous
100
AcDbCircle
 10
218.720223
 20
484.6178919999998
 30
0.0
 40
6.841600999999998
100
AcDbArc
 50
63.992176
 51
116.007824
  0
LINE
  5
A3CD
330
A1F6
100
AcDbEntity
  8
1
  6
Continuous
100
AcDbLine
 10
215.720223
 20
487.1523129999998
 30
0.0
 11
215.720223
 21
490.766673
 31
0.0
  0
LINE
  5
A3CE
330
A1F6
100
AcDbEntity
  8
1
  6
Continuous
100
AcDbLine
 10
221.720223
 20
486.4594929999998
 30
0.0
 11
221.720223
 21
490.766673
 31
0.0
  0
ARC
  5
A3CF
330
A1F6
100
AcDbEntity
  8
1
  6
Continuous
100
AcDbCircle
 10
128.2535629999999
 20
468.1595029999998
 30
0.0
 40
85.0
100
AcDbArc
 50
10.840782
 51
10.849816
  0
LINE
  5
A3D0
330
A1F6
100
AcDbEntity
  8
1
  6
Continuous
100
AcDbLine
 10
210.7202229999999
 20
484.1595029999998
 30
0.0
 11
210.7202229999999
 21
486.4594929999998
 31
0.0
  0
LINE
  5
A3D1
330
A1F6
100
AcDbEntity
  8
1
  6
Continuous
100
AcDbLine
 10
224.5202229999999
 20
493.4594929999998
 30
0.0
 11
225.720223
 21
492.2594929999998
 31
0.0
  0
LINE
  5
A3D2
330
A1F6
100
AcDbEntity
  8
1
  6
Continuous
100
AcDbLine
 10
225.720223
 20
492.2594929999998
 30
0.0
 11
225.720223
 21
491.4594929999998
 31
0.0
  0
LINE
  5
A3D3
330
A1F6
100
AcDbEntity
  8
2
  6
Continuous
100
AcDbLine
 10
225.043723
 20
492.935993
 30
0.0
 11
225.043723
 21
491.4594929999998
 31
0.0
  0
LINE
  5
A3D4
330
A1F6
100
AcDbEntity
  8
1
  6
Continuous
100
AcDbLine
 10
227.7202229999998
 20
487.1523129999998
 30
0.0
 11
227.7202229999998
 21
490.766673
 31
0.0
  0
LINE
  5
A3D5
330
A1F6
100
AcDbEntity
  8
1
  6
Continuous
100
AcDbLine
 10
217.470223
 20
446.659523
 30
0.0
 11
225.970223
 21
446.659523
 31
0.0
  0
LINE
  5
A3D6
330
A1F6
100
AcDbEntity
  8
1
  6
Continuous
100
AcDbLine
 10
208.7202229999999
 20
453.159503
 30
0.0
 11
213.3534529999999
 21
453.159503
 31
0.0
  0
LINE
  5
A3D7
330
A1F6
100
AcDbEntity
  8
1
  6
Continuous
100
AcDbLine
 10
210.7202229999999
 20
449.859503
 30
0.0
 11
242.180805
 21
449.859503
 31
0.0
  0
LINE
  5
A3D8
330
A1F6
100
AcDbEntity
  8
1
  6
Continuous
100
AcDbLine
 10
210.7202229999999
 20
452.1595029999998
 30
0.0
 11
213.890172
 21
452.1595029999998
 31
0.0
  0
LINE
  5
A3D9
330
A1F6
100
AcDbEntity
  8
1
  6
Continuous
100
AcDbLine
 10
210.7202229999999
 20
449.859503
 30
0.0
 11
210.7202229999999
 21
452.1595029999998
 31
0.0
  0
LINE
  5
A3DA
330
A1F6
100
AcDbEntity
  8
1
  6
Continuous
100
AcDbLine
 10
215.470223
 20
449.859503
 30
0.0
 11
215.470223
 21
448.6595229999998
 31
0.0
  0
ARC
  5
A3DB
330
A1F6
100
AcDbEntity
  8
1
  6
Continuous
100
AcDbCircle
 10
217.470223
 20
448.6595229999998
 30
0.0
 40
2.0
100
AcDbArc
 50
180.0000179999999
 51
270.0
  0
LINE
  5
A3DC
330
A1F6
100
AcDbEntity
  8
1
  6
Continuous
100
AcDbLine
 10
227.970223
 20
449.859503
 30
0.0
 11
227.970223
 21
448.6595229999998
 31
0.0
  0
ARC
  5
A3DD
330
A1F6
100
AcDbEntity
  8
1
  6
Continuous
100
AcDbCircle
 10
225.970223
 20
448.6595229999998
 30
0.0
 40
2.0
100
AcDbArc
 50
270.0
 51
359.9999799999998
  0
ARC
  5
A3DE
330
A1F6
100
AcDbEntity
  8
1
  6
Continuous
100
AcDbCircle
 10
242.1807929999999
 20
490.459493
 30
0.0
 40
4.0
100
AcDbArc
 50
270.0
 51
309.7389469999999
  0
ARC
  5
A3DF
330
A1F6
100
AcDbEntity
  8
1
  6
Continuous
100
AcDbCircle
 10
260.7202229999999
 20
468.1595029999998
 30
0.0
 40
25.0
100
AcDbArc
 50
230.2610839999999
 51
129.7389469999999
  0
ARC
  5
A3E0
330
A1F6
100
AcDbEntity
  8
1
  6
Continuous
100
AcDbCircle
 10
242.180805
 20
445.859503
 30
0.0
 40
4.0
100
AcDbArc
 50
50.261084
 51
90.0
  0
LINE
  5
A3E1
330
A1F6
100
AcDbEntity
  8
1
  6
Continuous
100
AcDbLine
 10
44.220166
 20
327.8716129999999
 30
0.0
 11
44.220166
 21
322.77161
 31
0.0
  0
LINE
  5
A3E2
330
A1F6
100
AcDbEntity
  8
1
  6
Continuous
100
AcDbLine
 10
70.220276
 20
327.8716129999999
 30
0.0
 11
70.220276
 21
322.77161
 31
0.0
  0
LINE
  5
A3E3
330
A1F6
100
AcDbEntity
  8
1
  6
Continuous
100
AcDbLine
 10
400.7202759999998
 20
327.8716129999999
 30
0.0
 11
400.7202759999998
 21
322.77161
 31
0.0
  0
LINE
  5
A3E4
330
A1F6
100
AcDbEntity
  8
1
  6
Continuous
100
AcDbLine
 10
374.7201659999998
 20
327.8716129999999
 30
0.0
 11
374.7201659999998
 21
322.77161
 31
0.0
  0
LINE
  5
A3E5
330
A1F6
100
AcDbEntity
  8
1
  6
Continuous
100
AcDbLine
 10
249.320223
 20
461.741296
 30
0.0
 11
249.320223
 21
474.5777099999998
 31
0.0
  0
LINE
  5
A3E6
330
A1F6
100
AcDbEntity
  8
1
  6
Continuous
100
AcDbLine
 10
272.120223
 20
461.741296
 30
0.0
 11
272.120223
 21
474.5777099999998
 31
0.0
  0
LINE
  5
A3E7
330
A1F6
100
AcDbEntity
  8
1
  6
Continuous
100
AcDbLine
 10
260.7202229999999
 20
481.1595029999998
 30
0.0
 11
249.320223
 21
474.5777099999998
 31
0.0
  0
LINE
  5
A3E8
330
A1F6
100
AcDbEntity
  8
1
  6
Continuous
100
AcDbLine
 10
272.120223
 20
461.741296
 30
0.0
 11
260.7202229999999
 21
455.1595029999998
 31
0.0
  0
LINE
  5
A3E9
330
A1F6
100
AcDbEntity
  8
1
  6
Continuous
100
AcDbLine
 10
260.7202229999999
 20
481.1595029999998
 30
0.0
 11
272.120223
 21
474.5777099999998
 31
0.0
  0
LINE
  5
A3EA
330
A1F6
100
AcDbEntity
  8
1
  6
Continuous
100
AcDbLine
 10
249.320223
 20
461.741296
 30
0.0
 11
260.7202229999999
 21
455.1595029999998
 31
0.0
  0
LINE
  5
A3EB
330
A1F6
100
AcDbEntity
  8
1
  6
Continuous
100
AcDbLine
 10
249.320223
 20
327.8716129999999
 30
0.0
 11
272.120223
 21
327.8716129999999
 31
0.0
  0
LINE
  5
A3EC
330
A1F6
100
AcDbEntity
  8
1
  6
Continuous
100
AcDbLine
 10
260.7202229999999
 20
327.8716129999999
 30
0.0
 11
260.7202229999999
 21
322.7716019999998
 31
0.0
  0
LINE
  5
A3ED
330
A1F6
100
AcDbEntity
  8
1
  6
Continuous
100
AcDbLine
 10
272.120223
 20
327.8716129999999
 30
0.0
 11
272.120223
 21
322.7716019999998
 31
0.0
  0
LINE
  5
A3EE
330
A1F6
100
AcDbEntity
  8
1
  6
Continuous
100
AcDbLine
 10
249.320223
 20
327.8716129999999
 30
0.0
 11
249.320223
 21
322.7716019999998
 31
0.0
  0
LINE
  5
A3EF
330
A1F6
100
AcDbEntity
  8
1
  6
Continuous
100
AcDbLine
 10
501.320223
 20
327.8716129999999
 30
0.0
 11
524.1202229999998
 21
327.8716129999999
 31
0.0
  0
LINE
  5
A3F0
330
A1F6
100
AcDbEntity
  8
1
  6
Continuous
100
AcDbLine
 10
512.720223
 20
327.8716129999999
 30
0.0
 11
512.720223
 21
322.7716019999998
 31
0.0
  0
LINE
  5
A3F1
330
A1F6
100
AcDbEntity
  8
1
  6
Continuous
100
AcDbLine
 10
524.1202229999998
 20
327.8716129999999
 30
0.0
 11
524.1202229999998
 21
322.7716019999998
 31
0.0
  0
LINE
  5
A3F2
330
A1F6
100
AcDbEntity
  8
1
  6
Continuous
100
AcDbLine
 10
501.320223
 20
327.8716129999999
 30
0.0
 11
501.320223
 21
322.7716019999998
 31
0.0
  0
ENDSEC
  0
SECTION
  2
OBJECTS
  0
DICTIONARY
  5
A1E4
330
0
100
AcDbDictionary
281
     1
  3
ACAD_CIP_PREVIOUS_PRODUCT_INFO
350
A471
  3
ACAD_COLOR
350
A453
  3
ACAD_DETAILVIEWSTYLE
350
A46C
  3
ACAD_GROUP
350
A1E5
  3
ACAD_LAYOUT
350
A1F1
  3
ACAD_MATERIAL
350
A421
  3
ACAD_MLEADERSTYLE
350
A468
  3
ACAD_MLINESTYLE
350
A1EE
  3
ACAD_PLOTSETTINGS
350
A1F0
  3
ACAD_PLOTSTYLENAME
350
A41F
  3
ACAD_SCALELIST
350
A456
  3
ACAD_SECTIONVIEWSTYLE
350
A46A
  3
ACAD_TABLESTYLE
350
A454
  3
ACAD_VISUALSTYLE
350
A43A
  3
ACDB_RECOMPOSE_DATA
350
A48F
  3
AcDbVariableDictionary
350
A482
  3
DWGPROPS
350
A490
  0
DICTIONARY
  5
A472
330
A1E8
100
AcDbDictionary
280
     1
281
     1
  3
ADSK_XREC_LAYER_RECONCILED
360
A473
  0
DICTIONARY
  5
A474
330
A1FE
100
AcDbDictionary
280
     1
281
     1
  3
ADSK_XREC_LAYER_RECONCILED
360
A475
  0
DICTIONARY
  5
A476
330
A1FF
100
AcDbDictionary
280
     1
281
     1
  3
ADSK_XREC_LAYER_RECONCILED
360
A477
  0
DICTIONARY
  5
A478
330
A200
100
AcDbDictionary
280
     1
281
     1
  3
ADSK_XREC_LAYER_RECONCILED
360
A479
  0
DICTIONARY
  5
A47A
330
A201
100
AcDbDictionary
280
     1
281
     1
  3
ADSK_XREC_LAYER_RECONCILED
360
A47B
  0
DICTIONARY
  5
A47C
330
A202
100
AcDbDictionary
280
     1
281
     1
  3
ADSK_XREC_LAYER_RECONCILED
360
A47D
  0
DICTIONARY
  5
A47E
330
A203
100
AcDbDictionary
280
     1
281
     1
  3
ADSK_XREC_LAYER_RECONCILED
360
A47F
  0
DICTIONARY
  5
A480
330
A204
100
AcDbDictionary
280
     1
281
     1
  3
ADSK_XREC_LAYER_RECONCILED
360
A481
  0
DICTIONARY
  5
A3FD
330
A1F6
100
AcDbDictionary
281
     1
  3
ACAD_LAYOUTSELFREF
350
A41B
  0
DICTIONARY
  5
A3FB
330
A1F2
100
AcDbDictionary
281
     1
  3
ACAD_LAYOUTSELFREF
350
A41A
  0
XRECORD
  5
A471
102
{ACAD_REACTORS
330
A1E4
102
}
330
A1E4
100
AcDbXrecord
280
     1
300
ACDLT
300
2014
300
ACDLT_F_S
  0
DICTIONARY
  5
A453
102
{ACAD_REACTORS
330
A1E4
102
}
330
A1E4
100
AcDbDictionary
281
     1
  0
DICTIONARY
  5
A46C
102
{ACAD_REACTORS
330
A1E4
102
}
330
A1E4
100
AcDbDictionary
281
     1
  3
Imperial24
350
A46D
  0
DICTIONARY
  5
A1E5
102
{ACAD_REACTORS
330
A1E4
102
}
330
A1E4
100
AcDbDictionary
281
     1
  0
DICTIONARY
  5
A1F1
102
{ACAD_REACTORS
330
A1E4
102
}
330
A1E4
100
AcDbDictionary
281
     1
  3
Model
350
A46E
  3
レイアウト1
350
A46F
  0
DICTIONARY
  5
A421
102
{ACAD_REACTORS
330
A1E4
102
}
330
A1E4
100
AcDbDictionary
281
     1
  3
ByBlock
350
A42A
  3
ByLayer
350
A422
  3
Global
350
A432
  0
DICTIONARY
  5
A468
102
{ACAD_REACTORS
330
A1E4
102
}
330
A1E4
100
AcDbDictionary
281
     1
  3
Standard
350
A469
  0
DICTIONARY
  5
A1EE
102
{ACAD_REACTORS
330
A1E4
102
}
330
A1E4
100
AcDbDictionary
281
     1
  3
STANDARD
350
A1EF
  0
DICTIONARY
  5
A1F0
102
{ACAD_REACTORS
330
A1E4
102
}
330
A1E4
100
AcDbDictionary
281
     1
  0
ACDBDICTIONARYWDFLT
  5
A41F
102
{ACAD_REACTORS
330
A1E4
102
}
330
A1E4
100
AcDbDictionary
281
     1
  3
Normal
350
A420
100
AcDbDictionaryWithDefault
340
A420
  0
DICTIONARY
  5
A456
102
{ACAD_REACTORS
330
A1E4
102
}
330
A1E4
100
AcDbDictionary
281
     1
  3
A0
350
A457
  3
A1
350
A458
  3
A2
350
A459
  3
A3
350
A45A
  3
A4
350
A45B
  3
A5
350
A45C
  3
A6
350
A45D
  3
A7
350
A45E
  3
A8
350
A45F
  3
A9
350
A460
  3
B0
350
A461
  3
B1
350
A462
  3
B2
350
A463
  3
B3
350
A464
  3
B4
350
A465
  3
B5
350
A466
  3
B6
350
A467
  0
DICTIONARY
  5
A46A
102
{ACAD_REACTORS
330
A1E4
102
}
330
A1E4
100
AcDbDictionary
281
     1
  3
Imperial24
350
A46B
  0
DICTIONARY
  5
A454
102
{ACAD_REACTORS
330
A1E4
102
}
330
A1E4
100
AcDbDictionary
281
     1
  3
Standard
350
A455
  0
DICTIONARY
  5
A43A
102
{ACAD_REACTORS
330
A1E4
102
}
330
A1E4
100
AcDbDictionary
281
     1
  3
2dWireframe
350
A440
  3
Basic
350
A43F
  3
Brighten
350
A446
  3
ColorChange
350
A44A
  3
Conceptual
350
A443
  3
Dim
350
A445
  3
EdgeColorOff
350
A452
  3
Facepattern
350
A449
  3
Flat
350
A43B
  3
FlatWithEdges
350
A43C
  3
Gouraud
350
A43D
  3
GouraudWithEdges
350
A43E
  3
Hidden
350
A442
  3
JitterOff
350
A450
  3
Linepattern
350
A448
  3
OverhangOff
350
A451
  3
Realistic
350
A444
  3
Shaded
350
A44F
  3
Shaded with edges
350
A44E
  3
Shades of Gray
350
A44B
  3
Sketchy
350
A44C
  3
Thicken
350
A447
  3
Wireframe
350
A441
  3
X-Ray
350
A44D
  0
XRECORD
  5
A48F
102
{ACAD_REACTORS
330
A1E4
102
}
330
A1E4
100
AcDbXrecord
280
     1
 90
        1
330
A455
  0
DICTIONARY
  5
A482
102
{ACAD_REACTORS
330
A1E4
102
}
330
A1E4
100
AcDbDictionary
281
     1
  3
CANNOSCALE
350
A487
  3
CMLEADERSTYLE
350
A484
  3
CTABLESTYLE
350
A483
  3
CVIEWDETAILSTYLE
350
A485
  3
CVIEWSECTIONSTYLE
350
A486
  3
DIMASSOC
350
A48A
  3
INDEXCTL
350
A489
  3
SORTENTS
350
A488
  3
XCLIPFRAME
350
A48B
  0
XRECORD
  5
A490
102
{ACAD_REACTORS
330
A1E4
102
}
330
A1E4
100
AcDbXrecord
280
     1
  1
DWGPROPS COOKIE
  2

  3

  4

  6

  7

  8
Yoshitsune
  9

300
=
301
=
302
=
303
=
304
=
305
=
306
=
307
=
308
=
309
=
 40
0.1440673611111111
 41
2451301.437435185
 42
2457192.690111088
  1

 90
        0
  0
XRECORD
  5
A473
102
{ACAD_REACTORS
330
A472
102
}
330
A472
100
AcDbXrecord
280
     1
290
     1
  0
XRECORD
  5
A475
102
{ACAD_REACTORS
330
A474
102
}
330
A474
100
AcDbXrecord
280
     1
290
     1
  0
XRECORD
  5
A477
102
{ACAD_REACTORS
330
A476
102
}
330
A476
100
AcDbXrecord
280
     1
290
     1
  0
XRECORD
  5
A479
102
{ACAD_REACTORS
330
A478
102
}
330
A478
100
AcDbXrecord
280
     1
290
     1
  0
XRECORD
  5
A47B
102
{ACAD_REACTORS
330
A47A
102
}
330
A47A
100
AcDbXrecord
280
     1
290
     1
  0
XRECORD
  5
A47D
102
{ACAD_REACTORS
330
A47C
102
}
330
A47C
100
AcDbXrecord
280
     1
290
     1
  0
XRECORD
  5
A47F
102
{ACAD_REACTORS
330
A47E
102
}
330
A47E
100
AcDbXrecord
280
     1
290
     1
  0
XRECORD
  5
A481
102
{ACAD_REACTORS
330
A480
102
}
330
A480
100
AcDbXrecord
280
     1
290
     1
  0
XRECORD
  5
A41B
102
{ACAD_REACTORS
330
A3FD
102
}
330
A3FD
100
AcDbXrecord
280
     1
340
A1F6
  0
XRECORD
  5
A41A
102
{ACAD_REACTORS
330
A3FB
102
}
330
A3FB
100
AcDbXrecord
280
     1
340
A1F2
  0
ACDBDETAILVIEWSTYLE
  5
A46D
102
{ACAD_XDICTIONARY
360
A4C8
102
}
102
{ACAD_REACTORS
330
A46C
102
}
330
A46C
100
AcDbModelDocViewStyle
 70
     0
  3
Imperial24
290
     0
100
AcDbDetailViewStyle
 70
     0
 71
     0
 90
        3
 71
     1
340
A1E9
 40
0.24
340
0
 40
0.24
300

 40
0.36
280
     3
 71
     2
340
A1ED
 90
       25
 71
     3
340
A1E9
 40
0.24
 90
        1
 40
0.75
 90
        1
300
%<\AcVar ViewType \f "%tc1">% %<\AcVar ViewDetailId>%\PSCALE %<\AcVar ViewScale \f "%sn">%
 71
     4
340
A1ED
 90
       25
340
A1ED
 90
       25
280
     0
  0
LAYOUT
  5
A46E
102
{ACAD_XDICTIONARY
360
A4CA
102
}
102
{ACAD_REACTORS
330
A1F1
102
}
330
A1F1
100
AcDbPlotSettings
  1

  2
Canon LBP9100C
  4

  6

 40
0.0
 41
0.0
 42
0.0
 43
0.0
 44
0.0
 45
0.0
 46
0.0
 47
0.0
 48
0.0
 49
0.0
140
0.0
141
0.0
142
1.0
143
1.0
 70
  1712
 72
     0
 73
     0
 74
     0
  7

 75
     0
147
1.0
148
0.0
149
0.0
100
AcDbLayout
  1
Model
 70
     1
 71
     0
 10
0.0
 20
0.0
 11
12.0
 21
9.0
 12
0.0
 22
0.0
 32
0.0
 14
0.0
 24
0.0
 34
0.0
 15
0.0
 25
0.0
 35
0.0
146
0.0
 13
0.0
 23
0.0
 33
0.0
 16
1.0
 26
0.0
 36
0.0
 17
0.0
 27
1.0
 37
0.0
 76
     0
330
A1F6
331
A419
  0
LAYOUT
  5
A46F
102
{ACAD_XDICTIONARY
360
A4CC
102
}
102
{ACAD_REACTORS
330
A1F1
102
}
330
A1F1
100
AcDbPlotSettings
  1

  2
Canon LBP9100C
  4

  6

 40
0.0
 41
0.0
 42
0.0
 43
0.0
 44
0.0
 45
0.0
 46
0.0
 47
0.0
 48
0.0
 49
0.0
140
0.0
141
0.0
142
1.0
143
1.0
 70
   688
 72
     0
 73
     0
 74
     5
  7

 75
    16
147
1.0
148
0.0
149
0.0
100
AcDbLayout
  1
レイアウト1
 70
     0
 71
     1
 10
0.0
 20
0.0
 11
420.0
 21
297.0
 12
0.0
 22
0.0
 32
0.0
 14
1.000000000000000E+20
 24
1.000000000000000E+20
 34
1.000000000000000E+20
 15
-1.000000000000000E+20
 25
-1.000000000000000E+20
 35
-1.000000000000000E+20
146
0.0
 13
0.0
 23
0.0
 33
0.0
 16
1.0
 26
0.0
 36
0.0
 17
0.0
 27
1.0
 37
0.0
 76
     0
330
A1F2
  0
MATERIAL
  5
A42A
102
{ACAD_XDICTIONARY
360
A42B
102
}
102
{ACAD_REACTORS
330
A421
102
}
330
A421
100
AcDbMaterial
  1
ByBlock
 72
     0
 43
0.0208333333333333
 43
0.0
 43
0.0
 43
0.0
 43
0.0
 43
0.0208333333333333
 43
0.0
 43
0.0
 43
0.0
 43
0.0
 43
1.0
 43
0.0
 43
0.0
 43
0.0
 43
0.0
 43
1.0
 77
     0
 47
0.0208333333333333
 47
0.0
 47
0.0
 47
0.0
 47
0.0
 47
0.0208333333333333
 47
0.0
 47
0.0
 47
0.0
 47
0.0
 47
1.0
 47
0.0
 47
0.0
 47
0.0
 47
0.0
 47
1.0
171
     0
 49
0.0208333333333333
 49
0.0
 49
0.0
 49
0.0
 49
0.0
 49
0.0208333333333333
 49
0.0
 49
0.0
 49
0.0
 49
0.0
 49
1.0
 49
0.0
 49
0.0
 49
0.0
 49
0.0
 49
1.0
175
     0
142
0.0208333333333333
142
0.0
142
0.0
142
0.0
142
0.0
142
0.0208333333333333
142
0.0
142
0.0
142
0.0
142
0.0
142
1.0
142
0.0
142
0.0
142
0.0
142
0.0
142
1.0
179
     0
144
0.0208333333333333
144
0.0
144
0.0
144
0.0
144
0.0
144
0.0208333333333333
144
0.0
144
0.0
144
0.0
144
0.0
144
1.0
144
0.0
144
0.0
144
0.0
144
0.0
144
1.0
147
0.0208333333333333
147
0.0
147
0.0
147
0.0
147
0.0
147
0.0208333333333333
147
0.0
147
0.0
147
0.0
147
0.0
147
1.0
147
0.0
147
0.0
147
0.0
147
0.0
147
1.0
  0
MATERIAL
  5
A422
102
{ACAD_XDICTIONARY
360
A423
102
}
102
{ACAD_REACTORS
330
A421
102
}
330
A421
100
AcDbMaterial
  1
ByLayer
 72
     0
 43
0.0208333333333333
 43
0.0
 43
0.0
 43
0.0
 43
0.0
 43
0.0208333333333333
 43
0.0
 43
0.0
 43
0.0
 43
0.0
 43
1.0
 43
0.0
 43
0.0
 43
0.0
 43
0.0
 43
1.0
 77
     0
 47
0.0208333333333333
 47
0.0
 47
0.0
 47
0.0
 47
0.0
 47
0.0208333333333333
 47
0.0
 47
0.0
 47
0.0
 47
0.0
 47
1.0
 47
0.0
 47
0.0
 47
0.0
 47
0.0
 47
1.0
171
     0
 49
0.0208333333333333
 49
0.0
 49
0.0
 49
0.0
 49
0.0
 49
0.0208333333333333
 49
0.0
 49
0.0
 49
0.0
 49
0.0
 49
1.0
 49
0.0
 49
0.0
 49
0.0
 49
0.0
 49
1.0
175
     0
142
0.0208333333333333
142
0.0
142
0.0
142
0.0
142
0.0
142
0.0208333333333333
142
0.0
142
0.0
142
0.0
142
0.0
142
1.0
142
0.0
142
0.0
142
0.0
142
0.0
142
1.0
179
     0
144
0.0208333333333333
144
0.0
144
0.0
144
0.0
144
0.0
144
0.0208333333333333
144
0.0
144
0.0
144
0.0
144
0.0
144
1.0
144
0.0
144
0.0
144
0.0
144
0.0
144
1.0
147
0.0208333333333333
147
0.0
147
0.0
147
0.0
147
0.0
147
0.0208333333333333
147
0.0
147
0.0
147
0.0
147
0.0
147
1.0
147
0.0
147
0.0
147
0.0
147
0.0
147
1.0
  0
MATERIAL
  5
A432
102
{ACAD_XDICTIONARY
360
A433
102
}
102
{ACAD_REACTORS
330
A421
102
}
330
A421
100
AcDbMaterial
  1
Global
 72
     0
 43
0.0208333333333333
 43
0.0
 43
0.0
 43
0.0
 43
0.0
 43
0.0208333333333333
 43
0.0
 43
0.0
 43
0.0
 43
0.0
 43
1.0
 43
0.0
 43
0.0
 43
0.0
 43
0.0
 43
1.0
 77
     0
 47
0.0208333333333333
 47
0.0
 47
0.0
 47
0.0
 47
0.0
 47
0.0208333333333333
 47
0.0
 47
0.0
 47
0.0
 47
0.0
 47
1.0
 47
0.0
 47
0.0
 47
0.0
 47
0.0
 47
1.0
171
     0
 49
0.0208333333333333
 49
0.0
 49
0.0
 49
0.0
 49
0.0
 49
0.0208333333333333
 49
0.0
 49
0.0
 49
0.0
 49
0.0
 49
1.0
 49
0.0
 49
0.0
 49
0.0
 49
0.0
 49
1.0
175
     0
142
0.0208333333333333
142
0.0
142
0.0
142
0.0
142
0.0
142
0.0208333333333333
142
0.0
142
0.0
142
0.0
142
0.0
142
1.0
142
0.0
142
0.0
142
0.0
142
0.0
142
1.0
179
     0
144
0.0208333333333333
144
0.0
144
0.0
144
0.0
144
0.0
144
0.0208333333333333
144
0.0
144
0.0
144
0.0
144
0.0
144
1.0
144
0.0
144
0.0
144
0.0
144
0.0
144
1.0
147
0.0208333333333333
147
0.0
147
0.0
147
0.0
147
0.0
147
0.0208333333333333
147
0.0
147
0.0
147
0.0
147
0.0
147
1.0
147
0.0
147
0.0
147
0.0
147
0.0
147
1.0
  0
MLEADERSTYLE
  5
A469
102
{ACAD_REACTORS
330
A468
102
}
330
A468
100
AcDbMLeaderStyle
170
     2
171
     1
172
     0
 90
        2
 40
0.0
 41
0.0
173
     1
 91
-1056964608
340
A1EB
 92
       -2
290
     1
 42
0.09
291
     1
 43
0.36
  3
Standard
 44
0.18
300

342
A1E9
174
     1
178
     6
175
     1
176
     0
 93
-1056964608
 45
0.18
292
     0
297
     0
 46
0.18
 94
-1056964608
 47
1.0
 49
1.0
140
1.0
293
     1
141
0.0
294
     1
177
     0
142
1.0
295
     0
296
     0
143
0.125
1001
ACAD_MLEADERVER
1070
     2
  0
MLINESTYLE
  5
A1EF
102
{ACAD_REACTORS
330
A1EE
102
}
330
A1EE
100
AcDbMlineStyle
  2
STANDARD
 70
     0
  3

 62
   256
 51
90.0
 52
90.0
 71
     2
 49
0.5
 62
   256
  6
BYLAYER
 49
-0.5
 62
   256
  6
BYLAYER
  0
ACDBPLACEHOLDER
  5
A420
102
{ACAD_REACTORS
330
A41F
102
}
330
A41F
  0
SCALE
  5
A457
102
{ACAD_REACTORS
330
A456
102
}
330
A456
100
AcDbScale
 70
     0
300
1:1
140
1.0
141
1.0
290
     1
  0
SCALE
  5
A458
102
{ACAD_REACTORS
330
A456
102
}
330
A456
100
AcDbScale
 70
     0
300
1/128" = 1'-0"
140
0.0078125
141
12.0
290
     0
  0
SCALE
  5
A459
102
{ACAD_REACTORS
330
A456
102
}
330
A456
100
AcDbScale
 70
     0
300
1/64" = 1'-0"
140
0.015625
141
12.0
290
     0
  0
SCALE
  5
A45A
102
{ACAD_REACTORS
330
A456
102
}
330
A456
100
AcDbScale
 70
     0
300
1/32" = 1'-0"
140
0.03125
141
12.0
290
     0
  0
SCALE
  5
A45B
102
{ACAD_REACTORS
330
A456
102
}
330
A456
100
AcDbScale
 70
     0
300
1/16" = 1'-0"
140
0.0625
141
12.0
290
     0
  0
SCALE
  5
A45C
102
{ACAD_REACTORS
330
A456
102
}
330
A456
100
AcDbScale
 70
     0
300
3/32" = 1'-0"
140
0.09375
141
12.0
290
     0
  0
SCALE
  5
A45D
102
{ACAD_REACTORS
330
A456
102
}
330
A456
100
AcDbScale
 70
     0
300
1/8" = 1'-0"
140
0.125
141
12.0
290
     0
  0
SCALE
  5
A45E
102
{ACAD_REACTORS
330
A456
102
}
330
A456
100
AcDbScale
 70
     0
300
3/16" = 1'-0"
140
0.1875
141
12.0
290
     0
  0
SCALE
  5
A45F
102
{ACAD_REACTORS
330
A456
102
}
330
A456
100
AcDbScale
 70
     0
300
1/4" = 1'-0"
140
0.25
141
12.0
290
     0
  0
SCALE
  5
A460
102
{ACAD_REACTORS
330
A456
102
}
330
A456
100
AcDbScale
 70
     0
300
3/8" = 1'-0"
140
0.375
141
12.0
290
     0
  0
SCALE
  5
A461
102
{ACAD_REACTORS
330
A456
102
}
330
A456
100
AcDbScale
 70
     0
300
1/2" = 1'-0"
140
0.5
141
12.0
290
     0
  0
SCALE
  5
A462
102
{ACAD_REACTORS
330
A456
102
}
330
A456
100
AcDbScale
 70
     0
300
3/4" = 1'-0"
140
0.75
141
12.0
290
     0
  0
SCALE
  5
A463
102
{ACAD_REACTORS
330
A456
102
}
330
A456
100
AcDbScale
 70
     0
300
1" = 1'-0"
140
1.0
141
12.0
290
     0
  0
SCALE
  5
A464
102
{ACAD_REACTORS
330
A456
102
}
330
A456
100
AcDbScale
 70
     0
300
1-1/2" = 1'-0"
140
1.5
141
12.0
290
     0
  0
SCALE
  5
A465
102
{ACAD_REACTORS
330
A456
102
}
330
A456
100
AcDbScale
 70
     0
300
3" = 1'-0"
140
3.0
141
12.0
290
     0
  0
SCALE
  5
A466
102
{ACAD_REACTORS
330
A456
102
}
330
A456
100
AcDbScale
 70
     0
300
6" = 1'-0"
140
6.0
141
12.0
290
     0
  0
SCALE
  5
A467
102
{ACAD_REACTORS
330
A456
102
}
330
A456
100
AcDbScale
 70
     0
300
1'-0" = 1'-0"
140
12.0
141
12.0
290
     0
  0
ACDBSECTIONVIEWSTYLE
  5
A46B
102
{ACAD_XDICTIONARY
360
A4C6
102
}
102
{ACAD_REACTORS
330
A46A
102
}
330
A46A
100
AcDbModelDocViewStyle
 70
     0
  3
Imperial24
290
     0
100
AcDbSectionViewStyle
 70
     0
 71
     0
 90
       78
 71
     1
340
A1E9
 40
0.24
340
0
340
0
 40
0.24
300
I, O, Q, S, X, Z
 40
0.48
 90
        3
 40
0.18
 90
        1
 71
     2
340
A1ED
 90
       25
340
A1ED
 90
       50
 40
0.24
 40
0.0
 40
0.24
 71
     3
340
A1E9
 40
0.24
 90
        1
 40
0.75
 90
        1
300
%<\AcVar ViewType \f "%tc1">% %<\AcVar ViewSectionStartId>%-%<\AcVar ViewSectionEndId>%\PSCALE %<\AcVar ViewScale \f "%sn">%
 71
     4
300
ANSI31
 40
1.0
 90
        0
290
     0
290
     0
 90
        6
 40
0.0
 40
1.570796326794896
 40
0.2617993877991494
 40
1.308996938995747
 40
-0.2617993877991494
 40
1.832595714594046
  0
TABLESTYLE
  5
A455
102
{ACAD_XDICTIONARY
360
A48D
102
}
102
{ACAD_REACTORS
330
A454
102
}
330
A454
100
AcDbTableStyle
  3
Standard
 70
     0
 71
     0
 40
0.06
 41
0.06
280
     0
281
     0
  7
STANDARD
140
0.18
170
     2
 62
     0
 63
     7
283
     0
274
    -2
284
     1
 64
     0
275
    -2
285
     1
 65
     0
276
    -2
286
     1
 66
     0
277
    -2
287
     1
 67
     0
278
    -2
288
     1
 68
     0
279
    -2
289
     1
 69
     0
  7
STANDARD
140
0.25
170
     5
 62
     0
 63
     7
283
     0
274
    -2
284
     1
 64
     0
275
    -2
285
     1
 65
     0
276
    -2
286
     1
 66
     0
277
    -2
287
     1
 67
     0
278
    -2
288
     1
 68
     0
279
    -2
289
     1
 69
     0
  7
STANDARD
140
0.18
170
     5
 62
     0
 63
     7
283
     0
274
    -2
284
     1
 64
     0
275
    -2
285
     1
 65
     0
276
    -2
286
     1
 66
     0
277
    -2
287
     1
 67
     0
278
    -2
288
     1
 68
     0
279
    -2
289
     1
 69
     0
  0
VISUALSTYLE
  5
A440
102
{ACAD_XDICTIONARY
360
A49E
102
}
102
{ACAD_REACTORS
330
A43A
102
}
330
A43A
100
AcDbVisualStyle
  2
2dWireframe
 70
     4
 71
     0
 72
     2
 73
     0
 90
        0
 40
-0.6
 41
-30.0
 62
     5
 63
     7
 74
     1
 91
        4
 64
     7
 65
   257
 75
     1
175
     1
 42
1.0
 92
        0
 66
   257
 43
1.0
 76
     1
 77
     6
 78
     2
 67
     7
 79
     5
170
     0
171
     0
290
     0
174
     0
 93
        1
 44
0.0
173
     0
291
     0
 45
0.0
1001
ACAD
1000
AcDbSavedByObjectVersion
1070
     0
  0
VISUALSTYLE
  5
A43F
102
{ACAD_XDICTIONARY
360
A49C
102
}
102
{ACAD_REACTORS
330
A43A
102
}
330
A43A
100
AcDbVisualStyle
  2
Basic
 70
     7
 71
     1
 72
     0
 73
     1
 90
        0
 40
-0.6
 41
-30.0
 62
     5
 63
     7
 74
     0
 91
        4
 64
     7
 65
   257
 75
     1
175
     1
 42
1.0
 92
        8
 66
     7
 43
1.0
 76
     1
 77
     6
 78
     2
 67
     7
 79
     5
170
     0
171
     0
290
     0
174
     0
 93
        1
 44
0.0
173
     0
291
     1
 45
0.0
1001
ACAD
1000
AcDbSavedByObjectVersion
1070
     0
  0
VISUALSTYLE
  5
A446
102
{ACAD_XDICTIONARY
360
A4AA
102
}
102
{ACAD_REACTORS
330
A43A
102
}
330
A43A
100
AcDbVisualStyle
  2
Brighten
 70
    12
 71
     2
 72
     2
 73
     0
 90
        0
 40
-0.6
 41
-30.0
 62
     5
 63
     7
 74
     1
 91
        4
 64
     7
 65
   257
 75
     1
175
     1
 42
1.0
 92
        8
 66
     7
 43
1.0
 76
     1
 77
     6
 78
     2
 67
     7
 79
     5
170
     0
171
     0
290
     0
174
     0
 93
        1
 44
50.0
173
     0
291
     1
 45
0.0
1001
ACAD
1000
AcDbSavedByObjectVersion
1070
     0
  0
VISUALSTYLE
  5
A44A
102
{ACAD_XDICTIONARY
360
A4B2
102
}
102
{ACAD_REACTORS
330
A43A
102
}
330
A43A
100
AcDbVisualStyle
  2
ColorChange
 70
    16
 71
     2
 72
     2
 73
     3
 90
        0
 40
-0.6
 41
-30.0
 62
     5
 63
     8
 74
     1
 91
        4
 64
     7
 65
   257
 75
     1
175
     1
 42
1.0
 92
        8
 66
     8
 43
1.0
 76
     1
 77
     6
 78
     2
 67
     7
 79
     5
170
     0
171
     0
290
     0
174
     0
 93
        1
 44
0.0
173
     0
291
     1
 45
0.0
1001
ACAD
1000
AcDbSavedByObjectVersion
1070
     0
  0
VISUALSTYLE
  5
A443
102
{ACAD_XDICTIONARY
360
A4A4
102
}
102
{ACAD_REACTORS
330
A43A
102
}
330
A43A
100
AcDbVisualStyle
  2
Conceptual
 70
     9
 71
     3
 72
     2
 73
     0
 90
        0
 40
-0.6
 41
-30.0
 62
     5
 63
     7
 74
     2
 91
        2
 64
     7
 65
   257
 75
     1
175
     1
 42
179.0
 92
        8
 66
     7
 43
1.0
 76
     1
 77
     6
 78
     2
 67
     7
 79
     3
170
     0
171
     0
290
     0
174
     0
 93
        1
 44
0.0
173
     0
291
     0
 45
0.0
1001
ACAD
1000
AcDbSavedByObjectVersion
1070
     0
  0
VISUALSTYLE
  5
A445
102
{ACAD_XDICTIONARY
360
A4A8
102
}
102
{ACAD_REACTORS
330
A43A
102
}
330
A43A
100
AcDbVisualStyle
  2
Dim
 70
    11
 71
     2
 72
     2
 73
     0
 90
        0
 40
-0.6
 41
-30.0
 62
     5
 63
     7
 74
     1
 91
        4
 64
     7
 65
   257
 75
     1
175
     1
 42
1.0
 92
        8
 66
     7
 43
1.0
 76
     1
 77
     6
 78
     2
 67
     7
 79
     5
170
     0
171
     0
290
     0
174
     0
 93
        1
 44
-50.0
173
     0
291
     1
 45
0.0
1001
ACAD
1000
AcDbSavedByObjectVersion
1070
     0
  0
VISUALSTYLE
  5
A452
102
{ACAD_XDICTIONARY
360
A4C2
102
}
102
{ACAD_REACTORS
330
A43A
102
}
330
A43A
100
AcDbVisualStyle
  2
EdgeColorOff
 70
    22
 71
     2
 72
     2
 73
     0
 90
        0
 40
-0.6
 41
-30.0
 62
     5
 63
     7
 74
     1
 91
        4
 64
     7
 65
   257
 75
     1
175
     1
 42
1.0
 92
        8
 66
     7
 43
1.0
 76
     1
 77
     6
 78
     2
 67
     7
 79
     5
170
     0
171
     0
290
     0
174
     0
 93
        1
 44
0.0
173
     0
291
     1
 45
0.0
1001
ACAD
1000
AcDbSavedByObjectVersion
1070
     0
  0
VISUALSTYLE
  5
A449
102
{ACAD_XDICTIONARY
360
A4B0
102
}
102
{ACAD_REACTORS
330
A43A
102
}
330
A43A
100
AcDbVisualStyle
  2
Facepattern
 70
    15
 71
     2
 72
     2
 73
     0
 90
        0
 40
-0.6
 41
-30.0
 62
     5
 63
     7
 74
     1
 91
        4
 64
     7
 65
   257
 75
     1
175
     1
 42
1.0
 92
        8
 66
     7
 43
1.0
 76
     1
 77
     6
 78
     2
 67
     7
 79
     5
170
     0
171
     0
290
     0
174
     0
 93
        1
 44
0.0
173
     0
291
     1
 45
0.0
1001
ACAD
1000
AcDbSavedByObjectVersion
1070
     0
  0
VISUALSTYLE
  5
A43B
102
{ACAD_XDICTIONARY
360
A494
102
}
102
{ACAD_REACTORS
330
A43A
102
}
330
A43A
100
AcDbVisualStyle
  2
Flat
 70
     0
 71
     2
 72
     1
 73
     1
 90
        2
 40
-0.6
 41
30.0
 62
     5
 63
     7
 74
     0
 91
        0
 64
     7
 65
   257
 75
     1
175
     1
 42
1.0
 92
        8
 66
     7
 43
1.0
 76
     1
 77
     6
 78
     2
 67
     7
 79
     5
170
     0
171
     0
290
     0
174
     0
 93
       13
 44
0.0
173
     0
291
     1
 45
0.0
1001
ACAD
1000
AcDbSavedByObjectVersion
1070
     0
  0
VISUALSTYLE
  5
A43C
102
{ACAD_XDICTIONARY
360
A496
102
}
102
{ACAD_REACTORS
330
A43A
102
}
330
A43A
100
AcDbVisualStyle
  2
FlatWithEdges
 70
     1
 71
     2
 72
     1
 73
     1
 90
        2
 40
-0.6
 41
30.0
 62
     5
 63
     7
 74
     1
 91
        0
 64
     7
 65
   257
 75
     1
175
     1
 42
1.0
 92
        0
 66
   257
 43
1.0
 76
     1
 77
     6
 78
     2
 67
     7
 79
     5
170
     0
171
     0
290
     0
174
     0
 93
       13
 44
0.0
173
     0
291
     1
 45
0.0
1001
ACAD
1000
AcDbSavedByObjectVersion
1070
     0
  0
VISUALSTYLE
  5
A43D
102
{ACAD_XDICTIONARY
360
A498
102
}
102
{ACAD_REACTORS
330
A43A
102
}
330
A43A
100
AcDbVisualStyle
  2
Gouraud
 70
     2
 71
     2
 72
     2
 73
     1
 90
        2
 40
-0.6
 41
30.0
 62
     5
 63
     7
 74
     0
 91
        0
 64
     7
 65
   257
 75
     1
175
     1
 42
1.0
 92
        0
 66
     7
 43
1.0
 76
     1
 77
     6
 78
     2
 67
     7
 79
     5
170
     0
171
     0
290
     0
174
     0
 93
       13
 44
0.0
173
     0
291
     1
 45
0.0
1001
ACAD
1000
AcDbSavedByObjectVersion
1070
     0
  0
VISUALSTYLE
  5
A43E
102
{ACAD_XDICTIONARY
360
A49A
102
}
102
{ACAD_REACTORS
330
A43A
102
}
330
A43A
100
AcDbVisualStyle
  2
GouraudWithEdges
 70
     3
 71
     2
 72
     2
 73
     1
 90
        2
 40
-0.6
 41
30.0
 62
     5
 63
     7
 74
     1
 91
        0
 64
     7
 65
   257
 75
     1
175
     1
 42
1.0
 92
        0
 66
   257
 43
1.0
 76
     1
 77
     6
 78
     2
 67
     7
 79
     5
170
     0
171
     0
290
     0
174
     0
 93
       13
 44
0.0
173
     0
291
     1
 45
0.0
1001
ACAD
1000
AcDbSavedByObjectVersion
1070
     0
  0
VISUALSTYLE
  5
A442
102
{ACAD_XDICTIONARY
360
A4A2
102
}
102
{ACAD_REACTORS
330
A43A
102
}
330
A43A
100
AcDbVisualStyle
  2
Hidden
 70
     6
 71
     1
 72
     2
 73
     2
 90
        0
 40
-0.6
 41
-30.0
 62
     5
 63
     7
 74
     2
 91
        2
 64
     7
 65
   257
 75
     2
175
     1
 42
40.0
 92
        0
 66
   257
 43
1.0
 76
     1
 77
     6
 78
     2
 67
     7
 79
     3
170
     0
171
     0
290
     0
174
     0
 93
        1
 44
0.0
173
     0
291
     0
 45
0.0
1001
ACAD
1000
AcDbSavedByObjectVersion
1070
     0
  0
VISUALSTYLE
  5
A450
102
{ACAD_XDICTIONARY
360
A4BE
102
}
102
{ACAD_REACTORS
330
A43A
102
}
330
A43A
100
AcDbVisualStyle
  2
JitterOff
 70
    20
 71
     2
 72
     2
 73
     0
 90
        0
 40
-0.6
 41
-30.0
 62
     5
 63
     7
 74
     1
 91
        4
 64
     7
 65
   257
 75
     1
175
     1
 42
1.0
 92
       10
 66
     7
 43
1.0
 76
     1
 77
     6
 78
     2
 67
     7
 79
     5
170
     0
171
     0
290
     0
174
     0
 93
        1
 44
0.0
173
     0
291
     1
 45
0.0
1001
ACAD
1000
AcDbSavedByObjectVersion
1070
     0
  0
VISUALSTYLE
  5
A448
102
{ACAD_XDICTIONARY
360
A4AE
102
}
102
{ACAD_REACTORS
330
A43A
102
}
330
A43A
100
AcDbVisualStyle
  2
Linepattern
 70
    14
 71
     2
 72
     2
 73
     0
 90
        0
 40
-0.6
 41
-30.0
 62
     5
 63
     7
 74
     1
 91
        4
 64
     7
 65
   257
 75
     7
175
     7
 42
1.0
 92
        8
 66
     7
 43
1.0
 76
     1
 77
     6
 78
     2
 67
     7
 79
     5
170
     0
171
     0
290
     0
174
     0
 93
        1
 44
0.0
173
     0
291
     1
 45
0.0
1001
ACAD
1000
AcDbSavedByObjectVersion
1070
     0
  0
VISUALSTYLE
  5
A451
102
{ACAD_XDICTIONARY
360
A4C0
102
}
102
{ACAD_REACTORS
330
A43A
102
}
330
A43A
100
AcDbVisualStyle
  2
OverhangOff
 70
    21
 71
     2
 72
     2
 73
     0
 90
        0
 40
-0.6
 41
-30.0
 62
     5
 63
     7
 74
     1
 91
        4
 64
     7
 65
   257
 75
     1
175
     1
 42
1.0
 92
        9
 66
     7
 43
1.0
 76
     1
 77
     6
 78
     2
 67
     7
 79
     5
170
     0
171
     0
290
     0
174
     0
 93
        1
 44
0.0
173
     0
291
     1
 45
0.0
1001
ACAD
1000
AcDbSavedByObjectVersion
1070
     0
  0
VISUALSTYLE
  5
A444
102
{ACAD_XDICTIONARY
360
A4A6
102
}
102
{ACAD_REACTORS
330
A43A
102
}
330
A43A
100
AcDbVisualStyle
  2
Realistic
 70
     8
 71
     2
 72
     3
 73
     0
 90
        2
 40
-0.6
 41
30.0
 62
     5
 63
     7
 74
     0
 91
        0
 64
     7
 65
   257
 75
     1
175
     1
 42
1.0
 92
        8
 66
   257
 43
1.0
 76
     1
 77
     6
 78
     2
 67
     7
 79
     3
170
     0
171
     0
290
     0
174
     0
 93
       13
 44
0.0
173
     0
291
     0
 45
0.0
1001
ACAD
1000
AcDbSavedByObjectVersion
1070
     0
  0
VISUALSTYLE
  5
A44F
102
{ACAD_XDICTIONARY
360
A4BC
102
}
102
{ACAD_REACTORS
330
A43A
102
}
330
A43A
100
AcDbVisualStyle
  2
Shaded
 70
    27
 71
     2
 72
     2
 73
     1
 90
        2
 40
-0.6
 41
30.0
 62
     5
 63
     7
 74
     0
 91
        4
 64
     7
 65
   257
 75
     1
175
     1
 42
1.0
 92
        8
 66
   257
 43
1.0
 76
     1
 77
     6
 78
     2
 67
     8
 79
     3
170
     0
171
     0
290
     0
174
     0
 93
        5
 44
0.0
173
     0
291
     0
 45
0.0
1001
ACAD
1000
AcDbSavedByObjectVersion
1070
     0
  0
VISUALSTYLE
  5
A44E
102
{ACAD_XDICTIONARY
360
A4BA
102
}
102
{ACAD_REACTORS
330
A43A
102
}
330
A43A
100
AcDbVisualStyle
  2
Shaded with edges
 70
    26
 71
     2
 72
     2
 73
     1
 90
        2
 40
-0.6
 41
30.0
 62
     5
 63
     7
 74
     1
 91
       10
 64
     7
 65
   257
 75
     2
175
     1
 42
1.0
 92
        8
 66
   257
 43
1.0
 76
     1
 77
     6
 78
     2
 67
     7
 79
     3
170
     0
171
     0
290
     0
174
     0
 93
        5
 44
0.0
173
     0
291
     0
 45
0.0
1001
ACAD
1000
AcDbSavedByObjectVersion
1070
     0
  0
VISUALSTYLE
  5
A44B
102
{ACAD_XDICTIONARY
360
A4B4
102
}
102
{ACAD_REACTORS
330
A43A
102
}
330
A43A
100
AcDbVisualStyle
  2
Shades of Gray
 70
    23
 71
     2
 72
     2
 73
     3
 90
        0
 40
-0.6
 41
-30.0
 62
     5
 63
     7
 74
     2
 91
        2
 64
     7
 65
     7
 75
     1
175
     1
 42
40.0
 92
        8
 66
     7
 43
1.0
 76
     1
 77
     6
 78
     2
 67
     7
 79
     3
170
     0
171
     0
290
     0
174
     0
 93
        1
 44
0.0
173
     0
291
     0
 45
0.0
1001
ACAD
1000
AcDbSavedByObjectVersion
1070
     0
  0
VISUALSTYLE
  5
A44C
102
{ACAD_XDICTIONARY
360
A4B6
102
}
102
{ACAD_REACTORS
330
A43A
102
}
330
A43A
100
AcDbVisualStyle
  2
Sketchy
 70
    24
 71
     1
 72
     2
 73
     2
 90
        0
 40
-0.6
 41
-30.0
 62
     5
 63
     7
 74
     2
 91
        2
 64
     7
 65
     7
 75
     1
175
     1
 42
40.0
 92
       11
 66
     7
 43
1.0
 76
     1
 77
     6
 78
     2
 67
     7
 79
     6
170
     0
171
     0
290
     0
174
     0
 93
        1
 44
0.0
173
     0
291
     0
 45
0.0
1001
ACAD
1000
AcDbSavedByObjectVersion
1070
     0
  0
VISUALSTYLE
  5
A447
102
{ACAD_XDICTIONARY
360
A4AC
102
}
102
{ACAD_REACTORS
330
A43A
102
}
330
A43A
100
AcDbVisualStyle
  2
Thicken
 70
    13
 71
     2
 72
     2
 73
     0
 90
        0
 40
-0.6
 41
-30.0
 62
     5
 63
     7
 74
     1
 91
        4
 64
     7
 65
   257
 75
     1
175
     1
 42
1.0
 92
       12
 66
     7
 43
1.0
 76
     1
 77
     6
 78
     2
 67
     7
 79
     5
170
     0
171
     0
290
     0
174
     0
 93
        1
 44
0.0
173
     0
291
     1
 45
0.0
1001
ACAD
1000
AcDbSavedByObjectVersion
1070
     0
  0
VISUALSTYLE
  5
A441
102
{ACAD_XDICTIONARY
360
A4A0
102
}
102
{ACAD_REACTORS
330
A43A
102
}
330
A43A
100
AcDbVisualStyle
  2
Wireframe
 70
     5
 71
     0
 72
     2
 73
     0
 90
        0
 40
-0.6
 41
-30.0
 62
     5
 63
     7
 74
     1
 91
        4
 64
     7
 65
   257
 75
     1
175
     1
 42
1.0
 92
        0
 66
   257
 43
1.0
 76
     1
 77
     6
 78
     2
 67
     7
 79
     3
170
     0
171
     0
290
     0
174
     0
 93
        1
 44
0.0
173
     0
291
     0
 45
0.0
1001
ACAD
1000
AcDbSavedByObjectVersion
1070
     0
  0
VISUALSTYLE
  5
A44D
102
{ACAD_XDICTIONARY
360
A4B8
102
}
102
{ACAD_REACTORS
330
A43A
102
}
330
A43A
100
AcDbVisualStyle
  2
X-Ray
 70
    25
 71
     2
 72
     2
 73
     1
 90
        1
 40
0.5
 41
-30.0
 62
     5
 63
     7
 74
     1
 91
        0
 64
     7
 65
   257
 75
     1
175
     1
 42
1.0
 92
        8
 66
     7
 43
1.0
 76
     1
 77
     6
 78
     2
 67
     7
 79
     3
170
     0
171
     0
290
     0
174
     0
 93
       13
 44
0.0
173
     0
291
     0
 45
0.0
1001
ACAD
1000
AcDbSavedByObjectVersion
1070
     0
  0
DICTIONARYVAR
  5
A487
102
{ACAD_REACTORS
330
A482
102
}
330
A482
100
DictionaryVariables
280
     0
  1
1:1
  0
DICTIONARYVAR
  5
A484
102
{ACAD_REACTORS
330
A482
102
}
330
A482
100
DictionaryVariables
280
     0
  1
STANDARD
  0
DICTIONARYVAR
  5
A483
102
{ACAD_REACTORS
330
A482
102
}
330
A482
100
DictionaryVariables
280
     0
  1
STANDARD
  0
DICTIONARYVAR
  5
A485
102
{ACAD_REACTORS
330
A482
102
}
330
A482
100
DictionaryVariables
280
     0
  1
Imperial24
  0
DICTIONARYVAR
  5
A486
102
{ACAD_REACTORS
330
A482
102
}
330
A482
100
DictionaryVariables
280
     0
  1
Imperial24
  0
DICTIONARYVAR
  5
A48A
102
{ACAD_REACTORS
330
A482
102
}
330
A482
100
DictionaryVariables
280
     0
  1
1
  0
DICTIONARYVAR
  5
A489
102
{ACAD_REACTORS
330
A482
102
}
330
A482
100
DictionaryVariables
280
     0
  1
0
  0
DICTIONARYVAR
  5
A488
102
{ACAD_REACTORS
330
A482
102
}
330
A482
100
DictionaryVariables
280
     0
  1
127
  0
DICTIONARYVAR
  5
A48B
102
{ACAD_REACTORS
330
A482
102
}
330
A482
100
DictionaryVariables
280
     0
  1
2
  0
DICTIONARY
  5
A4C8
330
A46D
100
AcDbDictionary
280
     1
281
     1
  3
ACAD_XREC_ROUNDTRIP
360
A4C9
  0
DICTIONARY
  5
A4CA
330
A46E
100
AcDbDictionary
280
     1
281
     1
  3
ACAD_XREC_ROUNDTRIP
360
A4CB
  0
DICTIONARY
  5
A4CC
330
A46F
100
AcDbDictionary
280
     1
281
     1
  3
ACAD_XREC_ROUNDTRIP
360
A4CD
  0
DICTIONARY
  5
A42B
330
A42A
100
AcDbDictionary
280
     1
281
     1
  3
ACAD_XREC_ROUNDTRIP
360
A492
  3
BUMPTILE
360
A42D
  3
DIFFUSETILE
360
A42C
  3
OPACITYTILE
360
A430
  3
REFLECTIONTILE
360
A42F
  3
REFRACTIONTILE
360
A431
  3
SPECULARTILE
360
A42E
  0
DICTIONARY
  5
A423
330
A422
100
AcDbDictionary
280
     1
281
     1
  3
ACAD_XREC_ROUNDTRIP
360
A491
  3
BUMPTILE
360
A425
  3
DIFFUSETILE
360
A424
  3
OPACITYTILE
360
A428
  3
REFLECTIONTILE
360
A427
  3
REFRACTIONTILE
360
A429
  3
SPECULARTILE
360
A426
  0
DICTIONARY
  5
A433
330
A432
100
AcDbDictionary
280
     1
281
     1
  3
ACAD_XREC_ROUNDTRIP
360
A493
  3
BUMPTILE
360
A435
  3
DIFFUSETILE
360
A434
  3
OPACITYTILE
360
A438
  3
REFLECTIONTILE
360
A437
  3
REFRACTIONTILE
360
A439
  3
SPECULARTILE
360
A436
  0
DICTIONARY
  5
A4C6
330
A46B
100
AcDbDictionary
280
     1
281
     1
  3
ACAD_XREC_ROUNDTRIP
360
A4C7
  0
DICTIONARY
  5
A48D
330
A455
100
AcDbDictionary
280
     1
281
     1
  3
ACAD_ROUNDTRIP_2008_TABLESTYLE_CELLSTYLEMAP
360
A48E
  3
ACAD_XREC_ROUNDTRIP
360
A4C4
  0
DICTIONARY
  5
A49E
330
A440
100
AcDbDictionary
280
     1
281
     1
  3
ACAD_XREC_ROUNDTRIP
360
A49F
  0
DICTIONARY
  5
A49C
330
A43F
100
AcDbDictionary
280
     1
281
     1
  3
ACAD_XREC_ROUNDTRIP
360
A49D
  0
DICTIONARY
  5
A4AA
330
A446
100
AcDbDictionary
280
     1
281
     1
  3
ACAD_XREC_ROUNDTRIP
360
A4AB
  0
DICTIONARY
  5
A4B2
330
A44A
100
AcDbDictionary
280
     1
281
     1
  3
ACAD_XREC_ROUNDTRIP
360
A4B3
  0
DICTIONARY
  5
A4A4
330
A443
100
AcDbDictionary
280
     1
281
     1
  3
ACAD_XREC_ROUNDTRIP
360
A4A5
  0
DICTIONARY
  5
A4A8
330
A445
100
AcDbDictionary
280
     1
281
     1
  3
ACAD_XREC_ROUNDTRIP
360
A4A9
  0
DICTIONARY
  5
A4C2
330
A452
100
AcDbDictionary
280
     1
281
     1
  3
ACAD_XREC_ROUNDTRIP
360
A4C3
  0
DICTIONARY
  5
A4B0
330
A449
100
AcDbDictionary
280
     1
281
     1
  3
ACAD_XREC_ROUNDTRIP
360
A4B1
  0
DICTIONARY
  5
A494
330
A43B
100
AcDbDictionary
280
     1
281
     1
  3
ACAD_XREC_ROUNDTRIP
360
A495
  0
DICTIONARY
  5
A496
330
A43C
100
AcDbDictionary
280
     1
281
     1
  3
ACAD_XREC_ROUNDTRIP
360
A497
  0
DICTIONARY
  5
A498
330
A43D
100
AcDbDictionary
280
     1
281
     1
  3
ACAD_XREC_ROUNDTRIP
360
A499
  0
DICTIONARY
  5
A49A
330
A43E
100
AcDbDictionary
280
     1
281
     1
  3
ACAD_XREC_ROUNDTRIP
360
A49B
  0
DICTIONARY
  5
A4A2
330
A442
100
AcDbDictionary
280
     1
281
     1
  3
ACAD_XREC_ROUNDTRIP
360
A4A3
  0
DICTIONARY
  5
A4BE
330
A450
100
AcDbDictionary
280
     1
281
     1
  3
ACAD_XREC_ROUNDTRIP
360
A4BF
  0
DICTIONARY
  5
A4AE
330
A448
100
AcDbDictionary
280
     1
281
     1
  3
ACAD_XREC_ROUNDTRIP
360
A4AF
  0
DICTIONARY
  5
A4C0
330
A451
100
AcDbDictionary
280
     1
281
     1
  3
ACAD_XREC_ROUNDTRIP
360
A4C1
  0
DICTIONARY
  5
A4A6
330
A444
100
AcDbDictionary
280
     1
281
     1
  3
ACAD_XREC_ROUNDTRIP
360
A4A7
  0
DICTIONARY
  5
A4BC
330
A44F
100
AcDbDictionary
280
     1
281
     1
  3
ACAD_XREC_ROUNDTRIP
360
A4BD
  0
DICTIONARY
  5
A4BA
330
A44E
100
AcDbDictionary
280
     1
281
     1
  3
ACAD_XREC_ROUNDTRIP
360
A4BB
  0
DICTIONARY
  5
A4B4
330
A44B
100
AcDbDictionary
280
     1
281
     1
  3
ACAD_XREC_ROUNDTRIP
360
A4B5
  0
DICTIONARY
  5
A4B6
330
A44C
100
AcDbDictionary
280
     1
281
     1
  3
ACAD_XREC_ROUNDTRIP
360
A4B7
  0
DICTIONARY
  5
A4AC
330
A447
100
AcDbDictionary
280
     1
281
     1
  3
ACAD_XREC_ROUNDTRIP
360
A4AD
  0
DICTIONARY
  5
A4A0
330
A441
100
AcDbDictionary
280
     1
281
     1
  3
ACAD_XREC_ROUNDTRIP
360
A4A1
  0
DICTIONARY
  5
A4B8
330
A44D
100
AcDbDictionary
280
     1
281
     1
  3
ACAD_XREC_ROUNDTRIP
360
A4B9
  0
XRECORD
  5
A4C9
102
{ACAD_REACTORS
330
A4C8
102
}
330
A4C8
100
AcDbXrecord
280
     1
102
DISPLAYNAME
  1
Imperial24
102
FLAGS
 90
        0
  0
XRECORD
  5
A4CB
102
{ACAD_REACTORS
330
A4CA
102
}
330
A4CA
100
AcDbXrecord
280
     1
102
SHADEPLOT
 70
     0
102
SHADEPLOTRESLEVEL
 70
     2
102
SHADEPLOTCUSTOMDPI
 70
   300
  0
XRECORD
  5
A4CD
102
{ACAD_REACTORS
330
A4CC
102
}
330
A4CC
100
AcDbXrecord
280
     1
102
SHADEPLOT
 70
     0
102
SHADEPLOTRESLEVEL
 70
     2
102
SHADEPLOTCUSTOMDPI
 70
   300
  0
XRECORD
  5
A492
102
{ACAD_REACTORS
330
A42B
102
}
330
A42B
100
AcDbXrecord
280
     1
102
MATERIAL
148
0.0
149
0.0
149
0.0
 93
        0
 94
      127
282
     0
 72
     0
 77
     0
171
     0
175
     0
179
     0
273
     0
  0
XRECORD
  5
A42D
102
{ACAD_REACTORS
330
A42B
102
}
330
A42B
100
AcDbXrecord
280
     1
270
     1
271
     1
  0
XRECORD
  5
A42C
102
{ACAD_REACTORS
330
A42B
102
}
330
A42B
100
AcDbXrecord
280
     1
270
     1
271
     1
  0
XRECORD
  5
A430
102
{ACAD_REACTORS
330
A42B
102
}
330
A42B
100
AcDbXrecord
280
     1
270
     1
271
     1
  0
XRECORD
  5
A42F
102
{ACAD_REACTORS
330
A42B
102
}
330
A42B
100
AcDbXrecord
280
     1
270
     1
271
     1
  0
XRECORD
  5
A431
102
{ACAD_REACTORS
330
A42B
102
}
330
A42B
100
AcDbXrecord
280
     1
270
     1
271
     1
  0
XRECORD
  5
A42E
102
{ACAD_REACTORS
330
A42B
102
}
330
A42B
100
AcDbXrecord
280
     1
270
     1
271
     1
  0
XRECORD
  5
A491
102
{ACAD_REACTORS
330
A423
102
}
330
A423
100
AcDbXrecord
280
     1
102
MATERIAL
148
0.0
149
0.0
149
0.0
 93
        0
 94
      127
282
     0
 72
     0
 77
     0
171
     0
175
     0
179
     0
273
     0
  0
XRECORD
  5
A425
102
{ACAD_REACTORS
330
A423
102
}
330
A423
100
AcDbXrecord
280
     1
270
     1
271
     1
  0
XRECORD
  5
A424
102
{ACAD_REACTORS
330
A423
102
}
330
A423
100
AcDbXrecord
280
     1
270
     1
271
     1
  0
XRECORD
  5
A428
102
{ACAD_REACTORS
330
A423
102
}
330
A423
100
AcDbXrecord
280
     1
270
     1
271
     1
  0
XRECORD
  5
A427
102
{ACAD_REACTORS
330
A423
102
}
330
A423
100
AcDbXrecord
280
     1
270
     1
271
     1
  0
XRECORD
  5
A429
102
{ACAD_REACTORS
330
A423
102
}
330
A423
100
AcDbXrecord
280
     1
270
     1
271
     1
  0
XRECORD
  5
A426
102
{ACAD_REACTORS
330
A423
102
}
330
A423
100
AcDbXrecord
280
     1
270
     1
271
     1
  0
XRECORD
  5
A493
102
{ACAD_REACTORS
330
A433
102
}
330
A433
100
AcDbXrecord
280
     1
102
MATERIAL
148
0.0
149
0.0
149
0.0
 93
        0
 94
      127
282
     0
 72
     0
 77
     0
171
     0
175
     0
179
     0
273
     0
  0
XRECORD
  5
A435
102
{ACAD_REACTORS
330
A433
102
}
330
A433
100
AcDbXrecord
280
     1
270
     1
271
     1
  0
XRECORD
  5
A434
102
{ACAD_REACTORS
330
A433
102
}
330
A433
100
AcDbXrecord
280
     1
270
     1
271
     1
  0
XRECORD
  5
A438
102
{ACAD_REACTORS
330
A433
102
}
330
A433
100
AcDbXrecord
280
     1
270
     1
271
     1
  0
XRECORD
  5
A437
102
{ACAD_REACTORS
330
A433
102
}
330
A433
100
AcDbXrecord
280
     1
270
     1
271
     1
  0
XRECORD
  5
A439
102
{ACAD_REACTORS
330
A433
102
}
330
A433
100
AcDbXrecord
280
     1
270
     1
271
     1
  0
XRECORD
  5
A436
102
{ACAD_REACTORS
330
A433
102
}
330
A433
100
AcDbXrecord
280
     1
270
     1
271
     1
  0
XRECORD
  5
A4C7
102
{ACAD_REACTORS
330
A4C6
102
}
330
A4C6
100
AcDbXrecord
280
     1
102
DISPLAYNAME
  1
Imperial24
102
FLAGS
 90
        0
  0
CELLSTYLEMAP
  5
A48E
102
{ACAD_REACTORS
330
A48D
102
}
330
A48D
100
AcDbCellStyleMap
 90
        3
300
CELLSTYLE
  1
TABLEFORMAT_BEGIN
 90
        5
170
     1
 91
        0
 92
    32768
 62
   257
 93
        1
300
CONTENTFORMAT
  1
CONTENTFORMAT_BEGIN
 90
        0
 91
        0
 92
      512
 93
        0
300

 40
0.0
140
1.0
 94
        5
 62
     0
340
A1E9
144
0.25
309
CONTENTFORMAT_END
171
     0
 94
        0
309
TABLEFORMAT_END
  1
CELLSTYLE_BEGIN
 90
        1
 91
        1
300
_TITLE
309
CELLSTYLE_END
300
CELLSTYLE
  1
TABLEFORMAT_BEGIN
 90
        5
170
     1
 91
        0
 92
        0
 62
   257
 93
        1
300
CONTENTFORMAT
  1
CONTENTFORMAT_BEGIN
 90
        0
 91
        0
 92
      512
 93
        0
300

 40
0.0
140
1.0
 94
        5
 62
     0
340
A1E9
144
0.18
309
CONTENTFORMAT_END
171
     0
 94
        0
309
TABLEFORMAT_END
  1
CELLSTYLE_BEGIN
 90
        2
 91
        1
300
_HEADER
309
CELLSTYLE_END
300
CELLSTYLE
  1
TABLEFORMAT_BEGIN
 90
        5
170
     1
 91
        0
 92
        0
 62
   257
 93
        1
300
CONTENTFORMAT
  1
CONTENTFORMAT_BEGIN
 90
        0
 91
        0
 92
      512
 93
        0
300

 40
0.0
140
1.0
 94
        2
 62
     0
340
A1E9
144
0.18
309
CONTENTFORMAT_END
171
     0
 94
        0
309
TABLEFORMAT_END
  1
CELLSTYLE_BEGIN
 90
        3
 91
        2
300
_DATA
309
CELLSTYLE_END
  0
XRECORD
  5
A4C4
102
{ACAD_REACTORS
330
A48D
102
}
330
A48D
100
AcDbXrecord
280
     1
102
ACAD_ROUNDTRIP_PRE2007_TABLESTYLE
 90
      512
 91
        0
  1

 92
      512
 93
        0
  2

 94
      512
 95
        0
  3

  0
XRECORD
  5
A49F
102
{ACAD_REACTORS
330
A49E
102
}
330
A49E
100
AcDbXrecord
280
     1
102
RTVSPost2010Prop28
280
     1
102
RTVSPost2010PropOp28
 70
     1
102
RTVSPost2010Prop29
280
     1
102
RTVSPost2010PropOp29
 70
     1
102
RTVSPost2010Prop30
280
     0
102
RTVSPost2010PropOp30
 70
     1
102
RTVSPost2010Prop31
280
     0
102
RTVSPost2010PropOp31
 70
     1
102
RTVSPost2010Prop32
280
     0
102
RTVSPost2010PropOp32
 70
     1
102
RTVSPost2010Prop33
280
     0
102
RTVSPost2010PropOp33
 70
     1
102
RTVSPost2010Prop34
280
     0
102
RTVSPost2010PropOp34
 70
     1
102
RTVSPost2010Prop35
280
     0
102
RTVSPost2010PropOp35
 70
     1
102
RTVSPost2010Prop36
280
     0
102
RTVSPost2010PropOp36
 70
     1
102
RTVSPost2010Prop37
 90
       50
102
RTVSPost2010PropOp37
 70
     1
102
RTVSPost2010Prop38
140
0.0
102
RTVSPost2010PropOp38
 70
     1
102
RTVSPost2010Prop39
140
1.0
102
RTVSPost2010PropOp39
 70
     1
102
RTVSPost2010Prop40
 90
        0
102
RTVSPost2010PropOp40
 70
     1
102
RTVSPost2010Prop41ColorIndex
 90
       18
102
RTVSPost2010Prop41ColorRGB
 90
        0
102
RTVSPost2010PropOp41
 70
     1
102
RTVSPost2010Prop42
 90
       50
102
RTVSPost2010PropOp42
 70
     1
102
RTVSPost2010Prop43
 90
        3
102
RTVSPost2010PropOp43
 70
     1
102
RTVSPost2010Prop44ColorIndex
 90
        5
102
RTVSPost2010Prop44ColorRGB
 90
      255
102
RTVSPost2010PropOp44
 70
     1
102
RTVSPost2010Prop45
280
     0
102
RTVSPost2010PropOp45
 70
     1
102
RTVSPost2010Prop46
 90
       50
102
RTVSPost2010PropOp46
 70
     1
102
RTVSPost2010Prop47
 90
       50
102
RTVSPost2010PropOp47
 70
     1
102
RTVSPost2010Prop48
 90
       50
102
RTVSPost2010PropOp48
 70
     1
102
RTVSPost2010Prop49
280
     0
102
RTVSPost2010PropOp49
 70
     1
102
RTVSPost2010Prop50
 90
       50
102
RTVSPost2010PropOp50
 70
     1
102
RTVSPost2010Prop51ColorIndex
 90
      256
102
RTVSPost2010Prop51ColorRGB
 90
-16777216
102
RTVSPost2010PropOp51
 70
     0
102
RTVSPost2010Prop52
140
1.0
102
RTVSPost2010PropOp52
 70
     0
102
RTVSPost2010Prop53
 90
        2
102
RTVSPost2010PropOp53
 70
     1
102
RTVSPost2010Prop54
  1
strokes_ogs.tif
102
RTVSPost2010PropOp54
 70
     1
102
RTVSPost2010Prop55
280
     0
102
RTVSPost2010PropOp55
 70
     1
102
RTVSPost2010Prop56
140
1.0
102
RTVSPost2010PropOp56
 70
     1
102
RTVSPost2010Prop57
140
1.0
102
RTVSPost2010PropOp57
 70
     1
102
RTVSPropertyOp0
 70
     1
102
RTVSPropertyOp1
 70
     1
102
RTVSPropertyOp2
 70
     1
102
RTVSPropertyOp3
 70
     1
102
RTVSPropertyOp4
 70
     1
102
RTVSPropertyOp5
 70
     1
102
RTVSPropertyOp6
 70
     1
102
RTVSPropertyOp7
 70
     1
102
RTVSPropertyOp8
 70
     1
102
RTVSPropertyOp9
 70
     1
102
RTVSPropertyOp10
 70
     1
102
RTVSPropertyOp11
 70
     1
102
RTVSPropertyOp12
 70
     1
102
RTVSPropertyOp13
 70
     1
102
RTVSPropertyOp14
 70
     1
102
RTVSPropertyOp15
 70
     1
102
RTVSPropertyOp16
 70
     1
102
RTVSPropertyOp17
 70
     1
102
RTVSPropertyOp18
 70
     1
102
RTVSPropertyOp19
 70
     1
102
RTVSPropertyOp20
 70
     1
102
RTVSPropertyOp21
 70
     1
102
RTVSPropertyOp22
 70
     1
102
RTVSPropertyOp23
 70
     1
102
RTVSPropertyOp24
 70
     1
102
RTVSPropertyOp25
 70
     1
102
RTVSPropertyOp26
 70
     1
102
RTVSPropertyOp27
 70
     1
102
RTVSPropertyOp28
 70
     1
102
RTVSPropertyOp29
 70
     1
102
RTVSPropertyOp30
 70
     1
102
RTVSPropertyOp31
 70
     1
102
RTVSPropertyOp32
 70
     1
102
RTVSPropertyOp33
 70
     1
102
RTVSPropertyOp34
 70
     1
102
RTVSPropertyOp35
 70
     1
102
RTVSPropertyOp36
 70
     1
102
RTVSPropertyOp37
 70
     1
102
RTVSPropertyOp38
 70
     1
102
RTVSPropertyOp39
 70
     1
102
RTVSPropertyOp40
 70
     1
102
RTVSPropertyOp41
 70
     1
102
RTVSPropertyOp42
 70
     1
102
RTVSPropertyOp43
 70
     1
102
RTVSPropertyOp44
 70
     1
102
RTVSPropertyOp45
 70
     1
102
RTVSPropertyOp46
 70
     1
102
RTVSPropertyOp47
 70
     1
102
RTVSPropertyOp48
 70
     1
102
RTVSPropertyOp49
 70
     1
102
RTVSPropertyOp50
 70
     1
102
RTVSPropertyOp51
 70
     0
102
RTVSPropertyOp52
 70
     0
102
RTVSPropertyOp53
 70
     1
102
RTVSPropertyOp54
 70
     1
102
RTVSPropertyOp55
 70
     1
102
RTVSPropertyOp56
 70
     1
102
RTVSPropertyOp57
 70
     1
102
RTVSPropertyOp58
 70
     1
102
RTVSPropertyOp59
 70
     1
102
RTVSPropertyOp60
 70
     1
102
RTVSPropertyOp61
 70
     1
102
RTVSPropertyOp62
 70
     1
  0
XRECORD
  5
A49D
102
{ACAD_REACTORS
330
A49C
102
}
330
A49C
100
AcDbXrecord
280
     1
102
RTVSPost2010Prop28
280
     0
102
RTVSPost2010PropOp28
 70
     1
102
RTVSPost2010Prop29
280
     1
102
RTVSPost2010PropOp29
 70
     1
102
RTVSPost2010Prop30
280
     1
102
RTVSPost2010PropOp30
 70
     1
102
RTVSPost2010Prop31
280
     0
102
RTVSPost2010PropOp31
 70
     1
102
RTVSPost2010Prop32
280
     0
102
RTVSPost2010PropOp32
 70
     1
102
RTVSPost2010Prop33
280
     0
102
RTVSPost2010PropOp33
 70
     1
102
RTVSPost2010Prop34
280
     0
102
RTVSPost2010PropOp34
 70
     1
102
RTVSPost2010Prop35
280
     0
102
RTVSPost2010PropOp35
 70
     1
102
RTVSPost2010Prop36
280
     0
102
RTVSPost2010PropOp36
 70
     1
102
RTVSPost2010Prop37
 90
       50
102
RTVSPost2010PropOp37
 70
     1
102
RTVSPost2010Prop38
140
0.0
102
RTVSPost2010PropOp38
 70
     1
102
RTVSPost2010Prop39
140
1.0
102
RTVSPost2010PropOp39
 70
     1
102
RTVSPost2010Prop40
 90
        0
102
RTVSPost2010PropOp40
 70
     1
102
RTVSPost2010Prop41ColorIndex
 90
       18
102
RTVSPost2010Prop41ColorRGB
 90
        0
102
RTVSPost2010PropOp41
 70
     1
102
RTVSPost2010Prop42
 90
       50
102
RTVSPost2010PropOp42
 70
     1
102
RTVSPost2010Prop43
 90
        3
102
RTVSPost2010PropOp43
 70
     1
102
RTVSPost2010Prop44ColorIndex
 90
        5
102
RTVSPost2010Prop44ColorRGB
 90
      255
102
RTVSPost2010PropOp44
 70
     1
102
RTVSPost2010Prop45
280
     0
102
RTVSPost2010PropOp45
 70
     1
102
RTVSPost2010Prop46
 90
       50
102
RTVSPost2010PropOp46
 70
     1
102
RTVSPost2010Prop47
 90
       50
102
RTVSPost2010PropOp47
 70
     1
102
RTVSPost2010Prop48
 90
       50
102
RTVSPost2010PropOp48
 70
     1
102
RTVSPost2010Prop49
280
     0
102
RTVSPost2010PropOp49
 70
     1
102
RTVSPost2010Prop50
 90
       50
102
RTVSPost2010PropOp50
 70
     1
102
RTVSPost2010Prop51ColorIndex
 90
      256
102
RTVSPost2010Prop51ColorRGB
 90
-16777216
102
RTVSPost2010PropOp51
 70
     0
102
RTVSPost2010Prop52
140
1.0
102
RTVSPost2010PropOp52
 70
     0
102
RTVSPost2010Prop53
 90
        2
102
RTVSPost2010PropOp53
 70
     1
102
RTVSPost2010Prop54
  1
strokes_ogs.tif
102
RTVSPost2010PropOp54
 70
     1
102
RTVSPost2010Prop55
280
     0
102
RTVSPost2010PropOp55
 70
     1
102
RTVSPost2010Prop56
140
1.0
102
RTVSPost2010PropOp56
 70
     1
102
RTVSPost2010Prop57
140
1.0
102
RTVSPost2010PropOp57
 70
     1
102
RTVSPropertyOp0
 70
     1
102
RTVSPropertyOp1
 70
     1
102
RTVSPropertyOp2
 70
     1
102
RTVSPropertyOp3
 70
     1
102
RTVSPropertyOp4
 70
     1
102
RTVSPropertyOp5
 70
     1
102
RTVSPropertyOp6
 70
     1
102
RTVSPropertyOp7
 70
     1
102
RTVSPropertyOp8
 70
     1
102
RTVSPropertyOp9
 70
     1
102
RTVSPropertyOp10
 70
     1
102
RTVSPropertyOp11
 70
     1
102
RTVSPropertyOp12
 70
     1
102
RTVSPropertyOp13
 70
     1
102
RTVSPropertyOp14
 70
     1
102
RTVSPropertyOp15
 70
     1
102
RTVSPropertyOp16
 70
     1
102
RTVSPropertyOp17
 70
     1
102
RTVSPropertyOp18
 70
     1
102
RTVSPropertyOp19
 70
     1
102
RTVSPropertyOp20
 70
     1
102
RTVSPropertyOp21
 70
     1
102
RTVSPropertyOp22
 70
     1
102
RTVSPropertyOp23
 70
     1
102
RTVSPropertyOp24
 70
     1
102
RTVSPropertyOp25
 70
     1
102
RTVSPropertyOp26
 70
     1
102
RTVSPropertyOp27
 70
     1
102
RTVSPropertyOp28
 70
     1
102
RTVSPropertyOp29
 70
     1
102
RTVSPropertyOp30
 70
     1
102
RTVSPropertyOp31
 70
     1
102
RTVSPropertyOp32
 70
     1
102
RTVSPropertyOp33
 70
     1
102
RTVSPropertyOp34
 70
     1
102
RTVSPropertyOp35
 70
     1
102
RTVSPropertyOp36
 70
     1
102
RTVSPropertyOp37
 70
     1
102
RTVSPropertyOp38
 70
     1
102
RTVSPropertyOp39
 70
     1
102
RTVSPropertyOp40
 70
     1
102
RTVSPropertyOp41
 70
     1
102
RTVSPropertyOp42
 70
     1
102
RTVSPropertyOp43
 70
     1
102
RTVSPropertyOp44
 70
     1
102
RTVSPropertyOp45
 70
     1
102
RTVSPropertyOp46
 70
     1
102
RTVSPropertyOp47
 70
     1
102
RTVSPropertyOp48
 70
     1
102
RTVSPropertyOp49
 70
     1
102
RTVSPropertyOp50
 70
     1
102
RTVSPropertyOp51
 70
     0
102
RTVSPropertyOp52
 70
     0
102
RTVSPropertyOp53
 70
     1
102
RTVSPropertyOp54
 70
     1
102
RTVSPropertyOp55
 70
     1
102
RTVSPropertyOp56
 70
     1
102
RTVSPropertyOp57
 70
     1
102
RTVSPropertyOp58
 70
     1
102
RTVSPropertyOp59
 70
     1
102
RTVSPropertyOp60
 70
     1
102
RTVSPropertyOp61
 70
     1
102
RTVSPropertyOp62
 70
     1
  0
XRECORD
  5
A4AB
102
{ACAD_REACTORS
330
A4AA
102
}
330
A4AA
100
AcDbXrecord
280
     1
102
RTVSPost2010Prop28
280
     0
102
RTVSPost2010PropOp28
 70
     1
102
RTVSPost2010Prop29
280
     1
102
RTVSPost2010PropOp29
 70
     1
102
RTVSPost2010Prop30
280
     1
102
RTVSPost2010PropOp30
 70
     1
102
RTVSPost2010Prop31
280
     0
102
RTVSPost2010PropOp31
 70
     1
102
RTVSPost2010Prop32
280
     0
102
RTVSPost2010PropOp32
 70
     1
102
RTVSPost2010Prop33
280
     0
102
RTVSPost2010PropOp33
 70
     1
102
RTVSPost2010Prop34
280
     0
102
RTVSPost2010PropOp34
 70
     1
102
RTVSPost2010Prop35
280
     0
102
RTVSPost2010PropOp35
 70
     1
102
RTVSPost2010Prop36
280
     0
102
RTVSPost2010PropOp36
 70
     1
102
RTVSPost2010Prop37
 90
       50
102
RTVSPost2010PropOp37
 70
     1
102
RTVSPost2010Prop38
140
0.0
102
RTVSPost2010PropOp38
 70
     1
102
RTVSPost2010Prop39
140
1.0
102
RTVSPost2010PropOp39
 70
     1
102
RTVSPost2010Prop40
 90
        0
102
RTVSPost2010PropOp40
 70
     1
102
RTVSPost2010Prop41ColorIndex
 90
       18
102
RTVSPost2010Prop41ColorRGB
 90
        0
102
RTVSPost2010PropOp41
 70
     1
102
RTVSPost2010Prop42
 90
       50
102
RTVSPost2010PropOp42
 70
     1
102
RTVSPost2010Prop43
 90
        3
102
RTVSPost2010PropOp43
 70
     1
102
RTVSPost2010Prop44ColorIndex
 90
        5
102
RTVSPost2010Prop44ColorRGB
 90
      255
102
RTVSPost2010PropOp44
 70
     1
102
RTVSPost2010Prop45
280
     0
102
RTVSPost2010PropOp45
 70
     1
102
RTVSPost2010Prop46
 90
       50
102
RTVSPost2010PropOp46
 70
     1
102
RTVSPost2010Prop47
 90
       50
102
RTVSPost2010PropOp47
 70
     1
102
RTVSPost2010Prop48
 90
       50
102
RTVSPost2010PropOp48
 70
     1
102
RTVSPost2010Prop49
280
     0
102
RTVSPost2010PropOp49
 70
     1
102
RTVSPost2010Prop50
 90
       50
102
RTVSPost2010PropOp50
 70
     1
102
RTVSPost2010Prop51ColorIndex
 90
      256
102
RTVSPost2010Prop51ColorRGB
 90
-16777216
102
RTVSPost2010PropOp51
 70
     0
102
RTVSPost2010Prop52
140
1.0
102
RTVSPost2010PropOp52
 70
     0
102
RTVSPost2010Prop53
 90
        2
102
RTVSPost2010PropOp53
 70
     1
102
RTVSPost2010Prop54
  1
strokes_ogs.tif
102
RTVSPost2010PropOp54
 70
     1
102
RTVSPost2010Prop55
280
     0
102
RTVSPost2010PropOp55
 70
     1
102
RTVSPost2010Prop56
140
1.0
102
RTVSPost2010PropOp56
 70
     1
102
RTVSPost2010Prop57
140
1.0
102
RTVSPost2010PropOp57
 70
     1
102
RTVSPropertyOp0
 70
     1
102
RTVSPropertyOp1
 70
     1
102
RTVSPropertyOp2
 70
     1
102
RTVSPropertyOp3
 70
     1
102
RTVSPropertyOp4
 70
     1
102
RTVSPropertyOp5
 70
     1
102
RTVSPropertyOp6
 70
     1
102
RTVSPropertyOp7
 70
     1
102
RTVSPropertyOp8
 70
     1
102
RTVSPropertyOp9
 70
     1
102
RTVSPropertyOp10
 70
     1
102
RTVSPropertyOp11
 70
     1
102
RTVSPropertyOp12
 70
     1
102
RTVSPropertyOp13
 70
     1
102
RTVSPropertyOp14
 70
     1
102
RTVSPropertyOp15
 70
     1
102
RTVSPropertyOp16
 70
     1
102
RTVSPropertyOp17
 70
     1
102
RTVSPropertyOp18
 70
     1
102
RTVSPropertyOp19
 70
     1
102
RTVSPropertyOp20
 70
     1
102
RTVSPropertyOp21
 70
     1
102
RTVSPropertyOp22
 70
     1
102
RTVSPropertyOp23
 70
     1
102
RTVSPropertyOp24
 70
     1
102
RTVSPropertyOp25
 70
     1
102
RTVSPropertyOp26
 70
     1
102
RTVSPropertyOp27
 70
     1
102
RTVSPropertyOp28
 70
     1
102
RTVSPropertyOp29
 70
     1
102
RTVSPropertyOp30
 70
     1
102
RTVSPropertyOp31
 70
     1
102
RTVSPropertyOp32
 70
     1
102
RTVSPropertyOp33
 70
     1
102
RTVSPropertyOp34
 70
     1
102
RTVSPropertyOp35
 70
     1
102
RTVSPropertyOp36
 70
     1
102
RTVSPropertyOp37
 70
     1
102
RTVSPropertyOp38
 70
     1
102
RTVSPropertyOp39
 70
     1
102
RTVSPropertyOp40
 70
     1
102
RTVSPropertyOp41
 70
     1
102
RTVSPropertyOp42
 70
     1
102
RTVSPropertyOp43
 70
     1
102
RTVSPropertyOp44
 70
     1
102
RTVSPropertyOp45
 70
     1
102
RTVSPropertyOp46
 70
     1
102
RTVSPropertyOp47
 70
     1
102
RTVSPropertyOp48
 70
     1
102
RTVSPropertyOp49
 70
     1
102
RTVSPropertyOp50
 70
     1
102
RTVSPropertyOp51
 70
     0
102
RTVSPropertyOp52
 70
     0
102
RTVSPropertyOp53
 70
     1
102
RTVSPropertyOp54
 70
     1
102
RTVSPropertyOp55
 70
     1
102
RTVSPropertyOp56
 70
     1
102
RTVSPropertyOp57
 70
     1
102
RTVSPropertyOp58
 70
     1
102
RTVSPropertyOp59
 70
     1
102
RTVSPropertyOp60
 70
     1
102
RTVSPropertyOp61
 70
     1
102
RTVSPropertyOp62
 70
     1
  0
XRECORD
  5
A4B3
102
{ACAD_REACTORS
330
A4B2
102
}
330
A4B2
100
AcDbXrecord
280
     1
102
RTVSPost2010Prop28
280
     0
102
RTVSPost2010PropOp28
 70
     1
102
RTVSPost2010Prop29
280
     1
102
RTVSPost2010PropOp29
 70
     1
102
RTVSPost2010Prop30
280
     1
102
RTVSPost2010PropOp30
 70
     1
102
RTVSPost2010Prop31
280
     0
102
RTVSPost2010PropOp31
 70
     1
102
RTVSPost2010Prop32
280
     0
102
RTVSPost2010PropOp32
 70
     1
102
RTVSPost2010Prop33
280
     0
102
RTVSPost2010PropOp33
 70
     1
102
RTVSPost2010Prop34
280
     0
102
RTVSPost2010PropOp34
 70
     1
102
RTVSPost2010Prop35
280
     0
102
RTVSPost2010PropOp35
 70
     1
102
RTVSPost2010Prop36
280
     0
102
RTVSPost2010PropOp36
 70
     1
102
RTVSPost2010Prop37
 90
       50
102
RTVSPost2010PropOp37
 70
     1
102
RTVSPost2010Prop38
140
0.0
102
RTVSPost2010PropOp38
 70
     1
102
RTVSPost2010Prop39
140
1.0
102
RTVSPost2010PropOp39
 70
     1
102
RTVSPost2010Prop40
 90
        0
102
RTVSPost2010PropOp40
 70
     1
102
RTVSPost2010Prop41ColorIndex
 90
       18
102
RTVSPost2010Prop41ColorRGB
 90
        0
102
RTVSPost2010PropOp41
 70
     1
102
RTVSPost2010Prop42
 90
       50
102
RTVSPost2010PropOp42
 70
     1
102
RTVSPost2010Prop43
 90
        3
102
RTVSPost2010PropOp43
 70
     1
102
RTVSPost2010Prop44ColorIndex
 90
        5
102
RTVSPost2010Prop44ColorRGB
 90
      255
102
RTVSPost2010PropOp44
 70
     1
102
RTVSPost2010Prop45
280
     0
102
RTVSPost2010PropOp45
 70
     1
102
RTVSPost2010Prop46
 90
       50
102
RTVSPost2010PropOp46
 70
     1
102
RTVSPost2010Prop47
 90
       50
102
RTVSPost2010PropOp47
 70
     1
102
RTVSPost2010Prop48
 90
       50
102
RTVSPost2010PropOp48
 70
     1
102
RTVSPost2010Prop49
280
     0
102
RTVSPost2010PropOp49
 70
     1
102
RTVSPost2010Prop50
 90
       50
102
RTVSPost2010PropOp50
 70
     1
102
RTVSPost2010Prop51ColorIndex
 90
      256
102
RTVSPost2010Prop51ColorRGB
 90
-16777216
102
RTVSPost2010PropOp51
 70
     0
102
RTVSPost2010Prop52
140
1.0
102
RTVSPost2010PropOp52
 70
     0
102
RTVSPost2010Prop53
 90
        2
102
RTVSPost2010PropOp53
 70
     1
102
RTVSPost2010Prop54
  1
strokes_ogs.tif
102
RTVSPost2010PropOp54
 70
     1
102
RTVSPost2010Prop55
280
     0
102
RTVSPost2010PropOp55
 70
     1
102
RTVSPost2010Prop56
140
1.0
102
RTVSPost2010PropOp56
 70
     1
102
RTVSPost2010Prop57
140
1.0
102
RTVSPost2010PropOp57
 70
     1
102
RTVSPropertyOp0
 70
     1
102
RTVSPropertyOp1
 70
     1
102
RTVSPropertyOp2
 70
     1
102
RTVSPropertyOp3
 70
     1
102
RTVSPropertyOp4
 70
     1
102
RTVSPropertyOp5
 70
     1
102
RTVSPropertyOp6
 70
     1
102
RTVSPropertyOp7
 70
     1
102
RTVSPropertyOp8
 70
     1
102
RTVSPropertyOp9
 70
     1
102
RTVSPropertyOp10
 70
     1
102
RTVSPropertyOp11
 70
     1
102
RTVSPropertyOp12
 70
     1
102
RTVSPropertyOp13
 70
     1
102
RTVSPropertyOp14
 70
     1
102
RTVSPropertyOp15
 70
     1
102
RTVSPropertyOp16
 70
     1
102
RTVSPropertyOp17
 70
     1
102
RTVSPropertyOp18
 70
     1
102
RTVSPropertyOp19
 70
     1
102
RTVSPropertyOp20
 70
     1
102
RTVSPropertyOp21
 70
     1
102
RTVSPropertyOp22
 70
     1
102
RTVSPropertyOp23
 70
     1
102
RTVSPropertyOp24
 70
     1
102
RTVSPropertyOp25
 70
     1
102
RTVSPropertyOp26
 70
     1
102
RTVSPropertyOp27
 70
     1
102
RTVSPropertyOp28
 70
     1
102
RTVSPropertyOp29
 70
     1
102
RTVSPropertyOp30
 70
     1
102
RTVSPropertyOp31
 70
     1
102
RTVSPropertyOp32
 70
     1
102
RTVSPropertyOp33
 70
     1
102
RTVSPropertyOp34
 70
     1
102
RTVSPropertyOp35
 70
     1
102
RTVSPropertyOp36
 70
     1
102
RTVSPropertyOp37
 70
     1
102
RTVSPropertyOp38
 70
     1
102
RTVSPropertyOp39
 70
     1
102
RTVSPropertyOp40
 70
     1
102
RTVSPropertyOp41
 70
     1
102
RTVSPropertyOp42
 70
     1
102
RTVSPropertyOp43
 70
     1
102
RTVSPropertyOp44
 70
     1
102
RTVSPropertyOp45
 70
     1
102
RTVSPropertyOp46
 70
     1
102
RTVSPropertyOp47
 70
     1
102
RTVSPropertyOp48
 70
     1
102
RTVSPropertyOp49
 70
     1
102
RTVSPropertyOp50
 70
     1
102
RTVSPropertyOp51
 70
     0
102
RTVSPropertyOp52
 70
     0
102
RTVSPropertyOp53
 70
     1
102
RTVSPropertyOp54
 70
     1
102
RTVSPropertyOp55
 70
     1
102
RTVSPropertyOp56
 70
     1
102
RTVSPropertyOp57
 70
     1
102
RTVSPropertyOp58
 70
     1
102
RTVSPropertyOp59
 70
     1
102
RTVSPropertyOp60
 70
     1
102
RTVSPropertyOp61
 70
     1
102
RTVSPropertyOp62
 70
     1
  0
XRECORD
  5
A4A5
102
{ACAD_REACTORS
330
A4A4
102
}
330
A4A4
100
AcDbXrecord
280
     1
102
RTVSPost2010Prop28
280
     0
102
RTVSPost2010PropOp28
 70
     1
102
RTVSPost2010Prop29
280
     1
102
RTVSPost2010PropOp29
 70
     1
102
RTVSPost2010Prop30
280
     1
102
RTVSPost2010PropOp30
 70
     1
102
RTVSPost2010Prop31
280
     0
102
RTVSPost2010PropOp31
 70
     1
102
RTVSPost2010Prop32
280
     0
102
RTVSPost2010PropOp32
 70
     1
102
RTVSPost2010Prop33
280
     0
102
RTVSPost2010PropOp33
 70
     1
102
RTVSPost2010Prop34
280
     0
102
RTVSPost2010PropOp34
 70
     1
102
RTVSPost2010Prop35
280
     0
102
RTVSPost2010PropOp35
 70
     1
102
RTVSPost2010Prop36
280
     0
102
RTVSPost2010PropOp36
 70
     1
102
RTVSPost2010Prop37
 90
       50
102
RTVSPost2010PropOp37
 70
     1
102
RTVSPost2010Prop38
140
0.0
102
RTVSPost2010PropOp38
 70
     1
102
RTVSPost2010Prop39
140
1.0
102
RTVSPost2010PropOp39
 70
     1
102
RTVSPost2010Prop40
 90
        0
102
RTVSPost2010PropOp40
 70
     1
102
RTVSPost2010Prop41ColorIndex
 90
       18
102
RTVSPost2010Prop41ColorRGB
 90
        0
102
RTVSPost2010PropOp41
 70
     1
102
RTVSPost2010Prop42
 90
       50
102
RTVSPost2010PropOp42
 70
     1
102
RTVSPost2010Prop43
 90
        3
102
RTVSPost2010PropOp43
 70
     1
102
RTVSPost2010Prop44ColorIndex
 90
        5
102
RTVSPost2010Prop44ColorRGB
 90
      255
102
RTVSPost2010PropOp44
 70
     1
102
RTVSPost2010Prop45
280
     0
102
RTVSPost2010PropOp45
 70
     1
102
RTVSPost2010Prop46
 90
       50
102
RTVSPost2010PropOp46
 70
     1
102
RTVSPost2010Prop47
 90
       50
102
RTVSPost2010PropOp47
 70
     1
102
RTVSPost2010Prop48
 90
       50
102
RTVSPost2010PropOp48
 70
     1
102
RTVSPost2010Prop49
280
     0
102
RTVSPost2010PropOp49
 70
     1
102
RTVSPost2010Prop50
 90
       50
102
RTVSPost2010PropOp50
 70
     1
102
RTVSPost2010Prop51ColorIndex
 90
      256
102
RTVSPost2010Prop51ColorRGB
 90
-16777216
102
RTVSPost2010PropOp51
 70
     0
102
RTVSPost2010Prop52
140
1.0
102
RTVSPost2010PropOp52
 70
     0
102
RTVSPost2010Prop53
 90
        2
102
RTVSPost2010PropOp53
 70
     1
102
RTVSPost2010Prop54
  1
strokes_ogs.tif
102
RTVSPost2010PropOp54
 70
     1
102
RTVSPost2010Prop55
280
     0
102
RTVSPost2010PropOp55
 70
     1
102
RTVSPost2010Prop56
140
1.0
102
RTVSPost2010PropOp56
 70
     1
102
RTVSPost2010Prop57
140
1.0
102
RTVSPost2010PropOp57
 70
     1
102
RTVSPropertyOp0
 70
     1
102
RTVSPropertyOp1
 70
     1
102
RTVSPropertyOp2
 70
     1
102
RTVSPropertyOp3
 70
     1
102
RTVSPropertyOp4
 70
     1
102
RTVSPropertyOp5
 70
     1
102
RTVSPropertyOp6
 70
     1
102
RTVSPropertyOp7
 70
     1
102
RTVSPropertyOp8
 70
     1
102
RTVSPropertyOp9
 70
     1
102
RTVSPropertyOp10
 70
     1
102
RTVSPropertyOp11
 70
     1
102
RTVSPropertyOp12
 70
     1
102
RTVSPropertyOp13
 70
     1
102
RTVSPropertyOp14
 70
     1
102
RTVSPropertyOp15
 70
     1
102
RTVSPropertyOp16
 70
     1
102
RTVSPropertyOp17
 70
     1
102
RTVSPropertyOp18
 70
     1
102
RTVSPropertyOp19
 70
     1
102
RTVSPropertyOp20
 70
     1
102
RTVSPropertyOp21
 70
     1
102
RTVSPropertyOp22
 70
     1
102
RTVSPropertyOp23
 70
     1
102
RTVSPropertyOp24
 70
     1
102
RTVSPropertyOp25
 70
     1
102
RTVSPropertyOp26
 70
     1
102
RTVSPropertyOp27
 70
     1
102
RTVSPropertyOp28
 70
     1
102
RTVSPropertyOp29
 70
     1
102
RTVSPropertyOp30
 70
     1
102
RTVSPropertyOp31
 70
     1
102
RTVSPropertyOp32
 70
     1
102
RTVSPropertyOp33
 70
     1
102
RTVSPropertyOp34
 70
     1
102
RTVSPropertyOp35
 70
     1
102
RTVSPropertyOp36
 70
     1
102
RTVSPropertyOp37
 70
     1
102
RTVSPropertyOp38
 70
     1
102
RTVSPropertyOp39
 70
     1
102
RTVSPropertyOp40
 70
     1
102
RTVSPropertyOp41
 70
     1
102
RTVSPropertyOp42
 70
     1
102
RTVSPropertyOp43
 70
     1
102
RTVSPropertyOp44
 70
     1
102
RTVSPropertyOp45
 70
     1
102
RTVSPropertyOp46
 70
     1
102
RTVSPropertyOp47
 70
     1
102
RTVSPropertyOp48
 70
     1
102
RTVSPropertyOp49
 70
     1
102
RTVSPropertyOp50
 70
     1
102
RTVSPropertyOp51
 70
     0
102
RTVSPropertyOp52
 70
     0
102
RTVSPropertyOp53
 70
     1
102
RTVSPropertyOp54
 70
     1
102
RTVSPropertyOp55
 70
     1
102
RTVSPropertyOp56
 70
     1
102
RTVSPropertyOp57
 70
     1
102
RTVSPropertyOp58
 70
     1
102
RTVSPropertyOp59
 70
     1
102
RTVSPropertyOp60
 70
     1
102
RTVSPropertyOp61
 70
     1
102
RTVSPropertyOp62
 70
     1
  0
XRECORD
  5
A4A9
102
{ACAD_REACTORS
330
A4A8
102
}
330
A4A8
100
AcDbXrecord
280
     1
102
RTVSPost2010Prop28
280
     0
102
RTVSPost2010PropOp28
 70
     1
102
RTVSPost2010Prop29
280
     1
102
RTVSPost2010PropOp29
 70
     1
102
RTVSPost2010Prop30
280
     1
102
RTVSPost2010PropOp30
 70
     1
102
RTVSPost2010Prop31
280
     0
102
RTVSPost2010PropOp31
 70
     1
102
RTVSPost2010Prop32
280
     0
102
RTVSPost2010PropOp32
 70
     1
102
RTVSPost2010Prop33
280
     0
102
RTVSPost2010PropOp33
 70
     1
102
RTVSPost2010Prop34
280
     0
102
RTVSPost2010PropOp34
 70
     1
102
RTVSPost2010Prop35
280
     0
102
RTVSPost2010PropOp35
 70
     1
102
RTVSPost2010Prop36
280
     0
102
RTVSPost2010PropOp36
 70
     1
102
RTVSPost2010Prop37
 90
       50
102
RTVSPost2010PropOp37
 70
     1
102
RTVSPost2010Prop38
140
0.0
102
RTVSPost2010PropOp38
 70
     1
102
RTVSPost2010Prop39
140
1.0
102
RTVSPost2010PropOp39
 70
     1
102
RTVSPost2010Prop40
 90
        0
102
RTVSPost2010PropOp40
 70
     1
102
RTVSPost2010Prop41ColorIndex
 90
       18
102
RTVSPost2010Prop41ColorRGB
 90
        0
102
RTVSPost2010PropOp41
 70
     1
102
RTVSPost2010Prop42
 90
       50
102
RTVSPost2010PropOp42
 70
     1
102
RTVSPost2010Prop43
 90
        3
102
RTVSPost2010PropOp43
 70
     1
102
RTVSPost2010Prop44ColorIndex
 90
        5
102
RTVSPost2010Prop44ColorRGB
 90
      255
102
RTVSPost2010PropOp44
 70
     1
102
RTVSPost2010Prop45
280
     0
102
RTVSPost2010PropOp45
 70
     1
102
RTVSPost2010Prop46
 90
       50
102
RTVSPost2010PropOp46
 70
     1
102
RTVSPost2010Prop47
 90
       50
102
RTVSPost2010PropOp47
 70
     1
102
RTVSPost2010Prop48
 90
       50
102
RTVSPost2010PropOp48
 70
     1
102
RTVSPost2010Prop49
280
     0
102
RTVSPost2010PropOp49
 70
     1
102
RTVSPost2010Prop50
 90
       50
102
RTVSPost2010PropOp50
 70
     1
102
RTVSPost2010Prop51ColorIndex
 90
      256
102
RTVSPost2010Prop51ColorRGB
 90
-16777216
102
RTVSPost2010PropOp51
 70
     0
102
RTVSPost2010Prop52
140
1.0
102
RTVSPost2010PropOp52
 70
     0
102
RTVSPost2010Prop53
 90
        2
102
RTVSPost2010PropOp53
 70
     1
102
RTVSPost2010Prop54
  1
strokes_ogs.tif
102
RTVSPost2010PropOp54
 70
     1
102
RTVSPost2010Prop55
280
     0
102
RTVSPost2010PropOp55
 70
     1
102
RTVSPost2010Prop56
140
1.0
102
RTVSPost2010PropOp56
 70
     1
102
RTVSPost2010Prop57
140
1.0
102
RTVSPost2010PropOp57
 70
     1
102
RTVSPropertyOp0
 70
     1
102
RTVSPropertyOp1
 70
     1
102
RTVSPropertyOp2
 70
     1
102
RTVSPropertyOp3
 70
     1
102
RTVSPropertyOp4
 70
     1
102
RTVSPropertyOp5
 70
     1
102
RTVSPropertyOp6
 70
     1
102
RTVSPropertyOp7
 70
     1
102
RTVSPropertyOp8
 70
     1
102
RTVSPropertyOp9
 70
     1
102
RTVSPropertyOp10
 70
     1
102
RTVSPropertyOp11
 70
     1
102
RTVSPropertyOp12
 70
     1
102
RTVSPropertyOp13
 70
     1
102
RTVSPropertyOp14
 70
     1
102
RTVSPropertyOp15
 70
     1
102
RTVSPropertyOp16
 70
     1
102
RTVSPropertyOp17
 70
     1
102
RTVSPropertyOp18
 70
     1
102
RTVSPropertyOp19
 70
     1
102
RTVSPropertyOp20
 70
     1
102
RTVSPropertyOp21
 70
     1
102
RTVSPropertyOp22
 70
     1
102
RTVSPropertyOp23
 70
     1
102
RTVSPropertyOp24
 70
     1
102
RTVSPropertyOp25
 70
     1
102
RTVSPropertyOp26
 70
     1
102
RTVSPropertyOp27
 70
     1
102
RTVSPropertyOp28
 70
     1
102
RTVSPropertyOp29
 70
     1
102
RTVSPropertyOp30
 70
     1
102
RTVSPropertyOp31
 70
     1
102
RTVSPropertyOp32
 70
     1
102
RTVSPropertyOp33
 70
     1
102
RTVSPropertyOp34
 70
     1
102
RTVSPropertyOp35
 70
     1
102
RTVSPropertyOp36
 70
     1
102
RTVSPropertyOp37
 70
     1
102
RTVSPropertyOp38
 70
     1
102
RTVSPropertyOp39
 70
     1
102
RTVSPropertyOp40
 70
     1
102
RTVSPropertyOp41
 70
     1
102
RTVSPropertyOp42
 70
     1
102
RTVSPropertyOp43
 70
     1
102
RTVSPropertyOp44
 70
     1
102
RTVSPropertyOp45
 70
     1
102
RTVSPropertyOp46
 70
     1
102
RTVSPropertyOp47
 70
     1
102
RTVSPropertyOp48
 70
     1
102
RTVSPropertyOp49
 70
     1
102
RTVSPropertyOp50
 70
     1
102
RTVSPropertyOp51
 70
     0
102
RTVSPropertyOp52
 70
     0
102
RTVSPropertyOp53
 70
     1
102
RTVSPropertyOp54
 70
     1
102
RTVSPropertyOp55
 70
     1
102
RTVSPropertyOp56
 70
     1
102
RTVSPropertyOp57
 70
     1
102
RTVSPropertyOp58
 70
     1
102
RTVSPropertyOp59
 70
     1
102
RTVSPropertyOp60
 70
     1
102
RTVSPropertyOp61
 70
     1
102
RTVSPropertyOp62
 70
     1
  0
XRECORD
  5
A4C3
102
{ACAD_REACTORS
330
A4C2
102
}
330
A4C2
100
AcDbXrecord
280
     1
102
RTVSPost2010Prop28
280
     0
102
RTVSPost2010PropOp28
 70
     1
102
RTVSPost2010Prop29
280
     1
102
RTVSPost2010PropOp29
 70
     1
102
RTVSPost2010Prop30
280
     1
102
RTVSPost2010PropOp30
 70
     1
102
RTVSPost2010Prop31
280
     0
102
RTVSPost2010PropOp31
 70
     1
102
RTVSPost2010Prop32
280
     0
102
RTVSPost2010PropOp32
 70
     1
102
RTVSPost2010Prop33
280
     0
102
RTVSPost2010PropOp33
 70
     1
102
RTVSPost2010Prop34
280
     0
102
RTVSPost2010PropOp34
 70
     1
102
RTVSPost2010Prop35
280
     0
102
RTVSPost2010PropOp35
 70
     1
102
RTVSPost2010Prop36
280
     0
102
RTVSPost2010PropOp36
 70
     1
102
RTVSPost2010Prop37
 90
       50
102
RTVSPost2010PropOp37
 70
     0
102
RTVSPost2010Prop38
140
0.0
102
RTVSPost2010PropOp38
 70
     0
102
RTVSPost2010Prop39
140
1.0
102
RTVSPost2010PropOp39
 70
     0
102
RTVSPost2010Prop40
 90
        0
102
RTVSPost2010PropOp40
 70
     0
102
RTVSPost2010Prop41ColorIndex
 90
       18
102
RTVSPost2010Prop41ColorRGB
 90
        0
102
RTVSPost2010PropOp41
 70
     0
102
RTVSPost2010Prop42
 90
       50
102
RTVSPost2010PropOp42
 70
     0
102
RTVSPost2010Prop43
 90
        3
102
RTVSPost2010PropOp43
 70
     0
102
RTVSPost2010Prop44ColorIndex
 90
        5
102
RTVSPost2010Prop44ColorRGB
 90
      255
102
RTVSPost2010PropOp44
 70
     0
102
RTVSPost2010Prop45
280
     0
102
RTVSPost2010PropOp45
 70
     1
102
RTVSPost2010Prop46
 90
       50
102
RTVSPost2010PropOp46
 70
     0
102
RTVSPost2010Prop47
 90
       50
102
RTVSPost2010PropOp47
 70
     0
102
RTVSPost2010Prop48
 90
       50
102
RTVSPost2010PropOp48
 70
     0
102
RTVSPost2010Prop49
280
     0
102
RTVSPost2010PropOp49
 70
     1
102
RTVSPost2010Prop50
 90
       50
102
RTVSPost2010PropOp50
 70
     0
102
RTVSPost2010Prop51ColorIndex
 90
      256
102
RTVSPost2010Prop51ColorRGB
 90
-16777216
102
RTVSPost2010PropOp51
 70
     0
102
RTVSPost2010Prop52
140
1.0
102
RTVSPost2010PropOp52
 70
     0
102
RTVSPost2010Prop53
 90
        2
102
RTVSPost2010PropOp53
 70
     0
102
RTVSPost2010Prop54
  1
strokes_ogs.tif
102
RTVSPost2010PropOp54
 70
     0
102
RTVSPost2010Prop55
280
     0
102
RTVSPost2010PropOp55
 70
     1
102
RTVSPost2010Prop56
140
1.0
102
RTVSPost2010PropOp56
 70
     0
102
RTVSPost2010Prop57
140
1.0
102
RTVSPost2010PropOp57
 70
     0
102
RTVSPropertyOp0
 70
     0
102
RTVSPropertyOp1
 70
     0
102
RTVSPropertyOp2
 70
     0
102
RTVSPropertyOp3
 70
     0
102
RTVSPropertyOp4
 70
     0
102
RTVSPropertyOp5
 70
     0
102
RTVSPropertyOp6
 70
     0
102
RTVSPropertyOp7
 70
     0
102
RTVSPropertyOp8
 70
     0
102
RTVSPropertyOp9
 70
     0
102
RTVSPropertyOp10
 70
     0
102
RTVSPropertyOp11
 70
     0
102
RTVSPropertyOp12
 70
     0
102
RTVSPropertyOp13
 70
     0
102
RTVSPropertyOp14
 70
     2
102
RTVSPropertyOp15
 70
     0
102
RTVSPropertyOp16
 70
     0
102
RTVSPropertyOp17
 70
     0
102
RTVSPropertyOp18
 70
     0
102
RTVSPropertyOp19
 70
     0
102
RTVSPropertyOp20
 70
     0
102
RTVSPropertyOp21
 70
     0
102
RTVSPropertyOp22
 70
     0
102
RTVSPropertyOp23
 70
     0
102
RTVSPropertyOp24
 70
     0
102
RTVSPropertyOp25
 70
     0
102
RTVSPropertyOp26
 70
     0
102
RTVSPropertyOp27
 70
     0
102
RTVSPropertyOp28
 70
     1
102
RTVSPropertyOp29
 70
     1
102
RTVSPropertyOp30
 70
     1
102
RTVSPropertyOp31
 70
     1
102
RTVSPropertyOp32
 70
     1
102
RTVSPropertyOp33
 70
     1
102
RTVSPropertyOp34
 70
     1
102
RTVSPropertyOp35
 70
     1
102
RTVSPropertyOp36
 70
     1
102
RTVSPropertyOp37
 70
     0
102
RTVSPropertyOp38
 70
     0
102
RTVSPropertyOp39
 70
     0
102
RTVSPropertyOp40
 70
     0
102
RTVSPropertyOp41
 70
     0
102
RTVSPropertyOp42
 70
     0
102
RTVSPropertyOp43
 70
     0
102
RTVSPropertyOp44
 70
     0
102
RTVSPropertyOp45
 70
     1
102
RTVSPropertyOp46
 70
     0
102
RTVSPropertyOp47
 70
     0
102
RTVSPropertyOp48
 70
     0
102
RTVSPropertyOp49
 70
     1
102
RTVSPropertyOp50
 70
     0
102
RTVSPropertyOp51
 70
     0
102
RTVSPropertyOp52
 70
     0
102
RTVSPropertyOp53
 70
     0
102
RTVSPropertyOp54
 70
     0
102
RTVSPropertyOp55
 70
     1
102
RTVSPropertyOp56
 70
     0
102
RTVSPropertyOp57
 70
     0
102
RTVSPropertyOp58
 70
     0
102
RTVSPropertyOp59
 70
     0
102
RTVSPropertyOp60
 70
     0
102
RTVSPropertyOp61
 70
     0
102
RTVSPropertyOp62
 70
     0
  0
XRECORD
  5
A4B1
102
{ACAD_REACTORS
330
A4B0
102
}
330
A4B0
100
AcDbXrecord
280
     1
102
RTVSPost2010Prop28
280
     0
102
RTVSPost2010PropOp28
 70
     1
102
RTVSPost2010Prop29
280
     1
102
RTVSPost2010PropOp29
 70
     1
102
RTVSPost2010Prop30
280
     1
102
RTVSPost2010PropOp30
 70
     1
102
RTVSPost2010Prop31
280
     0
102
RTVSPost2010PropOp31
 70
     1
102
RTVSPost2010Prop32
280
     0
102
RTVSPost2010PropOp32
 70
     1
102
RTVSPost2010Prop33
280
     0
102
RTVSPost2010PropOp33
 70
     1
102
RTVSPost2010Prop34
280
     0
102
RTVSPost2010PropOp34
 70
     1
102
RTVSPost2010Prop35
280
     0
102
RTVSPost2010PropOp35
 70
     1
102
RTVSPost2010Prop36
280
     0
102
RTVSPost2010PropOp36
 70
     1
102
RTVSPost2010Prop37
 90
       50
102
RTVSPost2010PropOp37
 70
     1
102
RTVSPost2010Prop38
140
0.0
102
RTVSPost2010PropOp38
 70
     1
102
RTVSPost2010Prop39
140
1.0
102
RTVSPost2010PropOp39
 70
     1
102
RTVSPost2010Prop40
 90
        0
102
RTVSPost2010PropOp40
 70
     1
102
RTVSPost2010Prop41ColorIndex
 90
       18
102
RTVSPost2010Prop41ColorRGB
 90
        0
102
RTVSPost2010PropOp41
 70
     1
102
RTVSPost2010Prop42
 90
       50
102
RTVSPost2010PropOp42
 70
     1
102
RTVSPost2010Prop43
 90
        3
102
RTVSPost2010PropOp43
 70
     1
102
RTVSPost2010Prop44ColorIndex
 90
        5
102
RTVSPost2010Prop44ColorRGB
 90
      255
102
RTVSPost2010PropOp44
 70
     1
102
RTVSPost2010Prop45
280
     0
102
RTVSPost2010PropOp45
 70
     1
102
RTVSPost2010Prop46
 90
       50
102
RTVSPost2010PropOp46
 70
     1
102
RTVSPost2010Prop47
 90
       50
102
RTVSPost2010PropOp47
 70
     1
102
RTVSPost2010Prop48
 90
       50
102
RTVSPost2010PropOp48
 70
     1
102
RTVSPost2010Prop49
280
     0
102
RTVSPost2010PropOp49
 70
     1
102
RTVSPost2010Prop50
 90
       50
102
RTVSPost2010PropOp50
 70
     1
102
RTVSPost2010Prop51ColorIndex
 90
      256
102
RTVSPost2010Prop51ColorRGB
 90
-16777216
102
RTVSPost2010PropOp51
 70
     0
102
RTVSPost2010Prop52
140
1.0
102
RTVSPost2010PropOp52
 70
     0
102
RTVSPost2010Prop53
 90
        2
102
RTVSPost2010PropOp53
 70
     1
102
RTVSPost2010Prop54
  1
strokes_ogs.tif
102
RTVSPost2010PropOp54
 70
     1
102
RTVSPost2010Prop55
280
     0
102
RTVSPost2010PropOp55
 70
     1
102
RTVSPost2010Prop56
140
1.0
102
RTVSPost2010PropOp56
 70
     1
102
RTVSPost2010Prop57
140
1.0
102
RTVSPost2010PropOp57
 70
     1
102
RTVSPropertyOp0
 70
     1
102
RTVSPropertyOp1
 70
     1
102
RTVSPropertyOp2
 70
     1
102
RTVSPropertyOp3
 70
     1
102
RTVSPropertyOp4
 70
     1
102
RTVSPropertyOp5
 70
     1
102
RTVSPropertyOp6
 70
     1
102
RTVSPropertyOp7
 70
     1
102
RTVSPropertyOp8
 70
     1
102
RTVSPropertyOp9
 70
     1
102
RTVSPropertyOp10
 70
     1
102
RTVSPropertyOp11
 70
     1
102
RTVSPropertyOp12
 70
     1
102
RTVSPropertyOp13
 70
     1
102
RTVSPropertyOp14
 70
     1
102
RTVSPropertyOp15
 70
     1
102
RTVSPropertyOp16
 70
     1
102
RTVSPropertyOp17
 70
     1
102
RTVSPropertyOp18
 70
     1
102
RTVSPropertyOp19
 70
     1
102
RTVSPropertyOp20
 70
     1
102
RTVSPropertyOp21
 70
     1
102
RTVSPropertyOp22
 70
     1
102
RTVSPropertyOp23
 70
     1
102
RTVSPropertyOp24
 70
     1
102
RTVSPropertyOp25
 70
     1
102
RTVSPropertyOp26
 70
     1
102
RTVSPropertyOp27
 70
     1
102
RTVSPropertyOp28
 70
     1
102
RTVSPropertyOp29
 70
     1
102
RTVSPropertyOp30
 70
     1
102
RTVSPropertyOp31
 70
     1
102
RTVSPropertyOp32
 70
     1
102
RTVSPropertyOp33
 70
     1
102
RTVSPropertyOp34
 70
     1
102
RTVSPropertyOp35
 70
     1
102
RTVSPropertyOp36
 70
     1
102
RTVSPropertyOp37
 70
     1
102
RTVSPropertyOp38
 70
     1
102
RTVSPropertyOp39
 70
     1
102
RTVSPropertyOp40
 70
     1
102
RTVSPropertyOp41
 70
     1
102
RTVSPropertyOp42
 70
     1
102
RTVSPropertyOp43
 70
     1
102
RTVSPropertyOp44
 70
     1
102
RTVSPropertyOp45
 70
     1
102
RTVSPropertyOp46
 70
     1
102
RTVSPropertyOp47
 70
     1
102
RTVSPropertyOp48
 70
     1
102
RTVSPropertyOp49
 70
     1
102
RTVSPropertyOp50
 70
     1
102
RTVSPropertyOp51
 70
     0
102
RTVSPropertyOp52
 70
     0
102
RTVSPropertyOp53
 70
     1
102
RTVSPropertyOp54
 70
     1
102
RTVSPropertyOp55
 70
     1
102
RTVSPropertyOp56
 70
     1
102
RTVSPropertyOp57
 70
     1
102
RTVSPropertyOp58
 70
     1
102
RTVSPropertyOp59
 70
     1
102
RTVSPropertyOp60
 70
     1
102
RTVSPropertyOp61
 70
     1
102
RTVSPropertyOp62
 70
     1
  0
XRECORD
  5
A495
102
{ACAD_REACTORS
330
A494
102
}
330
A494
100
AcDbXrecord
280
     1
102
RTVSPost2010Prop28
280
     0
102
RTVSPost2010PropOp28
 70
     1
102
RTVSPost2010Prop29
280
     1
102
RTVSPost2010PropOp29
 70
     1
102
RTVSPost2010Prop30
280
     1
102
RTVSPost2010PropOp30
 70
     1
102
RTVSPost2010Prop31
280
     0
102
RTVSPost2010PropOp31
 70
     1
102
RTVSPost2010Prop32
280
     0
102
RTVSPost2010PropOp32
 70
     1
102
RTVSPost2010Prop33
280
     0
102
RTVSPost2010PropOp33
 70
     1
102
RTVSPost2010Prop34
280
     0
102
RTVSPost2010PropOp34
 70
     1
102
RTVSPost2010Prop35
280
     0
102
RTVSPost2010PropOp35
 70
     1
102
RTVSPost2010Prop36
280
     0
102
RTVSPost2010PropOp36
 70
     1
102
RTVSPost2010Prop37
 90
       50
102
RTVSPost2010PropOp37
 70
     1
102
RTVSPost2010Prop38
140
0.0
102
RTVSPost2010PropOp38
 70
     1
102
RTVSPost2010Prop39
140
1.0
102
RTVSPost2010PropOp39
 70
     1
102
RTVSPost2010Prop40
 90
        0
102
RTVSPost2010PropOp40
 70
     1
102
RTVSPost2010Prop41ColorIndex
 90
       18
102
RTVSPost2010Prop41ColorRGB
 90
        0
102
RTVSPost2010PropOp41
 70
     1
102
RTVSPost2010Prop42
 90
       50
102
RTVSPost2010PropOp42
 70
     1
102
RTVSPost2010Prop43
 90
        3
102
RTVSPost2010PropOp43
 70
     1
102
RTVSPost2010Prop44ColorIndex
 90
        5
102
RTVSPost2010Prop44ColorRGB
 90
      255
102
RTVSPost2010PropOp44
 70
     1
102
RTVSPost2010Prop45
280
     0
102
RTVSPost2010PropOp45
 70
     1
102
RTVSPost2010Prop46
 90
       50
102
RTVSPost2010PropOp46
 70
     1
102
RTVSPost2010Prop47
 90
       50
102
RTVSPost2010PropOp47
 70
     1
102
RTVSPost2010Prop48
 90
       50
102
RTVSPost2010PropOp48
 70
     1
102
RTVSPost2010Prop49
280
     0
102
RTVSPost2010PropOp49
 70
     1
102
RTVSPost2010Prop50
 90
       50
102
RTVSPost2010PropOp50
 70
     1
102
RTVSPost2010Prop51ColorIndex
 90
      256
102
RTVSPost2010Prop51ColorRGB
 90
-16777216
102
RTVSPost2010PropOp51
 70
     0
102
RTVSPost2010Prop52
140
1.0
102
RTVSPost2010PropOp52
 70
     0
102
RTVSPost2010Prop53
 90
        2
102
RTVSPost2010PropOp53
 70
     1
102
RTVSPost2010Prop54
  1
strokes_ogs.tif
102
RTVSPost2010PropOp54
 70
     1
102
RTVSPost2010Prop55
280
     0
102
RTVSPost2010PropOp55
 70
     1
102
RTVSPost2010Prop56
140
1.0
102
RTVSPost2010PropOp56
 70
     1
102
RTVSPost2010Prop57
140
1.0
102
RTVSPost2010PropOp57
 70
     1
102
RTVSPropertyOp0
 70
     1
102
RTVSPropertyOp1
 70
     1
102
RTVSPropertyOp2
 70
     1
102
RTVSPropertyOp3
 70
     1
102
RTVSPropertyOp4
 70
     1
102
RTVSPropertyOp5
 70
     1
102
RTVSPropertyOp6
 70
     1
102
RTVSPropertyOp7
 70
     1
102
RTVSPropertyOp8
 70
     1
102
RTVSPropertyOp9
 70
     1
102
RTVSPropertyOp10
 70
     1
102
RTVSPropertyOp11
 70
     1
102
RTVSPropertyOp12
 70
     1
102
RTVSPropertyOp13
 70
     1
102
RTVSPropertyOp14
 70
     1
102
RTVSPropertyOp15
 70
     1
102
RTVSPropertyOp16
 70
     1
102
RTVSPropertyOp17
 70
     1
102
RTVSPropertyOp18
 70
     1
102
RTVSPropertyOp19
 70
     1
102
RTVSPropertyOp20
 70
     1
102
RTVSPropertyOp21
 70
     1
102
RTVSPropertyOp22
 70
     1
102
RTVSPropertyOp23
 70
     1
102
RTVSPropertyOp24
 70
     1
102
RTVSPropertyOp25
 70
     1
102
RTVSPropertyOp26
 70
     1
102
RTVSPropertyOp27
 70
     1
102
RTVSPropertyOp28
 70
     1
102
RTVSPropertyOp29
 70
     1
102
RTVSPropertyOp30
 70
     1
102
RTVSPropertyOp31
 70
     1
102
RTVSPropertyOp32
 70
     1
102
RTVSPropertyOp33
 70
     1
102
RTVSPropertyOp34
 70
     1
102
RTVSPropertyOp35
 70
     1
102
RTVSPropertyOp36
 70
     1
102
RTVSPropertyOp37
 70
     1
102
RTVSPropertyOp38
 70
     1
102
RTVSPropertyOp39
 70
     1
102
RTVSPropertyOp40
 70
     1
102
RTVSPropertyOp41
 70
     1
102
RTVSPropertyOp42
 70
     1
102
RTVSPropertyOp43
 70
     1
102
RTVSPropertyOp44
 70
     1
102
RTVSPropertyOp45
 70
     1
102
RTVSPropertyOp46
 70
     1
102
RTVSPropertyOp47
 70
     1
102
RTVSPropertyOp48
 70
     1
102
RTVSPropertyOp49
 70
     1
102
RTVSPropertyOp50
 70
     1
102
RTVSPropertyOp51
 70
     0
102
RTVSPropertyOp52
 70
     0
102
RTVSPropertyOp53
 70
     1
102
RTVSPropertyOp54
 70
     1
102
RTVSPropertyOp55
 70
     1
102
RTVSPropertyOp56
 70
     1
102
RTVSPropertyOp57
 70
     1
102
RTVSPropertyOp58
 70
     1
102
RTVSPropertyOp59
 70
     1
102
RTVSPropertyOp60
 70
     1
102
RTVSPropertyOp61
 70
     1
102
RTVSPropertyOp62
 70
     1
  0
XRECORD
  5
A497
102
{ACAD_REACTORS
330
A496
102
}
330
A496
100
AcDbXrecord
280
     1
102
RTVSPost2010Prop28
280
     0
102
RTVSPost2010PropOp28
 70
     1
102
RTVSPost2010Prop29
280
     1
102
RTVSPost2010PropOp29
 70
     1
102
RTVSPost2010Prop30
280
     1
102
RTVSPost2010PropOp30
 70
     1
102
RTVSPost2010Prop31
280
     0
102
RTVSPost2010PropOp31
 70
     1
102
RTVSPost2010Prop32
280
     0
102
RTVSPost2010PropOp32
 70
     1
102
RTVSPost2010Prop33
280
     0
102
RTVSPost2010PropOp33
 70
     1
102
RTVSPost2010Prop34
280
     0
102
RTVSPost2010PropOp34
 70
     1
102
RTVSPost2010Prop35
280
     0
102
RTVSPost2010PropOp35
 70
     1
102
RTVSPost2010Prop36
280
     0
102
RTVSPost2010PropOp36
 70
     1
102
RTVSPost2010Prop37
 90
       50
102
RTVSPost2010PropOp37
 70
     1
102
RTVSPost2010Prop38
140
0.0
102
RTVSPost2010PropOp38
 70
     1
102
RTVSPost2010Prop39
140
1.0
102
RTVSPost2010PropOp39
 70
     1
102
RTVSPost2010Prop40
 90
        0
102
RTVSPost2010PropOp40
 70
     1
102
RTVSPost2010Prop41ColorIndex
 90
       18
102
RTVSPost2010Prop41ColorRGB
 90
        0
102
RTVSPost2010PropOp41
 70
     1
102
RTVSPost2010Prop42
 90
       50
102
RTVSPost2010PropOp42
 70
     1
102
RTVSPost2010Prop43
 90
        3
102
RTVSPost2010PropOp43
 70
     1
102
RTVSPost2010Prop44ColorIndex
 90
        5
102
RTVSPost2010Prop44ColorRGB
 90
      255
102
RTVSPost2010PropOp44
 70
     1
102
RTVSPost2010Prop45
280
     0
102
RTVSPost2010PropOp45
 70
     1
102
RTVSPost2010Prop46
 90
       50
102
RTVSPost2010PropOp46
 70
     1
102
RTVSPost2010Prop47
 90
       50
102
RTVSPost2010PropOp47
 70
     1
102
RTVSPost2010Prop48
 90
       50
102
RTVSPost2010PropOp48
 70
     1
102
RTVSPost2010Prop49
280
     0
102
RTVSPost2010PropOp49
 70
     1
102
RTVSPost2010Prop50
 90
       50
102
RTVSPost2010PropOp50
 70
     1
102
RTVSPost2010Prop51ColorIndex
 90
      256
102
RTVSPost2010Prop51ColorRGB
 90
-16777216
102
RTVSPost2010PropOp51
 70
     0
102
RTVSPost2010Prop52
140
1.0
102
RTVSPost2010PropOp52
 70
     0
102
RTVSPost2010Prop53
 90
        2
102
RTVSPost2010PropOp53
 70
     1
102
RTVSPost2010Prop54
  1
strokes_ogs.tif
102
RTVSPost2010PropOp54
 70
     1
102
RTVSPost2010Prop55
280
     0
102
RTVSPost2010PropOp55
 70
     1
102
RTVSPost2010Prop56
140
1.0
102
RTVSPost2010PropOp56
 70
     1
102
RTVSPost2010Prop57
140
1.0
102
RTVSPost2010PropOp57
 70
     1
102
RTVSPropertyOp0
 70
     1
102
RTVSPropertyOp1
 70
     1
102
RTVSPropertyOp2
 70
     1
102
RTVSPropertyOp3
 70
     1
102
RTVSPropertyOp4
 70
     1
102
RTVSPropertyOp5
 70
     1
102
RTVSPropertyOp6
 70
     1
102
RTVSPropertyOp7
 70
     1
102
RTVSPropertyOp8
 70
     1
102
RTVSPropertyOp9
 70
     1
102
RTVSPropertyOp10
 70
     1
102
RTVSPropertyOp11
 70
     1
102
RTVSPropertyOp12
 70
     1
102
RTVSPropertyOp13
 70
     1
102
RTVSPropertyOp14
 70
     1
102
RTVSPropertyOp15
 70
     1
102
RTVSPropertyOp16
 70
     1
102
RTVSPropertyOp17
 70
     1
102
RTVSPropertyOp18
 70
     1
102
RTVSPropertyOp19
 70
     1
102
RTVSPropertyOp20
 70
     1
102
RTVSPropertyOp21
 70
     1
102
RTVSPropertyOp22
 70
     1
102
RTVSPropertyOp23
 70
     1
102
RTVSPropertyOp24
 70
     1
102
RTVSPropertyOp25
 70
     1
102
RTVSPropertyOp26
 70
     1
102
RTVSPropertyOp27
 70
     1
102
RTVSPropertyOp28
 70
     1
102
RTVSPropertyOp29
 70
     1
102
RTVSPropertyOp30
 70
     1
102
RTVSPropertyOp31
 70
     1
102
RTVSPropertyOp32
 70
     1
102
RTVSPropertyOp33
 70
     1
102
RTVSPropertyOp34
 70
     1
102
RTVSPropertyOp35
 70
     1
102
RTVSPropertyOp36
 70
     1
102
RTVSPropertyOp37
 70
     1
102
RTVSPropertyOp38
 70
     1
102
RTVSPropertyOp39
 70
     1
102
RTVSPropertyOp40
 70
     1
102
RTVSPropertyOp41
 70
     1
102
RTVSPropertyOp42
 70
     1
102
RTVSPropertyOp43
 70
     1
102
RTVSPropertyOp44
 70
     1
102
RTVSPropertyOp45
 70
     1
102
RTVSPropertyOp46
 70
     1
102
RTVSPropertyOp47
 70
     1
102
RTVSPropertyOp48
 70
     1
102
RTVSPropertyOp49
 70
     1
102
RTVSPropertyOp50
 70
     1
102
RTVSPropertyOp51
 70
     0
102
RTVSPropertyOp52
 70
     0
102
RTVSPropertyOp53
 70
     1
102
RTVSPropertyOp54
 70
     1
102
RTVSPropertyOp55
 70
     1
102
RTVSPropertyOp56
 70
     1
102
RTVSPropertyOp57
 70
     1
102
RTVSPropertyOp58
 70
     1
102
RTVSPropertyOp59
 70
     1
102
RTVSPropertyOp60
 70
     1
102
RTVSPropertyOp61
 70
     1
102
RTVSPropertyOp62
 70
     1
  0
XRECORD
  5
A499
102
{ACAD_REACTORS
330
A498
102
}
330
A498
100
AcDbXrecord
280
     1
102
RTVSPost2010Prop28
280
     0
102
RTVSPost2010PropOp28
 70
     1
102
RTVSPost2010Prop29
280
     1
102
RTVSPost2010PropOp29
 70
     1
102
RTVSPost2010Prop30
280
     1
102
RTVSPost2010PropOp30
 70
     1
102
RTVSPost2010Prop31
280
     0
102
RTVSPost2010PropOp31
 70
     1
102
RTVSPost2010Prop32
280
     0
102
RTVSPost2010PropOp32
 70
     1
102
RTVSPost2010Prop33
280
     0
102
RTVSPost2010PropOp33
 70
     1
102
RTVSPost2010Prop34
280
     0
102
RTVSPost2010PropOp34
 70
     1
102
RTVSPost2010Prop35
280
     0
102
RTVSPost2010PropOp35
 70
     1
102
RTVSPost2010Prop36
280
     0
102
RTVSPost2010PropOp36
 70
     1
102
RTVSPost2010Prop37
 90
       50
102
RTVSPost2010PropOp37
 70
     1
102
RTVSPost2010Prop38
140
0.0
102
RTVSPost2010PropOp38
 70
     1
102
RTVSPost2010Prop39
140
1.0
102
RTVSPost2010PropOp39
 70
     1
102
RTVSPost2010Prop40
 90
        0
102
RTVSPost2010PropOp40
 70
     1
102
RTVSPost2010Prop41ColorIndex
 90
       18
102
RTVSPost2010Prop41ColorRGB
 90
        0
102
RTVSPost2010PropOp41
 70
     1
102
RTVSPost2010Prop42
 90
       50
102
RTVSPost2010PropOp42
 70
     1
102
RTVSPost2010Prop43
 90
        3
102
RTVSPost2010PropOp43
 70
     1
102
RTVSPost2010Prop44ColorIndex
 90
        5
102
RTVSPost2010Prop44ColorRGB
 90
      255
102
RTVSPost2010PropOp44
 70
     1
102
RTVSPost2010Prop45
280
     0
102
RTVSPost2010PropOp45
 70
     1
102
RTVSPost2010Prop46
 90
       50
102
RTVSPost2010PropOp46
 70
     1
102
RTVSPost2010Prop47
 90
       50
102
RTVSPost2010PropOp47
 70
     1
102
RTVSPost2010Prop48
 90
       50
102
RTVSPost2010PropOp48
 70
     1
102
RTVSPost2010Prop49
280
     0
102
RTVSPost2010PropOp49
 70
     1
102
RTVSPost2010Prop50
 90
       50
102
RTVSPost2010PropOp50
 70
     1
102
RTVSPost2010Prop51ColorIndex
 90
      256
102
RTVSPost2010Prop51ColorRGB
 90
-16777216
102
RTVSPost2010PropOp51
 70
     0
102
RTVSPost2010Prop52
140
1.0
102
RTVSPost2010PropOp52
 70
     0
102
RTVSPost2010Prop53
 90
        2
102
RTVSPost2010PropOp53
 70
     1
102
RTVSPost2010Prop54
  1
strokes_ogs.tif
102
RTVSPost2010PropOp54
 70
     1
102
RTVSPost2010Prop55
280
     0
102
RTVSPost2010PropOp55
 70
     1
102
RTVSPost2010Prop56
140
1.0
102
RTVSPost2010PropOp56
 70
     1
102
RTVSPost2010Prop57
140
1.0
102
RTVSPost2010PropOp57
 70
     1
102
RTVSPropertyOp0
 70
     1
102
RTVSPropertyOp1
 70
     1
102
RTVSPropertyOp2
 70
     1
102
RTVSPropertyOp3
 70
     1
102
RTVSPropertyOp4
 70
     1
102
RTVSPropertyOp5
 70
     1
102
RTVSPropertyOp6
 70
     1
102
RTVSPropertyOp7
 70
     1
102
RTVSPropertyOp8
 70
     1
102
RTVSPropertyOp9
 70
     1
102
RTVSPropertyOp10
 70
     1
102
RTVSPropertyOp11
 70
     1
102
RTVSPropertyOp12
 70
     1
102
RTVSPropertyOp13
 70
     1
102
RTVSPropertyOp14
 70
     1
102
RTVSPropertyOp15
 70
     1
102
RTVSPropertyOp16
 70
     1
102
RTVSPropertyOp17
 70
     1
102
RTVSPropertyOp18
 70
     1
102
RTVSPropertyOp19
 70
     1
102
RTVSPropertyOp20
 70
     1
102
RTVSPropertyOp21
 70
     1
102
RTVSPropertyOp22
 70
     1
102
RTVSPropertyOp23
 70
     1
102
RTVSPropertyOp24
 70
     1
102
RTVSPropertyOp25
 70
     1
102
RTVSPropertyOp26
 70
     1
102
RTVSPropertyOp27
 70
     1
102
RTVSPropertyOp28
 70
     1
102
RTVSPropertyOp29
 70
     1
102
RTVSPropertyOp30
 70
     1
102
RTVSPropertyOp31
 70
     1
102
RTVSPropertyOp32
 70
     1
102
RTVSPropertyOp33
 70
     1
102
RTVSPropertyOp34
 70
     1
102
RTVSPropertyOp35
 70
     1
102
RTVSPropertyOp36
 70
     1
102
RTVSPropertyOp37
 70
     1
102
RTVSPropertyOp38
 70
     1
102
RTVSPropertyOp39
 70
     1
102
RTVSPropertyOp40
 70
     1
102
RTVSPropertyOp41
 70
     1
102
RTVSPropertyOp42
 70
     1
102
RTVSPropertyOp43
 70
     1
102
RTVSPropertyOp44
 70
     1
102
RTVSPropertyOp45
 70
     1
102
RTVSPropertyOp46
 70
     1
102
RTVSPropertyOp47
 70
     1
102
RTVSPropertyOp48
 70
     1
102
RTVSPropertyOp49
 70
     1
102
RTVSPropertyOp50
 70
     1
102
RTVSPropertyOp51
 70
     0
102
RTVSPropertyOp52
 70
     0
102
RTVSPropertyOp53
 70
     1
102
RTVSPropertyOp54
 70
     1
102
RTVSPropertyOp55
 70
     1
102
RTVSPropertyOp56
 70
     1
102
RTVSPropertyOp57
 70
     1
102
RTVSPropertyOp58
 70
     1
102
RTVSPropertyOp59
 70
     1
102
RTVSPropertyOp60
 70
     1
102
RTVSPropertyOp61
 70
     1
102
RTVSPropertyOp62
 70
     1
  0
XRECORD
  5
A49B
102
{ACAD_REACTORS
330
A49A
102
}
330
A49A
100
AcDbXrecord
280
     1
102
RTVSPost2010Prop28
280
     0
102
RTVSPost2010PropOp28
 70
     1
102
RTVSPost2010Prop29
280
     1
102
RTVSPost2010PropOp29
 70
     1
102
RTVSPost2010Prop30
280
     1
102
RTVSPost2010PropOp30
 70
     1
102
RTVSPost2010Prop31
280
     0
102
RTVSPost2010PropOp31
 70
     1
102
RTVSPost2010Prop32
280
     0
102
RTVSPost2010PropOp32
 70
     1
102
RTVSPost2010Prop33
280
     0
102
RTVSPost2010PropOp33
 70
     1
102
RTVSPost2010Prop34
280
     0
102
RTVSPost2010PropOp34
 70
     1
102
RTVSPost2010Prop35
280
     0
102
RTVSPost2010PropOp35
 70
     1
102
RTVSPost2010Prop36
280
     0
102
RTVSPost2010PropOp36
 70
     1
102
RTVSPost2010Prop37
 90
       50
102
RTVSPost2010PropOp37
 70
     1
102
RTVSPost2010Prop38
140
0.0
102
RTVSPost2010PropOp38
 70
     1
102
RTVSPost2010Prop39
140
1.0
102
RTVSPost2010PropOp39
 70
     1
102
RTVSPost2010Prop40
 90
        0
102
RTVSPost2010PropOp40
 70
     1
102
RTVSPost2010Prop41ColorIndex
 90
       18
102
RTVSPost2010Prop41ColorRGB
 90
        0
102
RTVSPost2010PropOp41
 70
     1
102
RTVSPost2010Prop42
 90
       50
102
RTVSPost2010PropOp42
 70
     1
102
RTVSPost2010Prop43
 90
        3
102
RTVSPost2010PropOp43
 70
     1
102
RTVSPost2010Prop44ColorIndex
 90
        5
102
RTVSPost2010Prop44ColorRGB
 90
      255
102
RTVSPost2010PropOp44
 70
     1
102
RTVSPost2010Prop45
280
     0
102
RTVSPost2010PropOp45
 70
     1
102
RTVSPost2010Prop46
 90
       50
102
RTVSPost2010PropOp46
 70
     1
102
RTVSPost2010Prop47
 90
       50
102
RTVSPost2010PropOp47
 70
     1
102
RTVSPost2010Prop48
 90
       50
102
RTVSPost2010PropOp48
 70
     1
102
RTVSPost2010Prop49
280
     0
102
RTVSPost2010PropOp49
 70
     1
102
RTVSPost2010Prop50
 90
       50
102
RTVSPost2010PropOp50
 70
     1
102
RTVSPost2010Prop51ColorIndex
 90
      256
102
RTVSPost2010Prop51ColorRGB
 90
-16777216
102
RTVSPost2010PropOp51
 70
     0
102
RTVSPost2010Prop52
140
1.0
102
RTVSPost2010PropOp52
 70
     0
102
RTVSPost2010Prop53
 90
        2
102
RTVSPost2010PropOp53
 70
     1
102
RTVSPost2010Prop54
  1
strokes_ogs.tif
102
RTVSPost2010PropOp54
 70
     1
102
RTVSPost2010Prop55
280
     0
102
RTVSPost2010PropOp55
 70
     1
102
RTVSPost2010Prop56
140
1.0
102
RTVSPost2010PropOp56
 70
     1
102
RTVSPost2010Prop57
140
1.0
102
RTVSPost2010PropOp57
 70
     1
102
RTVSPropertyOp0
 70
     1
102
RTVSPropertyOp1
 70
     1
102
RTVSPropertyOp2
 70
     1
102
RTVSPropertyOp3
 70
     1
102
RTVSPropertyOp4
 70
     1
102
RTVSPropertyOp5
 70
     1
102
RTVSPropertyOp6
 70
     1
102
RTVSPropertyOp7
 70
     1
102
RTVSPropertyOp8
 70
     1
102
RTVSPropertyOp9
 70
     1
102
RTVSPropertyOp10
 70
     1
102
RTVSPropertyOp11
 70
     1
102
RTVSPropertyOp12
 70
     1
102
RTVSPropertyOp13
 70
     1
102
RTVSPropertyOp14
 70
     1
102
RTVSPropertyOp15
 70
     1
102
RTVSPropertyOp16
 70
     1
102
RTVSPropertyOp17
 70
     1
102
RTVSPropertyOp18
 70
     1
102
RTVSPropertyOp19
 70
     1
102
RTVSPropertyOp20
 70
     1
102
RTVSPropertyOp21
 70
     1
102
RTVSPropertyOp22
 70
     1
102
RTVSPropertyOp23
 70
     1
102
RTVSPropertyOp24
 70
     1
102
RTVSPropertyOp25
 70
     1
102
RTVSPropertyOp26
 70
     1
102
RTVSPropertyOp27
 70
     1
102
RTVSPropertyOp28
 70
     1
102
RTVSPropertyOp29
 70
     1
102
RTVSPropertyOp30
 70
     1
102
RTVSPropertyOp31
 70
     1
102
RTVSPropertyOp32
 70
     1
102
RTVSPropertyOp33
 70
     1
102
RTVSPropertyOp34
 70
     1
102
RTVSPropertyOp35
 70
     1
102
RTVSPropertyOp36
 70
     1
102
RTVSPropertyOp37
 70
     1
102
RTVSPropertyOp38
 70
     1
102
RTVSPropertyOp39
 70
     1
102
RTVSPropertyOp40
 70
     1
102
RTVSPropertyOp41
 70
     1
102
RTVSPropertyOp42
 70
     1
102
RTVSPropertyOp43
 70
     1
102
RTVSPropertyOp44
 70
     1
102
RTVSPropertyOp45
 70
     1
102
RTVSPropertyOp46
 70
     1
102
RTVSPropertyOp47
 70
     1
102
RTVSPropertyOp48
 70
     1
102
RTVSPropertyOp49
 70
     1
102
RTVSPropertyOp50
 70
     1
102
RTVSPropertyOp51
 70
     0
102
RTVSPropertyOp52
 70
     0
102
RTVSPropertyOp53
 70
     1
102
RTVSPropertyOp54
 70
     1
102
RTVSPropertyOp55
 70
     1
102
RTVSPropertyOp56
 70
     1
102
RTVSPropertyOp57
 70
     1
102
RTVSPropertyOp58
 70
     1
102
RTVSPropertyOp59
 70
     1
102
RTVSPropertyOp60
 70
     1
102
RTVSPropertyOp61
 70
     1
102
RTVSPropertyOp62
 70
     1
  0
XRECORD
  5
A4A3
102
{ACAD_REACTORS
330
A4A2
102
}
330
A4A2
100
AcDbXrecord
280
     1
102
RTVSPost2010Prop28
280
     0
102
RTVSPost2010PropOp28
 70
     1
102
RTVSPost2010Prop29
280
     1
102
RTVSPost2010PropOp29
 70
     1
102
RTVSPost2010Prop30
280
     1
102
RTVSPost2010PropOp30
 70
     1
102
RTVSPost2010Prop31
280
     0
102
RTVSPost2010PropOp31
 70
     1
102
RTVSPost2010Prop32
280
     0
102
RTVSPost2010PropOp32
 70
     1
102
RTVSPost2010Prop33
280
     0
102
RTVSPost2010PropOp33
 70
     1
102
RTVSPost2010Prop34
280
     0
102
RTVSPost2010PropOp34
 70
     1
102
RTVSPost2010Prop35
280
     0
102
RTVSPost2010PropOp35
 70
     1
102
RTVSPost2010Prop36
280
     0
102
RTVSPost2010PropOp36
 70
     1
102
RTVSPost2010Prop37
 90
       50
102
RTVSPost2010PropOp37
 70
     1
102
RTVSPost2010Prop38
140
0.0
102
RTVSPost2010PropOp38
 70
     1
102
RTVSPost2010Prop39
140
1.0
102
RTVSPost2010PropOp39
 70
     1
102
RTVSPost2010Prop40
 90
        0
102
RTVSPost2010PropOp40
 70
     1
102
RTVSPost2010Prop41ColorIndex
 90
       18
102
RTVSPost2010Prop41ColorRGB
 90
        0
102
RTVSPost2010PropOp41
 70
     1
102
RTVSPost2010Prop42
 90
       50
102
RTVSPost2010PropOp42
 70
     1
102
RTVSPost2010Prop43
 90
        3
102
RTVSPost2010PropOp43
 70
     1
102
RTVSPost2010Prop44ColorIndex
 90
        5
102
RTVSPost2010Prop44ColorRGB
 90
      255
102
RTVSPost2010PropOp44
 70
     1
102
RTVSPost2010Prop45
280
     0
102
RTVSPost2010PropOp45
 70
     1
102
RTVSPost2010Prop46
 90
       50
102
RTVSPost2010PropOp46
 70
     1
102
RTVSPost2010Prop47
 90
       50
102
RTVSPost2010PropOp47
 70
     1
102
RTVSPost2010Prop48
 90
       50
102
RTVSPost2010PropOp48
 70
     1
102
RTVSPost2010Prop49
280
     0
102
RTVSPost2010PropOp49
 70
     1
102
RTVSPost2010Prop50
 90
       50
102
RTVSPost2010PropOp50
 70
     1
102
RTVSPost2010Prop51ColorIndex
 90
      256
102
RTVSPost2010Prop51ColorRGB
 90
-16777216
102
RTVSPost2010PropOp51
 70
     0
102
RTVSPost2010Prop52
140
1.0
102
RTVSPost2010PropOp52
 70
     0
102
RTVSPost2010Prop53
 90
        2
102
RTVSPost2010PropOp53
 70
     1
102
RTVSPost2010Prop54
  1
strokes_ogs.tif
102
RTVSPost2010PropOp54
 70
     1
102
RTVSPost2010Prop55
280
     0
102
RTVSPost2010PropOp55
 70
     1
102
RTVSPost2010Prop56
140
1.0
102
RTVSPost2010PropOp56
 70
     1
102
RTVSPost2010Prop57
140
1.0
102
RTVSPost2010PropOp57
 70
     1
102
RTVSPropertyOp0
 70
     1
102
RTVSPropertyOp1
 70
     1
102
RTVSPropertyOp2
 70
     1
102
RTVSPropertyOp3
 70
     1
102
RTVSPropertyOp4
 70
     1
102
RTVSPropertyOp5
 70
     1
102
RTVSPropertyOp6
 70
     1
102
RTVSPropertyOp7
 70
     1
102
RTVSPropertyOp8
 70
     1
102
RTVSPropertyOp9
 70
     1
102
RTVSPropertyOp10
 70
     1
102
RTVSPropertyOp11
 70
     1
102
RTVSPropertyOp12
 70
     1
102
RTVSPropertyOp13
 70
     1
102
RTVSPropertyOp14
 70
     1
102
RTVSPropertyOp15
 70
     1
102
RTVSPropertyOp16
 70
     1
102
RTVSPropertyOp17
 70
     1
102
RTVSPropertyOp18
 70
     1
102
RTVSPropertyOp19
 70
     1
102
RTVSPropertyOp20
 70
     1
102
RTVSPropertyOp21
 70
     1
102
RTVSPropertyOp22
 70
     1
102
RTVSPropertyOp23
 70
     1
102
RTVSPropertyOp24
 70
     1
102
RTVSPropertyOp25
 70
     1
102
RTVSPropertyOp26
 70
     1
102
RTVSPropertyOp27
 70
     1
102
RTVSPropertyOp28
 70
     1
102
RTVSPropertyOp29
 70
     1
102
RTVSPropertyOp30
 70
     1
102
RTVSPropertyOp31
 70
     1
102
RTVSPropertyOp32
 70
     1
102
RTVSPropertyOp33
 70
     1
102
RTVSPropertyOp34
 70
     1
102
RTVSPropertyOp35
 70
     1
102
RTVSPropertyOp36
 70
     1
102
RTVSPropertyOp37
 70
     1
102
RTVSPropertyOp38
 70
     1
102
RTVSPropertyOp39
 70
     1
102
RTVSPropertyOp40
 70
     1
102
RTVSPropertyOp41
 70
     1
102
RTVSPropertyOp42
 70
     1
102
RTVSPropertyOp43
 70
     1
102
RTVSPropertyOp44
 70
     1
102
RTVSPropertyOp45
 70
     1
102
RTVSPropertyOp46
 70
     1
102
RTVSPropertyOp47
 70
     1
102
RTVSPropertyOp48
 70
     1
102
RTVSPropertyOp49
 70
     1
102
RTVSPropertyOp50
 70
     1
102
RTVSPropertyOp51
 70
     0
102
RTVSPropertyOp52
 70
     0
102
RTVSPropertyOp53
 70
     1
102
RTVSPropertyOp54
 70
     1
102
RTVSPropertyOp55
 70
     1
102
RTVSPropertyOp56
 70
     1
102
RTVSPropertyOp57
 70
     1
102
RTVSPropertyOp58
 70
     1
102
RTVSPropertyOp59
 70
     1
102
RTVSPropertyOp60
 70
     1
102
RTVSPropertyOp61
 70
     1
102
RTVSPropertyOp62
 70
     1
  0
XRECORD
  5
A4BF
102
{ACAD_REACTORS
330
A4BE
102
}
330
A4BE
100
AcDbXrecord
280
     1
102
RTVSPost2010Prop28
280
     0
102
RTVSPost2010PropOp28
 70
     1
102
RTVSPost2010Prop29
280
     1
102
RTVSPost2010PropOp29
 70
     1
102
RTVSPost2010Prop30
280
     1
102
RTVSPost2010PropOp30
 70
     1
102
RTVSPost2010Prop31
280
     0
102
RTVSPost2010PropOp31
 70
     1
102
RTVSPost2010Prop32
280
     0
102
RTVSPost2010PropOp32
 70
     1
102
RTVSPost2010Prop33
280
     0
102
RTVSPost2010PropOp33
 70
     1
102
RTVSPost2010Prop34
280
     0
102
RTVSPost2010PropOp34
 70
     1
102
RTVSPost2010Prop35
280
     0
102
RTVSPost2010PropOp35
 70
     1
102
RTVSPost2010Prop36
280
     0
102
RTVSPost2010PropOp36
 70
     1
102
RTVSPost2010Prop37
 90
       50
102
RTVSPost2010PropOp37
 70
     0
102
RTVSPost2010Prop38
140
0.0
102
RTVSPost2010PropOp38
 70
     0
102
RTVSPost2010Prop39
140
1.0
102
RTVSPost2010PropOp39
 70
     0
102
RTVSPost2010Prop40
 90
        0
102
RTVSPost2010PropOp40
 70
     0
102
RTVSPost2010Prop41ColorIndex
 90
       18
102
RTVSPost2010Prop41ColorRGB
 90
        0
102
RTVSPost2010PropOp41
 70
     0
102
RTVSPost2010Prop42
 90
       50
102
RTVSPost2010PropOp42
 70
     0
102
RTVSPost2010Prop43
 90
        3
102
RTVSPost2010PropOp43
 70
     0
102
RTVSPost2010Prop44ColorIndex
 90
        5
102
RTVSPost2010Prop44ColorRGB
 90
      255
102
RTVSPost2010PropOp44
 70
     0
102
RTVSPost2010Prop45
280
     0
102
RTVSPost2010PropOp45
 70
     1
102
RTVSPost2010Prop46
 90
       50
102
RTVSPost2010PropOp46
 70
     0
102
RTVSPost2010Prop47
 90
       50
102
RTVSPost2010PropOp47
 70
     0
102
RTVSPost2010Prop48
 90
       50
102
RTVSPost2010PropOp48
 70
     0
102
RTVSPost2010Prop49
280
     0
102
RTVSPost2010PropOp49
 70
     1
102
RTVSPost2010Prop50
 90
       50
102
RTVSPost2010PropOp50
 70
     0
102
RTVSPost2010Prop51ColorIndex
 90
      256
102
RTVSPost2010Prop51ColorRGB
 90
-16777216
102
RTVSPost2010PropOp51
 70
     0
102
RTVSPost2010Prop52
140
1.0
102
RTVSPost2010PropOp52
 70
     0
102
RTVSPost2010Prop53
 90
        2
102
RTVSPost2010PropOp53
 70
     0
102
RTVSPost2010Prop54
  1
strokes_ogs.tif
102
RTVSPost2010PropOp54
 70
     0
102
RTVSPost2010Prop55
280
     0
102
RTVSPost2010PropOp55
 70
     1
102
RTVSPost2010Prop56
140
1.0
102
RTVSPost2010PropOp56
 70
     0
102
RTVSPost2010Prop57
140
1.0
102
RTVSPost2010PropOp57
 70
     0
102
RTVSPropertyOp0
 70
     0
102
RTVSPropertyOp1
 70
     0
102
RTVSPropertyOp2
 70
     0
102
RTVSPropertyOp3
 70
     0
102
RTVSPropertyOp4
 70
     0
102
RTVSPropertyOp5
 70
     0
102
RTVSPropertyOp6
 70
     0
102
RTVSPropertyOp7
 70
     0
102
RTVSPropertyOp8
 70
     0
102
RTVSPropertyOp9
 70
     0
102
RTVSPropertyOp10
 70
     0
102
RTVSPropertyOp11
 70
     0
102
RTVSPropertyOp12
 70
     0
102
RTVSPropertyOp13
 70
     0
102
RTVSPropertyOp14
 70
     2
102
RTVSPropertyOp15
 70
     0
102
RTVSPropertyOp16
 70
     0
102
RTVSPropertyOp17
 70
     0
102
RTVSPropertyOp18
 70
     0
102
RTVSPropertyOp19
 70
     0
102
RTVSPropertyOp20
 70
     0
102
RTVSPropertyOp21
 70
     0
102
RTVSPropertyOp22
 70
     0
102
RTVSPropertyOp23
 70
     0
102
RTVSPropertyOp24
 70
     0
102
RTVSPropertyOp25
 70
     0
102
RTVSPropertyOp26
 70
     0
102
RTVSPropertyOp27
 70
     0
102
RTVSPropertyOp28
 70
     1
102
RTVSPropertyOp29
 70
     1
102
RTVSPropertyOp30
 70
     1
102
RTVSPropertyOp31
 70
     1
102
RTVSPropertyOp32
 70
     1
102
RTVSPropertyOp33
 70
     1
102
RTVSPropertyOp34
 70
     1
102
RTVSPropertyOp35
 70
     1
102
RTVSPropertyOp36
 70
     1
102
RTVSPropertyOp37
 70
     0
102
RTVSPropertyOp38
 70
     0
102
RTVSPropertyOp39
 70
     0
102
RTVSPropertyOp40
 70
     0
102
RTVSPropertyOp41
 70
     0
102
RTVSPropertyOp42
 70
     0
102
RTVSPropertyOp43
 70
     0
102
RTVSPropertyOp44
 70
     0
102
RTVSPropertyOp45
 70
     1
102
RTVSPropertyOp46
 70
     0
102
RTVSPropertyOp47
 70
     0
102
RTVSPropertyOp48
 70
     0
102
RTVSPropertyOp49
 70
     1
102
RTVSPropertyOp50
 70
     0
102
RTVSPropertyOp51
 70
     0
102
RTVSPropertyOp52
 70
     0
102
RTVSPropertyOp53
 70
     0
102
RTVSPropertyOp54
 70
     0
102
RTVSPropertyOp55
 70
     1
102
RTVSPropertyOp56
 70
     0
102
RTVSPropertyOp57
 70
     0
102
RTVSPropertyOp58
 70
     0
102
RTVSPropertyOp59
 70
     0
102
RTVSPropertyOp60
 70
     0
102
RTVSPropertyOp61
 70
     0
102
RTVSPropertyOp62
 70
     0
  0
XRECORD
  5
A4AF
102
{ACAD_REACTORS
330
A4AE
102
}
330
A4AE
100
AcDbXrecord
280
     1
102
RTVSPost2010Prop28
280
     0
102
RTVSPost2010PropOp28
 70
     1
102
RTVSPost2010Prop29
280
     1
102
RTVSPost2010PropOp29
 70
     1
102
RTVSPost2010Prop30
280
     1
102
RTVSPost2010PropOp30
 70
     1
102
RTVSPost2010Prop31
280
     0
102
RTVSPost2010PropOp31
 70
     1
102
RTVSPost2010Prop32
280
     0
102
RTVSPost2010PropOp32
 70
     1
102
RTVSPost2010Prop33
280
     0
102
RTVSPost2010PropOp33
 70
     1
102
RTVSPost2010Prop34
280
     0
102
RTVSPost2010PropOp34
 70
     1
102
RTVSPost2010Prop35
280
     0
102
RTVSPost2010PropOp35
 70
     1
102
RTVSPost2010Prop36
280
     0
102
RTVSPost2010PropOp36
 70
     1
102
RTVSPost2010Prop37
 90
       50
102
RTVSPost2010PropOp37
 70
     1
102
RTVSPost2010Prop38
140
0.0
102
RTVSPost2010PropOp38
 70
     1
102
RTVSPost2010Prop39
140
1.0
102
RTVSPost2010PropOp39
 70
     1
102
RTVSPost2010Prop40
 90
        0
102
RTVSPost2010PropOp40
 70
     1
102
RTVSPost2010Prop41ColorIndex
 90
       18
102
RTVSPost2010Prop41ColorRGB
 90
        0
102
RTVSPost2010PropOp41
 70
     1
102
RTVSPost2010Prop42
 90
       50
102
RTVSPost2010PropOp42
 70
     1
102
RTVSPost2010Prop43
 90
        3
102
RTVSPost2010PropOp43
 70
     1
102
RTVSPost2010Prop44ColorIndex
 90
        5
102
RTVSPost2010Prop44ColorRGB
 90
      255
102
RTVSPost2010PropOp44
 70
     1
102
RTVSPost2010Prop45
280
     0
102
RTVSPost2010PropOp45
 70
     1
102
RTVSPost2010Prop46
 90
       50
102
RTVSPost2010PropOp46
 70
     1
102
RTVSPost2010Prop47
 90
       50
102
RTVSPost2010PropOp47
 70
     1
102
RTVSPost2010Prop48
 90
       50
102
RTVSPost2010PropOp48
 70
     1
102
RTVSPost2010Prop49
280
     0
102
RTVSPost2010PropOp49
 70
     1
102
RTVSPost2010Prop50
 90
       50
102
RTVSPost2010PropOp50
 70
     1
102
RTVSPost2010Prop51ColorIndex
 90
      256
102
RTVSPost2010Prop51ColorRGB
 90
-16777216
102
RTVSPost2010PropOp51
 70
     0
102
RTVSPost2010Prop52
140
1.0
102
RTVSPost2010PropOp52
 70
     0
102
RTVSPost2010Prop53
 90
        2
102
RTVSPost2010PropOp53
 70
     1
102
RTVSPost2010Prop54
  1
strokes_ogs.tif
102
RTVSPost2010PropOp54
 70
     1
102
RTVSPost2010Prop55
280
     0
102
RTVSPost2010PropOp55
 70
     1
102
RTVSPost2010Prop56
140
1.0
102
RTVSPost2010PropOp56
 70
     1
102
RTVSPost2010Prop57
140
1.0
102
RTVSPost2010PropOp57
 70
     1
102
RTVSPropertyOp0
 70
     1
102
RTVSPropertyOp1
 70
     1
102
RTVSPropertyOp2
 70
     1
102
RTVSPropertyOp3
 70
     1
102
RTVSPropertyOp4
 70
     1
102
RTVSPropertyOp5
 70
     1
102
RTVSPropertyOp6
 70
     1
102
RTVSPropertyOp7
 70
     1
102
RTVSPropertyOp8
 70
     1
102
RTVSPropertyOp9
 70
     1
102
RTVSPropertyOp10
 70
     1
102
RTVSPropertyOp11
 70
     1
102
RTVSPropertyOp12
 70
     1
102
RTVSPropertyOp13
 70
     1
102
RTVSPropertyOp14
 70
     1
102
RTVSPropertyOp15
 70
     1
102
RTVSPropertyOp16
 70
     1
102
RTVSPropertyOp17
 70
     1
102
RTVSPropertyOp18
 70
     1
102
RTVSPropertyOp19
 70
     1
102
RTVSPropertyOp20
 70
     1
102
RTVSPropertyOp21
 70
     1
102
RTVSPropertyOp22
 70
     1
102
RTVSPropertyOp23
 70
     1
102
RTVSPropertyOp24
 70
     1
102
RTVSPropertyOp25
 70
     1
102
RTVSPropertyOp26
 70
     1
102
RTVSPropertyOp27
 70
     1
102
RTVSPropertyOp28
 70
     1
102
RTVSPropertyOp29
 70
     1
102
RTVSPropertyOp30
 70
     1
102
RTVSPropertyOp31
 70
     1
102
RTVSPropertyOp32
 70
     1
102
RTVSPropertyOp33
 70
     1
102
RTVSPropertyOp34
 70
     1
102
RTVSPropertyOp35
 70
     1
102
RTVSPropertyOp36
 70
     1
102
RTVSPropertyOp37
 70
     1
102
RTVSPropertyOp38
 70
     1
102
RTVSPropertyOp39
 70
     1
102
RTVSPropertyOp40
 70
     1
102
RTVSPropertyOp41
 70
     1
102
RTVSPropertyOp42
 70
     1
102
RTVSPropertyOp43
 70
     1
102
RTVSPropertyOp44
 70
     1
102
RTVSPropertyOp45
 70
     1
102
RTVSPropertyOp46
 70
     1
102
RTVSPropertyOp47
 70
     1
102
RTVSPropertyOp48
 70
     1
102
RTVSPropertyOp49
 70
     1
102
RTVSPropertyOp50
 70
     1
102
RTVSPropertyOp51
 70
     0
102
RTVSPropertyOp52
 70
     0
102
RTVSPropertyOp53
 70
     1
102
RTVSPropertyOp54
 70
     1
102
RTVSPropertyOp55
 70
     1
102
RTVSPropertyOp56
 70
     1
102
RTVSPropertyOp57
 70
     1
102
RTVSPropertyOp58
 70
     1
102
RTVSPropertyOp59
 70
     1
102
RTVSPropertyOp60
 70
     1
102
RTVSPropertyOp61
 70
     1
102
RTVSPropertyOp62
 70
     1
  0
XRECORD
  5
A4C1
102
{ACAD_REACTORS
330
A4C0
102
}
330
A4C0
100
AcDbXrecord
280
     1
102
RTVSPost2010Prop28
280
     0
102
RTVSPost2010PropOp28
 70
     1
102
RTVSPost2010Prop29
280
     1
102
RTVSPost2010PropOp29
 70
     1
102
RTVSPost2010Prop30
280
     1
102
RTVSPost2010PropOp30
 70
     1
102
RTVSPost2010Prop31
280
     0
102
RTVSPost2010PropOp31
 70
     1
102
RTVSPost2010Prop32
280
     0
102
RTVSPost2010PropOp32
 70
     1
102
RTVSPost2010Prop33
280
     0
102
RTVSPost2010PropOp33
 70
     1
102
RTVSPost2010Prop34
280
     0
102
RTVSPost2010PropOp34
 70
     1
102
RTVSPost2010Prop35
280
     0
102
RTVSPost2010PropOp35
 70
     1
102
RTVSPost2010Prop36
280
     0
102
RTVSPost2010PropOp36
 70
     1
102
RTVSPost2010Prop37
 90
       50
102
RTVSPost2010PropOp37
 70
     0
102
RTVSPost2010Prop38
140
0.0
102
RTVSPost2010PropOp38
 70
     0
102
RTVSPost2010Prop39
140
1.0
102
RTVSPost2010PropOp39
 70
     0
102
RTVSPost2010Prop40
 90
        0
102
RTVSPost2010PropOp40
 70
     0
102
RTVSPost2010Prop41ColorIndex
 90
       18
102
RTVSPost2010Prop41ColorRGB
 90
        0
102
RTVSPost2010PropOp41
 70
     0
102
RTVSPost2010Prop42
 90
       50
102
RTVSPost2010PropOp42
 70
     0
102
RTVSPost2010Prop43
 90
        3
102
RTVSPost2010PropOp43
 70
     0
102
RTVSPost2010Prop44ColorIndex
 90
        5
102
RTVSPost2010Prop44ColorRGB
 90
      255
102
RTVSPost2010PropOp44
 70
     0
102
RTVSPost2010Prop45
280
     0
102
RTVSPost2010PropOp45
 70
     1
102
RTVSPost2010Prop46
 90
       50
102
RTVSPost2010PropOp46
 70
     0
102
RTVSPost2010Prop47
 90
       50
102
RTVSPost2010PropOp47
 70
     0
102
RTVSPost2010Prop48
 90
       50
102
RTVSPost2010PropOp48
 70
     0
102
RTVSPost2010Prop49
280
     0
102
RTVSPost2010PropOp49
 70
     1
102
RTVSPost2010Prop50
 90
       50
102
RTVSPost2010PropOp50
 70
     0
102
RTVSPost2010Prop51ColorIndex
 90
      256
102
RTVSPost2010Prop51ColorRGB
 90
-16777216
102
RTVSPost2010PropOp51
 70
     0
102
RTVSPost2010Prop52
140
1.0
102
RTVSPost2010PropOp52
 70
     0
102
RTVSPost2010Prop53
 90
        2
102
RTVSPost2010PropOp53
 70
     0
102
RTVSPost2010Prop54
  1
strokes_ogs.tif
102
RTVSPost2010PropOp54
 70
     0
102
RTVSPost2010Prop55
280
     0
102
RTVSPost2010PropOp55
 70
     1
102
RTVSPost2010Prop56
140
1.0
102
RTVSPost2010PropOp56
 70
     0
102
RTVSPost2010Prop57
140
1.0
102
RTVSPost2010PropOp57
 70
     0
102
RTVSPropertyOp0
 70
     0
102
RTVSPropertyOp1
 70
     0
102
RTVSPropertyOp2
 70
     0
102
RTVSPropertyOp3
 70
     0
102
RTVSPropertyOp4
 70
     0
102
RTVSPropertyOp5
 70
     0
102
RTVSPropertyOp6
 70
     0
102
RTVSPropertyOp7
 70
     0
102
RTVSPropertyOp8
 70
     0
102
RTVSPropertyOp9
 70
     0
102
RTVSPropertyOp10
 70
     0
102
RTVSPropertyOp11
 70
     0
102
RTVSPropertyOp12
 70
     0
102
RTVSPropertyOp13
 70
     0
102
RTVSPropertyOp14
 70
     2
102
RTVSPropertyOp15
 70
     0
102
RTVSPropertyOp16
 70
     0
102
RTVSPropertyOp17
 70
     0
102
RTVSPropertyOp18
 70
     0
102
RTVSPropertyOp19
 70
     0
102
RTVSPropertyOp20
 70
     0
102
RTVSPropertyOp21
 70
     0
102
RTVSPropertyOp22
 70
     0
102
RTVSPropertyOp23
 70
     0
102
RTVSPropertyOp24
 70
     0
102
RTVSPropertyOp25
 70
     0
102
RTVSPropertyOp26
 70
     0
102
RTVSPropertyOp27
 70
     0
102
RTVSPropertyOp28
 70
     1
102
RTVSPropertyOp29
 70
     1
102
RTVSPropertyOp30
 70
     1
102
RTVSPropertyOp31
 70
     1
102
RTVSPropertyOp32
 70
     1
102
RTVSPropertyOp33
 70
     1
102
RTVSPropertyOp34
 70
     1
102
RTVSPropertyOp35
 70
     1
102
RTVSPropertyOp36
 70
     1
102
RTVSPropertyOp37
 70
     0
102
RTVSPropertyOp38
 70
     0
102
RTVSPropertyOp39
 70
     0
102
RTVSPropertyOp40
 70
     0
102
RTVSPropertyOp41
 70
     0
102
RTVSPropertyOp42
 70
     0
102
RTVSPropertyOp43
 70
     0
102
RTVSPropertyOp44
 70
     0
102
RTVSPropertyOp45
 70
     1
102
RTVSPropertyOp46
 70
     0
102
RTVSPropertyOp47
 70
     0
102
RTVSPropertyOp48
 70
     0
102
RTVSPropertyOp49
 70
     1
102
RTVSPropertyOp50
 70
     0
102
RTVSPropertyOp51
 70
     0
102
RTVSPropertyOp52
 70
     0
102
RTVSPropertyOp53
 70
     0
102
RTVSPropertyOp54
 70
     0
102
RTVSPropertyOp55
 70
     1
102
RTVSPropertyOp56
 70
     0
102
RTVSPropertyOp57
 70
     0
102
RTVSPropertyOp58
 70
     0
102
RTVSPropertyOp59
 70
     0
102
RTVSPropertyOp60
 70
     0
102
RTVSPropertyOp61
 70
     0
102
RTVSPropertyOp62
 70
     0
  0
XRECORD
  5
A4A7
102
{ACAD_REACTORS
330
A4A6
102
}
330
A4A6
100
AcDbXrecord
280
     1
102
RTVSPost2010Prop28
280
     0
102
RTVSPost2010PropOp28
 70
     1
102
RTVSPost2010Prop29
280
     1
102
RTVSPost2010PropOp29
 70
     1
102
RTVSPost2010Prop30
280
     1
102
RTVSPost2010PropOp30
 70
     1
102
RTVSPost2010Prop31
280
     0
102
RTVSPost2010PropOp31
 70
     1
102
RTVSPost2010Prop32
280
     0
102
RTVSPost2010PropOp32
 70
     1
102
RTVSPost2010Prop33
280
     0
102
RTVSPost2010PropOp33
 70
     1
102
RTVSPost2010Prop34
280
     0
102
RTVSPost2010PropOp34
 70
     1
102
RTVSPost2010Prop35
280
     0
102
RTVSPost2010PropOp35
 70
     1
102
RTVSPost2010Prop36
280
     0
102
RTVSPost2010PropOp36
 70
     1
102
RTVSPost2010Prop37
 90
       50
102
RTVSPost2010PropOp37
 70
     1
102
RTVSPost2010Prop38
140
0.0
102
RTVSPost2010PropOp38
 70
     1
102
RTVSPost2010Prop39
140
1.0
102
RTVSPost2010PropOp39
 70
     1
102
RTVSPost2010Prop40
 90
        0
102
RTVSPost2010PropOp40
 70
     1
102
RTVSPost2010Prop41ColorIndex
 90
       18
102
RTVSPost2010Prop41ColorRGB
 90
        0
102
RTVSPost2010PropOp41
 70
     1
102
RTVSPost2010Prop42
 90
       50
102
RTVSPost2010PropOp42
 70
     1
102
RTVSPost2010Prop43
 90
        3
102
RTVSPost2010PropOp43
 70
     1
102
RTVSPost2010Prop44ColorIndex
 90
        5
102
RTVSPost2010Prop44ColorRGB
 90
      255
102
RTVSPost2010PropOp44
 70
     1
102
RTVSPost2010Prop45
280
     0
102
RTVSPost2010PropOp45
 70
     1
102
RTVSPost2010Prop46
 90
       50
102
RTVSPost2010PropOp46
 70
     1
102
RTVSPost2010Prop47
 90
       50
102
RTVSPost2010PropOp47
 70
     1
102
RTVSPost2010Prop48
 90
       50
102
RTVSPost2010PropOp48
 70
     1
102
RTVSPost2010Prop49
280
     0
102
RTVSPost2010PropOp49
 70
     1
102
RTVSPost2010Prop50
 90
       50
102
RTVSPost2010PropOp50
 70
     1
102
RTVSPost2010Prop51ColorIndex
 90
      256
102
RTVSPost2010Prop51ColorRGB
 90
-16777216
102
RTVSPost2010PropOp51
 70
     0
102
RTVSPost2010Prop52
140
1.0
102
RTVSPost2010PropOp52
 70
     0
102
RTVSPost2010Prop53
 90
        2
102
RTVSPost2010PropOp53
 70
     1
102
RTVSPost2010Prop54
  1
strokes_ogs.tif
102
RTVSPost2010PropOp54
 70
     1
102
RTVSPost2010Prop55
280
     0
102
RTVSPost2010PropOp55
 70
     1
102
RTVSPost2010Prop56
140
1.0
102
RTVSPost2010PropOp56
 70
     1
102
RTVSPost2010Prop57
140
1.0
102
RTVSPost2010PropOp57
 70
     1
102
RTVSPropertyOp0
 70
     1
102
RTVSPropertyOp1
 70
     1
102
RTVSPropertyOp2
 70
     1
102
RTVSPropertyOp3
 70
     1
102
RTVSPropertyOp4
 70
     1
102
RTVSPropertyOp5
 70
     1
102
RTVSPropertyOp6
 70
     1
102
RTVSPropertyOp7
 70
     1
102
RTVSPropertyOp8
 70
     1
102
RTVSPropertyOp9
 70
     1
102
RTVSPropertyOp10
 70
     1
102
RTVSPropertyOp11
 70
     1
102
RTVSPropertyOp12
 70
     1
102
RTVSPropertyOp13
 70
     1
102
RTVSPropertyOp14
 70
     1
102
RTVSPropertyOp15
 70
     1
102
RTVSPropertyOp16
 70
     1
102
RTVSPropertyOp17
 70
     1
102
RTVSPropertyOp18
 70
     1
102
RTVSPropertyOp19
 70
     1
102
RTVSPropertyOp20
 70
     1
102
RTVSPropertyOp21
 70
     1
102
RTVSPropertyOp22
 70
     1
102
RTVSPropertyOp23
 70
     1
102
RTVSPropertyOp24
 70
     1
102
RTVSPropertyOp25
 70
     1
102
RTVSPropertyOp26
 70
     1
102
RTVSPropertyOp27
 70
     1
102
RTVSPropertyOp28
 70
     1
102
RTVSPropertyOp29
 70
     1
102
RTVSPropertyOp30
 70
     1
102
RTVSPropertyOp31
 70
     1
102
RTVSPropertyOp32
 70
     1
102
RTVSPropertyOp33
 70
     1
102
RTVSPropertyOp34
 70
     1
102
RTVSPropertyOp35
 70
     1
102
RTVSPropertyOp36
 70
     1
102
RTVSPropertyOp37
 70
     1
102
RTVSPropertyOp38
 70
     1
102
RTVSPropertyOp39
 70
     1
102
RTVSPropertyOp40
 70
     1
102
RTVSPropertyOp41
 70
     1
102
RTVSPropertyOp42
 70
     1
102
RTVSPropertyOp43
 70
     1
102
RTVSPropertyOp44
 70
     1
102
RTVSPropertyOp45
 70
     1
102
RTVSPropertyOp46
 70
     1
102
RTVSPropertyOp47
 70
     1
102
RTVSPropertyOp48
 70
     1
102
RTVSPropertyOp49
 70
     1
102
RTVSPropertyOp50
 70
     1
102
RTVSPropertyOp51
 70
     0
102
RTVSPropertyOp52
 70
     0
102
RTVSPropertyOp53
 70
     1
102
RTVSPropertyOp54
 70
     1
102
RTVSPropertyOp55
 70
     1
102
RTVSPropertyOp56
 70
     1
102
RTVSPropertyOp57
 70
     1
102
RTVSPropertyOp58
 70
     1
102
RTVSPropertyOp59
 70
     1
102
RTVSPropertyOp60
 70
     1
102
RTVSPropertyOp61
 70
     1
102
RTVSPropertyOp62
 70
     1
  0
XRECORD
  5
A4BD
102
{ACAD_REACTORS
330
A4BC
102
}
330
A4BC
100
AcDbXrecord
280
     1
102
RTVSPost2010Prop28
280
     0
102
RTVSPost2010PropOp28
 70
     1
102
RTVSPost2010Prop29
280
     1
102
RTVSPost2010PropOp29
 70
     1
102
RTVSPost2010Prop30
280
     1
102
RTVSPost2010PropOp30
 70
     1
102
RTVSPost2010Prop31
280
     0
102
RTVSPost2010PropOp31
 70
     1
102
RTVSPost2010Prop32
280
     0
102
RTVSPost2010PropOp32
 70
     1
102
RTVSPost2010Prop33
280
     0
102
RTVSPost2010PropOp33
 70
     1
102
RTVSPost2010Prop34
280
     0
102
RTVSPost2010PropOp34
 70
     1
102
RTVSPost2010Prop35
280
     0
102
RTVSPost2010PropOp35
 70
     1
102
RTVSPost2010Prop36
280
     0
102
RTVSPost2010PropOp36
 70
     1
102
RTVSPost2010Prop37
 90
       50
102
RTVSPost2010PropOp37
 70
     1
102
RTVSPost2010Prop38
140
0.0
102
RTVSPost2010PropOp38
 70
     1
102
RTVSPost2010Prop39
140
1.0
102
RTVSPost2010PropOp39
 70
     1
102
RTVSPost2010Prop40
 90
        0
102
RTVSPost2010PropOp40
 70
     1
102
RTVSPost2010Prop41ColorIndex
 90
       18
102
RTVSPost2010Prop41ColorRGB
 90
        0
102
RTVSPost2010PropOp41
 70
     1
102
RTVSPost2010Prop42
 90
       50
102
RTVSPost2010PropOp42
 70
     1
102
RTVSPost2010Prop43
 90
        3
102
RTVSPost2010PropOp43
 70
     1
102
RTVSPost2010Prop44ColorIndex
 90
        5
102
RTVSPost2010Prop44ColorRGB
 90
      255
102
RTVSPost2010PropOp44
 70
     1
102
RTVSPost2010Prop45
280
     0
102
RTVSPost2010PropOp45
 70
     1
102
RTVSPost2010Prop46
 90
       50
102
RTVSPost2010PropOp46
 70
     1
102
RTVSPost2010Prop47
 90
       50
102
RTVSPost2010PropOp47
 70
     1
102
RTVSPost2010Prop48
 90
       50
102
RTVSPost2010PropOp48
 70
     1
102
RTVSPost2010Prop49
280
     0
102
RTVSPost2010PropOp49
 70
     1
102
RTVSPost2010Prop50
 90
       50
102
RTVSPost2010PropOp50
 70
     1
102
RTVSPost2010Prop51ColorIndex
 90
      256
102
RTVSPost2010Prop51ColorRGB
 90
-16777216
102
RTVSPost2010PropOp51
 70
     0
102
RTVSPost2010Prop52
140
1.0
102
RTVSPost2010PropOp52
 70
     0
102
RTVSPost2010Prop53
 90
        2
102
RTVSPost2010PropOp53
 70
     1
102
RTVSPost2010Prop54
  1
strokes_ogs.tif
102
RTVSPost2010PropOp54
 70
     1
102
RTVSPost2010Prop55
280
     0
102
RTVSPost2010PropOp55
 70
     1
102
RTVSPost2010Prop56
140
1.0
102
RTVSPost2010PropOp56
 70
     1
102
RTVSPost2010Prop57
140
1.0
102
RTVSPost2010PropOp57
 70
     1
102
RTVSPropertyOp0
 70
     1
102
RTVSPropertyOp1
 70
     1
102
RTVSPropertyOp2
 70
     1
102
RTVSPropertyOp3
 70
     1
102
RTVSPropertyOp4
 70
     1
102
RTVSPropertyOp5
 70
     1
102
RTVSPropertyOp6
 70
     1
102
RTVSPropertyOp7
 70
     1
102
RTVSPropertyOp8
 70
     1
102
RTVSPropertyOp9
 70
     1
102
RTVSPropertyOp10
 70
     1
102
RTVSPropertyOp11
 70
     1
102
RTVSPropertyOp12
 70
     1
102
RTVSPropertyOp13
 70
     1
102
RTVSPropertyOp14
 70
     1
102
RTVSPropertyOp15
 70
     1
102
RTVSPropertyOp16
 70
     1
102
RTVSPropertyOp17
 70
     1
102
RTVSPropertyOp18
 70
     1
102
RTVSPropertyOp19
 70
     1
102
RTVSPropertyOp20
 70
     1
102
RTVSPropertyOp21
 70
     1
102
RTVSPropertyOp22
 70
     1
102
RTVSPropertyOp23
 70
     1
102
RTVSPropertyOp24
 70
     1
102
RTVSPropertyOp25
 70
     1
102
RTVSPropertyOp26
 70
     1
102
RTVSPropertyOp27
 70
     1
102
RTVSPropertyOp28
 70
     1
102
RTVSPropertyOp29
 70
     1
102
RTVSPropertyOp30
 70
     1
102
RTVSPropertyOp31
 70
     1
102
RTVSPropertyOp32
 70
     1
102
RTVSPropertyOp33
 70
     1
102
RTVSPropertyOp34
 70
     1
102
RTVSPropertyOp35
 70
     1
102
RTVSPropertyOp36
 70
     1
102
RTVSPropertyOp37
 70
     1
102
RTVSPropertyOp38
 70
     1
102
RTVSPropertyOp39
 70
     1
102
RTVSPropertyOp40
 70
     1
102
RTVSPropertyOp41
 70
     1
102
RTVSPropertyOp42
 70
     1
102
RTVSPropertyOp43
 70
     1
102
RTVSPropertyOp44
 70
     1
102
RTVSPropertyOp45
 70
     1
102
RTVSPropertyOp46
 70
     1
102
RTVSPropertyOp47
 70
     1
102
RTVSPropertyOp48
 70
     1
102
RTVSPropertyOp49
 70
     1
102
RTVSPropertyOp50
 70
     1
102
RTVSPropertyOp51
 70
     0
102
RTVSPropertyOp52
 70
     0
102
RTVSPropertyOp53
 70
     1
102
RTVSPropertyOp54
 70
     1
102
RTVSPropertyOp55
 70
     1
102
RTVSPropertyOp56
 70
     1
102
RTVSPropertyOp57
 70
     1
102
RTVSPropertyOp58
 70
     1
102
RTVSPropertyOp59
 70
     1
102
RTVSPropertyOp60
 70
     1
102
RTVSPropertyOp61
 70
     1
102
RTVSPropertyOp62
 70
     1
  0
XRECORD
  5
A4BB
102
{ACAD_REACTORS
330
A4BA
102
}
330
A4BA
100
AcDbXrecord
280
     1
102
RTVSPost2010Prop28
280
     0
102
RTVSPost2010PropOp28
 70
     1
102
RTVSPost2010Prop29
280
     1
102
RTVSPost2010PropOp29
 70
     1
102
RTVSPost2010Prop30
280
     1
102
RTVSPost2010PropOp30
 70
     1
102
RTVSPost2010Prop31
280
     0
102
RTVSPost2010PropOp31
 70
     1
102
RTVSPost2010Prop32
280
     0
102
RTVSPost2010PropOp32
 70
     1
102
RTVSPost2010Prop33
280
     0
102
RTVSPost2010PropOp33
 70
     1
102
RTVSPost2010Prop34
280
     0
102
RTVSPost2010PropOp34
 70
     1
102
RTVSPost2010Prop35
280
     0
102
RTVSPost2010PropOp35
 70
     1
102
RTVSPost2010Prop36
280
     0
102
RTVSPost2010PropOp36
 70
     1
102
RTVSPost2010Prop37
 90
       50
102
RTVSPost2010PropOp37
 70
     1
102
RTVSPost2010Prop38
140
0.0
102
RTVSPost2010PropOp38
 70
     1
102
RTVSPost2010Prop39
140
1.0
102
RTVSPost2010PropOp39
 70
     1
102
RTVSPost2010Prop40
 90
        0
102
RTVSPost2010PropOp40
 70
     1
102
RTVSPost2010Prop41ColorIndex
 90
       18
102
RTVSPost2010Prop41ColorRGB
 90
        0
102
RTVSPost2010PropOp41
 70
     1
102
RTVSPost2010Prop42
 90
       50
102
RTVSPost2010PropOp42
 70
     1
102
RTVSPost2010Prop43
 90
        3
102
RTVSPost2010PropOp43
 70
     1
102
RTVSPost2010Prop44ColorIndex
 90
        5
102
RTVSPost2010Prop44ColorRGB
 90
      255
102
RTVSPost2010PropOp44
 70
     1
102
RTVSPost2010Prop45
280
     0
102
RTVSPost2010PropOp45
 70
     1
102
RTVSPost2010Prop46
 90
       50
102
RTVSPost2010PropOp46
 70
     1
102
RTVSPost2010Prop47
 90
       50
102
RTVSPost2010PropOp47
 70
     1
102
RTVSPost2010Prop48
 90
       50
102
RTVSPost2010PropOp48
 70
     1
102
RTVSPost2010Prop49
280
     0
102
RTVSPost2010PropOp49
 70
     1
102
RTVSPost2010Prop50
 90
       50
102
RTVSPost2010PropOp50
 70
     1
102
RTVSPost2010Prop51ColorIndex
 90
      256
102
RTVSPost2010Prop51ColorRGB
 90
-16777216
102
RTVSPost2010PropOp51
 70
     0
102
RTVSPost2010Prop52
140
1.0
102
RTVSPost2010PropOp52
 70
     0
102
RTVSPost2010Prop53
 90
        2
102
RTVSPost2010PropOp53
 70
     1
102
RTVSPost2010Prop54
  1
strokes_ogs.tif
102
RTVSPost2010PropOp54
 70
     1
102
RTVSPost2010Prop55
280
     0
102
RTVSPost2010PropOp55
 70
     1
102
RTVSPost2010Prop56
140
1.0
102
RTVSPost2010PropOp56
 70
     1
102
RTVSPost2010Prop57
140
1.0
102
RTVSPost2010PropOp57
 70
     1
102
RTVSPropertyOp0
 70
     1
102
RTVSPropertyOp1
 70
     1
102
RTVSPropertyOp2
 70
     1
102
RTVSPropertyOp3
 70
     1
102
RTVSPropertyOp4
 70
     1
102
RTVSPropertyOp5
 70
     1
102
RTVSPropertyOp6
 70
     1
102
RTVSPropertyOp7
 70
     1
102
RTVSPropertyOp8
 70
     1
102
RTVSPropertyOp9
 70
     1
102
RTVSPropertyOp10
 70
     1
102
RTVSPropertyOp11
 70
     1
102
RTVSPropertyOp12
 70
     1
102
RTVSPropertyOp13
 70
     1
102
RTVSPropertyOp14
 70
     1
102
RTVSPropertyOp15
 70
     1
102
RTVSPropertyOp16
 70
     1
102
RTVSPropertyOp17
 70
     1
102
RTVSPropertyOp18
 70
     1
102
RTVSPropertyOp19
 70
     1
102
RTVSPropertyOp20
 70
     1
102
RTVSPropertyOp21
 70
     1
102
RTVSPropertyOp22
 70
     1
102
RTVSPropertyOp23
 70
     1
102
RTVSPropertyOp24
 70
     1
102
RTVSPropertyOp25
 70
     1
102
RTVSPropertyOp26
 70
     1
102
RTVSPropertyOp27
 70
     1
102
RTVSPropertyOp28
 70
     1
102
RTVSPropertyOp29
 70
     1
102
RTVSPropertyOp30
 70
     1
102
RTVSPropertyOp31
 70
     1
102
RTVSPropertyOp32
 70
     1
102
RTVSPropertyOp33
 70
     1
102
RTVSPropertyOp34
 70
     1
102
RTVSPropertyOp35
 70
     1
102
RTVSPropertyOp36
 70
     1
102
RTVSPropertyOp37
 70
     1
102
RTVSPropertyOp38
 70
     1
102
RTVSPropertyOp39
 70
     1
102
RTVSPropertyOp40
 70
     1
102
RTVSPropertyOp41
 70
     1
102
RTVSPropertyOp42
 70
     1
102
RTVSPropertyOp43
 70
     1
102
RTVSPropertyOp44
 70
     1
102
RTVSPropertyOp45
 70
     1
102
RTVSPropertyOp46
 70
     1
102
RTVSPropertyOp47
 70
     1
102
RTVSPropertyOp48
 70
     1
102
RTVSPropertyOp49
 70
     1
102
RTVSPropertyOp50
 70
     1
102
RTVSPropertyOp51
 70
     0
102
RTVSPropertyOp52
 70
     0
102
RTVSPropertyOp53
 70
     1
102
RTVSPropertyOp54
 70
     1
102
RTVSPropertyOp55
 70
     1
102
RTVSPropertyOp56
 70
     1
102
RTVSPropertyOp57
 70
     1
102
RTVSPropertyOp58
 70
     1
102
RTVSPropertyOp59
 70
     1
102
RTVSPropertyOp60
 70
     1
102
RTVSPropertyOp61
 70
     1
102
RTVSPropertyOp62
 70
     1
  0
XRECORD
  5
A4B5
102
{ACAD_REACTORS
330
A4B4
102
}
330
A4B4
100
AcDbXrecord
280
     1
102
RTVSPost2010Prop28
280
     0
102
RTVSPost2010PropOp28
 70
     1
102
RTVSPost2010Prop29
280
     1
102
RTVSPost2010PropOp29
 70
     1
102
RTVSPost2010Prop30
280
     1
102
RTVSPost2010PropOp30
 70
     1
102
RTVSPost2010Prop31
280
     0
102
RTVSPost2010PropOp31
 70
     1
102
RTVSPost2010Prop32
280
     0
102
RTVSPost2010PropOp32
 70
     1
102
RTVSPost2010Prop33
280
     0
102
RTVSPost2010PropOp33
 70
     1
102
RTVSPost2010Prop34
280
     0
102
RTVSPost2010PropOp34
 70
     1
102
RTVSPost2010Prop35
280
     0
102
RTVSPost2010PropOp35
 70
     1
102
RTVSPost2010Prop36
280
     0
102
RTVSPost2010PropOp36
 70
     1
102
RTVSPost2010Prop37
 90
       50
102
RTVSPost2010PropOp37
 70
     1
102
RTVSPost2010Prop38
140
0.0
102
RTVSPost2010PropOp38
 70
     1
102
RTVSPost2010Prop39
140
1.0
102
RTVSPost2010PropOp39
 70
     1
102
RTVSPost2010Prop40
 90
        0
102
RTVSPost2010PropOp40
 70
     1
102
RTVSPost2010Prop41ColorIndex
 90
       18
102
RTVSPost2010Prop41ColorRGB
 90
        0
102
RTVSPost2010PropOp41
 70
     1
102
RTVSPost2010Prop42
 90
       50
102
RTVSPost2010PropOp42
 70
     1
102
RTVSPost2010Prop43
 90
        3
102
RTVSPost2010PropOp43
 70
     1
102
RTVSPost2010Prop44ColorIndex
 90
        5
102
RTVSPost2010Prop44ColorRGB
 90
      255
102
RTVSPost2010PropOp44
 70
     1
102
RTVSPost2010Prop45
280
     0
102
RTVSPost2010PropOp45
 70
     1
102
RTVSPost2010Prop46
 90
       50
102
RTVSPost2010PropOp46
 70
     1
102
RTVSPost2010Prop47
 90
       50
102
RTVSPost2010PropOp47
 70
     1
102
RTVSPost2010Prop48
 90
       50
102
RTVSPost2010PropOp48
 70
     1
102
RTVSPost2010Prop49
280
     0
102
RTVSPost2010PropOp49
 70
     1
102
RTVSPost2010Prop50
 90
       50
102
RTVSPost2010PropOp50
 70
     1
102
RTVSPost2010Prop51ColorIndex
 90
      256
102
RTVSPost2010Prop51ColorRGB
 90
-16777216
102
RTVSPost2010PropOp51
 70
     0
102
RTVSPost2010Prop52
140
1.0
102
RTVSPost2010PropOp52
 70
     0
102
RTVSPost2010Prop53
 90
        2
102
RTVSPost2010PropOp53
 70
     1
102
RTVSPost2010Prop54
  1
strokes_ogs.tif
102
RTVSPost2010PropOp54
 70
     1
102
RTVSPost2010Prop55
280
     0
102
RTVSPost2010PropOp55
 70
     1
102
RTVSPost2010Prop56
140
1.0
102
RTVSPost2010PropOp56
 70
     1
102
RTVSPost2010Prop57
140
1.0
102
RTVSPost2010PropOp57
 70
     1
102
RTVSPropertyOp0
 70
     1
102
RTVSPropertyOp1
 70
     1
102
RTVSPropertyOp2
 70
     1
102
RTVSPropertyOp3
 70
     1
102
RTVSPropertyOp4
 70
     1
102
RTVSPropertyOp5
 70
     1
102
RTVSPropertyOp6
 70
     1
102
RTVSPropertyOp7
 70
     1
102
RTVSPropertyOp8
 70
     1
102
RTVSPropertyOp9
 70
     1
102
RTVSPropertyOp10
 70
     1
102
RTVSPropertyOp11
 70
     1
102
RTVSPropertyOp12
 70
     1
102
RTVSPropertyOp13
 70
     1
102
RTVSPropertyOp14
 70
     1
102
RTVSPropertyOp15
 70
     1
102
RTVSPropertyOp16
 70
     1
102
RTVSPropertyOp17
 70
     1
102
RTVSPropertyOp18
 70
     1
102
RTVSPropertyOp19
 70
     1
102
RTVSPropertyOp20
 70
     1
102
RTVSPropertyOp21
 70
     1
102
RTVSPropertyOp22
 70
     1
102
RTVSPropertyOp23
 70
     1
102
RTVSPropertyOp24
 70
     1
102
RTVSPropertyOp25
 70
     1
102
RTVSPropertyOp26
 70
     1
102
RTVSPropertyOp27
 70
     1
102
RTVSPropertyOp28
 70
     1
102
RTVSPropertyOp29
 70
     1
102
RTVSPropertyOp30
 70
     1
102
RTVSPropertyOp31
 70
     1
102
RTVSPropertyOp32
 70
     1
102
RTVSPropertyOp33
 70
     1
102
RTVSPropertyOp34
 70
     1
102
RTVSPropertyOp35
 70
     1
102
RTVSPropertyOp36
 70
     1
102
RTVSPropertyOp37
 70
     1
102
RTVSPropertyOp38
 70
     1
102
RTVSPropertyOp39
 70
     1
102
RTVSPropertyOp40
 70
     1
102
RTVSPropertyOp41
 70
     1
102
RTVSPropertyOp42
 70
     1
102
RTVSPropertyOp43
 70
     1
102
RTVSPropertyOp44
 70
     1
102
RTVSPropertyOp45
 70
     1
102
RTVSPropertyOp46
 70
     1
102
RTVSPropertyOp47
 70
     1
102
RTVSPropertyOp48
 70
     1
102
RTVSPropertyOp49
 70
     1
102
RTVSPropertyOp50
 70
     1
102
RTVSPropertyOp51
 70
     0
102
RTVSPropertyOp52
 70
     0
102
RTVSPropertyOp53
 70
     1
102
RTVSPropertyOp54
 70
     1
102
RTVSPropertyOp55
 70
     1
102
RTVSPropertyOp56
 70
     1
102
RTVSPropertyOp57
 70
     1
102
RTVSPropertyOp58
 70
     1
102
RTVSPropertyOp59
 70
     1
102
RTVSPropertyOp60
 70
     1
102
RTVSPropertyOp61
 70
     1
102
RTVSPropertyOp62
 70
     1
  0
XRECORD
  5
A4B7
102
{ACAD_REACTORS
330
A4B6
102
}
330
A4B6
100
AcDbXrecord
280
     1
102
RTVSPost2010Prop28
280
     0
102
RTVSPost2010PropOp28
 70
     1
102
RTVSPost2010Prop29
280
     1
102
RTVSPost2010PropOp29
 70
     1
102
RTVSPost2010Prop30
280
     1
102
RTVSPost2010PropOp30
 70
     1
102
RTVSPost2010Prop31
280
     0
102
RTVSPost2010PropOp31
 70
     1
102
RTVSPost2010Prop32
280
     0
102
RTVSPost2010PropOp32
 70
     1
102
RTVSPost2010Prop33
280
     0
102
RTVSPost2010PropOp33
 70
     1
102
RTVSPost2010Prop34
280
     0
102
RTVSPost2010PropOp34
 70
     1
102
RTVSPost2010Prop35
280
     0
102
RTVSPost2010PropOp35
 70
     1
102
RTVSPost2010Prop36
280
     0
102
RTVSPost2010PropOp36
 70
     1
102
RTVSPost2010Prop37
 90
       50
102
RTVSPost2010PropOp37
 70
     1
102
RTVSPost2010Prop38
140
0.0
102
RTVSPost2010PropOp38
 70
     1
102
RTVSPost2010Prop39
140
1.0
102
RTVSPost2010PropOp39
 70
     1
102
RTVSPost2010Prop40
 90
        0
102
RTVSPost2010PropOp40
 70
     1
102
RTVSPost2010Prop41ColorIndex
 90
       18
102
RTVSPost2010Prop41ColorRGB
 90
        0
102
RTVSPost2010PropOp41
 70
     1
102
RTVSPost2010Prop42
 90
       50
102
RTVSPost2010PropOp42
 70
     1
102
RTVSPost2010Prop43
 90
        3
102
RTVSPost2010PropOp43
 70
     1
102
RTVSPost2010Prop44ColorIndex
 90
        5
102
RTVSPost2010Prop44ColorRGB
 90
      255
102
RTVSPost2010PropOp44
 70
     1
102
RTVSPost2010Prop45
280
     0
102
RTVSPost2010PropOp45
 70
     1
102
RTVSPost2010Prop46
 90
       50
102
RTVSPost2010PropOp46
 70
     1
102
RTVSPost2010Prop47
 90
       50
102
RTVSPost2010PropOp47
 70
     1
102
RTVSPost2010Prop48
 90
       50
102
RTVSPost2010PropOp48
 70
     1
102
RTVSPost2010Prop49
280
     0
102
RTVSPost2010PropOp49
 70
     1
102
RTVSPost2010Prop50
 90
       50
102
RTVSPost2010PropOp50
 70
     1
102
RTVSPost2010Prop51ColorIndex
 90
      256
102
RTVSPost2010Prop51ColorRGB
 90
-16777216
102
RTVSPost2010PropOp51
 70
     0
102
RTVSPost2010Prop52
140
1.0
102
RTVSPost2010PropOp52
 70
     0
102
RTVSPost2010Prop53
 90
        2
102
RTVSPost2010PropOp53
 70
     1
102
RTVSPost2010Prop54
  1
strokes_ogs.tif
102
RTVSPost2010PropOp54
 70
     1
102
RTVSPost2010Prop55
280
     0
102
RTVSPost2010PropOp55
 70
     1
102
RTVSPost2010Prop56
140
1.0
102
RTVSPost2010PropOp56
 70
     1
102
RTVSPost2010Prop57
140
1.0
102
RTVSPost2010PropOp57
 70
     1
102
RTVSPropertyOp0
 70
     1
102
RTVSPropertyOp1
 70
     1
102
RTVSPropertyOp2
 70
     1
102
RTVSPropertyOp3
 70
     1
102
RTVSPropertyOp4
 70
     1
102
RTVSPropertyOp5
 70
     1
102
RTVSPropertyOp6
 70
     1
102
RTVSPropertyOp7
 70
     1
102
RTVSPropertyOp8
 70
     1
102
RTVSPropertyOp9
 70
     1
102
RTVSPropertyOp10
 70
     1
102
RTVSPropertyOp11
 70
     1
102
RTVSPropertyOp12
 70
     1
102
RTVSPropertyOp13
 70
     1
102
RTVSPropertyOp14
 70
     1
102
RTVSPropertyOp15
 70
     1
102
RTVSPropertyOp16
 70
     1
102
RTVSPropertyOp17
 70
     1
102
RTVSPropertyOp18
 70
     1
102
RTVSPropertyOp19
 70
     1
102
RTVSPropertyOp20
 70
     1
102
RTVSPropertyOp21
 70
     1
102
RTVSPropertyOp22
 70
     1
102
RTVSPropertyOp23
 70
     1
102
RTVSPropertyOp24
 70
     1
102
RTVSPropertyOp25
 70
     1
102
RTVSPropertyOp26
 70
     1
102
RTVSPropertyOp27
 70
     1
102
RTVSPropertyOp28
 70
     1
102
RTVSPropertyOp29
 70
     1
102
RTVSPropertyOp30
 70
     1
102
RTVSPropertyOp31
 70
     1
102
RTVSPropertyOp32
 70
     1
102
RTVSPropertyOp33
 70
     1
102
RTVSPropertyOp34
 70
     1
102
RTVSPropertyOp35
 70
     1
102
RTVSPropertyOp36
 70
     1
102
RTVSPropertyOp37
 70
     1
102
RTVSPropertyOp38
 70
     1
102
RTVSPropertyOp39
 70
     1
102
RTVSPropertyOp40
 70
     1
102
RTVSPropertyOp41
 70
     1
102
RTVSPropertyOp42
 70
     1
102
RTVSPropertyOp43
 70
     1
102
RTVSPropertyOp44
 70
     1
102
RTVSPropertyOp45
 70
     1
102
RTVSPropertyOp46
 70
     1
102
RTVSPropertyOp47
 70
     1
102
RTVSPropertyOp48
 70
     1
102
RTVSPropertyOp49
 70
     1
102
RTVSPropertyOp50
 70
     1
102
RTVSPropertyOp51
 70
     0
102
RTVSPropertyOp52
 70
     0
102
RTVSPropertyOp53
 70
     1
102
RTVSPropertyOp54
 70
     1
102
RTVSPropertyOp55
 70
     1
102
RTVSPropertyOp56
 70
     1
102
RTVSPropertyOp57
 70
     1
102
RTVSPropertyOp58
 70
     1
102
RTVSPropertyOp59
 70
     1
102
RTVSPropertyOp60
 70
     1
102
RTVSPropertyOp61
 70
     1
102
RTVSPropertyOp62
 70
     1
  0
XRECORD
  5
A4AD
102
{ACAD_REACTORS
330
A4AC
102
}
330
A4AC
100
AcDbXrecord
280
     1
102
RTVSPost2010Prop28
280
     0
102
RTVSPost2010PropOp28
 70
     1
102
RTVSPost2010Prop29
280
     1
102
RTVSPost2010PropOp29
 70
     1
102
RTVSPost2010Prop30
280
     1
102
RTVSPost2010PropOp30
 70
     1
102
RTVSPost2010Prop31
280
     0
102
RTVSPost2010PropOp31
 70
     1
102
RTVSPost2010Prop32
280
     0
102
RTVSPost2010PropOp32
 70
     1
102
RTVSPost2010Prop33
280
     0
102
RTVSPost2010PropOp33
 70
     1
102
RTVSPost2010Prop34
280
     0
102
RTVSPost2010PropOp34
 70
     1
102
RTVSPost2010Prop35
280
     0
102
RTVSPost2010PropOp35
 70
     1
102
RTVSPost2010Prop36
280
     0
102
RTVSPost2010PropOp36
 70
     1
102
RTVSPost2010Prop37
 90
       50
102
RTVSPost2010PropOp37
 70
     1
102
RTVSPost2010Prop38
140
0.0
102
RTVSPost2010PropOp38
 70
     1
102
RTVSPost2010Prop39
140
1.0
102
RTVSPost2010PropOp39
 70
     1
102
RTVSPost2010Prop40
 90
        0
102
RTVSPost2010PropOp40
 70
     1
102
RTVSPost2010Prop41ColorIndex
 90
       18
102
RTVSPost2010Prop41ColorRGB
 90
        0
102
RTVSPost2010PropOp41
 70
     1
102
RTVSPost2010Prop42
 90
       50
102
RTVSPost2010PropOp42
 70
     1
102
RTVSPost2010Prop43
 90
        3
102
RTVSPost2010PropOp43
 70
     1
102
RTVSPost2010Prop44ColorIndex
 90
        5
102
RTVSPost2010Prop44ColorRGB
 90
      255
102
RTVSPost2010PropOp44
 70
     1
102
RTVSPost2010Prop45
280
     0
102
RTVSPost2010PropOp45
 70
     1
102
RTVSPost2010Prop46
 90
       50
102
RTVSPost2010PropOp46
 70
     1
102
RTVSPost2010Prop47
 90
       50
102
RTVSPost2010PropOp47
 70
     1
102
RTVSPost2010Prop48
 90
       50
102
RTVSPost2010PropOp48
 70
     1
102
RTVSPost2010Prop49
280
     0
102
RTVSPost2010PropOp49
 70
     1
102
RTVSPost2010Prop50
 90
       50
102
RTVSPost2010PropOp50
 70
     1
102
RTVSPost2010Prop51ColorIndex
 90
      256
102
RTVSPost2010Prop51ColorRGB
 90
-16777216
102
RTVSPost2010PropOp51
 70
     0
102
RTVSPost2010Prop52
140
1.0
102
RTVSPost2010PropOp52
 70
     0
102
RTVSPost2010Prop53
 90
        2
102
RTVSPost2010PropOp53
 70
     1
102
RTVSPost2010Prop54
  1
strokes_ogs.tif
102
RTVSPost2010PropOp54
 70
     1
102
RTVSPost2010Prop55
280
     0
102
RTVSPost2010PropOp55
 70
     1
102
RTVSPost2010Prop56
140
1.0
102
RTVSPost2010PropOp56
 70
     1
102
RTVSPost2010Prop57
140
1.0
102
RTVSPost2010PropOp57
 70
     1
102
RTVSPropertyOp0
 70
     1
102
RTVSPropertyOp1
 70
     1
102
RTVSPropertyOp2
 70
     1
102
RTVSPropertyOp3
 70
     1
102
RTVSPropertyOp4
 70
     1
102
RTVSPropertyOp5
 70
     1
102
RTVSPropertyOp6
 70
     1
102
RTVSPropertyOp7
 70
     1
102
RTVSPropertyOp8
 70
     1
102
RTVSPropertyOp9
 70
     1
102
RTVSPropertyOp10
 70
     1
102
RTVSPropertyOp11
 70
     1
102
RTVSPropertyOp12
 70
     1
102
RTVSPropertyOp13
 70
     1
102
RTVSPropertyOp14
 70
     1
102
RTVSPropertyOp15
 70
     1
102
RTVSPropertyOp16
 70
     1
102
RTVSPropertyOp17
 70
     1
102
RTVSPropertyOp18
 70
     1
102
RTVSPropertyOp19
 70
     1
102
RTVSPropertyOp20
 70
     1
102
RTVSPropertyOp21
 70
     1
102
RTVSPropertyOp22
 70
     1
102
RTVSPropertyOp23
 70
     1
102
RTVSPropertyOp24
 70
     1
102
RTVSPropertyOp25
 70
     1
102
RTVSPropertyOp26
 70
     1
102
RTVSPropertyOp27
 70
     1
102
RTVSPropertyOp28
 70
     1
102
RTVSPropertyOp29
 70
     1
102
RTVSPropertyOp30
 70
     1
102
RTVSPropertyOp31
 70
     1
102
RTVSPropertyOp32
 70
     1
102
RTVSPropertyOp33
 70
     1
102
RTVSPropertyOp34
 70
     1
102
RTVSPropertyOp35
 70
     1
102
RTVSPropertyOp36
 70
     1
102
RTVSPropertyOp37
 70
     1
102
RTVSPropertyOp38
 70
     1
102
RTVSPropertyOp39
 70
     1
102
RTVSPropertyOp40
 70
     1
102
RTVSPropertyOp41
 70
     1
102
RTVSPropertyOp42
 70
     1
102
RTVSPropertyOp43
 70
     1
102
RTVSPropertyOp44
 70
     1
102
RTVSPropertyOp45
 70
     1
102
RTVSPropertyOp46
 70
     1
102
RTVSPropertyOp47
 70
     1
102
RTVSPropertyOp48
 70
     1
102
RTVSPropertyOp49
 70
     1
102
RTVSPropertyOp50
 70
     1
102
RTVSPropertyOp51
 70
     0
102
RTVSPropertyOp52
 70
     0
102
RTVSPropertyOp53
 70
     1
102
RTVSPropertyOp54
 70
     1
102
RTVSPropertyOp55
 70
     1
102
RTVSPropertyOp56
 70
     1
102
RTVSPropertyOp57
 70
     1
102
RTVSPropertyOp58
 70
     1
102
RTVSPropertyOp59
 70
     1
102
RTVSPropertyOp60
 70
     1
102
RTVSPropertyOp61
 70
     1
102
RTVSPropertyOp62
 70
     1
  0
XRECORD
  5
A4A1
102
{ACAD_REACTORS
330
A4A0
102
}
330
A4A0
100
AcDbXrecord
280
     1
102
RTVSPost2010Prop28
280
     0
102
RTVSPost2010PropOp28
 70
     1
102
RTVSPost2010Prop29
280
     1
102
RTVSPost2010PropOp29
 70
     1
102
RTVSPost2010Prop30
280
     1
102
RTVSPost2010PropOp30
 70
     1
102
RTVSPost2010Prop31
280
     0
102
RTVSPost2010PropOp31
 70
     1
102
RTVSPost2010Prop32
280
     0
102
RTVSPost2010PropOp32
 70
     1
102
RTVSPost2010Prop33
280
     0
102
RTVSPost2010PropOp33
 70
     1
102
RTVSPost2010Prop34
280
     0
102
RTVSPost2010PropOp34
 70
     1
102
RTVSPost2010Prop35
280
     0
102
RTVSPost2010PropOp35
 70
     1
102
RTVSPost2010Prop36
280
     0
102
RTVSPost2010PropOp36
 70
     1
102
RTVSPost2010Prop37
 90
       50
102
RTVSPost2010PropOp37
 70
     1
102
RTVSPost2010Prop38
140
0.0
102
RTVSPost2010PropOp38
 70
     1
102
RTVSPost2010Prop39
140
1.0
102
RTVSPost2010PropOp39
 70
     1
102
RTVSPost2010Prop40
 90
        0
102
RTVSPost2010PropOp40
 70
     1
102
RTVSPost2010Prop41ColorIndex
 90
       18
102
RTVSPost2010Prop41ColorRGB
 90
        0
102
RTVSPost2010PropOp41
 70
     1
102
RTVSPost2010Prop42
 90
       50
102
RTVSPost2010PropOp42
 70
     1
102
RTVSPost2010Prop43
 90
        3
102
RTVSPost2010PropOp43
 70
     1
102
RTVSPost2010Prop44ColorIndex
 90
        5
102
RTVSPost2010Prop44ColorRGB
 90
      255
102
RTVSPost2010PropOp44
 70
     1
102
RTVSPost2010Prop45
280
     0
102
RTVSPost2010PropOp45
 70
     1
102
RTVSPost2010Prop46
 90
       50
102
RTVSPost2010PropOp46
 70
     1
102
RTVSPost2010Prop47
 90
       50
102
RTVSPost2010PropOp47
 70
     1
102
RTVSPost2010Prop48
 90
       50
102
RTVSPost2010PropOp48
 70
     1
102
RTVSPost2010Prop49
280
     0
102
RTVSPost2010PropOp49
 70
     1
102
RTVSPost2010Prop50
 90
       50
102
RTVSPost2010PropOp50
 70
     1
102
RTVSPost2010Prop51ColorIndex
 90
      256
102
RTVSPost2010Prop51ColorRGB
 90
-16777216
102
RTVSPost2010PropOp51
 70
     0
102
RTVSPost2010Prop52
140
1.0
102
RTVSPost2010PropOp52
 70
     0
102
RTVSPost2010Prop53
 90
        2
102
RTVSPost2010PropOp53
 70
     1
102
RTVSPost2010Prop54
  1
strokes_ogs.tif
102
RTVSPost2010PropOp54
 70
     1
102
RTVSPost2010Prop55
280
     0
102
RTVSPost2010PropOp55
 70
     1
102
RTVSPost2010Prop56
140
1.0
102
RTVSPost2010PropOp56
 70
     1
102
RTVSPost2010Prop57
140
1.0
102
RTVSPost2010PropOp57
 70
     1
102
RTVSPropertyOp0
 70
     1
102
RTVSPropertyOp1
 70
     1
102
RTVSPropertyOp2
 70
     1
102
RTVSPropertyOp3
 70
     1
102
RTVSPropertyOp4
 70
     1
102
RTVSPropertyOp5
 70
     1
102
RTVSPropertyOp6
 70
     1
102
RTVSPropertyOp7
 70
     1
102
RTVSPropertyOp8
 70
     1
102
RTVSPropertyOp9
 70
     1
102
RTVSPropertyOp10
 70
     1
102
RTVSPropertyOp11
 70
     1
102
RTVSPropertyOp12
 70
     1
102
RTVSPropertyOp13
 70
     1
102
RTVSPropertyOp14
 70
     1
102
RTVSPropertyOp15
 70
     1
102
RTVSPropertyOp16
 70
     1
102
RTVSPropertyOp17
 70
     1
102
RTVSPropertyOp18
 70
     1
102
RTVSPropertyOp19
 70
     1
102
RTVSPropertyOp20
 70
     1
102
RTVSPropertyOp21
 70
     1
102
RTVSPropertyOp22
 70
     1
102
RTVSPropertyOp23
 70
     1
102
RTVSPropertyOp24
 70
     1
102
RTVSPropertyOp25
 70
     1
102
RTVSPropertyOp26
 70
     1
102
RTVSPropertyOp27
 70
     1
102
RTVSPropertyOp28
 70
     1
102
RTVSPropertyOp29
 70
     1
102
RTVSPropertyOp30
 70
     1
102
RTVSPropertyOp31
 70
     1
102
RTVSPropertyOp32
 70
     1
102
RTVSPropertyOp33
 70
     1
102
RTVSPropertyOp34
 70
     1
102
RTVSPropertyOp35
 70
     1
102
RTVSPropertyOp36
 70
     1
102
RTVSPropertyOp37
 70
     1
102
RTVSPropertyOp38
 70
     1
102
RTVSPropertyOp39
 70
     1
102
RTVSPropertyOp40
 70
     1
102
RTVSPropertyOp41
 70
     1
102
RTVSPropertyOp42
 70
     1
102
RTVSPropertyOp43
 70
     1
102
RTVSPropertyOp44
 70
     1
102
RTVSPropertyOp45
 70
     1
102
RTVSPropertyOp46
 70
     1
102
RTVSPropertyOp47
 70
     1
102
RTVSPropertyOp48
 70
     1
102
RTVSPropertyOp49
 70
     1
102
RTVSPropertyOp50
 70
     1
102
RTVSPropertyOp51
 70
     0
102
RTVSPropertyOp52
 70
     0
102
RTVSPropertyOp53
 70
     1
102
RTVSPropertyOp54
 70
     1
102
RTVSPropertyOp55
 70
     1
102
RTVSPropertyOp56
 70
     1
102
RTVSPropertyOp57
 70
     1
102
RTVSPropertyOp58
 70
     1
102
RTVSPropertyOp59
 70
     1
102
RTVSPropertyOp60
 70
     1
102
RTVSPropertyOp61
 70
     1
102
RTVSPropertyOp62
 70
     1
  0
XRECORD
  5
A4B9
102
{ACAD_REACTORS
330
A4B8
102
}
330
A4B8
100
AcDbXrecord
280
     1
102
RTVSPost2010Prop28
280
     0
102
RTVSPost2010PropOp28
 70
     1
102
RTVSPost2010Prop29
280
     1
102
RTVSPost2010PropOp29
 70
     1
102
RTVSPost2010Prop30
280
     1
102
RTVSPost2010PropOp30
 70
     1
102
RTVSPost2010Prop31
280
     0
102
RTVSPost2010PropOp31
 70
     1
102
RTVSPost2010Prop32
280
     0
102
RTVSPost2010PropOp32
 70
     1
102
RTVSPost2010Prop33
280
     0
102
RTVSPost2010PropOp33
 70
     1
102
RTVSPost2010Prop34
280
     0
102
RTVSPost2010PropOp34
 70
     1
102
RTVSPost2010Prop35
280
     0
102
RTVSPost2010PropOp35
 70
     1
102
RTVSPost2010Prop36
280
     0
102
RTVSPost2010PropOp36
 70
     1
102
RTVSPost2010Prop37
 90
       50
102
RTVSPost2010PropOp37
 70
     1
102
RTVSPost2010Prop38
140
0.0
102
RTVSPost2010PropOp38
 70
     1
102
RTVSPost2010Prop39
140
1.0
102
RTVSPost2010PropOp39
 70
     1
102
RTVSPost2010Prop40
 90
        0
102
RTVSPost2010PropOp40
 70
     1
102
RTVSPost2010Prop41ColorIndex
 90
       18
102
RTVSPost2010Prop41ColorRGB
 90
        0
102
RTVSPost2010PropOp41
 70
     1
102
RTVSPost2010Prop42
 90
       50
102
RTVSPost2010PropOp42
 70
     1
102
RTVSPost2010Prop43
 90
        3
102
RTVSPost2010PropOp43
 70
     1
102
RTVSPost2010Prop44ColorIndex
 90
        5
102
RTVSPost2010Prop44ColorRGB
 90
      255
102
RTVSPost2010PropOp44
 70
     1
102
RTVSPost2010Prop45
280
     0
102
RTVSPost2010PropOp45
 70
     1
102
RTVSPost2010Prop46
 90
       50
102
RTVSPost2010PropOp46
 70
     1
102
RTVSPost2010Prop47
 90
       50
102
RTVSPost2010PropOp47
 70
     1
102
RTVSPost2010Prop48
 90
       50
102
RTVSPost2010PropOp48
 70
     1
102
RTVSPost2010Prop49
280
     0
102
RTVSPost2010PropOp49
 70
     1
102
RTVSPost2010Prop50
 90
       50
102
RTVSPost2010PropOp50
 70
     1
102
RTVSPost2010Prop51ColorIndex
 90
      256
102
RTVSPost2010Prop51ColorRGB
 90
-16777216
102
RTVSPost2010PropOp51
 70
     0
102
RTVSPost2010Prop52
140
1.0
102
RTVSPost2010PropOp52
 70
     0
102
RTVSPost2010Prop53
 90
        2
102
RTVSPost2010PropOp53
 70
     1
102
RTVSPost2010Prop54
  1
strokes_ogs.tif
102
RTVSPost2010PropOp54
 70
     1
102
RTVSPost2010Prop55
280
     0
102
RTVSPost2010PropOp55
 70
     1
102
RTVSPost2010Prop56
140
1.0
102
RTVSPost2010PropOp56
 70
     1
102
RTVSPost2010Prop57
140
1.0
102
RTVSPost2010PropOp57
 70
     1
102
RTVSPropertyOp0
 70
     1
102
RTVSPropertyOp1
 70
     1
102
RTVSPropertyOp2
 70
     1
102
RTVSPropertyOp3
 70
     1
102
RTVSPropertyOp4
 70
     1
102
RTVSPropertyOp5
 70
     1
102
RTVSPropertyOp6
 70
     1
102
RTVSPropertyOp7
 70
     1
102
RTVSPropertyOp8
 70
     1
102
RTVSPropertyOp9
 70
     1
102
RTVSPropertyOp10
 70
     1
102
RTVSPropertyOp11
 70
     1
102
RTVSPropertyOp12
 70
     1
102
RTVSPropertyOp13
 70
     1
102
RTVSPropertyOp14
 70
     1
102
RTVSPropertyOp15
 70
     1
102
RTVSPropertyOp16
 70
     1
102
RTVSPropertyOp17
 70
     1
102
RTVSPropertyOp18
 70
     1
102
RTVSPropertyOp19
 70
     1
102
RTVSPropertyOp20
 70
     1
102
RTVSPropertyOp21
 70
     1
102
RTVSPropertyOp22
 70
     1
102
RTVSPropertyOp23
 70
     1
102
RTVSPropertyOp24
 70
     1
102
RTVSPropertyOp25
 70
     1
102
RTVSPropertyOp26
 70
     1
102
RTVSPropertyOp27
 70
     1
102
RTVSPropertyOp28
 70
     1
102
RTVSPropertyOp29
 70
     1
102
RTVSPropertyOp30
 70
     1
102
RTVSPropertyOp31
 70
     1
102
RTVSPropertyOp32
 70
     1
102
RTVSPropertyOp33
 70
     1
102
RTVSPropertyOp34
 70
     1
102
RTVSPropertyOp35
 70
     1
102
RTVSPropertyOp36
 70
     1
102
RTVSPropertyOp37
 70
     1
102
RTVSPropertyOp38
 70
     1
102
RTVSPropertyOp39
 70
     1
102
RTVSPropertyOp40
 70
     1
102
RTVSPropertyOp41
 70
     1
102
RTVSPropertyOp42
 70
     1
102
RTVSPropertyOp43
 70
     1
102
RTVSPropertyOp44
 70
     1
102
RTVSPropertyOp45
 70
     1
102
RTVSPropertyOp46
 70
     1
102
RTVSPropertyOp47
 70
     1
102
RTVSPropertyOp48
 70
     1
102
RTVSPropertyOp49
 70
     1
102
RTVSPropertyOp50
 70
     1
102
RTVSPropertyOp51
 70
     0
102
RTVSPropertyOp52
 70
     0
102
RTVSPropertyOp53
 70
     1
102
RTVSPropertyOp54
 70
     1
102
RTVSPropertyOp55
 70
     1
102
RTVSPropertyOp56
 70
     1
102
RTVSPropertyOp57
 70
     1
102
RTVSPropertyOp58
 70
     1
102
RTVSPropertyOp59
 70
     1
102
RTVSPropertyOp60
 70
     1
102
RTVSPropertyOp61
 70
     1
102
RTVSPropertyOp62
 70
     1
  0
ENDSEC
  0
EOF
