  0
SECTION
  2
HEADER
  9
$ACADVER
  1
AC1015
  9
$ACADMAINTVER
 70
    20
  9
$DWGCODEPAGE
  3
ANSI_932
  9
$INSBASE
 10
0.0
 20
0.0
 30
0.0
  9
$EXTMIN
 10
10.0
 20
9.999999999999998
 30
0.0
  9
$EXTMAX
 10
481.264008
 20
382.909486
 30
0.0
  9
$LIMMIN
 10
0.0
 20
0.0
  9
$LIMMAX
 10
594.9999999638297
 20
410.1893938350131
  9
$ORTHOMODE
 70
     1
  9
$REGENMODE
 70
     1
  9
$FILLMODE
 70
     1
  9
$QTEXTMODE
 70
     0
  9
$MIRRTEXT
 70
     1
  9
$LTSCALE
 40
20.0
  9
$ATTMODE
 70
     1
  9
$TEXTSIZE
 40
5.0
  9
$TRACEWID
 40
1.0
  9
$TEXTSTYLE
  7
STANDARD
  9
$CLAYER
  8
0
  9
$CELTYPE
  6
BYLAYER
  9
$CECOLOR
 62
   256
  9
$CELTSCALE
 40
1.0
  9
$DISPSILH
 70
     0
  9
$DIMSCALE
 40
1.0
  9
$DIMASZ
 40
2.5
  9
$DIMEXO
 40
1.0
  9
$DIMDLI
 40
10.0
  9
$DIMRND
 40
0.0
  9
$DIMDLE
 40
0.0
  9
$DIMEXE
 40
1.0
  9
$DIMTP
 40
0.0
  9
$DIMTM
 40
0.0
  9
$DIMTXT
 40
3.2
  9
$DIMCEN
 40
0.0
  9
$DIMTSZ
 40
0.0
  9
$DIMTOL
 70
     0
  9
$DIMLIM
 70
     0
  9
$DIMTIH
 70
     0
  9
$DIMTOH
 70
     0
  9
$DIMSE1
 70
     0
  9
$DIMSE2
 70
     0
  9
$DIMTAD
 70
     3
  9
$DIMZIN
 70
     8
  9
$DIMBLK
  1

  9
$DIMASO
 70
     1
  9
$DIMSHO
 70
     1
  9
$DIMPOST
  1

  9
$DIMAPOST
  1

  9
$DIMALT
 70
     0
  9
$DIMALTD
 70
     2
  9
$DIMALTF
 40
25.4
  9
$DIMLFAC
 40
1.0
  9
$DIMTOFL
 70
     1
  9
$DIMTVP
 40
0.0
  9
$DIMTIX
 70
     0
  9
$DIMSOXD
 70
     0
  9
$DIMSAH
 70
     1
  9
$DIMBLK1
  1

  9
$DIMBLK2
  1

  9
$DIMSTYLE
  2
STANDARD
  9
$DIMCLRD
 70
     0
  9
$DIMCLRE
 70
     0
  9
$DIMCLRT
 70
     0
  9
$DIMTFAC
 40
1.0
  9
$DIMGAP
 40
1.0
  9
$DIMJUST
 70
     0
  9
$DIMSD1
 70
     0
  9
$DIMSD2
 70
     0
  9
$DIMTOLJ
 70
     1
  9
$DIMTZIN
 70
     0
  9
$DIMALTZ
 70
     0
  9
$DIMALTTZ
 70
     0
  9
$DIMUPT
 70
     0
  9
$DIMDEC
 70
     4
  9
$DIMTDEC
 70
     4
  9
$DIMALTU
 70
     2
  9
$DIMALTTD
 70
     2
  9
$DIMTXSTY
  7
STANDARD
  9
$DIMAUNIT
 70
     0
  9
$DIMADEC
 70
     0
  9
$DIMALTRND
 40
0.0
  9
$DIMAZIN
 70
     0
  9
$DIMDSEP
 70
    46
  9
$DIMATFIT
 70
     3
  9
$DIMFRAC
 70
     0
  9
$DIMLDRBLK
  1

  9
$DIMLUNIT
 70
     2
  9
$DIMLWD
 70
    -2
  9
$DIMLWE
 70
    -2
  9
$DIMTMOVE
 70
     0
  9
$LUNITS
 70
     2
  9
$LUPREC
 70
     4
  9
$SKETCHINC
 40
1.0
  9
$FILLETRAD
 40
0.0
  9
$AUNITS
 70
     0
  9
$AUPREC
 70
     2
  9
$MENU
  1
.
  9
$ELEVATION
 40
0.0
  9
$PELEVATION
 40
0.0
  9
$THICKNESS
 40
0.0
  9
$LIMCHECK
 70
     0
  9
$CHAMFERA
 40
10.0
  9
$CHAMFERB
 40
10.0
  9
$CHAMFERC
 40
0.0
  9
$CHAMFERD
 40
0.0
  9
$SKPOLY
 70
     0
  9
$TDCREATE
 40
2451301.453028009
  9
$TDUCREATE
 40
2451301.078028009
  9
$TDUPDATE
 40
2457192.690158299
  9
$TDUUPDATE
 40
2457192.315158299
  9
$TDINDWG
 40
0.1083494444
  9
$TDUSRTIMER
 40
0.1083492477
  9
$USRTIMER
 70
     1
  9
$ANGBASE
 50
0.0
  9
$ANGDIR
 70
     0
  9
$PDMODE
 70
     0
  9
$PDSIZE
 40
0.0
  9
$PLINEWID
 40
0.0
  9
$SPLFRAME
 70
     0
  9
$SPLINETYPE
 70
     6
  9
$SPLINESEGS
 70
     8
  9
$HANDSEED
  5
9F62
  9
$SURFTAB1
 70
     6
  9
$SURFTAB2
 70
     6
  9
$SURFTYPE
 70
     6
  9
$SURFU
 70
     6
  9
$SURFV
 70
     6
  9
$UCSBASE
  2

  9
$UCSNAME
  2

  9
$UCSORG
 10
0.0
 20
0.0
 30
0.0
  9
$UCSXDIR
 10
1.0
 20
0.0
 30
0.0
  9
$UCSYDIR
 10
0.0
 20
1.0
 30
0.0
  9
$UCSORTHOREF
  2

  9
$UCSORTHOVIEW
 70
     0
  9
$UCSORGTOP
 10
0.0
 20
0.0
 30
0.0
  9
$UCSORGBOTTOM
 10
0.0
 20
0.0
 30
0.0
  9
$UCSORGLEFT
 10
0.0
 20
0.0
 30
0.0
  9
$UCSORGRIGHT
 10
0.0
 20
0.0
 30
0.0
  9
$UCSORGFRONT
 10
0.0
 20
0.0
 30
0.0
  9
$UCSORGBACK
 10
0.0
 20
0.0
 30
0.0
  9
$PUCSBASE
  2

  9
$PUCSNAME
  2

  9
$PUCSORG
 10
0.0
 20
0.0
 30
0.0
  9
$PUCSXDIR
 10
1.0
 20
0.0
 30
0.0
  9
$PUCSYDIR
 10
0.0
 20
1.0
 30
0.0
  9
$PUCSORTHOREF
  2

  9
$PUCSORTHOVIEW
 70
     0
  9
$PUCSORGTOP
 10
0.0
 20
0.0
 30
0.0
  9
$PUCSORGBOTTOM
 10
0.0
 20
0.0
 30
0.0
  9
$PUCSORGLEFT
 10
0.0
 20
0.0
 30
0.0
  9
$PUCSORGRIGHT
 10
0.0
 20
0.0
 30
0.0
  9
$PUCSORGFRONT
 10
0.0
 20
0.0
 30
0.0
  9
$PUCSORGBACK
 10
0.0
 20
0.0
 30
0.0
  9
$USERI1
 70
     0
  9
$USERI2
 70
     0
  9
$USERI3
 70
     0
  9
$USERI4
 70
     0
  9
$USERI5
 70
     0
  9
$USERR1
 40
0.0
  9
$USERR2
 40
0.0
  9
$USERR3
 40
0.0
  9
$USERR4
 40
0.0
  9
$USERR5
 40
0.0
  9
$WORLDVIEW
 70
     1
  9
$SHADEDGE
 70
     3
  9
$SHADEDIF
 70
    70
  9
$TILEMODE
 70
     1
  9
$MAXACTVP
 70
    16
  9
$PINSBASE
 10
0.0
 20
0.0
 30
0.0
  9
$PLIMCHECK
 70
     0
  9
$PEXTMIN
 10
1.000000000000000E+20
 20
1.000000000000000E+20
 30
1.000000000000000E+20
  9
$PEXTMAX
 10
-1.000000000000000E+20
 20
-1.000000000000000E+20
 30
-1.000000000000000E+20
  9
$PLIMMIN
 10
0.0
 20
0.0
  9
$PLIMMAX
 10
420.0
 20
297.0
  9
$UNITMODE
 70
     0
  9
$VISRETAIN
 70
     0
  9
$PLINEGEN
 70
     0
  9
$PSLTSCALE
 70
     0
  9
$TREEDEPTH
 70
  3020
  9
$CMLSTYLE
  2
STANDARD
  9
$CMLJUST
 70
     0
  9
$CMLSCALE
 40
1.0
  9
$PROXYGRAPHICS
 70
     1
  9
$MEASUREMENT
 70
     0
  9
$CELWEIGHT
370
    -1
  9
$ENDCAPS
280
     0
  9
$JOINSTYLE
280
     0
  9
$LWDISPLAY
290
     0
  9
$INSUNITS
 70
     0
  9
$HYPERLINKBASE
  1

  9
$STYLESHEET
  1

  9
$XEDIT
290
     1
  9
$CEPSNTYPE
380
     0
  9
$PSTYLEMODE
290
     1
  9
$FINGERPRINTGUID
  2
{602B0819-331D-435A-A87F-ABAAC4F7C257}
  9
$VERSIONGUID
  2
{55EB41D6-6871-4F16-A4C6-AFD02B62E323}
  9
$EXTNAMES
290
     1
  9
$PSVPSCALE
 40
0.0
  9
$OLESTARTUP
290
     0
  0
ENDSEC
  0
SECTION
  2
CLASSES
  0
CLASS
  1
ACDBDICTIONARYWDFLT
  2
AcDbDictionaryWithDefault
  3
ObjectDBX Classes
 90
        0
280
     0
281
     0
  0
CLASS
  1
ACDBPLACEHOLDER
  2
AcDbPlaceHolder
  3
ObjectDBX Classes
 90
        0
280
     0
281
     0
  0
CLASS
  1
LAYOUT
  2
AcDbLayout
  3
ObjectDBX Classes
 90
        0
280
     0
281
     0
  0
CLASS
  1
DICTIONARYVAR
  2
AcDbDictionaryVar
  3
ObjectDBX Classes
 90
        0
280
     0
281
     0
  0
CLASS
  1
MATERIAL
  2
AcDbMaterial
  3
ObjectDBX Classes
 90
     1153
280
     0
281
     0
  0
CLASS
  1
VISUALSTYLE
  2
AcDbVisualStyle
  3
ObjectDBX Classes
 90
     4095
280
     0
281
     0
  0
CLASS
  1
TABLESTYLE
  2
AcDbTableStyle
  3
ObjectDBX Classes
 90
     4095
280
     0
281
     0
  0
CLASS
  1
SCALE
  2
AcDbScale
  3
ObjectDBX Classes
 90
     1153
280
     0
281
     0
  0
CLASS
  1
MLEADERSTYLE
  2
AcDbMLeaderStyle
  3
ACDB_MLEADERSTYLE_CLASS
 90
     4095
280
     0
281
     0
  0
CLASS
  1
ACDBSECTIONVIEWSTYLE
  2
AcDbSectionViewStyle
  3
ObjectDBX Classes
 90
     1025
280
     0
281
     0
  0
CLASS
  1
ACDBDETAILVIEWSTYLE
  2
AcDbDetailViewStyle
  3
ObjectDBX Classes
 90
     1025
280
     0
281
     0
  0
CLASS
  1
CELLSTYLEMAP
  2
AcDbCellStyleMap
  3
ObjectDBX Classes
 90
     1152
280
     0
281
     0
  0
ENDSEC
  0
SECTION
  2
TABLES
  0
TABLE
  2
VPORT
  5
9BD2
330
0
100
AcDbSymbolTable
 70
     1
  0
VPORT
  5
9EAD
330
9BD2
100
AcDbSymbolTableRecord
100
AcDbViewportTableRecord
  2
*ACTIVE
 70
     0
 10
0.0
 20
0.0
 11
1.0
 21
1.0
 12
389.1813888824048
 22
196.4416394369287
 13
0.0
 23
0.0
 14
10.0
 24
10.0
 15
10.0
 25
10.0
 16
0.0
 26
0.0
 36
1.0
 17
0.0
 27
0.0
 37
0.0
 40
375.8864037779602
 41
2.35006605019815
 42
50.0
 43
0.0
 44
0.0
 50
0.0
 51
0.0
 71
     0
 72
   100
 73
     1
 74
     0
 75
     0
 76
     0
 77
     0
 78
     0
281
     0
 65
     1
110
0.0
120
0.0
130
0.0
111
1.0
121
0.0
131
0.0
112
0.0
122
1.0
132
0.0
 79
     0
146
0.0
1001
ACAD_NAV_VCDISPLAY
1070
     3
  0
ENDTAB
  0
TABLE
  2
LTYPE
  5
9BCF
330
0
100
AcDbSymbolTable
 70
     4
  0
LTYPE
  5
9BDD
330
9BCF
100
AcDbSymbolTableRecord
100
AcDbLinetypeTableRecord
  2
BYBLOCK
 70
     0
  3

 72
    65
 73
     0
 40
0.0
  0
LTYPE
  5
9BDE
330
9BCF
100
AcDbSymbolTableRecord
100
AcDbLinetypeTableRecord
  2
BYLAYER
 70
     0
  3

 72
    65
 73
     0
 40
0.0
  0
LTYPE
  5
9BDF
330
9BCF
100
AcDbSymbolTableRecord
100
AcDbLinetypeTableRecord
  2
CONTINUOUS
 70
     0
  3
Solid line
 72
    65
 73
     0
 40
0.0
  0
LTYPE
  5
9BED
330
9BCF
100
AcDbSymbolTableRecord
100
AcDbLinetypeTableRecord
  2
DASHED
 70
     0
  3
__ __ __ __ __ __ __ __ __ __ __ __ __ __ __ __
 72
    65
 73
     2
 40
0.75
 49
0.5
 74
     0
 49
-0.25
 74
     0
  0
LTYPE
  5
9BEE
330
9BCF
100
AcDbSymbolTableRecord
100
AcDbLinetypeTableRecord
  2
CENTER
 70
     0
  3
____ _ ____ _ ____ _ ____ _ ____ _ ____ _ ____ 
 72
    65
 73
     4
 40
2.0
 49
1.25
 74
     0
 49
-0.25
 74
     0
 49
0.25
 74
     0
 49
-0.25
 74
     0
  0
LTYPE
  5
9BEF
330
9BCF
100
AcDbSymbolTableRecord
100
AcDbLinetypeTableRecord
  2
PHANTOM
 70
     0
  3
______  __  __  ______  __  __  ______  __  __ 
 72
    65
 73
     6
 40
2.5
 49
1.25
 74
     0
 49
-0.25
 74
     0
 49
0.25
 74
     0
 49
-0.25
 74
     0
 49
0.25
 74
     0
 49
-0.25
 74
     0
  0
ENDTAB
  0
TABLE
  2
LAYER
  5
9BCC
330
0
100
AcDbSymbolTable
 70
     8
  0
LAYER
  5
9BDA
102
{ACAD_XDICTIONARY
360
9F06
102
}
330
9BCC
100
AcDbSymbolTableRecord
100
AcDbLayerTableRecord
  2
0
 70
     0
 62
     7
  6
CONTINUOUS
370
    -3
390
9EB4
  0
LAYER
  5
9BF0
102
{ACAD_XDICTIONARY
360
9F08
102
}
330
9BCC
100
AcDbSymbolTableRecord
100
AcDbLayerTableRecord
  2
4
 70
     0
 62
     1
  6
CENTER
370
    -3
390
9EB4
  0
LAYER
  5
9BF1
102
{ACAD_XDICTIONARY
360
9F0A
102
}
330
9BCC
100
AcDbSymbolTableRecord
100
AcDbLayerTableRecord
  2
5
 70
     0
 62
     6
  6
PHANTOM
370
    -3
390
9EB4
  0
LAYER
  5
9BF2
102
{ACAD_XDICTIONARY
360
9F0C
102
}
330
9BCC
100
AcDbSymbolTableRecord
100
AcDbLayerTableRecord
  2
1
 70
     0
 62
     7
  6
CONTINUOUS
370
    -3
390
9EB4
  0
LAYER
  5
9BF3
102
{ACAD_XDICTIONARY
360
9F0E
102
}
330
9BCC
100
AcDbSymbolTableRecord
100
AcDbLayerTableRecord
  2
2
 70
     0
 62
     4
  6
CONTINUOUS
370
    -3
390
9EB4
  0
LAYER
  5
9BF4
102
{ACAD_XDICTIONARY
360
9F10
102
}
330
9BCC
100
AcDbSymbolTableRecord
100
AcDbLayerTableRecord
  2
3
 70
     0
 62
     2
  6
DASHED
370
    -3
390
9EB4
  0
LAYER
  5
9BF5
102
{ACAD_XDICTIONARY
360
9F12
102
}
330
9BCC
100
AcDbSymbolTableRecord
100
AcDbLayerTableRecord
  2
6
 70
     0
 62
     5
  6
CONTINUOUS
370
    -3
390
9EB4
  0
LAYER
  5
9BF6
102
{ACAD_XDICTIONARY
360
9F14
102
}
330
9BCC
100
AcDbSymbolTableRecord
100
AcDbLayerTableRecord
  2
7
 70
     0
 62
     3
  6
CONTINUOUS
370
    -3
390
9EB4
  0
ENDTAB
  0
TABLE
  2
STYLE
  5
9BCD
330
0
100
AcDbSymbolTable
 70
     1
  0
STYLE
  5
9BDB
330
9BCD
100
AcDbSymbolTableRecord
100
AcDbTextStyleTableRecord
  2
STANDARD
 70
     0
 40
0.0
 41
1.0
 50
0.0
 71
     0
 42
5.0
  3
txt
  4

  0
ENDTAB
  0
TABLE
  2
VIEW
  5
9BD0
330
0
100
AcDbSymbolTable
 70
     0
  0
ENDTAB
  0
TABLE
  2
UCS
  5
9BD1
330
0
100
AcDbSymbolTable
 70
     0
  0
ENDTAB
  0
TABLE
  2
APPID
  5
9BD3
330
0
100
AcDbSymbolTable
 70
     3
  0
APPID
  5
9BDC
330
9BD3
100
AcDbSymbolTableRecord
100
AcDbRegAppTableRecord
  2
ACAD
 70
     0
  0
APPID
  5
9F20
330
9BD3
100
AcDbSymbolTableRecord
100
AcDbRegAppTableRecord
  2
ACAD_NAV_VCDISPLAY
 70
     0
  0
APPID
  5
9F59
330
9BD3
100
AcDbSymbolTableRecord
100
AcDbRegAppTableRecord
  2
ACAD_MLEADERVER
 70
     0
  0
ENDTAB
  0
TABLE
  2
DIMSTYLE
  5
9BD4
330
0
100
AcDbSymbolTable
 70
     1
100
AcDbDimStyleTable
 71
     0
  0
DIMSTYLE
105
9BF8
330
9BD4
100
AcDbSymbolTableRecord
100
AcDbDimStyleTableRecord
  2
STANDARD
 70
     0
 41
2.5
 42
1.0
 43
10.0
 44
1.0
 73
     0
 74
     0
 77
     3
 78
     8
140
3.2
141
0.0
147
1.0
172
     1
173
     1
284
     8
285
     8
286
     8
340
9BDB
  0
ENDTAB
  0
TABLE
  2
BLOCK_RECORD
  5
9BCB
330
0
100
AcDbSymbolTable
 70
     0
  0
BLOCK_RECORD
  5
9BE8
102
{ACAD_XDICTIONARY
360
9E36
102
}
330
9BCB
100
AcDbSymbolTableRecord
100
AcDbBlockTableRecord
  2
*MODEL_SPACE
340
9F02
  0
BLOCK_RECORD
  5
9BE4
102
{ACAD_XDICTIONARY
360
9E34
102
}
330
9BCB
100
AcDbSymbolTableRecord
100
AcDbBlockTableRecord
  2
*PAPER_SPACE
340
9F03
  0
ENDTAB
  0
ENDSEC
  0
SECTION
  2
BLOCKS
  0
BLOCK
  5
9BE9
330
9BE8
100
AcDbEntity
  8
0
100
AcDbBlockBegin
  2
*MODEL_SPACE
 70
     0
 10
0.0
 20
0.0
 30
0.0
  3
*MODEL_SPACE
  1

  0
ENDBLK
  5
9BEA
330
9BE8
100
AcDbEntity
  8
0
100
AcDbBlockEnd
  0
BLOCK
  5
9BE5
330
9BE4
100
AcDbEntity
 67
     1
  8
0
100
AcDbBlockBegin
  2
*PAPER_SPACE
 70
     0
 10
0.0
 20
0.0
 30
0.0
  3
*PAPER_SPACE
  1

  0
ENDBLK
  5
9BE6
330
9BE4
100
AcDbEntity
 67
     1
  8
0
100
AcDbBlockEnd
  0
ENDSEC
  0
SECTION
  2
ENTITIES
  0
TEXT
  5
9C00
330
9BE8
100
AcDbEntity
  8
7
  6
Continuous
100
AcDbText
 10
10.0
 20
18.0
 30
0.0
 40
3.0
  1
TYPE No.TCA-420ER-N100
100
AcDbText
  0
TEXT
  5
9C01
330
9BE8
100
AcDbEntity
  8
7
  6
Continuous
100
AcDbText
 10
10.0
 20
26.0
 30
0.0
 40
3.0
  1
CODE No.9798
100
AcDbText
  0
TEXT
  5
9C02
330
9BE8
100
AcDbEntity
  8
1
  6
Continuous
100
AcDbText
 10
10.0
 20
10.0
 30
0.0
 40
1.399999999999999
  1
LAYER
100
AcDbText
  0
TEXT
  5
9C03
330
9BE8
100
AcDbEntity
  8
1
  6
Continuous
100
AcDbText
 10
17.97951099999998
 20
10.04873699999998
 30
0.0
 40
1.399999999999999
  1
1
100
AcDbText
  0
TEXT
  5
9C04
330
9BE8
100
AcDbEntity
  8
7
  6
Continuous
100
AcDbText
 10
29.97951099999999
 20
10.04873699999998
 30
0.0
 40
1.399999999999999
  1
7
100
AcDbText
  0
TEXT
  5
9C05
330
9BE8
100
AcDbEntity
  8
4
  6
CENTER
100
AcDbText
 10
23.97951099999999
 20
10.04873699999998
 30
0.0
 40
1.399999999999999
  1
4
100
AcDbText
  0
TEXT
  5
9C06
330
9BE8
100
AcDbEntity
  8
3
  6
DASHED
100
AcDbText
 10
21.979511
 20
10.04873699999998
 30
0.0
 40
1.399999999999999
  1
3
100
AcDbText
  0
TEXT
  5
9C07
330
9BE8
100
AcDbEntity
  8
2
  6
Continuous
100
AcDbText
 10
19.97951099999998
 20
10.04873699999998
 30
0.0
 40
1.399999999999999
  1
2
100
AcDbText
  0
TEXT
  5
9C08
330
9BE8
100
AcDbEntity
  8
6
  6
Continuous
100
AcDbText
 10
27.979511
 20
10.04873699999998
 30
0.0
 40
1.399999999999999
  1
6
100
AcDbText
  0
TEXT
  5
9C09
330
9BE8
100
AcDbEntity
  8
5
  6
PHANTOM
100
AcDbText
 10
25.97951099999999
 20
10.04873699999998
 30
0.0
 40
1.399999999999999
  1
5
100
AcDbText
  0
LINE
  5
9C0A
330
9BE8
100
AcDbEntity
  8
1
  6
Continuous
100
AcDbLine
 10
27.522709
 20
279.1094959999999
 30
0.0
 11
85.52270899999998
 21
279.1094959999999
 31
0.0
  0
LINE
  5
9C0B
330
9BE8
100
AcDbEntity
  8
1
  6
Continuous
100
AcDbLine
 10
27.522709
 20
276.3094929999999
 30
0.0
 11
85.52270899999998
 21
276.3094929999999
 31
0.0
  0
LINE
  5
9C0C
330
9BE8
100
AcDbEntity
  8
1
  6
Continuous
100
AcDbLine
 10
27.522709
 20
279.1094959999999
 30
0.0
 11
27.522709
 21
276.3094929999999
 31
0.0
  0
LINE
  5
9C0D
330
9BE8
100
AcDbEntity
  8
1
  6
Continuous
100
AcDbLine
 10
85.52270899999998
 20
279.1094959999999
 30
0.0
 11
85.52270899999998
 21
276.3094929999999
 31
0.0
  0
LINE
  5
9C0E
330
9BE8
100
AcDbEntity
  8
1
  6
Continuous
100
AcDbLine
 10
40.52270899999999
 20
276.3094929999999
 30
0.0
 11
40.52270899999999
 21
197.109496
 31
0.0
  0
LINE
  5
9C0F
330
9BE8
100
AcDbEntity
  8
1
  6
Continuous
100
AcDbLine
 10
72.52270899999998
 20
276.3094929999999
 30
0.0
 11
72.52270899999998
 21
197.109496
 31
0.0
  0
LINE
  5
9C10
330
9BE8
100
AcDbEntity
  8
1
  6
Continuous
100
AcDbLine
 10
37.72271899999999
 20
197.109496
 30
0.0
 11
40.52270899999999
 21
197.109496
 31
0.0
  0
LINE
  5
9C11
330
9BE8
100
AcDbEntity
  8
1
  6
Continuous
100
AcDbLine
 10
75.322704
 20
197.109496
 30
0.0
 11
72.52270899999998
 21
197.109496
 31
0.0
  0
LINE
  5
9C12
330
9BE8
100
AcDbEntity
  8
4
  6
CENTER
100
AcDbLine
 10
27.927309
 20
207.1094959999999
 30
0.0
 11
81.256161
 21
207.1094959999999
 31
0.0
  0
LINE
  5
9C13
330
9BE8
100
AcDbEntity
  8
4
  6
CENTER
100
AcDbLine
 10
56.522709
 20
284.1094959999998
 30
0.0
 11
56.522709
 21
152.109496
 31
0.0
  0
LINE
  5
9C14
330
9BE8
100
AcDbEntity
  8
1
  6
Continuous
100
AcDbLine
 10
40.52270899999999
 20
211.1094959999999
 30
0.0
 11
41.522709
 21
211.1094959999999
 31
0.0
  0
LINE
  5
9C15
330
9BE8
100
AcDbEntity
  8
1
  6
Continuous
100
AcDbLine
 10
40.52270899999999
 20
203.1094959999999
 30
0.0
 11
41.522709
 21
203.1094959999999
 31
0.0
  0
LINE
  5
9C16
330
9BE8
100
AcDbEntity
  8
1
  6
Continuous
100
AcDbLine
 10
75.322704
 20
270.3172124722391
 30
0.0
 11
75.322704
 21
197.109496
 31
0.0
  0
LINE
  5
9C17
330
9BE8
100
AcDbEntity
  8
1
  6
Continuous
100
AcDbLine
 10
37.72271899999999
 20
270.317168
 30
0.0
 11
37.72271899999999
 21
197.109496
 31
0.0
  0
LINE
  5
9C18
330
9BE8
100
AcDbEntity
  8
4
  6
CENTER
100
AcDbLine
 10
76.522711
 20
284.1094959999998
 30
0.0
 11
76.522711
 21
271.309493
 31
0.0
  0
LINE
  5
9C19
330
9BE8
100
AcDbEntity
  8
1
  6
Continuous
100
AcDbLine
 10
129.522709
 20
279.1094959999999
 30
0.0
 11
173.5227109999999
 21
279.1094959999999
 31
0.0
  0
LINE
  5
9C1A
330
9BE8
100
AcDbEntity
  8
1
  6
Continuous
100
AcDbLine
 10
129.522709
 20
276.3094929999999
 30
0.0
 11
147.5227089999999
 21
276.3094929999999
 31
0.0
  0
LINE
  5
9C1B
330
9BE8
100
AcDbEntity
  8
1
  6
Continuous
100
AcDbLine
 10
129.522709
 20
276.3094929999999
 30
0.0
 11
129.522709
 21
279.1094959999999
 31
0.0
  0
LINE
  5
9C1C
330
9BE8
100
AcDbEntity
  8
1
  6
Continuous
100
AcDbLine
 10
229.522709
 20
276.3094929999999
 30
0.0
 11
229.522709
 21
279.1094959999999
 31
0.0
  0
LINE
  5
9C1D
330
9BE8
100
AcDbEntity
  8
4
  6
CENTER
100
AcDbLine
 10
123.78141
 20
207.1094959999999
 30
0.0
 11
233.8364829999999
 21
207.1094959999999
 31
0.0
  0
LINE
  5
9C1E
330
9BE8
100
AcDbEntity
  8
4
  6
CENTER
100
AcDbLine
 10
179.522709
 20
284.4094909999999
 30
0.0
 11
179.522709
 21
152.109496
 31
0.0
  0
LINE
  5
9C1F
330
9BE8
100
AcDbEntity
  8
4
  6
CENTER
100
AcDbLine
 10
138.5227089999998
 20
284.1094959999998
 30
0.0
 11
138.5227089999998
 21
271.309493
 31
0.0
  0
LINE
  5
9C20
330
9BE8
100
AcDbEntity
  8
1
  6
Continuous
100
AcDbLine
 10
211.5227089999999
 20
276.3094929999999
 30
0.0
 11
229.522709
 21
276.3094929999999
 31
0.0
  0
LINE
  5
9C21
330
9BE8
100
AcDbEntity
  8
4
  6
CENTER
100
AcDbLine
 10
220.522709
 20
284.1094959999998
 30
0.0
 11
220.522709
 21
271.309493
 31
0.0
  0
LINE
  5
9C22
330
9BE8
100
AcDbEntity
  8
1
  6
Continuous
100
AcDbLine
 10
154.8055549999999
 20
270.815791
 30
0.0
 11
169.770849
 21
204.895614
 31
0.0
  0
LINE
  5
9C23
330
9BE8
100
AcDbEntity
  8
1
  6
Continuous
100
AcDbLine
 10
204.2398920663074
 20
270.8158342600863
 30
0.0
 11
189.2745919999999
 21
204.89561
 31
0.0
  0
LINE
  5
9C24
330
9BE8
100
AcDbEntity
  8
1
  6
Continuous
100
AcDbLine
 10
78.522701
 20
211.3594959999999
 30
0.0
 11
78.522701
 21
202.8594959999999
 31
0.0
  0
LINE
  5
9C25
330
9BE8
100
AcDbEntity
  8
1
  6
Continuous
100
AcDbLine
 10
75.322704
 20
213.3594959999999
 30
0.0
 11
76.52270099999999
 21
213.3594959999999
 31
0.0
  0
LINE
  5
9C26
330
9BE8
100
AcDbEntity
  8
1
  6
Continuous
100
AcDbLine
 10
75.322704
 20
200.8594959999999
 30
0.0
 11
76.52270099999999
 21
200.8594959999999
 31
0.0
  0
LINE
  5
9C27
330
9BE8
100
AcDbEntity
  8
1
  6
Continuous
100
AcDbLine
 10
32.72271899999999
 20
212.2115089999998
 30
0.0
 11
32.72271899999999
 21
202.0074829999999
 31
0.0
  0
LINE
  5
9C28
330
9BE8
100
AcDbEntity
  8
1
  6
Continuous
100
AcDbLine
 10
34.19766899999999
 20
203.859496
 30
0.0
 11
37.247779
 21
203.859496
 31
0.0
  0
LINE
  5
9C29
330
9BE8
100
AcDbEntity
  8
1
  6
Continuous
100
AcDbLine
 10
34.171209
 20
210.359496
 30
0.0
 11
37.274239
 21
210.359496
 31
0.0
  0
LINE
  5
9C2A
330
9BE8
100
AcDbEntity
  8
1
  6
Continuous
100
AcDbLine
 10
34.120719
 20
200.6094959999999
 30
0.0
 11
37.32472899999999
 21
200.6094959999999
 31
0.0
  0
LINE
  5
9C2B
330
9BE8
100
AcDbEntity
  8
1
  6
Continuous
100
AcDbLine
 10
34.120719
 20
213.609496
 30
0.0
 11
37.32472899999999
 21
213.609496
 31
0.0
  0
LINE
  5
9C2C
330
9BE8
100
AcDbEntity
  8
1
  6
Continuous
100
AcDbLine
 10
34.120719
 20
200.6095039999999
 30
0.0
 11
32.72271899999999
 21
202.007495
 31
0.0
  0
LINE
  5
9C2D
330
9BE8
100
AcDbEntity
  8
1
  6
Continuous
100
AcDbLine
 10
32.72271899999999
 20
212.2115089999998
 30
0.0
 11
34.120699
 21
213.6094879999999
 31
0.0
  0
LINE
  5
9C2E
330
9BE8
100
AcDbEntity
  8
4
  6
CENTER
100
AcDbLine
 10
126.3311429999999
 20
352.1094959999999
 30
0.0
 11
232.904942
 21
352.1094959999999
 31
0.0
  0
LINE
  5
9C2F
330
9BE8
100
AcDbEntity
  8
1
  6
Continuous
100
AcDbLine
 10
136.5227089999999
 20
381.1094959999999
 30
0.0
 11
142.9077069999999
 21
381.1094959999999
 31
0.0
  0
LINE
  5
9C30
330
9BE8
100
AcDbEntity
  8
4
  6
CENTER
100
AcDbLine
 10
179.522709
 20
382.909486
 30
0.0
 11
179.522709
 21
325.109504
 31
0.0
  0
LINE
  5
9C31
330
9BE8
100
AcDbEntity
  8
4
  6
CENTER
100
AcDbLine
 10
144.5227089999999
 20
372.1094959999998
 30
0.0
 11
132.522709
 21
372.1094959999998
 31
0.0
  0
LINE
  5
9C32
330
9BE8
100
AcDbEntity
  8
4
  6
CENTER
100
AcDbLine
 10
138.5227089999998
 20
378.1094959999999
 30
0.0
 11
138.5227089999998
 21
366.1094959999999
 31
0.0
  0
LINE
  5
9C33
330
9BE8
100
AcDbEntity
  8
4
  6
CENTER
100
AcDbLine
 10
144.5227089999999
 20
332.1094959999998
 30
0.0
 11
132.522709
 21
332.1094959999998
 31
0.0
  0
LINE
  5
9C34
330
9BE8
100
AcDbEntity
  8
4
  6
CENTER
100
AcDbLine
 10
138.5227089999998
 20
326.1094959999998
 30
0.0
 11
138.5227089999998
 21
338.1094959999998
 31
0.0
  0
LINE
  5
9C35
330
9BE8
100
AcDbEntity
  8
4
  6
CENTER
100
AcDbLine
 10
214.522709
 20
372.1094959999998
 30
0.0
 11
226.5227089999999
 21
372.1094959999998
 31
0.0
  0
LINE
  5
9C36
330
9BE8
100
AcDbEntity
  8
4
  6
CENTER
100
AcDbLine
 10
220.522709
 20
378.1094959999999
 30
0.0
 11
220.522709
 21
366.1094959999999
 31
0.0
  0
LINE
  5
9C37
330
9BE8
100
AcDbEntity
  8
4
  6
CENTER
100
AcDbLine
 10
214.522709
 20
332.1094959999998
 30
0.0
 11
226.5227089999999
 21
332.1094959999998
 31
0.0
  0
LINE
  5
9C38
330
9BE8
100
AcDbEntity
  8
4
  6
CENTER
100
AcDbLine
 10
220.522709
 20
326.1094959999998
 30
0.0
 11
220.522709
 21
338.1094959999998
 31
0.0
  0
LINE
  5
9C39
330
9BE8
100
AcDbEntity
  8
1
  6
Continuous
100
AcDbLine
 10
129.522709
 20
374.1094959999998
 30
0.0
 11
129.522709
 21
330.1094959999998
 31
0.0
  0
LINE
  5
9C3A
330
9BE8
100
AcDbEntity
  8
1
  6
Continuous
100
AcDbLine
 10
157.8194499999999
 20
370.9094959999998
 30
0.0
 11
201.2259709999999
 21
370.9094959999998
 31
0.0
  0
LINE
  5
9C3B
330
9BE8
100
AcDbEntity
  8
1
  6
Continuous
100
AcDbLine
 10
136.5227089999999
 20
323.109496
 30
0.0
 11
142.9077069999999
 21
323.109496
 31
0.0
  0
LINE
  5
9C3C
330
9BE8
100
AcDbEntity
  8
1
  6
Continuous
100
AcDbLine
 10
157.8194499999999
 20
333.3095009999999
 30
0.0
 11
201.2259709999999
 21
333.3095009999999
 31
0.0
  0
LINE
  5
9C3D
330
9BE8
100
AcDbEntity
  8
1
  6
Continuous
100
AcDbLine
 10
222.522709
 20
381.1094959999999
 30
0.0
 11
216.1377139999999
 21
381.1094959999999
 31
0.0
  0
LINE
  5
9C3E
330
9BE8
100
AcDbEntity
  8
1
  6
Continuous
100
AcDbLine
 10
229.522709
 20
374.1094959999998
 30
0.0
 11
229.522709
 21
330.1094959999998
 31
0.0
  0
LINE
  5
9C3F
330
9BE8
100
AcDbEntity
  8
1
  6
Continuous
100
AcDbLine
 10
222.522709
 20
323.109496
 30
0.0
 11
216.1377139999999
 21
323.109496
 31
0.0
  0
LINE
  5
9C40
330
9BE8
100
AcDbEntity
  8
1
  6
Continuous
100
AcDbLine
 10
174.522709
 20
334.8094929999998
 30
0.0
 11
174.522709
 21
369.409496
 31
0.0
  0
LINE
  5
9C41
330
9BE8
100
AcDbEntity
  8
1
  6
Continuous
100
AcDbLine
 10
174.522709
 20
335.809493
 30
0.0
 11
184.5227069999999
 21
335.809493
 31
0.0
  0
LINE
  5
9C42
330
9BE8
100
AcDbEntity
  8
1
  6
Continuous
100
AcDbLine
 10
174.522709
 20
334.8094929999998
 30
0.0
 11
184.5227069999999
 21
334.8094929999998
 31
0.0
  0
LINE
  5
9C43
330
9BE8
100
AcDbEntity
  8
1
  6
Continuous
100
AcDbLine
 10
174.522709
 20
334.8094929999998
 30
0.0
 11
174.522709
 21
335.809493
 31
0.0
  0
LINE
  5
9C44
330
9BE8
100
AcDbEntity
  8
1
  6
Continuous
100
AcDbLine
 10
184.5227069999999
 20
334.8094929999998
 30
0.0
 11
184.5227069999999
 21
335.809493
 31
0.0
  0
LINE
  5
9C45
330
9BE8
100
AcDbEntity
  8
1
  6
Continuous
100
AcDbLine
 10
174.522709
 20
368.4094959999998
 30
0.0
 11
184.5227069999999
 21
368.4094959999998
 31
0.0
  0
LINE
  5
9C46
330
9BE8
100
AcDbEntity
  8
1
  6
Continuous
100
AcDbLine
 10
174.522709
 20
369.409496
 30
0.0
 11
184.5227069999999
 21
369.409496
 31
0.0
  0
LINE
  5
9C47
330
9BE8
100
AcDbEntity
  8
1
  6
Continuous
100
AcDbLine
 10
184.5227069999999
 20
334.8094929999998
 30
0.0
 11
184.5227069999999
 21
369.409496
 31
0.0
  0
LINE
  5
9C48
330
9BE8
100
AcDbEntity
  8
1
  6
Continuous
100
AcDbLine
 10
184.5227129999999
 20
277.1094939999999
 30
0.0
 11
174.5227099999999
 21
277.1094939999999
 31
0.0
  0
LINE
  5
9C49
330
9BE8
100
AcDbEntity
  8
1
  6
Continuous
100
AcDbLine
 10
183.8363919999999
 20
259.4968819999999
 30
0.0
 11
175.008735
 21
259.4968819999999
 31
0.0
  0
LINE
  5
9C4A
330
9BE8
100
AcDbEntity
  8
1
  6
Continuous
100
AcDbLine
 10
174.5227109999999
 20
260.1094939999999
 30
0.0
 11
174.5227109999999
 21
278.109494
 31
0.0
  0
LINE
  5
9C4B
330
9BE8
100
AcDbEntity
  8
1
  6
Continuous
100
AcDbLine
 10
184.5227089999999
 20
260.1094939999999
 30
0.0
 11
184.5227089999999
 21
278.109494
 31
0.0
  0
LINE
  5
9C4C
330
9BE8
100
AcDbEntity
  8
1
  6
Continuous
100
AcDbLine
 10
44.022709
 20
274.3094929999999
 30
0.0
 11
69.02270899999999
 21
274.3094929999999
 31
0.0
  0
LINE
  5
9C4D
330
9BE8
100
AcDbEntity
  8
1
  6
Continuous
100
AcDbLine
 10
70.147729
 20
259.4553579999999
 30
0.0
 11
71.072709
 21
255.3970899999999
 31
0.0
  0
LINE
  5
9C4E
330
9BE8
100
AcDbEntity
  8
1
  6
Continuous
100
AcDbLine
 10
43.02270899999999
 20
273.3094929999999
 30
0.0
 11
43.02270899999999
 21
260.566494
 31
0.0
  0
LINE
  5
9C4F
330
9BE8
100
AcDbEntity
  8
1
  6
Continuous
100
AcDbLine
 10
70.02270899999999
 20
273.3094929999999
 30
0.0
 11
70.02270899999999
 21
260.566494
 31
0.0
  0
LINE
  5
9C50
330
9BE8
100
AcDbEntity
  8
1
  6
Continuous
100
AcDbLine
 10
42.897679
 20
259.4553599999999
 30
0.0
 11
41.972689
 21
255.3970919999999
 31
0.0
  0
LINE
  5
9C51
330
9BE8
100
AcDbEntity
  8
1
  6
Continuous
100
AcDbLine
 10
185.5227089999999
 20
279.1094959999999
 30
0.0
 11
229.522709
 21
279.1094959999999
 31
0.0
  0
LINE
  5
9C52
330
9BE8
100
AcDbEntity
  8
1
  6
Continuous
100
AcDbLine
 10
71.52270899999997
 20
211.1094959999999
 30
0.0
 11
72.52270899999998
 21
211.1094959999999
 31
0.0
  0
LINE
  5
9C53
330
9BE8
100
AcDbEntity
  8
1
  6
Continuous
100
AcDbLine
 10
71.52270899999997
 20
203.1094959999999
 30
0.0
 11
72.52270899999998
 21
203.1094959999999
 31
0.0
  0
ARC
  5
9C56
330
9BE8
100
AcDbEntity
  8
1
  6
Continuous
100
AcDbCircle
 10
35.52270899999999
 20
268.3094929999999
 30
0.0
 40
5.0
100
AcDbArc
 50
0.0
 51
63.896051
  0
ARC
  5
9C57
330
9BE8
100
AcDbEntity
  8
1
  6
Continuous
100
AcDbCircle
 10
33.222719
 20
276.3094929999999
 30
0.0
 40
1.5
100
AcDbArc
 50
179.9999599999999
 51
244.2630881209527
  0
ARC
  5
9C58
330
9BE8
100
AcDbEntity
  8
1
  6
Continuous
100
AcDbCircle
 10
179.522709
 20
207.1094959999999
 30
0.0
 40
10.0
100
AcDbArc
 50
192.79056
 51
347.2094399999999
  0
CIRCLE
  5
9C59
330
9BE8
100
AcDbEntity
  8
1
  6
Continuous
100
AcDbCircle
 10
179.522709
 20
207.1094959999999
 30
0.0
 40
2.0
  0
CIRCLE
  5
9C5A
330
9BE8
100
AcDbEntity
  8
1
  6
Continuous
100
AcDbCircle
 10
179.522709
 20
207.1094959999999
 30
0.0
 40
6.25
  0
ARC
  5
9C5B
330
9BE8
100
AcDbEntity
  8
1
  6
Continuous
100
AcDbCircle
 10
76.52270099999999
 20
211.3594959999999
 30
0.0
 40
2.0
100
AcDbArc
 50
0.0
 51
89.99998199999996
  0
ARC
  5
9C5C
330
9BE8
100
AcDbEntity
  8
1
  6
Continuous
100
AcDbCircle
 10
76.52270099999999
 20
202.8594959999999
 30
0.0
 40
2.0
100
AcDbArc
 50
270.00002
 51
0.0
  0
ARC
  5
9C5D
330
9BE8
100
AcDbEntity
  8
1
  6
Continuous
100
AcDbCircle
 10
45.72271899999999
 20
207.1094959999999
 30
0.0
 40
12.0
100
AcDbArc
 50
164.2861599999999
 51
195.71383
  0
ARC
  5
9C5E
330
9BE8
100
AcDbEntity
  8
1
  6
Continuous
100
AcDbCircle
 10
25.722719
 20
207.1094959999999
 30
0.0
 40
12.0
100
AcDbArc
 50
344.2861399999999
 51
15.71386099999998
  0
ARC
  5
9C5F
330
9BE8
100
AcDbEntity
  8
1
  6
Continuous
100
AcDbCircle
 10
36.972719
 20
212.0511239999999
 30
0.0
 40
3.25
100
AcDbArc
 50
151.34725
 51
211.3657499999999
  0
ARC
  5
9C60
330
9BE8
100
AcDbEntity
  8
1
  6
Continuous
100
AcDbCircle
 10
34.472719
 20
212.0511239999999
 30
0.0
 40
3.25
100
AcDbArc
 50
328.6342
 51
28.65276699999999
  0
ARC
  5
9C61
330
9BE8
100
AcDbEntity
  8
1
  6
Continuous
100
AcDbCircle
 10
34.472719
 20
202.1678679999999
 30
0.0
 40
3.25
100
AcDbArc
 50
331.3472299999999
 51
31.365793
  0
ARC
  5
9C62
330
9BE8
100
AcDbEntity
  8
1
  6
Continuous
100
AcDbCircle
 10
36.972719
 20
202.1678679999999
 30
0.0
 40
3.25
100
AcDbArc
 50
148.63423
 51
208.6527299999999
  0
CIRCLE
  5
9C63
330
9BE8
100
AcDbEntity
  8
1
  6
Continuous
100
AcDbCircle
 10
138.5227089999998
 20
372.1094959999998
 30
0.0
 40
4.4
  0
CIRCLE
  5
9C64
330
9BE8
100
AcDbEntity
  8
1
  6
Continuous
100
AcDbCircle
 10
138.5227089999998
 20
332.1094959999998
 30
0.0
 40
4.4
  0
CIRCLE
  5
9C65
330
9BE8
100
AcDbEntity
  8
1
  6
Continuous
100
AcDbCircle
 10
220.522709
 20
372.1094959999998
 30
0.0
 40
4.4
  0
CIRCLE
  5
9C66
330
9BE8
100
AcDbEntity
  8
1
  6
Continuous
100
AcDbCircle
 10
220.522709
 20
332.1094959999998
 30
0.0
 40
4.4
  0
ARC
  5
9C67
330
9BE8
100
AcDbEntity
  8
1
  6
Continuous
100
AcDbCircle
 10
136.5227089999999
 20
374.1094959999998
 30
0.0
 40
7.0
100
AcDbArc
 50
89.99998199999996
 51
179.9999599999999
  0
ARC
  5
9C68
330
9BE8
100
AcDbEntity
  8
1
  6
Continuous
100
AcDbCircle
 10
142.9077069999999
 20
373.109496
 30
0.0
 40
8.0
100
AcDbArc
 50
21.25376399999999
 51
89.99998199999996
  0
ARC
  5
9C69
330
9BE8
100
AcDbEntity
  8
1
  6
Continuous
100
AcDbCircle
 10
157.8194499999999
 20
378.9094959999998
 30
0.0
 40
8.0
100
AcDbArc
 50
201.2538
 51
270.00002
  0
ARC
  5
9C6A
330
9BE8
100
AcDbEntity
  8
1
  6
Continuous
100
AcDbCircle
 10
136.5227089999999
 20
330.1094959999998
 30
0.0
 40
7.0
100
AcDbArc
 50
179.9999799999999
 51
269.99997
  0
ARC
  5
9C6B
330
9BE8
100
AcDbEntity
  8
1
  6
Continuous
100
AcDbCircle
 10
142.9077069999999
 20
331.1094959999998
 30
0.0
 40
8.0
100
AcDbArc
 50
269.9999599999998
 51
338.74618
  0
ARC
  5
9C6C
330
9BE8
100
AcDbEntity
  8
1
  6
Continuous
100
AcDbCircle
 10
157.8194499999999
 20
325.3095009999999
 30
0.0
 40
8.0
100
AcDbArc
 50
89.99992699999998
 51
158.74615
  0
ARC
  5
9C6D
330
9BE8
100
AcDbEntity
  8
1
  6
Continuous
100
AcDbCircle
 10
222.522709
 20
374.1094959999998
 30
0.0
 40
7.0
100
AcDbArc
 50
0.0
 51
89.99998199999996
  0
ARC
  5
9C6E
330
9BE8
100
AcDbEntity
  8
1
  6
Continuous
100
AcDbCircle
 10
216.1377139999999
 20
373.109496
 30
0.0
 40
8.0
100
AcDbArc
 50
89.99998199999996
 51
158.7461899999999
  0
ARC
  5
9C6F
330
9BE8
100
AcDbEntity
  8
1
  6
Continuous
100
AcDbCircle
 10
201.2259709999999
 20
378.9094959999998
 30
0.0
 40
8.0
100
AcDbArc
 50
269.9999599999998
 51
338.74619
  0
ARC
  5
9C70
330
9BE8
100
AcDbEntity
  8
1
  6
Continuous
100
AcDbCircle
 10
222.522709
 20
330.1094959999998
 30
0.0
 40
7.0
100
AcDbArc
 50
270.00002
 51
0.0
  0
ARC
  5
9C71
330
9BE8
100
AcDbEntity
  8
1
  6
Continuous
100
AcDbCircle
 10
216.1377139999999
 20
331.1094959999998
 30
0.0
 40
8.0
100
AcDbArc
 50
201.2538099999999
 51
270.00002
  0
ARC
  5
9C72
330
9BE8
100
AcDbEntity
  8
1
  6
Continuous
100
AcDbCircle
 10
201.2259709999999
 20
325.3095009999999
 30
0.0
 40
8.0
100
AcDbArc
 50
21.25381399999998
 51
90.000037
  0
ARC
  5
9C73
330
9BE8
100
AcDbEntity
  8
1
  6
Continuous
100
AcDbCircle
 10
186.022709
 20
369.409496
 30
0.0
 40
1.5
100
AcDbArc
 50
90.00000300000001
 51
180.00001
  0
ARC
  5
9C74
330
9BE8
100
AcDbEntity
  8
1
  6
Continuous
100
AcDbCircle
 10
173.0227089999999
 20
334.8095009999997
 30
0.0
 40
1.5
100
AcDbArc
 50
270.0
 51
0.0
  0
ARC
  5
9C75
330
9BE8
100
AcDbEntity
  8
1
  6
Continuous
100
AcDbCircle
 10
186.022709
 20
334.8095009999997
 30
0.0
 40
1.5
100
AcDbArc
 50
179.9999899999999
 51
270.0
  0
ARC
  5
9C76
330
9BE8
100
AcDbEntity
  8
1
  6
Continuous
100
AcDbCircle
 10
179.5227109999999
 20
260.1094939999999
 30
0.0
 40
5.0
100
AcDbArc
 50
179.9999899999999
 51
0.00001
  0
ARC
  5
9C77
330
9BE8
100
AcDbEntity
  8
1
  6
Continuous
100
AcDbCircle
 10
173.5227109999999
 20
278.109494
 30
0.0
 40
1.0
100
AcDbArc
 50
0.0
 51
90.00000300000001
  0
ARC
  5
9C78
330
9BE8
100
AcDbEntity
  8
1
  6
Continuous
100
AcDbCircle
 10
185.5227089999999
 20
278.109494
 30
0.0
 40
1.0
100
AcDbArc
 50
89.99999599999998
 51
180.00001
  0
ARC
  5
9C79
330
9BE8
100
AcDbEntity
  8
1
  6
Continuous
100
AcDbCircle
 10
44.022709
 20
273.3094929999999
 30
0.0
 40
1.0
100
AcDbArc
 50
90.00000300000001
 51
180.00001
  0
ARC
  5
9C7A
330
9BE8
100
AcDbEntity
  8
1
  6
Continuous
100
AcDbCircle
 10
69.02270899999999
 20
273.3094929999999
 30
0.0
 40
1.0
100
AcDbArc
 50
0.0
 51
90.00000300000001
  0
ARC
  5
9C7B
330
9BE8
100
AcDbEntity
  8
1
  6
Continuous
100
AcDbCircle
 10
38.02270899999999
 20
260.566494
 30
0.0
 40
5.0
100
AcDbArc
 50
347.16015
 51
0.0
  0
ARC
  5
9C7C
330
9BE8
100
AcDbEntity
  8
1
  6
Continuous
100
AcDbCircle
 10
73.02270899999998
 20
255.841545
 30
0.0
 40
2.0
100
AcDbArc
 50
192.83985
 51
255.52249
  0
ARC
  5
9C7D
330
9BE8
100
AcDbEntity
  8
1
  6
Continuous
100
AcDbCircle
 10
40.022709
 20
255.841545
 30
0.0
 40
2.0
100
AcDbArc
 50
284.47751
 51
347.16015
  0
ARC
  5
9C7E
330
9BE8
100
AcDbEntity
  8
1
  6
Continuous
100
AcDbCircle
 10
75.02270899999998
 20
260.566494
 30
0.0
 40
5.0
100
AcDbArc
 50
179.9999899999999
 51
192.83985
  0
ARC
  5
9C7F
330
9BE8
100
AcDbEntity
  8
1
  6
Continuous
100
AcDbCircle
 10
173.0227089999999
 20
369.409496
 30
0.0
 40
1.5
100
AcDbArc
 50
359.9999899999998
 51
89.99999599999998
  0
LINE
  5
9CA0
330
9BE8
100
AcDbEntity
  8
4
  6
CENTER
100
AcDbLine
 10
36.52270699999998
 20
284.1094959999998
 30
0.0
 11
36.52270699999998
 21
271.309493
 31
0.0
  0
LINE
  5
9CA1
330
9BE8
100
AcDbEntity
  8
4
  6
CENTER
100
AcDbLine
 10
124.5227089999999
 20
84.10949599999998
 30
0.0
 11
234.5227089999999
 21
84.10949599999998
 31
0.0
  0
LINE
  5
9CA2
330
9BE8
100
AcDbEntity
  8
1
  6
Continuous
100
AcDbLine
 10
157.8194499999999
 20
65.30949599999999
 30
0.0
 11
201.2259709999999
 21
65.30949599999999
 31
0.0
  0
LINE
  5
9CA3
330
9BE8
100
AcDbEntity
  8
1
  6
Continuous
100
AcDbLine
 10
157.8194499999999
 20
102.9094909999999
 30
0.0
 11
201.2259709999999
 21
102.9094909999999
 31
0.0
  0
LINE
  5
9CA4
330
9BE8
100
AcDbEntity
  8
4
  6
CENTER
100
AcDbLine
 10
179.522709
 20
53.30950600000001
 30
0.0
 11
179.522709
 21
111.1094879999999
 31
0.0
  0
LINE
  5
9CA5
330
9BE8
100
AcDbEntity
  8
1
  6
Continuous
100
AcDbLine
 10
129.522709
 20
62.10949599999999
 30
0.0
 11
129.522709
 21
106.1094959999997
 31
0.0
  0
ARC
  5
9CA6
330
9BE8
100
AcDbEntity
  8
1
  6
Continuous
100
AcDbCircle
 10
157.8194499999999
 20
110.9094909999999
 30
0.0
 40
8.0
100
AcDbArc
 50
201.25385
 51
270.0000729999998
  0
LINE
  5
9CA7
330
9BE8
100
AcDbEntity
  8
4
  6
CENTER
100
AcDbLine
 10
138.5227089999998
 20
110.1094959999997
 30
0.0
 11
138.5227089999998
 21
98.109496
 31
0.0
  0
CIRCLE
  5
9CA8
330
9BE8
100
AcDbEntity
  8
1
  6
Continuous
100
AcDbCircle
 10
138.5227089999998
 20
104.1094959999997
 30
0.0
 40
4.4
  0
LINE
  5
9CA9
330
9BE8
100
AcDbEntity
  8
4
  6
CENTER
100
AcDbLine
 10
144.5227089999999
 20
104.1094959999997
 30
0.0
 11
132.522709
 21
104.1094959999997
 31
0.0
  0
ARC
  5
9CAA
330
9BE8
100
AcDbEntity
  8
1
  6
Continuous
100
AcDbCircle
 10
142.9077069999999
 20
105.1094959999997
 30
0.0
 40
8.0
100
AcDbArc
 50
21.25382
 51
90.00004000000002
  0
LINE
  5
9CAB
330
9BE8
100
AcDbEntity
  8
1
  6
Continuous
100
AcDbLine
 10
136.5227089999999
 20
113.1094959999997
 30
0.0
 11
142.9077069999999
 21
113.1094959999997
 31
0.0
  0
ARC
  5
9CAC
330
9BE8
100
AcDbEntity
  8
1
  6
Continuous
100
AcDbCircle
 10
136.5227089999999
 20
106.1094959999997
 30
0.0
 40
7.0
100
AcDbArc
 50
90.00003000000004
 51
180.00002
  0
LINE
  5
9CAD
330
9BE8
100
AcDbEntity
  8
4
  6
CENTER
100
AcDbLine
 10
138.5227089999998
 20
58.10949599999999
 30
0.0
 11
138.5227089999998
 21
70.109496
 31
0.0
  0
CIRCLE
  5
9CAE
330
9BE8
100
AcDbEntity
  8
1
  6
Continuous
100
AcDbCircle
 10
138.5227089999998
 20
64.10949599999999
 30
0.0
 40
4.4
  0
ARC
  5
9CAF
330
9BE8
100
AcDbEntity
  8
1
  6
Continuous
100
AcDbCircle
 10
136.5227089999999
 20
62.10949599999999
 30
0.0
 40
7.0
100
AcDbArc
 50
180.0000399999998
 51
270.0000179999999
  0
ARC
  5
9CB0
330
9BE8
100
AcDbEntity
  8
1
  6
Continuous
100
AcDbCircle
 10
142.9077069999999
 20
63.10949599999999
 30
0.0
 40
8.0
100
AcDbArc
 50
270.0000179999999
 51
338.746236
  0
LINE
  5
9CB1
330
9BE8
100
AcDbEntity
  8
4
  6
CENTER
100
AcDbLine
 10
144.5227089999999
 20
64.10949599999999
 30
0.0
 11
132.522709
 21
64.10949599999999
 31
0.0
  0
ARC
  5
9CB2
330
9BE8
100
AcDbEntity
  8
1
  6
Continuous
100
AcDbCircle
 10
157.8194499999999
 20
57.30949599999998
 30
0.0
 40
8.0
100
AcDbArc
 50
89.99997999999996
 51
158.7461999999999
  0
LINE
  5
9CB3
330
9BE8
100
AcDbEntity
  8
1
  6
Continuous
100
AcDbLine
 10
136.5227089999999
 20
55.109496
 30
0.0
 11
142.9077069999999
 21
55.109496
 31
0.0
  0
LINE
  5
9CB4
330
9BE8
100
AcDbEntity
  8
1
  6
Continuous
100
AcDbLine
 10
229.522709
 20
62.10949599999999
 30
0.0
 11
229.522709
 21
106.1094959999997
 31
0.0
  0
LINE
  5
9CB5
330
9BE8
100
AcDbEntity
  8
4
  6
CENTER
100
AcDbLine
 10
214.522709
 20
104.1094959999997
 30
0.0
 11
226.5227089999999
 21
104.1094959999997
 31
0.0
  0
CIRCLE
  5
9CB6
330
9BE8
100
AcDbEntity
  8
1
  6
Continuous
100
AcDbCircle
 10
220.522709
 20
104.1094959999997
 30
0.0
 40
4.4
  0
ARC
  5
9CB7
330
9BE8
100
AcDbEntity
  8
1
  6
Continuous
100
AcDbCircle
 10
222.522709
 20
106.1094959999997
 30
0.0
 40
7.0
100
AcDbArc
 50
0.0
 51
89.99997999999996
  0
LINE
  5
9CB8
330
9BE8
100
AcDbEntity
  8
4
  6
CENTER
100
AcDbLine
 10
220.522709
 20
110.1094959999997
 30
0.0
 11
220.522709
 21
98.109496
 31
0.0
  0
ARC
  5
9CB9
330
9BE8
100
AcDbEntity
  8
1
  6
Continuous
100
AcDbCircle
 10
201.2259709999999
 20
110.9094909999999
 30
0.0
 40
8.0
100
AcDbArc
 50
269.9999629999999
 51
338.7461859999999
  0
LINE
  5
9CBA
330
9BE8
100
AcDbEntity
  8
1
  6
Continuous
100
AcDbLine
 10
222.522709
 20
113.1094959999997
 30
0.0
 11
216.1377139999999
 21
113.1094959999997
 31
0.0
  0
ARC
  5
9CBB
330
9BE8
100
AcDbEntity
  8
1
  6
Continuous
100
AcDbCircle
 10
216.1377139999999
 20
105.1094959999997
 30
0.0
 40
8.0
100
AcDbArc
 50
89.99997999999996
 51
158.7461899999999
  0
LINE
  5
9CBC
330
9BE8
100
AcDbEntity
  8
4
  6
CENTER
100
AcDbLine
 10
214.522709
 20
64.10949599999999
 30
0.0
 11
226.5227089999999
 21
64.10949599999999
 31
0.0
  0
CIRCLE
  5
9CBD
330
9BE8
100
AcDbEntity
  8
1
  6
Continuous
100
AcDbCircle
 10
220.522709
 20
64.10949599999999
 30
0.0
 40
4.4
  0
ARC
  5
9CBE
330
9BE8
100
AcDbEntity
  8
1
  6
Continuous
100
AcDbCircle
 10
222.522709
 20
62.10949599999999
 30
0.0
 40
7.0
100
AcDbArc
 50
270.0000179999999
 51
0.0
  0
LINE
  5
9CBF
330
9BE8
100
AcDbEntity
  8
4
  6
CENTER
100
AcDbLine
 10
220.522709
 20
58.10949599999999
 30
0.0
 11
220.522709
 21
70.109496
 31
0.0
  0
ARC
  5
9CC0
330
9BE8
100
AcDbEntity
  8
1
  6
Continuous
100
AcDbCircle
 10
216.1377139999999
 20
63.10949599999999
 30
0.0
 40
8.0
100
AcDbArc
 50
201.2538099999999
 51
270.0000179999999
  0
ARC
  5
9CC1
330
9BE8
100
AcDbEntity
  8
1
  6
Continuous
100
AcDbCircle
 10
201.2259709999999
 20
57.30949599999998
 30
0.0
 40
8.0
100
AcDbArc
 50
21.25381
 51
90.00004000000002
  0
LINE
  5
9CC2
330
9BE8
100
AcDbEntity
  8
1
  6
Continuous
100
AcDbLine
 10
222.522709
 20
55.109496
 30
0.0
 11
216.1377139999999
 21
55.109496
 31
0.0
  0
ARC
  5
9CC3
330
9BE8
100
AcDbEntity
  8
1
  6
Continuous
100
AcDbCircle
 10
183.7727089999999
 20
332.109504
 30
0.0
 40
2.0
100
AcDbArc
 50
270.0
 51
359.9999799999998
  0
ARC
  5
9CC4
330
9BE8
100
AcDbEntity
  8
1
  6
Continuous
100
AcDbCircle
 10
175.272709
 20
332.109504
 30
0.0
 40
2.0
100
AcDbArc
 50
180.0000179999999
 51
270.0
  0
LINE
  5
9CC5
330
9BE8
100
AcDbEntity
  8
1
  6
Continuous
100
AcDbLine
 10
185.772709
 20
333.3095009999999
 30
0.0
 11
185.772709
 21
332.109504
 31
0.0
  0
LINE
  5
9CC6
330
9BE8
100
AcDbEntity
  8
1
  6
Continuous
100
AcDbLine
 10
173.272709
 20
333.3095009999999
 30
0.0
 11
173.272709
 21
332.109504
 31
0.0
  0
LINE
  5
9CC7
330
9BE8
100
AcDbEntity
  8
1
  6
Continuous
100
AcDbLine
 10
175.272709
 20
330.109504
 30
0.0
 11
183.7727089999999
 21
330.109504
 31
0.0
  0
LINE
  5
9CC8
330
9BE8
100
AcDbEntity
  8
1
  6
Continuous
100
AcDbLine
 10
157.8194499999999
 20
102.9094909999999
 30
0.0
 11
189.5227089999999
 21
102.9094909999999
 31
0.0
  0
LINE
  5
9CC9
330
9BE8
100
AcDbEntity
  8
1
  6
Continuous
100
AcDbLine
 10
173.272709
 20
102.9094909999999
 30
0.0
 11
173.272709
 21
104.1094879999999
 31
0.0
  0
LINE
  5
9CCA
330
9BE8
100
AcDbEntity
  8
1
  6
Continuous
100
AcDbLine
 10
185.772709
 20
102.9094909999999
 30
0.0
 11
185.772709
 21
104.1094879999999
 31
0.0
  0
LINE
  5
9CCB
330
9BE8
100
AcDbEntity
  8
1
  6
Continuous
100
AcDbLine
 10
175.5227089999999
 20
68.10949599999999
 30
0.0
 11
175.5227089999999
 21
69.10949599999999
 31
0.0
  0
LINE
  5
9CCC
330
9BE8
100
AcDbEntity
  8
1
  6
Continuous
100
AcDbLine
 10
183.522709
 20
68.10949599999999
 30
0.0
 11
183.522709
 21
69.10949599999999
 31
0.0
  0
LINE
  5
9CCD
330
9BE8
100
AcDbEntity
  8
1
  6
Continuous
100
AcDbLine
 10
176.272709
 20
60.309506
 30
0.0
 11
182.7727089999999
 21
60.309506
 31
0.0
  0
LINE
  5
9CCE
330
9BE8
100
AcDbEntity
  8
1
  6
Continuous
100
AcDbLine
 10
175.5227089999999
 20
99.109496
 30
0.0
 11
175.5227089999999
 21
100.1094959999997
 31
0.0
  0
LINE
  5
9CCF
330
9BE8
100
AcDbEntity
  8
1
  6
Continuous
100
AcDbLine
 10
183.522709
 20
99.109496
 30
0.0
 11
183.522709
 21
100.1094959999997
 31
0.0
  0
ARC
  5
9CD0
330
9BE8
100
AcDbEntity
  8
1
  6
Continuous
100
AcDbCircle
 10
175.272709
 20
104.1094879999999
 30
0.0
 40
2.0
100
AcDbArc
 50
90.0
 51
179.999982
  0
ARC
  5
9CD1
330
9BE8
100
AcDbEntity
  8
1
  6
Continuous
100
AcDbCircle
 10
183.7727089999999
 20
104.1094879999999
 30
0.0
 40
2.0
100
AcDbArc
 50
0.00002
 51
90.0
  0
LINE
  5
9CD2
330
9BE8
100
AcDbEntity
  8
1
  6
Continuous
100
AcDbLine
 10
175.272709
 20
106.1094879999999
 30
0.0
 11
183.7727089999999
 21
106.1094879999999
 31
0.0
  0
LINE
  5
9CD3
330
9BE8
100
AcDbEntity
  8
1
  6
Continuous
100
AcDbLine
 10
210.4588779999999
 20
110.744283
 30
0.0
 11
210.4588779999999
 21
108.1094959999997
 31
0.0
  0
LINE
  5
9CD4
330
9BE8
100
AcDbEntity
  8
1
  6
Continuous
100
AcDbLine
 10
203.5227089999999
 20
100.1094959999997
 30
0.0
 11
156.5865389999999
 21
100.1094959999997
 31
0.0
  0
ARC
  5
9CD5
330
9BE8
100
AcDbEntity
  8
1
  6
Continuous
100
AcDbCircle
 10
202.458878
 20
108.1094959999997
 30
0.0
 40
8.0
100
AcDbArc
 50
270.0
 51
0.0
  0
ARC
  5
9CD6
330
9BE8
100
AcDbEntity
  8
1
  6
Continuous
100
AcDbCircle
 10
156.5865389999999
 20
108.1094959999997
 30
0.0
 40
8.0
100
AcDbArc
 50
180.0
 51
270.0
  0
LINE
  5
9CD7
330
9BE8
100
AcDbEntity
  8
1
  6
Continuous
100
AcDbLine
 10
148.5865389999998
 20
110.744283
 30
0.0
 11
148.5865389999998
 21
108.1094959999997
 31
0.0
  0
ARC
  5
9CD8
330
9BE8
100
AcDbEntity
  8
1
  6
Continuous
100
AcDbCircle
 10
202.458878
 20
60.109496
 30
0.0
 40
8.0
100
AcDbArc
 50
0.0
 51
90.0
  0
LINE
  5
9CD9
330
9BE8
100
AcDbEntity
  8
1
  6
Continuous
100
AcDbLine
 10
210.4588779999999
 20
57.47470899999999
 30
0.0
 11
210.4588779999999
 21
60.109496
 31
0.0
  0
LINE
  5
9CDA
330
9BE8
100
AcDbEntity
  8
1
  6
Continuous
100
AcDbLine
 10
202.458878
 20
68.10949599999999
 30
0.0
 11
156.5865389999999
 21
68.10949599999999
 31
0.0
  0
ARC
  5
9CDB
330
9BE8
100
AcDbEntity
  8
1
  6
Continuous
100
AcDbCircle
 10
156.5865389999999
 20
60.109496
 30
0.0
 40
8.0
100
AcDbArc
 50
90.0
 51
180.0
  0
LINE
  5
9CDC
330
9BE8
100
AcDbEntity
  8
1
  6
Continuous
100
AcDbLine
 10
148.5865389999998
 20
57.47470899999999
 30
0.0
 11
148.5865389999998
 21
60.109496
 31
0.0
  0
ARC
  5
9CDD
330
9BE8
100
AcDbEntity
  8
1
  6
Continuous
100
AcDbCircle
 10
182.7727089999999
 20
57.340268
 30
0.0
 40
7.969237999999998
100
AcDbArc
 50
65.932151
 51
114.0678489999999
  0
LINE
  5
9CDE
330
9BE8
100
AcDbEntity
  8
1
  6
Continuous
100
AcDbLine
 10
176.272709
 20
65.309506
 30
0.0
 11
182.7727089999999
 21
65.309506
 31
0.0
  0
LINE
  5
9CDF
330
9BE8
100
AcDbEntity
  8
1
  6
Continuous
100
AcDbLine
 10
179.522709
 20
61.002326
 30
0.0
 11
179.522709
 21
64.616686
 31
0.0
  0
LINE
  5
9CE0
330
9BE8
100
AcDbEntity
  8
1
  6
Continuous
100
AcDbLine
 10
173.0227089999999
 20
61.002326
 30
0.0
 11
173.0227089999999
 21
64.616686
 31
0.0
  0
ARC
  5
9CE1
330
9BE8
100
AcDbEntity
  8
1
  6
Continuous
100
AcDbCircle
 10
176.272709
 20
57.340268
 30
0.0
 40
7.969237999999998
100
AcDbArc
 50
65.932151
 51
114.0678489999999
  0
LINE
  5
9CE2
330
9BE8
100
AcDbEntity
  8
1
  6
Continuous
100
AcDbLine
 10
186.022709
 20
61.002326
 30
0.0
 11
186.022709
 21
64.616686
 31
0.0
  0
LINE
  5
9CE3
330
9BE8
100
AcDbEntity
  8
1
  6
Continuous
100
AcDbLine
 10
176.272709
 20
375.909486
 30
0.0
 11
182.7727089999999
 21
375.909486
 31
0.0
  0
LINE
  5
9CE4
330
9BE8
100
AcDbEntity
  8
1
  6
Continuous
100
AcDbLine
 10
186.022709
 20
375.2166659999998
 30
0.0
 11
186.022709
 21
371.6023059999998
 31
0.0
  0
ARC
  5
9CE5
330
9BE8
100
AcDbEntity
  8
1
  6
Continuous
100
AcDbCircle
 10
182.7727089999999
 20
378.878724
 30
0.0
 40
7.969237999999998
100
AcDbArc
 50
245.932151
 51
294.067849
  0
LINE
  5
9CE6
330
9BE8
100
AcDbEntity
  8
1
  6
Continuous
100
AcDbLine
 10
179.522709
 20
375.2166659999998
 30
0.0
 11
179.522709
 21
371.6023059999998
 31
0.0
  0
ARC
  5
9CE7
330
9BE8
100
AcDbEntity
  8
1
  6
Continuous
100
AcDbCircle
 10
176.272709
 20
378.878724
 30
0.0
 40
7.969237999999998
100
AcDbArc
 50
245.932151
 51
294.067849
  0
LINE
  5
9CE8
330
9BE8
100
AcDbEntity
  8
1
  6
Continuous
100
AcDbLine
 10
173.0227089999999
 20
375.2166659999998
 30
0.0
 11
173.0227089999999
 21
371.6023059999998
 31
0.0
  0
ARC
  5
9CE9
330
9BE8
100
AcDbEntity
  8
1
  6
Continuous
100
AcDbCircle
 10
182.7727089999999
 20
68.27874399999998
 30
0.0
 40
7.969237999999998
100
AcDbArc
 50
245.932151
 51
294.067849
  0
ARC
  5
9CEA
330
9BE8
100
AcDbEntity
  8
1
  6
Continuous
100
AcDbCircle
 10
176.272709
 20
68.27874399999998
 30
0.0
 40
7.969237999999998
100
AcDbArc
 50
245.932151
 51
294.067849
  0
ARC
  5
9CEB
330
9BE8
100
AcDbEntity
  8
1
  6
Continuous
100
AcDbCircle
 10
182.7727089999999
 20
367.940248
 30
0.0
 40
7.969237999999998
100
AcDbArc
 50
65.932151
 51
114.0678489999999
  0
ARC
  5
9CEC
330
9BE8
100
AcDbEntity
  8
1
  6
Continuous
100
AcDbCircle
 10
176.272709
 20
367.940248
 30
0.0
 40
7.969237999999998
100
AcDbArc
 50
65.932151
 51
114.0678489999999
  0
ARC
  5
9CEE
330
9BE8
100
AcDbEntity
  8
1
  6
Continuous
100
AcDbCircle
 10
148.4450249999999
 20
276.291697
 30
0.0
 40
2.799999999999998
100
AcDbArc
 50
0.038449
 51
87.37220100000001
  0
ARC
  5
9CEF
330
9BE8
100
AcDbEntity
  8
1
  6
Continuous
100
AcDbCircle
 10
147.5276866956139
 20
268.8843196684761
 30
0.0
 40
7.425175
100
AcDbArc
 50
59.1805830463563
 51
90.03840999999999
  0
LINE
  5
9D08
330
9BE8
100
AcDbEntity
  8
4
  6
CENTER
100
AcDbLine
 10
425.5227089999998
 20
284.4094909999999
 30
0.0
 11
425.5227089999998
 21
152.109496
 31
0.0
  0
LINE
  5
9D09
330
9BE8
100
AcDbEntity
  8
4
  6
CENTER
100
AcDbLine
 10
481.264008
 20
207.1094959999999
 30
0.0
 11
371.2089349999998
 21
207.1094959999999
 31
0.0
  0
LINE
  5
9D0A
330
9BE8
100
AcDbEntity
  8
1
  6
Continuous
100
AcDbLine
 10
400.8055259336934
 20
270.8158342600812
 30
0.0
 11
415.7708259999997
 21
204.89561
 31
0.0
  0
LINE
  5
9D0B
330
9BE8
100
AcDbEntity
  8
1
  6
Continuous
100
AcDbLine
 10
450.239862
 20
270.815791
 30
0.0
 11
435.2745689999999
 21
204.895614
 31
0.0
  0
ARC
  5
9D0C
330
9BE8
100
AcDbEntity
  8
1
  6
Continuous
100
AcDbCircle
 10
425.522707
 20
260.1094939999999
 30
0.0
 40
5.0
100
AcDbArc
 50
179.9999899999999
 51
0.00001
  0
LINE
  5
9D0D
330
9BE8
100
AcDbEntity
  8
1
  6
Continuous
100
AcDbLine
 10
420.5227089999998
 20
260.1094939999999
 30
0.0
 11
420.5227089999998
 21
278.109494
 31
0.0
  0
LINE
  5
9D0E
330
9BE8
100
AcDbEntity
  8
1
  6
Continuous
100
AcDbLine
 10
430.5227069999999
 20
260.1094939999999
 30
0.0
 11
430.5227069999999
 21
278.109494
 31
0.0
  0
ARC
  5
9D0F
330
9BE8
100
AcDbEntity
  8
1
  6
Continuous
100
AcDbCircle
 10
425.5227089999998
 20
207.1094959999999
 30
0.0
 40
10.0
100
AcDbArc
 50
192.79056
 51
347.2094399999999
  0
LINE
  5
9D10
330
9BE8
100
AcDbEntity
  8
1
  6
Continuous
100
AcDbLine
 10
421.209026
 20
259.4968819999999
 30
0.0
 11
430.0366819999998
 21
259.4968819999999
 31
0.0
  0
LINE
  5
9D11
330
9BE8
100
AcDbEntity
  8
1
  6
Continuous
100
AcDbLine
 10
419.5227089999998
 20
279.1094959999999
 30
0.0
 11
375.5227089999999
 21
279.1094959999999
 31
0.0
  0
LINE
  5
9D12
330
9BE8
100
AcDbEntity
  8
1
  6
Continuous
100
AcDbLine
 10
475.5227089999998
 20
279.1094959999999
 30
0.0
 11
431.522707
 21
279.1094959999999
 31
0.0
  0
LINE
  5
9D13
330
9BE8
100
AcDbEntity
  8
1
  6
Continuous
100
AcDbLine
 10
475.5227089999998
 20
276.3094929999999
 30
0.0
 11
457.5227089999998
 21
276.3094929999999
 31
0.0
  0
LINE
  5
9D14
330
9BE8
100
AcDbEntity
  8
4
  6
CENTER
100
AcDbLine
 10
466.522709
 20
284.1094959999998
 30
0.0
 11
466.522709
 21
271.309493
 31
0.0
  0
LINE
  5
9D15
330
9BE8
100
AcDbEntity
  8
1
  6
Continuous
100
AcDbLine
 10
475.5227089999998
 20
276.3094929999999
 30
0.0
 11
475.5227089999998
 21
279.1094959999999
 31
0.0
  0
LINE
  5
9D26
330
9BE8
100
AcDbEntity
  8
1
  6
Continuous
100
AcDbLine
 10
420.5227049999998
 20
277.1094939999999
 30
0.0
 11
430.5227069999999
 21
277.1094939999999
 31
0.0
  0
ARC
  5
9D27
330
9BE8
100
AcDbEntity
  8
1
  6
Continuous
100
AcDbCircle
 10
431.522707
 20
278.109494
 30
0.0
 40
1.0
100
AcDbArc
 50
89.99999700000001
 51
180.0
  0
ARC
  5
9D28
330
9BE8
100
AcDbEntity
  8
1
  6
Continuous
100
AcDbCircle
 10
419.5227089999998
 20
278.109494
 30
0.0
 40
1.0
100
AcDbArc
 50
359.9999899999998
 51
90.00000400000002
  0
LINE
  5
9D29
330
9BE8
100
AcDbEntity
  8
1
  6
Continuous
100
AcDbLine
 10
393.5227089999998
 20
276.3094929999999
 30
0.0
 11
375.5227089999999
 21
276.3094929999999
 31
0.0
  0
LINE
  5
9D36
330
9BE8
100
AcDbEntity
  8
4
  6
CENTER
100
AcDbLine
 10
384.5227089999998
 20
284.1094959999998
 30
0.0
 11
384.5227089999998
 21
271.309493
 31
0.0
  0
LINE
  5
9D37
330
9BE8
100
AcDbEntity
  8
1
  6
Continuous
100
AcDbLine
 10
375.5227089999999
 20
276.3094929999999
 30
0.0
 11
375.5227089999999
 21
279.1094959999999
 31
0.0
  0
ARC
  5
9D38
330
9BE8
100
AcDbEntity
  8
1
  6
Continuous
100
AcDbCircle
 10
56.522709
 20
157.109496
 30
0.0
 40
100.0
100
AcDbArc
 50
83.58810799999998
 51
96.411911
  0
ARC
  5
9D39
330
9BE8
100
AcDbEntity
  8
1
  6
Continuous
100
AcDbCircle
 10
56.522709
 20
257.1094959999999
 30
0.0
 40
100.0
100
AcDbArc
 50
263.5880899999999
 51
276.4118899999999
  0
ARC
  5
9D3A
330
9BE8
100
AcDbEntity
  8
1
  6
Continuous
100
AcDbCircle
 10
45.52270899999999
 20
159.2256379999998
 30
0.0
 40
1.5
100
AcDbArc
 50
179.9999799999999
 51
263.5880899999999
  0
LINE
  5
9D3B
330
9BE8
100
AcDbEntity
  8
1
  6
Continuous
100
AcDbLine
 10
44.022709
 20
159.2256379999998
 30
0.0
 11
44.022709
 21
254.993354
 31
0.0
  0
LINE
  5
9D3C
330
9BE8
100
AcDbEntity
  8
1
  6
Continuous
100
AcDbLine
 10
42.44853599999999
 20
197.1122489999999
 30
0.0
 11
44.022717
 21
196.995172
 31
0.0
  0
ARC
  5
9D3D
330
9BE8
100
AcDbEntity
  8
1
  6
Continuous
100
AcDbCircle
 10
42.522709
 20
198.109496
 30
0.0
 40
1.0
100
AcDbArc
 50
179.9999799999999
 51
265.74649
  0
LINE
  5
9D3E
330
9BE8
100
AcDbEntity
  8
1
  6
Continuous
100
AcDbLine
 10
41.522709
 20
198.109496
 30
0.0
 11
41.522709
 21
216.109496
 31
0.0
  0
LINE
  5
9D3F
330
9BE8
100
AcDbEntity
  8
1
  6
Continuous
100
AcDbLine
 10
42.44853599999999
 20
217.1067429999999
 30
0.0
 11
44.022717
 21
217.2238199999999
 31
0.0
  0
ARC
  5
9D40
330
9BE8
100
AcDbEntity
  8
1
  6
Continuous
100
AcDbCircle
 10
42.522709
 20
216.109496
 30
0.0
 40
1.0
100
AcDbArc
 50
94.25350299999999
 51
180.00002
  0
ARC
  5
9D41
330
9BE8
100
AcDbEntity
  8
1
  6
Continuous
100
AcDbCircle
 10
45.52270899999999
 20
254.993354
 30
0.0
 40
1.5
100
AcDbArc
 50
96.41189699999999
 51
180.00002
  0
ARC
  5
9D42
330
9BE8
100
AcDbEntity
  8
1
  6
Continuous
100
AcDbCircle
 10
67.52270899999999
 20
159.2256379999998
 30
0.0
 40
1.5
100
AcDbArc
 50
276.4118799999998
 51
0.0
  0
LINE
  5
9D43
330
9BE8
100
AcDbEntity
  8
1
  6
Continuous
100
AcDbLine
 10
69.02270899999999
 20
159.2256379999998
 30
0.0
 11
69.02270899999999
 21
254.993354
 31
0.0
  0
ARC
  5
9D44
330
9BE8
100
AcDbEntity
  8
1
  6
Continuous
100
AcDbCircle
 10
70.52270899999998
 20
198.109496
 30
0.0
 40
1.0
100
AcDbArc
 50
274.2534799999999
 51
0.0
  0
LINE
  5
9D45
330
9BE8
100
AcDbEntity
  8
1
  6
Continuous
100
AcDbLine
 10
70.596882
 20
197.1122499999999
 30
0.0
 11
69.02270899999999
 21
196.995173
 31
0.0
  0
LINE
  5
9D46
330
9BE8
100
AcDbEntity
  8
1
  6
Continuous
100
AcDbLine
 10
71.52270899999997
 20
198.109496
 30
0.0
 11
71.52270899999997
 21
216.109496
 31
0.0
  0
ARC
  5
9D47
330
9BE8
100
AcDbEntity
  8
1
  6
Continuous
100
AcDbCircle
 10
70.52270899999998
 20
216.109496
 30
0.0
 40
1.0
100
AcDbArc
 50
0.0
 51
85.74651600000001
  0
LINE
  5
9D48
330
9BE8
100
AcDbEntity
  8
1
  6
Continuous
100
AcDbLine
 10
70.596882
 20
217.1067419999999
 30
0.0
 11
69.02270899999999
 21
217.2238189999999
 31
0.0
  0
ARC
  5
9D49
330
9BE8
100
AcDbEntity
  8
1
  6
Continuous
100
AcDbCircle
 10
67.52270899999999
 20
254.993354
 30
0.0
 40
1.5
100
AcDbArc
 50
0.0
 51
83.58812099999999
  0
ARC
  5
9D4A
330
9BE8
100
AcDbEntity
  8
1
  6
Continuous
100
AcDbCircle
 10
131.6388509999999
 20
95.109496
 30
0.0
 40
1.5
100
AcDbArc
 50
90.0
 51
173.588121
  0
ARC
  5
9D4B
330
9BE8
100
AcDbEntity
  8
1
  6
Continuous
100
AcDbCircle
 10
229.522709
 20
84.10949599999998
 30
0.0
 40
100.0
100
AcDbArc
 50
173.588108
 51
186.4119109999999
  0
ARC
  5
9D4C
330
9BE8
100
AcDbEntity
  8
1
  6
Continuous
100
AcDbCircle
 10
170.5227089999999
 20
70.109496
 30
0.0
 40
1.0
100
AcDbArc
 50
184.253503
 51
270.00002
  0
ARC
  5
9D4D
330
9BE8
100
AcDbEntity
  8
1
  6
Continuous
100
AcDbCircle
 10
131.6388509999999
 20
73.10949599999998
 30
0.0
 40
1.5
100
AcDbArc
 50
186.4118969999998
 51
270.00002
  0
LINE
  5
9D4E
330
9BE8
100
AcDbEntity
  8
1
  6
Continuous
100
AcDbLine
 10
169.525462
 20
70.03532299999999
 30
0.0
 11
169.408385
 21
71.609504
 31
0.0
  0
LINE
  5
9D4F
330
9BE8
100
AcDbEntity
  8
1
  6
Continuous
100
AcDbLine
 10
188.5227089999999
 20
69.10949599999999
 30
0.0
 11
170.5227089999999
 21
69.10949599999999
 31
0.0
  0
LINE
  5
9D50
330
9BE8
100
AcDbEntity
  8
1
  6
Continuous
100
AcDbLine
 10
131.6388509999999
 20
71.60949599999998
 30
0.0
 11
227.406567
 21
71.60949599999998
 31
0.0
  0
LINE
  5
9D51
330
9BE8
100
AcDbEntity
  8
1
  6
Continuous
100
AcDbLine
 10
189.519955
 20
70.03532299999999
 30
0.0
 11
189.637033
 21
71.609504
 31
0.0
  0
ARC
  5
9D52
330
9BE8
100
AcDbEntity
  8
1
  6
Continuous
100
AcDbCircle
 10
188.5227089999999
 20
70.109496
 30
0.0
 40
1.0
100
AcDbArc
 50
269.99998
 51
355.7464899999998
  0
LINE
  5
9D53
330
9BE8
100
AcDbEntity
  8
1
  6
Continuous
100
AcDbLine
 10
131.6388509999999
 20
96.609496
 30
0.0
 11
227.406567
 21
96.609496
 31
0.0
  0
ARC
  5
9D54
330
9BE8
100
AcDbEntity
  8
1
  6
Continuous
100
AcDbCircle
 10
188.5227089999999
 20
98.109496
 30
0.0
 40
1.0
100
AcDbArc
 50
4.253479999999997
 51
90.0
  0
LINE
  5
9D55
330
9BE8
100
AcDbEntity
  8
1
  6
Continuous
100
AcDbLine
 10
189.519954
 20
98.183669
 30
0.0
 11
189.637032
 21
96.609496
 31
0.0
  0
ARC
  5
9D56
330
9BE8
100
AcDbEntity
  8
1
  6
Continuous
100
AcDbCircle
 10
170.5227089999999
 20
98.109496
 30
0.0
 40
1.0
100
AcDbArc
 50
90.0
 51
175.7465159999999
  0
LINE
  5
9D57
330
9BE8
100
AcDbEntity
  8
1
  6
Continuous
100
AcDbLine
 10
188.5227089999999
 20
99.109496
 30
0.0
 11
170.5227089999999
 21
99.109496
 31
0.0
  0
ARC
  5
9D58
330
9BE8
100
AcDbEntity
  8
1
  6
Continuous
100
AcDbCircle
 10
129.522709
 20
84.10949599999998
 30
0.0
 40
100.0
100
AcDbArc
 50
353.5880899999999
 51
6.411889999999998
  0
ARC
  5
9D59
330
9BE8
100
AcDbEntity
  8
1
  6
Continuous
100
AcDbCircle
 10
227.406567
 20
95.109496
 30
0.0
 40
1.5
100
AcDbArc
 50
6.41188
 51
90.0
  0
ARC
  5
9D5A
330
9BE8
100
AcDbEntity
  8
1
  6
Continuous
100
AcDbCircle
 10
227.406567
 20
73.10949599999998
 30
0.0
 40
1.5
100
AcDbArc
 50
269.99998
 51
353.5880899999999
  0
LINE
  5
9D5B
330
9BE8
100
AcDbEntity
  8
1
  6
Continuous
100
AcDbLine
 10
169.5254629999998
 20
98.183669
 30
0.0
 11
169.408386
 21
96.609496
 31
0.0
  0
ARC
  5
9D5C
330
9BE8
100
AcDbEntity
  8
1
  6
Continuous
100
AcDbCircle
 10
179.522709
 20
207.1094959999999
 30
0.0
 40
16.0
100
AcDbArc
 50
322.8192399999998
 51
337.18076
  0
ARC
  5
9D5D
330
9BE8
100
AcDbEntity
  8
1
  6
Continuous
100
AcDbCircle
 10
179.522709
 20
207.1094959999999
 30
0.0
 40
16.0
100
AcDbArc
 50
202.8192199999999
 51
217.1807299999999
  0
LINE
  5
9D5E
330
9BE8
100
AcDbEntity
  8
1
  6
Continuous
100
AcDbLine
 10
191.010208
 20
203.9412899999999
 30
0.0
 11
216.147495
 21
189.428273
 31
0.0
  0
ARC
  5
9D5F
330
9BE8
100
AcDbEntity
  8
1
  6
Continuous
100
AcDbCircle
 10
179.522709
 20
207.1094959999999
 30
0.0
 40
44.0
100
AcDbArc
 50
115.927137
 51
64.07283599999999
  0
ARC
  5
9D60
330
9BE8
100
AcDbEntity
  8
1
  6
Continuous
100
AcDbCircle
 10
179.522709
 20
207.1094959999999
 30
0.0
 40
50.0
100
AcDbArc
 50
114.327536
 51
65.67244000000002
  0
LINE
  5
9D61
330
9BE8
100
AcDbEntity
  8
1
  6
Continuous
100
AcDbLine
 10
142.897932
 20
189.428273
 30
0.0
 11
168.035221
 21
203.941292
 31
0.0
  0
LINE
  5
9D62
330
9BE8
100
AcDbEntity
  8
1
  6
Continuous
100
AcDbLine
 10
188.010208
 20
198.7451379999999
 30
0.0
 11
213.1474949999999
 21
184.2321189999999
 31
0.0
  0
LINE
  5
9D63
330
9BE8
100
AcDbEntity
  8
1
  6
Continuous
100
AcDbLine
 10
145.897932
 20
184.2321189999999
 30
0.0
 11
171.035221
 21
198.7451399999999
 31
0.0
  0
ARC
  5
9D64
330
9BE8
100
AcDbEntity
  8
1
  6
Continuous
100
AcDbCircle
 10
147.39793
 20
181.6340439999999
 30
0.0
 40
3.0
100
AcDbArc
 50
119.9999999999999
 51
218.4149399999999
  0
ARC
  5
9D65
330
9BE8
100
AcDbEntity
  8
1
  6
Continuous
100
AcDbCircle
 10
141.39793
 20
192.02635
 30
0.0
 40
3.0
100
AcDbArc
 50
201.58502
 51
299.9999899999999
  0
LINE
  5
9D66
330
9BE8
100
AcDbEntity
  8
1
  6
Continuous
100
AcDbLine
 10
176.5227089999999
 20
195.5769339999999
 30
0.0
 11
176.5227089999999
 21
166.5508949999999
 31
0.0
  0
LINE
  5
9D67
330
9BE8
100
AcDbEntity
  8
1
  6
Continuous
100
AcDbLine
 10
182.522709
 20
195.5769339999999
 30
0.0
 11
182.522709
 21
166.5508949999999
 31
0.0
  0
ARC
  5
9D68
330
9BE8
100
AcDbEntity
  8
1
  6
Continuous
100
AcDbCircle
 10
173.5227089999999
 20
166.5508949999999
 30
0.0
 40
3.0
100
AcDbArc
 50
261.58499
 51
0.0
  0
ARC
  5
9D69
330
9BE8
100
AcDbEntity
  8
1
  6
Continuous
100
AcDbCircle
 10
185.5227089999999
 20
166.5508949999999
 30
0.0
 40
3.0
100
AcDbArc
 50
179.9999799999999
 51
278.4149799999999
  0
ARC
  5
9D6A
330
9BE8
100
AcDbEntity
  8
1
  6
Continuous
100
AcDbCircle
 10
173.5227089999999
 20
195.5769339999999
 30
0.0
 40
3.0
100
AcDbArc
 50
0.0
 51
62.51360699999999
  0
LINE
  5
9D6B
330
9BE8
100
AcDbEntity
  8
1
  6
Continuous
100
AcDbLine
 10
166.774986
 20
197.4401929999999
 30
0.0
 11
172.03743
 21
200.4784649999999
 31
0.0
  0
ARC
  5
9D6C
330
9BE8
100
AcDbEntity
  8
1
  6
Continuous
100
AcDbCircle
 10
172.5352169999999
 20
196.1470629999998
 30
0.0
 40
3.0
100
AcDbArc
 50
57.486403
 51
119.9999999999999
  0
LINE
  5
9D6D
330
9BE8
100
AcDbEntity
  8
1
  6
Continuous
100
AcDbLine
 10
187.0079959999999
 20
200.4784629999998
 30
0.0
 11
192.2704429999997
 21
197.440189
 31
0.0
  0
ARC
  5
9D6E
330
9BE8
100
AcDbEntity
  8
1
  6
Continuous
100
AcDbCircle
 10
185.5227089999999
 20
195.5769339999999
 30
0.0
 40
3.0
100
AcDbArc
 50
117.4864099999999
 51
179.9999599999999
  0
ARC
  5
9D6F
330
9BE8
100
AcDbEntity
  8
1
  6
Continuous
100
AcDbCircle
 10
186.510201
 20
196.147062
 30
0.0
 40
3.0
100
AcDbArc
 50
60.00000799999997
 51
122.51362
  0
ARC
  5
9D70
330
9BE8
100
AcDbEntity
  8
1
  6
Continuous
100
AcDbCircle
 10
217.6474879999999
 20
192.026349
 30
0.0
 40
3.0
100
AcDbArc
 50
239.99997
 51
338.41497
  0
ARC
  5
9D71
330
9BE8
100
AcDbEntity
  8
1
  6
Continuous
100
AcDbCircle
 10
211.6474879999999
 20
181.6340439999999
 30
0.0
 40
3.0
100
AcDbArc
 50
321.5849999999998
 51
60.000015
  0
LINE
  5
9D72
330
9BE8
100
AcDbEntity
  8
1
  6
Continuous
100
AcDbLine
 10
189.0079959999999
 20
203.9425669999999
 30
0.0
 11
194.270443
 21
200.904292
 31
0.0
  0
LINE
  5
9D73
330
9BE8
100
AcDbEntity
  8
1
  6
Continuous
100
AcDbLine
 10
191.010208
 20
210.2777009999999
 30
0.0
 11
216.147495
 21
224.7907189999998
 31
0.0
  0
LINE
  5
9D74
330
9BE8
100
AcDbEntity
  8
1
  6
Continuous
100
AcDbLine
 10
192.2290459999999
 20
217.9096009999999
 30
0.0
 11
213.1474949999999
 21
229.986873
 31
0.0
  0
LINE
  5
9D75
330
9BE8
100
AcDbEntity
  8
1
  6
Continuous
100
AcDbLine
 10
145.897932
 20
229.986873
 30
0.0
 11
166.8163969999999
 21
217.909591
 31
0.0
  0
LINE
  5
9D76
330
9BE8
100
AcDbEntity
  8
1
  6
Continuous
100
AcDbLine
 10
142.897932
 20
224.7907189999998
 30
0.0
 11
168.035221
 21
210.277699
 31
0.0
  0
ARC
  5
9D77
330
9BE8
100
AcDbEntity
  8
1
  6
Continuous
100
AcDbCircle
 10
147.39793
 20
232.584948
 30
0.0
 40
3.0
100
AcDbArc
 50
141.5850399999999
 51
239.99998
  0
ARC
  5
9D78
330
9BE8
100
AcDbEntity
  8
1
  6
Continuous
100
AcDbCircle
 10
141.39793
 20
222.1926419999999
 30
0.0
 40
3.0
100
AcDbArc
 50
60.00000799999997
 51
158.41498
  0
ARC
  5
9D79
330
9BE8
100
AcDbEntity
  8
1
  6
Continuous
100
AcDbCircle
 10
166.535217
 20
207.6796239999999
 30
0.0
 40
3.0
100
AcDbArc
 50
44.97565199999999
 51
60.000002
  0
ARC
  5
9D7A
330
9BE8
100
AcDbEntity
  8
1
  6
Continuous
100
AcDbCircle
 10
166.535217
 20
206.539368
 30
0.0
 40
3.0
100
AcDbArc
 50
300.0
 51
351.3000620000001
  0
LINE
  5
9D7B
330
9BE8
100
AcDbEntity
  8
1
  6
Continuous
100
AcDbLine
 10
164.774986
 20
200.9042959999999
 30
0.0
 11
170.03743
 21
203.9425689999999
 31
0.0
  0
ARC
  5
9D7C
330
9BE8
100
AcDbEntity
  8
1
  6
Continuous
100
AcDbCircle
 10
192.5102009999999
 20
206.539367
 30
0.0
 40
3.0
100
AcDbArc
 50
188.70114
 51
239.99995
  0
ARC
  5
9D7D
330
9BE8
100
AcDbEntity
  8
1
  6
Continuous
100
AcDbCircle
 10
192.5102009999999
 20
207.6796239999999
 30
0.0
 40
3.0
100
AcDbArc
 50
120.0000199999999
 51
135.0235169999999
  0
ARC
  5
9D7E
330
9BE8
100
AcDbEntity
  8
1
  6
Continuous
100
AcDbCircle
 10
211.6474879999999
 20
232.584948
 30
0.0
 40
3.0
100
AcDbArc
 50
299.9999799999999
 51
38.41499499999999
  0
ARC
  5
9D7F
330
9BE8
100
AcDbEntity
  8
1
  6
Continuous
100
AcDbCircle
 10
217.6474879999999
 20
222.1926429999999
 30
0.0
 40
3.0
100
AcDbArc
 50
21.585028
 51
120.00003
  0
ARC
  5
9D80
330
9BE8
100
AcDbEntity
  8
1
  6
Continuous
100
AcDbCircle
 10
425.5227089999998
 20
207.1094959999999
 30
0.0
 40
50.0
100
AcDbArc
 50
114.327536
 51
65.67244000000002
  0
ARC
  5
9D81
330
9BE8
100
AcDbEntity
  8
1
  6
Continuous
100
AcDbCircle
 10
425.5227089999998
 20
207.1094959999999
 30
0.0
 40
44.0
100
AcDbArc
 50
115.927137
 51
64.07283599999999
  0
LINE
  5
9D82
330
9BE8
100
AcDbEntity
  8
1
  6
Continuous
100
AcDbLine
 10
435.007996
 20
203.9425669999999
 30
0.0
 11
440.2704429999998
 21
200.904292
 31
0.0
  0
LINE
  5
9D83
330
9BE8
100
AcDbEntity
  8
1
  6
Continuous
100
AcDbLine
 10
433.0079959999998
 20
200.4784629999998
 30
0.0
 11
438.2704429999998
 21
197.440189
 31
0.0
  0
LINE
  5
9D84
330
9BE8
100
AcDbEntity
  8
1
  6
Continuous
100
AcDbLine
 10
432.2840669999997
 20
199.7417259999997
 30
0.0
 11
459.147495
 21
184.2321189999999
 31
0.0
  0
LINE
  5
9D85
330
9BE8
100
AcDbEntity
  8
1
  6
Continuous
100
AcDbLine
 10
435.2841519999998
 20
204.9378289999999
 30
0.0
 11
462.1474949999998
 21
189.428273
 31
0.0
  0
ARC
  5
9D86
330
9BE8
100
AcDbEntity
  8
1
  6
Continuous
100
AcDbCircle
 10
425.5227089999998
 20
207.1094959999999
 30
0.0
 40
16.0
100
AcDbArc
 50
322.8192399999998
 51
337.18076
  0
ARC
  5
9D87
330
9BE8
100
AcDbEntity
  8
1
  6
Continuous
100
AcDbCircle
 10
457.647488
 20
181.6340439999999
 30
0.0
 40
3.0
100
AcDbArc
 50
321.5849999999998
 51
60.000015
  0
ARC
  5
9D88
330
9BE8
100
AcDbEntity
  8
1
  6
Continuous
100
AcDbCircle
 10
463.647488
 20
192.026349
 30
0.0
 40
3.0
100
AcDbArc
 50
239.99997
 51
338.41497
  0
LINE
  5
9D89
330
9BE8
100
AcDbEntity
  8
1
  6
Continuous
100
AcDbLine
 10
428.5227089999998
 20
195.5769339999999
 30
0.0
 11
428.5227089999998
 21
166.5508949999999
 31
0.0
  0
ARC
  5
9D8A
330
9BE8
100
AcDbEntity
  8
1
  6
Continuous
100
AcDbCircle
 10
431.5227089999998
 20
166.5508949999999
 30
0.0
 40
3.0
100
AcDbArc
 50
179.9999799999999
 51
278.4149799999999
  0
LINE
  5
9D8B
330
9BE8
100
AcDbEntity
  8
1
  6
Continuous
100
AcDbLine
 10
422.5227089999998
 20
195.5769339999999
 30
0.0
 11
422.5227089999998
 21
166.5508949999999
 31
0.0
  0
ARC
  5
9D8C
330
9BE8
100
AcDbEntity
  8
1
  6
Continuous
100
AcDbCircle
 10
419.5227089999998
 20
166.5508949999999
 30
0.0
 40
3.0
100
AcDbArc
 50
261.58499
 51
0.0
  0
LINE
  5
9D8D
330
9BE8
100
AcDbEntity
  8
1
  6
Continuous
100
AcDbLine
 10
391.8979319999999
 20
184.2321189999999
 30
0.0
 11
418.761353
 21
199.741723
 31
0.0
  0
LINE
  5
9D8E
330
9BE8
100
AcDbEntity
  8
1
  6
Continuous
100
AcDbLine
 10
388.8979319999998
 20
189.428273
 30
0.0
 11
415.761245
 21
204.937813
 31
0.0
  0
ARC
  5
9D8F
330
9BE8
100
AcDbEntity
  8
1
  6
Continuous
100
AcDbCircle
 10
387.3979299999999
 20
192.02635
 30
0.0
 40
3.0
100
AcDbArc
 50
201.58502
 51
299.9999899999999
  0
ARC
  5
9D90
330
9BE8
100
AcDbEntity
  8
1
  6
Continuous
100
AcDbCircle
 10
393.3979299999998
 20
181.6340439999999
 30
0.0
 40
3.0
100
AcDbArc
 50
119.9999999999999
 51
218.4149399999999
  0
LINE
  5
9D91
330
9BE8
100
AcDbEntity
  8
1
  6
Continuous
100
AcDbLine
 10
391.8979319999999
 20
229.986873
 30
0.0
 11
412.816397
 21
217.909591
 31
0.0
  0
LINE
  5
9D92
330
9BE8
100
AcDbEntity
  8
1
  6
Continuous
100
AcDbLine
 10
388.8979319999998
 20
224.7907189999998
 30
0.0
 11
414.6264719999998
 21
209.93634
 31
0.0
  0
ARC
  5
9D93
330
9BE8
100
AcDbEntity
  8
1
  6
Continuous
100
AcDbCircle
 10
387.3979299999999
 20
222.1926419999999
 30
0.0
 40
3.0
100
AcDbArc
 50
60.00000799999997
 51
158.41498
  0
ARC
  5
9D94
330
9BE8
100
AcDbEntity
  8
1
  6
Continuous
100
AcDbCircle
 10
393.3979299999998
 20
232.584948
 30
0.0
 40
3.0
100
AcDbArc
 50
141.5850399999999
 51
239.99998
  0
LINE
  5
9D95
330
9BE8
100
AcDbEntity
  8
1
  6
Continuous
100
AcDbLine
 10
436.4189169999998
 20
209.9363199999999
 30
0.0
 11
462.1474949999998
 21
224.7907189999998
 31
0.0
  0
LINE
  5
9D96
330
9BE8
100
AcDbEntity
  8
1
  6
Continuous
100
AcDbLine
 10
438.229046
 20
217.9096009999999
 30
0.0
 11
459.147495
 21
229.986873
 31
0.0
  0
ARC
  5
9D97
330
9BE8
100
AcDbEntity
  8
1
  6
Continuous
100
AcDbCircle
 10
463.647488
 20
222.1926429999999
 30
0.0
 40
3.0
100
AcDbArc
 50
21.585028
 51
120.00003
  0
ARC
  5
9D98
330
9BE8
100
AcDbEntity
  8
1
  6
Continuous
100
AcDbCircle
 10
457.647488
 20
232.584948
 30
0.0
 40
3.0
100
AcDbArc
 50
299.9999799999999
 51
38.41499499999999
  0
LINE
  5
9D99
330
9BE8
100
AcDbEntity
  8
1
  6
Continuous
100
AcDbLine
 10
412.7749859999998
 20
197.4401929999999
 30
0.0
 11
418.0374299999998
 21
200.4784649999999
 31
0.0
  0
ARC
  5
9D9A
330
9BE8
100
AcDbEntity
  8
1
  6
Continuous
100
AcDbCircle
 10
425.5227089999998
 20
207.1094959999999
 30
0.0
 40
16.0
100
AcDbArc
 50
202.8192199999999
 51
217.1807299999999
  0
LINE
  5
9D9B
330
9BE8
100
AcDbEntity
  8
1
  6
Continuous
100
AcDbLine
 10
410.774986
 20
200.9042959999999
 30
0.0
 11
416.0374299999999
 21
203.9425689999999
 31
0.0
  0
ARC
  5
9D9C
330
9BE8
100
AcDbEntity
  8
1
  6
Continuous
100
AcDbCircle
 10
431.5227089999998
 20
195.5769339999999
 30
0.0
 40
3.0
100
AcDbArc
 50
117.4864099999999
 51
179.9999599999999
  0
ARC
  5
9D9D
330
9BE8
100
AcDbEntity
  8
1
  6
Continuous
100
AcDbCircle
 10
419.5227089999998
 20
195.5769339999999
 30
0.0
 40
3.0
100
AcDbArc
 50
0.0
 51
62.51360699999999
  0
CIRCLE
  5
9D9E
330
9BE8
100
AcDbEntity
  8
2
  6
Continuous
100
AcDbCircle
 10
425.5227089999998
 20
207.1094959999999
 30
0.0
 40
3.3235
  0
CIRCLE
  5
9D9F
330
9BE8
100
AcDbEntity
  8
1
  6
Continuous
100
AcDbCircle
 10
425.5227089999998
 20
207.1094959999999
 30
0.0
 40
4.0
  0
LINE
  5
9DA0
330
9BE8
100
AcDbEntity
  8
1
  6
Continuous
100
AcDbLine
 10
419.0227089999998
 20
203.3622729999999
 30
0.0
 11
425.5227089999998
 21
199.609496
 31
0.0
  0
LINE
  5
9DA1
330
9BE8
100
AcDbEntity
  8
1
  6
Continuous
100
AcDbLine
 10
419.0227089999998
 20
210.856719
 30
0.0
 11
425.5227089999998
 21
214.609496
 31
0.0
  0
LINE
  5
9DA2
330
9BE8
100
AcDbEntity
  8
1
  6
Continuous
100
AcDbLine
 10
432.0227089999998
 20
203.3622729999999
 30
0.0
 11
432.0227089999998
 21
210.856719
 31
0.0
  0
LINE
  5
9DA3
330
9BE8
100
AcDbEntity
  8
1
  6
Continuous
100
AcDbLine
 10
432.0227089999998
 20
203.3622729999999
 30
0.0
 11
425.5227089999998
 21
199.609496
 31
0.0
  0
LINE
  5
9DA4
330
9BE8
100
AcDbEntity
  8
1
  6
Continuous
100
AcDbLine
 10
432.0227089999998
 20
210.856719
 30
0.0
 11
425.5227089999998
 21
214.609496
 31
0.0
  0
LINE
  5
9DA5
330
9BE8
100
AcDbEntity
  8
1
  6
Continuous
100
AcDbLine
 10
419.0227089999998
 20
203.3622729999999
 30
0.0
 11
419.0227089999998
 21
210.856719
 31
0.0
  0
CIRCLE
  5
9DA6
330
9BE8
100
AcDbEntity
  8
1
  6
Continuous
100
AcDbCircle
 10
425.5227089999998
 20
207.1094959999999
 30
0.0
 40
6.299999999999998
  0
LINE
  5
9DA7
330
9BE8
100
AcDbEntity
  8
1
  6
Continuous
100
AcDbLine
 10
290.0227089999999
 20
159.2256379999998
 30
0.0
 11
290.0227089999999
 21
254.993354
 31
0.0
  0
LINE
  5
9DA8
330
9BE8
100
AcDbEntity
  8
1
  6
Continuous
100
AcDbLine
 10
315.0227089999999
 20
159.2256379999998
 30
0.0
 11
315.0227089999999
 21
254.993354
 31
0.0
  0
LINE
  5
9DA9
330
9BE8
100
AcDbEntity
  8
4
  6
CENTER
100
AcDbLine
 10
302.5227089999999
 20
284.1094959999998
 30
0.0
 11
302.5227089999999
 21
152.109496
 31
0.0
  0
ARC
  5
9DAA
330
9BE8
100
AcDbEntity
  8
1
  6
Continuous
100
AcDbCircle
 10
302.5227089999999
 20
257.1094959999999
 30
0.0
 40
100.0
100
AcDbArc
 50
263.5881099999999
 51
276.4119099999999
  0
ARC
  5
9DAB
330
9BE8
100
AcDbEntity
  8
1
  6
Continuous
100
AcDbCircle
 10
313.5227089999998
 20
159.2256379999998
 30
0.0
 40
1.5
100
AcDbArc
 50
276.4119099999999
 51
0.00002
  0
ARC
  5
9DAC
330
9BE8
100
AcDbEntity
  8
1
  6
Continuous
100
AcDbCircle
 10
291.5227089999999
 20
159.2256379999998
 30
0.0
 40
1.5
100
AcDbArc
 50
180.0
 51
263.58812
  0
LINE
  5
9DAD
330
9BE8
100
AcDbEntity
  8
1
  6
Continuous
100
AcDbLine
 10
289.0227089999999
 20
273.3094929999999
 30
0.0
 11
289.0227089999999
 21
260.566494
 31
0.0
  0
LINE
  5
9DAE
330
9BE8
100
AcDbEntity
  8
1
  6
Continuous
100
AcDbLine
 10
316.0227089999999
 20
273.3094929999999
 30
0.0
 11
316.0227089999999
 21
260.566494
 31
0.0
  0
LINE
  5
9DAF
330
9BE8
100
AcDbEntity
  8
1
  6
Continuous
100
AcDbLine
 10
321.3226989999999
 20
270.317168
 30
0.0
 11
321.3226989999999
 21
197.109496
 31
0.0
  0
LINE
  5
9DB0
330
9BE8
100
AcDbEntity
  8
1
  6
Continuous
100
AcDbLine
 10
283.7227139999999
 20
270.3172124722392
 30
0.0
 11
283.7227139999999
 21
197.109496
 31
0.0
  0
LINE
  5
9DB1
330
9BE8
100
AcDbEntity
  8
1
  6
Continuous
100
AcDbLine
 10
286.5227089999999
 20
276.3094929999999
 30
0.0
 11
286.5227089999999
 21
197.109496
 31
0.0
  0
LINE
  5
9DB2
330
9BE8
100
AcDbEntity
  8
1
  6
Continuous
100
AcDbLine
 10
318.5227089999999
 20
276.3094929999999
 30
0.0
 11
318.5227089999999
 21
197.109496
 31
0.0
  0
ARC
  5
9DB3
330
9BE8
100
AcDbEntity
  8
1
  6
Continuous
100
AcDbCircle
 10
302.5227089999999
 20
157.109496
 30
0.0
 40
100.0
100
AcDbArc
 50
83.58808899999997
 51
96.41189200000004
  0
LINE
  5
9DB4
330
9BE8
100
AcDbEntity
  8
4
  6
CENTER
100
AcDbLine
 10
331.118109
 20
207.1094959999999
 30
0.0
 11
277.7892569999999
 21
207.1094959999999
 31
0.0
  0
ARC
  5
9DB5
330
9BE8
100
AcDbEntity
  8
1
  6
Continuous
100
AcDbCircle
 10
316.5227089999999
 20
198.109496
 30
0.0
 40
1.0
100
AcDbArc
 50
274.25351
 51
0.00002
  0
LINE
  5
9DB6
330
9BE8
100
AcDbEntity
  8
1
  6
Continuous
100
AcDbLine
 10
316.5968819999998
 20
197.1122489999999
 30
0.0
 11
315.022701
 21
196.995172
 31
0.0
  0
LINE
  5
9DB7
330
9BE8
100
AcDbEntity
  8
1
  6
Continuous
100
AcDbLine
 10
321.3226989999999
 20
197.109496
 30
0.0
 11
318.5227089999999
 21
197.109496
 31
0.0
  0
ARC
  5
9DB8
330
9BE8
100
AcDbEntity
  8
1
  6
Continuous
100
AcDbCircle
 10
316.5227089999999
 20
216.109496
 30
0.0
 40
1.0
100
AcDbArc
 50
359.9999799999998
 51
85.746497
  0
LINE
  5
9DB9
330
9BE8
100
AcDbEntity
  8
1
  6
Continuous
100
AcDbLine
 10
316.5968819999998
 20
217.1067429999999
 30
0.0
 11
315.022701
 21
217.2238199999999
 31
0.0
  0
LINE
  5
9DBA
330
9BE8
100
AcDbEntity
  8
1
  6
Continuous
100
AcDbLine
 10
317.5227089999999
 20
198.109496
 30
0.0
 11
317.5227089999999
 21
216.109496
 31
0.0
  0
ARC
  5
9DBB
330
9BE8
100
AcDbEntity
  8
1
  6
Continuous
100
AcDbCircle
 10
322.072699
 20
202.1678679999999
 30
0.0
 40
3.25
100
AcDbArc
 50
331.3472699999998
 51
31.36577
  0
ARC
  5
9DBC
330
9BE8
100
AcDbEntity
  8
1
  6
Continuous
100
AcDbCircle
 10
324.572699
 20
202.1678679999999
 30
0.0
 40
3.25
100
AcDbArc
 50
148.634207
 51
208.6527699999999
  0
ARC
  5
9DBD
330
9BE8
100
AcDbEntity
  8
1
  6
Continuous
100
AcDbCircle
 10
324.572699
 20
212.0511239999999
 30
0.0
 40
3.25
100
AcDbArc
 50
151.3472329999999
 51
211.3658
  0
ARC
  5
9DBE
330
9BE8
100
AcDbEntity
  8
1
  6
Continuous
100
AcDbCircle
 10
322.072699
 20
212.0511239999999
 30
0.0
 40
3.25
100
AcDbArc
 50
328.6342499999999
 51
28.65275
  0
ARC
  5
9DBF
330
9BE8
100
AcDbEntity
  8
1
  6
Continuous
100
AcDbCircle
 10
333.322699
 20
207.1094959999999
 30
0.0
 40
12.0
100
AcDbArc
 50
164.286139
 51
195.71386
  0
ARC
  5
9DC0
330
9BE8
100
AcDbEntity
  8
1
  6
Continuous
100
AcDbCircle
 10
313.322699
 20
207.1094959999999
 30
0.0
 40
12.0
100
AcDbArc
 50
344.28617
 51
15.71384
  0
LINE
  5
9DC1
330
9BE8
100
AcDbEntity
  8
1
  6
Continuous
100
AcDbLine
 10
326.322699
 20
212.2115089999998
 30
0.0
 11
324.9247189999998
 21
213.6094879999999
 31
0.0
  0
LINE
  5
9DC2
330
9BE8
100
AcDbEntity
  8
1
  6
Continuous
100
AcDbLine
 10
324.9246989999998
 20
200.6095039999999
 30
0.0
 11
326.322699
 21
202.007495
 31
0.0
  0
LINE
  5
9DC3
330
9BE8
100
AcDbEntity
  8
1
  6
Continuous
100
AcDbLine
 10
324.9246989999998
 20
213.609496
 30
0.0
 11
321.7206889999999
 21
213.609496
 31
0.0
  0
LINE
  5
9DC4
330
9BE8
100
AcDbEntity
  8
1
  6
Continuous
100
AcDbLine
 10
324.9246989999998
 20
200.6094959999999
 30
0.0
 11
321.7206889999999
 21
200.6094959999999
 31
0.0
  0
LINE
  5
9DC5
330
9BE8
100
AcDbEntity
  8
1
  6
Continuous
100
AcDbLine
 10
324.874209
 20
210.359496
 30
0.0
 11
321.771179
 21
210.359496
 31
0.0
  0
LINE
  5
9DC6
330
9BE8
100
AcDbEntity
  8
1
  6
Continuous
100
AcDbLine
 10
324.847749
 20
203.859496
 30
0.0
 11
321.797639
 21
203.859496
 31
0.0
  0
LINE
  5
9DC7
330
9BE8
100
AcDbEntity
  8
1
  6
Continuous
100
AcDbLine
 10
326.322699
 20
212.2115089999998
 30
0.0
 11
326.322699
 21
202.0074829999999
 31
0.0
  0
LINE
  5
9DC8
330
9BE8
100
AcDbEntity
  8
1
  6
Continuous
100
AcDbLine
 10
318.5227089999999
 20
203.1094959999999
 30
0.0
 11
317.5227089999999
 21
203.1094959999999
 31
0.0
  0
LINE
  5
9DC9
330
9BE8
100
AcDbEntity
  8
1
  6
Continuous
100
AcDbLine
 10
318.5227089999999
 20
211.1094959999999
 30
0.0
 11
317.5227089999999
 21
211.1094959999999
 31
0.0
  0
ARC
  5
9DCA
330
9BE8
100
AcDbEntity
  8
1
  6
Continuous
100
AcDbCircle
 10
313.5227089999998
 20
254.993354
 30
0.0
 40
1.5
100
AcDbArc
 50
359.9999799999998
 51
83.588103
  0
ARC
  5
9DCB
330
9BE8
100
AcDbEntity
  8
1
  6
Continuous
100
AcDbCircle
 10
319.0227089999999
 20
255.841545
 30
0.0
 40
2.0
100
AcDbArc
 50
192.83985
 51
255.52249
  0
ARC
  5
9DCC
330
9BE8
100
AcDbEntity
  8
1
  6
Continuous
100
AcDbCircle
 10
321.0227089999999
 20
260.566494
 30
0.0
 40
5.0
100
AcDbArc
 50
180.0
 51
192.83985
  0
LINE
  5
9DCD
330
9BE8
100
AcDbEntity
  8
1
  6
Continuous
100
AcDbLine
 10
316.1477389999999
 20
259.4553599999999
 30
0.0
 11
317.0727289999998
 21
255.3970919999999
 31
0.0
  0
ARC
  5
9DCE
330
9BE8
100
AcDbEntity
  8
1
  6
Continuous
100
AcDbCircle
 10
288.5227089999998
 20
198.109496
 30
0.0
 40
1.0
100
AcDbArc
 50
180.0
 51
265.7465199999999
  0
LINE
  5
9DCF
330
9BE8
100
AcDbEntity
  8
1
  6
Continuous
100
AcDbLine
 10
288.4485359999998
 20
197.1122499999999
 30
0.0
 11
290.0227089999999
 21
196.995173
 31
0.0
  0
LINE
  5
9DD0
330
9BE8
100
AcDbEntity
  8
1
  6
Continuous
100
AcDbLine
 10
283.7227139999999
 20
197.109496
 30
0.0
 11
286.5227089999999
 21
197.109496
 31
0.0
  0
LINE
  5
9DD1
330
9BE8
100
AcDbEntity
  8
1
  6
Continuous
100
AcDbLine
 10
288.4485359999998
 20
217.1067419999999
 30
0.0
 11
290.0227089999999
 21
217.2238189999999
 31
0.0
  0
ARC
  5
9DD2
330
9BE8
100
AcDbEntity
  8
1
  6
Continuous
100
AcDbCircle
 10
288.5227089999998
 20
216.109496
 30
0.0
 40
1.0
100
AcDbArc
 50
94.253484
 51
180.0
  0
LINE
  5
9DD3
330
9BE8
100
AcDbEntity
  8
1
  6
Continuous
100
AcDbLine
 10
287.5227089999999
 20
198.109496
 30
0.0
 11
287.5227089999999
 21
216.109496
 31
0.0
  0
ARC
  5
9DD4
330
9BE8
100
AcDbEntity
  8
1
  6
Continuous
100
AcDbCircle
 10
282.522717
 20
202.8594959999999
 30
0.0
 40
2.0
100
AcDbArc
 50
180.0
 51
269.99998
  0
ARC
  5
9DD5
330
9BE8
100
AcDbEntity
  8
1
  6
Continuous
100
AcDbCircle
 10
282.522717
 20
211.3594959999999
 30
0.0
 40
2.0
100
AcDbArc
 50
90.00001800000005
 51
180.0
  0
LINE
  5
9DD6
330
9BE8
100
AcDbEntity
  8
1
  6
Continuous
100
AcDbLine
 10
287.5227089999999
 20
203.1094959999999
 30
0.0
 11
286.5227089999999
 21
203.1094959999999
 31
0.0
  0
LINE
  5
9DD7
330
9BE8
100
AcDbEntity
  8
1
  6
Continuous
100
AcDbLine
 10
287.5227089999999
 20
211.1094959999999
 30
0.0
 11
286.5227089999999
 21
211.1094959999999
 31
0.0
  0
LINE
  5
9DD8
330
9BE8
100
AcDbEntity
  8
1
  6
Continuous
100
AcDbLine
 10
283.7227139999999
 20
200.8594959999999
 30
0.0
 11
282.522717
 21
200.8594959999999
 31
0.0
  0
LINE
  5
9DD9
330
9BE8
100
AcDbEntity
  8
1
  6
Continuous
100
AcDbLine
 10
283.7227139999999
 20
213.3594959999999
 30
0.0
 11
282.522717
 21
213.3594959999999
 31
0.0
  0
LINE
  5
9DDA
330
9BE8
100
AcDbEntity
  8
1
  6
Continuous
100
AcDbLine
 10
280.522717
 20
211.3594959999999
 30
0.0
 11
280.522717
 21
202.8594959999999
 31
0.0
  0
ARC
  5
9DDB
330
9BE8
100
AcDbEntity
  8
1
  6
Continuous
100
AcDbCircle
 10
291.5227089999999
 20
254.993354
 30
0.0
 40
1.5
100
AcDbArc
 50
96.41187900000005
 51
180.0
  0
ARC
  5
9DDC
330
9BE8
100
AcDbEntity
  8
1
  6
Continuous
100
AcDbCircle
 10
284.0227089999999
 20
260.566494
 30
0.0
 40
5.0
100
AcDbArc
 50
347.16015
 51
0.00001
  0
ARC
  5
9DDD
330
9BE8
100
AcDbEntity
  8
1
  6
Continuous
100
AcDbCircle
 10
286.0227089999998
 20
255.841545
 30
0.0
 40
2.0
100
AcDbArc
 50
284.47751
 51
347.16015
  0
LINE
  5
9DDE
330
9BE8
100
AcDbEntity
  8
1
  6
Continuous
100
AcDbLine
 10
288.897689
 20
259.4553579999999
 30
0.0
 11
287.972709
 21
255.3970899999999
 31
0.0
  0
LINE
  5
9DDF
330
9BE8
100
AcDbEntity
  8
1
  6
Continuous
100
AcDbLine
 10
315.0227089999999
 20
274.3094929999999
 30
0.0
 11
290.0227089999999
 21
274.3094929999999
 31
0.0
  0
LINE
  5
9DE0
330
9BE8
100
AcDbEntity
  8
1
  6
Continuous
100
AcDbLine
 10
331.5227089999999
 20
276.3094929999999
 30
0.0
 11
273.5227089999999
 21
276.3094929999999
 31
0.0
  0
LINE
  5
9DE1
330
9BE8
100
AcDbEntity
  8
1
  6
Continuous
100
AcDbLine
 10
331.5227089999999
 20
279.1094959999999
 30
0.0
 11
273.5227089999999
 21
279.1094959999999
 31
0.0
  0
LINE
  5
9DE3
330
9BE8
100
AcDbEntity
  8
1
  6
Continuous
100
AcDbLine
 10
331.5227089999999
 20
279.1094959999999
 30
0.0
 11
331.5227089999999
 21
276.3094929999999
 31
0.0
  0
LINE
  5
9DE4
330
9BE8
100
AcDbEntity
  8
4
  6
CENTER
100
AcDbLine
 10
322.522711
 20
284.1094959999998
 30
0.0
 11
322.522711
 21
271.309493
 31
0.0
  0
ARC
  5
9DF3
330
9BE8
100
AcDbEntity
  8
1
  6
Continuous
100
AcDbCircle
 10
315.0227089999999
 20
273.3094929999999
 30
0.0
 40
1.0
100
AcDbArc
 50
359.9999899999998
 51
89.99999700000001
  0
ARC
  5
9E06
330
9BE8
100
AcDbEntity
  8
1
  6
Continuous
100
AcDbCircle
 10
290.0227089999999
 20
273.3094929999999
 30
0.0
 40
1.0
100
AcDbArc
 50
89.99999700000001
 51
180.0
  0
LINE
  5
9E08
330
9BE8
100
AcDbEntity
  8
4
  6
CENTER
100
AcDbLine
 10
282.522707
 20
284.1094959999998
 30
0.0
 11
282.522707
 21
271.309493
 31
0.0
  0
LINE
  5
9E0A
330
9BE8
100
AcDbEntity
  8
1
  6
Continuous
100
AcDbLine
 10
273.5227089999999
 20
279.1094959999999
 30
0.0
 11
273.5227089999999
 21
276.3094929999999
 31
0.0
  0
LINE
  5
9E0B
330
9BE8
100
AcDbEntity
  8
2
  6
Continuous
100
AcDbLine
 10
176.1992089999999
 20
377.3859859999998
 30
0.0
 11
176.1992089999999
 21
375.909486
 31
0.0
  0
LINE
  5
9E0C
330
9BE8
100
AcDbEntity
  8
2
  6
Continuous
100
AcDbLine
 10
182.846209
 20
377.3859859999998
 30
0.0
 11
182.846209
 21
375.909486
 31
0.0
  0
LINE
  5
9E0D
330
9BE8
100
AcDbEntity
  8
1
  6
Continuous
100
AcDbLine
 10
183.522709
 20
376.7094859999998
 30
0.0
 11
183.522709
 21
375.909486
 31
0.0
  0
LINE
  5
9E0E
330
9BE8
100
AcDbEntity
  8
1
  6
Continuous
100
AcDbLine
 10
175.5227089999999
 20
376.7094859999998
 30
0.0
 11
175.5227089999999
 21
375.909486
 31
0.0
  0
LINE
  5
9E0F
330
9BE8
100
AcDbEntity
  8
1
  6
Continuous
100
AcDbLine
 10
175.5227089999999
 20
376.7094859999998
 30
0.0
 11
183.522709
 21
376.7094859999998
 31
0.0
  0
LINE
  5
9E10
330
9BE8
100
AcDbEntity
  8
1
  6
Continuous
100
AcDbLine
 10
176.722709
 20
377.909486
 30
0.0
 11
182.3227089999998
 21
377.909486
 31
0.0
  0
LINE
  5
9E11
330
9BE8
100
AcDbEntity
  8
1
  6
Continuous
100
AcDbLine
 10
176.722709
 20
377.909486
 30
0.0
 11
175.5227089999999
 21
376.7094859999998
 31
0.0
  0
LINE
  5
9E12
330
9BE8
100
AcDbEntity
  8
1
  6
Continuous
100
AcDbLine
 10
182.3227089999998
 20
377.909486
 30
0.0
 11
183.522709
 21
376.7094859999998
 31
0.0
  0
LINE
  5
9E13
330
9BE8
100
AcDbEntity
  8
1
  6
Continuous
100
AcDbLine
 10
30.722719
 20
209.9094959999999
 30
0.0
 11
31.922719
 21
211.1094959999999
 31
0.0
  0
LINE
  5
9E14
330
9BE8
100
AcDbEntity
  8
1
  6
Continuous
100
AcDbLine
 10
30.722719
 20
204.3094959999999
 30
0.0
 11
31.922719
 21
203.1094959999999
 31
0.0
  0
LINE
  5
9E15
330
9BE8
100
AcDbEntity
  8
1
  6
Continuous
100
AcDbLine
 10
30.722719
 20
204.3094959999999
 30
0.0
 11
30.722719
 21
209.9094959999999
 31
0.0
  0
LINE
  5
9E16
330
9BE8
100
AcDbEntity
  8
2
  6
Continuous
100
AcDbLine
 10
31.246219
 20
210.432996
 30
0.0
 11
32.72271899999999
 21
210.432996
 31
0.0
  0
LINE
  5
9E17
330
9BE8
100
AcDbEntity
  8
1
  6
Continuous
100
AcDbLine
 10
31.922719
 20
211.1094959999999
 30
0.0
 11
32.72271899999999
 21
211.1094959999999
 31
0.0
  0
LINE
  5
9E18
330
9BE8
100
AcDbEntity
  8
1
  6
Continuous
100
AcDbLine
 10
31.922719
 20
203.1094959999999
 30
0.0
 11
32.72271899999999
 21
203.1094959999999
 31
0.0
  0
LINE
  5
9E19
330
9BE8
100
AcDbEntity
  8
2
  6
Continuous
100
AcDbLine
 10
31.246219
 20
203.785996
 30
0.0
 11
32.72271899999999
 21
203.785996
 31
0.0
  0
LINE
  5
9E1A
330
9BE8
100
AcDbEntity
  8
1
  6
Continuous
100
AcDbLine
 10
31.922719
 20
203.1094959999999
 30
0.0
 11
31.922719
 21
211.1094959999999
 31
0.0
  0
LINE
  5
9E1B
330
9BE8
100
AcDbEntity
  8
1
  6
Continuous
100
AcDbLine
 10
327.122699
 20
203.1094959999999
 30
0.0
 11
327.122699
 21
211.1094959999999
 31
0.0
  0
LINE
  5
9E1C
330
9BE8
100
AcDbEntity
  8
1
  6
Continuous
100
AcDbLine
 10
328.322699
 20
204.3094959999999
 30
0.0
 11
328.322699
 21
209.9094959999999
 31
0.0
  0
LINE
  5
9E1D
330
9BE8
100
AcDbEntity
  8
2
  6
Continuous
100
AcDbLine
 10
327.7991989999998
 20
203.785996
 30
0.0
 11
326.322699
 21
203.785996
 31
0.0
  0
LINE
  5
9E1E
330
9BE8
100
AcDbEntity
  8
1
  6
Continuous
100
AcDbLine
 10
327.122699
 20
203.1094959999999
 30
0.0
 11
326.322699
 21
203.1094959999999
 31
0.0
  0
LINE
  5
9E1F
330
9BE8
100
AcDbEntity
  8
1
  6
Continuous
100
AcDbLine
 10
328.322699
 20
204.3094959999999
 30
0.0
 11
327.122699
 21
203.1094959999999
 31
0.0
  0
LINE
  5
9E20
330
9BE8
100
AcDbEntity
  8
1
  6
Continuous
100
AcDbLine
 10
327.122699
 20
211.1094959999999
 30
0.0
 11
326.322699
 21
211.1094959999999
 31
0.0
  0
LINE
  5
9E21
330
9BE8
100
AcDbEntity
  8
2
  6
Continuous
100
AcDbLine
 10
327.7991989999998
 20
210.432996
 30
0.0
 11
326.322699
 21
210.432996
 31
0.0
  0
LINE
  5
9E22
330
9BE8
100
AcDbEntity
  8
1
  6
Continuous
100
AcDbLine
 10
328.322699
 20
209.9094959999999
 30
0.0
 11
327.122699
 21
211.1094959999999
 31
0.0
  0
LINE
  5
9E23
330
9BE8
100
AcDbEntity
  8
1
  6
Continuous
100
AcDbLine
 10
175.5227089999999
 20
59.50950600000001
 30
0.0
 11
183.522709
 21
59.50950600000001
 31
0.0
  0
LINE
  5
9E24
330
9BE8
100
AcDbEntity
  8
1
  6
Continuous
100
AcDbLine
 10
176.722709
 20
58.30950600000001
 30
0.0
 11
182.3227089999998
 21
58.30950600000001
 31
0.0
  0
LINE
  5
9E25
330
9BE8
100
AcDbEntity
  8
2
  6
Continuous
100
AcDbLine
 10
176.1992089999999
 20
58.833006
 30
0.0
 11
176.1992089999999
 21
60.309506
 31
0.0
  0
LINE
  5
9E26
330
9BE8
100
AcDbEntity
  8
1
  6
Continuous
100
AcDbLine
 10
175.5227089999999
 20
59.50950600000001
 30
0.0
 11
175.5227089999999
 21
60.309506
 31
0.0
  0
LINE
  5
9E27
330
9BE8
100
AcDbEntity
  8
1
  6
Continuous
100
AcDbLine
 10
176.722709
 20
58.30950600000001
 30
0.0
 11
175.5227089999999
 21
59.50950600000001
 31
0.0
  0
LINE
  5
9E28
330
9BE8
100
AcDbEntity
  8
1
  6
Continuous
100
AcDbLine
 10
183.522709
 20
59.50950600000001
 30
0.0
 11
183.522709
 21
60.309506
 31
0.0
  0
LINE
  5
9E29
330
9BE8
100
AcDbEntity
  8
2
  6
Continuous
100
AcDbLine
 10
182.846209
 20
58.833006
 30
0.0
 11
182.846209
 21
60.309506
 31
0.0
  0
LINE
  5
9E2A
330
9BE8
100
AcDbEntity
  8
1
  6
Continuous
100
AcDbLine
 10
182.3227089999998
 20
58.30950600000001
 30
0.0
 11
183.522709
 21
59.50950600000001
 31
0.0
  0
CIRCLE
  5
9E2B
330
9BE8
100
AcDbEntity
  8
1
  6
Continuous
100
AcDbCircle
 10
425.5227089999998
 20
207.1094959999999
 30
0.0
 40
2.799999999999998
  0
ARC
  5
9E72
330
9BE8
100
AcDbEntity
  8
1
  6
Continuous
100
AcDbCircle
 10
32.10874916023107
 20
269.6860136332744
 30
0.0
 40
5.649337412163668
100
AcDbArc
 50
6.414581591875353
 51
35.47313240629261
  0
LINE
  5
9E73
330
9BE8
100
AcDbEntity
  8
1
  6
Continuous
100
AcDbLine
 10
32.57135975172672
 20
274.9582968152477
 30
0.0
 11
34.53709483413486
 21
274.0106922112452
 31
0.0
  0
ARC
  5
9E75
330
9BE8
100
AcDbEntity
  8
1
  6
Continuous
100
AcDbCircle
 10
39.550931770904
 20
281.6428122872721
 30
0.0
 40
9.131693034887046
100
AcDbArc
 50
236.6975294661726
 51
251.8707568688807
  0
ARC
  5
9E76
330
9BE8
100
AcDbEntity
  8
1
  6
Continuous
100
AcDbCircle
 10
38.15910457063997
 20
278.6738714667182
 30
0.0
 40
5.890578941823518
100
AcDbArc
 50
255.7538245114316
 51
265.7514792064958
  0
ARC
  5
9E77
330
9BE8
100
AcDbEntity
  8
1
  6
Continuous
100
AcDbCircle
 10
77.52270899999999
 20
268.3094929999999
 30
0.0
 40
5.0
100
AcDbArc
 50
116.103949
 51
180.0
  0
ARC
  5
9E78
330
9BE8
100
AcDbEntity
  8
1
  6
Continuous
100
AcDbCircle
 10
73.494486229096
 20
281.6428122872721
 30
0.0
 40
9.131693034887046
100
AcDbArc
 50
288.1292431311192
 51
303.3024705338273
  0
ARC
  5
9E79
330
9BE8
100
AcDbEntity
  8
1
  6
Continuous
100
AcDbCircle
 10
79.822699
 20
276.3094929999999
 30
0.0
 40
1.5
100
AcDbArc
 50
295.7369118790472
 51
0.0000400000000634
  0
LINE
  5
9E7A
330
9BE8
100
AcDbEntity
  8
1
  6
Continuous
100
AcDbLine
 10
80.47405824827327
 20
274.9582968152477
 30
0.0
 11
78.50832316586512
 21
274.0106922112452
 31
0.0
  0
ARC
  5
9E7B
330
9BE8
100
AcDbEntity
  8
1
  6
Continuous
100
AcDbCircle
 10
80.93666883976892
 20
269.6860136332744
 30
0.0
 40
5.649337412163668
100
AcDbArc
 50
144.5268675937073
 51
173.5854184081246
  0
ARC
  5
9E7C
330
9BE8
100
AcDbEntity
  8
1
  6
Continuous
100
AcDbCircle
 10
74.88631342936002
 20
278.6738714667182
 30
0.0
 40
5.890578941823518
100
AcDbArc
 50
274.2485207935041
 51
284.2461754885683
  0
ARC
  5
9E7D
330
9BE8
100
AcDbEntity
  8
1
  6
Continuous
100
AcDbCircle
 10
156.335465496199
 20
276.2016664790365
 30
0.0
 40
5.091271156231088
100
AcDbArc
 50
178.9656190858286
 51
242.5852240817356
  0
ARC
  5
9E80
330
9BE8
100
AcDbEntity
  8
1
  6
Continuous
100
AcDbCircle
 10
151.760997692712
 20
268.7701944674343
 30
0.0
 40
3.667941435111066
100
AcDbArc
 50
33.89661507796567
 51
52.55119397385848
  0
ARC
  5
9E82
330
9BE8
100
AcDbEntity
  8
1
  6
Continuous
100
AcDbCircle
 10
210.6003930000001
 20
276.291697
 30
0.0
 40
2.799999999999998
100
AcDbArc
 50
92.62779899999996
 51
179.961551
  0
ARC
  5
9E83
330
9BE8
100
AcDbEntity
  8
1
  6
Continuous
100
AcDbCircle
 10
202.709952503801
 20
276.2016664790365
 30
0.0
 40
5.091271156231088
100
AcDbArc
 50
297.4147759182643
 51
1.03438091417132
  0
ARC
  5
9E84
330
9BE8
100
AcDbEntity
  8
1
  6
Continuous
100
AcDbCircle
 10
211.517731304386
 20
268.8843196684761
 30
0.0
 40
7.425175
100
AcDbArc
 50
89.96159000000004
 51
120.8194169536436
  0
ARC
  5
9E85
330
9BE8
100
AcDbEntity
  8
1
  6
Continuous
100
AcDbCircle
 10
207.284420307288
 20
268.7701944674343
 30
0.0
 40
3.667941435111066
100
AcDbArc
 50
127.4488060261415
 51
146.1025708029587
  0
ARC
  5
9E86
330
9BE8
100
AcDbEntity
  8
1
  6
Continuous
100
AcDbCircle
 10
281.5227089999999
 20
268.3094929999999
 30
0.0
 40
5.0
100
AcDbArc
 50
0.0
 51
63.896051
  0
ARC
  5
9E87
330
9BE8
100
AcDbEntity
  8
1
  6
Continuous
100
AcDbCircle
 10
285.5509317709039
 20
281.6428122872721
 30
0.0
 40
9.131693034887046
100
AcDbArc
 50
236.6975294661726
 51
251.8707568688807
  0
ARC
  5
9E88
330
9BE8
100
AcDbEntity
  8
1
  6
Continuous
100
AcDbCircle
 10
279.2227189999999
 20
276.3094929999999
 30
0.0
 40
1.5
100
AcDbArc
 50
179.9999599999999
 51
244.2630881209527
  0
LINE
  5
9E89
330
9BE8
100
AcDbEntity
  8
1
  6
Continuous
100
AcDbLine
 10
278.5713597517266
 20
274.9582968152477
 30
0.0
 11
280.5370948341348
 21
274.0106922112452
 31
0.0
  0
ARC
  5
9E8A
330
9BE8
100
AcDbEntity
  8
1
  6
Continuous
100
AcDbCircle
 10
278.108749160231
 20
269.6860136332744
 30
0.0
 40
5.649337412163668
100
AcDbArc
 50
6.414581591875353
 51
35.47313240629261
  0
ARC
  5
9E8B
330
9BE8
100
AcDbEntity
  8
1
  6
Continuous
100
AcDbCircle
 10
284.1591045706398
 20
278.6738714667182
 30
0.0
 40
5.890578941823518
100
AcDbArc
 50
255.7538245114316
 51
265.7514792064958
  0
ARC
  5
9E8C
330
9BE8
100
AcDbEntity
  8
1
  6
Continuous
100
AcDbCircle
 10
323.5227089999999
 20
268.3094929999999
 30
0.0
 40
5.0
100
AcDbArc
 50
116.103949
 51
180.0
  0
ARC
  5
9E8D
330
9BE8
100
AcDbEntity
  8
1
  6
Continuous
100
AcDbCircle
 10
319.4944862290959
 20
281.6428122872721
 30
0.0
 40
9.131693034887046
100
AcDbArc
 50
288.1292431311192
 51
303.3024705338273
  0
ARC
  5
9E8E
330
9BE8
100
AcDbEntity
  8
1
  6
Continuous
100
AcDbCircle
 10
320.8863134293599
 20
278.6738714667182
 30
0.0
 40
5.890578941823518
100
AcDbArc
 50
274.2485207935041
 51
284.2461754885683
  0
ARC
  5
9E8F
330
9BE8
100
AcDbEntity
  8
1
  6
Continuous
100
AcDbCircle
 10
326.9366688397689
 20
269.6860136332744
 30
0.0
 40
5.649337412163668
100
AcDbArc
 50
144.5268675937073
 51
173.5854184081246
  0
LINE
  5
9E90
330
9BE8
100
AcDbEntity
  8
1
  6
Continuous
100
AcDbLine
 10
326.4740582482732
 20
274.9582968152477
 30
0.0
 11
324.508323165865
 21
274.0106922112452
 31
0.0
  0
ARC
  5
9E91
330
9BE8
100
AcDbEntity
  8
1
  6
Continuous
100
AcDbCircle
 10
325.8226989999999
 20
276.3094929999999
 30
0.0
 40
1.5
100
AcDbArc
 50
295.7369118790472
 51
0.0000400000000634
  0
ARC
  5
9E93
330
9BE8
100
AcDbEntity
  8
1
  6
Continuous
100
AcDbCircle
 10
402.3354654961988
 20
276.2016664790365
 30
0.0
 40
5.091271156231088
100
AcDbArc
 50
178.9656190858286
 51
242.5852240817356
  0
ARC
  5
9E94
330
9BE8
100
AcDbEntity
  8
1
  6
Continuous
100
AcDbCircle
 10
397.7609976927118
 20
268.7701944674343
 30
0.0
 40
3.667941435111066
100
AcDbArc
 50
33.8974291969644
 51
52.55119397385848
  0
ARC
  5
9E95
330
9BE8
100
AcDbEntity
  8
1
  6
Continuous
100
AcDbCircle
 10
394.4450249999997
 20
276.291697
 30
0.0
 40
2.799999999999998
100
AcDbArc
 50
0.038449
 51
87.37220100000001
  0
ARC
  5
9E96
330
9BE8
100
AcDbEntity
  8
1
  6
Continuous
100
AcDbCircle
 10
393.5276866956138
 20
268.8843196684761
 30
0.0
 40
7.425175
100
AcDbArc
 50
59.1805830463563
 51
90.03840999999999
  0
ARC
  5
9E97
330
9BE8
100
AcDbEntity
  8
1
  6
Continuous
100
AcDbCircle
 10
453.2844203072878
 20
268.7701944674343
 30
0.0
 40
3.667941435111066
100
AcDbArc
 50
127.4488060261415
 51
146.1033849220343
  0
ARC
  5
9E99
330
9BE8
100
AcDbEntity
  8
1
  6
Continuous
100
AcDbCircle
 10
456.6003929999998
 20
276.291697
 30
0.0
 40
2.799999999999998
100
AcDbArc
 50
92.62779899999996
 51
179.961551
  0
ARC
  5
9E9A
330
9BE8
100
AcDbEntity
  8
1
  6
Continuous
100
AcDbCircle
 10
457.5177313043858
 20
268.8843196684761
 30
0.0
 40
7.425175
100
AcDbArc
 50
89.96159000000004
 51
120.8194169536436
  0
ARC
  5
9E9B
330
9BE8
100
AcDbEntity
  8
1
  6
Continuous
100
AcDbCircle
 10
448.7099525038009
 20
276.2016664790365
 30
0.0
 40
5.091271156231088
100
AcDbArc
 50
297.4147759182643
 51
1.03438091417132
  0
ENDSEC
  0
SECTION
  2
OBJECTS
  0
DICTIONARY
  5
9BD6
330
0
100
AcDbDictionary
281
     1
  3
ACAD_CIP_PREVIOUS_PRODUCT_INFO
350
9F05
  3
ACAD_COLOR
350
9EE7
  3
ACAD_DETAILVIEWSTYLE
350
9F00
  3
ACAD_GROUP
350
9BD7
  3
ACAD_LAYOUT
350
9BE3
  3
ACAD_MATERIAL
350
9EB5
  3
ACAD_MLEADERSTYLE
350
9EFC
  3
ACAD_MLINESTYLE
350
9BE0
  3
ACAD_PLOTSETTINGS
350
9BE2
  3
ACAD_PLOTSTYLENAME
350
9EB3
  3
ACAD_SCALELIST
350
9EEA
  3
ACAD_SECTIONVIEWSTYLE
350
9EFE
  3
ACAD_TABLESTYLE
350
9EE8
  3
ACAD_VISUALSTYLE
350
9ECE
  3
ACDB_RECOMPOSE_DATA
350
9F23
  3
AcDbVariableDictionary
350
9F16
  3
DWGPROPS
350
9F24
  0
DICTIONARY
  5
9F06
330
9BDA
100
AcDbDictionary
280
     1
281
     1
  3
ADSK_XREC_LAYER_RECONCILED
360
9F07
  0
DICTIONARY
  5
9F08
330
9BF0
100
AcDbDictionary
280
     1
281
     1
  3
ADSK_XREC_LAYER_RECONCILED
360
9F09
  0
DICTIONARY
  5
9F0A
330
9BF1
100
AcDbDictionary
280
     1
281
     1
  3
ADSK_XREC_LAYER_RECONCILED
360
9F0B
  0
DICTIONARY
  5
9F0C
330
9BF2
100
AcDbDictionary
280
     1
281
     1
  3
ADSK_XREC_LAYER_RECONCILED
360
9F0D
  0
DICTIONARY
  5
9F0E
330
9BF3
100
AcDbDictionary
280
     1
281
     1
  3
ADSK_XREC_LAYER_RECONCILED
360
9F0F
  0
DICTIONARY
  5
9F10
330
9BF4
100
AcDbDictionary
280
     1
281
     1
  3
ADSK_XREC_LAYER_RECONCILED
360
9F11
  0
DICTIONARY
  5
9F12
330
9BF5
100
AcDbDictionary
280
     1
281
     1
  3
ADSK_XREC_LAYER_RECONCILED
360
9F13
  0
DICTIONARY
  5
9F14
330
9BF6
100
AcDbDictionary
280
     1
281
     1
  3
ADSK_XREC_LAYER_RECONCILED
360
9F15
  0
DICTIONARY
  5
9E36
330
9BE8
100
AcDbDictionary
281
     1
  3
ACAD_LAYOUTSELFREF
350
9EAF
  0
DICTIONARY
  5
9E34
330
9BE4
100
AcDbDictionary
281
     1
  3
ACAD_LAYOUTSELFREF
350
9EAE
  0
XRECORD
  5
9F05
102
{ACAD_REACTORS
330
9BD6
102
}
330
9BD6
100
AcDbXrecord
280
     1
300
ACDLT
300
2014
300
ACDLT_F_S
  0
DICTIONARY
  5
9EE7
102
{ACAD_REACTORS
330
9BD6
102
}
330
9BD6
100
AcDbDictionary
281
     1
  0
DICTIONARY
  5
9F00
102
{ACAD_REACTORS
330
9BD6
102
}
330
9BD6
100
AcDbDictionary
281
     1
  3
Imperial24
350
9F01
  0
DICTIONARY
  5
9BD7
102
{ACAD_REACTORS
330
9BD6
102
}
330
9BD6
100
AcDbDictionary
281
     1
  0
DICTIONARY
  5
9BE3
102
{ACAD_REACTORS
330
9BD6
102
}
330
9BD6
100
AcDbDictionary
281
     1
  3
Model
350
9F02
  3
レイアウト1
350
9F03
  0
DICTIONARY
  5
9EB5
102
{ACAD_REACTORS
330
9BD6
102
}
330
9BD6
100
AcDbDictionary
281
     1
  3
ByBlock
350
9EBE
  3
ByLayer
350
9EB6
  3
Global
350
9EC6
  0
DICTIONARY
  5
9EFC
102
{ACAD_REACTORS
330
9BD6
102
}
330
9BD6
100
AcDbDictionary
281
     1
  3
Standard
350
9EFD
  0
DICTIONARY
  5
9BE0
102
{ACAD_REACTORS
330
9BD6
102
}
330
9BD6
100
AcDbDictionary
281
     1
  3
STANDARD
350
9BE1
  0
DICTIONARY
  5
9BE2
102
{ACAD_REACTORS
330
9BD6
102
}
330
9BD6
100
AcDbDictionary
281
     1
  0
ACDBDICTIONARYWDFLT
  5
9EB3
102
{ACAD_REACTORS
330
9BD6
102
}
330
9BD6
100
AcDbDictionary
281
     1
  3
Normal
350
9EB4
100
AcDbDictionaryWithDefault
340
9EB4
  0
DICTIONARY
  5
9EEA
102
{ACAD_REACTORS
330
9BD6
102
}
330
9BD6
100
AcDbDictionary
281
     1
  3
A0
350
9EEB
  3
A1
350
9EEC
  3
A2
350
9EED
  3
A3
350
9EEE
  3
A4
350
9EEF
  3
A5
350
9EF0
  3
A6
350
9EF1
  3
A7
350
9EF2
  3
A8
350
9EF3
  3
A9
350
9EF4
  3
B0
350
9EF5
  3
B1
350
9EF6
  3
B2
350
9EF7
  3
B3
350
9EF8
  3
B4
350
9EF9
  3
B5
350
9EFA
  3
B6
350
9EFB
  0
DICTIONARY
  5
9EFE
102
{ACAD_REACTORS
330
9BD6
102
}
330
9BD6
100
AcDbDictionary
281
     1
  3
Imperial24
350
9EFF
  0
DICTIONARY
  5
9EE8
102
{ACAD_REACTORS
330
9BD6
102
}
330
9BD6
100
AcDbDictionary
281
     1
  3
Standard
350
9EE9
  0
DICTIONARY
  5
9ECE
102
{ACAD_REACTORS
330
9BD6
102
}
330
9BD6
100
AcDbDictionary
281
     1
  3
2dWireframe
350
9ED4
  3
Basic
350
9ED3
  3
Brighten
350
9EDA
  3
ColorChange
350
9EDE
  3
Conceptual
350
9ED7
  3
Dim
350
9ED9
  3
EdgeColorOff
350
9EE6
  3
Facepattern
350
9EDD
  3
Flat
350
9ECF
  3
FlatWithEdges
350
9ED0
  3
Gouraud
350
9ED1
  3
GouraudWithEdges
350
9ED2
  3
Hidden
350
9ED6
  3
JitterOff
350
9EE4
  3
Linepattern
350
9EDC
  3
OverhangOff
350
9EE5
  3
Realistic
350
9ED8
  3
Shaded
350
9EE3
  3
Shaded with edges
350
9EE2
  3
Shades of Gray
350
9EDF
  3
Sketchy
350
9EE0
  3
Thicken
350
9EDB
  3
Wireframe
350
9ED5
  3
X-Ray
350
9EE1
  0
XRECORD
  5
9F23
102
{ACAD_REACTORS
330
9BD6
102
}
330
9BD6
100
AcDbXrecord
280
     1
 90
        1
330
9EE9
  0
DICTIONARY
  5
9F16
102
{ACAD_REACTORS
330
9BD6
102
}
330
9BD6
100
AcDbDictionary
281
     1
  3
CANNOSCALE
350
9F1B
  3
CMLEADERSTYLE
350
9F18
  3
CTABLESTYLE
350
9F17
  3
CVIEWDETAILSTYLE
350
9F19
  3
CVIEWSECTIONSTYLE
350
9F1A
  3
DIMASSOC
350
9F1E
  3
INDEXCTL
350
9F1D
  3
SORTENTS
350
9F1C
  3
XCLIPFRAME
350
9F1F
  0
XRECORD
  5
9F24
102
{ACAD_REACTORS
330
9BD6
102
}
330
9BD6
100
AcDbXrecord
280
     1
  1
DWGPROPS COOKIE
  2

  3

  4

  6

  7

  8
Yoshitsune
  9

300
=
301
=
302
=
303
=
304
=
305
=
306
=
307
=
308
=
309
=
 40
0.1083487731481481
 41
2451301.453028009
 42
2457192.690158299
  1

 90
        0
  0
XRECORD
  5
9F07
102
{ACAD_REACTORS
330
9F06
102
}
330
9F06
100
AcDbXrecord
280
     1
290
     1
  0
XRECORD
  5
9F09
102
{ACAD_REACTORS
330
9F08
102
}
330
9F08
100
AcDbXrecord
280
     1
290
     1
  0
XRECORD
  5
9F0B
102
{ACAD_REACTORS
330
9F0A
102
}
330
9F0A
100
AcDbXrecord
280
     1
290
     1
  0
XRECORD
  5
9F0D
102
{ACAD_REACTORS
330
9F0C
102
}
330
9F0C
100
AcDbXrecord
280
     1
290
     1
  0
XRECORD
  5
9F0F
102
{ACAD_REACTORS
330
9F0E
102
}
330
9F0E
100
AcDbXrecord
280
     1
290
     1
  0
XRECORD
  5
9F11
102
{ACAD_REACTORS
330
9F10
102
}
330
9F10
100
AcDbXrecord
280
     1
290
     1
  0
XRECORD
  5
9F13
102
{ACAD_REACTORS
330
9F12
102
}
330
9F12
100
AcDbXrecord
280
     1
290
     1
  0
XRECORD
  5
9F15
102
{ACAD_REACTORS
330
9F14
102
}
330
9F14
100
AcDbXrecord
280
     1
290
     1
  0
XRECORD
  5
9EAF
102
{ACAD_REACTORS
330
9E36
102
}
330
9E36
100
AcDbXrecord
280
     1
340
9BE8
  0
XRECORD
  5
9EAE
102
{ACAD_REACTORS
330
9E34
102
}
330
9E34
100
AcDbXrecord
280
     1
340
9BE4
  0
ACDBDETAILVIEWSTYLE
  5
9F01
102
{ACAD_XDICTIONARY
360
9F5C
102
}
102
{ACAD_REACTORS
330
9F00
102
}
330
9F00
100
AcDbModelDocViewStyle
 70
     0
  3
Imperial24
290
     0
100
AcDbDetailViewStyle
 70
     0
 71
     0
 90
        3
 71
     1
340
9BDB
 40
0.24
340
0
 40
0.24
300

 40
0.36
280
     3
 71
     2
340
9BDF
 90
       25
 71
     3
340
9BDB
 40
0.24
 90
        1
 40
0.75
 90
        1
300
%<\AcVar ViewType \f "%tc1">% %<\AcVar ViewDetailId>%\PSCALE %<\AcVar ViewScale \f "%sn">%
 71
     4
340
9BDF
 90
       25
340
9BDF
 90
       25
280
     0
  0
LAYOUT
  5
9F02
102
{ACAD_XDICTIONARY
360
9F5E
102
}
102
{ACAD_REACTORS
330
9BE3
102
}
330
9BE3
100
AcDbPlotSettings
  1

  2
Canon LBP9100C
  4

  6

 40
0.0
 41
0.0
 42
0.0
 43
0.0
 44
0.0
 45
0.0
 46
0.0
 47
0.0
 48
0.0
 49
0.0
140
0.0
141
0.0
142
1.0
143
1.0
 70
  1712
 72
     0
 73
     0
 74
     0
  7

 75
     0
147
1.0
148
0.0
149
0.0
100
AcDbLayout
  1
Model
 70
     1
 71
     0
 10
0.0
 20
0.0
 11
12.0
 21
9.0
 12
0.0
 22
0.0
 32
0.0
 14
0.0
 24
0.0
 34
0.0
 15
0.0
 25
0.0
 35
0.0
146
0.0
 13
0.0
 23
0.0
 33
0.0
 16
1.0
 26
0.0
 36
0.0
 17
0.0
 27
1.0
 37
0.0
 76
     0
330
9BE8
331
9EAD
  0
LAYOUT
  5
9F03
102
{ACAD_XDICTIONARY
360
9F60
102
}
102
{ACAD_REACTORS
330
9BE3
102
}
330
9BE3
100
AcDbPlotSettings
  1

  2
Canon LBP9100C
  4

  6

 40
0.0
 41
0.0
 42
0.0
 43
0.0
 44
0.0
 45
0.0
 46
0.0
 47
0.0
 48
0.0
 49
0.0
140
0.0
141
0.0
142
1.0
143
1.0
 70
   688
 72
     0
 73
     0
 74
     5
  7

 75
    16
147
1.0
148
0.0
149
0.0
100
AcDbLayout
  1
レイアウト1
 70
     0
 71
     1
 10
0.0
 20
0.0
 11
420.0
 21
297.0
 12
0.0
 22
0.0
 32
0.0
 14
1.000000000000000E+20
 24
1.000000000000000E+20
 34
1.000000000000000E+20
 15
-1.000000000000000E+20
 25
-1.000000000000000E+20
 35
-1.000000000000000E+20
146
0.0
 13
0.0
 23
0.0
 33
0.0
 16
1.0
 26
0.0
 36
0.0
 17
0.0
 27
1.0
 37
0.0
 76
     0
330
9BE4
  0
MATERIAL
  5
9EBE
102
{ACAD_XDICTIONARY
360
9EBF
102
}
102
{ACAD_REACTORS
330
9EB5
102
}
330
9EB5
100
AcDbMaterial
  1
ByBlock
 72
     0
 43
0.0208333333333333
 43
0.0
 43
0.0
 43
0.0
 43
0.0
 43
0.0208333333333333
 43
0.0
 43
0.0
 43
0.0
 43
0.0
 43
1.0
 43
0.0
 43
0.0
 43
0.0
 43
0.0
 43
1.0
 77
     0
 47
0.0208333333333333
 47
0.0
 47
0.0
 47
0.0
 47
0.0
 47
0.0208333333333333
 47
0.0
 47
0.0
 47
0.0
 47
0.0
 47
1.0
 47
0.0
 47
0.0
 47
0.0
 47
0.0
 47
1.0
171
     0
 49
0.0208333333333333
 49
0.0
 49
0.0
 49
0.0
 49
0.0
 49
0.0208333333333333
 49
0.0
 49
0.0
 49
0.0
 49
0.0
 49
1.0
 49
0.0
 49
0.0
 49
0.0
 49
0.0
 49
1.0
175
     0
142
0.0208333333333333
142
0.0
142
0.0
142
0.0
142
0.0
142
0.0208333333333333
142
0.0
142
0.0
142
0.0
142
0.0
142
1.0
142
0.0
142
0.0
142
0.0
142
0.0
142
1.0
179
     0
144
0.0208333333333333
144
0.0
144
0.0
144
0.0
144
0.0
144
0.0208333333333333
144
0.0
144
0.0
144
0.0
144
0.0
144
1.0
144
0.0
144
0.0
144
0.0
144
0.0
144
1.0
147
0.0208333333333333
147
0.0
147
0.0
147
0.0
147
0.0
147
0.0208333333333333
147
0.0
147
0.0
147
0.0
147
0.0
147
1.0
147
0.0
147
0.0
147
0.0
147
0.0
147
1.0
  0
MATERIAL
  5
9EB6
102
{ACAD_XDICTIONARY
360
9EB7
102
}
102
{ACAD_REACTORS
330
9EB5
102
}
330
9EB5
100
AcDbMaterial
  1
ByLayer
 72
     0
 43
0.0208333333333333
 43
0.0
 43
0.0
 43
0.0
 43
0.0
 43
0.0208333333333333
 43
0.0
 43
0.0
 43
0.0
 43
0.0
 43
1.0
 43
0.0
 43
0.0
 43
0.0
 43
0.0
 43
1.0
 77
     0
 47
0.0208333333333333
 47
0.0
 47
0.0
 47
0.0
 47
0.0
 47
0.0208333333333333
 47
0.0
 47
0.0
 47
0.0
 47
0.0
 47
1.0
 47
0.0
 47
0.0
 47
0.0
 47
0.0
 47
1.0
171
     0
 49
0.0208333333333333
 49
0.0
 49
0.0
 49
0.0
 49
0.0
 49
0.0208333333333333
 49
0.0
 49
0.0
 49
0.0
 49
0.0
 49
1.0
 49
0.0
 49
0.0
 49
0.0
 49
0.0
 49
1.0
175
     0
142
0.0208333333333333
142
0.0
142
0.0
142
0.0
142
0.0
142
0.0208333333333333
142
0.0
142
0.0
142
0.0
142
0.0
142
1.0
142
0.0
142
0.0
142
0.0
142
0.0
142
1.0
179
     0
144
0.0208333333333333
144
0.0
144
0.0
144
0.0
144
0.0
144
0.0208333333333333
144
0.0
144
0.0
144
0.0
144
0.0
144
1.0
144
0.0
144
0.0
144
0.0
144
0.0
144
1.0
147
0.0208333333333333
147
0.0
147
0.0
147
0.0
147
0.0
147
0.0208333333333333
147
0.0
147
0.0
147
0.0
147
0.0
147
1.0
147
0.0
147
0.0
147
0.0
147
0.0
147
1.0
  0
MATERIAL
  5
9EC6
102
{ACAD_XDICTIONARY
360
9EC7
102
}
102
{ACAD_REACTORS
330
9EB5
102
}
330
9EB5
100
AcDbMaterial
  1
Global
 72
     0
 43
0.0208333333333333
 43
0.0
 43
0.0
 43
0.0
 43
0.0
 43
0.0208333333333333
 43
0.0
 43
0.0
 43
0.0
 43
0.0
 43
1.0
 43
0.0
 43
0.0
 43
0.0
 43
0.0
 43
1.0
 77
     0
 47
0.0208333333333333
 47
0.0
 47
0.0
 47
0.0
 47
0.0
 47
0.0208333333333333
 47
0.0
 47
0.0
 47
0.0
 47
0.0
 47
1.0
 47
0.0
 47
0.0
 47
0.0
 47
0.0
 47
1.0
171
     0
 49
0.0208333333333333
 49
0.0
 49
0.0
 49
0.0
 49
0.0
 49
0.0208333333333333
 49
0.0
 49
0.0
 49
0.0
 49
0.0
 49
1.0
 49
0.0
 49
0.0
 49
0.0
 49
0.0
 49
1.0
175
     0
142
0.0208333333333333
142
0.0
142
0.0
142
0.0
142
0.0
142
0.0208333333333333
142
0.0
142
0.0
142
0.0
142
0.0
142
1.0
142
0.0
142
0.0
142
0.0
142
0.0
142
1.0
179
     0
144
0.0208333333333333
144
0.0
144
0.0
144
0.0
144
0.0
144
0.0208333333333333
144
0.0
144
0.0
144
0.0
144
0.0
144
1.0
144
0.0
144
0.0
144
0.0
144
0.0
144
1.0
147
0.0208333333333333
147
0.0
147
0.0
147
0.0
147
0.0
147
0.0208333333333333
147
0.0
147
0.0
147
0.0
147
0.0
147
1.0
147
0.0
147
0.0
147
0.0
147
0.0
147
1.0
  0
MLEADERSTYLE
  5
9EFD
102
{ACAD_REACTORS
330
9EFC
102
}
330
9EFC
100
AcDbMLeaderStyle
170
     2
171
     1
172
     0
 90
        2
 40
0.0
 41
0.0
173
     1
 91
-1056964608
340
9BDD
 92
       -2
290
     1
 42
0.09
291
     1
 43
0.36
  3
Standard
 44
0.18
300

342
9BDB
174
     1
178
     6
175
     1
176
     0
 93
-1056964608
 45
0.18
292
     0
297
     0
 46
0.18
 94
-1056964608
 47
1.0
 49
1.0
140
1.0
293
     1
141
0.0
294
     1
177
     0
142
1.0
295
     0
296
     0
143
0.125
1001
ACAD_MLEADERVER
1070
     2
  0
MLINESTYLE
  5
9BE1
102
{ACAD_REACTORS
330
9BE0
102
}
330
9BE0
100
AcDbMlineStyle
  2
STANDARD
 70
     0
  3

 62
   256
 51
90.0
 52
90.0
 71
     2
 49
0.5
 62
   256
  6
BYLAYER
 49
-0.5
 62
   256
  6
BYLAYER
  0
ACDBPLACEHOLDER
  5
9EB4
102
{ACAD_REACTORS
330
9EB3
102
}
330
9EB3
  0
SCALE
  5
9EEB
102
{ACAD_REACTORS
330
9EEA
102
}
330
9EEA
100
AcDbScale
 70
     0
300
1:1
140
1.0
141
1.0
290
     1
  0
SCALE
  5
9EEC
102
{ACAD_REACTORS
330
9EEA
102
}
330
9EEA
100
AcDbScale
 70
     0
300
1/128" = 1'-0"
140
0.0078125
141
12.0
290
     0
  0
SCALE
  5
9EED
102
{ACAD_REACTORS
330
9EEA
102
}
330
9EEA
100
AcDbScale
 70
     0
300
1/64" = 1'-0"
140
0.015625
141
12.0
290
     0
  0
SCALE
  5
9EEE
102
{ACAD_REACTORS
330
9EEA
102
}
330
9EEA
100
AcDbScale
 70
     0
300
1/32" = 1'-0"
140
0.03125
141
12.0
290
     0
  0
SCALE
  5
9EEF
102
{ACAD_REACTORS
330
9EEA
102
}
330
9EEA
100
AcDbScale
 70
     0
300
1/16" = 1'-0"
140
0.0625
141
12.0
290
     0
  0
SCALE
  5
9EF0
102
{ACAD_REACTORS
330
9EEA
102
}
330
9EEA
100
AcDbScale
 70
     0
300
3/32" = 1'-0"
140
0.09375
141
12.0
290
     0
  0
SCALE
  5
9EF1
102
{ACAD_REACTORS
330
9EEA
102
}
330
9EEA
100
AcDbScale
 70
     0
300
1/8" = 1'-0"
140
0.125
141
12.0
290
     0
  0
SCALE
  5
9EF2
102
{ACAD_REACTORS
330
9EEA
102
}
330
9EEA
100
AcDbScale
 70
     0
300
3/16" = 1'-0"
140
0.1875
141
12.0
290
     0
  0
SCALE
  5
9EF3
102
{ACAD_REACTORS
330
9EEA
102
}
330
9EEA
100
AcDbScale
 70
     0
300
1/4" = 1'-0"
140
0.25
141
12.0
290
     0
  0
SCALE
  5
9EF4
102
{ACAD_REACTORS
330
9EEA
102
}
330
9EEA
100
AcDbScale
 70
     0
300
3/8" = 1'-0"
140
0.375
141
12.0
290
     0
  0
SCALE
  5
9EF5
102
{ACAD_REACTORS
330
9EEA
102
}
330
9EEA
100
AcDbScale
 70
     0
300
1/2" = 1'-0"
140
0.5
141
12.0
290
     0
  0
SCALE
  5
9EF6
102
{ACAD_REACTORS
330
9EEA
102
}
330
9EEA
100
AcDbScale
 70
     0
300
3/4" = 1'-0"
140
0.75
141
12.0
290
     0
  0
SCALE
  5
9EF7
102
{ACAD_REACTORS
330
9EEA
102
}
330
9EEA
100
AcDbScale
 70
     0
300
1" = 1'-0"
140
1.0
141
12.0
290
     0
  0
SCALE
  5
9EF8
102
{ACAD_REACTORS
330
9EEA
102
}
330
9EEA
100
AcDbScale
 70
     0
300
1-1/2" = 1'-0"
140
1.5
141
12.0
290
     0
  0
SCALE
  5
9EF9
102
{ACAD_REACTORS
330
9EEA
102
}
330
9EEA
100
AcDbScale
 70
     0
300
3" = 1'-0"
140
3.0
141
12.0
290
     0
  0
SCALE
  5
9EFA
102
{ACAD_REACTORS
330
9EEA
102
}
330
9EEA
100
AcDbScale
 70
     0
300
6" = 1'-0"
140
6.0
141
12.0
290
     0
  0
SCALE
  5
9EFB
102
{ACAD_REACTORS
330
9EEA
102
}
330
9EEA
100
AcDbScale
 70
     0
300
1'-0" = 1'-0"
140
12.0
141
12.0
290
     0
  0
ACDBSECTIONVIEWSTYLE
  5
9EFF
102
{ACAD_XDICTIONARY
360
9F5A
102
}
102
{ACAD_REACTORS
330
9EFE
102
}
330
9EFE
100
AcDbModelDocViewStyle
 70
     0
  3
Imperial24
290
     0
100
AcDbSectionViewStyle
 70
     0
 71
     0
 90
       78
 71
     1
340
9BDB
 40
0.24
340
0
340
0
 40
0.24
300
I, O, Q, S, X, Z
 40
0.48
 90
        3
 40
0.18
 90
        1
 71
     2
340
9BDF
 90
       25
340
9BDF
 90
       50
 40
0.24
 40
0.0
 40
0.24
 71
     3
340
9BDB
 40
0.24
 90
        1
 40
0.75
 90
        1
300
%<\AcVar ViewType \f "%tc1">% %<\AcVar ViewSectionStartId>%-%<\AcVar ViewSectionEndId>%\PSCALE %<\AcVar ViewScale \f "%sn">%
 71
     4
300
ANSI31
 40
1.0
 90
        0
290
     0
290
     0
 90
        6
 40
0.0
 40
1.570796326794896
 40
0.2617993877991494
 40
1.308996938995747
 40
-0.2617993877991494
 40
1.832595714594046
  0
TABLESTYLE
  5
9EE9
102
{ACAD_XDICTIONARY
360
9F21
102
}
102
{ACAD_REACTORS
330
9EE8
102
}
330
9EE8
100
AcDbTableStyle
  3
Standard
 70
     0
 71
     0
 40
0.06
 41
0.06
280
     0
281
     0
  7
STANDARD
140
0.18
170
     2
 62
     0
 63
     7
283
     0
274
    -2
284
     1
 64
     0
275
    -2
285
     1
 65
     0
276
    -2
286
     1
 66
     0
277
    -2
287
     1
 67
     0
278
    -2
288
     1
 68
     0
279
    -2
289
     1
 69
     0
  7
STANDARD
140
0.25
170
     5
 62
     0
 63
     7
283
     0
274
    -2
284
     1
 64
     0
275
    -2
285
     1
 65
     0
276
    -2
286
     1
 66
     0
277
    -2
287
     1
 67
     0
278
    -2
288
     1
 68
     0
279
    -2
289
     1
 69
     0
  7
STANDARD
140
0.18
170
     5
 62
     0
 63
     7
283
     0
274
    -2
284
     1
 64
     0
275
    -2
285
     1
 65
     0
276
    -2
286
     1
 66
     0
277
    -2
287
     1
 67
     0
278
    -2
288
     1
 68
     0
279
    -2
289
     1
 69
     0
  0
VISUALSTYLE
  5
9ED4
102
{ACAD_XDICTIONARY
360
9F32
102
}
102
{ACAD_REACTORS
330
9ECE
102
}
330
9ECE
100
AcDbVisualStyle
  2
2dWireframe
 70
     4
 71
     0
 72
     2
 73
     0
 90
        0
 40
-0.6
 41
-30.0
 62
     5
 63
     7
 74
     1
 91
        4
 64
     7
 65
   257
 75
     1
175
     1
 42
1.0
 92
        0
 66
   257
 43
1.0
 76
     1
 77
     6
 78
     2
 67
     7
 79
     5
170
     0
171
     0
290
     0
174
     0
 93
        1
 44
0.0
173
     0
291
     0
 45
0.0
1001
ACAD
1000
AcDbSavedByObjectVersion
1070
     0
  0
VISUALSTYLE
  5
9ED3
102
{ACAD_XDICTIONARY
360
9F30
102
}
102
{ACAD_REACTORS
330
9ECE
102
}
330
9ECE
100
AcDbVisualStyle
  2
Basic
 70
     7
 71
     1
 72
     0
 73
     1
 90
        0
 40
-0.6
 41
-30.0
 62
     5
 63
     7
 74
     0
 91
        4
 64
     7
 65
   257
 75
     1
175
     1
 42
1.0
 92
        8
 66
     7
 43
1.0
 76
     1
 77
     6
 78
     2
 67
     7
 79
     5
170
     0
171
     0
290
     0
174
     0
 93
        1
 44
0.0
173
     0
291
     1
 45
0.0
1001
ACAD
1000
AcDbSavedByObjectVersion
1070
     0
  0
VISUALSTYLE
  5
9EDA
102
{ACAD_XDICTIONARY
360
9F3E
102
}
102
{ACAD_REACTORS
330
9ECE
102
}
330
9ECE
100
AcDbVisualStyle
  2
Brighten
 70
    12
 71
     2
 72
     2
 73
     0
 90
        0
 40
-0.6
 41
-30.0
 62
     5
 63
     7
 74
     1
 91
        4
 64
     7
 65
   257
 75
     1
175
     1
 42
1.0
 92
        8
 66
     7
 43
1.0
 76
     1
 77
     6
 78
     2
 67
     7
 79
     5
170
     0
171
     0
290
     0
174
     0
 93
        1
 44
50.0
173
     0
291
     1
 45
0.0
1001
ACAD
1000
AcDbSavedByObjectVersion
1070
     0
  0
VISUALSTYLE
  5
9EDE
102
{ACAD_XDICTIONARY
360
9F46
102
}
102
{ACAD_REACTORS
330
9ECE
102
}
330
9ECE
100
AcDbVisualStyle
  2
ColorChange
 70
    16
 71
     2
 72
     2
 73
     3
 90
        0
 40
-0.6
 41
-30.0
 62
     5
 63
     8
 74
     1
 91
        4
 64
     7
 65
   257
 75
     1
175
     1
 42
1.0
 92
        8
 66
     8
 43
1.0
 76
     1
 77
     6
 78
     2
 67
     7
 79
     5
170
     0
171
     0
290
     0
174
     0
 93
        1
 44
0.0
173
     0
291
     1
 45
0.0
1001
ACAD
1000
AcDbSavedByObjectVersion
1070
     0
  0
VISUALSTYLE
  5
9ED7
102
{ACAD_XDICTIONARY
360
9F38
102
}
102
{ACAD_REACTORS
330
9ECE
102
}
330
9ECE
100
AcDbVisualStyle
  2
Conceptual
 70
     9
 71
     3
 72
     2
 73
     0
 90
        0
 40
-0.6
 41
-30.0
 62
     5
 63
     7
 74
     2
 91
        2
 64
     7
 65
   257
 75
     1
175
     1
 42
179.0
 92
        8
 66
     7
 43
1.0
 76
     1
 77
     6
 78
     2
 67
     7
 79
     3
170
     0
171
     0
290
     0
174
     0
 93
        1
 44
0.0
173
     0
291
     0
 45
0.0
1001
ACAD
1000
AcDbSavedByObjectVersion
1070
     0
  0
VISUALSTYLE
  5
9ED9
102
{ACAD_XDICTIONARY
360
9F3C
102
}
102
{ACAD_REACTORS
330
9ECE
102
}
330
9ECE
100
AcDbVisualStyle
  2
Dim
 70
    11
 71
     2
 72
     2
 73
     0
 90
        0
 40
-0.6
 41
-30.0
 62
     5
 63
     7
 74
     1
 91
        4
 64
     7
 65
   257
 75
     1
175
     1
 42
1.0
 92
        8
 66
     7
 43
1.0
 76
     1
 77
     6
 78
     2
 67
     7
 79
     5
170
     0
171
     0
290
     0
174
     0
 93
        1
 44
-50.0
173
     0
291
     1
 45
0.0
1001
ACAD
1000
AcDbSavedByObjectVersion
1070
     0
  0
VISUALSTYLE
  5
9EE6
102
{ACAD_XDICTIONARY
360
9F56
102
}
102
{ACAD_REACTORS
330
9ECE
102
}
330
9ECE
100
AcDbVisualStyle
  2
EdgeColorOff
 70
    22
 71
     2
 72
     2
 73
     0
 90
        0
 40
-0.6
 41
-30.0
 62
     5
 63
     7
 74
     1
 91
        4
 64
     7
 65
   257
 75
     1
175
     1
 42
1.0
 92
        8
 66
     7
 43
1.0
 76
     1
 77
     6
 78
     2
 67
     7
 79
     5
170
     0
171
     0
290
     0
174
     0
 93
        1
 44
0.0
173
     0
291
     1
 45
0.0
1001
ACAD
1000
AcDbSavedByObjectVersion
1070
     0
  0
VISUALSTYLE
  5
9EDD
102
{ACAD_XDICTIONARY
360
9F44
102
}
102
{ACAD_REACTORS
330
9ECE
102
}
330
9ECE
100
AcDbVisualStyle
  2
Facepattern
 70
    15
 71
     2
 72
     2
 73
     0
 90
        0
 40
-0.6
 41
-30.0
 62
     5
 63
     7
 74
     1
 91
        4
 64
     7
 65
   257
 75
     1
175
     1
 42
1.0
 92
        8
 66
     7
 43
1.0
 76
     1
 77
     6
 78
     2
 67
     7
 79
     5
170
     0
171
     0
290
     0
174
     0
 93
        1
 44
0.0
173
     0
291
     1
 45
0.0
1001
ACAD
1000
AcDbSavedByObjectVersion
1070
     0
  0
VISUALSTYLE
  5
9ECF
102
{ACAD_XDICTIONARY
360
9F28
102
}
102
{ACAD_REACTORS
330
9ECE
102
}
330
9ECE
100
AcDbVisualStyle
  2
Flat
 70
     0
 71
     2
 72
     1
 73
     1
 90
        2
 40
-0.6
 41
30.0
 62
     5
 63
     7
 74
     0
 91
        0
 64
     7
 65
   257
 75
     1
175
     1
 42
1.0
 92
        8
 66
     7
 43
1.0
 76
     1
 77
     6
 78
     2
 67
     7
 79
     5
170
     0
171
     0
290
     0
174
     0
 93
       13
 44
0.0
173
     0
291
     1
 45
0.0
1001
ACAD
1000
AcDbSavedByObjectVersion
1070
     0
  0
VISUALSTYLE
  5
9ED0
102
{ACAD_XDICTIONARY
360
9F2A
102
}
102
{ACAD_REACTORS
330
9ECE
102
}
330
9ECE
100
AcDbVisualStyle
  2
FlatWithEdges
 70
     1
 71
     2
 72
     1
 73
     1
 90
        2
 40
-0.6
 41
30.0
 62
     5
 63
     7
 74
     1
 91
        0
 64
     7
 65
   257
 75
     1
175
     1
 42
1.0
 92
        0
 66
   257
 43
1.0
 76
     1
 77
     6
 78
     2
 67
     7
 79
     5
170
     0
171
     0
290
     0
174
     0
 93
       13
 44
0.0
173
     0
291
     1
 45
0.0
1001
ACAD
1000
AcDbSavedByObjectVersion
1070
     0
  0
VISUALSTYLE
  5
9ED1
102
{ACAD_XDICTIONARY
360
9F2C
102
}
102
{ACAD_REACTORS
330
9ECE
102
}
330
9ECE
100
AcDbVisualStyle
  2
Gouraud
 70
     2
 71
     2
 72
     2
 73
     1
 90
        2
 40
-0.6
 41
30.0
 62
     5
 63
     7
 74
     0
 91
        0
 64
     7
 65
   257
 75
     1
175
     1
 42
1.0
 92
        0
 66
     7
 43
1.0
 76
     1
 77
     6
 78
     2
 67
     7
 79
     5
170
     0
171
     0
290
     0
174
     0
 93
       13
 44
0.0
173
     0
291
     1
 45
0.0
1001
ACAD
1000
AcDbSavedByObjectVersion
1070
     0
  0
VISUALSTYLE
  5
9ED2
102
{ACAD_XDICTIONARY
360
9F2E
102
}
102
{ACAD_REACTORS
330
9ECE
102
}
330
9ECE
100
AcDbVisualStyle
  2
GouraudWithEdges
 70
     3
 71
     2
 72
     2
 73
     1
 90
        2
 40
-0.6
 41
30.0
 62
     5
 63
     7
 74
     1
 91
        0
 64
     7
 65
   257
 75
     1
175
     1
 42
1.0
 92
        0
 66
   257
 43
1.0
 76
     1
 77
     6
 78
     2
 67
     7
 79
     5
170
     0
171
     0
290
     0
174
     0
 93
       13
 44
0.0
173
     0
291
     1
 45
0.0
1001
ACAD
1000
AcDbSavedByObjectVersion
1070
     0
  0
VISUALSTYLE
  5
9ED6
102
{ACAD_XDICTIONARY
360
9F36
102
}
102
{ACAD_REACTORS
330
9ECE
102
}
330
9ECE
100
AcDbVisualStyle
  2
Hidden
 70
     6
 71
     1
 72
     2
 73
     2
 90
        0
 40
-0.6
 41
-30.0
 62
     5
 63
     7
 74
     2
 91
        2
 64
     7
 65
   257
 75
     2
175
     1
 42
40.0
 92
        0
 66
   257
 43
1.0
 76
     1
 77
     6
 78
     2
 67
     7
 79
     3
170
     0
171
     0
290
     0
174
     0
 93
        1
 44
0.0
173
     0
291
     0
 45
0.0
1001
ACAD
1000
AcDbSavedByObjectVersion
1070
     0
  0
VISUALSTYLE
  5
9EE4
102
{ACAD_XDICTIONARY
360
9F52
102
}
102
{ACAD_REACTORS
330
9ECE
102
}
330
9ECE
100
AcDbVisualStyle
  2
JitterOff
 70
    20
 71
     2
 72
     2
 73
     0
 90
        0
 40
-0.6
 41
-30.0
 62
     5
 63
     7
 74
     1
 91
        4
 64
     7
 65
   257
 75
     1
175
     1
 42
1.0
 92
       10
 66
     7
 43
1.0
 76
     1
 77
     6
 78
     2
 67
     7
 79
     5
170
     0
171
     0
290
     0
174
     0
 93
        1
 44
0.0
173
     0
291
     1
 45
0.0
1001
ACAD
1000
AcDbSavedByObjectVersion
1070
     0
  0
VISUALSTYLE
  5
9EDC
102
{ACAD_XDICTIONARY
360
9F42
102
}
102
{ACAD_REACTORS
330
9ECE
102
}
330
9ECE
100
AcDbVisualStyle
  2
Linepattern
 70
    14
 71
     2
 72
     2
 73
     0
 90
        0
 40
-0.6
 41
-30.0
 62
     5
 63
     7
 74
     1
 91
        4
 64
     7
 65
   257
 75
     7
175
     7
 42
1.0
 92
        8
 66
     7
 43
1.0
 76
     1
 77
     6
 78
     2
 67
     7
 79
     5
170
     0
171
     0
290
     0
174
     0
 93
        1
 44
0.0
173
     0
291
     1
 45
0.0
1001
ACAD
1000
AcDbSavedByObjectVersion
1070
     0
  0
VISUALSTYLE
  5
9EE5
102
{ACAD_XDICTIONARY
360
9F54
102
}
102
{ACAD_REACTORS
330
9ECE
102
}
330
9ECE
100
AcDbVisualStyle
  2
OverhangOff
 70
    21
 71
     2
 72
     2
 73
     0
 90
        0
 40
-0.6
 41
-30.0
 62
     5
 63
     7
 74
     1
 91
        4
 64
     7
 65
   257
 75
     1
175
     1
 42
1.0
 92
        9
 66
     7
 43
1.0
 76
     1
 77
     6
 78
     2
 67
     7
 79
     5
170
     0
171
     0
290
     0
174
     0
 93
        1
 44
0.0
173
     0
291
     1
 45
0.0
1001
ACAD
1000
AcDbSavedByObjectVersion
1070
     0
  0
VISUALSTYLE
  5
9ED8
102
{ACAD_XDICTIONARY
360
9F3A
102
}
102
{ACAD_REACTORS
330
9ECE
102
}
330
9ECE
100
AcDbVisualStyle
  2
Realistic
 70
     8
 71
     2
 72
     3
 73
     0
 90
        2
 40
-0.6
 41
30.0
 62
     5
 63
     7
 74
     0
 91
        0
 64
     7
 65
   257
 75
     1
175
     1
 42
1.0
 92
        8
 66
   257
 43
1.0
 76
     1
 77
     6
 78
     2
 67
     7
 79
     3
170
     0
171
     0
290
     0
174
     0
 93
       13
 44
0.0
173
     0
291
     0
 45
0.0
1001
ACAD
1000
AcDbSavedByObjectVersion
1070
     0
  0
VISUALSTYLE
  5
9EE3
102
{ACAD_XDICTIONARY
360
9F50
102
}
102
{ACAD_REACTORS
330
9ECE
102
}
330
9ECE
100
AcDbVisualStyle
  2
Shaded
 70
    27
 71
     2
 72
     2
 73
     1
 90
        2
 40
-0.6
 41
30.0
 62
     5
 63
     7
 74
     0
 91
        4
 64
     7
 65
   257
 75
     1
175
     1
 42
1.0
 92
        8
 66
   257
 43
1.0
 76
     1
 77
     6
 78
     2
 67
     8
 79
     3
170
     0
171
     0
290
     0
174
     0
 93
        5
 44
0.0
173
     0
291
     0
 45
0.0
1001
ACAD
1000
AcDbSavedByObjectVersion
1070
     0
  0
VISUALSTYLE
  5
9EE2
102
{ACAD_XDICTIONARY
360
9F4E
102
}
102
{ACAD_REACTORS
330
9ECE
102
}
330
9ECE
100
AcDbVisualStyle
  2
Shaded with edges
 70
    26
 71
     2
 72
     2
 73
     1
 90
        2
 40
-0.6
 41
30.0
 62
     5
 63
     7
 74
     1
 91
       10
 64
     7
 65
   257
 75
     2
175
     1
 42
1.0
 92
        8
 66
   257
 43
1.0
 76
     1
 77
     6
 78
     2
 67
     7
 79
     3
170
     0
171
     0
290
     0
174
     0
 93
        5
 44
0.0
173
     0
291
     0
 45
0.0
1001
ACAD
1000
AcDbSavedByObjectVersion
1070
     0
  0
VISUALSTYLE
  5
9EDF
102
{ACAD_XDICTIONARY
360
9F48
102
}
102
{ACAD_REACTORS
330
9ECE
102
}
330
9ECE
100
AcDbVisualStyle
  2
Shades of Gray
 70
    23
 71
     2
 72
     2
 73
     3
 90
        0
 40
-0.6
 41
-30.0
 62
     5
 63
     7
 74
     2
 91
        2
 64
     7
 65
     7
 75
     1
175
     1
 42
40.0
 92
        8
 66
     7
 43
1.0
 76
     1
 77
     6
 78
     2
 67
     7
 79
     3
170
     0
171
     0
290
     0
174
     0
 93
        1
 44
0.0
173
     0
291
     0
 45
0.0
1001
ACAD
1000
AcDbSavedByObjectVersion
1070
     0
  0
VISUALSTYLE
  5
9EE0
102
{ACAD_XDICTIONARY
360
9F4A
102
}
102
{ACAD_REACTORS
330
9ECE
102
}
330
9ECE
100
AcDbVisualStyle
  2
Sketchy
 70
    24
 71
     1
 72
     2
 73
     2
 90
        0
 40
-0.6
 41
-30.0
 62
     5
 63
     7
 74
     2
 91
        2
 64
     7
 65
     7
 75
     1
175
     1
 42
40.0
 92
       11
 66
     7
 43
1.0
 76
     1
 77
     6
 78
     2
 67
     7
 79
     6
170
     0
171
     0
290
     0
174
     0
 93
        1
 44
0.0
173
     0
291
     0
 45
0.0
1001
ACAD
1000
AcDbSavedByObjectVersion
1070
     0
  0
VISUALSTYLE
  5
9EDB
102
{ACAD_XDICTIONARY
360
9F40
102
}
102
{ACAD_REACTORS
330
9ECE
102
}
330
9ECE
100
AcDbVisualStyle
  2
Thicken
 70
    13
 71
     2
 72
     2
 73
     0
 90
        0
 40
-0.6
 41
-30.0
 62
     5
 63
     7
 74
     1
 91
        4
 64
     7
 65
   257
 75
     1
175
     1
 42
1.0
 92
       12
 66
     7
 43
1.0
 76
     1
 77
     6
 78
     2
 67
     7
 79
     5
170
     0
171
     0
290
     0
174
     0
 93
        1
 44
0.0
173
     0
291
     1
 45
0.0
1001
ACAD
1000
AcDbSavedByObjectVersion
1070
     0
  0
VISUALSTYLE
  5
9ED5
102
{ACAD_XDICTIONARY
360
9F34
102
}
102
{ACAD_REACTORS
330
9ECE
102
}
330
9ECE
100
AcDbVisualStyle
  2
Wireframe
 70
     5
 71
     0
 72
     2
 73
     0
 90
        0
 40
-0.6
 41
-30.0
 62
     5
 63
     7
 74
     1
 91
        4
 64
     7
 65
   257
 75
     1
175
     1
 42
1.0
 92
        0
 66
   257
 43
1.0
 76
     1
 77
     6
 78
     2
 67
     7
 79
     3
170
     0
171
     0
290
     0
174
     0
 93
        1
 44
0.0
173
     0
291
     0
 45
0.0
1001
ACAD
1000
AcDbSavedByObjectVersion
1070
     0
  0
VISUALSTYLE
  5
9EE1
102
{ACAD_XDICTIONARY
360
9F4C
102
}
102
{ACAD_REACTORS
330
9ECE
102
}
330
9ECE
100
AcDbVisualStyle
  2
X-Ray
 70
    25
 71
     2
 72
     2
 73
     1
 90
        1
 40
0.5
 41
-30.0
 62
     5
 63
     7
 74
     1
 91
        0
 64
     7
 65
   257
 75
     1
175
     1
 42
1.0
 92
        8
 66
     7
 43
1.0
 76
     1
 77
     6
 78
     2
 67
     7
 79
     3
170
     0
171
     0
290
     0
174
     0
 93
       13
 44
0.0
173
     0
291
     0
 45
0.0
1001
ACAD
1000
AcDbSavedByObjectVersion
1070
     0
  0
DICTIONARYVAR
  5
9F1B
102
{ACAD_REACTORS
330
9F16
102
}
330
9F16
100
DictionaryVariables
280
     0
  1
1:1
  0
DICTIONARYVAR
  5
9F18
102
{ACAD_REACTORS
330
9F16
102
}
330
9F16
100
DictionaryVariables
280
     0
  1
STANDARD
  0
DICTIONARYVAR
  5
9F17
102
{ACAD_REACTORS
330
9F16
102
}
330
9F16
100
DictionaryVariables
280
     0
  1
STANDARD
  0
DICTIONARYVAR
  5
9F19
102
{ACAD_REACTORS
330
9F16
102
}
330
9F16
100
DictionaryVariables
280
     0
  1
Imperial24
  0
DICTIONARYVAR
  5
9F1A
102
{ACAD_REACTORS
330
9F16
102
}
330
9F16
100
DictionaryVariables
280
     0
  1
Imperial24
  0
DICTIONARYVAR
  5
9F1E
102
{ACAD_REACTORS
330
9F16
102
}
330
9F16
100
DictionaryVariables
280
     0
  1
1
  0
DICTIONARYVAR
  5
9F1D
102
{ACAD_REACTORS
330
9F16
102
}
330
9F16
100
DictionaryVariables
280
     0
  1
0
  0
DICTIONARYVAR
  5
9F1C
102
{ACAD_REACTORS
330
9F16
102
}
330
9F16
100
DictionaryVariables
280
     0
  1
127
  0
DICTIONARYVAR
  5
9F1F
102
{ACAD_REACTORS
330
9F16
102
}
330
9F16
100
DictionaryVariables
280
     0
  1
2
  0
DICTIONARY
  5
9F5C
330
9F01
100
AcDbDictionary
280
     1
281
     1
  3
ACAD_XREC_ROUNDTRIP
360
9F5D
  0
DICTIONARY
  5
9F5E
330
9F02
100
AcDbDictionary
280
     1
281
     1
  3
ACAD_XREC_ROUNDTRIP
360
9F5F
  0
DICTIONARY
  5
9F60
330
9F03
100
AcDbDictionary
280
     1
281
     1
  3
ACAD_XREC_ROUNDTRIP
360
9F61
  0
DICTIONARY
  5
9EBF
330
9EBE
100
AcDbDictionary
280
     1
281
     1
  3
ACAD_XREC_ROUNDTRIP
360
9F26
  3
BUMPTILE
360
9EC1
  3
DIFFUSETILE
360
9EC0
  3
OPACITYTILE
360
9EC4
  3
REFLECTIONTILE
360
9EC3
  3
REFRACTIONTILE
360
9EC5
  3
SPECULARTILE
360
9EC2
  0
DICTIONARY
  5
9EB7
330
9EB6
100
AcDbDictionary
280
     1
281
     1
  3
ACAD_XREC_ROUNDTRIP
360
9F25
  3
BUMPTILE
360
9EB9
  3
DIFFUSETILE
360
9EB8
  3
OPACITYTILE
360
9EBC
  3
REFLECTIONTILE
360
9EBB
  3
REFRACTIONTILE
360
9EBD
  3
SPECULARTILE
360
9EBA
  0
DICTIONARY
  5
9EC7
330
9EC6
100
AcDbDictionary
280
     1
281
     1
  3
ACAD_XREC_ROUNDTRIP
360
9F27
  3
BUMPTILE
360
9EC9
  3
DIFFUSETILE
360
9EC8
  3
OPACITYTILE
360
9ECC
  3
REFLECTIONTILE
360
9ECB
  3
REFRACTIONTILE
360
9ECD
  3
SPECULARTILE
360
9ECA
  0
DICTIONARY
  5
9F5A
330
9EFF
100
AcDbDictionary
280
     1
281
     1
  3
ACAD_XREC_ROUNDTRIP
360
9F5B
  0
DICTIONARY
  5
9F21
330
9EE9
100
AcDbDictionary
280
     1
281
     1
  3
ACAD_ROUNDTRIP_2008_TABLESTYLE_CELLSTYLEMAP
360
9F22
  3
ACAD_XREC_ROUNDTRIP
360
9F58
  0
DICTIONARY
  5
9F32
330
9ED4
100
AcDbDictionary
280
     1
281
     1
  3
ACAD_XREC_ROUNDTRIP
360
9F33
  0
DICTIONARY
  5
9F30
330
9ED3
100
AcDbDictionary
280
     1
281
     1
  3
ACAD_XREC_ROUNDTRIP
360
9F31
  0
DICTIONARY
  5
9F3E
330
9EDA
100
AcDbDictionary
280
     1
281
     1
  3
ACAD_XREC_ROUNDTRIP
360
9F3F
  0
DICTIONARY
  5
9F46
330
9EDE
100
AcDbDictionary
280
     1
281
     1
  3
ACAD_XREC_ROUNDTRIP
360
9F47
  0
DICTIONARY
  5
9F38
330
9ED7
100
AcDbDictionary
280
     1
281
     1
  3
ACAD_XREC_ROUNDTRIP
360
9F39
  0
DICTIONARY
  5
9F3C
330
9ED9
100
AcDbDictionary
280
     1
281
     1
  3
ACAD_XREC_ROUNDTRIP
360
9F3D
  0
DICTIONARY
  5
9F56
330
9EE6
100
AcDbDictionary
280
     1
281
     1
  3
ACAD_XREC_ROUNDTRIP
360
9F57
  0
DICTIONARY
  5
9F44
330
9EDD
100
AcDbDictionary
280
     1
281
     1
  3
ACAD_XREC_ROUNDTRIP
360
9F45
  0
DICTIONARY
  5
9F28
330
9ECF
100
AcDbDictionary
280
     1
281
     1
  3
ACAD_XREC_ROUNDTRIP
360
9F29
  0
DICTIONARY
  5
9F2A
330
9ED0
100
AcDbDictionary
280
     1
281
     1
  3
ACAD_XREC_ROUNDTRIP
360
9F2B
  0
DICTIONARY
  5
9F2C
330
9ED1
100
AcDbDictionary
280
     1
281
     1
  3
ACAD_XREC_ROUNDTRIP
360
9F2D
  0
DICTIONARY
  5
9F2E
330
9ED2
100
AcDbDictionary
280
     1
281
     1
  3
ACAD_XREC_ROUNDTRIP
360
9F2F
  0
DICTIONARY
  5
9F36
330
9ED6
100
AcDbDictionary
280
     1
281
     1
  3
ACAD_XREC_ROUNDTRIP
360
9F37
  0
DICTIONARY
  5
9F52
330
9EE4
100
AcDbDictionary
280
     1
281
     1
  3
ACAD_XREC_ROUNDTRIP
360
9F53
  0
DICTIONARY
  5
9F42
330
9EDC
100
AcDbDictionary
280
     1
281
     1
  3
ACAD_XREC_ROUNDTRIP
360
9F43
  0
DICTIONARY
  5
9F54
330
9EE5
100
AcDbDictionary
280
     1
281
     1
  3
ACAD_XREC_ROUNDTRIP
360
9F55
  0
DICTIONARY
  5
9F3A
330
9ED8
100
AcDbDictionary
280
     1
281
     1
  3
ACAD_XREC_ROUNDTRIP
360
9F3B
  0
DICTIONARY
  5
9F50
330
9EE3
100
AcDbDictionary
280
     1
281
     1
  3
ACAD_XREC_ROUNDTRIP
360
9F51
  0
DICTIONARY
  5
9F4E
330
9EE2
100
AcDbDictionary
280
     1
281
     1
  3
ACAD_XREC_ROUNDTRIP
360
9F4F
  0
DICTIONARY
  5
9F48
330
9EDF
100
AcDbDictionary
280
     1
281
     1
  3
ACAD_XREC_ROUNDTRIP
360
9F49
  0
DICTIONARY
  5
9F4A
330
9EE0
100
AcDbDictionary
280
     1
281
     1
  3
ACAD_XREC_ROUNDTRIP
360
9F4B
  0
DICTIONARY
  5
9F40
330
9EDB
100
AcDbDictionary
280
     1
281
     1
  3
ACAD_XREC_ROUNDTRIP
360
9F41
  0
DICTIONARY
  5
9F34
330
9ED5
100
AcDbDictionary
280
     1
281
     1
  3
ACAD_XREC_ROUNDTRIP
360
9F35
  0
DICTIONARY
  5
9F4C
330
9EE1
100
AcDbDictionary
280
     1
281
     1
  3
ACAD_XREC_ROUNDTRIP
360
9F4D
  0
XRECORD
  5
9F5D
102
{ACAD_REACTORS
330
9F5C
102
}
330
9F5C
100
AcDbXrecord
280
     1
102
DISPLAYNAME
  1
Imperial24
102
FLAGS
 90
        0
  0
XRECORD
  5
9F5F
102
{ACAD_REACTORS
330
9F5E
102
}
330
9F5E
100
AcDbXrecord
280
     1
102
SHADEPLOT
 70
     0
102
SHADEPLOTRESLEVEL
 70
     2
102
SHADEPLOTCUSTOMDPI
 70
   300
  0
XRECORD
  5
9F61
102
{ACAD_REACTORS
330
9F60
102
}
330
9F60
100
AcDbXrecord
280
     1
102
SHADEPLOT
 70
     0
102
SHADEPLOTRESLEVEL
 70
     2
102
SHADEPLOTCUSTOMDPI
 70
   300
  0
XRECORD
  5
9F26
102
{ACAD_REACTORS
330
9EBF
102
}
330
9EBF
100
AcDbXrecord
280
     1
102
MATERIAL
148
0.0
149
0.0
149
0.0
 93
        0
 94
      127
282
     0
 72
     0
 77
     0
171
     0
175
     0
179
     0
273
     0
  0
XRECORD
  5
9EC1
102
{ACAD_REACTORS
330
9EBF
102
}
330
9EBF
100
AcDbXrecord
280
     1
270
     1
271
     1
  0
XRECORD
  5
9EC0
102
{ACAD_REACTORS
330
9EBF
102
}
330
9EBF
100
AcDbXrecord
280
     1
270
     1
271
     1
  0
XRECORD
  5
9EC4
102
{ACAD_REACTORS
330
9EBF
102
}
330
9EBF
100
AcDbXrecord
280
     1
270
     1
271
     1
  0
XRECORD
  5
9EC3
102
{ACAD_REACTORS
330
9EBF
102
}
330
9EBF
100
AcDbXrecord
280
     1
270
     1
271
     1
  0
XRECORD
  5
9EC5
102
{ACAD_REACTORS
330
9EBF
102
}
330
9EBF
100
AcDbXrecord
280
     1
270
     1
271
     1
  0
XRECORD
  5
9EC2
102
{ACAD_REACTORS
330
9EBF
102
}
330
9EBF
100
AcDbXrecord
280
     1
270
     1
271
     1
  0
XRECORD
  5
9F25
102
{ACAD_REACTORS
330
9EB7
102
}
330
9EB7
100
AcDbXrecord
280
     1
102
MATERIAL
148
0.0
149
0.0
149
0.0
 93
        0
 94
      127
282
     0
 72
     0
 77
     0
171
     0
175
     0
179
     0
273
     0
  0
XRECORD
  5
9EB9
102
{ACAD_REACTORS
330
9EB7
102
}
330
9EB7
100
AcDbXrecord
280
     1
270
     1
271
     1
  0
XRECORD
  5
9EB8
102
{ACAD_REACTORS
330
9EB7
102
}
330
9EB7
100
AcDbXrecord
280
     1
270
     1
271
     1
  0
XRECORD
  5
9EBC
102
{ACAD_REACTORS
330
9EB7
102
}
330
9EB7
100
AcDbXrecord
280
     1
270
     1
271
     1
  0
XRECORD
  5
9EBB
102
{ACAD_REACTORS
330
9EB7
102
}
330
9EB7
100
AcDbXrecord
280
     1
270
     1
271
     1
  0
XRECORD
  5
9EBD
102
{ACAD_REACTORS
330
9EB7
102
}
330
9EB7
100
AcDbXrecord
280
     1
270
     1
271
     1
  0
XRECORD
  5
9EBA
102
{ACAD_REACTORS
330
9EB7
102
}
330
9EB7
100
AcDbXrecord
280
     1
270
     1
271
     1
  0
XRECORD
  5
9F27
102
{ACAD_REACTORS
330
9EC7
102
}
330
9EC7
100
AcDbXrecord
280
     1
102
MATERIAL
148
0.0
149
0.0
149
0.0
 93
        0
 94
      127
282
     0
 72
     0
 77
     0
171
     0
175
     0
179
     0
273
     0
  0
XRECORD
  5
9EC9
102
{ACAD_REACTORS
330
9EC7
102
}
330
9EC7
100
AcDbXrecord
280
     1
270
     1
271
     1
  0
XRECORD
  5
9EC8
102
{ACAD_REACTORS
330
9EC7
102
}
330
9EC7
100
AcDbXrecord
280
     1
270
     1
271
     1
  0
XRECORD
  5
9ECC
102
{ACAD_REACTORS
330
9EC7
102
}
330
9EC7
100
AcDbXrecord
280
     1
270
     1
271
     1
  0
XRECORD
  5
9ECB
102
{ACAD_REACTORS
330
9EC7
102
}
330
9EC7
100
AcDbXrecord
280
     1
270
     1
271
     1
  0
XRECORD
  5
9ECD
102
{ACAD_REACTORS
330
9EC7
102
}
330
9EC7
100
AcDbXrecord
280
     1
270
     1
271
     1
  0
XRECORD
  5
9ECA
102
{ACAD_REACTORS
330
9EC7
102
}
330
9EC7
100
AcDbXrecord
280
     1
270
     1
271
     1
  0
XRECORD
  5
9F5B
102
{ACAD_REACTORS
330
9F5A
102
}
330
9F5A
100
AcDbXrecord
280
     1
102
DISPLAYNAME
  1
Imperial24
102
FLAGS
 90
        0
  0
CELLSTYLEMAP
  5
9F22
102
{ACAD_REACTORS
330
9F21
102
}
330
9F21
100
AcDbCellStyleMap
 90
        3
300
CELLSTYLE
  1
TABLEFORMAT_BEGIN
 90
        5
170
     1
 91
        0
 92
    32768
 62
   257
 93
        1
300
CONTENTFORMAT
  1
CONTENTFORMAT_BEGIN
 90
        0
 91
        0
 92
      512
 93
        0
300

 40
0.0
140
1.0
 94
        5
 62
     0
340
9BDB
144
0.25
309
CONTENTFORMAT_END
171
     0
 94
        0
309
TABLEFORMAT_END
  1
CELLSTYLE_BEGIN
 90
        1
 91
        1
300
_TITLE
309
CELLSTYLE_END
300
CELLSTYLE
  1
TABLEFORMAT_BEGIN
 90
        5
170
     1
 91
        0
 92
        0
 62
   257
 93
        1
300
CONTENTFORMAT
  1
CONTENTFORMAT_BEGIN
 90
        0
 91
        0
 92
      512
 93
        0
300

 40
0.0
140
1.0
 94
        5
 62
     0
340
9BDB
144
0.18
309
CONTENTFORMAT_END
171
     0
 94
        0
309
TABLEFORMAT_END
  1
CELLSTYLE_BEGIN
 90
        2
 91
        1
300
_HEADER
309
CELLSTYLE_END
300
CELLSTYLE
  1
TABLEFORMAT_BEGIN
 90
        5
170
     1
 91
        0
 92
        0
 62
   257
 93
        1
300
CONTENTFORMAT
  1
CONTENTFORMAT_BEGIN
 90
        0
 91
        0
 92
      512
 93
        0
300

 40
0.0
140
1.0
 94
        2
 62
     0
340
9BDB
144
0.18
309
CONTENTFORMAT_END
171
     0
 94
        0
309
TABLEFORMAT_END
  1
CELLSTYLE_BEGIN
 90
        3
 91
        2
300
_DATA
309
CELLSTYLE_END
  0
XRECORD
  5
9F58
102
{ACAD_REACTORS
330
9F21
102
}
330
9F21
100
AcDbXrecord
280
     1
102
ACAD_ROUNDTRIP_PRE2007_TABLESTYLE
 90
      512
 91
        0
  1

 92
      512
 93
        0
  2

 94
      512
 95
        0
  3

  0
XRECORD
  5
9F33
102
{ACAD_REACTORS
330
9F32
102
}
330
9F32
100
AcDbXrecord
280
     1
102
RTVSPost2010Prop28
280
     1
102
RTVSPost2010PropOp28
 70
     1
102
RTVSPost2010Prop29
280
     1
102
RTVSPost2010PropOp29
 70
     1
102
RTVSPost2010Prop30
280
     0
102
RTVSPost2010PropOp30
 70
     1
102
RTVSPost2010Prop31
280
     0
102
RTVSPost2010PropOp31
 70
     1
102
RTVSPost2010Prop32
280
     0
102
RTVSPost2010PropOp32
 70
     1
102
RTVSPost2010Prop33
280
     0
102
RTVSPost2010PropOp33
 70
     1
102
RTVSPost2010Prop34
280
     0
102
RTVSPost2010PropOp34
 70
     1
102
RTVSPost2010Prop35
280
     0
102
RTVSPost2010PropOp35
 70
     1
102
RTVSPost2010Prop36
280
     0
102
RTVSPost2010PropOp36
 70
     1
102
RTVSPost2010Prop37
 90
       50
102
RTVSPost2010PropOp37
 70
     1
102
RTVSPost2010Prop38
140
0.0
102
RTVSPost2010PropOp38
 70
     1
102
RTVSPost2010Prop39
140
1.0
102
RTVSPost2010PropOp39
 70
     1
102
RTVSPost2010Prop40
 90
        0
102
RTVSPost2010PropOp40
 70
     1
102
RTVSPost2010Prop41ColorIndex
 90
       18
102
RTVSPost2010Prop41ColorRGB
 90
        0
102
RTVSPost2010PropOp41
 70
     1
102
RTVSPost2010Prop42
 90
       50
102
RTVSPost2010PropOp42
 70
     1
102
RTVSPost2010Prop43
 90
        3
102
RTVSPost2010PropOp43
 70
     1
102
RTVSPost2010Prop44ColorIndex
 90
        5
102
RTVSPost2010Prop44ColorRGB
 90
      255
102
RTVSPost2010PropOp44
 70
     1
102
RTVSPost2010Prop45
280
     0
102
RTVSPost2010PropOp45
 70
     1
102
RTVSPost2010Prop46
 90
       50
102
RTVSPost2010PropOp46
 70
     1
102
RTVSPost2010Prop47
 90
       50
102
RTVSPost2010PropOp47
 70
     1
102
RTVSPost2010Prop48
 90
       50
102
RTVSPost2010PropOp48
 70
     1
102
RTVSPost2010Prop49
280
     0
102
RTVSPost2010PropOp49
 70
     1
102
RTVSPost2010Prop50
 90
       50
102
RTVSPost2010PropOp50
 70
     1
102
RTVSPost2010Prop51ColorIndex
 90
      256
102
RTVSPost2010Prop51ColorRGB
 90
-16777216
102
RTVSPost2010PropOp51
 70
     0
102
RTVSPost2010Prop52
140
1.0
102
RTVSPost2010PropOp52
 70
     0
102
RTVSPost2010Prop53
 90
        2
102
RTVSPost2010PropOp53
 70
     1
102
RTVSPost2010Prop54
  1
strokes_ogs.tif
102
RTVSPost2010PropOp54
 70
     1
102
RTVSPost2010Prop55
280
     0
102
RTVSPost2010PropOp55
 70
     1
102
RTVSPost2010Prop56
140
1.0
102
RTVSPost2010PropOp56
 70
     1
102
RTVSPost2010Prop57
140
1.0
102
RTVSPost2010PropOp57
 70
     1
102
RTVSPropertyOp0
 70
     1
102
RTVSPropertyOp1
 70
     1
102
RTVSPropertyOp2
 70
     1
102
RTVSPropertyOp3
 70
     1
102
RTVSPropertyOp4
 70
     1
102
RTVSPropertyOp5
 70
     1
102
RTVSPropertyOp6
 70
     1
102
RTVSPropertyOp7
 70
     1
102
RTVSPropertyOp8
 70
     1
102
RTVSPropertyOp9
 70
     1
102
RTVSPropertyOp10
 70
     1
102
RTVSPropertyOp11
 70
     1
102
RTVSPropertyOp12
 70
     1
102
RTVSPropertyOp13
 70
     1
102
RTVSPropertyOp14
 70
     1
102
RTVSPropertyOp15
 70
     1
102
RTVSPropertyOp16
 70
     1
102
RTVSPropertyOp17
 70
     1
102
RTVSPropertyOp18
 70
     1
102
RTVSPropertyOp19
 70
     1
102
RTVSPropertyOp20
 70
     1
102
RTVSPropertyOp21
 70
     1
102
RTVSPropertyOp22
 70
     1
102
RTVSPropertyOp23
 70
     1
102
RTVSPropertyOp24
 70
     1
102
RTVSPropertyOp25
 70
     1
102
RTVSPropertyOp26
 70
     1
102
RTVSPropertyOp27
 70
     1
102
RTVSPropertyOp28
 70
     1
102
RTVSPropertyOp29
 70
     1
102
RTVSPropertyOp30
 70
     1
102
RTVSPropertyOp31
 70
     1
102
RTVSPropertyOp32
 70
     1
102
RTVSPropertyOp33
 70
     1
102
RTVSPropertyOp34
 70
     1
102
RTVSPropertyOp35
 70
     1
102
RTVSPropertyOp36
 70
     1
102
RTVSPropertyOp37
 70
     1
102
RTVSPropertyOp38
 70
     1
102
RTVSPropertyOp39
 70
     1
102
RTVSPropertyOp40
 70
     1
102
RTVSPropertyOp41
 70
     1
102
RTVSPropertyOp42
 70
     1
102
RTVSPropertyOp43
 70
     1
102
RTVSPropertyOp44
 70
     1
102
RTVSPropertyOp45
 70
     1
102
RTVSPropertyOp46
 70
     1
102
RTVSPropertyOp47
 70
     1
102
RTVSPropertyOp48
 70
     1
102
RTVSPropertyOp49
 70
     1
102
RTVSPropertyOp50
 70
     1
102
RTVSPropertyOp51
 70
     0
102
RTVSPropertyOp52
 70
     0
102
RTVSPropertyOp53
 70
     1
102
RTVSPropertyOp54
 70
     1
102
RTVSPropertyOp55
 70
     1
102
RTVSPropertyOp56
 70
     1
102
RTVSPropertyOp57
 70
     1
102
RTVSPropertyOp58
 70
     1
102
RTVSPropertyOp59
 70
     1
102
RTVSPropertyOp60
 70
     1
102
RTVSPropertyOp61
 70
     1
102
RTVSPropertyOp62
 70
     1
  0
XRECORD
  5
9F31
102
{ACAD_REACTORS
330
9F30
102
}
330
9F30
100
AcDbXrecord
280
     1
102
RTVSPost2010Prop28
280
     0
102
RTVSPost2010PropOp28
 70
     1
102
RTVSPost2010Prop29
280
     1
102
RTVSPost2010PropOp29
 70
     1
102
RTVSPost2010Prop30
280
     1
102
RTVSPost2010PropOp30
 70
     1
102
RTVSPost2010Prop31
280
     0
102
RTVSPost2010PropOp31
 70
     1
102
RTVSPost2010Prop32
280
     0
102
RTVSPost2010PropOp32
 70
     1
102
RTVSPost2010Prop33
280
     0
102
RTVSPost2010PropOp33
 70
     1
102
RTVSPost2010Prop34
280
     0
102
RTVSPost2010PropOp34
 70
     1
102
RTVSPost2010Prop35
280
     0
102
RTVSPost2010PropOp35
 70
     1
102
RTVSPost2010Prop36
280
     0
102
RTVSPost2010PropOp36
 70
     1
102
RTVSPost2010Prop37
 90
       50
102
RTVSPost2010PropOp37
 70
     1
102
RTVSPost2010Prop38
140
0.0
102
RTVSPost2010PropOp38
 70
     1
102
RTVSPost2010Prop39
140
1.0
102
RTVSPost2010PropOp39
 70
     1
102
RTVSPost2010Prop40
 90
        0
102
RTVSPost2010PropOp40
 70
     1
102
RTVSPost2010Prop41ColorIndex
 90
       18
102
RTVSPost2010Prop41ColorRGB
 90
        0
102
RTVSPost2010PropOp41
 70
     1
102
RTVSPost2010Prop42
 90
       50
102
RTVSPost2010PropOp42
 70
     1
102
RTVSPost2010Prop43
 90
        3
102
RTVSPost2010PropOp43
 70
     1
102
RTVSPost2010Prop44ColorIndex
 90
        5
102
RTVSPost2010Prop44ColorRGB
 90
      255
102
RTVSPost2010PropOp44
 70
     1
102
RTVSPost2010Prop45
280
     0
102
RTVSPost2010PropOp45
 70
     1
102
RTVSPost2010Prop46
 90
       50
102
RTVSPost2010PropOp46
 70
     1
102
RTVSPost2010Prop47
 90
       50
102
RTVSPost2010PropOp47
 70
     1
102
RTVSPost2010Prop48
 90
       50
102
RTVSPost2010PropOp48
 70
     1
102
RTVSPost2010Prop49
280
     0
102
RTVSPost2010PropOp49
 70
     1
102
RTVSPost2010Prop50
 90
       50
102
RTVSPost2010PropOp50
 70
     1
102
RTVSPost2010Prop51ColorIndex
 90
      256
102
RTVSPost2010Prop51ColorRGB
 90
-16777216
102
RTVSPost2010PropOp51
 70
     0
102
RTVSPost2010Prop52
140
1.0
102
RTVSPost2010PropOp52
 70
     0
102
RTVSPost2010Prop53
 90
        2
102
RTVSPost2010PropOp53
 70
     1
102
RTVSPost2010Prop54
  1
strokes_ogs.tif
102
RTVSPost2010PropOp54
 70
     1
102
RTVSPost2010Prop55
280
     0
102
RTVSPost2010PropOp55
 70
     1
102
RTVSPost2010Prop56
140
1.0
102
RTVSPost2010PropOp56
 70
     1
102
RTVSPost2010Prop57
140
1.0
102
RTVSPost2010PropOp57
 70
     1
102
RTVSPropertyOp0
 70
     1
102
RTVSPropertyOp1
 70
     1
102
RTVSPropertyOp2
 70
     1
102
RTVSPropertyOp3
 70
     1
102
RTVSPropertyOp4
 70
     1
102
RTVSPropertyOp5
 70
     1
102
RTVSPropertyOp6
 70
     1
102
RTVSPropertyOp7
 70
     1
102
RTVSPropertyOp8
 70
     1
102
RTVSPropertyOp9
 70
     1
102
RTVSPropertyOp10
 70
     1
102
RTVSPropertyOp11
 70
     1
102
RTVSPropertyOp12
 70
     1
102
RTVSPropertyOp13
 70
     1
102
RTVSPropertyOp14
 70
     1
102
RTVSPropertyOp15
 70
     1
102
RTVSPropertyOp16
 70
     1
102
RTVSPropertyOp17
 70
     1
102
RTVSPropertyOp18
 70
     1
102
RTVSPropertyOp19
 70
     1
102
RTVSPropertyOp20
 70
     1
102
RTVSPropertyOp21
 70
     1
102
RTVSPropertyOp22
 70
     1
102
RTVSPropertyOp23
 70
     1
102
RTVSPropertyOp24
 70
     1
102
RTVSPropertyOp25
 70
     1
102
RTVSPropertyOp26
 70
     1
102
RTVSPropertyOp27
 70
     1
102
RTVSPropertyOp28
 70
     1
102
RTVSPropertyOp29
 70
     1
102
RTVSPropertyOp30
 70
     1
102
RTVSPropertyOp31
 70
     1
102
RTVSPropertyOp32
 70
     1
102
RTVSPropertyOp33
 70
     1
102
RTVSPropertyOp34
 70
     1
102
RTVSPropertyOp35
 70
     1
102
RTVSPropertyOp36
 70
     1
102
RTVSPropertyOp37
 70
     1
102
RTVSPropertyOp38
 70
     1
102
RTVSPropertyOp39
 70
     1
102
RTVSPropertyOp40
 70
     1
102
RTVSPropertyOp41
 70
     1
102
RTVSPropertyOp42
 70
     1
102
RTVSPropertyOp43
 70
     1
102
RTVSPropertyOp44
 70
     1
102
RTVSPropertyOp45
 70
     1
102
RTVSPropertyOp46
 70
     1
102
RTVSPropertyOp47
 70
     1
102
RTVSPropertyOp48
 70
     1
102
RTVSPropertyOp49
 70
     1
102
RTVSPropertyOp50
 70
     1
102
RTVSPropertyOp51
 70
     0
102
RTVSPropertyOp52
 70
     0
102
RTVSPropertyOp53
 70
     1
102
RTVSPropertyOp54
 70
     1
102
RTVSPropertyOp55
 70
     1
102
RTVSPropertyOp56
 70
     1
102
RTVSPropertyOp57
 70
     1
102
RTVSPropertyOp58
 70
     1
102
RTVSPropertyOp59
 70
     1
102
RTVSPropertyOp60
 70
     1
102
RTVSPropertyOp61
 70
     1
102
RTVSPropertyOp62
 70
     1
  0
XRECORD
  5
9F3F
102
{ACAD_REACTORS
330
9F3E
102
}
330
9F3E
100
AcDbXrecord
280
     1
102
RTVSPost2010Prop28
280
     0
102
RTVSPost2010PropOp28
 70
     1
102
RTVSPost2010Prop29
280
     1
102
RTVSPost2010PropOp29
 70
     1
102
RTVSPost2010Prop30
280
     1
102
RTVSPost2010PropOp30
 70
     1
102
RTVSPost2010Prop31
280
     0
102
RTVSPost2010PropOp31
 70
     1
102
RTVSPost2010Prop32
280
     0
102
RTVSPost2010PropOp32
 70
     1
102
RTVSPost2010Prop33
280
     0
102
RTVSPost2010PropOp33
 70
     1
102
RTVSPost2010Prop34
280
     0
102
RTVSPost2010PropOp34
 70
     1
102
RTVSPost2010Prop35
280
     0
102
RTVSPost2010PropOp35
 70
     1
102
RTVSPost2010Prop36
280
     0
102
RTVSPost2010PropOp36
 70
     1
102
RTVSPost2010Prop37
 90
       50
102
RTVSPost2010PropOp37
 70
     1
102
RTVSPost2010Prop38
140
0.0
102
RTVSPost2010PropOp38
 70
     1
102
RTVSPost2010Prop39
140
1.0
102
RTVSPost2010PropOp39
 70
     1
102
RTVSPost2010Prop40
 90
        0
102
RTVSPost2010PropOp40
 70
     1
102
RTVSPost2010Prop41ColorIndex
 90
       18
102
RTVSPost2010Prop41ColorRGB
 90
        0
102
RTVSPost2010PropOp41
 70
     1
102
RTVSPost2010Prop42
 90
       50
102
RTVSPost2010PropOp42
 70
     1
102
RTVSPost2010Prop43
 90
        3
102
RTVSPost2010PropOp43
 70
     1
102
RTVSPost2010Prop44ColorIndex
 90
        5
102
RTVSPost2010Prop44ColorRGB
 90
      255
102
RTVSPost2010PropOp44
 70
     1
102
RTVSPost2010Prop45
280
     0
102
RTVSPost2010PropOp45
 70
     1
102
RTVSPost2010Prop46
 90
       50
102
RTVSPost2010PropOp46
 70
     1
102
RTVSPost2010Prop47
 90
       50
102
RTVSPost2010PropOp47
 70
     1
102
RTVSPost2010Prop48
 90
       50
102
RTVSPost2010PropOp48
 70
     1
102
RTVSPost2010Prop49
280
     0
102
RTVSPost2010PropOp49
 70
     1
102
RTVSPost2010Prop50
 90
       50
102
RTVSPost2010PropOp50
 70
     1
102
RTVSPost2010Prop51ColorIndex
 90
      256
102
RTVSPost2010Prop51ColorRGB
 90
-16777216
102
RTVSPost2010PropOp51
 70
     0
102
RTVSPost2010Prop52
140
1.0
102
RTVSPost2010PropOp52
 70
     0
102
RTVSPost2010Prop53
 90
        2
102
RTVSPost2010PropOp53
 70
     1
102
RTVSPost2010Prop54
  1
strokes_ogs.tif
102
RTVSPost2010PropOp54
 70
     1
102
RTVSPost2010Prop55
280
     0
102
RTVSPost2010PropOp55
 70
     1
102
RTVSPost2010Prop56
140
1.0
102
RTVSPost2010PropOp56
 70
     1
102
RTVSPost2010Prop57
140
1.0
102
RTVSPost2010PropOp57
 70
     1
102
RTVSPropertyOp0
 70
     1
102
RTVSPropertyOp1
 70
     1
102
RTVSPropertyOp2
 70
     1
102
RTVSPropertyOp3
 70
     1
102
RTVSPropertyOp4
 70
     1
102
RTVSPropertyOp5
 70
     1
102
RTVSPropertyOp6
 70
     1
102
RTVSPropertyOp7
 70
     1
102
RTVSPropertyOp8
 70
     1
102
RTVSPropertyOp9
 70
     1
102
RTVSPropertyOp10
 70
     1
102
RTVSPropertyOp11
 70
     1
102
RTVSPropertyOp12
 70
     1
102
RTVSPropertyOp13
 70
     1
102
RTVSPropertyOp14
 70
     1
102
RTVSPropertyOp15
 70
     1
102
RTVSPropertyOp16
 70
     1
102
RTVSPropertyOp17
 70
     1
102
RTVSPropertyOp18
 70
     1
102
RTVSPropertyOp19
 70
     1
102
RTVSPropertyOp20
 70
     1
102
RTVSPropertyOp21
 70
     1
102
RTVSPropertyOp22
 70
     1
102
RTVSPropertyOp23
 70
     1
102
RTVSPropertyOp24
 70
     1
102
RTVSPropertyOp25
 70
     1
102
RTVSPropertyOp26
 70
     1
102
RTVSPropertyOp27
 70
     1
102
RTVSPropertyOp28
 70
     1
102
RTVSPropertyOp29
 70
     1
102
RTVSPropertyOp30
 70
     1
102
RTVSPropertyOp31
 70
     1
102
RTVSPropertyOp32
 70
     1
102
RTVSPropertyOp33
 70
     1
102
RTVSPropertyOp34
 70
     1
102
RTVSPropertyOp35
 70
     1
102
RTVSPropertyOp36
 70
     1
102
RTVSPropertyOp37
 70
     1
102
RTVSPropertyOp38
 70
     1
102
RTVSPropertyOp39
 70
     1
102
RTVSPropertyOp40
 70
     1
102
RTVSPropertyOp41
 70
     1
102
RTVSPropertyOp42
 70
     1
102
RTVSPropertyOp43
 70
     1
102
RTVSPropertyOp44
 70
     1
102
RTVSPropertyOp45
 70
     1
102
RTVSPropertyOp46
 70
     1
102
RTVSPropertyOp47
 70
     1
102
RTVSPropertyOp48
 70
     1
102
RTVSPropertyOp49
 70
     1
102
RTVSPropertyOp50
 70
     1
102
RTVSPropertyOp51
 70
     0
102
RTVSPropertyOp52
 70
     0
102
RTVSPropertyOp53
 70
     1
102
RTVSPropertyOp54
 70
     1
102
RTVSPropertyOp55
 70
     1
102
RTVSPropertyOp56
 70
     1
102
RTVSPropertyOp57
 70
     1
102
RTVSPropertyOp58
 70
     1
102
RTVSPropertyOp59
 70
     1
102
RTVSPropertyOp60
 70
     1
102
RTVSPropertyOp61
 70
     1
102
RTVSPropertyOp62
 70
     1
  0
XRECORD
  5
9F47
102
{ACAD_REACTORS
330
9F46
102
}
330
9F46
100
AcDbXrecord
280
     1
102
RTVSPost2010Prop28
280
     0
102
RTVSPost2010PropOp28
 70
     1
102
RTVSPost2010Prop29
280
     1
102
RTVSPost2010PropOp29
 70
     1
102
RTVSPost2010Prop30
280
     1
102
RTVSPost2010PropOp30
 70
     1
102
RTVSPost2010Prop31
280
     0
102
RTVSPost2010PropOp31
 70
     1
102
RTVSPost2010Prop32
280
     0
102
RTVSPost2010PropOp32
 70
     1
102
RTVSPost2010Prop33
280
     0
102
RTVSPost2010PropOp33
 70
     1
102
RTVSPost2010Prop34
280
     0
102
RTVSPost2010PropOp34
 70
     1
102
RTVSPost2010Prop35
280
     0
102
RTVSPost2010PropOp35
 70
     1
102
RTVSPost2010Prop36
280
     0
102
RTVSPost2010PropOp36
 70
     1
102
RTVSPost2010Prop37
 90
       50
102
RTVSPost2010PropOp37
 70
     1
102
RTVSPost2010Prop38
140
0.0
102
RTVSPost2010PropOp38
 70
     1
102
RTVSPost2010Prop39
140
1.0
102
RTVSPost2010PropOp39
 70
     1
102
RTVSPost2010Prop40
 90
        0
102
RTVSPost2010PropOp40
 70
     1
102
RTVSPost2010Prop41ColorIndex
 90
       18
102
RTVSPost2010Prop41ColorRGB
 90
        0
102
RTVSPost2010PropOp41
 70
     1
102
RTVSPost2010Prop42
 90
       50
102
RTVSPost2010PropOp42
 70
     1
102
RTVSPost2010Prop43
 90
        3
102
RTVSPost2010PropOp43
 70
     1
102
RTVSPost2010Prop44ColorIndex
 90
        5
102
RTVSPost2010Prop44ColorRGB
 90
      255
102
RTVSPost2010PropOp44
 70
     1
102
RTVSPost2010Prop45
280
     0
102
RTVSPost2010PropOp45
 70
     1
102
RTVSPost2010Prop46
 90
       50
102
RTVSPost2010PropOp46
 70
     1
102
RTVSPost2010Prop47
 90
       50
102
RTVSPost2010PropOp47
 70
     1
102
RTVSPost2010Prop48
 90
       50
102
RTVSPost2010PropOp48
 70
     1
102
RTVSPost2010Prop49
280
     0
102
RTVSPost2010PropOp49
 70
     1
102
RTVSPost2010Prop50
 90
       50
102
RTVSPost2010PropOp50
 70
     1
102
RTVSPost2010Prop51ColorIndex
 90
      256
102
RTVSPost2010Prop51ColorRGB
 90
-16777216
102
RTVSPost2010PropOp51
 70
     0
102
RTVSPost2010Prop52
140
1.0
102
RTVSPost2010PropOp52
 70
     0
102
RTVSPost2010Prop53
 90
        2
102
RTVSPost2010PropOp53
 70
     1
102
RTVSPost2010Prop54
  1
strokes_ogs.tif
102
RTVSPost2010PropOp54
 70
     1
102
RTVSPost2010Prop55
280
     0
102
RTVSPost2010PropOp55
 70
     1
102
RTVSPost2010Prop56
140
1.0
102
RTVSPost2010PropOp56
 70
     1
102
RTVSPost2010Prop57
140
1.0
102
RTVSPost2010PropOp57
 70
     1
102
RTVSPropertyOp0
 70
     1
102
RTVSPropertyOp1
 70
     1
102
RTVSPropertyOp2
 70
     1
102
RTVSPropertyOp3
 70
     1
102
RTVSPropertyOp4
 70
     1
102
RTVSPropertyOp5
 70
     1
102
RTVSPropertyOp6
 70
     1
102
RTVSPropertyOp7
 70
     1
102
RTVSPropertyOp8
 70
     1
102
RTVSPropertyOp9
 70
     1
102
RTVSPropertyOp10
 70
     1
102
RTVSPropertyOp11
 70
     1
102
RTVSPropertyOp12
 70
     1
102
RTVSPropertyOp13
 70
     1
102
RTVSPropertyOp14
 70
     1
102
RTVSPropertyOp15
 70
     1
102
RTVSPropertyOp16
 70
     1
102
RTVSPropertyOp17
 70
     1
102
RTVSPropertyOp18
 70
     1
102
RTVSPropertyOp19
 70
     1
102
RTVSPropertyOp20
 70
     1
102
RTVSPropertyOp21
 70
     1
102
RTVSPropertyOp22
 70
     1
102
RTVSPropertyOp23
 70
     1
102
RTVSPropertyOp24
 70
     1
102
RTVSPropertyOp25
 70
     1
102
RTVSPropertyOp26
 70
     1
102
RTVSPropertyOp27
 70
     1
102
RTVSPropertyOp28
 70
     1
102
RTVSPropertyOp29
 70
     1
102
RTVSPropertyOp30
 70
     1
102
RTVSPropertyOp31
 70
     1
102
RTVSPropertyOp32
 70
     1
102
RTVSPropertyOp33
 70
     1
102
RTVSPropertyOp34
 70
     1
102
RTVSPropertyOp35
 70
     1
102
RTVSPropertyOp36
 70
     1
102
RTVSPropertyOp37
 70
     1
102
RTVSPropertyOp38
 70
     1
102
RTVSPropertyOp39
 70
     1
102
RTVSPropertyOp40
 70
     1
102
RTVSPropertyOp41
 70
     1
102
RTVSPropertyOp42
 70
     1
102
RTVSPropertyOp43
 70
     1
102
RTVSPropertyOp44
 70
     1
102
RTVSPropertyOp45
 70
     1
102
RTVSPropertyOp46
 70
     1
102
RTVSPropertyOp47
 70
     1
102
RTVSPropertyOp48
 70
     1
102
RTVSPropertyOp49
 70
     1
102
RTVSPropertyOp50
 70
     1
102
RTVSPropertyOp51
 70
     0
102
RTVSPropertyOp52
 70
     0
102
RTVSPropertyOp53
 70
     1
102
RTVSPropertyOp54
 70
     1
102
RTVSPropertyOp55
 70
     1
102
RTVSPropertyOp56
 70
     1
102
RTVSPropertyOp57
 70
     1
102
RTVSPropertyOp58
 70
     1
102
RTVSPropertyOp59
 70
     1
102
RTVSPropertyOp60
 70
     1
102
RTVSPropertyOp61
 70
     1
102
RTVSPropertyOp62
 70
     1
  0
XRECORD
  5
9F39
102
{ACAD_REACTORS
330
9F38
102
}
330
9F38
100
AcDbXrecord
280
     1
102
RTVSPost2010Prop28
280
     0
102
RTVSPost2010PropOp28
 70
     1
102
RTVSPost2010Prop29
280
     1
102
RTVSPost2010PropOp29
 70
     1
102
RTVSPost2010Prop30
280
     1
102
RTVSPost2010PropOp30
 70
     1
102
RTVSPost2010Prop31
280
     0
102
RTVSPost2010PropOp31
 70
     1
102
RTVSPost2010Prop32
280
     0
102
RTVSPost2010PropOp32
 70
     1
102
RTVSPost2010Prop33
280
     0
102
RTVSPost2010PropOp33
 70
     1
102
RTVSPost2010Prop34
280
     0
102
RTVSPost2010PropOp34
 70
     1
102
RTVSPost2010Prop35
280
     0
102
RTVSPost2010PropOp35
 70
     1
102
RTVSPost2010Prop36
280
     0
102
RTVSPost2010PropOp36
 70
     1
102
RTVSPost2010Prop37
 90
       50
102
RTVSPost2010PropOp37
 70
     1
102
RTVSPost2010Prop38
140
0.0
102
RTVSPost2010PropOp38
 70
     1
102
RTVSPost2010Prop39
140
1.0
102
RTVSPost2010PropOp39
 70
     1
102
RTVSPost2010Prop40
 90
        0
102
RTVSPost2010PropOp40
 70
     1
102
RTVSPost2010Prop41ColorIndex
 90
       18
102
RTVSPost2010Prop41ColorRGB
 90
        0
102
RTVSPost2010PropOp41
 70
     1
102
RTVSPost2010Prop42
 90
       50
102
RTVSPost2010PropOp42
 70
     1
102
RTVSPost2010Prop43
 90
        3
102
RTVSPost2010PropOp43
 70
     1
102
RTVSPost2010Prop44ColorIndex
 90
        5
102
RTVSPost2010Prop44ColorRGB
 90
      255
102
RTVSPost2010PropOp44
 70
     1
102
RTVSPost2010Prop45
280
     0
102
RTVSPost2010PropOp45
 70
     1
102
RTVSPost2010Prop46
 90
       50
102
RTVSPost2010PropOp46
 70
     1
102
RTVSPost2010Prop47
 90
       50
102
RTVSPost2010PropOp47
 70
     1
102
RTVSPost2010Prop48
 90
       50
102
RTVSPost2010PropOp48
 70
     1
102
RTVSPost2010Prop49
280
     0
102
RTVSPost2010PropOp49
 70
     1
102
RTVSPost2010Prop50
 90
       50
102
RTVSPost2010PropOp50
 70
     1
102
RTVSPost2010Prop51ColorIndex
 90
      256
102
RTVSPost2010Prop51ColorRGB
 90
-16777216
102
RTVSPost2010PropOp51
 70
     0
102
RTVSPost2010Prop52
140
1.0
102
RTVSPost2010PropOp52
 70
     0
102
RTVSPost2010Prop53
 90
        2
102
RTVSPost2010PropOp53
 70
     1
102
RTVSPost2010Prop54
  1
strokes_ogs.tif
102
RTVSPost2010PropOp54
 70
     1
102
RTVSPost2010Prop55
280
     0
102
RTVSPost2010PropOp55
 70
     1
102
RTVSPost2010Prop56
140
1.0
102
RTVSPost2010PropOp56
 70
     1
102
RTVSPost2010Prop57
140
1.0
102
RTVSPost2010PropOp57
 70
     1
102
RTVSPropertyOp0
 70
     1
102
RTVSPropertyOp1
 70
     1
102
RTVSPropertyOp2
 70
     1
102
RTVSPropertyOp3
 70
     1
102
RTVSPropertyOp4
 70
     1
102
RTVSPropertyOp5
 70
     1
102
RTVSPropertyOp6
 70
     1
102
RTVSPropertyOp7
 70
     1
102
RTVSPropertyOp8
 70
     1
102
RTVSPropertyOp9
 70
     1
102
RTVSPropertyOp10
 70
     1
102
RTVSPropertyOp11
 70
     1
102
RTVSPropertyOp12
 70
     1
102
RTVSPropertyOp13
 70
     1
102
RTVSPropertyOp14
 70
     1
102
RTVSPropertyOp15
 70
     1
102
RTVSPropertyOp16
 70
     1
102
RTVSPropertyOp17
 70
     1
102
RTVSPropertyOp18
 70
     1
102
RTVSPropertyOp19
 70
     1
102
RTVSPropertyOp20
 70
     1
102
RTVSPropertyOp21
 70
     1
102
RTVSPropertyOp22
 70
     1
102
RTVSPropertyOp23
 70
     1
102
RTVSPropertyOp24
 70
     1
102
RTVSPropertyOp25
 70
     1
102
RTVSPropertyOp26
 70
     1
102
RTVSPropertyOp27
 70
     1
102
RTVSPropertyOp28
 70
     1
102
RTVSPropertyOp29
 70
     1
102
RTVSPropertyOp30
 70
     1
102
RTVSPropertyOp31
 70
     1
102
RTVSPropertyOp32
 70
     1
102
RTVSPropertyOp33
 70
     1
102
RTVSPropertyOp34
 70
     1
102
RTVSPropertyOp35
 70
     1
102
RTVSPropertyOp36
 70
     1
102
RTVSPropertyOp37
 70
     1
102
RTVSPropertyOp38
 70
     1
102
RTVSPropertyOp39
 70
     1
102
RTVSPropertyOp40
 70
     1
102
RTVSPropertyOp41
 70
     1
102
RTVSPropertyOp42
 70
     1
102
RTVSPropertyOp43
 70
     1
102
RTVSPropertyOp44
 70
     1
102
RTVSPropertyOp45
 70
     1
102
RTVSPropertyOp46
 70
     1
102
RTVSPropertyOp47
 70
     1
102
RTVSPropertyOp48
 70
     1
102
RTVSPropertyOp49
 70
     1
102
RTVSPropertyOp50
 70
     1
102
RTVSPropertyOp51
 70
     0
102
RTVSPropertyOp52
 70
     0
102
RTVSPropertyOp53
 70
     1
102
RTVSPropertyOp54
 70
     1
102
RTVSPropertyOp55
 70
     1
102
RTVSPropertyOp56
 70
     1
102
RTVSPropertyOp57
 70
     1
102
RTVSPropertyOp58
 70
     1
102
RTVSPropertyOp59
 70
     1
102
RTVSPropertyOp60
 70
     1
102
RTVSPropertyOp61
 70
     1
102
RTVSPropertyOp62
 70
     1
  0
XRECORD
  5
9F3D
102
{ACAD_REACTORS
330
9F3C
102
}
330
9F3C
100
AcDbXrecord
280
     1
102
RTVSPost2010Prop28
280
     0
102
RTVSPost2010PropOp28
 70
     1
102
RTVSPost2010Prop29
280
     1
102
RTVSPost2010PropOp29
 70
     1
102
RTVSPost2010Prop30
280
     1
102
RTVSPost2010PropOp30
 70
     1
102
RTVSPost2010Prop31
280
     0
102
RTVSPost2010PropOp31
 70
     1
102
RTVSPost2010Prop32
280
     0
102
RTVSPost2010PropOp32
 70
     1
102
RTVSPost2010Prop33
280
     0
102
RTVSPost2010PropOp33
 70
     1
102
RTVSPost2010Prop34
280
     0
102
RTVSPost2010PropOp34
 70
     1
102
RTVSPost2010Prop35
280
     0
102
RTVSPost2010PropOp35
 70
     1
102
RTVSPost2010Prop36
280
     0
102
RTVSPost2010PropOp36
 70
     1
102
RTVSPost2010Prop37
 90
       50
102
RTVSPost2010PropOp37
 70
     1
102
RTVSPost2010Prop38
140
0.0
102
RTVSPost2010PropOp38
 70
     1
102
RTVSPost2010Prop39
140
1.0
102
RTVSPost2010PropOp39
 70
     1
102
RTVSPost2010Prop40
 90
        0
102
RTVSPost2010PropOp40
 70
     1
102
RTVSPost2010Prop41ColorIndex
 90
       18
102
RTVSPost2010Prop41ColorRGB
 90
        0
102
RTVSPost2010PropOp41
 70
     1
102
RTVSPost2010Prop42
 90
       50
102
RTVSPost2010PropOp42
 70
     1
102
RTVSPost2010Prop43
 90
        3
102
RTVSPost2010PropOp43
 70
     1
102
RTVSPost2010Prop44ColorIndex
 90
        5
102
RTVSPost2010Prop44ColorRGB
 90
      255
102
RTVSPost2010PropOp44
 70
     1
102
RTVSPost2010Prop45
280
     0
102
RTVSPost2010PropOp45
 70
     1
102
RTVSPost2010Prop46
 90
       50
102
RTVSPost2010PropOp46
 70
     1
102
RTVSPost2010Prop47
 90
       50
102
RTVSPost2010PropOp47
 70
     1
102
RTVSPost2010Prop48
 90
       50
102
RTVSPost2010PropOp48
 70
     1
102
RTVSPost2010Prop49
280
     0
102
RTVSPost2010PropOp49
 70
     1
102
RTVSPost2010Prop50
 90
       50
102
RTVSPost2010PropOp50
 70
     1
102
RTVSPost2010Prop51ColorIndex
 90
      256
102
RTVSPost2010Prop51ColorRGB
 90
-16777216
102
RTVSPost2010PropOp51
 70
     0
102
RTVSPost2010Prop52
140
1.0
102
RTVSPost2010PropOp52
 70
     0
102
RTVSPost2010Prop53
 90
        2
102
RTVSPost2010PropOp53
 70
     1
102
RTVSPost2010Prop54
  1
strokes_ogs.tif
102
RTVSPost2010PropOp54
 70
     1
102
RTVSPost2010Prop55
280
     0
102
RTVSPost2010PropOp55
 70
     1
102
RTVSPost2010Prop56
140
1.0
102
RTVSPost2010PropOp56
 70
     1
102
RTVSPost2010Prop57
140
1.0
102
RTVSPost2010PropOp57
 70
     1
102
RTVSPropertyOp0
 70
     1
102
RTVSPropertyOp1
 70
     1
102
RTVSPropertyOp2
 70
     1
102
RTVSPropertyOp3
 70
     1
102
RTVSPropertyOp4
 70
     1
102
RTVSPropertyOp5
 70
     1
102
RTVSPropertyOp6
 70
     1
102
RTVSPropertyOp7
 70
     1
102
RTVSPropertyOp8
 70
     1
102
RTVSPropertyOp9
 70
     1
102
RTVSPropertyOp10
 70
     1
102
RTVSPropertyOp11
 70
     1
102
RTVSPropertyOp12
 70
     1
102
RTVSPropertyOp13
 70
     1
102
RTVSPropertyOp14
 70
     1
102
RTVSPropertyOp15
 70
     1
102
RTVSPropertyOp16
 70
     1
102
RTVSPropertyOp17
 70
     1
102
RTVSPropertyOp18
 70
     1
102
RTVSPropertyOp19
 70
     1
102
RTVSPropertyOp20
 70
     1
102
RTVSPropertyOp21
 70
     1
102
RTVSPropertyOp22
 70
     1
102
RTVSPropertyOp23
 70
     1
102
RTVSPropertyOp24
 70
     1
102
RTVSPropertyOp25
 70
     1
102
RTVSPropertyOp26
 70
     1
102
RTVSPropertyOp27
 70
     1
102
RTVSPropertyOp28
 70
     1
102
RTVSPropertyOp29
 70
     1
102
RTVSPropertyOp30
 70
     1
102
RTVSPropertyOp31
 70
     1
102
RTVSPropertyOp32
 70
     1
102
RTVSPropertyOp33
 70
     1
102
RTVSPropertyOp34
 70
     1
102
RTVSPropertyOp35
 70
     1
102
RTVSPropertyOp36
 70
     1
102
RTVSPropertyOp37
 70
     1
102
RTVSPropertyOp38
 70
     1
102
RTVSPropertyOp39
 70
     1
102
RTVSPropertyOp40
 70
     1
102
RTVSPropertyOp41
 70
     1
102
RTVSPropertyOp42
 70
     1
102
RTVSPropertyOp43
 70
     1
102
RTVSPropertyOp44
 70
     1
102
RTVSPropertyOp45
 70
     1
102
RTVSPropertyOp46
 70
     1
102
RTVSPropertyOp47
 70
     1
102
RTVSPropertyOp48
 70
     1
102
RTVSPropertyOp49
 70
     1
102
RTVSPropertyOp50
 70
     1
102
RTVSPropertyOp51
 70
     0
102
RTVSPropertyOp52
 70
     0
102
RTVSPropertyOp53
 70
     1
102
RTVSPropertyOp54
 70
     1
102
RTVSPropertyOp55
 70
     1
102
RTVSPropertyOp56
 70
     1
102
RTVSPropertyOp57
 70
     1
102
RTVSPropertyOp58
 70
     1
102
RTVSPropertyOp59
 70
     1
102
RTVSPropertyOp60
 70
     1
102
RTVSPropertyOp61
 70
     1
102
RTVSPropertyOp62
 70
     1
  0
XRECORD
  5
9F57
102
{ACAD_REACTORS
330
9F56
102
}
330
9F56
100
AcDbXrecord
280
     1
102
RTVSPost2010Prop28
280
     0
102
RTVSPost2010PropOp28
 70
     1
102
RTVSPost2010Prop29
280
     1
102
RTVSPost2010PropOp29
 70
     1
102
RTVSPost2010Prop30
280
     1
102
RTVSPost2010PropOp30
 70
     1
102
RTVSPost2010Prop31
280
     0
102
RTVSPost2010PropOp31
 70
     1
102
RTVSPost2010Prop32
280
     0
102
RTVSPost2010PropOp32
 70
     1
102
RTVSPost2010Prop33
280
     0
102
RTVSPost2010PropOp33
 70
     1
102
RTVSPost2010Prop34
280
     0
102
RTVSPost2010PropOp34
 70
     1
102
RTVSPost2010Prop35
280
     0
102
RTVSPost2010PropOp35
 70
     1
102
RTVSPost2010Prop36
280
     0
102
RTVSPost2010PropOp36
 70
     1
102
RTVSPost2010Prop37
 90
       50
102
RTVSPost2010PropOp37
 70
     0
102
RTVSPost2010Prop38
140
0.0
102
RTVSPost2010PropOp38
 70
     0
102
RTVSPost2010Prop39
140
1.0
102
RTVSPost2010PropOp39
 70
     0
102
RTVSPost2010Prop40
 90
        0
102
RTVSPost2010PropOp40
 70
     0
102
RTVSPost2010Prop41ColorIndex
 90
       18
102
RTVSPost2010Prop41ColorRGB
 90
        0
102
RTVSPost2010PropOp41
 70
     0
102
RTVSPost2010Prop42
 90
       50
102
RTVSPost2010PropOp42
 70
     0
102
RTVSPost2010Prop43
 90
        3
102
RTVSPost2010PropOp43
 70
     0
102
RTVSPost2010Prop44ColorIndex
 90
        5
102
RTVSPost2010Prop44ColorRGB
 90
      255
102
RTVSPost2010PropOp44
 70
     0
102
RTVSPost2010Prop45
280
     0
102
RTVSPost2010PropOp45
 70
     1
102
RTVSPost2010Prop46
 90
       50
102
RTVSPost2010PropOp46
 70
     0
102
RTVSPost2010Prop47
 90
       50
102
RTVSPost2010PropOp47
 70
     0
102
RTVSPost2010Prop48
 90
       50
102
RTVSPost2010PropOp48
 70
     0
102
RTVSPost2010Prop49
280
     0
102
RTVSPost2010PropOp49
 70
     1
102
RTVSPost2010Prop50
 90
       50
102
RTVSPost2010PropOp50
 70
     0
102
RTVSPost2010Prop51ColorIndex
 90
      256
102
RTVSPost2010Prop51ColorRGB
 90
-16777216
102
RTVSPost2010PropOp51
 70
     0
102
RTVSPost2010Prop52
140
1.0
102
RTVSPost2010PropOp52
 70
     0
102
RTVSPost2010Prop53
 90
        2
102
RTVSPost2010PropOp53
 70
     0
102
RTVSPost2010Prop54
  1
strokes_ogs.tif
102
RTVSPost2010PropOp54
 70
     0
102
RTVSPost2010Prop55
280
     0
102
RTVSPost2010PropOp55
 70
     1
102
RTVSPost2010Prop56
140
1.0
102
RTVSPost2010PropOp56
 70
     0
102
RTVSPost2010Prop57
140
1.0
102
RTVSPost2010PropOp57
 70
     0
102
RTVSPropertyOp0
 70
     0
102
RTVSPropertyOp1
 70
     0
102
RTVSPropertyOp2
 70
     0
102
RTVSPropertyOp3
 70
     0
102
RTVSPropertyOp4
 70
     0
102
RTVSPropertyOp5
 70
     0
102
RTVSPropertyOp6
 70
     0
102
RTVSPropertyOp7
 70
     0
102
RTVSPropertyOp8
 70
     0
102
RTVSPropertyOp9
 70
     0
102
RTVSPropertyOp10
 70
     0
102
RTVSPropertyOp11
 70
     0
102
RTVSPropertyOp12
 70
     0
102
RTVSPropertyOp13
 70
     0
102
RTVSPropertyOp14
 70
     2
102
RTVSPropertyOp15
 70
     0
102
RTVSPropertyOp16
 70
     0
102
RTVSPropertyOp17
 70
     0
102
RTVSPropertyOp18
 70
     0
102
RTVSPropertyOp19
 70
     0
102
RTVSPropertyOp20
 70
     0
102
RTVSPropertyOp21
 70
     0
102
RTVSPropertyOp22
 70
     0
102
RTVSPropertyOp23
 70
     0
102
RTVSPropertyOp24
 70
     0
102
RTVSPropertyOp25
 70
     0
102
RTVSPropertyOp26
 70
     0
102
RTVSPropertyOp27
 70
     0
102
RTVSPropertyOp28
 70
     1
102
RTVSPropertyOp29
 70
     1
102
RTVSPropertyOp30
 70
     1
102
RTVSPropertyOp31
 70
     1
102
RTVSPropertyOp32
 70
     1
102
RTVSPropertyOp33
 70
     1
102
RTVSPropertyOp34
 70
     1
102
RTVSPropertyOp35
 70
     1
102
RTVSPropertyOp36
 70
     1
102
RTVSPropertyOp37
 70
     0
102
RTVSPropertyOp38
 70
     0
102
RTVSPropertyOp39
 70
     0
102
RTVSPropertyOp40
 70
     0
102
RTVSPropertyOp41
 70
     0
102
RTVSPropertyOp42
 70
     0
102
RTVSPropertyOp43
 70
     0
102
RTVSPropertyOp44
 70
     0
102
RTVSPropertyOp45
 70
     1
102
RTVSPropertyOp46
 70
     0
102
RTVSPropertyOp47
 70
     0
102
RTVSPropertyOp48
 70
     0
102
RTVSPropertyOp49
 70
     1
102
RTVSPropertyOp50
 70
     0
102
RTVSPropertyOp51
 70
     0
102
RTVSPropertyOp52
 70
     0
102
RTVSPropertyOp53
 70
     0
102
RTVSPropertyOp54
 70
     0
102
RTVSPropertyOp55
 70
     1
102
RTVSPropertyOp56
 70
     0
102
RTVSPropertyOp57
 70
     0
102
RTVSPropertyOp58
 70
     0
102
RTVSPropertyOp59
 70
     0
102
RTVSPropertyOp60
 70
     0
102
RTVSPropertyOp61
 70
     0
102
RTVSPropertyOp62
 70
     0
  0
XRECORD
  5
9F45
102
{ACAD_REACTORS
330
9F44
102
}
330
9F44
100
AcDbXrecord
280
     1
102
RTVSPost2010Prop28
280
     0
102
RTVSPost2010PropOp28
 70
     1
102
RTVSPost2010Prop29
280
     1
102
RTVSPost2010PropOp29
 70
     1
102
RTVSPost2010Prop30
280
     1
102
RTVSPost2010PropOp30
 70
     1
102
RTVSPost2010Prop31
280
     0
102
RTVSPost2010PropOp31
 70
     1
102
RTVSPost2010Prop32
280
     0
102
RTVSPost2010PropOp32
 70
     1
102
RTVSPost2010Prop33
280
     0
102
RTVSPost2010PropOp33
 70
     1
102
RTVSPost2010Prop34
280
     0
102
RTVSPost2010PropOp34
 70
     1
102
RTVSPost2010Prop35
280
     0
102
RTVSPost2010PropOp35
 70
     1
102
RTVSPost2010Prop36
280
     0
102
RTVSPost2010PropOp36
 70
     1
102
RTVSPost2010Prop37
 90
       50
102
RTVSPost2010PropOp37
 70
     1
102
RTVSPost2010Prop38
140
0.0
102
RTVSPost2010PropOp38
 70
     1
102
RTVSPost2010Prop39
140
1.0
102
RTVSPost2010PropOp39
 70
     1
102
RTVSPost2010Prop40
 90
        0
102
RTVSPost2010PropOp40
 70
     1
102
RTVSPost2010Prop41ColorIndex
 90
       18
102
RTVSPost2010Prop41ColorRGB
 90
        0
102
RTVSPost2010PropOp41
 70
     1
102
RTVSPost2010Prop42
 90
       50
102
RTVSPost2010PropOp42
 70
     1
102
RTVSPost2010Prop43
 90
        3
102
RTVSPost2010PropOp43
 70
     1
102
RTVSPost2010Prop44ColorIndex
 90
        5
102
RTVSPost2010Prop44ColorRGB
 90
      255
102
RTVSPost2010PropOp44
 70
     1
102
RTVSPost2010Prop45
280
     0
102
RTVSPost2010PropOp45
 70
     1
102
RTVSPost2010Prop46
 90
       50
102
RTVSPost2010PropOp46
 70
     1
102
RTVSPost2010Prop47
 90
       50
102
RTVSPost2010PropOp47
 70
     1
102
RTVSPost2010Prop48
 90
       50
102
RTVSPost2010PropOp48
 70
     1
102
RTVSPost2010Prop49
280
     0
102
RTVSPost2010PropOp49
 70
     1
102
RTVSPost2010Prop50
 90
       50
102
RTVSPost2010PropOp50
 70
     1
102
RTVSPost2010Prop51ColorIndex
 90
      256
102
RTVSPost2010Prop51ColorRGB
 90
-16777216
102
RTVSPost2010PropOp51
 70
     0
102
RTVSPost2010Prop52
140
1.0
102
RTVSPost2010PropOp52
 70
     0
102
RTVSPost2010Prop53
 90
        2
102
RTVSPost2010PropOp53
 70
     1
102
RTVSPost2010Prop54
  1
strokes_ogs.tif
102
RTVSPost2010PropOp54
 70
     1
102
RTVSPost2010Prop55
280
     0
102
RTVSPost2010PropOp55
 70
     1
102
RTVSPost2010Prop56
140
1.0
102
RTVSPost2010PropOp56
 70
     1
102
RTVSPost2010Prop57
140
1.0
102
RTVSPost2010PropOp57
 70
     1
102
RTVSPropertyOp0
 70
     1
102
RTVSPropertyOp1
 70
     1
102
RTVSPropertyOp2
 70
     1
102
RTVSPropertyOp3
 70
     1
102
RTVSPropertyOp4
 70
     1
102
RTVSPropertyOp5
 70
     1
102
RTVSPropertyOp6
 70
     1
102
RTVSPropertyOp7
 70
     1
102
RTVSPropertyOp8
 70
     1
102
RTVSPropertyOp9
 70
     1
102
RTVSPropertyOp10
 70
     1
102
RTVSPropertyOp11
 70
     1
102
RTVSPropertyOp12
 70
     1
102
RTVSPropertyOp13
 70
     1
102
RTVSPropertyOp14
 70
     1
102
RTVSPropertyOp15
 70
     1
102
RTVSPropertyOp16
 70
     1
102
RTVSPropertyOp17
 70
     1
102
RTVSPropertyOp18
 70
     1
102
RTVSPropertyOp19
 70
     1
102
RTVSPropertyOp20
 70
     1
102
RTVSPropertyOp21
 70
     1
102
RTVSPropertyOp22
 70
     1
102
RTVSPropertyOp23
 70
     1
102
RTVSPropertyOp24
 70
     1
102
RTVSPropertyOp25
 70
     1
102
RTVSPropertyOp26
 70
     1
102
RTVSPropertyOp27
 70
     1
102
RTVSPropertyOp28
 70
     1
102
RTVSPropertyOp29
 70
     1
102
RTVSPropertyOp30
 70
     1
102
RTVSPropertyOp31
 70
     1
102
RTVSPropertyOp32
 70
     1
102
RTVSPropertyOp33
 70
     1
102
RTVSPropertyOp34
 70
     1
102
RTVSPropertyOp35
 70
     1
102
RTVSPropertyOp36
 70
     1
102
RTVSPropertyOp37
 70
     1
102
RTVSPropertyOp38
 70
     1
102
RTVSPropertyOp39
 70
     1
102
RTVSPropertyOp40
 70
     1
102
RTVSPropertyOp41
 70
     1
102
RTVSPropertyOp42
 70
     1
102
RTVSPropertyOp43
 70
     1
102
RTVSPropertyOp44
 70
     1
102
RTVSPropertyOp45
 70
     1
102
RTVSPropertyOp46
 70
     1
102
RTVSPropertyOp47
 70
     1
102
RTVSPropertyOp48
 70
     1
102
RTVSPropertyOp49
 70
     1
102
RTVSPropertyOp50
 70
     1
102
RTVSPropertyOp51
 70
     0
102
RTVSPropertyOp52
 70
     0
102
RTVSPropertyOp53
 70
     1
102
RTVSPropertyOp54
 70
     1
102
RTVSPropertyOp55
 70
     1
102
RTVSPropertyOp56
 70
     1
102
RTVSPropertyOp57
 70
     1
102
RTVSPropertyOp58
 70
     1
102
RTVSPropertyOp59
 70
     1
102
RTVSPropertyOp60
 70
     1
102
RTVSPropertyOp61
 70
     1
102
RTVSPropertyOp62
 70
     1
  0
XRECORD
  5
9F29
102
{ACAD_REACTORS
330
9F28
102
}
330
9F28
100
AcDbXrecord
280
     1
102
RTVSPost2010Prop28
280
     0
102
RTVSPost2010PropOp28
 70
     1
102
RTVSPost2010Prop29
280
     1
102
RTVSPost2010PropOp29
 70
     1
102
RTVSPost2010Prop30
280
     1
102
RTVSPost2010PropOp30
 70
     1
102
RTVSPost2010Prop31
280
     0
102
RTVSPost2010PropOp31
 70
     1
102
RTVSPost2010Prop32
280
     0
102
RTVSPost2010PropOp32
 70
     1
102
RTVSPost2010Prop33
280
     0
102
RTVSPost2010PropOp33
 70
     1
102
RTVSPost2010Prop34
280
     0
102
RTVSPost2010PropOp34
 70
     1
102
RTVSPost2010Prop35
280
     0
102
RTVSPost2010PropOp35
 70
     1
102
RTVSPost2010Prop36
280
     0
102
RTVSPost2010PropOp36
 70
     1
102
RTVSPost2010Prop37
 90
       50
102
RTVSPost2010PropOp37
 70
     1
102
RTVSPost2010Prop38
140
0.0
102
RTVSPost2010PropOp38
 70
     1
102
RTVSPost2010Prop39
140
1.0
102
RTVSPost2010PropOp39
 70
     1
102
RTVSPost2010Prop40
 90
        0
102
RTVSPost2010PropOp40
 70
     1
102
RTVSPost2010Prop41ColorIndex
 90
       18
102
RTVSPost2010Prop41ColorRGB
 90
        0
102
RTVSPost2010PropOp41
 70
     1
102
RTVSPost2010Prop42
 90
       50
102
RTVSPost2010PropOp42
 70
     1
102
RTVSPost2010Prop43
 90
        3
102
RTVSPost2010PropOp43
 70
     1
102
RTVSPost2010Prop44ColorIndex
 90
        5
102
RTVSPost2010Prop44ColorRGB
 90
      255
102
RTVSPost2010PropOp44
 70
     1
102
RTVSPost2010Prop45
280
     0
102
RTVSPost2010PropOp45
 70
     1
102
RTVSPost2010Prop46
 90
       50
102
RTVSPost2010PropOp46
 70
     1
102
RTVSPost2010Prop47
 90
       50
102
RTVSPost2010PropOp47
 70
     1
102
RTVSPost2010Prop48
 90
       50
102
RTVSPost2010PropOp48
 70
     1
102
RTVSPost2010Prop49
280
     0
102
RTVSPost2010PropOp49
 70
     1
102
RTVSPost2010Prop50
 90
       50
102
RTVSPost2010PropOp50
 70
     1
102
RTVSPost2010Prop51ColorIndex
 90
      256
102
RTVSPost2010Prop51ColorRGB
 90
-16777216
102
RTVSPost2010PropOp51
 70
     0
102
RTVSPost2010Prop52
140
1.0
102
RTVSPost2010PropOp52
 70
     0
102
RTVSPost2010Prop53
 90
        2
102
RTVSPost2010PropOp53
 70
     1
102
RTVSPost2010Prop54
  1
strokes_ogs.tif
102
RTVSPost2010PropOp54
 70
     1
102
RTVSPost2010Prop55
280
     0
102
RTVSPost2010PropOp55
 70
     1
102
RTVSPost2010Prop56
140
1.0
102
RTVSPost2010PropOp56
 70
     1
102
RTVSPost2010Prop57
140
1.0
102
RTVSPost2010PropOp57
 70
     1
102
RTVSPropertyOp0
 70
     1
102
RTVSPropertyOp1
 70
     1
102
RTVSPropertyOp2
 70
     1
102
RTVSPropertyOp3
 70
     1
102
RTVSPropertyOp4
 70
     1
102
RTVSPropertyOp5
 70
     1
102
RTVSPropertyOp6
 70
     1
102
RTVSPropertyOp7
 70
     1
102
RTVSPropertyOp8
 70
     1
102
RTVSPropertyOp9
 70
     1
102
RTVSPropertyOp10
 70
     1
102
RTVSPropertyOp11
 70
     1
102
RTVSPropertyOp12
 70
     1
102
RTVSPropertyOp13
 70
     1
102
RTVSPropertyOp14
 70
     1
102
RTVSPropertyOp15
 70
     1
102
RTVSPropertyOp16
 70
     1
102
RTVSPropertyOp17
 70
     1
102
RTVSPropertyOp18
 70
     1
102
RTVSPropertyOp19
 70
     1
102
RTVSPropertyOp20
 70
     1
102
RTVSPropertyOp21
 70
     1
102
RTVSPropertyOp22
 70
     1
102
RTVSPropertyOp23
 70
     1
102
RTVSPropertyOp24
 70
     1
102
RTVSPropertyOp25
 70
     1
102
RTVSPropertyOp26
 70
     1
102
RTVSPropertyOp27
 70
     1
102
RTVSPropertyOp28
 70
     1
102
RTVSPropertyOp29
 70
     1
102
RTVSPropertyOp30
 70
     1
102
RTVSPropertyOp31
 70
     1
102
RTVSPropertyOp32
 70
     1
102
RTVSPropertyOp33
 70
     1
102
RTVSPropertyOp34
 70
     1
102
RTVSPropertyOp35
 70
     1
102
RTVSPropertyOp36
 70
     1
102
RTVSPropertyOp37
 70
     1
102
RTVSPropertyOp38
 70
     1
102
RTVSPropertyOp39
 70
     1
102
RTVSPropertyOp40
 70
     1
102
RTVSPropertyOp41
 70
     1
102
RTVSPropertyOp42
 70
     1
102
RTVSPropertyOp43
 70
     1
102
RTVSPropertyOp44
 70
     1
102
RTVSPropertyOp45
 70
     1
102
RTVSPropertyOp46
 70
     1
102
RTVSPropertyOp47
 70
     1
102
RTVSPropertyOp48
 70
     1
102
RTVSPropertyOp49
 70
     1
102
RTVSPropertyOp50
 70
     1
102
RTVSPropertyOp51
 70
     0
102
RTVSPropertyOp52
 70
     0
102
RTVSPropertyOp53
 70
     1
102
RTVSPropertyOp54
 70
     1
102
RTVSPropertyOp55
 70
     1
102
RTVSPropertyOp56
 70
     1
102
RTVSPropertyOp57
 70
     1
102
RTVSPropertyOp58
 70
     1
102
RTVSPropertyOp59
 70
     1
102
RTVSPropertyOp60
 70
     1
102
RTVSPropertyOp61
 70
     1
102
RTVSPropertyOp62
 70
     1
  0
XRECORD
  5
9F2B
102
{ACAD_REACTORS
330
9F2A
102
}
330
9F2A
100
AcDbXrecord
280
     1
102
RTVSPost2010Prop28
280
     0
102
RTVSPost2010PropOp28
 70
     1
102
RTVSPost2010Prop29
280
     1
102
RTVSPost2010PropOp29
 70
     1
102
RTVSPost2010Prop30
280
     1
102
RTVSPost2010PropOp30
 70
     1
102
RTVSPost2010Prop31
280
     0
102
RTVSPost2010PropOp31
 70
     1
102
RTVSPost2010Prop32
280
     0
102
RTVSPost2010PropOp32
 70
     1
102
RTVSPost2010Prop33
280
     0
102
RTVSPost2010PropOp33
 70
     1
102
RTVSPost2010Prop34
280
     0
102
RTVSPost2010PropOp34
 70
     1
102
RTVSPost2010Prop35
280
     0
102
RTVSPost2010PropOp35
 70
     1
102
RTVSPost2010Prop36
280
     0
102
RTVSPost2010PropOp36
 70
     1
102
RTVSPost2010Prop37
 90
       50
102
RTVSPost2010PropOp37
 70
     1
102
RTVSPost2010Prop38
140
0.0
102
RTVSPost2010PropOp38
 70
     1
102
RTVSPost2010Prop39
140
1.0
102
RTVSPost2010PropOp39
 70
     1
102
RTVSPost2010Prop40
 90
        0
102
RTVSPost2010PropOp40
 70
     1
102
RTVSPost2010Prop41ColorIndex
 90
       18
102
RTVSPost2010Prop41ColorRGB
 90
        0
102
RTVSPost2010PropOp41
 70
     1
102
RTVSPost2010Prop42
 90
       50
102
RTVSPost2010PropOp42
 70
     1
102
RTVSPost2010Prop43
 90
        3
102
RTVSPost2010PropOp43
 70
     1
102
RTVSPost2010Prop44ColorIndex
 90
        5
102
RTVSPost2010Prop44ColorRGB
 90
      255
102
RTVSPost2010PropOp44
 70
     1
102
RTVSPost2010Prop45
280
     0
102
RTVSPost2010PropOp45
 70
     1
102
RTVSPost2010Prop46
 90
       50
102
RTVSPost2010PropOp46
 70
     1
102
RTVSPost2010Prop47
 90
       50
102
RTVSPost2010PropOp47
 70
     1
102
RTVSPost2010Prop48
 90
       50
102
RTVSPost2010PropOp48
 70
     1
102
RTVSPost2010Prop49
280
     0
102
RTVSPost2010PropOp49
 70
     1
102
RTVSPost2010Prop50
 90
       50
102
RTVSPost2010PropOp50
 70
     1
102
RTVSPost2010Prop51ColorIndex
 90
      256
102
RTVSPost2010Prop51ColorRGB
 90
-16777216
102
RTVSPost2010PropOp51
 70
     0
102
RTVSPost2010Prop52
140
1.0
102
RTVSPost2010PropOp52
 70
     0
102
RTVSPost2010Prop53
 90
        2
102
RTVSPost2010PropOp53
 70
     1
102
RTVSPost2010Prop54
  1
strokes_ogs.tif
102
RTVSPost2010PropOp54
 70
     1
102
RTVSPost2010Prop55
280
     0
102
RTVSPost2010PropOp55
 70
     1
102
RTVSPost2010Prop56
140
1.0
102
RTVSPost2010PropOp56
 70
     1
102
RTVSPost2010Prop57
140
1.0
102
RTVSPost2010PropOp57
 70
     1
102
RTVSPropertyOp0
 70
     1
102
RTVSPropertyOp1
 70
     1
102
RTVSPropertyOp2
 70
     1
102
RTVSPropertyOp3
 70
     1
102
RTVSPropertyOp4
 70
     1
102
RTVSPropertyOp5
 70
     1
102
RTVSPropertyOp6
 70
     1
102
RTVSPropertyOp7
 70
     1
102
RTVSPropertyOp8
 70
     1
102
RTVSPropertyOp9
 70
     1
102
RTVSPropertyOp10
 70
     1
102
RTVSPropertyOp11
 70
     1
102
RTVSPropertyOp12
 70
     1
102
RTVSPropertyOp13
 70
     1
102
RTVSPropertyOp14
 70
     1
102
RTVSPropertyOp15
 70
     1
102
RTVSPropertyOp16
 70
     1
102
RTVSPropertyOp17
 70
     1
102
RTVSPropertyOp18
 70
     1
102
RTVSPropertyOp19
 70
     1
102
RTVSPropertyOp20
 70
     1
102
RTVSPropertyOp21
 70
     1
102
RTVSPropertyOp22
 70
     1
102
RTVSPropertyOp23
 70
     1
102
RTVSPropertyOp24
 70
     1
102
RTVSPropertyOp25
 70
     1
102
RTVSPropertyOp26
 70
     1
102
RTVSPropertyOp27
 70
     1
102
RTVSPropertyOp28
 70
     1
102
RTVSPropertyOp29
 70
     1
102
RTVSPropertyOp30
 70
     1
102
RTVSPropertyOp31
 70
     1
102
RTVSPropertyOp32
 70
     1
102
RTVSPropertyOp33
 70
     1
102
RTVSPropertyOp34
 70
     1
102
RTVSPropertyOp35
 70
     1
102
RTVSPropertyOp36
 70
     1
102
RTVSPropertyOp37
 70
     1
102
RTVSPropertyOp38
 70
     1
102
RTVSPropertyOp39
 70
     1
102
RTVSPropertyOp40
 70
     1
102
RTVSPropertyOp41
 70
     1
102
RTVSPropertyOp42
 70
     1
102
RTVSPropertyOp43
 70
     1
102
RTVSPropertyOp44
 70
     1
102
RTVSPropertyOp45
 70
     1
102
RTVSPropertyOp46
 70
     1
102
RTVSPropertyOp47
 70
     1
102
RTVSPropertyOp48
 70
     1
102
RTVSPropertyOp49
 70
     1
102
RTVSPropertyOp50
 70
     1
102
RTVSPropertyOp51
 70
     0
102
RTVSPropertyOp52
 70
     0
102
RTVSPropertyOp53
 70
     1
102
RTVSPropertyOp54
 70
     1
102
RTVSPropertyOp55
 70
     1
102
RTVSPropertyOp56
 70
     1
102
RTVSPropertyOp57
 70
     1
102
RTVSPropertyOp58
 70
     1
102
RTVSPropertyOp59
 70
     1
102
RTVSPropertyOp60
 70
     1
102
RTVSPropertyOp61
 70
     1
102
RTVSPropertyOp62
 70
     1
  0
XRECORD
  5
9F2D
102
{ACAD_REACTORS
330
9F2C
102
}
330
9F2C
100
AcDbXrecord
280
     1
102
RTVSPost2010Prop28
280
     0
102
RTVSPost2010PropOp28
 70
     1
102
RTVSPost2010Prop29
280
     1
102
RTVSPost2010PropOp29
 70
     1
102
RTVSPost2010Prop30
280
     1
102
RTVSPost2010PropOp30
 70
     1
102
RTVSPost2010Prop31
280
     0
102
RTVSPost2010PropOp31
 70
     1
102
RTVSPost2010Prop32
280
     0
102
RTVSPost2010PropOp32
 70
     1
102
RTVSPost2010Prop33
280
     0
102
RTVSPost2010PropOp33
 70
     1
102
RTVSPost2010Prop34
280
     0
102
RTVSPost2010PropOp34
 70
     1
102
RTVSPost2010Prop35
280
     0
102
RTVSPost2010PropOp35
 70
     1
102
RTVSPost2010Prop36
280
     0
102
RTVSPost2010PropOp36
 70
     1
102
RTVSPost2010Prop37
 90
       50
102
RTVSPost2010PropOp37
 70
     1
102
RTVSPost2010Prop38
140
0.0
102
RTVSPost2010PropOp38
 70
     1
102
RTVSPost2010Prop39
140
1.0
102
RTVSPost2010PropOp39
 70
     1
102
RTVSPost2010Prop40
 90
        0
102
RTVSPost2010PropOp40
 70
     1
102
RTVSPost2010Prop41ColorIndex
 90
       18
102
RTVSPost2010Prop41ColorRGB
 90
        0
102
RTVSPost2010PropOp41
 70
     1
102
RTVSPost2010Prop42
 90
       50
102
RTVSPost2010PropOp42
 70
     1
102
RTVSPost2010Prop43
 90
        3
102
RTVSPost2010PropOp43
 70
     1
102
RTVSPost2010Prop44ColorIndex
 90
        5
102
RTVSPost2010Prop44ColorRGB
 90
      255
102
RTVSPost2010PropOp44
 70
     1
102
RTVSPost2010Prop45
280
     0
102
RTVSPost2010PropOp45
 70
     1
102
RTVSPost2010Prop46
 90
       50
102
RTVSPost2010PropOp46
 70
     1
102
RTVSPost2010Prop47
 90
       50
102
RTVSPost2010PropOp47
 70
     1
102
RTVSPost2010Prop48
 90
       50
102
RTVSPost2010PropOp48
 70
     1
102
RTVSPost2010Prop49
280
     0
102
RTVSPost2010PropOp49
 70
     1
102
RTVSPost2010Prop50
 90
       50
102
RTVSPost2010PropOp50
 70
     1
102
RTVSPost2010Prop51ColorIndex
 90
      256
102
RTVSPost2010Prop51ColorRGB
 90
-16777216
102
RTVSPost2010PropOp51
 70
     0
102
RTVSPost2010Prop52
140
1.0
102
RTVSPost2010PropOp52
 70
     0
102
RTVSPost2010Prop53
 90
        2
102
RTVSPost2010PropOp53
 70
     1
102
RTVSPost2010Prop54
  1
strokes_ogs.tif
102
RTVSPost2010PropOp54
 70
     1
102
RTVSPost2010Prop55
280
     0
102
RTVSPost2010PropOp55
 70
     1
102
RTVSPost2010Prop56
140
1.0
102
RTVSPost2010PropOp56
 70
     1
102
RTVSPost2010Prop57
140
1.0
102
RTVSPost2010PropOp57
 70
     1
102
RTVSPropertyOp0
 70
     1
102
RTVSPropertyOp1
 70
     1
102
RTVSPropertyOp2
 70
     1
102
RTVSPropertyOp3
 70
     1
102
RTVSPropertyOp4
 70
     1
102
RTVSPropertyOp5
 70
     1
102
RTVSPropertyOp6
 70
     1
102
RTVSPropertyOp7
 70
     1
102
RTVSPropertyOp8
 70
     1
102
RTVSPropertyOp9
 70
     1
102
RTVSPropertyOp10
 70
     1
102
RTVSPropertyOp11
 70
     1
102
RTVSPropertyOp12
 70
     1
102
RTVSPropertyOp13
 70
     1
102
RTVSPropertyOp14
 70
     1
102
RTVSPropertyOp15
 70
     1
102
RTVSPropertyOp16
 70
     1
102
RTVSPropertyOp17
 70
     1
102
RTVSPropertyOp18
 70
     1
102
RTVSPropertyOp19
 70
     1
102
RTVSPropertyOp20
 70
     1
102
RTVSPropertyOp21
 70
     1
102
RTVSPropertyOp22
 70
     1
102
RTVSPropertyOp23
 70
     1
102
RTVSPropertyOp24
 70
     1
102
RTVSPropertyOp25
 70
     1
102
RTVSPropertyOp26
 70
     1
102
RTVSPropertyOp27
 70
     1
102
RTVSPropertyOp28
 70
     1
102
RTVSPropertyOp29
 70
     1
102
RTVSPropertyOp30
 70
     1
102
RTVSPropertyOp31
 70
     1
102
RTVSPropertyOp32
 70
     1
102
RTVSPropertyOp33
 70
     1
102
RTVSPropertyOp34
 70
     1
102
RTVSPropertyOp35
 70
     1
102
RTVSPropertyOp36
 70
     1
102
RTVSPropertyOp37
 70
     1
102
RTVSPropertyOp38
 70
     1
102
RTVSPropertyOp39
 70
     1
102
RTVSPropertyOp40
 70
     1
102
RTVSPropertyOp41
 70
     1
102
RTVSPropertyOp42
 70
     1
102
RTVSPropertyOp43
 70
     1
102
RTVSPropertyOp44
 70
     1
102
RTVSPropertyOp45
 70
     1
102
RTVSPropertyOp46
 70
     1
102
RTVSPropertyOp47
 70
     1
102
RTVSPropertyOp48
 70
     1
102
RTVSPropertyOp49
 70
     1
102
RTVSPropertyOp50
 70
     1
102
RTVSPropertyOp51
 70
     0
102
RTVSPropertyOp52
 70
     0
102
RTVSPropertyOp53
 70
     1
102
RTVSPropertyOp54
 70
     1
102
RTVSPropertyOp55
 70
     1
102
RTVSPropertyOp56
 70
     1
102
RTVSPropertyOp57
 70
     1
102
RTVSPropertyOp58
 70
     1
102
RTVSPropertyOp59
 70
     1
102
RTVSPropertyOp60
 70
     1
102
RTVSPropertyOp61
 70
     1
102
RTVSPropertyOp62
 70
     1
  0
XRECORD
  5
9F2F
102
{ACAD_REACTORS
330
9F2E
102
}
330
9F2E
100
AcDbXrecord
280
     1
102
RTVSPost2010Prop28
280
     0
102
RTVSPost2010PropOp28
 70
     1
102
RTVSPost2010Prop29
280
     1
102
RTVSPost2010PropOp29
 70
     1
102
RTVSPost2010Prop30
280
     1
102
RTVSPost2010PropOp30
 70
     1
102
RTVSPost2010Prop31
280
     0
102
RTVSPost2010PropOp31
 70
     1
102
RTVSPost2010Prop32
280
     0
102
RTVSPost2010PropOp32
 70
     1
102
RTVSPost2010Prop33
280
     0
102
RTVSPost2010PropOp33
 70
     1
102
RTVSPost2010Prop34
280
     0
102
RTVSPost2010PropOp34
 70
     1
102
RTVSPost2010Prop35
280
     0
102
RTVSPost2010PropOp35
 70
     1
102
RTVSPost2010Prop36
280
     0
102
RTVSPost2010PropOp36
 70
     1
102
RTVSPost2010Prop37
 90
       50
102
RTVSPost2010PropOp37
 70
     1
102
RTVSPost2010Prop38
140
0.0
102
RTVSPost2010PropOp38
 70
     1
102
RTVSPost2010Prop39
140
1.0
102
RTVSPost2010PropOp39
 70
     1
102
RTVSPost2010Prop40
 90
        0
102
RTVSPost2010PropOp40
 70
     1
102
RTVSPost2010Prop41ColorIndex
 90
       18
102
RTVSPost2010Prop41ColorRGB
 90
        0
102
RTVSPost2010PropOp41
 70
     1
102
RTVSPost2010Prop42
 90
       50
102
RTVSPost2010PropOp42
 70
     1
102
RTVSPost2010Prop43
 90
        3
102
RTVSPost2010PropOp43
 70
     1
102
RTVSPost2010Prop44ColorIndex
 90
        5
102
RTVSPost2010Prop44ColorRGB
 90
      255
102
RTVSPost2010PropOp44
 70
     1
102
RTVSPost2010Prop45
280
     0
102
RTVSPost2010PropOp45
 70
     1
102
RTVSPost2010Prop46
 90
       50
102
RTVSPost2010PropOp46
 70
     1
102
RTVSPost2010Prop47
 90
       50
102
RTVSPost2010PropOp47
 70
     1
102
RTVSPost2010Prop48
 90
       50
102
RTVSPost2010PropOp48
 70
     1
102
RTVSPost2010Prop49
280
     0
102
RTVSPost2010PropOp49
 70
     1
102
RTVSPost2010Prop50
 90
       50
102
RTVSPost2010PropOp50
 70
     1
102
RTVSPost2010Prop51ColorIndex
 90
      256
102
RTVSPost2010Prop51ColorRGB
 90
-16777216
102
RTVSPost2010PropOp51
 70
     0
102
RTVSPost2010Prop52
140
1.0
102
RTVSPost2010PropOp52
 70
     0
102
RTVSPost2010Prop53
 90
        2
102
RTVSPost2010PropOp53
 70
     1
102
RTVSPost2010Prop54
  1
strokes_ogs.tif
102
RTVSPost2010PropOp54
 70
     1
102
RTVSPost2010Prop55
280
     0
102
RTVSPost2010PropOp55
 70
     1
102
RTVSPost2010Prop56
140
1.0
102
RTVSPost2010PropOp56
 70
     1
102
RTVSPost2010Prop57
140
1.0
102
RTVSPost2010PropOp57
 70
     1
102
RTVSPropertyOp0
 70
     1
102
RTVSPropertyOp1
 70
     1
102
RTVSPropertyOp2
 70
     1
102
RTVSPropertyOp3
 70
     1
102
RTVSPropertyOp4
 70
     1
102
RTVSPropertyOp5
 70
     1
102
RTVSPropertyOp6
 70
     1
102
RTVSPropertyOp7
 70
     1
102
RTVSPropertyOp8
 70
     1
102
RTVSPropertyOp9
 70
     1
102
RTVSPropertyOp10
 70
     1
102
RTVSPropertyOp11
 70
     1
102
RTVSPropertyOp12
 70
     1
102
RTVSPropertyOp13
 70
     1
102
RTVSPropertyOp14
 70
     1
102
RTVSPropertyOp15
 70
     1
102
RTVSPropertyOp16
 70
     1
102
RTVSPropertyOp17
 70
     1
102
RTVSPropertyOp18
 70
     1
102
RTVSPropertyOp19
 70
     1
102
RTVSPropertyOp20
 70
     1
102
RTVSPropertyOp21
 70
     1
102
RTVSPropertyOp22
 70
     1
102
RTVSPropertyOp23
 70
     1
102
RTVSPropertyOp24
 70
     1
102
RTVSPropertyOp25
 70
     1
102
RTVSPropertyOp26
 70
     1
102
RTVSPropertyOp27
 70
     1
102
RTVSPropertyOp28
 70
     1
102
RTVSPropertyOp29
 70
     1
102
RTVSPropertyOp30
 70
     1
102
RTVSPropertyOp31
 70
     1
102
RTVSPropertyOp32
 70
     1
102
RTVSPropertyOp33
 70
     1
102
RTVSPropertyOp34
 70
     1
102
RTVSPropertyOp35
 70
     1
102
RTVSPropertyOp36
 70
     1
102
RTVSPropertyOp37
 70
     1
102
RTVSPropertyOp38
 70
     1
102
RTVSPropertyOp39
 70
     1
102
RTVSPropertyOp40
 70
     1
102
RTVSPropertyOp41
 70
     1
102
RTVSPropertyOp42
 70
     1
102
RTVSPropertyOp43
 70
     1
102
RTVSPropertyOp44
 70
     1
102
RTVSPropertyOp45
 70
     1
102
RTVSPropertyOp46
 70
     1
102
RTVSPropertyOp47
 70
     1
102
RTVSPropertyOp48
 70
     1
102
RTVSPropertyOp49
 70
     1
102
RTVSPropertyOp50
 70
     1
102
RTVSPropertyOp51
 70
     0
102
RTVSPropertyOp52
 70
     0
102
RTVSPropertyOp53
 70
     1
102
RTVSPropertyOp54
 70
     1
102
RTVSPropertyOp55
 70
     1
102
RTVSPropertyOp56
 70
     1
102
RTVSPropertyOp57
 70
     1
102
RTVSPropertyOp58
 70
     1
102
RTVSPropertyOp59
 70
     1
102
RTVSPropertyOp60
 70
     1
102
RTVSPropertyOp61
 70
     1
102
RTVSPropertyOp62
 70
     1
  0
XRECORD
  5
9F37
102
{ACAD_REACTORS
330
9F36
102
}
330
9F36
100
AcDbXrecord
280
     1
102
RTVSPost2010Prop28
280
     0
102
RTVSPost2010PropOp28
 70
     1
102
RTVSPost2010Prop29
280
     1
102
RTVSPost2010PropOp29
 70
     1
102
RTVSPost2010Prop30
280
     1
102
RTVSPost2010PropOp30
 70
     1
102
RTVSPost2010Prop31
280
     0
102
RTVSPost2010PropOp31
 70
     1
102
RTVSPost2010Prop32
280
     0
102
RTVSPost2010PropOp32
 70
     1
102
RTVSPost2010Prop33
280
     0
102
RTVSPost2010PropOp33
 70
     1
102
RTVSPost2010Prop34
280
     0
102
RTVSPost2010PropOp34
 70
     1
102
RTVSPost2010Prop35
280
     0
102
RTVSPost2010PropOp35
 70
     1
102
RTVSPost2010Prop36
280
     0
102
RTVSPost2010PropOp36
 70
     1
102
RTVSPost2010Prop37
 90
       50
102
RTVSPost2010PropOp37
 70
     1
102
RTVSPost2010Prop38
140
0.0
102
RTVSPost2010PropOp38
 70
     1
102
RTVSPost2010Prop39
140
1.0
102
RTVSPost2010PropOp39
 70
     1
102
RTVSPost2010Prop40
 90
        0
102
RTVSPost2010PropOp40
 70
     1
102
RTVSPost2010Prop41ColorIndex
 90
       18
102
RTVSPost2010Prop41ColorRGB
 90
        0
102
RTVSPost2010PropOp41
 70
     1
102
RTVSPost2010Prop42
 90
       50
102
RTVSPost2010PropOp42
 70
     1
102
RTVSPost2010Prop43
 90
        3
102
RTVSPost2010PropOp43
 70
     1
102
RTVSPost2010Prop44ColorIndex
 90
        5
102
RTVSPost2010Prop44ColorRGB
 90
      255
102
RTVSPost2010PropOp44
 70
     1
102
RTVSPost2010Prop45
280
     0
102
RTVSPost2010PropOp45
 70
     1
102
RTVSPost2010Prop46
 90
       50
102
RTVSPost2010PropOp46
 70
     1
102
RTVSPost2010Prop47
 90
       50
102
RTVSPost2010PropOp47
 70
     1
102
RTVSPost2010Prop48
 90
       50
102
RTVSPost2010PropOp48
 70
     1
102
RTVSPost2010Prop49
280
     0
102
RTVSPost2010PropOp49
 70
     1
102
RTVSPost2010Prop50
 90
       50
102
RTVSPost2010PropOp50
 70
     1
102
RTVSPost2010Prop51ColorIndex
 90
      256
102
RTVSPost2010Prop51ColorRGB
 90
-16777216
102
RTVSPost2010PropOp51
 70
     0
102
RTVSPost2010Prop52
140
1.0
102
RTVSPost2010PropOp52
 70
     0
102
RTVSPost2010Prop53
 90
        2
102
RTVSPost2010PropOp53
 70
     1
102
RTVSPost2010Prop54
  1
strokes_ogs.tif
102
RTVSPost2010PropOp54
 70
     1
102
RTVSPost2010Prop55
280
     0
102
RTVSPost2010PropOp55
 70
     1
102
RTVSPost2010Prop56
140
1.0
102
RTVSPost2010PropOp56
 70
     1
102
RTVSPost2010Prop57
140
1.0
102
RTVSPost2010PropOp57
 70
     1
102
RTVSPropertyOp0
 70
     1
102
RTVSPropertyOp1
 70
     1
102
RTVSPropertyOp2
 70
     1
102
RTVSPropertyOp3
 70
     1
102
RTVSPropertyOp4
 70
     1
102
RTVSPropertyOp5
 70
     1
102
RTVSPropertyOp6
 70
     1
102
RTVSPropertyOp7
 70
     1
102
RTVSPropertyOp8
 70
     1
102
RTVSPropertyOp9
 70
     1
102
RTVSPropertyOp10
 70
     1
102
RTVSPropertyOp11
 70
     1
102
RTVSPropertyOp12
 70
     1
102
RTVSPropertyOp13
 70
     1
102
RTVSPropertyOp14
 70
     1
102
RTVSPropertyOp15
 70
     1
102
RTVSPropertyOp16
 70
     1
102
RTVSPropertyOp17
 70
     1
102
RTVSPropertyOp18
 70
     1
102
RTVSPropertyOp19
 70
     1
102
RTVSPropertyOp20
 70
     1
102
RTVSPropertyOp21
 70
     1
102
RTVSPropertyOp22
 70
     1
102
RTVSPropertyOp23
 70
     1
102
RTVSPropertyOp24
 70
     1
102
RTVSPropertyOp25
 70
     1
102
RTVSPropertyOp26
 70
     1
102
RTVSPropertyOp27
 70
     1
102
RTVSPropertyOp28
 70
     1
102
RTVSPropertyOp29
 70
     1
102
RTVSPropertyOp30
 70
     1
102
RTVSPropertyOp31
 70
     1
102
RTVSPropertyOp32
 70
     1
102
RTVSPropertyOp33
 70
     1
102
RTVSPropertyOp34
 70
     1
102
RTVSPropertyOp35
 70
     1
102
RTVSPropertyOp36
 70
     1
102
RTVSPropertyOp37
 70
     1
102
RTVSPropertyOp38
 70
     1
102
RTVSPropertyOp39
 70
     1
102
RTVSPropertyOp40
 70
     1
102
RTVSPropertyOp41
 70
     1
102
RTVSPropertyOp42
 70
     1
102
RTVSPropertyOp43
 70
     1
102
RTVSPropertyOp44
 70
     1
102
RTVSPropertyOp45
 70
     1
102
RTVSPropertyOp46
 70
     1
102
RTVSPropertyOp47
 70
     1
102
RTVSPropertyOp48
 70
     1
102
RTVSPropertyOp49
 70
     1
102
RTVSPropertyOp50
 70
     1
102
RTVSPropertyOp51
 70
     0
102
RTVSPropertyOp52
 70
     0
102
RTVSPropertyOp53
 70
     1
102
RTVSPropertyOp54
 70
     1
102
RTVSPropertyOp55
 70
     1
102
RTVSPropertyOp56
 70
     1
102
RTVSPropertyOp57
 70
     1
102
RTVSPropertyOp58
 70
     1
102
RTVSPropertyOp59
 70
     1
102
RTVSPropertyOp60
 70
     1
102
RTVSPropertyOp61
 70
     1
102
RTVSPropertyOp62
 70
     1
  0
XRECORD
  5
9F53
102
{ACAD_REACTORS
330
9F52
102
}
330
9F52
100
AcDbXrecord
280
     1
102
RTVSPost2010Prop28
280
     0
102
RTVSPost2010PropOp28
 70
     1
102
RTVSPost2010Prop29
280
     1
102
RTVSPost2010PropOp29
 70
     1
102
RTVSPost2010Prop30
280
     1
102
RTVSPost2010PropOp30
 70
     1
102
RTVSPost2010Prop31
280
     0
102
RTVSPost2010PropOp31
 70
     1
102
RTVSPost2010Prop32
280
     0
102
RTVSPost2010PropOp32
 70
     1
102
RTVSPost2010Prop33
280
     0
102
RTVSPost2010PropOp33
 70
     1
102
RTVSPost2010Prop34
280
     0
102
RTVSPost2010PropOp34
 70
     1
102
RTVSPost2010Prop35
280
     0
102
RTVSPost2010PropOp35
 70
     1
102
RTVSPost2010Prop36
280
     0
102
RTVSPost2010PropOp36
 70
     1
102
RTVSPost2010Prop37
 90
       50
102
RTVSPost2010PropOp37
 70
     0
102
RTVSPost2010Prop38
140
0.0
102
RTVSPost2010PropOp38
 70
     0
102
RTVSPost2010Prop39
140
1.0
102
RTVSPost2010PropOp39
 70
     0
102
RTVSPost2010Prop40
 90
        0
102
RTVSPost2010PropOp40
 70
     0
102
RTVSPost2010Prop41ColorIndex
 90
       18
102
RTVSPost2010Prop41ColorRGB
 90
        0
102
RTVSPost2010PropOp41
 70
     0
102
RTVSPost2010Prop42
 90
       50
102
RTVSPost2010PropOp42
 70
     0
102
RTVSPost2010Prop43
 90
        3
102
RTVSPost2010PropOp43
 70
     0
102
RTVSPost2010Prop44ColorIndex
 90
        5
102
RTVSPost2010Prop44ColorRGB
 90
      255
102
RTVSPost2010PropOp44
 70
     0
102
RTVSPost2010Prop45
280
     0
102
RTVSPost2010PropOp45
 70
     1
102
RTVSPost2010Prop46
 90
       50
102
RTVSPost2010PropOp46
 70
     0
102
RTVSPost2010Prop47
 90
       50
102
RTVSPost2010PropOp47
 70
     0
102
RTVSPost2010Prop48
 90
       50
102
RTVSPost2010PropOp48
 70
     0
102
RTVSPost2010Prop49
280
     0
102
RTVSPost2010PropOp49
 70
     1
102
RTVSPost2010Prop50
 90
       50
102
RTVSPost2010PropOp50
 70
     0
102
RTVSPost2010Prop51ColorIndex
 90
      256
102
RTVSPost2010Prop51ColorRGB
 90
-16777216
102
RTVSPost2010PropOp51
 70
     0
102
RTVSPost2010Prop52
140
1.0
102
RTVSPost2010PropOp52
 70
     0
102
RTVSPost2010Prop53
 90
        2
102
RTVSPost2010PropOp53
 70
     0
102
RTVSPost2010Prop54
  1
strokes_ogs.tif
102
RTVSPost2010PropOp54
 70
     0
102
RTVSPost2010Prop55
280
     0
102
RTVSPost2010PropOp55
 70
     1
102
RTVSPost2010Prop56
140
1.0
102
RTVSPost2010PropOp56
 70
     0
102
RTVSPost2010Prop57
140
1.0
102
RTVSPost2010PropOp57
 70
     0
102
RTVSPropertyOp0
 70
     0
102
RTVSPropertyOp1
 70
     0
102
RTVSPropertyOp2
 70
     0
102
RTVSPropertyOp3
 70
     0
102
RTVSPropertyOp4
 70
     0
102
RTVSPropertyOp5
 70
     0
102
RTVSPropertyOp6
 70
     0
102
RTVSPropertyOp7
 70
     0
102
RTVSPropertyOp8
 70
     0
102
RTVSPropertyOp9
 70
     0
102
RTVSPropertyOp10
 70
     0
102
RTVSPropertyOp11
 70
     0
102
RTVSPropertyOp12
 70
     0
102
RTVSPropertyOp13
 70
     0
102
RTVSPropertyOp14
 70
     2
102
RTVSPropertyOp15
 70
     0
102
RTVSPropertyOp16
 70
     0
102
RTVSPropertyOp17
 70
     0
102
RTVSPropertyOp18
 70
     0
102
RTVSPropertyOp19
 70
     0
102
RTVSPropertyOp20
 70
     0
102
RTVSPropertyOp21
 70
     0
102
RTVSPropertyOp22
 70
     0
102
RTVSPropertyOp23
 70
     0
102
RTVSPropertyOp24
 70
     0
102
RTVSPropertyOp25
 70
     0
102
RTVSPropertyOp26
 70
     0
102
RTVSPropertyOp27
 70
     0
102
RTVSPropertyOp28
 70
     1
102
RTVSPropertyOp29
 70
     1
102
RTVSPropertyOp30
 70
     1
102
RTVSPropertyOp31
 70
     1
102
RTVSPropertyOp32
 70
     1
102
RTVSPropertyOp33
 70
     1
102
RTVSPropertyOp34
 70
     1
102
RTVSPropertyOp35
 70
     1
102
RTVSPropertyOp36
 70
     1
102
RTVSPropertyOp37
 70
     0
102
RTVSPropertyOp38
 70
     0
102
RTVSPropertyOp39
 70
     0
102
RTVSPropertyOp40
 70
     0
102
RTVSPropertyOp41
 70
     0
102
RTVSPropertyOp42
 70
     0
102
RTVSPropertyOp43
 70
     0
102
RTVSPropertyOp44
 70
     0
102
RTVSPropertyOp45
 70
     1
102
RTVSPropertyOp46
 70
     0
102
RTVSPropertyOp47
 70
     0
102
RTVSPropertyOp48
 70
     0
102
RTVSPropertyOp49
 70
     1
102
RTVSPropertyOp50
 70
     0
102
RTVSPropertyOp51
 70
     0
102
RTVSPropertyOp52
 70
     0
102
RTVSPropertyOp53
 70
     0
102
RTVSPropertyOp54
 70
     0
102
RTVSPropertyOp55
 70
     1
102
RTVSPropertyOp56
 70
     0
102
RTVSPropertyOp57
 70
     0
102
RTVSPropertyOp58
 70
     0
102
RTVSPropertyOp59
 70
     0
102
RTVSPropertyOp60
 70
     0
102
RTVSPropertyOp61
 70
     0
102
RTVSPropertyOp62
 70
     0
  0
XRECORD
  5
9F43
102
{ACAD_REACTORS
330
9F42
102
}
330
9F42
100
AcDbXrecord
280
     1
102
RTVSPost2010Prop28
280
     0
102
RTVSPost2010PropOp28
 70
     1
102
RTVSPost2010Prop29
280
     1
102
RTVSPost2010PropOp29
 70
     1
102
RTVSPost2010Prop30
280
     1
102
RTVSPost2010PropOp30
 70
     1
102
RTVSPost2010Prop31
280
     0
102
RTVSPost2010PropOp31
 70
     1
102
RTVSPost2010Prop32
280
     0
102
RTVSPost2010PropOp32
 70
     1
102
RTVSPost2010Prop33
280
     0
102
RTVSPost2010PropOp33
 70
     1
102
RTVSPost2010Prop34
280
     0
102
RTVSPost2010PropOp34
 70
     1
102
RTVSPost2010Prop35
280
     0
102
RTVSPost2010PropOp35
 70
     1
102
RTVSPost2010Prop36
280
     0
102
RTVSPost2010PropOp36
 70
     1
102
RTVSPost2010Prop37
 90
       50
102
RTVSPost2010PropOp37
 70
     1
102
RTVSPost2010Prop38
140
0.0
102
RTVSPost2010PropOp38
 70
     1
102
RTVSPost2010Prop39
140
1.0
102
RTVSPost2010PropOp39
 70
     1
102
RTVSPost2010Prop40
 90
        0
102
RTVSPost2010PropOp40
 70
     1
102
RTVSPost2010Prop41ColorIndex
 90
       18
102
RTVSPost2010Prop41ColorRGB
 90
        0
102
RTVSPost2010PropOp41
 70
     1
102
RTVSPost2010Prop42
 90
       50
102
RTVSPost2010PropOp42
 70
     1
102
RTVSPost2010Prop43
 90
        3
102
RTVSPost2010PropOp43
 70
     1
102
RTVSPost2010Prop44ColorIndex
 90
        5
102
RTVSPost2010Prop44ColorRGB
 90
      255
102
RTVSPost2010PropOp44
 70
     1
102
RTVSPost2010Prop45
280
     0
102
RTVSPost2010PropOp45
 70
     1
102
RTVSPost2010Prop46
 90
       50
102
RTVSPost2010PropOp46
 70
     1
102
RTVSPost2010Prop47
 90
       50
102
RTVSPost2010PropOp47
 70
     1
102
RTVSPost2010Prop48
 90
       50
102
RTVSPost2010PropOp48
 70
     1
102
RTVSPost2010Prop49
280
     0
102
RTVSPost2010PropOp49
 70
     1
102
RTVSPost2010Prop50
 90
       50
102
RTVSPost2010PropOp50
 70
     1
102
RTVSPost2010Prop51ColorIndex
 90
      256
102
RTVSPost2010Prop51ColorRGB
 90
-16777216
102
RTVSPost2010PropOp51
 70
     0
102
RTVSPost2010Prop52
140
1.0
102
RTVSPost2010PropOp52
 70
     0
102
RTVSPost2010Prop53
 90
        2
102
RTVSPost2010PropOp53
 70
     1
102
RTVSPost2010Prop54
  1
strokes_ogs.tif
102
RTVSPost2010PropOp54
 70
     1
102
RTVSPost2010Prop55
280
     0
102
RTVSPost2010PropOp55
 70
     1
102
RTVSPost2010Prop56
140
1.0
102
RTVSPost2010PropOp56
 70
     1
102
RTVSPost2010Prop57
140
1.0
102
RTVSPost2010PropOp57
 70
     1
102
RTVSPropertyOp0
 70
     1
102
RTVSPropertyOp1
 70
     1
102
RTVSPropertyOp2
 70
     1
102
RTVSPropertyOp3
 70
     1
102
RTVSPropertyOp4
 70
     1
102
RTVSPropertyOp5
 70
     1
102
RTVSPropertyOp6
 70
     1
102
RTVSPropertyOp7
 70
     1
102
RTVSPropertyOp8
 70
     1
102
RTVSPropertyOp9
 70
     1
102
RTVSPropertyOp10
 70
     1
102
RTVSPropertyOp11
 70
     1
102
RTVSPropertyOp12
 70
     1
102
RTVSPropertyOp13
 70
     1
102
RTVSPropertyOp14
 70
     1
102
RTVSPropertyOp15
 70
     1
102
RTVSPropertyOp16
 70
     1
102
RTVSPropertyOp17
 70
     1
102
RTVSPropertyOp18
 70
     1
102
RTVSPropertyOp19
 70
     1
102
RTVSPropertyOp20
 70
     1
102
RTVSPropertyOp21
 70
     1
102
RTVSPropertyOp22
 70
     1
102
RTVSPropertyOp23
 70
     1
102
RTVSPropertyOp24
 70
     1
102
RTVSPropertyOp25
 70
     1
102
RTVSPropertyOp26
 70
     1
102
RTVSPropertyOp27
 70
     1
102
RTVSPropertyOp28
 70
     1
102
RTVSPropertyOp29
 70
     1
102
RTVSPropertyOp30
 70
     1
102
RTVSPropertyOp31
 70
     1
102
RTVSPropertyOp32
 70
     1
102
RTVSPropertyOp33
 70
     1
102
RTVSPropertyOp34
 70
     1
102
RTVSPropertyOp35
 70
     1
102
RTVSPropertyOp36
 70
     1
102
RTVSPropertyOp37
 70
     1
102
RTVSPropertyOp38
 70
     1
102
RTVSPropertyOp39
 70
     1
102
RTVSPropertyOp40
 70
     1
102
RTVSPropertyOp41
 70
     1
102
RTVSPropertyOp42
 70
     1
102
RTVSPropertyOp43
 70
     1
102
RTVSPropertyOp44
 70
     1
102
RTVSPropertyOp45
 70
     1
102
RTVSPropertyOp46
 70
     1
102
RTVSPropertyOp47
 70
     1
102
RTVSPropertyOp48
 70
     1
102
RTVSPropertyOp49
 70
     1
102
RTVSPropertyOp50
 70
     1
102
RTVSPropertyOp51
 70
     0
102
RTVSPropertyOp52
 70
     0
102
RTVSPropertyOp53
 70
     1
102
RTVSPropertyOp54
 70
     1
102
RTVSPropertyOp55
 70
     1
102
RTVSPropertyOp56
 70
     1
102
RTVSPropertyOp57
 70
     1
102
RTVSPropertyOp58
 70
     1
102
RTVSPropertyOp59
 70
     1
102
RTVSPropertyOp60
 70
     1
102
RTVSPropertyOp61
 70
     1
102
RTVSPropertyOp62
 70
     1
  0
XRECORD
  5
9F55
102
{ACAD_REACTORS
330
9F54
102
}
330
9F54
100
AcDbXrecord
280
     1
102
RTVSPost2010Prop28
280
     0
102
RTVSPost2010PropOp28
 70
     1
102
RTVSPost2010Prop29
280
     1
102
RTVSPost2010PropOp29
 70
     1
102
RTVSPost2010Prop30
280
     1
102
RTVSPost2010PropOp30
 70
     1
102
RTVSPost2010Prop31
280
     0
102
RTVSPost2010PropOp31
 70
     1
102
RTVSPost2010Prop32
280
     0
102
RTVSPost2010PropOp32
 70
     1
102
RTVSPost2010Prop33
280
     0
102
RTVSPost2010PropOp33
 70
     1
102
RTVSPost2010Prop34
280
     0
102
RTVSPost2010PropOp34
 70
     1
102
RTVSPost2010Prop35
280
     0
102
RTVSPost2010PropOp35
 70
     1
102
RTVSPost2010Prop36
280
     0
102
RTVSPost2010PropOp36
 70
     1
102
RTVSPost2010Prop37
 90
       50
102
RTVSPost2010PropOp37
 70
     0
102
RTVSPost2010Prop38
140
0.0
102
RTVSPost2010PropOp38
 70
     0
102
RTVSPost2010Prop39
140
1.0
102
RTVSPost2010PropOp39
 70
     0
102
RTVSPost2010Prop40
 90
        0
102
RTVSPost2010PropOp40
 70
     0
102
RTVSPost2010Prop41ColorIndex
 90
       18
102
RTVSPost2010Prop41ColorRGB
 90
        0
102
RTVSPost2010PropOp41
 70
     0
102
RTVSPost2010Prop42
 90
       50
102
RTVSPost2010PropOp42
 70
     0
102
RTVSPost2010Prop43
 90
        3
102
RTVSPost2010PropOp43
 70
     0
102
RTVSPost2010Prop44ColorIndex
 90
        5
102
RTVSPost2010Prop44ColorRGB
 90
      255
102
RTVSPost2010PropOp44
 70
     0
102
RTVSPost2010Prop45
280
     0
102
RTVSPost2010PropOp45
 70
     1
102
RTVSPost2010Prop46
 90
       50
102
RTVSPost2010PropOp46
 70
     0
102
RTVSPost2010Prop47
 90
       50
102
RTVSPost2010PropOp47
 70
     0
102
RTVSPost2010Prop48
 90
       50
102
RTVSPost2010PropOp48
 70
     0
102
RTVSPost2010Prop49
280
     0
102
RTVSPost2010PropOp49
 70
     1
102
RTVSPost2010Prop50
 90
       50
102
RTVSPost2010PropOp50
 70
     0
102
RTVSPost2010Prop51ColorIndex
 90
      256
102
RTVSPost2010Prop51ColorRGB
 90
-16777216
102
RTVSPost2010PropOp51
 70
     0
102
RTVSPost2010Prop52
140
1.0
102
RTVSPost2010PropOp52
 70
     0
102
RTVSPost2010Prop53
 90
        2
102
RTVSPost2010PropOp53
 70
     0
102
RTVSPost2010Prop54
  1
strokes_ogs.tif
102
RTVSPost2010PropOp54
 70
     0
102
RTVSPost2010Prop55
280
     0
102
RTVSPost2010PropOp55
 70
     1
102
RTVSPost2010Prop56
140
1.0
102
RTVSPost2010PropOp56
 70
     0
102
RTVSPost2010Prop57
140
1.0
102
RTVSPost2010PropOp57
 70
     0
102
RTVSPropertyOp0
 70
     0
102
RTVSPropertyOp1
 70
     0
102
RTVSPropertyOp2
 70
     0
102
RTVSPropertyOp3
 70
     0
102
RTVSPropertyOp4
 70
     0
102
RTVSPropertyOp5
 70
     0
102
RTVSPropertyOp6
 70
     0
102
RTVSPropertyOp7
 70
     0
102
RTVSPropertyOp8
 70
     0
102
RTVSPropertyOp9
 70
     0
102
RTVSPropertyOp10
 70
     0
102
RTVSPropertyOp11
 70
     0
102
RTVSPropertyOp12
 70
     0
102
RTVSPropertyOp13
 70
     0
102
RTVSPropertyOp14
 70
     2
102
RTVSPropertyOp15
 70
     0
102
RTVSPropertyOp16
 70
     0
102
RTVSPropertyOp17
 70
     0
102
RTVSPropertyOp18
 70
     0
102
RTVSPropertyOp19
 70
     0
102
RTVSPropertyOp20
 70
     0
102
RTVSPropertyOp21
 70
     0
102
RTVSPropertyOp22
 70
     0
102
RTVSPropertyOp23
 70
     0
102
RTVSPropertyOp24
 70
     0
102
RTVSPropertyOp25
 70
     0
102
RTVSPropertyOp26
 70
     0
102
RTVSPropertyOp27
 70
     0
102
RTVSPropertyOp28
 70
     1
102
RTVSPropertyOp29
 70
     1
102
RTVSPropertyOp30
 70
     1
102
RTVSPropertyOp31
 70
     1
102
RTVSPropertyOp32
 70
     1
102
RTVSPropertyOp33
 70
     1
102
RTVSPropertyOp34
 70
     1
102
RTVSPropertyOp35
 70
     1
102
RTVSPropertyOp36
 70
     1
102
RTVSPropertyOp37
 70
     0
102
RTVSPropertyOp38
 70
     0
102
RTVSPropertyOp39
 70
     0
102
RTVSPropertyOp40
 70
     0
102
RTVSPropertyOp41
 70
     0
102
RTVSPropertyOp42
 70
     0
102
RTVSPropertyOp43
 70
     0
102
RTVSPropertyOp44
 70
     0
102
RTVSPropertyOp45
 70
     1
102
RTVSPropertyOp46
 70
     0
102
RTVSPropertyOp47
 70
     0
102
RTVSPropertyOp48
 70
     0
102
RTVSPropertyOp49
 70
     1
102
RTVSPropertyOp50
 70
     0
102
RTVSPropertyOp51
 70
     0
102
RTVSPropertyOp52
 70
     0
102
RTVSPropertyOp53
 70
     0
102
RTVSPropertyOp54
 70
     0
102
RTVSPropertyOp55
 70
     1
102
RTVSPropertyOp56
 70
     0
102
RTVSPropertyOp57
 70
     0
102
RTVSPropertyOp58
 70
     0
102
RTVSPropertyOp59
 70
     0
102
RTVSPropertyOp60
 70
     0
102
RTVSPropertyOp61
 70
     0
102
RTVSPropertyOp62
 70
     0
  0
XRECORD
  5
9F3B
102
{ACAD_REACTORS
330
9F3A
102
}
330
9F3A
100
AcDbXrecord
280
     1
102
RTVSPost2010Prop28
280
     0
102
RTVSPost2010PropOp28
 70
     1
102
RTVSPost2010Prop29
280
     1
102
RTVSPost2010PropOp29
 70
     1
102
RTVSPost2010Prop30
280
     1
102
RTVSPost2010PropOp30
 70
     1
102
RTVSPost2010Prop31
280
     0
102
RTVSPost2010PropOp31
 70
     1
102
RTVSPost2010Prop32
280
     0
102
RTVSPost2010PropOp32
 70
     1
102
RTVSPost2010Prop33
280
     0
102
RTVSPost2010PropOp33
 70
     1
102
RTVSPost2010Prop34
280
     0
102
RTVSPost2010PropOp34
 70
     1
102
RTVSPost2010Prop35
280
     0
102
RTVSPost2010PropOp35
 70
     1
102
RTVSPost2010Prop36
280
     0
102
RTVSPost2010PropOp36
 70
     1
102
RTVSPost2010Prop37
 90
       50
102
RTVSPost2010PropOp37
 70
     1
102
RTVSPost2010Prop38
140
0.0
102
RTVSPost2010PropOp38
 70
     1
102
RTVSPost2010Prop39
140
1.0
102
RTVSPost2010PropOp39
 70
     1
102
RTVSPost2010Prop40
 90
        0
102
RTVSPost2010PropOp40
 70
     1
102
RTVSPost2010Prop41ColorIndex
 90
       18
102
RTVSPost2010Prop41ColorRGB
 90
        0
102
RTVSPost2010PropOp41
 70
     1
102
RTVSPost2010Prop42
 90
       50
102
RTVSPost2010PropOp42
 70
     1
102
RTVSPost2010Prop43
 90
        3
102
RTVSPost2010PropOp43
 70
     1
102
RTVSPost2010Prop44ColorIndex
 90
        5
102
RTVSPost2010Prop44ColorRGB
 90
      255
102
RTVSPost2010PropOp44
 70
     1
102
RTVSPost2010Prop45
280
     0
102
RTVSPost2010PropOp45
 70
     1
102
RTVSPost2010Prop46
 90
       50
102
RTVSPost2010PropOp46
 70
     1
102
RTVSPost2010Prop47
 90
       50
102
RTVSPost2010PropOp47
 70
     1
102
RTVSPost2010Prop48
 90
       50
102
RTVSPost2010PropOp48
 70
     1
102
RTVSPost2010Prop49
280
     0
102
RTVSPost2010PropOp49
 70
     1
102
RTVSPost2010Prop50
 90
       50
102
RTVSPost2010PropOp50
 70
     1
102
RTVSPost2010Prop51ColorIndex
 90
      256
102
RTVSPost2010Prop51ColorRGB
 90
-16777216
102
RTVSPost2010PropOp51
 70
     0
102
RTVSPost2010Prop52
140
1.0
102
RTVSPost2010PropOp52
 70
     0
102
RTVSPost2010Prop53
 90
        2
102
RTVSPost2010PropOp53
 70
     1
102
RTVSPost2010Prop54
  1
strokes_ogs.tif
102
RTVSPost2010PropOp54
 70
     1
102
RTVSPost2010Prop55
280
     0
102
RTVSPost2010PropOp55
 70
     1
102
RTVSPost2010Prop56
140
1.0
102
RTVSPost2010PropOp56
 70
     1
102
RTVSPost2010Prop57
140
1.0
102
RTVSPost2010PropOp57
 70
     1
102
RTVSPropertyOp0
 70
     1
102
RTVSPropertyOp1
 70
     1
102
RTVSPropertyOp2
 70
     1
102
RTVSPropertyOp3
 70
     1
102
RTVSPropertyOp4
 70
     1
102
RTVSPropertyOp5
 70
     1
102
RTVSPropertyOp6
 70
     1
102
RTVSPropertyOp7
 70
     1
102
RTVSPropertyOp8
 70
     1
102
RTVSPropertyOp9
 70
     1
102
RTVSPropertyOp10
 70
     1
102
RTVSPropertyOp11
 70
     1
102
RTVSPropertyOp12
 70
     1
102
RTVSPropertyOp13
 70
     1
102
RTVSPropertyOp14
 70
     1
102
RTVSPropertyOp15
 70
     1
102
RTVSPropertyOp16
 70
     1
102
RTVSPropertyOp17
 70
     1
102
RTVSPropertyOp18
 70
     1
102
RTVSPropertyOp19
 70
     1
102
RTVSPropertyOp20
 70
     1
102
RTVSPropertyOp21
 70
     1
102
RTVSPropertyOp22
 70
     1
102
RTVSPropertyOp23
 70
     1
102
RTVSPropertyOp24
 70
     1
102
RTVSPropertyOp25
 70
     1
102
RTVSPropertyOp26
 70
     1
102
RTVSPropertyOp27
 70
     1
102
RTVSPropertyOp28
 70
     1
102
RTVSPropertyOp29
 70
     1
102
RTVSPropertyOp30
 70
     1
102
RTVSPropertyOp31
 70
     1
102
RTVSPropertyOp32
 70
     1
102
RTVSPropertyOp33
 70
     1
102
RTVSPropertyOp34
 70
     1
102
RTVSPropertyOp35
 70
     1
102
RTVSPropertyOp36
 70
     1
102
RTVSPropertyOp37
 70
     1
102
RTVSPropertyOp38
 70
     1
102
RTVSPropertyOp39
 70
     1
102
RTVSPropertyOp40
 70
     1
102
RTVSPropertyOp41
 70
     1
102
RTVSPropertyOp42
 70
     1
102
RTVSPropertyOp43
 70
     1
102
RTVSPropertyOp44
 70
     1
102
RTVSPropertyOp45
 70
     1
102
RTVSPropertyOp46
 70
     1
102
RTVSPropertyOp47
 70
     1
102
RTVSPropertyOp48
 70
     1
102
RTVSPropertyOp49
 70
     1
102
RTVSPropertyOp50
 70
     1
102
RTVSPropertyOp51
 70
     0
102
RTVSPropertyOp52
 70
     0
102
RTVSPropertyOp53
 70
     1
102
RTVSPropertyOp54
 70
     1
102
RTVSPropertyOp55
 70
     1
102
RTVSPropertyOp56
 70
     1
102
RTVSPropertyOp57
 70
     1
102
RTVSPropertyOp58
 70
     1
102
RTVSPropertyOp59
 70
     1
102
RTVSPropertyOp60
 70
     1
102
RTVSPropertyOp61
 70
     1
102
RTVSPropertyOp62
 70
     1
  0
XRECORD
  5
9F51
102
{ACAD_REACTORS
330
9F50
102
}
330
9F50
100
AcDbXrecord
280
     1
102
RTVSPost2010Prop28
280
     0
102
RTVSPost2010PropOp28
 70
     1
102
RTVSPost2010Prop29
280
     1
102
RTVSPost2010PropOp29
 70
     1
102
RTVSPost2010Prop30
280
     1
102
RTVSPost2010PropOp30
 70
     1
102
RTVSPost2010Prop31
280
     0
102
RTVSPost2010PropOp31
 70
     1
102
RTVSPost2010Prop32
280
     0
102
RTVSPost2010PropOp32
 70
     1
102
RTVSPost2010Prop33
280
     0
102
RTVSPost2010PropOp33
 70
     1
102
RTVSPost2010Prop34
280
     0
102
RTVSPost2010PropOp34
 70
     1
102
RTVSPost2010Prop35
280
     0
102
RTVSPost2010PropOp35
 70
     1
102
RTVSPost2010Prop36
280
     0
102
RTVSPost2010PropOp36
 70
     1
102
RTVSPost2010Prop37
 90
       50
102
RTVSPost2010PropOp37
 70
     1
102
RTVSPost2010Prop38
140
0.0
102
RTVSPost2010PropOp38
 70
     1
102
RTVSPost2010Prop39
140
1.0
102
RTVSPost2010PropOp39
 70
     1
102
RTVSPost2010Prop40
 90
        0
102
RTVSPost2010PropOp40
 70
     1
102
RTVSPost2010Prop41ColorIndex
 90
       18
102
RTVSPost2010Prop41ColorRGB
 90
        0
102
RTVSPost2010PropOp41
 70
     1
102
RTVSPost2010Prop42
 90
       50
102
RTVSPost2010PropOp42
 70
     1
102
RTVSPost2010Prop43
 90
        3
102
RTVSPost2010PropOp43
 70
     1
102
RTVSPost2010Prop44ColorIndex
 90
        5
102
RTVSPost2010Prop44ColorRGB
 90
      255
102
RTVSPost2010PropOp44
 70
     1
102
RTVSPost2010Prop45
280
     0
102
RTVSPost2010PropOp45
 70
     1
102
RTVSPost2010Prop46
 90
       50
102
RTVSPost2010PropOp46
 70
     1
102
RTVSPost2010Prop47
 90
       50
102
RTVSPost2010PropOp47
 70
     1
102
RTVSPost2010Prop48
 90
       50
102
RTVSPost2010PropOp48
 70
     1
102
RTVSPost2010Prop49
280
     0
102
RTVSPost2010PropOp49
 70
     1
102
RTVSPost2010Prop50
 90
       50
102
RTVSPost2010PropOp50
 70
     1
102
RTVSPost2010Prop51ColorIndex
 90
      256
102
RTVSPost2010Prop51ColorRGB
 90
-16777216
102
RTVSPost2010PropOp51
 70
     0
102
RTVSPost2010Prop52
140
1.0
102
RTVSPost2010PropOp52
 70
     0
102
RTVSPost2010Prop53
 90
        2
102
RTVSPost2010PropOp53
 70
     1
102
RTVSPost2010Prop54
  1
strokes_ogs.tif
102
RTVSPost2010PropOp54
 70
     1
102
RTVSPost2010Prop55
280
     0
102
RTVSPost2010PropOp55
 70
     1
102
RTVSPost2010Prop56
140
1.0
102
RTVSPost2010PropOp56
 70
     1
102
RTVSPost2010Prop57
140
1.0
102
RTVSPost2010PropOp57
 70
     1
102
RTVSPropertyOp0
 70
     1
102
RTVSPropertyOp1
 70
     1
102
RTVSPropertyOp2
 70
     1
102
RTVSPropertyOp3
 70
     1
102
RTVSPropertyOp4
 70
     1
102
RTVSPropertyOp5
 70
     1
102
RTVSPropertyOp6
 70
     1
102
RTVSPropertyOp7
 70
     1
102
RTVSPropertyOp8
 70
     1
102
RTVSPropertyOp9
 70
     1
102
RTVSPropertyOp10
 70
     1
102
RTVSPropertyOp11
 70
     1
102
RTVSPropertyOp12
 70
     1
102
RTVSPropertyOp13
 70
     1
102
RTVSPropertyOp14
 70
     1
102
RTVSPropertyOp15
 70
     1
102
RTVSPropertyOp16
 70
     1
102
RTVSPropertyOp17
 70
     1
102
RTVSPropertyOp18
 70
     1
102
RTVSPropertyOp19
 70
     1
102
RTVSPropertyOp20
 70
     1
102
RTVSPropertyOp21
 70
     1
102
RTVSPropertyOp22
 70
     1
102
RTVSPropertyOp23
 70
     1
102
RTVSPropertyOp24
 70
     1
102
RTVSPropertyOp25
 70
     1
102
RTVSPropertyOp26
 70
     1
102
RTVSPropertyOp27
 70
     1
102
RTVSPropertyOp28
 70
     1
102
RTVSPropertyOp29
 70
     1
102
RTVSPropertyOp30
 70
     1
102
RTVSPropertyOp31
 70
     1
102
RTVSPropertyOp32
 70
     1
102
RTVSPropertyOp33
 70
     1
102
RTVSPropertyOp34
 70
     1
102
RTVSPropertyOp35
 70
     1
102
RTVSPropertyOp36
 70
     1
102
RTVSPropertyOp37
 70
     1
102
RTVSPropertyOp38
 70
     1
102
RTVSPropertyOp39
 70
     1
102
RTVSPropertyOp40
 70
     1
102
RTVSPropertyOp41
 70
     1
102
RTVSPropertyOp42
 70
     1
102
RTVSPropertyOp43
 70
     1
102
RTVSPropertyOp44
 70
     1
102
RTVSPropertyOp45
 70
     1
102
RTVSPropertyOp46
 70
     1
102
RTVSPropertyOp47
 70
     1
102
RTVSPropertyOp48
 70
     1
102
RTVSPropertyOp49
 70
     1
102
RTVSPropertyOp50
 70
     1
102
RTVSPropertyOp51
 70
     0
102
RTVSPropertyOp52
 70
     0
102
RTVSPropertyOp53
 70
     1
102
RTVSPropertyOp54
 70
     1
102
RTVSPropertyOp55
 70
     1
102
RTVSPropertyOp56
 70
     1
102
RTVSPropertyOp57
 70
     1
102
RTVSPropertyOp58
 70
     1
102
RTVSPropertyOp59
 70
     1
102
RTVSPropertyOp60
 70
     1
102
RTVSPropertyOp61
 70
     1
102
RTVSPropertyOp62
 70
     1
  0
XRECORD
  5
9F4F
102
{ACAD_REACTORS
330
9F4E
102
}
330
9F4E
100
AcDbXrecord
280
     1
102
RTVSPost2010Prop28
280
     0
102
RTVSPost2010PropOp28
 70
     1
102
RTVSPost2010Prop29
280
     1
102
RTVSPost2010PropOp29
 70
     1
102
RTVSPost2010Prop30
280
     1
102
RTVSPost2010PropOp30
 70
     1
102
RTVSPost2010Prop31
280
     0
102
RTVSPost2010PropOp31
 70
     1
102
RTVSPost2010Prop32
280
     0
102
RTVSPost2010PropOp32
 70
     1
102
RTVSPost2010Prop33
280
     0
102
RTVSPost2010PropOp33
 70
     1
102
RTVSPost2010Prop34
280
     0
102
RTVSPost2010PropOp34
 70
     1
102
RTVSPost2010Prop35
280
     0
102
RTVSPost2010PropOp35
 70
     1
102
RTVSPost2010Prop36
280
     0
102
RTVSPost2010PropOp36
 70
     1
102
RTVSPost2010Prop37
 90
       50
102
RTVSPost2010PropOp37
 70
     1
102
RTVSPost2010Prop38
140
0.0
102
RTVSPost2010PropOp38
 70
     1
102
RTVSPost2010Prop39
140
1.0
102
RTVSPost2010PropOp39
 70
     1
102
RTVSPost2010Prop40
 90
        0
102
RTVSPost2010PropOp40
 70
     1
102
RTVSPost2010Prop41ColorIndex
 90
       18
102
RTVSPost2010Prop41ColorRGB
 90
        0
102
RTVSPost2010PropOp41
 70
     1
102
RTVSPost2010Prop42
 90
       50
102
RTVSPost2010PropOp42
 70
     1
102
RTVSPost2010Prop43
 90
        3
102
RTVSPost2010PropOp43
 70
     1
102
RTVSPost2010Prop44ColorIndex
 90
        5
102
RTVSPost2010Prop44ColorRGB
 90
      255
102
RTVSPost2010PropOp44
 70
     1
102
RTVSPost2010Prop45
280
     0
102
RTVSPost2010PropOp45
 70
     1
102
RTVSPost2010Prop46
 90
       50
102
RTVSPost2010PropOp46
 70
     1
102
RTVSPost2010Prop47
 90
       50
102
RTVSPost2010PropOp47
 70
     1
102
RTVSPost2010Prop48
 90
       50
102
RTVSPost2010PropOp48
 70
     1
102
RTVSPost2010Prop49
280
     0
102
RTVSPost2010PropOp49
 70
     1
102
RTVSPost2010Prop50
 90
       50
102
RTVSPost2010PropOp50
 70
     1
102
RTVSPost2010Prop51ColorIndex
 90
      256
102
RTVSPost2010Prop51ColorRGB
 90
-16777216
102
RTVSPost2010PropOp51
 70
     0
102
RTVSPost2010Prop52
140
1.0
102
RTVSPost2010PropOp52
 70
     0
102
RTVSPost2010Prop53
 90
        2
102
RTVSPost2010PropOp53
 70
     1
102
RTVSPost2010Prop54
  1
strokes_ogs.tif
102
RTVSPost2010PropOp54
 70
     1
102
RTVSPost2010Prop55
280
     0
102
RTVSPost2010PropOp55
 70
     1
102
RTVSPost2010Prop56
140
1.0
102
RTVSPost2010PropOp56
 70
     1
102
RTVSPost2010Prop57
140
1.0
102
RTVSPost2010PropOp57
 70
     1
102
RTVSPropertyOp0
 70
     1
102
RTVSPropertyOp1
 70
     1
102
RTVSPropertyOp2
 70
     1
102
RTVSPropertyOp3
 70
     1
102
RTVSPropertyOp4
 70
     1
102
RTVSPropertyOp5
 70
     1
102
RTVSPropertyOp6
 70
     1
102
RTVSPropertyOp7
 70
     1
102
RTVSPropertyOp8
 70
     1
102
RTVSPropertyOp9
 70
     1
102
RTVSPropertyOp10
 70
     1
102
RTVSPropertyOp11
 70
     1
102
RTVSPropertyOp12
 70
     1
102
RTVSPropertyOp13
 70
     1
102
RTVSPropertyOp14
 70
     1
102
RTVSPropertyOp15
 70
     1
102
RTVSPropertyOp16
 70
     1
102
RTVSPropertyOp17
 70
     1
102
RTVSPropertyOp18
 70
     1
102
RTVSPropertyOp19
 70
     1
102
RTVSPropertyOp20
 70
     1
102
RTVSPropertyOp21
 70
     1
102
RTVSPropertyOp22
 70
     1
102
RTVSPropertyOp23
 70
     1
102
RTVSPropertyOp24
 70
     1
102
RTVSPropertyOp25
 70
     1
102
RTVSPropertyOp26
 70
     1
102
RTVSPropertyOp27
 70
     1
102
RTVSPropertyOp28
 70
     1
102
RTVSPropertyOp29
 70
     1
102
RTVSPropertyOp30
 70
     1
102
RTVSPropertyOp31
 70
     1
102
RTVSPropertyOp32
 70
     1
102
RTVSPropertyOp33
 70
     1
102
RTVSPropertyOp34
 70
     1
102
RTVSPropertyOp35
 70
     1
102
RTVSPropertyOp36
 70
     1
102
RTVSPropertyOp37
 70
     1
102
RTVSPropertyOp38
 70
     1
102
RTVSPropertyOp39
 70
     1
102
RTVSPropertyOp40
 70
     1
102
RTVSPropertyOp41
 70
     1
102
RTVSPropertyOp42
 70
     1
102
RTVSPropertyOp43
 70
     1
102
RTVSPropertyOp44
 70
     1
102
RTVSPropertyOp45
 70
     1
102
RTVSPropertyOp46
 70
     1
102
RTVSPropertyOp47
 70
     1
102
RTVSPropertyOp48
 70
     1
102
RTVSPropertyOp49
 70
     1
102
RTVSPropertyOp50
 70
     1
102
RTVSPropertyOp51
 70
     0
102
RTVSPropertyOp52
 70
     0
102
RTVSPropertyOp53
 70
     1
102
RTVSPropertyOp54
 70
     1
102
RTVSPropertyOp55
 70
     1
102
RTVSPropertyOp56
 70
     1
102
RTVSPropertyOp57
 70
     1
102
RTVSPropertyOp58
 70
     1
102
RTVSPropertyOp59
 70
     1
102
RTVSPropertyOp60
 70
     1
102
RTVSPropertyOp61
 70
     1
102
RTVSPropertyOp62
 70
     1
  0
XRECORD
  5
9F49
102
{ACAD_REACTORS
330
9F48
102
}
330
9F48
100
AcDbXrecord
280
     1
102
RTVSPost2010Prop28
280
     0
102
RTVSPost2010PropOp28
 70
     1
102
RTVSPost2010Prop29
280
     1
102
RTVSPost2010PropOp29
 70
     1
102
RTVSPost2010Prop30
280
     1
102
RTVSPost2010PropOp30
 70
     1
102
RTVSPost2010Prop31
280
     0
102
RTVSPost2010PropOp31
 70
     1
102
RTVSPost2010Prop32
280
     0
102
RTVSPost2010PropOp32
 70
     1
102
RTVSPost2010Prop33
280
     0
102
RTVSPost2010PropOp33
 70
     1
102
RTVSPost2010Prop34
280
     0
102
RTVSPost2010PropOp34
 70
     1
102
RTVSPost2010Prop35
280
     0
102
RTVSPost2010PropOp35
 70
     1
102
RTVSPost2010Prop36
280
     0
102
RTVSPost2010PropOp36
 70
     1
102
RTVSPost2010Prop37
 90
       50
102
RTVSPost2010PropOp37
 70
     1
102
RTVSPost2010Prop38
140
0.0
102
RTVSPost2010PropOp38
 70
     1
102
RTVSPost2010Prop39
140
1.0
102
RTVSPost2010PropOp39
 70
     1
102
RTVSPost2010Prop40
 90
        0
102
RTVSPost2010PropOp40
 70
     1
102
RTVSPost2010Prop41ColorIndex
 90
       18
102
RTVSPost2010Prop41ColorRGB
 90
        0
102
RTVSPost2010PropOp41
 70
     1
102
RTVSPost2010Prop42
 90
       50
102
RTVSPost2010PropOp42
 70
     1
102
RTVSPost2010Prop43
 90
        3
102
RTVSPost2010PropOp43
 70
     1
102
RTVSPost2010Prop44ColorIndex
 90
        5
102
RTVSPost2010Prop44ColorRGB
 90
      255
102
RTVSPost2010PropOp44
 70
     1
102
RTVSPost2010Prop45
280
     0
102
RTVSPost2010PropOp45
 70
     1
102
RTVSPost2010Prop46
 90
       50
102
RTVSPost2010PropOp46
 70
     1
102
RTVSPost2010Prop47
 90
       50
102
RTVSPost2010PropOp47
 70
     1
102
RTVSPost2010Prop48
 90
       50
102
RTVSPost2010PropOp48
 70
     1
102
RTVSPost2010Prop49
280
     0
102
RTVSPost2010PropOp49
 70
     1
102
RTVSPost2010Prop50
 90
       50
102
RTVSPost2010PropOp50
 70
     1
102
RTVSPost2010Prop51ColorIndex
 90
      256
102
RTVSPost2010Prop51ColorRGB
 90
-16777216
102
RTVSPost2010PropOp51
 70
     0
102
RTVSPost2010Prop52
140
1.0
102
RTVSPost2010PropOp52
 70
     0
102
RTVSPost2010Prop53
 90
        2
102
RTVSPost2010PropOp53
 70
     1
102
RTVSPost2010Prop54
  1
strokes_ogs.tif
102
RTVSPost2010PropOp54
 70
     1
102
RTVSPost2010Prop55
280
     0
102
RTVSPost2010PropOp55
 70
     1
102
RTVSPost2010Prop56
140
1.0
102
RTVSPost2010PropOp56
 70
     1
102
RTVSPost2010Prop57
140
1.0
102
RTVSPost2010PropOp57
 70
     1
102
RTVSPropertyOp0
 70
     1
102
RTVSPropertyOp1
 70
     1
102
RTVSPropertyOp2
 70
     1
102
RTVSPropertyOp3
 70
     1
102
RTVSPropertyOp4
 70
     1
102
RTVSPropertyOp5
 70
     1
102
RTVSPropertyOp6
 70
     1
102
RTVSPropertyOp7
 70
     1
102
RTVSPropertyOp8
 70
     1
102
RTVSPropertyOp9
 70
     1
102
RTVSPropertyOp10
 70
     1
102
RTVSPropertyOp11
 70
     1
102
RTVSPropertyOp12
 70
     1
102
RTVSPropertyOp13
 70
     1
102
RTVSPropertyOp14
 70
     1
102
RTVSPropertyOp15
 70
     1
102
RTVSPropertyOp16
 70
     1
102
RTVSPropertyOp17
 70
     1
102
RTVSPropertyOp18
 70
     1
102
RTVSPropertyOp19
 70
     1
102
RTVSPropertyOp20
 70
     1
102
RTVSPropertyOp21
 70
     1
102
RTVSPropertyOp22
 70
     1
102
RTVSPropertyOp23
 70
     1
102
RTVSPropertyOp24
 70
     1
102
RTVSPropertyOp25
 70
     1
102
RTVSPropertyOp26
 70
     1
102
RTVSPropertyOp27
 70
     1
102
RTVSPropertyOp28
 70
     1
102
RTVSPropertyOp29
 70
     1
102
RTVSPropertyOp30
 70
     1
102
RTVSPropertyOp31
 70
     1
102
RTVSPropertyOp32
 70
     1
102
RTVSPropertyOp33
 70
     1
102
RTVSPropertyOp34
 70
     1
102
RTVSPropertyOp35
 70
     1
102
RTVSPropertyOp36
 70
     1
102
RTVSPropertyOp37
 70
     1
102
RTVSPropertyOp38
 70
     1
102
RTVSPropertyOp39
 70
     1
102
RTVSPropertyOp40
 70
     1
102
RTVSPropertyOp41
 70
     1
102
RTVSPropertyOp42
 70
     1
102
RTVSPropertyOp43
 70
     1
102
RTVSPropertyOp44
 70
     1
102
RTVSPropertyOp45
 70
     1
102
RTVSPropertyOp46
 70
     1
102
RTVSPropertyOp47
 70
     1
102
RTVSPropertyOp48
 70
     1
102
RTVSPropertyOp49
 70
     1
102
RTVSPropertyOp50
 70
     1
102
RTVSPropertyOp51
 70
     0
102
RTVSPropertyOp52
 70
     0
102
RTVSPropertyOp53
 70
     1
102
RTVSPropertyOp54
 70
     1
102
RTVSPropertyOp55
 70
     1
102
RTVSPropertyOp56
 70
     1
102
RTVSPropertyOp57
 70
     1
102
RTVSPropertyOp58
 70
     1
102
RTVSPropertyOp59
 70
     1
102
RTVSPropertyOp60
 70
     1
102
RTVSPropertyOp61
 70
     1
102
RTVSPropertyOp62
 70
     1
  0
XRECORD
  5
9F4B
102
{ACAD_REACTORS
330
9F4A
102
}
330
9F4A
100
AcDbXrecord
280
     1
102
RTVSPost2010Prop28
280
     0
102
RTVSPost2010PropOp28
 70
     1
102
RTVSPost2010Prop29
280
     1
102
RTVSPost2010PropOp29
 70
     1
102
RTVSPost2010Prop30
280
     1
102
RTVSPost2010PropOp30
 70
     1
102
RTVSPost2010Prop31
280
     0
102
RTVSPost2010PropOp31
 70
     1
102
RTVSPost2010Prop32
280
     0
102
RTVSPost2010PropOp32
 70
     1
102
RTVSPost2010Prop33
280
     0
102
RTVSPost2010PropOp33
 70
     1
102
RTVSPost2010Prop34
280
     0
102
RTVSPost2010PropOp34
 70
     1
102
RTVSPost2010Prop35
280
     0
102
RTVSPost2010PropOp35
 70
     1
102
RTVSPost2010Prop36
280
     0
102
RTVSPost2010PropOp36
 70
     1
102
RTVSPost2010Prop37
 90
       50
102
RTVSPost2010PropOp37
 70
     1
102
RTVSPost2010Prop38
140
0.0
102
RTVSPost2010PropOp38
 70
     1
102
RTVSPost2010Prop39
140
1.0
102
RTVSPost2010PropOp39
 70
     1
102
RTVSPost2010Prop40
 90
        0
102
RTVSPost2010PropOp40
 70
     1
102
RTVSPost2010Prop41ColorIndex
 90
       18
102
RTVSPost2010Prop41ColorRGB
 90
        0
102
RTVSPost2010PropOp41
 70
     1
102
RTVSPost2010Prop42
 90
       50
102
RTVSPost2010PropOp42
 70
     1
102
RTVSPost2010Prop43
 90
        3
102
RTVSPost2010PropOp43
 70
     1
102
RTVSPost2010Prop44ColorIndex
 90
        5
102
RTVSPost2010Prop44ColorRGB
 90
      255
102
RTVSPost2010PropOp44
 70
     1
102
RTVSPost2010Prop45
280
     0
102
RTVSPost2010PropOp45
 70
     1
102
RTVSPost2010Prop46
 90
       50
102
RTVSPost2010PropOp46
 70
     1
102
RTVSPost2010Prop47
 90
       50
102
RTVSPost2010PropOp47
 70
     1
102
RTVSPost2010Prop48
 90
       50
102
RTVSPost2010PropOp48
 70
     1
102
RTVSPost2010Prop49
280
     0
102
RTVSPost2010PropOp49
 70
     1
102
RTVSPost2010Prop50
 90
       50
102
RTVSPost2010PropOp50
 70
     1
102
RTVSPost2010Prop51ColorIndex
 90
      256
102
RTVSPost2010Prop51ColorRGB
 90
-16777216
102
RTVSPost2010PropOp51
 70
     0
102
RTVSPost2010Prop52
140
1.0
102
RTVSPost2010PropOp52
 70
     0
102
RTVSPost2010Prop53
 90
        2
102
RTVSPost2010PropOp53
 70
     1
102
RTVSPost2010Prop54
  1
strokes_ogs.tif
102
RTVSPost2010PropOp54
 70
     1
102
RTVSPost2010Prop55
280
     0
102
RTVSPost2010PropOp55
 70
     1
102
RTVSPost2010Prop56
140
1.0
102
RTVSPost2010PropOp56
 70
     1
102
RTVSPost2010Prop57
140
1.0
102
RTVSPost2010PropOp57
 70
     1
102
RTVSPropertyOp0
 70
     1
102
RTVSPropertyOp1
 70
     1
102
RTVSPropertyOp2
 70
     1
102
RTVSPropertyOp3
 70
     1
102
RTVSPropertyOp4
 70
     1
102
RTVSPropertyOp5
 70
     1
102
RTVSPropertyOp6
 70
     1
102
RTVSPropertyOp7
 70
     1
102
RTVSPropertyOp8
 70
     1
102
RTVSPropertyOp9
 70
     1
102
RTVSPropertyOp10
 70
     1
102
RTVSPropertyOp11
 70
     1
102
RTVSPropertyOp12
 70
     1
102
RTVSPropertyOp13
 70
     1
102
RTVSPropertyOp14
 70
     1
102
RTVSPropertyOp15
 70
     1
102
RTVSPropertyOp16
 70
     1
102
RTVSPropertyOp17
 70
     1
102
RTVSPropertyOp18
 70
     1
102
RTVSPropertyOp19
 70
     1
102
RTVSPropertyOp20
 70
     1
102
RTVSPropertyOp21
 70
     1
102
RTVSPropertyOp22
 70
     1
102
RTVSPropertyOp23
 70
     1
102
RTVSPropertyOp24
 70
     1
102
RTVSPropertyOp25
 70
     1
102
RTVSPropertyOp26
 70
     1
102
RTVSPropertyOp27
 70
     1
102
RTVSPropertyOp28
 70
     1
102
RTVSPropertyOp29
 70
     1
102
RTVSPropertyOp30
 70
     1
102
RTVSPropertyOp31
 70
     1
102
RTVSPropertyOp32
 70
     1
102
RTVSPropertyOp33
 70
     1
102
RTVSPropertyOp34
 70
     1
102
RTVSPropertyOp35
 70
     1
102
RTVSPropertyOp36
 70
     1
102
RTVSPropertyOp37
 70
     1
102
RTVSPropertyOp38
 70
     1
102
RTVSPropertyOp39
 70
     1
102
RTVSPropertyOp40
 70
     1
102
RTVSPropertyOp41
 70
     1
102
RTVSPropertyOp42
 70
     1
102
RTVSPropertyOp43
 70
     1
102
RTVSPropertyOp44
 70
     1
102
RTVSPropertyOp45
 70
     1
102
RTVSPropertyOp46
 70
     1
102
RTVSPropertyOp47
 70
     1
102
RTVSPropertyOp48
 70
     1
102
RTVSPropertyOp49
 70
     1
102
RTVSPropertyOp50
 70
     1
102
RTVSPropertyOp51
 70
     0
102
RTVSPropertyOp52
 70
     0
102
RTVSPropertyOp53
 70
     1
102
RTVSPropertyOp54
 70
     1
102
RTVSPropertyOp55
 70
     1
102
RTVSPropertyOp56
 70
     1
102
RTVSPropertyOp57
 70
     1
102
RTVSPropertyOp58
 70
     1
102
RTVSPropertyOp59
 70
     1
102
RTVSPropertyOp60
 70
     1
102
RTVSPropertyOp61
 70
     1
102
RTVSPropertyOp62
 70
     1
  0
XRECORD
  5
9F41
102
{ACAD_REACTORS
330
9F40
102
}
330
9F40
100
AcDbXrecord
280
     1
102
RTVSPost2010Prop28
280
     0
102
RTVSPost2010PropOp28
 70
     1
102
RTVSPost2010Prop29
280
     1
102
RTVSPost2010PropOp29
 70
     1
102
RTVSPost2010Prop30
280
     1
102
RTVSPost2010PropOp30
 70
     1
102
RTVSPost2010Prop31
280
     0
102
RTVSPost2010PropOp31
 70
     1
102
RTVSPost2010Prop32
280
     0
102
RTVSPost2010PropOp32
 70
     1
102
RTVSPost2010Prop33
280
     0
102
RTVSPost2010PropOp33
 70
     1
102
RTVSPost2010Prop34
280
     0
102
RTVSPost2010PropOp34
 70
     1
102
RTVSPost2010Prop35
280
     0
102
RTVSPost2010PropOp35
 70
     1
102
RTVSPost2010Prop36
280
     0
102
RTVSPost2010PropOp36
 70
     1
102
RTVSPost2010Prop37
 90
       50
102
RTVSPost2010PropOp37
 70
     1
102
RTVSPost2010Prop38
140
0.0
102
RTVSPost2010PropOp38
 70
     1
102
RTVSPost2010Prop39
140
1.0
102
RTVSPost2010PropOp39
 70
     1
102
RTVSPost2010Prop40
 90
        0
102
RTVSPost2010PropOp40
 70
     1
102
RTVSPost2010Prop41ColorIndex
 90
       18
102
RTVSPost2010Prop41ColorRGB
 90
        0
102
RTVSPost2010PropOp41
 70
     1
102
RTVSPost2010Prop42
 90
       50
102
RTVSPost2010PropOp42
 70
     1
102
RTVSPost2010Prop43
 90
        3
102
RTVSPost2010PropOp43
 70
     1
102
RTVSPost2010Prop44ColorIndex
 90
        5
102
RTVSPost2010Prop44ColorRGB
 90
      255
102
RTVSPost2010PropOp44
 70
     1
102
RTVSPost2010Prop45
280
     0
102
RTVSPost2010PropOp45
 70
     1
102
RTVSPost2010Prop46
 90
       50
102
RTVSPost2010PropOp46
 70
     1
102
RTVSPost2010Prop47
 90
       50
102
RTVSPost2010PropOp47
 70
     1
102
RTVSPost2010Prop48
 90
       50
102
RTVSPost2010PropOp48
 70
     1
102
RTVSPost2010Prop49
280
     0
102
RTVSPost2010PropOp49
 70
     1
102
RTVSPost2010Prop50
 90
       50
102
RTVSPost2010PropOp50
 70
     1
102
RTVSPost2010Prop51ColorIndex
 90
      256
102
RTVSPost2010Prop51ColorRGB
 90
-16777216
102
RTVSPost2010PropOp51
 70
     0
102
RTVSPost2010Prop52
140
1.0
102
RTVSPost2010PropOp52
 70
     0
102
RTVSPost2010Prop53
 90
        2
102
RTVSPost2010PropOp53
 70
     1
102
RTVSPost2010Prop54
  1
strokes_ogs.tif
102
RTVSPost2010PropOp54
 70
     1
102
RTVSPost2010Prop55
280
     0
102
RTVSPost2010PropOp55
 70
     1
102
RTVSPost2010Prop56
140
1.0
102
RTVSPost2010PropOp56
 70
     1
102
RTVSPost2010Prop57
140
1.0
102
RTVSPost2010PropOp57
 70
     1
102
RTVSPropertyOp0
 70
     1
102
RTVSPropertyOp1
 70
     1
102
RTVSPropertyOp2
 70
     1
102
RTVSPropertyOp3
 70
     1
102
RTVSPropertyOp4
 70
     1
102
RTVSPropertyOp5
 70
     1
102
RTVSPropertyOp6
 70
     1
102
RTVSPropertyOp7
 70
     1
102
RTVSPropertyOp8
 70
     1
102
RTVSPropertyOp9
 70
     1
102
RTVSPropertyOp10
 70
     1
102
RTVSPropertyOp11
 70
     1
102
RTVSPropertyOp12
 70
     1
102
RTVSPropertyOp13
 70
     1
102
RTVSPropertyOp14
 70
     1
102
RTVSPropertyOp15
 70
     1
102
RTVSPropertyOp16
 70
     1
102
RTVSPropertyOp17
 70
     1
102
RTVSPropertyOp18
 70
     1
102
RTVSPropertyOp19
 70
     1
102
RTVSPropertyOp20
 70
     1
102
RTVSPropertyOp21
 70
     1
102
RTVSPropertyOp22
 70
     1
102
RTVSPropertyOp23
 70
     1
102
RTVSPropertyOp24
 70
     1
102
RTVSPropertyOp25
 70
     1
102
RTVSPropertyOp26
 70
     1
102
RTVSPropertyOp27
 70
     1
102
RTVSPropertyOp28
 70
     1
102
RTVSPropertyOp29
 70
     1
102
RTVSPropertyOp30
 70
     1
102
RTVSPropertyOp31
 70
     1
102
RTVSPropertyOp32
 70
     1
102
RTVSPropertyOp33
 70
     1
102
RTVSPropertyOp34
 70
     1
102
RTVSPropertyOp35
 70
     1
102
RTVSPropertyOp36
 70
     1
102
RTVSPropertyOp37
 70
     1
102
RTVSPropertyOp38
 70
     1
102
RTVSPropertyOp39
 70
     1
102
RTVSPropertyOp40
 70
     1
102
RTVSPropertyOp41
 70
     1
102
RTVSPropertyOp42
 70
     1
102
RTVSPropertyOp43
 70
     1
102
RTVSPropertyOp44
 70
     1
102
RTVSPropertyOp45
 70
     1
102
RTVSPropertyOp46
 70
     1
102
RTVSPropertyOp47
 70
     1
102
RTVSPropertyOp48
 70
     1
102
RTVSPropertyOp49
 70
     1
102
RTVSPropertyOp50
 70
     1
102
RTVSPropertyOp51
 70
     0
102
RTVSPropertyOp52
 70
     0
102
RTVSPropertyOp53
 70
     1
102
RTVSPropertyOp54
 70
     1
102
RTVSPropertyOp55
 70
     1
102
RTVSPropertyOp56
 70
     1
102
RTVSPropertyOp57
 70
     1
102
RTVSPropertyOp58
 70
     1
102
RTVSPropertyOp59
 70
     1
102
RTVSPropertyOp60
 70
     1
102
RTVSPropertyOp61
 70
     1
102
RTVSPropertyOp62
 70
     1
  0
XRECORD
  5
9F35
102
{ACAD_REACTORS
330
9F34
102
}
330
9F34
100
AcDbXrecord
280
     1
102
RTVSPost2010Prop28
280
     0
102
RTVSPost2010PropOp28
 70
     1
102
RTVSPost2010Prop29
280
     1
102
RTVSPost2010PropOp29
 70
     1
102
RTVSPost2010Prop30
280
     1
102
RTVSPost2010PropOp30
 70
     1
102
RTVSPost2010Prop31
280
     0
102
RTVSPost2010PropOp31
 70
     1
102
RTVSPost2010Prop32
280
     0
102
RTVSPost2010PropOp32
 70
     1
102
RTVSPost2010Prop33
280
     0
102
RTVSPost2010PropOp33
 70
     1
102
RTVSPost2010Prop34
280
     0
102
RTVSPost2010PropOp34
 70
     1
102
RTVSPost2010Prop35
280
     0
102
RTVSPost2010PropOp35
 70
     1
102
RTVSPost2010Prop36
280
     0
102
RTVSPost2010PropOp36
 70
     1
102
RTVSPost2010Prop37
 90
       50
102
RTVSPost2010PropOp37
 70
     1
102
RTVSPost2010Prop38
140
0.0
102
RTVSPost2010PropOp38
 70
     1
102
RTVSPost2010Prop39
140
1.0
102
RTVSPost2010PropOp39
 70
     1
102
RTVSPost2010Prop40
 90
        0
102
RTVSPost2010PropOp40
 70
     1
102
RTVSPost2010Prop41ColorIndex
 90
       18
102
RTVSPost2010Prop41ColorRGB
 90
        0
102
RTVSPost2010PropOp41
 70
     1
102
RTVSPost2010Prop42
 90
       50
102
RTVSPost2010PropOp42
 70
     1
102
RTVSPost2010Prop43
 90
        3
102
RTVSPost2010PropOp43
 70
     1
102
RTVSPost2010Prop44ColorIndex
 90
        5
102
RTVSPost2010Prop44ColorRGB
 90
      255
102
RTVSPost2010PropOp44
 70
     1
102
RTVSPost2010Prop45
280
     0
102
RTVSPost2010PropOp45
 70
     1
102
RTVSPost2010Prop46
 90
       50
102
RTVSPost2010PropOp46
 70
     1
102
RTVSPost2010Prop47
 90
       50
102
RTVSPost2010PropOp47
 70
     1
102
RTVSPost2010Prop48
 90
       50
102
RTVSPost2010PropOp48
 70
     1
102
RTVSPost2010Prop49
280
     0
102
RTVSPost2010PropOp49
 70
     1
102
RTVSPost2010Prop50
 90
       50
102
RTVSPost2010PropOp50
 70
     1
102
RTVSPost2010Prop51ColorIndex
 90
      256
102
RTVSPost2010Prop51ColorRGB
 90
-16777216
102
RTVSPost2010PropOp51
 70
     0
102
RTVSPost2010Prop52
140
1.0
102
RTVSPost2010PropOp52
 70
     0
102
RTVSPost2010Prop53
 90
        2
102
RTVSPost2010PropOp53
 70
     1
102
RTVSPost2010Prop54
  1
strokes_ogs.tif
102
RTVSPost2010PropOp54
 70
     1
102
RTVSPost2010Prop55
280
     0
102
RTVSPost2010PropOp55
 70
     1
102
RTVSPost2010Prop56
140
1.0
102
RTVSPost2010PropOp56
 70
     1
102
RTVSPost2010Prop57
140
1.0
102
RTVSPost2010PropOp57
 70
     1
102
RTVSPropertyOp0
 70
     1
102
RTVSPropertyOp1
 70
     1
102
RTVSPropertyOp2
 70
     1
102
RTVSPropertyOp3
 70
     1
102
RTVSPropertyOp4
 70
     1
102
RTVSPropertyOp5
 70
     1
102
RTVSPropertyOp6
 70
     1
102
RTVSPropertyOp7
 70
     1
102
RTVSPropertyOp8
 70
     1
102
RTVSPropertyOp9
 70
     1
102
RTVSPropertyOp10
 70
     1
102
RTVSPropertyOp11
 70
     1
102
RTVSPropertyOp12
 70
     1
102
RTVSPropertyOp13
 70
     1
102
RTVSPropertyOp14
 70
     1
102
RTVSPropertyOp15
 70
     1
102
RTVSPropertyOp16
 70
     1
102
RTVSPropertyOp17
 70
     1
102
RTVSPropertyOp18
 70
     1
102
RTVSPropertyOp19
 70
     1
102
RTVSPropertyOp20
 70
     1
102
RTVSPropertyOp21
 70
     1
102
RTVSPropertyOp22
 70
     1
102
RTVSPropertyOp23
 70
     1
102
RTVSPropertyOp24
 70
     1
102
RTVSPropertyOp25
 70
     1
102
RTVSPropertyOp26
 70
     1
102
RTVSPropertyOp27
 70
     1
102
RTVSPropertyOp28
 70
     1
102
RTVSPropertyOp29
 70
     1
102
RTVSPropertyOp30
 70
     1
102
RTVSPropertyOp31
 70
     1
102
RTVSPropertyOp32
 70
     1
102
RTVSPropertyOp33
 70
     1
102
RTVSPropertyOp34
 70
     1
102
RTVSPropertyOp35
 70
     1
102
RTVSPropertyOp36
 70
     1
102
RTVSPropertyOp37
 70
     1
102
RTVSPropertyOp38
 70
     1
102
RTVSPropertyOp39
 70
     1
102
RTVSPropertyOp40
 70
     1
102
RTVSPropertyOp41
 70
     1
102
RTVSPropertyOp42
 70
     1
102
RTVSPropertyOp43
 70
     1
102
RTVSPropertyOp44
 70
     1
102
RTVSPropertyOp45
 70
     1
102
RTVSPropertyOp46
 70
     1
102
RTVSPropertyOp47
 70
     1
102
RTVSPropertyOp48
 70
     1
102
RTVSPropertyOp49
 70
     1
102
RTVSPropertyOp50
 70
     1
102
RTVSPropertyOp51
 70
     0
102
RTVSPropertyOp52
 70
     0
102
RTVSPropertyOp53
 70
     1
102
RTVSPropertyOp54
 70
     1
102
RTVSPropertyOp55
 70
     1
102
RTVSPropertyOp56
 70
     1
102
RTVSPropertyOp57
 70
     1
102
RTVSPropertyOp58
 70
     1
102
RTVSPropertyOp59
 70
     1
102
RTVSPropertyOp60
 70
     1
102
RTVSPropertyOp61
 70
     1
102
RTVSPropertyOp62
 70
     1
  0
XRECORD
  5
9F4D
102
{ACAD_REACTORS
330
9F4C
102
}
330
9F4C
100
AcDbXrecord
280
     1
102
RTVSPost2010Prop28
280
     0
102
RTVSPost2010PropOp28
 70
     1
102
RTVSPost2010Prop29
280
     1
102
RTVSPost2010PropOp29
 70
     1
102
RTVSPost2010Prop30
280
     1
102
RTVSPost2010PropOp30
 70
     1
102
RTVSPost2010Prop31
280
     0
102
RTVSPost2010PropOp31
 70
     1
102
RTVSPost2010Prop32
280
     0
102
RTVSPost2010PropOp32
 70
     1
102
RTVSPost2010Prop33
280
     0
102
RTVSPost2010PropOp33
 70
     1
102
RTVSPost2010Prop34
280
     0
102
RTVSPost2010PropOp34
 70
     1
102
RTVSPost2010Prop35
280
     0
102
RTVSPost2010PropOp35
 70
     1
102
RTVSPost2010Prop36
280
     0
102
RTVSPost2010PropOp36
 70
     1
102
RTVSPost2010Prop37
 90
       50
102
RTVSPost2010PropOp37
 70
     1
102
RTVSPost2010Prop38
140
0.0
102
RTVSPost2010PropOp38
 70
     1
102
RTVSPost2010Prop39
140
1.0
102
RTVSPost2010PropOp39
 70
     1
102
RTVSPost2010Prop40
 90
        0
102
RTVSPost2010PropOp40
 70
     1
102
RTVSPost2010Prop41ColorIndex
 90
       18
102
RTVSPost2010Prop41ColorRGB
 90
        0
102
RTVSPost2010PropOp41
 70
     1
102
RTVSPost2010Prop42
 90
       50
102
RTVSPost2010PropOp42
 70
     1
102
RTVSPost2010Prop43
 90
        3
102
RTVSPost2010PropOp43
 70
     1
102
RTVSPost2010Prop44ColorIndex
 90
        5
102
RTVSPost2010Prop44ColorRGB
 90
      255
102
RTVSPost2010PropOp44
 70
     1
102
RTVSPost2010Prop45
280
     0
102
RTVSPost2010PropOp45
 70
     1
102
RTVSPost2010Prop46
 90
       50
102
RTVSPost2010PropOp46
 70
     1
102
RTVSPost2010Prop47
 90
       50
102
RTVSPost2010PropOp47
 70
     1
102
RTVSPost2010Prop48
 90
       50
102
RTVSPost2010PropOp48
 70
     1
102
RTVSPost2010Prop49
280
     0
102
RTVSPost2010PropOp49
 70
     1
102
RTVSPost2010Prop50
 90
       50
102
RTVSPost2010PropOp50
 70
     1
102
RTVSPost2010Prop51ColorIndex
 90
      256
102
RTVSPost2010Prop51ColorRGB
 90
-16777216
102
RTVSPost2010PropOp51
 70
     0
102
RTVSPost2010Prop52
140
1.0
102
RTVSPost2010PropOp52
 70
     0
102
RTVSPost2010Prop53
 90
        2
102
RTVSPost2010PropOp53
 70
     1
102
RTVSPost2010Prop54
  1
strokes_ogs.tif
102
RTVSPost2010PropOp54
 70
     1
102
RTVSPost2010Prop55
280
     0
102
RTVSPost2010PropOp55
 70
     1
102
RTVSPost2010Prop56
140
1.0
102
RTVSPost2010PropOp56
 70
     1
102
RTVSPost2010Prop57
140
1.0
102
RTVSPost2010PropOp57
 70
     1
102
RTVSPropertyOp0
 70
     1
102
RTVSPropertyOp1
 70
     1
102
RTVSPropertyOp2
 70
     1
102
RTVSPropertyOp3
 70
     1
102
RTVSPropertyOp4
 70
     1
102
RTVSPropertyOp5
 70
     1
102
RTVSPropertyOp6
 70
     1
102
RTVSPropertyOp7
 70
     1
102
RTVSPropertyOp8
 70
     1
102
RTVSPropertyOp9
 70
     1
102
RTVSPropertyOp10
 70
     1
102
RTVSPropertyOp11
 70
     1
102
RTVSPropertyOp12
 70
     1
102
RTVSPropertyOp13
 70
     1
102
RTVSPropertyOp14
 70
     1
102
RTVSPropertyOp15
 70
     1
102
RTVSPropertyOp16
 70
     1
102
RTVSPropertyOp17
 70
     1
102
RTVSPropertyOp18
 70
     1
102
RTVSPropertyOp19
 70
     1
102
RTVSPropertyOp20
 70
     1
102
RTVSPropertyOp21
 70
     1
102
RTVSPropertyOp22
 70
     1
102
RTVSPropertyOp23
 70
     1
102
RTVSPropertyOp24
 70
     1
102
RTVSPropertyOp25
 70
     1
102
RTVSPropertyOp26
 70
     1
102
RTVSPropertyOp27
 70
     1
102
RTVSPropertyOp28
 70
     1
102
RTVSPropertyOp29
 70
     1
102
RTVSPropertyOp30
 70
     1
102
RTVSPropertyOp31
 70
     1
102
RTVSPropertyOp32
 70
     1
102
RTVSPropertyOp33
 70
     1
102
RTVSPropertyOp34
 70
     1
102
RTVSPropertyOp35
 70
     1
102
RTVSPropertyOp36
 70
     1
102
RTVSPropertyOp37
 70
     1
102
RTVSPropertyOp38
 70
     1
102
RTVSPropertyOp39
 70
     1
102
RTVSPropertyOp40
 70
     1
102
RTVSPropertyOp41
 70
     1
102
RTVSPropertyOp42
 70
     1
102
RTVSPropertyOp43
 70
     1
102
RTVSPropertyOp44
 70
     1
102
RTVSPropertyOp45
 70
     1
102
RTVSPropertyOp46
 70
     1
102
RTVSPropertyOp47
 70
     1
102
RTVSPropertyOp48
 70
     1
102
RTVSPropertyOp49
 70
     1
102
RTVSPropertyOp50
 70
     1
102
RTVSPropertyOp51
 70
     0
102
RTVSPropertyOp52
 70
     0
102
RTVSPropertyOp53
 70
     1
102
RTVSPropertyOp54
 70
     1
102
RTVSPropertyOp55
 70
     1
102
RTVSPropertyOp56
 70
     1
102
RTVSPropertyOp57
 70
     1
102
RTVSPropertyOp58
 70
     1
102
RTVSPropertyOp59
 70
     1
102
RTVSPropertyOp60
 70
     1
102
RTVSPropertyOp61
 70
     1
102
RTVSPropertyOp62
 70
     1
  0
ENDSEC
  0
EOF
