  0
SECTION
  2
HEADER
  9
$ACADVER
  1
AC1015
  9
$ACADMAINTVER
 70
    20
  9
$DWGCODEPAGE
  3
ANSI_932
  9
$INSBASE
 10
0.0
 20
0.0
 30
0.0
  9
$EXTMIN
 10
10.0
 20
9.999999999999998
 30
0.0
  9
$EXTMAX
 10
543.8810999999998
 20
413.8691609999998
 30
0.0
  9
$LIMMIN
 10
0.0
 20
0.0
  9
$LIMMAX
 10
624.9999999638297
 20
430.8712120168311
  9
$ORTHOMODE
 70
     1
  9
$REGENMODE
 70
     1
  9
$FILLMODE
 70
     1
  9
$QTEXTMODE
 70
     0
  9
$MIRRTEXT
 70
     1
  9
$LTSCALE
 40
20.0
  9
$ATTMODE
 70
     1
  9
$TEXTSIZE
 40
5.0
  9
$TRACEWID
 40
1.0
  9
$TEXTSTYLE
  7
STANDARD
  9
$CLAYER
  8
0
  9
$CELTYPE
  6
BYLAYER
  9
$CECOLOR
 62
   256
  9
$CELTSCALE
 40
1.0
  9
$DISPSILH
 70
     0
  9
$DIMSCALE
 40
1.0
  9
$DIMASZ
 40
2.5
  9
$DIMEXO
 40
1.0
  9
$DIMDLI
 40
10.0
  9
$DIMRND
 40
0.0
  9
$DIMDLE
 40
0.0
  9
$DIMEXE
 40
1.0
  9
$DIMTP
 40
0.0
  9
$DIMTM
 40
0.0
  9
$DIMTXT
 40
3.2
  9
$DIMCEN
 40
0.0
  9
$DIMTSZ
 40
0.0
  9
$DIMTOL
 70
     0
  9
$DIMLIM
 70
     0
  9
$DIMTIH
 70
     0
  9
$DIMTOH
 70
     0
  9
$DIMSE1
 70
     0
  9
$DIMSE2
 70
     0
  9
$DIMTAD
 70
     3
  9
$DIMZIN
 70
     8
  9
$DIMBLK
  1

  9
$DIMASO
 70
     1
  9
$DIMSHO
 70
     1
  9
$DIMPOST
  1

  9
$DIMAPOST
  1

  9
$DIMALT
 70
     0
  9
$DIMALTD
 70
     2
  9
$DIMALTF
 40
25.4
  9
$DIMLFAC
 40
1.0
  9
$DIMTOFL
 70
     1
  9
$DIMTVP
 40
0.0
  9
$DIMTIX
 70
     0
  9
$DIMSOXD
 70
     0
  9
$DIMSAH
 70
     1
  9
$DIMBLK1
  1

  9
$DIMBLK2
  1

  9
$DIMSTYLE
  2
STANDARD
  9
$DIMCLRD
 70
     0
  9
$DIMCLRE
 70
     0
  9
$DIMCLRT
 70
     0
  9
$DIMTFAC
 40
1.0
  9
$DIMGAP
 40
1.0
  9
$DIMJUST
 70
     0
  9
$DIMSD1
 70
     0
  9
$DIMSD2
 70
     0
  9
$DIMTOLJ
 70
     1
  9
$DIMTZIN
 70
     0
  9
$DIMALTZ
 70
     0
  9
$DIMALTTZ
 70
     0
  9
$DIMUPT
 70
     0
  9
$DIMDEC
 70
     4
  9
$DIMTDEC
 70
     4
  9
$DIMALTU
 70
     2
  9
$DIMALTTD
 70
     2
  9
$DIMTXSTY
  7
STANDARD
  9
$DIMAUNIT
 70
     0
  9
$DIMADEC
 70
     0
  9
$DIMALTRND
 40
0.0
  9
$DIMAZIN
 70
     0
  9
$DIMDSEP
 70
    46
  9
$DIMATFIT
 70
     3
  9
$DIMFRAC
 70
     0
  9
$DIMLDRBLK
  1

  9
$DIMLUNIT
 70
     2
  9
$DIMLWD
 70
    -2
  9
$DIMLWE
 70
    -2
  9
$DIMTMOVE
 70
     0
  9
$LUNITS
 70
     2
  9
$LUPREC
 70
     4
  9
$SKETCHINC
 40
1.0
  9
$FILLETRAD
 40
0.0
  9
$AUNITS
 70
     0
  9
$AUPREC
 70
     2
  9
$MENU
  1
.
  9
$ELEVATION
 40
0.0
  9
$PELEVATION
 40
0.0
  9
$THICKNESS
 40
0.0
  9
$LIMCHECK
 70
     0
  9
$CHAMFERA
 40
10.0
  9
$CHAMFERB
 40
10.0
  9
$CHAMFERC
 40
0.0
  9
$CHAMFERD
 40
0.0
  9
$SKPOLY
 70
     0
  9
$TDCREATE
 40
2451301.453521412
  9
$TDUCREATE
 40
2451301.078521412
  9
$TDUPDATE
 40
2457192.690167535
  9
$TDUUPDATE
 40
2457192.315167535
  9
$TDINDWG
 40
0.1131245833
  9
$TDUSRTIMER
 40
0.1131237847
  9
$USRTIMER
 70
     1
  9
$ANGBASE
 50
0.0
  9
$ANGDIR
 70
     0
  9
$PDMODE
 70
     0
  9
$PDSIZE
 40
0.0
  9
$PLINEWID
 40
0.0
  9
$SPLFRAME
 70
     0
  9
$SPLINETYPE
 70
     6
  9
$SPLINESEGS
 70
     8
  9
$HANDSEED
  5
A0F9
  9
$SURFTAB1
 70
     6
  9
$SURFTAB2
 70
     6
  9
$SURFTYPE
 70
     6
  9
$SURFU
 70
     6
  9
$SURFV
 70
     6
  9
$UCSBASE
  2

  9
$UCSNAME
  2

  9
$UCSORG
 10
0.0
 20
0.0
 30
0.0
  9
$UCSXDIR
 10
1.0
 20
0.0
 30
0.0
  9
$UCSYDIR
 10
0.0
 20
1.0
 30
0.0
  9
$UCSORTHOREF
  2

  9
$UCSORTHOVIEW
 70
     0
  9
$UCSORGTOP
 10
0.0
 20
0.0
 30
0.0
  9
$UCSORGBOTTOM
 10
0.0
 20
0.0
 30
0.0
  9
$UCSORGLEFT
 10
0.0
 20
0.0
 30
0.0
  9
$UCSORGRIGHT
 10
0.0
 20
0.0
 30
0.0
  9
$UCSORGFRONT
 10
0.0
 20
0.0
 30
0.0
  9
$UCSORGBACK
 10
0.0
 20
0.0
 30
0.0
  9
$PUCSBASE
  2

  9
$PUCSNAME
  2

  9
$PUCSORG
 10
0.0
 20
0.0
 30
0.0
  9
$PUCSXDIR
 10
1.0
 20
0.0
 30
0.0
  9
$PUCSYDIR
 10
0.0
 20
1.0
 30
0.0
  9
$PUCSORTHOREF
  2

  9
$PUCSORTHOVIEW
 70
     0
  9
$PUCSORGTOP
 10
0.0
 20
0.0
 30
0.0
  9
$PUCSORGBOTTOM
 10
0.0
 20
0.0
 30
0.0
  9
$PUCSORGLEFT
 10
0.0
 20
0.0
 30
0.0
  9
$PUCSORGRIGHT
 10
0.0
 20
0.0
 30
0.0
  9
$PUCSORGFRONT
 10
0.0
 20
0.0
 30
0.0
  9
$PUCSORGBACK
 10
0.0
 20
0.0
 30
0.0
  9
$USERI1
 70
     0
  9
$USERI2
 70
     0
  9
$USERI3
 70
     0
  9
$USERI4
 70
     0
  9
$USERI5
 70
     0
  9
$USERR1
 40
0.0
  9
$USERR2
 40
0.0
  9
$USERR3
 40
0.0
  9
$USERR4
 40
0.0
  9
$USERR5
 40
0.0
  9
$WORLDVIEW
 70
     1
  9
$SHADEDGE
 70
     3
  9
$SHADEDIF
 70
    70
  9
$TILEMODE
 70
     1
  9
$MAXACTVP
 70
    16
  9
$PINSBASE
 10
0.0
 20
0.0
 30
0.0
  9
$PLIMCHECK
 70
     0
  9
$PEXTMIN
 10
1.000000000000000E+20
 20
1.000000000000000E+20
 30
1.000000000000000E+20
  9
$PEXTMAX
 10
-1.000000000000000E+20
 20
-1.000000000000000E+20
 30
-1.000000000000000E+20
  9
$PLIMMIN
 10
0.0
 20
0.0
  9
$PLIMMAX
 10
420.0
 20
297.0
  9
$UNITMODE
 70
     0
  9
$VISRETAIN
 70
     0
  9
$PLINEGEN
 70
     0
  9
$PSLTSCALE
 70
     0
  9
$TREEDEPTH
 70
  3020
  9
$CMLSTYLE
  2
STANDARD
  9
$CMLJUST
 70
     0
  9
$CMLSCALE
 40
1.0
  9
$PROXYGRAPHICS
 70
     1
  9
$MEASUREMENT
 70
     0
  9
$CELWEIGHT
370
    -1
  9
$ENDCAPS
280
     0
  9
$JOINSTYLE
280
     0
  9
$LWDISPLAY
290
     0
  9
$INSUNITS
 70
     0
  9
$HYPERLINKBASE
  1

  9
$STYLESHEET
  1

  9
$XEDIT
290
     1
  9
$CEPSNTYPE
380
     0
  9
$PSTYLEMODE
290
     1
  9
$FINGERPRINTGUID
  2
{0E2FEF63-1BA0-420D-A2E0-43E4A3AB699D}
  9
$VERSIONGUID
  2
{27EFE119-E5CB-4A9A-846C-D9FA96FB1816}
  9
$EXTNAMES
290
     1
  9
$PSVPSCALE
 40
0.0
  9
$OLESTARTUP
290
     0
  0
ENDSEC
  0
SECTION
  2
CLASSES
  0
CLASS
  1
ACDBDICTIONARYWDFLT
  2
AcDbDictionaryWithDefault
  3
ObjectDBX Classes
 90
        0
280
     0
281
     0
  0
CLASS
  1
ACDBPLACEHOLDER
  2
AcDbPlaceHolder
  3
ObjectDBX Classes
 90
        0
280
     0
281
     0
  0
CLASS
  1
LAYOUT
  2
AcDbLayout
  3
ObjectDBX Classes
 90
        0
280
     0
281
     0
  0
CLASS
  1
DICTIONARYVAR
  2
AcDbDictionaryVar
  3
ObjectDBX Classes
 90
        0
280
     0
281
     0
  0
CLASS
  1
MATERIAL
  2
AcDbMaterial
  3
ObjectDBX Classes
 90
     1153
280
     0
281
     0
  0
CLASS
  1
VISUALSTYLE
  2
AcDbVisualStyle
  3
ObjectDBX Classes
 90
     4095
280
     0
281
     0
  0
CLASS
  1
TABLESTYLE
  2
AcDbTableStyle
  3
ObjectDBX Classes
 90
     4095
280
     0
281
     0
  0
CLASS
  1
SCALE
  2
AcDbScale
  3
ObjectDBX Classes
 90
     1153
280
     0
281
     0
  0
CLASS
  1
MLEADERSTYLE
  2
AcDbMLeaderStyle
  3
ACDB_MLEADERSTYLE_CLASS
 90
     4095
280
     0
281
     0
  0
CLASS
  1
ACDBSECTIONVIEWSTYLE
  2
AcDbSectionViewStyle
  3
ObjectDBX Classes
 90
     1025
280
     0
281
     0
  0
CLASS
  1
ACDBDETAILVIEWSTYLE
  2
AcDbDetailViewStyle
  3
ObjectDBX Classes
 90
     1025
280
     0
281
     0
  0
CLASS
  1
CELLSTYLEMAP
  2
AcDbCellStyleMap
  3
ObjectDBX Classes
 90
     1152
280
     0
281
     0
  0
ENDSEC
  0
SECTION
  2
TABLES
  0
TABLE
  2
VPORT
  5
9B88
330
0
100
AcDbSymbolTable
 70
     1
  0
VPORT
  5
A044
330
9B88
100
AcDbSymbolTableRecord
100
AcDbViewportTableRecord
  2
*ACTIVE
 70
     0
 10
0.0
 20
0.0
 11
1.0
 21
1.0
 12
432.4159264848607
 22
211.9346469184446
 13
0.0
 23
0.0
 14
10.0
 24
10.0
 15
10.0
 25
10.0
 16
0.0
 26
0.0
 36
1.0
 17
0.0
 27
0.0
 37
0.0
 40
407.0976427515708
 41
2.35006605019815
 42
50.0
 43
0.0
 44
0.0
 50
0.0
 51
0.0
 71
     0
 72
   100
 73
     1
 74
     0
 75
     0
 76
     0
 77
     0
 78
     0
281
     0
 65
     1
110
0.0
120
0.0
130
0.0
111
1.0
121
0.0
131
0.0
112
0.0
122
1.0
132
0.0
 79
     0
146
0.0
1001
ACAD_NAV_VCDISPLAY
1070
     3
  0
ENDTAB
  0
TABLE
  2
LTYPE
  5
9B85
330
0
100
AcDbSymbolTable
 70
     4
  0
LTYPE
  5
9B93
330
9B85
100
AcDbSymbolTableRecord
100
AcDbLinetypeTableRecord
  2
BYBLOCK
 70
     0
  3

 72
    65
 73
     0
 40
0.0
  0
LTYPE
  5
9B94
330
9B85
100
AcDbSymbolTableRecord
100
AcDbLinetypeTableRecord
  2
BYLAYER
 70
     0
  3

 72
    65
 73
     0
 40
0.0
  0
LTYPE
  5
9B95
330
9B85
100
AcDbSymbolTableRecord
100
AcDbLinetypeTableRecord
  2
CONTINUOUS
 70
     0
  3
Solid line
 72
    65
 73
     0
 40
0.0
  0
LTYPE
  5
9BA3
330
9B85
100
AcDbSymbolTableRecord
100
AcDbLinetypeTableRecord
  2
DASHED
 70
     0
  3
__ __ __ __ __ __ __ __ __ __ __ __ __ __ __ __
 72
    65
 73
     2
 40
0.75
 49
0.5
 74
     0
 49
-0.25
 74
     0
  0
LTYPE
  5
9BA4
330
9B85
100
AcDbSymbolTableRecord
100
AcDbLinetypeTableRecord
  2
CENTER
 70
     0
  3
____ _ ____ _ ____ _ ____ _ ____ _ ____ _ ____ 
 72
    65
 73
     4
 40
2.0
 49
1.25
 74
     0
 49
-0.25
 74
     0
 49
0.25
 74
     0
 49
-0.25
 74
     0
  0
LTYPE
  5
9BA5
330
9B85
100
AcDbSymbolTableRecord
100
AcDbLinetypeTableRecord
  2
PHANTOM
 70
     0
  3
______  __  __  ______  __  __  ______  __  __ 
 72
    65
 73
     6
 40
2.5
 49
1.25
 74
     0
 49
-0.25
 74
     0
 49
0.25
 74
     0
 49
-0.25
 74
     0
 49
0.25
 74
     0
 49
-0.25
 74
     0
  0
ENDTAB
  0
TABLE
  2
LAYER
  5
9B82
330
0
100
AcDbSymbolTable
 70
     8
  0
LAYER
  5
9B90
102
{ACAD_XDICTIONARY
360
A09D
102
}
330
9B82
100
AcDbSymbolTableRecord
100
AcDbLayerTableRecord
  2
0
 70
     0
 62
     7
  6
CONTINUOUS
370
    -3
390
A04B
  0
LAYER
  5
9BA6
102
{ACAD_XDICTIONARY
360
A09F
102
}
330
9B82
100
AcDbSymbolTableRecord
100
AcDbLayerTableRecord
  2
4
 70
     0
 62
     1
  6
CENTER
370
    -3
390
A04B
  0
LAYER
  5
9BA7
102
{ACAD_XDICTIONARY
360
A0A1
102
}
330
9B82
100
AcDbSymbolTableRecord
100
AcDbLayerTableRecord
  2
5
 70
     0
 62
     6
  6
PHANTOM
370
    -3
390
A04B
  0
LAYER
  5
9BA8
102
{ACAD_XDICTIONARY
360
A0A3
102
}
330
9B82
100
AcDbSymbolTableRecord
100
AcDbLayerTableRecord
  2
1
 70
     0
 62
     7
  6
CONTINUOUS
370
    -3
390
A04B
  0
LAYER
  5
9BA9
102
{ACAD_XDICTIONARY
360
A0A5
102
}
330
9B82
100
AcDbSymbolTableRecord
100
AcDbLayerTableRecord
  2
2
 70
     0
 62
     4
  6
CONTINUOUS
370
    -3
390
A04B
  0
LAYER
  5
9BAA
102
{ACAD_XDICTIONARY
360
A0A7
102
}
330
9B82
100
AcDbSymbolTableRecord
100
AcDbLayerTableRecord
  2
3
 70
     0
 62
     2
  6
DASHED
370
    -3
390
A04B
  0
LAYER
  5
9BAB
102
{ACAD_XDICTIONARY
360
A0A9
102
}
330
9B82
100
AcDbSymbolTableRecord
100
AcDbLayerTableRecord
  2
6
 70
     0
 62
     5
  6
CONTINUOUS
370
    -3
390
A04B
  0
LAYER
  5
9BAC
102
{ACAD_XDICTIONARY
360
A0AB
102
}
330
9B82
100
AcDbSymbolTableRecord
100
AcDbLayerTableRecord
  2
7
 70
     0
 62
     3
  6
CONTINUOUS
370
    -3
390
A04B
  0
ENDTAB
  0
TABLE
  2
STYLE
  5
9B83
330
0
100
AcDbSymbolTable
 70
     1
  0
STYLE
  5
9B91
330
9B83
100
AcDbSymbolTableRecord
100
AcDbTextStyleTableRecord
  2
STANDARD
 70
     0
 40
0.0
 41
1.0
 50
0.0
 71
     0
 42
5.0
  3
txt
  4

  0
ENDTAB
  0
TABLE
  2
VIEW
  5
9B86
330
0
100
AcDbSymbolTable
 70
     0
  0
ENDTAB
  0
TABLE
  2
UCS
  5
9B87
330
0
100
AcDbSymbolTable
 70
     0
  0
ENDTAB
  0
TABLE
  2
APPID
  5
9B89
330
0
100
AcDbSymbolTable
 70
     3
  0
APPID
  5
9B92
330
9B89
100
AcDbSymbolTableRecord
100
AcDbRegAppTableRecord
  2
ACAD
 70
     0
  0
APPID
  5
A0B7
330
9B89
100
AcDbSymbolTableRecord
100
AcDbRegAppTableRecord
  2
ACAD_NAV_VCDISPLAY
 70
     0
  0
APPID
  5
A0F0
330
9B89
100
AcDbSymbolTableRecord
100
AcDbRegAppTableRecord
  2
ACAD_MLEADERVER
 70
     0
  0
ENDTAB
  0
TABLE
  2
DIMSTYLE
  5
9B8A
330
0
100
AcDbSymbolTable
 70
     1
100
AcDbDimStyleTable
 71
     0
  0
DIMSTYLE
105
9BAE
330
9B8A
100
AcDbSymbolTableRecord
100
AcDbDimStyleTableRecord
  2
STANDARD
 70
     0
 41
2.5
 42
1.0
 43
10.0
 44
1.0
 73
     0
 74
     0
 77
     3
 78
     8
140
3.2
141
0.0
147
1.0
172
     1
173
     1
284
     8
285
     8
286
     8
340
9B91
  0
ENDTAB
  0
TABLE
  2
BLOCK_RECORD
  5
9B81
330
0
100
AcDbSymbolTable
 70
     0
  0
BLOCK_RECORD
  5
9B9E
102
{ACAD_XDICTIONARY
360
9E09
102
}
330
9B81
100
AcDbSymbolTableRecord
100
AcDbBlockTableRecord
  2
*MODEL_SPACE
340
A099
  0
BLOCK_RECORD
  5
9B9A
102
{ACAD_XDICTIONARY
360
9E07
102
}
330
9B81
100
AcDbSymbolTableRecord
100
AcDbBlockTableRecord
  2
*PAPER_SPACE
340
A09A
  0
ENDTAB
  0
ENDSEC
  0
SECTION
  2
BLOCKS
  0
BLOCK
  5
9B9F
330
9B9E
100
AcDbEntity
  8
0
100
AcDbBlockBegin
  2
*MODEL_SPACE
 70
     0
 10
0.0
 20
0.0
 30
0.0
  3
*MODEL_SPACE
  1

  0
ENDBLK
  5
9BA0
330
9B9E
100
AcDbEntity
  8
0
100
AcDbBlockEnd
  0
BLOCK
  5
9B9B
330
9B9A
100
AcDbEntity
 67
     1
  8
0
100
AcDbBlockBegin
  2
*PAPER_SPACE
 70
     0
 10
0.0
 20
0.0
 30
0.0
  3
*PAPER_SPACE
  1

  0
ENDBLK
  5
9B9C
330
9B9A
100
AcDbEntity
 67
     1
  8
0
100
AcDbBlockEnd
  0
ENDSEC
  0
SECTION
  2
ENTITIES
  0
TEXT
  5
9BB6
330
9B9E
100
AcDbEntity
  8
7
  6
Continuous
100
AcDbText
 10
10.0
 20
18.0
 30
0.0
 40
3.0
  1
TYPE No.TCA-420ER-N125
100
AcDbText
  0
TEXT
  5
9BB7
330
9B9E
100
AcDbEntity
  8
7
  6
Continuous
100
AcDbText
 10
10.0
 20
26.0
 30
0.0
 40
3.0
  1
CODE No.9799
100
AcDbText
  0
TEXT
  5
9BB8
330
9B9E
100
AcDbEntity
  8
1
  6
Continuous
100
AcDbText
 10
10.0
 20
10.0
 30
0.0
 40
1.399999999999999
  1
LAYER
100
AcDbText
  0
TEXT
  5
9BB9
330
9B9E
100
AcDbEntity
  8
1
  6
Continuous
100
AcDbText
 10
17.97951099999998
 20
10.04873699999998
 30
0.0
 40
1.399999999999999
  1
1
100
AcDbText
  0
TEXT
  5
9BBA
330
9B9E
100
AcDbEntity
  8
7
  6
Continuous
100
AcDbText
 10
29.97951099999999
 20
10.04873699999998
 30
0.0
 40
1.399999999999999
  1
7
100
AcDbText
  0
TEXT
  5
9BBB
330
9B9E
100
AcDbEntity
  8
4
  6
CENTER
100
AcDbText
 10
23.97951099999999
 20
10.04873699999998
 30
0.0
 40
1.399999999999999
  1
4
100
AcDbText
  0
TEXT
  5
9BBC
330
9B9E
100
AcDbEntity
  8
3
  6
DASHED
100
AcDbText
 10
21.979511
 20
10.04873699999998
 30
0.0
 40
1.399999999999999
  1
3
100
AcDbText
  0
TEXT
  5
9BBD
330
9B9E
100
AcDbEntity
  8
2
  6
Continuous
100
AcDbText
 10
19.97951099999998
 20
10.04873699999998
 30
0.0
 40
1.399999999999999
  1
2
100
AcDbText
  0
TEXT
  5
9BBE
330
9B9E
100
AcDbEntity
  8
6
  6
Continuous
100
AcDbText
 10
27.979511
 20
10.04873699999998
 30
0.0
 40
1.399999999999999
  1
6
100
AcDbText
  0
TEXT
  5
9BBF
330
9B9E
100
AcDbEntity
  8
5
  6
PHANTOM
100
AcDbText
 10
25.97951099999999
 20
10.04873699999998
 30
0.0
 40
1.399999999999999
  1
5
100
AcDbText
  0
LINE
  5
9BC0
330
9B9E
100
AcDbEntity
  8
4
  6
CENTER
100
AcDbLine
 10
128.8811
 20
383.0691709999999
 30
0.0
 11
263.8811
 21
383.0691709999999
 31
0.0
  0
LINE
  5
9BC1
330
9B9E
100
AcDbEntity
  8
1
  6
Continuous
100
AcDbLine
 10
153.3811
 20
412.069171
 30
0.0
 11
159.766098
 21
412.069171
 31
0.0
  0
LINE
  5
9BC2
330
9B9E
100
AcDbEntity
  8
4
  6
CENTER
100
AcDbLine
 10
196.3810999999998
 20
413.8691609999998
 30
0.0
 11
196.3810999999998
 21
356.069179
 31
0.0
  0
LINE
  5
9BC3
330
9B9E
100
AcDbEntity
  8
4
  6
CENTER
100
AcDbLine
 10
161.3811
 20
403.069171
 30
0.0
 11
149.3810999999998
 21
403.069171
 31
0.0
  0
LINE
  5
9BC4
330
9B9E
100
AcDbEntity
  8
4
  6
CENTER
100
AcDbLine
 10
155.3811
 20
409.0691709999998
 30
0.0
 11
155.3811
 21
397.069171
 31
0.0
  0
LINE
  5
9BC5
330
9B9E
100
AcDbEntity
  8
4
  6
CENTER
100
AcDbLine
 10
161.3811
 20
363.0691709999999
 30
0.0
 11
149.3810999999998
 21
363.0691709999999
 31
0.0
  0
LINE
  5
9BC6
330
9B9E
100
AcDbEntity
  8
4
  6
CENTER
100
AcDbLine
 10
155.3811
 20
357.0691709999999
 30
0.0
 11
155.3811
 21
369.0691709999999
 31
0.0
  0
LINE
  5
9BC7
330
9B9E
100
AcDbEntity
  8
4
  6
CENTER
100
AcDbLine
 10
231.3811
 20
403.069171
 30
0.0
 11
243.3810999999999
 21
403.069171
 31
0.0
  0
LINE
  5
9BC8
330
9B9E
100
AcDbEntity
  8
4
  6
CENTER
100
AcDbLine
 10
237.3810999999999
 20
409.0691709999998
 30
0.0
 11
237.3810999999999
 21
397.069171
 31
0.0
  0
LINE
  5
9BC9
330
9B9E
100
AcDbEntity
  8
4
  6
CENTER
100
AcDbLine
 10
231.3811
 20
363.0691709999999
 30
0.0
 11
243.3810999999999
 21
363.0691709999999
 31
0.0
  0
LINE
  5
9BCA
330
9B9E
100
AcDbEntity
  8
4
  6
CENTER
100
AcDbLine
 10
237.3810999999999
 20
357.0691709999999
 30
0.0
 11
237.3810999999999
 21
369.0691709999999
 31
0.0
  0
LINE
  5
9BCB
330
9B9E
100
AcDbEntity
  8
1
  6
Continuous
100
AcDbLine
 10
174.677842
 20
401.8691709999997
 30
0.0
 11
218.084362
 21
401.8691709999997
 31
0.0
  0
LINE
  5
9BCC
330
9B9E
100
AcDbEntity
  8
1
  6
Continuous
100
AcDbLine
 10
153.3811
 20
354.0691709999999
 30
0.0
 11
159.766098
 21
354.0691709999999
 31
0.0
  0
LINE
  5
9BCD
330
9B9E
100
AcDbEntity
  8
1
  6
Continuous
100
AcDbLine
 10
174.677842
 20
364.2691759999999
 30
0.0
 11
218.084362
 21
364.2691759999999
 31
0.0
  0
LINE
  5
9BCE
330
9B9E
100
AcDbEntity
  8
1
  6
Continuous
100
AcDbLine
 10
146.3810999999997
 20
361.0691709999999
 30
0.0
 11
146.3810999999997
 21
405.0691709999998
 31
0.0
  0
LINE
  5
9BCF
330
9B9E
100
AcDbEntity
  8
1
  6
Continuous
100
AcDbLine
 10
239.3810999999999
 20
412.069171
 30
0.0
 11
232.9961049999997
 21
412.069171
 31
0.0
  0
LINE
  5
9BD0
330
9B9E
100
AcDbEntity
  8
1
  6
Continuous
100
AcDbLine
 10
239.3810999999999
 20
354.0691709999999
 30
0.0
 11
232.9961049999997
 21
354.0691709999999
 31
0.0
  0
LINE
  5
9BD1
330
9B9E
100
AcDbEntity
  8
1
  6
Continuous
100
AcDbLine
 10
246.3811
 20
361.0691709999999
 30
0.0
 11
246.3811
 21
405.0691709999998
 31
0.0
  0
LINE
  5
9BD2
330
9B9E
100
AcDbEntity
  8
1
  6
Continuous
100
AcDbLine
 10
146.3810999999997
 20
305.569171
 30
0.0
 11
190.381102
 21
305.569171
 31
0.0
  0
LINE
  5
9BD3
330
9B9E
100
AcDbEntity
  8
1
  6
Continuous
100
AcDbLine
 10
146.3810999999997
 20
302.7691679999998
 30
0.0
 11
165.206955
 21
302.7691679999998
 31
0.0
  0
LINE
  5
9BD4
330
9B9E
100
AcDbEntity
  8
1
  6
Continuous
100
AcDbLine
 10
146.3810999999997
 20
302.7691679999998
 30
0.0
 11
146.3810999999997
 21
305.569171
 31
0.0
  0
LINE
  5
9BD5
330
9B9E
100
AcDbEntity
  8
1
  6
Continuous
100
AcDbLine
 10
246.3811
 20
302.7691679999998
 30
0.0
 11
246.3811
 21
305.569171
 31
0.0
  0
LINE
  5
9BD6
330
9B9E
100
AcDbEntity
  8
4
  6
CENTER
100
AcDbLine
 10
128.8811
 20
220.069171
 30
0.0
 11
263.8811
 21
220.069171
 31
0.0
  0
LINE
  5
9BD7
330
9B9E
100
AcDbEntity
  8
4
  6
CENTER
100
AcDbLine
 10
196.3810999999998
 20
310.5691709999998
 30
0.0
 11
196.3810999999998
 21
152.5691709999998
 31
0.0
  0
LINE
  5
9BD8
330
9B9E
100
AcDbEntity
  8
4
  6
CENTER
100
AcDbLine
 10
155.3811
 20
310.5691709999998
 30
0.0
 11
155.3811
 21
297.7691679999998
 31
0.0
  0
LINE
  5
9BD9
330
9B9E
100
AcDbEntity
  8
1
  6
Continuous
100
AcDbLine
 10
227.5552459999999
 20
302.7691679999998
 30
0.0
 11
246.3811
 21
302.7691679999998
 31
0.0
  0
LINE
  5
9BDA
330
9B9E
100
AcDbEntity
  8
4
  6
CENTER
100
AcDbLine
 10
237.3810999999999
 20
310.5691709999998
 30
0.0
 11
237.3810999999999
 21
297.7691679999998
 31
0.0
  0
LINE
  5
9BDB
330
9B9E
100
AcDbEntity
  8
1
  6
Continuous
100
AcDbLine
 10
27.3811
 20
305.569171
 30
0.0
 11
85.38110000000001
 21
305.569171
 31
0.0
  0
LINE
  5
9BDC
330
9B9E
100
AcDbEntity
  8
1
  6
Continuous
100
AcDbLine
 10
27.3811
 20
302.7691679999998
 30
0.0
 11
85.38110000000001
 21
302.7691679999998
 31
0.0
  0
LINE
  5
9BDD
330
9B9E
100
AcDbEntity
  8
1
  6
Continuous
100
AcDbLine
 10
27.3811
 20
305.569171
 30
0.0
 11
27.3811
 21
302.7691679999998
 31
0.0
  0
LINE
  5
9BDE
330
9B9E
100
AcDbEntity
  8
1
  6
Continuous
100
AcDbLine
 10
85.38110000000001
 20
305.569171
 30
0.0
 11
85.38110000000001
 21
302.7691679999998
 31
0.0
  0
LINE
  5
9BDF
330
9B9E
100
AcDbEntity
  8
1
  6
Continuous
100
AcDbLine
 10
40.3811
 20
302.7691679999998
 30
0.0
 11
40.3811
 21
210.0691709999999
 31
0.0
  0
LINE
  5
9BE0
330
9B9E
100
AcDbEntity
  8
1
  6
Continuous
100
AcDbLine
 10
72.3811
 20
302.7691679999998
 30
0.0
 11
72.3811
 21
210.0691709999999
 31
0.0
  0
LINE
  5
9BE1
330
9B9E
100
AcDbEntity
  8
1
  6
Continuous
100
AcDbLine
 10
37.58110999999999
 20
210.0691709999999
 30
0.0
 11
40.3811
 21
210.0691709999999
 31
0.0
  0
LINE
  5
9BE2
330
9B9E
100
AcDbEntity
  8
1
  6
Continuous
100
AcDbLine
 10
75.181095
 20
210.0691709999999
 30
0.0
 11
72.3811
 21
210.0691709999999
 31
0.0
  0
LINE
  5
9BE3
330
9B9E
100
AcDbEntity
  8
4
  6
CENTER
100
AcDbLine
 10
25.58111
 20
220.069171
 30
0.0
 11
83.38109200000003
 21
220.069171
 31
0.0
  0
LINE
  5
9BE4
330
9B9E
100
AcDbEntity
  8
4
  6
CENTER
100
AcDbLine
 10
56.38110000000001
 20
310.5691709999998
 30
0.0
 11
56.38110000000001
 21
152.5691709999998
 31
0.0
  0
LINE
  5
9BE5
330
9B9E
100
AcDbEntity
  8
1
  6
Continuous
100
AcDbLine
 10
40.3811
 20
224.0691709999999
 30
0.0
 11
41.3811
 21
224.0691709999999
 31
0.0
  0
LINE
  5
9BE6
330
9B9E
100
AcDbEntity
  8
1
  6
Continuous
100
AcDbLine
 10
40.3811
 20
216.069171
 30
0.0
 11
41.3811
 21
216.069171
 31
0.0
  0
LINE
  5
9BE7
330
9B9E
100
AcDbEntity
  8
1
  6
Continuous
100
AcDbLine
 10
75.181095
 20
296.7768874722384
 30
0.0
 11
75.181095
 21
210.0691709999999
 31
0.0
  0
LINE
  5
9BE8
330
9B9E
100
AcDbEntity
  8
1
  6
Continuous
100
AcDbLine
 10
37.58110999999999
 20
296.7768430000016
 30
0.0
 11
37.58110999999999
 21
210.0691709999999
 31
0.0
  0
LINE
  5
9BE9
330
9B9E
100
AcDbEntity
  8
4
  6
CENTER
100
AcDbLine
 10
76.38110199999998
 20
310.5691709999998
 30
0.0
 11
76.38110199999998
 21
297.7691679999998
 31
0.0
  0
LINE
  5
9BEA
330
9B9E
100
AcDbEntity
  8
4
  6
CENTER
100
AcDbLine
 10
36.38111
 20
310.5691709999998
 30
0.0
 11
36.38111
 21
297.7691679999998
 31
0.0
  0
LINE
  5
9BEB
330
9B9E
100
AcDbEntity
  8
1
  6
Continuous
100
AcDbLine
 10
171.6311
 20
297.3235260170106
 30
0.0
 11
171.6311
 21
277.0691719999999
 31
0.0
  0
LINE
  5
9BEC
330
9B9E
100
AcDbEntity
  8
1
  6
Continuous
100
AcDbLine
 10
171.631101
 20
277.0691709999999
 30
0.0
 11
186.6870989999999
 21
217.614318
 31
0.0
  0
LINE
  5
9BED
330
9B9E
100
AcDbEntity
  8
1
  6
Continuous
100
AcDbLine
 10
221.1311
 20
297.3235260170079
 30
0.0
 11
221.1311
 21
277.0691719999999
 31
0.0
  0
LINE
  5
9BEE
330
9B9E
100
AcDbEntity
  8
1
  6
Continuous
100
AcDbLine
 10
32.58110999999999
 20
225.171184
 30
0.0
 11
32.58110999999999
 21
214.967158
 31
0.0
  0
LINE
  5
9BEF
330
9B9E
100
AcDbEntity
  8
1
  6
Continuous
100
AcDbLine
 10
34.05605999999998
 20
216.8191709999999
 30
0.0
 11
37.10617
 21
216.8191709999999
 31
0.0
  0
LINE
  5
9BF0
330
9B9E
100
AcDbEntity
  8
1
  6
Continuous
100
AcDbLine
 10
34.0296
 20
223.3191709999999
 30
0.0
 11
37.13262999999999
 21
223.3191709999999
 31
0.0
  0
LINE
  5
9BF1
330
9B9E
100
AcDbEntity
  8
1
  6
Continuous
100
AcDbLine
 10
33.97911
 20
213.5691709999999
 30
0.0
 11
37.18312
 21
213.5691709999999
 31
0.0
  0
LINE
  5
9BF2
330
9B9E
100
AcDbEntity
  8
1
  6
Continuous
100
AcDbLine
 10
33.97911
 20
226.569171
 30
0.0
 11
37.18312
 21
226.569171
 31
0.0
  0
LINE
  5
9BF3
330
9B9E
100
AcDbEntity
  8
1
  6
Continuous
100
AcDbLine
 10
33.97911
 20
213.5691859999997
 30
0.0
 11
32.58113
 21
214.967174
 31
0.0
  0
LINE
  5
9BF4
330
9B9E
100
AcDbEntity
  8
1
  6
Continuous
100
AcDbLine
 10
32.58110999999999
 20
225.1711759999998
 30
0.0
 11
33.97909
 21
226.569156
 31
0.0
  0
LINE
  5
9BF5
330
9B9E
100
AcDbEntity
  8
1
  6
Continuous
100
AcDbLine
 10
75.181095
 20
226.319171
 30
0.0
 11
76.38109200000002
 21
226.319171
 31
0.0
  0
LINE
  5
9BF6
330
9B9E
100
AcDbEntity
  8
1
  6
Continuous
100
AcDbLine
 10
78.38109200000002
 20
224.319171
 30
0.0
 11
78.38109200000002
 21
215.819171
 31
0.0
  0
LINE
  5
9BF7
330
9B9E
100
AcDbEntity
  8
1
  6
Continuous
100
AcDbLine
 10
75.181095
 20
213.819171
 30
0.0
 11
76.38109200000002
 21
213.819171
 31
0.0
  0
LINE
  5
9BF8
330
9B9E
100
AcDbEntity
  8
1
  6
Continuous
100
AcDbLine
 10
191.3811
 20
400.369171
 30
0.0
 11
201.381098
 21
400.369171
 31
0.0
  0
LINE
  5
9BF9
330
9B9E
100
AcDbEntity
  8
1
  6
Continuous
100
AcDbLine
 10
191.3811
 20
366.7691679999999
 30
0.0
 11
201.381098
 21
366.7691679999999
 31
0.0
  0
LINE
  5
9BFA
330
9B9E
100
AcDbEntity
  8
1
  6
Continuous
100
AcDbLine
 10
191.3811
 20
365.7691679999999
 30
0.0
 11
201.381098
 21
365.7691679999999
 31
0.0
  0
LINE
  5
9BFB
330
9B9E
100
AcDbEntity
  8
1
  6
Continuous
100
AcDbLine
 10
191.3811
 20
365.7691679999999
 30
0.0
 11
191.3811
 21
400.369171
 31
0.0
  0
LINE
  5
9BFC
330
9B9E
100
AcDbEntity
  8
1
  6
Continuous
100
AcDbLine
 10
201.381098
 20
365.7691679999999
 30
0.0
 11
201.381098
 21
400.369171
 31
0.0
  0
LINE
  5
9BFD
330
9B9E
100
AcDbEntity
  8
1
  6
Continuous
100
AcDbLine
 10
191.3811
 20
399.369171
 30
0.0
 11
201.381098
 21
399.369171
 31
0.0
  0
LINE
  5
9BFE
330
9B9E
100
AcDbEntity
  8
1
  6
Continuous
100
AcDbLine
 10
191.3811019999999
 20
273.0691699999999
 30
0.0
 11
191.3811019999999
 21
304.5691709999998
 31
0.0
  0
LINE
  5
9BFF
330
9B9E
100
AcDbEntity
  8
1
  6
Continuous
100
AcDbLine
 10
201.3811
 20
283.6083879999998
 30
0.0
 11
191.3811019999999
 21
283.6083879999998
 31
0.0
  0
LINE
  5
9C00
330
9B9E
100
AcDbEntity
  8
1
  6
Continuous
100
AcDbLine
 10
201.3811
 20
286.1083879999998
 30
0.0
 11
191.3744659999999
 21
286.1083879999998
 31
0.0
  0
LINE
  5
9C01
330
9B9E
100
AcDbEntity
  8
1
  6
Continuous
100
AcDbLine
 10
201.3811
 20
273.069169
 30
0.0
 11
201.3811
 21
304.5691709999998
 31
0.0
  0
LINE
  5
9C02
330
9B9E
100
AcDbEntity
  8
1
  6
Continuous
100
AcDbLine
 10
201.3811039999999
 20
303.569171
 30
0.0
 11
191.3811019999999
 21
303.569171
 31
0.0
  0
LINE
  5
9C03
330
9B9E
100
AcDbEntity
  8
1
  6
Continuous
100
AcDbLine
 10
43.8811
 20
300.7691679999998
 30
0.0
 11
68.88110000000001
 21
300.7691679999998
 31
0.0
  0
LINE
  5
9C04
330
9B9E
100
AcDbEntity
  8
1
  6
Continuous
100
AcDbLine
 10
69.8811
 20
299.7691679999998
 30
0.0
 11
69.8811
 21
286.532079
 31
0.0
  0
LINE
  5
9C05
330
9B9E
100
AcDbEntity
  8
1
  6
Continuous
100
AcDbLine
 10
42.52348
 20
284.6751259999998
 30
0.0
 11
41.3811
 21
281.819181
 31
0.0
  0
LINE
  5
9C06
330
9B9E
100
AcDbEntity
  8
1
  6
Continuous
100
AcDbLine
 10
42.8811
 20
299.7691679999998
 30
0.0
 11
42.8811
 21
286.532079
 31
0.0
  0
LINE
  5
9C07
330
9B9E
100
AcDbEntity
  8
1
  6
Continuous
100
AcDbLine
 10
70.23872
 20
284.6751239999998
 30
0.0
 11
71.38110000000001
 21
281.8191689999998
 31
0.0
  0
LINE
  5
9C08
330
9B9E
100
AcDbEntity
  8
1
  6
Continuous
100
AcDbLine
 10
41.3811
 20
281.819179
 30
0.0
 11
41.3811
 21
268.801219
 31
0.0
  0
LINE
  5
9C09
330
9B9E
100
AcDbEntity
  8
1
  6
Continuous
100
AcDbLine
 10
71.38110000000001
 20
281.8191689999998
 30
0.0
 11
71.38110000000001
 21
268.801219
 31
0.0
  0
LINE
  5
9C0A
330
9B9E
100
AcDbEntity
  8
1
  6
Continuous
100
AcDbLine
 10
202.3811
 20
305.569171
 30
0.0
 11
246.3811
 21
305.569171
 31
0.0
  0
LINE
  5
9C0B
330
9B9E
100
AcDbEntity
  8
1
  6
Continuous
100
AcDbLine
 10
71.38110000000001
 20
224.0691709999999
 30
0.0
 11
72.3811
 21
224.0691709999999
 31
0.0
  0
LINE
  5
9C0C
330
9B9E
100
AcDbEntity
  8
1
  6
Continuous
100
AcDbLine
 10
71.38110000000001
 20
216.069171
 30
0.0
 11
72.3811
 21
216.069171
 31
0.0
  0
CIRCLE
  5
9C0D
330
9B9E
100
AcDbEntity
  8
1
  6
Continuous
100
AcDbCircle
 10
155.3811
 20
403.069171
 30
0.0
 40
4.4
  0
CIRCLE
  5
9C0E
330
9B9E
100
AcDbEntity
  8
1
  6
Continuous
100
AcDbCircle
 10
155.3811
 20
363.0691709999999
 30
0.0
 40
4.4
  0
CIRCLE
  5
9C0F
330
9B9E
100
AcDbEntity
  8
1
  6
Continuous
100
AcDbCircle
 10
237.3810999999999
 20
403.069171
 30
0.0
 40
4.4
  0
CIRCLE
  5
9C10
330
9B9E
100
AcDbEntity
  8
1
  6
Continuous
100
AcDbCircle
 10
237.3810999999999
 20
363.0691709999999
 30
0.0
 40
4.4
  0
ARC
  5
9C11
330
9B9E
100
AcDbEntity
  8
1
  6
Continuous
100
AcDbCircle
 10
153.3811
 20
405.0691709999998
 30
0.0
 40
7.0
100
AcDbArc
 50
89.99998199999996
 51
179.9999599999999
  0
ARC
  5
9C12
330
9B9E
100
AcDbEntity
  8
1
  6
Continuous
100
AcDbCircle
 10
159.766098
 20
404.0691709999999
 30
0.0
 40
8.0
100
AcDbArc
 50
21.25376399999999
 51
89.99998199999996
  0
ARC
  5
9C13
330
9B9E
100
AcDbEntity
  8
1
  6
Continuous
100
AcDbCircle
 10
174.677842
 20
409.8691709999997
 30
0.0
 40
8.0
100
AcDbArc
 50
201.2538
 51
270.00002
  0
ARC
  5
9C14
330
9B9E
100
AcDbEntity
  8
1
  6
Continuous
100
AcDbCircle
 10
153.3811
 20
361.0691709999999
 30
0.0
 40
7.0
100
AcDbArc
 50
179.9999799999999
 51
269.99997
  0
ARC
  5
9C15
330
9B9E
100
AcDbEntity
  8
1
  6
Continuous
100
AcDbCircle
 10
159.766098
 20
362.069171
 30
0.0
 40
8.0
100
AcDbArc
 50
269.9999599999998
 51
338.74618
  0
ARC
  5
9C16
330
9B9E
100
AcDbEntity
  8
1
  6
Continuous
100
AcDbCircle
 10
174.677842
 20
356.2691759999998
 30
0.0
 40
8.0
100
AcDbArc
 50
89.99992699999998
 51
158.74615
  0
ARC
  5
9C17
330
9B9E
100
AcDbEntity
  8
1
  6
Continuous
100
AcDbCircle
 10
239.3810999999999
 20
405.0691709999998
 30
0.0
 40
7.0
100
AcDbArc
 50
0.0
 51
89.99998199999996
  0
ARC
  5
9C18
330
9B9E
100
AcDbEntity
  8
1
  6
Continuous
100
AcDbCircle
 10
232.9961049999997
 20
404.0691709999999
 30
0.0
 40
8.0
100
AcDbArc
 50
89.99998199999996
 51
158.7461899999999
  0
ARC
  5
9C19
330
9B9E
100
AcDbEntity
  8
1
  6
Continuous
100
AcDbCircle
 10
218.084362
 20
409.8691709999997
 30
0.0
 40
8.0
100
AcDbArc
 50
269.9999599999998
 51
338.74619
  0
ARC
  5
9C1A
330
9B9E
100
AcDbEntity
  8
1
  6
Continuous
100
AcDbCircle
 10
239.3810999999999
 20
361.0691709999999
 30
0.0
 40
7.0
100
AcDbArc
 50
270.00002
 51
0.0
  0
ARC
  5
9C1B
330
9B9E
100
AcDbEntity
  8
1
  6
Continuous
100
AcDbCircle
 10
232.9961049999997
 20
362.069171
 30
0.0
 40
8.0
100
AcDbArc
 50
201.2538099999999
 51
270.00002
  0
ARC
  5
9C1C
330
9B9E
100
AcDbEntity
  8
1
  6
Continuous
100
AcDbCircle
 10
218.084362
 20
356.2691759999998
 30
0.0
 40
8.0
100
AcDbArc
 50
21.25381399999998
 51
90.000037
  0
ARC
  5
9C23
330
9B9E
100
AcDbEntity
  8
1
  6
Continuous
100
AcDbCircle
 10
196.3810999999998
 20
220.069171
 30
0.0
 40
10.0
100
AcDbArc
 50
194.2104999999999
 51
345.7895029999999
  0
CIRCLE
  5
9C24
330
9B9E
100
AcDbEntity
  8
1
  6
Continuous
100
AcDbCircle
 10
196.3810999999998
 20
220.069171
 30
0.0
 40
6.25
  0
CIRCLE
  5
9C25
330
9B9E
100
AcDbEntity
  8
1
  6
Continuous
100
AcDbCircle
 10
196.3810999999998
 20
220.069171
 30
0.0
 40
1.5
  0
ARC
  5
9C26
330
9B9E
100
AcDbEntity
  8
1
  6
Continuous
100
AcDbCircle
 10
34.33110999999998
 20
215.127543
 30
0.0
 40
3.25
100
AcDbArc
 50
331.3472299999999
 51
31.365793
  0
ARC
  5
9C27
330
9B9E
100
AcDbEntity
  8
1
  6
Continuous
100
AcDbCircle
 10
36.83110999999997
 20
215.127543
 30
0.0
 40
3.25
100
AcDbArc
 50
148.63423
 51
208.6527299999999
  0
ARC
  5
9C28
330
9B9E
100
AcDbEntity
  8
1
  6
Continuous
100
AcDbCircle
 10
45.58110999999999
 20
220.069171
 30
0.0
 40
12.0
100
AcDbArc
 50
164.2861599999999
 51
195.71383
  0
ARC
  5
9C29
330
9B9E
100
AcDbEntity
  8
1
  6
Continuous
100
AcDbCircle
 10
25.58111
 20
220.069171
 30
0.0
 40
12.0
100
AcDbArc
 50
344.2861399999999
 51
15.71386099999998
  0
ARC
  5
9C2A
330
9B9E
100
AcDbEntity
  8
1
  6
Continuous
100
AcDbCircle
 10
36.83110999999997
 20
225.010799
 30
0.0
 40
3.25
100
AcDbArc
 50
151.34725
 51
211.3657499999999
  0
ARC
  5
9C2B
330
9B9E
100
AcDbEntity
  8
1
  6
Continuous
100
AcDbCircle
 10
34.33110999999998
 20
225.010799
 30
0.0
 40
3.25
100
AcDbArc
 50
328.6342
 51
28.65276699999999
  0
ARC
  5
9C2C
330
9B9E
100
AcDbEntity
  8
1
  6
Continuous
100
AcDbCircle
 10
76.38109200000002
 20
224.319171
 30
0.0
 40
2.0
100
AcDbArc
 50
0.0
 51
89.99998199999996
  0
ARC
  5
9C2D
330
9B9E
100
AcDbEntity
  8
1
  6
Continuous
100
AcDbCircle
 10
76.38109200000002
 20
215.819171
 30
0.0
 40
2.0
100
AcDbArc
 50
270.00002
 51
0.0
  0
ARC
  5
9C2E
330
9B9E
100
AcDbEntity
  8
1
  6
Continuous
100
AcDbCircle
 10
189.8811
 20
400.369171
 30
0.0
 40
1.5
100
AcDbArc
 50
0.0
 51
90.00000300000001
  0
ARC
  5
9C2F
330
9B9E
100
AcDbEntity
  8
1
  6
Continuous
100
AcDbCircle
 10
202.8811
 20
400.369171
 30
0.0
 40
1.5
100
AcDbArc
 50
90.00000300000001
 51
180.00001
  0
ARC
  5
9C30
330
9B9E
100
AcDbEntity
  8
1
  6
Continuous
100
AcDbCircle
 10
189.8811
 20
365.7691759999999
 30
0.0
 40
1.5
100
AcDbArc
 50
270.0
 51
0.0
  0
ARC
  5
9C31
330
9B9E
100
AcDbEntity
  8
1
  6
Continuous
100
AcDbCircle
 10
202.8811
 20
365.7691759999999
 30
0.0
 40
1.5
100
AcDbArc
 50
179.9999899999999
 51
270.0
  0
ARC
  5
9C32
330
9B9E
100
AcDbEntity
  8
1
  6
Continuous
100
AcDbCircle
 10
196.3811019999999
 20
273.069169
 30
0.0
 40
5.0
100
AcDbArc
 50
180.00001
 51
0.0
  0
ARC
  5
9C33
330
9B9E
100
AcDbEntity
  8
1
  6
Continuous
100
AcDbCircle
 10
190.381102
 20
304.5691709999998
 30
0.0
 40
1.0
100
AcDbArc
 50
0.0
 51
90.00000300000001
  0
ARC
  5
9C34
330
9B9E
100
AcDbEntity
  8
1
  6
Continuous
100
AcDbCircle
 10
202.3811
 20
304.5691709999998
 30
0.0
 40
1.0
100
AcDbArc
 50
90.00000300000001
 51
180.00001
  0
ARC
  5
9C35
330
9B9E
100
AcDbEntity
  8
1
  6
Continuous
100
AcDbCircle
 10
43.8811
 20
299.7691679999998
 30
0.0
 40
1.0
100
AcDbArc
 50
90.00000300000001
 51
180.00001
  0
ARC
  5
9C36
330
9B9E
100
AcDbEntity
  8
1
  6
Continuous
100
AcDbCircle
 10
68.88110000000001
 20
299.7691679999998
 30
0.0
 40
1.0
100
AcDbArc
 50
0.0
 51
90.00000300000001
  0
ARC
  5
9C37
330
9B9E
100
AcDbEntity
  8
1
  6
Continuous
100
AcDbCircle
 10
37.8811
 20
286.532079
 30
0.0
 40
5.0
100
AcDbArc
 50
338.1985899999999
 51
0.0
  0
ARC
  5
9C38
330
9B9E
100
AcDbEntity
  8
1
  6
Continuous
100
AcDbCircle
 10
39.3811
 20
268.801219
 30
0.0
 40
2.0
100
AcDbArc
 50
300.0
 51
0.0
  0
ARC
  5
9C39
330
9B9E
100
AcDbEntity
  8
1
  6
Continuous
100
AcDbCircle
 10
74.8811
 20
286.532079
 30
0.0
 40
5.0
100
AcDbArc
 50
179.9999899999999
 51
201.80141
  0
ARC
  5
9C3A
330
9B9E
100
AcDbEntity
  8
1
  6
Continuous
100
AcDbCircle
 10
73.3811
 20
268.801219
 30
0.0
 40
2.0
100
AcDbArc
 50
179.9999899999999
 51
240.00001
  0
LINE
  5
9C61
330
9B9E
100
AcDbEntity
  8
1
  6
Continuous
100
AcDbLine
 10
221.220254
 20
277.4212979999999
 30
0.0
 11
206.0751039999999
 21
217.6143209999999
 31
0.0
  0
LINE
  5
9C74
330
9B9E
100
AcDbEntity
  8
1
  6
Continuous
100
AcDbLine
 10
164.6778419999999
 20
98.86916600000001
 30
0.0
 11
208.084362
 21
98.86916600000001
 31
0.0
  0
LINE
  5
9C75
330
9B9E
100
AcDbEntity
  8
1
  6
Continuous
100
AcDbLine
 10
164.6778419999999
 20
61.269171
 30
0.0
 11
208.084362
 21
61.269171
 31
0.0
  0
LINE
  5
9C76
330
9B9E
100
AcDbEntity
  8
4
  6
CENTER
100
AcDbLine
 10
118.8811
 20
80.06917099999999
 30
0.0
 11
253.8810999999999
 21
80.06917099999999
 31
0.0
  0
LINE
  5
9C77
330
9B9E
100
AcDbEntity
  8
1
  6
Continuous
100
AcDbLine
 10
136.3811
 20
102.0691709999999
 30
0.0
 11
136.3811
 21
92.569171
 31
0.0
  0
LINE
  5
9C78
330
9B9E
100
AcDbEntity
  8
4
  6
CENTER
100
AcDbLine
 10
186.3811
 20
49.269181
 30
0.0
 11
186.3811
 21
107.069163
 31
0.0
  0
ARC
  5
9C79
330
9B9E
100
AcDbEntity
  8
1
  6
Continuous
100
AcDbCircle
 10
164.6778419999999
 20
106.869166
 30
0.0
 40
8.0
100
AcDbArc
 50
201.25385
 51
270.0000729999998
  0
ARC
  5
9C7A
330
9B9E
100
AcDbEntity
  8
1
  6
Continuous
100
AcDbCircle
 10
149.766098
 20
101.0691709999999
 30
0.0
 40
8.0
100
AcDbArc
 50
21.25382
 51
90.00004000000002
  0
ARC
  5
9C7B
330
9B9E
100
AcDbEntity
  8
1
  6
Continuous
100
AcDbCircle
 10
143.3811
 20
102.0691709999999
 30
0.0
 40
7.0
100
AcDbArc
 50
90.00003000000004
 51
180.00002
  0
LINE
  5
9C7C
330
9B9E
100
AcDbEntity
  8
4
  6
CENTER
100
AcDbLine
 10
145.3810999999998
 20
106.0691709999999
 30
0.0
 11
145.3810999999998
 21
94.06917099999999
 31
0.0
  0
LINE
  5
9C7D
330
9B9E
100
AcDbEntity
  8
1
  6
Continuous
100
AcDbLine
 10
143.3811
 20
109.0691709999999
 30
0.0
 11
149.766098
 21
109.0691709999999
 31
0.0
  0
CIRCLE
  5
9C7E
330
9B9E
100
AcDbEntity
  8
1
  6
Continuous
100
AcDbCircle
 10
145.3810999999998
 20
100.0691709999999
 30
0.0
 40
4.4
  0
LINE
  5
9C7F
330
9B9E
100
AcDbEntity
  8
4
  6
CENTER
100
AcDbLine
 10
151.3811
 20
100.0691709999999
 30
0.0
 11
139.3811
 21
100.0691709999999
 31
0.0
  0
ARC
  5
9C80
330
9B9E
100
AcDbEntity
  8
1
  6
Continuous
100
AcDbCircle
 10
164.6778419999999
 20
53.26917099999999
 30
0.0
 40
8.0
100
AcDbArc
 50
89.99997999999996
 51
158.7461999999999
  0
CIRCLE
  5
9C81
330
9B9E
100
AcDbEntity
  8
1
  6
Continuous
100
AcDbCircle
 10
145.3810999999998
 20
60.06917099999999
 30
0.0
 40
4.4
  0
LINE
  5
9C82
330
9B9E
100
AcDbEntity
  8
4
  6
CENTER
100
AcDbLine
 10
145.3810999999998
 20
54.069171
 30
0.0
 11
145.3810999999998
 21
66.069171
 31
0.0
  0
LINE
  5
9C83
330
9B9E
100
AcDbEntity
  8
4
  6
CENTER
100
AcDbLine
 10
151.3811
 20
60.06917099999999
 30
0.0
 11
139.3811
 21
60.06917099999999
 31
0.0
  0
LINE
  5
9C84
330
9B9E
100
AcDbEntity
  8
1
  6
Continuous
100
AcDbLine
 10
143.3811
 20
51.069171
 30
0.0
 11
149.766098
 21
51.069171
 31
0.0
  0
ARC
  5
9C85
330
9B9E
100
AcDbEntity
  8
1
  6
Continuous
100
AcDbCircle
 10
143.3811
 20
58.06917099999999
 30
0.0
 40
7.0
100
AcDbArc
 50
180.0000399999998
 51
270.0000179999999
  0
ARC
  5
9C86
330
9B9E
100
AcDbEntity
  8
1
  6
Continuous
100
AcDbCircle
 10
149.766098
 20
59.069171
 30
0.0
 40
8.0
100
AcDbArc
 50
270.0000179999999
 51
338.746236
  0
LINE
  5
9C87
330
9B9E
100
AcDbEntity
  8
1
  6
Continuous
100
AcDbLine
 10
236.3811
 20
102.0691709999999
 30
0.0
 11
236.3811
 21
92.569171
 31
0.0
  0
CIRCLE
  5
9C88
330
9B9E
100
AcDbEntity
  8
1
  6
Continuous
100
AcDbCircle
 10
227.3811
 20
100.0691709999999
 30
0.0
 40
4.4
  0
LINE
  5
9C89
330
9B9E
100
AcDbEntity
  8
1
  6
Continuous
100
AcDbLine
 10
229.3811
 20
109.0691709999999
 30
0.0
 11
222.9961049999999
 21
109.0691709999999
 31
0.0
  0
LINE
  5
9C8A
330
9B9E
100
AcDbEntity
  8
4
  6
CENTER
100
AcDbLine
 10
221.3811
 20
100.0691709999999
 30
0.0
 11
233.3811
 21
100.0691709999999
 31
0.0
  0
ARC
  5
9C8B
330
9B9E
100
AcDbEntity
  8
1
  6
Continuous
100
AcDbCircle
 10
222.9961049999999
 20
101.0691709999999
 30
0.0
 40
8.0
100
AcDbArc
 50
89.99997999999996
 51
158.7461899999999
  0
ARC
  5
9C8C
330
9B9E
100
AcDbEntity
  8
1
  6
Continuous
100
AcDbCircle
 10
208.084362
 20
106.869166
 30
0.0
 40
8.0
100
AcDbArc
 50
269.9999629999999
 51
338.7461859999999
  0
ARC
  5
9C8D
330
9B9E
100
AcDbEntity
  8
1
  6
Continuous
100
AcDbCircle
 10
229.3811
 20
102.0691709999999
 30
0.0
 40
7.0
100
AcDbArc
 50
0.0
 51
89.99997999999996
  0
LINE
  5
9C8E
330
9B9E
100
AcDbEntity
  8
4
  6
CENTER
100
AcDbLine
 10
227.3811
 20
106.0691709999999
 30
0.0
 11
227.3811
 21
94.06917099999999
 31
0.0
  0
CIRCLE
  5
9C8F
330
9B9E
100
AcDbEntity
  8
1
  6
Continuous
100
AcDbCircle
 10
227.3811
 20
60.06917099999999
 30
0.0
 40
4.4
  0
LINE
  5
9C90
330
9B9E
100
AcDbEntity
  8
1
  6
Continuous
100
AcDbLine
 10
229.3811
 20
51.069171
 30
0.0
 11
222.9961049999999
 21
51.069171
 31
0.0
  0
LINE
  5
9C91
330
9B9E
100
AcDbEntity
  8
4
  6
CENTER
100
AcDbLine
 10
221.3811
 20
60.06917099999999
 30
0.0
 11
233.3811
 21
60.06917099999999
 31
0.0
  0
ARC
  5
9C92
330
9B9E
100
AcDbEntity
  8
1
  6
Continuous
100
AcDbCircle
 10
208.084362
 20
53.26917099999999
 30
0.0
 40
8.0
100
AcDbArc
 50
21.25381
 51
90.00004000000002
  0
ARC
  5
9C93
330
9B9E
100
AcDbEntity
  8
1
  6
Continuous
100
AcDbCircle
 10
222.9961049999999
 20
59.069171
 30
0.0
 40
8.0
100
AcDbArc
 50
201.2538099999999
 51
270.0000179999999
  0
LINE
  5
9C94
330
9B9E
100
AcDbEntity
  8
4
  6
CENTER
100
AcDbLine
 10
227.3811
 20
54.069171
 30
0.0
 11
227.3811
 21
66.069171
 31
0.0
  0
ARC
  5
9C95
330
9B9E
100
AcDbEntity
  8
1
  6
Continuous
100
AcDbCircle
 10
229.3811
 20
58.06917099999999
 30
0.0
 40
7.0
100
AcDbArc
 50
270.0000179999999
 51
0.0
  0
LINE
  5
9C96
330
9B9E
100
AcDbEntity
  8
1
  6
Continuous
100
AcDbLine
 10
182.3811
 20
64.069171
 30
0.0
 11
182.3811
 21
65.06917099999999
 31
0.0
  0
LINE
  5
9C97
330
9B9E
100
AcDbEntity
  8
1
  6
Continuous
100
AcDbLine
 10
190.3811
 20
64.069171
 30
0.0
 11
190.3811
 21
65.06917099999999
 31
0.0
  0
ARC
  5
9C98
330
9B9E
100
AcDbEntity
  8
1
  6
Continuous
100
AcDbCircle
 10
190.6311
 20
100.0691629999999
 30
0.0
 40
2.0
100
AcDbArc
 50
0.00002
 51
90.0
  0
LINE
  5
9C99
330
9B9E
100
AcDbEntity
  8
1
  6
Continuous
100
AcDbLine
 10
182.3811
 20
95.069171
 30
0.0
 11
182.3811
 21
96.069171
 31
0.0
  0
LINE
  5
9C9A
330
9B9E
100
AcDbEntity
  8
1
  6
Continuous
100
AcDbLine
 10
180.1311
 20
98.86916600000001
 30
0.0
 11
180.1311
 21
100.0691629999999
 31
0.0
  0
LINE
  5
9C9B
330
9B9E
100
AcDbEntity
  8
1
  6
Continuous
100
AcDbLine
 10
190.3811
 20
95.069171
 30
0.0
 11
190.3811
 21
96.069171
 31
0.0
  0
LINE
  5
9C9C
330
9B9E
100
AcDbEntity
  8
1
  6
Continuous
100
AcDbLine
 10
182.1311
 20
102.0691629999999
 30
0.0
 11
190.6311
 21
102.0691629999999
 31
0.0
  0
ARC
  5
9C9D
330
9B9E
100
AcDbEntity
  8
1
  6
Continuous
100
AcDbCircle
 10
182.1311
 20
100.0691629999999
 30
0.0
 40
2.0
100
AcDbArc
 50
90.0
 51
179.999982
  0
LINE
  5
9C9E
330
9B9E
100
AcDbEntity
  8
1
  6
Continuous
100
AcDbLine
 10
192.6311
 20
98.86916600000001
 30
0.0
 11
192.6311
 21
100.0691629999999
 31
0.0
  0
LINE
  5
9C9F
330
9B9E
100
AcDbEntity
  8
1
  6
Continuous
100
AcDbLine
 10
236.3811
 20
67.56917099999999
 30
0.0
 11
236.3811
 21
58.06917099999999
 31
0.0
  0
LINE
  5
9CA0
330
9B9E
100
AcDbEntity
  8
1
  6
Continuous
100
AcDbLine
 10
136.3811
 20
67.56917099999999
 30
0.0
 11
136.3811
 21
58.06917099999999
 31
0.0
  0
LINE
  5
9CA1
330
9B9E
100
AcDbEntity
  8
1
  6
Continuous
100
AcDbLine
 10
210.3810999999998
 20
96.069171
 30
0.0
 11
162.3485389999999
 21
96.069171
 31
0.0
  0
ARC
  5
9CA2
330
9B9E
100
AcDbEntity
  8
1
  6
Continuous
100
AcDbCircle
 10
189.6311
 20
53.29993299999999
 30
0.0
 40
7.969237999999998
100
AcDbArc
 50
65.932151
 51
114.0678489999999
  0
LINE
  5
9CA3
330
9B9E
100
AcDbEntity
  8
1
  6
Continuous
100
AcDbLine
 10
183.1311
 20
56.269171
 30
0.0
 11
189.6311
 21
56.269171
 31
0.0
  0
LINE
  5
9CA4
330
9B9E
100
AcDbEntity
  8
1
  6
Continuous
100
AcDbLine
 10
183.1311
 20
61.269171
 30
0.0
 11
189.6311
 21
61.269171
 31
0.0
  0
LINE
  5
9CA5
330
9B9E
100
AcDbEntity
  8
1
  6
Continuous
100
AcDbLine
 10
186.3811
 20
56.961992
 30
0.0
 11
186.3811
 21
60.576351
 31
0.0
  0
LINE
  5
9CA6
330
9B9E
100
AcDbEntity
  8
1
  6
Continuous
100
AcDbLine
 10
179.8811
 20
56.961992
 30
0.0
 11
179.8811
 21
60.576351
 31
0.0
  0
ARC
  5
9CA7
330
9B9E
100
AcDbEntity
  8
1
  6
Continuous
100
AcDbCircle
 10
183.1311
 20
53.29993299999999
 30
0.0
 40
7.969237999999998
100
AcDbArc
 50
65.932151
 51
114.0678489999999
  0
LINE
  5
9CA8
330
9B9E
100
AcDbEntity
  8
1
  6
Continuous
100
AcDbLine
 10
192.8810999999998
 20
56.961992
 30
0.0
 11
192.8810999999998
 21
60.576351
 31
0.0
  0
LINE
  5
9CA9
330
9B9E
100
AcDbEntity
  8
1
  6
Continuous
100
AcDbLine
 10
193.1310999999998
 20
406.869171
 30
0.0
 11
199.6311
 21
406.869171
 31
0.0
  0
LINE
  5
9CAA
330
9B9E
100
AcDbEntity
  8
1
  6
Continuous
100
AcDbLine
 10
202.8811
 20
406.1763509999998
 30
0.0
 11
202.8811
 21
402.5619919999998
 31
0.0
  0
ARC
  5
9CAB
330
9B9E
100
AcDbEntity
  8
1
  6
Continuous
100
AcDbCircle
 10
199.6311
 20
409.838409
 30
0.0
 40
7.969237999999998
100
AcDbArc
 50
245.932151
 51
294.067849
  0
LINE
  5
9CAC
330
9B9E
100
AcDbEntity
  8
1
  6
Continuous
100
AcDbLine
 10
196.3810999999998
 20
406.1763509999998
 30
0.0
 11
196.3810999999998
 21
402.5619919999998
 31
0.0
  0
LINE
  5
9CAD
330
9B9E
100
AcDbEntity
  8
1
  6
Continuous
100
AcDbLine
 10
189.8811
 20
406.1763509999998
 30
0.0
 11
189.8811
 21
402.5619919999998
 31
0.0
  0
ARC
  5
9CAE
330
9B9E
100
AcDbEntity
  8
1
  6
Continuous
100
AcDbCircle
 10
193.1310999999998
 20
409.838409
 30
0.0
 40
7.969237999999998
100
AcDbArc
 50
245.932151
 51
294.067849
  0
ARC
  5
9CAF
330
9B9E
100
AcDbEntity
  8
1
  6
Continuous
100
AcDbCircle
 10
200.6311
 20
363.069179
 30
0.0
 40
2.0
100
AcDbArc
 50
270.0
 51
359.9999799999998
  0
LINE
  5
9CB0
330
9B9E
100
AcDbEntity
  8
1
  6
Continuous
100
AcDbLine
 10
192.1311
 20
361.069179
 30
0.0
 11
200.6311
 21
361.069179
 31
0.0
  0
ARC
  5
9CB1
330
9B9E
100
AcDbEntity
  8
1
  6
Continuous
100
AcDbCircle
 10
192.1311
 20
363.069179
 30
0.0
 40
2.0
100
AcDbArc
 50
180.0000179999999
 51
270.0
  0
LINE
  5
9CB2
330
9B9E
100
AcDbEntity
  8
1
  6
Continuous
100
AcDbLine
 10
202.6311
 20
364.2691759999999
 30
0.0
 11
202.6311
 21
363.069179
 31
0.0
  0
LINE
  5
9CB3
330
9B9E
100
AcDbEntity
  8
1
  6
Continuous
100
AcDbLine
 10
190.1310999999997
 20
364.2691759999999
 30
0.0
 11
190.1310999999997
 21
363.069179
 31
0.0
  0
ARC
  5
9CB4
330
9B9E
100
AcDbEntity
  8
1
  6
Continuous
100
AcDbCircle
 10
210.381105
 20
104.0691709999999
 30
0.0
 40
8.0
100
AcDbArc
 50
269.9999629999999
 51
338.7461859999999
  0
ARC
  5
9CB5
330
9B9E
100
AcDbEntity
  8
1
  6
Continuous
100
AcDbCircle
 10
225.292848
 20
98.26917600000001
 30
0.0
 40
8.0
100
AcDbArc
 50
107.6060259999999
 51
158.7461899999999
  0
ARC
  5
9CB6
330
9B9E
100
AcDbEntity
  8
1
  6
Continuous
100
AcDbCircle
 10
221.15019
 20
111.323725
 30
0.0
 40
5.696088999999997
100
AcDbArc
 50
287.606026
 51
336.6836689999999
  0
ARC
  5
9CB7
330
9B9E
100
AcDbEntity
  8
1
  6
Continuous
100
AcDbCircle
 10
151.61201
 20
111.323725
 30
0.0
 40
5.696088999999997
100
AcDbArc
 50
203.3163309999999
 51
252.393974
  0
ARC
  5
9CB8
330
9B9E
100
AcDbEntity
  8
1
  6
Continuous
100
AcDbCircle
 10
147.4693519999999
 20
98.26917600000001
 30
0.0
 40
8.0
100
AcDbArc
 50
21.25381
 51
72.393974
  0
ARC
  5
9CB9
330
9B9E
100
AcDbEntity
  8
1
  6
Continuous
100
AcDbCircle
 10
162.381095
 20
104.0691709999999
 30
0.0
 40
8.0
100
AcDbArc
 50
201.253814
 51
270.000037
  0
LINE
  5
9CBA
330
9B9E
100
AcDbEntity
  8
1
  6
Continuous
100
AcDbLine
 10
162.3811
 20
96.069171
 30
0.0
 11
210.4136619999999
 21
96.069171
 31
0.0
  0
ARC
  5
9CBB
330
9B9E
100
AcDbEntity
  8
1
  6
Continuous
100
AcDbCircle
 10
221.15019
 20
48.814618
 30
0.0
 40
5.696088999999997
100
AcDbArc
 50
23.31633099999999
 51
72.393974
  0
ARC
  5
9CBC
330
9B9E
100
AcDbEntity
  8
1
  6
Continuous
100
AcDbCircle
 10
225.292848
 20
61.86916599999999
 30
0.0
 40
8.0
100
AcDbArc
 50
201.2538099999999
 51
252.393974
  0
ARC
  5
9CBD
330
9B9E
100
AcDbEntity
  8
1
  6
Continuous
100
AcDbCircle
 10
210.381105
 20
56.069171
 30
0.0
 40
8.0
100
AcDbArc
 50
21.25381399999998
 51
90.000037
  0
LINE
  5
9CBE
330
9B9E
100
AcDbEntity
  8
1
  6
Continuous
100
AcDbLine
 10
162.3811
 20
64.069171
 30
0.0
 11
210.4136619999999
 21
64.069171
 31
0.0
  0
ARC
  5
9CBF
330
9B9E
100
AcDbEntity
  8
1
  6
Continuous
100
AcDbCircle
 10
162.381095
 20
56.069171
 30
0.0
 40
8.0
100
AcDbArc
 50
89.99996299999997
 51
158.7461859999999
  0
ARC
  5
9CC0
330
9B9E
100
AcDbEntity
  8
1
  6
Continuous
100
AcDbCircle
 10
147.4693519999999
 20
61.86916599999999
 30
0.0
 40
8.0
100
AcDbArc
 50
287.606026
 51
338.74619
  0
ARC
  5
9CC1
330
9B9E
100
AcDbEntity
  8
1
  6
Continuous
100
AcDbCircle
 10
151.61201
 20
48.814618
 30
0.0
 40
5.696088999999997
100
AcDbArc
 50
107.6060259999999
 51
156.6836689999998
  0
ARC
  5
9CC2
330
9B9E
100
AcDbEntity
  8
1
  6
Continuous
100
AcDbCircle
 10
199.6311
 20
398.899933
 30
0.0
 40
7.969237999999998
100
AcDbArc
 50
65.932151
 51
114.0678489999999
  0
ARC
  5
9CC3
330
9B9E
100
AcDbEntity
  8
1
  6
Continuous
100
AcDbCircle
 10
193.1310999999998
 20
398.899933
 30
0.0
 40
7.969237999999998
100
AcDbArc
 50
65.932151
 51
114.0678489999999
  0
ARC
  5
9CC4
330
9B9E
100
AcDbEntity
  8
1
  6
Continuous
100
AcDbCircle
 10
189.6311
 20
64.23840899999999
 30
0.0
 40
7.969237999999998
100
AcDbArc
 50
245.932151
 51
294.067849
  0
ARC
  5
9CC5
330
9B9E
100
AcDbEntity
  8
1
  6
Continuous
100
AcDbCircle
 10
183.1311
 20
64.23840899999999
 30
0.0
 40
7.969237999999998
100
AcDbArc
 50
245.932151
 51
294.067849
  0
LINE
  5
9CC8
330
9B9E
100
AcDbEntity
  8
4
  6
CENTER
100
AcDbLine
 10
543.8810999999998
 20
220.069171
 30
0.0
 11
408.8810999999997
 21
220.069171
 31
0.0
  0
LINE
  5
9CC9
330
9B9E
100
AcDbEntity
  8
4
  6
CENTER
100
AcDbLine
 10
476.3811
 20
310.5691709999998
 30
0.0
 11
476.3811
 21
152.5691709999998
 31
0.0
  0
LINE
  5
9CCA
330
9B9E
100
AcDbEntity
  8
1
  6
Continuous
100
AcDbLine
 10
451.541946
 20
277.4212979999999
 30
0.0
 11
466.6870959999998
 21
217.6143209999999
 31
0.0
  0
LINE
  5
9CCB
330
9B9E
100
AcDbEntity
  8
1
  6
Continuous
100
AcDbLine
 10
501.131099
 20
277.0691709999999
 30
0.0
 11
486.0751009999998
 21
217.614318
 31
0.0
  0
ARC
  5
9CCC
330
9B9E
100
AcDbEntity
  8
1
  6
Continuous
100
AcDbCircle
 10
476.3811
 20
220.069171
 30
0.0
 40
10.0
100
AcDbArc
 50
194.210497
 51
345.7894999999999
  0
ARC
  5
9CCD
330
9B9E
100
AcDbEntity
  8
1
  6
Continuous
100
AcDbCircle
 10
482.3810980000001
 20
304.5691709999998
 30
0.0
 40
1.0
100
AcDbArc
 50
89.99999700000001
 51
180.0
  0
ARC
  5
9CCE
330
9B9E
100
AcDbEntity
  8
1
  6
Continuous
100
AcDbCircle
 10
476.381098
 20
273.069169
 30
0.0
 40
5.0
100
AcDbArc
 50
180.0
 51
359.9999899999998
  0
LINE
  5
9CCF
330
9B9E
100
AcDbEntity
  8
1
  6
Continuous
100
AcDbLine
 10
471.3810959999998
 20
303.569171
 30
0.0
 11
481.381098
 21
303.569171
 31
0.0
  0
LINE
  5
9CD0
330
9B9E
100
AcDbEntity
  8
1
  6
Continuous
100
AcDbLine
 10
471.3810999999998
 20
286.1083879999998
 30
0.0
 11
481.3877339999998
 21
286.1083879999998
 31
0.0
  0
LINE
  5
9CD1
330
9B9E
100
AcDbEntity
  8
1
  6
Continuous
100
AcDbLine
 10
471.3810999999998
 20
283.6083879999998
 30
0.0
 11
481.381098
 21
283.6083879999998
 31
0.0
  0
LINE
  5
9CD2
330
9B9E
100
AcDbEntity
  8
4
  6
CENTER
100
AcDbLine
 10
517.3810999999998
 20
310.5691709999998
 30
0.0
 11
517.3810999999998
 21
297.7691679999998
 31
0.0
  0
LINE
  5
9CD3
330
9B9E
100
AcDbEntity
  8
1
  6
Continuous
100
AcDbLine
 10
526.3810999999998
 20
302.7691679999998
 30
0.0
 11
507.5552459999998
 21
302.7691679999998
 31
0.0
  0
LINE
  5
9CD4
330
9B9E
100
AcDbEntity
  8
1
  6
Continuous
100
AcDbLine
 10
526.3810999999998
 20
305.569171
 30
0.0
 11
482.3810980000001
 21
305.569171
 31
0.0
  0
LINE
  5
9CD5
330
9B9E
100
AcDbEntity
  8
1
  6
Continuous
100
AcDbLine
 10
526.3810999999998
 20
302.7691679999998
 30
0.0
 11
526.3810999999998
 21
305.569171
 31
0.0
  0
LINE
  5
9CD6
330
9B9E
100
AcDbEntity
  8
1
  6
Continuous
100
AcDbLine
 10
481.381098
 20
273.0691699999999
 30
0.0
 11
481.381098
 21
304.5691709999998
 31
0.0
  0
LINE
  5
9CD7
330
9B9E
100
AcDbEntity
  8
1
  6
Continuous
100
AcDbLine
 10
501.1311
 20
297.3235260170077
 30
0.0
 11
501.1311
 21
277.0691719999999
 31
0.0
  0
LINE
  5
9CE5
330
9B9E
100
AcDbEntity
  8
4
  6
CENTER
100
AcDbLine
 10
435.3811
 20
310.5691709999998
 30
0.0
 11
435.3811
 21
297.7691679999998
 31
0.0
  0
LINE
  5
9CF1
330
9B9E
100
AcDbEntity
  8
1
  6
Continuous
100
AcDbLine
 10
470.3810999999998
 20
305.569171
 30
0.0
 11
426.3811
 21
305.569171
 31
0.0
  0
LINE
  5
9CF2
330
9B9E
100
AcDbEntity
  8
1
  6
Continuous
100
AcDbLine
 10
471.3810999999998
 20
273.069169
 30
0.0
 11
471.3810999999998
 21
304.5691709999998
 31
0.0
  0
LINE
  5
9CF3
330
9B9E
100
AcDbEntity
  8
1
  6
Continuous
100
AcDbLine
 10
451.6310999999998
 20
297.3235260170077
 30
0.0
 11
451.6310999999998
 21
277.0691719999999
 31
0.0
  0
ARC
  5
9CF4
330
9B9E
100
AcDbEntity
  8
1
  6
Continuous
100
AcDbCircle
 10
470.3810999999998
 20
304.5691709999998
 30
0.0
 40
1.0
100
AcDbArc
 50
359.9999899999998
 51
89.99999700000001
  0
LINE
  5
9CF5
330
9B9E
100
AcDbEntity
  8
1
  6
Continuous
100
AcDbLine
 10
445.206955
 20
302.7691679999998
 30
0.0
 11
426.3811
 21
302.7691679999998
 31
0.0
  0
LINE
  5
9CF8
330
9B9E
100
AcDbEntity
  8
1
  6
Continuous
100
AcDbLine
 10
426.3811
 20
302.7691679999998
 30
0.0
 11
426.3811
 21
305.569171
 31
0.0
  0
CIRCLE
  5
9CF9
330
9B9E
100
AcDbEntity
  8
2
  6
Continuous
100
AcDbCircle
 10
476.3811
 20
220.069171
 30
0.0
 40
3.3235
  0
CIRCLE
  5
9CFA
330
9B9E
100
AcDbEntity
  8
1
  6
Continuous
100
AcDbCircle
 10
476.3811
 20
220.069171
 30
0.0
 40
4.0
  0
LINE
  5
9CFB
330
9B9E
100
AcDbEntity
  8
1
  6
Continuous
100
AcDbLine
 10
469.8811
 20
216.3219479999999
 30
0.0
 11
476.3811
 21
212.5691709999999
 31
0.0
  0
LINE
  5
9CFC
330
9B9E
100
AcDbEntity
  8
1
  6
Continuous
100
AcDbLine
 10
469.8811
 20
223.816395
 30
0.0
 11
476.3811
 21
227.5691709999999
 31
0.0
  0
LINE
  5
9CFD
330
9B9E
100
AcDbEntity
  8
1
  6
Continuous
100
AcDbLine
 10
482.8810999999998
 20
216.3219479999999
 30
0.0
 11
482.8810999999998
 21
223.816395
 31
0.0
  0
LINE
  5
9CFE
330
9B9E
100
AcDbEntity
  8
1
  6
Continuous
100
AcDbLine
 10
482.8810999999998
 20
216.3219479999999
 30
0.0
 11
476.3811
 21
212.5691709999999
 31
0.0
  0
LINE
  5
9CFF
330
9B9E
100
AcDbEntity
  8
1
  6
Continuous
100
AcDbLine
 10
482.8810999999998
 20
223.816395
 30
0.0
 11
476.3811
 21
227.5691709999999
 31
0.0
  0
LINE
  5
9D00
330
9B9E
100
AcDbEntity
  8
1
  6
Continuous
100
AcDbLine
 10
469.8811
 20
216.3219479999999
 30
0.0
 11
469.8811
 21
223.816395
 31
0.0
  0
CIRCLE
  5
9D01
330
9B9E
100
AcDbEntity
  8
1
  6
Continuous
100
AcDbCircle
 10
476.3811
 20
220.069171
 30
0.0
 40
6.299999999999998
  0
LINE
  5
9D02
330
9B9E
100
AcDbEntity
  8
1
  6
Continuous
100
AcDbLine
 10
43.8811
 20
280.453029
 30
0.0
 11
43.8811
 21
159.6853129999998
 31
0.0
  0
LINE
  5
9D03
330
9B9E
100
AcDbEntity
  8
1
  6
Continuous
100
AcDbLine
 10
68.88110000000001
 20
280.453029
 30
0.0
 11
68.88110000000001
 21
159.6853129999998
 31
0.0
  0
ARC
  5
9D04
330
9B9E
100
AcDbEntity
  8
1
  6
Continuous
100
AcDbCircle
 10
56.38110000000001
 20
257.569171
 30
0.0
 40
100.0
100
AcDbArc
 50
263.5880999999999
 51
276.4118899999999
  0
ARC
  5
9D05
330
9B9E
100
AcDbEntity
  8
1
  6
Continuous
100
AcDbCircle
 10
45.3811
 20
159.6853129999998
 30
0.0
 40
1.5
100
AcDbArc
 50
179.9999799999999
 51
263.5881499999999
  0
ARC
  5
9D06
330
9B9E
100
AcDbEntity
  8
1
  6
Continuous
100
AcDbCircle
 10
67.3811
 20
159.6853129999998
 30
0.0
 40
1.5
100
AcDbArc
 50
276.41184
 51
0.0
  0
LINE
  5
9D07
330
9B9E
100
AcDbEntity
  8
1
  6
Continuous
100
AcDbLine
 10
41.3811
 20
229.0691709999999
 30
0.0
 11
41.3811
 21
211.0691709999999
 31
0.0
  0
LINE
  5
9D08
330
9B9E
100
AcDbEntity
  8
1
  6
Continuous
100
AcDbLine
 10
71.38110000000001
 20
229.0691709999999
 30
0.0
 11
71.38110000000001
 21
211.0691709999999
 31
0.0
  0
ARC
  5
9D09
330
9B9E
100
AcDbEntity
  8
1
  6
Continuous
100
AcDbCircle
 10
42.3811
 20
211.0691709999999
 30
0.0
 40
1.0
100
AcDbArc
 50
179.9999799999999
 51
265.5884599999998
  0
LINE
  5
9D0A
330
9B9E
100
AcDbEntity
  8
1
  6
Continuous
100
AcDbLine
 10
42.304188
 20
210.0721309999999
 30
0.0
 11
43.88110799999998
 21
209.9504759999999
 31
0.0
  0
ARC
  5
9D0B
330
9B9E
100
AcDbEntity
  8
1
  6
Continuous
100
AcDbCircle
 10
70.3811
 20
211.0691709999999
 30
0.0
 40
1.0
100
AcDbArc
 50
274.4115199999999
 51
0.0
  0
LINE
  5
9D0C
330
9B9E
100
AcDbEntity
  8
1
  6
Continuous
100
AcDbLine
 10
68.88111499999999
 20
209.9504799999999
 30
0.0
 11
70.458027
 21
210.072135
 31
0.0
  0
ARC
  5
9D0D
330
9B9E
100
AcDbEntity
  8
1
  6
Continuous
100
AcDbCircle
 10
42.3811
 20
229.0691709999999
 30
0.0
 40
1.0
100
AcDbArc
 50
94.41154
 51
180.00002
  0
LINE
  5
9D0E
330
9B9E
100
AcDbEntity
  8
1
  6
Continuous
100
AcDbLine
 10
42.304188
 20
230.066212
 30
0.0
 11
43.88110799999998
 21
230.1878669999999
 31
0.0
  0
ARC
  5
9D0F
330
9B9E
100
AcDbEntity
  8
1
  6
Continuous
100
AcDbCircle
 10
70.3811
 20
229.0691709999999
 30
0.0
 40
1.0
100
AcDbArc
 50
0.0
 51
85.58847900000001
  0
LINE
  5
9D10
330
9B9E
100
AcDbEntity
  8
1
  6
Continuous
100
AcDbLine
 10
68.88111499999999
 20
230.187862
 30
0.0
 11
70.458027
 21
230.066207
 31
0.0
  0
ARC
  5
9D11
330
9B9E
100
AcDbEntity
  8
1
  6
Continuous
100
AcDbCircle
 10
56.38110000000001
 20
182.5691709999999
 30
0.0
 40
100.0
100
AcDbArc
 50
83.58811499999999
 51
96.41190400000001
  0
ARC
  5
9D12
330
9B9E
100
AcDbEntity
  8
1
  6
Continuous
100
AcDbCircle
 10
45.3811
 20
280.453029
 30
0.0
 40
1.5
100
AcDbArc
 50
96.41186300000001
 51
180.00002
  0
ARC
  5
9D13
330
9B9E
100
AcDbEntity
  8
1
  6
Continuous
100
AcDbCircle
 10
67.3811
 20
280.453029
 30
0.0
 40
1.5
100
AcDbArc
 50
0.0
 51
83.58815600000001
  0
LINE
  5
9D14
330
9B9E
100
AcDbEntity
  8
1
  6
Continuous
100
AcDbLine
 10
199.3810999999998
 20
208.5366089999999
 30
0.0
 11
199.3810999999998
 21
167.165721
 31
0.0
  0
LINE
  5
9D15
330
9B9E
100
AcDbEntity
  8
1
  6
Continuous
100
AcDbLine
 10
193.3811
 20
208.5366089999999
 30
0.0
 11
193.3811
 21
167.165721
 31
0.0
  0
ARC
  5
9D16
330
9B9E
100
AcDbEntity
  8
1
  6
Continuous
100
AcDbCircle
 10
196.3810999999998
 20
220.069171
 30
0.0
 40
62.5
100
AcDbArc
 50
113.3283559999999
 51
66.58260699999999
  0
ARC
  5
9D17
330
9B9E
100
AcDbEntity
  8
1
  6
Continuous
100
AcDbCircle
 10
196.3810999999998
 20
220.069171
 30
0.0
 40
56.24260699999999
100
AcDbArc
 50
114.4522189999997
 51
65.547794
  0
ARC
  5
9D18
330
9B9E
100
AcDbEntity
  8
1
  6
Continuous
100
AcDbCircle
 10
190.3811
 20
167.165721
 30
0.0
 40
3.0
100
AcDbArc
 50
263.52951
 51
0.0
  0
ARC
  5
9D19
330
9B9E
100
AcDbEntity
  8
1
  6
Continuous
100
AcDbCircle
 10
202.3811
 20
167.165721
 30
0.0
 40
3.0
100
AcDbArc
 50
179.9999799999999
 51
276.4704599999999
  0
LINE
  5
9D1A
330
9B9E
100
AcDbEntity
  8
1
  6
Continuous
100
AcDbLine
 10
149.065372
 20
243.92282
 30
0.0
 11
184.8936159999998
 21
223.237377
 31
0.0
  0
LINE
  5
9D1B
330
9B9E
100
AcDbEntity
  8
1
  6
Continuous
100
AcDbLine
 10
152.0653649999998
 20
249.1189759999997
 30
0.0
 11
183.2715359999999
 21
231.1020839999999
 31
0.0
  0
LINE
  5
9D1C
330
9B9E
100
AcDbEntity
  8
1
  6
Continuous
100
AcDbLine
 10
152.0653659999998
 20
191.019362
 30
0.0
 11
187.893608
 21
211.704807
 31
0.0
  0
LINE
  5
9D1D
330
9B9E
100
AcDbEntity
  8
1
  6
Continuous
100
AcDbLine
 10
149.065372
 20
196.2155239999999
 30
0.0
 11
184.8936159999998
 21
216.9009669999999
 31
0.0
  0
ARC
  5
9D1E
330
9B9E
100
AcDbEntity
  8
1
  6
Continuous
100
AcDbCircle
 10
147.5653649999999
 20
198.8136
 30
0.0
 40
3.0
100
AcDbArc
 50
203.5294599999998
 51
300.00001
  0
ARC
  5
9D1F
330
9B9E
100
AcDbEntity
  8
1
  6
Continuous
100
AcDbCircle
 10
153.5653649999999
 20
188.4212919999999
 30
0.0
 40
3.0
100
AcDbArc
 50
120.0000199999999
 51
216.4704399999999
  0
ARC
  5
9D20
330
9B9E
100
AcDbEntity
  8
1
  6
Continuous
100
AcDbCircle
 10
147.5653649999999
 20
241.3247419999999
 30
0.0
 40
3.0
100
AcDbArc
 50
59.999995
 51
156.47054
  0
ARC
  5
9D21
330
9B9E
100
AcDbEntity
  8
1
  6
Continuous
100
AcDbCircle
 10
153.5653649999999
 20
251.717052
 30
0.0
 40
3.0
100
AcDbArc
 50
143.52954
 51
239.99995
  0
LINE
  5
9D22
330
9B9E
100
AcDbEntity
  8
1
  6
Continuous
100
AcDbLine
 10
209.4906599999999
 20
231.1020759999999
 30
0.0
 11
240.69685
 21
249.1189759999997
 31
0.0
  0
LINE
  5
9D23
330
9B9E
100
AcDbEntity
  8
1
  6
Continuous
100
AcDbLine
 10
207.8685989999999
 20
223.2373729999999
 30
0.0
 11
243.69685
 21
243.922818
 31
0.0
  0
LINE
  5
9D24
330
9B9E
100
AcDbEntity
  8
1
  6
Continuous
100
AcDbLine
 10
204.868599
 20
211.704815
 30
0.0
 11
240.69685
 21
191.01937
 31
0.0
  0
LINE
  5
9D25
330
9B9E
100
AcDbEntity
  8
1
  6
Continuous
100
AcDbLine
 10
207.8685989999999
 20
216.90097
 30
0.0
 11
243.69685
 21
196.2155239999999
 31
0.0
  0
ARC
  5
9D26
330
9B9E
100
AcDbEntity
  8
1
  6
Continuous
100
AcDbCircle
 10
209.368595
 20
220.639297
 30
0.0
 40
3.0
100
AcDbArc
 50
119.9999999999999
 51
130.5461449999999
  0
ARC
  5
9D27
330
9B9E
100
AcDbEntity
  8
1
  6
Continuous
100
AcDbCircle
 10
183.3936079999998
 20
220.6392989999999
 30
0.0
 40
3.0
100
AcDbArc
 50
49.45395900000001
 51
60.000002
  0
ARC
  5
9D28
330
9B9E
100
AcDbEntity
  8
1
  6
Continuous
100
AcDbCircle
 10
196.3810999999998
 20
220.069171
 30
0.0
 40
16.0
100
AcDbArc
 50
202.8192199999999
 51
217.1807299999999
  0
ARC
  5
9D29
330
9B9E
100
AcDbEntity
  8
1
  6
Continuous
100
AcDbCircle
 10
183.3936079999998
 20
219.499043
 30
0.0
 40
3.0
100
AcDbArc
 50
300.0
 51
2.513570999999998
  0
LINE
  5
9D2A
330
9B9E
100
AcDbEntity
  8
1
  6
Continuous
100
AcDbLine
 10
183.6333769999999
 20
210.399862
 30
0.0
 11
188.895821
 21
213.438134
 31
0.0
  0
ARC
  5
9D2B
330
9B9E
100
AcDbEntity
  8
1
  6
Continuous
100
AcDbCircle
 10
190.3811
 20
208.5366089999999
 30
0.0
 40
3.0
100
AcDbArc
 50
0.0
 51
62.51360699999999
  0
ARC
  5
9D2C
330
9B9E
100
AcDbEntity
  8
1
  6
Continuous
100
AcDbCircle
 10
189.3936079999997
 20
209.106736
 30
0.0
 40
3.0
100
AcDbArc
 50
57.48641
 51
120.00003
  0
LINE
  5
9D2D
330
9B9E
100
AcDbEntity
  8
1
  6
Continuous
100
AcDbLine
 10
181.6333769999999
 20
213.863965
 30
0.0
 11
186.8958209999999
 21
216.9022379999999
 31
0.0
  0
ARC
  5
9D2E
330
9B9E
100
AcDbEntity
  8
1
  6
Continuous
100
AcDbCircle
 10
209.368595
 20
219.499045
 30
0.0
 40
3.0
100
AcDbArc
 50
190.2823019999999
 51
239.99998
  0
LINE
  5
9D2F
330
9B9E
100
AcDbEntity
  8
1
  6
Continuous
100
AcDbLine
 10
203.866387
 20
213.438143
 30
0.0
 11
209.1288299999999
 21
210.3998699999999
 31
0.0
  0
ARC
  5
9D30
330
9B9E
100
AcDbEntity
  8
1
  6
Continuous
100
AcDbCircle
 10
203.368595
 20
209.106737
 30
0.0
 40
3.0
100
AcDbArc
 50
59.999995
 51
122.51365
  0
ARC
  5
9D31
330
9B9E
100
AcDbEntity
  8
1
  6
Continuous
100
AcDbCircle
 10
202.3811
 20
208.5366089999999
 30
0.0
 40
3.0
100
AcDbArc
 50
117.4864099999999
 51
179.9999599999999
  0
ARC
  5
9D32
330
9B9E
100
AcDbEntity
  8
1
  6
Continuous
100
AcDbCircle
 10
196.3810999999998
 20
220.069171
 30
0.0
 40
16.0
100
AcDbArc
 50
322.8192399999998
 51
337.18076
  0
LINE
  5
9D33
330
9B9E
100
AcDbEntity
  8
1
  6
Continuous
100
AcDbLine
 10
205.8663909999999
 20
216.9022459999999
 30
0.0
 11
211.128842
 21
213.86397
 31
0.0
  0
ARC
  5
9D34
330
9B9E
100
AcDbEntity
  8
1
  6
Continuous
100
AcDbCircle
 10
245.196835
 20
198.8136019999998
 30
0.0
 40
3.0
100
AcDbArc
 50
239.99997
 51
336.47053
  0
ARC
  5
9D35
330
9B9E
100
AcDbEntity
  8
1
  6
Continuous
100
AcDbCircle
 10
239.1968349999999
 20
188.4212939999999
 30
0.0
 40
3.0
100
AcDbArc
 50
323.5295299999999
 51
59.999995
  0
ARC
  5
9D36
330
9B9E
100
AcDbEntity
  8
1
  6
Continuous
100
AcDbCircle
 10
245.196835
 20
241.3247399999999
 30
0.0
 40
3.0
100
AcDbArc
 50
23.529474
 51
120.00003
  0
ARC
  5
9D37
330
9B9E
100
AcDbEntity
  8
1
  6
Continuous
100
AcDbCircle
 10
239.1968349999999
 20
251.717048
 30
0.0
 40
3.0
100
AcDbArc
 50
300.00001
 51
36.47047500000001
  0
ARC
  5
9D38
330
9B9E
100
AcDbEntity
  8
1
  6
Continuous
100
AcDbCircle
 10
476.3811
 20
220.069171
 30
0.0
 40
62.5
100
AcDbArc
 50
113.3283559999999
 51
66.58260699999999
  0
ARC
  5
9D39
330
9B9E
100
AcDbEntity
  8
1
  6
Continuous
100
AcDbCircle
 10
476.3811
 20
220.069171
 30
0.0
 40
56.24260699999999
100
AcDbArc
 50
114.4522189999997
 51
65.547794
  0
LINE
  5
9D3A
330
9B9E
100
AcDbEntity
  8
1
  6
Continuous
100
AcDbLine
 10
489.4906599999996
 20
231.1020759999999
 30
0.0
 11
520.69685
 21
249.1189759999997
 31
0.0
  0
LINE
  5
9D3B
330
9B9E
100
AcDbEntity
  8
1
  6
Continuous
100
AcDbLine
 10
487.435769
 20
222.9874779999999
 30
0.0
 11
523.69685
 21
243.922818
 31
0.0
  0
ARC
  5
9D3C
330
9B9E
100
AcDbEntity
  8
1
  6
Continuous
100
AcDbCircle
 10
519.1968349999998
 20
251.717048
 30
0.0
 40
3.0
100
AcDbArc
 50
300.00001
 51
36.47047500000001
  0
ARC
  5
9D3D
330
9B9E
100
AcDbEntity
  8
1
  6
Continuous
100
AcDbCircle
 10
525.1968349999998
 20
241.3247399999999
 30
0.0
 40
3.0
100
AcDbArc
 50
23.529474
 51
120.00003
  0
LINE
  5
9D3E
330
9B9E
100
AcDbEntity
  8
1
  6
Continuous
100
AcDbLine
 10
486.14627
 20
217.895357
 30
0.0
 11
523.69685
 21
196.2155239999999
 31
0.0
  0
LINE
  5
9D3F
330
9B9E
100
AcDbEntity
  8
1
  6
Continuous
100
AcDbLine
 10
484.8685989999999
 20
211.704815
 30
0.0
 11
520.69685
 21
191.01937
 31
0.0
  0
ARC
  5
9D40
330
9B9E
100
AcDbEntity
  8
1
  6
Continuous
100
AcDbCircle
 10
519.1968349999998
 20
188.4212939999999
 30
0.0
 40
3.0
100
AcDbArc
 50
323.5295299999999
 51
59.999995
  0
ARC
  5
9D41
330
9B9E
100
AcDbEntity
  8
1
  6
Continuous
100
AcDbCircle
 10
525.1968349999998
 20
198.8136019999998
 30
0.0
 40
3.0
100
AcDbArc
 50
239.99997
 51
336.47053
  0
LINE
  5
9D42
330
9B9E
100
AcDbEntity
  8
1
  6
Continuous
100
AcDbLine
 10
485.866391
 20
216.9022459999999
 30
0.0
 11
491.1288419999998
 21
213.86397
 31
0.0
  0
LINE
  5
9D43
330
9B9E
100
AcDbEntity
  8
1
  6
Continuous
100
AcDbLine
 10
483.8663869999998
 20
213.438143
 30
0.0
 11
489.12883
 21
210.3998699999999
 31
0.0
  0
ARC
  5
9D44
330
9B9E
100
AcDbEntity
  8
1
  6
Continuous
100
AcDbCircle
 10
476.3811
 20
220.069171
 30
0.0
 40
16.0
100
AcDbArc
 50
322.8192399999998
 51
337.18076
  0
LINE
  5
9D45
330
9B9E
100
AcDbEntity
  8
1
  6
Continuous
100
AcDbLine
 10
479.3810999999998
 20
208.5366089999999
 30
0.0
 11
479.3810999999998
 21
167.165721
 31
0.0
  0
ARC
  5
9D46
330
9B9E
100
AcDbEntity
  8
1
  6
Continuous
100
AcDbCircle
 10
482.3811
 20
167.165721
 30
0.0
 40
3.0
100
AcDbArc
 50
179.9999799999999
 51
276.4704599999999
  0
LINE
  5
9D47
330
9B9E
100
AcDbEntity
  8
1
  6
Continuous
100
AcDbLine
 10
473.3811
 20
208.5366089999999
 30
0.0
 11
473.3811
 21
167.165721
 31
0.0
  0
ARC
  5
9D48
330
9B9E
100
AcDbEntity
  8
1
  6
Continuous
100
AcDbCircle
 10
470.3810999999998
 20
167.165721
 30
0.0
 40
3.0
100
AcDbArc
 50
263.52951
 51
0.0
  0
LINE
  5
9D49
330
9B9E
100
AcDbEntity
  8
1
  6
Continuous
100
AcDbLine
 10
429.0653719999999
 20
196.2155239999999
 30
0.0
 11
464.8936159999998
 21
216.9009669999999
 31
0.0
  0
LINE
  5
9D4A
330
9B9E
100
AcDbEntity
  8
1
  6
Continuous
100
AcDbLine
 10
432.0653659999998
 20
191.019362
 30
0.0
 11
467.8936079999998
 21
211.704807
 31
0.0
  0
ARC
  5
9D4B
330
9B9E
100
AcDbEntity
  8
1
  6
Continuous
100
AcDbCircle
 10
433.565365
 20
188.4212919999999
 30
0.0
 40
3.0
100
AcDbArc
 50
120.0000199999999
 51
216.4704399999999
  0
ARC
  5
9D4C
330
9B9E
100
AcDbEntity
  8
1
  6
Continuous
100
AcDbCircle
 10
427.5653649999998
 20
198.8136
 30
0.0
 40
3.0
100
AcDbArc
 50
203.5294599999998
 51
300.00001
  0
LINE
  5
9D4D
330
9B9E
100
AcDbEntity
  8
1
  6
Continuous
100
AcDbLine
 10
461.6333769999998
 20
213.863965
 30
0.0
 11
466.895821
 21
216.9022379999999
 31
0.0
  0
LINE
  5
9D4E
330
9B9E
100
AcDbEntity
  8
1
  6
Continuous
100
AcDbLine
 10
463.6333769999998
 20
210.399862
 30
0.0
 11
468.895821
 21
213.438134
 31
0.0
  0
ARC
  5
9D4F
330
9B9E
100
AcDbEntity
  8
1
  6
Continuous
100
AcDbCircle
 10
476.3811
 20
220.069171
 30
0.0
 40
16.0
100
AcDbArc
 50
202.8192199999999
 51
217.1807299999999
  0
LINE
  5
9D50
330
9B9E
100
AcDbEntity
  8
1
  6
Continuous
100
AcDbLine
 10
432.0653649999998
 20
249.1189759999997
 30
0.0
 11
463.271536
 21
231.1020839999999
 31
0.0
  0
LINE
  5
9D51
330
9B9E
100
AcDbEntity
  8
1
  6
Continuous
100
AcDbLine
 10
429.0653719999999
 20
243.92282
 30
0.0
 11
465.326427
 21
222.987493
 31
0.0
  0
ARC
  5
9D52
330
9B9E
100
AcDbEntity
  8
1
  6
Continuous
100
AcDbCircle
 10
433.565365
 20
251.717052
 30
0.0
 40
3.0
100
AcDbArc
 50
143.52954
 51
239.99995
  0
ARC
  5
9D53
330
9B9E
100
AcDbEntity
  8
1
  6
Continuous
100
AcDbCircle
 10
427.5653649999998
 20
241.3247419999999
 30
0.0
 40
3.0
100
AcDbArc
 50
59.999995
 51
156.47054
  0
ARC
  5
9D54
330
9B9E
100
AcDbEntity
  8
1
  6
Continuous
100
AcDbCircle
 10
463.3936079999998
 20
219.499043
 30
0.0
 40
3.0
100
AcDbArc
 50
300.0
 51
2.513570999999998
  0
ARC
  5
9D55
330
9B9E
100
AcDbEntity
  8
1
  6
Continuous
100
AcDbCircle
 10
470.3810999999998
 20
208.5366089999999
 30
0.0
 40
3.0
100
AcDbArc
 50
0.0
 51
62.51360699999999
  0
ARC
  5
9D56
330
9B9E
100
AcDbEntity
  8
1
  6
Continuous
100
AcDbCircle
 10
469.3936079999998
 20
209.106736
 30
0.0
 40
3.0
100
AcDbArc
 50
57.48641
 51
120.00003
  0
ARC
  5
9D57
330
9B9E
100
AcDbEntity
  8
1
  6
Continuous
100
AcDbCircle
 10
482.3811
 20
208.5366089999999
 30
0.0
 40
3.0
100
AcDbArc
 50
117.4864099999999
 51
179.9999599999999
  0
ARC
  5
9D58
330
9B9E
100
AcDbEntity
  8
1
  6
Continuous
100
AcDbCircle
 10
483.368595
 20
209.106737
 30
0.0
 40
3.0
100
AcDbArc
 50
59.999995
 51
122.51365
  0
LINE
  5
9D59
330
9B9E
100
AcDbEntity
  8
1
  6
Continuous
100
AcDbLine
 10
125.9972419999999
 20
67.56917099999999
 30
0.0
 11
246.764958
 21
67.56917099999999
 31
0.0
  0
LINE
  5
9D5A
330
9B9E
100
AcDbEntity
  8
1
  6
Continuous
100
AcDbLine
 10
125.9972419999999
 20
92.569171
 30
0.0
 11
246.764958
 21
92.569171
 31
0.0
  0
ARC
  5
9D5B
330
9B9E
100
AcDbEntity
  8
1
  6
Continuous
100
AcDbCircle
 10
223.8811
 20
80.06917099999999
 30
0.0
 40
100.0
100
AcDbArc
 50
173.5881149999999
 51
186.411904
  0
ARC
  5
9D5C
330
9B9E
100
AcDbEntity
  8
1
  6
Continuous
100
AcDbCircle
 10
125.9972419999999
 20
69.069171
 30
0.0
 40
1.5
100
AcDbArc
 50
186.4118629999999
 51
270.00002
  0
ARC
  5
9D5D
330
9B9E
100
AcDbEntity
  8
1
  6
Continuous
100
AcDbCircle
 10
125.9972419999999
 20
91.069171
 30
0.0
 40
1.5
100
AcDbArc
 50
90.0
 51
173.5881559999999
  0
LINE
  5
9D5E
330
9B9E
100
AcDbEntity
  8
1
  6
Continuous
100
AcDbLine
 10
177.3811
 20
65.06917099999999
 30
0.0
 11
195.3811
 21
65.06917099999999
 31
0.0
  0
ARC
  5
9D5F
330
9B9E
100
AcDbEntity
  8
1
  6
Continuous
100
AcDbCircle
 10
177.3811
 20
66.069171
 30
0.0
 40
1.0
100
AcDbArc
 50
184.4115399999997
 51
270.00002
  0
LINE
  5
9D60
330
9B9E
100
AcDbEntity
  8
1
  6
Continuous
100
AcDbLine
 10
176.384059
 20
65.99225899999999
 30
0.0
 11
176.262404
 21
67.56917900000001
 31
0.0
  0
ARC
  5
9D61
330
9B9E
100
AcDbEntity
  8
1
  6
Continuous
100
AcDbCircle
 10
195.3811
 20
66.069171
 30
0.0
 40
1.0
100
AcDbArc
 50
269.99998
 51
355.58846
  0
LINE
  5
9D62
330
9B9E
100
AcDbEntity
  8
1
  6
Continuous
100
AcDbLine
 10
196.37814
 20
65.99225899999999
 30
0.0
 11
196.4997959999998
 21
67.56917900000001
 31
0.0
  0
LINE
  5
9D63
330
9B9E
100
AcDbEntity
  8
1
  6
Continuous
100
AcDbLine
 10
177.3811
 20
95.069171
 30
0.0
 11
195.3811
 21
95.069171
 31
0.0
  0
ARC
  5
9D64
330
9B9E
100
AcDbEntity
  8
1
  6
Continuous
100
AcDbCircle
 10
177.3811
 20
94.06917099999999
 30
0.0
 40
1.0
100
AcDbArc
 50
90.0
 51
175.588479
  0
LINE
  5
9D65
330
9B9E
100
AcDbEntity
  8
1
  6
Continuous
100
AcDbLine
 10
176.2624089999999
 20
92.569186
 30
0.0
 11
176.3840639999999
 21
94.14609799999999
 31
0.0
  0
ARC
  5
9D66
330
9B9E
100
AcDbEntity
  8
1
  6
Continuous
100
AcDbCircle
 10
195.3811
 20
94.06917099999999
 30
0.0
 40
1.0
100
AcDbArc
 50
4.411519999999998
 51
90.0
  0
LINE
  5
9D67
330
9B9E
100
AcDbEntity
  8
1
  6
Continuous
100
AcDbLine
 10
196.4997909999999
 20
92.569186
 30
0.0
 11
196.378136
 21
94.14609799999999
 31
0.0
  0
ARC
  5
9D68
330
9B9E
100
AcDbEntity
  8
1
  6
Continuous
100
AcDbCircle
 10
148.8811
 20
80.06917099999999
 30
0.0
 40
100.0
100
AcDbArc
 50
353.5880999999998
 51
6.411889999999998
  0
ARC
  5
9D69
330
9B9E
100
AcDbEntity
  8
1
  6
Continuous
100
AcDbCircle
 10
246.764958
 20
69.069171
 30
0.0
 40
1.5
100
AcDbArc
 50
269.99998
 51
353.5881499999999
  0
ARC
  5
9D6A
330
9B9E
100
AcDbEntity
  8
1
  6
Continuous
100
AcDbCircle
 10
246.764958
 20
91.069171
 30
0.0
 40
1.5
100
AcDbArc
 50
6.411839999999997
 51
90.0
  0
LINE
  5
9D6B
330
9B9E
100
AcDbEntity
  8
1
  6
Continuous
100
AcDbLine
 10
135.997242
 20
395.5691709999999
 30
0.0
 11
146.3810999999997
 21
395.5691709999999
 31
0.0
  0
LINE
  5
9D6C
330
9B9E
100
AcDbEntity
  8
1
  6
Continuous
100
AcDbLine
 10
135.997242
 20
370.5691709999999
 30
0.0
 11
146.3810999999997
 21
370.5691709999999
 31
0.0
  0
ARC
  5
9D6D
330
9B9E
100
AcDbEntity
  8
1
  6
Continuous
100
AcDbCircle
 10
233.8811
 20
383.0691709999999
 30
0.0
 40
100.0
100
AcDbArc
 50
173.5881149999999
 51
186.411904
  0
ARC
  5
9D6E
330
9B9E
100
AcDbEntity
  8
1
  6
Continuous
100
AcDbCircle
 10
135.997242
 20
372.069171
 30
0.0
 40
1.5
100
AcDbArc
 50
186.4118629999999
 51
270.00002
  0
ARC
  5
9D6F
330
9B9E
100
AcDbEntity
  8
1
  6
Continuous
100
AcDbCircle
 10
135.997242
 20
394.0691709999999
 30
0.0
 40
1.5
100
AcDbArc
 50
90.0
 51
173.5881559999999
  0
ARC
  5
9D70
330
9B9E
100
AcDbEntity
  8
1
  6
Continuous
100
AcDbCircle
 10
158.8810999999997
 20
383.0691709999999
 30
0.0
 40
100.0
100
AcDbArc
 50
353.5880999999998
 51
6.411889999999998
  0
ARC
  5
9D71
330
9B9E
100
AcDbEntity
  8
1
  6
Continuous
100
AcDbCircle
 10
256.7649579999999
 20
372.069171
 30
0.0
 40
1.5
100
AcDbArc
 50
269.99998
 51
353.5881499999999
  0
ARC
  5
9D72
330
9B9E
100
AcDbEntity
  8
1
  6
Continuous
100
AcDbCircle
 10
256.7649579999999
 20
394.0691709999999
 30
0.0
 40
1.5
100
AcDbArc
 50
6.411839999999997
 51
90.0
  0
LINE
  5
9D73
330
9B9E
100
AcDbEntity
  8
1
  6
Continuous
100
AcDbLine
 10
246.3811
 20
395.5691709999999
 30
0.0
 11
256.7649579999999
 21
395.5691709999999
 31
0.0
  0
LINE
  5
9D74
330
9B9E
100
AcDbEntity
  8
1
  6
Continuous
100
AcDbLine
 10
246.3811
 20
370.5691709999999
 30
0.0
 11
256.7649579999999
 21
370.5691709999999
 31
0.0
  0
LINE
  5
9D75
330
9B9E
100
AcDbEntity
  8
1
  6
Continuous
100
AcDbLine
 10
323.8811
 20
280.453029
 30
0.0
 11
323.8811
 21
159.6853129999998
 31
0.0
  0
LINE
  5
9D76
330
9B9E
100
AcDbEntity
  8
1
  6
Continuous
100
AcDbLine
 10
348.8811
 20
280.453029
 30
0.0
 11
348.8811
 21
159.6853129999998
 31
0.0
  0
LINE
  5
9D77
330
9B9E
100
AcDbEntity
  8
4
  6
CENTER
100
AcDbLine
 10
336.3811
 20
310.5691709999998
 30
0.0
 11
336.3811
 21
152.5691709999998
 31
0.0
  0
ARC
  5
9D78
330
9B9E
100
AcDbEntity
  8
1
  6
Continuous
100
AcDbCircle
 10
336.3811
 20
257.569171
 30
0.0
 40
100.0
100
AcDbArc
 50
263.5881099999999
 51
276.4118999999999
  0
ARC
  5
9D79
330
9B9E
100
AcDbEntity
  8
1
  6
Continuous
100
AcDbCircle
 10
347.3810999999998
 20
159.6853129999998
 30
0.0
 40
1.5
100
AcDbArc
 50
276.41185
 51
0.00002
  0
ARC
  5
9D7A
330
9B9E
100
AcDbEntity
  8
1
  6
Continuous
100
AcDbCircle
 10
325.3811
 20
159.6853129999998
 30
0.0
 40
1.5
100
AcDbArc
 50
180.0
 51
263.58816
  0
LINE
  5
9D7B
330
9B9E
100
AcDbEntity
  8
1
  6
Continuous
100
AcDbLine
 10
355.1810899999999
 20
296.7768429999996
 30
0.0
 11
355.1810899999999
 21
210.0691709999999
 31
0.0
  0
LINE
  5
9D7C
330
9B9E
100
AcDbEntity
  8
1
  6
Continuous
100
AcDbLine
 10
317.581105
 20
296.7768874722391
 30
0.0
 11
317.581105
 21
210.0691709999999
 31
0.0
  0
LINE
  5
9D7D
330
9B9E
100
AcDbEntity
  8
1
  6
Continuous
100
AcDbLine
 10
320.3810999999999
 20
302.7691679999998
 30
0.0
 11
320.3810999999999
 21
210.0691709999999
 31
0.0
  0
LINE
  5
9D7E
330
9B9E
100
AcDbEntity
  8
1
  6
Continuous
100
AcDbLine
 10
352.3811
 20
302.7691679999998
 30
0.0
 11
352.3811
 21
210.0691709999999
 31
0.0
  0
LINE
  5
9D7F
330
9B9E
100
AcDbEntity
  8
4
  6
CENTER
100
AcDbLine
 10
367.18109
 20
220.069171
 30
0.0
 11
309.381108
 21
220.069171
 31
0.0
  0
LINE
  5
9D80
330
9B9E
100
AcDbEntity
  8
1
  6
Continuous
100
AcDbLine
 10
351.3811
 20
229.0691709999999
 30
0.0
 11
351.3811
 21
211.0691709999999
 31
0.0
  0
ARC
  5
9D81
330
9B9E
100
AcDbEntity
  8
1
  6
Continuous
100
AcDbCircle
 10
367.18109
 20
220.069171
 30
0.0
 40
12.0
100
AcDbArc
 50
164.286139
 51
195.71386
  0
ARC
  5
9D82
330
9B9E
100
AcDbEntity
  8
1
  6
Continuous
100
AcDbCircle
 10
347.1810899999999
 20
220.069171
 30
0.0
 40
12.0
100
AcDbArc
 50
344.28617
 51
15.71384
  0
LINE
  5
9D83
330
9B9E
100
AcDbEntity
  8
1
  6
Continuous
100
AcDbLine
 10
360.1810899999999
 20
225.171184
 30
0.0
 11
360.1810899999999
 21
214.967158
 31
0.0
  0
LINE
  5
9D84
330
9B9E
100
AcDbEntity
  8
1
  6
Continuous
100
AcDbLine
 10
350.4580119999998
 20
210.0721309999999
 30
0.0
 11
348.8810919999999
 21
209.9504759999999
 31
0.0
  0
ARC
  5
9D85
330
9B9E
100
AcDbEntity
  8
1
  6
Continuous
100
AcDbCircle
 10
350.3811
 20
211.0691709999999
 30
0.0
 40
1.0
100
AcDbArc
 50
274.41154
 51
0.00002
  0
ARC
  5
9D86
330
9B9E
100
AcDbEntity
  8
1
  6
Continuous
100
AcDbCircle
 10
355.9310899999999
 20
215.127543
 30
0.0
 40
3.25
100
AcDbArc
 50
331.3472699999998
 51
31.36577
  0
ARC
  5
9D87
330
9B9E
100
AcDbEntity
  8
1
  6
Continuous
100
AcDbCircle
 10
358.4310899999999
 20
215.127543
 30
0.0
 40
3.25
100
AcDbArc
 50
148.634207
 51
208.6527699999999
  0
LINE
  5
9D88
330
9B9E
100
AcDbEntity
  8
1
  6
Continuous
100
AcDbLine
 10
358.78309
 20
213.5691859999997
 30
0.0
 11
360.1810699999999
 21
214.967174
 31
0.0
  0
LINE
  5
9D89
330
9B9E
100
AcDbEntity
  8
1
  6
Continuous
100
AcDbLine
 10
358.78309
 20
213.5691709999999
 30
0.0
 11
355.57908
 21
213.5691709999999
 31
0.0
  0
LINE
  5
9D8A
330
9B9E
100
AcDbEntity
  8
1
  6
Continuous
100
AcDbLine
 10
358.70614
 20
216.8191709999999
 30
0.0
 11
355.65603
 21
216.8191709999999
 31
0.0
  0
LINE
  5
9D8B
330
9B9E
100
AcDbEntity
  8
1
  6
Continuous
100
AcDbLine
 10
352.3811
 20
216.069171
 30
0.0
 11
351.3811
 21
216.069171
 31
0.0
  0
LINE
  5
9D8C
330
9B9E
100
AcDbEntity
  8
1
  6
Continuous
100
AcDbLine
 10
355.1810899999999
 20
210.0691709999999
 30
0.0
 11
352.3811
 21
210.0691709999999
 31
0.0
  0
LINE
  5
9D8D
330
9B9E
100
AcDbEntity
  8
1
  6
Continuous
100
AcDbLine
 10
350.4580119999998
 20
230.066212
 30
0.0
 11
348.8810919999999
 21
230.1878669999999
 31
0.0
  0
ARC
  5
9D8E
330
9B9E
100
AcDbEntity
  8
1
  6
Continuous
100
AcDbCircle
 10
350.3811
 20
229.0691709999999
 30
0.0
 40
1.0
100
AcDbArc
 50
359.9999799999998
 51
85.58846
  0
ARC
  5
9D8F
330
9B9E
100
AcDbEntity
  8
1
  6
Continuous
100
AcDbCircle
 10
358.4310899999999
 20
225.010799
 30
0.0
 40
3.25
100
AcDbArc
 50
151.3472329999999
 51
211.3658
  0
ARC
  5
9D90
330
9B9E
100
AcDbEntity
  8
1
  6
Continuous
100
AcDbCircle
 10
355.9310899999999
 20
225.010799
 30
0.0
 40
3.25
100
AcDbArc
 50
328.6342499999999
 51
28.65275
  0
LINE
  5
9D91
330
9B9E
100
AcDbEntity
  8
1
  6
Continuous
100
AcDbLine
 10
360.1810899999999
 20
225.1711759999998
 30
0.0
 11
358.78311
 21
226.569156
 31
0.0
  0
LINE
  5
9D92
330
9B9E
100
AcDbEntity
  8
1
  6
Continuous
100
AcDbLine
 10
358.78309
 20
226.569171
 30
0.0
 11
355.57908
 21
226.569171
 31
0.0
  0
LINE
  5
9D93
330
9B9E
100
AcDbEntity
  8
1
  6
Continuous
100
AcDbLine
 10
358.7326
 20
223.3191709999999
 30
0.0
 11
355.62957
 21
223.3191709999999
 31
0.0
  0
LINE
  5
9D94
330
9B9E
100
AcDbEntity
  8
1
  6
Continuous
100
AcDbLine
 10
352.3811
 20
224.0691709999999
 30
0.0
 11
351.3811
 21
224.0691709999999
 31
0.0
  0
LINE
  5
9D95
330
9B9E
100
AcDbEntity
  8
1
  6
Continuous
100
AcDbLine
 10
321.3811
 20
229.0691709999999
 30
0.0
 11
321.3811
 21
211.0691709999999
 31
0.0
  0
LINE
  5
9D96
330
9B9E
100
AcDbEntity
  8
1
  6
Continuous
100
AcDbLine
 10
314.3811079999998
 20
224.319171
 30
0.0
 11
314.3811079999998
 21
215.819171
 31
0.0
  0
LINE
  5
9D97
330
9B9E
100
AcDbEntity
  8
1
  6
Continuous
100
AcDbLine
 10
323.881085
 20
209.9504799999999
 30
0.0
 11
322.3041729999998
 21
210.072135
 31
0.0
  0
ARC
  5
9D98
330
9B9E
100
AcDbEntity
  8
1
  6
Continuous
100
AcDbCircle
 10
322.3810999999999
 20
211.0691709999999
 30
0.0
 40
1.0
100
AcDbArc
 50
180.0
 51
265.5884799999999
  0
ARC
  5
9D99
330
9B9E
100
AcDbEntity
  8
1
  6
Continuous
100
AcDbCircle
 10
316.3811079999998
 20
215.819171
 30
0.0
 40
2.0
100
AcDbArc
 50
180.0
 51
269.99998
  0
LINE
  5
9D9A
330
9B9E
100
AcDbEntity
  8
1
  6
Continuous
100
AcDbLine
 10
321.3811
 20
216.069171
 30
0.0
 11
320.3810999999999
 21
216.069171
 31
0.0
  0
LINE
  5
9D9B
330
9B9E
100
AcDbEntity
  8
1
  6
Continuous
100
AcDbLine
 10
317.581105
 20
213.819171
 30
0.0
 11
316.3811079999998
 21
213.819171
 31
0.0
  0
LINE
  5
9D9C
330
9B9E
100
AcDbEntity
  8
1
  6
Continuous
100
AcDbLine
 10
317.581105
 20
210.0691709999999
 30
0.0
 11
320.3810999999999
 21
210.0691709999999
 31
0.0
  0
LINE
  5
9D9D
330
9B9E
100
AcDbEntity
  8
1
  6
Continuous
100
AcDbLine
 10
323.881085
 20
230.187862
 30
0.0
 11
322.3041729999998
 21
230.066207
 31
0.0
  0
ARC
  5
9D9E
330
9B9E
100
AcDbEntity
  8
1
  6
Continuous
100
AcDbCircle
 10
322.3810999999999
 20
229.0691709999999
 30
0.0
 40
1.0
100
AcDbArc
 50
94.41152099999998
 51
180.0
  0
ARC
  5
9D9F
330
9B9E
100
AcDbEntity
  8
1
  6
Continuous
100
AcDbCircle
 10
316.3811079999998
 20
224.319171
 30
0.0
 40
2.0
100
AcDbArc
 50
90.00001800000005
 51
180.0
  0
LINE
  5
9DA0
330
9B9E
100
AcDbEntity
  8
1
  6
Continuous
100
AcDbLine
 10
321.3811
 20
224.0691709999999
 30
0.0
 11
320.3810999999999
 21
224.0691709999999
 31
0.0
  0
LINE
  5
9DA1
330
9B9E
100
AcDbEntity
  8
1
  6
Continuous
100
AcDbLine
 10
317.581105
 20
226.319171
 30
0.0
 11
316.3811079999998
 21
226.319171
 31
0.0
  0
ARC
  5
9DA2
330
9B9E
100
AcDbEntity
  8
1
  6
Continuous
100
AcDbCircle
 10
336.3811
 20
182.5691709999999
 30
0.0
 40
100.0
100
AcDbArc
 50
83.58809599999998
 51
96.411885
  0
LINE
  5
9DA3
330
9B9E
100
AcDbEntity
  8
1
  6
Continuous
100
AcDbLine
 10
348.8811
 20
300.7691679999998
 30
0.0
 11
323.8811
 21
300.7691679999998
 31
0.0
  0
LINE
  5
9DA4
330
9B9E
100
AcDbEntity
  8
1
  6
Continuous
100
AcDbLine
 10
365.3811
 20
302.7691679999998
 30
0.0
 11
307.3811
 21
302.7691679999998
 31
0.0
  0
LINE
  5
9DA5
330
9B9E
100
AcDbEntity
  8
1
  6
Continuous
100
AcDbLine
 10
365.3811
 20
305.569171
 30
0.0
 11
307.3811
 21
305.569171
 31
0.0
  0
LINE
  5
9DA6
330
9B9E
100
AcDbEntity
  8
4
  6
CENTER
100
AcDbLine
 10
356.38109
 20
310.5691709999998
 30
0.0
 11
356.38109
 21
297.7691679999998
 31
0.0
  0
LINE
  5
9DA8
330
9B9E
100
AcDbEntity
  8
1
  6
Continuous
100
AcDbLine
 10
365.3811
 20
305.569171
 30
0.0
 11
365.3811
 21
302.7691679999998
 31
0.0
  0
ARC
  5
9DA9
330
9B9E
100
AcDbEntity
  8
1
  6
Continuous
100
AcDbCircle
 10
354.8811
 20
286.532079
 30
0.0
 40
5.0
100
AcDbArc
 50
180.0
 51
201.80141
  0
ARC
  5
9DAA
330
9B9E
100
AcDbEntity
  8
1
  6
Continuous
100
AcDbCircle
 10
347.3810999999998
 20
280.453029
 30
0.0
 40
1.5
100
AcDbArc
 50
359.9999799999998
 51
83.588137
  0
ARC
  5
9DAB
330
9B9E
100
AcDbEntity
  8
1
  6
Continuous
100
AcDbCircle
 10
353.3811
 20
268.801219
 30
0.0
 40
2.0
100
AcDbArc
 50
180.0
 51
239.9999999999999
  0
LINE
  5
9DAC
330
9B9E
100
AcDbEntity
  8
1
  6
Continuous
100
AcDbLine
 10
351.3811
 20
281.819179
 30
0.0
 11
351.3811
 21
268.801219
 31
0.0
  0
LINE
  5
9DAD
330
9B9E
100
AcDbEntity
  8
1
  6
Continuous
100
AcDbLine
 10
350.23872
 20
284.6751259999998
 30
0.0
 11
351.3811
 21
281.819181
 31
0.0
  0
ARC
  5
9DBF
330
9B9E
100
AcDbEntity
  8
1
  6
Continuous
100
AcDbCircle
 10
348.8811
 20
299.7691679999998
 30
0.0
 40
1.0
100
AcDbArc
 50
359.9999899999998
 51
89.99999700000001
  0
LINE
  5
9DC1
330
9B9E
100
AcDbEntity
  8
1
  6
Continuous
100
AcDbLine
 10
349.8810999999999
 20
299.7691679999998
 30
0.0
 11
349.8810999999999
 21
286.532079
 31
0.0
  0
LINE
  5
9DC2
330
9B9E
100
AcDbEntity
  8
4
  6
CENTER
100
AcDbLine
 10
316.381098
 20
310.5691709999998
 30
0.0
 11
316.381098
 21
297.7691679999998
 31
0.0
  0
ARC
  5
9DC3
330
9B9E
100
AcDbEntity
  8
1
  6
Continuous
100
AcDbCircle
 10
317.8811
 20
286.532079
 30
0.0
 40
5.0
100
AcDbArc
 50
338.1985899999999
 51
0.00001
  0
ARC
  5
9DC4
330
9B9E
100
AcDbEntity
  8
1
  6
Continuous
100
AcDbCircle
 10
325.3811
 20
280.453029
 30
0.0
 40
1.5
100
AcDbArc
 50
96.411844
 51
180.0
  0
ARC
  5
9DC5
330
9B9E
100
AcDbEntity
  8
1
  6
Continuous
100
AcDbCircle
 10
319.3811
 20
268.801219
 30
0.0
 40
2.0
100
AcDbArc
 50
299.9999899999999
 51
0.00001
  0
LINE
  5
9DC6
330
9B9E
100
AcDbEntity
  8
1
  6
Continuous
100
AcDbLine
 10
321.3811
 20
281.8191689999998
 30
0.0
 11
321.3811
 21
268.801219
 31
0.0
  0
LINE
  5
9DC7
330
9B9E
100
AcDbEntity
  8
1
  6
Continuous
100
AcDbLine
 10
322.5234799999999
 20
284.6751239999998
 30
0.0
 11
321.3811
 21
281.8191689999998
 31
0.0
  0
ARC
  5
9DD9
330
9B9E
100
AcDbEntity
  8
1
  6
Continuous
100
AcDbCircle
 10
323.8811
 20
299.7691679999998
 30
0.0
 40
1.0
100
AcDbArc
 50
89.99999700000001
 51
180.0
  0
LINE
  5
9DDB
330
9B9E
100
AcDbEntity
  8
1
  6
Continuous
100
AcDbLine
 10
322.8811
 20
299.7691679999998
 30
0.0
 11
322.8811
 21
286.532079
 31
0.0
  0
LINE
  5
9DDD
330
9B9E
100
AcDbEntity
  8
1
  6
Continuous
100
AcDbLine
 10
307.3811
 20
305.569171
 30
0.0
 11
307.3811
 21
302.7691679999998
 31
0.0
  0
LINE
  5
9DDE
330
9B9E
100
AcDbEntity
  8
2
  6
Continuous
100
AcDbLine
 10
193.0576
 20
408.345671
 30
0.0
 11
193.0576
 21
406.869171
 31
0.0
  0
LINE
  5
9DDF
330
9B9E
100
AcDbEntity
  8
2
  6
Continuous
100
AcDbLine
 10
199.7046
 20
408.345671
 30
0.0
 11
199.7046
 21
406.869171
 31
0.0
  0
LINE
  5
9DE0
330
9B9E
100
AcDbEntity
  8
1
  6
Continuous
100
AcDbLine
 10
200.3811
 20
407.669171
 30
0.0
 11
200.3811
 21
406.869171
 31
0.0
  0
LINE
  5
9DE1
330
9B9E
100
AcDbEntity
  8
1
  6
Continuous
100
AcDbLine
 10
192.3811
 20
407.669171
 30
0.0
 11
192.3811
 21
406.869171
 31
0.0
  0
LINE
  5
9DE2
330
9B9E
100
AcDbEntity
  8
1
  6
Continuous
100
AcDbLine
 10
192.3811
 20
407.669171
 30
0.0
 11
200.3811
 21
407.669171
 31
0.0
  0
LINE
  5
9DE3
330
9B9E
100
AcDbEntity
  8
1
  6
Continuous
100
AcDbLine
 10
193.5810999999999
 20
408.8691709999998
 30
0.0
 11
199.1811
 21
408.8691709999998
 31
0.0
  0
LINE
  5
9DE4
330
9B9E
100
AcDbEntity
  8
1
  6
Continuous
100
AcDbLine
 10
193.5810999999999
 20
408.8691709999998
 30
0.0
 11
192.3811
 21
407.669171
 31
0.0
  0
LINE
  5
9DE5
330
9B9E
100
AcDbEntity
  8
1
  6
Continuous
100
AcDbLine
 10
199.1811
 20
408.8691709999998
 30
0.0
 11
200.3811
 21
407.669171
 31
0.0
  0
LINE
  5
9DE6
330
9B9E
100
AcDbEntity
  8
1
  6
Continuous
100
AcDbLine
 10
30.58111
 20
222.869171
 30
0.0
 11
31.78110999999999
 21
224.0691709999999
 31
0.0
  0
LINE
  5
9DE7
330
9B9E
100
AcDbEntity
  8
2
  6
Continuous
100
AcDbLine
 10
31.10460999999999
 20
223.3926709999999
 30
0.0
 11
32.58110999999999
 21
223.3926709999999
 31
0.0
  0
LINE
  5
9DE8
330
9B9E
100
AcDbEntity
  8
1
  6
Continuous
100
AcDbLine
 10
31.78110999999999
 20
224.0691709999999
 30
0.0
 11
32.58110999999999
 21
224.0691709999999
 31
0.0
  0
LINE
  5
9DE9
330
9B9E
100
AcDbEntity
  8
1
  6
Continuous
100
AcDbLine
 10
30.58111
 20
217.269171
 30
0.0
 11
31.78110999999999
 21
216.069171
 31
0.0
  0
LINE
  5
9DEA
330
9B9E
100
AcDbEntity
  8
2
  6
Continuous
100
AcDbLine
 10
31.10460999999999
 20
216.7456709999999
 30
0.0
 11
32.58110999999999
 21
216.7456709999999
 31
0.0
  0
LINE
  5
9DEB
330
9B9E
100
AcDbEntity
  8
1
  6
Continuous
100
AcDbLine
 10
31.78110999999999
 20
216.069171
 30
0.0
 11
32.58110999999999
 21
216.069171
 31
0.0
  0
LINE
  5
9DEC
330
9B9E
100
AcDbEntity
  8
1
  6
Continuous
100
AcDbLine
 10
31.78110999999999
 20
216.069171
 30
0.0
 11
31.78110999999999
 21
224.0691709999999
 31
0.0
  0
LINE
  5
9DED
330
9B9E
100
AcDbEntity
  8
1
  6
Continuous
100
AcDbLine
 10
30.58111
 20
217.269171
 30
0.0
 11
30.58111
 21
222.869171
 31
0.0
  0
LINE
  5
9DEE
330
9B9E
100
AcDbEntity
  8
2
  6
Continuous
100
AcDbLine
 10
361.6575899999999
 20
216.7456709999999
 30
0.0
 11
360.1810899999999
 21
216.7456709999999
 31
0.0
  0
LINE
  5
9DEF
330
9B9E
100
AcDbEntity
  8
2
  6
Continuous
100
AcDbLine
 10
361.6575899999999
 20
223.3926709999999
 30
0.0
 11
360.1810899999999
 21
223.3926709999999
 31
0.0
  0
LINE
  5
9DF0
330
9B9E
100
AcDbEntity
  8
1
  6
Continuous
100
AcDbLine
 10
360.9810899999998
 20
224.0691709999999
 30
0.0
 11
360.1810899999999
 21
224.0691709999999
 31
0.0
  0
LINE
  5
9DF1
330
9B9E
100
AcDbEntity
  8
1
  6
Continuous
100
AcDbLine
 10
360.9810899999998
 20
216.069171
 30
0.0
 11
360.1810899999999
 21
216.069171
 31
0.0
  0
LINE
  5
9DF2
330
9B9E
100
AcDbEntity
  8
1
  6
Continuous
100
AcDbLine
 10
360.9810899999998
 20
216.069171
 30
0.0
 11
360.9810899999998
 21
224.0691709999999
 31
0.0
  0
LINE
  5
9DF3
330
9B9E
100
AcDbEntity
  8
1
  6
Continuous
100
AcDbLine
 10
362.1810899999999
 20
217.269171
 30
0.0
 11
362.1810899999999
 21
222.869171
 31
0.0
  0
LINE
  5
9DF4
330
9B9E
100
AcDbEntity
  8
1
  6
Continuous
100
AcDbLine
 10
362.1810899999999
 20
217.269171
 30
0.0
 11
360.9810899999998
 21
216.069171
 31
0.0
  0
LINE
  5
9DF5
330
9B9E
100
AcDbEntity
  8
1
  6
Continuous
100
AcDbLine
 10
362.1810899999999
 20
222.869171
 30
0.0
 11
360.9810899999998
 21
224.0691709999999
 31
0.0
  0
LINE
  5
9DF6
330
9B9E
100
AcDbEntity
  8
2
  6
Continuous
100
AcDbLine
 10
189.7045999999999
 20
54.792671
 30
0.0
 11
189.7045999999999
 21
56.269171
 31
0.0
  0
LINE
  5
9DF7
330
9B9E
100
AcDbEntity
  8
1
  6
Continuous
100
AcDbLine
 10
190.3811
 20
55.46917099999999
 30
0.0
 11
190.3811
 21
56.269171
 31
0.0
  0
LINE
  5
9DF8
330
9B9E
100
AcDbEntity
  8
1
  6
Continuous
100
AcDbLine
 10
189.1810999999999
 20
54.26917099999999
 30
0.0
 11
190.3811
 21
55.46917099999999
 31
0.0
  0
LINE
  5
9DF9
330
9B9E
100
AcDbEntity
  8
2
  6
Continuous
100
AcDbLine
 10
183.0576
 20
54.792671
 30
0.0
 11
183.0576
 21
56.269171
 31
0.0
  0
LINE
  5
9DFA
330
9B9E
100
AcDbEntity
  8
1
  6
Continuous
100
AcDbLine
 10
182.3811
 20
55.46917099999999
 30
0.0
 11
182.3811
 21
56.269171
 31
0.0
  0
LINE
  5
9DFB
330
9B9E
100
AcDbEntity
  8
1
  6
Continuous
100
AcDbLine
 10
183.5810999999999
 20
54.26917099999999
 30
0.0
 11
182.3811
 21
55.46917099999999
 31
0.0
  0
LINE
  5
9DFC
330
9B9E
100
AcDbEntity
  8
1
  6
Continuous
100
AcDbLine
 10
182.3811
 20
55.46917099999999
 30
0.0
 11
190.3811
 21
55.46917099999999
 31
0.0
  0
LINE
  5
9DFD
330
9B9E
100
AcDbEntity
  8
1
  6
Continuous
100
AcDbLine
 10
183.5810999999999
 20
54.26917099999999
 30
0.0
 11
189.1810999999999
 21
54.26917099999999
 31
0.0
  0
CIRCLE
  5
9DFE
330
9B9E
100
AcDbEntity
  8
1
  6
Continuous
100
AcDbCircle
 10
476.3811
 20
220.069171
 30
0.0
 40
2.799999999999998
  0
LINE
  5
9F41
330
9B9E
100
AcDbEntity
  8
1
  6
Continuous
100
AcDbLine
 10
312.4297507517266
 20
301.4179718152477
 30
0.0
 11
314.3954858341349
 21
300.4703672112452
 31
0.0
  0
ARC
  5
9F89
330
9B9E
100
AcDbEntity
  8
1
  6
Continuous
100
AcDbCircle
 10
39.40932277090405
 20
308.1024872872722
 30
0.0
 40
9.131693034887046
100
AcDbArc
 50
236.6975294661725
 51
251.8707568688801
  0
ARC
  5
9F8A
330
9B9E
100
AcDbEntity
  8
1
  6
Continuous
100
AcDbCircle
 10
35.38110000000006
 20
294.7691679999999
 30
0.0
 40
5.0
100
AcDbArc
 50
0.0
 51
63.8960509999989
  0
ARC
  5
9F8E
330
9B9E
100
AcDbEntity
  8
1
  6
Continuous
100
AcDbCircle
 10
38.0174955706401
 20
305.1335464667182
 30
0.0
 40
5.890578941823518
100
AcDbArc
 50
255.7538245114332
 51
265.7514792064972
  0
ARC
  5
9F8F
330
9B9E
100
AcDbEntity
  8
1
  6
Continuous
100
AcDbCircle
 10
31.96714016023122
 20
296.1456886332744
 30
0.0
 40
5.649337412163668
100
AcDbArc
 50
6.414581591874084
 51
35.47313240629273
  0
ARC
  5
9F90
330
9B9E
100
AcDbEntity
  8
1
  6
Continuous
100
AcDbCircle
 10
33.08111000000007
 20
302.7691679999999
 30
0.0
 40
1.5
100
AcDbArc
 50
179.9999599999992
 51
244.263088120952
  0
LINE
  5
9F92
330
9B9E
100
AcDbEntity
  8
1
  6
Continuous
100
AcDbLine
 10
32.42975075172683
 20
301.4179718152477
 30
0.0
 11
34.395485834135
 21
300.4703672112452
 31
0.0
  0
ARC
  5
9F94
330
9B9E
100
AcDbEntity
  8
1
  6
Continuous
100
AcDbCircle
 10
73.35287722909606
 20
308.1024872872722
 30
0.0
 40
9.131693034887046
100
AcDbArc
 50
288.1292431311198
 51
303.3024705338275
  0
ARC
  5
9F95
330
9B9E
100
AcDbEntity
  8
1
  6
Continuous
100
AcDbCircle
 10
77.38110000000006
 20
294.7691679999999
 30
0.0
 40
5.0
100
AcDbArc
 50
116.1039490000011
 51
180.0
  0
ARC
  5
9F99
330
9B9E
100
AcDbEntity
  8
1
  6
Continuous
100
AcDbCircle
 10
80.79505983976902
 20
296.1456886332744
 30
0.0
 40
5.649337412163668
100
AcDbArc
 50
144.5268675937072
 51
173.5854184081259
  0
ARC
  5
9F9A
330
9B9E
100
AcDbEntity
  8
1
  6
Continuous
100
AcDbCircle
 10
74.74470442936013
 20
305.1335464667182
 30
0.0
 40
5.890578941823518
100
AcDbArc
 50
274.2485207935028
 51
284.2461754885668
  0
ARC
  5
9F9B
330
9B9E
100
AcDbEntity
  8
1
  6
Continuous
100
AcDbCircle
 10
79.68109000000016
 20
302.7691679999999
 30
0.0
 40
1.5
100
AcDbArc
 50
295.7369118790479
 51
0.0000400000007688
  0
LINE
  5
9F9D
330
9B9E
100
AcDbEntity
  8
1
  6
Continuous
100
AcDbLine
 10
80.33244924827341
 20
301.4179718152477
 30
0.0
 11
78.36671416586523
 21
300.4703672112452
 31
0.0
  0
ARC
  5
9FA8
330
9B9E
100
AcDbEntity
  8
1
  6
Continuous
100
AcDbCircle
 10
165.2069549999997
 20
299.1326159999998
 30
0.0
 40
3.636551999999998
100
AcDbArc
 50
19.98414900000054
 51
90.0
  0
ARC
  5
9FA9
330
9B9E
100
AcDbEntity
  8
1
  6
Continuous
100
AcDbCircle
 10
165.3034159999996
 20
302.751374
 30
0.0
 40
2.799999999999998
100
AcDbArc
 50
0.038448999999278
 51
87.37220099999884
  0
ARC
  5
9FAF
330
9B9E
100
AcDbEntity
  8
1
  6
Continuous
100
AcDbCircle
 10
173.1938564961988
 20
302.6613434790367
 30
0.0
 40
5.091271156231088
100
AcDbArc
 50
178.9656190858294
 51
242.5852240817362
  0
ARC
  5
9FB0
330
9B9E
100
AcDbEntity
  8
1
  6
Continuous
100
AcDbCircle
 10
168.6193886927117
 20
295.2298714674343
 30
0.0
 40
3.667941435111066
100
AcDbArc
 50
34.8059088788479
 51
52.55119397385819
  0
ARC
  5
9FB7
330
9B9E
100
AcDbEntity
  8
1
  6
Continuous
100
AcDbCircle
 10
219.5683435038007
 20
302.6613434790367
 30
0.0
 40
5.091271156231088
100
AcDbArc
 50
297.4147759182637
 51
1.034380914170569
  0
ARC
  5
9FB9
330
9B9E
100
AcDbEntity
  8
1
  6
Continuous
100
AcDbCircle
 10
224.1428113072877
 20
295.2298714674343
 30
0.0
 40
3.667941435111066
100
AcDbArc
 50
127.4488060261418
 51
145.1940911211831
  0
ARC
  5
9FBA
330
9B9E
100
AcDbEntity
  8
1
  6
Continuous
100
AcDbCircle
 10
227.5552459999996
 20
299.1326159999998
 30
0.0
 40
3.636551999999998
100
AcDbArc
 50
90.0
 51
160.0158509999994
  0
ARC
  5
9FBB
330
9B9E
100
AcDbEntity
  8
1
  6
Continuous
100
AcDbCircle
 10
227.4587839999999
 20
302.751374
 30
0.0
 40
2.799999999999998
100
AcDbArc
 50
92.62779900000117
 51
179.9615510000007
  0
ARC
  5
9FBD
330
9B9E
100
AcDbEntity
  8
1
  6
Continuous
100
AcDbCircle
 10
313.0811099999998
 20
302.7691679999999
 30
0.0
 40
1.5
100
AcDbArc
 50
179.9999599999992
 51
244.263088120952
  0
ARC
  5
A004
330
9B9E
100
AcDbEntity
  8
1
  6
Continuous
100
AcDbCircle
 10
359.6810899999999
 20
302.7691679999999
 30
0.0
 40
1.5
100
AcDbArc
 50
295.7369118790479
 51
0.0000400000007688
  0
ARC
  5
A006
330
9B9E
100
AcDbEntity
  8
1
  6
Continuous
100
AcDbCircle
 10
319.409322770904
 20
308.1024872872722
 30
0.0
 40
9.131693034887046
100
AcDbArc
 50
236.6975294661725
 51
251.8707568688801
  0
ARC
  5
A007
330
9B9E
100
AcDbEntity
  8
1
  6
Continuous
100
AcDbCircle
 10
315.3810999999998
 20
294.7691679999999
 30
0.0
 40
5.0
100
AcDbArc
 50
0.0
 51
63.8960509999989
  0
ARC
  5
A00B
330
9B9E
100
AcDbEntity
  8
1
  6
Continuous
100
AcDbCircle
 10
311.967140160231
 20
296.1456886332744
 30
0.0
 40
5.649337412163668
100
AcDbArc
 50
6.414581591874084
 51
35.47313240629273
  0
ARC
  5
A00C
330
9B9E
100
AcDbEntity
  8
1
  6
Continuous
100
AcDbCircle
 10
318.0174955706399
 20
305.1335464667182
 30
0.0
 40
5.890578941823518
100
AcDbArc
 50
255.7538245114332
 51
265.7514792064972
  0
ARC
  5
A00E
330
9B9E
100
AcDbEntity
  8
1
  6
Continuous
100
AcDbCircle
 10
357.3811
 20
294.7691679999999
 30
0.0
 40
5.0
100
AcDbArc
 50
116.1039490000011
 51
180.0
  0
ARC
  5
A00F
330
9B9E
100
AcDbEntity
  8
1
  6
Continuous
100
AcDbCircle
 10
353.3528772290958
 20
308.1024872872722
 30
0.0
 40
9.131693034887046
100
AcDbArc
 50
288.1292431311198
 51
303.3024705338275
  0
ARC
  5
A013
330
9B9E
100
AcDbEntity
  8
1
  6
Continuous
100
AcDbCircle
 10
354.7447044293599
 20
305.1335464667182
 30
0.0
 40
5.890578941823518
100
AcDbArc
 50
274.2485207935028
 51
284.2461754885668
  0
ARC
  5
A014
330
9B9E
100
AcDbEntity
  8
1
  6
Continuous
100
AcDbCircle
 10
360.7950598397688
 20
296.1456886332744
 30
0.0
 40
5.649337412163668
100
AcDbArc
 50
144.5268675937072
 51
173.5854184081259
  0
LINE
  5
A016
330
9B9E
100
AcDbEntity
  8
1
  6
Continuous
100
AcDbLine
 10
360.3324492482732
 20
301.4179718152477
 30
0.0
 11
358.366714165865
 21
300.4703672112452
 31
0.0
  0
ARC
  5
A029
330
9B9E
100
AcDbEntity
  8
1
  6
Continuous
100
AcDbCircle
 10
453.1938564961988
 20
302.6613434790367
 30
0.0
 40
5.091271156231088
100
AcDbArc
 50
178.9656190858294
 51
242.5852240817362
  0
ARC
  5
A02B
330
9B9E
100
AcDbEntity
  8
1
  6
Continuous
100
AcDbCircle
 10
448.6193886927117
 20
295.2298714674343
 30
0.0
 40
3.667941435111066
100
AcDbArc
 50
34.80590887881269
 51
52.55119397385819
  0
ARC
  5
A02C
330
9B9E
100
AcDbEntity
  8
1
  6
Continuous
100
AcDbCircle
 10
445.3034159999996
 20
302.751374
 30
0.0
 40
2.799999999999998
100
AcDbArc
 50
0.038448999999278
 51
87.37220099999884
  0
ARC
  5
A02D
330
9B9E
100
AcDbEntity
  8
1
  6
Continuous
100
AcDbCircle
 10
445.2069549999998
 20
299.1326159999998
 30
0.0
 40
3.636551999999998
100
AcDbArc
 50
19.98414900000054
 51
90.0
  0
ARC
  5
A033
330
9B9E
100
AcDbEntity
  8
1
  6
Continuous
100
AcDbCircle
 10
499.5683435038008
 20
302.6613434790367
 30
0.0
 40
5.091271156231088
100
AcDbArc
 50
297.4147759182637
 51
1.034380914170569
  0
ARC
  5
A034
330
9B9E
100
AcDbEntity
  8
1
  6
Continuous
100
AcDbCircle
 10
504.1428113072878
 20
295.2298714674343
 30
0.0
 40
3.667941435111066
100
AcDbArc
 50
127.4488060261418
 51
145.1940911211872
  0
ARC
  5
A035
330
9B9E
100
AcDbEntity
  8
1
  6
Continuous
100
AcDbCircle
 10
507.4587840000001
 20
302.751374
 30
0.0
 40
2.799999999999998
100
AcDbArc
 50
92.62779900000117
 51
179.9615510000007
  0
ARC
  5
A036
330
9B9E
100
AcDbEntity
  8
1
  6
Continuous
100
AcDbCircle
 10
507.5552459999998
 20
299.1326159999998
 30
0.0
 40
3.636551999999998
100
AcDbArc
 50
90.0
 51
160.0158509999994
  0
ENDSEC
  0
SECTION
  2
OBJECTS
  0
DICTIONARY
  5
9B8C
330
0
100
AcDbDictionary
281
     1
  3
ACAD_CIP_PREVIOUS_PRODUCT_INFO
350
A09C
  3
ACAD_COLOR
350
A07E
  3
ACAD_DETAILVIEWSTYLE
350
A097
  3
ACAD_GROUP
350
9B8D
  3
ACAD_LAYOUT
350
9B99
  3
ACAD_MATERIAL
350
A04C
  3
ACAD_MLEADERSTYLE
350
A093
  3
ACAD_MLINESTYLE
350
9B96
  3
ACAD_PLOTSETTINGS
350
9B98
  3
ACAD_PLOTSTYLENAME
350
A04A
  3
ACAD_SCALELIST
350
A081
  3
ACAD_SECTIONVIEWSTYLE
350
A095
  3
ACAD_TABLESTYLE
350
A07F
  3
ACAD_VISUALSTYLE
350
A065
  3
ACDB_RECOMPOSE_DATA
350
A0BA
  3
AcDbVariableDictionary
350
A0AD
  3
DWGPROPS
350
A0BB
  0
DICTIONARY
  5
A09D
330
9B90
100
AcDbDictionary
280
     1
281
     1
  3
ADSK_XREC_LAYER_RECONCILED
360
A09E
  0
DICTIONARY
  5
A09F
330
9BA6
100
AcDbDictionary
280
     1
281
     1
  3
ADSK_XREC_LAYER_RECONCILED
360
A0A0
  0
DICTIONARY
  5
A0A1
330
9BA7
100
AcDbDictionary
280
     1
281
     1
  3
ADSK_XREC_LAYER_RECONCILED
360
A0A2
  0
DICTIONARY
  5
A0A3
330
9BA8
100
AcDbDictionary
280
     1
281
     1
  3
ADSK_XREC_LAYER_RECONCILED
360
A0A4
  0
DICTIONARY
  5
A0A5
330
9BA9
100
AcDbDictionary
280
     1
281
     1
  3
ADSK_XREC_LAYER_RECONCILED
360
A0A6
  0
DICTIONARY
  5
A0A7
330
9BAA
100
AcDbDictionary
280
     1
281
     1
  3
ADSK_XREC_LAYER_RECONCILED
360
A0A8
  0
DICTIONARY
  5
A0A9
330
9BAB
100
AcDbDictionary
280
     1
281
     1
  3
ADSK_XREC_LAYER_RECONCILED
360
A0AA
  0
DICTIONARY
  5
A0AB
330
9BAC
100
AcDbDictionary
280
     1
281
     1
  3
ADSK_XREC_LAYER_RECONCILED
360
A0AC
  0
DICTIONARY
  5
9E09
330
9B9E
100
AcDbDictionary
281
     1
  3
ACAD_LAYOUTSELFREF
350
A046
  0
DICTIONARY
  5
9E07
330
9B9A
100
AcDbDictionary
281
     1
  3
ACAD_LAYOUTSELFREF
350
A045
  0
XRECORD
  5
A09C
102
{ACAD_REACTORS
330
9B8C
102
}
330
9B8C
100
AcDbXrecord
280
     1
300
ACDLT
300
2014
300
ACDLT_F_S
  0
DICTIONARY
  5
A07E
102
{ACAD_REACTORS
330
9B8C
102
}
330
9B8C
100
AcDbDictionary
281
     1
  0
DICTIONARY
  5
A097
102
{ACAD_REACTORS
330
9B8C
102
}
330
9B8C
100
AcDbDictionary
281
     1
  3
Imperial24
350
A098
  0
DICTIONARY
  5
9B8D
102
{ACAD_REACTORS
330
9B8C
102
}
330
9B8C
100
AcDbDictionary
281
     1
  0
DICTIONARY
  5
9B99
102
{ACAD_REACTORS
330
9B8C
102
}
330
9B8C
100
AcDbDictionary
281
     1
  3
Model
350
A099
  3
レイアウト1
350
A09A
  0
DICTIONARY
  5
A04C
102
{ACAD_REACTORS
330
9B8C
102
}
330
9B8C
100
AcDbDictionary
281
     1
  3
ByBlock
350
A055
  3
ByLayer
350
A04D
  3
Global
350
A05D
  0
DICTIONARY
  5
A093
102
{ACAD_REACTORS
330
9B8C
102
}
330
9B8C
100
AcDbDictionary
281
     1
  3
Standard
350
A094
  0
DICTIONARY
  5
9B96
102
{ACAD_REACTORS
330
9B8C
102
}
330
9B8C
100
AcDbDictionary
281
     1
  3
STANDARD
350
9B97
  0
DICTIONARY
  5
9B98
102
{ACAD_REACTORS
330
9B8C
102
}
330
9B8C
100
AcDbDictionary
281
     1
  0
ACDBDICTIONARYWDFLT
  5
A04A
102
{ACAD_REACTORS
330
9B8C
102
}
330
9B8C
100
AcDbDictionary
281
     1
  3
Normal
350
A04B
100
AcDbDictionaryWithDefault
340
A04B
  0
DICTIONARY
  5
A081
102
{ACAD_REACTORS
330
9B8C
102
}
330
9B8C
100
AcDbDictionary
281
     1
  3
A0
350
A082
  3
A1
350
A083
  3
A2
350
A084
  3
A3
350
A085
  3
A4
350
A086
  3
A5
350
A087
  3
A6
350
A088
  3
A7
350
A089
  3
A8
350
A08A
  3
A9
350
A08B
  3
B0
350
A08C
  3
B1
350
A08D
  3
B2
350
A08E
  3
B3
350
A08F
  3
B4
350
A090
  3
B5
350
A091
  3
B6
350
A092
  0
DICTIONARY
  5
A095
102
{ACAD_REACTORS
330
9B8C
102
}
330
9B8C
100
AcDbDictionary
281
     1
  3
Imperial24
350
A096
  0
DICTIONARY
  5
A07F
102
{ACAD_REACTORS
330
9B8C
102
}
330
9B8C
100
AcDbDictionary
281
     1
  3
Standard
350
A080
  0
DICTIONARY
  5
A065
102
{ACAD_REACTORS
330
9B8C
102
}
330
9B8C
100
AcDbDictionary
281
     1
  3
2dWireframe
350
A06B
  3
Basic
350
A06A
  3
Brighten
350
A071
  3
ColorChange
350
A075
  3
Conceptual
350
A06E
  3
Dim
350
A070
  3
EdgeColorOff
350
A07D
  3
Facepattern
350
A074
  3
Flat
350
A066
  3
FlatWithEdges
350
A067
  3
Gouraud
350
A068
  3
GouraudWithEdges
350
A069
  3
Hidden
350
A06D
  3
JitterOff
350
A07B
  3
Linepattern
350
A073
  3
OverhangOff
350
A07C
  3
Realistic
350
A06F
  3
Shaded
350
A07A
  3
Shaded with edges
350
A079
  3
Shades of Gray
350
A076
  3
Sketchy
350
A077
  3
Thicken
350
A072
  3
Wireframe
350
A06C
  3
X-Ray
350
A078
  0
XRECORD
  5
A0BA
102
{ACAD_REACTORS
330
9B8C
102
}
330
9B8C
100
AcDbXrecord
280
     1
 90
        1
330
A080
  0
DICTIONARY
  5
A0AD
102
{ACAD_REACTORS
330
9B8C
102
}
330
9B8C
100
AcDbDictionary
281
     1
  3
CANNOSCALE
350
A0B2
  3
CMLEADERSTYLE
350
A0AF
  3
CTABLESTYLE
350
A0AE
  3
CVIEWDETAILSTYLE
350
A0B0
  3
CVIEWSECTIONSTYLE
350
A0B1
  3
DIMASSOC
350
A0B5
  3
INDEXCTL
350
A0B4
  3
SORTENTS
350
A0B3
  3
XCLIPFRAME
350
A0B6
  0
XRECORD
  5
A0BB
102
{ACAD_REACTORS
330
9B8C
102
}
330
9B8C
100
AcDbXrecord
280
     1
  1
DWGPROPS COOKIE
  2

  3

  4

  6

  7

  8
Yoshitsune
  9

300
=
301
=
302
=
303
=
304
=
305
=
306
=
307
=
308
=
309
=
 40
0.1131239236111111
 41
2451301.453521412
 42
2457192.690167535
  1

 90
        0
  0
XRECORD
  5
A09E
102
{ACAD_REACTORS
330
A09D
102
}
330
A09D
100
AcDbXrecord
280
     1
290
     1
  0
XRECORD
  5
A0A0
102
{ACAD_REACTORS
330
A09F
102
}
330
A09F
100
AcDbXrecord
280
     1
290
     1
  0
XRECORD
  5
A0A2
102
{ACAD_REACTORS
330
A0A1
102
}
330
A0A1
100
AcDbXrecord
280
     1
290
     1
  0
XRECORD
  5
A0A4
102
{ACAD_REACTORS
330
A0A3
102
}
330
A0A3
100
AcDbXrecord
280
     1
290
     1
  0
XRECORD
  5
A0A6
102
{ACAD_REACTORS
330
A0A5
102
}
330
A0A5
100
AcDbXrecord
280
     1
290
     1
  0
XRECORD
  5
A0A8
102
{ACAD_REACTORS
330
A0A7
102
}
330
A0A7
100
AcDbXrecord
280
     1
290
     1
  0
XRECORD
  5
A0AA
102
{ACAD_REACTORS
330
A0A9
102
}
330
A0A9
100
AcDbXrecord
280
     1
290
     1
  0
XRECORD
  5
A0AC
102
{ACAD_REACTORS
330
A0AB
102
}
330
A0AB
100
AcDbXrecord
280
     1
290
     1
  0
XRECORD
  5
A046
102
{ACAD_REACTORS
330
9E09
102
}
330
9E09
100
AcDbXrecord
280
     1
340
9B9E
  0
XRECORD
  5
A045
102
{ACAD_REACTORS
330
9E07
102
}
330
9E07
100
AcDbXrecord
280
     1
340
9B9A
  0
ACDBDETAILVIEWSTYLE
  5
A098
102
{ACAD_XDICTIONARY
360
A0F3
102
}
102
{ACAD_REACTORS
330
A097
102
}
330
A097
100
AcDbModelDocViewStyle
 70
     0
  3
Imperial24
290
     0
100
AcDbDetailViewStyle
 70
     0
 71
     0
 90
        3
 71
     1
340
9B91
 40
0.24
340
0
 40
0.24
300

 40
0.36
280
     3
 71
     2
340
9B95
 90
       25
 71
     3
340
9B91
 40
0.24
 90
        1
 40
0.75
 90
        1
300
%<\AcVar ViewType \f "%tc1">% %<\AcVar ViewDetailId>%\PSCALE %<\AcVar ViewScale \f "%sn">%
 71
     4
340
9B95
 90
       25
340
9B95
 90
       25
280
     0
  0
LAYOUT
  5
A099
102
{ACAD_XDICTIONARY
360
A0F5
102
}
102
{ACAD_REACTORS
330
9B99
102
}
330
9B99
100
AcDbPlotSettings
  1

  2
Canon LBP9100C
  4

  6

 40
0.0
 41
0.0
 42
0.0
 43
0.0
 44
0.0
 45
0.0
 46
0.0
 47
0.0
 48
0.0
 49
0.0
140
0.0
141
0.0
142
1.0
143
1.0
 70
  1712
 72
     0
 73
     0
 74
     0
  7

 75
     0
147
1.0
148
0.0
149
0.0
100
AcDbLayout
  1
Model
 70
     1
 71
     0
 10
0.0
 20
0.0
 11
12.0
 21
9.0
 12
0.0
 22
0.0
 32
0.0
 14
0.0
 24
0.0
 34
0.0
 15
0.0
 25
0.0
 35
0.0
146
0.0
 13
0.0
 23
0.0
 33
0.0
 16
1.0
 26
0.0
 36
0.0
 17
0.0
 27
1.0
 37
0.0
 76
     0
330
9B9E
331
A044
  0
LAYOUT
  5
A09A
102
{ACAD_XDICTIONARY
360
A0F7
102
}
102
{ACAD_REACTORS
330
9B99
102
}
330
9B99
100
AcDbPlotSettings
  1

  2
Canon LBP9100C
  4

  6

 40
0.0
 41
0.0
 42
0.0
 43
0.0
 44
0.0
 45
0.0
 46
0.0
 47
0.0
 48
0.0
 49
0.0
140
0.0
141
0.0
142
1.0
143
1.0
 70
   688
 72
     0
 73
     0
 74
     5
  7

 75
    16
147
1.0
148
0.0
149
0.0
100
AcDbLayout
  1
レイアウト1
 70
     0
 71
     1
 10
0.0
 20
0.0
 11
420.0
 21
297.0
 12
0.0
 22
0.0
 32
0.0
 14
1.000000000000000E+20
 24
1.000000000000000E+20
 34
1.000000000000000E+20
 15
-1.000000000000000E+20
 25
-1.000000000000000E+20
 35
-1.000000000000000E+20
146
0.0
 13
0.0
 23
0.0
 33
0.0
 16
1.0
 26
0.0
 36
0.0
 17
0.0
 27
1.0
 37
0.0
 76
     0
330
9B9A
  0
MATERIAL
  5
A055
102
{ACAD_XDICTIONARY
360
A056
102
}
102
{ACAD_REACTORS
330
A04C
102
}
330
A04C
100
AcDbMaterial
  1
ByBlock
 72
     0
 43
0.0208333333333333
 43
0.0
 43
0.0
 43
0.0
 43
0.0
 43
0.0208333333333333
 43
0.0
 43
0.0
 43
0.0
 43
0.0
 43
1.0
 43
0.0
 43
0.0
 43
0.0
 43
0.0
 43
1.0
 77
     0
 47
0.0208333333333333
 47
0.0
 47
0.0
 47
0.0
 47
0.0
 47
0.0208333333333333
 47
0.0
 47
0.0
 47
0.0
 47
0.0
 47
1.0
 47
0.0
 47
0.0
 47
0.0
 47
0.0
 47
1.0
171
     0
 49
0.0208333333333333
 49
0.0
 49
0.0
 49
0.0
 49
0.0
 49
0.0208333333333333
 49
0.0
 49
0.0
 49
0.0
 49
0.0
 49
1.0
 49
0.0
 49
0.0
 49
0.0
 49
0.0
 49
1.0
175
     0
142
0.0208333333333333
142
0.0
142
0.0
142
0.0
142
0.0
142
0.0208333333333333
142
0.0
142
0.0
142
0.0
142
0.0
142
1.0
142
0.0
142
0.0
142
0.0
142
0.0
142
1.0
179
     0
144
0.0208333333333333
144
0.0
144
0.0
144
0.0
144
0.0
144
0.0208333333333333
144
0.0
144
0.0
144
0.0
144
0.0
144
1.0
144
0.0
144
0.0
144
0.0
144
0.0
144
1.0
147
0.0208333333333333
147
0.0
147
0.0
147
0.0
147
0.0
147
0.0208333333333333
147
0.0
147
0.0
147
0.0
147
0.0
147
1.0
147
0.0
147
0.0
147
0.0
147
0.0
147
1.0
  0
MATERIAL
  5
A04D
102
{ACAD_XDICTIONARY
360
A04E
102
}
102
{ACAD_REACTORS
330
A04C
102
}
330
A04C
100
AcDbMaterial
  1
ByLayer
 72
     0
 43
0.0208333333333333
 43
0.0
 43
0.0
 43
0.0
 43
0.0
 43
0.0208333333333333
 43
0.0
 43
0.0
 43
0.0
 43
0.0
 43
1.0
 43
0.0
 43
0.0
 43
0.0
 43
0.0
 43
1.0
 77
     0
 47
0.0208333333333333
 47
0.0
 47
0.0
 47
0.0
 47
0.0
 47
0.0208333333333333
 47
0.0
 47
0.0
 47
0.0
 47
0.0
 47
1.0
 47
0.0
 47
0.0
 47
0.0
 47
0.0
 47
1.0
171
     0
 49
0.0208333333333333
 49
0.0
 49
0.0
 49
0.0
 49
0.0
 49
0.0208333333333333
 49
0.0
 49
0.0
 49
0.0
 49
0.0
 49
1.0
 49
0.0
 49
0.0
 49
0.0
 49
0.0
 49
1.0
175
     0
142
0.0208333333333333
142
0.0
142
0.0
142
0.0
142
0.0
142
0.0208333333333333
142
0.0
142
0.0
142
0.0
142
0.0
142
1.0
142
0.0
142
0.0
142
0.0
142
0.0
142
1.0
179
     0
144
0.0208333333333333
144
0.0
144
0.0
144
0.0
144
0.0
144
0.0208333333333333
144
0.0
144
0.0
144
0.0
144
0.0
144
1.0
144
0.0
144
0.0
144
0.0
144
0.0
144
1.0
147
0.0208333333333333
147
0.0
147
0.0
147
0.0
147
0.0
147
0.0208333333333333
147
0.0
147
0.0
147
0.0
147
0.0
147
1.0
147
0.0
147
0.0
147
0.0
147
0.0
147
1.0
  0
MATERIAL
  5
A05D
102
{ACAD_XDICTIONARY
360
A05E
102
}
102
{ACAD_REACTORS
330
A04C
102
}
330
A04C
100
AcDbMaterial
  1
Global
 72
     0
 43
0.0208333333333333
 43
0.0
 43
0.0
 43
0.0
 43
0.0
 43
0.0208333333333333
 43
0.0
 43
0.0
 43
0.0
 43
0.0
 43
1.0
 43
0.0
 43
0.0
 43
0.0
 43
0.0
 43
1.0
 77
     0
 47
0.0208333333333333
 47
0.0
 47
0.0
 47
0.0
 47
0.0
 47
0.0208333333333333
 47
0.0
 47
0.0
 47
0.0
 47
0.0
 47
1.0
 47
0.0
 47
0.0
 47
0.0
 47
0.0
 47
1.0
171
     0
 49
0.0208333333333333
 49
0.0
 49
0.0
 49
0.0
 49
0.0
 49
0.0208333333333333
 49
0.0
 49
0.0
 49
0.0
 49
0.0
 49
1.0
 49
0.0
 49
0.0
 49
0.0
 49
0.0
 49
1.0
175
     0
142
0.0208333333333333
142
0.0
142
0.0
142
0.0
142
0.0
142
0.0208333333333333
142
0.0
142
0.0
142
0.0
142
0.0
142
1.0
142
0.0
142
0.0
142
0.0
142
0.0
142
1.0
179
     0
144
0.0208333333333333
144
0.0
144
0.0
144
0.0
144
0.0
144
0.0208333333333333
144
0.0
144
0.0
144
0.0
144
0.0
144
1.0
144
0.0
144
0.0
144
0.0
144
0.0
144
1.0
147
0.0208333333333333
147
0.0
147
0.0
147
0.0
147
0.0
147
0.0208333333333333
147
0.0
147
0.0
147
0.0
147
0.0
147
1.0
147
0.0
147
0.0
147
0.0
147
0.0
147
1.0
  0
MLEADERSTYLE
  5
A094
102
{ACAD_REACTORS
330
A093
102
}
330
A093
100
AcDbMLeaderStyle
170
     2
171
     1
172
     0
 90
        2
 40
0.0
 41
0.0
173
     1
 91
-1056964608
340
9B93
 92
       -2
290
     1
 42
0.09
291
     1
 43
0.36
  3
Standard
 44
0.18
300

342
9B91
174
     1
178
     6
175
     1
176
     0
 93
-1056964608
 45
0.18
292
     0
297
     0
 46
0.18
 94
-1056964608
 47
1.0
 49
1.0
140
1.0
293
     1
141
0.0
294
     1
177
     0
142
1.0
295
     0
296
     0
143
0.125
1001
ACAD_MLEADERVER
1070
     2
  0
MLINESTYLE
  5
9B97
102
{ACAD_REACTORS
330
9B96
102
}
330
9B96
100
AcDbMlineStyle
  2
STANDARD
 70
     0
  3

 62
   256
 51
90.0
 52
90.0
 71
     2
 49
0.5
 62
   256
  6
BYLAYER
 49
-0.5
 62
   256
  6
BYLAYER
  0
ACDBPLACEHOLDER
  5
A04B
102
{ACAD_REACTORS
330
A04A
102
}
330
A04A
  0
SCALE
  5
A082
102
{ACAD_REACTORS
330
A081
102
}
330
A081
100
AcDbScale
 70
     0
300
1:1
140
1.0
141
1.0
290
     1
  0
SCALE
  5
A083
102
{ACAD_REACTORS
330
A081
102
}
330
A081
100
AcDbScale
 70
     0
300
1/128" = 1'-0"
140
0.0078125
141
12.0
290
     0
  0
SCALE
  5
A084
102
{ACAD_REACTORS
330
A081
102
}
330
A081
100
AcDbScale
 70
     0
300
1/64" = 1'-0"
140
0.015625
141
12.0
290
     0
  0
SCALE
  5
A085
102
{ACAD_REACTORS
330
A081
102
}
330
A081
100
AcDbScale
 70
     0
300
1/32" = 1'-0"
140
0.03125
141
12.0
290
     0
  0
SCALE
  5
A086
102
{ACAD_REACTORS
330
A081
102
}
330
A081
100
AcDbScale
 70
     0
300
1/16" = 1'-0"
140
0.0625
141
12.0
290
     0
  0
SCALE
  5
A087
102
{ACAD_REACTORS
330
A081
102
}
330
A081
100
AcDbScale
 70
     0
300
3/32" = 1'-0"
140
0.09375
141
12.0
290
     0
  0
SCALE
  5
A088
102
{ACAD_REACTORS
330
A081
102
}
330
A081
100
AcDbScale
 70
     0
300
1/8" = 1'-0"
140
0.125
141
12.0
290
     0
  0
SCALE
  5
A089
102
{ACAD_REACTORS
330
A081
102
}
330
A081
100
AcDbScale
 70
     0
300
3/16" = 1'-0"
140
0.1875
141
12.0
290
     0
  0
SCALE
  5
A08A
102
{ACAD_REACTORS
330
A081
102
}
330
A081
100
AcDbScale
 70
     0
300
1/4" = 1'-0"
140
0.25
141
12.0
290
     0
  0
SCALE
  5
A08B
102
{ACAD_REACTORS
330
A081
102
}
330
A081
100
AcDbScale
 70
     0
300
3/8" = 1'-0"
140
0.375
141
12.0
290
     0
  0
SCALE
  5
A08C
102
{ACAD_REACTORS
330
A081
102
}
330
A081
100
AcDbScale
 70
     0
300
1/2" = 1'-0"
140
0.5
141
12.0
290
     0
  0
SCALE
  5
A08D
102
{ACAD_REACTORS
330
A081
102
}
330
A081
100
AcDbScale
 70
     0
300
3/4" = 1'-0"
140
0.75
141
12.0
290
     0
  0
SCALE
  5
A08E
102
{ACAD_REACTORS
330
A081
102
}
330
A081
100
AcDbScale
 70
     0
300
1" = 1'-0"
140
1.0
141
12.0
290
     0
  0
SCALE
  5
A08F
102
{ACAD_REACTORS
330
A081
102
}
330
A081
100
AcDbScale
 70
     0
300
1-1/2" = 1'-0"
140
1.5
141
12.0
290
     0
  0
SCALE
  5
A090
102
{ACAD_REACTORS
330
A081
102
}
330
A081
100
AcDbScale
 70
     0
300
3" = 1'-0"
140
3.0
141
12.0
290
     0
  0
SCALE
  5
A091
102
{ACAD_REACTORS
330
A081
102
}
330
A081
100
AcDbScale
 70
     0
300
6" = 1'-0"
140
6.0
141
12.0
290
     0
  0
SCALE
  5
A092
102
{ACAD_REACTORS
330
A081
102
}
330
A081
100
AcDbScale
 70
     0
300
1'-0" = 1'-0"
140
12.0
141
12.0
290
     0
  0
ACDBSECTIONVIEWSTYLE
  5
A096
102
{ACAD_XDICTIONARY
360
A0F1
102
}
102
{ACAD_REACTORS
330
A095
102
}
330
A095
100
AcDbModelDocViewStyle
 70
     0
  3
Imperial24
290
     0
100
AcDbSectionViewStyle
 70
     0
 71
     0
 90
       78
 71
     1
340
9B91
 40
0.24
340
0
340
0
 40
0.24
300
I, O, Q, S, X, Z
 40
0.48
 90
        3
 40
0.18
 90
        1
 71
     2
340
9B95
 90
       25
340
9B95
 90
       50
 40
0.24
 40
0.0
 40
0.24
 71
     3
340
9B91
 40
0.24
 90
        1
 40
0.75
 90
        1
300
%<\AcVar ViewType \f "%tc1">% %<\AcVar ViewSectionStartId>%-%<\AcVar ViewSectionEndId>%\PSCALE %<\AcVar ViewScale \f "%sn">%
 71
     4
300
ANSI31
 40
1.0
 90
        0
290
     0
290
     0
 90
        6
 40
0.0
 40
1.570796326794896
 40
0.2617993877991494
 40
1.308996938995747
 40
-0.2617993877991494
 40
1.832595714594046
  0
TABLESTYLE
  5
A080
102
{ACAD_XDICTIONARY
360
A0B8
102
}
102
{ACAD_REACTORS
330
A07F
102
}
330
A07F
100
AcDbTableStyle
  3
Standard
 70
     0
 71
     0
 40
0.06
 41
0.06
280
     0
281
     0
  7
STANDARD
140
0.18
170
     2
 62
     0
 63
     7
283
     0
274
    -2
284
     1
 64
     0
275
    -2
285
     1
 65
     0
276
    -2
286
     1
 66
     0
277
    -2
287
     1
 67
     0
278
    -2
288
     1
 68
     0
279
    -2
289
     1
 69
     0
  7
STANDARD
140
0.25
170
     5
 62
     0
 63
     7
283
     0
274
    -2
284
     1
 64
     0
275
    -2
285
     1
 65
     0
276
    -2
286
     1
 66
     0
277
    -2
287
     1
 67
     0
278
    -2
288
     1
 68
     0
279
    -2
289
     1
 69
     0
  7
STANDARD
140
0.18
170
     5
 62
     0
 63
     7
283
     0
274
    -2
284
     1
 64
     0
275
    -2
285
     1
 65
     0
276
    -2
286
     1
 66
     0
277
    -2
287
     1
 67
     0
278
    -2
288
     1
 68
     0
279
    -2
289
     1
 69
     0
  0
VISUALSTYLE
  5
A06B
102
{ACAD_XDICTIONARY
360
A0C9
102
}
102
{ACAD_REACTORS
330
A065
102
}
330
A065
100
AcDbVisualStyle
  2
2dWireframe
 70
     4
 71
     0
 72
     2
 73
     0
 90
        0
 40
-0.6
 41
-30.0
 62
     5
 63
     7
 74
     1
 91
        4
 64
     7
 65
   257
 75
     1
175
     1
 42
1.0
 92
        0
 66
   257
 43
1.0
 76
     1
 77
     6
 78
     2
 67
     7
 79
     5
170
     0
171
     0
290
     0
174
     0
 93
        1
 44
0.0
173
     0
291
     0
 45
0.0
1001
ACAD
1000
AcDbSavedByObjectVersion
1070
     0
  0
VISUALSTYLE
  5
A06A
102
{ACAD_XDICTIONARY
360
A0C7
102
}
102
{ACAD_REACTORS
330
A065
102
}
330
A065
100
AcDbVisualStyle
  2
Basic
 70
     7
 71
     1
 72
     0
 73
     1
 90
        0
 40
-0.6
 41
-30.0
 62
     5
 63
     7
 74
     0
 91
        4
 64
     7
 65
   257
 75
     1
175
     1
 42
1.0
 92
        8
 66
     7
 43
1.0
 76
     1
 77
     6
 78
     2
 67
     7
 79
     5
170
     0
171
     0
290
     0
174
     0
 93
        1
 44
0.0
173
     0
291
     1
 45
0.0
1001
ACAD
1000
AcDbSavedByObjectVersion
1070
     0
  0
VISUALSTYLE
  5
A071
102
{ACAD_XDICTIONARY
360
A0D5
102
}
102
{ACAD_REACTORS
330
A065
102
}
330
A065
100
AcDbVisualStyle
  2
Brighten
 70
    12
 71
     2
 72
     2
 73
     0
 90
        0
 40
-0.6
 41
-30.0
 62
     5
 63
     7
 74
     1
 91
        4
 64
     7
 65
   257
 75
     1
175
     1
 42
1.0
 92
        8
 66
     7
 43
1.0
 76
     1
 77
     6
 78
     2
 67
     7
 79
     5
170
     0
171
     0
290
     0
174
     0
 93
        1
 44
50.0
173
     0
291
     1
 45
0.0
1001
ACAD
1000
AcDbSavedByObjectVersion
1070
     0
  0
VISUALSTYLE
  5
A075
102
{ACAD_XDICTIONARY
360
A0DD
102
}
102
{ACAD_REACTORS
330
A065
102
}
330
A065
100
AcDbVisualStyle
  2
ColorChange
 70
    16
 71
     2
 72
     2
 73
     3
 90
        0
 40
-0.6
 41
-30.0
 62
     5
 63
     8
 74
     1
 91
        4
 64
     7
 65
   257
 75
     1
175
     1
 42
1.0
 92
        8
 66
     8
 43
1.0
 76
     1
 77
     6
 78
     2
 67
     7
 79
     5
170
     0
171
     0
290
     0
174
     0
 93
        1
 44
0.0
173
     0
291
     1
 45
0.0
1001
ACAD
1000
AcDbSavedByObjectVersion
1070
     0
  0
VISUALSTYLE
  5
A06E
102
{ACAD_XDICTIONARY
360
A0CF
102
}
102
{ACAD_REACTORS
330
A065
102
}
330
A065
100
AcDbVisualStyle
  2
Conceptual
 70
     9
 71
     3
 72
     2
 73
     0
 90
        0
 40
-0.6
 41
-30.0
 62
     5
 63
     7
 74
     2
 91
        2
 64
     7
 65
   257
 75
     1
175
     1
 42
179.0
 92
        8
 66
     7
 43
1.0
 76
     1
 77
     6
 78
     2
 67
     7
 79
     3
170
     0
171
     0
290
     0
174
     0
 93
        1
 44
0.0
173
     0
291
     0
 45
0.0
1001
ACAD
1000
AcDbSavedByObjectVersion
1070
     0
  0
VISUALSTYLE
  5
A070
102
{ACAD_XDICTIONARY
360
A0D3
102
}
102
{ACAD_REACTORS
330
A065
102
}
330
A065
100
AcDbVisualStyle
  2
Dim
 70
    11
 71
     2
 72
     2
 73
     0
 90
        0
 40
-0.6
 41
-30.0
 62
     5
 63
     7
 74
     1
 91
        4
 64
     7
 65
   257
 75
     1
175
     1
 42
1.0
 92
        8
 66
     7
 43
1.0
 76
     1
 77
     6
 78
     2
 67
     7
 79
     5
170
     0
171
     0
290
     0
174
     0
 93
        1
 44
-50.0
173
     0
291
     1
 45
0.0
1001
ACAD
1000
AcDbSavedByObjectVersion
1070
     0
  0
VISUALSTYLE
  5
A07D
102
{ACAD_XDICTIONARY
360
A0ED
102
}
102
{ACAD_REACTORS
330
A065
102
}
330
A065
100
AcDbVisualStyle
  2
EdgeColorOff
 70
    22
 71
     2
 72
     2
 73
     0
 90
        0
 40
-0.6
 41
-30.0
 62
     5
 63
     7
 74
     1
 91
        4
 64
     7
 65
   257
 75
     1
175
     1
 42
1.0
 92
        8
 66
     7
 43
1.0
 76
     1
 77
     6
 78
     2
 67
     7
 79
     5
170
     0
171
     0
290
     0
174
     0
 93
        1
 44
0.0
173
     0
291
     1
 45
0.0
1001
ACAD
1000
AcDbSavedByObjectVersion
1070
     0
  0
VISUALSTYLE
  5
A074
102
{ACAD_XDICTIONARY
360
A0DB
102
}
102
{ACAD_REACTORS
330
A065
102
}
330
A065
100
AcDbVisualStyle
  2
Facepattern
 70
    15
 71
     2
 72
     2
 73
     0
 90
        0
 40
-0.6
 41
-30.0
 62
     5
 63
     7
 74
     1
 91
        4
 64
     7
 65
   257
 75
     1
175
     1
 42
1.0
 92
        8
 66
     7
 43
1.0
 76
     1
 77
     6
 78
     2
 67
     7
 79
     5
170
     0
171
     0
290
     0
174
     0
 93
        1
 44
0.0
173
     0
291
     1
 45
0.0
1001
ACAD
1000
AcDbSavedByObjectVersion
1070
     0
  0
VISUALSTYLE
  5
A066
102
{ACAD_XDICTIONARY
360
A0BF
102
}
102
{ACAD_REACTORS
330
A065
102
}
330
A065
100
AcDbVisualStyle
  2
Flat
 70
     0
 71
     2
 72
     1
 73
     1
 90
        2
 40
-0.6
 41
30.0
 62
     5
 63
     7
 74
     0
 91
        0
 64
     7
 65
   257
 75
     1
175
     1
 42
1.0
 92
        8
 66
     7
 43
1.0
 76
     1
 77
     6
 78
     2
 67
     7
 79
     5
170
     0
171
     0
290
     0
174
     0
 93
       13
 44
0.0
173
     0
291
     1
 45
0.0
1001
ACAD
1000
AcDbSavedByObjectVersion
1070
     0
  0
VISUALSTYLE
  5
A067
102
{ACAD_XDICTIONARY
360
A0C1
102
}
102
{ACAD_REACTORS
330
A065
102
}
330
A065
100
AcDbVisualStyle
  2
FlatWithEdges
 70
     1
 71
     2
 72
     1
 73
     1
 90
        2
 40
-0.6
 41
30.0
 62
     5
 63
     7
 74
     1
 91
        0
 64
     7
 65
   257
 75
     1
175
     1
 42
1.0
 92
        0
 66
   257
 43
1.0
 76
     1
 77
     6
 78
     2
 67
     7
 79
     5
170
     0
171
     0
290
     0
174
     0
 93
       13
 44
0.0
173
     0
291
     1
 45
0.0
1001
ACAD
1000
AcDbSavedByObjectVersion
1070
     0
  0
VISUALSTYLE
  5
A068
102
{ACAD_XDICTIONARY
360
A0C3
102
}
102
{ACAD_REACTORS
330
A065
102
}
330
A065
100
AcDbVisualStyle
  2
Gouraud
 70
     2
 71
     2
 72
     2
 73
     1
 90
        2
 40
-0.6
 41
30.0
 62
     5
 63
     7
 74
     0
 91
        0
 64
     7
 65
   257
 75
     1
175
     1
 42
1.0
 92
        0
 66
     7
 43
1.0
 76
     1
 77
     6
 78
     2
 67
     7
 79
     5
170
     0
171
     0
290
     0
174
     0
 93
       13
 44
0.0
173
     0
291
     1
 45
0.0
1001
ACAD
1000
AcDbSavedByObjectVersion
1070
     0
  0
VISUALSTYLE
  5
A069
102
{ACAD_XDICTIONARY
360
A0C5
102
}
102
{ACAD_REACTORS
330
A065
102
}
330
A065
100
AcDbVisualStyle
  2
GouraudWithEdges
 70
     3
 71
     2
 72
     2
 73
     1
 90
        2
 40
-0.6
 41
30.0
 62
     5
 63
     7
 74
     1
 91
        0
 64
     7
 65
   257
 75
     1
175
     1
 42
1.0
 92
        0
 66
   257
 43
1.0
 76
     1
 77
     6
 78
     2
 67
     7
 79
     5
170
     0
171
     0
290
     0
174
     0
 93
       13
 44
0.0
173
     0
291
     1
 45
0.0
1001
ACAD
1000
AcDbSavedByObjectVersion
1070
     0
  0
VISUALSTYLE
  5
A06D
102
{ACAD_XDICTIONARY
360
A0CD
102
}
102
{ACAD_REACTORS
330
A065
102
}
330
A065
100
AcDbVisualStyle
  2
Hidden
 70
     6
 71
     1
 72
     2
 73
     2
 90
        0
 40
-0.6
 41
-30.0
 62
     5
 63
     7
 74
     2
 91
        2
 64
     7
 65
   257
 75
     2
175
     1
 42
40.0
 92
        0
 66
   257
 43
1.0
 76
     1
 77
     6
 78
     2
 67
     7
 79
     3
170
     0
171
     0
290
     0
174
     0
 93
        1
 44
0.0
173
     0
291
     0
 45
0.0
1001
ACAD
1000
AcDbSavedByObjectVersion
1070
     0
  0
VISUALSTYLE
  5
A07B
102
{ACAD_XDICTIONARY
360
A0E9
102
}
102
{ACAD_REACTORS
330
A065
102
}
330
A065
100
AcDbVisualStyle
  2
JitterOff
 70
    20
 71
     2
 72
     2
 73
     0
 90
        0
 40
-0.6
 41
-30.0
 62
     5
 63
     7
 74
     1
 91
        4
 64
     7
 65
   257
 75
     1
175
     1
 42
1.0
 92
       10
 66
     7
 43
1.0
 76
     1
 77
     6
 78
     2
 67
     7
 79
     5
170
     0
171
     0
290
     0
174
     0
 93
        1
 44
0.0
173
     0
291
     1
 45
0.0
1001
ACAD
1000
AcDbSavedByObjectVersion
1070
     0
  0
VISUALSTYLE
  5
A073
102
{ACAD_XDICTIONARY
360
A0D9
102
}
102
{ACAD_REACTORS
330
A065
102
}
330
A065
100
AcDbVisualStyle
  2
Linepattern
 70
    14
 71
     2
 72
     2
 73
     0
 90
        0
 40
-0.6
 41
-30.0
 62
     5
 63
     7
 74
     1
 91
        4
 64
     7
 65
   257
 75
     7
175
     7
 42
1.0
 92
        8
 66
     7
 43
1.0
 76
     1
 77
     6
 78
     2
 67
     7
 79
     5
170
     0
171
     0
290
     0
174
     0
 93
        1
 44
0.0
173
     0
291
     1
 45
0.0
1001
ACAD
1000
AcDbSavedByObjectVersion
1070
     0
  0
VISUALSTYLE
  5
A07C
102
{ACAD_XDICTIONARY
360
A0EB
102
}
102
{ACAD_REACTORS
330
A065
102
}
330
A065
100
AcDbVisualStyle
  2
OverhangOff
 70
    21
 71
     2
 72
     2
 73
     0
 90
        0
 40
-0.6
 41
-30.0
 62
     5
 63
     7
 74
     1
 91
        4
 64
     7
 65
   257
 75
     1
175
     1
 42
1.0
 92
        9
 66
     7
 43
1.0
 76
     1
 77
     6
 78
     2
 67
     7
 79
     5
170
     0
171
     0
290
     0
174
     0
 93
        1
 44
0.0
173
     0
291
     1
 45
0.0
1001
ACAD
1000
AcDbSavedByObjectVersion
1070
     0
  0
VISUALSTYLE
  5
A06F
102
{ACAD_XDICTIONARY
360
A0D1
102
}
102
{ACAD_REACTORS
330
A065
102
}
330
A065
100
AcDbVisualStyle
  2
Realistic
 70
     8
 71
     2
 72
     3
 73
     0
 90
        2
 40
-0.6
 41
30.0
 62
     5
 63
     7
 74
     0
 91
        0
 64
     7
 65
   257
 75
     1
175
     1
 42
1.0
 92
        8
 66
   257
 43
1.0
 76
     1
 77
     6
 78
     2
 67
     7
 79
     3
170
     0
171
     0
290
     0
174
     0
 93
       13
 44
0.0
173
     0
291
     0
 45
0.0
1001
ACAD
1000
AcDbSavedByObjectVersion
1070
     0
  0
VISUALSTYLE
  5
A07A
102
{ACAD_XDICTIONARY
360
A0E7
102
}
102
{ACAD_REACTORS
330
A065
102
}
330
A065
100
AcDbVisualStyle
  2
Shaded
 70
    27
 71
     2
 72
     2
 73
     1
 90
        2
 40
-0.6
 41
30.0
 62
     5
 63
     7
 74
     0
 91
        4
 64
     7
 65
   257
 75
     1
175
     1
 42
1.0
 92
        8
 66
   257
 43
1.0
 76
     1
 77
     6
 78
     2
 67
     8
 79
     3
170
     0
171
     0
290
     0
174
     0
 93
        5
 44
0.0
173
     0
291
     0
 45
0.0
1001
ACAD
1000
AcDbSavedByObjectVersion
1070
     0
  0
VISUALSTYLE
  5
A079
102
{ACAD_XDICTIONARY
360
A0E5
102
}
102
{ACAD_REACTORS
330
A065
102
}
330
A065
100
AcDbVisualStyle
  2
Shaded with edges
 70
    26
 71
     2
 72
     2
 73
     1
 90
        2
 40
-0.6
 41
30.0
 62
     5
 63
     7
 74
     1
 91
       10
 64
     7
 65
   257
 75
     2
175
     1
 42
1.0
 92
        8
 66
   257
 43
1.0
 76
     1
 77
     6
 78
     2
 67
     7
 79
     3
170
     0
171
     0
290
     0
174
     0
 93
        5
 44
0.0
173
     0
291
     0
 45
0.0
1001
ACAD
1000
AcDbSavedByObjectVersion
1070
     0
  0
VISUALSTYLE
  5
A076
102
{ACAD_XDICTIONARY
360
A0DF
102
}
102
{ACAD_REACTORS
330
A065
102
}
330
A065
100
AcDbVisualStyle
  2
Shades of Gray
 70
    23
 71
     2
 72
     2
 73
     3
 90
        0
 40
-0.6
 41
-30.0
 62
     5
 63
     7
 74
     2
 91
        2
 64
     7
 65
     7
 75
     1
175
     1
 42
40.0
 92
        8
 66
     7
 43
1.0
 76
     1
 77
     6
 78
     2
 67
     7
 79
     3
170
     0
171
     0
290
     0
174
     0
 93
        1
 44
0.0
173
     0
291
     0
 45
0.0
1001
ACAD
1000
AcDbSavedByObjectVersion
1070
     0
  0
VISUALSTYLE
  5
A077
102
{ACAD_XDICTIONARY
360
A0E1
102
}
102
{ACAD_REACTORS
330
A065
102
}
330
A065
100
AcDbVisualStyle
  2
Sketchy
 70
    24
 71
     1
 72
     2
 73
     2
 90
        0
 40
-0.6
 41
-30.0
 62
     5
 63
     7
 74
     2
 91
        2
 64
     7
 65
     7
 75
     1
175
     1
 42
40.0
 92
       11
 66
     7
 43
1.0
 76
     1
 77
     6
 78
     2
 67
     7
 79
     6
170
     0
171
     0
290
     0
174
     0
 93
        1
 44
0.0
173
     0
291
     0
 45
0.0
1001
ACAD
1000
AcDbSavedByObjectVersion
1070
     0
  0
VISUALSTYLE
  5
A072
102
{ACAD_XDICTIONARY
360
A0D7
102
}
102
{ACAD_REACTORS
330
A065
102
}
330
A065
100
AcDbVisualStyle
  2
Thicken
 70
    13
 71
     2
 72
     2
 73
     0
 90
        0
 40
-0.6
 41
-30.0
 62
     5
 63
     7
 74
     1
 91
        4
 64
     7
 65
   257
 75
     1
175
     1
 42
1.0
 92
       12
 66
     7
 43
1.0
 76
     1
 77
     6
 78
     2
 67
     7
 79
     5
170
     0
171
     0
290
     0
174
     0
 93
        1
 44
0.0
173
     0
291
     1
 45
0.0
1001
ACAD
1000
AcDbSavedByObjectVersion
1070
     0
  0
VISUALSTYLE
  5
A06C
102
{ACAD_XDICTIONARY
360
A0CB
102
}
102
{ACAD_REACTORS
330
A065
102
}
330
A065
100
AcDbVisualStyle
  2
Wireframe
 70
     5
 71
     0
 72
     2
 73
     0
 90
        0
 40
-0.6
 41
-30.0
 62
     5
 63
     7
 74
     1
 91
        4
 64
     7
 65
   257
 75
     1
175
     1
 42
1.0
 92
        0
 66
   257
 43
1.0
 76
     1
 77
     6
 78
     2
 67
     7
 79
     3
170
     0
171
     0
290
     0
174
     0
 93
        1
 44
0.0
173
     0
291
     0
 45
0.0
1001
ACAD
1000
AcDbSavedByObjectVersion
1070
     0
  0
VISUALSTYLE
  5
A078
102
{ACAD_XDICTIONARY
360
A0E3
102
}
102
{ACAD_REACTORS
330
A065
102
}
330
A065
100
AcDbVisualStyle
  2
X-Ray
 70
    25
 71
     2
 72
     2
 73
     1
 90
        1
 40
0.5
 41
-30.0
 62
     5
 63
     7
 74
     1
 91
        0
 64
     7
 65
   257
 75
     1
175
     1
 42
1.0
 92
        8
 66
     7
 43
1.0
 76
     1
 77
     6
 78
     2
 67
     7
 79
     3
170
     0
171
     0
290
     0
174
     0
 93
       13
 44
0.0
173
     0
291
     0
 45
0.0
1001
ACAD
1000
AcDbSavedByObjectVersion
1070
     0
  0
DICTIONARYVAR
  5
A0B2
102
{ACAD_REACTORS
330
A0AD
102
}
330
A0AD
100
DictionaryVariables
280
     0
  1
1:1
  0
DICTIONARYVAR
  5
A0AF
102
{ACAD_REACTORS
330
A0AD
102
}
330
A0AD
100
DictionaryVariables
280
     0
  1
STANDARD
  0
DICTIONARYVAR
  5
A0AE
102
{ACAD_REACTORS
330
A0AD
102
}
330
A0AD
100
DictionaryVariables
280
     0
  1
STANDARD
  0
DICTIONARYVAR
  5
A0B0
102
{ACAD_REACTORS
330
A0AD
102
}
330
A0AD
100
DictionaryVariables
280
     0
  1
Imperial24
  0
DICTIONARYVAR
  5
A0B1
102
{ACAD_REACTORS
330
A0AD
102
}
330
A0AD
100
DictionaryVariables
280
     0
  1
Imperial24
  0
DICTIONARYVAR
  5
A0B5
102
{ACAD_REACTORS
330
A0AD
102
}
330
A0AD
100
DictionaryVariables
280
     0
  1
1
  0
DICTIONARYVAR
  5
A0B4
102
{ACAD_REACTORS
330
A0AD
102
}
330
A0AD
100
DictionaryVariables
280
     0
  1
0
  0
DICTIONARYVAR
  5
A0B3
102
{ACAD_REACTORS
330
A0AD
102
}
330
A0AD
100
DictionaryVariables
280
     0
  1
127
  0
DICTIONARYVAR
  5
A0B6
102
{ACAD_REACTORS
330
A0AD
102
}
330
A0AD
100
DictionaryVariables
280
     0
  1
2
  0
DICTIONARY
  5
A0F3
330
A098
100
AcDbDictionary
280
     1
281
     1
  3
ACAD_XREC_ROUNDTRIP
360
A0F4
  0
DICTIONARY
  5
A0F5
330
A099
100
AcDbDictionary
280
     1
281
     1
  3
ACAD_XREC_ROUNDTRIP
360
A0F6
  0
DICTIONARY
  5
A0F7
330
A09A
100
AcDbDictionary
280
     1
281
     1
  3
ACAD_XREC_ROUNDTRIP
360
A0F8
  0
DICTIONARY
  5
A056
330
A055
100
AcDbDictionary
280
     1
281
     1
  3
ACAD_XREC_ROUNDTRIP
360
A0BD
  3
BUMPTILE
360
A058
  3
DIFFUSETILE
360
A057
  3
OPACITYTILE
360
A05B
  3
REFLECTIONTILE
360
A05A
  3
REFRACTIONTILE
360
A05C
  3
SPECULARTILE
360
A059
  0
DICTIONARY
  5
A04E
330
A04D
100
AcDbDictionary
280
     1
281
     1
  3
ACAD_XREC_ROUNDTRIP
360
A0BC
  3
BUMPTILE
360
A050
  3
DIFFUSETILE
360
A04F
  3
OPACITYTILE
360
A053
  3
REFLECTIONTILE
360
A052
  3
REFRACTIONTILE
360
A054
  3
SPECULARTILE
360
A051
  0
DICTIONARY
  5
A05E
330
A05D
100
AcDbDictionary
280
     1
281
     1
  3
ACAD_XREC_ROUNDTRIP
360
A0BE
  3
BUMPTILE
360
A060
  3
DIFFUSETILE
360
A05F
  3
OPACITYTILE
360
A063
  3
REFLECTIONTILE
360
A062
  3
REFRACTIONTILE
360
A064
  3
SPECULARTILE
360
A061
  0
DICTIONARY
  5
A0F1
330
A096
100
AcDbDictionary
280
     1
281
     1
  3
ACAD_XREC_ROUNDTRIP
360
A0F2
  0
DICTIONARY
  5
A0B8
330
A080
100
AcDbDictionary
280
     1
281
     1
  3
ACAD_ROUNDTRIP_2008_TABLESTYLE_CELLSTYLEMAP
360
A0B9
  3
ACAD_XREC_ROUNDTRIP
360
A0EF
  0
DICTIONARY
  5
A0C9
330
A06B
100
AcDbDictionary
280
     1
281
     1
  3
ACAD_XREC_ROUNDTRIP
360
A0CA
  0
DICTIONARY
  5
A0C7
330
A06A
100
AcDbDictionary
280
     1
281
     1
  3
ACAD_XREC_ROUNDTRIP
360
A0C8
  0
DICTIONARY
  5
A0D5
330
A071
100
AcDbDictionary
280
     1
281
     1
  3
ACAD_XREC_ROUNDTRIP
360
A0D6
  0
DICTIONARY
  5
A0DD
330
A075
100
AcDbDictionary
280
     1
281
     1
  3
ACAD_XREC_ROUNDTRIP
360
A0DE
  0
DICTIONARY
  5
A0CF
330
A06E
100
AcDbDictionary
280
     1
281
     1
  3
ACAD_XREC_ROUNDTRIP
360
A0D0
  0
DICTIONARY
  5
A0D3
330
A070
100
AcDbDictionary
280
     1
281
     1
  3
ACAD_XREC_ROUNDTRIP
360
A0D4
  0
DICTIONARY
  5
A0ED
330
A07D
100
AcDbDictionary
280
     1
281
     1
  3
ACAD_XREC_ROUNDTRIP
360
A0EE
  0
DICTIONARY
  5
A0DB
330
A074
100
AcDbDictionary
280
     1
281
     1
  3
ACAD_XREC_ROUNDTRIP
360
A0DC
  0
DICTIONARY
  5
A0BF
330
A066
100
AcDbDictionary
280
     1
281
     1
  3
ACAD_XREC_ROUNDTRIP
360
A0C0
  0
DICTIONARY
  5
A0C1
330
A067
100
AcDbDictionary
280
     1
281
     1
  3
ACAD_XREC_ROUNDTRIP
360
A0C2
  0
DICTIONARY
  5
A0C3
330
A068
100
AcDbDictionary
280
     1
281
     1
  3
ACAD_XREC_ROUNDTRIP
360
A0C4
  0
DICTIONARY
  5
A0C5
330
A069
100
AcDbDictionary
280
     1
281
     1
  3
ACAD_XREC_ROUNDTRIP
360
A0C6
  0
DICTIONARY
  5
A0CD
330
A06D
100
AcDbDictionary
280
     1
281
     1
  3
ACAD_XREC_ROUNDTRIP
360
A0CE
  0
DICTIONARY
  5
A0E9
330
A07B
100
AcDbDictionary
280
     1
281
     1
  3
ACAD_XREC_ROUNDTRIP
360
A0EA
  0
DICTIONARY
  5
A0D9
330
A073
100
AcDbDictionary
280
     1
281
     1
  3
ACAD_XREC_ROUNDTRIP
360
A0DA
  0
DICTIONARY
  5
A0EB
330
A07C
100
AcDbDictionary
280
     1
281
     1
  3
ACAD_XREC_ROUNDTRIP
360
A0EC
  0
DICTIONARY
  5
A0D1
330
A06F
100
AcDbDictionary
280
     1
281
     1
  3
ACAD_XREC_ROUNDTRIP
360
A0D2
  0
DICTIONARY
  5
A0E7
330
A07A
100
AcDbDictionary
280
     1
281
     1
  3
ACAD_XREC_ROUNDTRIP
360
A0E8
  0
DICTIONARY
  5
A0E5
330
A079
100
AcDbDictionary
280
     1
281
     1
  3
ACAD_XREC_ROUNDTRIP
360
A0E6
  0
DICTIONARY
  5
A0DF
330
A076
100
AcDbDictionary
280
     1
281
     1
  3
ACAD_XREC_ROUNDTRIP
360
A0E0
  0
DICTIONARY
  5
A0E1
330
A077
100
AcDbDictionary
280
     1
281
     1
  3
ACAD_XREC_ROUNDTRIP
360
A0E2
  0
DICTIONARY
  5
A0D7
330
A072
100
AcDbDictionary
280
     1
281
     1
  3
ACAD_XREC_ROUNDTRIP
360
A0D8
  0
DICTIONARY
  5
A0CB
330
A06C
100
AcDbDictionary
280
     1
281
     1
  3
ACAD_XREC_ROUNDTRIP
360
A0CC
  0
DICTIONARY
  5
A0E3
330
A078
100
AcDbDictionary
280
     1
281
     1
  3
ACAD_XREC_ROUNDTRIP
360
A0E4
  0
XRECORD
  5
A0F4
102
{ACAD_REACTORS
330
A0F3
102
}
330
A0F3
100
AcDbXrecord
280
     1
102
DISPLAYNAME
  1
Imperial24
102
FLAGS
 90
        0
  0
XRECORD
  5
A0F6
102
{ACAD_REACTORS
330
A0F5
102
}
330
A0F5
100
AcDbXrecord
280
     1
102
SHADEPLOT
 70
     0
102
SHADEPLOTRESLEVEL
 70
     2
102
SHADEPLOTCUSTOMDPI
 70
   300
  0
XRECORD
  5
A0F8
102
{ACAD_REACTORS
330
A0F7
102
}
330
A0F7
100
AcDbXrecord
280
     1
102
SHADEPLOT
 70
     0
102
SHADEPLOTRESLEVEL
 70
     2
102
SHADEPLOTCUSTOMDPI
 70
   300
  0
XRECORD
  5
A0BD
102
{ACAD_REACTORS
330
A056
102
}
330
A056
100
AcDbXrecord
280
     1
102
MATERIAL
148
0.0
149
0.0
149
0.0
 93
        0
 94
      127
282
     0
 72
     0
 77
     0
171
     0
175
     0
179
     0
273
     0
  0
XRECORD
  5
A058
102
{ACAD_REACTORS
330
A056
102
}
330
A056
100
AcDbXrecord
280
     1
270
     1
271
     1
  0
XRECORD
  5
A057
102
{ACAD_REACTORS
330
A056
102
}
330
A056
100
AcDbXrecord
280
     1
270
     1
271
     1
  0
XRECORD
  5
A05B
102
{ACAD_REACTORS
330
A056
102
}
330
A056
100
AcDbXrecord
280
     1
270
     1
271
     1
  0
XRECORD
  5
A05A
102
{ACAD_REACTORS
330
A056
102
}
330
A056
100
AcDbXrecord
280
     1
270
     1
271
     1
  0
XRECORD
  5
A05C
102
{ACAD_REACTORS
330
A056
102
}
330
A056
100
AcDbXrecord
280
     1
270
     1
271
     1
  0
XRECORD
  5
A059
102
{ACAD_REACTORS
330
A056
102
}
330
A056
100
AcDbXrecord
280
     1
270
     1
271
     1
  0
XRECORD
  5
A0BC
102
{ACAD_REACTORS
330
A04E
102
}
330
A04E
100
AcDbXrecord
280
     1
102
MATERIAL
148
0.0
149
0.0
149
0.0
 93
        0
 94
      127
282
     0
 72
     0
 77
     0
171
     0
175
     0
179
     0
273
     0
  0
XRECORD
  5
A050
102
{ACAD_REACTORS
330
A04E
102
}
330
A04E
100
AcDbXrecord
280
     1
270
     1
271
     1
  0
XRECORD
  5
A04F
102
{ACAD_REACTORS
330
A04E
102
}
330
A04E
100
AcDbXrecord
280
     1
270
     1
271
     1
  0
XRECORD
  5
A053
102
{ACAD_REACTORS
330
A04E
102
}
330
A04E
100
AcDbXrecord
280
     1
270
     1
271
     1
  0
XRECORD
  5
A052
102
{ACAD_REACTORS
330
A04E
102
}
330
A04E
100
AcDbXrecord
280
     1
270
     1
271
     1
  0
XRECORD
  5
A054
102
{ACAD_REACTORS
330
A04E
102
}
330
A04E
100
AcDbXrecord
280
     1
270
     1
271
     1
  0
XRECORD
  5
A051
102
{ACAD_REACTORS
330
A04E
102
}
330
A04E
100
AcDbXrecord
280
     1
270
     1
271
     1
  0
XRECORD
  5
A0BE
102
{ACAD_REACTORS
330
A05E
102
}
330
A05E
100
AcDbXrecord
280
     1
102
MATERIAL
148
0.0
149
0.0
149
0.0
 93
        0
 94
      127
282
     0
 72
     0
 77
     0
171
     0
175
     0
179
     0
273
     0
  0
XRECORD
  5
A060
102
{ACAD_REACTORS
330
A05E
102
}
330
A05E
100
AcDbXrecord
280
     1
270
     1
271
     1
  0
XRECORD
  5
A05F
102
{ACAD_REACTORS
330
A05E
102
}
330
A05E
100
AcDbXrecord
280
     1
270
     1
271
     1
  0
XRECORD
  5
A063
102
{ACAD_REACTORS
330
A05E
102
}
330
A05E
100
AcDbXrecord
280
     1
270
     1
271
     1
  0
XRECORD
  5
A062
102
{ACAD_REACTORS
330
A05E
102
}
330
A05E
100
AcDbXrecord
280
     1
270
     1
271
     1
  0
XRECORD
  5
A064
102
{ACAD_REACTORS
330
A05E
102
}
330
A05E
100
AcDbXrecord
280
     1
270
     1
271
     1
  0
XRECORD
  5
A061
102
{ACAD_REACTORS
330
A05E
102
}
330
A05E
100
AcDbXrecord
280
     1
270
     1
271
     1
  0
XRECORD
  5
A0F2
102
{ACAD_REACTORS
330
A0F1
102
}
330
A0F1
100
AcDbXrecord
280
     1
102
DISPLAYNAME
  1
Imperial24
102
FLAGS
 90
        0
  0
CELLSTYLEMAP
  5
A0B9
102
{ACAD_REACTORS
330
A0B8
102
}
330
A0B8
100
AcDbCellStyleMap
 90
        3
300
CELLSTYLE
  1
TABLEFORMAT_BEGIN
 90
        5
170
     1
 91
        0
 92
    32768
 62
   257
 93
        1
300
CONTENTFORMAT
  1
CONTENTFORMAT_BEGIN
 90
        0
 91
        0
 92
      512
 93
        0
300

 40
0.0
140
1.0
 94
        5
 62
     0
340
9B91
144
0.25
309
CONTENTFORMAT_END
171
     0
 94
        0
309
TABLEFORMAT_END
  1
CELLSTYLE_BEGIN
 90
        1
 91
        1
300
_TITLE
309
CELLSTYLE_END
300
CELLSTYLE
  1
TABLEFORMAT_BEGIN
 90
        5
170
     1
 91
        0
 92
        0
 62
   257
 93
        1
300
CONTENTFORMAT
  1
CONTENTFORMAT_BEGIN
 90
        0
 91
        0
 92
      512
 93
        0
300

 40
0.0
140
1.0
 94
        5
 62
     0
340
9B91
144
0.18
309
CONTENTFORMAT_END
171
     0
 94
        0
309
TABLEFORMAT_END
  1
CELLSTYLE_BEGIN
 90
        2
 91
        1
300
_HEADER
309
CELLSTYLE_END
300
CELLSTYLE
  1
TABLEFORMAT_BEGIN
 90
        5
170
     1
 91
        0
 92
        0
 62
   257
 93
        1
300
CONTENTFORMAT
  1
CONTENTFORMAT_BEGIN
 90
        0
 91
        0
 92
      512
 93
        0
300

 40
0.0
140
1.0
 94
        2
 62
     0
340
9B91
144
0.18
309
CONTENTFORMAT_END
171
     0
 94
        0
309
TABLEFORMAT_END
  1
CELLSTYLE_BEGIN
 90
        3
 91
        2
300
_DATA
309
CELLSTYLE_END
  0
XRECORD
  5
A0EF
102
{ACAD_REACTORS
330
A0B8
102
}
330
A0B8
100
AcDbXrecord
280
     1
102
ACAD_ROUNDTRIP_PRE2007_TABLESTYLE
 90
      512
 91
        0
  1

 92
      512
 93
        0
  2

 94
      512
 95
        0
  3

  0
XRECORD
  5
A0CA
102
{ACAD_REACTORS
330
A0C9
102
}
330
A0C9
100
AcDbXrecord
280
     1
102
RTVSPost2010Prop28
280
     1
102
RTVSPost2010PropOp28
 70
     1
102
RTVSPost2010Prop29
280
     1
102
RTVSPost2010PropOp29
 70
     1
102
RTVSPost2010Prop30
280
     0
102
RTVSPost2010PropOp30
 70
     1
102
RTVSPost2010Prop31
280
     0
102
RTVSPost2010PropOp31
 70
     1
102
RTVSPost2010Prop32
280
     0
102
RTVSPost2010PropOp32
 70
     1
102
RTVSPost2010Prop33
280
     0
102
RTVSPost2010PropOp33
 70
     1
102
RTVSPost2010Prop34
280
     0
102
RTVSPost2010PropOp34
 70
     1
102
RTVSPost2010Prop35
280
     0
102
RTVSPost2010PropOp35
 70
     1
102
RTVSPost2010Prop36
280
     0
102
RTVSPost2010PropOp36
 70
     1
102
RTVSPost2010Prop37
 90
       50
102
RTVSPost2010PropOp37
 70
     1
102
RTVSPost2010Prop38
140
0.0
102
RTVSPost2010PropOp38
 70
     1
102
RTVSPost2010Prop39
140
1.0
102
RTVSPost2010PropOp39
 70
     1
102
RTVSPost2010Prop40
 90
        0
102
RTVSPost2010PropOp40
 70
     1
102
RTVSPost2010Prop41ColorIndex
 90
       18
102
RTVSPost2010Prop41ColorRGB
 90
        0
102
RTVSPost2010PropOp41
 70
     1
102
RTVSPost2010Prop42
 90
       50
102
RTVSPost2010PropOp42
 70
     1
102
RTVSPost2010Prop43
 90
        3
102
RTVSPost2010PropOp43
 70
     1
102
RTVSPost2010Prop44ColorIndex
 90
        5
102
RTVSPost2010Prop44ColorRGB
 90
      255
102
RTVSPost2010PropOp44
 70
     1
102
RTVSPost2010Prop45
280
     0
102
RTVSPost2010PropOp45
 70
     1
102
RTVSPost2010Prop46
 90
       50
102
RTVSPost2010PropOp46
 70
     1
102
RTVSPost2010Prop47
 90
       50
102
RTVSPost2010PropOp47
 70
     1
102
RTVSPost2010Prop48
 90
       50
102
RTVSPost2010PropOp48
 70
     1
102
RTVSPost2010Prop49
280
     0
102
RTVSPost2010PropOp49
 70
     1
102
RTVSPost2010Prop50
 90
       50
102
RTVSPost2010PropOp50
 70
     1
102
RTVSPost2010Prop51ColorIndex
 90
      256
102
RTVSPost2010Prop51ColorRGB
 90
-16777216
102
RTVSPost2010PropOp51
 70
     0
102
RTVSPost2010Prop52
140
1.0
102
RTVSPost2010PropOp52
 70
     0
102
RTVSPost2010Prop53
 90
        2
102
RTVSPost2010PropOp53
 70
     1
102
RTVSPost2010Prop54
  1
strokes_ogs.tif
102
RTVSPost2010PropOp54
 70
     1
102
RTVSPost2010Prop55
280
     0
102
RTVSPost2010PropOp55
 70
     1
102
RTVSPost2010Prop56
140
1.0
102
RTVSPost2010PropOp56
 70
     1
102
RTVSPost2010Prop57
140
1.0
102
RTVSPost2010PropOp57
 70
     1
102
RTVSPropertyOp0
 70
     1
102
RTVSPropertyOp1
 70
     1
102
RTVSPropertyOp2
 70
     1
102
RTVSPropertyOp3
 70
     1
102
RTVSPropertyOp4
 70
     1
102
RTVSPropertyOp5
 70
     1
102
RTVSPropertyOp6
 70
     1
102
RTVSPropertyOp7
 70
     1
102
RTVSPropertyOp8
 70
     1
102
RTVSPropertyOp9
 70
     1
102
RTVSPropertyOp10
 70
     1
102
RTVSPropertyOp11
 70
     1
102
RTVSPropertyOp12
 70
     1
102
RTVSPropertyOp13
 70
     1
102
RTVSPropertyOp14
 70
     1
102
RTVSPropertyOp15
 70
     1
102
RTVSPropertyOp16
 70
     1
102
RTVSPropertyOp17
 70
     1
102
RTVSPropertyOp18
 70
     1
102
RTVSPropertyOp19
 70
     1
102
RTVSPropertyOp20
 70
     1
102
RTVSPropertyOp21
 70
     1
102
RTVSPropertyOp22
 70
     1
102
RTVSPropertyOp23
 70
     1
102
RTVSPropertyOp24
 70
     1
102
RTVSPropertyOp25
 70
     1
102
RTVSPropertyOp26
 70
     1
102
RTVSPropertyOp27
 70
     1
102
RTVSPropertyOp28
 70
     1
102
RTVSPropertyOp29
 70
     1
102
RTVSPropertyOp30
 70
     1
102
RTVSPropertyOp31
 70
     1
102
RTVSPropertyOp32
 70
     1
102
RTVSPropertyOp33
 70
     1
102
RTVSPropertyOp34
 70
     1
102
RTVSPropertyOp35
 70
     1
102
RTVSPropertyOp36
 70
     1
102
RTVSPropertyOp37
 70
     1
102
RTVSPropertyOp38
 70
     1
102
RTVSPropertyOp39
 70
     1
102
RTVSPropertyOp40
 70
     1
102
RTVSPropertyOp41
 70
     1
102
RTVSPropertyOp42
 70
     1
102
RTVSPropertyOp43
 70
     1
102
RTVSPropertyOp44
 70
     1
102
RTVSPropertyOp45
 70
     1
102
RTVSPropertyOp46
 70
     1
102
RTVSPropertyOp47
 70
     1
102
RTVSPropertyOp48
 70
     1
102
RTVSPropertyOp49
 70
     1
102
RTVSPropertyOp50
 70
     1
102
RTVSPropertyOp51
 70
     0
102
RTVSPropertyOp52
 70
     0
102
RTVSPropertyOp53
 70
     1
102
RTVSPropertyOp54
 70
     1
102
RTVSPropertyOp55
 70
     1
102
RTVSPropertyOp56
 70
     1
102
RTVSPropertyOp57
 70
     1
102
RTVSPropertyOp58
 70
     1
102
RTVSPropertyOp59
 70
     1
102
RTVSPropertyOp60
 70
     1
102
RTVSPropertyOp61
 70
     1
102
RTVSPropertyOp62
 70
     1
  0
XRECORD
  5
A0C8
102
{ACAD_REACTORS
330
A0C7
102
}
330
A0C7
100
AcDbXrecord
280
     1
102
RTVSPost2010Prop28
280
     0
102
RTVSPost2010PropOp28
 70
     1
102
RTVSPost2010Prop29
280
     1
102
RTVSPost2010PropOp29
 70
     1
102
RTVSPost2010Prop30
280
     1
102
RTVSPost2010PropOp30
 70
     1
102
RTVSPost2010Prop31
280
     0
102
RTVSPost2010PropOp31
 70
     1
102
RTVSPost2010Prop32
280
     0
102
RTVSPost2010PropOp32
 70
     1
102
RTVSPost2010Prop33
280
     0
102
RTVSPost2010PropOp33
 70
     1
102
RTVSPost2010Prop34
280
     0
102
RTVSPost2010PropOp34
 70
     1
102
RTVSPost2010Prop35
280
     0
102
RTVSPost2010PropOp35
 70
     1
102
RTVSPost2010Prop36
280
     0
102
RTVSPost2010PropOp36
 70
     1
102
RTVSPost2010Prop37
 90
       50
102
RTVSPost2010PropOp37
 70
     1
102
RTVSPost2010Prop38
140
0.0
102
RTVSPost2010PropOp38
 70
     1
102
RTVSPost2010Prop39
140
1.0
102
RTVSPost2010PropOp39
 70
     1
102
RTVSPost2010Prop40
 90
        0
102
RTVSPost2010PropOp40
 70
     1
102
RTVSPost2010Prop41ColorIndex
 90
       18
102
RTVSPost2010Prop41ColorRGB
 90
        0
102
RTVSPost2010PropOp41
 70
     1
102
RTVSPost2010Prop42
 90
       50
102
RTVSPost2010PropOp42
 70
     1
102
RTVSPost2010Prop43
 90
        3
102
RTVSPost2010PropOp43
 70
     1
102
RTVSPost2010Prop44ColorIndex
 90
        5
102
RTVSPost2010Prop44ColorRGB
 90
      255
102
RTVSPost2010PropOp44
 70
     1
102
RTVSPost2010Prop45
280
     0
102
RTVSPost2010PropOp45
 70
     1
102
RTVSPost2010Prop46
 90
       50
102
RTVSPost2010PropOp46
 70
     1
102
RTVSPost2010Prop47
 90
       50
102
RTVSPost2010PropOp47
 70
     1
102
RTVSPost2010Prop48
 90
       50
102
RTVSPost2010PropOp48
 70
     1
102
RTVSPost2010Prop49
280
     0
102
RTVSPost2010PropOp49
 70
     1
102
RTVSPost2010Prop50
 90
       50
102
RTVSPost2010PropOp50
 70
     1
102
RTVSPost2010Prop51ColorIndex
 90
      256
102
RTVSPost2010Prop51ColorRGB
 90
-16777216
102
RTVSPost2010PropOp51
 70
     0
102
RTVSPost2010Prop52
140
1.0
102
RTVSPost2010PropOp52
 70
     0
102
RTVSPost2010Prop53
 90
        2
102
RTVSPost2010PropOp53
 70
     1
102
RTVSPost2010Prop54
  1
strokes_ogs.tif
102
RTVSPost2010PropOp54
 70
     1
102
RTVSPost2010Prop55
280
     0
102
RTVSPost2010PropOp55
 70
     1
102
RTVSPost2010Prop56
140
1.0
102
RTVSPost2010PropOp56
 70
     1
102
RTVSPost2010Prop57
140
1.0
102
RTVSPost2010PropOp57
 70
     1
102
RTVSPropertyOp0
 70
     1
102
RTVSPropertyOp1
 70
     1
102
RTVSPropertyOp2
 70
     1
102
RTVSPropertyOp3
 70
     1
102
RTVSPropertyOp4
 70
     1
102
RTVSPropertyOp5
 70
     1
102
RTVSPropertyOp6
 70
     1
102
RTVSPropertyOp7
 70
     1
102
RTVSPropertyOp8
 70
     1
102
RTVSPropertyOp9
 70
     1
102
RTVSPropertyOp10
 70
     1
102
RTVSPropertyOp11
 70
     1
102
RTVSPropertyOp12
 70
     1
102
RTVSPropertyOp13
 70
     1
102
RTVSPropertyOp14
 70
     1
102
RTVSPropertyOp15
 70
     1
102
RTVSPropertyOp16
 70
     1
102
RTVSPropertyOp17
 70
     1
102
RTVSPropertyOp18
 70
     1
102
RTVSPropertyOp19
 70
     1
102
RTVSPropertyOp20
 70
     1
102
RTVSPropertyOp21
 70
     1
102
RTVSPropertyOp22
 70
     1
102
RTVSPropertyOp23
 70
     1
102
RTVSPropertyOp24
 70
     1
102
RTVSPropertyOp25
 70
     1
102
RTVSPropertyOp26
 70
     1
102
RTVSPropertyOp27
 70
     1
102
RTVSPropertyOp28
 70
     1
102
RTVSPropertyOp29
 70
     1
102
RTVSPropertyOp30
 70
     1
102
RTVSPropertyOp31
 70
     1
102
RTVSPropertyOp32
 70
     1
102
RTVSPropertyOp33
 70
     1
102
RTVSPropertyOp34
 70
     1
102
RTVSPropertyOp35
 70
     1
102
RTVSPropertyOp36
 70
     1
102
RTVSPropertyOp37
 70
     1
102
RTVSPropertyOp38
 70
     1
102
RTVSPropertyOp39
 70
     1
102
RTVSPropertyOp40
 70
     1
102
RTVSPropertyOp41
 70
     1
102
RTVSPropertyOp42
 70
     1
102
RTVSPropertyOp43
 70
     1
102
RTVSPropertyOp44
 70
     1
102
RTVSPropertyOp45
 70
     1
102
RTVSPropertyOp46
 70
     1
102
RTVSPropertyOp47
 70
     1
102
RTVSPropertyOp48
 70
     1
102
RTVSPropertyOp49
 70
     1
102
RTVSPropertyOp50
 70
     1
102
RTVSPropertyOp51
 70
     0
102
RTVSPropertyOp52
 70
     0
102
RTVSPropertyOp53
 70
     1
102
RTVSPropertyOp54
 70
     1
102
RTVSPropertyOp55
 70
     1
102
RTVSPropertyOp56
 70
     1
102
RTVSPropertyOp57
 70
     1
102
RTVSPropertyOp58
 70
     1
102
RTVSPropertyOp59
 70
     1
102
RTVSPropertyOp60
 70
     1
102
RTVSPropertyOp61
 70
     1
102
RTVSPropertyOp62
 70
     1
  0
XRECORD
  5
A0D6
102
{ACAD_REACTORS
330
A0D5
102
}
330
A0D5
100
AcDbXrecord
280
     1
102
RTVSPost2010Prop28
280
     0
102
RTVSPost2010PropOp28
 70
     1
102
RTVSPost2010Prop29
280
     1
102
RTVSPost2010PropOp29
 70
     1
102
RTVSPost2010Prop30
280
     1
102
RTVSPost2010PropOp30
 70
     1
102
RTVSPost2010Prop31
280
     0
102
RTVSPost2010PropOp31
 70
     1
102
RTVSPost2010Prop32
280
     0
102
RTVSPost2010PropOp32
 70
     1
102
RTVSPost2010Prop33
280
     0
102
RTVSPost2010PropOp33
 70
     1
102
RTVSPost2010Prop34
280
     0
102
RTVSPost2010PropOp34
 70
     1
102
RTVSPost2010Prop35
280
     0
102
RTVSPost2010PropOp35
 70
     1
102
RTVSPost2010Prop36
280
     0
102
RTVSPost2010PropOp36
 70
     1
102
RTVSPost2010Prop37
 90
       50
102
RTVSPost2010PropOp37
 70
     1
102
RTVSPost2010Prop38
140
0.0
102
RTVSPost2010PropOp38
 70
     1
102
RTVSPost2010Prop39
140
1.0
102
RTVSPost2010PropOp39
 70
     1
102
RTVSPost2010Prop40
 90
        0
102
RTVSPost2010PropOp40
 70
     1
102
RTVSPost2010Prop41ColorIndex
 90
       18
102
RTVSPost2010Prop41ColorRGB
 90
        0
102
RTVSPost2010PropOp41
 70
     1
102
RTVSPost2010Prop42
 90
       50
102
RTVSPost2010PropOp42
 70
     1
102
RTVSPost2010Prop43
 90
        3
102
RTVSPost2010PropOp43
 70
     1
102
RTVSPost2010Prop44ColorIndex
 90
        5
102
RTVSPost2010Prop44ColorRGB
 90
      255
102
RTVSPost2010PropOp44
 70
     1
102
RTVSPost2010Prop45
280
     0
102
RTVSPost2010PropOp45
 70
     1
102
RTVSPost2010Prop46
 90
       50
102
RTVSPost2010PropOp46
 70
     1
102
RTVSPost2010Prop47
 90
       50
102
RTVSPost2010PropOp47
 70
     1
102
RTVSPost2010Prop48
 90
       50
102
RTVSPost2010PropOp48
 70
     1
102
RTVSPost2010Prop49
280
     0
102
RTVSPost2010PropOp49
 70
     1
102
RTVSPost2010Prop50
 90
       50
102
RTVSPost2010PropOp50
 70
     1
102
RTVSPost2010Prop51ColorIndex
 90
      256
102
RTVSPost2010Prop51ColorRGB
 90
-16777216
102
RTVSPost2010PropOp51
 70
     0
102
RTVSPost2010Prop52
140
1.0
102
RTVSPost2010PropOp52
 70
     0
102
RTVSPost2010Prop53
 90
        2
102
RTVSPost2010PropOp53
 70
     1
102
RTVSPost2010Prop54
  1
strokes_ogs.tif
102
RTVSPost2010PropOp54
 70
     1
102
RTVSPost2010Prop55
280
     0
102
RTVSPost2010PropOp55
 70
     1
102
RTVSPost2010Prop56
140
1.0
102
RTVSPost2010PropOp56
 70
     1
102
RTVSPost2010Prop57
140
1.0
102
RTVSPost2010PropOp57
 70
     1
102
RTVSPropertyOp0
 70
     1
102
RTVSPropertyOp1
 70
     1
102
RTVSPropertyOp2
 70
     1
102
RTVSPropertyOp3
 70
     1
102
RTVSPropertyOp4
 70
     1
102
RTVSPropertyOp5
 70
     1
102
RTVSPropertyOp6
 70
     1
102
RTVSPropertyOp7
 70
     1
102
RTVSPropertyOp8
 70
     1
102
RTVSPropertyOp9
 70
     1
102
RTVSPropertyOp10
 70
     1
102
RTVSPropertyOp11
 70
     1
102
RTVSPropertyOp12
 70
     1
102
RTVSPropertyOp13
 70
     1
102
RTVSPropertyOp14
 70
     1
102
RTVSPropertyOp15
 70
     1
102
RTVSPropertyOp16
 70
     1
102
RTVSPropertyOp17
 70
     1
102
RTVSPropertyOp18
 70
     1
102
RTVSPropertyOp19
 70
     1
102
RTVSPropertyOp20
 70
     1
102
RTVSPropertyOp21
 70
     1
102
RTVSPropertyOp22
 70
     1
102
RTVSPropertyOp23
 70
     1
102
RTVSPropertyOp24
 70
     1
102
RTVSPropertyOp25
 70
     1
102
RTVSPropertyOp26
 70
     1
102
RTVSPropertyOp27
 70
     1
102
RTVSPropertyOp28
 70
     1
102
RTVSPropertyOp29
 70
     1
102
RTVSPropertyOp30
 70
     1
102
RTVSPropertyOp31
 70
     1
102
RTVSPropertyOp32
 70
     1
102
RTVSPropertyOp33
 70
     1
102
RTVSPropertyOp34
 70
     1
102
RTVSPropertyOp35
 70
     1
102
RTVSPropertyOp36
 70
     1
102
RTVSPropertyOp37
 70
     1
102
RTVSPropertyOp38
 70
     1
102
RTVSPropertyOp39
 70
     1
102
RTVSPropertyOp40
 70
     1
102
RTVSPropertyOp41
 70
     1
102
RTVSPropertyOp42
 70
     1
102
RTVSPropertyOp43
 70
     1
102
RTVSPropertyOp44
 70
     1
102
RTVSPropertyOp45
 70
     1
102
RTVSPropertyOp46
 70
     1
102
RTVSPropertyOp47
 70
     1
102
RTVSPropertyOp48
 70
     1
102
RTVSPropertyOp49
 70
     1
102
RTVSPropertyOp50
 70
     1
102
RTVSPropertyOp51
 70
     0
102
RTVSPropertyOp52
 70
     0
102
RTVSPropertyOp53
 70
     1
102
RTVSPropertyOp54
 70
     1
102
RTVSPropertyOp55
 70
     1
102
RTVSPropertyOp56
 70
     1
102
RTVSPropertyOp57
 70
     1
102
RTVSPropertyOp58
 70
     1
102
RTVSPropertyOp59
 70
     1
102
RTVSPropertyOp60
 70
     1
102
RTVSPropertyOp61
 70
     1
102
RTVSPropertyOp62
 70
     1
  0
XRECORD
  5
A0DE
102
{ACAD_REACTORS
330
A0DD
102
}
330
A0DD
100
AcDbXrecord
280
     1
102
RTVSPost2010Prop28
280
     0
102
RTVSPost2010PropOp28
 70
     1
102
RTVSPost2010Prop29
280
     1
102
RTVSPost2010PropOp29
 70
     1
102
RTVSPost2010Prop30
280
     1
102
RTVSPost2010PropOp30
 70
     1
102
RTVSPost2010Prop31
280
     0
102
RTVSPost2010PropOp31
 70
     1
102
RTVSPost2010Prop32
280
     0
102
RTVSPost2010PropOp32
 70
     1
102
RTVSPost2010Prop33
280
     0
102
RTVSPost2010PropOp33
 70
     1
102
RTVSPost2010Prop34
280
     0
102
RTVSPost2010PropOp34
 70
     1
102
RTVSPost2010Prop35
280
     0
102
RTVSPost2010PropOp35
 70
     1
102
RTVSPost2010Prop36
280
     0
102
RTVSPost2010PropOp36
 70
     1
102
RTVSPost2010Prop37
 90
       50
102
RTVSPost2010PropOp37
 70
     1
102
RTVSPost2010Prop38
140
0.0
102
RTVSPost2010PropOp38
 70
     1
102
RTVSPost2010Prop39
140
1.0
102
RTVSPost2010PropOp39
 70
     1
102
RTVSPost2010Prop40
 90
        0
102
RTVSPost2010PropOp40
 70
     1
102
RTVSPost2010Prop41ColorIndex
 90
       18
102
RTVSPost2010Prop41ColorRGB
 90
        0
102
RTVSPost2010PropOp41
 70
     1
102
RTVSPost2010Prop42
 90
       50
102
RTVSPost2010PropOp42
 70
     1
102
RTVSPost2010Prop43
 90
        3
102
RTVSPost2010PropOp43
 70
     1
102
RTVSPost2010Prop44ColorIndex
 90
        5
102
RTVSPost2010Prop44ColorRGB
 90
      255
102
RTVSPost2010PropOp44
 70
     1
102
RTVSPost2010Prop45
280
     0
102
RTVSPost2010PropOp45
 70
     1
102
RTVSPost2010Prop46
 90
       50
102
RTVSPost2010PropOp46
 70
     1
102
RTVSPost2010Prop47
 90
       50
102
RTVSPost2010PropOp47
 70
     1
102
RTVSPost2010Prop48
 90
       50
102
RTVSPost2010PropOp48
 70
     1
102
RTVSPost2010Prop49
280
     0
102
RTVSPost2010PropOp49
 70
     1
102
RTVSPost2010Prop50
 90
       50
102
RTVSPost2010PropOp50
 70
     1
102
RTVSPost2010Prop51ColorIndex
 90
      256
102
RTVSPost2010Prop51ColorRGB
 90
-16777216
102
RTVSPost2010PropOp51
 70
     0
102
RTVSPost2010Prop52
140
1.0
102
RTVSPost2010PropOp52
 70
     0
102
RTVSPost2010Prop53
 90
        2
102
RTVSPost2010PropOp53
 70
     1
102
RTVSPost2010Prop54
  1
strokes_ogs.tif
102
RTVSPost2010PropOp54
 70
     1
102
RTVSPost2010Prop55
280
     0
102
RTVSPost2010PropOp55
 70
     1
102
RTVSPost2010Prop56
140
1.0
102
RTVSPost2010PropOp56
 70
     1
102
RTVSPost2010Prop57
140
1.0
102
RTVSPost2010PropOp57
 70
     1
102
RTVSPropertyOp0
 70
     1
102
RTVSPropertyOp1
 70
     1
102
RTVSPropertyOp2
 70
     1
102
RTVSPropertyOp3
 70
     1
102
RTVSPropertyOp4
 70
     1
102
RTVSPropertyOp5
 70
     1
102
RTVSPropertyOp6
 70
     1
102
RTVSPropertyOp7
 70
     1
102
RTVSPropertyOp8
 70
     1
102
RTVSPropertyOp9
 70
     1
102
RTVSPropertyOp10
 70
     1
102
RTVSPropertyOp11
 70
     1
102
RTVSPropertyOp12
 70
     1
102
RTVSPropertyOp13
 70
     1
102
RTVSPropertyOp14
 70
     1
102
RTVSPropertyOp15
 70
     1
102
RTVSPropertyOp16
 70
     1
102
RTVSPropertyOp17
 70
     1
102
RTVSPropertyOp18
 70
     1
102
RTVSPropertyOp19
 70
     1
102
RTVSPropertyOp20
 70
     1
102
RTVSPropertyOp21
 70
     1
102
RTVSPropertyOp22
 70
     1
102
RTVSPropertyOp23
 70
     1
102
RTVSPropertyOp24
 70
     1
102
RTVSPropertyOp25
 70
     1
102
RTVSPropertyOp26
 70
     1
102
RTVSPropertyOp27
 70
     1
102
RTVSPropertyOp28
 70
     1
102
RTVSPropertyOp29
 70
     1
102
RTVSPropertyOp30
 70
     1
102
RTVSPropertyOp31
 70
     1
102
RTVSPropertyOp32
 70
     1
102
RTVSPropertyOp33
 70
     1
102
RTVSPropertyOp34
 70
     1
102
RTVSPropertyOp35
 70
     1
102
RTVSPropertyOp36
 70
     1
102
RTVSPropertyOp37
 70
     1
102
RTVSPropertyOp38
 70
     1
102
RTVSPropertyOp39
 70
     1
102
RTVSPropertyOp40
 70
     1
102
RTVSPropertyOp41
 70
     1
102
RTVSPropertyOp42
 70
     1
102
RTVSPropertyOp43
 70
     1
102
RTVSPropertyOp44
 70
     1
102
RTVSPropertyOp45
 70
     1
102
RTVSPropertyOp46
 70
     1
102
RTVSPropertyOp47
 70
     1
102
RTVSPropertyOp48
 70
     1
102
RTVSPropertyOp49
 70
     1
102
RTVSPropertyOp50
 70
     1
102
RTVSPropertyOp51
 70
     0
102
RTVSPropertyOp52
 70
     0
102
RTVSPropertyOp53
 70
     1
102
RTVSPropertyOp54
 70
     1
102
RTVSPropertyOp55
 70
     1
102
RTVSPropertyOp56
 70
     1
102
RTVSPropertyOp57
 70
     1
102
RTVSPropertyOp58
 70
     1
102
RTVSPropertyOp59
 70
     1
102
RTVSPropertyOp60
 70
     1
102
RTVSPropertyOp61
 70
     1
102
RTVSPropertyOp62
 70
     1
  0
XRECORD
  5
A0D0
102
{ACAD_REACTORS
330
A0CF
102
}
330
A0CF
100
AcDbXrecord
280
     1
102
RTVSPost2010Prop28
280
     0
102
RTVSPost2010PropOp28
 70
     1
102
RTVSPost2010Prop29
280
     1
102
RTVSPost2010PropOp29
 70
     1
102
RTVSPost2010Prop30
280
     1
102
RTVSPost2010PropOp30
 70
     1
102
RTVSPost2010Prop31
280
     0
102
RTVSPost2010PropOp31
 70
     1
102
RTVSPost2010Prop32
280
     0
102
RTVSPost2010PropOp32
 70
     1
102
RTVSPost2010Prop33
280
     0
102
RTVSPost2010PropOp33
 70
     1
102
RTVSPost2010Prop34
280
     0
102
RTVSPost2010PropOp34
 70
     1
102
RTVSPost2010Prop35
280
     0
102
RTVSPost2010PropOp35
 70
     1
102
RTVSPost2010Prop36
280
     0
102
RTVSPost2010PropOp36
 70
     1
102
RTVSPost2010Prop37
 90
       50
102
RTVSPost2010PropOp37
 70
     1
102
RTVSPost2010Prop38
140
0.0
102
RTVSPost2010PropOp38
 70
     1
102
RTVSPost2010Prop39
140
1.0
102
RTVSPost2010PropOp39
 70
     1
102
RTVSPost2010Prop40
 90
        0
102
RTVSPost2010PropOp40
 70
     1
102
RTVSPost2010Prop41ColorIndex
 90
       18
102
RTVSPost2010Prop41ColorRGB
 90
        0
102
RTVSPost2010PropOp41
 70
     1
102
RTVSPost2010Prop42
 90
       50
102
RTVSPost2010PropOp42
 70
     1
102
RTVSPost2010Prop43
 90
        3
102
RTVSPost2010PropOp43
 70
     1
102
RTVSPost2010Prop44ColorIndex
 90
        5
102
RTVSPost2010Prop44ColorRGB
 90
      255
102
RTVSPost2010PropOp44
 70
     1
102
RTVSPost2010Prop45
280
     0
102
RTVSPost2010PropOp45
 70
     1
102
RTVSPost2010Prop46
 90
       50
102
RTVSPost2010PropOp46
 70
     1
102
RTVSPost2010Prop47
 90
       50
102
RTVSPost2010PropOp47
 70
     1
102
RTVSPost2010Prop48
 90
       50
102
RTVSPost2010PropOp48
 70
     1
102
RTVSPost2010Prop49
280
     0
102
RTVSPost2010PropOp49
 70
     1
102
RTVSPost2010Prop50
 90
       50
102
RTVSPost2010PropOp50
 70
     1
102
RTVSPost2010Prop51ColorIndex
 90
      256
102
RTVSPost2010Prop51ColorRGB
 90
-16777216
102
RTVSPost2010PropOp51
 70
     0
102
RTVSPost2010Prop52
140
1.0
102
RTVSPost2010PropOp52
 70
     0
102
RTVSPost2010Prop53
 90
        2
102
RTVSPost2010PropOp53
 70
     1
102
RTVSPost2010Prop54
  1
strokes_ogs.tif
102
RTVSPost2010PropOp54
 70
     1
102
RTVSPost2010Prop55
280
     0
102
RTVSPost2010PropOp55
 70
     1
102
RTVSPost2010Prop56
140
1.0
102
RTVSPost2010PropOp56
 70
     1
102
RTVSPost2010Prop57
140
1.0
102
RTVSPost2010PropOp57
 70
     1
102
RTVSPropertyOp0
 70
     1
102
RTVSPropertyOp1
 70
     1
102
RTVSPropertyOp2
 70
     1
102
RTVSPropertyOp3
 70
     1
102
RTVSPropertyOp4
 70
     1
102
RTVSPropertyOp5
 70
     1
102
RTVSPropertyOp6
 70
     1
102
RTVSPropertyOp7
 70
     1
102
RTVSPropertyOp8
 70
     1
102
RTVSPropertyOp9
 70
     1
102
RTVSPropertyOp10
 70
     1
102
RTVSPropertyOp11
 70
     1
102
RTVSPropertyOp12
 70
     1
102
RTVSPropertyOp13
 70
     1
102
RTVSPropertyOp14
 70
     1
102
RTVSPropertyOp15
 70
     1
102
RTVSPropertyOp16
 70
     1
102
RTVSPropertyOp17
 70
     1
102
RTVSPropertyOp18
 70
     1
102
RTVSPropertyOp19
 70
     1
102
RTVSPropertyOp20
 70
     1
102
RTVSPropertyOp21
 70
     1
102
RTVSPropertyOp22
 70
     1
102
RTVSPropertyOp23
 70
     1
102
RTVSPropertyOp24
 70
     1
102
RTVSPropertyOp25
 70
     1
102
RTVSPropertyOp26
 70
     1
102
RTVSPropertyOp27
 70
     1
102
RTVSPropertyOp28
 70
     1
102
RTVSPropertyOp29
 70
     1
102
RTVSPropertyOp30
 70
     1
102
RTVSPropertyOp31
 70
     1
102
RTVSPropertyOp32
 70
     1
102
RTVSPropertyOp33
 70
     1
102
RTVSPropertyOp34
 70
     1
102
RTVSPropertyOp35
 70
     1
102
RTVSPropertyOp36
 70
     1
102
RTVSPropertyOp37
 70
     1
102
RTVSPropertyOp38
 70
     1
102
RTVSPropertyOp39
 70
     1
102
RTVSPropertyOp40
 70
     1
102
RTVSPropertyOp41
 70
     1
102
RTVSPropertyOp42
 70
     1
102
RTVSPropertyOp43
 70
     1
102
RTVSPropertyOp44
 70
     1
102
RTVSPropertyOp45
 70
     1
102
RTVSPropertyOp46
 70
     1
102
RTVSPropertyOp47
 70
     1
102
RTVSPropertyOp48
 70
     1
102
RTVSPropertyOp49
 70
     1
102
RTVSPropertyOp50
 70
     1
102
RTVSPropertyOp51
 70
     0
102
RTVSPropertyOp52
 70
     0
102
RTVSPropertyOp53
 70
     1
102
RTVSPropertyOp54
 70
     1
102
RTVSPropertyOp55
 70
     1
102
RTVSPropertyOp56
 70
     1
102
RTVSPropertyOp57
 70
     1
102
RTVSPropertyOp58
 70
     1
102
RTVSPropertyOp59
 70
     1
102
RTVSPropertyOp60
 70
     1
102
RTVSPropertyOp61
 70
     1
102
RTVSPropertyOp62
 70
     1
  0
XRECORD
  5
A0D4
102
{ACAD_REACTORS
330
A0D3
102
}
330
A0D3
100
AcDbXrecord
280
     1
102
RTVSPost2010Prop28
280
     0
102
RTVSPost2010PropOp28
 70
     1
102
RTVSPost2010Prop29
280
     1
102
RTVSPost2010PropOp29
 70
     1
102
RTVSPost2010Prop30
280
     1
102
RTVSPost2010PropOp30
 70
     1
102
RTVSPost2010Prop31
280
     0
102
RTVSPost2010PropOp31
 70
     1
102
RTVSPost2010Prop32
280
     0
102
RTVSPost2010PropOp32
 70
     1
102
RTVSPost2010Prop33
280
     0
102
RTVSPost2010PropOp33
 70
     1
102
RTVSPost2010Prop34
280
     0
102
RTVSPost2010PropOp34
 70
     1
102
RTVSPost2010Prop35
280
     0
102
RTVSPost2010PropOp35
 70
     1
102
RTVSPost2010Prop36
280
     0
102
RTVSPost2010PropOp36
 70
     1
102
RTVSPost2010Prop37
 90
       50
102
RTVSPost2010PropOp37
 70
     1
102
RTVSPost2010Prop38
140
0.0
102
RTVSPost2010PropOp38
 70
     1
102
RTVSPost2010Prop39
140
1.0
102
RTVSPost2010PropOp39
 70
     1
102
RTVSPost2010Prop40
 90
        0
102
RTVSPost2010PropOp40
 70
     1
102
RTVSPost2010Prop41ColorIndex
 90
       18
102
RTVSPost2010Prop41ColorRGB
 90
        0
102
RTVSPost2010PropOp41
 70
     1
102
RTVSPost2010Prop42
 90
       50
102
RTVSPost2010PropOp42
 70
     1
102
RTVSPost2010Prop43
 90
        3
102
RTVSPost2010PropOp43
 70
     1
102
RTVSPost2010Prop44ColorIndex
 90
        5
102
RTVSPost2010Prop44ColorRGB
 90
      255
102
RTVSPost2010PropOp44
 70
     1
102
RTVSPost2010Prop45
280
     0
102
RTVSPost2010PropOp45
 70
     1
102
RTVSPost2010Prop46
 90
       50
102
RTVSPost2010PropOp46
 70
     1
102
RTVSPost2010Prop47
 90
       50
102
RTVSPost2010PropOp47
 70
     1
102
RTVSPost2010Prop48
 90
       50
102
RTVSPost2010PropOp48
 70
     1
102
RTVSPost2010Prop49
280
     0
102
RTVSPost2010PropOp49
 70
     1
102
RTVSPost2010Prop50
 90
       50
102
RTVSPost2010PropOp50
 70
     1
102
RTVSPost2010Prop51ColorIndex
 90
      256
102
RTVSPost2010Prop51ColorRGB
 90
-16777216
102
RTVSPost2010PropOp51
 70
     0
102
RTVSPost2010Prop52
140
1.0
102
RTVSPost2010PropOp52
 70
     0
102
RTVSPost2010Prop53
 90
        2
102
RTVSPost2010PropOp53
 70
     1
102
RTVSPost2010Prop54
  1
strokes_ogs.tif
102
RTVSPost2010PropOp54
 70
     1
102
RTVSPost2010Prop55
280
     0
102
RTVSPost2010PropOp55
 70
     1
102
RTVSPost2010Prop56
140
1.0
102
RTVSPost2010PropOp56
 70
     1
102
RTVSPost2010Prop57
140
1.0
102
RTVSPost2010PropOp57
 70
     1
102
RTVSPropertyOp0
 70
     1
102
RTVSPropertyOp1
 70
     1
102
RTVSPropertyOp2
 70
     1
102
RTVSPropertyOp3
 70
     1
102
RTVSPropertyOp4
 70
     1
102
RTVSPropertyOp5
 70
     1
102
RTVSPropertyOp6
 70
     1
102
RTVSPropertyOp7
 70
     1
102
RTVSPropertyOp8
 70
     1
102
RTVSPropertyOp9
 70
     1
102
RTVSPropertyOp10
 70
     1
102
RTVSPropertyOp11
 70
     1
102
RTVSPropertyOp12
 70
     1
102
RTVSPropertyOp13
 70
     1
102
RTVSPropertyOp14
 70
     1
102
RTVSPropertyOp15
 70
     1
102
RTVSPropertyOp16
 70
     1
102
RTVSPropertyOp17
 70
     1
102
RTVSPropertyOp18
 70
     1
102
RTVSPropertyOp19
 70
     1
102
RTVSPropertyOp20
 70
     1
102
RTVSPropertyOp21
 70
     1
102
RTVSPropertyOp22
 70
     1
102
RTVSPropertyOp23
 70
     1
102
RTVSPropertyOp24
 70
     1
102
RTVSPropertyOp25
 70
     1
102
RTVSPropertyOp26
 70
     1
102
RTVSPropertyOp27
 70
     1
102
RTVSPropertyOp28
 70
     1
102
RTVSPropertyOp29
 70
     1
102
RTVSPropertyOp30
 70
     1
102
RTVSPropertyOp31
 70
     1
102
RTVSPropertyOp32
 70
     1
102
RTVSPropertyOp33
 70
     1
102
RTVSPropertyOp34
 70
     1
102
RTVSPropertyOp35
 70
     1
102
RTVSPropertyOp36
 70
     1
102
RTVSPropertyOp37
 70
     1
102
RTVSPropertyOp38
 70
     1
102
RTVSPropertyOp39
 70
     1
102
RTVSPropertyOp40
 70
     1
102
RTVSPropertyOp41
 70
     1
102
RTVSPropertyOp42
 70
     1
102
RTVSPropertyOp43
 70
     1
102
RTVSPropertyOp44
 70
     1
102
RTVSPropertyOp45
 70
     1
102
RTVSPropertyOp46
 70
     1
102
RTVSPropertyOp47
 70
     1
102
RTVSPropertyOp48
 70
     1
102
RTVSPropertyOp49
 70
     1
102
RTVSPropertyOp50
 70
     1
102
RTVSPropertyOp51
 70
     0
102
RTVSPropertyOp52
 70
     0
102
RTVSPropertyOp53
 70
     1
102
RTVSPropertyOp54
 70
     1
102
RTVSPropertyOp55
 70
     1
102
RTVSPropertyOp56
 70
     1
102
RTVSPropertyOp57
 70
     1
102
RTVSPropertyOp58
 70
     1
102
RTVSPropertyOp59
 70
     1
102
RTVSPropertyOp60
 70
     1
102
RTVSPropertyOp61
 70
     1
102
RTVSPropertyOp62
 70
     1
  0
XRECORD
  5
A0EE
102
{ACAD_REACTORS
330
A0ED
102
}
330
A0ED
100
AcDbXrecord
280
     1
102
RTVSPost2010Prop28
280
     0
102
RTVSPost2010PropOp28
 70
     1
102
RTVSPost2010Prop29
280
     1
102
RTVSPost2010PropOp29
 70
     1
102
RTVSPost2010Prop30
280
     1
102
RTVSPost2010PropOp30
 70
     1
102
RTVSPost2010Prop31
280
     0
102
RTVSPost2010PropOp31
 70
     1
102
RTVSPost2010Prop32
280
     0
102
RTVSPost2010PropOp32
 70
     1
102
RTVSPost2010Prop33
280
     0
102
RTVSPost2010PropOp33
 70
     1
102
RTVSPost2010Prop34
280
     0
102
RTVSPost2010PropOp34
 70
     1
102
RTVSPost2010Prop35
280
     0
102
RTVSPost2010PropOp35
 70
     1
102
RTVSPost2010Prop36
280
     0
102
RTVSPost2010PropOp36
 70
     1
102
RTVSPost2010Prop37
 90
       50
102
RTVSPost2010PropOp37
 70
     0
102
RTVSPost2010Prop38
140
0.0
102
RTVSPost2010PropOp38
 70
     0
102
RTVSPost2010Prop39
140
1.0
102
RTVSPost2010PropOp39
 70
     0
102
RTVSPost2010Prop40
 90
        0
102
RTVSPost2010PropOp40
 70
     0
102
RTVSPost2010Prop41ColorIndex
 90
       18
102
RTVSPost2010Prop41ColorRGB
 90
        0
102
RTVSPost2010PropOp41
 70
     0
102
RTVSPost2010Prop42
 90
       50
102
RTVSPost2010PropOp42
 70
     0
102
RTVSPost2010Prop43
 90
        3
102
RTVSPost2010PropOp43
 70
     0
102
RTVSPost2010Prop44ColorIndex
 90
        5
102
RTVSPost2010Prop44ColorRGB
 90
      255
102
RTVSPost2010PropOp44
 70
     0
102
RTVSPost2010Prop45
280
     0
102
RTVSPost2010PropOp45
 70
     1
102
RTVSPost2010Prop46
 90
       50
102
RTVSPost2010PropOp46
 70
     0
102
RTVSPost2010Prop47
 90
       50
102
RTVSPost2010PropOp47
 70
     0
102
RTVSPost2010Prop48
 90
       50
102
RTVSPost2010PropOp48
 70
     0
102
RTVSPost2010Prop49
280
     0
102
RTVSPost2010PropOp49
 70
     1
102
RTVSPost2010Prop50
 90
       50
102
RTVSPost2010PropOp50
 70
     0
102
RTVSPost2010Prop51ColorIndex
 90
      256
102
RTVSPost2010Prop51ColorRGB
 90
-16777216
102
RTVSPost2010PropOp51
 70
     0
102
RTVSPost2010Prop52
140
1.0
102
RTVSPost2010PropOp52
 70
     0
102
RTVSPost2010Prop53
 90
        2
102
RTVSPost2010PropOp53
 70
     0
102
RTVSPost2010Prop54
  1
strokes_ogs.tif
102
RTVSPost2010PropOp54
 70
     0
102
RTVSPost2010Prop55
280
     0
102
RTVSPost2010PropOp55
 70
     1
102
RTVSPost2010Prop56
140
1.0
102
RTVSPost2010PropOp56
 70
     0
102
RTVSPost2010Prop57
140
1.0
102
RTVSPost2010PropOp57
 70
     0
102
RTVSPropertyOp0
 70
     0
102
RTVSPropertyOp1
 70
     0
102
RTVSPropertyOp2
 70
     0
102
RTVSPropertyOp3
 70
     0
102
RTVSPropertyOp4
 70
     0
102
RTVSPropertyOp5
 70
     0
102
RTVSPropertyOp6
 70
     0
102
RTVSPropertyOp7
 70
     0
102
RTVSPropertyOp8
 70
     0
102
RTVSPropertyOp9
 70
     0
102
RTVSPropertyOp10
 70
     0
102
RTVSPropertyOp11
 70
     0
102
RTVSPropertyOp12
 70
     0
102
RTVSPropertyOp13
 70
     0
102
RTVSPropertyOp14
 70
     2
102
RTVSPropertyOp15
 70
     0
102
RTVSPropertyOp16
 70
     0
102
RTVSPropertyOp17
 70
     0
102
RTVSPropertyOp18
 70
     0
102
RTVSPropertyOp19
 70
     0
102
RTVSPropertyOp20
 70
     0
102
RTVSPropertyOp21
 70
     0
102
RTVSPropertyOp22
 70
     0
102
RTVSPropertyOp23
 70
     0
102
RTVSPropertyOp24
 70
     0
102
RTVSPropertyOp25
 70
     0
102
RTVSPropertyOp26
 70
     0
102
RTVSPropertyOp27
 70
     0
102
RTVSPropertyOp28
 70
     1
102
RTVSPropertyOp29
 70
     1
102
RTVSPropertyOp30
 70
     1
102
RTVSPropertyOp31
 70
     1
102
RTVSPropertyOp32
 70
     1
102
RTVSPropertyOp33
 70
     1
102
RTVSPropertyOp34
 70
     1
102
RTVSPropertyOp35
 70
     1
102
RTVSPropertyOp36
 70
     1
102
RTVSPropertyOp37
 70
     0
102
RTVSPropertyOp38
 70
     0
102
RTVSPropertyOp39
 70
     0
102
RTVSPropertyOp40
 70
     0
102
RTVSPropertyOp41
 70
     0
102
RTVSPropertyOp42
 70
     0
102
RTVSPropertyOp43
 70
     0
102
RTVSPropertyOp44
 70
     0
102
RTVSPropertyOp45
 70
     1
102
RTVSPropertyOp46
 70
     0
102
RTVSPropertyOp47
 70
     0
102
RTVSPropertyOp48
 70
     0
102
RTVSPropertyOp49
 70
     1
102
RTVSPropertyOp50
 70
     0
102
RTVSPropertyOp51
 70
     0
102
RTVSPropertyOp52
 70
     0
102
RTVSPropertyOp53
 70
     0
102
RTVSPropertyOp54
 70
     0
102
RTVSPropertyOp55
 70
     1
102
RTVSPropertyOp56
 70
     0
102
RTVSPropertyOp57
 70
     0
102
RTVSPropertyOp58
 70
     0
102
RTVSPropertyOp59
 70
     0
102
RTVSPropertyOp60
 70
     0
102
RTVSPropertyOp61
 70
     0
102
RTVSPropertyOp62
 70
     0
  0
XRECORD
  5
A0DC
102
{ACAD_REACTORS
330
A0DB
102
}
330
A0DB
100
AcDbXrecord
280
     1
102
RTVSPost2010Prop28
280
     0
102
RTVSPost2010PropOp28
 70
     1
102
RTVSPost2010Prop29
280
     1
102
RTVSPost2010PropOp29
 70
     1
102
RTVSPost2010Prop30
280
     1
102
RTVSPost2010PropOp30
 70
     1
102
RTVSPost2010Prop31
280
     0
102
RTVSPost2010PropOp31
 70
     1
102
RTVSPost2010Prop32
280
     0
102
RTVSPost2010PropOp32
 70
     1
102
RTVSPost2010Prop33
280
     0
102
RTVSPost2010PropOp33
 70
     1
102
RTVSPost2010Prop34
280
     0
102
RTVSPost2010PropOp34
 70
     1
102
RTVSPost2010Prop35
280
     0
102
RTVSPost2010PropOp35
 70
     1
102
RTVSPost2010Prop36
280
     0
102
RTVSPost2010PropOp36
 70
     1
102
RTVSPost2010Prop37
 90
       50
102
RTVSPost2010PropOp37
 70
     1
102
RTVSPost2010Prop38
140
0.0
102
RTVSPost2010PropOp38
 70
     1
102
RTVSPost2010Prop39
140
1.0
102
RTVSPost2010PropOp39
 70
     1
102
RTVSPost2010Prop40
 90
        0
102
RTVSPost2010PropOp40
 70
     1
102
RTVSPost2010Prop41ColorIndex
 90
       18
102
RTVSPost2010Prop41ColorRGB
 90
        0
102
RTVSPost2010PropOp41
 70
     1
102
RTVSPost2010Prop42
 90
       50
102
RTVSPost2010PropOp42
 70
     1
102
RTVSPost2010Prop43
 90
        3
102
RTVSPost2010PropOp43
 70
     1
102
RTVSPost2010Prop44ColorIndex
 90
        5
102
RTVSPost2010Prop44ColorRGB
 90
      255
102
RTVSPost2010PropOp44
 70
     1
102
RTVSPost2010Prop45
280
     0
102
RTVSPost2010PropOp45
 70
     1
102
RTVSPost2010Prop46
 90
       50
102
RTVSPost2010PropOp46
 70
     1
102
RTVSPost2010Prop47
 90
       50
102
RTVSPost2010PropOp47
 70
     1
102
RTVSPost2010Prop48
 90
       50
102
RTVSPost2010PropOp48
 70
     1
102
RTVSPost2010Prop49
280
     0
102
RTVSPost2010PropOp49
 70
     1
102
RTVSPost2010Prop50
 90
       50
102
RTVSPost2010PropOp50
 70
     1
102
RTVSPost2010Prop51ColorIndex
 90
      256
102
RTVSPost2010Prop51ColorRGB
 90
-16777216
102
RTVSPost2010PropOp51
 70
     0
102
RTVSPost2010Prop52
140
1.0
102
RTVSPost2010PropOp52
 70
     0
102
RTVSPost2010Prop53
 90
        2
102
RTVSPost2010PropOp53
 70
     1
102
RTVSPost2010Prop54
  1
strokes_ogs.tif
102
RTVSPost2010PropOp54
 70
     1
102
RTVSPost2010Prop55
280
     0
102
RTVSPost2010PropOp55
 70
     1
102
RTVSPost2010Prop56
140
1.0
102
RTVSPost2010PropOp56
 70
     1
102
RTVSPost2010Prop57
140
1.0
102
RTVSPost2010PropOp57
 70
     1
102
RTVSPropertyOp0
 70
     1
102
RTVSPropertyOp1
 70
     1
102
RTVSPropertyOp2
 70
     1
102
RTVSPropertyOp3
 70
     1
102
RTVSPropertyOp4
 70
     1
102
RTVSPropertyOp5
 70
     1
102
RTVSPropertyOp6
 70
     1
102
RTVSPropertyOp7
 70
     1
102
RTVSPropertyOp8
 70
     1
102
RTVSPropertyOp9
 70
     1
102
RTVSPropertyOp10
 70
     1
102
RTVSPropertyOp11
 70
     1
102
RTVSPropertyOp12
 70
     1
102
RTVSPropertyOp13
 70
     1
102
RTVSPropertyOp14
 70
     1
102
RTVSPropertyOp15
 70
     1
102
RTVSPropertyOp16
 70
     1
102
RTVSPropertyOp17
 70
     1
102
RTVSPropertyOp18
 70
     1
102
RTVSPropertyOp19
 70
     1
102
RTVSPropertyOp20
 70
     1
102
RTVSPropertyOp21
 70
     1
102
RTVSPropertyOp22
 70
     1
102
RTVSPropertyOp23
 70
     1
102
RTVSPropertyOp24
 70
     1
102
RTVSPropertyOp25
 70
     1
102
RTVSPropertyOp26
 70
     1
102
RTVSPropertyOp27
 70
     1
102
RTVSPropertyOp28
 70
     1
102
RTVSPropertyOp29
 70
     1
102
RTVSPropertyOp30
 70
     1
102
RTVSPropertyOp31
 70
     1
102
RTVSPropertyOp32
 70
     1
102
RTVSPropertyOp33
 70
     1
102
RTVSPropertyOp34
 70
     1
102
RTVSPropertyOp35
 70
     1
102
RTVSPropertyOp36
 70
     1
102
RTVSPropertyOp37
 70
     1
102
RTVSPropertyOp38
 70
     1
102
RTVSPropertyOp39
 70
     1
102
RTVSPropertyOp40
 70
     1
102
RTVSPropertyOp41
 70
     1
102
RTVSPropertyOp42
 70
     1
102
RTVSPropertyOp43
 70
     1
102
RTVSPropertyOp44
 70
     1
102
RTVSPropertyOp45
 70
     1
102
RTVSPropertyOp46
 70
     1
102
RTVSPropertyOp47
 70
     1
102
RTVSPropertyOp48
 70
     1
102
RTVSPropertyOp49
 70
     1
102
RTVSPropertyOp50
 70
     1
102
RTVSPropertyOp51
 70
     0
102
RTVSPropertyOp52
 70
     0
102
RTVSPropertyOp53
 70
     1
102
RTVSPropertyOp54
 70
     1
102
RTVSPropertyOp55
 70
     1
102
RTVSPropertyOp56
 70
     1
102
RTVSPropertyOp57
 70
     1
102
RTVSPropertyOp58
 70
     1
102
RTVSPropertyOp59
 70
     1
102
RTVSPropertyOp60
 70
     1
102
RTVSPropertyOp61
 70
     1
102
RTVSPropertyOp62
 70
     1
  0
XRECORD
  5
A0C0
102
{ACAD_REACTORS
330
A0BF
102
}
330
A0BF
100
AcDbXrecord
280
     1
102
RTVSPost2010Prop28
280
     0
102
RTVSPost2010PropOp28
 70
     1
102
RTVSPost2010Prop29
280
     1
102
RTVSPost2010PropOp29
 70
     1
102
RTVSPost2010Prop30
280
     1
102
RTVSPost2010PropOp30
 70
     1
102
RTVSPost2010Prop31
280
     0
102
RTVSPost2010PropOp31
 70
     1
102
RTVSPost2010Prop32
280
     0
102
RTVSPost2010PropOp32
 70
     1
102
RTVSPost2010Prop33
280
     0
102
RTVSPost2010PropOp33
 70
     1
102
RTVSPost2010Prop34
280
     0
102
RTVSPost2010PropOp34
 70
     1
102
RTVSPost2010Prop35
280
     0
102
RTVSPost2010PropOp35
 70
     1
102
RTVSPost2010Prop36
280
     0
102
RTVSPost2010PropOp36
 70
     1
102
RTVSPost2010Prop37
 90
       50
102
RTVSPost2010PropOp37
 70
     1
102
RTVSPost2010Prop38
140
0.0
102
RTVSPost2010PropOp38
 70
     1
102
RTVSPost2010Prop39
140
1.0
102
RTVSPost2010PropOp39
 70
     1
102
RTVSPost2010Prop40
 90
        0
102
RTVSPost2010PropOp40
 70
     1
102
RTVSPost2010Prop41ColorIndex
 90
       18
102
RTVSPost2010Prop41ColorRGB
 90
        0
102
RTVSPost2010PropOp41
 70
     1
102
RTVSPost2010Prop42
 90
       50
102
RTVSPost2010PropOp42
 70
     1
102
RTVSPost2010Prop43
 90
        3
102
RTVSPost2010PropOp43
 70
     1
102
RTVSPost2010Prop44ColorIndex
 90
        5
102
RTVSPost2010Prop44ColorRGB
 90
      255
102
RTVSPost2010PropOp44
 70
     1
102
RTVSPost2010Prop45
280
     0
102
RTVSPost2010PropOp45
 70
     1
102
RTVSPost2010Prop46
 90
       50
102
RTVSPost2010PropOp46
 70
     1
102
RTVSPost2010Prop47
 90
       50
102
RTVSPost2010PropOp47
 70
     1
102
RTVSPost2010Prop48
 90
       50
102
RTVSPost2010PropOp48
 70
     1
102
RTVSPost2010Prop49
280
     0
102
RTVSPost2010PropOp49
 70
     1
102
RTVSPost2010Prop50
 90
       50
102
RTVSPost2010PropOp50
 70
     1
102
RTVSPost2010Prop51ColorIndex
 90
      256
102
RTVSPost2010Prop51ColorRGB
 90
-16777216
102
RTVSPost2010PropOp51
 70
     0
102
RTVSPost2010Prop52
140
1.0
102
RTVSPost2010PropOp52
 70
     0
102
RTVSPost2010Prop53
 90
        2
102
RTVSPost2010PropOp53
 70
     1
102
RTVSPost2010Prop54
  1
strokes_ogs.tif
102
RTVSPost2010PropOp54
 70
     1
102
RTVSPost2010Prop55
280
     0
102
RTVSPost2010PropOp55
 70
     1
102
RTVSPost2010Prop56
140
1.0
102
RTVSPost2010PropOp56
 70
     1
102
RTVSPost2010Prop57
140
1.0
102
RTVSPost2010PropOp57
 70
     1
102
RTVSPropertyOp0
 70
     1
102
RTVSPropertyOp1
 70
     1
102
RTVSPropertyOp2
 70
     1
102
RTVSPropertyOp3
 70
     1
102
RTVSPropertyOp4
 70
     1
102
RTVSPropertyOp5
 70
     1
102
RTVSPropertyOp6
 70
     1
102
RTVSPropertyOp7
 70
     1
102
RTVSPropertyOp8
 70
     1
102
RTVSPropertyOp9
 70
     1
102
RTVSPropertyOp10
 70
     1
102
RTVSPropertyOp11
 70
     1
102
RTVSPropertyOp12
 70
     1
102
RTVSPropertyOp13
 70
     1
102
RTVSPropertyOp14
 70
     1
102
RTVSPropertyOp15
 70
     1
102
RTVSPropertyOp16
 70
     1
102
RTVSPropertyOp17
 70
     1
102
RTVSPropertyOp18
 70
     1
102
RTVSPropertyOp19
 70
     1
102
RTVSPropertyOp20
 70
     1
102
RTVSPropertyOp21
 70
     1
102
RTVSPropertyOp22
 70
     1
102
RTVSPropertyOp23
 70
     1
102
RTVSPropertyOp24
 70
     1
102
RTVSPropertyOp25
 70
     1
102
RTVSPropertyOp26
 70
     1
102
RTVSPropertyOp27
 70
     1
102
RTVSPropertyOp28
 70
     1
102
RTVSPropertyOp29
 70
     1
102
RTVSPropertyOp30
 70
     1
102
RTVSPropertyOp31
 70
     1
102
RTVSPropertyOp32
 70
     1
102
RTVSPropertyOp33
 70
     1
102
RTVSPropertyOp34
 70
     1
102
RTVSPropertyOp35
 70
     1
102
RTVSPropertyOp36
 70
     1
102
RTVSPropertyOp37
 70
     1
102
RTVSPropertyOp38
 70
     1
102
RTVSPropertyOp39
 70
     1
102
RTVSPropertyOp40
 70
     1
102
RTVSPropertyOp41
 70
     1
102
RTVSPropertyOp42
 70
     1
102
RTVSPropertyOp43
 70
     1
102
RTVSPropertyOp44
 70
     1
102
RTVSPropertyOp45
 70
     1
102
RTVSPropertyOp46
 70
     1
102
RTVSPropertyOp47
 70
     1
102
RTVSPropertyOp48
 70
     1
102
RTVSPropertyOp49
 70
     1
102
RTVSPropertyOp50
 70
     1
102
RTVSPropertyOp51
 70
     0
102
RTVSPropertyOp52
 70
     0
102
RTVSPropertyOp53
 70
     1
102
RTVSPropertyOp54
 70
     1
102
RTVSPropertyOp55
 70
     1
102
RTVSPropertyOp56
 70
     1
102
RTVSPropertyOp57
 70
     1
102
RTVSPropertyOp58
 70
     1
102
RTVSPropertyOp59
 70
     1
102
RTVSPropertyOp60
 70
     1
102
RTVSPropertyOp61
 70
     1
102
RTVSPropertyOp62
 70
     1
  0
XRECORD
  5
A0C2
102
{ACAD_REACTORS
330
A0C1
102
}
330
A0C1
100
AcDbXrecord
280
     1
102
RTVSPost2010Prop28
280
     0
102
RTVSPost2010PropOp28
 70
     1
102
RTVSPost2010Prop29
280
     1
102
RTVSPost2010PropOp29
 70
     1
102
RTVSPost2010Prop30
280
     1
102
RTVSPost2010PropOp30
 70
     1
102
RTVSPost2010Prop31
280
     0
102
RTVSPost2010PropOp31
 70
     1
102
RTVSPost2010Prop32
280
     0
102
RTVSPost2010PropOp32
 70
     1
102
RTVSPost2010Prop33
280
     0
102
RTVSPost2010PropOp33
 70
     1
102
RTVSPost2010Prop34
280
     0
102
RTVSPost2010PropOp34
 70
     1
102
RTVSPost2010Prop35
280
     0
102
RTVSPost2010PropOp35
 70
     1
102
RTVSPost2010Prop36
280
     0
102
RTVSPost2010PropOp36
 70
     1
102
RTVSPost2010Prop37
 90
       50
102
RTVSPost2010PropOp37
 70
     1
102
RTVSPost2010Prop38
140
0.0
102
RTVSPost2010PropOp38
 70
     1
102
RTVSPost2010Prop39
140
1.0
102
RTVSPost2010PropOp39
 70
     1
102
RTVSPost2010Prop40
 90
        0
102
RTVSPost2010PropOp40
 70
     1
102
RTVSPost2010Prop41ColorIndex
 90
       18
102
RTVSPost2010Prop41ColorRGB
 90
        0
102
RTVSPost2010PropOp41
 70
     1
102
RTVSPost2010Prop42
 90
       50
102
RTVSPost2010PropOp42
 70
     1
102
RTVSPost2010Prop43
 90
        3
102
RTVSPost2010PropOp43
 70
     1
102
RTVSPost2010Prop44ColorIndex
 90
        5
102
RTVSPost2010Prop44ColorRGB
 90
      255
102
RTVSPost2010PropOp44
 70
     1
102
RTVSPost2010Prop45
280
     0
102
RTVSPost2010PropOp45
 70
     1
102
RTVSPost2010Prop46
 90
       50
102
RTVSPost2010PropOp46
 70
     1
102
RTVSPost2010Prop47
 90
       50
102
RTVSPost2010PropOp47
 70
     1
102
RTVSPost2010Prop48
 90
       50
102
RTVSPost2010PropOp48
 70
     1
102
RTVSPost2010Prop49
280
     0
102
RTVSPost2010PropOp49
 70
     1
102
RTVSPost2010Prop50
 90
       50
102
RTVSPost2010PropOp50
 70
     1
102
RTVSPost2010Prop51ColorIndex
 90
      256
102
RTVSPost2010Prop51ColorRGB
 90
-16777216
102
RTVSPost2010PropOp51
 70
     0
102
RTVSPost2010Prop52
140
1.0
102
RTVSPost2010PropOp52
 70
     0
102
RTVSPost2010Prop53
 90
        2
102
RTVSPost2010PropOp53
 70
     1
102
RTVSPost2010Prop54
  1
strokes_ogs.tif
102
RTVSPost2010PropOp54
 70
     1
102
RTVSPost2010Prop55
280
     0
102
RTVSPost2010PropOp55
 70
     1
102
RTVSPost2010Prop56
140
1.0
102
RTVSPost2010PropOp56
 70
     1
102
RTVSPost2010Prop57
140
1.0
102
RTVSPost2010PropOp57
 70
     1
102
RTVSPropertyOp0
 70
     1
102
RTVSPropertyOp1
 70
     1
102
RTVSPropertyOp2
 70
     1
102
RTVSPropertyOp3
 70
     1
102
RTVSPropertyOp4
 70
     1
102
RTVSPropertyOp5
 70
     1
102
RTVSPropertyOp6
 70
     1
102
RTVSPropertyOp7
 70
     1
102
RTVSPropertyOp8
 70
     1
102
RTVSPropertyOp9
 70
     1
102
RTVSPropertyOp10
 70
     1
102
RTVSPropertyOp11
 70
     1
102
RTVSPropertyOp12
 70
     1
102
RTVSPropertyOp13
 70
     1
102
RTVSPropertyOp14
 70
     1
102
RTVSPropertyOp15
 70
     1
102
RTVSPropertyOp16
 70
     1
102
RTVSPropertyOp17
 70
     1
102
RTVSPropertyOp18
 70
     1
102
RTVSPropertyOp19
 70
     1
102
RTVSPropertyOp20
 70
     1
102
RTVSPropertyOp21
 70
     1
102
RTVSPropertyOp22
 70
     1
102
RTVSPropertyOp23
 70
     1
102
RTVSPropertyOp24
 70
     1
102
RTVSPropertyOp25
 70
     1
102
RTVSPropertyOp26
 70
     1
102
RTVSPropertyOp27
 70
     1
102
RTVSPropertyOp28
 70
     1
102
RTVSPropertyOp29
 70
     1
102
RTVSPropertyOp30
 70
     1
102
RTVSPropertyOp31
 70
     1
102
RTVSPropertyOp32
 70
     1
102
RTVSPropertyOp33
 70
     1
102
RTVSPropertyOp34
 70
     1
102
RTVSPropertyOp35
 70
     1
102
RTVSPropertyOp36
 70
     1
102
RTVSPropertyOp37
 70
     1
102
RTVSPropertyOp38
 70
     1
102
RTVSPropertyOp39
 70
     1
102
RTVSPropertyOp40
 70
     1
102
RTVSPropertyOp41
 70
     1
102
RTVSPropertyOp42
 70
     1
102
RTVSPropertyOp43
 70
     1
102
RTVSPropertyOp44
 70
     1
102
RTVSPropertyOp45
 70
     1
102
RTVSPropertyOp46
 70
     1
102
RTVSPropertyOp47
 70
     1
102
RTVSPropertyOp48
 70
     1
102
RTVSPropertyOp49
 70
     1
102
RTVSPropertyOp50
 70
     1
102
RTVSPropertyOp51
 70
     0
102
RTVSPropertyOp52
 70
     0
102
RTVSPropertyOp53
 70
     1
102
RTVSPropertyOp54
 70
     1
102
RTVSPropertyOp55
 70
     1
102
RTVSPropertyOp56
 70
     1
102
RTVSPropertyOp57
 70
     1
102
RTVSPropertyOp58
 70
     1
102
RTVSPropertyOp59
 70
     1
102
RTVSPropertyOp60
 70
     1
102
RTVSPropertyOp61
 70
     1
102
RTVSPropertyOp62
 70
     1
  0
XRECORD
  5
A0C4
102
{ACAD_REACTORS
330
A0C3
102
}
330
A0C3
100
AcDbXrecord
280
     1
102
RTVSPost2010Prop28
280
     0
102
RTVSPost2010PropOp28
 70
     1
102
RTVSPost2010Prop29
280
     1
102
RTVSPost2010PropOp29
 70
     1
102
RTVSPost2010Prop30
280
     1
102
RTVSPost2010PropOp30
 70
     1
102
RTVSPost2010Prop31
280
     0
102
RTVSPost2010PropOp31
 70
     1
102
RTVSPost2010Prop32
280
     0
102
RTVSPost2010PropOp32
 70
     1
102
RTVSPost2010Prop33
280
     0
102
RTVSPost2010PropOp33
 70
     1
102
RTVSPost2010Prop34
280
     0
102
RTVSPost2010PropOp34
 70
     1
102
RTVSPost2010Prop35
280
     0
102
RTVSPost2010PropOp35
 70
     1
102
RTVSPost2010Prop36
280
     0
102
RTVSPost2010PropOp36
 70
     1
102
RTVSPost2010Prop37
 90
       50
102
RTVSPost2010PropOp37
 70
     1
102
RTVSPost2010Prop38
140
0.0
102
RTVSPost2010PropOp38
 70
     1
102
RTVSPost2010Prop39
140
1.0
102
RTVSPost2010PropOp39
 70
     1
102
RTVSPost2010Prop40
 90
        0
102
RTVSPost2010PropOp40
 70
     1
102
RTVSPost2010Prop41ColorIndex
 90
       18
102
RTVSPost2010Prop41ColorRGB
 90
        0
102
RTVSPost2010PropOp41
 70
     1
102
RTVSPost2010Prop42
 90
       50
102
RTVSPost2010PropOp42
 70
     1
102
RTVSPost2010Prop43
 90
        3
102
RTVSPost2010PropOp43
 70
     1
102
RTVSPost2010Prop44ColorIndex
 90
        5
102
RTVSPost2010Prop44ColorRGB
 90
      255
102
RTVSPost2010PropOp44
 70
     1
102
RTVSPost2010Prop45
280
     0
102
RTVSPost2010PropOp45
 70
     1
102
RTVSPost2010Prop46
 90
       50
102
RTVSPost2010PropOp46
 70
     1
102
RTVSPost2010Prop47
 90
       50
102
RTVSPost2010PropOp47
 70
     1
102
RTVSPost2010Prop48
 90
       50
102
RTVSPost2010PropOp48
 70
     1
102
RTVSPost2010Prop49
280
     0
102
RTVSPost2010PropOp49
 70
     1
102
RTVSPost2010Prop50
 90
       50
102
RTVSPost2010PropOp50
 70
     1
102
RTVSPost2010Prop51ColorIndex
 90
      256
102
RTVSPost2010Prop51ColorRGB
 90
-16777216
102
RTVSPost2010PropOp51
 70
     0
102
RTVSPost2010Prop52
140
1.0
102
RTVSPost2010PropOp52
 70
     0
102
RTVSPost2010Prop53
 90
        2
102
RTVSPost2010PropOp53
 70
     1
102
RTVSPost2010Prop54
  1
strokes_ogs.tif
102
RTVSPost2010PropOp54
 70
     1
102
RTVSPost2010Prop55
280
     0
102
RTVSPost2010PropOp55
 70
     1
102
RTVSPost2010Prop56
140
1.0
102
RTVSPost2010PropOp56
 70
     1
102
RTVSPost2010Prop57
140
1.0
102
RTVSPost2010PropOp57
 70
     1
102
RTVSPropertyOp0
 70
     1
102
RTVSPropertyOp1
 70
     1
102
RTVSPropertyOp2
 70
     1
102
RTVSPropertyOp3
 70
     1
102
RTVSPropertyOp4
 70
     1
102
RTVSPropertyOp5
 70
     1
102
RTVSPropertyOp6
 70
     1
102
RTVSPropertyOp7
 70
     1
102
RTVSPropertyOp8
 70
     1
102
RTVSPropertyOp9
 70
     1
102
RTVSPropertyOp10
 70
     1
102
RTVSPropertyOp11
 70
     1
102
RTVSPropertyOp12
 70
     1
102
RTVSPropertyOp13
 70
     1
102
RTVSPropertyOp14
 70
     1
102
RTVSPropertyOp15
 70
     1
102
RTVSPropertyOp16
 70
     1
102
RTVSPropertyOp17
 70
     1
102
RTVSPropertyOp18
 70
     1
102
RTVSPropertyOp19
 70
     1
102
RTVSPropertyOp20
 70
     1
102
RTVSPropertyOp21
 70
     1
102
RTVSPropertyOp22
 70
     1
102
RTVSPropertyOp23
 70
     1
102
RTVSPropertyOp24
 70
     1
102
RTVSPropertyOp25
 70
     1
102
RTVSPropertyOp26
 70
     1
102
RTVSPropertyOp27
 70
     1
102
RTVSPropertyOp28
 70
     1
102
RTVSPropertyOp29
 70
     1
102
RTVSPropertyOp30
 70
     1
102
RTVSPropertyOp31
 70
     1
102
RTVSPropertyOp32
 70
     1
102
RTVSPropertyOp33
 70
     1
102
RTVSPropertyOp34
 70
     1
102
RTVSPropertyOp35
 70
     1
102
RTVSPropertyOp36
 70
     1
102
RTVSPropertyOp37
 70
     1
102
RTVSPropertyOp38
 70
     1
102
RTVSPropertyOp39
 70
     1
102
RTVSPropertyOp40
 70
     1
102
RTVSPropertyOp41
 70
     1
102
RTVSPropertyOp42
 70
     1
102
RTVSPropertyOp43
 70
     1
102
RTVSPropertyOp44
 70
     1
102
RTVSPropertyOp45
 70
     1
102
RTVSPropertyOp46
 70
     1
102
RTVSPropertyOp47
 70
     1
102
RTVSPropertyOp48
 70
     1
102
RTVSPropertyOp49
 70
     1
102
RTVSPropertyOp50
 70
     1
102
RTVSPropertyOp51
 70
     0
102
RTVSPropertyOp52
 70
     0
102
RTVSPropertyOp53
 70
     1
102
RTVSPropertyOp54
 70
     1
102
RTVSPropertyOp55
 70
     1
102
RTVSPropertyOp56
 70
     1
102
RTVSPropertyOp57
 70
     1
102
RTVSPropertyOp58
 70
     1
102
RTVSPropertyOp59
 70
     1
102
RTVSPropertyOp60
 70
     1
102
RTVSPropertyOp61
 70
     1
102
RTVSPropertyOp62
 70
     1
  0
XRECORD
  5
A0C6
102
{ACAD_REACTORS
330
A0C5
102
}
330
A0C5
100
AcDbXrecord
280
     1
102
RTVSPost2010Prop28
280
     0
102
RTVSPost2010PropOp28
 70
     1
102
RTVSPost2010Prop29
280
     1
102
RTVSPost2010PropOp29
 70
     1
102
RTVSPost2010Prop30
280
     1
102
RTVSPost2010PropOp30
 70
     1
102
RTVSPost2010Prop31
280
     0
102
RTVSPost2010PropOp31
 70
     1
102
RTVSPost2010Prop32
280
     0
102
RTVSPost2010PropOp32
 70
     1
102
RTVSPost2010Prop33
280
     0
102
RTVSPost2010PropOp33
 70
     1
102
RTVSPost2010Prop34
280
     0
102
RTVSPost2010PropOp34
 70
     1
102
RTVSPost2010Prop35
280
     0
102
RTVSPost2010PropOp35
 70
     1
102
RTVSPost2010Prop36
280
     0
102
RTVSPost2010PropOp36
 70
     1
102
RTVSPost2010Prop37
 90
       50
102
RTVSPost2010PropOp37
 70
     1
102
RTVSPost2010Prop38
140
0.0
102
RTVSPost2010PropOp38
 70
     1
102
RTVSPost2010Prop39
140
1.0
102
RTVSPost2010PropOp39
 70
     1
102
RTVSPost2010Prop40
 90
        0
102
RTVSPost2010PropOp40
 70
     1
102
RTVSPost2010Prop41ColorIndex
 90
       18
102
RTVSPost2010Prop41ColorRGB
 90
        0
102
RTVSPost2010PropOp41
 70
     1
102
RTVSPost2010Prop42
 90
       50
102
RTVSPost2010PropOp42
 70
     1
102
RTVSPost2010Prop43
 90
        3
102
RTVSPost2010PropOp43
 70
     1
102
RTVSPost2010Prop44ColorIndex
 90
        5
102
RTVSPost2010Prop44ColorRGB
 90
      255
102
RTVSPost2010PropOp44
 70
     1
102
RTVSPost2010Prop45
280
     0
102
RTVSPost2010PropOp45
 70
     1
102
RTVSPost2010Prop46
 90
       50
102
RTVSPost2010PropOp46
 70
     1
102
RTVSPost2010Prop47
 90
       50
102
RTVSPost2010PropOp47
 70
     1
102
RTVSPost2010Prop48
 90
       50
102
RTVSPost2010PropOp48
 70
     1
102
RTVSPost2010Prop49
280
     0
102
RTVSPost2010PropOp49
 70
     1
102
RTVSPost2010Prop50
 90
       50
102
RTVSPost2010PropOp50
 70
     1
102
RTVSPost2010Prop51ColorIndex
 90
      256
102
RTVSPost2010Prop51ColorRGB
 90
-16777216
102
RTVSPost2010PropOp51
 70
     0
102
RTVSPost2010Prop52
140
1.0
102
RTVSPost2010PropOp52
 70
     0
102
RTVSPost2010Prop53
 90
        2
102
RTVSPost2010PropOp53
 70
     1
102
RTVSPost2010Prop54
  1
strokes_ogs.tif
102
RTVSPost2010PropOp54
 70
     1
102
RTVSPost2010Prop55
280
     0
102
RTVSPost2010PropOp55
 70
     1
102
RTVSPost2010Prop56
140
1.0
102
RTVSPost2010PropOp56
 70
     1
102
RTVSPost2010Prop57
140
1.0
102
RTVSPost2010PropOp57
 70
     1
102
RTVSPropertyOp0
 70
     1
102
RTVSPropertyOp1
 70
     1
102
RTVSPropertyOp2
 70
     1
102
RTVSPropertyOp3
 70
     1
102
RTVSPropertyOp4
 70
     1
102
RTVSPropertyOp5
 70
     1
102
RTVSPropertyOp6
 70
     1
102
RTVSPropertyOp7
 70
     1
102
RTVSPropertyOp8
 70
     1
102
RTVSPropertyOp9
 70
     1
102
RTVSPropertyOp10
 70
     1
102
RTVSPropertyOp11
 70
     1
102
RTVSPropertyOp12
 70
     1
102
RTVSPropertyOp13
 70
     1
102
RTVSPropertyOp14
 70
     1
102
RTVSPropertyOp15
 70
     1
102
RTVSPropertyOp16
 70
     1
102
RTVSPropertyOp17
 70
     1
102
RTVSPropertyOp18
 70
     1
102
RTVSPropertyOp19
 70
     1
102
RTVSPropertyOp20
 70
     1
102
RTVSPropertyOp21
 70
     1
102
RTVSPropertyOp22
 70
     1
102
RTVSPropertyOp23
 70
     1
102
RTVSPropertyOp24
 70
     1
102
RTVSPropertyOp25
 70
     1
102
RTVSPropertyOp26
 70
     1
102
RTVSPropertyOp27
 70
     1
102
RTVSPropertyOp28
 70
     1
102
RTVSPropertyOp29
 70
     1
102
RTVSPropertyOp30
 70
     1
102
RTVSPropertyOp31
 70
     1
102
RTVSPropertyOp32
 70
     1
102
RTVSPropertyOp33
 70
     1
102
RTVSPropertyOp34
 70
     1
102
RTVSPropertyOp35
 70
     1
102
RTVSPropertyOp36
 70
     1
102
RTVSPropertyOp37
 70
     1
102
RTVSPropertyOp38
 70
     1
102
RTVSPropertyOp39
 70
     1
102
RTVSPropertyOp40
 70
     1
102
RTVSPropertyOp41
 70
     1
102
RTVSPropertyOp42
 70
     1
102
RTVSPropertyOp43
 70
     1
102
RTVSPropertyOp44
 70
     1
102
RTVSPropertyOp45
 70
     1
102
RTVSPropertyOp46
 70
     1
102
RTVSPropertyOp47
 70
     1
102
RTVSPropertyOp48
 70
     1
102
RTVSPropertyOp49
 70
     1
102
RTVSPropertyOp50
 70
     1
102
RTVSPropertyOp51
 70
     0
102
RTVSPropertyOp52
 70
     0
102
RTVSPropertyOp53
 70
     1
102
RTVSPropertyOp54
 70
     1
102
RTVSPropertyOp55
 70
     1
102
RTVSPropertyOp56
 70
     1
102
RTVSPropertyOp57
 70
     1
102
RTVSPropertyOp58
 70
     1
102
RTVSPropertyOp59
 70
     1
102
RTVSPropertyOp60
 70
     1
102
RTVSPropertyOp61
 70
     1
102
RTVSPropertyOp62
 70
     1
  0
XRECORD
  5
A0CE
102
{ACAD_REACTORS
330
A0CD
102
}
330
A0CD
100
AcDbXrecord
280
     1
102
RTVSPost2010Prop28
280
     0
102
RTVSPost2010PropOp28
 70
     1
102
RTVSPost2010Prop29
280
     1
102
RTVSPost2010PropOp29
 70
     1
102
RTVSPost2010Prop30
280
     1
102
RTVSPost2010PropOp30
 70
     1
102
RTVSPost2010Prop31
280
     0
102
RTVSPost2010PropOp31
 70
     1
102
RTVSPost2010Prop32
280
     0
102
RTVSPost2010PropOp32
 70
     1
102
RTVSPost2010Prop33
280
     0
102
RTVSPost2010PropOp33
 70
     1
102
RTVSPost2010Prop34
280
     0
102
RTVSPost2010PropOp34
 70
     1
102
RTVSPost2010Prop35
280
     0
102
RTVSPost2010PropOp35
 70
     1
102
RTVSPost2010Prop36
280
     0
102
RTVSPost2010PropOp36
 70
     1
102
RTVSPost2010Prop37
 90
       50
102
RTVSPost2010PropOp37
 70
     1
102
RTVSPost2010Prop38
140
0.0
102
RTVSPost2010PropOp38
 70
     1
102
RTVSPost2010Prop39
140
1.0
102
RTVSPost2010PropOp39
 70
     1
102
RTVSPost2010Prop40
 90
        0
102
RTVSPost2010PropOp40
 70
     1
102
RTVSPost2010Prop41ColorIndex
 90
       18
102
RTVSPost2010Prop41ColorRGB
 90
        0
102
RTVSPost2010PropOp41
 70
     1
102
RTVSPost2010Prop42
 90
       50
102
RTVSPost2010PropOp42
 70
     1
102
RTVSPost2010Prop43
 90
        3
102
RTVSPost2010PropOp43
 70
     1
102
RTVSPost2010Prop44ColorIndex
 90
        5
102
RTVSPost2010Prop44ColorRGB
 90
      255
102
RTVSPost2010PropOp44
 70
     1
102
RTVSPost2010Prop45
280
     0
102
RTVSPost2010PropOp45
 70
     1
102
RTVSPost2010Prop46
 90
       50
102
RTVSPost2010PropOp46
 70
     1
102
RTVSPost2010Prop47
 90
       50
102
RTVSPost2010PropOp47
 70
     1
102
RTVSPost2010Prop48
 90
       50
102
RTVSPost2010PropOp48
 70
     1
102
RTVSPost2010Prop49
280
     0
102
RTVSPost2010PropOp49
 70
     1
102
RTVSPost2010Prop50
 90
       50
102
RTVSPost2010PropOp50
 70
     1
102
RTVSPost2010Prop51ColorIndex
 90
      256
102
RTVSPost2010Prop51ColorRGB
 90
-16777216
102
RTVSPost2010PropOp51
 70
     0
102
RTVSPost2010Prop52
140
1.0
102
RTVSPost2010PropOp52
 70
     0
102
RTVSPost2010Prop53
 90
        2
102
RTVSPost2010PropOp53
 70
     1
102
RTVSPost2010Prop54
  1
strokes_ogs.tif
102
RTVSPost2010PropOp54
 70
     1
102
RTVSPost2010Prop55
280
     0
102
RTVSPost2010PropOp55
 70
     1
102
RTVSPost2010Prop56
140
1.0
102
RTVSPost2010PropOp56
 70
     1
102
RTVSPost2010Prop57
140
1.0
102
RTVSPost2010PropOp57
 70
     1
102
RTVSPropertyOp0
 70
     1
102
RTVSPropertyOp1
 70
     1
102
RTVSPropertyOp2
 70
     1
102
RTVSPropertyOp3
 70
     1
102
RTVSPropertyOp4
 70
     1
102
RTVSPropertyOp5
 70
     1
102
RTVSPropertyOp6
 70
     1
102
RTVSPropertyOp7
 70
     1
102
RTVSPropertyOp8
 70
     1
102
RTVSPropertyOp9
 70
     1
102
RTVSPropertyOp10
 70
     1
102
RTVSPropertyOp11
 70
     1
102
RTVSPropertyOp12
 70
     1
102
RTVSPropertyOp13
 70
     1
102
RTVSPropertyOp14
 70
     1
102
RTVSPropertyOp15
 70
     1
102
RTVSPropertyOp16
 70
     1
102
RTVSPropertyOp17
 70
     1
102
RTVSPropertyOp18
 70
     1
102
RTVSPropertyOp19
 70
     1
102
RTVSPropertyOp20
 70
     1
102
RTVSPropertyOp21
 70
     1
102
RTVSPropertyOp22
 70
     1
102
RTVSPropertyOp23
 70
     1
102
RTVSPropertyOp24
 70
     1
102
RTVSPropertyOp25
 70
     1
102
RTVSPropertyOp26
 70
     1
102
RTVSPropertyOp27
 70
     1
102
RTVSPropertyOp28
 70
     1
102
RTVSPropertyOp29
 70
     1
102
RTVSPropertyOp30
 70
     1
102
RTVSPropertyOp31
 70
     1
102
RTVSPropertyOp32
 70
     1
102
RTVSPropertyOp33
 70
     1
102
RTVSPropertyOp34
 70
     1
102
RTVSPropertyOp35
 70
     1
102
RTVSPropertyOp36
 70
     1
102
RTVSPropertyOp37
 70
     1
102
RTVSPropertyOp38
 70
     1
102
RTVSPropertyOp39
 70
     1
102
RTVSPropertyOp40
 70
     1
102
RTVSPropertyOp41
 70
     1
102
RTVSPropertyOp42
 70
     1
102
RTVSPropertyOp43
 70
     1
102
RTVSPropertyOp44
 70
     1
102
RTVSPropertyOp45
 70
     1
102
RTVSPropertyOp46
 70
     1
102
RTVSPropertyOp47
 70
     1
102
RTVSPropertyOp48
 70
     1
102
RTVSPropertyOp49
 70
     1
102
RTVSPropertyOp50
 70
     1
102
RTVSPropertyOp51
 70
     0
102
RTVSPropertyOp52
 70
     0
102
RTVSPropertyOp53
 70
     1
102
RTVSPropertyOp54
 70
     1
102
RTVSPropertyOp55
 70
     1
102
RTVSPropertyOp56
 70
     1
102
RTVSPropertyOp57
 70
     1
102
RTVSPropertyOp58
 70
     1
102
RTVSPropertyOp59
 70
     1
102
RTVSPropertyOp60
 70
     1
102
RTVSPropertyOp61
 70
     1
102
RTVSPropertyOp62
 70
     1
  0
XRECORD
  5
A0EA
102
{ACAD_REACTORS
330
A0E9
102
}
330
A0E9
100
AcDbXrecord
280
     1
102
RTVSPost2010Prop28
280
     0
102
RTVSPost2010PropOp28
 70
     1
102
RTVSPost2010Prop29
280
     1
102
RTVSPost2010PropOp29
 70
     1
102
RTVSPost2010Prop30
280
     1
102
RTVSPost2010PropOp30
 70
     1
102
RTVSPost2010Prop31
280
     0
102
RTVSPost2010PropOp31
 70
     1
102
RTVSPost2010Prop32
280
     0
102
RTVSPost2010PropOp32
 70
     1
102
RTVSPost2010Prop33
280
     0
102
RTVSPost2010PropOp33
 70
     1
102
RTVSPost2010Prop34
280
     0
102
RTVSPost2010PropOp34
 70
     1
102
RTVSPost2010Prop35
280
     0
102
RTVSPost2010PropOp35
 70
     1
102
RTVSPost2010Prop36
280
     0
102
RTVSPost2010PropOp36
 70
     1
102
RTVSPost2010Prop37
 90
       50
102
RTVSPost2010PropOp37
 70
     0
102
RTVSPost2010Prop38
140
0.0
102
RTVSPost2010PropOp38
 70
     0
102
RTVSPost2010Prop39
140
1.0
102
RTVSPost2010PropOp39
 70
     0
102
RTVSPost2010Prop40
 90
        0
102
RTVSPost2010PropOp40
 70
     0
102
RTVSPost2010Prop41ColorIndex
 90
       18
102
RTVSPost2010Prop41ColorRGB
 90
        0
102
RTVSPost2010PropOp41
 70
     0
102
RTVSPost2010Prop42
 90
       50
102
RTVSPost2010PropOp42
 70
     0
102
RTVSPost2010Prop43
 90
        3
102
RTVSPost2010PropOp43
 70
     0
102
RTVSPost2010Prop44ColorIndex
 90
        5
102
RTVSPost2010Prop44ColorRGB
 90
      255
102
RTVSPost2010PropOp44
 70
     0
102
RTVSPost2010Prop45
280
     0
102
RTVSPost2010PropOp45
 70
     1
102
RTVSPost2010Prop46
 90
       50
102
RTVSPost2010PropOp46
 70
     0
102
RTVSPost2010Prop47
 90
       50
102
RTVSPost2010PropOp47
 70
     0
102
RTVSPost2010Prop48
 90
       50
102
RTVSPost2010PropOp48
 70
     0
102
RTVSPost2010Prop49
280
     0
102
RTVSPost2010PropOp49
 70
     1
102
RTVSPost2010Prop50
 90
       50
102
RTVSPost2010PropOp50
 70
     0
102
RTVSPost2010Prop51ColorIndex
 90
      256
102
RTVSPost2010Prop51ColorRGB
 90
-16777216
102
RTVSPost2010PropOp51
 70
     0
102
RTVSPost2010Prop52
140
1.0
102
RTVSPost2010PropOp52
 70
     0
102
RTVSPost2010Prop53
 90
        2
102
RTVSPost2010PropOp53
 70
     0
102
RTVSPost2010Prop54
  1
strokes_ogs.tif
102
RTVSPost2010PropOp54
 70
     0
102
RTVSPost2010Prop55
280
     0
102
RTVSPost2010PropOp55
 70
     1
102
RTVSPost2010Prop56
140
1.0
102
RTVSPost2010PropOp56
 70
     0
102
RTVSPost2010Prop57
140
1.0
102
RTVSPost2010PropOp57
 70
     0
102
RTVSPropertyOp0
 70
     0
102
RTVSPropertyOp1
 70
     0
102
RTVSPropertyOp2
 70
     0
102
RTVSPropertyOp3
 70
     0
102
RTVSPropertyOp4
 70
     0
102
RTVSPropertyOp5
 70
     0
102
RTVSPropertyOp6
 70
     0
102
RTVSPropertyOp7
 70
     0
102
RTVSPropertyOp8
 70
     0
102
RTVSPropertyOp9
 70
     0
102
RTVSPropertyOp10
 70
     0
102
RTVSPropertyOp11
 70
     0
102
RTVSPropertyOp12
 70
     0
102
RTVSPropertyOp13
 70
     0
102
RTVSPropertyOp14
 70
     2
102
RTVSPropertyOp15
 70
     0
102
RTVSPropertyOp16
 70
     0
102
RTVSPropertyOp17
 70
     0
102
RTVSPropertyOp18
 70
     0
102
RTVSPropertyOp19
 70
     0
102
RTVSPropertyOp20
 70
     0
102
RTVSPropertyOp21
 70
     0
102
RTVSPropertyOp22
 70
     0
102
RTVSPropertyOp23
 70
     0
102
RTVSPropertyOp24
 70
     0
102
RTVSPropertyOp25
 70
     0
102
RTVSPropertyOp26
 70
     0
102
RTVSPropertyOp27
 70
     0
102
RTVSPropertyOp28
 70
     1
102
RTVSPropertyOp29
 70
     1
102
RTVSPropertyOp30
 70
     1
102
RTVSPropertyOp31
 70
     1
102
RTVSPropertyOp32
 70
     1
102
RTVSPropertyOp33
 70
     1
102
RTVSPropertyOp34
 70
     1
102
RTVSPropertyOp35
 70
     1
102
RTVSPropertyOp36
 70
     1
102
RTVSPropertyOp37
 70
     0
102
RTVSPropertyOp38
 70
     0
102
RTVSPropertyOp39
 70
     0
102
RTVSPropertyOp40
 70
     0
102
RTVSPropertyOp41
 70
     0
102
RTVSPropertyOp42
 70
     0
102
RTVSPropertyOp43
 70
     0
102
RTVSPropertyOp44
 70
     0
102
RTVSPropertyOp45
 70
     1
102
RTVSPropertyOp46
 70
     0
102
RTVSPropertyOp47
 70
     0
102
RTVSPropertyOp48
 70
     0
102
RTVSPropertyOp49
 70
     1
102
RTVSPropertyOp50
 70
     0
102
RTVSPropertyOp51
 70
     0
102
RTVSPropertyOp52
 70
     0
102
RTVSPropertyOp53
 70
     0
102
RTVSPropertyOp54
 70
     0
102
RTVSPropertyOp55
 70
     1
102
RTVSPropertyOp56
 70
     0
102
RTVSPropertyOp57
 70
     0
102
RTVSPropertyOp58
 70
     0
102
RTVSPropertyOp59
 70
     0
102
RTVSPropertyOp60
 70
     0
102
RTVSPropertyOp61
 70
     0
102
RTVSPropertyOp62
 70
     0
  0
XRECORD
  5
A0DA
102
{ACAD_REACTORS
330
A0D9
102
}
330
A0D9
100
AcDbXrecord
280
     1
102
RTVSPost2010Prop28
280
     0
102
RTVSPost2010PropOp28
 70
     1
102
RTVSPost2010Prop29
280
     1
102
RTVSPost2010PropOp29
 70
     1
102
RTVSPost2010Prop30
280
     1
102
RTVSPost2010PropOp30
 70
     1
102
RTVSPost2010Prop31
280
     0
102
RTVSPost2010PropOp31
 70
     1
102
RTVSPost2010Prop32
280
     0
102
RTVSPost2010PropOp32
 70
     1
102
RTVSPost2010Prop33
280
     0
102
RTVSPost2010PropOp33
 70
     1
102
RTVSPost2010Prop34
280
     0
102
RTVSPost2010PropOp34
 70
     1
102
RTVSPost2010Prop35
280
     0
102
RTVSPost2010PropOp35
 70
     1
102
RTVSPost2010Prop36
280
     0
102
RTVSPost2010PropOp36
 70
     1
102
RTVSPost2010Prop37
 90
       50
102
RTVSPost2010PropOp37
 70
     1
102
RTVSPost2010Prop38
140
0.0
102
RTVSPost2010PropOp38
 70
     1
102
RTVSPost2010Prop39
140
1.0
102
RTVSPost2010PropOp39
 70
     1
102
RTVSPost2010Prop40
 90
        0
102
RTVSPost2010PropOp40
 70
     1
102
RTVSPost2010Prop41ColorIndex
 90
       18
102
RTVSPost2010Prop41ColorRGB
 90
        0
102
RTVSPost2010PropOp41
 70
     1
102
RTVSPost2010Prop42
 90
       50
102
RTVSPost2010PropOp42
 70
     1
102
RTVSPost2010Prop43
 90
        3
102
RTVSPost2010PropOp43
 70
     1
102
RTVSPost2010Prop44ColorIndex
 90
        5
102
RTVSPost2010Prop44ColorRGB
 90
      255
102
RTVSPost2010PropOp44
 70
     1
102
RTVSPost2010Prop45
280
     0
102
RTVSPost2010PropOp45
 70
     1
102
RTVSPost2010Prop46
 90
       50
102
RTVSPost2010PropOp46
 70
     1
102
RTVSPost2010Prop47
 90
       50
102
RTVSPost2010PropOp47
 70
     1
102
RTVSPost2010Prop48
 90
       50
102
RTVSPost2010PropOp48
 70
     1
102
RTVSPost2010Prop49
280
     0
102
RTVSPost2010PropOp49
 70
     1
102
RTVSPost2010Prop50
 90
       50
102
RTVSPost2010PropOp50
 70
     1
102
RTVSPost2010Prop51ColorIndex
 90
      256
102
RTVSPost2010Prop51ColorRGB
 90
-16777216
102
RTVSPost2010PropOp51
 70
     0
102
RTVSPost2010Prop52
140
1.0
102
RTVSPost2010PropOp52
 70
     0
102
RTVSPost2010Prop53
 90
        2
102
RTVSPost2010PropOp53
 70
     1
102
RTVSPost2010Prop54
  1
strokes_ogs.tif
102
RTVSPost2010PropOp54
 70
     1
102
RTVSPost2010Prop55
280
     0
102
RTVSPost2010PropOp55
 70
     1
102
RTVSPost2010Prop56
140
1.0
102
RTVSPost2010PropOp56
 70
     1
102
RTVSPost2010Prop57
140
1.0
102
RTVSPost2010PropOp57
 70
     1
102
RTVSPropertyOp0
 70
     1
102
RTVSPropertyOp1
 70
     1
102
RTVSPropertyOp2
 70
     1
102
RTVSPropertyOp3
 70
     1
102
RTVSPropertyOp4
 70
     1
102
RTVSPropertyOp5
 70
     1
102
RTVSPropertyOp6
 70
     1
102
RTVSPropertyOp7
 70
     1
102
RTVSPropertyOp8
 70
     1
102
RTVSPropertyOp9
 70
     1
102
RTVSPropertyOp10
 70
     1
102
RTVSPropertyOp11
 70
     1
102
RTVSPropertyOp12
 70
     1
102
RTVSPropertyOp13
 70
     1
102
RTVSPropertyOp14
 70
     1
102
RTVSPropertyOp15
 70
     1
102
RTVSPropertyOp16
 70
     1
102
RTVSPropertyOp17
 70
     1
102
RTVSPropertyOp18
 70
     1
102
RTVSPropertyOp19
 70
     1
102
RTVSPropertyOp20
 70
     1
102
RTVSPropertyOp21
 70
     1
102
RTVSPropertyOp22
 70
     1
102
RTVSPropertyOp23
 70
     1
102
RTVSPropertyOp24
 70
     1
102
RTVSPropertyOp25
 70
     1
102
RTVSPropertyOp26
 70
     1
102
RTVSPropertyOp27
 70
     1
102
RTVSPropertyOp28
 70
     1
102
RTVSPropertyOp29
 70
     1
102
RTVSPropertyOp30
 70
     1
102
RTVSPropertyOp31
 70
     1
102
RTVSPropertyOp32
 70
     1
102
RTVSPropertyOp33
 70
     1
102
RTVSPropertyOp34
 70
     1
102
RTVSPropertyOp35
 70
     1
102
RTVSPropertyOp36
 70
     1
102
RTVSPropertyOp37
 70
     1
102
RTVSPropertyOp38
 70
     1
102
RTVSPropertyOp39
 70
     1
102
RTVSPropertyOp40
 70
     1
102
RTVSPropertyOp41
 70
     1
102
RTVSPropertyOp42
 70
     1
102
RTVSPropertyOp43
 70
     1
102
RTVSPropertyOp44
 70
     1
102
RTVSPropertyOp45
 70
     1
102
RTVSPropertyOp46
 70
     1
102
RTVSPropertyOp47
 70
     1
102
RTVSPropertyOp48
 70
     1
102
RTVSPropertyOp49
 70
     1
102
RTVSPropertyOp50
 70
     1
102
RTVSPropertyOp51
 70
     0
102
RTVSPropertyOp52
 70
     0
102
RTVSPropertyOp53
 70
     1
102
RTVSPropertyOp54
 70
     1
102
RTVSPropertyOp55
 70
     1
102
RTVSPropertyOp56
 70
     1
102
RTVSPropertyOp57
 70
     1
102
RTVSPropertyOp58
 70
     1
102
RTVSPropertyOp59
 70
     1
102
RTVSPropertyOp60
 70
     1
102
RTVSPropertyOp61
 70
     1
102
RTVSPropertyOp62
 70
     1
  0
XRECORD
  5
A0EC
102
{ACAD_REACTORS
330
A0EB
102
}
330
A0EB
100
AcDbXrecord
280
     1
102
RTVSPost2010Prop28
280
     0
102
RTVSPost2010PropOp28
 70
     1
102
RTVSPost2010Prop29
280
     1
102
RTVSPost2010PropOp29
 70
     1
102
RTVSPost2010Prop30
280
     1
102
RTVSPost2010PropOp30
 70
     1
102
RTVSPost2010Prop31
280
     0
102
RTVSPost2010PropOp31
 70
     1
102
RTVSPost2010Prop32
280
     0
102
RTVSPost2010PropOp32
 70
     1
102
RTVSPost2010Prop33
280
     0
102
RTVSPost2010PropOp33
 70
     1
102
RTVSPost2010Prop34
280
     0
102
RTVSPost2010PropOp34
 70
     1
102
RTVSPost2010Prop35
280
     0
102
RTVSPost2010PropOp35
 70
     1
102
RTVSPost2010Prop36
280
     0
102
RTVSPost2010PropOp36
 70
     1
102
RTVSPost2010Prop37
 90
       50
102
RTVSPost2010PropOp37
 70
     0
102
RTVSPost2010Prop38
140
0.0
102
RTVSPost2010PropOp38
 70
     0
102
RTVSPost2010Prop39
140
1.0
102
RTVSPost2010PropOp39
 70
     0
102
RTVSPost2010Prop40
 90
        0
102
RTVSPost2010PropOp40
 70
     0
102
RTVSPost2010Prop41ColorIndex
 90
       18
102
RTVSPost2010Prop41ColorRGB
 90
        0
102
RTVSPost2010PropOp41
 70
     0
102
RTVSPost2010Prop42
 90
       50
102
RTVSPost2010PropOp42
 70
     0
102
RTVSPost2010Prop43
 90
        3
102
RTVSPost2010PropOp43
 70
     0
102
RTVSPost2010Prop44ColorIndex
 90
        5
102
RTVSPost2010Prop44ColorRGB
 90
      255
102
RTVSPost2010PropOp44
 70
     0
102
RTVSPost2010Prop45
280
     0
102
RTVSPost2010PropOp45
 70
     1
102
RTVSPost2010Prop46
 90
       50
102
RTVSPost2010PropOp46
 70
     0
102
RTVSPost2010Prop47
 90
       50
102
RTVSPost2010PropOp47
 70
     0
102
RTVSPost2010Prop48
 90
       50
102
RTVSPost2010PropOp48
 70
     0
102
RTVSPost2010Prop49
280
     0
102
RTVSPost2010PropOp49
 70
     1
102
RTVSPost2010Prop50
 90
       50
102
RTVSPost2010PropOp50
 70
     0
102
RTVSPost2010Prop51ColorIndex
 90
      256
102
RTVSPost2010Prop51ColorRGB
 90
-16777216
102
RTVSPost2010PropOp51
 70
     0
102
RTVSPost2010Prop52
140
1.0
102
RTVSPost2010PropOp52
 70
     0
102
RTVSPost2010Prop53
 90
        2
102
RTVSPost2010PropOp53
 70
     0
102
RTVSPost2010Prop54
  1
strokes_ogs.tif
102
RTVSPost2010PropOp54
 70
     0
102
RTVSPost2010Prop55
280
     0
102
RTVSPost2010PropOp55
 70
     1
102
RTVSPost2010Prop56
140
1.0
102
RTVSPost2010PropOp56
 70
     0
102
RTVSPost2010Prop57
140
1.0
102
RTVSPost2010PropOp57
 70
     0
102
RTVSPropertyOp0
 70
     0
102
RTVSPropertyOp1
 70
     0
102
RTVSPropertyOp2
 70
     0
102
RTVSPropertyOp3
 70
     0
102
RTVSPropertyOp4
 70
     0
102
RTVSPropertyOp5
 70
     0
102
RTVSPropertyOp6
 70
     0
102
RTVSPropertyOp7
 70
     0
102
RTVSPropertyOp8
 70
     0
102
RTVSPropertyOp9
 70
     0
102
RTVSPropertyOp10
 70
     0
102
RTVSPropertyOp11
 70
     0
102
RTVSPropertyOp12
 70
     0
102
RTVSPropertyOp13
 70
     0
102
RTVSPropertyOp14
 70
     2
102
RTVSPropertyOp15
 70
     0
102
RTVSPropertyOp16
 70
     0
102
RTVSPropertyOp17
 70
     0
102
RTVSPropertyOp18
 70
     0
102
RTVSPropertyOp19
 70
     0
102
RTVSPropertyOp20
 70
     0
102
RTVSPropertyOp21
 70
     0
102
RTVSPropertyOp22
 70
     0
102
RTVSPropertyOp23
 70
     0
102
RTVSPropertyOp24
 70
     0
102
RTVSPropertyOp25
 70
     0
102
RTVSPropertyOp26
 70
     0
102
RTVSPropertyOp27
 70
     0
102
RTVSPropertyOp28
 70
     1
102
RTVSPropertyOp29
 70
     1
102
RTVSPropertyOp30
 70
     1
102
RTVSPropertyOp31
 70
     1
102
RTVSPropertyOp32
 70
     1
102
RTVSPropertyOp33
 70
     1
102
RTVSPropertyOp34
 70
     1
102
RTVSPropertyOp35
 70
     1
102
RTVSPropertyOp36
 70
     1
102
RTVSPropertyOp37
 70
     0
102
RTVSPropertyOp38
 70
     0
102
RTVSPropertyOp39
 70
     0
102
RTVSPropertyOp40
 70
     0
102
RTVSPropertyOp41
 70
     0
102
RTVSPropertyOp42
 70
     0
102
RTVSPropertyOp43
 70
     0
102
RTVSPropertyOp44
 70
     0
102
RTVSPropertyOp45
 70
     1
102
RTVSPropertyOp46
 70
     0
102
RTVSPropertyOp47
 70
     0
102
RTVSPropertyOp48
 70
     0
102
RTVSPropertyOp49
 70
     1
102
RTVSPropertyOp50
 70
     0
102
RTVSPropertyOp51
 70
     0
102
RTVSPropertyOp52
 70
     0
102
RTVSPropertyOp53
 70
     0
102
RTVSPropertyOp54
 70
     0
102
RTVSPropertyOp55
 70
     1
102
RTVSPropertyOp56
 70
     0
102
RTVSPropertyOp57
 70
     0
102
RTVSPropertyOp58
 70
     0
102
RTVSPropertyOp59
 70
     0
102
RTVSPropertyOp60
 70
     0
102
RTVSPropertyOp61
 70
     0
102
RTVSPropertyOp62
 70
     0
  0
XRECORD
  5
A0D2
102
{ACAD_REACTORS
330
A0D1
102
}
330
A0D1
100
AcDbXrecord
280
     1
102
RTVSPost2010Prop28
280
     0
102
RTVSPost2010PropOp28
 70
     1
102
RTVSPost2010Prop29
280
     1
102
RTVSPost2010PropOp29
 70
     1
102
RTVSPost2010Prop30
280
     1
102
RTVSPost2010PropOp30
 70
     1
102
RTVSPost2010Prop31
280
     0
102
RTVSPost2010PropOp31
 70
     1
102
RTVSPost2010Prop32
280
     0
102
RTVSPost2010PropOp32
 70
     1
102
RTVSPost2010Prop33
280
     0
102
RTVSPost2010PropOp33
 70
     1
102
RTVSPost2010Prop34
280
     0
102
RTVSPost2010PropOp34
 70
     1
102
RTVSPost2010Prop35
280
     0
102
RTVSPost2010PropOp35
 70
     1
102
RTVSPost2010Prop36
280
     0
102
RTVSPost2010PropOp36
 70
     1
102
RTVSPost2010Prop37
 90
       50
102
RTVSPost2010PropOp37
 70
     1
102
RTVSPost2010Prop38
140
0.0
102
RTVSPost2010PropOp38
 70
     1
102
RTVSPost2010Prop39
140
1.0
102
RTVSPost2010PropOp39
 70
     1
102
RTVSPost2010Prop40
 90
        0
102
RTVSPost2010PropOp40
 70
     1
102
RTVSPost2010Prop41ColorIndex
 90
       18
102
RTVSPost2010Prop41ColorRGB
 90
        0
102
RTVSPost2010PropOp41
 70
     1
102
RTVSPost2010Prop42
 90
       50
102
RTVSPost2010PropOp42
 70
     1
102
RTVSPost2010Prop43
 90
        3
102
RTVSPost2010PropOp43
 70
     1
102
RTVSPost2010Prop44ColorIndex
 90
        5
102
RTVSPost2010Prop44ColorRGB
 90
      255
102
RTVSPost2010PropOp44
 70
     1
102
RTVSPost2010Prop45
280
     0
102
RTVSPost2010PropOp45
 70
     1
102
RTVSPost2010Prop46
 90
       50
102
RTVSPost2010PropOp46
 70
     1
102
RTVSPost2010Prop47
 90
       50
102
RTVSPost2010PropOp47
 70
     1
102
RTVSPost2010Prop48
 90
       50
102
RTVSPost2010PropOp48
 70
     1
102
RTVSPost2010Prop49
280
     0
102
RTVSPost2010PropOp49
 70
     1
102
RTVSPost2010Prop50
 90
       50
102
RTVSPost2010PropOp50
 70
     1
102
RTVSPost2010Prop51ColorIndex
 90
      256
102
RTVSPost2010Prop51ColorRGB
 90
-16777216
102
RTVSPost2010PropOp51
 70
     0
102
RTVSPost2010Prop52
140
1.0
102
RTVSPost2010PropOp52
 70
     0
102
RTVSPost2010Prop53
 90
        2
102
RTVSPost2010PropOp53
 70
     1
102
RTVSPost2010Prop54
  1
strokes_ogs.tif
102
RTVSPost2010PropOp54
 70
     1
102
RTVSPost2010Prop55
280
     0
102
RTVSPost2010PropOp55
 70
     1
102
RTVSPost2010Prop56
140
1.0
102
RTVSPost2010PropOp56
 70
     1
102
RTVSPost2010Prop57
140
1.0
102
RTVSPost2010PropOp57
 70
     1
102
RTVSPropertyOp0
 70
     1
102
RTVSPropertyOp1
 70
     1
102
RTVSPropertyOp2
 70
     1
102
RTVSPropertyOp3
 70
     1
102
RTVSPropertyOp4
 70
     1
102
RTVSPropertyOp5
 70
     1
102
RTVSPropertyOp6
 70
     1
102
RTVSPropertyOp7
 70
     1
102
RTVSPropertyOp8
 70
     1
102
RTVSPropertyOp9
 70
     1
102
RTVSPropertyOp10
 70
     1
102
RTVSPropertyOp11
 70
     1
102
RTVSPropertyOp12
 70
     1
102
RTVSPropertyOp13
 70
     1
102
RTVSPropertyOp14
 70
     1
102
RTVSPropertyOp15
 70
     1
102
RTVSPropertyOp16
 70
     1
102
RTVSPropertyOp17
 70
     1
102
RTVSPropertyOp18
 70
     1
102
RTVSPropertyOp19
 70
     1
102
RTVSPropertyOp20
 70
     1
102
RTVSPropertyOp21
 70
     1
102
RTVSPropertyOp22
 70
     1
102
RTVSPropertyOp23
 70
     1
102
RTVSPropertyOp24
 70
     1
102
RTVSPropertyOp25
 70
     1
102
RTVSPropertyOp26
 70
     1
102
RTVSPropertyOp27
 70
     1
102
RTVSPropertyOp28
 70
     1
102
RTVSPropertyOp29
 70
     1
102
RTVSPropertyOp30
 70
     1
102
RTVSPropertyOp31
 70
     1
102
RTVSPropertyOp32
 70
     1
102
RTVSPropertyOp33
 70
     1
102
RTVSPropertyOp34
 70
     1
102
RTVSPropertyOp35
 70
     1
102
RTVSPropertyOp36
 70
     1
102
RTVSPropertyOp37
 70
     1
102
RTVSPropertyOp38
 70
     1
102
RTVSPropertyOp39
 70
     1
102
RTVSPropertyOp40
 70
     1
102
RTVSPropertyOp41
 70
     1
102
RTVSPropertyOp42
 70
     1
102
RTVSPropertyOp43
 70
     1
102
RTVSPropertyOp44
 70
     1
102
RTVSPropertyOp45
 70
     1
102
RTVSPropertyOp46
 70
     1
102
RTVSPropertyOp47
 70
     1
102
RTVSPropertyOp48
 70
     1
102
RTVSPropertyOp49
 70
     1
102
RTVSPropertyOp50
 70
     1
102
RTVSPropertyOp51
 70
     0
102
RTVSPropertyOp52
 70
     0
102
RTVSPropertyOp53
 70
     1
102
RTVSPropertyOp54
 70
     1
102
RTVSPropertyOp55
 70
     1
102
RTVSPropertyOp56
 70
     1
102
RTVSPropertyOp57
 70
     1
102
RTVSPropertyOp58
 70
     1
102
RTVSPropertyOp59
 70
     1
102
RTVSPropertyOp60
 70
     1
102
RTVSPropertyOp61
 70
     1
102
RTVSPropertyOp62
 70
     1
  0
XRECORD
  5
A0E8
102
{ACAD_REACTORS
330
A0E7
102
}
330
A0E7
100
AcDbXrecord
280
     1
102
RTVSPost2010Prop28
280
     0
102
RTVSPost2010PropOp28
 70
     1
102
RTVSPost2010Prop29
280
     1
102
RTVSPost2010PropOp29
 70
     1
102
RTVSPost2010Prop30
280
     1
102
RTVSPost2010PropOp30
 70
     1
102
RTVSPost2010Prop31
280
     0
102
RTVSPost2010PropOp31
 70
     1
102
RTVSPost2010Prop32
280
     0
102
RTVSPost2010PropOp32
 70
     1
102
RTVSPost2010Prop33
280
     0
102
RTVSPost2010PropOp33
 70
     1
102
RTVSPost2010Prop34
280
     0
102
RTVSPost2010PropOp34
 70
     1
102
RTVSPost2010Prop35
280
     0
102
RTVSPost2010PropOp35
 70
     1
102
RTVSPost2010Prop36
280
     0
102
RTVSPost2010PropOp36
 70
     1
102
RTVSPost2010Prop37
 90
       50
102
RTVSPost2010PropOp37
 70
     1
102
RTVSPost2010Prop38
140
0.0
102
RTVSPost2010PropOp38
 70
     1
102
RTVSPost2010Prop39
140
1.0
102
RTVSPost2010PropOp39
 70
     1
102
RTVSPost2010Prop40
 90
        0
102
RTVSPost2010PropOp40
 70
     1
102
RTVSPost2010Prop41ColorIndex
 90
       18
102
RTVSPost2010Prop41ColorRGB
 90
        0
102
RTVSPost2010PropOp41
 70
     1
102
RTVSPost2010Prop42
 90
       50
102
RTVSPost2010PropOp42
 70
     1
102
RTVSPost2010Prop43
 90
        3
102
RTVSPost2010PropOp43
 70
     1
102
RTVSPost2010Prop44ColorIndex
 90
        5
102
RTVSPost2010Prop44ColorRGB
 90
      255
102
RTVSPost2010PropOp44
 70
     1
102
RTVSPost2010Prop45
280
     0
102
RTVSPost2010PropOp45
 70
     1
102
RTVSPost2010Prop46
 90
       50
102
RTVSPost2010PropOp46
 70
     1
102
RTVSPost2010Prop47
 90
       50
102
RTVSPost2010PropOp47
 70
     1
102
RTVSPost2010Prop48
 90
       50
102
RTVSPost2010PropOp48
 70
     1
102
RTVSPost2010Prop49
280
     0
102
RTVSPost2010PropOp49
 70
     1
102
RTVSPost2010Prop50
 90
       50
102
RTVSPost2010PropOp50
 70
     1
102
RTVSPost2010Prop51ColorIndex
 90
      256
102
RTVSPost2010Prop51ColorRGB
 90
-16777216
102
RTVSPost2010PropOp51
 70
     0
102
RTVSPost2010Prop52
140
1.0
102
RTVSPost2010PropOp52
 70
     0
102
RTVSPost2010Prop53
 90
        2
102
RTVSPost2010PropOp53
 70
     1
102
RTVSPost2010Prop54
  1
strokes_ogs.tif
102
RTVSPost2010PropOp54
 70
     1
102
RTVSPost2010Prop55
280
     0
102
RTVSPost2010PropOp55
 70
     1
102
RTVSPost2010Prop56
140
1.0
102
RTVSPost2010PropOp56
 70
     1
102
RTVSPost2010Prop57
140
1.0
102
RTVSPost2010PropOp57
 70
     1
102
RTVSPropertyOp0
 70
     1
102
RTVSPropertyOp1
 70
     1
102
RTVSPropertyOp2
 70
     1
102
RTVSPropertyOp3
 70
     1
102
RTVSPropertyOp4
 70
     1
102
RTVSPropertyOp5
 70
     1
102
RTVSPropertyOp6
 70
     1
102
RTVSPropertyOp7
 70
     1
102
RTVSPropertyOp8
 70
     1
102
RTVSPropertyOp9
 70
     1
102
RTVSPropertyOp10
 70
     1
102
RTVSPropertyOp11
 70
     1
102
RTVSPropertyOp12
 70
     1
102
RTVSPropertyOp13
 70
     1
102
RTVSPropertyOp14
 70
     1
102
RTVSPropertyOp15
 70
     1
102
RTVSPropertyOp16
 70
     1
102
RTVSPropertyOp17
 70
     1
102
RTVSPropertyOp18
 70
     1
102
RTVSPropertyOp19
 70
     1
102
RTVSPropertyOp20
 70
     1
102
RTVSPropertyOp21
 70
     1
102
RTVSPropertyOp22
 70
     1
102
RTVSPropertyOp23
 70
     1
102
RTVSPropertyOp24
 70
     1
102
RTVSPropertyOp25
 70
     1
102
RTVSPropertyOp26
 70
     1
102
RTVSPropertyOp27
 70
     1
102
RTVSPropertyOp28
 70
     1
102
RTVSPropertyOp29
 70
     1
102
RTVSPropertyOp30
 70
     1
102
RTVSPropertyOp31
 70
     1
102
RTVSPropertyOp32
 70
     1
102
RTVSPropertyOp33
 70
     1
102
RTVSPropertyOp34
 70
     1
102
RTVSPropertyOp35
 70
     1
102
RTVSPropertyOp36
 70
     1
102
RTVSPropertyOp37
 70
     1
102
RTVSPropertyOp38
 70
     1
102
RTVSPropertyOp39
 70
     1
102
RTVSPropertyOp40
 70
     1
102
RTVSPropertyOp41
 70
     1
102
RTVSPropertyOp42
 70
     1
102
RTVSPropertyOp43
 70
     1
102
RTVSPropertyOp44
 70
     1
102
RTVSPropertyOp45
 70
     1
102
RTVSPropertyOp46
 70
     1
102
RTVSPropertyOp47
 70
     1
102
RTVSPropertyOp48
 70
     1
102
RTVSPropertyOp49
 70
     1
102
RTVSPropertyOp50
 70
     1
102
RTVSPropertyOp51
 70
     0
102
RTVSPropertyOp52
 70
     0
102
RTVSPropertyOp53
 70
     1
102
RTVSPropertyOp54
 70
     1
102
RTVSPropertyOp55
 70
     1
102
RTVSPropertyOp56
 70
     1
102
RTVSPropertyOp57
 70
     1
102
RTVSPropertyOp58
 70
     1
102
RTVSPropertyOp59
 70
     1
102
RTVSPropertyOp60
 70
     1
102
RTVSPropertyOp61
 70
     1
102
RTVSPropertyOp62
 70
     1
  0
XRECORD
  5
A0E6
102
{ACAD_REACTORS
330
A0E5
102
}
330
A0E5
100
AcDbXrecord
280
     1
102
RTVSPost2010Prop28
280
     0
102
RTVSPost2010PropOp28
 70
     1
102
RTVSPost2010Prop29
280
     1
102
RTVSPost2010PropOp29
 70
     1
102
RTVSPost2010Prop30
280
     1
102
RTVSPost2010PropOp30
 70
     1
102
RTVSPost2010Prop31
280
     0
102
RTVSPost2010PropOp31
 70
     1
102
RTVSPost2010Prop32
280
     0
102
RTVSPost2010PropOp32
 70
     1
102
RTVSPost2010Prop33
280
     0
102
RTVSPost2010PropOp33
 70
     1
102
RTVSPost2010Prop34
280
     0
102
RTVSPost2010PropOp34
 70
     1
102
RTVSPost2010Prop35
280
     0
102
RTVSPost2010PropOp35
 70
     1
102
RTVSPost2010Prop36
280
     0
102
RTVSPost2010PropOp36
 70
     1
102
RTVSPost2010Prop37
 90
       50
102
RTVSPost2010PropOp37
 70
     1
102
RTVSPost2010Prop38
140
0.0
102
RTVSPost2010PropOp38
 70
     1
102
RTVSPost2010Prop39
140
1.0
102
RTVSPost2010PropOp39
 70
     1
102
RTVSPost2010Prop40
 90
        0
102
RTVSPost2010PropOp40
 70
     1
102
RTVSPost2010Prop41ColorIndex
 90
       18
102
RTVSPost2010Prop41ColorRGB
 90
        0
102
RTVSPost2010PropOp41
 70
     1
102
RTVSPost2010Prop42
 90
       50
102
RTVSPost2010PropOp42
 70
     1
102
RTVSPost2010Prop43
 90
        3
102
RTVSPost2010PropOp43
 70
     1
102
RTVSPost2010Prop44ColorIndex
 90
        5
102
RTVSPost2010Prop44ColorRGB
 90
      255
102
RTVSPost2010PropOp44
 70
     1
102
RTVSPost2010Prop45
280
     0
102
RTVSPost2010PropOp45
 70
     1
102
RTVSPost2010Prop46
 90
       50
102
RTVSPost2010PropOp46
 70
     1
102
RTVSPost2010Prop47
 90
       50
102
RTVSPost2010PropOp47
 70
     1
102
RTVSPost2010Prop48
 90
       50
102
RTVSPost2010PropOp48
 70
     1
102
RTVSPost2010Prop49
280
     0
102
RTVSPost2010PropOp49
 70
     1
102
RTVSPost2010Prop50
 90
       50
102
RTVSPost2010PropOp50
 70
     1
102
RTVSPost2010Prop51ColorIndex
 90
      256
102
RTVSPost2010Prop51ColorRGB
 90
-16777216
102
RTVSPost2010PropOp51
 70
     0
102
RTVSPost2010Prop52
140
1.0
102
RTVSPost2010PropOp52
 70
     0
102
RTVSPost2010Prop53
 90
        2
102
RTVSPost2010PropOp53
 70
     1
102
RTVSPost2010Prop54
  1
strokes_ogs.tif
102
RTVSPost2010PropOp54
 70
     1
102
RTVSPost2010Prop55
280
     0
102
RTVSPost2010PropOp55
 70
     1
102
RTVSPost2010Prop56
140
1.0
102
RTVSPost2010PropOp56
 70
     1
102
RTVSPost2010Prop57
140
1.0
102
RTVSPost2010PropOp57
 70
     1
102
RTVSPropertyOp0
 70
     1
102
RTVSPropertyOp1
 70
     1
102
RTVSPropertyOp2
 70
     1
102
RTVSPropertyOp3
 70
     1
102
RTVSPropertyOp4
 70
     1
102
RTVSPropertyOp5
 70
     1
102
RTVSPropertyOp6
 70
     1
102
RTVSPropertyOp7
 70
     1
102
RTVSPropertyOp8
 70
     1
102
RTVSPropertyOp9
 70
     1
102
RTVSPropertyOp10
 70
     1
102
RTVSPropertyOp11
 70
     1
102
RTVSPropertyOp12
 70
     1
102
RTVSPropertyOp13
 70
     1
102
RTVSPropertyOp14
 70
     1
102
RTVSPropertyOp15
 70
     1
102
RTVSPropertyOp16
 70
     1
102
RTVSPropertyOp17
 70
     1
102
RTVSPropertyOp18
 70
     1
102
RTVSPropertyOp19
 70
     1
102
RTVSPropertyOp20
 70
     1
102
RTVSPropertyOp21
 70
     1
102
RTVSPropertyOp22
 70
     1
102
RTVSPropertyOp23
 70
     1
102
RTVSPropertyOp24
 70
     1
102
RTVSPropertyOp25
 70
     1
102
RTVSPropertyOp26
 70
     1
102
RTVSPropertyOp27
 70
     1
102
RTVSPropertyOp28
 70
     1
102
RTVSPropertyOp29
 70
     1
102
RTVSPropertyOp30
 70
     1
102
RTVSPropertyOp31
 70
     1
102
RTVSPropertyOp32
 70
     1
102
RTVSPropertyOp33
 70
     1
102
RTVSPropertyOp34
 70
     1
102
RTVSPropertyOp35
 70
     1
102
RTVSPropertyOp36
 70
     1
102
RTVSPropertyOp37
 70
     1
102
RTVSPropertyOp38
 70
     1
102
RTVSPropertyOp39
 70
     1
102
RTVSPropertyOp40
 70
     1
102
RTVSPropertyOp41
 70
     1
102
RTVSPropertyOp42
 70
     1
102
RTVSPropertyOp43
 70
     1
102
RTVSPropertyOp44
 70
     1
102
RTVSPropertyOp45
 70
     1
102
RTVSPropertyOp46
 70
     1
102
RTVSPropertyOp47
 70
     1
102
RTVSPropertyOp48
 70
     1
102
RTVSPropertyOp49
 70
     1
102
RTVSPropertyOp50
 70
     1
102
RTVSPropertyOp51
 70
     0
102
RTVSPropertyOp52
 70
     0
102
RTVSPropertyOp53
 70
     1
102
RTVSPropertyOp54
 70
     1
102
RTVSPropertyOp55
 70
     1
102
RTVSPropertyOp56
 70
     1
102
RTVSPropertyOp57
 70
     1
102
RTVSPropertyOp58
 70
     1
102
RTVSPropertyOp59
 70
     1
102
RTVSPropertyOp60
 70
     1
102
RTVSPropertyOp61
 70
     1
102
RTVSPropertyOp62
 70
     1
  0
XRECORD
  5
A0E0
102
{ACAD_REACTORS
330
A0DF
102
}
330
A0DF
100
AcDbXrecord
280
     1
102
RTVSPost2010Prop28
280
     0
102
RTVSPost2010PropOp28
 70
     1
102
RTVSPost2010Prop29
280
     1
102
RTVSPost2010PropOp29
 70
     1
102
RTVSPost2010Prop30
280
     1
102
RTVSPost2010PropOp30
 70
     1
102
RTVSPost2010Prop31
280
     0
102
RTVSPost2010PropOp31
 70
     1
102
RTVSPost2010Prop32
280
     0
102
RTVSPost2010PropOp32
 70
     1
102
RTVSPost2010Prop33
280
     0
102
RTVSPost2010PropOp33
 70
     1
102
RTVSPost2010Prop34
280
     0
102
RTVSPost2010PropOp34
 70
     1
102
RTVSPost2010Prop35
280
     0
102
RTVSPost2010PropOp35
 70
     1
102
RTVSPost2010Prop36
280
     0
102
RTVSPost2010PropOp36
 70
     1
102
RTVSPost2010Prop37
 90
       50
102
RTVSPost2010PropOp37
 70
     1
102
RTVSPost2010Prop38
140
0.0
102
RTVSPost2010PropOp38
 70
     1
102
RTVSPost2010Prop39
140
1.0
102
RTVSPost2010PropOp39
 70
     1
102
RTVSPost2010Prop40
 90
        0
102
RTVSPost2010PropOp40
 70
     1
102
RTVSPost2010Prop41ColorIndex
 90
       18
102
RTVSPost2010Prop41ColorRGB
 90
        0
102
RTVSPost2010PropOp41
 70
     1
102
RTVSPost2010Prop42
 90
       50
102
RTVSPost2010PropOp42
 70
     1
102
RTVSPost2010Prop43
 90
        3
102
RTVSPost2010PropOp43
 70
     1
102
RTVSPost2010Prop44ColorIndex
 90
        5
102
RTVSPost2010Prop44ColorRGB
 90
      255
102
RTVSPost2010PropOp44
 70
     1
102
RTVSPost2010Prop45
280
     0
102
RTVSPost2010PropOp45
 70
     1
102
RTVSPost2010Prop46
 90
       50
102
RTVSPost2010PropOp46
 70
     1
102
RTVSPost2010Prop47
 90
       50
102
RTVSPost2010PropOp47
 70
     1
102
RTVSPost2010Prop48
 90
       50
102
RTVSPost2010PropOp48
 70
     1
102
RTVSPost2010Prop49
280
     0
102
RTVSPost2010PropOp49
 70
     1
102
RTVSPost2010Prop50
 90
       50
102
RTVSPost2010PropOp50
 70
     1
102
RTVSPost2010Prop51ColorIndex
 90
      256
102
RTVSPost2010Prop51ColorRGB
 90
-16777216
102
RTVSPost2010PropOp51
 70
     0
102
RTVSPost2010Prop52
140
1.0
102
RTVSPost2010PropOp52
 70
     0
102
RTVSPost2010Prop53
 90
        2
102
RTVSPost2010PropOp53
 70
     1
102
RTVSPost2010Prop54
  1
strokes_ogs.tif
102
RTVSPost2010PropOp54
 70
     1
102
RTVSPost2010Prop55
280
     0
102
RTVSPost2010PropOp55
 70
     1
102
RTVSPost2010Prop56
140
1.0
102
RTVSPost2010PropOp56
 70
     1
102
RTVSPost2010Prop57
140
1.0
102
RTVSPost2010PropOp57
 70
     1
102
RTVSPropertyOp0
 70
     1
102
RTVSPropertyOp1
 70
     1
102
RTVSPropertyOp2
 70
     1
102
RTVSPropertyOp3
 70
     1
102
RTVSPropertyOp4
 70
     1
102
RTVSPropertyOp5
 70
     1
102
RTVSPropertyOp6
 70
     1
102
RTVSPropertyOp7
 70
     1
102
RTVSPropertyOp8
 70
     1
102
RTVSPropertyOp9
 70
     1
102
RTVSPropertyOp10
 70
     1
102
RTVSPropertyOp11
 70
     1
102
RTVSPropertyOp12
 70
     1
102
RTVSPropertyOp13
 70
     1
102
RTVSPropertyOp14
 70
     1
102
RTVSPropertyOp15
 70
     1
102
RTVSPropertyOp16
 70
     1
102
RTVSPropertyOp17
 70
     1
102
RTVSPropertyOp18
 70
     1
102
RTVSPropertyOp19
 70
     1
102
RTVSPropertyOp20
 70
     1
102
RTVSPropertyOp21
 70
     1
102
RTVSPropertyOp22
 70
     1
102
RTVSPropertyOp23
 70
     1
102
RTVSPropertyOp24
 70
     1
102
RTVSPropertyOp25
 70
     1
102
RTVSPropertyOp26
 70
     1
102
RTVSPropertyOp27
 70
     1
102
RTVSPropertyOp28
 70
     1
102
RTVSPropertyOp29
 70
     1
102
RTVSPropertyOp30
 70
     1
102
RTVSPropertyOp31
 70
     1
102
RTVSPropertyOp32
 70
     1
102
RTVSPropertyOp33
 70
     1
102
RTVSPropertyOp34
 70
     1
102
RTVSPropertyOp35
 70
     1
102
RTVSPropertyOp36
 70
     1
102
RTVSPropertyOp37
 70
     1
102
RTVSPropertyOp38
 70
     1
102
RTVSPropertyOp39
 70
     1
102
RTVSPropertyOp40
 70
     1
102
RTVSPropertyOp41
 70
     1
102
RTVSPropertyOp42
 70
     1
102
RTVSPropertyOp43
 70
     1
102
RTVSPropertyOp44
 70
     1
102
RTVSPropertyOp45
 70
     1
102
RTVSPropertyOp46
 70
     1
102
RTVSPropertyOp47
 70
     1
102
RTVSPropertyOp48
 70
     1
102
RTVSPropertyOp49
 70
     1
102
RTVSPropertyOp50
 70
     1
102
RTVSPropertyOp51
 70
     0
102
RTVSPropertyOp52
 70
     0
102
RTVSPropertyOp53
 70
     1
102
RTVSPropertyOp54
 70
     1
102
RTVSPropertyOp55
 70
     1
102
RTVSPropertyOp56
 70
     1
102
RTVSPropertyOp57
 70
     1
102
RTVSPropertyOp58
 70
     1
102
RTVSPropertyOp59
 70
     1
102
RTVSPropertyOp60
 70
     1
102
RTVSPropertyOp61
 70
     1
102
RTVSPropertyOp62
 70
     1
  0
XRECORD
  5
A0E2
102
{ACAD_REACTORS
330
A0E1
102
}
330
A0E1
100
AcDbXrecord
280
     1
102
RTVSPost2010Prop28
280
     0
102
RTVSPost2010PropOp28
 70
     1
102
RTVSPost2010Prop29
280
     1
102
RTVSPost2010PropOp29
 70
     1
102
RTVSPost2010Prop30
280
     1
102
RTVSPost2010PropOp30
 70
     1
102
RTVSPost2010Prop31
280
     0
102
RTVSPost2010PropOp31
 70
     1
102
RTVSPost2010Prop32
280
     0
102
RTVSPost2010PropOp32
 70
     1
102
RTVSPost2010Prop33
280
     0
102
RTVSPost2010PropOp33
 70
     1
102
RTVSPost2010Prop34
280
     0
102
RTVSPost2010PropOp34
 70
     1
102
RTVSPost2010Prop35
280
     0
102
RTVSPost2010PropOp35
 70
     1
102
RTVSPost2010Prop36
280
     0
102
RTVSPost2010PropOp36
 70
     1
102
RTVSPost2010Prop37
 90
       50
102
RTVSPost2010PropOp37
 70
     1
102
RTVSPost2010Prop38
140
0.0
102
RTVSPost2010PropOp38
 70
     1
102
RTVSPost2010Prop39
140
1.0
102
RTVSPost2010PropOp39
 70
     1
102
RTVSPost2010Prop40
 90
        0
102
RTVSPost2010PropOp40
 70
     1
102
RTVSPost2010Prop41ColorIndex
 90
       18
102
RTVSPost2010Prop41ColorRGB
 90
        0
102
RTVSPost2010PropOp41
 70
     1
102
RTVSPost2010Prop42
 90
       50
102
RTVSPost2010PropOp42
 70
     1
102
RTVSPost2010Prop43
 90
        3
102
RTVSPost2010PropOp43
 70
     1
102
RTVSPost2010Prop44ColorIndex
 90
        5
102
RTVSPost2010Prop44ColorRGB
 90
      255
102
RTVSPost2010PropOp44
 70
     1
102
RTVSPost2010Prop45
280
     0
102
RTVSPost2010PropOp45
 70
     1
102
RTVSPost2010Prop46
 90
       50
102
RTVSPost2010PropOp46
 70
     1
102
RTVSPost2010Prop47
 90
       50
102
RTVSPost2010PropOp47
 70
     1
102
RTVSPost2010Prop48
 90
       50
102
RTVSPost2010PropOp48
 70
     1
102
RTVSPost2010Prop49
280
     0
102
RTVSPost2010PropOp49
 70
     1
102
RTVSPost2010Prop50
 90
       50
102
RTVSPost2010PropOp50
 70
     1
102
RTVSPost2010Prop51ColorIndex
 90
      256
102
RTVSPost2010Prop51ColorRGB
 90
-16777216
102
RTVSPost2010PropOp51
 70
     0
102
RTVSPost2010Prop52
140
1.0
102
RTVSPost2010PropOp52
 70
     0
102
RTVSPost2010Prop53
 90
        2
102
RTVSPost2010PropOp53
 70
     1
102
RTVSPost2010Prop54
  1
strokes_ogs.tif
102
RTVSPost2010PropOp54
 70
     1
102
RTVSPost2010Prop55
280
     0
102
RTVSPost2010PropOp55
 70
     1
102
RTVSPost2010Prop56
140
1.0
102
RTVSPost2010PropOp56
 70
     1
102
RTVSPost2010Prop57
140
1.0
102
RTVSPost2010PropOp57
 70
     1
102
RTVSPropertyOp0
 70
     1
102
RTVSPropertyOp1
 70
     1
102
RTVSPropertyOp2
 70
     1
102
RTVSPropertyOp3
 70
     1
102
RTVSPropertyOp4
 70
     1
102
RTVSPropertyOp5
 70
     1
102
RTVSPropertyOp6
 70
     1
102
RTVSPropertyOp7
 70
     1
102
RTVSPropertyOp8
 70
     1
102
RTVSPropertyOp9
 70
     1
102
RTVSPropertyOp10
 70
     1
102
RTVSPropertyOp11
 70
     1
102
RTVSPropertyOp12
 70
     1
102
RTVSPropertyOp13
 70
     1
102
RTVSPropertyOp14
 70
     1
102
RTVSPropertyOp15
 70
     1
102
RTVSPropertyOp16
 70
     1
102
RTVSPropertyOp17
 70
     1
102
RTVSPropertyOp18
 70
     1
102
RTVSPropertyOp19
 70
     1
102
RTVSPropertyOp20
 70
     1
102
RTVSPropertyOp21
 70
     1
102
RTVSPropertyOp22
 70
     1
102
RTVSPropertyOp23
 70
     1
102
RTVSPropertyOp24
 70
     1
102
RTVSPropertyOp25
 70
     1
102
RTVSPropertyOp26
 70
     1
102
RTVSPropertyOp27
 70
     1
102
RTVSPropertyOp28
 70
     1
102
RTVSPropertyOp29
 70
     1
102
RTVSPropertyOp30
 70
     1
102
RTVSPropertyOp31
 70
     1
102
RTVSPropertyOp32
 70
     1
102
RTVSPropertyOp33
 70
     1
102
RTVSPropertyOp34
 70
     1
102
RTVSPropertyOp35
 70
     1
102
RTVSPropertyOp36
 70
     1
102
RTVSPropertyOp37
 70
     1
102
RTVSPropertyOp38
 70
     1
102
RTVSPropertyOp39
 70
     1
102
RTVSPropertyOp40
 70
     1
102
RTVSPropertyOp41
 70
     1
102
RTVSPropertyOp42
 70
     1
102
RTVSPropertyOp43
 70
     1
102
RTVSPropertyOp44
 70
     1
102
RTVSPropertyOp45
 70
     1
102
RTVSPropertyOp46
 70
     1
102
RTVSPropertyOp47
 70
     1
102
RTVSPropertyOp48
 70
     1
102
RTVSPropertyOp49
 70
     1
102
RTVSPropertyOp50
 70
     1
102
RTVSPropertyOp51
 70
     0
102
RTVSPropertyOp52
 70
     0
102
RTVSPropertyOp53
 70
     1
102
RTVSPropertyOp54
 70
     1
102
RTVSPropertyOp55
 70
     1
102
RTVSPropertyOp56
 70
     1
102
RTVSPropertyOp57
 70
     1
102
RTVSPropertyOp58
 70
     1
102
RTVSPropertyOp59
 70
     1
102
RTVSPropertyOp60
 70
     1
102
RTVSPropertyOp61
 70
     1
102
RTVSPropertyOp62
 70
     1
  0
XRECORD
  5
A0D8
102
{ACAD_REACTORS
330
A0D7
102
}
330
A0D7
100
AcDbXrecord
280
     1
102
RTVSPost2010Prop28
280
     0
102
RTVSPost2010PropOp28
 70
     1
102
RTVSPost2010Prop29
280
     1
102
RTVSPost2010PropOp29
 70
     1
102
RTVSPost2010Prop30
280
     1
102
RTVSPost2010PropOp30
 70
     1
102
RTVSPost2010Prop31
280
     0
102
RTVSPost2010PropOp31
 70
     1
102
RTVSPost2010Prop32
280
     0
102
RTVSPost2010PropOp32
 70
     1
102
RTVSPost2010Prop33
280
     0
102
RTVSPost2010PropOp33
 70
     1
102
RTVSPost2010Prop34
280
     0
102
RTVSPost2010PropOp34
 70
     1
102
RTVSPost2010Prop35
280
     0
102
RTVSPost2010PropOp35
 70
     1
102
RTVSPost2010Prop36
280
     0
102
RTVSPost2010PropOp36
 70
     1
102
RTVSPost2010Prop37
 90
       50
102
RTVSPost2010PropOp37
 70
     1
102
RTVSPost2010Prop38
140
0.0
102
RTVSPost2010PropOp38
 70
     1
102
RTVSPost2010Prop39
140
1.0
102
RTVSPost2010PropOp39
 70
     1
102
RTVSPost2010Prop40
 90
        0
102
RTVSPost2010PropOp40
 70
     1
102
RTVSPost2010Prop41ColorIndex
 90
       18
102
RTVSPost2010Prop41ColorRGB
 90
        0
102
RTVSPost2010PropOp41
 70
     1
102
RTVSPost2010Prop42
 90
       50
102
RTVSPost2010PropOp42
 70
     1
102
RTVSPost2010Prop43
 90
        3
102
RTVSPost2010PropOp43
 70
     1
102
RTVSPost2010Prop44ColorIndex
 90
        5
102
RTVSPost2010Prop44ColorRGB
 90
      255
102
RTVSPost2010PropOp44
 70
     1
102
RTVSPost2010Prop45
280
     0
102
RTVSPost2010PropOp45
 70
     1
102
RTVSPost2010Prop46
 90
       50
102
RTVSPost2010PropOp46
 70
     1
102
RTVSPost2010Prop47
 90
       50
102
RTVSPost2010PropOp47
 70
     1
102
RTVSPost2010Prop48
 90
       50
102
RTVSPost2010PropOp48
 70
     1
102
RTVSPost2010Prop49
280
     0
102
RTVSPost2010PropOp49
 70
     1
102
RTVSPost2010Prop50
 90
       50
102
RTVSPost2010PropOp50
 70
     1
102
RTVSPost2010Prop51ColorIndex
 90
      256
102
RTVSPost2010Prop51ColorRGB
 90
-16777216
102
RTVSPost2010PropOp51
 70
     0
102
RTVSPost2010Prop52
140
1.0
102
RTVSPost2010PropOp52
 70
     0
102
RTVSPost2010Prop53
 90
        2
102
RTVSPost2010PropOp53
 70
     1
102
RTVSPost2010Prop54
  1
strokes_ogs.tif
102
RTVSPost2010PropOp54
 70
     1
102
RTVSPost2010Prop55
280
     0
102
RTVSPost2010PropOp55
 70
     1
102
RTVSPost2010Prop56
140
1.0
102
RTVSPost2010PropOp56
 70
     1
102
RTVSPost2010Prop57
140
1.0
102
RTVSPost2010PropOp57
 70
     1
102
RTVSPropertyOp0
 70
     1
102
RTVSPropertyOp1
 70
     1
102
RTVSPropertyOp2
 70
     1
102
RTVSPropertyOp3
 70
     1
102
RTVSPropertyOp4
 70
     1
102
RTVSPropertyOp5
 70
     1
102
RTVSPropertyOp6
 70
     1
102
RTVSPropertyOp7
 70
     1
102
RTVSPropertyOp8
 70
     1
102
RTVSPropertyOp9
 70
     1
102
RTVSPropertyOp10
 70
     1
102
RTVSPropertyOp11
 70
     1
102
RTVSPropertyOp12
 70
     1
102
RTVSPropertyOp13
 70
     1
102
RTVSPropertyOp14
 70
     1
102
RTVSPropertyOp15
 70
     1
102
RTVSPropertyOp16
 70
     1
102
RTVSPropertyOp17
 70
     1
102
RTVSPropertyOp18
 70
     1
102
RTVSPropertyOp19
 70
     1
102
RTVSPropertyOp20
 70
     1
102
RTVSPropertyOp21
 70
     1
102
RTVSPropertyOp22
 70
     1
102
RTVSPropertyOp23
 70
     1
102
RTVSPropertyOp24
 70
     1
102
RTVSPropertyOp25
 70
     1
102
RTVSPropertyOp26
 70
     1
102
RTVSPropertyOp27
 70
     1
102
RTVSPropertyOp28
 70
     1
102
RTVSPropertyOp29
 70
     1
102
RTVSPropertyOp30
 70
     1
102
RTVSPropertyOp31
 70
     1
102
RTVSPropertyOp32
 70
     1
102
RTVSPropertyOp33
 70
     1
102
RTVSPropertyOp34
 70
     1
102
RTVSPropertyOp35
 70
     1
102
RTVSPropertyOp36
 70
     1
102
RTVSPropertyOp37
 70
     1
102
RTVSPropertyOp38
 70
     1
102
RTVSPropertyOp39
 70
     1
102
RTVSPropertyOp40
 70
     1
102
RTVSPropertyOp41
 70
     1
102
RTVSPropertyOp42
 70
     1
102
RTVSPropertyOp43
 70
     1
102
RTVSPropertyOp44
 70
     1
102
RTVSPropertyOp45
 70
     1
102
RTVSPropertyOp46
 70
     1
102
RTVSPropertyOp47
 70
     1
102
RTVSPropertyOp48
 70
     1
102
RTVSPropertyOp49
 70
     1
102
RTVSPropertyOp50
 70
     1
102
RTVSPropertyOp51
 70
     0
102
RTVSPropertyOp52
 70
     0
102
RTVSPropertyOp53
 70
     1
102
RTVSPropertyOp54
 70
     1
102
RTVSPropertyOp55
 70
     1
102
RTVSPropertyOp56
 70
     1
102
RTVSPropertyOp57
 70
     1
102
RTVSPropertyOp58
 70
     1
102
RTVSPropertyOp59
 70
     1
102
RTVSPropertyOp60
 70
     1
102
RTVSPropertyOp61
 70
     1
102
RTVSPropertyOp62
 70
     1
  0
XRECORD
  5
A0CC
102
{ACAD_REACTORS
330
A0CB
102
}
330
A0CB
100
AcDbXrecord
280
     1
102
RTVSPost2010Prop28
280
     0
102
RTVSPost2010PropOp28
 70
     1
102
RTVSPost2010Prop29
280
     1
102
RTVSPost2010PropOp29
 70
     1
102
RTVSPost2010Prop30
280
     1
102
RTVSPost2010PropOp30
 70
     1
102
RTVSPost2010Prop31
280
     0
102
RTVSPost2010PropOp31
 70
     1
102
RTVSPost2010Prop32
280
     0
102
RTVSPost2010PropOp32
 70
     1
102
RTVSPost2010Prop33
280
     0
102
RTVSPost2010PropOp33
 70
     1
102
RTVSPost2010Prop34
280
     0
102
RTVSPost2010PropOp34
 70
     1
102
RTVSPost2010Prop35
280
     0
102
RTVSPost2010PropOp35
 70
     1
102
RTVSPost2010Prop36
280
     0
102
RTVSPost2010PropOp36
 70
     1
102
RTVSPost2010Prop37
 90
       50
102
RTVSPost2010PropOp37
 70
     1
102
RTVSPost2010Prop38
140
0.0
102
RTVSPost2010PropOp38
 70
     1
102
RTVSPost2010Prop39
140
1.0
102
RTVSPost2010PropOp39
 70
     1
102
RTVSPost2010Prop40
 90
        0
102
RTVSPost2010PropOp40
 70
     1
102
RTVSPost2010Prop41ColorIndex
 90
       18
102
RTVSPost2010Prop41ColorRGB
 90
        0
102
RTVSPost2010PropOp41
 70
     1
102
RTVSPost2010Prop42
 90
       50
102
RTVSPost2010PropOp42
 70
     1
102
RTVSPost2010Prop43
 90
        3
102
RTVSPost2010PropOp43
 70
     1
102
RTVSPost2010Prop44ColorIndex
 90
        5
102
RTVSPost2010Prop44ColorRGB
 90
      255
102
RTVSPost2010PropOp44
 70
     1
102
RTVSPost2010Prop45
280
     0
102
RTVSPost2010PropOp45
 70
     1
102
RTVSPost2010Prop46
 90
       50
102
RTVSPost2010PropOp46
 70
     1
102
RTVSPost2010Prop47
 90
       50
102
RTVSPost2010PropOp47
 70
     1
102
RTVSPost2010Prop48
 90
       50
102
RTVSPost2010PropOp48
 70
     1
102
RTVSPost2010Prop49
280
     0
102
RTVSPost2010PropOp49
 70
     1
102
RTVSPost2010Prop50
 90
       50
102
RTVSPost2010PropOp50
 70
     1
102
RTVSPost2010Prop51ColorIndex
 90
      256
102
RTVSPost2010Prop51ColorRGB
 90
-16777216
102
RTVSPost2010PropOp51
 70
     0
102
RTVSPost2010Prop52
140
1.0
102
RTVSPost2010PropOp52
 70
     0
102
RTVSPost2010Prop53
 90
        2
102
RTVSPost2010PropOp53
 70
     1
102
RTVSPost2010Prop54
  1
strokes_ogs.tif
102
RTVSPost2010PropOp54
 70
     1
102
RTVSPost2010Prop55
280
     0
102
RTVSPost2010PropOp55
 70
     1
102
RTVSPost2010Prop56
140
1.0
102
RTVSPost2010PropOp56
 70
     1
102
RTVSPost2010Prop57
140
1.0
102
RTVSPost2010PropOp57
 70
     1
102
RTVSPropertyOp0
 70
     1
102
RTVSPropertyOp1
 70
     1
102
RTVSPropertyOp2
 70
     1
102
RTVSPropertyOp3
 70
     1
102
RTVSPropertyOp4
 70
     1
102
RTVSPropertyOp5
 70
     1
102
RTVSPropertyOp6
 70
     1
102
RTVSPropertyOp7
 70
     1
102
RTVSPropertyOp8
 70
     1
102
RTVSPropertyOp9
 70
     1
102
RTVSPropertyOp10
 70
     1
102
RTVSPropertyOp11
 70
     1
102
RTVSPropertyOp12
 70
     1
102
RTVSPropertyOp13
 70
     1
102
RTVSPropertyOp14
 70
     1
102
RTVSPropertyOp15
 70
     1
102
RTVSPropertyOp16
 70
     1
102
RTVSPropertyOp17
 70
     1
102
RTVSPropertyOp18
 70
     1
102
RTVSPropertyOp19
 70
     1
102
RTVSPropertyOp20
 70
     1
102
RTVSPropertyOp21
 70
     1
102
RTVSPropertyOp22
 70
     1
102
RTVSPropertyOp23
 70
     1
102
RTVSPropertyOp24
 70
     1
102
RTVSPropertyOp25
 70
     1
102
RTVSPropertyOp26
 70
     1
102
RTVSPropertyOp27
 70
     1
102
RTVSPropertyOp28
 70
     1
102
RTVSPropertyOp29
 70
     1
102
RTVSPropertyOp30
 70
     1
102
RTVSPropertyOp31
 70
     1
102
RTVSPropertyOp32
 70
     1
102
RTVSPropertyOp33
 70
     1
102
RTVSPropertyOp34
 70
     1
102
RTVSPropertyOp35
 70
     1
102
RTVSPropertyOp36
 70
     1
102
RTVSPropertyOp37
 70
     1
102
RTVSPropertyOp38
 70
     1
102
RTVSPropertyOp39
 70
     1
102
RTVSPropertyOp40
 70
     1
102
RTVSPropertyOp41
 70
     1
102
RTVSPropertyOp42
 70
     1
102
RTVSPropertyOp43
 70
     1
102
RTVSPropertyOp44
 70
     1
102
RTVSPropertyOp45
 70
     1
102
RTVSPropertyOp46
 70
     1
102
RTVSPropertyOp47
 70
     1
102
RTVSPropertyOp48
 70
     1
102
RTVSPropertyOp49
 70
     1
102
RTVSPropertyOp50
 70
     1
102
RTVSPropertyOp51
 70
     0
102
RTVSPropertyOp52
 70
     0
102
RTVSPropertyOp53
 70
     1
102
RTVSPropertyOp54
 70
     1
102
RTVSPropertyOp55
 70
     1
102
RTVSPropertyOp56
 70
     1
102
RTVSPropertyOp57
 70
     1
102
RTVSPropertyOp58
 70
     1
102
RTVSPropertyOp59
 70
     1
102
RTVSPropertyOp60
 70
     1
102
RTVSPropertyOp61
 70
     1
102
RTVSPropertyOp62
 70
     1
  0
XRECORD
  5
A0E4
102
{ACAD_REACTORS
330
A0E3
102
}
330
A0E3
100
AcDbXrecord
280
     1
102
RTVSPost2010Prop28
280
     0
102
RTVSPost2010PropOp28
 70
     1
102
RTVSPost2010Prop29
280
     1
102
RTVSPost2010PropOp29
 70
     1
102
RTVSPost2010Prop30
280
     1
102
RTVSPost2010PropOp30
 70
     1
102
RTVSPost2010Prop31
280
     0
102
RTVSPost2010PropOp31
 70
     1
102
RTVSPost2010Prop32
280
     0
102
RTVSPost2010PropOp32
 70
     1
102
RTVSPost2010Prop33
280
     0
102
RTVSPost2010PropOp33
 70
     1
102
RTVSPost2010Prop34
280
     0
102
RTVSPost2010PropOp34
 70
     1
102
RTVSPost2010Prop35
280
     0
102
RTVSPost2010PropOp35
 70
     1
102
RTVSPost2010Prop36
280
     0
102
RTVSPost2010PropOp36
 70
     1
102
RTVSPost2010Prop37
 90
       50
102
RTVSPost2010PropOp37
 70
     1
102
RTVSPost2010Prop38
140
0.0
102
RTVSPost2010PropOp38
 70
     1
102
RTVSPost2010Prop39
140
1.0
102
RTVSPost2010PropOp39
 70
     1
102
RTVSPost2010Prop40
 90
        0
102
RTVSPost2010PropOp40
 70
     1
102
RTVSPost2010Prop41ColorIndex
 90
       18
102
RTVSPost2010Prop41ColorRGB
 90
        0
102
RTVSPost2010PropOp41
 70
     1
102
RTVSPost2010Prop42
 90
       50
102
RTVSPost2010PropOp42
 70
     1
102
RTVSPost2010Prop43
 90
        3
102
RTVSPost2010PropOp43
 70
     1
102
RTVSPost2010Prop44ColorIndex
 90
        5
102
RTVSPost2010Prop44ColorRGB
 90
      255
102
RTVSPost2010PropOp44
 70
     1
102
RTVSPost2010Prop45
280
     0
102
RTVSPost2010PropOp45
 70
     1
102
RTVSPost2010Prop46
 90
       50
102
RTVSPost2010PropOp46
 70
     1
102
RTVSPost2010Prop47
 90
       50
102
RTVSPost2010PropOp47
 70
     1
102
RTVSPost2010Prop48
 90
       50
102
RTVSPost2010PropOp48
 70
     1
102
RTVSPost2010Prop49
280
     0
102
RTVSPost2010PropOp49
 70
     1
102
RTVSPost2010Prop50
 90
       50
102
RTVSPost2010PropOp50
 70
     1
102
RTVSPost2010Prop51ColorIndex
 90
      256
102
RTVSPost2010Prop51ColorRGB
 90
-16777216
102
RTVSPost2010PropOp51
 70
     0
102
RTVSPost2010Prop52
140
1.0
102
RTVSPost2010PropOp52
 70
     0
102
RTVSPost2010Prop53
 90
        2
102
RTVSPost2010PropOp53
 70
     1
102
RTVSPost2010Prop54
  1
strokes_ogs.tif
102
RTVSPost2010PropOp54
 70
     1
102
RTVSPost2010Prop55
280
     0
102
RTVSPost2010PropOp55
 70
     1
102
RTVSPost2010Prop56
140
1.0
102
RTVSPost2010PropOp56
 70
     1
102
RTVSPost2010Prop57
140
1.0
102
RTVSPost2010PropOp57
 70
     1
102
RTVSPropertyOp0
 70
     1
102
RTVSPropertyOp1
 70
     1
102
RTVSPropertyOp2
 70
     1
102
RTVSPropertyOp3
 70
     1
102
RTVSPropertyOp4
 70
     1
102
RTVSPropertyOp5
 70
     1
102
RTVSPropertyOp6
 70
     1
102
RTVSPropertyOp7
 70
     1
102
RTVSPropertyOp8
 70
     1
102
RTVSPropertyOp9
 70
     1
102
RTVSPropertyOp10
 70
     1
102
RTVSPropertyOp11
 70
     1
102
RTVSPropertyOp12
 70
     1
102
RTVSPropertyOp13
 70
     1
102
RTVSPropertyOp14
 70
     1
102
RTVSPropertyOp15
 70
     1
102
RTVSPropertyOp16
 70
     1
102
RTVSPropertyOp17
 70
     1
102
RTVSPropertyOp18
 70
     1
102
RTVSPropertyOp19
 70
     1
102
RTVSPropertyOp20
 70
     1
102
RTVSPropertyOp21
 70
     1
102
RTVSPropertyOp22
 70
     1
102
RTVSPropertyOp23
 70
     1
102
RTVSPropertyOp24
 70
     1
102
RTVSPropertyOp25
 70
     1
102
RTVSPropertyOp26
 70
     1
102
RTVSPropertyOp27
 70
     1
102
RTVSPropertyOp28
 70
     1
102
RTVSPropertyOp29
 70
     1
102
RTVSPropertyOp30
 70
     1
102
RTVSPropertyOp31
 70
     1
102
RTVSPropertyOp32
 70
     1
102
RTVSPropertyOp33
 70
     1
102
RTVSPropertyOp34
 70
     1
102
RTVSPropertyOp35
 70
     1
102
RTVSPropertyOp36
 70
     1
102
RTVSPropertyOp37
 70
     1
102
RTVSPropertyOp38
 70
     1
102
RTVSPropertyOp39
 70
     1
102
RTVSPropertyOp40
 70
     1
102
RTVSPropertyOp41
 70
     1
102
RTVSPropertyOp42
 70
     1
102
RTVSPropertyOp43
 70
     1
102
RTVSPropertyOp44
 70
     1
102
RTVSPropertyOp45
 70
     1
102
RTVSPropertyOp46
 70
     1
102
RTVSPropertyOp47
 70
     1
102
RTVSPropertyOp48
 70
     1
102
RTVSPropertyOp49
 70
     1
102
RTVSPropertyOp50
 70
     1
102
RTVSPropertyOp51
 70
     0
102
RTVSPropertyOp52
 70
     0
102
RTVSPropertyOp53
 70
     1
102
RTVSPropertyOp54
 70
     1
102
RTVSPropertyOp55
 70
     1
102
RTVSPropertyOp56
 70
     1
102
RTVSPropertyOp57
 70
     1
102
RTVSPropertyOp58
 70
     1
102
RTVSPropertyOp59
 70
     1
102
RTVSPropertyOp60
 70
     1
102
RTVSPropertyOp61
 70
     1
102
RTVSPropertyOp62
 70
     1
  0
ENDSEC
  0
EOF
