  0
SECTION
  2
HEADER
  9
$ACADVER
  1
AC1015
  9
$ACADMAINTVER
 70
    20
  9
$DWGCODEPAGE
  3
ANSI_932
  9
$INSBASE
 10
0.0
 20
0.0
 30
0.0
  9
$EXTMIN
 10
10.0
 20
9.999999999999998
 30
0.0
  9
$EXTMAX
 10
404.3489398151142
 20
318.6314225517576
 30
0.0
  9
$LIMMIN
 10
0.0
 20
0.0
  9
$LIMMAX
 10
494.9999999638298
 20
341.2499998956191
  9
$ORTHOMODE
 70
     0
  9
$REGENMODE
 70
     1
  9
$FILLMODE
 70
     1
  9
$QTEXTMODE
 70
     0
  9
$MIRRTEXT
 70
     1
  9
$LTSCALE
 40
20.0
  9
$ATTMODE
 70
     1
  9
$TEXTSIZE
 40
5.0
  9
$TRACEWID
 40
1.0
  9
$TEXTSTYLE
  7
STANDARD
  9
$CLAYER
  8
0
  9
$CELTYPE
  6
BYLAYER
  9
$CECOLOR
 62
   256
  9
$CELTSCALE
 40
1.0
  9
$DISPSILH
 70
     0
  9
$DIMSCALE
 40
1.0
  9
$DIMASZ
 40
2.5
  9
$DIMEXO
 40
1.0
  9
$DIMDLI
 40
10.0
  9
$DIMRND
 40
0.0
  9
$DIMDLE
 40
0.0
  9
$DIMEXE
 40
1.0
  9
$DIMTP
 40
0.0
  9
$DIMTM
 40
0.0
  9
$DIMTXT
 40
3.2
  9
$DIMCEN
 40
0.0
  9
$DIMTSZ
 40
0.0
  9
$DIMTOL
 70
     0
  9
$DIMLIM
 70
     0
  9
$DIMTIH
 70
     0
  9
$DIMTOH
 70
     0
  9
$DIMSE1
 70
     0
  9
$DIMSE2
 70
     0
  9
$DIMTAD
 70
     3
  9
$DIMZIN
 70
     8
  9
$DIMBLK
  1

  9
$DIMASO
 70
     1
  9
$DIMSHO
 70
     1
  9
$DIMPOST
  1

  9
$DIMAPOST
  1

  9
$DIMALT
 70
     0
  9
$DIMALTD
 70
     2
  9
$DIMALTF
 40
25.4
  9
$DIMLFAC
 40
1.0
  9
$DIMTOFL
 70
     1
  9
$DIMTVP
 40
0.0
  9
$DIMTIX
 70
     0
  9
$DIMSOXD
 70
     0
  9
$DIMSAH
 70
     1
  9
$DIMBLK1
  1

  9
$DIMBLK2
  1

  9
$DIMSTYLE
  2
STANDARD
  9
$DIMCLRD
 70
     0
  9
$DIMCLRE
 70
     0
  9
$DIMCLRT
 70
     0
  9
$DIMTFAC
 40
1.0
  9
$DIMGAP
 40
1.0
  9
$DIMJUST
 70
     0
  9
$DIMSD1
 70
     0
  9
$DIMSD2
 70
     0
  9
$DIMTOLJ
 70
     1
  9
$DIMTZIN
 70
     0
  9
$DIMALTZ
 70
     0
  9
$DIMALTTZ
 70
     0
  9
$DIMUPT
 70
     0
  9
$DIMDEC
 70
     4
  9
$DIMTDEC
 70
     4
  9
$DIMALTU
 70
     2
  9
$DIMALTTD
 70
     2
  9
$DIMTXSTY
  7
STANDARD
  9
$DIMAUNIT
 70
     0
  9
$DIMADEC
 70
     0
  9
$DIMALTRND
 40
0.0
  9
$DIMAZIN
 70
     0
  9
$DIMDSEP
 70
    46
  9
$DIMATFIT
 70
     3
  9
$DIMFRAC
 70
     0
  9
$DIMLDRBLK
  1

  9
$DIMLUNIT
 70
     2
  9
$DIMLWD
 70
    -2
  9
$DIMLWE
 70
    -2
  9
$DIMTMOVE
 70
     0
  9
$LUNITS
 70
     2
  9
$LUPREC
 70
     4
  9
$SKETCHINC
 40
1.0
  9
$FILLETRAD
 40
5.0
  9
$AUNITS
 70
     0
  9
$AUPREC
 70
     2
  9
$MENU
  1
.
  9
$ELEVATION
 40
0.0
  9
$PELEVATION
 40
0.0
  9
$THICKNESS
 40
0.0
  9
$LIMCHECK
 70
     0
  9
$CHAMFERA
 40
10.0
  9
$CHAMFERB
 40
10.0
  9
$CHAMFERC
 40
0.0
  9
$CHAMFERD
 40
0.0
  9
$SKPOLY
 70
     0
  9
$TDCREATE
 40
2451301.456712963
  9
$TDUCREATE
 40
2451301.081712963
  9
$TDUPDATE
 40
2457192.690231377
  9
$TDUUPDATE
 40
2457192.315231377
  9
$TDINDWG
 40
0.0997505324
  9
$TDUSRTIMER
 40
0.0997502199
  9
$USRTIMER
 70
     1
  9
$ANGBASE
 50
0.0
  9
$ANGDIR
 70
     0
  9
$PDMODE
 70
     0
  9
$PDSIZE
 40
0.0
  9
$PLINEWID
 40
0.0
  9
$SPLFRAME
 70
     0
  9
$SPLINETYPE
 70
     6
  9
$SPLINESEGS
 70
     8
  9
$HANDSEED
  5
98CD
  9
$SURFTAB1
 70
     6
  9
$SURFTAB2
 70
     6
  9
$SURFTYPE
 70
     6
  9
$SURFU
 70
     6
  9
$SURFV
 70
     6
  9
$UCSBASE
  2

  9
$UCSNAME
  2

  9
$UCSORG
 10
0.0
 20
0.0
 30
0.0
  9
$UCSXDIR
 10
1.0
 20
0.0
 30
0.0
  9
$UCSYDIR
 10
0.0
 20
1.0
 30
0.0
  9
$UCSORTHOREF
  2

  9
$UCSORTHOVIEW
 70
     0
  9
$UCSORGTOP
 10
0.0
 20
0.0
 30
0.0
  9
$UCSORGBOTTOM
 10
0.0
 20
0.0
 30
0.0
  9
$UCSORGLEFT
 10
0.0
 20
0.0
 30
0.0
  9
$UCSORGRIGHT
 10
0.0
 20
0.0
 30
0.0
  9
$UCSORGFRONT
 10
0.0
 20
0.0
 30
0.0
  9
$UCSORGBACK
 10
0.0
 20
0.0
 30
0.0
  9
$PUCSBASE
  2

  9
$PUCSNAME
  2

  9
$PUCSORG
 10
0.0
 20
0.0
 30
0.0
  9
$PUCSXDIR
 10
1.0
 20
0.0
 30
0.0
  9
$PUCSYDIR
 10
0.0
 20
1.0
 30
0.0
  9
$PUCSORTHOREF
  2

  9
$PUCSORTHOVIEW
 70
     0
  9
$PUCSORGTOP
 10
0.0
 20
0.0
 30
0.0
  9
$PUCSORGBOTTOM
 10
0.0
 20
0.0
 30
0.0
  9
$PUCSORGLEFT
 10
0.0
 20
0.0
 30
0.0
  9
$PUCSORGRIGHT
 10
0.0
 20
0.0
 30
0.0
  9
$PUCSORGFRONT
 10
0.0
 20
0.0
 30
0.0
  9
$PUCSORGBACK
 10
0.0
 20
0.0
 30
0.0
  9
$USERI1
 70
     0
  9
$USERI2
 70
     0
  9
$USERI3
 70
     0
  9
$USERI4
 70
     0
  9
$USERI5
 70
     0
  9
$USERR1
 40
0.0
  9
$USERR2
 40
0.0
  9
$USERR3
 40
0.0
  9
$USERR4
 40
0.0
  9
$USERR5
 40
0.0
  9
$WORLDVIEW
 70
     1
  9
$SHADEDGE
 70
     3
  9
$SHADEDIF
 70
    70
  9
$TILEMODE
 70
     1
  9
$MAXACTVP
 70
    16
  9
$PINSBASE
 10
0.0
 20
0.0
 30
0.0
  9
$PLIMCHECK
 70
     0
  9
$PEXTMIN
 10
1.000000000000000E+20
 20
1.000000000000000E+20
 30
1.000000000000000E+20
  9
$PEXTMAX
 10
-1.000000000000000E+20
 20
-1.000000000000000E+20
 30
-1.000000000000000E+20
  9
$PLIMMIN
 10
0.0
 20
0.0
  9
$PLIMMAX
 10
420.0
 20
297.0
  9
$UNITMODE
 70
     0
  9
$VISRETAIN
 70
     0
  9
$PLINEGEN
 70
     0
  9
$PSLTSCALE
 70
     0
  9
$TREEDEPTH
 70
  3020
  9
$CMLSTYLE
  2
STANDARD
  9
$CMLJUST
 70
     0
  9
$CMLSCALE
 40
1.0
  9
$PROXYGRAPHICS
 70
     1
  9
$MEASUREMENT
 70
     0
  9
$CELWEIGHT
370
    -1
  9
$ENDCAPS
280
     0
  9
$JOINSTYLE
280
     0
  9
$LWDISPLAY
290
     0
  9
$INSUNITS
 70
     0
  9
$HYPERLINKBASE
  1

  9
$STYLESHEET
  1

  9
$XEDIT
290
     1
  9
$CEPSNTYPE
380
     0
  9
$PSTYLEMODE
290
     1
  9
$FINGERPRINTGUID
  2
{F2C7A3EB-C886-4A9C-8043-A150F3ADE241}
  9
$VERSIONGUID
  2
{BAEEC8C6-4F70-4136-9DD1-55B42166756E}
  9
$EXTNAMES
290
     1
  9
$PSVPSCALE
 40
0.0
  9
$OLESTARTUP
290
     0
  0
ENDSEC
  0
SECTION
  2
CLASSES
  0
CLASS
  1
ACDBDICTIONARYWDFLT
  2
AcDbDictionaryWithDefault
  3
ObjectDBX Classes
 90
        0
280
     0
281
     0
  0
CLASS
  1
ACDBPLACEHOLDER
  2
AcDbPlaceHolder
  3
ObjectDBX Classes
 90
        0
280
     0
281
     0
  0
CLASS
  1
LAYOUT
  2
AcDbLayout
  3
ObjectDBX Classes
 90
        0
280
     0
281
     0
  0
CLASS
  1
DICTIONARYVAR
  2
AcDbDictionaryVar
  3
ObjectDBX Classes
 90
        0
280
     0
281
     0
  0
CLASS
  1
MATERIAL
  2
AcDbMaterial
  3
ObjectDBX Classes
 90
     1153
280
     0
281
     0
  0
CLASS
  1
VISUALSTYLE
  2
AcDbVisualStyle
  3
ObjectDBX Classes
 90
     4095
280
     0
281
     0
  0
CLASS
  1
TABLESTYLE
  2
AcDbTableStyle
  3
ObjectDBX Classes
 90
     4095
280
     0
281
     0
  0
CLASS
  1
SCALE
  2
AcDbScale
  3
ObjectDBX Classes
 90
     1153
280
     0
281
     0
  0
CLASS
  1
MLEADERSTYLE
  2
AcDbMLeaderStyle
  3
ACDB_MLEADERSTYLE_CLASS
 90
     4095
280
     0
281
     0
  0
CLASS
  1
ACDBSECTIONVIEWSTYLE
  2
AcDbSectionViewStyle
  3
ObjectDBX Classes
 90
     1025
280
     0
281
     0
  0
CLASS
  1
ACDBDETAILVIEWSTYLE
  2
AcDbDetailViewStyle
  3
ObjectDBX Classes
 90
     1025
280
     0
281
     0
  0
CLASS
  1
CELLSTYLEMAP
  2
AcDbCellStyleMap
  3
ObjectDBX Classes
 90
     1152
280
     0
281
     0
  0
ENDSEC
  0
SECTION
  2
TABLES
  0
TABLE
  2
VPORT
  5
962A
330
0
100
AcDbSymbolTable
 70
     1
  0
VPORT
  5
9818
330
962A
100
AcDbSymbolTableRecord
100
AcDbViewportTableRecord
  2
*ACTIVE
 70
     0
 10
0.0
 20
0.0
 11
1.0
 21
1.0
 12
325.9838649882269
 22
164.3114383437369
 13
0.0
 23
0.0
 14
10.0
 24
10.0
 15
10.0
 25
10.0
 16
0.0
 26
0.0
 36
1.0
 17
0.0
 27
0.0
 37
0.0
 40
311.0852855051011
 41
2.35006605019815
 42
50.0
 43
0.0
 44
0.0
 50
0.0
 51
0.0
 71
     0
 72
   100
 73
     1
 74
     0
 75
     0
 76
     0
 77
     0
 78
     0
281
     0
 65
     1
110
0.0
120
0.0
130
0.0
111
1.0
121
0.0
131
0.0
112
0.0
122
1.0
132
0.0
 79
     0
146
0.0
1001
ACAD_NAV_VCDISPLAY
1070
     3
  0
ENDTAB
  0
TABLE
  2
LTYPE
  5
9627
330
0
100
AcDbSymbolTable
 70
     4
  0
LTYPE
  5
9635
330
9627
100
AcDbSymbolTableRecord
100
AcDbLinetypeTableRecord
  2
BYBLOCK
 70
     0
  3

 72
    65
 73
     0
 40
0.0
  0
LTYPE
  5
9636
330
9627
100
AcDbSymbolTableRecord
100
AcDbLinetypeTableRecord
  2
BYLAYER
 70
     0
  3

 72
    65
 73
     0
 40
0.0
  0
LTYPE
  5
9637
330
9627
100
AcDbSymbolTableRecord
100
AcDbLinetypeTableRecord
  2
CONTINUOUS
 70
     0
  3
Solid line
 72
    65
 73
     0
 40
0.0
  0
LTYPE
  5
9645
330
9627
100
AcDbSymbolTableRecord
100
AcDbLinetypeTableRecord
  2
DASHED
 70
     0
  3
__ __ __ __ __ __ __ __ __ __ __ __ __ __ __ __
 72
    65
 73
     2
 40
0.75
 49
0.5
 74
     0
 49
-0.25
 74
     0
  0
LTYPE
  5
9646
330
9627
100
AcDbSymbolTableRecord
100
AcDbLinetypeTableRecord
  2
CENTER
 70
     0
  3
____ _ ____ _ ____ _ ____ _ ____ _ ____ _ ____ 
 72
    65
 73
     4
 40
2.0
 49
1.25
 74
     0
 49
-0.25
 74
     0
 49
0.25
 74
     0
 49
-0.25
 74
     0
  0
LTYPE
  5
9647
330
9627
100
AcDbSymbolTableRecord
100
AcDbLinetypeTableRecord
  2
PHANTOM
 70
     0
  3
______  __  __  ______  __  __  ______  __  __ 
 72
    65
 73
     6
 40
2.5
 49
1.25
 74
     0
 49
-0.25
 74
     0
 49
0.25
 74
     0
 49
-0.25
 74
     0
 49
0.25
 74
     0
 49
-0.25
 74
     0
  0
ENDTAB
  0
TABLE
  2
LAYER
  5
9624
330
0
100
AcDbSymbolTable
 70
     8
  0
LAYER
  5
9632
102
{ACAD_XDICTIONARY
360
9871
102
}
330
9624
100
AcDbSymbolTableRecord
100
AcDbLayerTableRecord
  2
0
 70
     0
 62
     7
  6
CONTINUOUS
370
    -3
390
981F
  0
LAYER
  5
9648
102
{ACAD_XDICTIONARY
360
9873
102
}
330
9624
100
AcDbSymbolTableRecord
100
AcDbLayerTableRecord
  2
4
 70
     0
 62
     1
  6
CENTER
370
    -3
390
981F
  0
LAYER
  5
9649
102
{ACAD_XDICTIONARY
360
9875
102
}
330
9624
100
AcDbSymbolTableRecord
100
AcDbLayerTableRecord
  2
5
 70
     0
 62
     6
  6
PHANTOM
370
    -3
390
981F
  0
LAYER
  5
964A
102
{ACAD_XDICTIONARY
360
9877
102
}
330
9624
100
AcDbSymbolTableRecord
100
AcDbLayerTableRecord
  2
1
 70
     0
 62
     7
  6
CONTINUOUS
370
    -3
390
981F
  0
LAYER
  5
964B
102
{ACAD_XDICTIONARY
360
9879
102
}
330
9624
100
AcDbSymbolTableRecord
100
AcDbLayerTableRecord
  2
2
 70
     0
 62
     4
  6
CONTINUOUS
370
    -3
390
981F
  0
LAYER
  5
964C
102
{ACAD_XDICTIONARY
360
987B
102
}
330
9624
100
AcDbSymbolTableRecord
100
AcDbLayerTableRecord
  2
3
 70
     0
 62
     2
  6
DASHED
370
    -3
390
981F
  0
LAYER
  5
964D
102
{ACAD_XDICTIONARY
360
987D
102
}
330
9624
100
AcDbSymbolTableRecord
100
AcDbLayerTableRecord
  2
6
 70
     0
 62
     5
  6
CONTINUOUS
370
    -3
390
981F
  0
LAYER
  5
964E
102
{ACAD_XDICTIONARY
360
987F
102
}
330
9624
100
AcDbSymbolTableRecord
100
AcDbLayerTableRecord
  2
7
 70
     0
 62
     3
  6
CONTINUOUS
370
    -3
390
981F
  0
ENDTAB
  0
TABLE
  2
STYLE
  5
9625
330
0
100
AcDbSymbolTable
 70
     1
  0
STYLE
  5
9633
330
9625
100
AcDbSymbolTableRecord
100
AcDbTextStyleTableRecord
  2
STANDARD
 70
     0
 40
0.0
 41
1.0
 50
0.0
 71
     0
 42
5.0
  3
txt
  4

  0
ENDTAB
  0
TABLE
  2
VIEW
  5
9628
330
0
100
AcDbSymbolTable
 70
     0
  0
ENDTAB
  0
TABLE
  2
UCS
  5
9629
330
0
100
AcDbSymbolTable
 70
     0
  0
ENDTAB
  0
TABLE
  2
APPID
  5
962B
330
0
100
AcDbSymbolTable
 70
     3
  0
APPID
  5
9634
330
962B
100
AcDbSymbolTableRecord
100
AcDbRegAppTableRecord
  2
ACAD
 70
     0
  0
APPID
  5
988B
330
962B
100
AcDbSymbolTableRecord
100
AcDbRegAppTableRecord
  2
ACAD_NAV_VCDISPLAY
 70
     0
  0
APPID
  5
98C4
330
962B
100
AcDbSymbolTableRecord
100
AcDbRegAppTableRecord
  2
ACAD_MLEADERVER
 70
     0
  0
ENDTAB
  0
TABLE
  2
DIMSTYLE
  5
962C
330
0
100
AcDbSymbolTable
 70
     1
100
AcDbDimStyleTable
 71
     0
  0
DIMSTYLE
105
9650
330
962C
100
AcDbSymbolTableRecord
100
AcDbDimStyleTableRecord
  2
STANDARD
 70
     0
 41
2.5
 42
1.0
 43
10.0
 44
1.0
 73
     0
 74
     0
 77
     3
 78
     8
140
3.2
141
0.0
147
1.0
172
     1
173
     1
284
     8
285
     8
286
     8
340
9633
  0
ENDTAB
  0
TABLE
  2
BLOCK_RECORD
  5
9623
330
0
100
AcDbSymbolTable
 70
     0
  0
BLOCK_RECORD
  5
9640
102
{ACAD_XDICTIONARY
360
97DC
102
}
330
9623
100
AcDbSymbolTableRecord
100
AcDbBlockTableRecord
  2
*MODEL_SPACE
340
986D
  0
BLOCK_RECORD
  5
963C
102
{ACAD_XDICTIONARY
360
97DA
102
}
330
9623
100
AcDbSymbolTableRecord
100
AcDbBlockTableRecord
  2
*PAPER_SPACE
340
986E
  0
ENDTAB
  0
ENDSEC
  0
SECTION
  2
BLOCKS
  0
BLOCK
  5
9641
330
9640
100
AcDbEntity
  8
0
100
AcDbBlockBegin
  2
*MODEL_SPACE
 70
     0
 10
0.0
 20
0.0
 30
0.0
  3
*MODEL_SPACE
  1

  0
ENDBLK
  5
9642
330
9640
100
AcDbEntity
  8
0
100
AcDbBlockEnd
  0
BLOCK
  5
963D
330
963C
100
AcDbEntity
 67
     1
  8
0
100
AcDbBlockBegin
  2
*PAPER_SPACE
 70
     0
 10
0.0
 20
0.0
 30
0.0
  3
*PAPER_SPACE
  1

  0
ENDBLK
  5
963E
330
963C
100
AcDbEntity
 67
     1
  8
0
100
AcDbBlockEnd
  0
ENDSEC
  0
SECTION
  2
ENTITIES
  0
TEXT
  5
9658
330
9640
100
AcDbEntity
  8
7
  6
Continuous
100
AcDbText
 10
10.0
 20
18.0
 30
0.0
 40
3.0
  1
TYPE No.TCA-420ER-R65
100
AcDbText
  0
TEXT
  5
9659
330
9640
100
AcDbEntity
  8
7
  6
Continuous
100
AcDbText
 10
10.0
 20
26.0
 30
0.0
 40
3.0
  1
CODE No.9790
100
AcDbText
  0
TEXT
  5
965A
330
9640
100
AcDbEntity
  8
1
  6
Continuous
100
AcDbText
 10
10.0
 20
10.0
 30
0.0
 40
1.399999999999999
  1
LAYER
100
AcDbText
  0
TEXT
  5
965B
330
9640
100
AcDbEntity
  8
1
  6
Continuous
100
AcDbText
 10
17.97951099999998
 20
10.04873699999998
 30
0.0
 40
1.399999999999999
  1
1
100
AcDbText
  0
TEXT
  5
965C
330
9640
100
AcDbEntity
  8
7
  6
Continuous
100
AcDbText
 10
29.97951099999999
 20
10.04873699999998
 30
0.0
 40
1.399999999999999
  1
7
100
AcDbText
  0
TEXT
  5
965D
330
9640
100
AcDbEntity
  8
4
  6
CENTER
100
AcDbText
 10
23.97951099999999
 20
10.04873699999998
 30
0.0
 40
1.399999999999999
  1
4
100
AcDbText
  0
TEXT
  5
965E
330
9640
100
AcDbEntity
  8
3
  6
DASHED
100
AcDbText
 10
21.979511
 20
10.04873699999998
 30
0.0
 40
1.399999999999999
  1
3
100
AcDbText
  0
TEXT
  5
965F
330
9640
100
AcDbEntity
  8
2
  6
Continuous
100
AcDbText
 10
19.97951099999998
 20
10.04873699999998
 30
0.0
 40
1.399999999999999
  1
2
100
AcDbText
  0
TEXT
  5
9660
330
9640
100
AcDbEntity
  8
6
  6
Continuous
100
AcDbText
 10
27.979511
 20
10.04873699999998
 30
0.0
 40
1.399999999999999
  1
6
100
AcDbText
  0
TEXT
  5
9661
330
9640
100
AcDbEntity
  8
5
  6
PHANTOM
100
AcDbText
 10
25.97951099999999
 20
10.04873699999998
 30
0.0
 40
1.399999999999999
  1
5
100
AcDbText
  0
LINE
  5
9662
330
9640
100
AcDbEntity
  8
4
  6
CENTER
 48
0.8
100
AcDbLine
 10
65.84893981511418
 20
226.7314225517576
 30
0.0
 11
65.84893981511418
 21
214.6957585517576
 31
0.0
  0
LINE
  5
9663
330
9640
100
AcDbEntity
  8
4
  6
CENTER
 48
0.8
100
AcDbLine
 10
51.84893981511418
 20
226.8234555517577
 30
0.0
 11
51.84893981511418
 21
134.7314225517576
 31
0.0
  0
LINE
  5
9664
330
9640
100
AcDbEntity
  8
1
  6
Continuous
100
AcDbLine
 10
30.8749398151142
 20
219.4314225517577
 30
0.0
 11
72.82294381511417
 21
219.4314225517577
 31
0.0
  0
LINE
  5
9665
330
9640
100
AcDbEntity
  8
1
  6
Continuous
100
AcDbLine
 10
30.8749398151142
 20
221.7314225517576
 30
0.0
 11
30.8749398151142
 21
219.4314225517577
 31
0.0
  0
LINE
  5
9666
330
9640
100
AcDbEntity
  8
1
  6
Continuous
100
AcDbLine
 10
38.84893981511419
 20
219.4314225517577
 30
0.0
 11
38.84893981511419
 21
164.7314225517576
 31
0.0
  0
LINE
  5
9667
330
9640
100
AcDbEntity
  8
1
  6
Continuous
100
AcDbLine
 10
64.84893981511418
 20
219.4314225517577
 30
0.0
 11
64.84893981511418
 21
164.7314225517576
 31
0.0
  0
LINE
  5
9668
330
9640
100
AcDbEntity
  8
1
  6
Continuous
100
AcDbLine
 10
36.54893981511418
 20
164.7314225517576
 30
0.0
 11
38.84893981511419
 21
164.7314225517576
 31
0.0
  0
LINE
  5
9669
330
9640
100
AcDbEntity
  8
1
  6
Continuous
100
AcDbLine
 10
67.14894281511418
 20
164.7314225517576
 30
0.0
 11
64.84893981511418
 21
164.7314225517576
 31
0.0
  0
LINE
  5
966A
330
9640
100
AcDbEntity
  8
4
  6
CENTER
 48
0.8
100
AcDbLine
 10
24.94893981511421
 20
172.2314225517576
 30
0.0
 11
74.64894281511416
 21
172.2314225517576
 31
0.0
  0
LINE
  5
966B
330
9640
100
AcDbEntity
  8
1
  6
Continuous
100
AcDbLine
 10
36.54893981511418
 20
217.4314225517577
 30
0.0
 11
36.54893981511418
 21
164.7314225517576
 31
0.0
  0
LINE
  5
966C
330
9640
100
AcDbEntity
  8
1
  6
Continuous
100
AcDbLine
 10
67.14894281511418
 20
217.4314225517577
 30
0.0
 11
67.14894281511418
 21
164.7314225517576
 31
0.0
  0
LINE
  5
966D
330
9640
100
AcDbEntity
  8
1
  6
Continuous
100
AcDbLine
 10
72.82293981511418
 20
221.7314225517576
 30
0.0
 11
72.82293981511418
 21
219.4314225517577
 31
0.0
  0
LINE
  5
966E
330
9640
100
AcDbEntity
  8
1
  6
Continuous
100
AcDbLine
 10
69.64894281511418
 20
175.7314225517577
 30
0.0
 11
69.64894281511418
 21
168.7314225517576
 31
0.0
  0
LINE
  5
966F
330
9640
100
AcDbEntity
  8
1
  6
Continuous
100
AcDbLine
 10
67.14894281511418
 20
177.7314225517576
 30
0.0
 11
67.6489428151142
 21
177.7314225517576
 31
0.0
  0
LINE
  5
9670
330
9640
100
AcDbEntity
  8
1
  6
Continuous
100
AcDbLine
 10
67.14894281511418
 20
166.7314225517576
 30
0.0
 11
67.6489428151142
 21
166.7314225517576
 31
0.0
  0
LINE
  5
9671
330
9640
100
AcDbEntity
  8
4
  6
CENTER
 48
0.8
100
AcDbLine
 10
37.84893981511419
 20
226.7314225517576
 30
0.0
 11
37.84893981511419
 21
214.6957585517576
 31
0.0
  0
LINE
  5
9672
330
9640
100
AcDbEntity
  8
1
  6
Continuous
100
AcDbLine
 10
30.8749398151142
 20
221.7314225517576
 30
0.0
 11
72.82294381511417
 21
221.7314225517576
 31
0.0
  0
LINE
  5
9673
330
9640
100
AcDbEntity
  8
1
  6
Continuous
100
AcDbLine
 10
121.8489588151141
 20
219.4314225517577
 30
0.0
 11
136.848943815114
 21
219.4314225517577
 31
0.0
  0
LINE
  5
9674
330
9640
100
AcDbEntity
  8
1
  6
Continuous
100
AcDbLine
 10
121.8489398151139
 20
219.4314345517576
 30
0.0
 11
121.8489398151139
 21
221.7314335517577
 31
0.0
  0
LINE
  5
9675
330
9640
100
AcDbEntity
  8
1
  6
Continuous
100
AcDbLine
 10
191.8489398151139
 20
219.4314115517577
 30
0.0
 11
191.8489398151139
 21
221.7314105517576
 31
0.0
  0
LINE
  5
9676
330
9640
100
AcDbEntity
  8
4
  6
CENTER
 48
0.8
100
AcDbLine
 10
156.848939815114
 20
226.7314225517576
 30
0.0
 11
156.848939815114
 21
134.7314225517576
 31
0.0
  0
LINE
  5
9677
330
9640
100
AcDbEntity
  8
4
  6
CENTER
 48
0.8
100
AcDbLine
 10
128.848939815114
 20
226.7314225517576
 30
0.0
 11
128.848939815114
 21
214.6957625517576
 31
0.0
  0
LINE
  5
9678
330
9640
100
AcDbEntity
  8
1
  6
Continuous
100
AcDbLine
 10
176.8489478151141
 20
219.4314135517576
 30
0.0
 11
173.348943815114
 21
214.7314135517576
 31
0.0
  0
LINE
  5
9679
330
9640
100
AcDbEntity
  8
1
  6
Continuous
100
AcDbLine
 10
173.348954815114
 20
214.7314145517576
 30
0.0
 11
163.6895448151141
 21
170.2460745517577
 31
0.0
  0
LINE
  5
967A
330
9640
100
AcDbEntity
  8
1
  6
Continuous
100
AcDbLine
 10
136.848954815114
 20
219.4314185517577
 30
0.0
 11
140.3489518151141
 21
214.7314205517577
 31
0.0
  0
LINE
  5
967B
330
9640
100
AcDbEntity
  8
1
  6
Continuous
100
AcDbLine
 10
140.3489398151141
 20
214.7314295517575
 30
0.0
 11
150.0083388151139
 21
170.2460745517577
 31
0.0
  0
LINE
  5
967C
330
9640
100
AcDbEntity
  8
4
  6
CENTER
 48
0.8
100
AcDbLine
 10
194.348939815114
 20
172.2314225517576
 30
0.0
 11
119.348939815114
 21
172.2314225517576
 31
0.0
  0
LINE
  5
967D
330
9640
100
AcDbEntity
  8
4
  6
CENTER
 48
0.8
100
AcDbLine
 10
184.8489398151139
 20
226.7314225517576
 30
0.0
 11
184.8489398151139
 21
214.6957545517575
 31
0.0
  0
LINE
  5
967E
330
9640
100
AcDbEntity
  8
1
  6
Continuous
100
AcDbLine
 10
121.8489588151141
 20
221.7314225517576
 30
0.0
 11
191.8489588151141
 21
221.7314225517576
 31
0.0
  0
LINE
  5
967F
330
9640
100
AcDbEntity
  8
1
  6
Continuous
100
AcDbLine
 10
176.8489478151141
 20
219.4314225517577
 30
0.0
 11
191.8489588151141
 21
219.4314225517577
 31
0.0
  0
LINE
  5
9680
330
9640
100
AcDbEntity
  8
1
  6
Continuous
100
AcDbLine
 10
38.84893981511419
 20
175.4814225517577
 30
0.0
 11
39.84893981511419
 21
175.4814225517577
 31
0.0
  0
LINE
  5
9681
330
9640
100
AcDbEntity
  8
1
  6
Continuous
100
AcDbLine
 10
38.84893981511419
 20
168.9814225517576
 30
0.0
 11
39.84893981511419
 21
168.9814225517576
 31
0.0
  0
LINE
  5
9682
330
9640
100
AcDbEntity
  8
1
  6
Continuous
100
AcDbLine
 10
36.14893981511418
 20
177.8314205517576
 30
0.0
 11
32.94893981511416
 21
177.8314205517576
 31
0.0
  0
LINE
  5
9683
330
9640
100
AcDbEntity
  8
1
  6
Continuous
100
AcDbLine
 10
36.14893981511418
 20
175.2314225517576
 30
0.0
 11
32.94893981511416
 21
175.2314225517576
 31
0.0
  0
LINE
  5
9684
330
9640
100
AcDbEntity
  8
1
  6
Continuous
100
AcDbLine
 10
31.94893981511416
 20
176.0314255517576
 30
0.0
 11
31.94893981511416
 21
168.4314275517576
 31
0.0
  0
LINE
  5
9685
330
9640
100
AcDbEntity
  8
1
  6
Continuous
100
AcDbLine
 10
36.14893981511418
 20
166.6314245517576
 30
0.0
 11
32.94893981511416
 21
166.6314245517576
 31
0.0
  0
LINE
  5
9686
330
9640
100
AcDbEntity
  8
1
  6
Continuous
100
AcDbLine
 10
36.07213981511418
 20
169.2314225517576
 30
0.0
 11
32.94893981511416
 21
169.2314225517576
 31
0.0
  0
LINE
  5
9687
330
9640
100
AcDbEntity
  8
1
  6
Continuous
100
AcDbLine
 10
31.94894981511419
 20
168.4313465517577
 30
0.0
 11
32.94894981511419
 21
166.6314245517576
 31
0.0
  0
LINE
  5
9688
330
9640
100
AcDbEntity
  8
1
  6
Continuous
100
AcDbLine
 10
31.94893981511416
 20
176.0314525517577
 30
0.0
 11
32.94892981511418
 21
177.8314205517576
 31
0.0
  0
LINE
  5
9689
330
9640
100
AcDbEntity
  8
4
  6
CENTER
 48
0.8
100
AcDbLine
 10
156.848939815114
 20
318.6314225517576
 30
0.0
 11
156.848939815114
 21
268.9314195517577
 31
0.0
  0
LINE
  5
968A
330
9640
100
AcDbEntity
  8
4
  6
CENTER
 48
0.8
100
AcDbLine
 10
119.0733128151139
 20
291.7314225517577
 30
0.0
 11
194.9505248151139
 21
291.7314225517577
 31
0.0
  0
LINE
  5
968B
330
9640
100
AcDbEntity
  8
1
  6
Continuous
100
AcDbLine
 10
121.8489398151139
 20
309.2314225517577
 30
0.0
 11
121.8489398151139
 21
291.7314225517577
 31
0.0
  0
LINE
  5
968C
330
9640
100
AcDbEntity
  8
1
  6
Continuous
100
AcDbLine
 10
125.348939815114
 20
312.7314225517577
 30
0.0
 11
133.3489398151141
 21
312.7314225517577
 31
0.0
  0
LINE
  5
968D
330
9640
100
AcDbEntity
  8
1
  6
Continuous
100
AcDbLine
 10
141.8489398151141
 20
307.0314255517577
 30
0.0
 11
171.8489398151142
 21
307.0314255517577
 31
0.0
  0
LINE
  5
968E
330
9640
100
AcDbEntity
  8
1
  6
Continuous
100
AcDbLine
 10
137.8278398151139
 20
309.0597615517577
 30
0.0
 11
136.1637088151142
 21
311.3115765517575
 31
0.0
  0
LINE
  5
968F
330
9640
100
AcDbEntity
  8
4
  6
CENTER
 48
0.8
100
AcDbLine
 10
133.8489398151139
 20
305.7314225517576
 30
0.0
 11
123.8489398151139
 21
305.7314225517576
 31
0.0
  0
LINE
  5
9690
330
9640
100
AcDbEntity
  8
4
  6
CENTER
 48
0.8
100
AcDbLine
 10
128.848939815114
 20
310.7314225517577
 30
0.0
 11
128.848939815114
 21
300.7314225517575
 31
0.0
  0
LINE
  5
9691
330
9640
100
AcDbEntity
  8
1
  6
Continuous
100
AcDbLine
 10
191.8489398151139
 20
309.2314225517577
 30
0.0
 11
191.8489398151139
 21
291.7314225517577
 31
0.0
  0
LINE
  5
9692
330
9640
100
AcDbEntity
  8
1
  6
Continuous
100
AcDbLine
 10
188.3489398151141
 20
312.7314225517577
 30
0.0
 11
180.3489398151141
 21
312.7314225517577
 31
0.0
  0
LINE
  5
9693
330
9640
100
AcDbEntity
  8
1
  6
Continuous
100
AcDbLine
 10
175.8700348151141
 20
309.0597615517577
 30
0.0
 11
177.5341698151141
 21
311.3115845517577
 31
0.0
  0
LINE
  5
9694
330
9640
100
AcDbEntity
  8
4
  6
CENTER
 48
0.8
100
AcDbLine
 10
179.8489398151141
 20
305.7314225517576
 30
0.0
 11
189.8489398151139
 21
305.7314225517576
 31
0.0
  0
LINE
  5
9695
330
9640
100
AcDbEntity
  8
4
  6
CENTER
 48
0.8
100
AcDbLine
 10
184.8489398151139
 20
310.7314225517577
 30
0.0
 11
184.8489398151139
 21
300.7314225517575
 31
0.0
  0
LINE
  5
9696
330
9640
100
AcDbEntity
  8
1
  6
Continuous
100
AcDbLine
 10
121.8489398151139
 20
274.2314225517575
 30
0.0
 11
121.8489398151139
 21
291.7314225517577
 31
0.0
  0
LINE
  5
9697
330
9640
100
AcDbEntity
  8
1
  6
Continuous
100
AcDbLine
 10
125.348939815114
 20
270.7314225517577
 30
0.0
 11
133.3489398151141
 21
270.7314225517577
 31
0.0
  0
LINE
  5
9698
330
9640
100
AcDbEntity
  8
1
  6
Continuous
100
AcDbLine
 10
141.8489398151141
 20
276.4314235517577
 30
0.0
 11
171.8489428151141
 21
276.4314235517577
 31
0.0
  0
LINE
  5
9699
330
9640
100
AcDbEntity
  8
1
  6
Continuous
100
AcDbLine
 10
137.827844815114
 20
274.4030765517575
 30
0.0
 11
136.1637108151139
 21
272.1512565517575
 31
0.0
  0
LINE
  5
969A
330
9640
100
AcDbEntity
  8
4
  6
CENTER
 48
0.8
100
AcDbLine
 10
133.8489398151139
 20
277.7314225517575
 30
0.0
 11
123.8489398151139
 21
277.7314225517575
 31
0.0
  0
LINE
  5
969B
330
9640
100
AcDbEntity
  8
4
  6
CENTER
 48
0.8
100
AcDbLine
 10
128.848939815114
 20
272.7314225517577
 30
0.0
 11
128.848939815114
 21
282.7314225517575
 31
0.0
  0
LINE
  5
969C
330
9640
100
AcDbEntity
  8
1
  6
Continuous
100
AcDbLine
 10
191.8489398151139
 20
274.2314225517575
 30
0.0
 11
191.8489398151139
 21
291.7314225517577
 31
0.0
  0
LINE
  5
969D
330
9640
100
AcDbEntity
  8
1
  6
Continuous
100
AcDbLine
 10
188.3489398151141
 20
270.7314225517577
 30
0.0
 11
180.3489398151141
 21
270.7314225517577
 31
0.0
  0
LINE
  5
969E
330
9640
100
AcDbEntity
  8
1
  6
Continuous
100
AcDbLine
 10
175.8700308151142
 20
274.4030835517575
 30
0.0
 11
177.5341698151141
 21
272.1512565517575
 31
0.0
  0
LINE
  5
969F
330
9640
100
AcDbEntity
  8
4
  6
CENTER
 48
0.8
100
AcDbLine
 10
179.8489398151141
 20
277.7314225517575
 30
0.0
 11
189.8489398151139
 21
277.7314225517575
 31
0.0
  0
LINE
  5
96A0
330
9640
100
AcDbEntity
  8
4
  6
CENTER
 48
0.8
100
AcDbLine
 10
184.8489398151139
 20
272.7314225517577
 30
0.0
 11
184.8489398151139
 21
282.7314225517575
 31
0.0
  0
LINE
  5
96A1
330
9640
100
AcDbEntity
  8
1
  6
Continuous
100
AcDbLine
 10
159.3489398151142
 20
306.0314255517577
 30
0.0
 11
159.3489398151142
 21
303.7314225517576
 31
0.0
  0
LINE
  5
96A2
330
9640
100
AcDbEntity
  8
1
  6
Continuous
100
AcDbLine
 10
159.3489398151142
 20
277.4314195517577
 30
0.0
 11
159.3489398151142
 21
279.7314225517575
 31
0.0
  0
LINE
  5
96A3
330
9640
100
AcDbEntity
  8
1
  6
Continuous
100
AcDbLine
 10
154.3489398151141
 20
277.4314195517577
 30
0.0
 11
154.3489398151141
 21
279.7314225517575
 31
0.0
  0
LINE
  5
96A4
330
9640
100
AcDbEntity
  8
1
  6
Continuous
100
AcDbLine
 10
154.3489398151141
 20
277.9314195517575
 30
0.0
 11
159.3489398151142
 21
277.9314195517575
 31
0.0
  0
LINE
  5
96A5
330
9640
100
AcDbEntity
  8
1
  6
Continuous
100
AcDbLine
 10
154.3489398151141
 20
306.0314255517577
 30
0.0
 11
154.3489398151141
 21
303.7314225517576
 31
0.0
  0
LINE
  5
96A6
330
9640
100
AcDbEntity
  8
1
  6
Continuous
100
AcDbLine
 10
154.3489398151141
 20
305.5314255517575
 30
0.0
 11
159.3489398151142
 21
305.5314255517575
 31
0.0
  0
LINE
  5
96A7
330
9640
100
AcDbEntity
  8
1
  6
Continuous
100
AcDbLine
 10
159.3489398151142
 20
209.2314225517576
 30
0.0
 11
159.3489398151142
 21
220.7314225517577
 31
0.0
  0
LINE
  5
96A8
330
9640
100
AcDbEntity
  8
1
  6
Continuous
100
AcDbLine
 10
159.3489398151142
 20
220.2314215517576
 30
0.0
 11
154.3489398151141
 21
220.2314215517576
 31
0.0
  0
LINE
  5
96A9
330
9640
100
AcDbEntity
  8
1
  6
Continuous
100
AcDbLine
 10
154.3489398151141
 20
209.2314225517576
 30
0.0
 11
154.3489398151141
 21
220.7314225517577
 31
0.0
  0
LINE
  5
96AA
330
9640
100
AcDbEntity
  8
1
  6
Continuous
100
AcDbLine
 10
63.14894281511421
 20
216.4314215517577
 30
0.0
 11
63.14894281511421
 21
206.7314225517577
 31
0.0
  0
LINE
  5
96AB
330
9640
100
AcDbEntity
  8
1
  6
Continuous
100
AcDbLine
 10
40.54893681511418
 20
216.4314215517577
 30
0.0
 11
40.54893681511418
 21
206.7314225517577
 31
0.0
  0
LINE
  5
96AC
330
9640
100
AcDbEntity
  8
1
  6
Continuous
100
AcDbLine
 10
39.84893981511419
 20
162.4814225517576
 30
0.0
 11
39.84893981511419
 21
181.9814225517576
 31
0.0
  0
LINE
  5
96AD
330
9640
100
AcDbEntity
  8
1
  6
Continuous
100
AcDbLine
 10
41.34893981511418
 20
161.4814225517576
 30
0.0
 11
40.84893981511418
 21
161.4814225517576
 31
0.0
  0
LINE
  5
96AE
330
9640
100
AcDbEntity
  8
1
  6
Continuous
100
AcDbLine
 10
63.84893981511418
 20
162.4814225517576
 30
0.0
 11
63.84893981511418
 21
181.9814225517576
 31
0.0
  0
LINE
  5
96AF
330
9640
100
AcDbEntity
  8
1
  6
Continuous
100
AcDbLine
 10
62.34893981511419
 20
161.4814225517576
 30
0.0
 11
62.84893981511419
 21
161.4814225517576
 31
0.0
  0
LINE
  5
96B0
330
9640
100
AcDbEntity
  8
1
  6
Continuous
100
AcDbLine
 10
62.34893981511419
 20
201.7685665517577
 30
0.0
 11
62.34893981511419
 21
142.6942805517577
 31
0.0
  0
LINE
  5
96B1
330
9640
100
AcDbEntity
  8
1
  6
Continuous
100
AcDbLine
 10
62.34893981511419
 20
182.9814225517576
 30
0.0
 11
62.84893981511419
 21
182.9814225517576
 31
0.0
  0
LINE
  5
96B2
330
9640
100
AcDbEntity
  8
1
  6
Continuous
100
AcDbLine
 10
41.34893981511418
 20
201.7685665517577
 30
0.0
 11
41.34893981511418
 21
142.6942805517577
 31
0.0
  0
LINE
  5
96B3
330
9640
100
AcDbEntity
  8
1
  6
Continuous
100
AcDbLine
 10
41.34893981511418
 20
182.9814225517576
 30
0.0
 11
40.84893981511418
 21
182.9814225517576
 31
0.0
  0
LINE
  5
96B4
330
9640
100
AcDbEntity
  8
1
  6
Continuous
100
AcDbLine
 10
63.84893981511418
 20
175.4814225517577
 30
0.0
 11
64.84893981511418
 21
175.4814225517577
 31
0.0
  0
LINE
  5
96B5
330
9640
100
AcDbEntity
  8
1
  6
Continuous
100
AcDbLine
 10
63.84893981511418
 20
168.9814225517576
 30
0.0
 11
64.84893981511418
 21
168.9814225517576
 31
0.0
  0
ARC
  5
96B6
330
9640
100
AcDbEntity
  8
1
  6
Continuous
100
AcDbCircle
 10
68.84893981511417
 20
215.4314225517577
 30
0.0
 40
4.0
100
AcDbArc
 50
89.99998199999996
 51
179.9999599999999
  0
ARC
  5
96B7
330
9640
100
AcDbEntity
  8
1
  6
Continuous
100
AcDbCircle
 10
69.14894281511418
 20
217.4314225517577
 30
0.0
 40
2.0
100
AcDbArc
 50
89.99998199999996
 51
179.9999599999999
  0
ARC
  5
96B8
330
9640
100
AcDbEntity
  8
1
  6
Continuous
100
AcDbCircle
 10
67.6489428151142
 20
168.7314225517576
 30
0.0
 40
2.0
100
AcDbArc
 50
269.99998
 51
0.000014
  0
ARC
  5
96B9
330
9640
100
AcDbEntity
  8
1
  6
Continuous
100
AcDbCircle
 10
67.6489428151142
 20
175.7314225517577
 30
0.0
 40
2.0
100
AcDbArc
 50
0.000014
 51
89.99999599999998
  0
ARC
  5
96BA
330
9640
100
AcDbEntity
  8
1
  6
Continuous
100
AcDbCircle
 10
34.84893981511419
 20
215.4314225517577
 30
0.0
 40
4.0
100
AcDbArc
 50
0.000027
 51
90.00000900000001
  0
ARC
  5
96BB
330
9640
100
AcDbEntity
  8
1
  6
Continuous
100
AcDbCircle
 10
34.54893981511418
 20
217.4314225517577
 30
0.0
 40
2.0
100
AcDbArc
 50
0.000027
 51
90.00000900000001
  0
ARC
  5
96BC
330
9640
100
AcDbEntity
  8
1
  6
Continuous
100
AcDbCircle
 10
156.848939815114
 20
171.7314225517576
 30
0.0
 40
7.0
100
AcDbArc
 50
269.9999899999999
 51
347.7491499999999
  0
ARC
  5
96BD
330
9640
100
AcDbEntity
  8
1
  6
Continuous
100
AcDbCircle
 10
156.848939815114
 20
171.7314225517576
 30
0.0
 40
7.0
100
AcDbArc
 50
192.25085
 51
270.0000499999998
  0
CIRCLE
  5
96BE
330
9640
100
AcDbEntity
  8
1
  6
Continuous
100
AcDbCircle
 10
156.848939815114
 20
172.2314225517576
 30
0.0
 40
5.5
  0
ARC
  5
96BF
330
9640
100
AcDbEntity
  8
1
  6
Continuous
100
AcDbCircle
 10
34.23643981511418
 20
167.9314195517576
 30
0.0
 40
2.3125
100
AcDbArc
 50
325.79449
 51
34.20541
  0
ARC
  5
96C0
330
9640
100
AcDbEntity
  8
1
  6
Continuous
100
AcDbCircle
 10
25.0989398151142
 20
172.2314225517576
 30
0.0
 40
11.450001
100
AcDbArc
 50
344.8107199999999
 51
15.189285
  0
ARC
  5
96C1
330
9640
100
AcDbEntity
  8
1
  6
Continuous
100
AcDbCircle
 10
34.23643981511418
 20
176.5314255517577
 30
0.0
 40
2.3125
100
AcDbArc
 50
325.79455
 51
34.205461
  0
ARC
  5
96C2
330
9640
100
AcDbEntity
  8
1
  6
Continuous
100
AcDbCircle
 10
34.86143981511418
 20
176.5314255517577
 30
0.0
 40
2.312498999999998
100
AcDbArc
 50
145.7945499999999
 51
214.2054299999998
  0
ARC
  5
96C3
330
9640
100
AcDbEntity
  8
1
  6
Continuous
100
AcDbCircle
 10
43.99893381511418
 20
172.2314225517576
 30
0.0
 40
11.44999799999999
100
AcDbArc
 50
164.81073
 51
195.1892499999999
  0
ARC
  5
96C4
330
9640
100
AcDbEntity
  8
1
  6
Continuous
100
AcDbCircle
 10
34.86143981511418
 20
167.9314275517576
 30
0.0
 40
2.312498999999998
100
AcDbArc
 50
145.7945499999999
 51
214.2054299999998
  0
CIRCLE
  5
96C5
330
9640
100
AcDbEntity
  8
1
  6
Continuous
100
AcDbCircle
 10
156.848939815114
 20
291.7314225517577
 30
0.0
 40
5.5
  0
ARC
  5
96C6
330
9640
100
AcDbEntity
  8
1
  6
Continuous
100
AcDbCircle
 10
125.348939815114
 20
309.2314225517577
 30
0.0
 40
3.5
100
AcDbArc
 50
89.99998199999996
 51
179.9999599999999
  0
ARC
  5
96C7
330
9640
100
AcDbEntity
  8
1
  6
Continuous
100
AcDbCircle
 10
133.3489398151141
 20
309.2314225517577
 30
0.0
 40
3.5
100
AcDbArc
 50
36.465031
 51
89.99998199999996
  0
ARC
  5
96C8
330
9640
100
AcDbEntity
  8
1
  6
Continuous
100
AcDbCircle
 10
141.8489398151141
 20
312.0314255517577
 30
0.0
 40
5.0
100
AcDbArc
 50
216.46501
 51
270.00002
  0
CIRCLE
  5
96C9
330
9640
100
AcDbEntity
  8
1
  6
Continuous
100
AcDbCircle
 10
128.848939815114
 20
305.7314225517576
 30
0.0
 40
3.25
  0
ARC
  5
96CA
330
9640
100
AcDbEntity
  8
1
  6
Continuous
100
AcDbCircle
 10
188.3489398151141
 20
309.2314225517577
 30
0.0
 40
3.5
100
AcDbArc
 50
0.0
 51
89.99998199999996
  0
ARC
  5
96CB
330
9640
100
AcDbEntity
  8
1
  6
Continuous
100
AcDbCircle
 10
180.3489398151141
 20
309.2314225517577
 30
0.0
 40
3.5
100
AcDbArc
 50
89.99998199999996
 51
143.5349399999997
  0
ARC
  5
96CC
330
9640
100
AcDbEntity
  8
1
  6
Continuous
100
AcDbCircle
 10
171.8489398151142
 20
312.0314255517577
 30
0.0
 40
5.0
100
AcDbArc
 50
269.9999599999998
 51
323.5349699999998
  0
CIRCLE
  5
96CD
330
9640
100
AcDbEntity
  8
1
  6
Continuous
100
AcDbCircle
 10
184.8489398151139
 20
305.7314225517576
 30
0.0
 40
3.25
  0
ARC
  5
96CE
330
9640
100
AcDbEntity
  8
1
  6
Continuous
100
AcDbCircle
 10
125.348939815114
 20
274.2314225517575
 30
0.0
 40
3.5
100
AcDbArc
 50
179.9999799999999
 51
269.99997
  0
ARC
  5
96CF
330
9640
100
AcDbEntity
  8
1
  6
Continuous
100
AcDbCircle
 10
133.3489398151141
 20
274.2314225517575
 30
0.0
 40
3.5
100
AcDbArc
 50
269.9999599999998
 51
323.53491
  0
ARC
  5
96D0
330
9640
100
AcDbEntity
  8
1
  6
Continuous
100
AcDbCircle
 10
141.8489398151141
 20
271.4314195517577
 30
0.0
 40
5.0
100
AcDbArc
 50
89.99992699999998
 51
143.5349399999997
  0
CIRCLE
  5
96D1
330
9640
100
AcDbEntity
  8
1
  6
Continuous
100
AcDbCircle
 10
128.848939815114
 20
277.7314225517575
 30
0.0
 40
3.25
  0
ARC
  5
96D2
330
9640
100
AcDbEntity
  8
1
  6
Continuous
100
AcDbCircle
 10
188.3489398151141
 20
274.2314225517575
 30
0.0
 40
3.5
100
AcDbArc
 50
269.9999599999998
 51
359.99995
  0
ARC
  5
96D3
330
9640
100
AcDbEntity
  8
1
  6
Continuous
100
AcDbCircle
 10
180.3489398151141
 20
274.2314225517575
 30
0.0
 40
3.5
100
AcDbArc
 50
216.46501
 51
269.9999599999998
  0
ARC
  5
96D4
330
9640
100
AcDbEntity
  8
1
  6
Continuous
100
AcDbCircle
 10
171.8489398151142
 20
271.4314195517577
 30
0.0
 40
5.0
100
AcDbArc
 50
36.464959
 51
89.99996800000003
  0
CIRCLE
  5
96D5
330
9640
100
AcDbEntity
  8
1
  6
Continuous
100
AcDbCircle
 10
184.8489398151139
 20
277.7314225517575
 30
0.0
 40
3.25
  0
ARC
  5
96D6
330
9640
100
AcDbEntity
  8
1
  6
Continuous
100
AcDbCircle
 10
153.3489398151139
 20
306.0314255517577
 30
0.0
 40
1.0
100
AcDbArc
 50
359.9999899999998
 51
89.99999599999998
  0
ARC
  5
96D7
330
9640
100
AcDbEntity
  8
1
  6
Continuous
100
AcDbCircle
 10
156.848939815114
 20
303.7314225517576
 30
0.0
 40
2.499998999999998
100
AcDbArc
 50
179.9999899999999
 51
0.00001
  0
ARC
  5
96D8
330
9640
100
AcDbEntity
  8
1
  6
Continuous
100
AcDbCircle
 10
160.3489398151141
 20
277.4314195517577
 30
0.0
 40
1.0
100
AcDbArc
 50
179.9999899999999
 51
270.0
  0
ARC
  5
96D9
330
9640
100
AcDbEntity
  8
1
  6
Continuous
100
AcDbCircle
 10
153.3489398151139
 20
277.4314195517577
 30
0.0
 40
1.0
100
AcDbArc
 50
270.0
 51
0.000005
  0
ARC
  5
96DA
330
9640
100
AcDbEntity
  8
1
  6
Continuous
100
AcDbCircle
 10
160.3489398151141
 20
306.0314255517577
 30
0.0
 40
1.0
100
AcDbArc
 50
89.99999599999998
 51
180.00001
  0
ARC
  5
96DB
330
9640
100
AcDbEntity
  8
1
  6
Continuous
100
AcDbCircle
 10
156.848939815114
 20
279.7314225517575
 30
0.0
 40
2.499998999999998
100
AcDbArc
 50
359.9999899999998
 51
180.00001
  0
ARC
  5
96DC
330
9640
100
AcDbEntity
  8
1
  6
Continuous
100
AcDbCircle
 10
160.3489398151141
 20
220.7314225517577
 30
0.0
 40
1.0
100
AcDbArc
 50
89.99999599999998
 51
180.00001
  0
ARC
  5
96DD
330
9640
100
AcDbEntity
  8
1
  6
Continuous
100
AcDbCircle
 10
153.3489398151139
 20
220.7314225517577
 30
0.0
 40
1.0
100
AcDbArc
 50
0.0
 51
90.00000300000001
  0
ARC
  5
96DE
330
9640
100
AcDbEntity
  8
1
  6
Continuous
100
AcDbCircle
 10
60.1489428151142
 20
216.4314215517577
 30
0.0
 40
3.0
100
AcDbArc
 50
0.0
 51
90.00000300000001
  0
ARC
  5
96DF
330
9640
100
AcDbEntity
  8
1
  6
Continuous
100
AcDbCircle
 10
43.54893681511418
 20
216.4314215517577
 30
0.0
 40
3.0
100
AcDbArc
 50
90.00000300000001
 51
180.00001
  0
ARC
  5
96E0
330
9640
100
AcDbEntity
  8
1
  6
Continuous
100
AcDbCircle
 10
156.848939815114
 20
209.2314225517576
 30
0.0
 40
2.5
100
AcDbArc
 50
179.9999899999999
 51
0.00001
  0
ARC
  5
96E1
330
9640
100
AcDbEntity
  8
1
  6
Continuous
100
AcDbCircle
 10
68.1489428151142
 20
206.7314225517577
 30
0.0
 40
5.0
100
AcDbArc
 50
179.9999899999999
 51
228.70007
  0
ARC
  5
96E2
330
9640
100
AcDbEntity
  8
1
  6
Continuous
100
AcDbCircle
 10
35.54893981511418
 20
206.7314225517577
 30
0.0
 40
5.0
100
AcDbArc
 50
311.2999199999998
 51
0.0
  0
ARC
  5
96E3
330
9640
100
AcDbEntity
  8
1
  6
Continuous
100
AcDbCircle
 10
156.848939815114
 20
172.2314225517576
 30
0.0
 40
10.74999999999998
100
AcDbArc
 50
143.6295199999999
 51
36.370439
  0
ARC
  5
96E4
330
9640
100
AcDbEntity
  8
1
  6
Continuous
100
AcDbCircle
 10
156.848939815114
 20
172.2314225517576
 30
0.0
 40
16.0
100
AcDbArc
 50
128.6186099999999
 51
51.381365
  0
ARC
  5
96E5
330
9640
100
AcDbEntity
  8
1
  6
Continuous
100
AcDbCircle
 10
156.848939815114
 20
172.2314225517576
 30
0.0
 40
25.0
100
AcDbArc
 50
118.7645
 51
61.23547
  0
ARC
  5
96E6
330
9640
100
AcDbEntity
  8
1
  6
Continuous
100
AcDbCircle
 10
156.848939815114
 20
172.2314225517576
 30
0.0
 40
32.5
100
AcDbArc
 50
114.88054
 51
65.119416
  0
ARC
  5
96E7
330
9640
100
AcDbEntity
  8
1
  6
Continuous
100
AcDbCircle
 10
51.84893981511418
 20
179.7314225517576
 30
0.0
 40
40.0
100
AcDbArc
 50
257.0745099999999
 51
282.9255359999999
  0
ARC
  5
96E8
330
9640
100
AcDbEntity
  8
1
  6
Continuous
100
AcDbCircle
 10
43.34893981511418
 20
142.6942825517576
 30
0.0
 40
2.0
100
AcDbArc
 50
180.0000399999998
 51
257.0745099999999
  0
ARC
  5
96E9
330
9640
100
AcDbEntity
  8
1
  6
Continuous
100
AcDbCircle
 10
60.34893981511419
 20
142.6942825517576
 30
0.0
 40
2.0
100
AcDbArc
 50
282.92545
 51
359.99995
  0
ARC
  5
96EA
330
9640
100
AcDbEntity
  8
1
  6
Continuous
100
AcDbCircle
 10
62.84893981511419
 20
162.4814225517576
 30
0.0
 40
1.0
100
AcDbArc
 50
269.9999599999998
 51
359.99995
  0
ARC
  5
96EB
330
9640
100
AcDbEntity
  8
1
  6
Continuous
100
AcDbCircle
 10
40.84893981511418
 20
162.4814225517576
 30
0.0
 40
1.0
100
AcDbArc
 50
180.0000399999998
 51
270.00002
  0
ARC
  5
96EC
330
9640
100
AcDbEntity
  8
1
  6
Continuous
100
AcDbCircle
 10
40.84893981511418
 20
181.9814225517576
 30
0.0
 40
1.0
100
AcDbArc
 50
89.99998199999996
 51
179.9999599999999
  0
ARC
  5
96ED
330
9640
100
AcDbEntity
  8
1
  6
Continuous
100
AcDbCircle
 10
62.84893981511419
 20
181.9814225517576
 30
0.0
 40
1.0
100
AcDbArc
 50
0.000055
 51
90.000037
  0
ARC
  5
96EE
330
9640
100
AcDbEntity
  8
1
  6
Continuous
100
AcDbCircle
 10
60.34893981511419
 20
201.7685665517577
 30
0.0
 40
2.0
100
AcDbArc
 50
0.000055
 51
77.074546
  0
ARC
  5
96EF
330
9640
100
AcDbEntity
  8
1
  6
Continuous
100
AcDbCircle
 10
43.34893981511418
 20
201.7685665517577
 30
0.0
 40
2.0
100
AcDbArc
 50
102.9254899999999
 51
179.9999599999999
  0
ARC
  5
96F0
330
9640
100
AcDbEntity
  8
1
  6
Continuous
100
AcDbCircle
 10
51.84893981511418
 20
164.7314225517576
 30
0.0
 40
40.0
100
AcDbArc
 50
77.07448599999998
 51
102.9254899999999
  0
CIRCLE
  5
96F1
330
9640
100
AcDbEntity
  8
1
  6
Continuous
100
AcDbCircle
 10
128.848939815114
 20
83.73142255175769
 30
0.0
 40
3.25
  0
LINE
  5
96F2
330
9640
100
AcDbEntity
  8
1
  6
Continuous
100
AcDbLine
 10
125.348939815114
 20
90.73142255175762
 30
0.0
 11
133.3489398151141
 21
90.73142255175762
 31
0.0
  0
CIRCLE
  5
96F3
330
9640
100
AcDbEntity
  8
1
  6
Continuous
100
AcDbCircle
 10
128.848939815114
 20
55.73142255175769
 30
0.0
 40
3.25
  0
LINE
  5
96F4
330
9640
100
AcDbEntity
  8
1
  6
Continuous
100
AcDbLine
 10
125.348939815114
 20
48.73142255175771
 30
0.0
 11
133.3489398151141
 21
48.73142255175771
 31
0.0
  0
LINE
  5
96F5
330
9640
100
AcDbEntity
  8
4
  6
CENTER
 48
0.8
100
AcDbLine
 10
133.8489398151139
 20
55.73142255175769
 30
0.0
 11
123.8489398151139
 21
55.73142255175769
 31
0.0
  0
LINE
  5
96F6
330
9640
100
AcDbEntity
  8
4
  6
CENTER
 48
0.8
100
AcDbLine
 10
133.8489398151139
 20
83.73142255175769
 30
0.0
 11
123.8489398151139
 21
83.73142255175769
 31
0.0
  0
LINE
  5
96F7
330
9640
100
AcDbEntity
  8
4
  6
CENTER
 48
0.8
100
AcDbLine
 10
116.848939815114
 20
69.73142255175767
 30
0.0
 11
196.8489398151142
 21
69.73142255175767
 31
0.0
  0
ARC
  5
96F8
330
9640
100
AcDbEntity
  8
1
  6
Continuous
100
AcDbCircle
 10
125.348939815114
 20
87.23142255175762
 30
0.0
 40
3.5
100
AcDbArc
 50
90.00003000000004
 51
180.00002
  0
LINE
  5
96F9
330
9640
100
AcDbEntity
  8
4
  6
CENTER
 48
0.8
100
AcDbLine
 10
128.848939815114
 20
88.73142255175762
 30
0.0
 11
128.848939815114
 21
78.7314225517577
 31
0.0
  0
ARC
  5
96FA
330
9640
100
AcDbEntity
  8
1
  6
Continuous
100
AcDbCircle
 10
125.348939815114
 20
52.23142255175769
 30
0.0
 40
3.5
100
AcDbArc
 50
180.0000399999998
 51
270.0000179999999
  0
LINE
  5
96FB
330
9640
100
AcDbEntity
  8
4
  6
CENTER
 48
0.8
100
AcDbLine
 10
128.848939815114
 20
50.7314225517577
 30
0.0
 11
128.848939815114
 21
60.73142255175769
 31
0.0
  0
LINE
  5
96FC
330
9640
100
AcDbEntity
  8
1
  6
Continuous
100
AcDbLine
 10
121.8489398151139
 20
52.23142255175769
 30
0.0
 11
121.8489398151139
 21
87.23142255175762
 31
0.0
  0
LINE
  5
96FD
330
9640
100
AcDbEntity
  8
4
  6
CENTER
 48
0.8
100
AcDbLine
 10
156.848939815114
 20
42.8314225517577
 30
0.0
 11
156.848939815114
 21
92.53142555175761
 31
0.0
  0
LINE
  5
96FE
330
9640
100
AcDbEntity
  8
1
  6
Continuous
100
AcDbLine
 10
171.8489398151142
 20
85.03142155175771
 30
0.0
 11
156.848939815114
 21
85.03142155175771
 31
0.0
  0
LINE
  5
96FF
330
9640
100
AcDbEntity
  8
1
  6
Continuous
100
AcDbLine
 10
141.8489398151141
 20
85.03142155175771
 30
0.0
 11
156.848939815114
 21
85.03142155175771
 31
0.0
  0
ARC
  5
9700
330
9640
100
AcDbEntity
  8
1
  6
Continuous
100
AcDbCircle
 10
133.3489398151141
 20
87.23142255175762
 30
0.0
 40
3.5
100
AcDbArc
 50
36.46509
 51
90.00004000000002
  0
LINE
  5
9701
330
9640
100
AcDbEntity
  8
1
  6
Continuous
100
AcDbLine
 10
137.827844815114
 20
87.05976855175752
 30
0.0
 11
136.1637108151139
 21
89.3115885517577
 31
0.0
  0
ARC
  5
9702
330
9640
100
AcDbEntity
  8
1
  6
Continuous
100
AcDbCircle
 10
141.8489398151141
 20
90.03142555175768
 30
0.0
 40
5.0
100
AcDbArc
 50
216.4650599999999
 51
270.0000729999998
  0
ARC
  5
9703
330
9640
100
AcDbEntity
  8
1
  6
Continuous
100
AcDbCircle
 10
180.3489398151141
 20
87.23142255175762
 30
0.0
 40
3.5
100
AcDbArc
 50
90.00004000000002
 51
143.53499
  0
LINE
  5
9704
330
9640
100
AcDbEntity
  8
1
  6
Continuous
100
AcDbLine
 10
175.8700308151142
 20
87.05976155175772
 30
0.0
 11
177.5341698151141
 21
89.3115885517577
 31
0.0
  0
ARC
  5
9705
330
9640
100
AcDbEntity
  8
1
  6
Continuous
100
AcDbCircle
 10
171.8489398151142
 20
90.03142555175768
 30
0.0
 40
5.0
100
AcDbArc
 50
270.000032
 51
323.5350409999998
  0
LINE
  5
9706
330
9640
100
AcDbEntity
  8
4
  6
CENTER
 48
0.8
100
AcDbLine
 10
179.8489398151141
 20
83.73142255175769
 30
0.0
 11
189.8489398151139
 21
83.73142255175769
 31
0.0
  0
ARC
  5
9707
330
9640
100
AcDbEntity
  8
1
  6
Continuous
100
AcDbCircle
 10
188.3489398151141
 20
87.23142255175762
 30
0.0
 40
3.5
100
AcDbArc
 50
0.00005
 51
90.00004000000002
  0
LINE
  5
9708
330
9640
100
AcDbEntity
  8
1
  6
Continuous
100
AcDbLine
 10
188.3489398151141
 20
90.73142255175762
 30
0.0
 11
180.3489398151141
 21
90.73142255175762
 31
0.0
  0
CIRCLE
  5
9709
330
9640
100
AcDbEntity
  8
1
  6
Continuous
100
AcDbCircle
 10
184.8489398151139
 20
83.73142255175769
 30
0.0
 40
3.25
  0
LINE
  5
970A
330
9640
100
AcDbEntity
  8
4
  6
CENTER
 48
0.8
100
AcDbLine
 10
184.8489398151139
 20
88.73142255175762
 30
0.0
 11
184.8489398151139
 21
78.7314225517577
 31
0.0
  0
LINE
  5
970B
330
9640
100
AcDbEntity
  8
1
  6
Continuous
100
AcDbLine
 10
171.8489398151142
 20
54.43141955175772
 30
0.0
 11
156.848939815114
 21
54.43141955175772
 31
0.0
  0
ARC
  5
970C
330
9640
100
AcDbEntity
  8
1
  6
Continuous
100
AcDbCircle
 10
133.3489398151141
 20
52.23142255175769
 30
0.0
 40
3.5
100
AcDbArc
 50
270.0000179999999
 51
323.534969
  0
LINE
  5
970D
330
9640
100
AcDbEntity
  8
1
  6
Continuous
100
AcDbLine
 10
141.8489398151141
 20
54.43141955175772
 30
0.0
 11
156.848939815114
 21
54.43141955175772
 31
0.0
  0
ARC
  5
970E
330
9640
100
AcDbEntity
  8
1
  6
Continuous
100
AcDbCircle
 10
141.8489398151141
 20
49.43141955175772
 30
0.0
 40
5.0
100
AcDbArc
 50
89.99997999999996
 51
143.53499
  0
LINE
  5
970F
330
9640
100
AcDbEntity
  8
1
  6
Continuous
100
AcDbLine
 10
137.8278398151139
 20
52.40308355175769
 30
0.0
 11
136.1637088151142
 21
50.15126855175771
 31
0.0
  0
ARC
  5
9710
330
9640
100
AcDbEntity
  8
1
  6
Continuous
100
AcDbCircle
 10
188.3489398151141
 20
52.23142255175769
 30
0.0
 40
3.5
100
AcDbArc
 50
270.0000179999999
 51
0.0
  0
ARC
  5
9711
330
9640
100
AcDbEntity
  8
1
  6
Continuous
100
AcDbCircle
 10
180.3489398151141
 20
52.23142255175769
 30
0.0
 40
3.5
100
AcDbArc
 50
216.4650599999999
 51
270.0000179999999
  0
ARC
  5
9712
330
9640
100
AcDbEntity
  8
1
  6
Continuous
100
AcDbCircle
 10
171.8489398151142
 20
49.43141955175772
 30
0.0
 40
5.0
100
AcDbArc
 50
36.46503
 51
90.00004000000002
  0
LINE
  5
9713
330
9640
100
AcDbEntity
  8
1
  6
Continuous
100
AcDbLine
 10
175.8700348151141
 20
52.40308355175769
 30
0.0
 11
177.5341698151141
 21
50.15126055175771
 31
0.0
  0
CIRCLE
  5
9714
330
9640
100
AcDbEntity
  8
1
  6
Continuous
100
AcDbCircle
 10
184.8489398151139
 20
55.73142255175769
 30
0.0
 40
3.25
  0
LINE
  5
9715
330
9640
100
AcDbEntity
  8
4
  6
CENTER
 48
0.8
100
AcDbLine
 10
184.8489398151139
 20
50.7314225517577
 30
0.0
 11
184.8489398151139
 21
60.73142255175769
 31
0.0
  0
LINE
  5
9716
330
9640
100
AcDbEntity
  8
4
  6
CENTER
 48
0.8
100
AcDbLine
 10
179.8489398151141
 20
55.73142255175769
 30
0.0
 11
189.8489398151139
 21
55.73142255175769
 31
0.0
  0
LINE
  5
9717
330
9640
100
AcDbEntity
  8
1
  6
Continuous
100
AcDbLine
 10
191.8489398151139
 20
52.23142255175769
 30
0.0
 11
191.8489398151139
 21
87.23142255175762
 31
0.0
  0
LINE
  5
9718
330
9640
100
AcDbEntity
  8
1
  6
Continuous
100
AcDbLine
 10
188.3489398151141
 20
48.73142255175771
 30
0.0
 11
180.3489398151141
 21
48.73142255175771
 31
0.0
  0
LINE
  5
9719
330
9640
100
AcDbEntity
  8
1
  6
Continuous
100
AcDbLine
 10
127.3117958151141
 20
59.23142255175768
 30
0.0
 11
186.3860818151141
 21
59.23142255175768
 31
0.0
  0
LINE
  5
971A
330
9640
100
AcDbEntity
  8
1
  6
Continuous
100
AcDbLine
 10
127.3117958151141
 20
80.23142255175772
 30
0.0
 11
186.3860818151141
 21
80.23142255175772
 31
0.0
  0
ARC
  5
971B
330
9640
100
AcDbEntity
  8
1
  6
Continuous
100
AcDbCircle
 10
149.3489398151139
 20
69.73142255175767
 30
0.0
 40
40.0
100
AcDbArc
 50
347.0745100000002
 51
12.925536
  0
ARC
  5
971C
330
9640
100
AcDbEntity
  8
1
  6
Continuous
100
AcDbCircle
 10
186.3860798151142
 20
61.23142255175769
 30
0.0
 40
2.0
100
AcDbArc
 50
270.0000399999999
 51
347.0745100000002
  0
ARC
  5
971D
330
9640
100
AcDbEntity
  8
1
  6
Continuous
100
AcDbCircle
 10
186.3860798151142
 20
78.2314225517577
 30
0.0
 40
2.0
100
AcDbArc
 50
12.92545
 51
89.99995000000001
  0
ARC
  5
971E
330
9640
100
AcDbEntity
  8
1
  6
Continuous
100
AcDbCircle
 10
153.3489398151139
 20
85.53142555175762
 30
0.0
 40
2.0
100
AcDbArc
 50
90.00001399999998
 51
179.999996
  0
ARC
  5
971F
330
9640
100
AcDbEntity
  8
1
  6
Continuous
100
AcDbCircle
 10
160.3489398151141
 20
85.53142555175762
 30
0.0
 40
2.0
100
AcDbArc
 50
359.9999799999998
 51
90.00001399999998
  0
LINE
  5
9720
330
9640
100
AcDbEntity
  8
1
  6
Continuous
100
AcDbLine
 10
166.5989398151141
 20
57.73142255175769
 30
0.0
 11
147.0989398151139
 21
57.73142255175769
 31
0.0
  0
LINE
  5
9721
330
9640
100
AcDbEntity
  8
1
  6
Continuous
100
AcDbLine
 10
166.5989398151141
 20
81.7314225517577
 30
0.0
 11
147.0989398151139
 21
81.7314225517577
 31
0.0
  0
ARC
  5
9722
330
9640
100
AcDbEntity
  8
1
  6
Continuous
100
AcDbCircle
 10
166.5989398151141
 20
58.73142255175769
 30
0.0
 40
1.0
100
AcDbArc
 50
270.0000399999999
 51
0.00002
  0
LINE
  5
9723
330
9640
100
AcDbEntity
  8
1
  6
Continuous
100
AcDbLine
 10
167.5989398151141
 20
59.23142255175768
 30
0.0
 11
167.5989398151141
 21
58.73142255175769
 31
0.0
  0
LINE
  5
9724
330
9640
100
AcDbEntity
  8
1
  6
Continuous
100
AcDbLine
 10
160.0989398151142
 20
56.73142255175768
 30
0.0
 11
160.0989398151142
 21
57.73142255175769
 31
0.0
  0
LINE
  5
9725
330
9640
100
AcDbEntity
  8
1
  6
Continuous
100
AcDbLine
 10
153.5989398151139
 20
56.73142255175768
 30
0.0
 11
153.5989398151139
 21
57.73142255175769
 31
0.0
  0
ARC
  5
9726
330
9640
100
AcDbEntity
  8
1
  6
Continuous
100
AcDbCircle
 10
166.5989398151141
 20
80.7314225517577
 30
0.0
 40
1.0
100
AcDbArc
 50
359.9999599999999
 51
89.99995000000001
  0
LINE
  5
9727
330
9640
100
AcDbEntity
  8
1
  6
Continuous
100
AcDbLine
 10
167.5989398151141
 20
80.23142255175772
 30
0.0
 11
167.5989398151141
 21
80.7314225517577
 31
0.0
  0
LINE
  5
9728
330
9640
100
AcDbEntity
  8
1
  6
Continuous
100
AcDbLine
 10
160.0989398151142
 20
81.7314225517577
 30
0.0
 11
160.0989398151142
 21
82.7314225517577
 31
0.0
  0
LINE
  5
9729
330
9640
100
AcDbEntity
  8
1
  6
Continuous
100
AcDbLine
 10
153.5989398151139
 20
81.7314225517577
 30
0.0
 11
153.5989398151139
 21
82.7314225517577
 31
0.0
  0
LINE
  5
972A
330
9640
100
AcDbEntity
  8
1
  6
Continuous
100
AcDbLine
 10
162.3489398151142
 20
85.03142555175761
 30
0.0
 11
162.3489398151142
 21
85.53142555175762
 31
0.0
  0
LINE
  5
972B
330
9640
100
AcDbEntity
  8
1
  6
Continuous
100
AcDbLine
 10
151.3489398151141
 20
85.03142555175761
 30
0.0
 11
151.3489398151141
 21
85.53142555175762
 31
0.0
  0
ARC
  5
972C
330
9640
100
AcDbEntity
  8
1
  6
Continuous
100
AcDbCircle
 10
147.0989398151139
 20
58.73142255175769
 30
0.0
 40
1.0
100
AcDbArc
 50
179.999982
 51
269.9999599999998
  0
LINE
  5
972D
330
9640
100
AcDbEntity
  8
1
  6
Continuous
100
AcDbLine
 10
146.0989398151139
 20
59.23142255175768
 30
0.0
 11
146.0989398151139
 21
58.73142255175769
 31
0.0
  0
ARC
  5
972E
330
9640
100
AcDbEntity
  8
1
  6
Continuous
100
AcDbCircle
 10
147.0989398151139
 20
80.7314225517577
 30
0.0
 40
1.0
100
AcDbArc
 50
90.00005499999994
 51
180.000037
  0
LINE
  5
972F
330
9640
100
AcDbEntity
  8
1
  6
Continuous
100
AcDbLine
 10
146.0989398151139
 20
80.23142255175772
 30
0.0
 11
146.0989398151139
 21
80.7314225517577
 31
0.0
  0
ARC
  5
9730
330
9640
100
AcDbEntity
  8
1
  6
Continuous
100
AcDbCircle
 10
164.3489398151142
 20
69.73142255175767
 30
0.0
 40
40.0
100
AcDbArc
 50
167.074486
 51
192.92549
  0
ARC
  5
9731
330
9640
100
AcDbEntity
  8
1
  6
Continuous
100
AcDbCircle
 10
127.3117958151141
 20
61.23142255175769
 30
0.0
 40
2.0
100
AcDbArc
 50
192.92549
 51
269.9999599999998
  0
ARC
  5
9732
330
9640
100
AcDbEntity
  8
1
  6
Continuous
100
AcDbCircle
 10
127.3117958151141
 20
78.2314225517577
 30
0.0
 40
2.0
100
AcDbArc
 50
90.00005499999994
 51
167.074546
  0
LINE
  5
9733
330
9640
100
AcDbEntity
  8
1
  6
Continuous
100
AcDbLine
 10
153.3489398151139
 20
87.53142555175761
 30
0.0
 11
160.3489398151141
 21
87.53142555175761
 31
0.0
  0
LINE
  5
9734
330
9640
100
AcDbEntity
  8
1
  6
Continuous
100
AcDbLine
 10
171.8489478151139
 20
82.7314225517577
 30
0.0
 11
141.8489548151141
 21
82.7314225517577
 31
0.0
  0
LINE
  5
9735
330
9640
100
AcDbEntity
  8
1
  6
Continuous
100
AcDbLine
 10
176.8489478151141
 20
88.3843815517577
 30
0.0
 11
176.8489478151141
 21
87.73142255175761
 31
0.0
  0
LINE
  5
9736
330
9640
100
AcDbEntity
  8
1
  6
Continuous
100
AcDbLine
 10
136.848954815114
 20
88.38435155175771
 30
0.0
 11
136.848954815114
 21
87.73142255175761
 31
0.0
  0
ARC
  5
9737
330
9640
100
AcDbEntity
  8
1
  6
Continuous
100
AcDbCircle
 10
171.8489478151139
 20
87.73142255175761
 30
0.0
 40
5.0
100
AcDbArc
 50
270.0
 51
0.0
  0
ARC
  5
9738
330
9640
100
AcDbEntity
  8
1
  6
Continuous
100
AcDbCircle
 10
141.8489548151141
 20
87.73142255175761
 30
0.0
 40
5.0
100
AcDbArc
 50
180.0
 51
270.0
  0
ARC
  5
9739
330
9640
100
AcDbEntity
  8
1
  6
Continuous
100
AcDbCircle
 10
171.8489478151139
 20
51.73142255175771
 30
0.0
 40
5.0
100
AcDbArc
 50
353.067594
 51
90.0
  0
LINE
  5
973A
330
9640
100
AcDbEntity
  8
1
  6
Continuous
100
AcDbLine
 10
171.8489478151139
 20
56.73142255175768
 30
0.0
 11
141.8489548151141
 21
56.73142255175768
 31
0.0
  0
ARC
  5
973B
330
9640
100
AcDbEntity
  8
1
  6
Continuous
100
AcDbCircle
 10
141.8489548151141
 20
51.73142255175771
 30
0.0
 40
5.0
100
AcDbArc
 50
90.0
 51
186.9320229999999
  0
LINE
  5
973C
330
9640
100
AcDbEntity
  8
1
  6
Continuous
100
AcDbLine
 10
361.8489398151142
 20
169.3681735517576
 30
0.0
 11
361.8489398151142
 21
175.0946705517577
 31
0.0
  0
LINE
  5
973D
330
9640
100
AcDbEntity
  8
1
  6
Continuous
100
AcDbLine
 10
371.8489398151142
 20
169.3681735517576
 30
0.0
 11
371.8489398151142
 21
175.0946705517577
 31
0.0
  0
CIRCLE
  5
973E
330
9640
100
AcDbEntity
  8
1
  6
Continuous
100
AcDbCircle
 10
366.8489398151141
 20
172.2314225517576
 30
0.0
 40
3.0
  0
CIRCLE
  5
973F
330
9640
100
AcDbEntity
  8
2
  6
Continuous
100
AcDbCircle
 10
366.8489398151141
 20
172.2314225517576
 30
0.0
 40
2.458499999999999
  0
CIRCLE
  5
9740
330
9640
100
AcDbEntity
  8
1
  6
Continuous
100
AcDbCircle
 10
366.8489398151141
 20
172.2314225517576
 30
0.0
 40
2.0
  0
LINE
  5
9741
330
9640
100
AcDbEntity
  8
1
  6
Continuous
100
AcDbLine
 10
361.8489398151142
 20
169.3681735517576
 30
0.0
 11
366.8489398151141
 21
166.4814225517576
 31
0.0
  0
LINE
  5
9742
330
9640
100
AcDbEntity
  8
1
  6
Continuous
100
AcDbLine
 10
371.8489398151142
 20
169.3681735517576
 30
0.0
 11
366.8489398151141
 21
166.4814225517576
 31
0.0
  0
LINE
  5
9743
330
9640
100
AcDbEntity
  8
1
  6
Continuous
100
AcDbLine
 10
361.8489398151142
 20
175.0946705517577
 30
0.0
 11
366.8489398151141
 21
177.9814225517576
 31
0.0
  0
LINE
  5
9744
330
9640
100
AcDbEntity
  8
1
  6
Continuous
100
AcDbLine
 10
371.8489398151142
 20
175.0946705517577
 30
0.0
 11
366.8489398151141
 21
177.9814225517576
 31
0.0
  0
LINE
  5
9745
330
9640
100
AcDbEntity
  8
1
  6
Continuous
100
AcDbLine
 10
154.3489398151141
 20
54.43142255175769
 30
0.0
 11
159.3489398151142
 21
54.43142255175769
 31
0.0
  0
LINE
  5
9746
330
9640
100
AcDbEntity
  8
1
  6
Continuous
100
AcDbLine
 10
156.848939815114
 20
307.5221695517577
 30
0.0
 11
156.848939815114
 21
310.7406805517577
 31
0.0
  0
LINE
  5
9747
330
9640
100
AcDbEntity
  8
1
  6
Continuous
100
AcDbLine
 10
161.8489398151139
 20
310.7406805517577
 30
0.0
 11
161.8489398151139
 21
307.5221695517577
 31
0.0
  0
LINE
  5
9748
330
9640
100
AcDbEntity
  8
1
  6
Continuous
100
AcDbLine
 10
151.8489398151142
 20
310.7406805517577
 30
0.0
 11
151.8489398151142
 21
307.5221695517577
 31
0.0
  0
ARC
  5
9749
330
9640
100
AcDbEntity
  8
1
  6
Continuous
100
AcDbCircle
 10
154.3489398151141
 20
313.6446295517576
 30
0.0
 40
6.613208
100
AcDbArc
 50
247.7882049999999
 51
292.211795
  0
ARC
  5
974A
330
9640
100
AcDbEntity
  8
1
  6
Continuous
100
AcDbCircle
 10
159.3489398151142
 20
313.6446295517576
 30
0.0
 40
6.613208
100
AcDbArc
 50
247.7882049999999
 51
292.211795
  0
ARC
  5
974B
330
9640
100
AcDbEntity
  8
1
  6
Continuous
100
AcDbCircle
 10
160.3489398151141
 20
275.9314195517577
 30
0.0
 40
2.0
100
AcDbArc
 50
269.9999859999999
 51
14.477631
  0
LINE
  5
974C
330
9640
100
AcDbEntity
  8
1
  6
Continuous
100
AcDbLine
 10
153.3489398151139
 20
273.9314195517575
 30
0.0
 11
160.3489398151141
 21
273.9314195517575
 31
0.0
  0
ARC
  5
974D
330
9640
100
AcDbEntity
  8
1
  6
Continuous
100
AcDbCircle
 10
153.3489398151139
 20
275.9314195517577
 30
0.0
 40
2.0
100
AcDbArc
 50
165.522369
 51
269.9999859999999
  0
LINE
  5
974E
330
9640
100
AcDbEntity
  8
1
  6
Continuous
100
AcDbLine
 10
272.3489398151142
 20
201.7685665517577
 30
0.0
 11
272.3489398151142
 21
142.6942805517577
 31
0.0
  0
LINE
  5
974F
330
9640
100
AcDbEntity
  8
1
  6
Continuous
100
AcDbLine
 10
251.3489398151142
 20
201.7685665517577
 30
0.0
 11
251.3489398151142
 21
142.6942805517577
 31
0.0
  0
LINE
  5
9750
330
9640
100
AcDbEntity
  8
4
  6
CENTER
 48
0.8
100
AcDbLine
 10
261.8489398151142
 20
226.8234555517577
 30
0.0
 11
261.8489398151142
 21
134.7314225517576
 31
0.0
  0
ARC
  5
9751
330
9640
100
AcDbEntity
  8
1
  6
Continuous
100
AcDbCircle
 10
261.8489398151142
 20
179.7314225517576
 30
0.0
 40
40.0
100
AcDbArc
 50
257.074464
 51
282.9254899999999
  0
ARC
  5
9752
330
9640
100
AcDbEntity
  8
1
  6
Continuous
100
AcDbCircle
 10
270.3489398151142
 20
142.6942825517576
 30
0.0
 40
2.0
100
AcDbArc
 50
282.9254899999999
 51
359.9999599999999
  0
ARC
  5
9753
330
9640
100
AcDbEntity
  8
1
  6
Continuous
100
AcDbCircle
 10
253.3489398151142
 20
142.6942825517576
 30
0.0
 40
2.0
100
AcDbArc
 50
180.0000499999999
 51
257.07455
  0
LINE
  5
9754
330
9640
100
AcDbEntity
  8
1
  6
Continuous
100
AcDbLine
 10
282.8229398151139
 20
221.7314225517576
 30
0.0
 11
240.8749358151141
 21
221.7314225517576
 31
0.0
  0
LINE
  5
9755
330
9640
100
AcDbEntity
  8
1
  6
Continuous
100
AcDbLine
 10
282.8229398151139
 20
219.4314225517577
 30
0.0
 11
240.8749358151141
 21
219.4314225517577
 31
0.0
  0
ARC
  5
9756
330
9640
100
AcDbEntity
  8
1
  6
Continuous
100
AcDbCircle
 10
246.0489368151141
 20
175.7314225517577
 30
0.0
 40
2.0
100
AcDbArc
 50
90.00000400000002
 51
179.9999859999998
  0
ARC
  5
9757
330
9640
100
AcDbEntity
  8
1
  6
Continuous
100
AcDbCircle
 10
246.0489368151141
 20
168.7314225517576
 30
0.0
 40
2.0
100
AcDbArc
 50
179.9999859999998
 51
270.00002
  0
ARC
  5
9758
330
9640
100
AcDbEntity
  8
1
  6
Continuous
100
AcDbCircle
 10
244.8489398151142
 20
215.4314225517577
 30
0.0
 40
4.0
100
AcDbArc
 50
0.00004
 51
90.00001800000005
  0
ARC
  5
9759
330
9640
100
AcDbEntity
  8
1
  6
Continuous
100
AcDbCircle
 10
244.5489368151142
 20
217.4314225517577
 30
0.0
 40
2.0
100
AcDbArc
 50
0.00004
 51
90.00001800000005
  0
LINE
  5
975A
330
9640
100
AcDbEntity
  8
4
  6
CENTER
 48
0.8
100
AcDbLine
 10
288.748939815114
 20
172.2314225517576
 30
0.0
 11
239.0489368151142
 21
172.2314225517576
 31
0.0
  0
LINE
  5
975B
330
9640
100
AcDbEntity
  8
1
  6
Continuous
100
AcDbLine
 10
246.5489368151142
 20
217.4314225517577
 30
0.0
 11
246.5489368151142
 21
164.7314225517576
 31
0.0
  0
LINE
  5
975C
330
9640
100
AcDbEntity
  8
1
  6
Continuous
100
AcDbLine
 10
277.1489398151142
 20
217.4314225517577
 30
0.0
 11
277.1489398151142
 21
164.7314225517576
 31
0.0
  0
LINE
  5
975D
330
9640
100
AcDbEntity
  8
1
  6
Continuous
100
AcDbLine
 10
248.848939815114
 20
219.4314225517577
 30
0.0
 11
248.848939815114
 21
164.7314225517576
 31
0.0
  0
LINE
  5
975E
330
9640
100
AcDbEntity
  8
1
  6
Continuous
100
AcDbLine
 10
274.8489398151142
 20
219.4314225517577
 30
0.0
 11
274.8489398151142
 21
164.7314225517576
 31
0.0
  0
LINE
  5
975F
330
9640
100
AcDbEntity
  8
1
  6
Continuous
100
AcDbLine
 10
277.6257398151141
 20
169.2314225517576
 30
0.0
 11
280.7489398151141
 21
169.2314225517576
 31
0.0
  0
LINE
  5
9760
330
9640
100
AcDbEntity
  8
1
  6
Continuous
100
AcDbLine
 10
277.548939815114
 20
166.6314245517576
 30
0.0
 11
280.7489398151141
 21
166.6314245517576
 31
0.0
  0
LINE
  5
9761
330
9640
100
AcDbEntity
  8
1
  6
Continuous
100
AcDbLine
 10
277.548939815114
 20
175.2314225517576
 30
0.0
 11
280.7489398151141
 21
175.2314225517576
 31
0.0
  0
LINE
  5
9762
330
9640
100
AcDbEntity
  8
1
  6
Continuous
100
AcDbLine
 10
277.548939815114
 20
177.8314205517576
 30
0.0
 11
280.7489398151141
 21
177.8314205517576
 31
0.0
  0
ARC
  5
9763
330
9640
100
AcDbEntity
  8
1
  6
Continuous
100
AcDbCircle
 10
278.8364398151141
 20
167.9314275517576
 30
0.0
 40
2.312498999999998
100
AcDbArc
 50
325.79457
 51
34.20545
  0
LINE
  5
9764
330
9640
100
AcDbEntity
  8
1
  6
Continuous
100
AcDbLine
 10
281.7489298151142
 20
168.4313465517577
 30
0.0
 11
280.7489298151141
 21
166.6314245517576
 31
0.0
  0
ARC
  5
9765
330
9640
100
AcDbEntity
  8
1
  6
Continuous
100
AcDbCircle
 10
269.6989458151142
 20
172.2314225517576
 30
0.0
 40
11.44999799999999
100
AcDbArc
 50
344.8107499999999
 51
15.18927
  0
ARC
  5
9766
330
9640
100
AcDbEntity
  8
1
  6
Continuous
100
AcDbCircle
 10
278.8364398151141
 20
176.5314255517577
 30
0.0
 40
2.312498999999998
100
AcDbArc
 50
325.79457
 51
34.20545
  0
LINE
  5
9767
330
9640
100
AcDbEntity
  8
1
  6
Continuous
100
AcDbLine
 10
281.7489398151142
 20
176.0314525517577
 30
0.0
 11
280.7489498151142
 21
177.8314205517576
 31
0.0
  0
LINE
  5
9768
330
9640
100
AcDbEntity
  8
1
  6
Continuous
100
AcDbLine
 10
281.7489398151142
 20
176.0314255517576
 30
0.0
 11
281.7489398151142
 21
168.4314275517576
 31
0.0
  0
LINE
  5
9769
330
9640
100
AcDbEntity
  8
1
  6
Continuous
100
AcDbLine
 10
273.848939815114
 20
162.4814225517576
 30
0.0
 11
273.848939815114
 21
181.9814225517576
 31
0.0
  0
LINE
  5
976A
330
9640
100
AcDbEntity
  8
1
  6
Continuous
100
AcDbLine
 10
249.8489398151142
 20
162.4814225517576
 30
0.0
 11
249.8489398151142
 21
181.9814225517576
 31
0.0
  0
ARC
  5
976B
330
9640
100
AcDbEntity
  8
1
  6
Continuous
100
AcDbCircle
 10
272.8489398151141
 20
162.4814225517576
 30
0.0
 40
1.0
100
AcDbArc
 50
269.99998
 51
359.9999599999999
  0
LINE
  5
976C
330
9640
100
AcDbEntity
  8
1
  6
Continuous
100
AcDbLine
 10
272.3489398151142
 20
161.4814225517576
 30
0.0
 11
272.8489398151141
 21
161.4814225517576
 31
0.0
  0
LINE
  5
976D
330
9640
100
AcDbEntity
  8
1
  6
Continuous
100
AcDbLine
 10
277.1489398151142
 20
164.7314225517576
 30
0.0
 11
274.8489398151142
 21
164.7314225517576
 31
0.0
  0
ARC
  5
976E
330
9640
100
AcDbEntity
  8
1
  6
Continuous
100
AcDbCircle
 10
279.4614398151141
 20
176.5314255517577
 30
0.0
 40
2.3125
100
AcDbArc
 50
145.7945389999999
 51
214.2054499999999
  0
ARC
  5
976F
330
9640
100
AcDbEntity
  8
1
  6
Continuous
100
AcDbCircle
 10
288.5989398151142
 20
172.2314225517576
 30
0.0
 40
11.450001
100
AcDbArc
 50
164.8107149999999
 51
195.1892799999999
  0
ARC
  5
9770
330
9640
100
AcDbEntity
  8
1
  6
Continuous
100
AcDbCircle
 10
279.4614398151141
 20
167.9314195517576
 30
0.0
 40
2.3125
100
AcDbArc
 50
145.79459
 51
214.2055099999998
  0
LINE
  5
9771
330
9640
100
AcDbEntity
  8
1
  6
Continuous
100
AcDbLine
 10
274.8489398151142
 20
168.9814225517576
 30
0.0
 11
273.848939815114
 21
168.9814225517576
 31
0.0
  0
LINE
  5
9772
330
9640
100
AcDbEntity
  8
1
  6
Continuous
100
AcDbLine
 10
274.8489398151142
 20
175.4814225517577
 30
0.0
 11
273.848939815114
 21
175.4814225517577
 31
0.0
  0
LINE
  5
9773
330
9640
100
AcDbEntity
  8
1
  6
Continuous
100
AcDbLine
 10
246.5489368151142
 20
164.7314225517576
 30
0.0
 11
248.848939815114
 21
164.7314225517576
 31
0.0
  0
ARC
  5
9774
330
9640
100
AcDbEntity
  8
1
  6
Continuous
100
AcDbCircle
 10
250.848939815114
 20
162.4814225517576
 30
0.0
 40
1.0
100
AcDbArc
 50
180.0000499999999
 51
270.0000399999999
  0
LINE
  5
9775
330
9640
100
AcDbEntity
  8
1
  6
Continuous
100
AcDbLine
 10
251.3489398151142
 20
161.4814225517576
 30
0.0
 11
250.848939815114
 21
161.4814225517576
 31
0.0
  0
LINE
  5
9776
330
9640
100
AcDbEntity
  8
1
  6
Continuous
100
AcDbLine
 10
249.8489398151142
 20
168.9814225517576
 30
0.0
 11
248.848939815114
 21
168.9814225517576
 31
0.0
  0
LINE
  5
9777
330
9640
100
AcDbEntity
  8
1
  6
Continuous
100
AcDbLine
 10
249.8489398151142
 20
175.4814225517577
 30
0.0
 11
248.848939815114
 21
175.4814225517577
 31
0.0
  0
LINE
  5
9778
330
9640
100
AcDbEntity
  8
1
  6
Continuous
100
AcDbLine
 10
246.5489368151142
 20
166.7314225517576
 30
0.0
 11
246.0489368151141
 21
166.7314225517576
 31
0.0
  0
LINE
  5
9779
330
9640
100
AcDbEntity
  8
1
  6
Continuous
100
AcDbLine
 10
246.5489368151142
 20
177.7314225517576
 30
0.0
 11
246.0489368151141
 21
177.7314225517576
 31
0.0
  0
ARC
  5
977A
330
9640
100
AcDbEntity
  8
1
  6
Continuous
100
AcDbCircle
 10
272.8489398151141
 20
181.9814225517576
 30
0.0
 40
1.0
100
AcDbArc
 50
0.00004
 51
90.00001800000005
  0
LINE
  5
977B
330
9640
100
AcDbEntity
  8
1
  6
Continuous
100
AcDbLine
 10
272.3489398151142
 20
182.9814225517576
 30
0.0
 11
272.8489398151141
 21
182.9814225517576
 31
0.0
  0
ARC
  5
977C
330
9640
100
AcDbEntity
  8
1
  6
Continuous
100
AcDbCircle
 10
250.848939815114
 20
181.9814225517576
 30
0.0
 40
1.0
100
AcDbArc
 50
89.99996299999997
 51
179.999945
  0
LINE
  5
977D
330
9640
100
AcDbEntity
  8
1
  6
Continuous
100
AcDbLine
 10
251.3489398151142
 20
182.9814225517576
 30
0.0
 11
250.848939815114
 21
182.9814225517576
 31
0.0
  0
ARC
  5
977E
330
9640
100
AcDbEntity
  8
1
  6
Continuous
100
AcDbCircle
 10
279.1489398151142
 20
217.4314225517577
 30
0.0
 40
2.0
100
AcDbArc
 50
89.99999100000001
 51
179.999973
  0
ARC
  5
977F
330
9640
100
AcDbEntity
  8
1
  6
Continuous
100
AcDbCircle
 10
278.8489398151142
 20
215.4314225517577
 30
0.0
 40
4.0
100
AcDbArc
 50
89.99999100000001
 51
179.999973
  0
LINE
  5
9780
330
9640
100
AcDbEntity
  8
1
  6
Continuous
100
AcDbLine
 10
282.8229398151139
 20
221.7314225517576
 30
0.0
 11
282.8229398151139
 21
219.4314225517577
 31
0.0
  0
LINE
  5
9781
330
9640
100
AcDbEntity
  8
4
  6
CENTER
 48
0.8
100
AcDbLine
 10
275.848939815114
 20
226.7314225517576
 30
0.0
 11
275.848939815114
 21
214.6957585517576
 31
0.0
  0
LINE
  5
9782
330
9640
100
AcDbEntity
  8
4
  6
CENTER
 48
0.8
100
AcDbLine
 10
247.8489398151141
 20
226.7314225517576
 30
0.0
 11
247.8489398151141
 21
214.6957585517576
 31
0.0
  0
ARC
  5
9783
330
9640
100
AcDbEntity
  8
1
  6
Continuous
100
AcDbCircle
 10
261.8489398151142
 20
164.7314225517576
 30
0.0
 40
40.0
100
AcDbArc
 50
77.07451000000003
 51
102.925514
  0
LINE
  5
9784
330
9640
100
AcDbEntity
  8
1
  6
Continuous
100
AcDbLine
 10
273.1489428151141
 20
216.4314215517577
 30
0.0
 11
273.1489428151141
 21
206.7314225517577
 31
0.0
  0
ARC
  5
9785
330
9640
100
AcDbEntity
  8
1
  6
Continuous
100
AcDbCircle
 10
270.3489398151142
 20
201.7685665517577
 30
0.0
 40
2.0
100
AcDbArc
 50
0.00004
 51
77.07451000000003
  0
ARC
  5
9786
330
9640
100
AcDbEntity
  8
1
  6
Continuous
100
AcDbCircle
 10
278.1489398151141
 20
206.7314225517577
 30
0.0
 40
5.0
100
AcDbArc
 50
180.0
 51
228.70008
  0
ARC
  5
9787
330
9640
100
AcDbEntity
  8
1
  6
Continuous
100
AcDbCircle
 10
270.1489428151142
 20
216.4314215517577
 30
0.0
 40
3.0
100
AcDbArc
 50
359.9999899999998
 51
89.99999700000001
  0
LINE
  5
9788
330
9640
100
AcDbEntity
  8
1
  6
Continuous
100
AcDbLine
 10
250.5489368151142
 20
216.4314215517577
 30
0.0
 11
250.5489368151142
 21
206.7314225517577
 31
0.0
  0
ARC
  5
9789
330
9640
100
AcDbEntity
  8
1
  6
Continuous
100
AcDbCircle
 10
253.3489398151142
 20
201.7685665517577
 30
0.0
 40
2.0
100
AcDbArc
 50
102.9254539999999
 51
179.999945
  0
ARC
  5
978A
330
9640
100
AcDbEntity
  8
1
  6
Continuous
100
AcDbCircle
 10
245.5489368151142
 20
206.7314225517577
 30
0.0
 40
5.0
100
AcDbArc
 50
311.2999299999998
 51
0.00001
  0
ARC
  5
978B
330
9640
100
AcDbEntity
  8
1
  6
Continuous
100
AcDbCircle
 10
253.5489368151142
 20
216.4314215517577
 30
0.0
 40
3.0
100
AcDbArc
 50
89.99999700000001
 51
180.0
  0
LINE
  5
978C
330
9640
100
AcDbEntity
  8
1
  6
Continuous
100
AcDbLine
 10
244.0489368151141
 20
175.7314225517577
 30
0.0
 11
244.0489368151141
 21
168.7314225517576
 31
0.0
  0
LINE
  5
978D
330
9640
100
AcDbEntity
  8
1
  6
Continuous
100
AcDbLine
 10
240.8749398151141
 20
221.7314225517576
 30
0.0
 11
240.8749398151141
 21
219.4314225517577
 31
0.0
  0
LINE
  5
978E
330
9640
100
AcDbEntity
  8
4
  6
CENTER
 48
0.8
100
AcDbLine
 10
366.8489398151141
 20
226.7314225517576
 30
0.0
 11
366.8489398151141
 21
134.7314225517576
 31
0.0
  0
ARC
  5
978F
330
9640
100
AcDbEntity
  8
1
  6
Continuous
100
AcDbCircle
 10
366.8489398151141
 20
172.2314225517576
 30
0.0
 40
32.5
100
AcDbArc
 50
114.880584
 51
65.11946
  0
ARC
  5
9790
330
9640
100
AcDbEntity
  8
1
  6
Continuous
100
AcDbCircle
 10
366.8489398151141
 20
172.2314225517576
 30
0.0
 40
25.0
100
AcDbArc
 50
118.76453
 51
61.2355
  0
ARC
  5
9791
330
9640
100
AcDbEntity
  8
1
  6
Continuous
100
AcDbCircle
 10
366.8489398151141
 20
172.2314225517576
 30
0.0
 40
16.0
100
AcDbArc
 50
128.618635
 51
51.38139
  0
LINE
  5
9792
330
9640
100
AcDbEntity
  8
1
  6
Continuous
100
AcDbLine
 10
401.8489208151139
 20
221.7314225517576
 30
0.0
 11
331.8489208151142
 21
221.7314225517576
 31
0.0
  0
LINE
  5
9793
330
9640
100
AcDbEntity
  8
1
  6
Continuous
100
AcDbLine
 10
401.8489208151139
 20
219.4314225517577
 30
0.0
 11
386.848935815114
 21
219.4314225517577
 31
0.0
  0
LINE
  5
9794
330
9640
100
AcDbEntity
  8
4
  6
CENTER
 48
0.8
100
AcDbLine
 10
329.3489398151141
 20
172.2314225517576
 30
0.0
 11
404.3489398151142
 21
172.2314225517576
 31
0.0
  0
LINE
  5
9795
330
9640
100
AcDbEntity
  8
4
  6
CENTER
 48
0.8
100
AcDbLine
 10
394.8489398151142
 20
226.7314225517576
 30
0.0
 11
394.8489398151142
 21
214.6957625517576
 31
0.0
  0
LINE
  5
9796
330
9640
100
AcDbEntity
  8
1
  6
Continuous
100
AcDbLine
 10
401.8489398151142
 20
219.4314345517576
 30
0.0
 11
401.8489398151142
 21
221.7314335517577
 31
0.0
  0
LINE
  5
9797
330
9640
100
AcDbEntity
  8
1
  6
Continuous
100
AcDbLine
 10
383.3489398151142
 20
214.7314295517575
 30
0.0
 11
373.689540815114
 21
170.2460745517577
 31
0.0
  0
LINE
  5
9798
330
9640
100
AcDbEntity
  8
1
  6
Continuous
100
AcDbLine
 10
350.3489248151141
 20
214.7314145517576
 30
0.0
 11
360.0083348151142
 21
170.2460745517577
 31
0.0
  0
ARC
  5
9799
330
9640
100
AcDbEntity
  8
1
  6
Continuous
100
AcDbCircle
 10
366.8489398151141
 20
172.2314225517576
 30
0.0
 40
10.74999999999998
100
AcDbArc
 50
143.629561
 51
36.37048
  0
ARC
  5
979A
330
9640
100
AcDbEntity
  8
1
  6
Continuous
100
AcDbCircle
 10
366.8489398151141
 20
171.7314225517576
 30
0.0
 40
7.0
100
AcDbArc
 50
192.25085
 51
270.00001
  0
ARC
  5
979B
330
9640
100
AcDbEntity
  8
1
  6
Continuous
100
AcDbCircle
 10
366.8489398151141
 20
171.7314225517576
 30
0.0
 40
7.0
100
AcDbArc
 50
269.99995
 51
347.7491499999999
  0
LINE
  5
979C
330
9640
100
AcDbEntity
  8
1
  6
Continuous
100
AcDbLine
 10
386.848925815114
 20
219.4314185517577
 30
0.0
 11
383.3489288151142
 21
214.7314205517577
 31
0.0
  0
ARC
  5
979D
330
9640
100
AcDbEntity
  8
1
  6
Continuous
100
AcDbCircle
 10
366.8489398151141
 20
209.2314225517576
 30
0.0
 40
2.5
100
AcDbArc
 50
179.9999899999999
 51
0.00001
  0
ARC
  5
979E
330
9640
100
AcDbEntity
  8
1
  6
Continuous
100
AcDbCircle
 10
370.3489398151142
 20
220.7314225517577
 30
0.0
 40
1.0
100
AcDbArc
 50
89.99999700000001
 51
180.0
  0
ARC
  5
979F
330
9640
100
AcDbEntity
  8
1
  6
Continuous
100
AcDbCircle
 10
363.348939815114
 20
220.7314225517577
 30
0.0
 40
1.0
100
AcDbArc
 50
359.9999899999998
 51
90.00000400000002
  0
LINE
  5
97A0
330
9640
100
AcDbEntity
  8
1
  6
Continuous
100
AcDbLine
 10
369.348939815114
 20
209.2314225517576
 30
0.0
 11
369.348939815114
 21
220.7314225517577
 31
0.0
  0
LINE
  5
97A1
330
9640
100
AcDbEntity
  8
1
  6
Continuous
100
AcDbLine
 10
364.3489398151142
 20
220.2314215517576
 30
0.0
 11
369.348939815114
 21
220.2314215517576
 31
0.0
  0
LINE
  5
97A2
330
9640
100
AcDbEntity
  8
1
  6
Continuous
100
AcDbLine
 10
364.3489398151142
 20
209.2314225517576
 30
0.0
 11
364.3489398151142
 21
220.7314225517577
 31
0.0
  0
LINE
  5
97A3
330
9640
100
AcDbEntity
  8
4
  6
CENTER
 48
0.8
100
AcDbLine
 10
338.8489398151142
 20
226.7314225517576
 30
0.0
 11
338.8489398151142
 21
214.6957545517575
 31
0.0
  0
LINE
  5
97A4
330
9640
100
AcDbEntity
  8
1
  6
Continuous
100
AcDbLine
 10
346.848931815114
 20
219.4314225517577
 30
0.0
 11
331.8489208151142
 21
219.4314225517577
 31
0.0
  0
LINE
  5
97A5
330
9640
100
AcDbEntity
  8
1
  6
Continuous
100
AcDbLine
 10
346.848931815114
 20
219.4314135517576
 30
0.0
 11
350.3489358151142
 21
214.7314135517576
 31
0.0
  0
LINE
  5
97A6
330
9640
100
AcDbEntity
  8
1
  6
Continuous
100
AcDbLine
 10
331.848939815114
 20
219.4314115517577
 30
0.0
 11
331.848939815114
 21
221.7314105517576
 31
0.0
  0
ARC
  5
97A7
330
9640
100
AcDbEntity
  8
1
  6
Continuous
100
AcDbCircle
 10
159.3489398151142
 20
304.6182205517575
 30
0.0
 40
6.613208
100
AcDbArc
 50
67.78820500000001
 51
112.211795
  0
ARC
  5
97A8
330
9640
100
AcDbEntity
  8
1
  6
Continuous
100
AcDbCircle
 10
154.3489398151141
 20
304.6182205517575
 30
0.0
 40
6.613208
100
AcDbArc
 50
67.78820500000001
 51
112.211795
  0
LINE
  5
97A9
330
9640
100
AcDbEntity
  8
1
  6
Continuous
100
AcDbLine
 10
154.3426408151141
 20
311.2314255517576
 30
0.0
 11
159.355238815114
 21
311.2314255517576
 31
0.0
  0
LINE
  5
97AA
330
9640
100
AcDbEntity
  8
1
  6
Continuous
100
AcDbLine
 10
156.848939815114
 20
53.94067455175771
 30
0.0
 11
156.848939815114
 21
50.72216355175772
 31
0.0
  0
LINE
  5
97AB
330
9640
100
AcDbEntity
  8
1
  6
Continuous
100
AcDbLine
 10
154.3426408151141
 20
50.23141955175771
 30
0.0
 11
159.355238815114
 21
50.23141955175771
 31
0.0
  0
ARC
  5
97AC
330
9640
100
AcDbEntity
  8
1
  6
Continuous
100
AcDbCircle
 10
154.3489398151141
 20
56.84462355175768
 30
0.0
 40
6.613208
100
AcDbArc
 50
247.7882049999999
 51
292.211795
  0
ARC
  5
97AD
330
9640
100
AcDbEntity
  8
1
  6
Continuous
100
AcDbCircle
 10
159.3489398151142
 20
56.84462355175768
 30
0.0
 40
6.613208
100
AcDbArc
 50
247.7882049999999
 51
292.211795
  0
LINE
  5
97AE
330
9640
100
AcDbEntity
  8
1
  6
Continuous
100
AcDbLine
 10
151.8489398151142
 20
50.72216355175772
 30
0.0
 11
151.8489398151142
 21
53.94067455175771
 31
0.0
  0
ARC
  5
97AF
330
9640
100
AcDbEntity
  8
1
  6
Continuous
100
AcDbCircle
 10
159.3489398151142
 20
47.8182145517577
 30
0.0
 40
6.613208
100
AcDbArc
 50
67.78820500000001
 51
112.211795
  0
ARC
  5
97B0
330
9640
100
AcDbEntity
  8
1
  6
Continuous
100
AcDbCircle
 10
154.3489398151141
 20
47.8182145517577
 30
0.0
 40
6.613208
100
AcDbArc
 50
67.78820500000001
 51
112.211795
  0
LINE
  5
97B1
330
9640
100
AcDbEntity
  8
1
  6
Continuous
100
AcDbLine
 10
161.8489398151139
 20
50.72216355175772
 30
0.0
 11
161.8489398151139
 21
53.94067455175771
 31
0.0
  0
LINE
  5
97B2
330
9640
100
AcDbEntity
  8
1
  6
Continuous
100
AcDbLine
 10
153.8489398151142
 20
312.2314255517577
 30
0.0
 11
153.8489398151142
 21
311.2314255517576
 31
0.0
  0
LINE
  5
97B3
330
9640
100
AcDbEntity
  8
1
  6
Continuous
100
AcDbLine
 10
159.8489398151139
 20
312.2314255517577
 30
0.0
 11
159.8489398151139
 21
311.2314255517576
 31
0.0
  0
LINE
  5
97B4
330
9640
100
AcDbEntity
  8
2
  6
Continuous
100
AcDbLine
 10
154.390439815114
 20
312.7729255517578
 30
0.0
 11
154.390439815114
 21
311.2314255517576
 31
0.0
  0
LINE
  5
97B5
330
9640
100
AcDbEntity
  8
2
  6
Continuous
100
AcDbLine
 10
159.3074398151141
 20
312.7729255517578
 30
0.0
 11
159.3074398151141
 21
311.2314255517576
 31
0.0
  0
LINE
  5
97B6
330
9640
100
AcDbEntity
  8
1
  6
Continuous
100
AcDbLine
 10
153.8489398151142
 20
312.2314255517577
 30
0.0
 11
159.8489398151139
 21
312.2314255517577
 31
0.0
  0
LINE
  5
97B7
330
9640
100
AcDbEntity
  8
1
  6
Continuous
100
AcDbLine
 10
154.8489398151142
 20
313.2314255517576
 30
0.0
 11
158.8489398151139
 21
313.2314255517576
 31
0.0
  0
LINE
  5
97B8
330
9640
100
AcDbEntity
  8
1
  6
Continuous
100
AcDbLine
 10
154.8489398151142
 20
313.2314255517576
 30
0.0
 11
153.8489398151142
 21
312.2314255517577
 31
0.0
  0
LINE
  5
97B9
330
9640
100
AcDbEntity
  8
1
  6
Continuous
100
AcDbLine
 10
158.8489398151139
 20
313.2314255517576
 30
0.0
 11
159.8489398151139
 21
312.2314255517577
 31
0.0
  0
LINE
  5
97BA
330
9640
100
AcDbEntity
  8
1
  6
Continuous
100
AcDbLine
 10
29.94893981511421
 20
170.2314225517576
 30
0.0
 11
29.94893981511421
 21
174.2314225517576
 31
0.0
  0
LINE
  5
97BB
330
9640
100
AcDbEntity
  8
1
  6
Continuous
100
AcDbLine
 10
30.94893981511416
 20
169.2314225517576
 30
0.0
 11
30.94893981511416
 21
175.2314225517576
 31
0.0
  0
LINE
  5
97BC
330
9640
100
AcDbEntity
  8
1
  6
Continuous
100
AcDbLine
 10
29.94893981511421
 20
170.2314225517576
 30
0.0
 11
30.94893981511416
 21
169.2314225517576
 31
0.0
  0
LINE
  5
97BD
330
9640
100
AcDbEntity
  8
2
  6
Continuous
100
AcDbLine
 10
30.40743981511417
 20
169.7729225517577
 30
0.0
 11
31.94893981511416
 21
169.7729225517577
 31
0.0
  0
LINE
  5
97BE
330
9640
100
AcDbEntity
  8
1
  6
Continuous
100
AcDbLine
 10
30.94893981511416
 20
169.2314225517576
 30
0.0
 11
31.94893981511416
 21
169.2314225517576
 31
0.0
  0
LINE
  5
97BF
330
9640
100
AcDbEntity
  8
1
  6
Continuous
100
AcDbLine
 10
29.94893981511421
 20
174.2314225517576
 30
0.0
 11
30.94893981511416
 21
175.2314225517576
 31
0.0
  0
LINE
  5
97C0
330
9640
100
AcDbEntity
  8
2
  6
Continuous
100
AcDbLine
 10
30.40743981511417
 20
174.6899225517577
 30
0.0
 11
31.94893981511416
 21
174.6899225517577
 31
0.0
  0
LINE
  5
97C1
330
9640
100
AcDbEntity
  8
1
  6
Continuous
100
AcDbLine
 10
30.94893981511416
 20
175.2314225517576
 30
0.0
 11
31.94893981511416
 21
175.2314225517576
 31
0.0
  0
LINE
  5
97C2
330
9640
100
AcDbEntity
  8
1
  6
Continuous
100
AcDbLine
 10
283.7489398151141
 20
170.2314225517576
 30
0.0
 11
283.7489398151141
 21
174.2314225517576
 31
0.0
  0
LINE
  5
97C3
330
9640
100
AcDbEntity
  8
1
  6
Continuous
100
AcDbLine
 10
282.7489398151141
 20
169.2314225517576
 30
0.0
 11
282.7489398151141
 21
175.2314225517576
 31
0.0
  0
LINE
  5
97C4
330
9640
100
AcDbEntity
  8
1
  6
Continuous
100
AcDbLine
 10
283.7489398151141
 20
170.2314225517576
 30
0.0
 11
282.7489398151141
 21
169.2314225517576
 31
0.0
  0
LINE
  5
97C5
330
9640
100
AcDbEntity
  8
2
  6
Continuous
100
AcDbLine
 10
283.2904398151141
 20
169.7729225517577
 30
0.0
 11
281.7489398151142
 21
169.7729225517577
 31
0.0
  0
LINE
  5
97C6
330
9640
100
AcDbEntity
  8
1
  6
Continuous
100
AcDbLine
 10
282.7489398151141
 20
169.2314225517576
 30
0.0
 11
281.7489398151142
 21
169.2314225517576
 31
0.0
  0
LINE
  5
97C7
330
9640
100
AcDbEntity
  8
1
  6
Continuous
100
AcDbLine
 10
283.7489398151141
 20
174.2314225517576
 30
0.0
 11
282.7489398151141
 21
175.2314225517576
 31
0.0
  0
LINE
  5
97C8
330
9640
100
AcDbEntity
  8
2
  6
Continuous
100
AcDbLine
 10
283.2904398151141
 20
174.6899225517577
 30
0.0
 11
281.7489398151142
 21
174.6899225517577
 31
0.0
  0
LINE
  5
97C9
330
9640
100
AcDbEntity
  8
1
  6
Continuous
100
AcDbLine
 10
282.7489398151141
 20
175.2314225517576
 30
0.0
 11
281.7489398151142
 21
175.2314225517576
 31
0.0
  0
LINE
  5
97CA
330
9640
100
AcDbEntity
  8
1
  6
Continuous
100
AcDbLine
 10
159.8489398151139
 20
49.23141955175771
 30
0.0
 11
159.8489398151139
 21
50.23141955175771
 31
0.0
  0
LINE
  5
97CB
330
9640
100
AcDbEntity
  8
2
  6
Continuous
100
AcDbLine
 10
159.3074398151141
 20
48.6899195517577
 30
0.0
 11
159.3074398151141
 21
50.23141955175771
 31
0.0
  0
LINE
  5
97CC
330
9640
100
AcDbEntity
  8
1
  6
Continuous
100
AcDbLine
 10
153.8489398151142
 20
49.23141955175771
 30
0.0
 11
153.8489398151142
 21
50.23141955175771
 31
0.0
  0
LINE
  5
97CD
330
9640
100
AcDbEntity
  8
2
  6
Continuous
100
AcDbLine
 10
154.390439815114
 20
48.6899195517577
 30
0.0
 11
154.390439815114
 21
50.23141955175771
 31
0.0
  0
LINE
  5
97CE
330
9640
100
AcDbEntity
  8
1
  6
Continuous
100
AcDbLine
 10
158.8489398151139
 20
48.23141955175771
 30
0.0
 11
159.8489398151139
 21
49.23141955175771
 31
0.0
  0
LINE
  5
97CF
330
9640
100
AcDbEntity
  8
1
  6
Continuous
100
AcDbLine
 10
153.8489398151142
 20
49.23141955175771
 30
0.0
 11
159.8489398151139
 21
49.23141955175771
 31
0.0
  0
LINE
  5
97D0
330
9640
100
AcDbEntity
  8
1
  6
Continuous
100
AcDbLine
 10
154.8489398151142
 20
48.23141955175771
 30
0.0
 11
153.8489398151142
 21
49.23141955175771
 31
0.0
  0
LINE
  5
97D1
330
9640
100
AcDbEntity
  8
1
  6
Continuous
100
AcDbLine
 10
154.8489398151142
 20
48.23141955175771
 30
0.0
 11
158.8489398151139
 21
48.23141955175771
 31
0.0
  0
ENDSEC
  0
SECTION
  2
OBJECTS
  0
DICTIONARY
  5
962E
330
0
100
AcDbDictionary
281
     1
  3
ACAD_CIP_PREVIOUS_PRODUCT_INFO
350
9870
  3
ACAD_COLOR
350
9852
  3
ACAD_DETAILVIEWSTYLE
350
986B
  3
ACAD_GROUP
350
962F
  3
ACAD_LAYOUT
350
963B
  3
ACAD_MATERIAL
350
9820
  3
ACAD_MLEADERSTYLE
350
9867
  3
ACAD_MLINESTYLE
350
9638
  3
ACAD_PLOTSETTINGS
350
963A
  3
ACAD_PLOTSTYLENAME
350
981E
  3
ACAD_SCALELIST
350
9855
  3
ACAD_SECTIONVIEWSTYLE
350
9869
  3
ACAD_TABLESTYLE
350
9853
  3
ACAD_VISUALSTYLE
350
9839
  3
ACDB_RECOMPOSE_DATA
350
988E
  3
AcDbVariableDictionary
350
9881
  3
DWGPROPS
350
988F
  0
DICTIONARY
  5
9871
330
9632
100
AcDbDictionary
280
     1
281
     1
  3
ADSK_XREC_LAYER_RECONCILED
360
9872
  0
DICTIONARY
  5
9873
330
9648
100
AcDbDictionary
280
     1
281
     1
  3
ADSK_XREC_LAYER_RECONCILED
360
9874
  0
DICTIONARY
  5
9875
330
9649
100
AcDbDictionary
280
     1
281
     1
  3
ADSK_XREC_LAYER_RECONCILED
360
9876
  0
DICTIONARY
  5
9877
330
964A
100
AcDbDictionary
280
     1
281
     1
  3
ADSK_XREC_LAYER_RECONCILED
360
9878
  0
DICTIONARY
  5
9879
330
964B
100
AcDbDictionary
280
     1
281
     1
  3
ADSK_XREC_LAYER_RECONCILED
360
987A
  0
DICTIONARY
  5
987B
330
964C
100
AcDbDictionary
280
     1
281
     1
  3
ADSK_XREC_LAYER_RECONCILED
360
987C
  0
DICTIONARY
  5
987D
330
964D
100
AcDbDictionary
280
     1
281
     1
  3
ADSK_XREC_LAYER_RECONCILED
360
987E
  0
DICTIONARY
  5
987F
330
964E
100
AcDbDictionary
280
     1
281
     1
  3
ADSK_XREC_LAYER_RECONCILED
360
9880
  0
DICTIONARY
  5
97DC
330
9640
100
AcDbDictionary
281
     1
  3
ACAD_LAYOUTSELFREF
350
981A
  0
DICTIONARY
  5
97DA
330
963C
100
AcDbDictionary
281
     1
  3
ACAD_LAYOUTSELFREF
350
9819
  0
XRECORD
  5
9870
102
{ACAD_REACTORS
330
962E
102
}
330
962E
100
AcDbXrecord
280
     1
300
ACDLT
300
2014
300
ACDLT_F_S
  0
DICTIONARY
  5
9852
102
{ACAD_REACTORS
330
962E
102
}
330
962E
100
AcDbDictionary
281
     1
  0
DICTIONARY
  5
986B
102
{ACAD_REACTORS
330
962E
102
}
330
962E
100
AcDbDictionary
281
     1
  3
Imperial24
350
986C
  0
DICTIONARY
  5
962F
102
{ACAD_REACTORS
330
962E
102
}
330
962E
100
AcDbDictionary
281
     1
  0
DICTIONARY
  5
963B
102
{ACAD_REACTORS
330
962E
102
}
330
962E
100
AcDbDictionary
281
     1
  3
Model
350
986D
  3
レイアウト1
350
986E
  0
DICTIONARY
  5
9820
102
{ACAD_REACTORS
330
962E
102
}
330
962E
100
AcDbDictionary
281
     1
  3
ByBlock
350
9829
  3
ByLayer
350
9821
  3
Global
350
9831
  0
DICTIONARY
  5
9867
102
{ACAD_REACTORS
330
962E
102
}
330
962E
100
AcDbDictionary
281
     1
  3
Standard
350
9868
  0
DICTIONARY
  5
9638
102
{ACAD_REACTORS
330
962E
102
}
330
962E
100
AcDbDictionary
281
     1
  3
STANDARD
350
9639
  0
DICTIONARY
  5
963A
102
{ACAD_REACTORS
330
962E
102
}
330
962E
100
AcDbDictionary
281
     1
  0
ACDBDICTIONARYWDFLT
  5
981E
102
{ACAD_REACTORS
330
962E
102
}
330
962E
100
AcDbDictionary
281
     1
  3
Normal
350
981F
100
AcDbDictionaryWithDefault
340
981F
  0
DICTIONARY
  5
9855
102
{ACAD_REACTORS
330
962E
102
}
330
962E
100
AcDbDictionary
281
     1
  3
A0
350
9856
  3
A1
350
9857
  3
A2
350
9858
  3
A3
350
9859
  3
A4
350
985A
  3
A5
350
985B
  3
A6
350
985C
  3
A7
350
985D
  3
A8
350
985E
  3
A9
350
985F
  3
B0
350
9860
  3
B1
350
9861
  3
B2
350
9862
  3
B3
350
9863
  3
B4
350
9864
  3
B5
350
9865
  3
B6
350
9866
  0
DICTIONARY
  5
9869
102
{ACAD_REACTORS
330
962E
102
}
330
962E
100
AcDbDictionary
281
     1
  3
Imperial24
350
986A
  0
DICTIONARY
  5
9853
102
{ACAD_REACTORS
330
962E
102
}
330
962E
100
AcDbDictionary
281
     1
  3
Standard
350
9854
  0
DICTIONARY
  5
9839
102
{ACAD_REACTORS
330
962E
102
}
330
962E
100
AcDbDictionary
281
     1
  3
2dWireframe
350
983F
  3
Basic
350
983E
  3
Brighten
350
9845
  3
ColorChange
350
9849
  3
Conceptual
350
9842
  3
Dim
350
9844
  3
EdgeColorOff
350
9851
  3
Facepattern
350
9848
  3
Flat
350
983A
  3
FlatWithEdges
350
983B
  3
Gouraud
350
983C
  3
GouraudWithEdges
350
983D
  3
Hidden
350
9841
  3
JitterOff
350
984F
  3
Linepattern
350
9847
  3
OverhangOff
350
9850
  3
Realistic
350
9843
  3
Shaded
350
984E
  3
Shaded with edges
350
984D
  3
Shades of Gray
350
984A
  3
Sketchy
350
984B
  3
Thicken
350
9846
  3
Wireframe
350
9840
  3
X-Ray
350
984C
  0
XRECORD
  5
988E
102
{ACAD_REACTORS
330
962E
102
}
330
962E
100
AcDbXrecord
280
     1
 90
        1
330
9854
  0
DICTIONARY
  5
9881
102
{ACAD_REACTORS
330
962E
102
}
330
962E
100
AcDbDictionary
281
     1
  3
CANNOSCALE
350
9886
  3
CMLEADERSTYLE
350
9883
  3
CTABLESTYLE
350
9882
  3
CVIEWDETAILSTYLE
350
9884
  3
CVIEWSECTIONSTYLE
350
9885
  3
DIMASSOC
350
9889
  3
INDEXCTL
350
9888
  3
SORTENTS
350
9887
  3
XCLIPFRAME
350
988A
  0
XRECORD
  5
988F
102
{ACAD_REACTORS
330
962E
102
}
330
962E
100
AcDbXrecord
280
     1
  1
DWGPROPS COOKIE
  2

  3

  4

  6

  7

  8
Yoshitsune
  9

300
=
301
=
302
=
303
=
304
=
305
=
306
=
307
=
308
=
309
=
 40
0.0997498611111111
 41
2451301.456712963
 42
2457192.690231377
  1

 90
        0
  0
XRECORD
  5
9872
102
{ACAD_REACTORS
330
9871
102
}
330
9871
100
AcDbXrecord
280
     1
290
     1
  0
XRECORD
  5
9874
102
{ACAD_REACTORS
330
9873
102
}
330
9873
100
AcDbXrecord
280
     1
290
     1
  0
XRECORD
  5
9876
102
{ACAD_REACTORS
330
9875
102
}
330
9875
100
AcDbXrecord
280
     1
290
     1
  0
XRECORD
  5
9878
102
{ACAD_REACTORS
330
9877
102
}
330
9877
100
AcDbXrecord
280
     1
290
     1
  0
XRECORD
  5
987A
102
{ACAD_REACTORS
330
9879
102
}
330
9879
100
AcDbXrecord
280
     1
290
     1
  0
XRECORD
  5
987C
102
{ACAD_REACTORS
330
987B
102
}
330
987B
100
AcDbXrecord
280
     1
290
     1
  0
XRECORD
  5
987E
102
{ACAD_REACTORS
330
987D
102
}
330
987D
100
AcDbXrecord
280
     1
290
     1
  0
XRECORD
  5
9880
102
{ACAD_REACTORS
330
987F
102
}
330
987F
100
AcDbXrecord
280
     1
290
     1
  0
XRECORD
  5
981A
102
{ACAD_REACTORS
330
97DC
102
}
330
97DC
100
AcDbXrecord
280
     1
340
9640
  0
XRECORD
  5
9819
102
{ACAD_REACTORS
330
97DA
102
}
330
97DA
100
AcDbXrecord
280
     1
340
963C
  0
ACDBDETAILVIEWSTYLE
  5
986C
102
{ACAD_XDICTIONARY
360
98C7
102
}
102
{ACAD_REACTORS
330
986B
102
}
330
986B
100
AcDbModelDocViewStyle
 70
     0
  3
Imperial24
290
     0
100
AcDbDetailViewStyle
 70
     0
 71
     0
 90
        3
 71
     1
340
9633
 40
0.24
340
0
 40
0.24
300

 40
0.36
280
     3
 71
     2
340
9637
 90
       25
 71
     3
340
9633
 40
0.24
 90
        1
 40
0.75
 90
        1
300
%<\AcVar ViewType \f "%tc1">% %<\AcVar ViewDetailId>%\PSCALE %<\AcVar ViewScale \f "%sn">%
 71
     4
340
9637
 90
       25
340
9637
 90
       25
280
     0
  0
LAYOUT
  5
986D
102
{ACAD_XDICTIONARY
360
98C9
102
}
102
{ACAD_REACTORS
330
963B
102
}
330
963B
100
AcDbPlotSettings
  1

  2
Canon LBP9100C
  4

  6

 40
0.0
 41
0.0
 42
0.0
 43
0.0
 44
0.0
 45
0.0
 46
0.0
 47
0.0
 48
0.0
 49
0.0
140
0.0
141
0.0
142
1.0
143
1.0
 70
  1712
 72
     0
 73
     0
 74
     0
  7

 75
     0
147
1.0
148
0.0
149
0.0
100
AcDbLayout
  1
Model
 70
     1
 71
     0
 10
0.0
 20
0.0
 11
12.0
 21
9.0
 12
0.0
 22
0.0
 32
0.0
 14
0.0
 24
0.0
 34
0.0
 15
0.0
 25
0.0
 35
0.0
146
0.0
 13
0.0
 23
0.0
 33
0.0
 16
1.0
 26
0.0
 36
0.0
 17
0.0
 27
1.0
 37
0.0
 76
     0
330
9640
331
9818
  0
LAYOUT
  5
986E
102
{ACAD_XDICTIONARY
360
98CB
102
}
102
{ACAD_REACTORS
330
963B
102
}
330
963B
100
AcDbPlotSettings
  1

  2
Canon LBP9100C
  4

  6

 40
0.0
 41
0.0
 42
0.0
 43
0.0
 44
0.0
 45
0.0
 46
0.0
 47
0.0
 48
0.0
 49
0.0
140
0.0
141
0.0
142
1.0
143
1.0
 70
   688
 72
     0
 73
     0
 74
     5
  7

 75
    16
147
1.0
148
0.0
149
0.0
100
AcDbLayout
  1
レイアウト1
 70
     0
 71
     1
 10
0.0
 20
0.0
 11
420.0
 21
297.0
 12
0.0
 22
0.0
 32
0.0
 14
1.000000000000000E+20
 24
1.000000000000000E+20
 34
1.000000000000000E+20
 15
-1.000000000000000E+20
 25
-1.000000000000000E+20
 35
-1.000000000000000E+20
146
0.0
 13
0.0
 23
0.0
 33
0.0
 16
1.0
 26
0.0
 36
0.0
 17
0.0
 27
1.0
 37
0.0
 76
     0
330
963C
  0
MATERIAL
  5
9829
102
{ACAD_XDICTIONARY
360
982A
102
}
102
{ACAD_REACTORS
330
9820
102
}
330
9820
100
AcDbMaterial
  1
ByBlock
 72
     0
 43
0.0208333333333333
 43
0.0
 43
0.0
 43
0.0
 43
0.0
 43
0.0208333333333333
 43
0.0
 43
0.0
 43
0.0
 43
0.0
 43
1.0
 43
0.0
 43
0.0
 43
0.0
 43
0.0
 43
1.0
 77
     0
 47
0.0208333333333333
 47
0.0
 47
0.0
 47
0.0
 47
0.0
 47
0.0208333333333333
 47
0.0
 47
0.0
 47
0.0
 47
0.0
 47
1.0
 47
0.0
 47
0.0
 47
0.0
 47
0.0
 47
1.0
171
     0
 49
0.0208333333333333
 49
0.0
 49
0.0
 49
0.0
 49
0.0
 49
0.0208333333333333
 49
0.0
 49
0.0
 49
0.0
 49
0.0
 49
1.0
 49
0.0
 49
0.0
 49
0.0
 49
0.0
 49
1.0
175
     0
142
0.0208333333333333
142
0.0
142
0.0
142
0.0
142
0.0
142
0.0208333333333333
142
0.0
142
0.0
142
0.0
142
0.0
142
1.0
142
0.0
142
0.0
142
0.0
142
0.0
142
1.0
179
     0
144
0.0208333333333333
144
0.0
144
0.0
144
0.0
144
0.0
144
0.0208333333333333
144
0.0
144
0.0
144
0.0
144
0.0
144
1.0
144
0.0
144
0.0
144
0.0
144
0.0
144
1.0
147
0.0208333333333333
147
0.0
147
0.0
147
0.0
147
0.0
147
0.0208333333333333
147
0.0
147
0.0
147
0.0
147
0.0
147
1.0
147
0.0
147
0.0
147
0.0
147
0.0
147
1.0
  0
MATERIAL
  5
9821
102
{ACAD_XDICTIONARY
360
9822
102
}
102
{ACAD_REACTORS
330
9820
102
}
330
9820
100
AcDbMaterial
  1
ByLayer
 72
     0
 43
0.0208333333333333
 43
0.0
 43
0.0
 43
0.0
 43
0.0
 43
0.0208333333333333
 43
0.0
 43
0.0
 43
0.0
 43
0.0
 43
1.0
 43
0.0
 43
0.0
 43
0.0
 43
0.0
 43
1.0
 77
     0
 47
0.0208333333333333
 47
0.0
 47
0.0
 47
0.0
 47
0.0
 47
0.0208333333333333
 47
0.0
 47
0.0
 47
0.0
 47
0.0
 47
1.0
 47
0.0
 47
0.0
 47
0.0
 47
0.0
 47
1.0
171
     0
 49
0.0208333333333333
 49
0.0
 49
0.0
 49
0.0
 49
0.0
 49
0.0208333333333333
 49
0.0
 49
0.0
 49
0.0
 49
0.0
 49
1.0
 49
0.0
 49
0.0
 49
0.0
 49
0.0
 49
1.0
175
     0
142
0.0208333333333333
142
0.0
142
0.0
142
0.0
142
0.0
142
0.0208333333333333
142
0.0
142
0.0
142
0.0
142
0.0
142
1.0
142
0.0
142
0.0
142
0.0
142
0.0
142
1.0
179
     0
144
0.0208333333333333
144
0.0
144
0.0
144
0.0
144
0.0
144
0.0208333333333333
144
0.0
144
0.0
144
0.0
144
0.0
144
1.0
144
0.0
144
0.0
144
0.0
144
0.0
144
1.0
147
0.0208333333333333
147
0.0
147
0.0
147
0.0
147
0.0
147
0.0208333333333333
147
0.0
147
0.0
147
0.0
147
0.0
147
1.0
147
0.0
147
0.0
147
0.0
147
0.0
147
1.0
  0
MATERIAL
  5
9831
102
{ACAD_XDICTIONARY
360
9832
102
}
102
{ACAD_REACTORS
330
9820
102
}
330
9820
100
AcDbMaterial
  1
Global
 72
     0
 43
0.0208333333333333
 43
0.0
 43
0.0
 43
0.0
 43
0.0
 43
0.0208333333333333
 43
0.0
 43
0.0
 43
0.0
 43
0.0
 43
1.0
 43
0.0
 43
0.0
 43
0.0
 43
0.0
 43
1.0
 77
     0
 47
0.0208333333333333
 47
0.0
 47
0.0
 47
0.0
 47
0.0
 47
0.0208333333333333
 47
0.0
 47
0.0
 47
0.0
 47
0.0
 47
1.0
 47
0.0
 47
0.0
 47
0.0
 47
0.0
 47
1.0
171
     0
 49
0.0208333333333333
 49
0.0
 49
0.0
 49
0.0
 49
0.0
 49
0.0208333333333333
 49
0.0
 49
0.0
 49
0.0
 49
0.0
 49
1.0
 49
0.0
 49
0.0
 49
0.0
 49
0.0
 49
1.0
175
     0
142
0.0208333333333333
142
0.0
142
0.0
142
0.0
142
0.0
142
0.0208333333333333
142
0.0
142
0.0
142
0.0
142
0.0
142
1.0
142
0.0
142
0.0
142
0.0
142
0.0
142
1.0
179
     0
144
0.0208333333333333
144
0.0
144
0.0
144
0.0
144
0.0
144
0.0208333333333333
144
0.0
144
0.0
144
0.0
144
0.0
144
1.0
144
0.0
144
0.0
144
0.0
144
0.0
144
1.0
147
0.0208333333333333
147
0.0
147
0.0
147
0.0
147
0.0
147
0.0208333333333333
147
0.0
147
0.0
147
0.0
147
0.0
147
1.0
147
0.0
147
0.0
147
0.0
147
0.0
147
1.0
  0
MLEADERSTYLE
  5
9868
102
{ACAD_REACTORS
330
9867
102
}
330
9867
100
AcDbMLeaderStyle
170
     2
171
     1
172
     0
 90
        2
 40
0.0
 41
0.0
173
     1
 91
-1056964608
340
9635
 92
       -2
290
     1
 42
0.09
291
     1
 43
0.36
  3
Standard
 44
0.18
300

342
9633
174
     1
178
     6
175
     1
176
     0
 93
-1056964608
 45
0.18
292
     0
297
     0
 46
0.18
 94
-1056964608
 47
1.0
 49
1.0
140
1.0
293
     1
141
0.0
294
     1
177
     0
142
1.0
295
     0
296
     0
143
0.125
1001
ACAD_MLEADERVER
1070
     2
  0
MLINESTYLE
  5
9639
102
{ACAD_REACTORS
330
9638
102
}
330
9638
100
AcDbMlineStyle
  2
STANDARD
 70
     0
  3

 62
   256
 51
90.0
 52
90.0
 71
     2
 49
0.5
 62
   256
  6
BYLAYER
 49
-0.5
 62
   256
  6
BYLAYER
  0
ACDBPLACEHOLDER
  5
981F
102
{ACAD_REACTORS
330
981E
102
}
330
981E
  0
SCALE
  5
9856
102
{ACAD_REACTORS
330
9855
102
}
330
9855
100
AcDbScale
 70
     0
300
1:1
140
1.0
141
1.0
290
     1
  0
SCALE
  5
9857
102
{ACAD_REACTORS
330
9855
102
}
330
9855
100
AcDbScale
 70
     0
300
1/128" = 1'-0"
140
0.0078125
141
12.0
290
     0
  0
SCALE
  5
9858
102
{ACAD_REACTORS
330
9855
102
}
330
9855
100
AcDbScale
 70
     0
300
1/64" = 1'-0"
140
0.015625
141
12.0
290
     0
  0
SCALE
  5
9859
102
{ACAD_REACTORS
330
9855
102
}
330
9855
100
AcDbScale
 70
     0
300
1/32" = 1'-0"
140
0.03125
141
12.0
290
     0
  0
SCALE
  5
985A
102
{ACAD_REACTORS
330
9855
102
}
330
9855
100
AcDbScale
 70
     0
300
1/16" = 1'-0"
140
0.0625
141
12.0
290
     0
  0
SCALE
  5
985B
102
{ACAD_REACTORS
330
9855
102
}
330
9855
100
AcDbScale
 70
     0
300
3/32" = 1'-0"
140
0.09375
141
12.0
290
     0
  0
SCALE
  5
985C
102
{ACAD_REACTORS
330
9855
102
}
330
9855
100
AcDbScale
 70
     0
300
1/8" = 1'-0"
140
0.125
141
12.0
290
     0
  0
SCALE
  5
985D
102
{ACAD_REACTORS
330
9855
102
}
330
9855
100
AcDbScale
 70
     0
300
3/16" = 1'-0"
140
0.1875
141
12.0
290
     0
  0
SCALE
  5
985E
102
{ACAD_REACTORS
330
9855
102
}
330
9855
100
AcDbScale
 70
     0
300
1/4" = 1'-0"
140
0.25
141
12.0
290
     0
  0
SCALE
  5
985F
102
{ACAD_REACTORS
330
9855
102
}
330
9855
100
AcDbScale
 70
     0
300
3/8" = 1'-0"
140
0.375
141
12.0
290
     0
  0
SCALE
  5
9860
102
{ACAD_REACTORS
330
9855
102
}
330
9855
100
AcDbScale
 70
     0
300
1/2" = 1'-0"
140
0.5
141
12.0
290
     0
  0
SCALE
  5
9861
102
{ACAD_REACTORS
330
9855
102
}
330
9855
100
AcDbScale
 70
     0
300
3/4" = 1'-0"
140
0.75
141
12.0
290
     0
  0
SCALE
  5
9862
102
{ACAD_REACTORS
330
9855
102
}
330
9855
100
AcDbScale
 70
     0
300
1" = 1'-0"
140
1.0
141
12.0
290
     0
  0
SCALE
  5
9863
102
{ACAD_REACTORS
330
9855
102
}
330
9855
100
AcDbScale
 70
     0
300
1-1/2" = 1'-0"
140
1.5
141
12.0
290
     0
  0
SCALE
  5
9864
102
{ACAD_REACTORS
330
9855
102
}
330
9855
100
AcDbScale
 70
     0
300
3" = 1'-0"
140
3.0
141
12.0
290
     0
  0
SCALE
  5
9865
102
{ACAD_REACTORS
330
9855
102
}
330
9855
100
AcDbScale
 70
     0
300
6" = 1'-0"
140
6.0
141
12.0
290
     0
  0
SCALE
  5
9866
102
{ACAD_REACTORS
330
9855
102
}
330
9855
100
AcDbScale
 70
     0
300
1'-0" = 1'-0"
140
12.0
141
12.0
290
     0
  0
ACDBSECTIONVIEWSTYLE
  5
986A
102
{ACAD_XDICTIONARY
360
98C5
102
}
102
{ACAD_REACTORS
330
9869
102
}
330
9869
100
AcDbModelDocViewStyle
 70
     0
  3
Imperial24
290
     0
100
AcDbSectionViewStyle
 70
     0
 71
     0
 90
       78
 71
     1
340
9633
 40
0.24
340
0
340
0
 40
0.24
300
I, O, Q, S, X, Z
 40
0.48
 90
        3
 40
0.18
 90
        1
 71
     2
340
9637
 90
       25
340
9637
 90
       50
 40
0.24
 40
0.0
 40
0.24
 71
     3
340
9633
 40
0.24
 90
        1
 40
0.75
 90
        1
300
%<\AcVar ViewType \f "%tc1">% %<\AcVar ViewSectionStartId>%-%<\AcVar ViewSectionEndId>%\PSCALE %<\AcVar ViewScale \f "%sn">%
 71
     4
300
ANSI31
 40
1.0
 90
        0
290
     0
290
     0
 90
        6
 40
0.0
 40
1.570796326794896
 40
0.2617993877991494
 40
1.308996938995747
 40
-0.2617993877991494
 40
1.832595714594046
  0
TABLESTYLE
  5
9854
102
{ACAD_XDICTIONARY
360
988C
102
}
102
{ACAD_REACTORS
330
9853
102
}
330
9853
100
AcDbTableStyle
  3
Standard
 70
     0
 71
     0
 40
0.06
 41
0.06
280
     0
281
     0
  7
STANDARD
140
0.18
170
     2
 62
     0
 63
     7
283
     0
274
    -2
284
     1
 64
     0
275
    -2
285
     1
 65
     0
276
    -2
286
     1
 66
     0
277
    -2
287
     1
 67
     0
278
    -2
288
     1
 68
     0
279
    -2
289
     1
 69
     0
  7
STANDARD
140
0.25
170
     5
 62
     0
 63
     7
283
     0
274
    -2
284
     1
 64
     0
275
    -2
285
     1
 65
     0
276
    -2
286
     1
 66
     0
277
    -2
287
     1
 67
     0
278
    -2
288
     1
 68
     0
279
    -2
289
     1
 69
     0
  7
STANDARD
140
0.18
170
     5
 62
     0
 63
     7
283
     0
274
    -2
284
     1
 64
     0
275
    -2
285
     1
 65
     0
276
    -2
286
     1
 66
     0
277
    -2
287
     1
 67
     0
278
    -2
288
     1
 68
     0
279
    -2
289
     1
 69
     0
  0
VISUALSTYLE
  5
983F
102
{ACAD_XDICTIONARY
360
989D
102
}
102
{ACAD_REACTORS
330
9839
102
}
330
9839
100
AcDbVisualStyle
  2
2dWireframe
 70
     4
 71
     0
 72
     2
 73
     0
 90
        0
 40
-0.6
 41
-30.0
 62
     5
 63
     7
 74
     1
 91
        4
 64
     7
 65
   257
 75
     1
175
     1
 42
1.0
 92
        0
 66
   257
 43
1.0
 76
     1
 77
     6
 78
     2
 67
     7
 79
     5
170
     0
171
     0
290
     0
174
     0
 93
        1
 44
0.0
173
     0
291
     0
 45
0.0
1001
ACAD
1000
AcDbSavedByObjectVersion
1070
     0
  0
VISUALSTYLE
  5
983E
102
{ACAD_XDICTIONARY
360
989B
102
}
102
{ACAD_REACTORS
330
9839
102
}
330
9839
100
AcDbVisualStyle
  2
Basic
 70
     7
 71
     1
 72
     0
 73
     1
 90
        0
 40
-0.6
 41
-30.0
 62
     5
 63
     7
 74
     0
 91
        4
 64
     7
 65
   257
 75
     1
175
     1
 42
1.0
 92
        8
 66
     7
 43
1.0
 76
     1
 77
     6
 78
     2
 67
     7
 79
     5
170
     0
171
     0
290
     0
174
     0
 93
        1
 44
0.0
173
     0
291
     1
 45
0.0
1001
ACAD
1000
AcDbSavedByObjectVersion
1070
     0
  0
VISUALSTYLE
  5
9845
102
{ACAD_XDICTIONARY
360
98A9
102
}
102
{ACAD_REACTORS
330
9839
102
}
330
9839
100
AcDbVisualStyle
  2
Brighten
 70
    12
 71
     2
 72
     2
 73
     0
 90
        0
 40
-0.6
 41
-30.0
 62
     5
 63
     7
 74
     1
 91
        4
 64
     7
 65
   257
 75
     1
175
     1
 42
1.0
 92
        8
 66
     7
 43
1.0
 76
     1
 77
     6
 78
     2
 67
     7
 79
     5
170
     0
171
     0
290
     0
174
     0
 93
        1
 44
50.0
173
     0
291
     1
 45
0.0
1001
ACAD
1000
AcDbSavedByObjectVersion
1070
     0
  0
VISUALSTYLE
  5
9849
102
{ACAD_XDICTIONARY
360
98B1
102
}
102
{ACAD_REACTORS
330
9839
102
}
330
9839
100
AcDbVisualStyle
  2
ColorChange
 70
    16
 71
     2
 72
     2
 73
     3
 90
        0
 40
-0.6
 41
-30.0
 62
     5
 63
     8
 74
     1
 91
        4
 64
     7
 65
   257
 75
     1
175
     1
 42
1.0
 92
        8
 66
     8
 43
1.0
 76
     1
 77
     6
 78
     2
 67
     7
 79
     5
170
     0
171
     0
290
     0
174
     0
 93
        1
 44
0.0
173
     0
291
     1
 45
0.0
1001
ACAD
1000
AcDbSavedByObjectVersion
1070
     0
  0
VISUALSTYLE
  5
9842
102
{ACAD_XDICTIONARY
360
98A3
102
}
102
{ACAD_REACTORS
330
9839
102
}
330
9839
100
AcDbVisualStyle
  2
Conceptual
 70
     9
 71
     3
 72
     2
 73
     0
 90
        0
 40
-0.6
 41
-30.0
 62
     5
 63
     7
 74
     2
 91
        2
 64
     7
 65
   257
 75
     1
175
     1
 42
179.0
 92
        8
 66
     7
 43
1.0
 76
     1
 77
     6
 78
     2
 67
     7
 79
     3
170
     0
171
     0
290
     0
174
     0
 93
        1
 44
0.0
173
     0
291
     0
 45
0.0
1001
ACAD
1000
AcDbSavedByObjectVersion
1070
     0
  0
VISUALSTYLE
  5
9844
102
{ACAD_XDICTIONARY
360
98A7
102
}
102
{ACAD_REACTORS
330
9839
102
}
330
9839
100
AcDbVisualStyle
  2
Dim
 70
    11
 71
     2
 72
     2
 73
     0
 90
        0
 40
-0.6
 41
-30.0
 62
     5
 63
     7
 74
     1
 91
        4
 64
     7
 65
   257
 75
     1
175
     1
 42
1.0
 92
        8
 66
     7
 43
1.0
 76
     1
 77
     6
 78
     2
 67
     7
 79
     5
170
     0
171
     0
290
     0
174
     0
 93
        1
 44
-50.0
173
     0
291
     1
 45
0.0
1001
ACAD
1000
AcDbSavedByObjectVersion
1070
     0
  0
VISUALSTYLE
  5
9851
102
{ACAD_XDICTIONARY
360
98C1
102
}
102
{ACAD_REACTORS
330
9839
102
}
330
9839
100
AcDbVisualStyle
  2
EdgeColorOff
 70
    22
 71
     2
 72
     2
 73
     0
 90
        0
 40
-0.6
 41
-30.0
 62
     5
 63
     7
 74
     1
 91
        4
 64
     7
 65
   257
 75
     1
175
     1
 42
1.0
 92
        8
 66
     7
 43
1.0
 76
     1
 77
     6
 78
     2
 67
     7
 79
     5
170
     0
171
     0
290
     0
174
     0
 93
        1
 44
0.0
173
     0
291
     1
 45
0.0
1001
ACAD
1000
AcDbSavedByObjectVersion
1070
     0
  0
VISUALSTYLE
  5
9848
102
{ACAD_XDICTIONARY
360
98AF
102
}
102
{ACAD_REACTORS
330
9839
102
}
330
9839
100
AcDbVisualStyle
  2
Facepattern
 70
    15
 71
     2
 72
     2
 73
     0
 90
        0
 40
-0.6
 41
-30.0
 62
     5
 63
     7
 74
     1
 91
        4
 64
     7
 65
   257
 75
     1
175
     1
 42
1.0
 92
        8
 66
     7
 43
1.0
 76
     1
 77
     6
 78
     2
 67
     7
 79
     5
170
     0
171
     0
290
     0
174
     0
 93
        1
 44
0.0
173
     0
291
     1
 45
0.0
1001
ACAD
1000
AcDbSavedByObjectVersion
1070
     0
  0
VISUALSTYLE
  5
983A
102
{ACAD_XDICTIONARY
360
9893
102
}
102
{ACAD_REACTORS
330
9839
102
}
330
9839
100
AcDbVisualStyle
  2
Flat
 70
     0
 71
     2
 72
     1
 73
     1
 90
        2
 40
-0.6
 41
30.0
 62
     5
 63
     7
 74
     0
 91
        0
 64
     7
 65
   257
 75
     1
175
     1
 42
1.0
 92
        8
 66
     7
 43
1.0
 76
     1
 77
     6
 78
     2
 67
     7
 79
     5
170
     0
171
     0
290
     0
174
     0
 93
       13
 44
0.0
173
     0
291
     1
 45
0.0
1001
ACAD
1000
AcDbSavedByObjectVersion
1070
     0
  0
VISUALSTYLE
  5
983B
102
{ACAD_XDICTIONARY
360
9895
102
}
102
{ACAD_REACTORS
330
9839
102
}
330
9839
100
AcDbVisualStyle
  2
FlatWithEdges
 70
     1
 71
     2
 72
     1
 73
     1
 90
        2
 40
-0.6
 41
30.0
 62
     5
 63
     7
 74
     1
 91
        0
 64
     7
 65
   257
 75
     1
175
     1
 42
1.0
 92
        0
 66
   257
 43
1.0
 76
     1
 77
     6
 78
     2
 67
     7
 79
     5
170
     0
171
     0
290
     0
174
     0
 93
       13
 44
0.0
173
     0
291
     1
 45
0.0
1001
ACAD
1000
AcDbSavedByObjectVersion
1070
     0
  0
VISUALSTYLE
  5
983C
102
{ACAD_XDICTIONARY
360
9897
102
}
102
{ACAD_REACTORS
330
9839
102
}
330
9839
100
AcDbVisualStyle
  2
Gouraud
 70
     2
 71
     2
 72
     2
 73
     1
 90
        2
 40
-0.6
 41
30.0
 62
     5
 63
     7
 74
     0
 91
        0
 64
     7
 65
   257
 75
     1
175
     1
 42
1.0
 92
        0
 66
     7
 43
1.0
 76
     1
 77
     6
 78
     2
 67
     7
 79
     5
170
     0
171
     0
290
     0
174
     0
 93
       13
 44
0.0
173
     0
291
     1
 45
0.0
1001
ACAD
1000
AcDbSavedByObjectVersion
1070
     0
  0
VISUALSTYLE
  5
983D
102
{ACAD_XDICTIONARY
360
9899
102
}
102
{ACAD_REACTORS
330
9839
102
}
330
9839
100
AcDbVisualStyle
  2
GouraudWithEdges
 70
     3
 71
     2
 72
     2
 73
     1
 90
        2
 40
-0.6
 41
30.0
 62
     5
 63
     7
 74
     1
 91
        0
 64
     7
 65
   257
 75
     1
175
     1
 42
1.0
 92
        0
 66
   257
 43
1.0
 76
     1
 77
     6
 78
     2
 67
     7
 79
     5
170
     0
171
     0
290
     0
174
     0
 93
       13
 44
0.0
173
     0
291
     1
 45
0.0
1001
ACAD
1000
AcDbSavedByObjectVersion
1070
     0
  0
VISUALSTYLE
  5
9841
102
{ACAD_XDICTIONARY
360
98A1
102
}
102
{ACAD_REACTORS
330
9839
102
}
330
9839
100
AcDbVisualStyle
  2
Hidden
 70
     6
 71
     1
 72
     2
 73
     2
 90
        0
 40
-0.6
 41
-30.0
 62
     5
 63
     7
 74
     2
 91
        2
 64
     7
 65
   257
 75
     2
175
     1
 42
40.0
 92
        0
 66
   257
 43
1.0
 76
     1
 77
     6
 78
     2
 67
     7
 79
     3
170
     0
171
     0
290
     0
174
     0
 93
        1
 44
0.0
173
     0
291
     0
 45
0.0
1001
ACAD
1000
AcDbSavedByObjectVersion
1070
     0
  0
VISUALSTYLE
  5
984F
102
{ACAD_XDICTIONARY
360
98BD
102
}
102
{ACAD_REACTORS
330
9839
102
}
330
9839
100
AcDbVisualStyle
  2
JitterOff
 70
    20
 71
     2
 72
     2
 73
     0
 90
        0
 40
-0.6
 41
-30.0
 62
     5
 63
     7
 74
     1
 91
        4
 64
     7
 65
   257
 75
     1
175
     1
 42
1.0
 92
       10
 66
     7
 43
1.0
 76
     1
 77
     6
 78
     2
 67
     7
 79
     5
170
     0
171
     0
290
     0
174
     0
 93
        1
 44
0.0
173
     0
291
     1
 45
0.0
1001
ACAD
1000
AcDbSavedByObjectVersion
1070
     0
  0
VISUALSTYLE
  5
9847
102
{ACAD_XDICTIONARY
360
98AD
102
}
102
{ACAD_REACTORS
330
9839
102
}
330
9839
100
AcDbVisualStyle
  2
Linepattern
 70
    14
 71
     2
 72
     2
 73
     0
 90
        0
 40
-0.6
 41
-30.0
 62
     5
 63
     7
 74
     1
 91
        4
 64
     7
 65
   257
 75
     7
175
     7
 42
1.0
 92
        8
 66
     7
 43
1.0
 76
     1
 77
     6
 78
     2
 67
     7
 79
     5
170
     0
171
     0
290
     0
174
     0
 93
        1
 44
0.0
173
     0
291
     1
 45
0.0
1001
ACAD
1000
AcDbSavedByObjectVersion
1070
     0
  0
VISUALSTYLE
  5
9850
102
{ACAD_XDICTIONARY
360
98BF
102
}
102
{ACAD_REACTORS
330
9839
102
}
330
9839
100
AcDbVisualStyle
  2
OverhangOff
 70
    21
 71
     2
 72
     2
 73
     0
 90
        0
 40
-0.6
 41
-30.0
 62
     5
 63
     7
 74
     1
 91
        4
 64
     7
 65
   257
 75
     1
175
     1
 42
1.0
 92
        9
 66
     7
 43
1.0
 76
     1
 77
     6
 78
     2
 67
     7
 79
     5
170
     0
171
     0
290
     0
174
     0
 93
        1
 44
0.0
173
     0
291
     1
 45
0.0
1001
ACAD
1000
AcDbSavedByObjectVersion
1070
     0
  0
VISUALSTYLE
  5
9843
102
{ACAD_XDICTIONARY
360
98A5
102
}
102
{ACAD_REACTORS
330
9839
102
}
330
9839
100
AcDbVisualStyle
  2
Realistic
 70
     8
 71
     2
 72
     3
 73
     0
 90
        2
 40
-0.6
 41
30.0
 62
     5
 63
     7
 74
     0
 91
        0
 64
     7
 65
   257
 75
     1
175
     1
 42
1.0
 92
        8
 66
   257
 43
1.0
 76
     1
 77
     6
 78
     2
 67
     7
 79
     3
170
     0
171
     0
290
     0
174
     0
 93
       13
 44
0.0
173
     0
291
     0
 45
0.0
1001
ACAD
1000
AcDbSavedByObjectVersion
1070
     0
  0
VISUALSTYLE
  5
984E
102
{ACAD_XDICTIONARY
360
98BB
102
}
102
{ACAD_REACTORS
330
9839
102
}
330
9839
100
AcDbVisualStyle
  2
Shaded
 70
    27
 71
     2
 72
     2
 73
     1
 90
        2
 40
-0.6
 41
30.0
 62
     5
 63
     7
 74
     0
 91
        4
 64
     7
 65
   257
 75
     1
175
     1
 42
1.0
 92
        8
 66
   257
 43
1.0
 76
     1
 77
     6
 78
     2
 67
     8
 79
     3
170
     0
171
     0
290
     0
174
     0
 93
        5
 44
0.0
173
     0
291
     0
 45
0.0
1001
ACAD
1000
AcDbSavedByObjectVersion
1070
     0
  0
VISUALSTYLE
  5
984D
102
{ACAD_XDICTIONARY
360
98B9
102
}
102
{ACAD_REACTORS
330
9839
102
}
330
9839
100
AcDbVisualStyle
  2
Shaded with edges
 70
    26
 71
     2
 72
     2
 73
     1
 90
        2
 40
-0.6
 41
30.0
 62
     5
 63
     7
 74
     1
 91
       10
 64
     7
 65
   257
 75
     2
175
     1
 42
1.0
 92
        8
 66
   257
 43
1.0
 76
     1
 77
     6
 78
     2
 67
     7
 79
     3
170
     0
171
     0
290
     0
174
     0
 93
        5
 44
0.0
173
     0
291
     0
 45
0.0
1001
ACAD
1000
AcDbSavedByObjectVersion
1070
     0
  0
VISUALSTYLE
  5
984A
102
{ACAD_XDICTIONARY
360
98B3
102
}
102
{ACAD_REACTORS
330
9839
102
}
330
9839
100
AcDbVisualStyle
  2
Shades of Gray
 70
    23
 71
     2
 72
     2
 73
     3
 90
        0
 40
-0.6
 41
-30.0
 62
     5
 63
     7
 74
     2
 91
        2
 64
     7
 65
     7
 75
     1
175
     1
 42
40.0
 92
        8
 66
     7
 43
1.0
 76
     1
 77
     6
 78
     2
 67
     7
 79
     3
170
     0
171
     0
290
     0
174
     0
 93
        1
 44
0.0
173
     0
291
     0
 45
0.0
1001
ACAD
1000
AcDbSavedByObjectVersion
1070
     0
  0
VISUALSTYLE
  5
984B
102
{ACAD_XDICTIONARY
360
98B5
102
}
102
{ACAD_REACTORS
330
9839
102
}
330
9839
100
AcDbVisualStyle
  2
Sketchy
 70
    24
 71
     1
 72
     2
 73
     2
 90
        0
 40
-0.6
 41
-30.0
 62
     5
 63
     7
 74
     2
 91
        2
 64
     7
 65
     7
 75
     1
175
     1
 42
40.0
 92
       11
 66
     7
 43
1.0
 76
     1
 77
     6
 78
     2
 67
     7
 79
     6
170
     0
171
     0
290
     0
174
     0
 93
        1
 44
0.0
173
     0
291
     0
 45
0.0
1001
ACAD
1000
AcDbSavedByObjectVersion
1070
     0
  0
VISUALSTYLE
  5
9846
102
{ACAD_XDICTIONARY
360
98AB
102
}
102
{ACAD_REACTORS
330
9839
102
}
330
9839
100
AcDbVisualStyle
  2
Thicken
 70
    13
 71
     2
 72
     2
 73
     0
 90
        0
 40
-0.6
 41
-30.0
 62
     5
 63
     7
 74
     1
 91
        4
 64
     7
 65
   257
 75
     1
175
     1
 42
1.0
 92
       12
 66
     7
 43
1.0
 76
     1
 77
     6
 78
     2
 67
     7
 79
     5
170
     0
171
     0
290
     0
174
     0
 93
        1
 44
0.0
173
     0
291
     1
 45
0.0
1001
ACAD
1000
AcDbSavedByObjectVersion
1070
     0
  0
VISUALSTYLE
  5
9840
102
{ACAD_XDICTIONARY
360
989F
102
}
102
{ACAD_REACTORS
330
9839
102
}
330
9839
100
AcDbVisualStyle
  2
Wireframe
 70
     5
 71
     0
 72
     2
 73
     0
 90
        0
 40
-0.6
 41
-30.0
 62
     5
 63
     7
 74
     1
 91
        4
 64
     7
 65
   257
 75
     1
175
     1
 42
1.0
 92
        0
 66
   257
 43
1.0
 76
     1
 77
     6
 78
     2
 67
     7
 79
     3
170
     0
171
     0
290
     0
174
     0
 93
        1
 44
0.0
173
     0
291
     0
 45
0.0
1001
ACAD
1000
AcDbSavedByObjectVersion
1070
     0
  0
VISUALSTYLE
  5
984C
102
{ACAD_XDICTIONARY
360
98B7
102
}
102
{ACAD_REACTORS
330
9839
102
}
330
9839
100
AcDbVisualStyle
  2
X-Ray
 70
    25
 71
     2
 72
     2
 73
     1
 90
        1
 40
0.5
 41
-30.0
 62
     5
 63
     7
 74
     1
 91
        0
 64
     7
 65
   257
 75
     1
175
     1
 42
1.0
 92
        8
 66
     7
 43
1.0
 76
     1
 77
     6
 78
     2
 67
     7
 79
     3
170
     0
171
     0
290
     0
174
     0
 93
       13
 44
0.0
173
     0
291
     0
 45
0.0
1001
ACAD
1000
AcDbSavedByObjectVersion
1070
     0
  0
DICTIONARYVAR
  5
9886
102
{ACAD_REACTORS
330
9881
102
}
330
9881
100
DictionaryVariables
280
     0
  1
1:1
  0
DICTIONARYVAR
  5
9883
102
{ACAD_REACTORS
330
9881
102
}
330
9881
100
DictionaryVariables
280
     0
  1
STANDARD
  0
DICTIONARYVAR
  5
9882
102
{ACAD_REACTORS
330
9881
102
}
330
9881
100
DictionaryVariables
280
     0
  1
STANDARD
  0
DICTIONARYVAR
  5
9884
102
{ACAD_REACTORS
330
9881
102
}
330
9881
100
DictionaryVariables
280
     0
  1
Imperial24
  0
DICTIONARYVAR
  5
9885
102
{ACAD_REACTORS
330
9881
102
}
330
9881
100
DictionaryVariables
280
     0
  1
Imperial24
  0
DICTIONARYVAR
  5
9889
102
{ACAD_REACTORS
330
9881
102
}
330
9881
100
DictionaryVariables
280
     0
  1
1
  0
DICTIONARYVAR
  5
9888
102
{ACAD_REACTORS
330
9881
102
}
330
9881
100
DictionaryVariables
280
     0
  1
0
  0
DICTIONARYVAR
  5
9887
102
{ACAD_REACTORS
330
9881
102
}
330
9881
100
DictionaryVariables
280
     0
  1
127
  0
DICTIONARYVAR
  5
988A
102
{ACAD_REACTORS
330
9881
102
}
330
9881
100
DictionaryVariables
280
     0
  1
2
  0
DICTIONARY
  5
98C7
330
986C
100
AcDbDictionary
280
     1
281
     1
  3
ACAD_XREC_ROUNDTRIP
360
98C8
  0
DICTIONARY
  5
98C9
330
986D
100
AcDbDictionary
280
     1
281
     1
  3
ACAD_XREC_ROUNDTRIP
360
98CA
  0
DICTIONARY
  5
98CB
330
986E
100
AcDbDictionary
280
     1
281
     1
  3
ACAD_XREC_ROUNDTRIP
360
98CC
  0
DICTIONARY
  5
982A
330
9829
100
AcDbDictionary
280
     1
281
     1
  3
ACAD_XREC_ROUNDTRIP
360
9891
  3
BUMPTILE
360
982C
  3
DIFFUSETILE
360
982B
  3
OPACITYTILE
360
982F
  3
REFLECTIONTILE
360
982E
  3
REFRACTIONTILE
360
9830
  3
SPECULARTILE
360
982D
  0
DICTIONARY
  5
9822
330
9821
100
AcDbDictionary
280
     1
281
     1
  3
ACAD_XREC_ROUNDTRIP
360
9890
  3
BUMPTILE
360
9824
  3
DIFFUSETILE
360
9823
  3
OPACITYTILE
360
9827
  3
REFLECTIONTILE
360
9826
  3
REFRACTIONTILE
360
9828
  3
SPECULARTILE
360
9825
  0
DICTIONARY
  5
9832
330
9831
100
AcDbDictionary
280
     1
281
     1
  3
ACAD_XREC_ROUNDTRIP
360
9892
  3
BUMPTILE
360
9834
  3
DIFFUSETILE
360
9833
  3
OPACITYTILE
360
9837
  3
REFLECTIONTILE
360
9836
  3
REFRACTIONTILE
360
9838
  3
SPECULARTILE
360
9835
  0
DICTIONARY
  5
98C5
330
986A
100
AcDbDictionary
280
     1
281
     1
  3
ACAD_XREC_ROUNDTRIP
360
98C6
  0
DICTIONARY
  5
988C
330
9854
100
AcDbDictionary
280
     1
281
     1
  3
ACAD_ROUNDTRIP_2008_TABLESTYLE_CELLSTYLEMAP
360
988D
  3
ACAD_XREC_ROUNDTRIP
360
98C3
  0
DICTIONARY
  5
989D
330
983F
100
AcDbDictionary
280
     1
281
     1
  3
ACAD_XREC_ROUNDTRIP
360
989E
  0
DICTIONARY
  5
989B
330
983E
100
AcDbDictionary
280
     1
281
     1
  3
ACAD_XREC_ROUNDTRIP
360
989C
  0
DICTIONARY
  5
98A9
330
9845
100
AcDbDictionary
280
     1
281
     1
  3
ACAD_XREC_ROUNDTRIP
360
98AA
  0
DICTIONARY
  5
98B1
330
9849
100
AcDbDictionary
280
     1
281
     1
  3
ACAD_XREC_ROUNDTRIP
360
98B2
  0
DICTIONARY
  5
98A3
330
9842
100
AcDbDictionary
280
     1
281
     1
  3
ACAD_XREC_ROUNDTRIP
360
98A4
  0
DICTIONARY
  5
98A7
330
9844
100
AcDbDictionary
280
     1
281
     1
  3
ACAD_XREC_ROUNDTRIP
360
98A8
  0
DICTIONARY
  5
98C1
330
9851
100
AcDbDictionary
280
     1
281
     1
  3
ACAD_XREC_ROUNDTRIP
360
98C2
  0
DICTIONARY
  5
98AF
330
9848
100
AcDbDictionary
280
     1
281
     1
  3
ACAD_XREC_ROUNDTRIP
360
98B0
  0
DICTIONARY
  5
9893
330
983A
100
AcDbDictionary
280
     1
281
     1
  3
ACAD_XREC_ROUNDTRIP
360
9894
  0
DICTIONARY
  5
9895
330
983B
100
AcDbDictionary
280
     1
281
     1
  3
ACAD_XREC_ROUNDTRIP
360
9896
  0
DICTIONARY
  5
9897
330
983C
100
AcDbDictionary
280
     1
281
     1
  3
ACAD_XREC_ROUNDTRIP
360
9898
  0
DICTIONARY
  5
9899
330
983D
100
AcDbDictionary
280
     1
281
     1
  3
ACAD_XREC_ROUNDTRIP
360
989A
  0
DICTIONARY
  5
98A1
330
9841
100
AcDbDictionary
280
     1
281
     1
  3
ACAD_XREC_ROUNDTRIP
360
98A2
  0
DICTIONARY
  5
98BD
330
984F
100
AcDbDictionary
280
     1
281
     1
  3
ACAD_XREC_ROUNDTRIP
360
98BE
  0
DICTIONARY
  5
98AD
330
9847
100
AcDbDictionary
280
     1
281
     1
  3
ACAD_XREC_ROUNDTRIP
360
98AE
  0
DICTIONARY
  5
98BF
330
9850
100
AcDbDictionary
280
     1
281
     1
  3
ACAD_XREC_ROUNDTRIP
360
98C0
  0
DICTIONARY
  5
98A5
330
9843
100
AcDbDictionary
280
     1
281
     1
  3
ACAD_XREC_ROUNDTRIP
360
98A6
  0
DICTIONARY
  5
98BB
330
984E
100
AcDbDictionary
280
     1
281
     1
  3
ACAD_XREC_ROUNDTRIP
360
98BC
  0
DICTIONARY
  5
98B9
330
984D
100
AcDbDictionary
280
     1
281
     1
  3
ACAD_XREC_ROUNDTRIP
360
98BA
  0
DICTIONARY
  5
98B3
330
984A
100
AcDbDictionary
280
     1
281
     1
  3
ACAD_XREC_ROUNDTRIP
360
98B4
  0
DICTIONARY
  5
98B5
330
984B
100
AcDbDictionary
280
     1
281
     1
  3
ACAD_XREC_ROUNDTRIP
360
98B6
  0
DICTIONARY
  5
98AB
330
9846
100
AcDbDictionary
280
     1
281
     1
  3
ACAD_XREC_ROUNDTRIP
360
98AC
  0
DICTIONARY
  5
989F
330
9840
100
AcDbDictionary
280
     1
281
     1
  3
ACAD_XREC_ROUNDTRIP
360
98A0
  0
DICTIONARY
  5
98B7
330
984C
100
AcDbDictionary
280
     1
281
     1
  3
ACAD_XREC_ROUNDTRIP
360
98B8
  0
XRECORD
  5
98C8
102
{ACAD_REACTORS
330
98C7
102
}
330
98C7
100
AcDbXrecord
280
     1
102
DISPLAYNAME
  1
Imperial24
102
FLAGS
 90
        0
  0
XRECORD
  5
98CA
102
{ACAD_REACTORS
330
98C9
102
}
330
98C9
100
AcDbXrecord
280
     1
102
SHADEPLOT
 70
     0
102
SHADEPLOTRESLEVEL
 70
     2
102
SHADEPLOTCUSTOMDPI
 70
   300
  0
XRECORD
  5
98CC
102
{ACAD_REACTORS
330
98CB
102
}
330
98CB
100
AcDbXrecord
280
     1
102
SHADEPLOT
 70
     0
102
SHADEPLOTRESLEVEL
 70
     2
102
SHADEPLOTCUSTOMDPI
 70
   300
  0
XRECORD
  5
9891
102
{ACAD_REACTORS
330
982A
102
}
330
982A
100
AcDbXrecord
280
     1
102
MATERIAL
148
0.0
149
0.0
149
0.0
 93
        0
 94
      127
282
     0
 72
     0
 77
     0
171
     0
175
     0
179
     0
273
     0
  0
XRECORD
  5
982C
102
{ACAD_REACTORS
330
982A
102
}
330
982A
100
AcDbXrecord
280
     1
270
     1
271
     1
  0
XRECORD
  5
982B
102
{ACAD_REACTORS
330
982A
102
}
330
982A
100
AcDbXrecord
280
     1
270
     1
271
     1
  0
XRECORD
  5
982F
102
{ACAD_REACTORS
330
982A
102
}
330
982A
100
AcDbXrecord
280
     1
270
     1
271
     1
  0
XRECORD
  5
982E
102
{ACAD_REACTORS
330
982A
102
}
330
982A
100
AcDbXrecord
280
     1
270
     1
271
     1
  0
XRECORD
  5
9830
102
{ACAD_REACTORS
330
982A
102
}
330
982A
100
AcDbXrecord
280
     1
270
     1
271
     1
  0
XRECORD
  5
982D
102
{ACAD_REACTORS
330
982A
102
}
330
982A
100
AcDbXrecord
280
     1
270
     1
271
     1
  0
XRECORD
  5
9890
102
{ACAD_REACTORS
330
9822
102
}
330
9822
100
AcDbXrecord
280
     1
102
MATERIAL
148
0.0
149
0.0
149
0.0
 93
        0
 94
      127
282
     0
 72
     0
 77
     0
171
     0
175
     0
179
     0
273
     0
  0
XRECORD
  5
9824
102
{ACAD_REACTORS
330
9822
102
}
330
9822
100
AcDbXrecord
280
     1
270
     1
271
     1
  0
XRECORD
  5
9823
102
{ACAD_REACTORS
330
9822
102
}
330
9822
100
AcDbXrecord
280
     1
270
     1
271
     1
  0
XRECORD
  5
9827
102
{ACAD_REACTORS
330
9822
102
}
330
9822
100
AcDbXrecord
280
     1
270
     1
271
     1
  0
XRECORD
  5
9826
102
{ACAD_REACTORS
330
9822
102
}
330
9822
100
AcDbXrecord
280
     1
270
     1
271
     1
  0
XRECORD
  5
9828
102
{ACAD_REACTORS
330
9822
102
}
330
9822
100
AcDbXrecord
280
     1
270
     1
271
     1
  0
XRECORD
  5
9825
102
{ACAD_REACTORS
330
9822
102
}
330
9822
100
AcDbXrecord
280
     1
270
     1
271
     1
  0
XRECORD
  5
9892
102
{ACAD_REACTORS
330
9832
102
}
330
9832
100
AcDbXrecord
280
     1
102
MATERIAL
148
0.0
149
0.0
149
0.0
 93
        0
 94
      127
282
     0
 72
     0
 77
     0
171
     0
175
     0
179
     0
273
     0
  0
XRECORD
  5
9834
102
{ACAD_REACTORS
330
9832
102
}
330
9832
100
AcDbXrecord
280
     1
270
     1
271
     1
  0
XRECORD
  5
9833
102
{ACAD_REACTORS
330
9832
102
}
330
9832
100
AcDbXrecord
280
     1
270
     1
271
     1
  0
XRECORD
  5
9837
102
{ACAD_REACTORS
330
9832
102
}
330
9832
100
AcDbXrecord
280
     1
270
     1
271
     1
  0
XRECORD
  5
9836
102
{ACAD_REACTORS
330
9832
102
}
330
9832
100
AcDbXrecord
280
     1
270
     1
271
     1
  0
XRECORD
  5
9838
102
{ACAD_REACTORS
330
9832
102
}
330
9832
100
AcDbXrecord
280
     1
270
     1
271
     1
  0
XRECORD
  5
9835
102
{ACAD_REACTORS
330
9832
102
}
330
9832
100
AcDbXrecord
280
     1
270
     1
271
     1
  0
XRECORD
  5
98C6
102
{ACAD_REACTORS
330
98C5
102
}
330
98C5
100
AcDbXrecord
280
     1
102
DISPLAYNAME
  1
Imperial24
102
FLAGS
 90
        0
  0
CELLSTYLEMAP
  5
988D
102
{ACAD_REACTORS
330
988C
102
}
330
988C
100
AcDbCellStyleMap
 90
        3
300
CELLSTYLE
  1
TABLEFORMAT_BEGIN
 90
        5
170
     1
 91
        0
 92
    32768
 62
   257
 93
        1
300
CONTENTFORMAT
  1
CONTENTFORMAT_BEGIN
 90
        0
 91
        0
 92
      512
 93
        0
300

 40
0.0
140
1.0
 94
        5
 62
     0
340
9633
144
0.25
309
CONTENTFORMAT_END
171
     0
 94
        0
309
TABLEFORMAT_END
  1
CELLSTYLE_BEGIN
 90
        1
 91
        1
300
_TITLE
309
CELLSTYLE_END
300
CELLSTYLE
  1
TABLEFORMAT_BEGIN
 90
        5
170
     1
 91
        0
 92
        0
 62
   257
 93
        1
300
CONTENTFORMAT
  1
CONTENTFORMAT_BEGIN
 90
        0
 91
        0
 92
      512
 93
        0
300

 40
0.0
140
1.0
 94
        5
 62
     0
340
9633
144
0.18
309
CONTENTFORMAT_END
171
     0
 94
        0
309
TABLEFORMAT_END
  1
CELLSTYLE_BEGIN
 90
        2
 91
        1
300
_HEADER
309
CELLSTYLE_END
300
CELLSTYLE
  1
TABLEFORMAT_BEGIN
 90
        5
170
     1
 91
        0
 92
        0
 62
   257
 93
        1
300
CONTENTFORMAT
  1
CONTENTFORMAT_BEGIN
 90
        0
 91
        0
 92
      512
 93
        0
300

 40
0.0
140
1.0
 94
        2
 62
     0
340
9633
144
0.18
309
CONTENTFORMAT_END
171
     0
 94
        0
309
TABLEFORMAT_END
  1
CELLSTYLE_BEGIN
 90
        3
 91
        2
300
_DATA
309
CELLSTYLE_END
  0
XRECORD
  5
98C3
102
{ACAD_REACTORS
330
988C
102
}
330
988C
100
AcDbXrecord
280
     1
102
ACAD_ROUNDTRIP_PRE2007_TABLESTYLE
 90
      512
 91
        0
  1

 92
      512
 93
        0
  2

 94
      512
 95
        0
  3

  0
XRECORD
  5
989E
102
{ACAD_REACTORS
330
989D
102
}
330
989D
100
AcDbXrecord
280
     1
102
RTVSPost2010Prop28
280
     1
102
RTVSPost2010PropOp28
 70
     1
102
RTVSPost2010Prop29
280
     1
102
RTVSPost2010PropOp29
 70
     1
102
RTVSPost2010Prop30
280
     0
102
RTVSPost2010PropOp30
 70
     1
102
RTVSPost2010Prop31
280
     0
102
RTVSPost2010PropOp31
 70
     1
102
RTVSPost2010Prop32
280
     0
102
RTVSPost2010PropOp32
 70
     1
102
RTVSPost2010Prop33
280
     0
102
RTVSPost2010PropOp33
 70
     1
102
RTVSPost2010Prop34
280
     0
102
RTVSPost2010PropOp34
 70
     1
102
RTVSPost2010Prop35
280
     0
102
RTVSPost2010PropOp35
 70
     1
102
RTVSPost2010Prop36
280
     0
102
RTVSPost2010PropOp36
 70
     1
102
RTVSPost2010Prop37
 90
       50
102
RTVSPost2010PropOp37
 70
     1
102
RTVSPost2010Prop38
140
0.0
102
RTVSPost2010PropOp38
 70
     1
102
RTVSPost2010Prop39
140
1.0
102
RTVSPost2010PropOp39
 70
     1
102
RTVSPost2010Prop40
 90
        0
102
RTVSPost2010PropOp40
 70
     1
102
RTVSPost2010Prop41ColorIndex
 90
       18
102
RTVSPost2010Prop41ColorRGB
 90
        0
102
RTVSPost2010PropOp41
 70
     1
102
RTVSPost2010Prop42
 90
       50
102
RTVSPost2010PropOp42
 70
     1
102
RTVSPost2010Prop43
 90
        3
102
RTVSPost2010PropOp43
 70
     1
102
RTVSPost2010Prop44ColorIndex
 90
        5
102
RTVSPost2010Prop44ColorRGB
 90
      255
102
RTVSPost2010PropOp44
 70
     1
102
RTVSPost2010Prop45
280
     0
102
RTVSPost2010PropOp45
 70
     1
102
RTVSPost2010Prop46
 90
       50
102
RTVSPost2010PropOp46
 70
     1
102
RTVSPost2010Prop47
 90
       50
102
RTVSPost2010PropOp47
 70
     1
102
RTVSPost2010Prop48
 90
       50
102
RTVSPost2010PropOp48
 70
     1
102
RTVSPost2010Prop49
280
     0
102
RTVSPost2010PropOp49
 70
     1
102
RTVSPost2010Prop50
 90
       50
102
RTVSPost2010PropOp50
 70
     1
102
RTVSPost2010Prop51ColorIndex
 90
      256
102
RTVSPost2010Prop51ColorRGB
 90
-16777216
102
RTVSPost2010PropOp51
 70
     0
102
RTVSPost2010Prop52
140
1.0
102
RTVSPost2010PropOp52
 70
     0
102
RTVSPost2010Prop53
 90
        2
102
RTVSPost2010PropOp53
 70
     1
102
RTVSPost2010Prop54
  1
strokes_ogs.tif
102
RTVSPost2010PropOp54
 70
     1
102
RTVSPost2010Prop55
280
     0
102
RTVSPost2010PropOp55
 70
     1
102
RTVSPost2010Prop56
140
1.0
102
RTVSPost2010PropOp56
 70
     1
102
RTVSPost2010Prop57
140
1.0
102
RTVSPost2010PropOp57
 70
     1
102
RTVSPropertyOp0
 70
     1
102
RTVSPropertyOp1
 70
     1
102
RTVSPropertyOp2
 70
     1
102
RTVSPropertyOp3
 70
     1
102
RTVSPropertyOp4
 70
     1
102
RTVSPropertyOp5
 70
     1
102
RTVSPropertyOp6
 70
     1
102
RTVSPropertyOp7
 70
     1
102
RTVSPropertyOp8
 70
     1
102
RTVSPropertyOp9
 70
     1
102
RTVSPropertyOp10
 70
     1
102
RTVSPropertyOp11
 70
     1
102
RTVSPropertyOp12
 70
     1
102
RTVSPropertyOp13
 70
     1
102
RTVSPropertyOp14
 70
     1
102
RTVSPropertyOp15
 70
     1
102
RTVSPropertyOp16
 70
     1
102
RTVSPropertyOp17
 70
     1
102
RTVSPropertyOp18
 70
     1
102
RTVSPropertyOp19
 70
     1
102
RTVSPropertyOp20
 70
     1
102
RTVSPropertyOp21
 70
     1
102
RTVSPropertyOp22
 70
     1
102
RTVSPropertyOp23
 70
     1
102
RTVSPropertyOp24
 70
     1
102
RTVSPropertyOp25
 70
     1
102
RTVSPropertyOp26
 70
     1
102
RTVSPropertyOp27
 70
     1
102
RTVSPropertyOp28
 70
     1
102
RTVSPropertyOp29
 70
     1
102
RTVSPropertyOp30
 70
     1
102
RTVSPropertyOp31
 70
     1
102
RTVSPropertyOp32
 70
     1
102
RTVSPropertyOp33
 70
     1
102
RTVSPropertyOp34
 70
     1
102
RTVSPropertyOp35
 70
     1
102
RTVSPropertyOp36
 70
     1
102
RTVSPropertyOp37
 70
     1
102
RTVSPropertyOp38
 70
     1
102
RTVSPropertyOp39
 70
     1
102
RTVSPropertyOp40
 70
     1
102
RTVSPropertyOp41
 70
     1
102
RTVSPropertyOp42
 70
     1
102
RTVSPropertyOp43
 70
     1
102
RTVSPropertyOp44
 70
     1
102
RTVSPropertyOp45
 70
     1
102
RTVSPropertyOp46
 70
     1
102
RTVSPropertyOp47
 70
     1
102
RTVSPropertyOp48
 70
     1
102
RTVSPropertyOp49
 70
     1
102
RTVSPropertyOp50
 70
     1
102
RTVSPropertyOp51
 70
     0
102
RTVSPropertyOp52
 70
     0
102
RTVSPropertyOp53
 70
     1
102
RTVSPropertyOp54
 70
     1
102
RTVSPropertyOp55
 70
     1
102
RTVSPropertyOp56
 70
     1
102
RTVSPropertyOp57
 70
     1
102
RTVSPropertyOp58
 70
     1
102
RTVSPropertyOp59
 70
     1
102
RTVSPropertyOp60
 70
     1
102
RTVSPropertyOp61
 70
     1
102
RTVSPropertyOp62
 70
     1
  0
XRECORD
  5
989C
102
{ACAD_REACTORS
330
989B
102
}
330
989B
100
AcDbXrecord
280
     1
102
RTVSPost2010Prop28
280
     0
102
RTVSPost2010PropOp28
 70
     1
102
RTVSPost2010Prop29
280
     1
102
RTVSPost2010PropOp29
 70
     1
102
RTVSPost2010Prop30
280
     1
102
RTVSPost2010PropOp30
 70
     1
102
RTVSPost2010Prop31
280
     0
102
RTVSPost2010PropOp31
 70
     1
102
RTVSPost2010Prop32
280
     0
102
RTVSPost2010PropOp32
 70
     1
102
RTVSPost2010Prop33
280
     0
102
RTVSPost2010PropOp33
 70
     1
102
RTVSPost2010Prop34
280
     0
102
RTVSPost2010PropOp34
 70
     1
102
RTVSPost2010Prop35
280
     0
102
RTVSPost2010PropOp35
 70
     1
102
RTVSPost2010Prop36
280
     0
102
RTVSPost2010PropOp36
 70
     1
102
RTVSPost2010Prop37
 90
       50
102
RTVSPost2010PropOp37
 70
     1
102
RTVSPost2010Prop38
140
0.0
102
RTVSPost2010PropOp38
 70
     1
102
RTVSPost2010Prop39
140
1.0
102
RTVSPost2010PropOp39
 70
     1
102
RTVSPost2010Prop40
 90
        0
102
RTVSPost2010PropOp40
 70
     1
102
RTVSPost2010Prop41ColorIndex
 90
       18
102
RTVSPost2010Prop41ColorRGB
 90
        0
102
RTVSPost2010PropOp41
 70
     1
102
RTVSPost2010Prop42
 90
       50
102
RTVSPost2010PropOp42
 70
     1
102
RTVSPost2010Prop43
 90
        3
102
RTVSPost2010PropOp43
 70
     1
102
RTVSPost2010Prop44ColorIndex
 90
        5
102
RTVSPost2010Prop44ColorRGB
 90
      255
102
RTVSPost2010PropOp44
 70
     1
102
RTVSPost2010Prop45
280
     0
102
RTVSPost2010PropOp45
 70
     1
102
RTVSPost2010Prop46
 90
       50
102
RTVSPost2010PropOp46
 70
     1
102
RTVSPost2010Prop47
 90
       50
102
RTVSPost2010PropOp47
 70
     1
102
RTVSPost2010Prop48
 90
       50
102
RTVSPost2010PropOp48
 70
     1
102
RTVSPost2010Prop49
280
     0
102
RTVSPost2010PropOp49
 70
     1
102
RTVSPost2010Prop50
 90
       50
102
RTVSPost2010PropOp50
 70
     1
102
RTVSPost2010Prop51ColorIndex
 90
      256
102
RTVSPost2010Prop51ColorRGB
 90
-16777216
102
RTVSPost2010PropOp51
 70
     0
102
RTVSPost2010Prop52
140
1.0
102
RTVSPost2010PropOp52
 70
     0
102
RTVSPost2010Prop53
 90
        2
102
RTVSPost2010PropOp53
 70
     1
102
RTVSPost2010Prop54
  1
strokes_ogs.tif
102
RTVSPost2010PropOp54
 70
     1
102
RTVSPost2010Prop55
280
     0
102
RTVSPost2010PropOp55
 70
     1
102
RTVSPost2010Prop56
140
1.0
102
RTVSPost2010PropOp56
 70
     1
102
RTVSPost2010Prop57
140
1.0
102
RTVSPost2010PropOp57
 70
     1
102
RTVSPropertyOp0
 70
     1
102
RTVSPropertyOp1
 70
     1
102
RTVSPropertyOp2
 70
     1
102
RTVSPropertyOp3
 70
     1
102
RTVSPropertyOp4
 70
     1
102
RTVSPropertyOp5
 70
     1
102
RTVSPropertyOp6
 70
     1
102
RTVSPropertyOp7
 70
     1
102
RTVSPropertyOp8
 70
     1
102
RTVSPropertyOp9
 70
     1
102
RTVSPropertyOp10
 70
     1
102
RTVSPropertyOp11
 70
     1
102
RTVSPropertyOp12
 70
     1
102
RTVSPropertyOp13
 70
     1
102
RTVSPropertyOp14
 70
     1
102
RTVSPropertyOp15
 70
     1
102
RTVSPropertyOp16
 70
     1
102
RTVSPropertyOp17
 70
     1
102
RTVSPropertyOp18
 70
     1
102
RTVSPropertyOp19
 70
     1
102
RTVSPropertyOp20
 70
     1
102
RTVSPropertyOp21
 70
     1
102
RTVSPropertyOp22
 70
     1
102
RTVSPropertyOp23
 70
     1
102
RTVSPropertyOp24
 70
     1
102
RTVSPropertyOp25
 70
     1
102
RTVSPropertyOp26
 70
     1
102
RTVSPropertyOp27
 70
     1
102
RTVSPropertyOp28
 70
     1
102
RTVSPropertyOp29
 70
     1
102
RTVSPropertyOp30
 70
     1
102
RTVSPropertyOp31
 70
     1
102
RTVSPropertyOp32
 70
     1
102
RTVSPropertyOp33
 70
     1
102
RTVSPropertyOp34
 70
     1
102
RTVSPropertyOp35
 70
     1
102
RTVSPropertyOp36
 70
     1
102
RTVSPropertyOp37
 70
     1
102
RTVSPropertyOp38
 70
     1
102
RTVSPropertyOp39
 70
     1
102
RTVSPropertyOp40
 70
     1
102
RTVSPropertyOp41
 70
     1
102
RTVSPropertyOp42
 70
     1
102
RTVSPropertyOp43
 70
     1
102
RTVSPropertyOp44
 70
     1
102
RTVSPropertyOp45
 70
     1
102
RTVSPropertyOp46
 70
     1
102
RTVSPropertyOp47
 70
     1
102
RTVSPropertyOp48
 70
     1
102
RTVSPropertyOp49
 70
     1
102
RTVSPropertyOp50
 70
     1
102
RTVSPropertyOp51
 70
     0
102
RTVSPropertyOp52
 70
     0
102
RTVSPropertyOp53
 70
     1
102
RTVSPropertyOp54
 70
     1
102
RTVSPropertyOp55
 70
     1
102
RTVSPropertyOp56
 70
     1
102
RTVSPropertyOp57
 70
     1
102
RTVSPropertyOp58
 70
     1
102
RTVSPropertyOp59
 70
     1
102
RTVSPropertyOp60
 70
     1
102
RTVSPropertyOp61
 70
     1
102
RTVSPropertyOp62
 70
     1
  0
XRECORD
  5
98AA
102
{ACAD_REACTORS
330
98A9
102
}
330
98A9
100
AcDbXrecord
280
     1
102
RTVSPost2010Prop28
280
     0
102
RTVSPost2010PropOp28
 70
     1
102
RTVSPost2010Prop29
280
     1
102
RTVSPost2010PropOp29
 70
     1
102
RTVSPost2010Prop30
280
     1
102
RTVSPost2010PropOp30
 70
     1
102
RTVSPost2010Prop31
280
     0
102
RTVSPost2010PropOp31
 70
     1
102
RTVSPost2010Prop32
280
     0
102
RTVSPost2010PropOp32
 70
     1
102
RTVSPost2010Prop33
280
     0
102
RTVSPost2010PropOp33
 70
     1
102
RTVSPost2010Prop34
280
     0
102
RTVSPost2010PropOp34
 70
     1
102
RTVSPost2010Prop35
280
     0
102
RTVSPost2010PropOp35
 70
     1
102
RTVSPost2010Prop36
280
     0
102
RTVSPost2010PropOp36
 70
     1
102
RTVSPost2010Prop37
 90
       50
102
RTVSPost2010PropOp37
 70
     1
102
RTVSPost2010Prop38
140
0.0
102
RTVSPost2010PropOp38
 70
     1
102
RTVSPost2010Prop39
140
1.0
102
RTVSPost2010PropOp39
 70
     1
102
RTVSPost2010Prop40
 90
        0
102
RTVSPost2010PropOp40
 70
     1
102
RTVSPost2010Prop41ColorIndex
 90
       18
102
RTVSPost2010Prop41ColorRGB
 90
        0
102
RTVSPost2010PropOp41
 70
     1
102
RTVSPost2010Prop42
 90
       50
102
RTVSPost2010PropOp42
 70
     1
102
RTVSPost2010Prop43
 90
        3
102
RTVSPost2010PropOp43
 70
     1
102
RTVSPost2010Prop44ColorIndex
 90
        5
102
RTVSPost2010Prop44ColorRGB
 90
      255
102
RTVSPost2010PropOp44
 70
     1
102
RTVSPost2010Prop45
280
     0
102
RTVSPost2010PropOp45
 70
     1
102
RTVSPost2010Prop46
 90
       50
102
RTVSPost2010PropOp46
 70
     1
102
RTVSPost2010Prop47
 90
       50
102
RTVSPost2010PropOp47
 70
     1
102
RTVSPost2010Prop48
 90
       50
102
RTVSPost2010PropOp48
 70
     1
102
RTVSPost2010Prop49
280
     0
102
RTVSPost2010PropOp49
 70
     1
102
RTVSPost2010Prop50
 90
       50
102
RTVSPost2010PropOp50
 70
     1
102
RTVSPost2010Prop51ColorIndex
 90
      256
102
RTVSPost2010Prop51ColorRGB
 90
-16777216
102
RTVSPost2010PropOp51
 70
     0
102
RTVSPost2010Prop52
140
1.0
102
RTVSPost2010PropOp52
 70
     0
102
RTVSPost2010Prop53
 90
        2
102
RTVSPost2010PropOp53
 70
     1
102
RTVSPost2010Prop54
  1
strokes_ogs.tif
102
RTVSPost2010PropOp54
 70
     1
102
RTVSPost2010Prop55
280
     0
102
RTVSPost2010PropOp55
 70
     1
102
RTVSPost2010Prop56
140
1.0
102
RTVSPost2010PropOp56
 70
     1
102
RTVSPost2010Prop57
140
1.0
102
RTVSPost2010PropOp57
 70
     1
102
RTVSPropertyOp0
 70
     1
102
RTVSPropertyOp1
 70
     1
102
RTVSPropertyOp2
 70
     1
102
RTVSPropertyOp3
 70
     1
102
RTVSPropertyOp4
 70
     1
102
RTVSPropertyOp5
 70
     1
102
RTVSPropertyOp6
 70
     1
102
RTVSPropertyOp7
 70
     1
102
RTVSPropertyOp8
 70
     1
102
RTVSPropertyOp9
 70
     1
102
RTVSPropertyOp10
 70
     1
102
RTVSPropertyOp11
 70
     1
102
RTVSPropertyOp12
 70
     1
102
RTVSPropertyOp13
 70
     1
102
RTVSPropertyOp14
 70
     1
102
RTVSPropertyOp15
 70
     1
102
RTVSPropertyOp16
 70
     1
102
RTVSPropertyOp17
 70
     1
102
RTVSPropertyOp18
 70
     1
102
RTVSPropertyOp19
 70
     1
102
RTVSPropertyOp20
 70
     1
102
RTVSPropertyOp21
 70
     1
102
RTVSPropertyOp22
 70
     1
102
RTVSPropertyOp23
 70
     1
102
RTVSPropertyOp24
 70
     1
102
RTVSPropertyOp25
 70
     1
102
RTVSPropertyOp26
 70
     1
102
RTVSPropertyOp27
 70
     1
102
RTVSPropertyOp28
 70
     1
102
RTVSPropertyOp29
 70
     1
102
RTVSPropertyOp30
 70
     1
102
RTVSPropertyOp31
 70
     1
102
RTVSPropertyOp32
 70
     1
102
RTVSPropertyOp33
 70
     1
102
RTVSPropertyOp34
 70
     1
102
RTVSPropertyOp35
 70
     1
102
RTVSPropertyOp36
 70
     1
102
RTVSPropertyOp37
 70
     1
102
RTVSPropertyOp38
 70
     1
102
RTVSPropertyOp39
 70
     1
102
RTVSPropertyOp40
 70
     1
102
RTVSPropertyOp41
 70
     1
102
RTVSPropertyOp42
 70
     1
102
RTVSPropertyOp43
 70
     1
102
RTVSPropertyOp44
 70
     1
102
RTVSPropertyOp45
 70
     1
102
RTVSPropertyOp46
 70
     1
102
RTVSPropertyOp47
 70
     1
102
RTVSPropertyOp48
 70
     1
102
RTVSPropertyOp49
 70
     1
102
RTVSPropertyOp50
 70
     1
102
RTVSPropertyOp51
 70
     0
102
RTVSPropertyOp52
 70
     0
102
RTVSPropertyOp53
 70
     1
102
RTVSPropertyOp54
 70
     1
102
RTVSPropertyOp55
 70
     1
102
RTVSPropertyOp56
 70
     1
102
RTVSPropertyOp57
 70
     1
102
RTVSPropertyOp58
 70
     1
102
RTVSPropertyOp59
 70
     1
102
RTVSPropertyOp60
 70
     1
102
RTVSPropertyOp61
 70
     1
102
RTVSPropertyOp62
 70
     1
  0
XRECORD
  5
98B2
102
{ACAD_REACTORS
330
98B1
102
}
330
98B1
100
AcDbXrecord
280
     1
102
RTVSPost2010Prop28
280
     0
102
RTVSPost2010PropOp28
 70
     1
102
RTVSPost2010Prop29
280
     1
102
RTVSPost2010PropOp29
 70
     1
102
RTVSPost2010Prop30
280
     1
102
RTVSPost2010PropOp30
 70
     1
102
RTVSPost2010Prop31
280
     0
102
RTVSPost2010PropOp31
 70
     1
102
RTVSPost2010Prop32
280
     0
102
RTVSPost2010PropOp32
 70
     1
102
RTVSPost2010Prop33
280
     0
102
RTVSPost2010PropOp33
 70
     1
102
RTVSPost2010Prop34
280
     0
102
RTVSPost2010PropOp34
 70
     1
102
RTVSPost2010Prop35
280
     0
102
RTVSPost2010PropOp35
 70
     1
102
RTVSPost2010Prop36
280
     0
102
RTVSPost2010PropOp36
 70
     1
102
RTVSPost2010Prop37
 90
       50
102
RTVSPost2010PropOp37
 70
     1
102
RTVSPost2010Prop38
140
0.0
102
RTVSPost2010PropOp38
 70
     1
102
RTVSPost2010Prop39
140
1.0
102
RTVSPost2010PropOp39
 70
     1
102
RTVSPost2010Prop40
 90
        0
102
RTVSPost2010PropOp40
 70
     1
102
RTVSPost2010Prop41ColorIndex
 90
       18
102
RTVSPost2010Prop41ColorRGB
 90
        0
102
RTVSPost2010PropOp41
 70
     1
102
RTVSPost2010Prop42
 90
       50
102
RTVSPost2010PropOp42
 70
     1
102
RTVSPost2010Prop43
 90
        3
102
RTVSPost2010PropOp43
 70
     1
102
RTVSPost2010Prop44ColorIndex
 90
        5
102
RTVSPost2010Prop44ColorRGB
 90
      255
102
RTVSPost2010PropOp44
 70
     1
102
RTVSPost2010Prop45
280
     0
102
RTVSPost2010PropOp45
 70
     1
102
RTVSPost2010Prop46
 90
       50
102
RTVSPost2010PropOp46
 70
     1
102
RTVSPost2010Prop47
 90
       50
102
RTVSPost2010PropOp47
 70
     1
102
RTVSPost2010Prop48
 90
       50
102
RTVSPost2010PropOp48
 70
     1
102
RTVSPost2010Prop49
280
     0
102
RTVSPost2010PropOp49
 70
     1
102
RTVSPost2010Prop50
 90
       50
102
RTVSPost2010PropOp50
 70
     1
102
RTVSPost2010Prop51ColorIndex
 90
      256
102
RTVSPost2010Prop51ColorRGB
 90
-16777216
102
RTVSPost2010PropOp51
 70
     0
102
RTVSPost2010Prop52
140
1.0
102
RTVSPost2010PropOp52
 70
     0
102
RTVSPost2010Prop53
 90
        2
102
RTVSPost2010PropOp53
 70
     1
102
RTVSPost2010Prop54
  1
strokes_ogs.tif
102
RTVSPost2010PropOp54
 70
     1
102
RTVSPost2010Prop55
280
     0
102
RTVSPost2010PropOp55
 70
     1
102
RTVSPost2010Prop56
140
1.0
102
RTVSPost2010PropOp56
 70
     1
102
RTVSPost2010Prop57
140
1.0
102
RTVSPost2010PropOp57
 70
     1
102
RTVSPropertyOp0
 70
     1
102
RTVSPropertyOp1
 70
     1
102
RTVSPropertyOp2
 70
     1
102
RTVSPropertyOp3
 70
     1
102
RTVSPropertyOp4
 70
     1
102
RTVSPropertyOp5
 70
     1
102
RTVSPropertyOp6
 70
     1
102
RTVSPropertyOp7
 70
     1
102
RTVSPropertyOp8
 70
     1
102
RTVSPropertyOp9
 70
     1
102
RTVSPropertyOp10
 70
     1
102
RTVSPropertyOp11
 70
     1
102
RTVSPropertyOp12
 70
     1
102
RTVSPropertyOp13
 70
     1
102
RTVSPropertyOp14
 70
     1
102
RTVSPropertyOp15
 70
     1
102
RTVSPropertyOp16
 70
     1
102
RTVSPropertyOp17
 70
     1
102
RTVSPropertyOp18
 70
     1
102
RTVSPropertyOp19
 70
     1
102
RTVSPropertyOp20
 70
     1
102
RTVSPropertyOp21
 70
     1
102
RTVSPropertyOp22
 70
     1
102
RTVSPropertyOp23
 70
     1
102
RTVSPropertyOp24
 70
     1
102
RTVSPropertyOp25
 70
     1
102
RTVSPropertyOp26
 70
     1
102
RTVSPropertyOp27
 70
     1
102
RTVSPropertyOp28
 70
     1
102
RTVSPropertyOp29
 70
     1
102
RTVSPropertyOp30
 70
     1
102
RTVSPropertyOp31
 70
     1
102
RTVSPropertyOp32
 70
     1
102
RTVSPropertyOp33
 70
     1
102
RTVSPropertyOp34
 70
     1
102
RTVSPropertyOp35
 70
     1
102
RTVSPropertyOp36
 70
     1
102
RTVSPropertyOp37
 70
     1
102
RTVSPropertyOp38
 70
     1
102
RTVSPropertyOp39
 70
     1
102
RTVSPropertyOp40
 70
     1
102
RTVSPropertyOp41
 70
     1
102
RTVSPropertyOp42
 70
     1
102
RTVSPropertyOp43
 70
     1
102
RTVSPropertyOp44
 70
     1
102
RTVSPropertyOp45
 70
     1
102
RTVSPropertyOp46
 70
     1
102
RTVSPropertyOp47
 70
     1
102
RTVSPropertyOp48
 70
     1
102
RTVSPropertyOp49
 70
     1
102
RTVSPropertyOp50
 70
     1
102
RTVSPropertyOp51
 70
     0
102
RTVSPropertyOp52
 70
     0
102
RTVSPropertyOp53
 70
     1
102
RTVSPropertyOp54
 70
     1
102
RTVSPropertyOp55
 70
     1
102
RTVSPropertyOp56
 70
     1
102
RTVSPropertyOp57
 70
     1
102
RTVSPropertyOp58
 70
     1
102
RTVSPropertyOp59
 70
     1
102
RTVSPropertyOp60
 70
     1
102
RTVSPropertyOp61
 70
     1
102
RTVSPropertyOp62
 70
     1
  0
XRECORD
  5
98A4
102
{ACAD_REACTORS
330
98A3
102
}
330
98A3
100
AcDbXrecord
280
     1
102
RTVSPost2010Prop28
280
     0
102
RTVSPost2010PropOp28
 70
     1
102
RTVSPost2010Prop29
280
     1
102
RTVSPost2010PropOp29
 70
     1
102
RTVSPost2010Prop30
280
     1
102
RTVSPost2010PropOp30
 70
     1
102
RTVSPost2010Prop31
280
     0
102
RTVSPost2010PropOp31
 70
     1
102
RTVSPost2010Prop32
280
     0
102
RTVSPost2010PropOp32
 70
     1
102
RTVSPost2010Prop33
280
     0
102
RTVSPost2010PropOp33
 70
     1
102
RTVSPost2010Prop34
280
     0
102
RTVSPost2010PropOp34
 70
     1
102
RTVSPost2010Prop35
280
     0
102
RTVSPost2010PropOp35
 70
     1
102
RTVSPost2010Prop36
280
     0
102
RTVSPost2010PropOp36
 70
     1
102
RTVSPost2010Prop37
 90
       50
102
RTVSPost2010PropOp37
 70
     1
102
RTVSPost2010Prop38
140
0.0
102
RTVSPost2010PropOp38
 70
     1
102
RTVSPost2010Prop39
140
1.0
102
RTVSPost2010PropOp39
 70
     1
102
RTVSPost2010Prop40
 90
        0
102
RTVSPost2010PropOp40
 70
     1
102
RTVSPost2010Prop41ColorIndex
 90
       18
102
RTVSPost2010Prop41ColorRGB
 90
        0
102
RTVSPost2010PropOp41
 70
     1
102
RTVSPost2010Prop42
 90
       50
102
RTVSPost2010PropOp42
 70
     1
102
RTVSPost2010Prop43
 90
        3
102
RTVSPost2010PropOp43
 70
     1
102
RTVSPost2010Prop44ColorIndex
 90
        5
102
RTVSPost2010Prop44ColorRGB
 90
      255
102
RTVSPost2010PropOp44
 70
     1
102
RTVSPost2010Prop45
280
     0
102
RTVSPost2010PropOp45
 70
     1
102
RTVSPost2010Prop46
 90
       50
102
RTVSPost2010PropOp46
 70
     1
102
RTVSPost2010Prop47
 90
       50
102
RTVSPost2010PropOp47
 70
     1
102
RTVSPost2010Prop48
 90
       50
102
RTVSPost2010PropOp48
 70
     1
102
RTVSPost2010Prop49
280
     0
102
RTVSPost2010PropOp49
 70
     1
102
RTVSPost2010Prop50
 90
       50
102
RTVSPost2010PropOp50
 70
     1
102
RTVSPost2010Prop51ColorIndex
 90
      256
102
RTVSPost2010Prop51ColorRGB
 90
-16777216
102
RTVSPost2010PropOp51
 70
     0
102
RTVSPost2010Prop52
140
1.0
102
RTVSPost2010PropOp52
 70
     0
102
RTVSPost2010Prop53
 90
        2
102
RTVSPost2010PropOp53
 70
     1
102
RTVSPost2010Prop54
  1
strokes_ogs.tif
102
RTVSPost2010PropOp54
 70
     1
102
RTVSPost2010Prop55
280
     0
102
RTVSPost2010PropOp55
 70
     1
102
RTVSPost2010Prop56
140
1.0
102
RTVSPost2010PropOp56
 70
     1
102
RTVSPost2010Prop57
140
1.0
102
RTVSPost2010PropOp57
 70
     1
102
RTVSPropertyOp0
 70
     1
102
RTVSPropertyOp1
 70
     1
102
RTVSPropertyOp2
 70
     1
102
RTVSPropertyOp3
 70
     1
102
RTVSPropertyOp4
 70
     1
102
RTVSPropertyOp5
 70
     1
102
RTVSPropertyOp6
 70
     1
102
RTVSPropertyOp7
 70
     1
102
RTVSPropertyOp8
 70
     1
102
RTVSPropertyOp9
 70
     1
102
RTVSPropertyOp10
 70
     1
102
RTVSPropertyOp11
 70
     1
102
RTVSPropertyOp12
 70
     1
102
RTVSPropertyOp13
 70
     1
102
RTVSPropertyOp14
 70
     1
102
RTVSPropertyOp15
 70
     1
102
RTVSPropertyOp16
 70
     1
102
RTVSPropertyOp17
 70
     1
102
RTVSPropertyOp18
 70
     1
102
RTVSPropertyOp19
 70
     1
102
RTVSPropertyOp20
 70
     1
102
RTVSPropertyOp21
 70
     1
102
RTVSPropertyOp22
 70
     1
102
RTVSPropertyOp23
 70
     1
102
RTVSPropertyOp24
 70
     1
102
RTVSPropertyOp25
 70
     1
102
RTVSPropertyOp26
 70
     1
102
RTVSPropertyOp27
 70
     1
102
RTVSPropertyOp28
 70
     1
102
RTVSPropertyOp29
 70
     1
102
RTVSPropertyOp30
 70
     1
102
RTVSPropertyOp31
 70
     1
102
RTVSPropertyOp32
 70
     1
102
RTVSPropertyOp33
 70
     1
102
RTVSPropertyOp34
 70
     1
102
RTVSPropertyOp35
 70
     1
102
RTVSPropertyOp36
 70
     1
102
RTVSPropertyOp37
 70
     1
102
RTVSPropertyOp38
 70
     1
102
RTVSPropertyOp39
 70
     1
102
RTVSPropertyOp40
 70
     1
102
RTVSPropertyOp41
 70
     1
102
RTVSPropertyOp42
 70
     1
102
RTVSPropertyOp43
 70
     1
102
RTVSPropertyOp44
 70
     1
102
RTVSPropertyOp45
 70
     1
102
RTVSPropertyOp46
 70
     1
102
RTVSPropertyOp47
 70
     1
102
RTVSPropertyOp48
 70
     1
102
RTVSPropertyOp49
 70
     1
102
RTVSPropertyOp50
 70
     1
102
RTVSPropertyOp51
 70
     0
102
RTVSPropertyOp52
 70
     0
102
RTVSPropertyOp53
 70
     1
102
RTVSPropertyOp54
 70
     1
102
RTVSPropertyOp55
 70
     1
102
RTVSPropertyOp56
 70
     1
102
RTVSPropertyOp57
 70
     1
102
RTVSPropertyOp58
 70
     1
102
RTVSPropertyOp59
 70
     1
102
RTVSPropertyOp60
 70
     1
102
RTVSPropertyOp61
 70
     1
102
RTVSPropertyOp62
 70
     1
  0
XRECORD
  5
98A8
102
{ACAD_REACTORS
330
98A7
102
}
330
98A7
100
AcDbXrecord
280
     1
102
RTVSPost2010Prop28
280
     0
102
RTVSPost2010PropOp28
 70
     1
102
RTVSPost2010Prop29
280
     1
102
RTVSPost2010PropOp29
 70
     1
102
RTVSPost2010Prop30
280
     1
102
RTVSPost2010PropOp30
 70
     1
102
RTVSPost2010Prop31
280
     0
102
RTVSPost2010PropOp31
 70
     1
102
RTVSPost2010Prop32
280
     0
102
RTVSPost2010PropOp32
 70
     1
102
RTVSPost2010Prop33
280
     0
102
RTVSPost2010PropOp33
 70
     1
102
RTVSPost2010Prop34
280
     0
102
RTVSPost2010PropOp34
 70
     1
102
RTVSPost2010Prop35
280
     0
102
RTVSPost2010PropOp35
 70
     1
102
RTVSPost2010Prop36
280
     0
102
RTVSPost2010PropOp36
 70
     1
102
RTVSPost2010Prop37
 90
       50
102
RTVSPost2010PropOp37
 70
     1
102
RTVSPost2010Prop38
140
0.0
102
RTVSPost2010PropOp38
 70
     1
102
RTVSPost2010Prop39
140
1.0
102
RTVSPost2010PropOp39
 70
     1
102
RTVSPost2010Prop40
 90
        0
102
RTVSPost2010PropOp40
 70
     1
102
RTVSPost2010Prop41ColorIndex
 90
       18
102
RTVSPost2010Prop41ColorRGB
 90
        0
102
RTVSPost2010PropOp41
 70
     1
102
RTVSPost2010Prop42
 90
       50
102
RTVSPost2010PropOp42
 70
     1
102
RTVSPost2010Prop43
 90
        3
102
RTVSPost2010PropOp43
 70
     1
102
RTVSPost2010Prop44ColorIndex
 90
        5
102
RTVSPost2010Prop44ColorRGB
 90
      255
102
RTVSPost2010PropOp44
 70
     1
102
RTVSPost2010Prop45
280
     0
102
RTVSPost2010PropOp45
 70
     1
102
RTVSPost2010Prop46
 90
       50
102
RTVSPost2010PropOp46
 70
     1
102
RTVSPost2010Prop47
 90
       50
102
RTVSPost2010PropOp47
 70
     1
102
RTVSPost2010Prop48
 90
       50
102
RTVSPost2010PropOp48
 70
     1
102
RTVSPost2010Prop49
280
     0
102
RTVSPost2010PropOp49
 70
     1
102
RTVSPost2010Prop50
 90
       50
102
RTVSPost2010PropOp50
 70
     1
102
RTVSPost2010Prop51ColorIndex
 90
      256
102
RTVSPost2010Prop51ColorRGB
 90
-16777216
102
RTVSPost2010PropOp51
 70
     0
102
RTVSPost2010Prop52
140
1.0
102
RTVSPost2010PropOp52
 70
     0
102
RTVSPost2010Prop53
 90
        2
102
RTVSPost2010PropOp53
 70
     1
102
RTVSPost2010Prop54
  1
strokes_ogs.tif
102
RTVSPost2010PropOp54
 70
     1
102
RTVSPost2010Prop55
280
     0
102
RTVSPost2010PropOp55
 70
     1
102
RTVSPost2010Prop56
140
1.0
102
RTVSPost2010PropOp56
 70
     1
102
RTVSPost2010Prop57
140
1.0
102
RTVSPost2010PropOp57
 70
     1
102
RTVSPropertyOp0
 70
     1
102
RTVSPropertyOp1
 70
     1
102
RTVSPropertyOp2
 70
     1
102
RTVSPropertyOp3
 70
     1
102
RTVSPropertyOp4
 70
     1
102
RTVSPropertyOp5
 70
     1
102
RTVSPropertyOp6
 70
     1
102
RTVSPropertyOp7
 70
     1
102
RTVSPropertyOp8
 70
     1
102
RTVSPropertyOp9
 70
     1
102
RTVSPropertyOp10
 70
     1
102
RTVSPropertyOp11
 70
     1
102
RTVSPropertyOp12
 70
     1
102
RTVSPropertyOp13
 70
     1
102
RTVSPropertyOp14
 70
     1
102
RTVSPropertyOp15
 70
     1
102
RTVSPropertyOp16
 70
     1
102
RTVSPropertyOp17
 70
     1
102
RTVSPropertyOp18
 70
     1
102
RTVSPropertyOp19
 70
     1
102
RTVSPropertyOp20
 70
     1
102
RTVSPropertyOp21
 70
     1
102
RTVSPropertyOp22
 70
     1
102
RTVSPropertyOp23
 70
     1
102
RTVSPropertyOp24
 70
     1
102
RTVSPropertyOp25
 70
     1
102
RTVSPropertyOp26
 70
     1
102
RTVSPropertyOp27
 70
     1
102
RTVSPropertyOp28
 70
     1
102
RTVSPropertyOp29
 70
     1
102
RTVSPropertyOp30
 70
     1
102
RTVSPropertyOp31
 70
     1
102
RTVSPropertyOp32
 70
     1
102
RTVSPropertyOp33
 70
     1
102
RTVSPropertyOp34
 70
     1
102
RTVSPropertyOp35
 70
     1
102
RTVSPropertyOp36
 70
     1
102
RTVSPropertyOp37
 70
     1
102
RTVSPropertyOp38
 70
     1
102
RTVSPropertyOp39
 70
     1
102
RTVSPropertyOp40
 70
     1
102
RTVSPropertyOp41
 70
     1
102
RTVSPropertyOp42
 70
     1
102
RTVSPropertyOp43
 70
     1
102
RTVSPropertyOp44
 70
     1
102
RTVSPropertyOp45
 70
     1
102
RTVSPropertyOp46
 70
     1
102
RTVSPropertyOp47
 70
     1
102
RTVSPropertyOp48
 70
     1
102
RTVSPropertyOp49
 70
     1
102
RTVSPropertyOp50
 70
     1
102
RTVSPropertyOp51
 70
     0
102
RTVSPropertyOp52
 70
     0
102
RTVSPropertyOp53
 70
     1
102
RTVSPropertyOp54
 70
     1
102
RTVSPropertyOp55
 70
     1
102
RTVSPropertyOp56
 70
     1
102
RTVSPropertyOp57
 70
     1
102
RTVSPropertyOp58
 70
     1
102
RTVSPropertyOp59
 70
     1
102
RTVSPropertyOp60
 70
     1
102
RTVSPropertyOp61
 70
     1
102
RTVSPropertyOp62
 70
     1
  0
XRECORD
  5
98C2
102
{ACAD_REACTORS
330
98C1
102
}
330
98C1
100
AcDbXrecord
280
     1
102
RTVSPost2010Prop28
280
     0
102
RTVSPost2010PropOp28
 70
     1
102
RTVSPost2010Prop29
280
     1
102
RTVSPost2010PropOp29
 70
     1
102
RTVSPost2010Prop30
280
     1
102
RTVSPost2010PropOp30
 70
     1
102
RTVSPost2010Prop31
280
     0
102
RTVSPost2010PropOp31
 70
     1
102
RTVSPost2010Prop32
280
     0
102
RTVSPost2010PropOp32
 70
     1
102
RTVSPost2010Prop33
280
     0
102
RTVSPost2010PropOp33
 70
     1
102
RTVSPost2010Prop34
280
     0
102
RTVSPost2010PropOp34
 70
     1
102
RTVSPost2010Prop35
280
     0
102
RTVSPost2010PropOp35
 70
     1
102
RTVSPost2010Prop36
280
     0
102
RTVSPost2010PropOp36
 70
     1
102
RTVSPost2010Prop37
 90
       50
102
RTVSPost2010PropOp37
 70
     0
102
RTVSPost2010Prop38
140
0.0
102
RTVSPost2010PropOp38
 70
     0
102
RTVSPost2010Prop39
140
1.0
102
RTVSPost2010PropOp39
 70
     0
102
RTVSPost2010Prop40
 90
        0
102
RTVSPost2010PropOp40
 70
     0
102
RTVSPost2010Prop41ColorIndex
 90
       18
102
RTVSPost2010Prop41ColorRGB
 90
        0
102
RTVSPost2010PropOp41
 70
     0
102
RTVSPost2010Prop42
 90
       50
102
RTVSPost2010PropOp42
 70
     0
102
RTVSPost2010Prop43
 90
        3
102
RTVSPost2010PropOp43
 70
     0
102
RTVSPost2010Prop44ColorIndex
 90
        5
102
RTVSPost2010Prop44ColorRGB
 90
      255
102
RTVSPost2010PropOp44
 70
     0
102
RTVSPost2010Prop45
280
     0
102
RTVSPost2010PropOp45
 70
     1
102
RTVSPost2010Prop46
 90
       50
102
RTVSPost2010PropOp46
 70
     0
102
RTVSPost2010Prop47
 90
       50
102
RTVSPost2010PropOp47
 70
     0
102
RTVSPost2010Prop48
 90
       50
102
RTVSPost2010PropOp48
 70
     0
102
RTVSPost2010Prop49
280
     0
102
RTVSPost2010PropOp49
 70
     1
102
RTVSPost2010Prop50
 90
       50
102
RTVSPost2010PropOp50
 70
     0
102
RTVSPost2010Prop51ColorIndex
 90
      256
102
RTVSPost2010Prop51ColorRGB
 90
-16777216
102
RTVSPost2010PropOp51
 70
     0
102
RTVSPost2010Prop52
140
1.0
102
RTVSPost2010PropOp52
 70
     0
102
RTVSPost2010Prop53
 90
        2
102
RTVSPost2010PropOp53
 70
     0
102
RTVSPost2010Prop54
  1
strokes_ogs.tif
102
RTVSPost2010PropOp54
 70
     0
102
RTVSPost2010Prop55
280
     0
102
RTVSPost2010PropOp55
 70
     1
102
RTVSPost2010Prop56
140
1.0
102
RTVSPost2010PropOp56
 70
     0
102
RTVSPost2010Prop57
140
1.0
102
RTVSPost2010PropOp57
 70
     0
102
RTVSPropertyOp0
 70
     0
102
RTVSPropertyOp1
 70
     0
102
RTVSPropertyOp2
 70
     0
102
RTVSPropertyOp3
 70
     0
102
RTVSPropertyOp4
 70
     0
102
RTVSPropertyOp5
 70
     0
102
RTVSPropertyOp6
 70
     0
102
RTVSPropertyOp7
 70
     0
102
RTVSPropertyOp8
 70
     0
102
RTVSPropertyOp9
 70
     0
102
RTVSPropertyOp10
 70
     0
102
RTVSPropertyOp11
 70
     0
102
RTVSPropertyOp12
 70
     0
102
RTVSPropertyOp13
 70
     0
102
RTVSPropertyOp14
 70
     2
102
RTVSPropertyOp15
 70
     0
102
RTVSPropertyOp16
 70
     0
102
RTVSPropertyOp17
 70
     0
102
RTVSPropertyOp18
 70
     0
102
RTVSPropertyOp19
 70
     0
102
RTVSPropertyOp20
 70
     0
102
RTVSPropertyOp21
 70
     0
102
RTVSPropertyOp22
 70
     0
102
RTVSPropertyOp23
 70
     0
102
RTVSPropertyOp24
 70
     0
102
RTVSPropertyOp25
 70
     0
102
RTVSPropertyOp26
 70
     0
102
RTVSPropertyOp27
 70
     0
102
RTVSPropertyOp28
 70
     1
102
RTVSPropertyOp29
 70
     1
102
RTVSPropertyOp30
 70
     1
102
RTVSPropertyOp31
 70
     1
102
RTVSPropertyOp32
 70
     1
102
RTVSPropertyOp33
 70
     1
102
RTVSPropertyOp34
 70
     1
102
RTVSPropertyOp35
 70
     1
102
RTVSPropertyOp36
 70
     1
102
RTVSPropertyOp37
 70
     0
102
RTVSPropertyOp38
 70
     0
102
RTVSPropertyOp39
 70
     0
102
RTVSPropertyOp40
 70
     0
102
RTVSPropertyOp41
 70
     0
102
RTVSPropertyOp42
 70
     0
102
RTVSPropertyOp43
 70
     0
102
RTVSPropertyOp44
 70
     0
102
RTVSPropertyOp45
 70
     1
102
RTVSPropertyOp46
 70
     0
102
RTVSPropertyOp47
 70
     0
102
RTVSPropertyOp48
 70
     0
102
RTVSPropertyOp49
 70
     1
102
RTVSPropertyOp50
 70
     0
102
RTVSPropertyOp51
 70
     0
102
RTVSPropertyOp52
 70
     0
102
RTVSPropertyOp53
 70
     0
102
RTVSPropertyOp54
 70
     0
102
RTVSPropertyOp55
 70
     1
102
RTVSPropertyOp56
 70
     0
102
RTVSPropertyOp57
 70
     0
102
RTVSPropertyOp58
 70
     0
102
RTVSPropertyOp59
 70
     0
102
RTVSPropertyOp60
 70
     0
102
RTVSPropertyOp61
 70
     0
102
RTVSPropertyOp62
 70
     0
  0
XRECORD
  5
98B0
102
{ACAD_REACTORS
330
98AF
102
}
330
98AF
100
AcDbXrecord
280
     1
102
RTVSPost2010Prop28
280
     0
102
RTVSPost2010PropOp28
 70
     1
102
RTVSPost2010Prop29
280
     1
102
RTVSPost2010PropOp29
 70
     1
102
RTVSPost2010Prop30
280
     1
102
RTVSPost2010PropOp30
 70
     1
102
RTVSPost2010Prop31
280
     0
102
RTVSPost2010PropOp31
 70
     1
102
RTVSPost2010Prop32
280
     0
102
RTVSPost2010PropOp32
 70
     1
102
RTVSPost2010Prop33
280
     0
102
RTVSPost2010PropOp33
 70
     1
102
RTVSPost2010Prop34
280
     0
102
RTVSPost2010PropOp34
 70
     1
102
RTVSPost2010Prop35
280
     0
102
RTVSPost2010PropOp35
 70
     1
102
RTVSPost2010Prop36
280
     0
102
RTVSPost2010PropOp36
 70
     1
102
RTVSPost2010Prop37
 90
       50
102
RTVSPost2010PropOp37
 70
     1
102
RTVSPost2010Prop38
140
0.0
102
RTVSPost2010PropOp38
 70
     1
102
RTVSPost2010Prop39
140
1.0
102
RTVSPost2010PropOp39
 70
     1
102
RTVSPost2010Prop40
 90
        0
102
RTVSPost2010PropOp40
 70
     1
102
RTVSPost2010Prop41ColorIndex
 90
       18
102
RTVSPost2010Prop41ColorRGB
 90
        0
102
RTVSPost2010PropOp41
 70
     1
102
RTVSPost2010Prop42
 90
       50
102
RTVSPost2010PropOp42
 70
     1
102
RTVSPost2010Prop43
 90
        3
102
RTVSPost2010PropOp43
 70
     1
102
RTVSPost2010Prop44ColorIndex
 90
        5
102
RTVSPost2010Prop44ColorRGB
 90
      255
102
RTVSPost2010PropOp44
 70
     1
102
RTVSPost2010Prop45
280
     0
102
RTVSPost2010PropOp45
 70
     1
102
RTVSPost2010Prop46
 90
       50
102
RTVSPost2010PropOp46
 70
     1
102
RTVSPost2010Prop47
 90
       50
102
RTVSPost2010PropOp47
 70
     1
102
RTVSPost2010Prop48
 90
       50
102
RTVSPost2010PropOp48
 70
     1
102
RTVSPost2010Prop49
280
     0
102
RTVSPost2010PropOp49
 70
     1
102
RTVSPost2010Prop50
 90
       50
102
RTVSPost2010PropOp50
 70
     1
102
RTVSPost2010Prop51ColorIndex
 90
      256
102
RTVSPost2010Prop51ColorRGB
 90
-16777216
102
RTVSPost2010PropOp51
 70
     0
102
RTVSPost2010Prop52
140
1.0
102
RTVSPost2010PropOp52
 70
     0
102
RTVSPost2010Prop53
 90
        2
102
RTVSPost2010PropOp53
 70
     1
102
RTVSPost2010Prop54
  1
strokes_ogs.tif
102
RTVSPost2010PropOp54
 70
     1
102
RTVSPost2010Prop55
280
     0
102
RTVSPost2010PropOp55
 70
     1
102
RTVSPost2010Prop56
140
1.0
102
RTVSPost2010PropOp56
 70
     1
102
RTVSPost2010Prop57
140
1.0
102
RTVSPost2010PropOp57
 70
     1
102
RTVSPropertyOp0
 70
     1
102
RTVSPropertyOp1
 70
     1
102
RTVSPropertyOp2
 70
     1
102
RTVSPropertyOp3
 70
     1
102
RTVSPropertyOp4
 70
     1
102
RTVSPropertyOp5
 70
     1
102
RTVSPropertyOp6
 70
     1
102
RTVSPropertyOp7
 70
     1
102
RTVSPropertyOp8
 70
     1
102
RTVSPropertyOp9
 70
     1
102
RTVSPropertyOp10
 70
     1
102
RTVSPropertyOp11
 70
     1
102
RTVSPropertyOp12
 70
     1
102
RTVSPropertyOp13
 70
     1
102
RTVSPropertyOp14
 70
     1
102
RTVSPropertyOp15
 70
     1
102
RTVSPropertyOp16
 70
     1
102
RTVSPropertyOp17
 70
     1
102
RTVSPropertyOp18
 70
     1
102
RTVSPropertyOp19
 70
     1
102
RTVSPropertyOp20
 70
     1
102
RTVSPropertyOp21
 70
     1
102
RTVSPropertyOp22
 70
     1
102
RTVSPropertyOp23
 70
     1
102
RTVSPropertyOp24
 70
     1
102
RTVSPropertyOp25
 70
     1
102
RTVSPropertyOp26
 70
     1
102
RTVSPropertyOp27
 70
     1
102
RTVSPropertyOp28
 70
     1
102
RTVSPropertyOp29
 70
     1
102
RTVSPropertyOp30
 70
     1
102
RTVSPropertyOp31
 70
     1
102
RTVSPropertyOp32
 70
     1
102
RTVSPropertyOp33
 70
     1
102
RTVSPropertyOp34
 70
     1
102
RTVSPropertyOp35
 70
     1
102
RTVSPropertyOp36
 70
     1
102
RTVSPropertyOp37
 70
     1
102
RTVSPropertyOp38
 70
     1
102
RTVSPropertyOp39
 70
     1
102
RTVSPropertyOp40
 70
     1
102
RTVSPropertyOp41
 70
     1
102
RTVSPropertyOp42
 70
     1
102
RTVSPropertyOp43
 70
     1
102
RTVSPropertyOp44
 70
     1
102
RTVSPropertyOp45
 70
     1
102
RTVSPropertyOp46
 70
     1
102
RTVSPropertyOp47
 70
     1
102
RTVSPropertyOp48
 70
     1
102
RTVSPropertyOp49
 70
     1
102
RTVSPropertyOp50
 70
     1
102
RTVSPropertyOp51
 70
     0
102
RTVSPropertyOp52
 70
     0
102
RTVSPropertyOp53
 70
     1
102
RTVSPropertyOp54
 70
     1
102
RTVSPropertyOp55
 70
     1
102
RTVSPropertyOp56
 70
     1
102
RTVSPropertyOp57
 70
     1
102
RTVSPropertyOp58
 70
     1
102
RTVSPropertyOp59
 70
     1
102
RTVSPropertyOp60
 70
     1
102
RTVSPropertyOp61
 70
     1
102
RTVSPropertyOp62
 70
     1
  0
XRECORD
  5
9894
102
{ACAD_REACTORS
330
9893
102
}
330
9893
100
AcDbXrecord
280
     1
102
RTVSPost2010Prop28
280
     0
102
RTVSPost2010PropOp28
 70
     1
102
RTVSPost2010Prop29
280
     1
102
RTVSPost2010PropOp29
 70
     1
102
RTVSPost2010Prop30
280
     1
102
RTVSPost2010PropOp30
 70
     1
102
RTVSPost2010Prop31
280
     0
102
RTVSPost2010PropOp31
 70
     1
102
RTVSPost2010Prop32
280
     0
102
RTVSPost2010PropOp32
 70
     1
102
RTVSPost2010Prop33
280
     0
102
RTVSPost2010PropOp33
 70
     1
102
RTVSPost2010Prop34
280
     0
102
RTVSPost2010PropOp34
 70
     1
102
RTVSPost2010Prop35
280
     0
102
RTVSPost2010PropOp35
 70
     1
102
RTVSPost2010Prop36
280
     0
102
RTVSPost2010PropOp36
 70
     1
102
RTVSPost2010Prop37
 90
       50
102
RTVSPost2010PropOp37
 70
     1
102
RTVSPost2010Prop38
140
0.0
102
RTVSPost2010PropOp38
 70
     1
102
RTVSPost2010Prop39
140
1.0
102
RTVSPost2010PropOp39
 70
     1
102
RTVSPost2010Prop40
 90
        0
102
RTVSPost2010PropOp40
 70
     1
102
RTVSPost2010Prop41ColorIndex
 90
       18
102
RTVSPost2010Prop41ColorRGB
 90
        0
102
RTVSPost2010PropOp41
 70
     1
102
RTVSPost2010Prop42
 90
       50
102
RTVSPost2010PropOp42
 70
     1
102
RTVSPost2010Prop43
 90
        3
102
RTVSPost2010PropOp43
 70
     1
102
RTVSPost2010Prop44ColorIndex
 90
        5
102
RTVSPost2010Prop44ColorRGB
 90
      255
102
RTVSPost2010PropOp44
 70
     1
102
RTVSPost2010Prop45
280
     0
102
RTVSPost2010PropOp45
 70
     1
102
RTVSPost2010Prop46
 90
       50
102
RTVSPost2010PropOp46
 70
     1
102
RTVSPost2010Prop47
 90
       50
102
RTVSPost2010PropOp47
 70
     1
102
RTVSPost2010Prop48
 90
       50
102
RTVSPost2010PropOp48
 70
     1
102
RTVSPost2010Prop49
280
     0
102
RTVSPost2010PropOp49
 70
     1
102
RTVSPost2010Prop50
 90
       50
102
RTVSPost2010PropOp50
 70
     1
102
RTVSPost2010Prop51ColorIndex
 90
      256
102
RTVSPost2010Prop51ColorRGB
 90
-16777216
102
RTVSPost2010PropOp51
 70
     0
102
RTVSPost2010Prop52
140
1.0
102
RTVSPost2010PropOp52
 70
     0
102
RTVSPost2010Prop53
 90
        2
102
RTVSPost2010PropOp53
 70
     1
102
RTVSPost2010Prop54
  1
strokes_ogs.tif
102
RTVSPost2010PropOp54
 70
     1
102
RTVSPost2010Prop55
280
     0
102
RTVSPost2010PropOp55
 70
     1
102
RTVSPost2010Prop56
140
1.0
102
RTVSPost2010PropOp56
 70
     1
102
RTVSPost2010Prop57
140
1.0
102
RTVSPost2010PropOp57
 70
     1
102
RTVSPropertyOp0
 70
     1
102
RTVSPropertyOp1
 70
     1
102
RTVSPropertyOp2
 70
     1
102
RTVSPropertyOp3
 70
     1
102
RTVSPropertyOp4
 70
     1
102
RTVSPropertyOp5
 70
     1
102
RTVSPropertyOp6
 70
     1
102
RTVSPropertyOp7
 70
     1
102
RTVSPropertyOp8
 70
     1
102
RTVSPropertyOp9
 70
     1
102
RTVSPropertyOp10
 70
     1
102
RTVSPropertyOp11
 70
     1
102
RTVSPropertyOp12
 70
     1
102
RTVSPropertyOp13
 70
     1
102
RTVSPropertyOp14
 70
     1
102
RTVSPropertyOp15
 70
     1
102
RTVSPropertyOp16
 70
     1
102
RTVSPropertyOp17
 70
     1
102
RTVSPropertyOp18
 70
     1
102
RTVSPropertyOp19
 70
     1
102
RTVSPropertyOp20
 70
     1
102
RTVSPropertyOp21
 70
     1
102
RTVSPropertyOp22
 70
     1
102
RTVSPropertyOp23
 70
     1
102
RTVSPropertyOp24
 70
     1
102
RTVSPropertyOp25
 70
     1
102
RTVSPropertyOp26
 70
     1
102
RTVSPropertyOp27
 70
     1
102
RTVSPropertyOp28
 70
     1
102
RTVSPropertyOp29
 70
     1
102
RTVSPropertyOp30
 70
     1
102
RTVSPropertyOp31
 70
     1
102
RTVSPropertyOp32
 70
     1
102
RTVSPropertyOp33
 70
     1
102
RTVSPropertyOp34
 70
     1
102
RTVSPropertyOp35
 70
     1
102
RTVSPropertyOp36
 70
     1
102
RTVSPropertyOp37
 70
     1
102
RTVSPropertyOp38
 70
     1
102
RTVSPropertyOp39
 70
     1
102
RTVSPropertyOp40
 70
     1
102
RTVSPropertyOp41
 70
     1
102
RTVSPropertyOp42
 70
     1
102
RTVSPropertyOp43
 70
     1
102
RTVSPropertyOp44
 70
     1
102
RTVSPropertyOp45
 70
     1
102
RTVSPropertyOp46
 70
     1
102
RTVSPropertyOp47
 70
     1
102
RTVSPropertyOp48
 70
     1
102
RTVSPropertyOp49
 70
     1
102
RTVSPropertyOp50
 70
     1
102
RTVSPropertyOp51
 70
     0
102
RTVSPropertyOp52
 70
     0
102
RTVSPropertyOp53
 70
     1
102
RTVSPropertyOp54
 70
     1
102
RTVSPropertyOp55
 70
     1
102
RTVSPropertyOp56
 70
     1
102
RTVSPropertyOp57
 70
     1
102
RTVSPropertyOp58
 70
     1
102
RTVSPropertyOp59
 70
     1
102
RTVSPropertyOp60
 70
     1
102
RTVSPropertyOp61
 70
     1
102
RTVSPropertyOp62
 70
     1
  0
XRECORD
  5
9896
102
{ACAD_REACTORS
330
9895
102
}
330
9895
100
AcDbXrecord
280
     1
102
RTVSPost2010Prop28
280
     0
102
RTVSPost2010PropOp28
 70
     1
102
RTVSPost2010Prop29
280
     1
102
RTVSPost2010PropOp29
 70
     1
102
RTVSPost2010Prop30
280
     1
102
RTVSPost2010PropOp30
 70
     1
102
RTVSPost2010Prop31
280
     0
102
RTVSPost2010PropOp31
 70
     1
102
RTVSPost2010Prop32
280
     0
102
RTVSPost2010PropOp32
 70
     1
102
RTVSPost2010Prop33
280
     0
102
RTVSPost2010PropOp33
 70
     1
102
RTVSPost2010Prop34
280
     0
102
RTVSPost2010PropOp34
 70
     1
102
RTVSPost2010Prop35
280
     0
102
RTVSPost2010PropOp35
 70
     1
102
RTVSPost2010Prop36
280
     0
102
RTVSPost2010PropOp36
 70
     1
102
RTVSPost2010Prop37
 90
       50
102
RTVSPost2010PropOp37
 70
     1
102
RTVSPost2010Prop38
140
0.0
102
RTVSPost2010PropOp38
 70
     1
102
RTVSPost2010Prop39
140
1.0
102
RTVSPost2010PropOp39
 70
     1
102
RTVSPost2010Prop40
 90
        0
102
RTVSPost2010PropOp40
 70
     1
102
RTVSPost2010Prop41ColorIndex
 90
       18
102
RTVSPost2010Prop41ColorRGB
 90
        0
102
RTVSPost2010PropOp41
 70
     1
102
RTVSPost2010Prop42
 90
       50
102
RTVSPost2010PropOp42
 70
     1
102
RTVSPost2010Prop43
 90
        3
102
RTVSPost2010PropOp43
 70
     1
102
RTVSPost2010Prop44ColorIndex
 90
        5
102
RTVSPost2010Prop44ColorRGB
 90
      255
102
RTVSPost2010PropOp44
 70
     1
102
RTVSPost2010Prop45
280
     0
102
RTVSPost2010PropOp45
 70
     1
102
RTVSPost2010Prop46
 90
       50
102
RTVSPost2010PropOp46
 70
     1
102
RTVSPost2010Prop47
 90
       50
102
RTVSPost2010PropOp47
 70
     1
102
RTVSPost2010Prop48
 90
       50
102
RTVSPost2010PropOp48
 70
     1
102
RTVSPost2010Prop49
280
     0
102
RTVSPost2010PropOp49
 70
     1
102
RTVSPost2010Prop50
 90
       50
102
RTVSPost2010PropOp50
 70
     1
102
RTVSPost2010Prop51ColorIndex
 90
      256
102
RTVSPost2010Prop51ColorRGB
 90
-16777216
102
RTVSPost2010PropOp51
 70
     0
102
RTVSPost2010Prop52
140
1.0
102
RTVSPost2010PropOp52
 70
     0
102
RTVSPost2010Prop53
 90
        2
102
RTVSPost2010PropOp53
 70
     1
102
RTVSPost2010Prop54
  1
strokes_ogs.tif
102
RTVSPost2010PropOp54
 70
     1
102
RTVSPost2010Prop55
280
     0
102
RTVSPost2010PropOp55
 70
     1
102
RTVSPost2010Prop56
140
1.0
102
RTVSPost2010PropOp56
 70
     1
102
RTVSPost2010Prop57
140
1.0
102
RTVSPost2010PropOp57
 70
     1
102
RTVSPropertyOp0
 70
     1
102
RTVSPropertyOp1
 70
     1
102
RTVSPropertyOp2
 70
     1
102
RTVSPropertyOp3
 70
     1
102
RTVSPropertyOp4
 70
     1
102
RTVSPropertyOp5
 70
     1
102
RTVSPropertyOp6
 70
     1
102
RTVSPropertyOp7
 70
     1
102
RTVSPropertyOp8
 70
     1
102
RTVSPropertyOp9
 70
     1
102
RTVSPropertyOp10
 70
     1
102
RTVSPropertyOp11
 70
     1
102
RTVSPropertyOp12
 70
     1
102
RTVSPropertyOp13
 70
     1
102
RTVSPropertyOp14
 70
     1
102
RTVSPropertyOp15
 70
     1
102
RTVSPropertyOp16
 70
     1
102
RTVSPropertyOp17
 70
     1
102
RTVSPropertyOp18
 70
     1
102
RTVSPropertyOp19
 70
     1
102
RTVSPropertyOp20
 70
     1
102
RTVSPropertyOp21
 70
     1
102
RTVSPropertyOp22
 70
     1
102
RTVSPropertyOp23
 70
     1
102
RTVSPropertyOp24
 70
     1
102
RTVSPropertyOp25
 70
     1
102
RTVSPropertyOp26
 70
     1
102
RTVSPropertyOp27
 70
     1
102
RTVSPropertyOp28
 70
     1
102
RTVSPropertyOp29
 70
     1
102
RTVSPropertyOp30
 70
     1
102
RTVSPropertyOp31
 70
     1
102
RTVSPropertyOp32
 70
     1
102
RTVSPropertyOp33
 70
     1
102
RTVSPropertyOp34
 70
     1
102
RTVSPropertyOp35
 70
     1
102
RTVSPropertyOp36
 70
     1
102
RTVSPropertyOp37
 70
     1
102
RTVSPropertyOp38
 70
     1
102
RTVSPropertyOp39
 70
     1
102
RTVSPropertyOp40
 70
     1
102
RTVSPropertyOp41
 70
     1
102
RTVSPropertyOp42
 70
     1
102
RTVSPropertyOp43
 70
     1
102
RTVSPropertyOp44
 70
     1
102
RTVSPropertyOp45
 70
     1
102
RTVSPropertyOp46
 70
     1
102
RTVSPropertyOp47
 70
     1
102
RTVSPropertyOp48
 70
     1
102
RTVSPropertyOp49
 70
     1
102
RTVSPropertyOp50
 70
     1
102
RTVSPropertyOp51
 70
     0
102
RTVSPropertyOp52
 70
     0
102
RTVSPropertyOp53
 70
     1
102
RTVSPropertyOp54
 70
     1
102
RTVSPropertyOp55
 70
     1
102
RTVSPropertyOp56
 70
     1
102
RTVSPropertyOp57
 70
     1
102
RTVSPropertyOp58
 70
     1
102
RTVSPropertyOp59
 70
     1
102
RTVSPropertyOp60
 70
     1
102
RTVSPropertyOp61
 70
     1
102
RTVSPropertyOp62
 70
     1
  0
XRECORD
  5
9898
102
{ACAD_REACTORS
330
9897
102
}
330
9897
100
AcDbXrecord
280
     1
102
RTVSPost2010Prop28
280
     0
102
RTVSPost2010PropOp28
 70
     1
102
RTVSPost2010Prop29
280
     1
102
RTVSPost2010PropOp29
 70
     1
102
RTVSPost2010Prop30
280
     1
102
RTVSPost2010PropOp30
 70
     1
102
RTVSPost2010Prop31
280
     0
102
RTVSPost2010PropOp31
 70
     1
102
RTVSPost2010Prop32
280
     0
102
RTVSPost2010PropOp32
 70
     1
102
RTVSPost2010Prop33
280
     0
102
RTVSPost2010PropOp33
 70
     1
102
RTVSPost2010Prop34
280
     0
102
RTVSPost2010PropOp34
 70
     1
102
RTVSPost2010Prop35
280
     0
102
RTVSPost2010PropOp35
 70
     1
102
RTVSPost2010Prop36
280
     0
102
RTVSPost2010PropOp36
 70
     1
102
RTVSPost2010Prop37
 90
       50
102
RTVSPost2010PropOp37
 70
     1
102
RTVSPost2010Prop38
140
0.0
102
RTVSPost2010PropOp38
 70
     1
102
RTVSPost2010Prop39
140
1.0
102
RTVSPost2010PropOp39
 70
     1
102
RTVSPost2010Prop40
 90
        0
102
RTVSPost2010PropOp40
 70
     1
102
RTVSPost2010Prop41ColorIndex
 90
       18
102
RTVSPost2010Prop41ColorRGB
 90
        0
102
RTVSPost2010PropOp41
 70
     1
102
RTVSPost2010Prop42
 90
       50
102
RTVSPost2010PropOp42
 70
     1
102
RTVSPost2010Prop43
 90
        3
102
RTVSPost2010PropOp43
 70
     1
102
RTVSPost2010Prop44ColorIndex
 90
        5
102
RTVSPost2010Prop44ColorRGB
 90
      255
102
RTVSPost2010PropOp44
 70
     1
102
RTVSPost2010Prop45
280
     0
102
RTVSPost2010PropOp45
 70
     1
102
RTVSPost2010Prop46
 90
       50
102
RTVSPost2010PropOp46
 70
     1
102
RTVSPost2010Prop47
 90
       50
102
RTVSPost2010PropOp47
 70
     1
102
RTVSPost2010Prop48
 90
       50
102
RTVSPost2010PropOp48
 70
     1
102
RTVSPost2010Prop49
280
     0
102
RTVSPost2010PropOp49
 70
     1
102
RTVSPost2010Prop50
 90
       50
102
RTVSPost2010PropOp50
 70
     1
102
RTVSPost2010Prop51ColorIndex
 90
      256
102
RTVSPost2010Prop51ColorRGB
 90
-16777216
102
RTVSPost2010PropOp51
 70
     0
102
RTVSPost2010Prop52
140
1.0
102
RTVSPost2010PropOp52
 70
     0
102
RTVSPost2010Prop53
 90
        2
102
RTVSPost2010PropOp53
 70
     1
102
RTVSPost2010Prop54
  1
strokes_ogs.tif
102
RTVSPost2010PropOp54
 70
     1
102
RTVSPost2010Prop55
280
     0
102
RTVSPost2010PropOp55
 70
     1
102
RTVSPost2010Prop56
140
1.0
102
RTVSPost2010PropOp56
 70
     1
102
RTVSPost2010Prop57
140
1.0
102
RTVSPost2010PropOp57
 70
     1
102
RTVSPropertyOp0
 70
     1
102
RTVSPropertyOp1
 70
     1
102
RTVSPropertyOp2
 70
     1
102
RTVSPropertyOp3
 70
     1
102
RTVSPropertyOp4
 70
     1
102
RTVSPropertyOp5
 70
     1
102
RTVSPropertyOp6
 70
     1
102
RTVSPropertyOp7
 70
     1
102
RTVSPropertyOp8
 70
     1
102
RTVSPropertyOp9
 70
     1
102
RTVSPropertyOp10
 70
     1
102
RTVSPropertyOp11
 70
     1
102
RTVSPropertyOp12
 70
     1
102
RTVSPropertyOp13
 70
     1
102
RTVSPropertyOp14
 70
     1
102
RTVSPropertyOp15
 70
     1
102
RTVSPropertyOp16
 70
     1
102
RTVSPropertyOp17
 70
     1
102
RTVSPropertyOp18
 70
     1
102
RTVSPropertyOp19
 70
     1
102
RTVSPropertyOp20
 70
     1
102
RTVSPropertyOp21
 70
     1
102
RTVSPropertyOp22
 70
     1
102
RTVSPropertyOp23
 70
     1
102
RTVSPropertyOp24
 70
     1
102
RTVSPropertyOp25
 70
     1
102
RTVSPropertyOp26
 70
     1
102
RTVSPropertyOp27
 70
     1
102
RTVSPropertyOp28
 70
     1
102
RTVSPropertyOp29
 70
     1
102
RTVSPropertyOp30
 70
     1
102
RTVSPropertyOp31
 70
     1
102
RTVSPropertyOp32
 70
     1
102
RTVSPropertyOp33
 70
     1
102
RTVSPropertyOp34
 70
     1
102
RTVSPropertyOp35
 70
     1
102
RTVSPropertyOp36
 70
     1
102
RTVSPropertyOp37
 70
     1
102
RTVSPropertyOp38
 70
     1
102
RTVSPropertyOp39
 70
     1
102
RTVSPropertyOp40
 70
     1
102
RTVSPropertyOp41
 70
     1
102
RTVSPropertyOp42
 70
     1
102
RTVSPropertyOp43
 70
     1
102
RTVSPropertyOp44
 70
     1
102
RTVSPropertyOp45
 70
     1
102
RTVSPropertyOp46
 70
     1
102
RTVSPropertyOp47
 70
     1
102
RTVSPropertyOp48
 70
     1
102
RTVSPropertyOp49
 70
     1
102
RTVSPropertyOp50
 70
     1
102
RTVSPropertyOp51
 70
     0
102
RTVSPropertyOp52
 70
     0
102
RTVSPropertyOp53
 70
     1
102
RTVSPropertyOp54
 70
     1
102
RTVSPropertyOp55
 70
     1
102
RTVSPropertyOp56
 70
     1
102
RTVSPropertyOp57
 70
     1
102
RTVSPropertyOp58
 70
     1
102
RTVSPropertyOp59
 70
     1
102
RTVSPropertyOp60
 70
     1
102
RTVSPropertyOp61
 70
     1
102
RTVSPropertyOp62
 70
     1
  0
XRECORD
  5
989A
102
{ACAD_REACTORS
330
9899
102
}
330
9899
100
AcDbXrecord
280
     1
102
RTVSPost2010Prop28
280
     0
102
RTVSPost2010PropOp28
 70
     1
102
RTVSPost2010Prop29
280
     1
102
RTVSPost2010PropOp29
 70
     1
102
RTVSPost2010Prop30
280
     1
102
RTVSPost2010PropOp30
 70
     1
102
RTVSPost2010Prop31
280
     0
102
RTVSPost2010PropOp31
 70
     1
102
RTVSPost2010Prop32
280
     0
102
RTVSPost2010PropOp32
 70
     1
102
RTVSPost2010Prop33
280
     0
102
RTVSPost2010PropOp33
 70
     1
102
RTVSPost2010Prop34
280
     0
102
RTVSPost2010PropOp34
 70
     1
102
RTVSPost2010Prop35
280
     0
102
RTVSPost2010PropOp35
 70
     1
102
RTVSPost2010Prop36
280
     0
102
RTVSPost2010PropOp36
 70
     1
102
RTVSPost2010Prop37
 90
       50
102
RTVSPost2010PropOp37
 70
     1
102
RTVSPost2010Prop38
140
0.0
102
RTVSPost2010PropOp38
 70
     1
102
RTVSPost2010Prop39
140
1.0
102
RTVSPost2010PropOp39
 70
     1
102
RTVSPost2010Prop40
 90
        0
102
RTVSPost2010PropOp40
 70
     1
102
RTVSPost2010Prop41ColorIndex
 90
       18
102
RTVSPost2010Prop41ColorRGB
 90
        0
102
RTVSPost2010PropOp41
 70
     1
102
RTVSPost2010Prop42
 90
       50
102
RTVSPost2010PropOp42
 70
     1
102
RTVSPost2010Prop43
 90
        3
102
RTVSPost2010PropOp43
 70
     1
102
RTVSPost2010Prop44ColorIndex
 90
        5
102
RTVSPost2010Prop44ColorRGB
 90
      255
102
RTVSPost2010PropOp44
 70
     1
102
RTVSPost2010Prop45
280
     0
102
RTVSPost2010PropOp45
 70
     1
102
RTVSPost2010Prop46
 90
       50
102
RTVSPost2010PropOp46
 70
     1
102
RTVSPost2010Prop47
 90
       50
102
RTVSPost2010PropOp47
 70
     1
102
RTVSPost2010Prop48
 90
       50
102
RTVSPost2010PropOp48
 70
     1
102
RTVSPost2010Prop49
280
     0
102
RTVSPost2010PropOp49
 70
     1
102
RTVSPost2010Prop50
 90
       50
102
RTVSPost2010PropOp50
 70
     1
102
RTVSPost2010Prop51ColorIndex
 90
      256
102
RTVSPost2010Prop51ColorRGB
 90
-16777216
102
RTVSPost2010PropOp51
 70
     0
102
RTVSPost2010Prop52
140
1.0
102
RTVSPost2010PropOp52
 70
     0
102
RTVSPost2010Prop53
 90
        2
102
RTVSPost2010PropOp53
 70
     1
102
RTVSPost2010Prop54
  1
strokes_ogs.tif
102
RTVSPost2010PropOp54
 70
     1
102
RTVSPost2010Prop55
280
     0
102
RTVSPost2010PropOp55
 70
     1
102
RTVSPost2010Prop56
140
1.0
102
RTVSPost2010PropOp56
 70
     1
102
RTVSPost2010Prop57
140
1.0
102
RTVSPost2010PropOp57
 70
     1
102
RTVSPropertyOp0
 70
     1
102
RTVSPropertyOp1
 70
     1
102
RTVSPropertyOp2
 70
     1
102
RTVSPropertyOp3
 70
     1
102
RTVSPropertyOp4
 70
     1
102
RTVSPropertyOp5
 70
     1
102
RTVSPropertyOp6
 70
     1
102
RTVSPropertyOp7
 70
     1
102
RTVSPropertyOp8
 70
     1
102
RTVSPropertyOp9
 70
     1
102
RTVSPropertyOp10
 70
     1
102
RTVSPropertyOp11
 70
     1
102
RTVSPropertyOp12
 70
     1
102
RTVSPropertyOp13
 70
     1
102
RTVSPropertyOp14
 70
     1
102
RTVSPropertyOp15
 70
     1
102
RTVSPropertyOp16
 70
     1
102
RTVSPropertyOp17
 70
     1
102
RTVSPropertyOp18
 70
     1
102
RTVSPropertyOp19
 70
     1
102
RTVSPropertyOp20
 70
     1
102
RTVSPropertyOp21
 70
     1
102
RTVSPropertyOp22
 70
     1
102
RTVSPropertyOp23
 70
     1
102
RTVSPropertyOp24
 70
     1
102
RTVSPropertyOp25
 70
     1
102
RTVSPropertyOp26
 70
     1
102
RTVSPropertyOp27
 70
     1
102
RTVSPropertyOp28
 70
     1
102
RTVSPropertyOp29
 70
     1
102
RTVSPropertyOp30
 70
     1
102
RTVSPropertyOp31
 70
     1
102
RTVSPropertyOp32
 70
     1
102
RTVSPropertyOp33
 70
     1
102
RTVSPropertyOp34
 70
     1
102
RTVSPropertyOp35
 70
     1
102
RTVSPropertyOp36
 70
     1
102
RTVSPropertyOp37
 70
     1
102
RTVSPropertyOp38
 70
     1
102
RTVSPropertyOp39
 70
     1
102
RTVSPropertyOp40
 70
     1
102
RTVSPropertyOp41
 70
     1
102
RTVSPropertyOp42
 70
     1
102
RTVSPropertyOp43
 70
     1
102
RTVSPropertyOp44
 70
     1
102
RTVSPropertyOp45
 70
     1
102
RTVSPropertyOp46
 70
     1
102
RTVSPropertyOp47
 70
     1
102
RTVSPropertyOp48
 70
     1
102
RTVSPropertyOp49
 70
     1
102
RTVSPropertyOp50
 70
     1
102
RTVSPropertyOp51
 70
     0
102
RTVSPropertyOp52
 70
     0
102
RTVSPropertyOp53
 70
     1
102
RTVSPropertyOp54
 70
     1
102
RTVSPropertyOp55
 70
     1
102
RTVSPropertyOp56
 70
     1
102
RTVSPropertyOp57
 70
     1
102
RTVSPropertyOp58
 70
     1
102
RTVSPropertyOp59
 70
     1
102
RTVSPropertyOp60
 70
     1
102
RTVSPropertyOp61
 70
     1
102
RTVSPropertyOp62
 70
     1
  0
XRECORD
  5
98A2
102
{ACAD_REACTORS
330
98A1
102
}
330
98A1
100
AcDbXrecord
280
     1
102
RTVSPost2010Prop28
280
     0
102
RTVSPost2010PropOp28
 70
     1
102
RTVSPost2010Prop29
280
     1
102
RTVSPost2010PropOp29
 70
     1
102
RTVSPost2010Prop30
280
     1
102
RTVSPost2010PropOp30
 70
     1
102
RTVSPost2010Prop31
280
     0
102
RTVSPost2010PropOp31
 70
     1
102
RTVSPost2010Prop32
280
     0
102
RTVSPost2010PropOp32
 70
     1
102
RTVSPost2010Prop33
280
     0
102
RTVSPost2010PropOp33
 70
     1
102
RTVSPost2010Prop34
280
     0
102
RTVSPost2010PropOp34
 70
     1
102
RTVSPost2010Prop35
280
     0
102
RTVSPost2010PropOp35
 70
     1
102
RTVSPost2010Prop36
280
     0
102
RTVSPost2010PropOp36
 70
     1
102
RTVSPost2010Prop37
 90
       50
102
RTVSPost2010PropOp37
 70
     1
102
RTVSPost2010Prop38
140
0.0
102
RTVSPost2010PropOp38
 70
     1
102
RTVSPost2010Prop39
140
1.0
102
RTVSPost2010PropOp39
 70
     1
102
RTVSPost2010Prop40
 90
        0
102
RTVSPost2010PropOp40
 70
     1
102
RTVSPost2010Prop41ColorIndex
 90
       18
102
RTVSPost2010Prop41ColorRGB
 90
        0
102
RTVSPost2010PropOp41
 70
     1
102
RTVSPost2010Prop42
 90
       50
102
RTVSPost2010PropOp42
 70
     1
102
RTVSPost2010Prop43
 90
        3
102
RTVSPost2010PropOp43
 70
     1
102
RTVSPost2010Prop44ColorIndex
 90
        5
102
RTVSPost2010Prop44ColorRGB
 90
      255
102
RTVSPost2010PropOp44
 70
     1
102
RTVSPost2010Prop45
280
     0
102
RTVSPost2010PropOp45
 70
     1
102
RTVSPost2010Prop46
 90
       50
102
RTVSPost2010PropOp46
 70
     1
102
RTVSPost2010Prop47
 90
       50
102
RTVSPost2010PropOp47
 70
     1
102
RTVSPost2010Prop48
 90
       50
102
RTVSPost2010PropOp48
 70
     1
102
RTVSPost2010Prop49
280
     0
102
RTVSPost2010PropOp49
 70
     1
102
RTVSPost2010Prop50
 90
       50
102
RTVSPost2010PropOp50
 70
     1
102
RTVSPost2010Prop51ColorIndex
 90
      256
102
RTVSPost2010Prop51ColorRGB
 90
-16777216
102
RTVSPost2010PropOp51
 70
     0
102
RTVSPost2010Prop52
140
1.0
102
RTVSPost2010PropOp52
 70
     0
102
RTVSPost2010Prop53
 90
        2
102
RTVSPost2010PropOp53
 70
     1
102
RTVSPost2010Prop54
  1
strokes_ogs.tif
102
RTVSPost2010PropOp54
 70
     1
102
RTVSPost2010Prop55
280
     0
102
RTVSPost2010PropOp55
 70
     1
102
RTVSPost2010Prop56
140
1.0
102
RTVSPost2010PropOp56
 70
     1
102
RTVSPost2010Prop57
140
1.0
102
RTVSPost2010PropOp57
 70
     1
102
RTVSPropertyOp0
 70
     1
102
RTVSPropertyOp1
 70
     1
102
RTVSPropertyOp2
 70
     1
102
RTVSPropertyOp3
 70
     1
102
RTVSPropertyOp4
 70
     1
102
RTVSPropertyOp5
 70
     1
102
RTVSPropertyOp6
 70
     1
102
RTVSPropertyOp7
 70
     1
102
RTVSPropertyOp8
 70
     1
102
RTVSPropertyOp9
 70
     1
102
RTVSPropertyOp10
 70
     1
102
RTVSPropertyOp11
 70
     1
102
RTVSPropertyOp12
 70
     1
102
RTVSPropertyOp13
 70
     1
102
RTVSPropertyOp14
 70
     1
102
RTVSPropertyOp15
 70
     1
102
RTVSPropertyOp16
 70
     1
102
RTVSPropertyOp17
 70
     1
102
RTVSPropertyOp18
 70
     1
102
RTVSPropertyOp19
 70
     1
102
RTVSPropertyOp20
 70
     1
102
RTVSPropertyOp21
 70
     1
102
RTVSPropertyOp22
 70
     1
102
RTVSPropertyOp23
 70
     1
102
RTVSPropertyOp24
 70
     1
102
RTVSPropertyOp25
 70
     1
102
RTVSPropertyOp26
 70
     1
102
RTVSPropertyOp27
 70
     1
102
RTVSPropertyOp28
 70
     1
102
RTVSPropertyOp29
 70
     1
102
RTVSPropertyOp30
 70
     1
102
RTVSPropertyOp31
 70
     1
102
RTVSPropertyOp32
 70
     1
102
RTVSPropertyOp33
 70
     1
102
RTVSPropertyOp34
 70
     1
102
RTVSPropertyOp35
 70
     1
102
RTVSPropertyOp36
 70
     1
102
RTVSPropertyOp37
 70
     1
102
RTVSPropertyOp38
 70
     1
102
RTVSPropertyOp39
 70
     1
102
RTVSPropertyOp40
 70
     1
102
RTVSPropertyOp41
 70
     1
102
RTVSPropertyOp42
 70
     1
102
RTVSPropertyOp43
 70
     1
102
RTVSPropertyOp44
 70
     1
102
RTVSPropertyOp45
 70
     1
102
RTVSPropertyOp46
 70
     1
102
RTVSPropertyOp47
 70
     1
102
RTVSPropertyOp48
 70
     1
102
RTVSPropertyOp49
 70
     1
102
RTVSPropertyOp50
 70
     1
102
RTVSPropertyOp51
 70
     0
102
RTVSPropertyOp52
 70
     0
102
RTVSPropertyOp53
 70
     1
102
RTVSPropertyOp54
 70
     1
102
RTVSPropertyOp55
 70
     1
102
RTVSPropertyOp56
 70
     1
102
RTVSPropertyOp57
 70
     1
102
RTVSPropertyOp58
 70
     1
102
RTVSPropertyOp59
 70
     1
102
RTVSPropertyOp60
 70
     1
102
RTVSPropertyOp61
 70
     1
102
RTVSPropertyOp62
 70
     1
  0
XRECORD
  5
98BE
102
{ACAD_REACTORS
330
98BD
102
}
330
98BD
100
AcDbXrecord
280
     1
102
RTVSPost2010Prop28
280
     0
102
RTVSPost2010PropOp28
 70
     1
102
RTVSPost2010Prop29
280
     1
102
RTVSPost2010PropOp29
 70
     1
102
RTVSPost2010Prop30
280
     1
102
RTVSPost2010PropOp30
 70
     1
102
RTVSPost2010Prop31
280
     0
102
RTVSPost2010PropOp31
 70
     1
102
RTVSPost2010Prop32
280
     0
102
RTVSPost2010PropOp32
 70
     1
102
RTVSPost2010Prop33
280
     0
102
RTVSPost2010PropOp33
 70
     1
102
RTVSPost2010Prop34
280
     0
102
RTVSPost2010PropOp34
 70
     1
102
RTVSPost2010Prop35
280
     0
102
RTVSPost2010PropOp35
 70
     1
102
RTVSPost2010Prop36
280
     0
102
RTVSPost2010PropOp36
 70
     1
102
RTVSPost2010Prop37
 90
       50
102
RTVSPost2010PropOp37
 70
     0
102
RTVSPost2010Prop38
140
0.0
102
RTVSPost2010PropOp38
 70
     0
102
RTVSPost2010Prop39
140
1.0
102
RTVSPost2010PropOp39
 70
     0
102
RTVSPost2010Prop40
 90
        0
102
RTVSPost2010PropOp40
 70
     0
102
RTVSPost2010Prop41ColorIndex
 90
       18
102
RTVSPost2010Prop41ColorRGB
 90
        0
102
RTVSPost2010PropOp41
 70
     0
102
RTVSPost2010Prop42
 90
       50
102
RTVSPost2010PropOp42
 70
     0
102
RTVSPost2010Prop43
 90
        3
102
RTVSPost2010PropOp43
 70
     0
102
RTVSPost2010Prop44ColorIndex
 90
        5
102
RTVSPost2010Prop44ColorRGB
 90
      255
102
RTVSPost2010PropOp44
 70
     0
102
RTVSPost2010Prop45
280
     0
102
RTVSPost2010PropOp45
 70
     1
102
RTVSPost2010Prop46
 90
       50
102
RTVSPost2010PropOp46
 70
     0
102
RTVSPost2010Prop47
 90
       50
102
RTVSPost2010PropOp47
 70
     0
102
RTVSPost2010Prop48
 90
       50
102
RTVSPost2010PropOp48
 70
     0
102
RTVSPost2010Prop49
280
     0
102
RTVSPost2010PropOp49
 70
     1
102
RTVSPost2010Prop50
 90
       50
102
RTVSPost2010PropOp50
 70
     0
102
RTVSPost2010Prop51ColorIndex
 90
      256
102
RTVSPost2010Prop51ColorRGB
 90
-16777216
102
RTVSPost2010PropOp51
 70
     0
102
RTVSPost2010Prop52
140
1.0
102
RTVSPost2010PropOp52
 70
     0
102
RTVSPost2010Prop53
 90
        2
102
RTVSPost2010PropOp53
 70
     0
102
RTVSPost2010Prop54
  1
strokes_ogs.tif
102
RTVSPost2010PropOp54
 70
     0
102
RTVSPost2010Prop55
280
     0
102
RTVSPost2010PropOp55
 70
     1
102
RTVSPost2010Prop56
140
1.0
102
RTVSPost2010PropOp56
 70
     0
102
RTVSPost2010Prop57
140
1.0
102
RTVSPost2010PropOp57
 70
     0
102
RTVSPropertyOp0
 70
     0
102
RTVSPropertyOp1
 70
     0
102
RTVSPropertyOp2
 70
     0
102
RTVSPropertyOp3
 70
     0
102
RTVSPropertyOp4
 70
     0
102
RTVSPropertyOp5
 70
     0
102
RTVSPropertyOp6
 70
     0
102
RTVSPropertyOp7
 70
     0
102
RTVSPropertyOp8
 70
     0
102
RTVSPropertyOp9
 70
     0
102
RTVSPropertyOp10
 70
     0
102
RTVSPropertyOp11
 70
     0
102
RTVSPropertyOp12
 70
     0
102
RTVSPropertyOp13
 70
     0
102
RTVSPropertyOp14
 70
     2
102
RTVSPropertyOp15
 70
     0
102
RTVSPropertyOp16
 70
     0
102
RTVSPropertyOp17
 70
     0
102
RTVSPropertyOp18
 70
     0
102
RTVSPropertyOp19
 70
     0
102
RTVSPropertyOp20
 70
     0
102
RTVSPropertyOp21
 70
     0
102
RTVSPropertyOp22
 70
     0
102
RTVSPropertyOp23
 70
     0
102
RTVSPropertyOp24
 70
     0
102
RTVSPropertyOp25
 70
     0
102
RTVSPropertyOp26
 70
     0
102
RTVSPropertyOp27
 70
     0
102
RTVSPropertyOp28
 70
     1
102
RTVSPropertyOp29
 70
     1
102
RTVSPropertyOp30
 70
     1
102
RTVSPropertyOp31
 70
     1
102
RTVSPropertyOp32
 70
     1
102
RTVSPropertyOp33
 70
     1
102
RTVSPropertyOp34
 70
     1
102
RTVSPropertyOp35
 70
     1
102
RTVSPropertyOp36
 70
     1
102
RTVSPropertyOp37
 70
     0
102
RTVSPropertyOp38
 70
     0
102
RTVSPropertyOp39
 70
     0
102
RTVSPropertyOp40
 70
     0
102
RTVSPropertyOp41
 70
     0
102
RTVSPropertyOp42
 70
     0
102
RTVSPropertyOp43
 70
     0
102
RTVSPropertyOp44
 70
     0
102
RTVSPropertyOp45
 70
     1
102
RTVSPropertyOp46
 70
     0
102
RTVSPropertyOp47
 70
     0
102
RTVSPropertyOp48
 70
     0
102
RTVSPropertyOp49
 70
     1
102
RTVSPropertyOp50
 70
     0
102
RTVSPropertyOp51
 70
     0
102
RTVSPropertyOp52
 70
     0
102
RTVSPropertyOp53
 70
     0
102
RTVSPropertyOp54
 70
     0
102
RTVSPropertyOp55
 70
     1
102
RTVSPropertyOp56
 70
     0
102
RTVSPropertyOp57
 70
     0
102
RTVSPropertyOp58
 70
     0
102
RTVSPropertyOp59
 70
     0
102
RTVSPropertyOp60
 70
     0
102
RTVSPropertyOp61
 70
     0
102
RTVSPropertyOp62
 70
     0
  0
XRECORD
  5
98AE
102
{ACAD_REACTORS
330
98AD
102
}
330
98AD
100
AcDbXrecord
280
     1
102
RTVSPost2010Prop28
280
     0
102
RTVSPost2010PropOp28
 70
     1
102
RTVSPost2010Prop29
280
     1
102
RTVSPost2010PropOp29
 70
     1
102
RTVSPost2010Prop30
280
     1
102
RTVSPost2010PropOp30
 70
     1
102
RTVSPost2010Prop31
280
     0
102
RTVSPost2010PropOp31
 70
     1
102
RTVSPost2010Prop32
280
     0
102
RTVSPost2010PropOp32
 70
     1
102
RTVSPost2010Prop33
280
     0
102
RTVSPost2010PropOp33
 70
     1
102
RTVSPost2010Prop34
280
     0
102
RTVSPost2010PropOp34
 70
     1
102
RTVSPost2010Prop35
280
     0
102
RTVSPost2010PropOp35
 70
     1
102
RTVSPost2010Prop36
280
     0
102
RTVSPost2010PropOp36
 70
     1
102
RTVSPost2010Prop37
 90
       50
102
RTVSPost2010PropOp37
 70
     1
102
RTVSPost2010Prop38
140
0.0
102
RTVSPost2010PropOp38
 70
     1
102
RTVSPost2010Prop39
140
1.0
102
RTVSPost2010PropOp39
 70
     1
102
RTVSPost2010Prop40
 90
        0
102
RTVSPost2010PropOp40
 70
     1
102
RTVSPost2010Prop41ColorIndex
 90
       18
102
RTVSPost2010Prop41ColorRGB
 90
        0
102
RTVSPost2010PropOp41
 70
     1
102
RTVSPost2010Prop42
 90
       50
102
RTVSPost2010PropOp42
 70
     1
102
RTVSPost2010Prop43
 90
        3
102
RTVSPost2010PropOp43
 70
     1
102
RTVSPost2010Prop44ColorIndex
 90
        5
102
RTVSPost2010Prop44ColorRGB
 90
      255
102
RTVSPost2010PropOp44
 70
     1
102
RTVSPost2010Prop45
280
     0
102
RTVSPost2010PropOp45
 70
     1
102
RTVSPost2010Prop46
 90
       50
102
RTVSPost2010PropOp46
 70
     1
102
RTVSPost2010Prop47
 90
       50
102
RTVSPost2010PropOp47
 70
     1
102
RTVSPost2010Prop48
 90
       50
102
RTVSPost2010PropOp48
 70
     1
102
RTVSPost2010Prop49
280
     0
102
RTVSPost2010PropOp49
 70
     1
102
RTVSPost2010Prop50
 90
       50
102
RTVSPost2010PropOp50
 70
     1
102
RTVSPost2010Prop51ColorIndex
 90
      256
102
RTVSPost2010Prop51ColorRGB
 90
-16777216
102
RTVSPost2010PropOp51
 70
     0
102
RTVSPost2010Prop52
140
1.0
102
RTVSPost2010PropOp52
 70
     0
102
RTVSPost2010Prop53
 90
        2
102
RTVSPost2010PropOp53
 70
     1
102
RTVSPost2010Prop54
  1
strokes_ogs.tif
102
RTVSPost2010PropOp54
 70
     1
102
RTVSPost2010Prop55
280
     0
102
RTVSPost2010PropOp55
 70
     1
102
RTVSPost2010Prop56
140
1.0
102
RTVSPost2010PropOp56
 70
     1
102
RTVSPost2010Prop57
140
1.0
102
RTVSPost2010PropOp57
 70
     1
102
RTVSPropertyOp0
 70
     1
102
RTVSPropertyOp1
 70
     1
102
RTVSPropertyOp2
 70
     1
102
RTVSPropertyOp3
 70
     1
102
RTVSPropertyOp4
 70
     1
102
RTVSPropertyOp5
 70
     1
102
RTVSPropertyOp6
 70
     1
102
RTVSPropertyOp7
 70
     1
102
RTVSPropertyOp8
 70
     1
102
RTVSPropertyOp9
 70
     1
102
RTVSPropertyOp10
 70
     1
102
RTVSPropertyOp11
 70
     1
102
RTVSPropertyOp12
 70
     1
102
RTVSPropertyOp13
 70
     1
102
RTVSPropertyOp14
 70
     1
102
RTVSPropertyOp15
 70
     1
102
RTVSPropertyOp16
 70
     1
102
RTVSPropertyOp17
 70
     1
102
RTVSPropertyOp18
 70
     1
102
RTVSPropertyOp19
 70
     1
102
RTVSPropertyOp20
 70
     1
102
RTVSPropertyOp21
 70
     1
102
RTVSPropertyOp22
 70
     1
102
RTVSPropertyOp23
 70
     1
102
RTVSPropertyOp24
 70
     1
102
RTVSPropertyOp25
 70
     1
102
RTVSPropertyOp26
 70
     1
102
RTVSPropertyOp27
 70
     1
102
RTVSPropertyOp28
 70
     1
102
RTVSPropertyOp29
 70
     1
102
RTVSPropertyOp30
 70
     1
102
RTVSPropertyOp31
 70
     1
102
RTVSPropertyOp32
 70
     1
102
RTVSPropertyOp33
 70
     1
102
RTVSPropertyOp34
 70
     1
102
RTVSPropertyOp35
 70
     1
102
RTVSPropertyOp36
 70
     1
102
RTVSPropertyOp37
 70
     1
102
RTVSPropertyOp38
 70
     1
102
RTVSPropertyOp39
 70
     1
102
RTVSPropertyOp40
 70
     1
102
RTVSPropertyOp41
 70
     1
102
RTVSPropertyOp42
 70
     1
102
RTVSPropertyOp43
 70
     1
102
RTVSPropertyOp44
 70
     1
102
RTVSPropertyOp45
 70
     1
102
RTVSPropertyOp46
 70
     1
102
RTVSPropertyOp47
 70
     1
102
RTVSPropertyOp48
 70
     1
102
RTVSPropertyOp49
 70
     1
102
RTVSPropertyOp50
 70
     1
102
RTVSPropertyOp51
 70
     0
102
RTVSPropertyOp52
 70
     0
102
RTVSPropertyOp53
 70
     1
102
RTVSPropertyOp54
 70
     1
102
RTVSPropertyOp55
 70
     1
102
RTVSPropertyOp56
 70
     1
102
RTVSPropertyOp57
 70
     1
102
RTVSPropertyOp58
 70
     1
102
RTVSPropertyOp59
 70
     1
102
RTVSPropertyOp60
 70
     1
102
RTVSPropertyOp61
 70
     1
102
RTVSPropertyOp62
 70
     1
  0
XRECORD
  5
98C0
102
{ACAD_REACTORS
330
98BF
102
}
330
98BF
100
AcDbXrecord
280
     1
102
RTVSPost2010Prop28
280
     0
102
RTVSPost2010PropOp28
 70
     1
102
RTVSPost2010Prop29
280
     1
102
RTVSPost2010PropOp29
 70
     1
102
RTVSPost2010Prop30
280
     1
102
RTVSPost2010PropOp30
 70
     1
102
RTVSPost2010Prop31
280
     0
102
RTVSPost2010PropOp31
 70
     1
102
RTVSPost2010Prop32
280
     0
102
RTVSPost2010PropOp32
 70
     1
102
RTVSPost2010Prop33
280
     0
102
RTVSPost2010PropOp33
 70
     1
102
RTVSPost2010Prop34
280
     0
102
RTVSPost2010PropOp34
 70
     1
102
RTVSPost2010Prop35
280
     0
102
RTVSPost2010PropOp35
 70
     1
102
RTVSPost2010Prop36
280
     0
102
RTVSPost2010PropOp36
 70
     1
102
RTVSPost2010Prop37
 90
       50
102
RTVSPost2010PropOp37
 70
     0
102
RTVSPost2010Prop38
140
0.0
102
RTVSPost2010PropOp38
 70
     0
102
RTVSPost2010Prop39
140
1.0
102
RTVSPost2010PropOp39
 70
     0
102
RTVSPost2010Prop40
 90
        0
102
RTVSPost2010PropOp40
 70
     0
102
RTVSPost2010Prop41ColorIndex
 90
       18
102
RTVSPost2010Prop41ColorRGB
 90
        0
102
RTVSPost2010PropOp41
 70
     0
102
RTVSPost2010Prop42
 90
       50
102
RTVSPost2010PropOp42
 70
     0
102
RTVSPost2010Prop43
 90
        3
102
RTVSPost2010PropOp43
 70
     0
102
RTVSPost2010Prop44ColorIndex
 90
        5
102
RTVSPost2010Prop44ColorRGB
 90
      255
102
RTVSPost2010PropOp44
 70
     0
102
RTVSPost2010Prop45
280
     0
102
RTVSPost2010PropOp45
 70
     1
102
RTVSPost2010Prop46
 90
       50
102
RTVSPost2010PropOp46
 70
     0
102
RTVSPost2010Prop47
 90
       50
102
RTVSPost2010PropOp47
 70
     0
102
RTVSPost2010Prop48
 90
       50
102
RTVSPost2010PropOp48
 70
     0
102
RTVSPost2010Prop49
280
     0
102
RTVSPost2010PropOp49
 70
     1
102
RTVSPost2010Prop50
 90
       50
102
RTVSPost2010PropOp50
 70
     0
102
RTVSPost2010Prop51ColorIndex
 90
      256
102
RTVSPost2010Prop51ColorRGB
 90
-16777216
102
RTVSPost2010PropOp51
 70
     0
102
RTVSPost2010Prop52
140
1.0
102
RTVSPost2010PropOp52
 70
     0
102
RTVSPost2010Prop53
 90
        2
102
RTVSPost2010PropOp53
 70
     0
102
RTVSPost2010Prop54
  1
strokes_ogs.tif
102
RTVSPost2010PropOp54
 70
     0
102
RTVSPost2010Prop55
280
     0
102
RTVSPost2010PropOp55
 70
     1
102
RTVSPost2010Prop56
140
1.0
102
RTVSPost2010PropOp56
 70
     0
102
RTVSPost2010Prop57
140
1.0
102
RTVSPost2010PropOp57
 70
     0
102
RTVSPropertyOp0
 70
     0
102
RTVSPropertyOp1
 70
     0
102
RTVSPropertyOp2
 70
     0
102
RTVSPropertyOp3
 70
     0
102
RTVSPropertyOp4
 70
     0
102
RTVSPropertyOp5
 70
     0
102
RTVSPropertyOp6
 70
     0
102
RTVSPropertyOp7
 70
     0
102
RTVSPropertyOp8
 70
     0
102
RTVSPropertyOp9
 70
     0
102
RTVSPropertyOp10
 70
     0
102
RTVSPropertyOp11
 70
     0
102
RTVSPropertyOp12
 70
     0
102
RTVSPropertyOp13
 70
     0
102
RTVSPropertyOp14
 70
     2
102
RTVSPropertyOp15
 70
     0
102
RTVSPropertyOp16
 70
     0
102
RTVSPropertyOp17
 70
     0
102
RTVSPropertyOp18
 70
     0
102
RTVSPropertyOp19
 70
     0
102
RTVSPropertyOp20
 70
     0
102
RTVSPropertyOp21
 70
     0
102
RTVSPropertyOp22
 70
     0
102
RTVSPropertyOp23
 70
     0
102
RTVSPropertyOp24
 70
     0
102
RTVSPropertyOp25
 70
     0
102
RTVSPropertyOp26
 70
     0
102
RTVSPropertyOp27
 70
     0
102
RTVSPropertyOp28
 70
     1
102
RTVSPropertyOp29
 70
     1
102
RTVSPropertyOp30
 70
     1
102
RTVSPropertyOp31
 70
     1
102
RTVSPropertyOp32
 70
     1
102
RTVSPropertyOp33
 70
     1
102
RTVSPropertyOp34
 70
     1
102
RTVSPropertyOp35
 70
     1
102
RTVSPropertyOp36
 70
     1
102
RTVSPropertyOp37
 70
     0
102
RTVSPropertyOp38
 70
     0
102
RTVSPropertyOp39
 70
     0
102
RTVSPropertyOp40
 70
     0
102
RTVSPropertyOp41
 70
     0
102
RTVSPropertyOp42
 70
     0
102
RTVSPropertyOp43
 70
     0
102
RTVSPropertyOp44
 70
     0
102
RTVSPropertyOp45
 70
     1
102
RTVSPropertyOp46
 70
     0
102
RTVSPropertyOp47
 70
     0
102
RTVSPropertyOp48
 70
     0
102
RTVSPropertyOp49
 70
     1
102
RTVSPropertyOp50
 70
     0
102
RTVSPropertyOp51
 70
     0
102
RTVSPropertyOp52
 70
     0
102
RTVSPropertyOp53
 70
     0
102
RTVSPropertyOp54
 70
     0
102
RTVSPropertyOp55
 70
     1
102
RTVSPropertyOp56
 70
     0
102
RTVSPropertyOp57
 70
     0
102
RTVSPropertyOp58
 70
     0
102
RTVSPropertyOp59
 70
     0
102
RTVSPropertyOp60
 70
     0
102
RTVSPropertyOp61
 70
     0
102
RTVSPropertyOp62
 70
     0
  0
XRECORD
  5
98A6
102
{ACAD_REACTORS
330
98A5
102
}
330
98A5
100
AcDbXrecord
280
     1
102
RTVSPost2010Prop28
280
     0
102
RTVSPost2010PropOp28
 70
     1
102
RTVSPost2010Prop29
280
     1
102
RTVSPost2010PropOp29
 70
     1
102
RTVSPost2010Prop30
280
     1
102
RTVSPost2010PropOp30
 70
     1
102
RTVSPost2010Prop31
280
     0
102
RTVSPost2010PropOp31
 70
     1
102
RTVSPost2010Prop32
280
     0
102
RTVSPost2010PropOp32
 70
     1
102
RTVSPost2010Prop33
280
     0
102
RTVSPost2010PropOp33
 70
     1
102
RTVSPost2010Prop34
280
     0
102
RTVSPost2010PropOp34
 70
     1
102
RTVSPost2010Prop35
280
     0
102
RTVSPost2010PropOp35
 70
     1
102
RTVSPost2010Prop36
280
     0
102
RTVSPost2010PropOp36
 70
     1
102
RTVSPost2010Prop37
 90
       50
102
RTVSPost2010PropOp37
 70
     1
102
RTVSPost2010Prop38
140
0.0
102
RTVSPost2010PropOp38
 70
     1
102
RTVSPost2010Prop39
140
1.0
102
RTVSPost2010PropOp39
 70
     1
102
RTVSPost2010Prop40
 90
        0
102
RTVSPost2010PropOp40
 70
     1
102
RTVSPost2010Prop41ColorIndex
 90
       18
102
RTVSPost2010Prop41ColorRGB
 90
        0
102
RTVSPost2010PropOp41
 70
     1
102
RTVSPost2010Prop42
 90
       50
102
RTVSPost2010PropOp42
 70
     1
102
RTVSPost2010Prop43
 90
        3
102
RTVSPost2010PropOp43
 70
     1
102
RTVSPost2010Prop44ColorIndex
 90
        5
102
RTVSPost2010Prop44ColorRGB
 90
      255
102
RTVSPost2010PropOp44
 70
     1
102
RTVSPost2010Prop45
280
     0
102
RTVSPost2010PropOp45
 70
     1
102
RTVSPost2010Prop46
 90
       50
102
RTVSPost2010PropOp46
 70
     1
102
RTVSPost2010Prop47
 90
       50
102
RTVSPost2010PropOp47
 70
     1
102
RTVSPost2010Prop48
 90
       50
102
RTVSPost2010PropOp48
 70
     1
102
RTVSPost2010Prop49
280
     0
102
RTVSPost2010PropOp49
 70
     1
102
RTVSPost2010Prop50
 90
       50
102
RTVSPost2010PropOp50
 70
     1
102
RTVSPost2010Prop51ColorIndex
 90
      256
102
RTVSPost2010Prop51ColorRGB
 90
-16777216
102
RTVSPost2010PropOp51
 70
     0
102
RTVSPost2010Prop52
140
1.0
102
RTVSPost2010PropOp52
 70
     0
102
RTVSPost2010Prop53
 90
        2
102
RTVSPost2010PropOp53
 70
     1
102
RTVSPost2010Prop54
  1
strokes_ogs.tif
102
RTVSPost2010PropOp54
 70
     1
102
RTVSPost2010Prop55
280
     0
102
RTVSPost2010PropOp55
 70
     1
102
RTVSPost2010Prop56
140
1.0
102
RTVSPost2010PropOp56
 70
     1
102
RTVSPost2010Prop57
140
1.0
102
RTVSPost2010PropOp57
 70
     1
102
RTVSPropertyOp0
 70
     1
102
RTVSPropertyOp1
 70
     1
102
RTVSPropertyOp2
 70
     1
102
RTVSPropertyOp3
 70
     1
102
RTVSPropertyOp4
 70
     1
102
RTVSPropertyOp5
 70
     1
102
RTVSPropertyOp6
 70
     1
102
RTVSPropertyOp7
 70
     1
102
RTVSPropertyOp8
 70
     1
102
RTVSPropertyOp9
 70
     1
102
RTVSPropertyOp10
 70
     1
102
RTVSPropertyOp11
 70
     1
102
RTVSPropertyOp12
 70
     1
102
RTVSPropertyOp13
 70
     1
102
RTVSPropertyOp14
 70
     1
102
RTVSPropertyOp15
 70
     1
102
RTVSPropertyOp16
 70
     1
102
RTVSPropertyOp17
 70
     1
102
RTVSPropertyOp18
 70
     1
102
RTVSPropertyOp19
 70
     1
102
RTVSPropertyOp20
 70
     1
102
RTVSPropertyOp21
 70
     1
102
RTVSPropertyOp22
 70
     1
102
RTVSPropertyOp23
 70
     1
102
RTVSPropertyOp24
 70
     1
102
RTVSPropertyOp25
 70
     1
102
RTVSPropertyOp26
 70
     1
102
RTVSPropertyOp27
 70
     1
102
RTVSPropertyOp28
 70
     1
102
RTVSPropertyOp29
 70
     1
102
RTVSPropertyOp30
 70
     1
102
RTVSPropertyOp31
 70
     1
102
RTVSPropertyOp32
 70
     1
102
RTVSPropertyOp33
 70
     1
102
RTVSPropertyOp34
 70
     1
102
RTVSPropertyOp35
 70
     1
102
RTVSPropertyOp36
 70
     1
102
RTVSPropertyOp37
 70
     1
102
RTVSPropertyOp38
 70
     1
102
RTVSPropertyOp39
 70
     1
102
RTVSPropertyOp40
 70
     1
102
RTVSPropertyOp41
 70
     1
102
RTVSPropertyOp42
 70
     1
102
RTVSPropertyOp43
 70
     1
102
RTVSPropertyOp44
 70
     1
102
RTVSPropertyOp45
 70
     1
102
RTVSPropertyOp46
 70
     1
102
RTVSPropertyOp47
 70
     1
102
RTVSPropertyOp48
 70
     1
102
RTVSPropertyOp49
 70
     1
102
RTVSPropertyOp50
 70
     1
102
RTVSPropertyOp51
 70
     0
102
RTVSPropertyOp52
 70
     0
102
RTVSPropertyOp53
 70
     1
102
RTVSPropertyOp54
 70
     1
102
RTVSPropertyOp55
 70
     1
102
RTVSPropertyOp56
 70
     1
102
RTVSPropertyOp57
 70
     1
102
RTVSPropertyOp58
 70
     1
102
RTVSPropertyOp59
 70
     1
102
RTVSPropertyOp60
 70
     1
102
RTVSPropertyOp61
 70
     1
102
RTVSPropertyOp62
 70
     1
  0
XRECORD
  5
98BC
102
{ACAD_REACTORS
330
98BB
102
}
330
98BB
100
AcDbXrecord
280
     1
102
RTVSPost2010Prop28
280
     0
102
RTVSPost2010PropOp28
 70
     1
102
RTVSPost2010Prop29
280
     1
102
RTVSPost2010PropOp29
 70
     1
102
RTVSPost2010Prop30
280
     1
102
RTVSPost2010PropOp30
 70
     1
102
RTVSPost2010Prop31
280
     0
102
RTVSPost2010PropOp31
 70
     1
102
RTVSPost2010Prop32
280
     0
102
RTVSPost2010PropOp32
 70
     1
102
RTVSPost2010Prop33
280
     0
102
RTVSPost2010PropOp33
 70
     1
102
RTVSPost2010Prop34
280
     0
102
RTVSPost2010PropOp34
 70
     1
102
RTVSPost2010Prop35
280
     0
102
RTVSPost2010PropOp35
 70
     1
102
RTVSPost2010Prop36
280
     0
102
RTVSPost2010PropOp36
 70
     1
102
RTVSPost2010Prop37
 90
       50
102
RTVSPost2010PropOp37
 70
     1
102
RTVSPost2010Prop38
140
0.0
102
RTVSPost2010PropOp38
 70
     1
102
RTVSPost2010Prop39
140
1.0
102
RTVSPost2010PropOp39
 70
     1
102
RTVSPost2010Prop40
 90
        0
102
RTVSPost2010PropOp40
 70
     1
102
RTVSPost2010Prop41ColorIndex
 90
       18
102
RTVSPost2010Prop41ColorRGB
 90
        0
102
RTVSPost2010PropOp41
 70
     1
102
RTVSPost2010Prop42
 90
       50
102
RTVSPost2010PropOp42
 70
     1
102
RTVSPost2010Prop43
 90
        3
102
RTVSPost2010PropOp43
 70
     1
102
RTVSPost2010Prop44ColorIndex
 90
        5
102
RTVSPost2010Prop44ColorRGB
 90
      255
102
RTVSPost2010PropOp44
 70
     1
102
RTVSPost2010Prop45
280
     0
102
RTVSPost2010PropOp45
 70
     1
102
RTVSPost2010Prop46
 90
       50
102
RTVSPost2010PropOp46
 70
     1
102
RTVSPost2010Prop47
 90
       50
102
RTVSPost2010PropOp47
 70
     1
102
RTVSPost2010Prop48
 90
       50
102
RTVSPost2010PropOp48
 70
     1
102
RTVSPost2010Prop49
280
     0
102
RTVSPost2010PropOp49
 70
     1
102
RTVSPost2010Prop50
 90
       50
102
RTVSPost2010PropOp50
 70
     1
102
RTVSPost2010Prop51ColorIndex
 90
      256
102
RTVSPost2010Prop51ColorRGB
 90
-16777216
102
RTVSPost2010PropOp51
 70
     0
102
RTVSPost2010Prop52
140
1.0
102
RTVSPost2010PropOp52
 70
     0
102
RTVSPost2010Prop53
 90
        2
102
RTVSPost2010PropOp53
 70
     1
102
RTVSPost2010Prop54
  1
strokes_ogs.tif
102
RTVSPost2010PropOp54
 70
     1
102
RTVSPost2010Prop55
280
     0
102
RTVSPost2010PropOp55
 70
     1
102
RTVSPost2010Prop56
140
1.0
102
RTVSPost2010PropOp56
 70
     1
102
RTVSPost2010Prop57
140
1.0
102
RTVSPost2010PropOp57
 70
     1
102
RTVSPropertyOp0
 70
     1
102
RTVSPropertyOp1
 70
     1
102
RTVSPropertyOp2
 70
     1
102
RTVSPropertyOp3
 70
     1
102
RTVSPropertyOp4
 70
     1
102
RTVSPropertyOp5
 70
     1
102
RTVSPropertyOp6
 70
     1
102
RTVSPropertyOp7
 70
     1
102
RTVSPropertyOp8
 70
     1
102
RTVSPropertyOp9
 70
     1
102
RTVSPropertyOp10
 70
     1
102
RTVSPropertyOp11
 70
     1
102
RTVSPropertyOp12
 70
     1
102
RTVSPropertyOp13
 70
     1
102
RTVSPropertyOp14
 70
     1
102
RTVSPropertyOp15
 70
     1
102
RTVSPropertyOp16
 70
     1
102
RTVSPropertyOp17
 70
     1
102
RTVSPropertyOp18
 70
     1
102
RTVSPropertyOp19
 70
     1
102
RTVSPropertyOp20
 70
     1
102
RTVSPropertyOp21
 70
     1
102
RTVSPropertyOp22
 70
     1
102
RTVSPropertyOp23
 70
     1
102
RTVSPropertyOp24
 70
     1
102
RTVSPropertyOp25
 70
     1
102
RTVSPropertyOp26
 70
     1
102
RTVSPropertyOp27
 70
     1
102
RTVSPropertyOp28
 70
     1
102
RTVSPropertyOp29
 70
     1
102
RTVSPropertyOp30
 70
     1
102
RTVSPropertyOp31
 70
     1
102
RTVSPropertyOp32
 70
     1
102
RTVSPropertyOp33
 70
     1
102
RTVSPropertyOp34
 70
     1
102
RTVSPropertyOp35
 70
     1
102
RTVSPropertyOp36
 70
     1
102
RTVSPropertyOp37
 70
     1
102
RTVSPropertyOp38
 70
     1
102
RTVSPropertyOp39
 70
     1
102
RTVSPropertyOp40
 70
     1
102
RTVSPropertyOp41
 70
     1
102
RTVSPropertyOp42
 70
     1
102
RTVSPropertyOp43
 70
     1
102
RTVSPropertyOp44
 70
     1
102
RTVSPropertyOp45
 70
     1
102
RTVSPropertyOp46
 70
     1
102
RTVSPropertyOp47
 70
     1
102
RTVSPropertyOp48
 70
     1
102
RTVSPropertyOp49
 70
     1
102
RTVSPropertyOp50
 70
     1
102
RTVSPropertyOp51
 70
     0
102
RTVSPropertyOp52
 70
     0
102
RTVSPropertyOp53
 70
     1
102
RTVSPropertyOp54
 70
     1
102
RTVSPropertyOp55
 70
     1
102
RTVSPropertyOp56
 70
     1
102
RTVSPropertyOp57
 70
     1
102
RTVSPropertyOp58
 70
     1
102
RTVSPropertyOp59
 70
     1
102
RTVSPropertyOp60
 70
     1
102
RTVSPropertyOp61
 70
     1
102
RTVSPropertyOp62
 70
     1
  0
XRECORD
  5
98BA
102
{ACAD_REACTORS
330
98B9
102
}
330
98B9
100
AcDbXrecord
280
     1
102
RTVSPost2010Prop28
280
     0
102
RTVSPost2010PropOp28
 70
     1
102
RTVSPost2010Prop29
280
     1
102
RTVSPost2010PropOp29
 70
     1
102
RTVSPost2010Prop30
280
     1
102
RTVSPost2010PropOp30
 70
     1
102
RTVSPost2010Prop31
280
     0
102
RTVSPost2010PropOp31
 70
     1
102
RTVSPost2010Prop32
280
     0
102
RTVSPost2010PropOp32
 70
     1
102
RTVSPost2010Prop33
280
     0
102
RTVSPost2010PropOp33
 70
     1
102
RTVSPost2010Prop34
280
     0
102
RTVSPost2010PropOp34
 70
     1
102
RTVSPost2010Prop35
280
     0
102
RTVSPost2010PropOp35
 70
     1
102
RTVSPost2010Prop36
280
     0
102
RTVSPost2010PropOp36
 70
     1
102
RTVSPost2010Prop37
 90
       50
102
RTVSPost2010PropOp37
 70
     1
102
RTVSPost2010Prop38
140
0.0
102
RTVSPost2010PropOp38
 70
     1
102
RTVSPost2010Prop39
140
1.0
102
RTVSPost2010PropOp39
 70
     1
102
RTVSPost2010Prop40
 90
        0
102
RTVSPost2010PropOp40
 70
     1
102
RTVSPost2010Prop41ColorIndex
 90
       18
102
RTVSPost2010Prop41ColorRGB
 90
        0
102
RTVSPost2010PropOp41
 70
     1
102
RTVSPost2010Prop42
 90
       50
102
RTVSPost2010PropOp42
 70
     1
102
RTVSPost2010Prop43
 90
        3
102
RTVSPost2010PropOp43
 70
     1
102
RTVSPost2010Prop44ColorIndex
 90
        5
102
RTVSPost2010Prop44ColorRGB
 90
      255
102
RTVSPost2010PropOp44
 70
     1
102
RTVSPost2010Prop45
280
     0
102
RTVSPost2010PropOp45
 70
     1
102
RTVSPost2010Prop46
 90
       50
102
RTVSPost2010PropOp46
 70
     1
102
RTVSPost2010Prop47
 90
       50
102
RTVSPost2010PropOp47
 70
     1
102
RTVSPost2010Prop48
 90
       50
102
RTVSPost2010PropOp48
 70
     1
102
RTVSPost2010Prop49
280
     0
102
RTVSPost2010PropOp49
 70
     1
102
RTVSPost2010Prop50
 90
       50
102
RTVSPost2010PropOp50
 70
     1
102
RTVSPost2010Prop51ColorIndex
 90
      256
102
RTVSPost2010Prop51ColorRGB
 90
-16777216
102
RTVSPost2010PropOp51
 70
     0
102
RTVSPost2010Prop52
140
1.0
102
RTVSPost2010PropOp52
 70
     0
102
RTVSPost2010Prop53
 90
        2
102
RTVSPost2010PropOp53
 70
     1
102
RTVSPost2010Prop54
  1
strokes_ogs.tif
102
RTVSPost2010PropOp54
 70
     1
102
RTVSPost2010Prop55
280
     0
102
RTVSPost2010PropOp55
 70
     1
102
RTVSPost2010Prop56
140
1.0
102
RTVSPost2010PropOp56
 70
     1
102
RTVSPost2010Prop57
140
1.0
102
RTVSPost2010PropOp57
 70
     1
102
RTVSPropertyOp0
 70
     1
102
RTVSPropertyOp1
 70
     1
102
RTVSPropertyOp2
 70
     1
102
RTVSPropertyOp3
 70
     1
102
RTVSPropertyOp4
 70
     1
102
RTVSPropertyOp5
 70
     1
102
RTVSPropertyOp6
 70
     1
102
RTVSPropertyOp7
 70
     1
102
RTVSPropertyOp8
 70
     1
102
RTVSPropertyOp9
 70
     1
102
RTVSPropertyOp10
 70
     1
102
RTVSPropertyOp11
 70
     1
102
RTVSPropertyOp12
 70
     1
102
RTVSPropertyOp13
 70
     1
102
RTVSPropertyOp14
 70
     1
102
RTVSPropertyOp15
 70
     1
102
RTVSPropertyOp16
 70
     1
102
RTVSPropertyOp17
 70
     1
102
RTVSPropertyOp18
 70
     1
102
RTVSPropertyOp19
 70
     1
102
RTVSPropertyOp20
 70
     1
102
RTVSPropertyOp21
 70
     1
102
RTVSPropertyOp22
 70
     1
102
RTVSPropertyOp23
 70
     1
102
RTVSPropertyOp24
 70
     1
102
RTVSPropertyOp25
 70
     1
102
RTVSPropertyOp26
 70
     1
102
RTVSPropertyOp27
 70
     1
102
RTVSPropertyOp28
 70
     1
102
RTVSPropertyOp29
 70
     1
102
RTVSPropertyOp30
 70
     1
102
RTVSPropertyOp31
 70
     1
102
RTVSPropertyOp32
 70
     1
102
RTVSPropertyOp33
 70
     1
102
RTVSPropertyOp34
 70
     1
102
RTVSPropertyOp35
 70
     1
102
RTVSPropertyOp36
 70
     1
102
RTVSPropertyOp37
 70
     1
102
RTVSPropertyOp38
 70
     1
102
RTVSPropertyOp39
 70
     1
102
RTVSPropertyOp40
 70
     1
102
RTVSPropertyOp41
 70
     1
102
RTVSPropertyOp42
 70
     1
102
RTVSPropertyOp43
 70
     1
102
RTVSPropertyOp44
 70
     1
102
RTVSPropertyOp45
 70
     1
102
RTVSPropertyOp46
 70
     1
102
RTVSPropertyOp47
 70
     1
102
RTVSPropertyOp48
 70
     1
102
RTVSPropertyOp49
 70
     1
102
RTVSPropertyOp50
 70
     1
102
RTVSPropertyOp51
 70
     0
102
RTVSPropertyOp52
 70
     0
102
RTVSPropertyOp53
 70
     1
102
RTVSPropertyOp54
 70
     1
102
RTVSPropertyOp55
 70
     1
102
RTVSPropertyOp56
 70
     1
102
RTVSPropertyOp57
 70
     1
102
RTVSPropertyOp58
 70
     1
102
RTVSPropertyOp59
 70
     1
102
RTVSPropertyOp60
 70
     1
102
RTVSPropertyOp61
 70
     1
102
RTVSPropertyOp62
 70
     1
  0
XRECORD
  5
98B4
102
{ACAD_REACTORS
330
98B3
102
}
330
98B3
100
AcDbXrecord
280
     1
102
RTVSPost2010Prop28
280
     0
102
RTVSPost2010PropOp28
 70
     1
102
RTVSPost2010Prop29
280
     1
102
RTVSPost2010PropOp29
 70
     1
102
RTVSPost2010Prop30
280
     1
102
RTVSPost2010PropOp30
 70
     1
102
RTVSPost2010Prop31
280
     0
102
RTVSPost2010PropOp31
 70
     1
102
RTVSPost2010Prop32
280
     0
102
RTVSPost2010PropOp32
 70
     1
102
RTVSPost2010Prop33
280
     0
102
RTVSPost2010PropOp33
 70
     1
102
RTVSPost2010Prop34
280
     0
102
RTVSPost2010PropOp34
 70
     1
102
RTVSPost2010Prop35
280
     0
102
RTVSPost2010PropOp35
 70
     1
102
RTVSPost2010Prop36
280
     0
102
RTVSPost2010PropOp36
 70
     1
102
RTVSPost2010Prop37
 90
       50
102
RTVSPost2010PropOp37
 70
     1
102
RTVSPost2010Prop38
140
0.0
102
RTVSPost2010PropOp38
 70
     1
102
RTVSPost2010Prop39
140
1.0
102
RTVSPost2010PropOp39
 70
     1
102
RTVSPost2010Prop40
 90
        0
102
RTVSPost2010PropOp40
 70
     1
102
RTVSPost2010Prop41ColorIndex
 90
       18
102
RTVSPost2010Prop41ColorRGB
 90
        0
102
RTVSPost2010PropOp41
 70
     1
102
RTVSPost2010Prop42
 90
       50
102
RTVSPost2010PropOp42
 70
     1
102
RTVSPost2010Prop43
 90
        3
102
RTVSPost2010PropOp43
 70
     1
102
RTVSPost2010Prop44ColorIndex
 90
        5
102
RTVSPost2010Prop44ColorRGB
 90
      255
102
RTVSPost2010PropOp44
 70
     1
102
RTVSPost2010Prop45
280
     0
102
RTVSPost2010PropOp45
 70
     1
102
RTVSPost2010Prop46
 90
       50
102
RTVSPost2010PropOp46
 70
     1
102
RTVSPost2010Prop47
 90
       50
102
RTVSPost2010PropOp47
 70
     1
102
RTVSPost2010Prop48
 90
       50
102
RTVSPost2010PropOp48
 70
     1
102
RTVSPost2010Prop49
280
     0
102
RTVSPost2010PropOp49
 70
     1
102
RTVSPost2010Prop50
 90
       50
102
RTVSPost2010PropOp50
 70
     1
102
RTVSPost2010Prop51ColorIndex
 90
      256
102
RTVSPost2010Prop51ColorRGB
 90
-16777216
102
RTVSPost2010PropOp51
 70
     0
102
RTVSPost2010Prop52
140
1.0
102
RTVSPost2010PropOp52
 70
     0
102
RTVSPost2010Prop53
 90
        2
102
RTVSPost2010PropOp53
 70
     1
102
RTVSPost2010Prop54
  1
strokes_ogs.tif
102
RTVSPost2010PropOp54
 70
     1
102
RTVSPost2010Prop55
280
     0
102
RTVSPost2010PropOp55
 70
     1
102
RTVSPost2010Prop56
140
1.0
102
RTVSPost2010PropOp56
 70
     1
102
RTVSPost2010Prop57
140
1.0
102
RTVSPost2010PropOp57
 70
     1
102
RTVSPropertyOp0
 70
     1
102
RTVSPropertyOp1
 70
     1
102
RTVSPropertyOp2
 70
     1
102
RTVSPropertyOp3
 70
     1
102
RTVSPropertyOp4
 70
     1
102
RTVSPropertyOp5
 70
     1
102
RTVSPropertyOp6
 70
     1
102
RTVSPropertyOp7
 70
     1
102
RTVSPropertyOp8
 70
     1
102
RTVSPropertyOp9
 70
     1
102
RTVSPropertyOp10
 70
     1
102
RTVSPropertyOp11
 70
     1
102
RTVSPropertyOp12
 70
     1
102
RTVSPropertyOp13
 70
     1
102
RTVSPropertyOp14
 70
     1
102
RTVSPropertyOp15
 70
     1
102
RTVSPropertyOp16
 70
     1
102
RTVSPropertyOp17
 70
     1
102
RTVSPropertyOp18
 70
     1
102
RTVSPropertyOp19
 70
     1
102
RTVSPropertyOp20
 70
     1
102
RTVSPropertyOp21
 70
     1
102
RTVSPropertyOp22
 70
     1
102
RTVSPropertyOp23
 70
     1
102
RTVSPropertyOp24
 70
     1
102
RTVSPropertyOp25
 70
     1
102
RTVSPropertyOp26
 70
     1
102
RTVSPropertyOp27
 70
     1
102
RTVSPropertyOp28
 70
     1
102
RTVSPropertyOp29
 70
     1
102
RTVSPropertyOp30
 70
     1
102
RTVSPropertyOp31
 70
     1
102
RTVSPropertyOp32
 70
     1
102
RTVSPropertyOp33
 70
     1
102
RTVSPropertyOp34
 70
     1
102
RTVSPropertyOp35
 70
     1
102
RTVSPropertyOp36
 70
     1
102
RTVSPropertyOp37
 70
     1
102
RTVSPropertyOp38
 70
     1
102
RTVSPropertyOp39
 70
     1
102
RTVSPropertyOp40
 70
     1
102
RTVSPropertyOp41
 70
     1
102
RTVSPropertyOp42
 70
     1
102
RTVSPropertyOp43
 70
     1
102
RTVSPropertyOp44
 70
     1
102
RTVSPropertyOp45
 70
     1
102
RTVSPropertyOp46
 70
     1
102
RTVSPropertyOp47
 70
     1
102
RTVSPropertyOp48
 70
     1
102
RTVSPropertyOp49
 70
     1
102
RTVSPropertyOp50
 70
     1
102
RTVSPropertyOp51
 70
     0
102
RTVSPropertyOp52
 70
     0
102
RTVSPropertyOp53
 70
     1
102
RTVSPropertyOp54
 70
     1
102
RTVSPropertyOp55
 70
     1
102
RTVSPropertyOp56
 70
     1
102
RTVSPropertyOp57
 70
     1
102
RTVSPropertyOp58
 70
     1
102
RTVSPropertyOp59
 70
     1
102
RTVSPropertyOp60
 70
     1
102
RTVSPropertyOp61
 70
     1
102
RTVSPropertyOp62
 70
     1
  0
XRECORD
  5
98B6
102
{ACAD_REACTORS
330
98B5
102
}
330
98B5
100
AcDbXrecord
280
     1
102
RTVSPost2010Prop28
280
     0
102
RTVSPost2010PropOp28
 70
     1
102
RTVSPost2010Prop29
280
     1
102
RTVSPost2010PropOp29
 70
     1
102
RTVSPost2010Prop30
280
     1
102
RTVSPost2010PropOp30
 70
     1
102
RTVSPost2010Prop31
280
     0
102
RTVSPost2010PropOp31
 70
     1
102
RTVSPost2010Prop32
280
     0
102
RTVSPost2010PropOp32
 70
     1
102
RTVSPost2010Prop33
280
     0
102
RTVSPost2010PropOp33
 70
     1
102
RTVSPost2010Prop34
280
     0
102
RTVSPost2010PropOp34
 70
     1
102
RTVSPost2010Prop35
280
     0
102
RTVSPost2010PropOp35
 70
     1
102
RTVSPost2010Prop36
280
     0
102
RTVSPost2010PropOp36
 70
     1
102
RTVSPost2010Prop37
 90
       50
102
RTVSPost2010PropOp37
 70
     1
102
RTVSPost2010Prop38
140
0.0
102
RTVSPost2010PropOp38
 70
     1
102
RTVSPost2010Prop39
140
1.0
102
RTVSPost2010PropOp39
 70
     1
102
RTVSPost2010Prop40
 90
        0
102
RTVSPost2010PropOp40
 70
     1
102
RTVSPost2010Prop41ColorIndex
 90
       18
102
RTVSPost2010Prop41ColorRGB
 90
        0
102
RTVSPost2010PropOp41
 70
     1
102
RTVSPost2010Prop42
 90
       50
102
RTVSPost2010PropOp42
 70
     1
102
RTVSPost2010Prop43
 90
        3
102
RTVSPost2010PropOp43
 70
     1
102
RTVSPost2010Prop44ColorIndex
 90
        5
102
RTVSPost2010Prop44ColorRGB
 90
      255
102
RTVSPost2010PropOp44
 70
     1
102
RTVSPost2010Prop45
280
     0
102
RTVSPost2010PropOp45
 70
     1
102
RTVSPost2010Prop46
 90
       50
102
RTVSPost2010PropOp46
 70
     1
102
RTVSPost2010Prop47
 90
       50
102
RTVSPost2010PropOp47
 70
     1
102
RTVSPost2010Prop48
 90
       50
102
RTVSPost2010PropOp48
 70
     1
102
RTVSPost2010Prop49
280
     0
102
RTVSPost2010PropOp49
 70
     1
102
RTVSPost2010Prop50
 90
       50
102
RTVSPost2010PropOp50
 70
     1
102
RTVSPost2010Prop51ColorIndex
 90
      256
102
RTVSPost2010Prop51ColorRGB
 90
-16777216
102
RTVSPost2010PropOp51
 70
     0
102
RTVSPost2010Prop52
140
1.0
102
RTVSPost2010PropOp52
 70
     0
102
RTVSPost2010Prop53
 90
        2
102
RTVSPost2010PropOp53
 70
     1
102
RTVSPost2010Prop54
  1
strokes_ogs.tif
102
RTVSPost2010PropOp54
 70
     1
102
RTVSPost2010Prop55
280
     0
102
RTVSPost2010PropOp55
 70
     1
102
RTVSPost2010Prop56
140
1.0
102
RTVSPost2010PropOp56
 70
     1
102
RTVSPost2010Prop57
140
1.0
102
RTVSPost2010PropOp57
 70
     1
102
RTVSPropertyOp0
 70
     1
102
RTVSPropertyOp1
 70
     1
102
RTVSPropertyOp2
 70
     1
102
RTVSPropertyOp3
 70
     1
102
RTVSPropertyOp4
 70
     1
102
RTVSPropertyOp5
 70
     1
102
RTVSPropertyOp6
 70
     1
102
RTVSPropertyOp7
 70
     1
102
RTVSPropertyOp8
 70
     1
102
RTVSPropertyOp9
 70
     1
102
RTVSPropertyOp10
 70
     1
102
RTVSPropertyOp11
 70
     1
102
RTVSPropertyOp12
 70
     1
102
RTVSPropertyOp13
 70
     1
102
RTVSPropertyOp14
 70
     1
102
RTVSPropertyOp15
 70
     1
102
RTVSPropertyOp16
 70
     1
102
RTVSPropertyOp17
 70
     1
102
RTVSPropertyOp18
 70
     1
102
RTVSPropertyOp19
 70
     1
102
RTVSPropertyOp20
 70
     1
102
RTVSPropertyOp21
 70
     1
102
RTVSPropertyOp22
 70
     1
102
RTVSPropertyOp23
 70
     1
102
RTVSPropertyOp24
 70
     1
102
RTVSPropertyOp25
 70
     1
102
RTVSPropertyOp26
 70
     1
102
RTVSPropertyOp27
 70
     1
102
RTVSPropertyOp28
 70
     1
102
RTVSPropertyOp29
 70
     1
102
RTVSPropertyOp30
 70
     1
102
RTVSPropertyOp31
 70
     1
102
RTVSPropertyOp32
 70
     1
102
RTVSPropertyOp33
 70
     1
102
RTVSPropertyOp34
 70
     1
102
RTVSPropertyOp35
 70
     1
102
RTVSPropertyOp36
 70
     1
102
RTVSPropertyOp37
 70
     1
102
RTVSPropertyOp38
 70
     1
102
RTVSPropertyOp39
 70
     1
102
RTVSPropertyOp40
 70
     1
102
RTVSPropertyOp41
 70
     1
102
RTVSPropertyOp42
 70
     1
102
RTVSPropertyOp43
 70
     1
102
RTVSPropertyOp44
 70
     1
102
RTVSPropertyOp45
 70
     1
102
RTVSPropertyOp46
 70
     1
102
RTVSPropertyOp47
 70
     1
102
RTVSPropertyOp48
 70
     1
102
RTVSPropertyOp49
 70
     1
102
RTVSPropertyOp50
 70
     1
102
RTVSPropertyOp51
 70
     0
102
RTVSPropertyOp52
 70
     0
102
RTVSPropertyOp53
 70
     1
102
RTVSPropertyOp54
 70
     1
102
RTVSPropertyOp55
 70
     1
102
RTVSPropertyOp56
 70
     1
102
RTVSPropertyOp57
 70
     1
102
RTVSPropertyOp58
 70
     1
102
RTVSPropertyOp59
 70
     1
102
RTVSPropertyOp60
 70
     1
102
RTVSPropertyOp61
 70
     1
102
RTVSPropertyOp62
 70
     1
  0
XRECORD
  5
98AC
102
{ACAD_REACTORS
330
98AB
102
}
330
98AB
100
AcDbXrecord
280
     1
102
RTVSPost2010Prop28
280
     0
102
RTVSPost2010PropOp28
 70
     1
102
RTVSPost2010Prop29
280
     1
102
RTVSPost2010PropOp29
 70
     1
102
RTVSPost2010Prop30
280
     1
102
RTVSPost2010PropOp30
 70
     1
102
RTVSPost2010Prop31
280
     0
102
RTVSPost2010PropOp31
 70
     1
102
RTVSPost2010Prop32
280
     0
102
RTVSPost2010PropOp32
 70
     1
102
RTVSPost2010Prop33
280
     0
102
RTVSPost2010PropOp33
 70
     1
102
RTVSPost2010Prop34
280
     0
102
RTVSPost2010PropOp34
 70
     1
102
RTVSPost2010Prop35
280
     0
102
RTVSPost2010PropOp35
 70
     1
102
RTVSPost2010Prop36
280
     0
102
RTVSPost2010PropOp36
 70
     1
102
RTVSPost2010Prop37
 90
       50
102
RTVSPost2010PropOp37
 70
     1
102
RTVSPost2010Prop38
140
0.0
102
RTVSPost2010PropOp38
 70
     1
102
RTVSPost2010Prop39
140
1.0
102
RTVSPost2010PropOp39
 70
     1
102
RTVSPost2010Prop40
 90
        0
102
RTVSPost2010PropOp40
 70
     1
102
RTVSPost2010Prop41ColorIndex
 90
       18
102
RTVSPost2010Prop41ColorRGB
 90
        0
102
RTVSPost2010PropOp41
 70
     1
102
RTVSPost2010Prop42
 90
       50
102
RTVSPost2010PropOp42
 70
     1
102
RTVSPost2010Prop43
 90
        3
102
RTVSPost2010PropOp43
 70
     1
102
RTVSPost2010Prop44ColorIndex
 90
        5
102
RTVSPost2010Prop44ColorRGB
 90
      255
102
RTVSPost2010PropOp44
 70
     1
102
RTVSPost2010Prop45
280
     0
102
RTVSPost2010PropOp45
 70
     1
102
RTVSPost2010Prop46
 90
       50
102
RTVSPost2010PropOp46
 70
     1
102
RTVSPost2010Prop47
 90
       50
102
RTVSPost2010PropOp47
 70
     1
102
RTVSPost2010Prop48
 90
       50
102
RTVSPost2010PropOp48
 70
     1
102
RTVSPost2010Prop49
280
     0
102
RTVSPost2010PropOp49
 70
     1
102
RTVSPost2010Prop50
 90
       50
102
RTVSPost2010PropOp50
 70
     1
102
RTVSPost2010Prop51ColorIndex
 90
      256
102
RTVSPost2010Prop51ColorRGB
 90
-16777216
102
RTVSPost2010PropOp51
 70
     0
102
RTVSPost2010Prop52
140
1.0
102
RTVSPost2010PropOp52
 70
     0
102
RTVSPost2010Prop53
 90
        2
102
RTVSPost2010PropOp53
 70
     1
102
RTVSPost2010Prop54
  1
strokes_ogs.tif
102
RTVSPost2010PropOp54
 70
     1
102
RTVSPost2010Prop55
280
     0
102
RTVSPost2010PropOp55
 70
     1
102
RTVSPost2010Prop56
140
1.0
102
RTVSPost2010PropOp56
 70
     1
102
RTVSPost2010Prop57
140
1.0
102
RTVSPost2010PropOp57
 70
     1
102
RTVSPropertyOp0
 70
     1
102
RTVSPropertyOp1
 70
     1
102
RTVSPropertyOp2
 70
     1
102
RTVSPropertyOp3
 70
     1
102
RTVSPropertyOp4
 70
     1
102
RTVSPropertyOp5
 70
     1
102
RTVSPropertyOp6
 70
     1
102
RTVSPropertyOp7
 70
     1
102
RTVSPropertyOp8
 70
     1
102
RTVSPropertyOp9
 70
     1
102
RTVSPropertyOp10
 70
     1
102
RTVSPropertyOp11
 70
     1
102
RTVSPropertyOp12
 70
     1
102
RTVSPropertyOp13
 70
     1
102
RTVSPropertyOp14
 70
     1
102
RTVSPropertyOp15
 70
     1
102
RTVSPropertyOp16
 70
     1
102
RTVSPropertyOp17
 70
     1
102
RTVSPropertyOp18
 70
     1
102
RTVSPropertyOp19
 70
     1
102
RTVSPropertyOp20
 70
     1
102
RTVSPropertyOp21
 70
     1
102
RTVSPropertyOp22
 70
     1
102
RTVSPropertyOp23
 70
     1
102
RTVSPropertyOp24
 70
     1
102
RTVSPropertyOp25
 70
     1
102
RTVSPropertyOp26
 70
     1
102
RTVSPropertyOp27
 70
     1
102
RTVSPropertyOp28
 70
     1
102
RTVSPropertyOp29
 70
     1
102
RTVSPropertyOp30
 70
     1
102
RTVSPropertyOp31
 70
     1
102
RTVSPropertyOp32
 70
     1
102
RTVSPropertyOp33
 70
     1
102
RTVSPropertyOp34
 70
     1
102
RTVSPropertyOp35
 70
     1
102
RTVSPropertyOp36
 70
     1
102
RTVSPropertyOp37
 70
     1
102
RTVSPropertyOp38
 70
     1
102
RTVSPropertyOp39
 70
     1
102
RTVSPropertyOp40
 70
     1
102
RTVSPropertyOp41
 70
     1
102
RTVSPropertyOp42
 70
     1
102
RTVSPropertyOp43
 70
     1
102
RTVSPropertyOp44
 70
     1
102
RTVSPropertyOp45
 70
     1
102
RTVSPropertyOp46
 70
     1
102
RTVSPropertyOp47
 70
     1
102
RTVSPropertyOp48
 70
     1
102
RTVSPropertyOp49
 70
     1
102
RTVSPropertyOp50
 70
     1
102
RTVSPropertyOp51
 70
     0
102
RTVSPropertyOp52
 70
     0
102
RTVSPropertyOp53
 70
     1
102
RTVSPropertyOp54
 70
     1
102
RTVSPropertyOp55
 70
     1
102
RTVSPropertyOp56
 70
     1
102
RTVSPropertyOp57
 70
     1
102
RTVSPropertyOp58
 70
     1
102
RTVSPropertyOp59
 70
     1
102
RTVSPropertyOp60
 70
     1
102
RTVSPropertyOp61
 70
     1
102
RTVSPropertyOp62
 70
     1
  0
XRECORD
  5
98A0
102
{ACAD_REACTORS
330
989F
102
}
330
989F
100
AcDbXrecord
280
     1
102
RTVSPost2010Prop28
280
     0
102
RTVSPost2010PropOp28
 70
     1
102
RTVSPost2010Prop29
280
     1
102
RTVSPost2010PropOp29
 70
     1
102
RTVSPost2010Prop30
280
     1
102
RTVSPost2010PropOp30
 70
     1
102
RTVSPost2010Prop31
280
     0
102
RTVSPost2010PropOp31
 70
     1
102
RTVSPost2010Prop32
280
     0
102
RTVSPost2010PropOp32
 70
     1
102
RTVSPost2010Prop33
280
     0
102
RTVSPost2010PropOp33
 70
     1
102
RTVSPost2010Prop34
280
     0
102
RTVSPost2010PropOp34
 70
     1
102
RTVSPost2010Prop35
280
     0
102
RTVSPost2010PropOp35
 70
     1
102
RTVSPost2010Prop36
280
     0
102
RTVSPost2010PropOp36
 70
     1
102
RTVSPost2010Prop37
 90
       50
102
RTVSPost2010PropOp37
 70
     1
102
RTVSPost2010Prop38
140
0.0
102
RTVSPost2010PropOp38
 70
     1
102
RTVSPost2010Prop39
140
1.0
102
RTVSPost2010PropOp39
 70
     1
102
RTVSPost2010Prop40
 90
        0
102
RTVSPost2010PropOp40
 70
     1
102
RTVSPost2010Prop41ColorIndex
 90
       18
102
RTVSPost2010Prop41ColorRGB
 90
        0
102
RTVSPost2010PropOp41
 70
     1
102
RTVSPost2010Prop42
 90
       50
102
RTVSPost2010PropOp42
 70
     1
102
RTVSPost2010Prop43
 90
        3
102
RTVSPost2010PropOp43
 70
     1
102
RTVSPost2010Prop44ColorIndex
 90
        5
102
RTVSPost2010Prop44ColorRGB
 90
      255
102
RTVSPost2010PropOp44
 70
     1
102
RTVSPost2010Prop45
280
     0
102
RTVSPost2010PropOp45
 70
     1
102
RTVSPost2010Prop46
 90
       50
102
RTVSPost2010PropOp46
 70
     1
102
RTVSPost2010Prop47
 90
       50
102
RTVSPost2010PropOp47
 70
     1
102
RTVSPost2010Prop48
 90
       50
102
RTVSPost2010PropOp48
 70
     1
102
RTVSPost2010Prop49
280
     0
102
RTVSPost2010PropOp49
 70
     1
102
RTVSPost2010Prop50
 90
       50
102
RTVSPost2010PropOp50
 70
     1
102
RTVSPost2010Prop51ColorIndex
 90
      256
102
RTVSPost2010Prop51ColorRGB
 90
-16777216
102
RTVSPost2010PropOp51
 70
     0
102
RTVSPost2010Prop52
140
1.0
102
RTVSPost2010PropOp52
 70
     0
102
RTVSPost2010Prop53
 90
        2
102
RTVSPost2010PropOp53
 70
     1
102
RTVSPost2010Prop54
  1
strokes_ogs.tif
102
RTVSPost2010PropOp54
 70
     1
102
RTVSPost2010Prop55
280
     0
102
RTVSPost2010PropOp55
 70
     1
102
RTVSPost2010Prop56
140
1.0
102
RTVSPost2010PropOp56
 70
     1
102
RTVSPost2010Prop57
140
1.0
102
RTVSPost2010PropOp57
 70
     1
102
RTVSPropertyOp0
 70
     1
102
RTVSPropertyOp1
 70
     1
102
RTVSPropertyOp2
 70
     1
102
RTVSPropertyOp3
 70
     1
102
RTVSPropertyOp4
 70
     1
102
RTVSPropertyOp5
 70
     1
102
RTVSPropertyOp6
 70
     1
102
RTVSPropertyOp7
 70
     1
102
RTVSPropertyOp8
 70
     1
102
RTVSPropertyOp9
 70
     1
102
RTVSPropertyOp10
 70
     1
102
RTVSPropertyOp11
 70
     1
102
RTVSPropertyOp12
 70
     1
102
RTVSPropertyOp13
 70
     1
102
RTVSPropertyOp14
 70
     1
102
RTVSPropertyOp15
 70
     1
102
RTVSPropertyOp16
 70
     1
102
RTVSPropertyOp17
 70
     1
102
RTVSPropertyOp18
 70
     1
102
RTVSPropertyOp19
 70
     1
102
RTVSPropertyOp20
 70
     1
102
RTVSPropertyOp21
 70
     1
102
RTVSPropertyOp22
 70
     1
102
RTVSPropertyOp23
 70
     1
102
RTVSPropertyOp24
 70
     1
102
RTVSPropertyOp25
 70
     1
102
RTVSPropertyOp26
 70
     1
102
RTVSPropertyOp27
 70
     1
102
RTVSPropertyOp28
 70
     1
102
RTVSPropertyOp29
 70
     1
102
RTVSPropertyOp30
 70
     1
102
RTVSPropertyOp31
 70
     1
102
RTVSPropertyOp32
 70
     1
102
RTVSPropertyOp33
 70
     1
102
RTVSPropertyOp34
 70
     1
102
RTVSPropertyOp35
 70
     1
102
RTVSPropertyOp36
 70
     1
102
RTVSPropertyOp37
 70
     1
102
RTVSPropertyOp38
 70
     1
102
RTVSPropertyOp39
 70
     1
102
RTVSPropertyOp40
 70
     1
102
RTVSPropertyOp41
 70
     1
102
RTVSPropertyOp42
 70
     1
102
RTVSPropertyOp43
 70
     1
102
RTVSPropertyOp44
 70
     1
102
RTVSPropertyOp45
 70
     1
102
RTVSPropertyOp46
 70
     1
102
RTVSPropertyOp47
 70
     1
102
RTVSPropertyOp48
 70
     1
102
RTVSPropertyOp49
 70
     1
102
RTVSPropertyOp50
 70
     1
102
RTVSPropertyOp51
 70
     0
102
RTVSPropertyOp52
 70
     0
102
RTVSPropertyOp53
 70
     1
102
RTVSPropertyOp54
 70
     1
102
RTVSPropertyOp55
 70
     1
102
RTVSPropertyOp56
 70
     1
102
RTVSPropertyOp57
 70
     1
102
RTVSPropertyOp58
 70
     1
102
RTVSPropertyOp59
 70
     1
102
RTVSPropertyOp60
 70
     1
102
RTVSPropertyOp61
 70
     1
102
RTVSPropertyOp62
 70
     1
  0
XRECORD
  5
98B8
102
{ACAD_REACTORS
330
98B7
102
}
330
98B7
100
AcDbXrecord
280
     1
102
RTVSPost2010Prop28
280
     0
102
RTVSPost2010PropOp28
 70
     1
102
RTVSPost2010Prop29
280
     1
102
RTVSPost2010PropOp29
 70
     1
102
RTVSPost2010Prop30
280
     1
102
RTVSPost2010PropOp30
 70
     1
102
RTVSPost2010Prop31
280
     0
102
RTVSPost2010PropOp31
 70
     1
102
RTVSPost2010Prop32
280
     0
102
RTVSPost2010PropOp32
 70
     1
102
RTVSPost2010Prop33
280
     0
102
RTVSPost2010PropOp33
 70
     1
102
RTVSPost2010Prop34
280
     0
102
RTVSPost2010PropOp34
 70
     1
102
RTVSPost2010Prop35
280
     0
102
RTVSPost2010PropOp35
 70
     1
102
RTVSPost2010Prop36
280
     0
102
RTVSPost2010PropOp36
 70
     1
102
RTVSPost2010Prop37
 90
       50
102
RTVSPost2010PropOp37
 70
     1
102
RTVSPost2010Prop38
140
0.0
102
RTVSPost2010PropOp38
 70
     1
102
RTVSPost2010Prop39
140
1.0
102
RTVSPost2010PropOp39
 70
     1
102
RTVSPost2010Prop40
 90
        0
102
RTVSPost2010PropOp40
 70
     1
102
RTVSPost2010Prop41ColorIndex
 90
       18
102
RTVSPost2010Prop41ColorRGB
 90
        0
102
RTVSPost2010PropOp41
 70
     1
102
RTVSPost2010Prop42
 90
       50
102
RTVSPost2010PropOp42
 70
     1
102
RTVSPost2010Prop43
 90
        3
102
RTVSPost2010PropOp43
 70
     1
102
RTVSPost2010Prop44ColorIndex
 90
        5
102
RTVSPost2010Prop44ColorRGB
 90
      255
102
RTVSPost2010PropOp44
 70
     1
102
RTVSPost2010Prop45
280
     0
102
RTVSPost2010PropOp45
 70
     1
102
RTVSPost2010Prop46
 90
       50
102
RTVSPost2010PropOp46
 70
     1
102
RTVSPost2010Prop47
 90
       50
102
RTVSPost2010PropOp47
 70
     1
102
RTVSPost2010Prop48
 90
       50
102
RTVSPost2010PropOp48
 70
     1
102
RTVSPost2010Prop49
280
     0
102
RTVSPost2010PropOp49
 70
     1
102
RTVSPost2010Prop50
 90
       50
102
RTVSPost2010PropOp50
 70
     1
102
RTVSPost2010Prop51ColorIndex
 90
      256
102
RTVSPost2010Prop51ColorRGB
 90
-16777216
102
RTVSPost2010PropOp51
 70
     0
102
RTVSPost2010Prop52
140
1.0
102
RTVSPost2010PropOp52
 70
     0
102
RTVSPost2010Prop53
 90
        2
102
RTVSPost2010PropOp53
 70
     1
102
RTVSPost2010Prop54
  1
strokes_ogs.tif
102
RTVSPost2010PropOp54
 70
     1
102
RTVSPost2010Prop55
280
     0
102
RTVSPost2010PropOp55
 70
     1
102
RTVSPost2010Prop56
140
1.0
102
RTVSPost2010PropOp56
 70
     1
102
RTVSPost2010Prop57
140
1.0
102
RTVSPost2010PropOp57
 70
     1
102
RTVSPropertyOp0
 70
     1
102
RTVSPropertyOp1
 70
     1
102
RTVSPropertyOp2
 70
     1
102
RTVSPropertyOp3
 70
     1
102
RTVSPropertyOp4
 70
     1
102
RTVSPropertyOp5
 70
     1
102
RTVSPropertyOp6
 70
     1
102
RTVSPropertyOp7
 70
     1
102
RTVSPropertyOp8
 70
     1
102
RTVSPropertyOp9
 70
     1
102
RTVSPropertyOp10
 70
     1
102
RTVSPropertyOp11
 70
     1
102
RTVSPropertyOp12
 70
     1
102
RTVSPropertyOp13
 70
     1
102
RTVSPropertyOp14
 70
     1
102
RTVSPropertyOp15
 70
     1
102
RTVSPropertyOp16
 70
     1
102
RTVSPropertyOp17
 70
     1
102
RTVSPropertyOp18
 70
     1
102
RTVSPropertyOp19
 70
     1
102
RTVSPropertyOp20
 70
     1
102
RTVSPropertyOp21
 70
     1
102
RTVSPropertyOp22
 70
     1
102
RTVSPropertyOp23
 70
     1
102
RTVSPropertyOp24
 70
     1
102
RTVSPropertyOp25
 70
     1
102
RTVSPropertyOp26
 70
     1
102
RTVSPropertyOp27
 70
     1
102
RTVSPropertyOp28
 70
     1
102
RTVSPropertyOp29
 70
     1
102
RTVSPropertyOp30
 70
     1
102
RTVSPropertyOp31
 70
     1
102
RTVSPropertyOp32
 70
     1
102
RTVSPropertyOp33
 70
     1
102
RTVSPropertyOp34
 70
     1
102
RTVSPropertyOp35
 70
     1
102
RTVSPropertyOp36
 70
     1
102
RTVSPropertyOp37
 70
     1
102
RTVSPropertyOp38
 70
     1
102
RTVSPropertyOp39
 70
     1
102
RTVSPropertyOp40
 70
     1
102
RTVSPropertyOp41
 70
     1
102
RTVSPropertyOp42
 70
     1
102
RTVSPropertyOp43
 70
     1
102
RTVSPropertyOp44
 70
     1
102
RTVSPropertyOp45
 70
     1
102
RTVSPropertyOp46
 70
     1
102
RTVSPropertyOp47
 70
     1
102
RTVSPropertyOp48
 70
     1
102
RTVSPropertyOp49
 70
     1
102
RTVSPropertyOp50
 70
     1
102
RTVSPropertyOp51
 70
     0
102
RTVSPropertyOp52
 70
     0
102
RTVSPropertyOp53
 70
     1
102
RTVSPropertyOp54
 70
     1
102
RTVSPropertyOp55
 70
     1
102
RTVSPropertyOp56
 70
     1
102
RTVSPropertyOp57
 70
     1
102
RTVSPropertyOp58
 70
     1
102
RTVSPropertyOp59
 70
     1
102
RTVSPropertyOp60
 70
     1
102
RTVSPropertyOp61
 70
     1
102
RTVSPropertyOp62
 70
     1
  0
ENDSEC
  0
EOF
