  0
SECTION
  2
HEADER
  9
$ACADVER
  1
AC1027
  9
$DWGCODEPAGE
  3
ANSI_932
  9
$LTSCALE
 40
20.0
  9
$FILLMODE
 70
     1
  9
$CLAYER
  8
0
  9
$PDMODE
 70
     0
  9
$SPLFRAME
 70
     0
  9
$SPLINETYPE
 70
     6
  9
$SPLINESEGS
 70
     8
  9
$DIMASZ
 40
2.000000
  9
$DIMEXE
 40
1.500000
  9
$DIMEXO
 40
0.800000
  9
$DIMTAD
 70
     1
  9
$DIMTIH
 70
     0
  9
$DIMTOH
 70
     0
  9
$DIMTVP
 40
0.500000
  9
$DIMTXT
 40
3.100000
  9
$EXTMIN
 10
0.000000
 20
0.000000
 30
0.000000
  9
$EXTMAX
 10
297.000000
 20
420.000000
 30
0.000000
  9
$MEASUREMENT
 70
  1
  9
$LIMMIN
 10
0.000000
 20
0.000000
  9
$LIMMAX
 10
297.000000
 20
420.000000
  9
$HANDSEED
  5
130
  9
$LWDISPLAY
290
     0
  9
$DIMBLK
  1
_OPEN
  9
$DIMDEC
 70
     2
  9
$DIMADEC
 70
     2
  9
$DIMAUNIT
 70
     0
  9
$DIMZIN
 70
     8
  9
$DIMAZIN
 70
     2
  9
$DIMTOFL
 70
     1
  0
ENDSEC
  0
SECTION
  2
CLASSES
  0
ENDSEC
  0
SECTION
  2
TABLES
  0
TABLE
  2
VPORT
  5
FB
100
AcDbSymbolTable
 70
     1
  0
VPORT
  5
FC
100
AcDbSymbolTableRecord
100
AcDbViewportTableRecord
  2
*ACTIVE
 70
     0
 12
105.565997
 22
105.698204
 40
175.396407
 41
1.089714
  0
ENDTAB
  0
TABLE
  2
LTYPE
  5
FD
100
AcDbSymbolTable
 70
     2
  0
LTYPE
  5
FE
100
AcDbSymbolTableRecord
100
AcDbLinetypeTableRecord
  2
BYBLOCK
 70
     0
  3

 72
    65
 73
     0
 40
0.0
  0
LTYPE
  5
FF
100
AcDbSymbolTableRecord
100
AcDbLinetypeTableRecord
  2
BYLAYER
 70
     0
  3

 72
    65
 73
     0
 40
0.0
  0
LTYPE
  5
100
100
AcDbSymbolTableRecord
100
AcDbLinetypeTableRecord
  2
CONTINUOUS
 70
     0
  3
Solid line (NEC CAE2D for Win R18.0 : 2025.08.07)
 72
    65
 73
     0
 40
0.0
  0
LTYPE
  5
101
100
AcDbSymbolTableRecord
100
AcDbLinetypeTableRecord
  2
CENTER
 70
     0
  3
____ _ ____ _ ____ _ ____ _ ____ _ ____
 72
    65
 73
     4
 40
2.0
 49
1.25
 74
     0
 49
-0.25
 74
     0
 49
0.25
 74
     0
 49
-0.25
 74
     0
  0
ENDTAB
  0
TABLE
  2
LAYER
  5
102
100
AcDbSymbolTable
 70
    15
  0
LAYER
  5
103
100
AcDbSymbolTableRecord
100
AcDbLayerTableRecord
  2
0
 70
     0
 62
     7
  6
CONTINUOUS
370
    -3
390

  0
LAYER
  5
104
100
AcDbSymbolTableRecord
100
AcDbLayerTableRecord
  2
A0
 70
     0
 62
     9
  6
CONTINUOUS
370
    -3
390

  0
LAYER
  5
105
100
AcDbSymbolTableRecord
100
AcDbLayerTableRecord
  2
A1
 70
     0
 62
     1
  6
CONTINUOUS
370
    -3
390

  0
LAYER
  5
106
100
AcDbSymbolTableRecord
100
AcDbLayerTableRecord
  2
A3
 70
     0
 62
    12
  6
CONTINUOUS
370
    -3
390

  0
LAYER
  5
107
100
AcDbSymbolTableRecord
100
AcDbLayerTableRecord
  2
A4
 70
     0
 62
     9
  6
CONTINUOUS
370
    -3
390

  0
LAYER
  5
108
100
AcDbSymbolTableRecord
100
AcDbLayerTableRecord
  2
A5
 70
     0
 62
     8
  6
CONTINUOUS
370
    -3
390

  0
LAYER
  5
109
100
AcDbSymbolTableRecord
100
AcDbLayerTableRecord
  2
A6
 70
     0
 62
    12
  6
CONTINUOUS
370
    -3
390

  0
LAYER
  5
10A
100
AcDbSymbolTableRecord
100
AcDbLayerTableRecord
  2
A8
 70
     0
 62
    10
  6
CONTINUOUS
370
    -3
390

  0
LAYER
  5
10B
100
AcDbSymbolTableRecord
100
AcDbLayerTableRecord
  2
A9
 70
     0
 62
     9
  6
CONTINUOUS
370
    -3
390

  0
LAYER
  5
10C
100
AcDbSymbolTableRecord
100
AcDbLayerTableRecord
  2
A10
 70
     0
 62
     6
  6
CONTINUOUS
370
    -3
390

  0
LAYER
  5
10D
100
AcDbSymbolTableRecord
100
AcDbLayerTableRecord
  2
A20
 70
     0
 62
     1
  6
CONTINUOUS
370
    -3
390

  0
LAYER
  5
10E
100
AcDbSymbolTableRecord
100
AcDbLayerTableRecord
  2
A30
 70
     0
 62
     1
  6
CONTINUOUS
370
    -3
390

  0
LAYER
  5
10F
100
AcDbSymbolTableRecord
100
AcDbLayerTableRecord
  2
A40
 70
     0
 62
     9
  6
CONTINUOUS
370
    -3
390

  0
LAYER
  5
110
100
AcDbSymbolTableRecord
100
AcDbLayerTableRecord
  2
A50
 70
     0
 62
    12
  6
CONTINUOUS
370
    -3
390

  0
LAYER
  5
111
100
AcDbSymbolTableRecord
100
AcDbLayerTableRecord
  2
A1023
 70
     0
 62
    16
  6
CONTINUOUS
370
    -3
390

  0
ENDTAB
  0
TABLE
  2
STYLE
  5
112
100
AcDbSymbolTable
 70
     4
  0
STYLE
  5
113
100
AcDbSymbolTableRecord
100
AcDbTextStyleTableRecord
  2
STANDARD
 70
    64
 40
0.0
 41
1.0
 50
0.0
 71
     0
 42
3.000000000000000
  3
TXT
  4

  0
STYLE
  5
114
100
AcDbSymbolTableRecord
100
AcDbTextStyleTableRecord
  2
ANKTATE
 70
    68
 40
0.0
 41
1.0
 50
0.0
 71
     0
 42
3.000000000000000
  3
TXT
  4

  0
STYLE
  5
115
100
AcDbSymbolTableRecord
100
AcDbTextStyleTableRecord
  2
KNJYOKO
 70
    64
 40
0.0
 41
1.0
 50
0.0
 71
     0
 42
3.000000000000000
  3
TXT
  4
BIGFONT
  0
STYLE
  5
116
100
AcDbSymbolTableRecord
100
AcDbTextStyleTableRecord
  2
KNJTATE
 70
    68
 40
0.0
 41
1.0
 50
0.0
 71
     0
 42
3.000000000000000
  3
TXT
  4
BIGFONT
  0
ENDTAB
  0
TABLE
  2
VIEW
  5
117
100
AcDbSymbolTable
 70
     0
  0
ENDTAB
  0
TABLE
  2
UCS
  5
118
100
AcDbSymbolTable
 70
     0
  0
ENDTAB
  0
TABLE
  2
APPID
  5
119
100
AcDbSymbolTable
 70
     1
  0
APPID
  5
11A
100
AcDbSymbolTableRecord
100
AcDbRegAppTableRecord
  2
ACAD
 70
     0
  0
ENDTAB
  0
TABLE
  2
DIMSTYLE
  5
11B
100
AcDbSymbolTable
 70
     2
100
AcDbDimStyleTable
  0
DIMSTYLE
105
11C
100
AcDbSymbolTableRecord
100
AcDbDimStyleTableRecord
  2
STANDARD
 70
     0
 41
2.000000
 44
1.500000
 42
0.800000
145
0.661290
140
3.100000
144
1.000000
146
0.645161
340
113
  0
DIMSTYLE
105
11D
100
AcDbSymbolTableRecord
100
AcDbDimStyleTableRecord
  2
A001
 70
     0
 41
2.000000
 44
1.500000
 42
0.800000
145
0.661290
140
3.100000
144
1.000000
146
0.645161
 77
     1
 73
     0
 74
     0
271
     2
179
     2
275
     0
 78
     8
 79
     2
172
     1
340
113
  0
ENDTAB
  0
TABLE
  2
BLOCK_RECORD
  5
11E
100
AcDbSymbolTable
 70
    12
  0
BLOCK_RECORD
  5
11F
100
AcDbSymbolTableRecord
100
AcDbBlockTableRecord
  2
*MODEL_SPACE
  0
BLOCK_RECORD
  5
120
100
AcDbSymbolTableRecord
100
AcDbBlockTableRecord
  2
*PAPER_SPACE
  0
BLOCK_RECORD
  5
121
100
AcDbSymbolTableRecord
100
AcDbBlockTableRecord
  2
*PAPER_SPACE0
  0
BLOCK_RECORD
  5
1
100
AcDbSymbolTableRecord
100
AcDbBlockTableRecord
  2
_NONE
  0
BLOCK_RECORD
  5
4
100
AcDbSymbolTableRecord
100
AcDbBlockTableRecord
  2
_CLOSED
  0
BLOCK_RECORD
  5
B
100
AcDbSymbolTableRecord
100
AcDbBlockTableRecord
  2
_DOT
  0
BLOCK_RECORD
  5
13
100
AcDbSymbolTableRecord
100
AcDbBlockTableRecord
  2
_OPEN
  0
BLOCK_RECORD
  5
19
100
AcDbSymbolTableRecord
100
AcDbBlockTableRecord
  2
_ORIGIN
  0
BLOCK_RECORD
  5
1E
100
AcDbSymbolTableRecord
100
AcDbBlockTableRecord
  2
_OPEN30
  0
BLOCK_RECORD
  5
24
100
AcDbSymbolTableRecord
100
AcDbBlockTableRecord
  2
_BOXFILLED
  0
BLOCK_RECORD
  5
29
100
AcDbSymbolTableRecord
100
AcDbBlockTableRecord
  2
_BOXBLANK
  0
BLOCK_RECORD
  5
31
100
AcDbSymbolTableRecord
100
AcDbBlockTableRecord
  2
_OBLIQUE
  0
BLOCK_RECORD
  5
35
100
AcDbSymbolTableRecord
100
AcDbBlockTableRecord
  2
_OPEN90
  0
BLOCK_RECORD
  5
3B
100
AcDbSymbolTableRecord
100
AcDbBlockTableRecord
  2
_CLOSEDBLANK
  0
BLOCK_RECORD
  5
41
100
AcDbSymbolTableRecord
100
AcDbBlockTableRecord
  2
_DOTBLANK
  0
ENDTAB
  0
ENDSEC
  0
SECTION
  2
BLOCKS
  0
BLOCK
  5
122
100
AcDbEntity
  8
0
100
AcDbBlockBegin
  2
*MODEL_SPACE
 70
     0
 10
0.0
 20
0.0
 30
0.0
  3
*MODEL_SPACE
  1

  0
ENDBLK
  5
123
100
AcDbEntity
  8
0
100
AcDbBlockEnd
  0
BLOCK
  5
124
100
AcDbEntity
  8
0
100
AcDbBlockBegin
  2
*PAPER_SPACE
 70
     0
 10
0.0
 20
0.0
 30
0.0
  3
*PAPER_SPACE
  1

  0
ENDBLK
  5
125
100
AcDbEntity
  8
0
100
AcDbBlockEnd
  0
BLOCK
  5
126
100
AcDbEntity
  8
0
100
AcDbBlockBegin
  2
*PAPER_SPACE0
 70
     0
 10
0.0
 20
0.0
 30
0.0
  3
*PAPER_SPACE0
  1

  0
ENDBLK
  5
127
100
AcDbEntity
  8
0
100
AcDbBlockEnd
  0
BLOCK
  5
2
330
1
100
AcDbEntity
  8
0
100
AcDbBlockBegin
  2
_NONE
 70
     0
 10
0.0
 20
0.0
 30
0.0
  3
_NONE
  1

  0
ENDBLK
  5
3
330
1
100
AcDbEntity
  8
0
100
AcDbBlockEnd
  0
BLOCK
  5
5
330
4
100
AcDbEntity
  8
0
100
AcDbBlockBegin
  2
_CLOSED
 70
     0
 10
0.0
 20
0.0
 30
0.0
  3
_CLOSED
  1

  0
LINE
  5
6
330
4
100
AcDbEntity
  8
0
  6
BYBLOCK
 62
     0
370
    -2
100
AcDbLine
 10
-1.0
 20
0.166667
 30
0.0
 11
0.0
 21
0.0
 31
0.0
  0
LINE
  5
7
330
4
100
AcDbEntity
  8
0
  6
BYBLOCK
 62
     0
370
    -2
100
AcDbLine
 10
0.0
 20
0.0
 30
0.0
 11
-1.0
 21
-0.166667
 31
0.0
  0
LINE
  5
8
330
4
100
AcDbEntity
  8
0
  6
BYBLOCK
 62
     0
370
    -2
100
AcDbLine
 10
-1.0
 20
0.166667
 30
0.0
 11
-1.0
 21
-0.166667
 31
0.0
  0
LINE
  5
9
330
4
100
AcDbEntity
  8
0
  6
BYBLOCK
 62
     0
370
    -2
100
AcDbLine
 10
0.0
 20
0.0
 30
0.0
 11
-1.0
 21
0.0
 31
0.0
  0
ENDBLK
  5
A
330
4
100
AcDbEntity
  8
0
100
AcDbBlockEnd
  0
BLOCK
  5
C
330
B
100
AcDbEntity
  8
0
100
AcDbBlockBegin
  2
_DOT
 70
     0
 10
0.0
 20
0.0
 30
0.0
  3
_DOT
  1

  0
POLYLINE
  5
D
330
B
100
AcDbEntity
  8
0
  6
BYBLOCK
 62
     0
370
    -2
100
AcDb2dPolyline
 66
     1
 10
0.0
 20
0.0
 30
0.0
 70
     1
 40
0.5
 41
0.5
  0
VERTEX
  5
E
330
B
100
AcDbEntity
  8
0
  6
BYBLOCK
 62
     0
370
    -2
100
AcDbVertex
100
AcDb2dVertex
 10
-0.25
 20
0.0
 30
0.0
 42
1.0
  0
VERTEX
  5
F
330
B
100
AcDbEntity
  8
0
  6
BYBLOCK
 62
     0
370
    -2
100
AcDbVertex
100
AcDb2dVertex
 10
0.25
 20
0.0
 30
0.0
 42
1.0
  0
SEQEND
  5
10
330
B
100
AcDbEntity
  8
0
  6
BYBLOCK
 62
     0
370
    -2
  0
LINE
  5
11
330
B
100
AcDbEntity
  8
0
  6
BYBLOCK
 62
     0
370
    -2
100
AcDbLine
 10
-0.5
 20
0.0
 30
0.0
 11
-1.0
 21
0.0
 31
0.0
  0
ENDBLK
  5
12
330
B
100
AcDbEntity
  8
0
100
AcDbBlockEnd
  0
BLOCK
  5
14
330
13
100
AcDbEntity
  8
0
100
AcDbBlockBegin
  2
_OPEN
 70
     0
 10
0.0
 20
0.0
 30
0.0
  3
_OPEN
  1

  0
LINE
  5
15
330
13
100
AcDbEntity
  8
0
  6
BYBLOCK
 62
     0
370
    -2
100
AcDbLine
 10
-1.0
 20
0.166667
 30
0.0
 11
0.0
 21
0.0
 31
0.0
  0
LINE
  5
16
330
13
100
AcDbEntity
  8
0
  6
BYBLOCK
 62
     0
370
    -2
100
AcDbLine
 10
0.0
 20
0.0
 30
0.0
 11
-1.0
 21
-0.166667
 31
0.0
  0
LINE
  5
17
330
13
100
AcDbEntity
  8
0
  6
BYBLOCK
 62
     0
370
    -2
100
AcDbLine
 10
0.0
 20
0.0
 30
0.0
 11
-1.0
 21
0.0
 31
0.0
  0
ENDBLK
  5
18
330
13
100
AcDbEntity
  8
0
100
AcDbBlockEnd
  0
BLOCK
  5
1A
330
19
100
AcDbEntity
  8
0
100
AcDbBlockBegin
  2
_ORIGIN
 70
     0
 10
0.0
 20
0.0
 30
0.0
  3
_ORIGIN
  1

  0
CIRCLE
  5
1B
330
19
100
AcDbEntity
  8
0
  6
BYBLOCK
 62
     0
370
    -2
100
AcDbCircle
 10
0.0
 20
0.0
 30
0.0
 40
0.5
  0
LINE
  5
1C
330
19
100
AcDbEntity
  8
0
  6
BYBLOCK
 62
     0
370
    -2
100
AcDbLine
 10
0.0
 20
0.0
 30
0.0
 11
-1.0
 21
0.0
 31
0.0
  0
ENDBLK
  5
1D
330
19
100
AcDbEntity
  8
0
100
AcDbBlockEnd
  0
BLOCK
  5
1F
330
1E
100
AcDbEntity
  8
0
100
AcDbBlockBegin
  2
_OPEN30
 70
     0
 10
0.0
 20
0.0
 30
0.0
  3
_OPEN30
  1

  0
LINE
  5
20
330
1E
100
AcDbEntity
  8
0
  6
BYBLOCK
 62
     0
370
    -2
100
AcDbLine
 10
-1.0
 20
0.267949
 30
0.0
 11
0.0
 21
0.0
 31
0.0
  0
LINE
  5
21
330
1E
100
AcDbEntity
  8
0
  6
BYBLOCK
 62
     0
370
    -2
100
AcDbLine
 10
0.0
 20
0.0
 30
0.0
 11
-1.0
 21
-0.267949
 31
0.0
  0
LINE
  5
22
330
1E
100
AcDbEntity
  8
0
  6
BYBLOCK
 62
     0
370
    -2
100
AcDbLine
 10
0.0
 20
0.0
 30
0.0
 11
-1.0
 21
0.0
 31
0.0
  0
ENDBLK
  5
23
330
1E
100
AcDbEntity
  8
0
100
AcDbBlockEnd
  0
BLOCK
  5
25
330
24
100
AcDbEntity
  8
0
100
AcDbBlockBegin
  2
_BOXFILLED
 70
     0
 10
0.0
 20
0.0
 30
0.0
  3
_BOXFILLED
  1

  0
SOLID
  5
26
330
24
100
AcDbEntity
  8
0
  6
BYBLOCK
 62
     0
370
    -2
100
AcDbTrace
 10
-0.5
 20
0.5
 30
0.0
 11
0.5
 21
0.5
 31
0.0
 12
-0.5
 22
-0.5
 32
0.0
 13
0.5
 23
-0.5
 33
0.0
  0
LINE
  5
27
330
24
100
AcDbEntity
  8
0
  6
BYBLOCK
 62
     0
370
    -2
100
AcDbLine
 10
-0.5
 20
0.0
 30
0.0
 11
-1.0
 21
0.0
 31
0.0
  0
ENDBLK
  5
28
330
24
100
AcDbEntity
  8
0
100
AcDbBlockEnd
  0
BLOCK
  5
2A
330
29
100
AcDbEntity
  8
0
100
AcDbBlockBegin
  2
_BOXBLANK
 70
     0
 10
0.0
 20
0.0
 30
0.0
  3
_BOXBLANK
  1

  0
LINE
  5
2B
330
29
100
AcDbEntity
  8
0
  6
BYBLOCK
 62
     0
370
    -2
100
AcDbLine
 10
-0.5
 20
-0.5
 30
0.0
 11
0.5
 21
-0.5
 31
0.0
  0
LINE
  5
2C
330
29
100
AcDbEntity
  8
0
  6
BYBLOCK
 62
     0
370
    -2
100
AcDbLine
 10
0.5
 20
-0.5
 30
0.0
 11
0.5
 21
0.5
 31
0.0
  0
LINE
  5
2D
330
29
100
AcDbEntity
  8
0
  6
BYBLOCK
 62
     0
370
    -2
100
AcDbLine
 10
0.5
 20
0.5
 30
0.0
 11
-0.5
 21
0.5
 31
0.0
  0
LINE
  5
2E
330
29
100
AcDbEntity
  8
0
  6
BYBLOCK
 62
     0
370
    -2
100
AcDbLine
 10
-0.5
 20
0.5
 30
0.0
 11
-0.5
 21
-0.5
 31
0.0
  0
LINE
  5
2F
330
29
100
AcDbEntity
  8
0
  6
BYBLOCK
 62
     0
370
    -2
100
AcDbLine
 10
-0.5
 20
0.0
 30
0.0
 11
-1.0
 21
0.0
 31
0.0
  0
ENDBLK
  5
30
330
29
100
AcDbEntity
  8
0
100
AcDbBlockEnd
  0
BLOCK
  5
32
330
31
100
AcDbEntity
  8
0
100
AcDbBlockBegin
  2
_OBLIQUE
 70
     0
 10
0.0
 20
0.0
 30
0.0
  3
_OBLIQUE
  1

  0
LINE
  5
33
330
31
100
AcDbEntity
  8
0
  6
BYBLOCK
 62
     0
370
    -2
100
AcDbLine
 10
-0.5
 20
-0.5
 30
0.0
 11
0.5
 21
0.5
 31
0.0
  0
ENDBLK
  5
34
330
31
100
AcDbEntity
  8
0
100
AcDbBlockEnd
  0
BLOCK
  5
36
330
35
100
AcDbEntity
  8
0
100
AcDbBlockBegin
  2
_OPEN90
 70
     0
 10
0.0
 20
0.0
 30
0.0
  3
_OPEN90
  1

  0
LINE
  5
37
330
35
100
AcDbEntity
  8
0
  6
BYBLOCK
 62
     0
370
    -2
100
AcDbLine
 10
-0.5
 20
0.5
 30
0.0
 11
0.0
 21
0.0
 31
0.0
  0
LINE
  5
38
330
35
100
AcDbEntity
  8
0
  6
BYBLOCK
 62
     0
370
    -2
100
AcDbLine
 10
0.0
 20
0.0
 30
0.0
 11
-0.5
 21
-0.5
 31
0.0
  0
LINE
  5
39
330
35
100
AcDbEntity
  8
0
  6
BYBLOCK
 62
     0
370
    -2
100
AcDbLine
 10
0.0
 20
0.0
 30
0.0
 11
-1.0
 21
0.0
 31
0.0
  0
ENDBLK
  5
3A
330
35
100
AcDbEntity
  8
0
100
AcDbBlockEnd
  0
BLOCK
  5
3C
330
3B
100
AcDbEntity
  8
0
100
AcDbBlockBegin
  2
_CLOSEDBLANK
 70
     0
 10
0.0
 20
0.0
 30
0.0
  3
_CLOSEDBLANK
  1

  0
LINE
  5
3D
330
3B
100
AcDbEntity
  8
0
  6
BYBLOCK
 62
     0
370
    -2
100
AcDbLine
 10
-1.0
 20
0.1666666666666666
 30
0.0
 11
0.0
 21
0.0
 31
0.0
  0
LINE
  5
3E
330
3B
100
AcDbEntity
  8
0
  6
BYBLOCK
 62
     0
370
    -2
100
AcDbLine
 10
0.0
 20
0.0
 30
0.0
 11
-1.0
 21
-0.1666666666666666
 31
0.0
  0
LINE
  5
3F
330
3B
100
AcDbEntity
  8
0
  6
BYBLOCK
 62
     0
370
    -2
100
AcDbLine
 10
-1.0
 20
0.1666666666666666
 30
0.0
 11
-1.0
 21
-0.1666666666666666
 31
0.0
  0
ENDBLK
  5
40
330
3B
100
AcDbEntity
  8
0
100
AcDbBlockEnd
  0
BLOCK
  5
42
330
41
100
AcDbEntity
  8
0
100
AcDbBlockBegin
  2
_DOTBLANK
 70
     0
 10
0.0
 20
0.0
 30
0.0
  3
_DOTBLANK
  1

  0
CIRCLE
  5
43
330
41
100
AcDbEntity
  8
0
  6
BYBLOCK
 62
     0
370
    -2
100
AcDbCircle
 10
0.0
 20
0.0
 30
0.0
 40
0.5
  0
LINE
  5
44
330
41
100
AcDbEntity
  8
0
  6
BYBLOCK
 62
     0
370
    -2
100
AcDbLine
 10
-0.5
 20
0.0
 30
0.0
 11
-1.0
 21
0.0
 31
0.0
  0
ENDBLK
  5
45
330
41
100
AcDbEntity
  8
0
100
AcDbBlockEnd
  0
ENDSEC
  0
SECTION
  2
ENTITIES
  0
MTEXT
  5
46
100
AcDbEntity
  8
A8
  6
CONTINUOUS
 62
3
100
AcDbMText
 10
9.999997526638502
 20
18.00000076076889
 30
0.000000000000000
 40
3.000000000000000
 41
0.000000000000000
 44
0.6739999771118164
 71
     7
 72
     1
  1
{\H0.94x;{TYPE No.TCA-420E-U40}}
 11
1.000000000000000
 21
0.000000000000000
 31
0.000000000000000
  7
STANDARD
  0
POINT
  5
47
100
AcDbEntity
  8
A0
  6
CONTINUOUS
 62
3
100
AcDbPoint
 10
9.999997526638502
 20
18.00000076076889
 30
0.000000000000000
  0
LINE
  5
48
100
AcDbEntity
  8
A1
  6
CONTINUOUS
 62
7
100
AcDbLine
 10
153.4999999999999
 20
191.1367300000000
 30
0.000000000000000
 11
192.5000000000001
 21
191.1367300000000
 31
0.000000000000000
  0
CIRCLE
  5
49
100
AcDbEntity
  8
A1
  6
CONTINUOUS
 62
7
100
AcDbCircle
 10
172.9999999999999
 20
175.6367300000000
 30
0.000000000000000
 40
5.750000000000000
  0
LINE
  5
4A
100
AcDbEntity
  8
A4
  6
CENTER
 62
1
100
AcDbLine
 10
144.8680039999999
 20
175.6367300000000
 30
0.000000000000000
 11
201.1319960000001
 21
175.6367300000000
 31
0.000000000000000
  0
LINE
  5
4B
100
AcDbEntity
  8
A1
  6
CONTINUOUS
 62
7
100
AcDbLine
 10
153.4999999999999
 20
160.1367300000000
 30
0.000000000000000
 11
192.5000000000001
 21
160.1367300000000
 31
0.000000000000000
  0
CIRCLE
  5
4C
100
AcDbEntity
  8
A1
  6
CONTINUOUS
 62
7
100
AcDbCircle
 10
172.9999999999999
 20
175.6367300000000
 30
0.000000000000000
 40
7.500000000000000
  0
ARC
  5
4D
100
AcDbEntity
  8
A1
  6
CONTINUOUS
 62
7
100
AcDbCircle
 10
168.9412570000000
 20
99.62123090000000
 30
0.000000000000000
 40
1.984500099999999
100
AcDbArc
 50
311.5784599999994
 51
342.8704800000000
  0
LINE
  5
4E
100
AcDbEntity
  8
A1
  6
CONTINUOUS
 62
7
100
AcDbLine
 10
156.9936180000000
 20
98.13673050000000
 30
0.000000000000000
 11
187.4999999999999
 21
98.13673050000000
 31
0.000000000000000
  0
LINE
  5
4F
100
AcDbEntity
  8
A1
  6
CONTINUOUS
 62
7
100
AcDbLine
 10
157.4999999999999
 20
99.03673060000000
 30
0.000000000000000
 11
188.5000000000001
 21
99.03673060000000
 31
0.000000000000000
  0
LINE
  5
50
100
AcDbEntity
  8
A1
  6
CONTINUOUS
 62
7
100
AcDbLine
 10
157.4999999999999
 20
101.8367308000000
 30
0.000000000000000
 11
188.5000000000001
 21
101.8367308000000
 31
0.000000000000000
  0
LINE
  5
51
100
AcDbEntity
  8
A1
  6
CONTINUOUS
 62
7
100
AcDbLine
 10
158.2968540000000
 20
63.75036200000005
 30
0.000000000000000
 11
182.3101120000000
 21
90.01085300000011
 31
0.000000000000000
  0
LINE
  5
52
100
AcDbEntity
  8
A1
  6
CONTINUOUS
 62
7
100
AcDbLine
 10
147.4999999999999
 20
105.6367300000000
 30
0.000000000000000
 11
198.5000000000001
 21
105.6367300000000
 31
0.000000000000000
  0
LINE
  5
53
100
AcDbEntity
  8
A1
  6
CONTINUOUS
 62
7
100
AcDbLine
 10
147.4999999999999
 20
103.3367308000000
 30
0.000000000000000
 11
198.5000000000001
 21
103.3367308000000
 31
0.000000000000000
  0
ARC
  5
54
100
AcDbEntity
  8
A1
  6
CONTINUOUS
 62
7
100
AcDbCircle
 10
44.25659200000001
 20
95.13673100000000
 30
0.000000000000000
 40
3.000000000000000
100
AcDbArc
 50
90.00000299999932
 51
179.0562800000000
  0
ARC
  5
55
100
AcDbEntity
  8
A1
  6
CONTINUOUS
 62
7
100
AcDbCircle
 10
45.54392999999999
 20
100.6669410000000
 30
0.000000000000000
 40
2.799999999999999
100
AcDbArc
 50
107.5419900000006
 51
155.3053600000000
  0
ARC
  5
56
100
AcDbEntity
  8
A1
  6
CONTINUOUS
 62
7
100
AcDbCircle
 10
62.49807699999997
 20
79.29719100000000
 30
0.000000000000000
 40
21.50000000000000
100
AcDbArc
 50
179.2341099999998
 51
216.4320594601474
  0
LINE
  5
57
100
AcDbEntity
  8
A1
  6
CONTINUOUS
 62
7
100
AcDbLine
 10
43.00000000000000
 20
105.6367300000000
 30
0.000000000000000
 11
74.00000000000000
 21
105.6367300000000
 31
0.000000000000000
  0
LINE
  5
58
100
AcDbEntity
  8
A1
  6
CONTINUOUS
 62
7
100
AcDbLine
 10
43.00000000000000
 20
103.3367308000000
 30
0.000000000000000
 11
74.00000000000000
 21
103.3367308000000
 31
0.000000000000000
  0
LINE
  5
59
100
AcDbEntity
  8
A4
  6
CENTER
 62
1
100
AcDbLine
 10
42.49169200000000
 20
67.63673000000000
 30
0.000000000000000
 11
74.55424900000003
 21
67.63673000000000
 31
0.000000000000000
  0
LINE
  5
5A
100
AcDbEntity
  8
A1
  6
CONTINUOUS
 62
7
100
AcDbLine
 10
43.00000000000000
 20
99.03673060000000
 30
0.000000000000000
 11
74.00000000000000
 21
99.03673060000000
 31
0.000000000000000
  0
LINE
  5
5B
100
AcDbEntity
  8
A1
  6
CONTINUOUS
 62
7
100
AcDbLine
 10
43.00000000000000
 20
101.8367308000000
 30
0.000000000000000
 11
74.00000000000000
 21
101.8367308000000
 31
0.000000000000000
  0
LINE
  5
5C
100
AcDbEntity
  8
A1
  6
CONTINUOUS
 62
7
100
AcDbLine
 10
41.00000800000001
 20
79.58457899999996
 30
0.000000000000000
 11
41.25700400000002
 21
95.18614099999999
 31
0.000000000000000
  0
LINE
  5
5D
100
AcDbEntity
  8
A1
  6
CONTINUOUS
 62
7
100
AcDbLine
 10
43.00000000000000
 20
101.8367308000000
 30
0.000000000000000
 11
43.00000000000000
 21
99.03673060000000
 31
0.000000000000000
  0
LINE
  5
5E
100
AcDbEntity
  8
A1
  6
CONTINUOUS
 62
7
100
AcDbLine
 10
43.00000000000000
 20
105.6367300000000
 30
0.000000000000000
 11
43.00000000000000
 21
103.3367308000000
 31
0.000000000000000
  0
LINE
  5
5F
100
AcDbEntity
  8
A1
  6
CONTINUOUS
 62
7
100
AcDbLine
 10
76.00000400000002
 20
79.58457899999998
 30
0.000000000000000
 11
75.74300800000003
 21
95.18614099999996
 31
0.000000000000000
  0
LINE
  5
60
100
AcDbEntity
  8
A1
  6
CONTINUOUS
 62
7
100
AcDbLine
 10
69.00000000000000
 20
94.43673200000001
 30
0.000000000000000
 11
69.00000000000000
 21
61.63673000000000
 31
0.000000000000000
  0
LINE
  5
61
100
AcDbEntity
  8
A1
  6
CONTINUOUS
 62
7
100
AcDbLine
 10
48.00000000000000
 20
94.07238200000000
 30
0.000000000000000
 11
48.00000000000000
 21
61.63673000000000
 31
0.000000000000000
  0
LINE
  5
62
100
AcDbEntity
  8
A1
  6
CONTINUOUS
 62
7
100
AcDbLine
 10
70.59999799999997
 20
94.47849099999999
 30
0.000000000000000
 11
70.59999799999997
 21
61.63673000000000
 31
0.000000000000000
  0
LINE
  5
63
100
AcDbEntity
  8
A1
  6
CONTINUOUS
 62
7
100
AcDbLine
 10
46.40000199999997
 20
94.47849099999999
 30
0.000000000000000
 11
46.40000199999997
 21
61.63673000000000
 31
0.000000000000000
  0
LINE
  5
64
100
AcDbEntity
  8
A4
  6
CENTER
 62
1
100
AcDbLine
 10
58.50000000000000
 20
109.3033960000000
 30
0.000000000000000
 11
58.50000000000000
 21
44.68622999999999
 31
0.000000000000000
  0
ARC
  5
65
100
AcDbEntity
  8
A1
  6
CONTINUOUS
 62
7
100
AcDbCircle
 10
54.50192300000003
 20
79.29719100000000
 30
0.000000000000000
 40
21.50000000000000
100
AcDbArc
 50
329.6129900000000
 51
360.7658898699997
  0
LINE
  5
66
100
AcDbEntity
  8
A1
  6
CONTINUOUS
 62
7
100
AcDbLine
 10
46.40000199999997
 20
61.63673000000000
 30
0.000000000000000
 11
48.00000000000000
 21
61.63673000000000
 31
0.000000000000000
  0
LINE
  5
67
100
AcDbEntity
  8
A1
  6
CONTINUOUS
 62
7
100
AcDbLine
 10
70.76571700000000
 20
72.38672999999997
 30
0.000000000000000
 11
70.76571700000000
 21
62.88673000000000
 31
0.000000000000000
  0
ARC
  5
68
100
AcDbEntity
  8
A1
  6
CONTINUOUS
 62
7
100
AcDbCircle
 10
67.09999800000003
 20
67.63673000000000
 30
0.000000000000000
 40
6.000000000000000
100
AcDbArc
 50
307.6584599999995
 51
360.0000000000000
  0
LINE
  5
69
100
AcDbEntity
  8
A10
  6
CONTINUOUS
 62
2
100
AcDbLine
 10
70.59999799999997
 20
62.88673000000000
 30
0.000000000000000
 11
70.76571700000000
 21
62.88673000000000
 31
0.000000000000000
  0
LINE
  5
6A
100
AcDbEntity
  8
A1
  6
CONTINUOUS
 62
7
100
AcDbLine
 10
69.00000000000000
 20
61.63673000000000
 30
0.000000000000000
 11
70.59999799999997
 21
61.63673000000000
 31
0.000000000000000
  0
ARC
  5
6B
100
AcDbEntity
  8
A1
  6
CONTINUOUS
 62
7
100
AcDbCircle
 10
67.09999800000003
 20
67.63673000000000
 30
0.000000000000000
 40
6.000000000000000
100
AcDbArc
 50
0.000000000000000
 51
52.34153899999956
  0
LINE
  5
6C
100
AcDbEntity
  8
A1
  6
CONTINUOUS
 62
7
100
AcDbLine
 10
70.59999799999997
 20
72.38672999999997
 30
0.000000000000000
 11
70.76571700000000
 21
72.38672999999997
 31
0.000000000000000
  0
ARC
  5
6D
100
AcDbEntity
  8
A1
  6
CONTINUOUS
 62
7
100
AcDbCircle
 10
58.50000000000000
 20
99.62123090000000
 30
0.000000000000000
 40
1.984500099999999
100
AcDbArc
 50
311.5784800000001
 51
342.8704700000001
  0
LINE
  5
6E
100
AcDbEntity
  8
A1
  6
CONTINUOUS
 62
7
100
AcDbLine
 10
44.25659200000001
 20
98.13673100000000
 30
0.000000000000000
 11
72.74340799999999
 21
98.13673100000000
 31
0.000000000000000
  0
LINE
  5
6F
100
AcDbEntity
  8
A1
  6
CONTINUOUS
 62
7
100
AcDbLine
 10
48.00000000000000
 20
91.63672900000000
 30
0.000000000000000
 11
69.00000000000000
 21
91.63672900000000
 31
0.000000000000000
  0
ARC
  5
70
100
AcDbEntity
  8
A1
  6
CONTINUOUS
 62
7
100
AcDbCircle
 10
58.50000000000000
 20
177.0112800000000
 30
0.000000000000000
 40
80.58923299999999
100
AcDbArc
 50
263.3653200000005
 51
276.6346799999995
  0
ARC
  5
71
100
AcDbEntity
  8
A1
  6
CONTINUOUS
 62
7
100
AcDbCircle
 10
58.50000000000000
 20
360.4698100000001
 30
0.000000000000000
 40
265.5667700000000
100
AcDbArc
 50
267.9576400000006
 51
272.0423599999993
  0
ARC
  5
72
100
AcDbEntity
  8
A1
  6
CONTINUOUS
 62
7
100
AcDbCircle
 10
48.90000199999997
 20
94.47849099999999
 30
0.000000000000000
 40
2.500000000000000
100
AcDbArc
 50
83.36532099999947
 51
180.0000100000002
  0
LINE
  5
73
100
AcDbEntity
  8
A1
  6
CONTINUOUS
 62
7
100
AcDbLine
 10
48.06874099999999
 20
94.43673200000001
 30
0.000000000000000
 11
69.00000000000000
 21
94.43673200000001
 31
0.000000000000000
  0
LINE
  5
74
100
AcDbEntity
  8
A1
  6
CONTINUOUS
 62
7
100
AcDbLine
 10
48.00000000000000
 20
90.03673099999997
 30
0.000000000000000
 11
69.00000000000000
 21
90.03673099999997
 31
0.000000000000000
  0
ARC
  5
75
100
AcDbEntity
  8
A1
  6
CONTINUOUS
 62
7
100
AcDbCircle
 10
51.38872500000002
 20
94.57222999999999
 30
0.000000000000000
 40
1.984500099999999
100
AcDbArc
 50
165.8665800000000
 51
183.9151000000000
  0
ARC
  5
76
100
AcDbEntity
  8
A1
  6
CONTINUOUS
 62
7
100
AcDbCircle
 10
49.00000000000000
 20
94.07238200000000
 30
0.000000000000000
 40
1.000000000000000
100
AcDbArc
 50
87.95763900000068
 51
180.0000100000002
  0
ARC
  5
77
100
AcDbEntity
  8
A1
  6
CONTINUOUS
 62
7
100
AcDbCircle
 10
54.53099800000001
 20
94.57222999999999
 30
0.000000000000000
 40
1.984500099999999
100
AcDbArc
 50
168.4700599999999
 51
183.9151000000000
  0
ARC
  5
78
100
AcDbEntity
  8
A1
  6
CONTINUOUS
 62
7
100
AcDbCircle
 10
54.53099800000001
 20
94.57222999999999
 30
0.000000000000000
 40
1.984500099999999
100
AcDbArc
 50
356.0848999999999
 51
369.8195888000002
  0
ARC
  5
79
100
AcDbEntity
  8
A1
  6
CONTINUOUS
 62
7
100
AcDbCircle
 10
58.50000000000000
 20
94.57222999999999
 30
0.000000000000000
 40
1.984500099999999
100
AcDbArc
 50
170.1931200000001
 51
183.9151000000000
  0
ARC
  5
7A
100
AcDbEntity
  8
A1
  6
CONTINUOUS
 62
7
100
AcDbCircle
 10
46.38249200000001
 20
99.62123090000000
 30
0.000000000000000
 40
1.984500099999999
100
AcDbArc
 50
197.1295099999998
 51
228.4215100000003
  0
ARC
  5
7B
100
AcDbEntity
  8
A1
  6
CONTINUOUS
 62
7
100
AcDbCircle
 10
46.00000000000000
 20
99.62123090000000
 30
0.000000000000000
 40
1.984500099999999
100
AcDbArc
 50
197.1295099999998
 51
228.4215100000003
  0
ARC
  5
7C
100
AcDbEntity
  8
A1
  6
CONTINUOUS
 62
7
100
AcDbCircle
 10
48.03541600000000
 20
99.62123090000000
 30
0.000000000000000
 40
1.984500099999999
100
AcDbArc
 50
197.1295099999998
 51
228.4215100000003
  0
ARC
  5
7D
100
AcDbEntity
  8
A1
  6
CONTINUOUS
 62
7
100
AcDbCircle
 10
50.82234199999999
 20
99.62123090000000
 30
0.000000000000000
 40
1.984500099999999
100
AcDbArc
 50
197.1295099999998
 51
228.4215100000003
  0
ARC
  5
7E
100
AcDbEntity
  8
A1
  6
CONTINUOUS
 62
7
100
AcDbCircle
 10
48.03541600000000
 20
99.62123090000000
 30
0.000000000000000
 40
1.984500099999999
100
AcDbArc
 50
311.5784800000001
 51
314.6015600000003
  0
LINE
  5
7F
100
AcDbEntity
  8
A4
  6
CENTER
 62
1
100
AcDbLine
 10
48.50000000000000
 20
107.1781670000000
 30
0.000000000000000
 11
48.50000000000000
 21
102.0133579000000
 31
0.000000000000000
  0
ARC
  5
80
100
AcDbEntity
  8
A1
  6
CONTINUOUS
 62
7
100
AcDbCircle
 10
54.44125400000001
 20
99.62123090000000
 30
0.000000000000000
 40
1.984500099999999
100
AcDbArc
 50
311.5784800000001
 51
342.8704800000000
  0
ARC
  5
81
100
AcDbEntity
  8
A1
  6
CONTINUOUS
 62
7
100
AcDbCircle
 10
50.82234199999999
 20
99.62123090000000
 30
0.000000000000000
 40
1.984500099999999
100
AcDbArc
 50
311.5784800000001
 51
335.7546399999996
  0
ARC
  5
82
100
AcDbEntity
  8
A1
  6
CONTINUOUS
 62
7
100
AcDbCircle
 10
54.44125400000001
 20
99.62123090000000
 30
0.000000000000000
 40
1.984500099999999
100
AcDbArc
 50
197.1295099999998
 51
228.4215100000003
  0
ARC
  5
83
100
AcDbEntity
  8
A1
  6
CONTINUOUS
 62
7
100
AcDbCircle
 10
58.50000000000000
 20
99.62123090000000
 30
0.000000000000000
 40
1.984500099999999
100
AcDbArc
 50
197.1295099999998
 51
228.4215100000003
  0
ARC
  5
84
100
AcDbEntity
  8
A1
  6
CONTINUOUS
 62
7
100
AcDbCircle
 10
72.74340799999999
 20
95.13673100000000
 30
0.000000000000000
 40
3.000000000000000
100
AcDbArc
 50
0.9437163499998317
 51
90.00000299999932
  0
ARC
  5
85
100
AcDbEntity
  8
A1
  6
CONTINUOUS
 62
7
100
AcDbCircle
 10
68.09999799999997
 20
94.47849099999999
 30
0.000000000000000
 40
2.500000000000000
100
AcDbArc
 50
0.000000000000000
 51
96.63468400000031
  0
ARC
  5
86
100
AcDbEntity
  8
A1
  6
CONTINUOUS
 62
7
100
AcDbCircle
 10
68.00000000000000
 20
94.07238200000000
 30
0.000000000000000
 40
1.000000000000000
100
AcDbArc
 50
0.000000000000000
 51
92.04235899999948
  0
ARC
  5
87
100
AcDbEntity
  8
A1
  6
CONTINUOUS
 62
7
100
AcDbCircle
 10
62.46900199999999
 20
94.57222999999999
 30
0.000000000000000
 40
1.984500099999999
100
AcDbArc
 50
170.1804100000003
 51
183.9151000000000
  0
ARC
  5
88
100
AcDbEntity
  8
A1
  6
CONTINUOUS
 62
7
100
AcDbCircle
 10
58.50000000000000
 20
94.57222999999999
 30
0.000000000000000
 40
1.984500099999999
100
AcDbArc
 50
356.0848999999999
 51
369.8068727000003
  0
ARC
  5
89
100
AcDbEntity
  8
A1
  6
CONTINUOUS
 62
7
100
AcDbCircle
 10
65.61126700000000
 20
94.57222999999999
 30
0.000000000000000
 40
1.984500099999999
100
AcDbArc
 50
356.0848999999999
 51
374.1334129999996
  0
ARC
  5
8A
100
AcDbEntity
  8
A1
  6
CONTINUOUS
 62
7
100
AcDbCircle
 10
62.46900199999999
 20
94.57222999999999
 30
0.000000000000000
 40
1.984500099999999
100
AcDbArc
 50
356.0848999999999
 51
371.5299480000003
  0
ARC
  5
8B
100
AcDbEntity
  8
A1
  6
CONTINUOUS
 62
7
100
AcDbCircle
 10
62.55874599999999
 20
99.62123090000000
 30
0.000000000000000
 40
1.984500099999999
100
AcDbArc
 50
311.5784800000001
 51
342.8704700000001
  0
ARC
  5
8C
100
AcDbEntity
  8
A1
  6
CONTINUOUS
 62
7
100
AcDbCircle
 10
62.55874599999999
 20
99.62123090000000
 30
0.000000000000000
 40
1.984500099999999
100
AcDbArc
 50
197.1295099999998
 51
228.4215100000003
  0
ARC
  5
8D
100
AcDbEntity
  8
A1
  6
CONTINUOUS
 62
7
100
AcDbCircle
 10
66.17765799999995
 20
99.62123090000000
 30
0.000000000000000
 40
1.984500099999999
100
AcDbArc
 50
311.5784800000001
 51
342.8704700000001
  0
ARC
  5
8E
100
AcDbEntity
  8
A1
  6
CONTINUOUS
 62
7
100
AcDbCircle
 10
68.96458400000000
 20
99.62123090000000
 30
0.000000000000000
 40
1.984500099999999
100
AcDbArc
 50
225.3984200000003
 51
228.4215100000003
  0
ARC
  5
8F
100
AcDbEntity
  8
A1
  6
CONTINUOUS
 62
7
100
AcDbCircle
 10
66.17765799999995
 20
99.62123090000000
 30
0.000000000000000
 40
1.984500099999999
100
AcDbArc
 50
204.2453499999999
 51
228.4215100000003
  0
ARC
  5
90
100
AcDbEntity
  8
A1
  6
CONTINUOUS
 62
7
100
AcDbCircle
 10
71.45607000000001
 20
100.6669410000000
 30
0.000000000000000
 40
2.799999999999999
100
AcDbArc
 50
24.69460400000001
 51
72.45797299999954
  0
ARC
  5
91
100
AcDbEntity
  8
A1
  6
CONTINUOUS
 62
7
100
AcDbCircle
 10
71.00000000000000
 20
99.62123090000000
 30
0.000000000000000
 40
1.984500099999999
100
AcDbArc
 50
311.5784800000001
 51
342.8704700000001
  0
ARC
  5
92
100
AcDbEntity
  8
A1
  6
CONTINUOUS
 62
7
100
AcDbCircle
 10
70.61750799999999
 20
99.62123090000000
 30
0.000000000000000
 40
1.984500099999999
100
AcDbArc
 50
311.5784800000001
 51
342.8704800000000
  0
ARC
  5
93
100
AcDbEntity
  8
A1
  6
CONTINUOUS
 62
7
100
AcDbCircle
 10
68.96458400000000
 20
99.62123090000000
 30
0.000000000000000
 40
1.984500099999999
100
AcDbArc
 50
311.5784800000001
 51
342.8704700000001
  0
LINE
  5
94
100
AcDbEntity
  8
A1
  6
CONTINUOUS
 62
7
100
AcDbLine
 10
74.00000000000000
 20
101.8367308000000
 30
0.000000000000000
 11
74.00000000000000
 21
99.03673060000000
 31
0.000000000000000
  0
LINE
  5
95
100
AcDbEntity
  8
A4
  6
CENTER
 62
1
100
AcDbLine
 10
68.50000000000000
 20
107.2389296000000
 30
0.000000000000000
 11
68.50000000000000
 21
102.0133579000000
 31
0.000000000000000
  0
LINE
  5
96
100
AcDbEntity
  8
A1
  6
CONTINUOUS
 62
7
100
AcDbLine
 10
74.00000000000000
 20
105.6367300000000
 30
0.000000000000000
 11
74.00000000000000
 21
103.3367308000000
 31
0.000000000000000
  0
LINE
  5
97
100
AcDbEntity
  8
A1
  6
CONTINUOUS
 62
7
100
AcDbLine
 10
160.4999999999999
 20
94.81180799999998
 30
0.000000000000000
 11
160.4999999999999
 21
69.39125400000000
 31
0.000000000000000
  0
LINE
  5
98
100
AcDbEntity
  8
A1
  6
CONTINUOUS
 62
7
100
AcDbLine
 10
151.8817099999999
 20
96.97849059999993
 30
0.000000000000000
 11
147.0947059999999
 21
69.24221800000001
 31
0.000000000000000
  0
ARC
  5
99
100
AcDbEntity
  8
A1
  6
CONTINUOUS
 62
7
100
AcDbCircle
 10
153.4999999999999
 20
68.13673000000000
 30
0.000000000000000
 40
6.500000000000000
100
AcDbArc
 50
170.2078000000002
 51
317.5593999999997
  0
CIRCLE
  5
9A
100
AcDbEntity
  8
A1
  6
CONTINUOUS
 62
7
100
AcDbCircle
 10
152.9999999999999
 20
67.63673000000000
 30
0.000000000000000
 40
4.750000000000000
  0
LINE
  5
9B
100
AcDbEntity
  8
A4
  6
CENTER
 62
1
100
AcDbLine
 10
152.9999999999999
 20
107.2389296000000
 30
0.000000000000000
 11
152.9999999999999
 21
102.0133579000000
 31
0.000000000000000
  0
ARC
  5
9C
100
AcDbEntity
  8
A1
  6
CONTINUOUS
 62
7
100
AcDbCircle
 10
156.9936180000000
 20
88.13672800000001
 30
0.000000000000000
 40
10.00000000000000
100
AcDbArc
 50
89.99998200000080
 51
108.3084699999998
  0
LINE
  5
9D
100
AcDbEntity
  8
A1
  6
CONTINUOUS
 62
7
100
AcDbLine
 10
150.2000009999999
 20
96.42204169999999
 30
0.000000000000000
 11
150.7026119999999
 21
94.90303499999996
 31
0.000000000000000
  0
LINE
  5
9E
100
AcDbEntity
  8
A1
  6
CONTINUOUS
 62
7
100
AcDbLine
 10
150.7026120000000
 20
94.90303500000002
 30
0.000000000000000
 11
151.5732250000000
 21
95.19110499999999
 31
0.000000000000000
  0
LINE
  5
9F
100
AcDbEntity
  8
A1
  6
CONTINUOUS
 62
7
100
AcDbLine
 10
150.1999990000000
 20
96.42204269999999
 30
0.000000000000000
 11
153.8522929999999
 21
97.63052059999997
 31
0.000000000000000
  0
LINE
  5
A0
100
AcDbEntity
  8
A1
  6
CONTINUOUS
 62
7
100
AcDbLine
 10
147.4999999999999
 20
105.6367300000000
 30
0.000000000000000
 11
147.4999999999999
 21
103.3367308000000
 31
0.000000000000000
  0
ARC
  5
A1
100
AcDbEntity
  8
A1
  6
CONTINUOUS
 62
7
100
AcDbCircle
 10
160.0439299999999
 20
100.6669410000000
 30
0.000000000000000
 40
2.799999999999999
100
AcDbArc
 50
107.5419900000006
 51
155.3053600000000
  0
LINE
  5
A2
100
AcDbEntity
  8
A1
  6
CONTINUOUS
 62
7
100
AcDbLine
 10
157.4999999999999
 20
101.8367308000000
 30
0.000000000000000
 11
157.4999999999999
 21
99.03673060000000
 31
0.000000000000000
  0
ARC
  5
A3
100
AcDbEntity
  8
A1
  6
CONTINUOUS
 62
7
100
AcDbCircle
 10
162.5354189999999
 20
99.62123090000000
 30
0.000000000000000
 40
1.984500099999999
100
AcDbArc
 50
197.1295099999998
 51
228.4215400000006
  0
ARC
  5
A4
100
AcDbEntity
  8
A1
  6
CONTINUOUS
 62
7
100
AcDbCircle
 10
160.4999999999999
 20
99.62123090000000
 30
0.000000000000000
 40
1.984500099999999
100
AcDbArc
 50
197.1295099999998
 51
228.4215400000006
  0
ARC
  5
A5
100
AcDbEntity
  8
A1
  6
CONTINUOUS
 62
7
100
AcDbCircle
 10
160.8824959999999
 20
99.62123090000000
 30
0.000000000000000
 40
1.984500099999999
100
AcDbArc
 50
197.1295099999998
 51
228.4215400000006
  0
ARC
  5
A6
100
AcDbEntity
  8
A1
  6
CONTINUOUS
 62
7
100
AcDbCircle
 10
162.5354189999999
 20
99.62123090000000
 30
0.000000000000000
 40
1.984500099999999
100
AcDbArc
 50
311.5784599999994
 51
314.6015600000003
  0
ARC
  5
A7
100
AcDbEntity
  8
A1
  6
CONTINUOUS
 62
7
100
AcDbCircle
 10
165.3223419999999
 20
99.62123090000000
 30
0.000000000000000
 40
1.984500099999999
100
AcDbArc
 50
197.1295099999998
 51
228.4215400000006
  0
ARC
  5
A8
100
AcDbEntity
  8
A1
  6
CONTINUOUS
 62
7
100
AcDbCircle
 10
168.9412570000000
 20
99.62123090000000
 30
0.000000000000000
 40
1.984500099999999
100
AcDbArc
 50
197.1295099999998
 51
228.4215400000006
  0
ARC
  5
A9
100
AcDbEntity
  8
A1
  6
CONTINUOUS
 62
7
100
AcDbCircle
 10
165.3223419999999
 20
99.62123090000000
 30
0.000000000000000
 40
1.984500099999999
100
AcDbArc
 50
311.5784599999994
 51
335.7546399999996
  0
LINE
  5
AA
100
AcDbEntity
  8
A1
  6
CONTINUOUS
 62
7
100
AcDbLine
 10
147.4999999999999
 20
185.1367300000000
 30
0.000000000000000
 11
147.4999999999999
 21
166.1367300000000
 31
0.000000000000000
  0
LINE
  5
AB
100
AcDbEntity
  8
A4
  6
CENTER
 62
1
100
AcDbLine
 10
156.9999999999999
 20
165.6367300000000
 30
0.000000000000000
 11
148.9999999999999
 21
165.6367300000000
 31
0.000000000000000
  0
CIRCLE
  5
AC
100
AcDbEntity
  8
A1
  6
CONTINUOUS
 62
7
100
AcDbCircle
 10
152.9999999999999
 20
165.6367300000000
 30
0.000000000000000
 40
2.750000000000000
  0
LINE
  5
AD
100
AcDbEntity
  8
A4
  6
CENTER
 62
1
100
AcDbLine
 10
152.9999999999999
 20
169.6367300000000
 30
0.000000000000000
 11
152.9999999999999
 21
161.6367300000000
 31
0.000000000000000
  0
ARC
  5
AE
100
AcDbEntity
  8
A1
  6
CONTINUOUS
 62
7
100
AcDbCircle
 10
153.4999999999999
 20
166.1367300000000
 30
0.000000000000000
 40
6.000000000000000
100
AcDbArc
 50
179.9999799999996
 51
270.0000299999997
  0
LINE
  5
AF
100
AcDbEntity
  8
A4
  6
CENTER
 62
1
100
AcDbLine
 10
156.9999999999999
 20
185.6367300000000
 30
0.000000000000000
 11
148.9999999999999
 21
185.6367300000000
 31
0.000000000000000
  0
CIRCLE
  5
B0
100
AcDbEntity
  8
A1
  6
CONTINUOUS
 62
7
100
AcDbCircle
 10
152.9999999999999
 20
185.6367300000000
 30
0.000000000000000
 40
2.750000000000000
  0
ARC
  5
B1
100
AcDbEntity
  8
A1
  6
CONTINUOUS
 62
7
100
AcDbCircle
 10
153.4999999999999
 20
185.1367300000000
 30
0.000000000000000
 40
6.000000000000000
100
AcDbArc
 50
89.99998200000080
 51
179.9999600000000
  0
LINE
  5
B2
100
AcDbEntity
  8
A4
  6
CENTER
 62
1
100
AcDbLine
 10
152.9999999999999
 20
189.6367300000000
 30
0.000000000000000
 11
152.9999999999999
 21
181.6367300000000
 31
0.000000000000000
  0
LINE
  5
B3
100
AcDbEntity
  8
A4
  6
CENTER
 62
1
100
AcDbLine
 10
172.9999999999999
 20
109.3033960000000
 30
0.000000000000000
 11
172.9999999999999
 21
91.61165092666459
 31
0.000000000000000
  0
LINE
  5
B4
100
AcDbEntity
  8
A4
  6
CENTER
 62
1
100
AcDbLine
 10
192.9999999999999
 20
107.2389296000000
 30
0.000000000000000
 11
192.9999999999999
 21
102.0133579000000
 31
0.000000000000000
  0
ARC
  5
B5
100
AcDbEntity
  8
A1
  6
CONTINUOUS
 62
7
100
AcDbCircle
 10
185.4999999999999
 20
99.62123090000000
 30
0.000000000000000
 40
1.984500099999999
100
AcDbArc
 50
311.5784599999994
 51
342.8704700000001
  0
LINE
  5
B6
100
AcDbEntity
  8
A1
  6
CONTINUOUS
 62
7
100
AcDbLine
 10
186.0000000000001
 20
91.63672800000001
 30
0.000000000000000
 11
190.5000000000001
 21
91.63672800000001
 31
0.000000000000000
  0
ARC
  5
B7
100
AcDbEntity
  8
A1
  6
CONTINUOUS
 62
7
100
AcDbCircle
 10
185.9560700000001
 20
100.6669410000000
 30
0.000000000000000
 40
2.799999999999999
100
AcDbArc
 50
24.69460400000001
 51
72.45797299999954
  0
ARC
  5
B8
100
AcDbEntity
  8
A1
  6
CONTINUOUS
 62
7
100
AcDbCircle
 10
186.0000000000001
 20
86.63672800000001
 30
0.000000000000000
 40
5.000000000000000
100
AcDbArc
 50
89.99998200000080
 51
137.5594099999997
  0
ARC
  5
B9
100
AcDbEntity
  8
A1
  6
CONTINUOUS
 62
7
100
AcDbCircle
 10
183.4415740000001
 20
93.02698799999999
 30
0.000000000000000
 40
3.000000000000000
100
AcDbArc
 50
265.3811200000001
 51
332.3706600000002
  0
LINE
  5
BA
100
AcDbEntity
  8
A1
  6
CONTINUOUS
 62
7
100
AcDbLine
 10
183.1999969999999
 20
90.03673100000003
 30
0.000000000000000
 11
182.3337750000001
 21
90.03673100000003
 31
0.000000000000000
  0
ARC
  5
BB
100
AcDbEntity
  8
A1
  6
CONTINUOUS
 62
7
100
AcDbCircle
 10
180.6776580000001
 20
99.62123090000000
 30
0.000000000000000
 40
1.984500099999999
100
AcDbArc
 50
204.2453499999999
 51
228.4215400000006
  0
ARC
  5
BC
100
AcDbEntity
  8
A1
  6
CONTINUOUS
 62
7
100
AcDbCircle
 10
172.9999999999999
 20
99.62123090000000
 30
0.000000000000000
 40
1.984500099999999
100
AcDbArc
 50
311.5784599999994
 51
342.8704700000001
  0
ARC
  5
BD
100
AcDbEntity
  8
A1
  6
CONTINUOUS
 62
7
100
AcDbCircle
 10
172.9999999999999
 20
99.62123090000000
 30
0.000000000000000
 40
1.984500099999999
100
AcDbArc
 50
197.1295099999998
 51
228.4215400000006
  0
ARC
  5
BE
100
AcDbEntity
  8
A1
  6
CONTINUOUS
 62
7
100
AcDbCircle
 10
177.0587429999999
 20
99.62123090000000
 30
0.000000000000000
 40
1.984500099999999
100
AcDbArc
 50
311.5784599999994
 51
342.8704700000001
  0
ARC
  5
BF
100
AcDbEntity
  8
A1
  6
CONTINUOUS
 62
7
100
AcDbCircle
 10
177.0587429999999
 20
99.62123090000000
 30
0.000000000000000
 40
1.984500099999999
100
AcDbArc
 50
197.1295099999998
 51
228.4215400000006
  0
ARC
  5
C0
100
AcDbEntity
  8
A1
  6
CONTINUOUS
 62
7
100
AcDbCircle
 10
180.6776580000001
 20
99.62123090000000
 30
0.000000000000000
 40
1.984500099999999
100
AcDbArc
 50
311.5784599999994
 51
342.8704700000001
  0
ARC
  5
C1
100
AcDbEntity
  8
A1
  6
CONTINUOUS
 62
7
100
AcDbCircle
 10
183.4645810000000
 20
99.62123090000000
 30
0.000000000000000
 40
1.984500099999999
100
AcDbArc
 50
225.3984200000003
 51
228.4215400000006
  0
ARC
  5
C2
100
AcDbEntity
  8
A1
  6
CONTINUOUS
 62
7
100
AcDbCircle
 10
183.4645810000000
 20
99.62123090000000
 30
0.000000000000000
 40
1.984500099999999
100
AcDbArc
 50
311.5784599999994
 51
342.8704700000001
  0
ARC
  5
C3
100
AcDbEntity
  8
A1
  6
CONTINUOUS
 62
7
100
AcDbCircle
 10
185.1175040000001
 20
99.62123090000000
 30
0.000000000000000
 40
1.984500099999999
100
AcDbArc
 50
311.5784599999994
 51
342.8704800000000
  0
ARC
  5
C4
100
AcDbEntity
  8
A1
  6
CONTINUOUS
 62
7
100
AcDbCircle
 10
187.4999999999999
 20
95.13673000000000
 30
0.000000000000000
 40
3.000000000000000
100
AcDbArc
 50
0.000000000000000
 51
89.99998200000080
  0
LINE
  5
C5
100
AcDbEntity
  8
A1
  6
CONTINUOUS
 62
7
100
AcDbLine
 10
190.5000000000001
 20
95.13673000000000
 30
0.000000000000000
 11
190.5000000000001
 21
91.63672800000001
 31
0.000000000000000
  0
LINE
  5
C6
100
AcDbEntity
  8
A1
  6
CONTINUOUS
 62
7
100
AcDbLine
 10
188.5000000000001
 20
101.8367308000000
 30
0.000000000000000
 11
188.5000000000001
 21
99.03673060000000
 31
0.000000000000000
  0
LINE
  5
C7
100
AcDbEntity
  8
A1
  6
CONTINUOUS
 62
7
100
AcDbLine
 10
198.5000000000001
 20
105.6367300000000
 30
0.000000000000000
 11
198.5000000000001
 21
103.3367308000000
 31
0.000000000000000
  0
LINE
  5
C8
100
AcDbEntity
  8
A4
  6
CENTER
 62
1
100
AcDbLine
 10
172.9999999999999
 20
193.3964080000000
 30
0.000000000000000
 11
172.9999999999999
 21
157.8770520000000
 31
0.000000000000000
  0
LINE
  5
C9
100
AcDbEntity
  8
A1
  6
CONTINUOUS
 62
7
100
AcDbLine
 10
198.5000000000001
 20
185.1367300000000
 30
0.000000000000000
 11
198.5000000000001
 21
166.1367300000000
 31
0.000000000000000
  0
LINE
  5
CA
100
AcDbEntity
  8
A4
  6
CENTER
 62
1
100
AcDbLine
 10
192.9999999999999
 20
169.6367300000000
 30
0.000000000000000
 11
192.9999999999999
 21
161.6367300000000
 31
0.000000000000000
  0
CIRCLE
  5
CB
100
AcDbEntity
  8
A1
  6
CONTINUOUS
 62
7
100
AcDbCircle
 10
192.9999999999999
 20
165.6367300000000
 30
0.000000000000000
 40
2.750000000000000
  0
ARC
  5
CC
100
AcDbEntity
  8
A1
  6
CONTINUOUS
 62
7
100
AcDbCircle
 10
192.5000000000001
 20
166.1367300000000
 30
0.000000000000000
 40
6.000000000000000
100
AcDbArc
 50
270.0000200000003
 51
360.0000000000000
  0
LINE
  5
CD
100
AcDbEntity
  8
A4
  6
CENTER
 62
1
100
AcDbLine
 10
197.0000000000001
 20
165.6367300000000
 30
0.000000000000000
 11
188.9999999999999
 21
165.6367300000000
 31
0.000000000000000
  0
ARC
  5
CE
100
AcDbEntity
  8
A1
  6
CONTINUOUS
 62
7
100
AcDbCircle
 10
192.5000000000001
 20
185.1367300000000
 30
0.000000000000000
 40
6.000000000000000
100
AcDbArc
 50
0.000000000000000
 51
89.99998200000080
  0
LINE
  5
CF
100
AcDbEntity
  8
A4
  6
CENTER
 62
1
100
AcDbLine
 10
192.9999999999999
 20
189.6367300000000
 30
0.000000000000000
 11
192.9999999999999
 21
181.6367300000000
 31
0.000000000000000
  0
LINE
  5
D0
100
AcDbEntity
  8
A4
  6
CENTER
 62
1
100
AcDbLine
 10
197.0000000000001
 20
185.6367300000000
 30
0.000000000000000
 11
188.9999999999999
 21
185.6367300000000
 31
0.000000000000000
  0
CIRCLE
  5
D1
100
AcDbEntity
  8
A1
  6
CONTINUOUS
 62
7
100
AcDbCircle
 10
192.9999999999999
 20
185.6367300000000
 30
0.000000000000000
 40
2.750000000000000
  0
LINE
  5
D2
100
AcDbEntity
  8
A1
  6
CONTINUOUS
 62
7
100
AcDbLine
 10
46.40000200000004
 20
70.63673000000001
 30
0.000000000000000
 11
46.20000200000003
 21
72.03672800000001
 31
0.000000000000000
  0
LINE
  5
D3
100
AcDbEntity
  8
A1
  6
CONTINUOUS
 62
7
100
AcDbLine
 10
46.40000199999998
 20
64.63673400000000
 30
0.000000000000000
 11
46.20000199999996
 21
63.23673200000005
 31
0.000000000000000
  0
ARC
  5
D4
100
AcDbEntity
  8
A1
  6
CONTINUOUS
 62
7
100
AcDbCircle
 10
46.19499199999996
 20
64.23671700000000
 30
0.000000000000000
 40
1.000000000000000
100
AcDbArc
 50
185.7384500000000
 51
270.2871199999998
  0
LINE
  5
D5
100
AcDbEntity
  8
A1
  6
CONTINUOUS
 62
7
100
AcDbLine
 10
45.20000199999994
 20
64.13672999999999
 30
0.000000000000000
 11
45.20000199999996
 21
70.93676850375211
 31
0.000000000000000
  0
LINE
  5
D6
100
AcDbEntity
  8
A1
  6
CONTINUOUS
 62
7
100
AcDbLine
 10
46.20000199999998
 20
63.23672800000000
 30
0.000000000000000
 11
46.20000199999998
 21
72.03673044987124
 31
0.000000000000000
  0
ARC
  5
D7
100
AcDbEntity
  8
A1
  6
CONTINUOUS
 62
7
100
AcDbCircle
 10
46.19499199999996
 20
71.03674300000000
 30
0.000000000000000
 40
1.000000000000000
100
AcDbArc
 50
89.71287500000042
 51
185.7377018602564
  0
LINE
  5
D8
100
AcDbEntity
  8
A1
  6
CONTINUOUS
 62
7
100
AcDbLine
 10
69.00000000000000
 20
70.63673000000000
 30
0.000000000000000
 11
68.50000000000000
 21
70.63673000000000
 31
0.000000000000000
  0
LINE
  5
D9
100
AcDbEntity
  8
A1
  6
CONTINUOUS
 62
7
100
AcDbLine
 10
69.00000000000000
 20
64.63673000000000
 30
0.000000000000000
 11
68.50000000000000
 21
64.63673000000000
 31
0.000000000000000
  0
ARC
  5
DA
100
AcDbEntity
  8
A1
  6
CONTINUOUS
 62
7
100
AcDbCircle
 10
152.9999999999999
 20
67.63673000000000
 30
0.000000000000000
 40
14.85355300000000
100
AcDbArc
 50
104.4225926966453
 51
381.4726476575852
  0
ARC
  5
DB
100
AcDbEntity
  8
A1
  6
CONTINUOUS
 62
7
100
AcDbCircle
 10
152.9999999999999
 20
67.63673000000000
 30
0.000000000000000
 40
13.29289299999999
100
AcDbArc
 50
107.4861306332769
 51
378.1294895090811
  0
ARC
  5
DC
100
AcDbEntity
  8
A1
  6
CONTINUOUS
 62
7
100
AcDbCircle
 10
152.9999999999999
 20
67.63673000000000
 30
0.000000000000000
 40
8.072853876506102
100
AcDbArc
 50
129.2040447540284
 51
353.5533441473451
  0
ARC
  5
DD
100
AcDbEntity
  8
A1
  6
CONTINUOUS
 62
7
100
AcDbCircle
 10
152.9999999999999
 20
67.63673000000000
 30
0.000000000000000
 40
19.00000000000000
100
AcDbArc
 50
98.90991203905268
 51
387.4528485361701
  0
ARC
  5
DE
100
AcDbEntity
  8
A1
  6
CONTINUOUS
 62
7
100
AcDbCircle
 10
49.00000000000000
 20
60.05628000000000
 30
0.000000000000000
 40
0.5000000000000000
100
AcDbArc
 50
180.0000000000000
 51
259.9999999999998
  0
ARC
  5
DF
100
AcDbEntity
  8
A1
  6
CONTINUOUS
 62
7
100
AcDbCircle
 10
66.50000000000000
 20
50.00000000000000
 30
0.000000000000000
 40
0.5000000000000000
100
AcDbArc
 50
282.3177659999996
 51
360.0000000000000
  0
ARC
  5
E0
100
AcDbEntity
  8
A1
  6
CONTINUOUS
 62
7
100
AcDbCircle
 10
58.50000000000000
 20
86.63673000000000
 30
0.000000000000000
 40
38.00000000000000
100
AcDbArc
 50
257.6822340000004
 51
282.3177659999996
  0
ARC
  5
E1
100
AcDbEntity
  8
A1
  6
CONTINUOUS
 62
7
100
AcDbCircle
 10
68.00000000000000
 20
60.05628000000000
 30
0.000000000000000
 40
0.5000000000000000
100
AcDbArc
 50
280.0000000000002
 51
360.0000000000000
  0
LINE
  5
E2
100
AcDbEntity
  8
A1
  6
CONTINUOUS
 62
7
100
AcDbLine
 10
68.50000000000000
 20
60.05628000000000
 30
0.000000000000000
 11
68.50000000000000
 21
67.63673000000000
 31
0.000000000000000
  0
LINE
  5
E3
100
AcDbEntity
  8
A1
  6
CONTINUOUS
 62
7
100
AcDbLine
 10
68.08682400000006
 20
59.56387600000001
 30
0.000000000000000
 11
67.00000000000003
 21
59.37224000000002
 31
0.000000000000000
  0
LINE
  5
E4
100
AcDbEntity
  8
A1
  6
CONTINUOUS
 62
7
100
AcDbLine
 10
67.00000000000000
 20
50.00000000000000
 30
0.000000000000000
 11
67.00000000000000
 21
85.27346000000000
 31
0.000000000000000
  0
ARC
  5
E5
100
AcDbEntity
  8
A1
  6
CONTINUOUS
 62
7
100
AcDbCircle
 10
50.50000000000000
 20
50.00000000000000
 30
0.000000000000000
 40
0.5000000000000000
100
AcDbArc
 50
180.0000000000000
 51
257.6822340000004
  0
LINE
  5
E6
100
AcDbEntity
  8
A1
  6
CONTINUOUS
 62
7
100
AcDbLine
 10
48.91317599999996
 20
59.56387599999999
 30
0.000000000000000
 11
49.99999999999999
 21
59.37224000000000
 31
0.000000000000000
  0
LINE
  5
E7
100
AcDbEntity
  8
A1
  6
CONTINUOUS
 62
7
100
AcDbLine
 10
48.50000000000000
 20
60.05628000000000
 30
0.000000000000000
 11
48.50000000000000
 21
67.63673000000000
 31
0.000000000000000
  0
LINE
  5
E8
100
AcDbEntity
  8
A1
  6
CONTINUOUS
 62
7
100
AcDbLine
 10
50.00000000000000
 20
50.00000000000000
 30
0.000000000000000
 11
50.00000000000000
 21
85.27346000000000
 31
0.000000000000000
  0
ARC
  5
E9
100
AcDbEntity
  8
A1
  6
CONTINUOUS
 62
7
100
AcDbCircle
 10
50.50000000000000
 20
85.27346000000000
 30
0.000000000000000
 40
0.5000000000000000
100
AcDbArc
 50
102.3177659999996
 51
180.0000000000000
  0
LINE
  5
EA
100
AcDbEntity
  8
A1
  6
CONTINUOUS
 62
7
100
AcDbLine
 10
48.50000000000000
 20
75.21717999999998
 30
0.000000000000000
 11
48.50000000000000
 21
67.63673000000000
 31
0.000000000000000
  0
LINE
  5
EB
100
AcDbEntity
  8
A1
  6
CONTINUOUS
 62
7
100
AcDbLine
 10
68.50000000000000
 20
75.21717999999998
 30
0.000000000000000
 11
68.50000000000000
 21
67.63673000000000
 31
0.000000000000000
  0
ARC
  5
EC
100
AcDbEntity
  8
A1
  6
CONTINUOUS
 62
7
100
AcDbCircle
 10
66.50000000000000
 20
85.27346000000000
 30
0.000000000000000
 40
0.5000000000000000
100
AcDbArc
 50
0.000000000000000
 51
77.68223400000038
  0
ARC
  5
ED
100
AcDbEntity
  8
A1
  6
CONTINUOUS
 62
7
100
AcDbCircle
 10
58.50000000000000
 20
48.63673000000000
 30
0.000000000000000
 40
38.00000000000000
100
AcDbArc
 50
77.68223400000038
 51
102.3177659999996
  0
ARC
  5
EE
100
AcDbEntity
  8
A1
  6
CONTINUOUS
 62
7
100
AcDbCircle
 10
49.00000000000000
 20
75.21717999999998
 30
0.000000000000000
 40
0.5000000000000000
100
AcDbArc
 50
100.0000000000002
 51
180.0000000000000
  0
ARC
  5
EF
100
AcDbEntity
  8
A1
  6
CONTINUOUS
 62
7
100
AcDbCircle
 10
68.00000000000000
 20
75.21717999999998
 30
0.000000000000000
 40
0.5000000000000000
100
AcDbArc
 50
0.000000000000000
 51
79.99999999999979
  0
LINE
  5
F0
100
AcDbEntity
  8
A1
  6
CONTINUOUS
 62
7
100
AcDbLine
 10
68.08682399999999
 20
75.70958399999999
 30
0.000000000000000
 11
66.99999999999997
 21
75.90122000000000
 31
0.000000000000000
  0
LINE
  5
F1
100
AcDbEntity
  8
A1
  6
CONTINUOUS
 62
7
100
AcDbLine
 10
48.91317599999996
 20
75.70958400000001
 30
0.000000000000000
 11
49.99999999999994
 21
75.90122000000000
 31
0.000000000000000
  0
LINE
  5
F2
100
AcDbEntity
  8
A1
  6
CONTINUOUS
 62
7
100
AcDbLine
 10
48.50000000000000
 20
64.63673000000000
 30
0.000000000000000
 11
48.00000000000000
 21
64.63673000000000
 31
0.000000000000000
  0
LINE
  5
F3
100
AcDbEntity
  8
A1
  6
CONTINUOUS
 62
7
100
AcDbLine
 10
48.50000000000000
 20
70.63673000000000
 30
0.000000000000000
 11
48.00000000000000
 21
70.63673000000000
 31
0.000000000000000
  0
LINE
  5
F4
100
AcDbEntity
  8
A4
  6
CENTER
 62
1
100
AcDbLine
 10
152.9999999999999
 20
47.13673000000000
 30
0.000000000000000
 11
152.9999999999999
 21
88.13672999999989
 31
0.000000000000000
  0
LINE
  5
F5
100
AcDbEntity
  8
A4
  6
CENTER
 62
1
100
AcDbLine
 10
132.4999999999999
 20
67.63673000000000
 30
0.000000000000000
 11
173.4999999999999
 21
67.63673000000000
 31
0.000000000000000
  0
ARC
  5
F6
100
AcDbEntity
  8
A1
  6
CONTINUOUS
 62
7
100
AcDbCircle
 10
171.9999999999999
 20
175.6367299999999
 30
0.000000000000000
 40
38.00000000000000
100
AcDbArc
 50
167.6822340000004
 51
192.3177659999996
  0
ARC
  5
F7
100
AcDbEntity
  8
A1
  6
CONTINUOUS
 62
7
100
AcDbCircle
 10
135.3632699999999
 20
167.6367299999999
 30
0.000000000000000
 40
0.5000000000000000
100
AcDbArc
 50
192.3177659999996
 51
270.0000000000000
  0
LINE
  5
F8
100
AcDbEntity
  8
A1
  6
CONTINUOUS
 62
7
100
AcDbLine
 10
135.3632699999999
 20
167.1367299999999
 30
0.000000000000000
 11
147.4999999999999
 21
167.1367299999999
 31
0.000000000000000
  0
ARC
  5
F9
100
AcDbEntity
  8
A1
  6
CONTINUOUS
 62
7
100
AcDbCircle
 10
135.3632699999999
 20
183.6367299999999
 30
0.000000000000000
 40
0.5000000000000000
100
AcDbArc
 50
90.00000000000000
 51
167.6822340000004
  0
LINE
  5
FA
100
AcDbEntity
  8
A1
  6
CONTINUOUS
 62
7
100
AcDbLine
 10
135.3632699999999
 20
184.1367299999999
 30
0.000000000000000
 11
147.4999999999999
 21
184.1367299999999
 31
0.000000000000000
  0
ENDSEC
  0
SECTION
  2
OBJECTS
  0
DICTIONARY
  5
128
100
AcDbDictionary
  3
ACAD_GROUP
350
129
  3
ACAD_LAYOUT
350
12A
  3
ACAD_MLINESTYLE
350
12B
  0
DICTIONARY
  5
129
102
{ACAD_REACTORS
330
128
102
}
330
128
100
AcDbDictionary
  0
DICTIONARY
  5
12A
102
{ACAD_REACTORS
330
128
102
}
330
128
100
AcDbDictionary
  3
Model
350
12C
  3
ﾚｲｱｳﾄ1
350
12D
  3
ﾚｲｱｳﾄ2
350
12E
  0
DICTIONARY
  5
12B
102
{ACAD_REACTORS
330
128
102
}
330
128
100
AcDbDictionary
  3
STANDARD
350
12F
  0
LAYOUT
  5
12C
102
{ACAD_REACTORS
330
12A
102
}
330
12A
100
AcDbPlotSettings
 70
11952
  4
A3
 44
297.000000
 45
420.000000
 73
  1
 72
  1
100
AcDbLayout
  1
Model
 71
0
330
11F
  0
LAYOUT
  5
12D
102
{ACAD_REACTORS
330
12A
102
}
330
12A
100
AcDbPlotSettings
100
AcDbLayout
  1
ﾚｲｱｳﾄ1
 71
1
330
120
  0
LAYOUT
  5
12E
102
{ACAD_REACTORS
330
12A
102
}
330
12A
100
AcDbPlotSettings
100
AcDbLayout
  1
ﾚｲｱｳﾄ2
 71
2
330
121
  0
MLINESTYLE
  5
12F
102
{ACAD_REACTORS
330
12B
102
}
330
12B
100
AcDbMlineStyle
  2
STANDARD
 70
     0
  3

 62
   256
 51
90.00
 52
90.00
 71
     2
 49
0.50
 62
   256
  6
BYLAYER
 49
-0.50
 62
   256
  6
BYLAYER
  0
ENDSEC
  0
EOF
