  0
SECTION
  2
HEADER
  9
$ACADVER
  1
AC1027
  9
$DWGCODEPAGE
  3
ANSI_932
  9
$LTSCALE
 40
20.0
  9
$FILLMODE
 70
     1
  9
$CLAYER
  8
0
  9
$PDMODE
 70
     0
  9
$SPLFRAME
 70
     0
  9
$SPLINETYPE
 70
     6
  9
$SPLINESEGS
 70
     8
  9
$DIMASZ
 40
2.000000
  9
$DIMEXE
 40
1.500000
  9
$DIMEXO
 40
0.800000
  9
$DIMTAD
 70
     1
  9
$DIMTIH
 70
     0
  9
$DIMTOH
 70
     0
  9
$DIMTVP
 40
0.500000
  9
$DIMTXT
 40
3.100000
  9
$EXTMIN
 10
0.000000
 20
0.000000
 30
0.000000
  9
$EXTMAX
 10
297.000000
 20
420.000000
 30
0.000000
  9
$MEASUREMENT
 70
  1
  9
$LIMMIN
 10
0.000000
 20
0.000000
  9
$LIMMAX
 10
297.000000
 20
420.000000
  9
$HANDSEED
  5
2BE
  9
$LWDISPLAY
290
     0
  9
$DIMBLK
  1
_OPEN
  9
$DIMDEC
 70
     2
  9
$DIMADEC
 70
     2
  9
$DIMAUNIT
 70
     0
  9
$DIMZIN
 70
     8
  9
$DIMAZIN
 70
     2
  9
$DIMTOFL
 70
     1
  0
ENDSEC
  0
SECTION
  2
CLASSES
  0
ENDSEC
  0
SECTION
  2
TABLES
  0
TABLE
  2
VPORT
  5
286
100
AcDbSymbolTable
 70
     1
  0
VPORT
  5
287
100
AcDbSymbolTableRecord
100
AcDbViewportTableRecord
  2
*ACTIVE
 70
     0
 12
129.749999
 22
101.870828
 40
167.741655
 41
1.427791
  0
ENDTAB
  0
TABLE
  2
LTYPE
  5
288
100
AcDbSymbolTable
 70
     3
  0
LTYPE
  5
289
100
AcDbSymbolTableRecord
100
AcDbLinetypeTableRecord
  2
BYBLOCK
 70
     0
  3

 72
    65
 73
     0
 40
0.0
  0
LTYPE
  5
28A
100
AcDbSymbolTableRecord
100
AcDbLinetypeTableRecord
  2
BYLAYER
 70
     0
  3

 72
    65
 73
     0
 40
0.0
  0
LTYPE
  5
28B
100
AcDbSymbolTableRecord
100
AcDbLinetypeTableRecord
  2
CONTINUOUS
 70
     0
  3
Solid line (NEC CAE2D for Win R18.0 : 2025.08.07)
 72
    65
 73
     0
 40
0.0
  0
LTYPE
  5
28C
100
AcDbSymbolTableRecord
100
AcDbLinetypeTableRecord
  2
DASHED
 70
     0
  3
__ __ __ __ __ __ __ __ __ __ __ __ __ _
 72
    65
 73
     2
 40
0.75
 49
0.5
 74
     0
 49
-0.25
 74
     0
  0
LTYPE
  5
28D
100
AcDbSymbolTableRecord
100
AcDbLinetypeTableRecord
  2
CENTER
 70
     0
  3
____ _ ____ _ ____ _ ____ _ ____ _ ____
 72
    65
 73
     4
 40
2.0
 49
1.25
 74
     0
 49
-0.25
 74
     0
 49
0.25
 74
     0
 49
-0.25
 74
     0
  0
ENDTAB
  0
TABLE
  2
LAYER
  5
28E
100
AcDbSymbolTable
 70
    17
  0
LAYER
  5
28F
100
AcDbSymbolTableRecord
100
AcDbLayerTableRecord
  2
0
 70
     0
 62
     7
  6
CONTINUOUS
370
    -3
390

  0
LAYER
  5
290
100
AcDbSymbolTableRecord
100
AcDbLayerTableRecord
  2
A0
 70
     0
 62
     9
  6
CONTINUOUS
370
    -3
390

  0
LAYER
  5
291
100
AcDbSymbolTableRecord
100
AcDbLayerTableRecord
  2
A1
 70
     0
 62
     1
  6
CONTINUOUS
370
    -3
390

  0
LAYER
  5
292
100
AcDbSymbolTableRecord
100
AcDbLayerTableRecord
  2
A2
 70
     0
 62
     9
  6
CONTINUOUS
370
    -3
390

  0
LAYER
  5
293
100
AcDbSymbolTableRecord
100
AcDbLayerTableRecord
  2
A3
 70
     0
 62
    12
  6
CONTINUOUS
370
    -3
390

  0
LAYER
  5
294
100
AcDbSymbolTableRecord
100
AcDbLayerTableRecord
  2
A4
 70
     0
 62
     9
  6
CONTINUOUS
370
    -3
390

  0
LAYER
  5
295
100
AcDbSymbolTableRecord
100
AcDbLayerTableRecord
  2
A5
 70
     0
 62
     8
  6
CONTINUOUS
370
    -3
390

  0
LAYER
  5
296
100
AcDbSymbolTableRecord
100
AcDbLayerTableRecord
  2
A6
 70
     0
 62
    12
  6
CONTINUOUS
370
    -3
390

  0
LAYER
  5
297
100
AcDbSymbolTableRecord
100
AcDbLayerTableRecord
  2
A7
 70
     0
 62
    12
  6
CONTINUOUS
370
    -3
390

  0
LAYER
  5
298
100
AcDbSymbolTableRecord
100
AcDbLayerTableRecord
  2
A8
 70
     0
 62
    10
  6
CONTINUOUS
370
    -3
390

  0
LAYER
  5
299
100
AcDbSymbolTableRecord
100
AcDbLayerTableRecord
  2
A9
 70
     0
 62
     9
  6
CONTINUOUS
370
    -3
390

  0
LAYER
  5
29A
100
AcDbSymbolTableRecord
100
AcDbLayerTableRecord
  2
A10
 70
     0
 62
     6
  6
CONTINUOUS
370
    -3
390

  0
LAYER
  5
29B
100
AcDbSymbolTableRecord
100
AcDbLayerTableRecord
  2
A20
 70
     0
 62
     1
  6
CONTINUOUS
370
    -3
390

  0
LAYER
  5
29C
100
AcDbSymbolTableRecord
100
AcDbLayerTableRecord
  2
A30
 70
     0
 62
     1
  6
CONTINUOUS
370
    -3
390

  0
LAYER
  5
29D
100
AcDbSymbolTableRecord
100
AcDbLayerTableRecord
  2
A40
 70
     0
 62
     9
  6
CONTINUOUS
370
    -3
390

  0
LAYER
  5
29E
100
AcDbSymbolTableRecord
100
AcDbLayerTableRecord
  2
A50
 70
     0
 62
    12
  6
CONTINUOUS
370
    -3
390

  0
LAYER
  5
29F
100
AcDbSymbolTableRecord
100
AcDbLayerTableRecord
  2
A1023
 70
     0
 62
    16
  6
CONTINUOUS
370
    -3
390

  0
ENDTAB
  0
TABLE
  2
STYLE
  5
2A0
100
AcDbSymbolTable
 70
     4
  0
STYLE
  5
2A1
100
AcDbSymbolTableRecord
100
AcDbTextStyleTableRecord
  2
STANDARD
 70
    64
 40
0.0
 41
1.0
 50
0.0
 71
     0
 42
3.000000000000000
  3
TXT
  4

  0
STYLE
  5
2A2
100
AcDbSymbolTableRecord
100
AcDbTextStyleTableRecord
  2
ANKTATE
 70
    68
 40
0.0
 41
1.0
 50
0.0
 71
     0
 42
3.000000000000000
  3
TXT
  4

  0
STYLE
  5
2A3
100
AcDbSymbolTableRecord
100
AcDbTextStyleTableRecord
  2
KNJYOKO
 70
    64
 40
0.0
 41
1.0
 50
0.0
 71
     0
 42
3.000000000000000
  3
TXT
  4
BIGFONT
  0
STYLE
  5
2A4
100
AcDbSymbolTableRecord
100
AcDbTextStyleTableRecord
  2
KNJTATE
 70
    68
 40
0.0
 41
1.0
 50
0.0
 71
     0
 42
3.000000000000000
  3
TXT
  4
BIGFONT
  0
ENDTAB
  0
TABLE
  2
VIEW
  5
2A5
100
AcDbSymbolTable
 70
     0
  0
ENDTAB
  0
TABLE
  2
UCS
  5
2A6
100
AcDbSymbolTable
 70
     0
  0
ENDTAB
  0
TABLE
  2
APPID
  5
2A7
100
AcDbSymbolTable
 70
     1
  0
APPID
  5
2A8
100
AcDbSymbolTableRecord
100
AcDbRegAppTableRecord
  2
ACAD
 70
     0
  0
ENDTAB
  0
TABLE
  2
DIMSTYLE
  5
2A9
100
AcDbSymbolTable
 70
     2
100
AcDbDimStyleTable
  0
DIMSTYLE
105
2AA
100
AcDbSymbolTableRecord
100
AcDbDimStyleTableRecord
  2
STANDARD
 70
     0
 41
2.000000
 44
1.500000
 42
0.800000
145
0.661290
140
3.100000
144
1.000000
146
0.645161
340
2A1
  0
DIMSTYLE
105
2AB
100
AcDbSymbolTableRecord
100
AcDbDimStyleTableRecord
  2
A001
 70
     0
 41
2.000000
 44
1.500000
 42
0.800000
145
0.661290
140
3.100000
144
1.000000
146
0.645161
 77
     1
 73
     0
 74
     0
271
     2
179
     2
275
     0
 78
     8
 79
     2
172
     1
340
2A1
  0
ENDTAB
  0
TABLE
  2
BLOCK_RECORD
  5
2AC
100
AcDbSymbolTable
 70
    12
  0
BLOCK_RECORD
  5
2AD
100
AcDbSymbolTableRecord
100
AcDbBlockTableRecord
  2
*MODEL_SPACE
  0
BLOCK_RECORD
  5
2AE
100
AcDbSymbolTableRecord
100
AcDbBlockTableRecord
  2
*PAPER_SPACE
  0
BLOCK_RECORD
  5
2AF
100
AcDbSymbolTableRecord
100
AcDbBlockTableRecord
  2
*PAPER_SPACE0
  0
BLOCK_RECORD
  5
1
100
AcDbSymbolTableRecord
100
AcDbBlockTableRecord
  2
_NONE
  0
BLOCK_RECORD
  5
4
100
AcDbSymbolTableRecord
100
AcDbBlockTableRecord
  2
_CLOSED
  0
BLOCK_RECORD
  5
B
100
AcDbSymbolTableRecord
100
AcDbBlockTableRecord
  2
_DOT
  0
BLOCK_RECORD
  5
13
100
AcDbSymbolTableRecord
100
AcDbBlockTableRecord
  2
_OPEN
  0
BLOCK_RECORD
  5
19
100
AcDbSymbolTableRecord
100
AcDbBlockTableRecord
  2
_ORIGIN
  0
BLOCK_RECORD
  5
1E
100
AcDbSymbolTableRecord
100
AcDbBlockTableRecord
  2
_OPEN30
  0
BLOCK_RECORD
  5
24
100
AcDbSymbolTableRecord
100
AcDbBlockTableRecord
  2
_BOXFILLED
  0
BLOCK_RECORD
  5
29
100
AcDbSymbolTableRecord
100
AcDbBlockTableRecord
  2
_BOXBLANK
  0
BLOCK_RECORD
  5
31
100
AcDbSymbolTableRecord
100
AcDbBlockTableRecord
  2
_OBLIQUE
  0
BLOCK_RECORD
  5
35
100
AcDbSymbolTableRecord
100
AcDbBlockTableRecord
  2
_OPEN90
  0
BLOCK_RECORD
  5
3B
100
AcDbSymbolTableRecord
100
AcDbBlockTableRecord
  2
_CLOSEDBLANK
  0
BLOCK_RECORD
  5
41
100
AcDbSymbolTableRecord
100
AcDbBlockTableRecord
  2
_DOTBLANK
  0
ENDTAB
  0
ENDSEC
  0
SECTION
  2
BLOCKS
  0
BLOCK
  5
2B0
100
AcDbEntity
  8
0
100
AcDbBlockBegin
  2
*MODEL_SPACE
 70
     0
 10
0.0
 20
0.0
 30
0.0
  3
*MODEL_SPACE
  1

  0
ENDBLK
  5
2B1
100
AcDbEntity
  8
0
100
AcDbBlockEnd
  0
BLOCK
  5
2B2
100
AcDbEntity
  8
0
100
AcDbBlockBegin
  2
*PAPER_SPACE
 70
     0
 10
0.0
 20
0.0
 30
0.0
  3
*PAPER_SPACE
  1

  0
ENDBLK
  5
2B3
100
AcDbEntity
  8
0
100
AcDbBlockEnd
  0
BLOCK
  5
2B4
100
AcDbEntity
  8
0
100
AcDbBlockBegin
  2
*PAPER_SPACE0
 70
     0
 10
0.0
 20
0.0
 30
0.0
  3
*PAPER_SPACE0
  1

  0
ENDBLK
  5
2B5
100
AcDbEntity
  8
0
100
AcDbBlockEnd
  0
BLOCK
  5
2
330
1
100
AcDbEntity
  8
0
100
AcDbBlockBegin
  2
_NONE
 70
     0
 10
0.0
 20
0.0
 30
0.0
  3
_NONE
  1

  0
ENDBLK
  5
3
330
1
100
AcDbEntity
  8
0
100
AcDbBlockEnd
  0
BLOCK
  5
5
330
4
100
AcDbEntity
  8
0
100
AcDbBlockBegin
  2
_CLOSED
 70
     0
 10
0.0
 20
0.0
 30
0.0
  3
_CLOSED
  1

  0
LINE
  5
6
330
4
100
AcDbEntity
  8
0
  6
BYBLOCK
 62
     0
370
    -2
100
AcDbLine
 10
-1.0
 20
0.166667
 30
0.0
 11
0.0
 21
0.0
 31
0.0
  0
LINE
  5
7
330
4
100
AcDbEntity
  8
0
  6
BYBLOCK
 62
     0
370
    -2
100
AcDbLine
 10
0.0
 20
0.0
 30
0.0
 11
-1.0
 21
-0.166667
 31
0.0
  0
LINE
  5
8
330
4
100
AcDbEntity
  8
0
  6
BYBLOCK
 62
     0
370
    -2
100
AcDbLine
 10
-1.0
 20
0.166667
 30
0.0
 11
-1.0
 21
-0.166667
 31
0.0
  0
LINE
  5
9
330
4
100
AcDbEntity
  8
0
  6
BYBLOCK
 62
     0
370
    -2
100
AcDbLine
 10
0.0
 20
0.0
 30
0.0
 11
-1.0
 21
0.0
 31
0.0
  0
ENDBLK
  5
A
330
4
100
AcDbEntity
  8
0
100
AcDbBlockEnd
  0
BLOCK
  5
C
330
B
100
AcDbEntity
  8
0
100
AcDbBlockBegin
  2
_DOT
 70
     0
 10
0.0
 20
0.0
 30
0.0
  3
_DOT
  1

  0
POLYLINE
  5
D
330
B
100
AcDbEntity
  8
0
  6
BYBLOCK
 62
     0
370
    -2
100
AcDb2dPolyline
 66
     1
 10
0.0
 20
0.0
 30
0.0
 70
     1
 40
0.5
 41
0.5
  0
VERTEX
  5
E
330
B
100
AcDbEntity
  8
0
  6
BYBLOCK
 62
     0
370
    -2
100
AcDbVertex
100
AcDb2dVertex
 10
-0.25
 20
0.0
 30
0.0
 42
1.0
  0
VERTEX
  5
F
330
B
100
AcDbEntity
  8
0
  6
BYBLOCK
 62
     0
370
    -2
100
AcDbVertex
100
AcDb2dVertex
 10
0.25
 20
0.0
 30
0.0
 42
1.0
  0
SEQEND
  5
10
330
B
100
AcDbEntity
  8
0
  6
BYBLOCK
 62
     0
370
    -2
  0
LINE
  5
11
330
B
100
AcDbEntity
  8
0
  6
BYBLOCK
 62
     0
370
    -2
100
AcDbLine
 10
-0.5
 20
0.0
 30
0.0
 11
-1.0
 21
0.0
 31
0.0
  0
ENDBLK
  5
12
330
B
100
AcDbEntity
  8
0
100
AcDbBlockEnd
  0
BLOCK
  5
14
330
13
100
AcDbEntity
  8
0
100
AcDbBlockBegin
  2
_OPEN
 70
     0
 10
0.0
 20
0.0
 30
0.0
  3
_OPEN
  1

  0
LINE
  5
15
330
13
100
AcDbEntity
  8
0
  6
BYBLOCK
 62
     0
370
    -2
100
AcDbLine
 10
-1.0
 20
0.166667
 30
0.0
 11
0.0
 21
0.0
 31
0.0
  0
LINE
  5
16
330
13
100
AcDbEntity
  8
0
  6
BYBLOCK
 62
     0
370
    -2
100
AcDbLine
 10
0.0
 20
0.0
 30
0.0
 11
-1.0
 21
-0.166667
 31
0.0
  0
LINE
  5
17
330
13
100
AcDbEntity
  8
0
  6
BYBLOCK
 62
     0
370
    -2
100
AcDbLine
 10
0.0
 20
0.0
 30
0.0
 11
-1.0
 21
0.0
 31
0.0
  0
ENDBLK
  5
18
330
13
100
AcDbEntity
  8
0
100
AcDbBlockEnd
  0
BLOCK
  5
1A
330
19
100
AcDbEntity
  8
0
100
AcDbBlockBegin
  2
_ORIGIN
 70
     0
 10
0.0
 20
0.0
 30
0.0
  3
_ORIGIN
  1

  0
CIRCLE
  5
1B
330
19
100
AcDbEntity
  8
0
  6
BYBLOCK
 62
     0
370
    -2
100
AcDbCircle
 10
0.0
 20
0.0
 30
0.0
 40
0.5
  0
LINE
  5
1C
330
19
100
AcDbEntity
  8
0
  6
BYBLOCK
 62
     0
370
    -2
100
AcDbLine
 10
0.0
 20
0.0
 30
0.0
 11
-1.0
 21
0.0
 31
0.0
  0
ENDBLK
  5
1D
330
19
100
AcDbEntity
  8
0
100
AcDbBlockEnd
  0
BLOCK
  5
1F
330
1E
100
AcDbEntity
  8
0
100
AcDbBlockBegin
  2
_OPEN30
 70
     0
 10
0.0
 20
0.0
 30
0.0
  3
_OPEN30
  1

  0
LINE
  5
20
330
1E
100
AcDbEntity
  8
0
  6
BYBLOCK
 62
     0
370
    -2
100
AcDbLine
 10
-1.0
 20
0.267949
 30
0.0
 11
0.0
 21
0.0
 31
0.0
  0
LINE
  5
21
330
1E
100
AcDbEntity
  8
0
  6
BYBLOCK
 62
     0
370
    -2
100
AcDbLine
 10
0.0
 20
0.0
 30
0.0
 11
-1.0
 21
-0.267949
 31
0.0
  0
LINE
  5
22
330
1E
100
AcDbEntity
  8
0
  6
BYBLOCK
 62
     0
370
    -2
100
AcDbLine
 10
0.0
 20
0.0
 30
0.0
 11
-1.0
 21
0.0
 31
0.0
  0
ENDBLK
  5
23
330
1E
100
AcDbEntity
  8
0
100
AcDbBlockEnd
  0
BLOCK
  5
25
330
24
100
AcDbEntity
  8
0
100
AcDbBlockBegin
  2
_BOXFILLED
 70
     0
 10
0.0
 20
0.0
 30
0.0
  3
_BOXFILLED
  1

  0
SOLID
  5
26
330
24
100
AcDbEntity
  8
0
  6
BYBLOCK
 62
     0
370
    -2
100
AcDbTrace
 10
-0.5
 20
0.5
 30
0.0
 11
0.5
 21
0.5
 31
0.0
 12
-0.5
 22
-0.5
 32
0.0
 13
0.5
 23
-0.5
 33
0.0
  0
LINE
  5
27
330
24
100
AcDbEntity
  8
0
  6
BYBLOCK
 62
     0
370
    -2
100
AcDbLine
 10
-0.5
 20
0.0
 30
0.0
 11
-1.0
 21
0.0
 31
0.0
  0
ENDBLK
  5
28
330
24
100
AcDbEntity
  8
0
100
AcDbBlockEnd
  0
BLOCK
  5
2A
330
29
100
AcDbEntity
  8
0
100
AcDbBlockBegin
  2
_BOXBLANK
 70
     0
 10
0.0
 20
0.0
 30
0.0
  3
_BOXBLANK
  1

  0
LINE
  5
2B
330
29
100
AcDbEntity
  8
0
  6
BYBLOCK
 62
     0
370
    -2
100
AcDbLine
 10
-0.5
 20
-0.5
 30
0.0
 11
0.5
 21
-0.5
 31
0.0
  0
LINE
  5
2C
330
29
100
AcDbEntity
  8
0
  6
BYBLOCK
 62
     0
370
    -2
100
AcDbLine
 10
0.5
 20
-0.5
 30
0.0
 11
0.5
 21
0.5
 31
0.0
  0
LINE
  5
2D
330
29
100
AcDbEntity
  8
0
  6
BYBLOCK
 62
     0
370
    -2
100
AcDbLine
 10
0.5
 20
0.5
 30
0.0
 11
-0.5
 21
0.5
 31
0.0
  0
LINE
  5
2E
330
29
100
AcDbEntity
  8
0
  6
BYBLOCK
 62
     0
370
    -2
100
AcDbLine
 10
-0.5
 20
0.5
 30
0.0
 11
-0.5
 21
-0.5
 31
0.0
  0
LINE
  5
2F
330
29
100
AcDbEntity
  8
0
  6
BYBLOCK
 62
     0
370
    -2
100
AcDbLine
 10
-0.5
 20
0.0
 30
0.0
 11
-1.0
 21
0.0
 31
0.0
  0
ENDBLK
  5
30
330
29
100
AcDbEntity
  8
0
100
AcDbBlockEnd
  0
BLOCK
  5
32
330
31
100
AcDbEntity
  8
0
100
AcDbBlockBegin
  2
_OBLIQUE
 70
     0
 10
0.0
 20
0.0
 30
0.0
  3
_OBLIQUE
  1

  0
LINE
  5
33
330
31
100
AcDbEntity
  8
0
  6
BYBLOCK
 62
     0
370
    -2
100
AcDbLine
 10
-0.5
 20
-0.5
 30
0.0
 11
0.5
 21
0.5
 31
0.0
  0
ENDBLK
  5
34
330
31
100
AcDbEntity
  8
0
100
AcDbBlockEnd
  0
BLOCK
  5
36
330
35
100
AcDbEntity
  8
0
100
AcDbBlockBegin
  2
_OPEN90
 70
     0
 10
0.0
 20
0.0
 30
0.0
  3
_OPEN90
  1

  0
LINE
  5
37
330
35
100
AcDbEntity
  8
0
  6
BYBLOCK
 62
     0
370
    -2
100
AcDbLine
 10
-0.5
 20
0.5
 30
0.0
 11
0.0
 21
0.0
 31
0.0
  0
LINE
  5
38
330
35
100
AcDbEntity
  8
0
  6
BYBLOCK
 62
     0
370
    -2
100
AcDbLine
 10
0.0
 20
0.0
 30
0.0
 11
-0.5
 21
-0.5
 31
0.0
  0
LINE
  5
39
330
35
100
AcDbEntity
  8
0
  6
BYBLOCK
 62
     0
370
    -2
100
AcDbLine
 10
0.0
 20
0.0
 30
0.0
 11
-1.0
 21
0.0
 31
0.0
  0
ENDBLK
  5
3A
330
35
100
AcDbEntity
  8
0
100
AcDbBlockEnd
  0
BLOCK
  5
3C
330
3B
100
AcDbEntity
  8
0
100
AcDbBlockBegin
  2
_CLOSEDBLANK
 70
     0
 10
0.0
 20
0.0
 30
0.0
  3
_CLOSEDBLANK
  1

  0
LINE
  5
3D
330
3B
100
AcDbEntity
  8
0
  6
BYBLOCK
 62
     0
370
    -2
100
AcDbLine
 10
-1.0
 20
0.1666666666666666
 30
0.0
 11
0.0
 21
0.0
 31
0.0
  0
LINE
  5
3E
330
3B
100
AcDbEntity
  8
0
  6
BYBLOCK
 62
     0
370
    -2
100
AcDbLine
 10
0.0
 20
0.0
 30
0.0
 11
-1.0
 21
-0.1666666666666666
 31
0.0
  0
LINE
  5
3F
330
3B
100
AcDbEntity
  8
0
  6
BYBLOCK
 62
     0
370
    -2
100
AcDbLine
 10
-1.0
 20
0.1666666666666666
 30
0.0
 11
-1.0
 21
-0.1666666666666666
 31
0.0
  0
ENDBLK
  5
40
330
3B
100
AcDbEntity
  8
0
100
AcDbBlockEnd
  0
BLOCK
  5
42
330
41
100
AcDbEntity
  8
0
100
AcDbBlockBegin
  2
_DOTBLANK
 70
     0
 10
0.0
 20
0.0
 30
0.0
  3
_DOTBLANK
  1

  0
CIRCLE
  5
43
330
41
100
AcDbEntity
  8
0
  6
BYBLOCK
 62
     0
370
    -2
100
AcDbCircle
 10
0.0
 20
0.0
 30
0.0
 40
0.5
  0
LINE
  5
44
330
41
100
AcDbEntity
  8
0
  6
BYBLOCK
 62
     0
370
    -2
100
AcDbLine
 10
-0.5
 20
0.0
 30
0.0
 11
-1.0
 21
0.0
 31
0.0
  0
ENDBLK
  5
45
330
41
100
AcDbEntity
  8
0
100
AcDbBlockEnd
  0
ENDSEC
  0
SECTION
  2
ENTITIES
  0
MTEXT
  5
46
100
AcDbEntity
  8
A8
  6
CONTINUOUS
 62
3
100
AcDbMText
 10
9.999997526638502
 20
18.00000076076889
 30
0.000000000000000
 40
3.000000000000000
 41
0.000000000000000
 44
0.6739999771118164
 71
     7
 72
     1
  1
{\H0.94x;{TYPE No.TCA-420G-U25}}
 11
1.000000000000000
 21
0.000000000000000
 31
0.000000000000000
  7
STANDARD
  0
POINT
  5
47
100
AcDbEntity
  8
A0
  6
CONTINUOUS
 62
3
100
AcDbPoint
 10
9.999997526638502
 20
18.00000076076889
 30
0.000000000000000
  0
CIRCLE
  5
48
100
AcDbEntity
  8
A1
  6
CONTINUOUS
 62
7
100
AcDbCircle
 10
112.5000000000003
 20
112.5000000000001
 30
0.000000000000000
 40
2.997944022519415
  0
CIRCLE
  5
49
100
AcDbEntity
  8
A1
  6
CONTINUOUS
 62
7
100
AcDbCircle
 10
112.5000000000003
 20
112.5000000000001
 30
0.000000000000000
 40
1.241448708446040
  0
ARC
  5
4A
100
AcDbEntity
  8
A1
  6
CONTINUOUS
 62
7
100
AcDbCircle
 10
129.3500000000003
 20
131.4844980000001
 30
0.000000000000000
 40
1.800000000000000
100
AcDbArc
 50
326.8424354717112
 51
347.6658778346562
  0
ARC
  5
4B
100
AcDbEntity
  8
A1
  6
CONTINUOUS
 62
7
100
AcDbCircle
 10
113.6500000000003
 20
131.4844980000001
 30
0.000000000000000
 40
1.800000000000000
100
AcDbArc
 50
192.3341221653438
 51
213.1575645282888
  0
ARC
  5
4C
100
AcDbEntity
  8
A1
  6
CONTINUOUS
 62
7
100
AcDbCircle
 10
114.7017005802924
 20
131.4844980000001
 30
0.000000000000000
 40
1.800000000000000
100
AcDbArc
 50
192.3341221653438
 51
213.1575645282888
  0
ARC
  5
4D
100
AcDbEntity
  8
A1
  6
CONTINUOUS
 62
7
100
AcDbCircle
 10
128.2982994197081
 20
131.4844980000001
 30
0.000000000000000
 40
1.800000000000000
100
AcDbArc
 50
326.8424354717112
 51
347.6658778346562
  0
ARC
  5
4E
100
AcDbEntity
  8
A1
  6
CONTINUOUS
 62
7
100
AcDbCircle
 10
125.4250000000003
 20
131.4844980000001
 30
0.000000000000000
 40
1.800000000000000
100
AcDbArc
 50
326.8424354717112
 51
347.6658778346562
  0
ARC
  5
4F
100
AcDbEntity
  8
A1
  6
CONTINUOUS
 62
7
100
AcDbCircle
 10
125.4250000000003
 20
131.4844980000001
 30
0.000000000000000
 40
1.800000000000000
100
AcDbArc
 50
192.3341221653438
 51
213.1575645282888
  0
ARC
  5
50
100
AcDbEntity
  8
A1
  6
CONTINUOUS
 62
7
100
AcDbCircle
 10
117.5750000000003
 20
131.4844980000001
 30
0.000000000000000
 40
1.800000000000000
100
AcDbArc
 50
326.8424354717112
 51
347.6658778346562
  0
ARC
  5
51
100
AcDbEntity
  8
A1
  6
CONTINUOUS
 62
7
100
AcDbCircle
 10
117.5750000000003
 20
131.4844980000001
 30
0.000000000000000
 40
1.800000000000000
100
AcDbArc
 50
192.3341221653438
 51
213.1575645282888
  0
ARC
  5
52
100
AcDbEntity
  8
A1
  6
CONTINUOUS
 62
7
100
AcDbCircle
 10
121.5000000000003
 20
131.4844980000001
 30
0.000000000000000
 40
1.800000000000000
100
AcDbArc
 50
192.3341221653438
 51
213.1575645282888
  0
ARC
  5
53
100
AcDbEntity
  8
A1
  6
CONTINUOUS
 62
7
100
AcDbCircle
 10
121.5000000000003
 20
131.4844980000001
 30
0.000000000000000
 40
1.800000000000000
100
AcDbArc
 50
326.8424354717112
 51
347.6658778346562
  0
ARC
  5
54
100
AcDbEntity
  8
A1
  6
CONTINUOUS
 62
7
100
AcDbCircle
 10
132.8805027319768
 20
133.0999960000001
 30
0.000000000000000
 40
2.000000000000000
100
AcDbArc
 50
270.0000000000000
 51
333.2519142592067
  0
ARC
  5
55
100
AcDbEntity
  8
A1
  6
CONTINUOUS
 62
7
100
AcDbCircle
 10
110.1194972680238
 20
133.0999960000001
 30
0.000000000000000
 40
2.000000000000000
100
AcDbArc
 50
206.7480857407933
 51
270.0000000000000
  0
ARC
  5
56
100
AcDbEntity
  8
A1
  6
CONTINUOUS
 62
7
100
AcDbCircle
 10
107.3199253179259
 20
133.0999980000001
 30
0.000000000000000
 40
0.5000000000000000
100
AcDbArc
 50
26.74808574079326
 51
90.00000000000001
  0
ARC
  5
57
100
AcDbEntity
  8
A1
  6
CONTINUOUS
 62
7
100
AcDbCircle
 10
135.6800746820746
 20
133.0999980000001
 30
0.000000000000000
 40
0.5000000000000000
100
AcDbArc
 50
90.00000000000000
 51
153.2519142592068
  0
LINE
  5
58
100
AcDbEntity
  8
A1
  6
CONTINUOUS
 62
7
100
AcDbLine
 10
132.8805027319768
 20
131.0999960000001
 30
0.000000000000000
 11
110.1194972680274
 21
131.0999960000001
 31
0.000000000000000
  0
LINE
  5
59
100
AcDbEntity
  8
A1
  6
CONTINUOUS
 62
7
100
AcDbLine
 10
134.6664906934935
 20
132.1998587875054
 30
0.000000000000000
 11
135.2335776916955
 21
133.3250323031237
 31
0.000000000000000
  0
LINE
  5
5A
100
AcDbEntity
  8
A1
  6
CONTINUOUS
 62
7
100
AcDbLine
 10
107.7664223083051
 20
133.3250323031238
 30
0.000000000000000
 11
108.3335093065071
 21
132.1998587875055
 31
0.000000000000000
  0
LINE
  5
5B
100
AcDbEntity
  8
A1
  6
CONTINUOUS
 62
7
100
AcDbLine
 10
107.4999969456741
 20
133.5999980000001
 30
0.000000000000000
 11
135.5000000000003
 21
133.5999980000001
 31
0.000000000000000
  0
LINE
  5
5C
100
AcDbEntity
  8
A1
  6
CONTINUOUS
 62
7
100
AcDbLine
 10
107.4999969456741
 20
134.9999980000001
 30
0.000000000000000
 11
135.5000000000003
 21
134.9999980000001
 31
0.000000000000000
  0
LINE
  5
5D
100
AcDbEntity
  8
A1
  6
CONTINUOUS
 62
7
100
AcDbLine
 10
104.0000000000003
 20
134.9999980000001
 30
0.000000000000000
 11
104.0000000000003
 21
133.5999980000001
 31
0.000000000000000
  0
LINE
  5
5E
100
AcDbEntity
  8
A1
  6
CONTINUOUS
 62
7
100
AcDbLine
 10
104.0000000000003
 20
133.5999980000001
 30
0.000000000000000
 11
107.4999969456741
 21
133.5999980000001
 31
0.000000000000000
  0
LINE
  5
5F
100
AcDbEntity
  8
A1
  6
CONTINUOUS
 62
7
100
AcDbLine
 10
104.0000000000003
 20
134.9999980000001
 30
0.000000000000000
 11
107.4999969456741
 21
134.9999980000001
 31
0.000000000000000
  0
LINE
  5
60
100
AcDbEntity
  8
A1
  6
CONTINUOUS
 62
7
100
AcDbLine
 10
135.5000000000003
 20
133.5999980000001
 30
0.000000000000000
 11
139.0000000000003
 21
133.5999980000001
 31
0.000000000000000
  0
LINE
  5
61
100
AcDbEntity
  8
A1
  6
CONTINUOUS
 62
7
100
AcDbLine
 10
135.5000000000003
 20
134.9999980000001
 30
0.000000000000000
 11
139.0000000000003
 21
134.9999980000001
 31
0.000000000000000
  0
LINE
  5
62
100
AcDbEntity
  8
A1
  6
CONTINUOUS
 62
7
100
AcDbLine
 10
139.0000000000003
 20
133.5999980000001
 30
0.000000000000000
 11
139.0000000000003
 21
134.9999980000001
 31
0.000000000000000
  0
ARC
  5
63
100
AcDbEntity
  8
A1
  6
CONTINUOUS
 62
7
100
AcDbCircle
 10
112.5000000000003
 20
112.5000000000001
 30
0.000000000000000
 40
12.50000000000000
100
AcDbArc
 50
109.1418650960537
 51
270.0000000000000
  0
ARC
  5
64
100
AcDbEntity
  8
A1
  6
CONTINUOUS
 62
7
100
AcDbCircle
 10
112.5000000000003
 20
112.5000000000001
 30
0.000000000000000
 40
12.50000000000000
100
AcDbArc
 50
270.0000000000000
 51
392.5812665277536
  0
ARC
  5
65
100
AcDbEntity
  8
A1
  6
CONTINUOUS
 62
7
100
AcDbCircle
 10
112.5000000000003
 20
112.5000000000001
 30
0.000000000000000
 40
8.000000000000000
100
AcDbArc
 50
122.2705359619297
 51
270.0000000000000
  0
ARC
  5
66
100
AcDbEntity
  8
A1
  6
CONTINUOUS
 62
7
100
AcDbCircle
 10
112.5000000000003
 20
112.5000000000001
 30
0.000000000000000
 40
8.000000000000000
100
AcDbArc
 50
270.0000000000000
 51
379.4360040555204
  0
ARC
  5
67
100
AcDbEntity
  8
A1
  6
CONTINUOUS
 62
7
100
AcDbCircle
 10
112.5000000000003
 20
112.5000000000001
 30
0.000000000000000
 40
9.000000000000000
100
AcDbArc
 50
118.0416694375088
 51
270.0000000000000
  0
ARC
  5
68
100
AcDbEntity
  8
A1
  6
CONTINUOUS
 62
7
100
AcDbCircle
 10
112.5000000000003
 20
112.5000000000001
 30
0.000000000000000
 40
9.000000000000000
100
AcDbArc
 50
270.0000000000000
 51
383.6758700018401
  0
ARC
  5
69
100
AcDbEntity
  8
A1
  6
CONTINUOUS
 62
7
100
AcDbCircle
 10
112.5000000000003
 20
112.5000000000001
 30
0.000000000000000
 40
5.000001999999880
100
AcDbArc
 50
152.1996921935564
 51
270.0000000000000
  0
ARC
  5
6A
100
AcDbEntity
  8
A1
  6
CONTINUOUS
 62
7
100
AcDbCircle
 10
112.5000000000003
 20
112.5000000000001
 30
0.000000000000000
 40
5.000001999999880
100
AcDbArc
 50
270.0000000000000
 51
349.5233842039272
  0
SPLINE
  5
6B
100
AcDbEntity
  8
A1
  6
CONTINUOUS
 62
7
100
AcDbSpline
210
0.000000000000000
220
0.000000000000000
230
1.000000000000000
 70
     8
 71
     3
 72
    11
 73
     7
 74
     0
 42
1.000000000000000e-07
 43
1.000000000000000e-07
 12
-0.7899019320889238
 22
-0.6132331837743550
 32
0.000000000000000
 13
-0.3203439194294333
 23
-0.9473013107162842
 33
0.000000000000000
 40
0.000000000000000
 40
0.000000000000000
 40
0.000000000000000
 40
0.000000000000000
 40
0.1579133641109119
 40
0.3160137814698022
 40
0.4744985671273984
 40
0.5192818330311798
 40
0.5192818330311798
 40
0.5192818330311798
 40
0.5192818330311798
 10
110.1893466872558
 20
130.3228985868981
 30
0.000000000000000
 10
110.1477679967845
 20
130.2906193485533
 30
0.000000000000000
 10
110.0701219989885
 20
130.2184183082622
 30
0.000000000000000
 10
109.9755942920525
 20
130.0905376895047
 30
0.000000000000000
 10
109.9224787678720
 20
129.9816659998245
 30
0.000000000000000
 10
109.8992346916575
 20
129.9180122540379
 30
0.000000000000000
 10
109.8944526760160
 20
129.9038711718750
 30
0.000000000000000
  0
SPLINE
  5
6C
100
AcDbEntity
  8
A1
  6
CONTINUOUS
 62
7
100
AcDbSpline
210
0.000000000000000
220
0.000000000000000
230
1.000000000000000
 70
     8
 71
     3
 72
    22
 73
    18
 74
     0
 42
1.000000000000000e-07
 43
1.000000000000000e-07
 12
-0.3217482613044922
 22
-0.9468252512187973
 32
0.000000000000000
 13
-0.6428275439066056
 23
-0.7660109325552185
 33
0.000000000000000
 40
0.000000000000000
 40
0.000000000000000
 40
0.000000000000000
 40
0.000000000000000
 40
0.04835935357107720
 40
0.1270222963245212
 40
0.2265961549952245
 40
0.3482872748848866
 40
0.4932151482131421
 40
0.6627652442907070
 40
0.8585449311397970
 40
1.070708226401607
 40
1.302225073492110
 40
1.551889857590159
 40
1.818913572375476
 40
2.102498941612253
 40
2.399443311321700
 40
2.702260181045506
 40
2.732213564615578
 40
2.732213564615578
 40
2.732213564615578
 40
2.732213564615578
 10
109.8950968035290
 20
129.9046185766968
 30
0.000000000000000
 10
109.8899102908859
 20
129.8893559576656
 30
0.000000000000000
 10
109.8758015396956
 20
129.8494283347395
 30
0.000000000000000
 10
109.8479925529568
 20
129.7791812306532
 30
0.000000000000000
 10
109.8081736507759
 20
129.6874604302423
 30
0.000000000000000
 10
109.7560570478896
 20
129.5770599472095
 30
0.000000000000000
 10
109.6902256318980
 20
129.4474071685745
 30
0.000000000000000
 10
109.6090171336770
 20
129.2979354053866
 30
0.000000000000000
 10
109.5125215260910
 20
129.1313434101981
 30
0.000000000000000
 10
109.4009868558098
 20
128.9496746945659
 30
0.000000000000000
 10
109.2753238529323
 20
128.7556824895941
 30
0.000000000000000
 10
109.1348756582159
 20
128.5495596125444
 30
0.000000000000000
 10
108.9796449766320
 20
128.3325913042892
 30
0.000000000000000
 10
108.8102033087336
 20
128.1064966829388
 30
0.000000000000000
 10
108.6285185485346
 20
127.8747561016128
 30
0.000000000000000
 10
108.4955442593418
 20
127.7123206991579
 30
0.000000000000000
 10
108.4243226969972
 20
127.6272826150218
 30
0.000000000000000
 10
108.4179044103332
 20
127.6196344085946
 30
0.000000000000000
  0
SPLINE
  5
6D
100
AcDbEntity
  8
A1
  6
CONTINUOUS
 62
7
100
AcDbSpline
210
0.000000000000000
220
0.000000000000000
230
1.000000000000000
 70
     8
 71
     3
 72
    12
 73
     8
 74
     0
 42
1.000000000000000e-07
 43
1.000000000000000e-07
 12
-0.9997074773464192
 22
-0.02418594089886028
 32
0.000000000000000
 13
-0.7879228570086525
 23
-0.6157739612908699
 33
0.000000000000000
 40
0.000000000000000
 40
0.000000000000000
 40
0.000000000000000
 40
0.000000000000000
 40
0.07318023501662570
 40
0.1618916146863959
 40
0.2404440213647259
 40
0.3324010209366279
 40
0.4519914726671149
 40
0.4519914726671149
 40
0.4519914726671149
 40
0.4519914726671149
 10
110.5975906338433
 20
130.5000000000001
 30
0.000000000000000
 10
110.5732043577966
 20
130.4994100223870
 30
0.000000000000000
 10
110.5191825784199
 20
130.4940862299152
 30
0.000000000000000
 10
110.4421169931830
 20
130.4705610990981
 30
0.000000000000000
 10
110.3629482909252
 20
130.4356762379248
 30
0.000000000000000
 10
110.2787958295291
 20
130.3877541878367
 30
0.000000000000000
 10
110.2207560373886
 20
130.3474454822963
 30
0.000000000000000
 10
110.1893466872558
 20
130.3228985868981
 30
0.000000000000000
  0
SPLINE
  5
6E
100
AcDbEntity
  8
A1
  6
CONTINUOUS
 62
7
100
AcDbSpline
210
0.000000000000000
220
0.000000000000000
230
1.000000000000000
 70
     8
 71
     3
 72
     9
 73
     5
 74
     0
 42
1.000000000000000e-07
 43
1.000000000000000e-07
 12
0.03398290077757338
 22
0.9994224144247710
 32
0.000000000000000
 13
-0.1367556504401364
 23
0.9906048112507051
 33
0.000000000000000
 40
0.000000000000000
 40
0.000000000000000
 40
0.000000000000000
 40
0.000000000000000
 40
0.09427900257155440
 40
0.1714379771707789
 40
0.1714379771707789
 40
0.1714379771707789
 40
0.1714379771707789
 10
108.4913157501613
 20
126.9459605006717
 30
0.000000000000000
 10
108.4923837081579
 20
126.9773686834649
 30
0.000000000000000
 10
108.4916500731886
 20
127.0346108986493
 30
0.000000000000000
 10
108.4860045125143
 20
127.0915368966531
 30
0.000000000000000
 10
108.4824872039281
 20
127.1170149138095
 30
0.000000000000000
  0
ARC
  5
6F
100
AcDbEntity
  8
A1
  6
CONTINUOUS
 62
7
100
AcDbCircle
 10
110.3000000000003
 20
129.5000000000001
 30
0.000000000000000
 40
1.000000000000000
100
AcDbArc
 50
90.00000000000000
 51
180.0000000000000
  0
ARC
  5
70
100
AcDbEntity
  8
A1
  6
CONTINUOUS
 62
7
100
AcDbCircle
 10
107.4918998068226
 20
126.9801331815976
 30
0.000000000000000
 40
0.9999999999587780
100
AcDbArc
 50
7.867445452776312
 51
26.56507409579815
  0
ARC
  5
71
100
AcDbEntity
  8
A1
  6
CONTINUOUS
 62
7
100
AcDbCircle
 10
112.5000000668188
 20
112.5000002095573
 30
0.000000000000000
 40
4.500000209557269
100
AcDbArc
 50
178.0417101325273
 51
270.0000000000000
  0
ARC
  5
72
100
AcDbEntity
  8
A1
  6
CONTINUOUS
 62
7
100
AcDbCircle
 10
112.4999988976228
 20
112.5000088827743
 30
0.000000000000000
 40
4.500008882774310
100
AcDbArc
 50
270.0000148866366
 51
323.6813506215624
  0
ARC
  5
73
100
AcDbEntity
  8
A1
  6
CONTINUOUS
 62
7
100
AcDbCircle
 10
132.7000000000003
 20
129.5000000000001
 30
0.000000000000000
 40
1.000000000000000
100
AcDbArc
 50
0.000000000000000
 51
90.00000000000000
  0
ARC
  5
74
100
AcDbEntity
  8
A1
  6
CONTINUOUS
 62
7
100
AcDbCircle
 10
129.6004094488259
 20
123.0991959977503
 30
0.000000000000000
 40
3.000802031417479
100
AcDbArc
 50
90.00798859872268
 51
143.6737301520423
  0
LINE
  5
75
100
AcDbEntity
  8
A1
  6
CONTINUOUS
 62
7
100
AcDbLine
 10
108.4887756253675
 20
127.0591180049439
 30
0.000000000000000
 11
108.4802482875383
 21
127.1323411990747
 31
0.000000000000000
  0
LINE
  5
76
100
AcDbEntity
  8
A1
  6
CONTINUOUS
 62
7
100
AcDbLine
 10
110.3000000000003
 20
130.5000000000001
 30
0.000000000000000
 11
110.5914964633514
 21
130.5000000000001
 31
0.000000000000000
  0
LINE
  5
77
100
AcDbEntity
  8
A1
  6
CONTINUOUS
 62
7
100
AcDbLine
 10
109.3000000000003
 20
129.5000000000002
 30
0.000000000000000
 11
109.3000000000003
 21
128.7954053631487
 31
0.000000000000000
  0
LINE
  5
78
100
AcDbEntity
  8
A1
  6
CONTINUOUS
 62
7
100
AcDbLine
 10
108.3378418657517
 20
127.5243169441770
 30
0.000000000000000
 11
108.3728536163519
 21
127.4542935130002
 31
0.000000000000000
  0
LINE
  5
79
100
AcDbEntity
  8
A1
  6
CONTINUOUS
 62
7
100
AcDbLine
 10
108.4172869283838
 20
127.6189771779845
 30
0.000000000000000
 11
108.3369477527081
 21
127.5232519200849
 31
0.000000000000000
  0
LINE
  5
7A
100
AcDbEntity
  8
A1
  6
CONTINUOUS
 62
7
100
AcDbLine
 10
112.0818698075705
 20
130.5000000000001
 30
0.000000000000000
 11
110.5975906338432
 21
130.5000000000001
 31
0.000000000000000
  0
LINE
  5
7B
100
AcDbEntity
  8
A1
  6
CONTINUOUS
 62
7
100
AcDbLine
 10
108.3728536163519
 20
127.4542935130002
 30
0.000000000000000
 11
108.3863268188970
 21
127.4273471348563
 31
0.000000000000000
  0
LINE
  5
7C
100
AcDbEntity
  8
A1
  6
CONTINUOUS
 62
7
100
AcDbLine
 10
116.1258160000003
 20
109.8347640000001
 30
0.000000000000000
 11
118.3676287261395
 21
112.8845551252131
 31
0.000000000000000
  0
LINE
  5
7D
100
AcDbEntity
  8
A1
  6
CONTINUOUS
 62
7
100
AcDbLine
 10
108.4532841235640
 20
125.8336856378941
 30
0.000000000000000
 11
108.0026280000003
 21
112.6537740000001
 31
0.000000000000000
  0
LINE
  5
7E
100
AcDbEntity
  8
A1
  6
CONTINUOUS
 62
7
100
AcDbLine
 10
108.4532841235640
 20
125.8336856378941
 30
0.000000000000000
 11
108.4913157501613
 21
126.9459605006717
 31
0.000000000000000
  0
LINE
  5
7F
100
AcDbEntity
  8
A1
  6
CONTINUOUS
 62
7
100
AcDbLine
 10
113.9038102931269
 20
130.5000000000001
 30
0.000000000000000
 11
112.0818698075706
 21
130.5000000000001
 31
0.000000000000000
  0
LINE
  5
80
100
AcDbEntity
  8
A1
  6
CONTINUOUS
 62
7
100
AcDbLine
 10
118.3676287261395
 20
112.8845551252131
 30
0.000000000000000
 11
118.9964396868841
 21
113.7399977164498
 31
0.000000000000000
  0
LINE
  5
81
100
AcDbEntity
  8
A1
  6
CONTINUOUS
 62
7
100
AcDbLine
 10
113.9038102931269
 20
130.5000000000001
 30
0.000000000000000
 11
132.7000000000003
 21
130.5000000000001
 31
0.000000000000000
  0
LINE
  5
82
100
AcDbEntity
  8
A1
  6
CONTINUOUS
 62
7
100
AcDbLine
 10
127.1827930000003
 20
124.8768190000001
 30
0.000000000000000
 11
120.9829152744489
 21
116.4424248847712
 31
0.000000000000000
  0
LINE
  5
83
100
AcDbEntity
  8
A1
  6
CONTINUOUS
 62
7
100
AcDbLine
 10
133.7000000000003
 20
126.0999980000001
 30
0.000000000000000
 11
133.7000000000003
 21
129.5000000000002
 31
0.000000000000000
  0
LINE
  5
84
100
AcDbEntity
  8
A1
  6
CONTINUOUS
 62
7
100
AcDbLine
 10
133.7000000000003
 20
126.0999980000001
 30
0.000000000000000
 11
129.5999910549511
 21
126.0999980000001
 31
0.000000000000000
  0
LINE
  5
85
100
AcDbEntity
  8
A1
  6
CONTINUOUS
 62
7
100
AcDbLine
 10
118.9964396868840
 20
113.7399977164498
 30
0.000000000000000
 11
120.9829152744489
 21
116.4424248847712
 31
0.000000000000000
  0
ARC
  5
86
100
AcDbEntity
  8
A1
  6
CONTINUOUS
 62
7
100
AcDbCircle
 10
177.5858730000003
 20
112.5160450000000
 30
0.000000000000000
 40
6.602129000000000
100
AcDbArc
 50
11.60783400917096
 51
11.73979597282065
  0
ARC
  5
87
100
AcDbEntity
  8
A1
  6
CONTINUOUS
 62
7
100
AcDbCircle
 10
177.5858730000003
 20
112.5160450000000
 30
0.000000000000000
 40
6.602129000000000
100
AcDbArc
 50
0.000000000000000
 51
11.60783400917102
  0
ARC
  5
88
100
AcDbEntity
  8
A1
  6
CONTINUOUS
 62
7
100
AcDbCircle
 10
177.5858730000003
 20
112.4839550000001
 30
0.000000000000000
 40
6.602129000000000
100
AcDbArc
 50
337.4783900000002
 51
360.0000000000000
  0
ARC
  5
89
100
AcDbEntity
  8
A1
  6
CONTINUOUS
 62
7
100
AcDbCircle
 10
183.4997440000003
 20
110.0317320000001
 30
0.000000000000000
 40
0.2000000000000000
100
AcDbArc
 50
240.9812700000045
 51
337.4793991425639
  0
ARC
  5
8A
100
AcDbEntity
  8
A1
  6
CONTINUOUS
 62
7
100
AcDbCircle
 10
166.8395920000003
 20
112.5040840000000
 30
0.000000000000000
 40
3.366533000000000
100
AcDbArc
 50
155.0809387641351
 51
158.4354837050779
  0
ARC
  5
8B
100
AcDbEntity
  8
A1
  6
CONTINUOUS
 62
7
100
AcDbCircle
 10
166.8395920000003
 20
112.4959160000001
 30
0.000000000000000
 40
3.366533000000000
100
AcDbArc
 50
201.5645162949221
 51
242.7854994131696
  0
LINE
  5
8C
100
AcDbEntity
  8
A1
  6
CONTINUOUS
 62
7
100
AcDbLine
 10
167.5000000000003
 20
114.7500020000001
 30
0.000000000000000
 11
166.4999990000003
 21
114.7500020000001
 31
0.000000000000000
  0
LINE
  5
8D
100
AcDbEntity
  8
A1
  6
CONTINUOUS
 62
7
100
AcDbLine
 10
181.5000010000003
 20
114.7500020000001
 30
0.000000000000000
 11
180.5000000000003
 21
114.7500020000001
 31
0.000000000000000
  0
LINE
  5
8E
100
AcDbEntity
  8
A1
  6
CONTINUOUS
 62
7
100
AcDbLine
 10
180.5000000000003
 20
110.2499980000001
 30
0.000000000000000
 11
181.5000010000003
 21
110.2499980000001
 31
0.000000000000000
  0
LINE
  5
8F
100
AcDbEntity
  8
A1
  6
CONTINUOUS
 62
7
100
AcDbLine
 10
166.4999990000003
 20
110.2499980000001
 30
0.000000000000000
 11
167.5000000000003
 21
110.2499980000001
 31
0.000000000000000
  0
LINE
  5
90
100
AcDbEntity
  8
A1
  6
CONTINUOUS
 62
7
100
AcDbLine
 10
184.1880020000003
 20
112.4839550000001
 30
0.000000000000000
 11
184.1880020000003
 21
112.5160450000000
 31
0.000000000000000
  0
LINE
  5
91
100
AcDbEntity
  8
A1
  6
CONTINUOUS
 62
7
100
AcDbLine
 10
182.7000010000003
 20
110.2466600000000
 30
0.000000000000000
 11
183.4027248984669
 21
109.8568397647874
 31
0.000000000000000
  0
LINE
  5
92
100
AcDbEntity
  8
A1
  6
CONTINUOUS
 62
7
100
AcDbLine
 10
163.7087018680440
 20
111.2585512915540
 30
0.000000000000000
 11
163.7087018680440
 21
113.7414487084461
 31
0.000000000000000
  0
ARC
  5
93
100
AcDbEntity
  8
A1
  6
CONTINUOUS
 62
7
100
AcDbCircle
 10
181.8500000000003
 20
131.4844980000001
 30
0.000000000000000
 40
1.800000000000000
100
AcDbArc
 50
326.8424354717112
 51
347.6658778346562
  0
ARC
  5
94
100
AcDbEntity
  8
A1
  6
CONTINUOUS
 62
7
100
AcDbCircle
 10
166.1500000000003
 20
131.4844980000001
 30
0.000000000000000
 40
1.800000000000000
100
AcDbArc
 50
192.3341221653438
 51
213.1575645282888
  0
ARC
  5
95
100
AcDbEntity
  8
A1
  6
CONTINUOUS
 62
7
100
AcDbCircle
 10
167.2017005802924
 20
131.4844980000001
 30
0.000000000000000
 40
1.800000000000000
100
AcDbArc
 50
192.3341221653438
 51
213.1575645282888
  0
ARC
  5
96
100
AcDbEntity
  8
A1
  6
CONTINUOUS
 62
7
100
AcDbCircle
 10
180.7982994197081
 20
131.4844980000001
 30
0.000000000000000
 40
1.800000000000000
100
AcDbArc
 50
326.8424354717112
 51
347.6658778346562
  0
ARC
  5
97
100
AcDbEntity
  8
A1
  6
CONTINUOUS
 62
7
100
AcDbCircle
 10
170.0750000000003
 20
131.4844980000001
 30
0.000000000000000
 40
1.800000000000000
100
AcDbArc
 50
326.8424354717112
 51
347.6658778346562
  0
ARC
  5
98
100
AcDbEntity
  8
A1
  6
CONTINUOUS
 62
7
100
AcDbCircle
 10
170.0750000000003
 20
131.4844980000001
 30
0.000000000000000
 40
1.800000000000000
100
AcDbArc
 50
192.3341221653438
 51
213.1575645282888
  0
ARC
  5
99
100
AcDbEntity
  8
A1
  6
CONTINUOUS
 62
7
100
AcDbCircle
 10
177.9250000000003
 20
131.4844980000001
 30
0.000000000000000
 40
1.800000000000000
100
AcDbArc
 50
326.8424354717112
 51
347.6658778346562
  0
ARC
  5
9A
100
AcDbEntity
  8
A1
  6
CONTINUOUS
 62
7
100
AcDbCircle
 10
177.9250000000003
 20
131.4844980000001
 30
0.000000000000000
 40
1.800000000000000
100
AcDbArc
 50
192.3341221653438
 51
213.1575645282888
  0
ARC
  5
9B
100
AcDbEntity
  8
A1
  6
CONTINUOUS
 62
7
100
AcDbCircle
 10
174.0000000000003
 20
131.4844980000001
 30
0.000000000000000
 40
1.800000000000000
100
AcDbArc
 50
192.3341221653438
 51
213.1575645282888
  0
ARC
  5
9C
100
AcDbEntity
  8
A1
  6
CONTINUOUS
 62
7
100
AcDbCircle
 10
174.0000000000003
 20
131.4844980000001
 30
0.000000000000000
 40
1.800000000000000
100
AcDbArc
 50
326.8424354717112
 51
347.6658778346562
  0
ARC
  5
9D
100
AcDbEntity
  8
A1
  6
CONTINUOUS
 62
7
100
AcDbCircle
 10
185.3805027319768
 20
133.0999960000001
 30
0.000000000000000
 40
2.000000000000000
100
AcDbArc
 50
270.0000000000000
 51
333.2519142592067
  0
ARC
  5
9E
100
AcDbEntity
  8
A1
  6
CONTINUOUS
 62
7
100
AcDbCircle
 10
162.6194972680238
 20
133.0999960000001
 30
0.000000000000000
 40
2.000000000000000
100
AcDbArc
 50
206.7480857407933
 51
270.0000000000000
  0
ARC
  5
9F
100
AcDbEntity
  8
A1
  6
CONTINUOUS
 62
7
100
AcDbCircle
 10
159.8199253179259
 20
133.0999980000001
 30
0.000000000000000
 40
0.5000000000000000
100
AcDbArc
 50
26.74808574079327
 51
90.00000000000000
  0
ARC
  5
A0
100
AcDbEntity
  8
A1
  6
CONTINUOUS
 62
7
100
AcDbCircle
 10
188.1800746820746
 20
133.0999980000001
 30
0.000000000000000
 40
0.5000000000000000
100
AcDbArc
 50
90.00000000000000
 51
153.2519142592068
  0
LINE
  5
A1
100
AcDbEntity
  8
A1
  6
CONTINUOUS
 62
7
100
AcDbLine
 10
174.0000000000003
 20
131.0999960000001
 30
0.000000000000000
 11
162.6194972680238
 21
131.0999960000001
 31
0.000000000000000
  0
LINE
  5
A2
100
AcDbEntity
  8
A1
  6
CONTINUOUS
 62
7
100
AcDbLine
 10
185.3805027319768
 20
131.0999960000001
 30
0.000000000000000
 11
174.0000000000003
 21
131.0999960000001
 31
0.000000000000000
  0
LINE
  5
A3
100
AcDbEntity
  8
A1
  6
CONTINUOUS
 62
7
100
AcDbLine
 10
187.1664906934935
 20
132.1998587875054
 30
0.000000000000000
 11
187.7335776916955
 21
133.3250323031237
 31
0.000000000000000
  0
LINE
  5
A4
100
AcDbEntity
  8
A1
  6
CONTINUOUS
 62
7
100
AcDbLine
 10
160.2664223083051
 20
133.3250323031237
 30
0.000000000000000
 11
160.8335093065071
 21
132.1998587875054
 31
0.000000000000000
  0
LINE
  5
A5
100
AcDbEntity
  8
A1
  6
CONTINUOUS
 62
7
100
AcDbLine
 10
163.5454547898517
 20
133.5999980000001
 30
0.000000000000000
 11
184.4545455027023
 21
133.5999980000001
 31
0.000000000000000
  0
LINE
  5
A6
100
AcDbEntity
  8
A1
  6
CONTINUOUS
 62
7
100
AcDbLine
 10
163.5454547898517
 20
134.9999980000001
 30
0.000000000000000
 11
184.4545455027023
 21
134.9999980000001
 31
0.000000000000000
  0
LINE
  5
A7
100
AcDbEntity
  8
A1
  6
CONTINUOUS
 62
7
100
AcDbLine
 10
184.4545455027023
 20
133.5999980000001
 30
0.000000000000000
 11
189.0000000000003
 21
133.5999980000001
 31
0.000000000000000
  0
LINE
  5
A8
100
AcDbEntity
  8
A1
  6
CONTINUOUS
 62
7
100
AcDbLine
 10
189.0000000000003
 20
133.5999980000001
 30
0.000000000000000
 11
189.0000000000003
 21
134.9999980000001
 31
0.000000000000000
  0
LINE
  5
A9
100
AcDbEntity
  8
A1
  6
CONTINUOUS
 62
7
100
AcDbLine
 10
184.4545455027023
 20
134.9999980000001
 30
0.000000000000000
 11
189.0000000000003
 21
134.9999980000001
 31
0.000000000000000
  0
LINE
  5
AA
100
AcDbEntity
  8
A1
  6
CONTINUOUS
 62
7
100
AcDbLine
 10
159.0000000000003
 20
133.5999980000001
 30
0.000000000000000
 11
163.5454547898516
 21
133.5999980000001
 31
0.000000000000000
  0
LINE
  5
AB
100
AcDbEntity
  8
A1
  6
CONTINUOUS
 62
7
100
AcDbLine
 10
159.0000000000003
 20
134.9999980000001
 30
0.000000000000000
 11
163.5454547898516
 21
134.9999980000001
 31
0.000000000000000
  0
LINE
  5
AC
100
AcDbEntity
  8
A1
  6
CONTINUOUS
 62
7
100
AcDbLine
 10
159.0000000000003
 20
133.5999980000001
 30
0.000000000000000
 11
159.0000000000003
 21
134.9999980000001
 31
0.000000000000000
  0
ARC
  5
AD
100
AcDbEntity
  8
A1
  6
CONTINUOUS
 62
7
100
AcDbCircle
 10
168.0000000000003
 20
117.0000019999999
 30
0.000000000000000
 40
0.5000000000000000
100
AcDbArc
 50
89.99995999999879
 51
180.0000000000000
  0
ARC
  5
AE
100
AcDbEntity
  8
A1
  6
CONTINUOUS
 62
7
100
AcDbCircle
 10
168.0000000000003
 20
107.9999980000002
 30
0.000000000000000
 40
0.5000000000000000
100
AcDbArc
 50
180.0000000000000
 51
270.0000400000012
  0
ARC
  5
AF
100
AcDbEntity
  8
A1
  6
CONTINUOUS
 62
7
100
AcDbCircle
 10
180.0000000000003
 20
117.0000019999999
 30
0.000000000000000
 40
0.5000000000000000
100
AcDbArc
 50
1.384180000000000e-11
 51
90.00000000000000
  0
ARC
  5
B0
100
AcDbEntity
  8
A1
  6
CONTINUOUS
 62
7
100
AcDbCircle
 10
180.0000000000003
 20
107.9999980000002
 30
0.000000000000000
 40
0.5000000000000000
100
AcDbArc
 50
270.0000000000000
 51
359.9999999999866
  0
ARC
  5
B1
100
AcDbEntity
  8
A1
  6
CONTINUOUS
 62
7
100
AcDbCircle
 10
169.0000000000003
 20
123.4733891886111
 30
0.000000000000000
 40
1.000000000000000
100
AcDbArc
 50
102.0246991805664
 51
180.0000000000000
  0
ARC
  5
B2
100
AcDbEntity
  8
A1
  6
CONTINUOUS
 62
7
100
AcDbCircle
 10
169.0000000000003
 20
101.5266108113891
 30
0.000000000000000
 40
1.000000000000000
100
AcDbArc
 50
180.0000000000000
 51
257.9753008194336
  0
ARC
  5
B3
100
AcDbEntity
  8
A1
  6
CONTINUOUS
 62
7
100
AcDbCircle
 10
179.0000000000003
 20
123.4733891886111
 30
0.000000000000000
 40
1.000000000000000
100
AcDbArc
 50
0.0001037849447383000
 51
77.97530081943330
  0
ARC
  5
B4
100
AcDbEntity
  8
A1
  6
CONTINUOUS
 62
7
100
AcDbCircle
 10
179.0000000000003
 20
101.5266108113891
 30
0.000000000000000
 40
1.000000000000000
100
AcDbArc
 50
282.0246991805667
 51
359.9998962150553
  0
ARC
  5
B5
100
AcDbEntity
  8
A1
  6
CONTINUOUS
 62
7
100
AcDbCircle
 10
174.0000000000003
 20
125.0000000000001
 30
0.000000000000000
 40
25.00000000000000
100
AcDbArc
 50
257.9753008194342
 51
282.0246991805659
  0
ARC
  5
B6
100
AcDbEntity
  8
A1
  6
CONTINUOUS
 62
7
100
AcDbCircle
 10
174.0000000000003
 20
100.0000000000001
 30
0.000000000000000
 40
25.00000000000000
100
AcDbArc
 50
77.97530081943417
 51
102.0246991805658
  0
LINE
  5
B7
100
AcDbEntity
  8
A1
  6
CONTINUOUS
 62
7
100
AcDbLine
 10
167.5000000000003
 20
107.9999980000002
 30
0.000000000000000
 11
167.5000000000003
 21
117.0000019999999
 31
0.000000000000000
  0
LINE
  5
B8
100
AcDbEntity
  8
A1
  6
CONTINUOUS
 62
7
100
AcDbLine
 10
180.5000000000003
 20
107.9999980000001
 30
0.000000000000000
 11
180.5000000000003
 21
117.0000020000001
 31
0.000000000000000
  0
LINE
  5
B9
100
AcDbEntity
  8
A1
  6
CONTINUOUS
 62
7
100
AcDbLine
 10
168.0000000000003
 20
101.5266108113891
 30
0.000000000000000
 11
168.0000000000003
 21
123.4733891886111
 31
0.000000000000000
  0
LINE
  5
BA
100
AcDbEntity
  8
A1
  6
CONTINUOUS
 62
7
100
AcDbLine
 10
180.0000000000003
 20
101.5266090000001
 30
0.000000000000000
 11
180.0000000000003
 21
123.4733910000000
 31
0.000000000000000
  0
SPLINE
  5
BB
100
AcDbEntity
  8
A1
  6
CONTINUOUS
 62
7
100
AcDbSpline
210
0.000000000000000
220
0.000000000000000
230
1.000000000000000
 70
     8
 71
     3
 72
     9
 73
     5
 74
     0
 42
1.000000000000000e-07
 43
1.000000000000000e-07
 12
-0.1606520818941135
 22
0.9870110985102656
 32
0.000000000000000
 13
0.02286228680463864
 23
0.9997386237623687
 33
0.000000000000000
 40
0.000000000000000
 40
0.000000000000000
 40
0.000000000000000
 40
0.000000000000000
 40
0.1702421770592497
 40
0.4949366464188565
 40
0.4949366464188565
 40
0.4949366464188565
 40
0.4949366464188565
 10
163.0401125704574
 20
117.1452138028855
 30
0.000000000000000
 10
163.0309959837338
 20
117.2012241089495
 30
0.000000000000000
 10
163.0096220827836
 20
117.3649017985993
 30
0.000000000000000
 10
163.0034874618622
 20
117.5302907086382
 30
0.000000000000000
 10
163.0059618812230
 20
117.6384939092852
 30
0.000000000000000
  0
SPLINE
  5
BC
100
AcDbEntity
  8
A1
  6
CONTINUOUS
 62
7
100
AcDbSpline
210
0.000000000000000
220
0.000000000000000
230
1.000000000000000
 70
     8
 71
     3
 72
    18
 73
    14
 74
     0
 42
1.000000000000000e-07
 43
1.000000000000000e-07
 12
-0.1629211676427076
 22
-0.9866390896036137
 32
0.000000000000000
 13
-0.9213978865236641
 23
-0.3886205536377929
 33
0.000000000000000
 40
0.000000000000000
 40
0.000000000000000
 40
0.000000000000000
 40
0.000000000000000
 40
0.1140444666173456
 40
0.4339304648944763
 40
0.7582720304830800
 40
1.030046200579200
 40
1.306688009658383
 40
1.599454235650539
 40
1.898609041700769
 40
2.128489924097248
 40
2.362147727417326
 40
2.606008027380104
 40
2.853538221281050
 40
2.853538221281050
 40
2.853538221281050
 40
2.853538221281050
 10
184.9599002844230
 20
117.1452916119440
 30
0.000000000000000
 10
184.9537068652014
 20
117.1077847023714
 30
0.000000000000000
 10
184.9269944698778
 20
116.9655915542526
 30
0.000000000000000
 10
184.8593029734912
 20
116.7213263983481
 30
0.000000000000000
 10
184.7416247584932
 20
116.4387148943288
 30
0.000000000000000
 10
184.5995905313487
 20
116.1842549728030
 30
0.000000000000000
 10
184.4385239223242
 20
115.9541436559671
 30
0.000000000000000
 10
184.2484942304008
 20
115.7350244676425
 30
0.000000000000000
 10
184.0483954718242
 20
115.5472129290851
 30
0.000000000000000
 10
183.8480463001814
 20
115.3903346678247
 30
0.000000000000000
 10
183.6517973792370
 20
115.2592023916397
 30
0.000000000000000
 10
183.4410015023680
 20
115.1405285402100
 30
0.000000000000000
 10
183.2924567682923
 20
115.0710677907812
 30
0.000000000000000
 10
183.2164321691220
 20
115.0390026837826
 30
0.000000000000000
  0
SPLINE
  5
BD
100
AcDbEntity
  8
A1
  6
CONTINUOUS
 62
7
100
AcDbSpline
210
0.000000000000000
220
0.000000000000000
230
1.000000000000000
 70
     8
 71
     3
 72
     9
 73
     5
 74
     0
 42
1.000000000000000e-07
 43
1.000000000000000e-07
 12
0.02443271448419182
 22
-0.9997014766734083
 32
0.000000000000000
 13
-0.1621166355580499
 23
-0.9867716029939402
 33
0.000000000000000
 40
0.000000000000000
 40
0.000000000000000
 40
0.000000000000000
 40
0.000000000000000
 40
0.3038639895695665
 40
0.4948987246761489
 40
0.4948987246761489
 40
0.4948987246761489
 40
0.4948987246761489
 10
184.9940381187776
 20
117.6384939092852
 30
0.000000000000000
 10
184.9965128594773
 20
117.5372361495916
 30
0.000000000000000
 10
184.9911204731749
 20
117.3718975955939
 30
0.000000000000000
 10
184.9702235872664
 20
117.2081274958735
 30
0.000000000000000
 10
184.9599002844230
 20
117.1452916119440
 30
0.000000000000000
  0
SPLINE
  5
BE
100
AcDbEntity
  8
A1
  6
CONTINUOUS
 62
7
100
AcDbSpline
210
0.000000000000000
220
0.000000000000000
230
1.000000000000000
 70
     8
 71
     3
 72
    17
 73
    13
 74
     0
 42
1.000000000000000e-07
 43
1.000000000000000e-07
 12
-0.9211732872336142
 22
-0.3891526370036900
 32
0.000000000000000
 13
-0.0009669662108535704
 23
-0.9999995324881183
 33
0.000000000000000
 40
0.000000000000000
 40
0.000000000000000
 40
0.000000000000000
 40
0.000000000000000
 40
0.3353207466240835
 40
0.6647370515739597
 40
0.9857119342037873
 40
1.298101864353911
 40
1.604287841543933
 40
1.903118430505386
 40
2.213795275587998
 40
2.520306809844366
 40
2.822363711232506
 40
3.082436485279725
 40
3.082436485279725
 40
3.082436485279725
 40
3.082436485279725
 10
183.2164321691224
 20
115.0390026837829
 30
0.000000000000000
 10
183.1134693309739
 20
114.9955056995193
 30
0.000000000000000
 10
182.9137520046926
 20
114.8984139299816
 30
0.000000000000000
 10
182.6344214721752
 20
114.7243255495033
 30
0.000000000000000
 10
182.3809683883405
 20
114.5264220601565
 30
0.000000000000000
 10
182.1564771511994
 20
114.3071337610515
 30
0.000000000000000
 10
181.9621304199644
 20
114.0702197121168
 30
0.000000000000000
 10
181.7960736023986
 20
113.8132902411420
 30
0.000000000000000
 10
181.6628927761820
 20
113.5375863928631
 30
0.000000000000000
 10
181.5657790520494
 20
113.2460644293748
 30
0.000000000000000
 10
181.5111628818865
 20
112.9608062179436
 30
0.000000000000000
 10
181.5000848271952
 20
112.7732467168055
 30
0.000000000000000
 10
181.5000010000003
 20
112.6865558326522
 30
0.000000000000000
  0
SPLINE
  5
BF
100
AcDbEntity
  8
A1
  6
CONTINUOUS
 62
7
100
AcDbSpline
210
0.000000000000000
220
0.000000000000000
230
1.000000000000000
 70
     8
 71
     3
 72
    14
 73
    10
 74
     0
 42
1.000000000000000e-07
 43
1.000000000000000e-07
 12
0.005891821944715048
 22
0.9999826430664598
 32
0.000000000000000
 13
0.9568632160007837
 23
0.2905387854741548
 33
0.000000000000000
 40
0.000000000000000
 40
0.000000000000000
 40
0.000000000000000
 40
0.000000000000000
 40
0.3013708841073980
 40
0.6071749400457453
 40
0.9214908862012108
 40
1.246763306279557
 40
1.579558530387530
 40
1.924493315511847
 40
2.241326594859758
 40
2.241326594859758
 40
2.241326594859758
 40
2.241326594859758
 10
182.7000010000003
 20
112.2392478128718
 30
0.000000000000000
 10
182.7005928745298
 20
112.3397030306161
 30
0.000000000000000
 10
182.7215795213488
 20
112.5426410677065
 30
0.000000000000000
 10
182.8163422177605
 20
112.8370448213644
 30
0.000000000000000
 10
182.9716530374531
 20
113.1134916699390
 30
0.000000000000000
 10
183.1810343987113
 20
113.3633123773144
 30
0.000000000000000
 10
183.4398683058187
 20
113.5776128235573
 30
0.000000000000000
 10
183.7280632165218
 20
113.7443977743300
 30
0.000000000000000
 10
183.9346968546628
 20
113.8242505306379
 30
0.000000000000000
 10
184.0357522248671
 20
113.8549346493644
 30
0.000000000000000
  0
SPLINE
  5
C0
100
AcDbEntity
  8
A1
  6
CONTINUOUS
 62
7
100
AcDbSpline
210
0.000000000000000
220
0.000000000000000
230
1.000000000000000
 70
     8
 71
     3
 72
    17
 73
    13
 74
     0
 42
1.000000000000000e-07
 43
1.000000000000000e-07
 12
0.9564123887560072
 22
0.2920194216719665
 32
0.000000000000000
 13
0.03259969043665478
 23
0.9994684888397387
 33
0.000000000000000
 40
0.000000000000000
 40
0.000000000000000
 40
0.000000000000000
 40
0.000000000000000
 40
0.4565468250853336
 40
0.9021375976595968
 40
1.225007280154428
 40
1.541707917157944
 40
1.850616093877856
 40
2.174724197301208
 40
2.493020680171409
 40
2.804860678709464
 40
3.200772756218262
 40
3.592790939335921
 40
3.592790939335921
 40
3.592790939335921
 40
3.592790939335921
 10
184.0357522248671
 20
113.8549346493644
 30
0.000000000000000
 10
184.1813012380534
 20
113.8993748293069
 30
0.000000000000000
 10
184.4633826138942
 20
114.0064291523018
 30
0.000000000000000
 10
184.8242432634384
 20
114.2001126626914
 30
0.000000000000000
 10
185.1206156192133
 20
114.4085595082150
 30
0.000000000000000
 10
185.3598380677082
 20
114.6161144949766
 30
0.000000000000000
 10
185.5766013506796
 20
114.8476508999040
 30
0.000000000000000
 10
185.7662035111840
 20
115.1027437914840
 30
0.000000000000000
 10
185.9253658127222
 20
115.3789821655125
 30
0.000000000000000
 10
186.0601685559713
 20
115.6941874447802
 30
0.000000000000000
 10
186.1562769546160
 20
116.0495218198733
 30
0.000000000000000
 10
186.1847771259053
 20
116.3118216110785
 30
0.000000000000000
 10
186.1890370163770
 20
116.4424248847712
 30
0.000000000000000
  0
SPLINE
  5
C1
100
AcDbEntity
  8
A1
  6
CONTINUOUS
 62
7
100
AcDbSpline
210
0.000000000000000
220
0.000000000000000
230
1.000000000000000
 70
     8
 71
     3
 72
    17
 73
    13
 74
     0
 42
1.000000000000000e-07
 43
1.000000000000000e-07
 12
-0.002954393189838811
 22
0.9999956357705742
 32
0.000000000000000
 13
-0.9214244956951916
 23
0.3885574587270639
 33
0.000000000000000
 40
0.000000000000000
 40
0.000000000000000
 40
0.000000000000000
 40
0.000000000000000
 40
0.3063726329078018
 40
0.6158201445719930
 40
0.9282511187335224
 40
1.246364286622302
 40
1.572402459389769
 40
1.905222817849266
 40
2.244627151490267
 40
2.593804687626782
 40
2.949960753071901
 40
3.082218393226561
 40
3.082218393226561
 40
3.082218393226561
 40
3.082218393226561
 10
166.4999990000003
 20
112.6865558326523
 30
0.000000000000000
 10
166.4996972849269
 20
112.7886795979281
 30
0.000000000000000
 10
166.4852471687430
 20
112.9942223315903
 30
0.000000000000000
 10
166.4203136168895
 20
113.2977015660899
 30
0.000000000000000
 10
166.3142156565650
 20
113.5935262403004
 30
0.000000000000000
 10
166.1669702582016
 20
113.8773724368307
 30
0.000000000000000
 10
165.9815883772884
 20
114.1460988137821
 30
0.000000000000000
 10
165.7603190591559
 20
114.3957282638916
 30
0.000000000000000
 10
165.5047532578983
 20
114.6218769635777
 30
0.000000000000000
 10
165.2188056018759
 20
114.8218952083856
 30
0.000000000000000
 10
164.9728749143870
 20
114.9554652133249
 30
0.000000000000000
 10
164.8241896394264
 20
115.0218727867903
 30
0.000000000000000
 10
164.7835678296327
 20
115.0390026843089
 30
0.000000000000000
  0
SPLINE
  5
C2
100
AcDbEntity
  8
A1
  6
CONTINUOUS
 62
7
100
AcDbSpline
210
0.000000000000000
220
0.000000000000000
230
1.000000000000000
 70
     8
 71
     3
 72
    17
 73
    13
 74
     0
 42
1.000000000000000e-07
 43
1.000000000000000e-07
 12
-0.9214123107071828
 22
0.3885863529224025
 32
0.000000000000000
 13
-0.1649808964598378
 23
0.9862967625431338
 33
0.000000000000000
 40
0.000000000000000
 40
0.000000000000000
 40
0.000000000000000
 40
0.000000000000000
 40
0.2659479164952493
 40
0.5276361487226456
 40
0.8380154134191513
 40
1.142509007355688
 40
1.439621788581252
 40
1.754606416971729
 40
2.064001330014907
 40
2.367241308335810
 40
2.696400215375541
 40
2.853220073667765
 40
2.853220073667765
 40
2.853220073667765
 40
2.853220073667765
 10
164.7835678296327
 20
115.0390026843089
 30
0.000000000000000
 10
164.7018852682108
 20
115.0734505946216
 30
0.000000000000000
 10
164.5425719675528
 20
115.1485128811185
 30
0.000000000000000
 10
164.3000596600083
 20
115.2877199884156
 30
0.000000000000000
 10
164.0607588477145
 20
115.4562842748535
 30
0.000000000000000
 10
163.8307596197760
 20
115.6558478988321
 30
0.000000000000000
 10
163.6212701110563
 20
115.8790139703657
 30
0.000000000000000
 10
163.4368788040354
 20
116.1255463989316
 30
0.000000000000000
 10
163.2808851703752
 20
116.3932972812763
 30
0.000000000000000
 10
163.1547690516787
 20
116.6815571969863
 30
0.000000000000000
 10
163.0802403411310
 20
116.9346773341200
 30
0.000000000000000
 10
163.0487366640586
 20
117.0936568300401
 30
0.000000000000000
 10
163.0401125704574
 20
117.1452138028855
 30
0.000000000000000
  0
SPLINE
  5
C3
100
AcDbEntity
  8
A1
  6
CONTINUOUS
 62
7
100
AcDbSpline
210
0.000000000000000
220
0.000000000000000
230
1.000000000000000
 70
     8
 71
     3
 72
    18
 73
    14
 74
     0
 42
1.000000000000000e-07
 43
1.000000000000000e-07
 12
0.03284416104816046
 22
-0.9994604850044198
 32
0.000000000000000
 13
0.9886507801577409
 23
-0.1502319369951692
 33
0.000000000000000
 40
0.000000000000000
 40
0.000000000000000
 40
0.000000000000000
 40
0.000000000000000
 40
0.3407494561706548
 40
0.6851877601624202
 40
1.033269600197322
 40
1.389316559983647
 40
1.755021390374672
 40
2.128889065196859
 40
2.488625440486771
 40
2.858662552025903
 40
3.235731471975971
 40
3.670219836122167
 40
4.111922271756100
 40
4.111922271756100
 40
4.111922271756100
 40
4.111922271756100
 10
161.8109629836236
 20
116.4424248847712
 30
0.000000000000000
 10
161.8146935269621
 20
116.3289030125281
 30
0.000000000000000
 10
161.8372681005494
 20
116.1008122411696
 30
0.000000000000000
 10
161.9175465481441
 20
115.7648513732522
 30
0.000000000000000
 10
162.0438675637993
 20
115.4377781546108
 30
0.000000000000000
 10
162.2175115848275
 20
115.1250485317718
 30
0.000000000000000
 10
162.4354977030409
 20
114.8307970424799
 30
0.000000000000000
 10
162.6900830782592
 20
114.5658084788415
 30
0.000000000000000
 10
162.9767230796883
 20
114.3338764102736
 30
0.000000000000000
 10
163.2885872896289
 20
114.1353133120784
 30
0.000000000000000
 10
163.6430441530225
 20
113.9616892957598
 30
0.000000000000000
 10
164.0385675463359
 20
113.8239663236775
 30
0.000000000000000
 10
164.3248887257729
 20
113.7621169872767
 30
0.000000000000000
 10
164.4704518783020
 20
113.7399977164498
 30
0.000000000000000
  0
SPLINE
  5
C4
100
AcDbEntity
  8
A1
  6
CONTINUOUS
 62
7
100
AcDbSpline
210
0.000000000000000
220
0.000000000000000
230
1.000000000000000
 70
     8
 71
     3
 72
    16
 73
    12
 74
     0
 42
1.000000000000000e-07
 43
1.000000000000000e-07
 12
0.9886672772536258
 22
-0.1501233322569533
 32
0.000000000000000
 13
0.0007976450096975896
 23
-0.9999996818814907
 33
0.000000000000000
 40
0.000000000000000
 40
0.000000000000000
 40
0.000000000000000
 40
0.000000000000000
 40
0.1612727192440632
 40
0.3193069322568723
 40
0.4725591150961281
 40
0.6210444607469301
 40
0.7715757538022354
 40
0.9172890658086391
 40
1.069246180094986
 40
1.218267872582946
 40
1.295715953247622
 40
1.295715953247622
 40
1.295715953247622
 40
1.295715953247622
 10
164.4704518783020
 20
113.7399977164498
 30
0.000000000000000
 10
164.5236002317121
 20
113.7319274504448
 30
0.000000000000000
 10
164.6278191155884
 20
113.7083183165982
 30
0.000000000000000
 10
164.7754890029208
 20
113.6519586542056
 30
0.000000000000000
 10
164.9093907818195
 20
113.5762376602508
 30
0.000000000000000
 10
165.0287288382836
 20
113.4831732204865
 30
0.000000000000000
 10
165.1299088862815
 20
113.3738940911561
 30
0.000000000000000
 10
165.2123056483039
 20
113.2483947823356
 30
0.000000000000000
 10
165.2702138210867
 20
113.1102434850063
 30
0.000000000000000
 10
165.2961040379427
 20
112.9858978653658
 30
0.000000000000000
 10
165.2999784079753
 20
112.9103711438888
 30
0.000000000000000
 10
165.2999990000003
 20
112.8845551252131
 30
0.000000000000000
  0
SPLINE
  5
C5
100
AcDbEntity
  8
A1
  6
CONTINUOUS
 62
7
100
AcDbSpline
210
0.000000000000000
220
0.000000000000000
230
1.000000000000000
 70
     8
 71
     3
 72
    16
 73
    12
 74
     0
 42
1.000000000000000e-07
 43
1.000000000000000e-07
 12
0.9999484635675344
 22
0.01015234994588354
 32
0.000000000000000
 13
0.4034045566140776
 23
-0.9150217285409781
 33
0.000000000000000
 40
0.000000000000000
 40
0.000000000000000
 40
0.000000000000000
 40
0.000000000000000
 40
0.3650062751372372
 40
0.7164872593688589
 40
1.000339657740603
 40
1.283624971684678
 40
1.570665386236056
 40
1.820174951345234
 40
2.082182967540851
 40
2.357957571416973
 40
2.479121121902695
 40
2.479121121902695
 40
2.479121121902695
 40
2.479121121902695
 10
181.4424555698856
 20
126.0999980000001
 30
0.000000000000000
 10
181.5641180578909
 20
126.1012332238126
 30
0.000000000000000
 10
181.8032423015952
 20
126.0871560710491
 30
0.000000000000000
 10
182.1323906245853
 20
126.0272574513957
 30
0.000000000000000
 10
182.4228700789039
 20
125.9269514182457
 30
0.000000000000000
 10
182.6759880139857
 20
125.7940783357953
 30
0.000000000000000
 10
182.8952014351084
 20
125.6286744990263
 30
0.000000000000000
 10
183.0806346210106
 20
125.4365592113845
 30
0.000000000000000
 10
183.2371515965553
 20
125.2250577517930
 30
0.000000000000000
 10
183.3457158631089
 20
125.0335184176139
 30
0.000000000000000
 10
183.4020863960473
 20
124.9137747604673
 30
0.000000000000000
 10
183.4183790388345
 20
124.8768190000001
 30
0.000000000000000
  0
SPLINE
  5
C6
100
AcDbEntity
  8
A1
  6
CONTINUOUS
 62
7
100
AcDbSpline
210
0.000000000000000
220
0.000000000000000
230
1.000000000000000
 70
     8
 71
     3
 72
    16
 73
    12
 74
     0
 42
1.000000000000000e-07
 43
1.000000000000000e-07
 12
0.4004982420308352
 22
0.9162975270783136
 32
0.000000000000000
 13
0.9999824348806214
 23
-0.005927050685158974
 33
0.000000000000000
 40
0.000000000000000
 40
0.000000000000000
 40
0.000000000000000
 40
0.000000000000000
 40
0.2752833352746468
 40
0.5358227585279571
 40
0.7777462794063108
 40
1.011199427023223
 40
1.238428998114001
 40
1.563470204543416
 40
1.893369006881516
 40
2.232123353914098
 40
2.479232055016936
 40
2.479232055016936
 40
2.479232055016936
 40
2.479232055016936
 10
164.5816209611661
 20
124.8768190000001
 30
0.000000000000000
 10
164.6183711251120
 20
124.9608994797861
 30
0.000000000000000
 10
164.6995639621500
 20
125.1204598834567
 30
0.000000000000000
 10
164.8412829178081
 20
125.3382092375861
 30
0.000000000000000
 10
165.0004358274959
 20
125.5257749425940
 30
0.000000000000000
 10
165.1740594041125
 20
125.6839310415474
 30
0.000000000000000
 10
165.3896840993801
 20
125.8338969192974
 30
0.000000000000000
 10
165.6566025587744
 20
125.9612964958457
 30
0.000000000000000
 10
165.9764522597228
 20
126.0523279398684
 30
0.000000000000000
 10
166.2798178248548
 20
126.0929640364676
 30
0.000000000000000
 10
166.4751763099120
 20
126.1004862085988
 30
0.000000000000000
 10
166.5575444301150
 20
126.0999980000001
 30
0.000000000000000
  0
SPLINE
  5
C7
100
AcDbEntity
  8
A1
  6
CONTINUOUS
 62
7
100
AcDbSpline
210
0.000000000000000
220
0.000000000000000
230
1.000000000000000
 70
     8
 71
     3
 72
    16
 73
    12
 74
     0
 42
1.000000000000000e-07
 43
1.000000000000000e-07
 12
0.3531330583573435
 22
0.9355731094333350
 32
0.000000000000000
 13
0.9999697925345572
 23
-0.007772645482191365
 33
0.000000000000000
 40
0.000000000000000
 40
0.000000000000000
 40
0.000000000000000
 40
0.000000000000000
 40
0.3088285101090814
 40
0.5506936747716639
 40
0.7794939841554464
 40
0.9964702747726367
 40
1.226495829936003
 40
1.451719952849881
 40
1.675491614468126
 40
1.944900892061328
 40
2.222669022569364
 40
2.222669022569364
 40
2.222669022569364
 40
2.222669022569364
 10
163.2043590408376
 20
124.8768190000001
 30
0.000000000000000
 10
163.2407115595985
 20
124.9731295498282
 30
0.000000000000000
 10
163.3165857910151
 20
125.1408802960866
 30
0.000000000000000
 10
163.4484046408483
 20
125.3652839147097
 30
0.000000000000000
 10
163.5870546696652
 20
125.5485374159288
 30
0.000000000000000
 10
163.7448264977594
 20
125.7102320910587
 30
0.000000000000000
 10
163.9237516643728
 20
125.8466288105913
 30
0.000000000000000
 10
164.1232181552592
 20
125.9553591613633
 30
0.000000000000000
 10
164.3488249462532
 20
126.0381627280061
 30
0.000000000000000
 10
164.6016991447859
 20
126.0888986681044
 30
0.000000000000000
 10
164.7843577417352
 20
126.1007176644016
 30
0.000000000000000
 10
164.8769443216808
 20
126.0999980000001
 30
0.000000000000000
  0
SPLINE
  5
C8
100
AcDbEntity
  8
A1
  6
CONTINUOUS
 62
7
100
AcDbSpline
210
0.000000000000000
220
0.000000000000000
230
1.000000000000000
 70
     8
 71
     3
 72
    16
 73
    12
 74
     0
 42
1.000000000000000e-07
 43
1.000000000000000e-07
 12
0.9999888886227382
 22
0.004714088509444991
 32
0.000000000000000
 13
0.3547694876174319
 23
-0.9349538013484562
 33
0.000000000000000
 40
0.000000000000000
 40
0.000000000000000
 40
0.000000000000000
 40
0.000000000000000
 40
0.2128261853886683
 40
0.4203056261470790
 40
0.6830708724953214
 40
0.9457993220875871
 40
1.213604965039065
 40
1.450652954809291
 40
1.701989275181082
 40
1.969111236251890
 40
2.222480827712666
 40
2.222480827712666
 40
2.222480827712666
 40
2.222480827712666
 10
183.1230556783197
 20
126.0999980000001
 30
0.000000000000000
 10
183.1939969518519
 20
126.1003324271584
 30
0.000000000000000
 10
183.3342171680775
 20
126.0935080208856
 30
0.000000000000000
 10
183.5598226846701
 20
126.0600316159067
 30
0.000000000000000
 10
183.7954319009316
 20
125.9912442733231
 30
0.000000000000000
 10
184.0344492113187
 20
125.8751271236829
 30
0.000000000000000
 10
184.2423653484076
 20
125.7235401018722
 30
0.000000000000000
 10
184.4190960190379
 20
125.5426021403422
 30
0.000000000000000
 10
184.5693713417072
 20
125.3396059302236
 30
0.000000000000000
 10
184.6957113421776
 20
125.1148788645399
 30
0.000000000000000
 10
184.7656783591162
 20
124.9557819542275
 30
0.000000000000000
 10
184.7956409591630
 20
124.8768190000001
 30
0.000000000000000
  0
ELLIPSE
  5
C9
100
AcDbEntity
  8
A1
  6
CONTINUOUS
 62
7
100
AcDbEllipse
 10
174.0000000000003
 20
117.1458736557513
 30
0.000000000000000
 11
0.000000000000000
 21
14.96454274979502
 31
0.000000000000000
210
0.000000000000000
220
0.000000000000000
230
1.000000000000000
 40
0.7350709062026421
 41
4.745314094062673
 42
5.255284733849667
  0
ELLIPSE
  5
CA
100
AcDbEntity
  8
A1
  6
CONTINUOUS
 62
7
100
AcDbEllipse
 10
174.0000000000003
 20
117.1458736557513
 30
0.000000000000000
 11
0.000000000000000
 21
14.96454274979502
 31
0.000000000000000
210
0.000000000000000
220
0.000000000000000
230
1.000000000000000
 40
0.7350709062026421
 41
1.027900573329920
 42
1.537871213116915
  0
ELLIPSE
  5
CB
100
AcDbEntity
  8
A1
  6
CONTINUOUS
 62
7
100
AcDbEllipse
 10
174.0000000000003
 20
117.1458736557513
 30
0.000000000000000
 11
0.000000000000000
 21
16.59703832249989
 31
0.000000000000000
210
0.000000000000000
220
0.000000000000000
230
1.000000000000000
 40
0.7350709062026436
 41
1.086254806540365
 42
1.570796326794897
  0
ELLIPSE
  5
CC
100
AcDbEntity
  8
A1
  6
CONTINUOUS
 62
7
100
AcDbEllipse
 10
174.0000000000003
 20
117.1458736557513
 30
0.000000000000000
 11
0.000000000000000
 21
16.59703832249989
 31
0.000000000000000
210
0.000000000000000
220
0.000000000000000
230
1.000000000000000
 40
0.7350709062026436
 41
4.669992286429327
 42
4.712388980384690
  0
ELLIPSE
  5
CD
100
AcDbEntity
  8
A1
  6
CONTINUOUS
 62
7
100
AcDbEllipse
 10
174.0000000000003
 20
117.1458736557513
 30
0.000000000000000
 11
0.000000000000000
 21
16.59703832249989
 31
0.000000000000000
210
0.000000000000000
220
0.000000000000000
230
1.000000000000000
 40
0.7350709062026436
 41
1.570796326794897
 42
1.613193020750258
  0
ELLIPSE
  5
CE
100
AcDbEntity
  8
A1
  6
CONTINUOUS
 62
7
100
AcDbEllipse
 10
174.0000000000003
 20
117.1458736557513
 30
0.000000000000000
 11
0.000000000000000
 21
16.59703832249989
 31
0.000000000000000
210
0.000000000000000
220
0.000000000000000
230
1.000000000000000
 40
0.7350709062026436
 41
4.712388980384690
 42
5.196930500639221
  0
ARC
  5
CF
100
AcDbEntity
  8
A1
  6
CONTINUOUS
 62
7
100
AcDbCircle
 10
173.9506762461545
 20
150.5106222034842
 30
0.000000000000000
 40
24.91240498596498
100
AcDbArc
 50
279.4232863507428
 51
281.5150791295998
  0
ARC
  5
D0
100
AcDbEntity
  8
A1
  6
CONTINUOUS
 62
7
100
AcDbCircle
 10
173.9854781358264
 20
150.4890685345051
 30
0.000000000000000
 40
24.89046915280397
100
AcDbArc
 50
258.4830239741838
 51
260.7172824079641
  0
ARC
  5
D1
100
AcDbEntity
  8
A1
  6
CONTINUOUS
 62
7
100
AcDbCircle
 10
173.9701207369372
 20
150.4055351397545
 30
0.000000000000000
 40
24.80555249079276
100
AcDbArc
 50
260.7211671047031
 51
279.4187209910452
  0
ARC
  5
D2
100
AcDbEntity
  8
A1
  6
CONTINUOUS
 62
7
100
AcDbCircle
 10
185.2000000000003
 20
129.5000000000001
 30
0.000000000000000
 40
1.000000000000000
100
AcDbArc
 50
0.000000000000000
 51
90.00000000000000
  0
ARC
  5
D3
100
AcDbEntity
  8
A1
  6
CONTINUOUS
 62
7
100
AcDbCircle
 10
162.8000000000003
 20
129.5000000000001
 30
0.000000000000000
 40
1.000000000000000
100
AcDbArc
 50
90.00000000000000
 51
180.0000000000000
  0
LINE
  5
D4
100
AcDbEntity
  8
A1
  6
CONTINUOUS
 62
7
100
AcDbLine
 10
166.4999990000002
 20
126.0788377923473
 30
0.000000000000000
 11
166.5004304728507
 21
126.0996052351757
 31
0.000000000000000
  0
LINE
  5
D5
100
AcDbEntity
  8
A1
  6
CONTINUOUS
 62
7
100
AcDbLine
 10
166.4999990000003
 20
126.0978673544640
 30
0.000000000000000
 11
166.4999990000003
 21
119.6341571620031
 31
0.000000000000000
  0
LINE
  5
D6
100
AcDbEntity
  8
A1
  6
CONTINUOUS
 62
7
100
AcDbLine
 10
181.5000010000003
 20
119.6341571620031
 30
0.000000000000000
 11
181.5000010000003
 21
126.0967470758048
 31
0.000000000000000
  0
LINE
  5
D7
100
AcDbEntity
  8
A1
  6
CONTINUOUS
 62
7
100
AcDbLine
 10
165.2999990000003
 20
108.0000000000001
 30
0.000000000000000
 11
165.2999990000003
 21
109.8347640000000
 31
0.000000000000000
  0
LINE
  5
D8
100
AcDbEntity
  8
A1
  6
CONTINUOUS
 62
7
100
AcDbLine
 10
166.4999990000003
 20
108.0000000000001
 30
0.000000000000000
 11
166.4999990000003
 21
109.8347640000000
 31
0.000000000000000
  0
LINE
  5
D9
100
AcDbEntity
  8
A1
  6
CONTINUOUS
 62
7
100
AcDbLine
 10
166.4999990000003
 20
108.0000000000001
 30
0.000000000000000
 11
165.2999990000003
 21
108.0000000000001
 31
0.000000000000000
  0
LINE
  5
DA
100
AcDbEntity
  8
A1
  6
CONTINUOUS
 62
7
100
AcDbLine
 10
181.5000010000003
 20
109.8347640000000
 30
0.000000000000000
 11
181.5000010000003
 21
108.0000000000001
 31
0.000000000000000
  0
LINE
  5
DB
100
AcDbEntity
  8
A1
  6
CONTINUOUS
 62
7
100
AcDbLine
 10
182.7000010000003
 20
109.8347640000000
 30
0.000000000000000
 11
182.7000010000003
 21
108.0000000000001
 31
0.000000000000000
  0
LINE
  5
DC
100
AcDbEntity
  8
A1
  6
CONTINUOUS
 62
7
100
AcDbLine
 10
182.7000010000003
 20
108.0000000000001
 30
0.000000000000000
 11
181.5000010000003
 21
108.0000000000001
 31
0.000000000000000
  0
LINE
  5
DD
100
AcDbEntity
  8
A1
  6
CONTINUOUS
 62
7
100
AcDbLine
 10
181.5000010000003
 20
112.6865558326522
 30
0.000000000000000
 11
181.5000010000003
 21
119.6341571620031
 31
0.000000000000000
  0
LINE
  5
DE
100
AcDbEntity
  8
A1
  6
CONTINUOUS
 62
7
100
AcDbLine
 10
166.4999990000003
 20
112.6865558326523
 30
0.000000000000000
 11
166.4999990000003
 21
119.6341571620031
 31
0.000000000000000
  0
LINE
  5
DF
100
AcDbEntity
  8
A1
  6
CONTINUOUS
 62
7
100
AcDbLine
 10
181.5000010000003
 20
112.6865558326522
 30
0.000000000000000
 11
181.5000010000003
 21
109.8347640000001
 31
0.000000000000000
  0
LINE
  5
E0
100
AcDbEntity
  8
A1
  6
CONTINUOUS
 62
7
100
AcDbLine
 10
182.7000010000003
 20
112.2392478128718
 30
0.000000000000000
 11
182.7000010000003
 21
109.8347640000001
 31
0.000000000000000
  0
LINE
  5
E1
100
AcDbEntity
  8
A1
  6
CONTINUOUS
 62
7
100
AcDbLine
 10
166.4999990000003
 20
109.8347640000001
 30
0.000000000000000
 11
166.4999990000003
 21
112.6865558326523
 31
0.000000000000000
  0
LINE
  5
E2
100
AcDbEntity
  8
A1
  6
CONTINUOUS
 62
7
100
AcDbLine
 10
165.2999990000003
 20
109.8347640000001
 30
0.000000000000000
 11
165.2999990000003
 21
112.8845551252131
 31
0.000000000000000
  0
LINE
  5
E3
100
AcDbEntity
  8
A1
  6
CONTINUOUS
 62
7
100
AcDbLine
 10
162.8000000000003
 20
130.5000000000001
 30
0.000000000000000
 11
185.2000000000003
 21
130.5000000000001
 31
0.000000000000000
  0
LINE
  5
E4
100
AcDbEntity
  8
A1
  6
CONTINUOUS
 62
7
100
AcDbLine
 10
183.1230556783197
 20
126.0999980000001
 30
0.000000000000000
 11
164.8769443216809
 21
126.0999980000001
 31
0.000000000000000
  0
LINE
  5
E5
100
AcDbEntity
  8
A1
  6
CONTINUOUS
 62
7
100
AcDbLine
 10
186.2000000000003
 20
117.1458736557513
 30
0.000000000000000
 11
186.2000000000003
 21
129.5000000000002
 31
0.000000000000000
  0
LINE
  5
E6
100
AcDbEntity
  8
A1
  6
CONTINUOUS
 62
7
100
AcDbLine
 10
161.8000000000003
 20
129.5000000000002
 30
0.000000000000000
 11
161.8000000000003
 21
117.1458736557513
 31
0.000000000000000
  0
ELLIPSE
  5
E7
100
AcDbEntity
  8
A1
  6
CONTINUOUS
 62
7
100
AcDbEllipse
 10
117.9605172164261
 20
168.6928912188137
 30
0.000000000000000
 11
-0.3042678581170176
 21
-0.6767273091743232
 31
0.000000000000000
210
0.000000000000000
220
0.000000000000000
230
1.000000000000000
 40
0.6738698815027765
 41
3.435783995240782
 42
4.712388980384692
  0
ELLIPSE
  5
E8
100
AcDbEntity
  8
A1
  6
CONTINUOUS
 62
7
100
AcDbEllipse
 10
122.8071067811869
 20
173.5394807835742
 30
0.000000000000000
 11
-0.6767273091743222
 21
-0.3042678581170177
 31
0.000000000000000
210
0.000000000000000
220
0.000000000000000
230
1.000000000000000
 40
0.6738698815027775
 41
4.712388980384686
 42
5.988993965528547
  0
ELLIPSE
  5
E9
100
AcDbEntity
  8
A1
  6
CONTINUOUS
 62
7
100
AcDbEllipse
 10
125.0394827835746
 20
171.3071047811868
 30
0.000000000000000
 11
-0.3042678581170176
 21
-0.6767273091743232
 31
0.000000000000000
210
0.000000000000000
220
0.000000000000000
230
1.000000000000000
 40
0.6738698815027765
 41
0.2941913416510433
 42
1.570796326794899
  0
ELLIPSE
  5
EA
100
AcDbEntity
  8
A1
  6
CONTINUOUS
 62
7
100
AcDbEllipse
 10
117.9605172164261
 20
171.3071047811868
 30
0.000000000000000
 11
-0.3042678581170175
 21
0.6767273091743233
 31
0.000000000000000
210
0.000000000000000
220
0.000000000000000
230
1.000000000000000
 40
0.6738698815027766
 41
1.570796326794894
 42
2.847401311938723
  0
ELLIPSE
  5
EB
100
AcDbEntity
  8
A1
  6
CONTINUOUS
 62
7
100
AcDbEllipse
 10
120.1928932188137
 20
173.5394807835744
 30
0.000000000000000
 11
-0.6767273091743227
 21
0.3042678581170173
 31
0.000000000000000
210
0.000000000000000
220
0.000000000000000
230
1.000000000000000
 40
0.6738698815027774
 41
3.435783995240887
 42
4.712388980384692
  0
ELLIPSE
  5
EC
100
AcDbEntity
  8
A1
  6
CONTINUOUS
 62
7
100
AcDbEllipse
 10
120.1928932188138
 20
166.4605152164259
 30
0.000000000000000
 11
-0.6767273091743222
 21
-0.3042678581170177
 31
0.000000000000000
210
0.000000000000000
220
0.000000000000000
230
1.000000000000000
 40
0.6738698815027775
 41
1.570796326794893
 42
2.847401311938753
  0
ELLIPSE
  5
ED
100
AcDbEntity
  8
A1
  6
CONTINUOUS
 62
7
100
AcDbEllipse
 10
125.0394827835745
 20
168.6928912188137
 30
0.000000000000000
 11
-0.3042678581170175
 21
0.6767273091743233
 31
0.000000000000000
210
0.000000000000000
220
0.000000000000000
230
1.000000000000000
 40
0.6738698815027766
 41
4.712388980384687
 42
5.988993965528596
  0
ELLIPSE
  5
EE
100
AcDbEntity
  8
A1
  6
CONTINUOUS
 62
7
100
AcDbEllipse
 10
122.8071067811868
 20
166.4605152164258
 30
0.000000000000000
 11
-0.6767273091743227
 21
0.3042678581170173
 31
0.000000000000000
210
0.000000000000000
220
0.000000000000000
230
1.000000000000000
 40
0.6738698815027774
 41
0.2941913416510943
 42
1.570796326794899
  0
ARC
  5
EF
100
AcDbEntity
  8
A1
  6
CONTINUOUS
 62
7
100
AcDbCircle
 10
121.5000000000003
 20
169.9999980000002
 30
0.000000000000000
 40
4.250000000000000
100
AcDbArc
 50
197.1046054490246
 51
252.8953945509753
  0
ARC
  5
F0
100
AcDbEntity
  8
A1
  6
CONTINUOUS
 62
7
100
AcDbCircle
 10
121.5000000000003
 20
169.9999980000002
 30
0.000000000000000
 40
4.250000000000000
100
AcDbArc
 50
17.10460544902467
 51
72.89539455097537
  0
ARC
  5
F1
100
AcDbEntity
  8
A1
  6
CONTINUOUS
 62
7
100
AcDbCircle
 10
121.5000000000003
 20
169.9999980000002
 30
0.000000000000000
 40
4.250000000000000
100
AcDbArc
 50
107.1046054490246
 51
162.8953945509755
  0
ARC
  5
F2
100
AcDbEntity
  8
A1
  6
CONTINUOUS
 62
7
100
AcDbCircle
 10
121.5000000000003
 20
169.9999980000002
 30
0.000000000000000
 40
4.250000000000000
100
AcDbArc
 50
287.1046054490246
 51
342.8953945509754
  0
LINE
  5
F3
100
AcDbEntity
  8
A1
  6
CONTINUOUS
 62
7
100
AcDbLine
 10
121.5000000000003
 20
173.4999980000002
 30
0.000000000000000
 11
122.6020698356923
 21
173.9955069352174
 31
0.000000000000000
  0
LINE
  5
F4
100
AcDbEntity
  8
A1
  6
CONTINUOUS
 62
7
100
AcDbLine
 10
118.0000000000003
 20
169.9999980000002
 30
0.000000000000000
 11
117.5044910647830
 21
171.1020678356923
 31
0.000000000000000
  0
LINE
  5
F5
100
AcDbEntity
  8
A1
  6
CONTINUOUS
 62
7
100
AcDbLine
 10
117.5044910647830
 20
168.8979281643081
 30
0.000000000000000
 11
118.0000000000003
 21
169.9999980000002
 31
0.000000000000000
  0
LINE
  5
F6
100
AcDbEntity
  8
A1
  6
CONTINUOUS
 62
7
100
AcDbLine
 10
118.0000000000003
 20
169.9999980000002
 30
0.000000000000000
 11
118.3892506867954
 21
169.9999980000002
 31
0.000000000000000
  0
LINE
  5
F7
100
AcDbEntity
  8
A1
  6
CONTINUOUS
 62
7
100
AcDbLine
 10
125.4955089352176
 20
171.1020678356924
 30
0.000000000000000
 11
125.0000000000003
 21
169.9999980000002
 31
0.000000000000000
  0
LINE
  5
F8
100
AcDbEntity
  8
A1
  6
CONTINUOUS
 62
7
100
AcDbLine
 10
121.5000000000003
 20
169.9999980000004
 30
0.000000000000000
 11
120.9000000000005
 21
169.3999980000002
 31
0.000000000000000
  0
LINE
  5
F9
100
AcDbEntity
  8
A1
  6
CONTINUOUS
 62
7
100
AcDbLine
 10
125.0000000000003
 20
169.9999980000002
 30
0.000000000000000
 11
125.4955089352176
 21
168.8979281643081
 31
0.000000000000000
  0
LINE
  5
FA
100
AcDbEntity
  8
A1
  6
CONTINUOUS
 62
7
100
AcDbLine
 10
124.6107493132052
 20
169.9999980000002
 30
0.000000000000000
 11
125.0000000000003
 21
169.9999980000002
 31
0.000000000000000
  0
LINE
  5
FB
100
AcDbEntity
  8
A1
  6
CONTINUOUS
 62
7
100
AcDbLine
 10
121.5000000000003
 20
173.4999980000002
 30
0.000000000000000
 11
121.5000000000003
 21
173.1107473132051
 31
0.000000000000000
  0
LINE
  5
FC
100
AcDbEntity
  8
A1
  6
CONTINUOUS
 62
7
100
AcDbLine
 10
120.3979301643082
 20
173.9955069352175
 30
0.000000000000000
 11
121.5000000000003
 21
173.4999980000002
 31
0.000000000000000
  0
LINE
  5
FD
100
AcDbEntity
  8
A1
  6
CONTINUOUS
 62
7
100
AcDbLine
 10
120.9000000000005
 20
169.3999980000003
 30
0.000000000000000
 11
118.1194807035315
 21
169.3999980000002
 31
0.000000000000000
  0
LINE
  5
FE
100
AcDbEntity
  8
A1
  6
CONTINUOUS
 62
7
100
AcDbLine
 10
117.4379801491268
 20
168.7500001075580
 30
0.000000000000000
 11
117.5044910647830
 21
168.8979281643082
 31
0.000000000000000
  0
LINE
  5
FF
100
AcDbEntity
  8
A1
  6
CONTINUOUS
 62
7
100
AcDbLine
 10
120.3979301643082
 20
166.0044890647829
 30
0.000000000000000
 11
120.2500021075581
 21
165.9379781491267
 31
0.000000000000000
  0
LINE
  5
100
100
AcDbEntity
  8
A1
  6
CONTINUOUS
 62
7
100
AcDbLine
 10
120.9000000000005
 20
169.3999980000003
 30
0.000000000000000
 11
120.9000000000003
 21
166.6194787035313
 31
0.000000000000000
  0
LINE
  5
101
100
AcDbEntity
  8
A1
  6
CONTINUOUS
 62
7
100
AcDbLine
 10
121.5000000000003
 20
173.1107473132051
 30
0.000000000000000
 11
121.5000000000003
 21
169.9999980000003
 31
0.000000000000000
  0
LINE
  5
102
100
AcDbEntity
  8
A1
  6
CONTINUOUS
 62
7
100
AcDbLine
 10
122.6020698356923
 20
173.9955069352175
 30
0.000000000000000
 11
122.7499978924424
 21
174.0620178508737
 31
0.000000000000000
  0
LINE
  5
103
100
AcDbEntity
  8
A1
  6
CONTINUOUS
 62
7
100
AcDbLine
 10
122.1000000000003
 20
173.3805172964688
 30
0.000000000000000
 11
122.1000000000004
 21
170.5999980000002
 31
0.000000000000000
  0
LINE
  5
104
100
AcDbEntity
  8
A1
  6
CONTINUOUS
 62
7
100
AcDbLine
 10
125.5620198508738
 20
171.2499958924423
 30
0.000000000000000
 11
125.4955089352176
 21
171.1020678356924
 31
0.000000000000000
  0
LINE
  5
105
100
AcDbEntity
  8
A1
  6
CONTINUOUS
 62
7
100
AcDbLine
 10
117.5044910647830
 20
171.1020678356923
 30
0.000000000000000
 11
117.4379801491268
 21
171.2499958924424
 31
0.000000000000000
  0
LINE
  5
106
100
AcDbEntity
  8
A1
  6
CONTINUOUS
 62
7
100
AcDbLine
 10
120.9000000000003
 20
173.3805172964691
 30
0.000000000000000
 11
120.9000000000007
 21
170.5999980000000
 31
0.000000000000000
  0
LINE
  5
107
100
AcDbEntity
  8
A1
  6
CONTINUOUS
 62
7
100
AcDbLine
 10
120.2500021075581
 20
174.0620178508737
 30
0.000000000000000
 11
120.3979301643082
 21
173.9955069352175
 31
0.000000000000000
  0
LINE
  5
108
100
AcDbEntity
  8
A1
  6
CONTINUOUS
 62
7
100
AcDbLine
 10
121.5000000000003
 20
166.4999980000002
 30
0.000000000000000
 11
120.3979301643082
 21
166.0044890647829
 31
0.000000000000000
  0
LINE
  5
109
100
AcDbEntity
  8
A1
  6
CONTINUOUS
 62
7
100
AcDbLine
 10
120.9000000000007
 20
170.5999980000000
 30
0.000000000000000
 11
118.1194807035315
 21
170.5999980000002
 31
0.000000000000000
  0
LINE
  5
10A
100
AcDbEntity
  8
A1
  6
CONTINUOUS
 62
7
100
AcDbLine
 10
121.5000000000003
 20
169.9999980000003
 30
0.000000000000000
 11
118.3892506867954
 21
169.9999980000002
 31
0.000000000000000
  0
LINE
  5
10B
100
AcDbEntity
  8
A1
  6
CONTINUOUS
 62
7
100
AcDbLine
 10
120.9000000000007
 20
170.5999980000001
 30
0.000000000000000
 11
121.5000000000003
 21
169.9999980000004
 31
0.000000000000000
  0
LINE
  5
10C
100
AcDbEntity
  8
A1
  6
CONTINUOUS
 62
7
100
AcDbLine
 10
124.8805192964692
 20
170.5999980000002
 30
0.000000000000000
 11
122.1000000000004
 21
170.5999980000002
 31
0.000000000000000
  0
LINE
  5
10D
100
AcDbEntity
  8
A1
  6
CONTINUOUS
 62
7
100
AcDbLine
 10
121.5000000000003
 20
169.9999980000003
 30
0.000000000000000
 11
122.1000000000004
 21
170.5999980000002
 31
0.000000000000000
  0
LINE
  5
10E
100
AcDbEntity
  8
A1
  6
CONTINUOUS
 62
7
100
AcDbLine
 10
121.5000000000003
 20
166.8892486867953
 30
0.000000000000000
 11
121.5000000000003
 21
166.4999980000002
 31
0.000000000000000
  0
LINE
  5
10F
100
AcDbEntity
  8
A1
  6
CONTINUOUS
 62
7
100
AcDbLine
 10
122.6020698356924
 20
166.0044890647829
 30
0.000000000000000
 11
121.5000000000003
 21
166.4999980000002
 31
0.000000000000000
  0
LINE
  5
110
100
AcDbEntity
  8
A1
  6
CONTINUOUS
 62
7
100
AcDbLine
 10
121.5000000000003
 20
169.9999980000003
 30
0.000000000000000
 11
121.5000000000003
 21
166.8892486867953
 31
0.000000000000000
  0
LINE
  5
111
100
AcDbEntity
  8
A1
  6
CONTINUOUS
 62
7
100
AcDbLine
 10
124.6107493132052
 20
169.9999980000002
 30
0.000000000000000
 11
121.5000000000003
 21
169.9999980000003
 31
0.000000000000000
  0
LINE
  5
112
100
AcDbEntity
  8
A1
  6
CONTINUOUS
 62
7
100
AcDbLine
 10
122.1000000000007
 20
169.3999980000001
 30
0.000000000000000
 11
121.5000000000003
 21
169.9999980000004
 31
0.000000000000000
  0
LINE
  5
113
100
AcDbEntity
  8
A1
  6
CONTINUOUS
 62
7
100
AcDbLine
 10
125.4955089352176
 20
168.8979281643081
 30
0.000000000000000
 11
125.5620198508738
 21
168.7500001075580
 31
0.000000000000000
  0
LINE
  5
114
100
AcDbEntity
  8
A1
  6
CONTINUOUS
 62
7
100
AcDbLine
 10
124.8805192964691
 20
169.3999980000002
 30
0.000000000000000
 11
122.1000000000007
 21
169.3999980000001
 31
0.000000000000000
  0
LINE
  5
115
100
AcDbEntity
  8
A1
  6
CONTINUOUS
 62
7
100
AcDbLine
 10
122.1000000000007
 20
169.3999980000000
 30
0.000000000000000
 11
122.1000000000003
 21
166.6194787035313
 31
0.000000000000000
  0
LINE
  5
116
100
AcDbEntity
  8
A1
  6
CONTINUOUS
 62
7
100
AcDbLine
 10
122.7499978924425
 20
165.9379781491268
 30
0.000000000000000
 11
122.6020698356924
 21
166.0044890647830
 31
0.000000000000000
  0
CIRCLE
  5
117
100
AcDbEntity
  8
A1
  6
CONTINUOUS
 62
7
100
AcDbCircle
 10
121.5000000000003
 20
169.9999980000002
 30
0.000000000000000
 40
11.75000000000000
  0
CIRCLE
  5
118
100
AcDbEntity
  8
A1
  6
CONTINUOUS
 62
7
100
AcDbCircle
 10
121.5000000000003
 20
169.9999980000002
 30
0.000000000000000
 40
4.899999999999999
  0
CIRCLE
  5
119
100
AcDbEntity
  8
A1
  6
CONTINUOUS
 62
7
100
AcDbCircle
 10
121.5000000000003
 20
169.9999980000002
 30
0.000000000000000
 40
10.85000000000000
  0
CIRCLE
  5
11A
100
AcDbEntity
  8
A1
  6
CONTINUOUS
 62
7
100
AcDbCircle
 10
107.5000000000003
 20
181.4999980000002
 30
0.000000000000000
 40
2.100000000000000
  0
CIRCLE
  5
11B
100
AcDbEntity
  8
A1
  6
CONTINUOUS
 62
7
100
AcDbCircle
 10
135.5000000000003
 20
181.4999980000002
 30
0.000000000000000
 40
2.100000000000000
  0
CIRCLE
  5
11C
100
AcDbEntity
  8
A1
  6
CONTINUOUS
 62
7
100
AcDbCircle
 10
135.5000000000003
 20
158.4999980000002
 30
0.000000000000000
 40
2.100000000000000
  0
CIRCLE
  5
11D
100
AcDbEntity
  8
A1
  6
CONTINUOUS
 62
7
100
AcDbCircle
 10
107.5000000000003
 20
158.4999980000002
 30
0.000000000000000
 40
2.100000000000000
  0
ARC
  5
11E
100
AcDbEntity
  8
A1
  6
CONTINUOUS
 62
7
100
AcDbCircle
 10
107.5000000000003
 20
181.4999980000002
 30
0.000000000000000
 40
3.500000000000000
100
AcDbArc
 50
90.00000000000000
 51
197.3795900000001
  0
ARC
  5
11F
100
AcDbEntity
  8
A1
  6
CONTINUOUS
 62
7
100
AcDbCircle
 10
172.2423868453232
 20
169.9999980000002
 30
0.000000000000000
 40
35.00003884532290
100
AcDbArc
 50
162.6204030128547
 51
197.3795964853195
  0
ARC
  5
120
100
AcDbEntity
  8
A1
  6
CONTINUOUS
 62
7
100
AcDbCircle
 10
135.5000000000003
 20
181.4999980000002
 30
0.000000000000000
 40
3.500000000000000
100
AcDbArc
 50
342.6203840182641
 51
450.0000000000000
  0
ARC
  5
121
100
AcDbEntity
  8
A1
  6
CONTINUOUS
 62
7
100
AcDbCircle
 10
70.75765200000029
 20
169.9999980000002
 30
0.000000000000000
 40
35.00000000000000
100
AcDbArc
 50
342.6203840182644
 51
377.3796185799092
  0
ARC
  5
122
100
AcDbEntity
  8
A1
  6
CONTINUOUS
 62
7
100
AcDbCircle
 10
107.5000000000003
 20
158.4999980000002
 30
0.000000000000000
 40
3.500000000000000
100
AcDbArc
 50
162.6203840182639
 51
269.9999499999998
  0
ARC
  5
123
100
AcDbEntity
  8
A1
  6
CONTINUOUS
 62
7
100
AcDbCircle
 10
135.5000000000003
 20
158.4999980000002
 30
0.000000000000000
 40
3.500000000000000
100
AcDbArc
 50
270.0000000000000
 51
377.3796210000003
  0
LINE
  5
124
100
AcDbEntity
  8
A1
  6
CONTINUOUS
 62
7
100
AcDbLine
 10
135.5000000000003
 20
184.9999980000002
 30
0.000000000000000
 11
107.5000000000003
 21
184.9999980000002
 31
0.000000000000000
  0
LINE
  5
125
100
AcDbEntity
  8
A1
  6
CONTINUOUS
 62
7
100
AcDbLine
 10
107.4999969456741
 20
154.9999980000016
 30
0.000000000000000
 11
135.5000000000003
 21
154.9999980000002
 31
0.000000000000000
  0
ARC
  5
126
100
AcDbEntity
  8
A1
  6
CONTINUOUS
 62
7
100
AcDbCircle
 10
101.5266108113893
 20
164.9999980000002
 30
0.000000000000000
 40
1.000000000000000
100
AcDbArc
 50
192.0246991805664
 51
270.0000000000000
  0
ARC
  5
127
100
AcDbEntity
  8
A1
  6
CONTINUOUS
 62
7
100
AcDbCircle
 10
101.5266108113893
 20
174.9999980000002
 30
0.000000000000000
 40
1.000000000000000
100
AcDbArc
 50
90.00010378494484
 51
167.9753008194333
  0
ARC
  5
128
100
AcDbEntity
  8
A1
  6
CONTINUOUS
 62
7
100
AcDbCircle
 10
125.0000000000003
 20
169.9999980000002
 30
0.000000000000000
 40
25.00000000000000
100
AcDbArc
 50
167.9753008194341
 51
192.0246991805659
  0
LINE
  5
129
100
AcDbEntity
  8
A1
  6
CONTINUOUS
 62
7
100
AcDbLine
 10
105.2395312991336
 20
163.9999980000002
 30
0.000000000000000
 11
101.5266108113893
 21
163.9999980000002
 31
0.000000000000000
  0
LINE
  5
12A
100
AcDbEntity
  8
A1
  6
CONTINUOUS
 62
7
100
AcDbLine
 10
105.2395312991336
 20
175.9999980000002
 30
0.000000000000000
 11
101.5266090000003
 21
175.9999980000002
 31
0.000000000000000
  0
ARC
  5
12B
100
AcDbEntity
  8
A1
  6
CONTINUOUS
 62
7
100
AcDbCircle
 10
61.41412700000029
 20
112.4839550000001
 30
0.000000000000000
 40
6.602129000000000
100
AcDbArc
 50
180.0000000000000
 51
202.5216099999998
  0
ARC
  5
12C
100
AcDbEntity
  8
A1
  6
CONTINUOUS
 62
7
100
AcDbCircle
 10
61.41412700000029
 20
112.5160450000000
 30
0.000000000000000
 40
6.602129000000000
100
AcDbArc
 50
157.4783900000002
 51
180.0000000000000
  0
ARC
  5
12D
100
AcDbEntity
  8
A1
  6
CONTINUOUS
 62
7
100
AcDbCircle
 10
55.50025600000029
 20
110.0317320000001
 30
0.000000000000000
 40
0.2000000000000000
100
AcDbArc
 50
202.5206008574370
 51
299.0187299999955
  0
ARC
  5
12E
100
AcDbEntity
  8
A1
  6
CONTINUOUS
 62
7
100
AcDbCircle
 10
55.50025600000029
 20
114.9682680000001
 30
0.000000000000000
 40
0.2000000000000000
100
AcDbArc
 50
60.98127000000402
 51
157.4793991425648
  0
ARC
  5
12F
100
AcDbEntity
  8
A1
  6
CONTINUOUS
 62
7
100
AcDbCircle
 10
72.16040800000030
 20
112.4959160000001
 30
0.000000000000000
 40
3.366533000000000
100
AcDbArc
 50
297.2145005868304
 51
338.4354837050780
  0
ARC
  5
130
100
AcDbEntity
  8
A1
  6
CONTINUOUS
 62
7
100
AcDbCircle
 10
72.16040800000030
 20
112.5040840000000
 30
0.000000000000000
 40
3.366533000000000
100
AcDbArc
 50
21.56451629492213
 51
62.78549941316957
  0
LINE
  5
131
100
AcDbEntity
  8
A1
  6
CONTINUOUS
 62
7
100
AcDbLine
 10
71.50000000000028
 20
110.2499980000001
 30
0.000000000000000
 11
72.50000100000028
 21
110.2499980000001
 31
0.000000000000000
  0
LINE
  5
132
100
AcDbEntity
  8
A1
  6
CONTINUOUS
 62
7
100
AcDbLine
 10
57.49999900000029
 20
110.2499980000001
 30
0.000000000000000
 11
58.50000000000028
 21
110.2499980000001
 31
0.000000000000000
  0
LINE
  5
133
100
AcDbEntity
  8
A1
  6
CONTINUOUS
 62
7
100
AcDbLine
 10
58.50000000000028
 20
114.7500020000001
 30
0.000000000000000
 11
57.49999900000029
 21
114.7500020000001
 31
0.000000000000000
  0
LINE
  5
134
100
AcDbEntity
  8
A1
  6
CONTINUOUS
 62
7
100
AcDbLine
 10
72.50000000000028
 20
114.7500020000001
 30
0.000000000000000
 11
71.50000000000028
 21
114.7500020000001
 31
0.000000000000000
  0
LINE
  5
135
100
AcDbEntity
  8
A1
  6
CONTINUOUS
 62
7
100
AcDbLine
 10
54.81199800000030
 20
112.5160450000000
 30
0.000000000000000
 11
54.81199800000030
 21
112.4839550000001
 31
0.000000000000000
  0
LINE
  5
136
100
AcDbEntity
  8
A1
  6
CONTINUOUS
 62
7
100
AcDbLine
 10
56.29999900000027
 20
114.7533400000001
 30
0.000000000000000
 11
55.59727510153368
 21
115.1431602352126
 31
0.000000000000000
  0
LINE
  5
137
100
AcDbEntity
  8
A1
  6
CONTINUOUS
 62
7
100
AcDbLine
 10
55.59727510153367
 20
109.8568397647875
 30
0.000000000000000
 11
56.29999900000027
 21
110.2466600000000
 31
0.000000000000000
  0
LINE
  5
138
100
AcDbEntity
  8
A1
  6
CONTINUOUS
 62
7
100
AcDbLine
 10
75.29129813195658
 20
113.7414487084461
 30
0.000000000000000
 11
75.29129813195658
 21
111.2585512915540
 31
0.000000000000000
  0
ARC
  5
139
100
AcDbEntity
  8
A1
  6
CONTINUOUS
 62
7
100
AcDbCircle
 10
72.85000000000028
 20
131.4844980000001
 30
0.000000000000000
 40
1.800000000000000
100
AcDbArc
 50
326.8424354717112
 51
347.6658778346562
  0
ARC
  5
13A
100
AcDbEntity
  8
A1
  6
CONTINUOUS
 62
7
100
AcDbCircle
 10
57.15000000000029
 20
131.4844980000001
 30
0.000000000000000
 40
1.800000000000000
100
AcDbArc
 50
192.3341221653438
 51
213.1575645282888
  0
ARC
  5
13B
100
AcDbEntity
  8
A1
  6
CONTINUOUS
 62
7
100
AcDbCircle
 10
58.20170058029248
 20
131.4844980000001
 30
0.000000000000000
 40
1.800000000000000
100
AcDbArc
 50
192.3341221653438
 51
213.1575645282888
  0
ARC
  5
13C
100
AcDbEntity
  8
A1
  6
CONTINUOUS
 62
7
100
AcDbCircle
 10
71.79829941970820
 20
131.4844980000001
 30
0.000000000000000
 40
1.800000000000000
100
AcDbArc
 50
326.8424354717112
 51
347.6658778346562
  0
ARC
  5
13D
100
AcDbEntity
  8
A1
  6
CONTINUOUS
 62
7
100
AcDbCircle
 10
68.92500000000030
 20
131.4844980000001
 30
0.000000000000000
 40
1.800000000000000
100
AcDbArc
 50
326.8424354717112
 51
347.6658778346562
  0
ARC
  5
13E
100
AcDbEntity
  8
A1
  6
CONTINUOUS
 62
7
100
AcDbCircle
 10
68.92500000000030
 20
131.4844980000001
 30
0.000000000000000
 40
1.800000000000000
100
AcDbArc
 50
192.3341221653438
 51
213.1575645282888
  0
ARC
  5
13F
100
AcDbEntity
  8
A1
  6
CONTINUOUS
 62
7
100
AcDbCircle
 10
61.07500000000030
 20
131.4844980000001
 30
0.000000000000000
 40
1.800000000000000
100
AcDbArc
 50
326.8424354717112
 51
347.6658778346562
  0
ARC
  5
140
100
AcDbEntity
  8
A1
  6
CONTINUOUS
 62
7
100
AcDbCircle
 10
61.07500000000030
 20
131.4844980000001
 30
0.000000000000000
 40
1.800000000000000
100
AcDbArc
 50
192.3341221653438
 51
213.1575645282888
  0
ARC
  5
141
100
AcDbEntity
  8
A1
  6
CONTINUOUS
 62
7
100
AcDbCircle
 10
65.00000000000028
 20
131.4844980000001
 30
0.000000000000000
 40
1.800000000000000
100
AcDbArc
 50
326.8424354717112
 51
347.6658778346562
  0
ARC
  5
142
100
AcDbEntity
  8
A1
  6
CONTINUOUS
 62
7
100
AcDbCircle
 10
65.00000000000028
 20
131.4844980000001
 30
0.000000000000000
 40
1.800000000000000
100
AcDbArc
 50
192.3341221653438
 51
213.1575645282888
  0
ARC
  5
143
100
AcDbEntity
  8
A1
  6
CONTINUOUS
 62
7
100
AcDbCircle
 10
76.38050273197680
 20
133.0999960000001
 30
0.000000000000000
 40
2.000000000000000
100
AcDbArc
 50
270.0000000000000
 51
333.2519142592067
  0
ARC
  5
144
100
AcDbEntity
  8
A1
  6
CONTINUOUS
 62
7
100
AcDbCircle
 10
53.61949726802379
 20
133.0999960000001
 30
0.000000000000000
 40
2.000000000000000
100
AcDbArc
 50
206.7480857407934
 51
270.0000000000000
  0
ARC
  5
145
100
AcDbEntity
  8
A1
  6
CONTINUOUS
 62
7
100
AcDbCircle
 10
50.81992531792588
 20
133.0999980000001
 30
0.000000000000000
 40
0.5000000000000000
100
AcDbArc
 50
26.74808574079327
 51
90.00000000000000
  0
ARC
  5
146
100
AcDbEntity
  8
A1
  6
CONTINUOUS
 62
7
100
AcDbCircle
 10
79.18007468207460
 20
133.0999980000001
 30
0.000000000000000
 40
0.5000000000000000
100
AcDbArc
 50
90.00000000000000
 51
153.2519142592067
  0
LINE
  5
147
100
AcDbEntity
  8
A1
  6
CONTINUOUS
 62
7
100
AcDbLine
 10
76.38050273197680
 20
131.0999960000001
 30
0.000000000000000
 11
53.61949726802379
 21
131.0999960000001
 31
0.000000000000000
  0
LINE
  5
148
100
AcDbEntity
  8
A1
  6
CONTINUOUS
 62
7
100
AcDbLine
 10
78.16649069349351
 20
132.1998587875054
 30
0.000000000000000
 11
78.73357769169552
 21
133.3250323031237
 31
0.000000000000000
  0
LINE
  5
149
100
AcDbEntity
  8
A1
  6
CONTINUOUS
 62
7
100
AcDbLine
 10
51.26642230830507
 20
133.3250323031237
 30
0.000000000000000
 11
51.83350930650708
 21
132.1998587875055
 31
0.000000000000000
  0
LINE
  5
14A
100
AcDbEntity
  8
A1
  6
CONTINUOUS
 62
7
100
AcDbLine
 10
54.54545351234438
 20
133.5999980000001
 30
0.000000000000000
 11
75.45454497298039
 21
133.5999980000001
 31
0.000000000000000
  0
LINE
  5
14B
100
AcDbEntity
  8
A1
  6
CONTINUOUS
 62
7
100
AcDbLine
 10
54.54545351234438
 20
134.9999980000001
 30
0.000000000000000
 11
75.45454497298039
 21
134.9999980000001
 31
0.000000000000000
  0
LINE
  5
14C
100
AcDbEntity
  8
A1
  6
CONTINUOUS
 62
7
100
AcDbLine
 10
50.00000000000028
 20
133.5999980000001
 30
0.000000000000000
 11
54.54545298262218
 21
133.5999980000001
 31
0.000000000000000
  0
LINE
  5
14D
100
AcDbEntity
  8
A1
  6
CONTINUOUS
 62
7
100
AcDbLine
 10
50.00000000000028
 20
134.9999980000001
 30
0.000000000000000
 11
54.54545298262218
 21
134.9999980000001
 31
0.000000000000000
  0
LINE
  5
14E
100
AcDbEntity
  8
A1
  6
CONTINUOUS
 62
7
100
AcDbLine
 10
50.00000000000028
 20
133.5999980000001
 30
0.000000000000000
 11
50.00000000000028
 21
134.9999980000001
 31
0.000000000000000
  0
LINE
  5
14F
100
AcDbEntity
  8
A1
  6
CONTINUOUS
 62
7
100
AcDbLine
 10
75.45454550270230
 20
133.5999980000001
 30
0.000000000000000
 11
79.99999999999901
 21
133.5999980000001
 31
0.000000000000000
  0
LINE
  5
150
100
AcDbEntity
  8
A1
  6
CONTINUOUS
 62
7
100
AcDbLine
 10
75.45454550270230
 20
134.9999980000001
 30
0.000000000000000
 11
79.99999999999901
 21
134.9999980000001
 31
0.000000000000000
  0
LINE
  5
151
100
AcDbEntity
  8
A1
  6
CONTINUOUS
 62
7
100
AcDbLine
 10
79.99999999999901
 20
133.5999980000001
 30
0.000000000000000
 11
79.99999999999901
 21
134.9999980000001
 31
0.000000000000000
  0
ARC
  5
152
100
AcDbEntity
  8
A1
  6
CONTINUOUS
 62
7
100
AcDbCircle
 10
59.00000000000028
 20
107.9999980000002
 30
0.000000000000000
 40
0.5000000000000000
100
AcDbArc
 50
180.0000000000134
 51
270.0000000000000
  0
ARC
  5
153
100
AcDbEntity
  8
A1
  6
CONTINUOUS
 62
7
100
AcDbCircle
 10
59.00000000000028
 20
117.0000019999999
 30
0.000000000000000
 40
0.5000000000000000
100
AcDbArc
 50
90.00000000000000
 51
179.9999999999861
  0
ARC
  5
154
100
AcDbEntity
  8
A1
  6
CONTINUOUS
 62
7
100
AcDbCircle
 10
71.00000000000028
 20
107.9999980000002
 30
0.000000000000000
 40
0.5000000000000000
100
AcDbArc
 50
269.9999599999989
 51
360.0000000000000
  0
ARC
  5
155
100
AcDbEntity
  8
A1
  6
CONTINUOUS
 62
7
100
AcDbCircle
 10
71.00000000000028
 20
117.0000019999999
 30
0.000000000000000
 40
0.5000000000000000
100
AcDbArc
 50
0.000000000000000
 51
90.00004000000114
  0
ARC
  5
156
100
AcDbEntity
  8
A1
  6
CONTINUOUS
 62
7
100
AcDbCircle
 10
70.00000000000028
 20
101.5266108113891
 30
0.000000000000000
 40
1.000000000000000
100
AcDbArc
 50
282.0246991805665
 51
360.0000000000000
  0
ARC
  5
157
100
AcDbEntity
  8
A1
  6
CONTINUOUS
 62
7
100
AcDbCircle
 10
70.00000000000028
 20
123.4733891886111
 30
0.000000000000000
 40
1.000000000000000
100
AcDbArc
 50
0.000000000000000
 51
77.97530081943356
  0
ARC
  5
158
100
AcDbEntity
  8
A1
  6
CONTINUOUS
 62
7
100
AcDbCircle
 10
60.00000000000028
 20
101.5266108113891
 30
0.000000000000000
 40
1.000000000000000
100
AcDbArc
 50
180.0001037849446
 51
257.9753008194333
  0
ARC
  5
159
100
AcDbEntity
  8
A1
  6
CONTINUOUS
 62
7
100
AcDbCircle
 10
60.00000000000028
 20
123.4733891886111
 30
0.000000000000000
 40
1.000000000000000
100
AcDbArc
 50
102.0246991805667
 51
179.9998962150552
  0
ARC
  5
15A
100
AcDbEntity
  8
A1
  6
CONTINUOUS
 62
7
100
AcDbCircle
 10
65.00000000000028
 20
100.0000000000001
 30
0.000000000000000
 40
25.00000000000000
100
AcDbArc
 50
77.97530081943417
 51
102.0246991805659
  0
ARC
  5
15B
100
AcDbEntity
  8
A1
  6
CONTINUOUS
 62
7
100
AcDbCircle
 10
65.00000000000028
 20
125.0000000000001
 30
0.000000000000000
 40
25.00000000000000
100
AcDbArc
 50
257.9753008194342
 51
282.0246991805658
  0
LINE
  5
15C
100
AcDbEntity
  8
A1
  6
CONTINUOUS
 62
7
100
AcDbLine
 10
58.50000000000028
 20
117.0000019999290
 30
0.000000000000000
 11
58.50000000000028
 21
107.9999980000001
 31
0.000000000000000
  0
LINE
  5
15D
100
AcDbEntity
  8
A1
  6
CONTINUOUS
 62
7
100
AcDbLine
 10
71.50000000000028
 20
117.0000019999289
 30
0.000000000000000
 11
71.50000000000028
 21
107.9999980000002
 31
0.000000000000000
  0
LINE
  5
15E
100
AcDbEntity
  8
A1
  6
CONTINUOUS
 62
7
100
AcDbLine
 10
71.00000000000028
 20
123.4733891884743
 30
0.000000000000000
 11
71.00000000000028
 21
101.5266108113891
 31
0.000000000000000
  0
LINE
  5
15F
100
AcDbEntity
  8
A1
  6
CONTINUOUS
 62
7
100
AcDbLine
 10
59.00000000000028
 20
123.4733909998635
 30
0.000000000000000
 11
59.00000000000028
 21
101.5266090000001
 31
0.000000000000000
  0
SPLINE
  5
160
100
AcDbEntity
  8
A1
  6
CONTINUOUS
 62
7
100
AcDbSpline
210
0.000000000000000
220
0.000000000000000
230
1.000000000000000
 70
     8
 71
     3
 72
    17
 73
    13
 74
     0
 42
1.000000000000000e-07
 43
1.000000000000000e-07
 12
-0.9564123887561209
 22
0.2920194216719665
 32
0.000000000000000
 13
-0.03259969043648425
 23
0.9994684888397387
 33
0.000000000000000
 40
0.000000000000000
 40
0.000000000000000
 40
0.000000000000000
 40
0.000000000000000
 40
0.4565468250853336
 40
0.9021375976596218
 40
1.225007280154441
 40
1.541707917157968
 40
1.850616093877861
 40
2.174724197301213
 40
2.493020680171414
 40
2.804860678709467
 40
3.200772756218266
 40
3.592790939335925
 40
3.592790939335925
 40
3.592790939335925
 40
3.592790939335925
 10
54.96424777513349
 20
113.8549346493644
 30
0.000000000000000
 10
54.81869876194719
 20
113.8993748293069
 30
0.000000000000000
 10
54.53661738610649
 20
114.0064291523018
 30
0.000000000000000
 10
54.17575673656219
 20
114.2001126626914
 30
0.000000000000000
 10
53.87938438078729
 20
114.4085595082150
 30
0.000000000000000
 10
53.64016193229239
 20
114.6161144949766
 30
0.000000000000000
 10
53.42339864932100
 20
114.8476508999041
 30
0.000000000000000
 10
53.23379648881649
 20
115.1027437914840
 30
0.000000000000000
 10
53.07463418727838
 20
115.3789821655125
 30
0.000000000000000
 10
52.93983144402929
 20
115.6941874447802
 30
0.000000000000000
 10
52.84372304538448
 20
116.0495218198733
 30
0.000000000000000
 10
52.81522287409530
 20
116.3118216110785
 30
0.000000000000000
 10
52.81096298362360
 20
116.4424248847712
 30
0.000000000000000
  0
SPLINE
  5
161
100
AcDbEntity
  8
A1
  6
CONTINUOUS
 62
7
100
AcDbSpline
210
0.000000000000000
220
0.000000000000000
230
1.000000000000000
 70
     8
 71
     3
 72
    17
 73
    13
 74
     0
 42
1.000000000000000e-07
 43
1.000000000000000e-07
 12
-0.03284416104850152
 22
-0.9994604850044198
 32
0.000000000000000
 13
-0.9396991493765654
 23
-0.3420022056352536
 33
0.000000000000000
 40
0.000000000000000
 40
0.000000000000000
 40
0.000000000000000
 40
0.000000000000000
 40
0.3407495318782395
 40
0.6851878328878229
 40
1.033269668894206
 40
1.389316619452966
 40
1.755021442899653
 40
2.128889113975490
 40
2.488625478847951
 40
2.858662574593137
 40
3.235731454268173
 40
3.407456580431897
 40
3.407456580431897
 40
3.407456580431897
 40
3.407456580431897
 10
77.18903701637700
 20
116.4424248847712
 30
0.000000000000000
 10
77.18530647220959
 20
116.3289029873059
 30
0.000000000000000
 10
77.16273173693358
 20
116.1008122075730
 30
0.000000000000000
 10
77.08245334358358
 20
115.7648513111194
 30
0.000000000000000
 10
76.95613227709879
 20
115.4377781120573
 30
0.000000000000000
 10
76.78248836435290
 20
115.1250484611462
 30
0.000000000000000
 10
76.56450183028920
 20
114.8307971250435
 30
0.000000000000000
 10
76.30991801924620
 20
114.5658080269475
 30
0.000000000000000
 10
76.02327231913858
 20
114.3338779544585
 30
0.000000000000000
 10
75.71142996647828
 20
114.1353072608323
 30
0.000000000000000
 10
75.43572906744529
 20
114.0003175726922
 30
0.000000000000000
 10
75.26540574987169
 20
113.9333919410247
 30
0.000000000000000
 10
75.21161576487748
 20
113.9138151503877
 30
0.000000000000000
  0
SPLINE
  5
162
100
AcDbEntity
  8
A1
  6
CONTINUOUS
 62
7
100
AcDbSpline
210
0.000000000000000
220
0.000000000000000
230
1.000000000000000
 70
     8
 71
     3
 72
    13
 73
     9
 74
     0
 42
1.000000000000000e-07
 43
1.000000000000000e-07
 12
-0.1024000267634619
 22
0.9947433008164808
 32
0.000000000000000
 13
-0.8641589102480793
 23
0.5032190157758123
 33
0.000000000000000
 40
0.000000000000000
 40
0.000000000000000
 40
0.000000000000000
 40
0.000000000000000
 40
0.1265337964740597
 40
0.2952992195262653
 40
0.4517068951507055
 40
0.6130225183938839
 40
0.7714849509695074
 40
0.9358137141903972
 40
0.9358137141903972
 40
0.9358137141903972
 40
0.9358137141903972
 10
73.69459484173970
 20
129.6038566869306
 30
0.000000000000000
 10
73.69027582035790
 20
129.6458129023871
 30
0.000000000000000
 10
73.67442372582320
 20
129.7432048065438
 30
0.000000000000000
 10
73.63002551228098
 20
129.8877764704838
 30
0.000000000000000
 10
73.55814852080539
 20
130.0338647405497
 30
0.000000000000000
 10
73.46554386589960
 20
130.1637146184208
 30
0.000000000000000
 10
73.35072497279768
 20
130.2781230770333
 30
0.000000000000000
 10
73.26212097232559
 20
130.3402833091184
 30
0.000000000000000
 10
73.21478558400980
 20
130.3678477619490
 30
0.000000000000000
  0
SPLINE
  5
163
100
AcDbEntity
  8
A1
  6
CONTINUOUS
 62
7
100
AcDbSpline
210
0.000000000000000
220
0.000000000000000
230
1.000000000000000
 70
     8
 71
     3
 72
    11
 73
     7
 74
     0
 42
1.000000000000000e-07
 43
1.000000000000000e-07
 12
-0.9835749217581906
 22
-0.1805003415174724
 32
0.000000000000000
 13
-0.8255979381369798
 23
-0.5642588453411008
 33
0.000000000000000
 40
0.000000000000000
 40
0.000000000000000
 40
0.000000000000000
 40
0.000000000000000
 40
0.07342173033105680
 40
0.1789226785173171
 40
0.2922849362348974
 40
0.4269591436008487
 40
0.4269591436008487
 40
0.4269591436008487
 40
0.4269591436008487
 10
57.11977802300970
 20
130.4836262868102
 30
0.000000000000000
 10
57.09570609878779
 20
130.4792087376770
 30
0.000000000000000
 10
57.03740692167500
 20
130.4663780159455
 30
0.000000000000000
 10
56.94425330116658
 20
130.4372542287439
 30
0.000000000000000
 10
56.83586243375788
 20
130.3904369630502
 30
0.000000000000000
 10
56.76440996840728
 20
130.3482289578133
 30
0.000000000000000
 10
56.72734771910009
 20
130.3228985868981
 30
0.000000000000000
  0
SPLINE
  5
164
100
AcDbEntity
  8
A1
  6
CONTINUOUS
 62
7
100
AcDbSpline
210
0.000000000000000
220
0.000000000000000
230
1.000000000000000
 70
     8
 71
     3
 72
    14
 73
    10
 74
     0
 42
1.000000000000000e-07
 43
1.000000000000000e-07
 12
0.04753495847035083
 22
0.9988695749343606
 32
0.000000000000000
 13
0.8230591714250295
 23
0.5679556323616453
 33
0.000000000000000
 40
0.000000000000000
 40
0.000000000000000
 40
0.000000000000000
 40
0.000000000000000
 40
0.007282249714103800
 40
0.1510888027951051
 40
0.2986918171570443
 40
0.4630019662065207
 40
0.6329149814831551
 40
0.7996792929399711
 40
0.9721732386800177
 40
0.9721732386800177
 40
0.9721732386800177
 40
0.9721732386800177
 10
56.27458173007699
 20
129.5000000000001
 30
0.000000000000000
 10
56.27469711722290
 20
129.5024246725589
 30
0.000000000000000
 10
56.27727154270841
 20
129.5527206615858
 30
0.000000000000000
 10
56.28935506523268
 20
129.6518980543930
 30
0.000000000000000
 10
56.32797941558218
 20
129.7992738091069
 30
0.000000000000000
 10
56.39092244691381
 20
129.9477325233817
 30
0.000000000000000
 10
56.47978242561990
 20
130.0899858331137
 30
0.000000000000000
 10
56.59199936900120
 20
130.2182524731341
 30
0.000000000000000
 10
56.68002347774788
 20
130.2902422842210
 30
0.000000000000000
 10
56.72734771910009
 20
130.3228985868981
 30
0.000000000000000
  0
SPLINE
  5
165
100
AcDbEntity
  8
A1
  6
CONTINUOUS
 62
7
100
AcDbSpline
210
0.000000000000000
220
0.000000000000000
230
1.000000000000000
 70
     8
 71
     3
 72
    11
 73
     7
 74
     0
 42
1.000000000000000e-07
 43
1.000000000000000e-07
 12
0.6363188087821072
 22
-0.7714261945220642
 32
0.000000000000000
 13
0.9813389825060312
 23
-0.1922857285671853
 33
0.000000000000000
 40
0.000000000000000
 40
0.000000000000000
 40
0.000000000000000
 40
0.000000000000000
 40
0.08126136804302340
 40
0.1630573409491552
 40
0.2972225695451031
 40
0.4492451522552975
 40
0.4492451522552975
 40
0.4492451522552975
 40
0.4492451522552975
 10
59.05488607661380
 20
126.4183598249895
 30
0.000000000000000
 10
59.07212212225150
 20
126.3974641090192
 30
0.000000000000000
 10
59.11124232458218
 20
126.3588664639701
 30
0.000000000000000
 10
59.19729677294259
 20
126.3082798864586
 30
0.000000000000000
 10
59.31394453665169
 20
126.2688227181640
 30
0.000000000000000
 10
59.40615964613050
 20
126.2440984560813
 30
0.000000000000000
 10
59.45588820834209
 20
126.2343545317229
 30
0.000000000000000
  0
SPLINE
  5
166
100
AcDbEntity
  8
A1
  6
CONTINUOUS
 62
7
100
AcDbSpline
210
0.000000000000000
220
0.000000000000000
230
1.000000000000000
 70
     8
 71
     3
 72
    12
 73
     8
 74
     0
 42
1.000000000000000e-07
 43
1.000000000000000e-07
 12
0.1820940609686659
 22
-0.9832811159385528
 32
0.000000000000000
 13
0.6239088379261375
 23
-0.7814971285552019
 33
0.000000000000000
 40
0.000000000000000
 40
0.000000000000000
 40
0.000000000000000
 40
0.000000000000000
 40
0.06184462306408420
 40
0.1204581976473716
 40
0.1989778743528584
 40
0.2700978092051950
 40
0.2897401086455127
 40
0.2897401086455127
 40
0.2897401086455127
 40
0.2897401086455127
 10
58.93930440075579
 20
126.6810997683001
 30
0.000000000000000
 10
58.94305824694339
 20
126.6608295516397
 30
0.000000000000000
 10
58.95222721629639
 20
126.6216666260886
 30
0.000000000000000
 10
58.97309924757408
 20
126.5586280760568
 30
0.000000000000000
 10
59.00213587125978
 20
126.4953467221709
 30
0.000000000000000
 10
59.03236890799229
 20
126.4474750763630
 30
0.000000000000000
 10
59.05080107520780
 20
126.4234766251931
 30
0.000000000000000
 10
59.05488607661380
 20
126.4183598249895
 30
0.000000000000000
  0
SPLINE
  5
167
100
AcDbEntity
  8
A1
  6
CONTINUOUS
 62
7
100
AcDbSpline
210
0.000000000000000
220
0.000000000000000
230
1.000000000000000
 70
     8
 71
     3
 72
    13
 73
     9
 74
     0
 42
1.000000000000000e-07
 43
1.000000000000000e-07
 12
0.9777166354122073
 22
0.2099289899965697
 32
0.000000000000000
 13
0.6305866873140076
 23
0.7761188245285666
 33
0.000000000000000
 40
0.000000000000000
 40
0.000000000000000
 40
0.000000000000000
 40
0.000000000000000
 40
0.1051293816070540
 40
0.2030405877858112
 40
0.2647931203051271
 40
0.3243709805778131
 40
0.3839904936272498
 40
0.4456370135210199
 40
0.4456370135210199
 40
0.4456370135210199
 40
0.4456370135210199
 10
70.54738185319150
 20
126.2213976361072
 30
0.000000000000000
 10
70.58164410161410
 20
126.2287542044071
 30
0.000000000000000
 10
70.64734997129290
 20
126.2450521899907
 30
0.000000000000000
 10
70.73226590051010
 20
126.2694088386621
 30
0.000000000000000
 10
70.80052507198900
 20
126.2957707464820
 30
0.000000000000000
 10
70.85438762126569
 20
126.3232305078004
 30
0.000000000000000
 10
70.90387899480220
 20
126.3581277133230
 30
0.000000000000000
 10
70.93215609846538
 20
126.3874051705937
 30
0.000000000000000
 10
70.94511392338680
 20
126.4033535121124
 30
0.000000000000000
  0
SPLINE
  5
168
100
AcDbEntity
  8
A1
  6
CONTINUOUS
 62
7
100
AcDbSpline
210
0.000000000000000
220
0.000000000000000
230
1.000000000000000
 70
     8
 71
     3
 72
    13
 73
     9
 74
     0
 42
1.000000000000000e-07
 43
1.000000000000000e-07
 12
0.6247931383859395
 22
0.7807903266711946
 32
0.000000000000000
 13
0.1673365035267125
 23
0.9858998400368364
 33
0.000000000000000
 40
0.000000000000000
 40
0.000000000000000
 40
0.000000000000000
 40
0.000000000000000
 40
0.03482906828157420
 40
0.07201065119657130
 40
0.1123917958524895
 40
0.1560307319832874
 40
0.2232557878042504
 40
0.2999969537981305
 40
0.2999969537981305
 40
0.2999969537981305
 40
0.2999969537981305
 10
70.94511392338680
 20
126.4033535121124
 30
0.000000000000000
 10
70.95236757767969
 20
126.4124182453128
 30
0.000000000000000
 10
70.96673791327970
 20
126.4316730110863
 30
0.000000000000000
 10
70.98694515684900
 20
126.4632566445191
 30
0.000000000000000
 10
71.00625805051919
 20
126.4987822055898
 30
0.000000000000000
 10
71.02706330201420
 20
126.5447533611090
 30
0.000000000000000
 10
71.04759303520120
 20
126.6039412858086
 30
0.000000000000000
 10
71.05839396370999
 20
126.6508270383562
 30
0.000000000000000
 10
71.06267449650798
 20
126.6760467394488
 30
0.000000000000000
  0
SPLINE
  5
169
100
AcDbEntity
  8
A1
  6
CONTINUOUS
 62
7
100
AcDbSpline
210
0.000000000000000
220
0.000000000000000
230
1.000000000000000
 70
     8
 71
     3
 72
     9
 73
     5
 74
     0
 42
1.000000000000000e-07
 43
1.000000000000000e-07
 12
-0.6764095481066761
 22
0.7365257111805477
 32
0.000000000000000
 13
-0.8915607093556446
 23
0.4529012050447818
 33
0.000000000000000
 40
0.000000000000000
 40
0.000000000000000
 40
0.000000000000000
 40
0.000000000000000
 40
0.1397109633455299
 40
0.2842046097191909
 40
0.2842046097191909
 40
0.2842046097191909
 40
0.2842046097191909
 10
73.31314863090520
 20
126.9459605006717
 30
0.000000000000000
 10
73.28164802104450
 20
126.9802607395509
 30
0.000000000000000
 10
73.21142039120838
 20
127.0446676444186
 30
0.000000000000000
 10
73.13057400243588
 20
127.0952011316215
 30
0.000000000000000
 10
73.08763238314978
 20
127.1170149138095
 30
0.000000000000000
  0
SPLINE
  5
16A
100
AcDbEntity
  8
A1
  6
CONTINUOUS
 62
7
100
AcDbSpline
210
0.000000000000000
220
0.000000000000000
230
1.000000000000000
 70
     8
 71
     3
 72
     9
 73
     5
 74
     0
 42
1.000000000000000e-07
 43
1.000000000000000e-07
 12
-0.8916084004804361
 22
-0.4528073102246708
 32
0.000000000000000
 13
-0.6764774862465401
 23
-0.7364633124616375
 33
0.000000000000000
 40
0.000000000000000
 40
0.000000000000000
 40
0.000000000000000
 40
0.000000000000000
 40
0.1395955543855822
 40
0.2842046636720071
 40
0.2842046636720071
 40
0.2842046636720071
 40
0.2842046636720071
 10
56.91236761685079
 20
127.1170149138095
 30
0.000000000000000
 10
56.87087942719748
 20
127.0959449513092
 30
0.000000000000000
 10
56.78992219715090
 20
127.0456868090908
 30
0.000000000000000
 10
56.71945963800829
 20
126.9814602685507
 30
0.000000000000000
 10
56.68685136909548
 20
126.9459605006717
 30
0.000000000000000
  0
SPLINE
  5
16B
100
AcDbEntity
  8
A1
  6
CONTINUOUS
 62
7
100
AcDbSpline
210
0.000000000000000
220
0.000000000000000
230
1.000000000000000
 70
     8
 71
     3
 72
    13
 73
     9
 74
     0
 42
1.000000000000000e-07
 43
1.000000000000000e-07
 12
0.07508892978057702
 22
-0.9971768411960511
 32
0.000000000000000
 13
0.1841732697139378
 23
-0.9828937921920442
 33
0.000000000000000
 40
0.000000000000000
 40
0.000000000000000
 40
0.000000000000000
 40
0.000000000000000
 40
0.02575707524495660
 40
0.05160493908920270
 40
0.07772608168564139
 40
0.1036141969942357
 40
0.1229459647021608
 40
0.1419997017659858
 40
0.1419997017659858
 40
0.1419997017659858
 40
0.1419997017659858
 10
58.91948889319579
 20
126.8216381449514
 30
0.000000000000000
 10
58.92013358360060
 20
126.8130766919743
 30
0.000000000000000
 10
58.92165917892839
 20
126.7959399621085
 30
0.000000000000000
 10
58.92470937057999
 20
126.7702085042154
 30
0.000000000000000
 10
58.92835784583849
 20
126.7445120013665
 30
0.000000000000000
 10
58.93214681387798
 20
126.7210342759701
 30
0.000000000000000
 10
58.93583234001690
 20
126.6999288635531
 30
0.000000000000000
 10
58.93813467107069
 20
126.6873423682595
 30
0.000000000000000
 10
58.93930440075579
 20
126.6810997683001
 30
0.000000000000000
  0
SPLINE
  5
16C
100
AcDbEntity
  8
A1
  6
CONTINUOUS
 62
7
100
AcDbSpline
210
0.000000000000000
220
0.000000000000000
230
1.000000000000000
 70
     8
 71
     3
 72
    12
 73
     8
 74
     0
 42
1.000000000000000e-07
 43
1.000000000000000e-07
 12
-0.9036064626961888
 22
0.4283635845567915
 32
0.000000000000000
 13
-0.9414686496353397
 23
-0.3371005514022727
 33
0.000000000000000
 40
0.000000000000000
 40
0.000000000000000
 40
0.000000000000000
 40
0.000000000000000
 40
0.1537168809321360
 40
0.3139102593313301
 40
0.4699114646166876
 40
0.6298381372037815
 40
0.8603704200787554
 40
0.8603704200787554
 40
0.8603704200787554
 40
0.8603704200787554
 10
58.55260914050180
 20
127.4273471348563
 30
0.000000000000000
 10
58.50630928482320
 20
127.4492960395640
 30
0.000000000000000
 10
58.40818046825868
 20
127.4870636629920
 30
0.000000000000000
 10
58.25417211075418
 20
127.5189709185830
 30
0.000000000000000
 10
58.09516704316198
 20
127.5279138065150
 30
0.000000000000000
 10
57.91317450799119
 20
127.5124636681733
 30
0.000000000000000
 10
57.78604912638070
 20
127.4801976995579
 30
0.000000000000000
 10
57.71370282069549
 20
127.4542935130002
 30
0.000000000000000
  0
SPLINE
  5
16D
100
AcDbEntity
  8
A1
  6
CONTINUOUS
 62
7
100
AcDbSpline
210
0.000000000000000
220
0.000000000000000
230
1.000000000000000
 70
     8
 71
     3
 72
    13
 73
     9
 74
     0
 42
1.000000000000000e-07
 43
1.000000000000000e-07
 12
-0.1375277478593944
 22
0.9904979144694153
 32
0.000000000000000
 13
-0.9044131143880350
 23
0.4266578471338107
 33
0.000000000000000
 40
0.000000000000000
 40
0.000000000000000
 40
0.000000000000000
 40
0.000000000000000
 40
0.1025871786809036
 40
0.2078684163088146
 40
0.3088679101621611
 40
0.4123250222892019
 40
0.5162997991248327
 40
0.6232068072386600
 40
0.6232068072386600
 40
0.6232068072386600
 40
0.6232068072386600
 10
58.90593607926419
 20
126.9459605006717
 30
0.000000000000000
 10
58.90123321804978
 20
126.9798312961832
 30
0.000000000000000
 10
58.88644070414568
 20
127.0478148627933
 30
0.000000000000000
 10
58.84974263981880
 20
127.1444932520615
 30
0.000000000000000
 10
58.79644783741170
 20
127.2335615085265
 30
0.000000000000000
 10
58.72831476767678
 20
127.3113289831096
 30
0.000000000000000
 10
58.64609701361428
 20
127.3769989782395
 30
0.000000000000000
 10
58.58483850722118
 20
127.4121428968812
 30
0.000000000000000
 10
58.55260914050180
 20
127.4273471348563
 30
0.000000000000000
  0
SPLINE
  5
16E
100
AcDbEntity
  8
A1
  6
CONTINUOUS
 62
7
100
AcDbSpline
210
0.000000000000000
220
0.000000000000000
230
1.000000000000000
 70
     8
 71
     3
 72
    12
 73
     8
 74
     0
 42
1.000000000000000e-07
 43
1.000000000000000e-07
 12
0.1713463800597310
 22
0.9852108495379071
 32
0.000000000000000
 13
0.06694535847600491
 23
0.9977566431625746
 33
0.000000000000000
 40
0.000000000000000
 40
0.000000000000000
 40
0.000000000000000
 40
0.000000000000000
 40
0.03146808705542580
 40
0.06394452621120800
 40
0.08085103183766830
 40
0.1151745271011530
 40
0.1325147482215023
 40
0.1325147482215023
 40
0.1325147482215023
 40
0.1325147482215023
 10
71.06267449650798
 20
126.6760467394488
 30
0.000000000000000
 10
71.06447181077610
 20
126.6863809730425
 30
0.000000000000000
 10
71.06792872015518
 20
126.7074145574130
 30
0.000000000000000
 10
71.07187248490959
 20
126.7340770493351
 30
0.000000000000000
 10
71.07541921759099
 20
126.7617533327826
 30
0.000000000000000
 10
71.07782249231889
 20
126.7844887818218
 30
0.000000000000000
 10
71.07913094218978
 20
126.8016613382989
 30
0.000000000000000
 10
71.07951789129609
 20
126.8074284452379
 30
0.000000000000000
  0
SPLINE
  5
16F
100
AcDbEntity
  8
A1
  6
CONTINUOUS
 62
7
100
AcDbSpline
210
0.000000000000000
220
0.000000000000000
230
1.000000000000000
 70
     8
 71
     3
 72
    13
 73
     9
 74
     0
 42
1.000000000000000e-07
 43
1.000000000000000e-07
 12
-0.9042746000045554
 22
-0.4269513412418746
 32
0.000000000000000
 13
-0.1374128025827304
 23
-0.9905138674880618
 33
0.000000000000000
 40
0.000000000000000
 40
0.000000000000000
 40
0.000000000000000
 40
0.000000000000000
 40
0.1024529283767433
 40
0.2068765114837737
 40
0.3094792022779960
 40
0.4165401047508396
 40
0.5178936912821988
 40
0.6232036835242041
 40
0.6232036835242041
 40
0.6232036835242041
 40
0.6232036835242041
 10
71.44739085949880
 20
127.4273471348563
 30
0.000000000000000
 10
71.41650899922308
 20
127.4127663297948
 30
0.000000000000000
 10
71.35633420347250
 20
127.3784964253123
 30
0.000000000000000
 10
71.27494425361220
 20
127.3143877778596
 30
0.000000000000000
 10
71.20495816304810
 20
127.2357571821009
 30
0.000000000000000
 10
71.15112169428278
 20
127.1464153711595
 30
0.000000000000000
 10
71.11372775041460
 20
127.0483165604161
 30
0.000000000000000
 10
71.09888756779438
 20
126.9807308365719
 30
0.000000000000000
 10
71.09406392073640
 20
126.9459605006717
 30
0.000000000000000
  0
SPLINE
  5
170
100
AcDbEntity
  8
A1
  6
CONTINUOUS
 62
7
100
AcDbSpline
210
0.000000000000000
220
0.000000000000000
230
1.000000000000000
 70
     8
 71
     3
 72
    12
 73
     8
 74
     0
 42
1.000000000000000e-07
 43
1.000000000000000e-07
 12
-0.9415610370208469
 22
0.3368424165164470
 32
0.000000000000000
 13
-0.9036732978456712
 23
-0.4282225715242021
 33
0.000000000000000
 40
0.000000000000000
 40
0.000000000000000
 40
0.000000000000000
 40
0.000000000000000
 40
0.1736542491069456
 40
0.3531929998582148
 40
0.5285334753964851
 40
0.7091201281541206
 40
0.8604094732638741
 40
0.8604094732638741
 40
0.8604094732638741
 40
0.8604094732638741
 10
72.28629717930508
 20
127.4542935130002
 30
0.000000000000000
 10
72.23179515434768
 20
127.4737915519694
 30
0.000000000000000
 10
72.11793474757980
 20
127.5055169490179
 30
0.000000000000000
 10
71.94247974425929
 20
127.5276564666850
 30
0.000000000000000
 10
71.76334144854030
 20
127.5221496625400
 30
0.000000000000000
 10
71.59662253562519
 20
127.4890032341308
 30
0.000000000000000
 10
71.49296290664020
 20
127.4489423056587
 30
0.000000000000000
 10
71.44739085949880
 20
127.4273471348563
 30
0.000000000000000
  0
SPLINE
  5
171
100
AcDbEntity
  8
A1
  6
CONTINUOUS
 62
7
100
AcDbSpline
210
0.000000000000000
220
0.000000000000000
230
1.000000000000000
 70
     8
 71
     3
 72
    11
 73
     7
 74
     0
 42
1.000000000000000e-07
 43
1.000000000000000e-07
 12
-0.8925121260226661
 22
0.4510233972882816
 32
0.000000000000000
 13
-0.9411003288514621
 23
0.3381274479170315
 33
0.000000000000000
 40
0.000000000000000
 40
0.000000000000000
 40
0.000000000000000
 40
0.000000000000000
 40
0.1975428521323927
 40
0.3949326480754722
 40
0.5927199955734027
 40
0.7901260030628107
 40
0.7901260030628107
 40
0.7901260030628107
 40
0.7901260030628107
 10
73.08763238314978
 20
127.1170149138095
 30
0.000000000000000
 10
73.02886258617070
 20
127.1467137299024
 30
0.000000000000000
 10
72.91038002854540
 20
127.2041594381336
 30
0.000000000000000
 10
72.72972437848168
 20
127.2842349820267
 30
0.000000000000000
 10
72.54677744589790
 20
127.3587854580340
 30
0.000000000000000
 10
72.42343414948439
 20
127.4050976716844
 30
0.000000000000000
 10
72.36150786329588
 20
127.4273471348563
 30
0.000000000000000
  0
SPLINE
  5
172
100
AcDbEntity
  8
A1
  6
CONTINUOUS
 62
7
100
AcDbSpline
210
0.000000000000000
220
0.000000000000000
230
1.000000000000000
 70
     8
 71
     3
 72
    12
 73
     8
 74
     0
 42
1.000000000000000e-07
 43
1.000000000000000e-07
 12
-0.8635539031054122
 22
0.5042565383128021
 32
0.000000000000000
 13
-0.9999995255247995
 23
0.0009741351932461839
 33
0.000000000000000
 40
0.000000000000000
 40
0.000000000000000
 40
0.000000000000000
 40
0.000000000000000
 40
0.1218680894210436
 40
0.2424467178440632
 40
0.3515281679471737
 40
0.4558768751985948
 40
0.4836645657965457
 40
0.4836645657965457
 40
0.4836645657965457
 40
0.4836645657965457
 10
73.21478558400980
 20
130.3678477619490
 30
0.000000000000000
 10
73.17970569591529
 20
130.3883320222498
 30
0.000000000000000
 10
73.10740604807168
 20
130.4249271776434
 30
0.000000000000000
 10
72.99712324691399
 20
130.4653539209027
 30
0.000000000000000
 10
72.88844382796768
 20
130.4907004423363
 30
0.000000000000000
 10
72.80823014967669
 20
130.4991859679262
 30
0.000000000000000
 10
72.76418510410539
 20
130.4999909770110
 30
0.000000000000000
 10
72.75492254496760
 20
130.5000000000001
 30
0.000000000000000
  0
SPLINE
  5
173
100
AcDbEntity
  8
A1
  6
CONTINUOUS
 62
7
100
AcDbSpline
210
0.000000000000000
220
0.000000000000000
230
1.000000000000000
 70
     8
 71
     3
 72
     9
 73
     5
 74
     0
 42
1.000000000000000e-07
 43
1.000000000000000e-07
 12
-0.9999973012834289
 22
-0.002323236179108790
 32
0.000000000000000
 13
-0.9835188699094033
 23
-0.1808055102264916
 33
0.000000000000000
 40
0.000000000000000
 40
0.000000000000000
 40
0.000000000000000
 40
0.000000000000000
 40
0.1204907293326618
 40
0.1785049852565629
 40
0.1785049852565629
 40
0.1785049852565629
 40
0.1785049852565629
 10
57.29737148998100
 20
130.5000000000001
 30
0.000000000000000
 10
57.25720802192689
 20
130.4999066905262
 30
0.000000000000000
 10
57.19763060839250
 20
130.4961818237724
 30
0.000000000000000
 10
57.13879739481800
 20
130.4871227191911
 30
0.000000000000000
 10
57.11977802300970
 20
130.4836262868102
 30
0.000000000000000
  0
SPLINE
  5
174
100
AcDbEntity
  8
A1
  6
CONTINUOUS
 62
7
100
AcDbSpline
210
0.000000000000000
220
0.000000000000000
230
1.000000000000000
 70
     8
 71
     3
 72
    11
 73
     7
 74
     0
 42
1.000000000000000e-07
 43
1.000000000000000e-07
 12
-0.9410971930125243
 22
-0.3381361756783008
 32
0.000000000000000
 13
-0.8925194550213291
 23
-0.4510088939350680
 33
0.000000000000000
 40
0.000000000000000
 40
0.000000000000000
 40
0.000000000000000
 40
0.000000000000000
 40
0.1958818160266154
 40
0.3926318321058268
 40
0.5908905049861721
 40
0.7901259207670905
 40
0.7901259207670905
 40
0.7901259207670905
 40
0.7901259207670905
 10
57.63849213670468
 20
127.4273471348563
 30
0.000000000000000
 10
57.57704419429641
 20
127.4052688921376
 30
0.000000000000000
 10
57.45449564028740
 20
127.3592703688253
 30
0.000000000000000
 10
57.27204955202089
 20
127.2849870802896
 30
0.000000000000000
 10
57.09090127331999
 20
127.2047684740184
 30
0.000000000000000
 10
56.97164144508869
 20
127.1469672286441
 30
0.000000000000000
 10
56.91236761685079
 20
127.1170149138095
 30
0.000000000000000
  0
SPLINE
  5
175
100
AcDbEntity
  8
A1
  6
CONTINUOUS
 62
7
100
AcDbSpline
210
0.000000000000000
220
0.000000000000000
230
1.000000000000000
 70
     8
 71
     3
 72
    11
 73
     7
 74
     0
 42
1.000000000000000e-07
 43
1.000000000000000e-07
 12
0.002388701032828067
 22
0.9999971470494984
 32
0.000000000000000
 13
-0.6635715445780761
 23
0.7481128292083667
 33
0.000000000000000
 40
0.000000000000000
 40
0.000000000000000
 40
0.000000000000000
 40
0.000000000000000
 40
0.3195663733726889
 40
0.6484986922537090
 40
0.9202781210449562
 40
1.202219788476042
 40
1.202219788476042
 40
1.202219788476042
 40
1.202219788476042
 10
73.70000100000030
 20
125.8336856378941
 30
0.000000000000000
 10
73.70025544950900
 20
125.9402074584493
 30
0.000000000000000
 10
73.68266149911040
 20
126.1568015302991
 30
0.000000000000000
 10
73.60668562713900
 20
126.4556028417954
 30
0.000000000000000
 10
73.48538439165438
 20
126.7253746001670
 30
0.000000000000000
 10
73.37551145348459
 20
126.8756524411738
 30
0.000000000000000
 10
73.31314863090520
 20
126.9459605006717
 30
0.000000000000000
  0
SPLINE
  5
176
100
AcDbEntity
  8
A1
  6
CONTINUOUS
 62
7
100
AcDbSpline
210
0.000000000000000
220
0.000000000000000
230
1.000000000000000
 70
     8
 71
     3
 72
    12
 73
     8
 74
     0
 42
1.000000000000000e-07
 43
1.000000000000000e-07
 12
-0.6656240280821066
 22
-0.7462872457981575
 32
0.000000000000000
 13
0.0002312664078090165
 23
-0.9999999732572178
 33
0.000000000000000
 40
0.000000000000000
 40
0.000000000000000
 40
0.000000000000000
 40
0.000000000000000
 40
0.2512488985954630
 40
0.5118887661172051
 40
0.8131541982956706
 40
1.123010827940746
 40
1.202513894466488
 40
1.202513894466488
 40
1.202513894466488
 40
1.202513894466488
 10
56.68685136909548
 20
126.9459605006717
 30
0.000000000000000
 10
56.63110560111738
 20
126.8834592178241
 30
0.000000000000000
 10
56.52814303763378
 20
126.7459010556614
 30
0.000000000000000
 10
56.41047850707068
 20
126.5001661381366
 30
0.000000000000000
 10
56.32963891954529
 20
126.2196915410622
 30
0.000000000000000
 10
56.30260147570499
 20
125.9899606948518
 30
0.000000000000000
 10
56.29999287120410
 20
125.8601866593606
 30
0.000000000000000
 10
56.29999900000030
 20
125.8336856378941
 30
0.000000000000000
  0
ELLIPSE
  5
177
100
AcDbEntity
  8
A1
  6
CONTINUOUS
 62
7
100
AcDbEllipse
 10
65.00000000000028
 20
117.1458736557513
 30
0.000000000000000
 11
0.000000000000000
 21
-16.59703832249989
 31
0.000000000000000
210
0.000000000000000
220
0.000000000000000
230
1.000000000000000
 40
0.7350709062026436
 41
4.712388980384690
 42
4.754785674340051
  0
ELLIPSE
  5
178
100
AcDbEntity
  8
A1
  6
CONTINUOUS
 62
7
100
AcDbEllipse
 10
65.00000000000028
 20
117.1458736557513
 30
0.000000000000000
 11
0.000000000000000
 21
-16.59703832249989
 31
0.000000000000000
210
0.000000000000000
220
0.000000000000000
230
1.000000000000000
 40
0.7350709062026436
 41
1.528399632839535
 42
1.570796326794897
  0
ARC
  5
179
100
AcDbEntity
  8
A1
  6
CONTINUOUS
 62
7
100
AcDbCircle
 10
76.20000000000030
 20
129.5000000000001
 30
0.000000000000000
 40
1.000000000000000
100
AcDbArc
 50
5.090000000000000e-14
 51
90.00000000000010
  0
ARC
  5
17A
100
AcDbEntity
  8
A1
  6
CONTINUOUS
 62
7
100
AcDbCircle
 10
53.80000000000030
 20
129.5000000000001
 30
0.000000000000000
 40
1.000000000000000
100
AcDbArc
 50
90.00000000000010
 51
180.0000000000000
  0
ARC
  5
17B
100
AcDbEntity
  8
A1
  6
CONTINUOUS
 62
7
100
AcDbCircle
 10
72.59002640332849
 20
129.4892084344102
 30
0.000000000000000
 40
1.110502434459397
100
AcDbArc
 50
0.5567938218745980
 51
5.925773908788938
  0
ARC
  5
17C
100
AcDbEntity
  8
A1
  6
CONTINUOUS
 62
7
100
AcDbCircle
 10
65.02987932533179
 20
150.4055867341766
 30
0.000000000000000
 40
24.80560398016748
100
AcDbArc
 50
261.7006837412349
 51
278.1598500265744
  0
ARC
  5
17D
100
AcDbEntity
  8
A1
  6
CONTINUOUS
 62
7
100
AcDbCircle
 10
65.02607275427070
 20
150.4259176892509
 30
0.000000000000000
 40
24.82626940586914
100
AcDbArc
 50
278.1618863808568
 51
282.8499098280049
  0
ARC
  5
17E
100
AcDbEntity
  8
A1
  6
CONTINUOUS
 62
7
100
AcDbCircle
 10
65.03355592669260
 20
150.4249589463286
 30
0.000000000000000
 40
24.82530402811677
100
AcDbArc
 50
257.0161315116248
 51
261.6987408368673
  0
ARC
  5
17F
100
AcDbEntity
  8
A1
  6
CONTINUOUS
 62
7
100
AcDbCircle
 10
72.84108961452648
 20
126.6924910365653
 30
0.000000000000000
 40
1.765317406020078
100
AcDbArc
 50
171.7447709821949
 51
176.2669092518189
  0
ARC
  5
180
100
AcDbEntity
  8
A1
  6
CONTINUOUS
 62
7
100
AcDbCircle
 10
72.00000100000028
 20
126.0788377923473
 30
0.000000000000000
 40
0.4999999999999994
100
AcDbArc
 50
0.000000000000000
 51
105.9882354536347
  0
ARC
  5
181
100
AcDbEntity
  8
A1
  6
CONTINUOUS
 62
7
100
AcDbCircle
 10
57.99999900000029
 20
126.0960393754373
 30
0.000000000000000
 40
0.4999999999999994
100
AcDbArc
 50
73.87096776418940
 51
180.0000000000067
  0
ARC
  5
182
100
AcDbEntity
  8
A1
  6
CONTINUOUS
 62
7
100
AcDbCircle
 10
57.17015486238950
 20
126.6938370340172
 30
0.000000000000000
 40
1.753996201618758
100
AcDbArc
 50
4.178434904244837
 51
8.264455959548133
  0
LINE
  5
183
100
AcDbEntity
  8
A1
  6
CONTINUOUS
 62
7
100
AcDbLine
 10
57.55754443011499
 20
126.0999980000082
 30
0.000000000000000
 11
57.49854656629959
 21
126.0995009580271
 31
0.000000000000000
  0
LINE
  5
184
100
AcDbEntity
  8
A1
  6
CONTINUOUS
 62
7
100
AcDbLine
 10
72.44245556988560
 20
126.0999980000001
 30
0.000000000000000
 11
69.98751797532370
 21
126.0999980000001
 31
0.000000000000000
  0
LINE
  5
185
100
AcDbEntity
  8
A1
  6
CONTINUOUS
 62
7
100
AcDbLine
 10
60.07217417559548
 20
126.0999980000001
 30
0.000000000000000
 11
57.55754443011500
 21
126.0999980000001
 31
0.000000000000000
  0
LINE
  5
186
100
AcDbEntity
  8
A1
  6
CONTINUOUS
 62
7
100
AcDbLine
 10
72.49825771965105
 20
126.0995537038549
 30
0.000000000000000
 11
72.44245556988557
 21
126.0999980000081
 31
0.000000000000000
  0
LINE
  5
187
100
AcDbEntity
  8
A1
  6
CONTINUOUS
 62
7
100
AcDbLine
 10
73.23030387878819
 20
130.5000000000001
 30
0.000000000000000
 11
76.20000000000030
 21
130.5000000000001
 31
0.000000000000000
  0
LINE
  5
188
100
AcDbEntity
  8
A1
  6
CONTINUOUS
 62
7
100
AcDbLine
 10
53.80000000000030
 20
130.5000000000001
 30
0.000000000000000
 11
56.56056259154960
 21
130.5000000000001
 31
0.000000000000000
  0
LINE
  5
189
100
AcDbEntity
  8
A1
  6
CONTINUOUS
 62
7
100
AcDbLine
 10
77.20000000000030
 20
117.1458736557513
 30
0.000000000000000
 11
77.20000000000030
 21
129.5000000000002
 31
0.000000000000000
  0
LINE
  5
18A
100
AcDbEntity
  8
A1
  6
CONTINUOUS
 62
7
100
AcDbLine
 10
52.80000000000030
 20
129.5000000000002
 30
0.000000000000000
 11
52.80000000000030
 21
117.1458736557513
 31
0.000000000000000
  0
LINE
  5
18B
100
AcDbEntity
  8
A1
  6
CONTINUOUS
 62
7
100
AcDbLine
 10
73.70000100000030
 20
118.8735511466213
 30
0.000000000000000
 11
73.96515221113370
 21
118.8735511466213
 31
0.000000000000000
  0
LINE
  5
18C
100
AcDbEntity
  8
A1
  6
CONTINUOUS
 62
7
100
AcDbLine
 10
73.23030387878819
 20
130.5000000000001
 30
0.000000000000000
 11
72.75492254496760
 21
130.5000000000001
 31
0.000000000000000
  0
LINE
  5
18D
100
AcDbEntity
  8
A1
  6
CONTINUOUS
 62
7
100
AcDbLine
 10
57.29737148998100
 20
130.5000000000001
 30
0.000000000000000
 11
56.56056259154960
 21
130.5000000000001
 31
0.000000000000000
  0
LINE
  5
18E
100
AcDbEntity
  8
A1
  6
CONTINUOUS
 62
7
100
AcDbLine
 10
56.29999900000071
 20
118.7017614708637
 30
0.000000000000000
 11
55.80704139436682
 21
118.7017613479989
 31
0.000000000000000
  0
LINE
  5
18F
100
AcDbEntity
  8
A1
  6
CONTINUOUS
 62
7
100
AcDbLine
 10
61.74036805591328
 20
130.5000000000001
 30
0.000000000000000
 11
59.52483150827950
 21
130.5000000000001
 31
0.000000000000000
  0
LINE
  5
190
100
AcDbEntity
  8
A1
  6
CONTINUOUS
 62
7
100
AcDbLine
 10
70.47516849172089
 20
130.5000000000001
 30
0.000000000000000
 11
68.25963194408720
 21
130.5000000000001
 31
0.000000000000000
  0
LINE
  5
191
100
AcDbEntity
  8
A1
  6
CONTINUOUS
 62
7
100
AcDbLine
 10
61.74036805591328
 20
130.5000000000001
 30
0.000000000000000
 11
68.25963194408720
 21
130.5000000000001
 31
0.000000000000000
  0
LINE
  5
192
100
AcDbEntity
  8
A1
  6
CONTINUOUS
 62
7
100
AcDbLine
 10
59.45591793307230
 20
126.2343476570243
 30
0.000000000000000
 11
59.33929304380307
 21
126.2615385776783
 31
0.000000000000000
  0
LINE
  5
193
100
AcDbEntity
  8
A1
  6
CONTINUOUS
 62
7
100
AcDbLine
 10
59.30288834695890
 20
126.2701479643005
 30
0.000000000000000
 11
58.13889972613249
 21
126.5763586320572
 31
0.000000000000000
  0
LINE
  5
194
100
AcDbEntity
  8
A1
  6
CONTINUOUS
 62
7
100
AcDbLine
 10
71.86228101296160
 20
126.5594969285031
 30
0.000000000000000
 11
70.68241479548199
 21
126.2526019398165
 31
0.000000000000000
  0
LINE
  5
195
100
AcDbEntity
  8
A1
  6
CONTINUOUS
 62
7
100
AcDbLine
 10
56.29999900000030
 20
129.1332388411186
 30
0.000000000000000
 11
56.29999900000030
 21
125.8336856378941
 31
0.000000000000000
  0
LINE
  5
196
100
AcDbEntity
  8
A1
  6
CONTINUOUS
 62
7
100
AcDbLine
 10
73.70000100000030
 20
129.4501438975756
 30
0.000000000000000
 11
73.70000100000030
 21
125.8336856378941
 31
0.000000000000000
  0
LINE
  5
197
100
AcDbEntity
  8
A1
  6
CONTINUOUS
 62
7
100
AcDbLine
 10
72.28629717930508
 20
127.4542935130002
 30
0.000000000000000
 11
72.36150786329587
 21
127.4273471348563
 31
0.000000000000000
  0
LINE
  5
198
100
AcDbEntity
  8
A1
  6
CONTINUOUS
 62
7
100
AcDbLine
 10
72.75492254496760
 20
130.5000000000001
 30
0.000000000000000
 11
70.47516849172098
 21
130.5000000000001
 31
0.000000000000000
  0
LINE
  5
199
100
AcDbEntity
  8
A1
  6
CONTINUOUS
 62
7
100
AcDbLine
 10
57.63849213670468
 20
127.4273471348563
 30
0.000000000000000
 11
57.71370282069547
 21
127.4542935130001
 31
0.000000000000000
  0
LINE
  5
19A
100
AcDbEntity
  8
A1
  6
CONTINUOUS
 62
7
100
AcDbLine
 10
59.52483150827950
 20
130.5000000000000
 30
0.000000000000000
 11
57.29737148998100
 21
130.5000000000000
 31
0.000000000000000
  0
LINE
  5
19B
100
AcDbEntity
  8
A1
  6
CONTINUOUS
 62
7
100
AcDbLine
 10
72.50000000000028
 20
112.6537740000001
 30
0.000000000000000
 11
72.50000000000028
 21
126.0788377923473
 31
0.000000000000000
  0
LINE
  5
19C
100
AcDbEntity
  8
A1
  6
CONTINUOUS
 62
7
100
AcDbLine
 10
73.70000100000030
 20
125.8336856378941
 30
0.000000000000000
 11
73.70000100000030
 21
112.6537740000001
 31
0.000000000000000
  0
LINE
  5
19D
100
AcDbEntity
  8
A1
  6
CONTINUOUS
 62
7
100
AcDbLine
 10
71.07951789129609
 20
126.8074284452379
 30
0.000000000000000
 11
71.86228101296163
 21
126.5594969285032
 31
0.000000000000000
  0
LINE
  5
19E
100
AcDbEntity
  8
A1
  6
CONTINUOUS
 62
7
100
AcDbLine
 10
57.49999900000029
 20
112.6537740000001
 30
0.000000000000000
 11
57.49999900000029
 21
126.0960393754372
 31
0.000000000000000
  0
LINE
  5
19F
100
AcDbEntity
  8
A1
  6
CONTINUOUS
 62
7
100
AcDbLine
 10
56.29999900000030
 20
112.6537740000001
 30
0.000000000000000
 11
56.29999900000030
 21
125.8336856378941
 31
0.000000000000000
  0
LINE
  5
1A0
100
AcDbEntity
  8
A1
  6
CONTINUOUS
 62
7
100
AcDbLine
 10
58.13889972613249
 20
126.5763586320572
 30
0.000000000000000
 11
58.91948889319580
 21
126.8216381449514
 31
0.000000000000000
  0
LINE
  5
1A1
100
AcDbEntity
  8
A1
  6
CONTINUOUS
 62
7
100
AcDbLine
 10
57.49999900000029
 20
108.0000000000000
 30
0.000000000000000
 11
57.49999900000029
 21
112.6537740000000
 31
0.000000000000000
  0
LINE
  5
1A2
100
AcDbEntity
  8
A1
  6
CONTINUOUS
 62
7
100
AcDbLine
 10
56.29999900000030
 20
108.0000000000000
 30
0.000000000000000
 11
56.29999900000030
 21
112.6537740000000
 31
0.000000000000000
  0
LINE
  5
1A3
100
AcDbEntity
  8
A1
  6
CONTINUOUS
 62
7
100
AcDbLine
 10
56.29999900000030
 20
108.0000000000001
 30
0.000000000000000
 11
57.49999900000029
 21
108.0000000000001
 31
0.000000000000000
  0
LINE
  5
1A4
100
AcDbEntity
  8
A1
  6
CONTINUOUS
 62
7
100
AcDbLine
 10
72.50000100000028
 20
112.6537740000000
 30
0.000000000000000
 11
72.50000100000028
 21
108.0000000000000
 31
0.000000000000000
  0
LINE
  5
1A5
100
AcDbEntity
  8
A1
  6
CONTINUOUS
 62
7
100
AcDbLine
 10
73.70000100000030
 20
112.6537740000000
 30
0.000000000000000
 11
73.70000100000030
 21
108.0000000000000
 31
0.000000000000000
  0
LINE
  5
1A6
100
AcDbEntity
  8
A1
  6
CONTINUOUS
 62
7
100
AcDbLine
 10
72.50000100000028
 20
108.0000000000001
 30
0.000000000000000
 11
73.70000100000030
 21
108.0000000000001
 31
0.000000000000000
  0
ARC
  5
1A7
100
AcDbEntity
  8
A1
  6
CONTINUOUS
 62
7
100
AcDbCircle
 10
112.5160450000003
 20
61.41412700000005
 30
0.000000000000000
 40
6.602129000000000
100
AcDbArc
 50
270.0000000000000
 51
292.5216099999998
  0
ARC
  5
1A8
100
AcDbEntity
  8
A1
  6
CONTINUOUS
 62
7
100
AcDbCircle
 10
112.4839550000003
 20
61.41412700000005
 30
0.000000000000000
 40
6.602129000000000
100
AcDbArc
 50
247.4783900000002
 51
270.0000000000000
  0
ARC
  5
1A9
100
AcDbEntity
  8
A1
  6
CONTINUOUS
 62
7
100
AcDbCircle
 10
114.9682680000003
 20
55.50025600000006
 30
0.000000000000000
 40
0.2000000000000000
100
AcDbArc
 50
292.5206008574353
 51
389.0187299999956
  0
ARC
  5
1AA
100
AcDbEntity
  8
A1
  6
CONTINUOUS
 62
7
100
AcDbCircle
 10
110.0317320000003
 20
55.50025600000006
 30
0.000000000000000
 40
0.2000000000000000
100
AcDbArc
 50
150.9812700000045
 51
247.4793991425645
  0
ARC
  5
1AB
100
AcDbEntity
  8
A1
  6
CONTINUOUS
 62
7
100
AcDbCircle
 10
112.5040840000003
 20
72.16040800000005
 30
0.000000000000000
 40
3.366533000000000
100
AcDbArc
 50
27.21450058683044
 51
68.43548370507797
  0
ARC
  5
1AC
100
AcDbEntity
  8
A1
  6
CONTINUOUS
 62
7
100
AcDbCircle
 10
112.4959160000003
 20
72.16040800000005
 30
0.000000000000000
 40
3.366533000000000
100
AcDbArc
 50
111.5645162949221
 51
152.7854994131695
  0
LINE
  5
1AD
100
AcDbEntity
  8
A1
  6
CONTINUOUS
 62
7
100
AcDbLine
 10
114.7500020000003
 20
71.50000000000006
 30
0.000000000000000
 11
114.7500020000003
 21
72.50000100000005
 31
0.000000000000000
  0
LINE
  5
1AE
100
AcDbEntity
  8
A1
  6
CONTINUOUS
 62
7
100
AcDbLine
 10
114.7500020000003
 20
57.49999900000006
 30
0.000000000000000
 11
114.7500020000003
 21
58.50000000000006
 31
0.000000000000000
  0
LINE
  5
1AF
100
AcDbEntity
  8
A1
  6
CONTINUOUS
 62
7
100
AcDbLine
 10
110.2499980000003
 20
58.50000000000006
 30
0.000000000000000
 11
110.2499980000003
 21
57.49999900000006
 31
0.000000000000000
  0
LINE
  5
1B0
100
AcDbEntity
  8
A1
  6
CONTINUOUS
 62
7
100
AcDbLine
 10
110.2499980000003
 20
72.50000100000005
 30
0.000000000000000
 11
110.2499980000003
 21
71.50000000000006
 31
0.000000000000000
  0
LINE
  5
1B1
100
AcDbEntity
  8
A1
  6
CONTINUOUS
 62
7
100
AcDbLine
 10
112.4839550000003
 20
54.81199800000007
 30
0.000000000000000
 11
112.5160450000003
 21
54.81199800000007
 31
0.000000000000000
  0
LINE
  5
1B2
100
AcDbEntity
  8
A1
  6
CONTINUOUS
 62
7
100
AcDbLine
 10
110.2466600000003
 20
56.29999900000004
 30
0.000000000000000
 11
109.8568397647877
 21
55.59727510153341
 31
0.000000000000000
  0
LINE
  5
1B3
100
AcDbEntity
  8
A1
  6
CONTINUOUS
 62
7
100
AcDbLine
 10
115.1431602352129
 20
55.59727510153345
 30
0.000000000000000
 11
114.7533400000003
 21
56.29999900000007
 31
0.000000000000000
  0
LINE
  5
1B4
100
AcDbEntity
  8
A1
  6
CONTINUOUS
 62
7
100
AcDbLine
 10
112.5000000000003
 20
75.29129813195631
 30
0.000000000000000
 11
113.7414487084463
 21
75.29129813195631
 31
0.000000000000000
  0
LINE
  5
1B5
100
AcDbEntity
  8
A1
  6
CONTINUOUS
 62
7
100
AcDbLine
 10
111.2585512915543
 20
75.29129813195631
 30
0.000000000000000
 11
112.5000000000003
 21
75.29129813195631
 31
0.000000000000000
  0
ARC
  5
1B6
100
AcDbEntity
  8
A1
  6
CONTINUOUS
 62
7
100
AcDbCircle
 10
121.5000000000003
 20
65.00000000000006
 30
0.000000000000000
 40
5.000000000000000
100
AcDbArc
 50
309.8438630163201
 51
410.1561369836799
  0
CIRCLE
  5
1B7
100
AcDbEntity
  8
A1
  6
CONTINUOUS
 62
7
100
AcDbCircle
 10
107.5000000000003
 20
53.50000000000006
 30
0.000000000000000
 40
2.100000000000000
  0
CIRCLE
  5
1B8
100
AcDbEntity
  8
A1
  6
CONTINUOUS
 62
7
100
AcDbCircle
 10
135.5000000000003
 20
53.50000000000006
 30
0.000000000000000
 40
2.100000000000000
  0
CIRCLE
  5
1B9
100
AcDbEntity
  8
A1
  6
CONTINUOUS
 62
7
100
AcDbCircle
 10
135.5000000000003
 20
76.50000000000006
 30
0.000000000000000
 40
2.100000000000000
  0
CIRCLE
  5
1BA
100
AcDbEntity
  8
A1
  6
CONTINUOUS
 62
7
100
AcDbCircle
 10
107.5000000000003
 20
76.50000000000006
 30
0.000000000000000
 40
2.100000000000000
  0
ARC
  5
1BB
100
AcDbEntity
  8
A1
  6
CONTINUOUS
 62
7
100
AcDbCircle
 10
135.5000000000003
 20
53.50000000000006
 30
0.000000000000000
 40
3.500000000000000
100
AcDbArc
 50
270.0000000000000
 51
377.3796159817359
  0
ARC
  5
1BC
100
AcDbEntity
  8
A1
  6
CONTINUOUS
 62
7
100
AcDbCircle
 10
172.2423868453232
 20
65.00000000000006
 30
0.000000000000000
 40
35.00003884532290
100
AcDbArc
 50
162.6204035146805
 51
197.3795969871453
  0
ARC
  5
1BD
100
AcDbEntity
  8
A1
  6
CONTINUOUS
 62
7
100
AcDbCircle
 10
135.5000000000003
 20
76.50000000000006
 30
0.000000000000000
 40
3.500000000000000
100
AcDbArc
 50
342.6203789999996
 51
450.0000000000000
  0
ARC
  5
1BE
100
AcDbEntity
  8
A1
  6
CONTINUOUS
 62
7
100
AcDbCircle
 10
107.5000000000003
 20
76.50000000000006
 30
0.000000000000000
 40
3.500000000000000
100
AcDbArc
 50
90.00005000000014
 51
197.3796159817361
  0
ARC
  5
1BF
100
AcDbEntity
  8
A1
  6
CONTINUOUS
 62
7
100
AcDbCircle
 10
70.75765200000029
 20
65.00000000000007
 30
0.000000000000000
 40
35.00000000000000
100
AcDbArc
 50
342.6203814200908
 51
350.1291103938605
  0
ARC
  5
1C0
100
AcDbEntity
  8
A1
  6
CONTINUOUS
 62
7
100
AcDbCircle
 10
70.75765200000029
 20
65.00000000000007
 30
0.000000000000000
 40
35.00000000000000
100
AcDbArc
 50
9.870889606139524
 51
17.37961598173568
  0
ARC
  5
1C1
100
AcDbEntity
  8
A1
  6
CONTINUOUS
 62
7
100
AcDbCircle
 10
107.5000000000003
 20
53.50000000000006
 30
0.000000000000000
 40
3.500000000000000
100
AcDbArc
 50
162.6204099999999
 51
270.0000000000000
  0
LINE
  5
1C2
100
AcDbEntity
  8
A1
  6
CONTINUOUS
 62
7
100
AcDbLine
 10
107.4999969456741
 20
79.99999999999872
 30
0.000000000000000
 11
135.5000000000003
 21
80.00000000000006
 31
0.000000000000000
  0
LINE
  5
1C3
100
AcDbEntity
  8
A1
  6
CONTINUOUS
 62
7
100
AcDbLine
 10
135.5000000000003
 20
50.00000000000006
 30
0.000000000000000
 11
107.5000000000003
 21
50.00000000000006
 31
0.000000000000000
  0
ARC
  5
1C4
100
AcDbEntity
  8
A1
  6
CONTINUOUS
 62
7
100
AcDbCircle
 10
117.0000020000002
 20
71.00000000000006
 30
0.000000000000000
 40
0.5000000000000000
100
AcDbArc
 50
359.9999599999989
 51
449.9999999999999
  0
ARC
  5
1C5
100
AcDbEntity
  8
A1
  6
CONTINUOUS
 62
7
100
AcDbCircle
 10
107.9999980000004
 20
71.00000000000006
 30
0.000000000000000
 40
0.5000000000000000
100
AcDbArc
 50
90.00000000000020
 51
180.0000400000012
  0
ARC
  5
1C6
100
AcDbEntity
  8
A1
  6
CONTINUOUS
 62
7
100
AcDbCircle
 10
117.0000020000002
 20
59.00000000000006
 30
0.000000000000000
 40
0.5000000000000000
100
AcDbArc
 50
270.0000000000136
 51
360.0000000000000
  0
ARC
  5
1C7
100
AcDbEntity
  8
A1
  6
CONTINUOUS
 62
7
100
AcDbCircle
 10
107.9999980000004
 20
59.00000000000006
 30
0.000000000000000
 40
0.5000000000000000
100
AcDbArc
 50
180.0000000000000
 51
269.9999999999864
  0
ARC
  5
1C8
100
AcDbEntity
  8
A1
  6
CONTINUOUS
 62
7
100
AcDbCircle
 10
123.4733891886113
 20
70.00000000000006
 30
0.000000000000000
 40
1.000000000000000
100
AcDbArc
 50
12.02469918056638
 51
90.00000000000000
  0
ARC
  5
1C9
100
AcDbEntity
  8
A1
  6
CONTINUOUS
 62
7
100
AcDbCircle
 10
101.5266108113893
 20
70.00000000000006
 30
0.000000000000000
 40
1.000000000000000
100
AcDbArc
 50
90.00000000000000
 51
167.9753008194336
  0
ARC
  5
1CA
100
AcDbEntity
  8
A1
  6
CONTINUOUS
 62
7
100
AcDbCircle
 10
123.4733891886113
 20
60.00000000000006
 30
0.000000000000000
 40
1.000000000000000
100
AcDbArc
 50
270.0001037849448
 51
347.9753008194333
  0
ARC
  5
1CB
100
AcDbEntity
  8
A1
  6
CONTINUOUS
 62
7
100
AcDbCircle
 10
101.5266108113893
 20
60.00000000000006
 30
0.000000000000000
 40
1.000000000000000
100
AcDbArc
 50
192.0246991805666
 51
269.9998962150552
  0
ARC
  5
1CC
100
AcDbEntity
  8
A1
  6
CONTINUOUS
 62
7
100
AcDbCircle
 10
125.0000000000003
 20
65.00000000000006
 30
0.000000000000000
 40
25.00000000000000
100
AcDbArc
 50
167.9753008194342
 51
192.0246991805659
  0
ARC
  5
1CD
100
AcDbEntity
  8
A1
  6
CONTINUOUS
 62
7
100
AcDbCircle
 10
100.0000000000003
 20
65.00000000000006
 30
0.000000000000000
 40
25.00000000000000
100
AcDbArc
 50
347.9753008194341
 51
372.0246991805658
  0
LINE
  5
1CE
100
AcDbEntity
  8
A1
  6
CONTINUOUS
 62
7
100
AcDbLine
 10
112.5000000000003
 20
71.50000000000006
 30
0.000000000000000
 11
117.0000020000002
 21
71.50000000000006
 31
0.000000000000000
  0
LINE
  5
1CF
100
AcDbEntity
  8
A1
  6
CONTINUOUS
 62
7
100
AcDbLine
 10
107.9999980000004
 20
71.50000000000006
 30
0.000000000000000
 11
112.5000000000003
 21
71.50000000000006
 31
0.000000000000000
  0
LINE
  5
1D0
100
AcDbEntity
  8
A1
  6
CONTINUOUS
 62
7
100
AcDbLine
 10
112.5000000000003
 20
58.50000000000006
 30
0.000000000000000
 11
117.0000020000003
 21
58.50000000000006
 31
0.000000000000000
  0
LINE
  5
1D1
100
AcDbEntity
  8
A1
  6
CONTINUOUS
 62
7
100
AcDbLine
 10
107.9999980000003
 20
58.50000000000006
 30
0.000000000000000
 11
112.5000000000003
 21
58.50000000000006
 31
0.000000000000000
  0
LINE
  5
1D2
100
AcDbEntity
  8
A1
  6
CONTINUOUS
 62
7
100
AcDbLine
 10
112.5000000000003
 20
71.00000000000006
 30
0.000000000000000
 11
123.4733891886113
 21
71.00000000000006
 31
0.000000000000000
  0
LINE
  5
1D3
100
AcDbEntity
  8
A1
  6
CONTINUOUS
 62
7
100
AcDbLine
 10
101.5266108113893
 20
71.00000000000006
 30
0.000000000000000
 11
112.5000000000003
 21
71.00000000000006
 31
0.000000000000000
  0
LINE
  5
1D4
100
AcDbEntity
  8
A1
  6
CONTINUOUS
 62
7
100
AcDbLine
 10
112.5000000000003
 20
59.00000000000006
 30
0.000000000000000
 11
123.4733910000003
 21
59.00000000000006
 31
0.000000000000000
  0
LINE
  5
1D5
100
AcDbEntity
  8
A1
  6
CONTINUOUS
 62
7
100
AcDbLine
 10
101.5266090000003
 20
59.00000000000006
 30
0.000000000000000
 11
112.5000000000003
 21
59.00000000000006
 31
0.000000000000000
  0
SPLINE
  5
1D6
100
AcDbEntity
  8
A1
  6
CONTINUOUS
 62
7
100
AcDbSpline
210
0.000000000000000
220
0.000000000000000
230
1.000000000000000
 70
     8
 71
     3
 72
    12
 73
     8
 74
     0
 42
1.000000000000000e-07
 43
1.000000000000000e-07
 12
-0.1972758779179458
 22
-0.9803480137136376
 32
0.000000000000000
 13
0.1741959723640321
 23
-0.9847110049207686
 33
0.000000000000000
 40
0.000000000000000
 40
0.000000000000000
 40
0.000000000000000
 40
0.000000000000000
 40
0.09364748269756221
 40
0.2512827816343651
 40
0.4070916852894378
 40
0.5666021198802763
 40
0.7918616171054929
 40
0.7918616171054929
 40
0.7918616171054929
 40
0.7918616171054929
 10
108.3749608610337
 20
58.50131386612661
 30
0.000000000000000
 10
108.3688027312457
 20
58.47071149157598
 30
0.000000000000000
 10
108.3543164253758
 20
58.38817026213528
 30
0.000000000000000
 10
108.3404675479384
 20
58.25301636789355
 30
0.000000000000000
 10
108.3360652470776
 20
58.09529876647942
 30
0.000000000000000
 10
108.3436137617882
 20
57.91513785614232
 30
0.000000000000000
 10
108.3597738506341
 20
57.78764132265549
 30
0.000000000000000
 10
108.3728536163519
 20
57.71370282069529
 30
0.000000000000000
  0
SPLINE
  5
1D7
100
AcDbEntity
  8
A1
  6
CONTINUOUS
 62
7
100
AcDbSpline
210
0.000000000000000
220
0.000000000000000
230
1.000000000000000
 70
     8
 71
     3
 72
    12
 73
     8
 74
     0
 42
1.000000000000000e-07
 43
1.000000000000000e-07
 12
-0.1744391650113357
 22
-0.9846679530226083
 32
0.000000000000000
 13
0.1971795139684218
 23
-0.9803674001468607
 33
0.000000000000000
 40
0.000000000000000
 40
0.000000000000000
 40
0.000000000000000
 40
0.000000000000000
 40
0.1688989135224804
 40
0.3474056392958293
 40
0.5226781322830210
 40
0.7005846178704684
 40
0.7918394415975536
 40
0.7918394415975536
 40
0.7918394415975536
 40
0.7918394415975536
 10
108.3728536163519
 20
72.28629717930481
 30
0.000000000000000
 10
108.3630327545365
 20
72.23086073015617
 30
0.000000000000000
 10
108.3470273792449
 20
72.11604600766776
 30
0.000000000000000
 10
108.3361950489402
 20
71.94198206741098
 30
0.000000000000000
 10
108.3388968051898
 20
71.76460620627769
 30
0.000000000000000
 10
108.3533772627264
 20
71.61693842370042
 30
0.000000000000000
 10
108.3689564315334
 20
71.52853942900332
 30
0.000000000000000
 10
108.3749542921300
 20
71.49871834424059
 30
0.000000000000000
  0
SPLINE
  5
1D8
100
AcDbEntity
  8
A1
  6
CONTINUOUS
 62
7
100
AcDbSpline
210
0.000000000000000
220
0.000000000000000
230
1.000000000000000
 70
     8
 71
     3
 72
    14
 73
    10
 74
     0
 42
1.000000000000000e-07
 43
1.000000000000000e-07
 12
0.4306911662656603
 22
-0.9024993735736189
 32
0.000000000000000
 13
-0.9997986681255497
 23
0.02006547324685926
 33
0.000000000000000
 40
0.000000000000000
 40
0.000000000000000
 40
0.000000000000000
 40
0.000000000000000
 40
0.1133312948017932
 40
0.2179390033565731
 40
0.3036465441809998
 40
0.4033645331917221
 40
0.4734938405388759
 40
0.5448197463659139
 40
0.6460806508186281
 40
0.6460806508186281
 40
0.6460806508186281
 40
0.6460806508186281
 10
109.2072048143339
 20
57.93912661810933
 30
0.000000000000000
 10
109.2234750768448
 20
57.90503281058768
 30
0.000000000000000
 10
109.2458470896426
 20
57.83511444483780
 30
0.000000000000000
 10
109.2543792898118
 20
57.73288917149856
 30
0.000000000000000
 10
109.2291076005104
 20
57.63734879965212
 30
0.000000000000000
 10
109.1729621746731
 20
57.56912130927054
 30
0.000000000000000
 10
109.1025261089595
 20
57.52862009601327
 30
0.000000000000000
 10
109.0246431693024
 20
57.50518420168639
 30
0.000000000000000
 10
108.9668012853155
 20
57.49932171734365
 30
0.000000000000000
 10
108.9330544461805
 20
57.49999900000006
 30
0.000000000000000
  0
SPLINE
  5
1D9
100
AcDbEntity
  8
A1
  6
CONTINUOUS
 62
7
100
AcDbSpline
210
0.000000000000000
220
0.000000000000000
230
1.000000000000000
 70
     8
 71
     3
 72
    14
 73
    10
 74
     0
 42
1.000000000000000e-07
 43
1.000000000000000e-07
 12
0.9998115901789788
 22
0.01941092856031901
 32
0.000000000000000
 13
-0.4011968706863627
 23
-0.9159918509203635
 33
0.000000000000000
 40
0.000000000000000
 40
0.000000000000000
 40
0.000000000000000
 40
0.000000000000000
 40
0.09084034176253150
 40
0.1780869285546976
 40
0.2832651538434757
 40
0.3760144391084613
 40
0.4836733481954489
 40
0.5871485271205104
 40
0.6379761096173612
 40
0.6379761096173612
 40
0.6379761096173612
 40
0.6379761096173612
 10
108.9145516737041
 20
72.50000100000005
 30
0.000000000000000
 10
108.9448260825541
 20
72.50058876512817
 30
0.000000000000000
 10
109.0044128168538
 20
72.49513905299652
 30
0.000000000000000
 10
109.0957444338138
 20
72.46881943302419
 30
0.000000000000000
 10
109.1765713840848
 20
72.41301551281387
 30
0.000000000000000
 10
109.2277384554845
 20
72.32124562055675
 30
0.000000000000000
 10
109.2360146917568
 20
72.21762850257670
 30
0.000000000000000
 10
109.2167921010058
 20
72.13174073386740
 30
0.000000000000000
 10
109.1987739342464
 20
72.08349907792791
 30
0.000000000000000
 10
109.1919766452323
 20
72.06797986080488
 30
0.000000000000000
  0
SPLINE
  5
1DA
100
AcDbEntity
  8
A1
  6
CONTINUOUS
 62
7
100
AcDbSpline
210
0.000000000000000
220
0.000000000000000
230
1.000000000000000
 70
     8
 71
     3
 72
    16
 73
    12
 74
     0
 42
1.000000000000000e-07
 43
1.000000000000000e-07
 12
0.8561522076463461
 22
-0.5167237147081778
 32
0.000000000000000
 13
0.6764318125424325
 23
-0.7365052633756477
 33
0.000000000000000
 40
0.000000000000000
 40
0.000000000000000
 40
0.000000000000000
 40
0.000000000000000
 40
0.2367879005904596
 40
0.4994578446574157
 40
0.7766599253398352
 40
1.071158784846609
 40
1.377970363661924
 40
1.838123249275355
 40
2.312469742826657
 40
2.792202799461189
 40
3.132427898426828
 40
3.132427898426828
 40
3.132427898426828
 40
3.132427898426828
 10
127.1827930000003
 20
74.41837903883423
 30
0.000000000000000
 10
127.2503684946118
 20
74.37759439763721
 30
0.000000000000000
 10
127.3919836625845
 20
74.29003019101363
 30
0.000000000000000
 10
127.6091012808285
 20
74.14898088828565
 30
0.000000000000000
 10
127.8384549223312
 20
73.99160693298879
 30
0.000000000000000
 10
128.0756325139130
 20
73.81979331321938
 30
0.000000000000000
 10
128.3565584286739
 20
73.60461526433257
 30
0.000000000000000
 10
128.6757424264503
 20
73.34110718055486
 30
0.000000000000000
 10
129.0266460823488
 20
73.02611647893235
 30
0.000000000000000
 10
129.3352482623837
 20
72.72441348153859
 30
0.000000000000000
 10
129.5232780281625
 20
72.52598142859223
 30
0.000000000000000
 10
129.5999910549511
 20
72.44245556988534
 30
0.000000000000000
  0
SPLINE
  5
1DB
100
AcDbEntity
  8
A1
  6
CONTINUOUS
 62
7
100
AcDbSpline
210
0.000000000000000
220
0.000000000000000
230
1.000000000000000
 70
     8
 71
     3
 72
    19
 73
    15
 74
     0
 42
1.000000000000000e-07
 43
1.000000000000000e-07
 12
-0.9994742417195539
 22
-0.03242283361760201
 32
0.000000000000000
 13
-0.2950966463831719
 23
0.9554674088072943
 33
0.000000000000000
 40
0.000000000000000
 40
0.000000000000000
 40
0.000000000000000
 40
0.000000000000000
 40
0.2224748475878702
 40
0.4497192518388290
 40
0.6905187620500213
 40
0.9448334522045502
 40
1.162876559428596
 40
1.393848133345062
 40
1.643918573151717
 40
1.910200240654029
 40
2.118333435235769
 40
2.335444488452149
 40
2.564545789089701
 40
2.802503197657754
 40
2.802503197657754
 40
2.802503197657754
 40
2.802503197657754
 10
121.8621108170195
 20
54.00596180849836
 30
0.000000000000000
 10
121.7879915238213
 20
54.00355738684254
 30
0.000000000000000
 10
121.6375191517842
 20
54.01007044022818
 30
0.000000000000000
 10
121.4111095373428
 20
54.05641193489588
 30
0.000000000000000
 10
121.1849332236378
 20
54.14195940414730
 30
0.000000000000000
 10
120.9775984339578
 20
54.26015462575944
 30
0.000000000000000
 10
120.7906609038686
 20
54.40245526028150
 30
0.000000000000000
 10
120.6218649115955
 20
54.56378431830029
 30
0.000000000000000
 10
120.4607105289218
 20
54.75431559367229
 30
0.000000000000000
 10
120.3236523759121
 20
54.95362001723515
 30
0.000000000000000
 10
120.2086661947333
 20
55.15358393096318
 30
0.000000000000000
 10
120.1125574188174
 20
55.34956041736751
 30
0.000000000000000
 10
120.0253959334451
 20
55.56045236689273
 30
0.000000000000000
 10
119.9747072564669
 20
55.70778098135429
 30
0.000000000000000
 10
119.9513004453834
 20
55.78356783087796
 30
0.000000000000000
  0
SPLINE
  5
1DC
100
AcDbEntity
  8
A1
  6
CONTINUOUS
 62
7
100
AcDbSpline
210
0.000000000000000
220
0.000000000000000
230
1.000000000000000
 70
     8
 71
     3
 72
    17
 73
    13
 74
     0
 42
1.000000000000000e-07
 43
1.000000000000000e-07
 12
-0.2946891544138452
 22
0.9555931677609806
 32
0.000000000000000
 13
-0.9999943432821965
 23
0.003363540737723270
 33
0.000000000000000
 40
0.000000000000000
 40
0.000000000000000
 40
0.000000000000000
 40
0.000000000000000
 40
0.3202480596211915
 40
0.6277177305669404
 40
0.9193103647095724
 40
1.194391082159939
 40
1.455064720700900
 40
1.700597530038327
 40
1.946622943201627
 40
2.181255217982305
 40
2.406555085414273
 40
2.598016369465105
 40
2.598016369465105
 40
2.598016369465105
 40
2.598016369465105
 10
119.9513004453834
 20
55.78356783087796
 30
0.000000000000000
 10
119.9198425687526
 20
55.88557678346552
 30
0.000000000000000
 10
119.8492173606040
 20
56.08286626079519
 30
0.000000000000000
 10
119.7218475106006
 20
56.36197549554336
 30
0.000000000000000
 10
119.5769026444916
 20
56.61528048867559
 30
0.000000000000000
 10
119.4161527861558
 20
56.83998176064411
 30
0.000000000000000
 10
119.2423678762726
 20
57.03467919417204
 30
0.000000000000000
 10
119.0539490194291
 20
57.20112394285154
 30
0.000000000000000
 10
118.8512648593016
 20
57.33513887952502
 30
0.000000000000000
 10
118.6362309279683
 20
57.43322117299283
 30
0.000000000000000
 10
118.4250749975853
 20
57.48874001419132
 30
0.000000000000000
 10
118.2859052737320
 20
57.49978433739052
 30
0.000000000000000
 10
118.2220852067292
 20
57.49999900000006
 30
0.000000000000000
  0
SPLINE
  5
1DD
100
AcDbEntity
  8
A1
  6
CONTINUOUS
 62
7
100
AcDbSpline
210
0.000000000000000
220
0.000000000000000
230
1.000000000000000
 70
     8
 71
     3
 72
    14
 73
    10
 74
     0
 42
1.000000000000000e-07
 43
1.000000000000000e-07
 12
0.9998637043518102
 22
-0.01650977645169860
 32
0.000000000000000
 13
0.2143341550277000
 23
-0.9767603953830530
 33
0.000000000000000
 40
0.000000000000000
 40
0.000000000000000
 40
0.000000000000000
 40
0.000000000000000
 40
0.2225646201783335
 40
0.4560454409576661
 40
0.7093095987017645
 40
0.9870863419331581
 40
1.286888981469610
 40
1.611233311869875
 40
1.918447376394660
 40
1.918447376394660
 40
1.918447376394660
 40
1.918447376394660
 10
117.8932820952776
 20
56.29999900000006
 30
0.000000000000000
 10
117.9674601904740
 20
56.29877416929165
 30
0.000000000000000
 10
118.1201816185285
 20
56.27783274588916
 30
0.000000000000000
 10
118.3385220964159
 20
56.18014058795839
 30
0.000000000000000
 10
118.5415890944885
 20
56.02298018066526
 30
0.000000000000000
 10
118.7240914102200
 20
55.81259103610859
 30
0.000000000000000
 10
118.8801008042326
 20
55.55414318438105
 30
0.000000000000000
 10
119.0010526100479
 20
55.26725900833745
 30
0.000000000000000
 10
119.0589776600070
 20
55.06427261884403
 30
0.000000000000000
 10
119.0809264823178
 20
54.96424777513322
 30
0.000000000000000
  0
SPLINE
  5
1DE
100
AcDbEntity
  8
A1
  6
CONTINUOUS
 62
7
100
AcDbSpline
210
0.000000000000000
220
0.000000000000000
230
1.000000000000000
 70
     8
 71
     3
 72
    17
 73
    13
 74
     0
 42
1.000000000000000e-07
 43
1.000000000000000e-07
 12
0.2164744698577579
 22
-0.9762882790957406
 32
0.000000000000000
 13
0.9988011523423665
 23
-0.04895158914678177
 33
0.000000000000000
 40
0.000000000000000
 40
0.000000000000000
 40
0.000000000000000
 40
0.000000000000000
 40
0.4431545943297147
 40
0.8650527601529829
 40
1.162332034018438
 40
1.445996931437681
 40
1.714304422437178
 40
1.986206226125576
 40
2.243732622938834
 40
2.487500314331472
 40
2.786840340275964
 40
3.076445484519149
 40
3.076445484519149
 40
3.076445484519149
 40
3.076445484519149
 10
119.0809264823178
 20
54.96424777513322
 30
0.000000000000000
 10
119.1129037009420
 20
54.82003222970937
 30
0.000000000000000
 10
119.1907873057522
 20
54.54177476179449
 30
0.000000000000000
 10
119.3324956168736
 20
54.18036436777540
 30
0.000000000000000
 10
119.4858945476396
 20
53.88286744924179
 30
0.000000000000000
 10
119.6380058699341
 20
53.64363904657014
 30
0.000000000000000
 10
119.8075372022984
 20
53.42696923933877
 30
0.000000000000000
 10
119.9945593395970
 20
53.23701251422656
 30
0.000000000000000
 10
120.1976176511440
 20
53.07706328201013
 30
0.000000000000000
 10
120.4287401575133
 20
52.94189699401706
 30
0.000000000000000
 10
120.6906667113638
 20
52.84425026361488
 30
0.000000000000000
 10
120.8864959571841
 20
52.81568852763527
 30
0.000000000000000
 10
120.9829152744489
 20
52.81096298362336
 30
0.000000000000000
  0
SPLINE
  5
1DF
100
AcDbEntity
  8
A1
  6
CONTINUOUS
 62
7
100
AcDbSpline
210
0.000000000000000
220
0.000000000000000
230
1.000000000000000
 70
     8
 71
     3
 72
    17
 73
    13
 74
     0
 42
1.000000000000000e-07
 43
1.000000000000000e-07
 12
0.9999762713075597
 22
0.006888891241260353
 32
0.000000000000000
 13
0.2955742623344122
 23
0.9553197660700334
 33
0.000000000000000
 40
0.000000000000000
 40
0.000000000000000
 40
0.000000000000000
 40
0.000000000000000
 40
0.2256881943745686
 40
0.4572965561216885
 40
0.6978189592337024
 40
0.9517269925285525
 40
1.222173972004487
 40
1.508936481341554
 40
1.812010513313686
 40
2.133689897968923
 40
2.470672284938637
 40
2.597774500829816
 40
2.597774500829816
 40
2.597774500829816
 40
2.597774500829816
 10
118.2220852067292
 20
72.50000100000005
 30
0.000000000000000
 10
118.2973128197588
 20
72.50051924714188
 30
0.000000000000000
 10
118.4501013705188
 20
72.51493601678776
 30
0.000000000000000
 10
118.6744686140489
 20
72.58089361202323
 30
0.000000000000000
 10
118.8926816878600
 20
72.68808063977390
 30
0.000000000000000
 10
119.1013449823978
 20
72.83626107546104
 30
0.000000000000000
 10
119.2985818979415
 20
73.02229436460681
 30
0.000000000000000
 10
119.4815754016339
 20
73.24397660566214
 30
0.000000000000000
 10
119.6471016684312
 20
73.49947493054249
 30
0.000000000000000
 10
119.7935288128147
 20
73.78521249880339
 30
0.000000000000000
 10
119.8904878140849
 20
74.02897134382812
 30
0.000000000000000
 10
119.9387777312023
 20
74.17595775065030
 30
0.000000000000000
 10
119.9513004457700
 20
74.21643217036768
 30
0.000000000000000
  0
SPLINE
  5
1E0
100
AcDbEntity
  8
A1
  6
CONTINUOUS
 62
7
100
AcDbSpline
210
0.000000000000000
220
0.000000000000000
230
1.000000000000000
 70
     8
 71
     3
 72
    18
 73
    14
 74
     0
 42
1.000000000000000e-07
 43
1.000000000000000e-07
 12
0.2950217055547455
 22
0.9554905511052993
 32
0.000000000000000
 13
0.9995259669442476
 23
-0.03078703307414798
 33
0.000000000000000
 40
0.000000000000000
 40
0.000000000000000
 40
0.000000000000000
 40
0.000000000000000
 40
0.2546106157832229
 40
0.5008999082435628
 40
0.7866254109189088
 40
1.059364033347393
 40
1.317542937580851
 40
1.582048975272159
 40
1.832762009825333
 40
2.070334157970262
 40
2.320440937634735
 40
2.563344284432774
 40
2.802159028233727
 40
2.802159028233727
 40
2.802159028233727
 40
2.802159028233727
 10
119.9513004457700
 20
74.21643217036768
 30
0.000000000000000
 10
119.9763389984769
 20
74.29752484956501
 30
0.000000000000000
 10
120.0310790705908
 20
74.45541768452338
 30
0.000000000000000
 10
120.1328809921335
 20
74.69725130196019
 30
0.000000000000000
 10
120.2561339014853
 20
74.93591517381647
 30
0.000000000000000
 10
120.4024109725894
 20
75.16594229010479
 30
0.000000000000000
 10
120.5658156424713
 20
75.37531979917236
 30
0.000000000000000
 10
120.7465581430029
 20
75.56002908819175
 30
0.000000000000000
 10
120.9433869408171
 20
75.71677025867871
 30
0.000000000000000
 10
121.1553142214413
 20
75.84350772653265
 30
0.000000000000000
 10
121.3821220045445
 20
75.93522294117852
 30
0.000000000000000
 10
121.6213006068881
 20
75.98848834784349
 30
0.000000000000000
 10
121.7825436377801
 20
75.99648899064043
 30
0.000000000000000
 10
121.8621108170195
 20
75.99403819150176
 30
0.000000000000000
  0
SPLINE
  5
1E1
100
AcDbEntity
  8
A1
  6
CONTINUOUS
 62
7
100
AcDbSpline
210
0.000000000000000
220
0.000000000000000
230
1.000000000000000
 70
     8
 71
     3
 72
    18
 73
    14
 74
     0
 42
1.000000000000000e-07
 43
1.000000000000000e-07
 12
-0.9988546772867721
 22
-0.04784698174739788
 32
0.000000000000000
 13
-0.1095899951527599
 23
-0.9939768774788718
 33
0.000000000000000
 40
0.000000000000000
 40
0.000000000000000
 40
0.000000000000000
 40
0.000000000000000
 40
0.2515186804460506
 40
0.5104303559668211
 40
0.7800756621266466
 40
1.066675699878265
 40
1.373249240165734
 40
1.699358546356157
 40
2.024576656535904
 40
2.369147718934558
 40
2.729048622987164
 40
3.152521149745581
 40
3.589678361884692
 40
3.589678361884692
 40
3.589678361884692
 40
3.589678361884692
 10
120.9829152744489
 20
77.18903701637676
 30
0.000000000000000
 10
120.8991717376527
 20
77.18502554647262
 30
0.000000000000000
 10
120.7294610549354
 20
77.16239835364469
 30
0.000000000000000
 10
120.4811385175173
 20
77.08089806133015
 30
0.000000000000000
 10
120.2398442303187
 20
76.95324647596034
 30
0.000000000000000
 10
120.0100011221211
 20
76.77847336149756
 30
0.000000000000000
 10
119.7941232945471
 20
76.55973418525892
 30
0.000000000000000
 10
119.6002130319288
 20
76.30501349310582
 30
0.000000000000000
 10
119.4306934193063
 20
76.01888934791702
 30
0.000000000000000
 10
119.2853842306908
 20
75.70737876580246
 30
0.000000000000000
 10
119.1581767619542
 20
75.35301806546362
 30
0.000000000000000
 10
119.0576218598997
 20
74.95817292178592
 30
0.000000000000000
 10
119.0124090391372
 20
74.67438950859483
 30
0.000000000000000
 10
118.9964396868841
 20
74.52954812169837
 30
0.000000000000000
  0
SPLINE
  5
1E2
100
AcDbEntity
  8
A1
  6
CONTINUOUS
 62
7
100
AcDbSpline
210
0.000000000000000
220
0.000000000000000
230
1.000000000000000
 70
     8
 71
     3
 72
    16
 73
    12
 74
     0
 42
1.000000000000000e-07
 43
1.000000000000000e-07
 12
-0.1088677941943388
 22
-0.9940562375370519
 32
0.000000000000000
 13
-0.9999947288551994
 23
-0.003246884953568951
 33
0.000000000000000
 40
0.000000000000000
 40
0.000000000000000
 40
0.000000000000000
 40
0.000000000000000
 40
0.1594559455071701
 40
0.3127529924041704
 40
0.4572064377008208
 40
0.5920785143225733
 40
0.7226188952973386
 40
0.8425647787983200
 40
0.9611208334215456
 40
1.072543760082825
 40
1.129538817455235
 40
1.129538817455235
 40
1.129538817455235
 40
1.129538817455235
 10
118.9964396868841
 20
74.52954812169837
 30
0.000000000000000
 10
118.9906531478646
 20
74.47671206261710
 30
0.000000000000000
 10
118.9734086539593
 20
74.37365327070596
 30
0.000000000000000
 10
118.9324219680479
 20
74.22654588503838
 30
0.000000000000000
 10
118.8771814373052
 20
74.09294322624355
 30
0.000000000000000
 10
118.8093704839904
 20
73.97386405823099
 30
0.000000000000000
 10
118.7295680453959
 20
73.87250579461238
 30
0.000000000000000
 10
118.6377148792360
 20
73.78962599376216
 30
0.000000000000000
 10
118.5358752919161
 20
73.73072536327210
 30
0.000000000000000
 10
118.4428245992347
 20
73.70391275779150
 30
0.000000000000000
 10
118.3866269784539
 20
73.70006268546480
 30
0.000000000000000
 10
118.3676287261395
 20
73.70000100000006
 30
0.000000000000000
  0
ELLIPSE
  5
1E3
100
AcDbEntity
  8
A1
  6
CONTINUOUS
 62
7
100
AcDbEllipse
 10
108.4622546934443
 20
57.99999900000006
 30
0.000000000000000
 11
0.000000000000000
 21
-0.4999999999999998
 31
0.000000000000000
210
0.000000000000000
220
0.000000000000000
230
1.000000000000000
 40
0.03419265135799790
 41
0.000000000000000
 42
1.852301044464998
  0
ELLIPSE
  5
1E4
100
AcDbEntity
  8
A1
  6
CONTINUOUS
 62
7
100
AcDbEllipse
 10
108.4616665257109
 20
72.00000100000005
 30
0.000000000000000
 11
0.000000000000000
 21
-0.4999999999999998
 31
0.000000000000000
210
0.000000000000000
220
0.000000000000000
230
1.000000000000000
 40
0.03419265135799790
 41
1.291748976546231
 42
3.141592653589793
  0
ARC
  5
1E5
100
AcDbEntity
  8
A1
  6
CONTINUOUS
 62
7
100
AcDbCircle
 10
121.5000000000003
 20
65.00000000000006
 30
0.000000000000000
 40
6.508357213500130
100
AcDbArc
 50
247.2042101060011
 51
472.7957898939990
  0
ARC
  5
1E6
100
AcDbEntity
  8
A1
  6
CONTINUOUS
 62
7
100
AcDbCircle
 10
121.5000000000003
 20
65.00000000000006
 30
0.000000000000000
 40
9.191638786499871
100
AcDbArc
 50
125.3176971640730
 51
134.9953286428986
  0
ARC
  5
1E7
100
AcDbEntity
  8
A1
  6
CONTINUOUS
 62
7
100
AcDbCircle
 10
121.5000000000003
 20
65.00000000000006
 30
0.000000000000000
 40
9.191638786499871
100
AcDbArc
 50
259.9160910447470
 51
460.1034215725317
  0
ARC
  5
1E8
100
AcDbEntity
  8
A1
  6
CONTINUOUS
 62
7
100
AcDbCircle
 10
121.5000000000003
 20
65.00000000000006
 30
0.000000000000000
 40
9.191638786499871
100
AcDbArc
 50
225.0046713571014
 51
234.6823028359271
  0
ARC
  5
1E9
100
AcDbEntity
  8
A1
  6
CONTINUOUS
 62
7
100
AcDbCircle
 10
121.5000000000003
 20
65.00000000000006
 30
0.000000000000000
 40
12.20000000000000
100
AcDbArc
 50
311.6005731438904
 51
408.3994268561098
  0
ARC
  5
1EA
100
AcDbEntity
  8
A1
  6
CONTINUOUS
 62
7
100
AcDbCircle
 10
121.5000000000003
 20
65.00000000000006
 30
0.000000000000000
 40
11.00000000000000
100
AcDbArc
 50
317.4224986662712
 51
402.5775013337288
  0
ARC
  5
1EB
100
AcDbEntity
  8
A1
  6
CONTINUOUS
 62
7
100
AcDbCircle
 10
121.4933782745742
 20
65.00956962972444
 30
0.000000000000000
 40
12.21155255436802
100
AcDbArc
 50
297.7687618700670
 51
311.5939953832606
  0
ARC
  5
1EC
100
AcDbEntity
  8
A1
  6
CONTINUOUS
 62
7
100
AcDbCircle
 10
121.4943226426522
 20
65.00694525742263
 30
0.000000000000000
 40
11.00887973846733
100
AcDbArc
 50
301.1122607455685
 51
317.4158733098203
  0
ARC
  5
1ED
100
AcDbEntity
  8
A1
  6
CONTINUOUS
 62
7
100
AcDbCircle
 10
121.4959354776341
 20
64.99412600620724
 30
0.000000000000000
 40
12.20709112600598
100
AcDbArc
 50
48.40346586779800
 51
62.23377687887427
  0
ARC
  5
1EE
100
AcDbEntity
  8
A1
  6
CONTINUOUS
 62
7
100
AcDbCircle
 10
121.4999977911837
 20
65.00000000000006
 30
0.000000000000000
 40
12.19999999999999
100
AcDbArc
 50
92.42914126483953
 51
125.5018916764775
  0
ARC
  5
1EF
100
AcDbEntity
  8
A1
  6
CONTINUOUS
 62
7
100
AcDbCircle
 10
121.4999977911837
 20
65.00000000000006
 30
0.000000000000000
 40
12.19999999999999
100
AcDbArc
 50
234.3671229995580
 51
267.5708587351605
  0
ARC
  5
1F0
100
AcDbEntity
  8
A1
  6
CONTINUOUS
 62
7
100
AcDbCircle
 10
121.5000000000003
 20
65.00000000000006
 30
0.000000000000000
 40
12.19999999999999
100
AcDbArc
 50
267.5708483710501
 51
297.7621841094370
  0
ARC
  5
1F1
100
AcDbEntity
  8
A1
  6
CONTINUOUS
 62
7
100
AcDbCircle
 10
121.5000000000003
 20
65.00000000000006
 30
0.000000000000000
 40
11.00000000000001
100
AcDbArc
 50
271.8864700537370
 51
301.1056353891176
  0
ARC
  5
1F2
100
AcDbEntity
  8
A1
  6
CONTINUOUS
 62
7
100
AcDbCircle
 10
121.5000000000003
 20
65.00000000000006
 30
0.000000000000000
 40
11.00000000000001
100
AcDbArc
 50
58.89436461088235
 51
88.11352994626307
  0
ARC
  5
1F3
100
AcDbEntity
  8
A1
  6
CONTINUOUS
 62
7
100
AcDbCircle
 10
121.5000000000003
 20
65.00000000000006
 30
0.000000000000000
 40
12.19999999999999
100
AcDbArc
 50
62.23781589056305
 51
92.42915162894988
  0
LINE
  5
1F4
100
AcDbEntity
  8
A1
  6
CONTINUOUS
 62
7
100
AcDbLine
 10
108.3863268188970
 20
57.63849213670444
 30
0.000000000000000
 11
108.3728536163519
 21
57.71370282069528
 31
0.000000000000000
  0
LINE
  5
1F5
100
AcDbEntity
  8
A1
  6
CONTINUOUS
 62
7
100
AcDbLine
 10
108.3728536163519
 20
72.28629717930480
 30
0.000000000000000
 11
108.3863268188970
 21
72.36150786329566
 31
0.000000000000000
  0
LINE
  5
1F6
100
AcDbEntity
  8
A1
  6
CONTINUOUS
 62
7
100
AcDbLine
 10
108.4102668034738
 20
72.50012866720043
 30
0.000000000000000
 11
108.3863268188970
 21
72.36150786329564
 31
0.000000000000000
  0
LINE
  5
1F7
100
AcDbEntity
  8
A1
  6
CONTINUOUS
 62
7
100
AcDbLine
 10
108.3863268188970
 20
57.63849213670446
 30
0.000000000000000
 11
108.4102661542439
 21
57.49987526563760
 31
0.000000000000000
  0
LINE
  5
1F8
100
AcDbEntity
  8
A1
  6
CONTINUOUS
 62
7
100
AcDbLine
 10
108.4786780823264
 20
58.13889972613229
 30
0.000000000000000
 11
108.4825577931014
 21
58.50000000000006
 31
0.000000000000000
  0
LINE
  5
1F9
100
AcDbEntity
  8
A1
  6
CONTINUOUS
 62
7
100
AcDbLine
 10
108.4820250908586
 20
71.50000000000004
 30
0.000000000000000
 11
108.4781015359755
 21
71.86228101296132
 31
0.000000000000000
  0
LINE
  5
1FA
100
AcDbEntity
  8
A1
  6
CONTINUOUS
 62
7
100
AcDbLine
 10
109.6352900458117
 20
58.13889972613232
 30
0.000000000000000
 11
109.2072048143339
 21
57.93912661810934
 31
0.000000000000000
  0
LINE
  5
1FB
100
AcDbEntity
  8
A1
  6
CONTINUOUS
 62
7
100
AcDbLine
 10
109.1919766452323
 20
72.06797986080487
 30
0.000000000000000
 11
109.6327598906114
 21
71.86228101296130
 31
0.000000000000000
  0
LINE
  5
1FC
100
AcDbEntity
  8
A1
  6
CONTINUOUS
 62
7
100
AcDbLine
 10
109.6352900458117
 20
58.13889972613230
 30
0.000000000000000
 11
110.2494089432146
 21
58.42548854492031
 31
0.000000000000000
  0
LINE
  5
1FD
100
AcDbEntity
  8
A1
  6
CONTINUOUS
 62
7
100
AcDbLine
 10
110.2494089432146
 20
71.57451145507981
 30
0.000000000000000
 11
109.6327598906114
 21
71.86228101296133
 31
0.000000000000000
  0
LINE
  5
1FE
100
AcDbEntity
  8
A1
  6
CONTINUOUS
 62
7
100
AcDbLine
 10
118.2220852067292
 20
57.49999900000006
 30
0.000000000000000
 11
116.1258160000003
 21
57.49999900000006
 31
0.000000000000000
  0
LINE
  5
1FF
100
AcDbEntity
  8
A1
  6
CONTINUOUS
 62
7
100
AcDbLine
 10
117.8932820952776
 20
56.29999900000006
 30
0.000000000000000
 11
116.1258160000003
 21
56.29999900000006
 31
0.000000000000000
  0
LINE
  5
200
100
AcDbEntity
  8
A1
  6
CONTINUOUS
 62
7
100
AcDbLine
 10
116.1258160000003
 20
72.50000100000005
 30
0.000000000000000
 11
118.2220852067292
 21
72.50000100000005
 31
0.000000000000000
  0
LINE
  5
201
100
AcDbEntity
  8
A1
  6
CONTINUOUS
 62
7
100
AcDbLine
 10
116.1258160000003
 20
73.70000100000006
 30
0.000000000000000
 11
118.3676287261395
 21
73.70000100000006
 31
0.000000000000000
  0
LINE
  5
202
100
AcDbEntity
  8
A1
  6
CONTINUOUS
 62
7
100
AcDbLine
 10
112.5000000668188
 20
57.49999900000006
 30
0.000000000000000
 11
107.9999998572615
 21
57.49999900000006
 31
0.000000000000000
  0
LINE
  5
203
100
AcDbEntity
  8
A1
  6
CONTINUOUS
 62
7
100
AcDbLine
 10
112.5000000668188
 20
56.29999900000006
 30
0.000000000000000
 11
107.9999998572615
 21
56.29999900000006
 31
0.000000000000000
  0
LINE
  5
204
100
AcDbEntity
  8
A1
  6
CONTINUOUS
 62
7
100
AcDbLine
 10
107.9999998572615
 20
57.49999900000003
 30
0.000000000000000
 11
107.9999998572615
 21
56.29999900000004
 31
0.000000000000000
  0
LINE
  5
205
100
AcDbEntity
  8
A1
  6
CONTINUOUS
 62
7
100
AcDbLine
 10
107.9999998572615
 20
73.70000100000007
 30
0.000000000000000
 11
107.9999998572615
 21
72.50000000000000
 31
0.000000000000000
  0
LINE
  5
206
100
AcDbEntity
  8
A1
  6
CONTINUOUS
 62
7
100
AcDbLine
 10
107.9999998572615
 20
72.50000100000005
 30
0.000000000000000
 11
112.5000000000003
 21
72.50000100000005
 31
0.000000000000000
  0
LINE
  5
207
100
AcDbEntity
  8
A1
  6
CONTINUOUS
 62
7
100
AcDbLine
 10
107.9999998572615
 20
73.70000100000006
 30
0.000000000000000
 11
112.5000000668188
 21
73.70000100000006
 31
0.000000000000000
  0
LINE
  5
208
100
AcDbEntity
  8
A1
  6
CONTINUOUS
 62
7
100
AcDbLine
 10
116.1258160000003
 20
57.49999900000006
 30
0.000000000000000
 11
112.5000000668188
 21
57.49999900000006
 31
0.000000000000000
  0
LINE
  5
209
100
AcDbEntity
  8
A1
  6
CONTINUOUS
 62
7
100
AcDbLine
 10
116.1258160000003
 20
56.29999900000006
 30
0.000000000000000
 11
112.5000000668188
 21
56.29999900000006
 31
0.000000000000000
  0
LINE
  5
20A
100
AcDbEntity
  8
A1
  6
CONTINUOUS
 62
7
100
AcDbLine
 10
112.5000000000003
 20
72.50000100000005
 30
0.000000000000000
 11
116.1258160000003
 21
72.50000100000005
 31
0.000000000000000
  0
LINE
  5
20B
100
AcDbEntity
  8
A1
  6
CONTINUOUS
 62
7
100
AcDbLine
 10
112.5000000668188
 20
73.70000100000006
 30
0.000000000000000
 11
116.1258160000003
 21
73.70000100000006
 31
0.000000000000000
  0
CIRCLE
  5
20C
100
AcDbEntity
  8
A1
  6
CONTINUOUS
 62
7
100
AcDbCircle
 10
235.5000000000003
 20
112.5000000000001
 30
0.000000000000000
 40
2.668268000000000
  0
ARC
  5
20D
100
AcDbEntity
  8
A1
  6
CONTINUOUS
 62
7
100
AcDbCircle
 10
234.3500000000003
 20
131.4844980000001
 30
0.000000000000000
 40
1.800000000000000
100
AcDbArc
 50
326.8424354717112
 51
347.6658778346562
  0
ARC
  5
20E
100
AcDbEntity
  8
A1
  6
CONTINUOUS
 62
7
100
AcDbCircle
 10
218.6500000000003
 20
131.4844980000001
 30
0.000000000000000
 40
1.800000000000000
100
AcDbArc
 50
192.3341221653438
 51
213.1575645282888
  0
ARC
  5
20F
100
AcDbEntity
  8
A1
  6
CONTINUOUS
 62
7
100
AcDbCircle
 10
219.7017005802924
 20
131.4844980000001
 30
0.000000000000000
 40
1.800000000000000
100
AcDbArc
 50
192.3341221653438
 51
213.1575645282888
  0
ARC
  5
210
100
AcDbEntity
  8
A1
  6
CONTINUOUS
 62
7
100
AcDbCircle
 10
233.2982994197081
 20
131.4844980000001
 30
0.000000000000000
 40
1.800000000000000
100
AcDbArc
 50
326.8424354717112
 51
347.6658778346562
  0
ARC
  5
211
100
AcDbEntity
  8
A1
  6
CONTINUOUS
 62
7
100
AcDbCircle
 10
222.5750000000003
 20
131.4844980000001
 30
0.000000000000000
 40
1.800000000000000
100
AcDbArc
 50
326.8424354717112
 51
347.6658778346562
  0
ARC
  5
212
100
AcDbEntity
  8
A1
  6
CONTINUOUS
 62
7
100
AcDbCircle
 10
222.5750000000003
 20
131.4844980000001
 30
0.000000000000000
 40
1.800000000000000
100
AcDbArc
 50
192.3341221653438
 51
213.1575645282888
  0
ARC
  5
213
100
AcDbEntity
  8
A1
  6
CONTINUOUS
 62
7
100
AcDbCircle
 10
230.4250000000003
 20
131.4844980000001
 30
0.000000000000000
 40
1.800000000000000
100
AcDbArc
 50
326.8424354717112
 51
347.6658778346562
  0
ARC
  5
214
100
AcDbEntity
  8
A1
  6
CONTINUOUS
 62
7
100
AcDbCircle
 10
230.4250000000003
 20
131.4844980000001
 30
0.000000000000000
 40
1.800000000000000
100
AcDbArc
 50
192.3341221653438
 51
213.1575645282888
  0
ARC
  5
215
100
AcDbEntity
  8
A1
  6
CONTINUOUS
 62
7
100
AcDbCircle
 10
226.5000000000003
 20
131.4844980000001
 30
0.000000000000000
 40
1.800000000000000
100
AcDbArc
 50
326.8424354717112
 51
347.6658778346562
  0
ARC
  5
216
100
AcDbEntity
  8
A1
  6
CONTINUOUS
 62
7
100
AcDbCircle
 10
226.5000000000003
 20
131.4844980000001
 30
0.000000000000000
 40
1.800000000000000
100
AcDbArc
 50
192.3341221653438
 51
213.1575645282888
  0
ARC
  5
217
100
AcDbEntity
  8
A1
  6
CONTINUOUS
 62
7
100
AcDbCircle
 10
237.8805027319768
 20
133.0999960000001
 30
0.000000000000000
 40
2.000000000000000
100
AcDbArc
 50
270.0000000000000
 51
333.2519142592067
  0
ARC
  5
218
100
AcDbEntity
  8
A1
  6
CONTINUOUS
 62
7
100
AcDbCircle
 10
215.1194972680238
 20
133.0999960000001
 30
0.000000000000000
 40
2.000000000000000
100
AcDbArc
 50
206.7480857407933
 51
270.0000000000000
  0
ARC
  5
219
100
AcDbEntity
  8
A1
  6
CONTINUOUS
 62
7
100
AcDbCircle
 10
212.3199253179259
 20
133.0999980000001
 30
0.000000000000000
 40
0.5000000000000000
100
AcDbArc
 50
26.74808574079327
 51
90.00000000000000
  0
ARC
  5
21A
100
AcDbEntity
  8
A1
  6
CONTINUOUS
 62
7
100
AcDbCircle
 10
240.6800746820746
 20
133.0999980000001
 30
0.000000000000000
 40
0.5000000000000000
100
AcDbArc
 50
90.00000000000000
 51
153.2519142592068
  0
LINE
  5
21B
100
AcDbEntity
  8
A1
  6
CONTINUOUS
 62
7
100
AcDbLine
 10
237.8805027319768
 20
131.0999960000001
 30
0.000000000000000
 11
215.1194972680238
 21
131.0999960000001
 31
0.000000000000000
  0
LINE
  5
21C
100
AcDbEntity
  8
A1
  6
CONTINUOUS
 62
7
100
AcDbLine
 10
239.6664906934935
 20
132.1998587875055
 30
0.000000000000000
 11
240.2335776916955
 21
133.3250323031237
 31
0.000000000000000
  0
LINE
  5
21D
100
AcDbEntity
  8
A1
  6
CONTINUOUS
 62
7
100
AcDbLine
 10
212.7664223083051
 20
133.3250323031237
 30
0.000000000000000
 11
213.3335093065071
 21
132.1998587875054
 31
0.000000000000000
  0
LINE
  5
21E
100
AcDbEntity
  8
A1
  6
CONTINUOUS
 62
7
100
AcDbLine
 10
209.0000000000003
 20
133.5999980000001
 30
0.000000000000000
 11
212.5000000000003
 21
133.5999980000001
 31
0.000000000000000
  0
LINE
  5
21F
100
AcDbEntity
  8
A1
  6
CONTINUOUS
 62
7
100
AcDbLine
 10
209.0000000000003
 20
134.9999980000001
 30
0.000000000000000
 11
212.5000000000003
 21
134.9999980000001
 31
0.000000000000000
  0
LINE
  5
220
100
AcDbEntity
  8
A1
  6
CONTINUOUS
 62
7
100
AcDbLine
 10
240.5000000000003
 20
133.5999980000001
 30
0.000000000000000
 11
244.0000000000003
 21
133.5999980000001
 31
0.000000000000000
  0
LINE
  5
221
100
AcDbEntity
  8
A1
  6
CONTINUOUS
 62
7
100
AcDbLine
 10
240.5000000000003
 20
134.9999980000001
 30
0.000000000000000
 11
244.0000000000003
 21
134.9999980000001
 31
0.000000000000000
  0
LINE
  5
222
100
AcDbEntity
  8
A1
  6
CONTINUOUS
 62
7
100
AcDbLine
 10
244.0000000000003
 20
133.5999980000001
 30
0.000000000000000
 11
244.0000000000003
 21
134.9999980000001
 31
0.000000000000000
  0
LINE
  5
223
100
AcDbEntity
  8
A1
  6
CONTINUOUS
 62
7
100
AcDbLine
 10
212.5000000000003
 20
133.5999980000001
 30
0.000000000000000
 11
240.5000000000003
 21
133.5999980000001
 31
0.000000000000000
  0
LINE
  5
224
100
AcDbEntity
  8
A1
  6
CONTINUOUS
 62
7
100
AcDbLine
 10
212.5000000000003
 20
134.9999980000001
 30
0.000000000000000
 11
240.5000000000003
 21
134.9999980000001
 31
0.000000000000000
  0
ARC
  5
225
100
AcDbEntity
  8
A1
  6
CONTINUOUS
 62
7
100
AcDbCircle
 10
235.5000000000003
 20
112.5000000000001
 30
0.000000000000000
 40
12.50000000000000
100
AcDbArc
 50
147.4187334722464
 51
430.8581349039465
  0
ARC
  5
226
100
AcDbEntity
  8
A1
  6
CONTINUOUS
 62
7
100
AcDbCircle
 10
235.5000000000003
 20
112.5000000000001
 30
0.000000000000000
 40
8.000000000000000
100
AcDbArc
 50
270.0000000000000
 51
417.7294640380708
  0
ARC
  5
227
100
AcDbEntity
  8
A1
  6
CONTINUOUS
 62
7
100
AcDbCircle
 10
235.5000000000003
 20
112.5000000000001
 30
0.000000000000000
 40
8.000000000000000
100
AcDbArc
 50
160.5639959444796
 51
270.0000000000000
  0
ARC
  5
228
100
AcDbEntity
  8
A1
  6
CONTINUOUS
 62
7
100
AcDbCircle
 10
235.5000000000003
 20
112.5000000000001
 30
0.000000000000000
 40
9.000000000000000
100
AcDbArc
 50
270.0000000000000
 51
421.9583305624917
  0
ARC
  5
229
100
AcDbEntity
  8
A1
  6
CONTINUOUS
 62
7
100
AcDbCircle
 10
235.5000000000003
 20
112.5000000000001
 30
0.000000000000000
 40
9.000000000000000
100
AcDbArc
 50
156.3241299981595
 51
270.0000000000000
  0
ARC
  5
22A
100
AcDbEntity
  8
A1
  6
CONTINUOUS
 62
7
100
AcDbCircle
 10
235.5000000000003
 20
112.5000000000001
 30
0.000000000000000
 40
5.000001999999880
100
AcDbArc
 50
190.4766157960583
 51
270.0000000000000
  0
ARC
  5
22B
100
AcDbEntity
  8
A1
  6
CONTINUOUS
 62
7
100
AcDbCircle
 10
235.5000000000003
 20
112.5000000000001
 30
0.000000000000000
 40
5.000001999999880
100
AcDbArc
 50
270.0000000000000
 51
387.8003078064453
  0
SPLINE
  5
22C
100
AcDbEntity
  8
A1
  6
CONTINUOUS
 62
7
100
AcDbSpline
210
0.000000000000000
220
0.000000000000000
230
1.000000000000000
 70
     8
 71
     3
 72
    11
 73
     7
 74
     0
 42
1.000000000000000e-07
 43
1.000000000000000e-07
 12
0.7908495250603664
 22
-0.6120106442795077
 32
0.000000000000000
 13
0.3188908791198628
 23
-0.9477914365579636
 33
0.000000000000000
 40
0.000000000000000
 40
0.000000000000000
 40
0.000000000000000
 40
0.000000000000000
 40
0.1547522613698322
 40
0.3142770217378860
 40
0.4698507303277445
 40
0.5184446282741542
 40
0.5184446282741542
 40
0.5184446282741542
 40
0.5184446282741542
 10
237.8106533127448
 20
130.3228985868981
 30
0.000000000000000
 10
237.8514485635469
 20
130.2913285765032
 30
0.000000000000000
 10
237.9288771957017
 20
130.2197601079855
 30
0.000000000000000
 10
238.0225937784371
 20
130.0932049443348
 30
0.000000000000000
 10
238.0766965449340
 20
129.9839871255326
 30
0.000000000000000
 10
238.1000997897033
 20
129.9200618198384
 30
0.000000000000000
 10
238.1052651733153
 20
129.9047095263909
 30
0.000000000000000
  0
SPLINE
  5
22D
100
AcDbEntity
  8
A1
  6
CONTINUOUS
 62
7
100
AcDbSpline
210
0.000000000000000
220
0.000000000000000
230
1.000000000000000
 70
     8
 71
     3
 72
    21
 73
    17
 74
     0
 42
1.000000000000000e-07
 43
1.000000000000000e-07
 12
-0.6428480796494114
 22
0.7659936987283800
 32
0.000000000000000
 13
-0.3350411847150099
 23
0.9969984554418261
 33
0.000000000000000
 40
0.000000000000000
 40
0.000000000000000
 40
0.000000000000000
 40
0.000000000000000
 40
0.06811476833143740
 40
0.3668074441222703
 40
0.6607707370207334
 40
0.9485208628226756
 40
1.228481741702935
 40
1.493362559619354
 40
1.738910438300062
 40
1.962260825563532
 40
2.162362883165425
 40
2.339335896315853
 40
2.470938133574339
 40
2.579139894659872
 40
2.665204165019305
 40
2.730483102492080
 40
2.732173443067554
 40
2.732173443067554
 40
2.732173443067554
 10
239.5820916204433
 20
127.6196391386017
 30
0.000000000000000
 10
239.5674958044375
 20
127.6370309663791
 30
0.000000000000000
 10
239.4891128065368
 20
127.7308706302538
 30
0.000000000000000
 10
239.3500004814020
 20
127.9016589575444
 30
0.000000000000000
 10
239.1694708875805
 20
128.1330585330661
 30
0.000000000000000
 10
238.9977953718087
 20
128.3633616265042
 30
0.000000000000000
 10
238.8370887968921
 20
128.5896608711673
 30
0.000000000000000
 10
238.6898459024039
 20
128.8081715456644
 30
0.000000000000000
 10
238.5583488032899
 20
129.0144427219778
 30
0.000000000000000
 10
238.4435389314685
 20
129.2056505239596
 30
0.000000000000000
 10
238.3454378722503
 20
129.3801342890597
 30
0.000000000000000
 10
238.2669302270015
 20
129.5304573040677
 30
0.000000000000000
 10
238.2064463650647
 20
129.6555475177962
 30
0.000000000000000
 10
238.1622104351272
 20
129.7547766426913
 30
0.000000000000000
 10
238.1296679945609
 20
129.8349548816225
 30
0.000000000000000
 10
238.1122018186678
 20
129.8828996988591
 30
0.000000000000000
 10
238.1049114411518
 20
129.9045940321369
 30
0.000000000000000
  0
SPLINE
  5
22E
100
AcDbEntity
  8
A1
  6
CONTINUOUS
 62
7
100
AcDbSpline
210
0.000000000000000
220
0.000000000000000
230
1.000000000000000
 70
     8
 71
     3
 72
    12
 73
     8
 74
     0
 42
1.000000000000000e-07
 43
1.000000000000000e-07
 12
-0.7898343361684965
 22
0.6133202437631553
 32
0.000000000000000
 13
-0.9994132138790519
 23
0.03425241487866515
 33
0.000000000000000
 40
0.000000000000000
 40
0.000000000000000
 40
0.000000000000000
 40
0.000000000000000
 40
0.09088301427197169
 40
0.1758371090941194
 40
0.2704973506465989
 40
0.3535847225307327
 40
0.4519103432107671
 40
0.4519103432107671
 40
0.4519103432107671
 40
0.4519103432107671
 10
237.8106533127448
 20
130.3228985868981
 30
0.000000000000000
 10
237.7867258043293
 20
130.3414787177205
 30
0.000000000000000
 10
237.7389576118910
 20
130.3755536174847
 30
0.000000000000000
 10
237.6619410478537
 20
130.4226126373674
 30
0.000000000000000
 10
237.5829667803883
 20
130.4608261266335
 30
0.000000000000000
 10
237.4957161064872
 20
130.4911068845742
 30
0.000000000000000
 10
237.4351653410141
 20
130.4988773700157
 30
0.000000000000000
 10
237.4024093661573
 20
130.5000000000000
 30
0.000000000000000
  0
SPLINE
  5
22F
100
AcDbEntity
  8
A1
  6
CONTINUOUS
 62
7
100
AcDbSpline
210
0.000000000000000
220
0.000000000000000
230
1.000000000000000
 70
     8
 71
     3
 72
     9
 73
     5
 74
     0
 42
1.000000000000000e-07
 43
1.000000000000000e-07
 12
-0.1367651734162791
 22
-0.9906034965306389
 32
0.000000000000000
 13
0.03397076230612583
 23
-0.9994228270898020
 33
0.000000000000000
 40
0.000000000000000
 40
0.000000000000000
 40
0.000000000000000
 40
0.000000000000000
 40
0.07418328470435601
 40
0.1714366973604196
 40
0.1714366973604196
 40
0.1714366973604196
 40
0.1714366973604196
 10
239.5175127960725
 20
127.1170149138095
 30
0.000000000000000
 10
239.5141308994734
 20
127.0925195067387
 30
0.000000000000000
 10
239.5084014724650
 20
127.0356085301655
 30
0.000000000000000
 10
239.5075829923177
 20
126.9783595942120
 30
0.000000000000000
 10
239.5086842498393
 20
126.9459605006717
 30
0.000000000000000
  0
SPLINE
  5
230
100
AcDbEntity
  8
A1
  6
CONTINUOUS
 62
7
100
AcDbSpline
210
0.000000000000000
220
0.000000000000000
230
1.000000000000000
 70
     8
 71
     3
 72
    16
 73
    12
 74
     0
 42
1.000000000000000e-07
 43
1.000000000000000e-07
 12
0.9999999818146534
 22
-0.0001907080584260257
 32
0.000000000000000
 13
0.5922059440940757
 23
-0.8057866465630923
 33
0.000000000000000
 40
0.000000000000000
 40
0.000000000000000
 40
0.000000000000000
 40
0.000000000000000
 40
0.2461844955371048
 40
0.4985883475977305
 40
0.8346744324818129
 40
1.183364081160017
 40
1.542886392874277
 40
1.856986870497023
 40
2.180211121398170
 40
2.509951816710086
 40
2.809322551937616
 40
2.809322551937616
 40
2.809322551937616
 40
2.809322551937616
 10
218.4000089450495
 20
126.0999980000001
 30
0.000000000000000
 10
218.4820704420696
 20
126.0999823502110
 30
0.000000000000000
 10
218.6483464938027
 20
126.0931520569817
 30
0.000000000000000
 10
218.9247374567513
 20
126.0587296170549
 30
0.000000000000000
 10
219.2300510311669
 20
125.9893963107257
 30
0.000000000000000
 10
219.5593292207890
 20
125.8742192745388
 30
0.000000000000000
 10
219.8664481821804
 20
125.7245817789441
 30
0.000000000000000
 10
220.1469918598021
 20
125.5454008244884
 30
0.000000000000000
 10
220.3995110874590
 20
125.3440590597369
 30
0.000000000000000
 10
220.6254270383012
 20
125.1201484913699
 30
0.000000000000000
 10
220.7581106237038
 20
124.9572286469395
 30
0.000000000000000
 10
220.8172070000003
 20
124.8768190000001
 30
0.000000000000000
  0
ARC
  5
231
100
AcDbEntity
  8
A1
  6
CONTINUOUS
 62
7
100
AcDbCircle
 10
237.7000000000003
 20
129.5000000000001
 30
0.000000000000000
 40
1.000000000000000
100
AcDbArc
 50
0.000000000000000
 51
90.00000000000000
  0
ARC
  5
232
100
AcDbEntity
  8
A1
  6
CONTINUOUS
 62
7
100
AcDbCircle
 10
240.5081001931814
 20
126.9801331815965
 30
0.000000000000000
 40
0.9999999999623853
100
AcDbArc
 50
153.4349259042359
 51
172.1325545471897
  0
ARC
  5
233
100
AcDbEntity
  8
A1
  6
CONTINUOUS
 62
7
100
AcDbCircle
 10
235.4999999331818
 20
112.5000002095573
 30
0.000000000000000
 40
4.500000209557269
100
AcDbArc
 50
270.0000000000000
 51
361.9582898674726
  0
ARC
  5
234
100
AcDbEntity
  8
A1
  6
CONTINUOUS
 62
7
100
AcDbCircle
 10
235.5000011023778
 20
112.5000088827743
 30
0.000000000000000
 40
4.500008882774310
100
AcDbArc
 50
216.3186493784377
 51
269.9999851133634
  0
ARC
  5
235
100
AcDbEntity
  8
A1
  6
CONTINUOUS
 62
7
100
AcDbCircle
 10
215.3000000000003
 20
129.5000000000001
 30
0.000000000000000
 40
1.000000000000000
100
AcDbArc
 50
90.00000000000000
 51
180.0000000000000
  0
LINE
  5
236
100
AcDbEntity
  8
A1
  6
CONTINUOUS
 62
7
100
AcDbLine
 10
239.5195894848130
 20
127.1312840312988
 30
0.000000000000000
 11
239.5113791332332
 21
127.0610475102492
 31
0.000000000000000
  0
LINE
  5
237
100
AcDbEntity
  8
A1
  6
CONTINUOUS
 62
7
100
AcDbLine
 10
237.4088408746455
 20
130.5000000000001
 30
0.000000000000000
 11
237.7000000000003
 21
130.5000000000001
 31
0.000000000000000
  0
LINE
  5
238
100
AcDbEntity
  8
A1
  6
CONTINUOUS
 62
7
100
AcDbLine
 10
238.7000000000003
 20
128.7951717369599
 30
0.000000000000000
 11
238.7000000000003
 21
129.5000000000002
 31
0.000000000000000
  0
LINE
  5
239
100
AcDbEntity
  8
A1
  6
CONTINUOUS
 62
7
100
AcDbLine
 10
239.6624494963084
 20
127.5239701153664
 30
0.000000000000000
 11
239.5826889438599
 21
127.6190059261819
 31
0.000000000000000
  0
LINE
  5
23A
100
AcDbEntity
  8
A1
  6
CONTINUOUS
 62
7
100
AcDbLine
 10
239.6271463836487
 20
127.4542935130002
 30
0.000000000000000
 11
239.6621581410477
 21
127.5243169577747
 31
0.000000000000000
  0
LINE
  5
23B
100
AcDbEntity
  8
A1
  6
CONTINUOUS
 62
7
100
AcDbLine
 10
237.4024093661573
 20
130.5000000000000
 30
0.000000000000000
 11
235.9609467833110
 21
130.5000000000000
 31
0.000000000000000
  0
LINE
  5
23C
100
AcDbEntity
  8
A1
  6
CONTINUOUS
 62
7
100
AcDbLine
 10
239.6136731811036
 20
127.4273471348563
 30
0.000000000000000
 11
239.6271463836487
 21
127.4542935130001
 31
0.000000000000000
  0
LINE
  5
23D
100
AcDbEntity
  8
A1
  6
CONTINUOUS
 62
7
100
AcDbLine
 10
230.1067179047230
 20
112.2392478128718
 30
0.000000000000000
 11
231.8741840000003
 21
109.8347640000001
 31
0.000000000000000
  0
LINE
  5
23E
100
AcDbEntity
  8
A1
  6
CONTINUOUS
 62
7
100
AcDbLine
 10
239.9973720000003
 20
112.6537740000001
 30
0.000000000000000
 11
239.5467158764366
 21
125.8336856378941
 31
0.000000000000000
  0
LINE
  5
23F
100
AcDbEntity
  8
A1
  6
CONTINUOUS
 62
7
100
AcDbLine
 10
239.5467158764366
 20
125.8336856378941
 30
0.000000000000000
 11
239.5086842498393
 21
126.9459605006717
 31
0.000000000000000
  0
LINE
  5
240
100
AcDbEntity
  8
A1
  6
CONTINUOUS
 62
7
100
AcDbLine
 10
235.9609467833110
 20
130.5000000000001
 30
0.000000000000000
 11
233.8631444525316
 21
130.5000000000001
 31
0.000000000000000
  0
LINE
  5
241
100
AcDbEntity
  8
A1
  6
CONTINUOUS
 62
7
100
AcDbLine
 10
230.1067179047230
 20
112.2392478128718
 30
0.000000000000000
 11
228.9190735176828
 21
113.8549346493644
 31
0.000000000000000
  0
LINE
  5
242
100
AcDbEntity
  8
A1
  6
CONTINUOUS
 62
7
100
AcDbLine
 10
215.3000000000003
 20
130.5000000000001
 30
0.000000000000000
 11
233.8631444525316
 21
130.5000000000001
 31
0.000000000000000
  0
LINE
  5
243
100
AcDbEntity
  8
A1
  6
CONTINUOUS
 62
7
100
AcDbLine
 10
227.0170847255517
 20
116.4424248847712
 30
0.000000000000000
 11
220.8172070000003
 21
124.8768190000001
 31
0.000000000000000
  0
LINE
  5
244
100
AcDbEntity
  8
A1
  6
CONTINUOUS
 62
7
100
AcDbLine
 10
218.4000089450494
 20
126.0999980000001
 30
0.000000000000000
 11
214.3000000000003
 21
126.0999980000001
 31
0.000000000000000
  0
LINE
  5
245
100
AcDbEntity
  8
A1
  6
CONTINUOUS
 62
7
100
AcDbLine
 10
214.3000000000003
 20
129.5000000000002
 30
0.000000000000000
 11
214.3000000000003
 21
126.0999980000001
 31
0.000000000000000
  0
LINE
  5
246
100
AcDbEntity
  8
A1
  6
CONTINUOUS
 62
7
100
AcDbLine
 10
228.9190735176828
 20
113.8549346493644
 30
0.000000000000000
 11
227.0170847255517
 21
116.4424248847712
 31
0.000000000000000
  0
LINE
  5
247
100
AcDbEntity
  8
A4
  6
CENTER
 62
1
100
AcDbLine
 10
111.1000000000003
 20
181.4999980000002
 30
0.000000000000000
 11
103.9000000000003
 21
181.4999980000002
 31
0.000000000000000
  0
LINE
  5
248
100
AcDbEntity
  8
A4
  6
CENTER
 62
1
100
AcDbLine
 10
107.5000000000003
 20
185.0999980000002
 30
0.000000000000000
 11
107.5000000000003
 21
177.8999980000002
 31
0.000000000000000
  0
LINE
  5
249
100
AcDbEntity
  8
A4
  6
CENTER
 62
1
100
AcDbLine
 10
111.1000000000003
 20
158.4999980000002
 30
0.000000000000000
 11
103.9000000000003
 21
158.4999980000002
 31
0.000000000000000
  0
LINE
  5
24A
100
AcDbEntity
  8
A4
  6
CENTER
 62
1
100
AcDbLine
 10
107.5000000000003
 20
162.0999980000002
 30
0.000000000000000
 11
107.5000000000003
 21
154.8999980000002
 31
0.000000000000000
  0
LINE
  5
24B
100
AcDbEntity
  8
A4
  6
CENTER
 62
1
100
AcDbLine
 10
139.1000000000003
 20
158.4999980000002
 30
0.000000000000000
 11
131.9000000000003
 21
158.4999980000002
 31
0.000000000000000
  0
LINE
  5
24C
100
AcDbEntity
  8
A4
  6
CENTER
 62
1
100
AcDbLine
 10
135.5000000000003
 20
162.0999980000002
 30
0.000000000000000
 11
135.5000000000003
 21
154.8999980000002
 31
0.000000000000000
  0
LINE
  5
24D
100
AcDbEntity
  8
A4
  6
CENTER
 62
1
100
AcDbLine
 10
139.1000000000003
 20
181.4999980000002
 30
0.000000000000000
 11
131.9000000000003
 21
181.4999980000002
 31
0.000000000000000
  0
LINE
  5
24E
100
AcDbEntity
  8
A4
  6
CENTER
 62
1
100
AcDbLine
 10
135.5000000000003
 20
185.0999980000002
 30
0.000000000000000
 11
135.5000000000003
 21
177.8999980000002
 31
0.000000000000000
  0
LINE
  5
24F
100
AcDbEntity
  8
A4
  6
CENTER
 62
1
100
AcDbLine
 10
138.7423480000003
 20
169.9999980000002
 30
0.000000000000000
 11
98.50000000000028
 21
169.9999980000002
 31
0.000000000000000
  0
LINE
  5
250
100
AcDbEntity
  8
A4
  6
CENTER
 62
1
100
AcDbLine
 10
121.5000000000003
 20
185.7416555600785
 30
0.000000000000000
 11
121.5000000000003
 21
154.2583404399219
 31
0.000000000000000
  0
LINE
  5
251
100
AcDbEntity
  8
A4
  6
CENTER
 62
1
100
AcDbLine
 10
76.49999999999901
 20
136.4999980000001
 30
0.000000000000000
 11
76.49999999999901
 21
132.0999980000001
 31
0.000000000000000
  0
LINE
  5
252
100
AcDbEntity
  8
A4
  6
CENTER
 62
1
100
AcDbLine
 10
53.49999999999901
 20
136.4999980000001
 30
0.000000000000000
 11
53.49999999999901
 21
132.0999980000001
 31
0.000000000000000
  0
LINE
  5
253
100
AcDbEntity
  8
A4
  6
CENTER
 62
1
100
AcDbLine
 10
64.99999999999901
 20
136.4999980000001
 30
0.000000000000000
 11
64.99999999999901
 21
98.50000000000006
 31
0.000000000000000
  0
LINE
  5
254
100
AcDbEntity
  8
A4
  6
CENTER
 62
1
100
AcDbLine
 10
53.31201388732308
 20
112.5000000000001
 30
0.000000000000000
 11
76.79129813195658
 21
112.5000000000001
 31
0.000000000000000
  0
LINE
  5
255
100
AcDbEntity
  8
A4
  6
CENTER
 62
1
100
AcDbLine
 10
121.5000000000003
 20
136.4999980000001
 30
0.000000000000000
 11
121.5000000000003
 21
115.3117660000000
 31
0.000000000000000
  0
LINE
  5
256
100
AcDbEntity
  8
A4
  6
CENTER
 62
1
100
AcDbLine
 10
135.5000000000003
 20
132.0999980000001
 30
0.000000000000000
 11
135.5000000000003
 21
136.9999980000001
 31
0.000000000000000
  0
LINE
  5
257
100
AcDbEntity
  8
A4
  6
CENTER
 62
1
100
AcDbLine
 10
107.5000000000003
 20
132.0999980000001
 30
0.000000000000000
 11
107.5000000000003
 21
136.4999980000001
 31
0.000000000000000
  0
LINE
  5
258
100
AcDbEntity
  8
A3
  6
DASHED
 62
2
100
AcDbLine
 10
105.4000000000001
 20
133.5999960000001
 30
0.000000000000000
 11
105.4000000000001
 21
134.9999980000001
 31
0.000000000000000
  0
LINE
  5
259
100
AcDbEntity
  8
A3
  6
DASHED
 62
2
100
AcDbLine
 10
109.6000000000002
 20
133.5999960000001
 30
0.000000000000000
 11
109.6000000000002
 21
134.9999980000001
 31
0.000000000000000
  0
LINE
  5
25A
100
AcDbEntity
  8
A3
  6
DASHED
 62
2
100
AcDbLine
 10
133.4000000000001
 20
133.5999960000001
 30
0.000000000000000
 11
133.4000000000001
 21
134.9999980000001
 31
0.000000000000000
  0
LINE
  5
25B
100
AcDbEntity
  8
A3
  6
DASHED
 62
2
100
AcDbLine
 10
137.6000000000002
 20
133.5999960000001
 30
0.000000000000000
 11
137.6000000000002
 21
134.9999980000001
 31
0.000000000000000
  0
LINE
  5
25C
100
AcDbEntity
  8
A3
  6
DASHED
 62
2
100
AcDbLine
 10
51.39999999999898
 20
133.5999960000001
 30
0.000000000000000
 11
51.39999999999898
 21
134.9999980000001
 31
0.000000000000000
  0
LINE
  5
25D
100
AcDbEntity
  8
A3
  6
DASHED
 62
2
100
AcDbLine
 10
55.59999999999891
 20
133.5999960000001
 30
0.000000000000000
 11
55.59999999999891
 21
134.9999980000001
 31
0.000000000000000
  0
LINE
  5
25E
100
AcDbEntity
  8
A3
  6
DASHED
 62
2
100
AcDbLine
 10
74.39999999999898
 20
133.5999960000001
 30
0.000000000000000
 11
74.39999999999898
 21
134.9999980000001
 31
0.000000000000000
  0
LINE
  5
25F
100
AcDbEntity
  8
A3
  6
DASHED
 62
2
100
AcDbLine
 10
78.59999999999891
 20
133.5999960000001
 30
0.000000000000000
 11
78.59999999999891
 21
134.9999980000001
 31
0.000000000000000
  0
LINE
  5
260
100
AcDbEntity
  8
A4
  6
CENTER
 62
1
100
AcDbLine
 10
139.1000000000003
 20
76.50000000000006
 30
0.000000000000000
 11
131.9000000000003
 21
76.50000000000006
 31
0.000000000000000
  0
LINE
  5
261
100
AcDbEntity
  8
A4
  6
CENTER
 62
1
100
AcDbLine
 10
135.5000000000003
 20
80.10000000000005
 30
0.000000000000000
 11
135.5000000000003
 21
72.90000000000006
 31
0.000000000000000
  0
LINE
  5
262
100
AcDbEntity
  8
A4
  6
CENTER
 62
1
100
AcDbLine
 10
111.1000000000003
 20
76.50000000000006
 30
0.000000000000000
 11
103.9000000000003
 21
76.50000000000006
 31
0.000000000000000
  0
LINE
  5
263
100
AcDbEntity
  8
A4
  6
CENTER
 62
1
100
AcDbLine
 10
107.5000000000003
 20
80.10000000000005
 30
0.000000000000000
 11
107.5000000000003
 21
72.90000000000006
 31
0.000000000000000
  0
LINE
  5
264
100
AcDbEntity
  8
A4
  6
CENTER
 62
1
100
AcDbLine
 10
111.1000000000003
 20
53.50000000000006
 30
0.000000000000000
 11
103.9000000000003
 21
53.50000000000006
 31
0.000000000000000
  0
LINE
  5
265
100
AcDbEntity
  8
A4
  6
CENTER
 62
1
100
AcDbLine
 10
107.5000000000003
 20
57.10000000000006
 30
0.000000000000000
 11
107.5000000000003
 21
49.90000000000006
 31
0.000000000000000
  0
LINE
  5
266
100
AcDbEntity
  8
A4
  6
CENTER
 62
1
100
AcDbLine
 10
139.1000000000003
 20
53.50000000000006
 30
0.000000000000000
 11
131.9000000000003
 21
53.50000000000006
 31
0.000000000000000
  0
LINE
  5
267
100
AcDbEntity
  8
A4
  6
CENTER
 62
1
100
AcDbLine
 10
135.5000000000003
 20
57.10000000000006
 30
0.000000000000000
 11
135.5000000000003
 21
49.90000000000006
 31
0.000000000000000
  0
LINE
  5
268
100
AcDbEntity
  8
A4
  6
CENTER
 62
1
100
AcDbLine
 10
235.5000000000003
 20
98.50000000000006
 30
0.000000000000000
 11
235.5000000000003
 21
126.5000000000000
 31
0.000000000000000
  0
LINE
  5
269
100
AcDbEntity
  8
A4
  6
CENTER
 62
1
100
AcDbLine
 10
221.5000000000003
 20
112.5000000000001
 30
0.000000000000000
 11
249.5000000000003
 21
112.5000000000001
 31
0.000000000000000
  0
LINE
  5
26A
100
AcDbEntity
  8
A4
  6
CENTER
 62
1
100
AcDbLine
 10
112.5000000000003
 20
98.50000000000006
 30
0.000000000000000
 11
112.5000000000003
 21
126.5000000000000
 31
0.000000000000000
  0
LINE
  5
26B
100
AcDbEntity
  8
A4
  6
CENTER
 62
1
100
AcDbLine
 10
98.50000000000030
 20
112.5000000000001
 30
0.000000000000000
 11
126.5000000000003
 21
112.5000000000001
 31
0.000000000000000
  0
LINE
  5
26C
100
AcDbEntity
  8
A3
  6
DASHED
 62
2
100
AcDbLine
 10
160.4000000000003
 20
133.5999960000001
 30
0.000000000000000
 11
160.4000000000003
 21
134.9999980000001
 31
0.000000000000000
  0
LINE
  5
26D
100
AcDbEntity
  8
A4
  6
CENTER
 62
1
100
AcDbLine
 10
162.5000000000003
 20
136.9999980000001
 30
0.000000000000000
 11
162.5000000000003
 21
132.0999980000001
 31
0.000000000000000
  0
LINE
  5
26E
100
AcDbEntity
  8
A3
  6
DASHED
 62
2
100
AcDbLine
 10
164.6000000000002
 20
133.5999960000001
 30
0.000000000000000
 11
164.6000000000002
 21
134.9999980000001
 31
0.000000000000000
  0
LINE
  5
26F
100
AcDbEntity
  8
A3
  6
DASHED
 62
2
100
AcDbLine
 10
183.4000000000003
 20
133.5999960000001
 30
0.000000000000000
 11
183.4000000000003
 21
134.9999980000001
 31
0.000000000000000
  0
LINE
  5
270
100
AcDbEntity
  8
A4
  6
CENTER
 62
1
100
AcDbLine
 10
185.5000000000003
 20
136.9999980000001
 30
0.000000000000000
 11
185.5000000000003
 21
132.0999980000001
 31
0.000000000000000
  0
LINE
  5
271
100
AcDbEntity
  8
A3
  6
DASHED
 62
2
100
AcDbLine
 10
187.6000000000002
 20
133.5999960000001
 30
0.000000000000000
 11
187.6000000000002
 21
134.9999980000001
 31
0.000000000000000
  0
LINE
  5
272
100
AcDbEntity
  8
A4
  6
CENTER
 62
1
100
AcDbLine
 10
174.0000000000003
 20
136.4999980000001
 30
0.000000000000000
 11
174.0000000000003
 21
98.50000000000006
 31
0.000000000000000
  0
LINE
  5
273
100
AcDbEntity
  8
A4
  6
CENTER
 62
1
100
AcDbLine
 10
162.3120138873244
 20
112.5000000000001
 30
0.000000000000000
 11
185.7912981319579
 21
112.5000000000001
 31
0.000000000000000
  0
LINE
  5
274
100
AcDbEntity
  8
A4
  6
CENTER
 62
1
100
AcDbLine
 10
226.5000000000025
 20
136.4999980000001
 30
0.000000000000000
 11
226.5000000000025
 21
115.3117660000000
 31
0.000000000000000
  0
LINE
  5
275
100
AcDbEntity
  8
A4
  6
CENTER
 62
1
100
AcDbLine
 10
212.5000000000025
 20
132.0999980000001
 30
0.000000000000000
 11
212.5000000000025
 21
136.9999980000001
 31
0.000000000000000
  0
LINE
  5
276
100
AcDbEntity
  8
A3
  6
DASHED
 62
2
100
AcDbLine
 10
214.6000000000026
 20
133.5999960000001
 30
0.000000000000000
 11
214.6000000000026
 21
134.9999980000001
 31
0.000000000000000
  0
LINE
  5
277
100
AcDbEntity
  8
A3
  6
DASHED
 62
2
100
AcDbLine
 10
210.4000000000026
 20
133.5999960000001
 30
0.000000000000000
 11
210.4000000000026
 21
134.9999980000001
 31
0.000000000000000
  0
LINE
  5
278
100
AcDbEntity
  8
A3
  6
DASHED
 62
2
100
AcDbLine
 10
238.4000000000026
 20
133.5999960000001
 30
0.000000000000000
 11
238.4000000000026
 21
134.9999980000001
 31
0.000000000000000
  0
LINE
  5
279
100
AcDbEntity
  8
A4
  6
CENTER
 62
1
100
AcDbLine
 10
240.5000000000025
 20
132.0999980000001
 30
0.000000000000000
 11
240.5000000000025
 21
136.4999980000001
 31
0.000000000000000
  0
LINE
  5
27A
100
AcDbEntity
  8
A3
  6
DASHED
 62
2
100
AcDbLine
 10
242.6000000000026
 20
133.5999960000001
 30
0.000000000000000
 11
242.6000000000026
 21
134.9999980000001
 31
0.000000000000000
  0
LINE
  5
27B
100
AcDbEntity
  8
A1
  6
CONTINUOUS
 62
7
100
AcDbLine
 10
209.0000000000025
 20
133.5999980000001
 30
0.000000000000000
 11
209.0000000000025
 21
134.9999980000001
 31
0.000000000000000
  0
LINE
  5
27C
100
AcDbEntity
  8
A4
  6
CENTER
 62
1
100
AcDbLine
 10
111.1000000000003
 20
76.50000000000006
 30
0.000000000000000
 11
103.9000000000003
 21
76.50000000000006
 31
0.000000000000000
  0
LINE
  5
27D
100
AcDbEntity
  8
A4
  6
CENTER
 62
1
100
AcDbLine
 10
107.5000000000003
 20
80.10000000000005
 30
0.000000000000000
 11
107.5000000000003
 21
72.90000000000006
 31
0.000000000000000
  0
LINE
  5
27E
100
AcDbEntity
  8
A4
  6
CENTER
 62
1
100
AcDbLine
 10
107.5000000000003
 20
57.10000000000005
 30
0.000000000000000
 11
107.5000000000003
 21
49.90000000000006
 31
0.000000000000000
  0
LINE
  5
27F
100
AcDbEntity
  8
A4
  6
CENTER
 62
1
100
AcDbLine
 10
111.1000000000003
 20
53.50000000000006
 30
0.000000000000000
 11
103.9000000000003
 21
53.50000000000006
 31
0.000000000000000
  0
LINE
  5
280
100
AcDbEntity
  8
A4
  6
CENTER
 62
1
100
AcDbLine
 10
138.7423480000003
 20
65.00000000000006
 30
0.000000000000000
 11
98.50000000000028
 21
65.00000000000006
 31
0.000000000000000
  0
LINE
  5
281
100
AcDbEntity
  8
A4
  6
CENTER
 62
1
100
AcDbLine
 10
121.5000000000003
 20
80.74165756007832
 30
0.000000000000000
 11
121.5000000000003
 21
49.25834243992179
 31
0.000000000000000
  0
LINE
  5
282
100
AcDbEntity
  8
A4
  6
CENTER
 62
1
100
AcDbLine
 10
139.1000000000003
 20
53.50000000000006
 30
0.000000000000000
 11
131.9000000000003
 21
53.50000000000006
 31
0.000000000000000
  0
LINE
  5
283
100
AcDbEntity
  8
A4
  6
CENTER
 62
1
100
AcDbLine
 10
135.5000000000003
 20
57.10000000000005
 30
0.000000000000000
 11
135.5000000000003
 21
49.90000000000006
 31
0.000000000000000
  0
LINE
  5
284
100
AcDbEntity
  8
A4
  6
CENTER
 62
1
100
AcDbLine
 10
139.1000000000003
 20
76.50000000000006
 30
0.000000000000000
 11
131.9000000000003
 21
76.50000000000006
 31
0.000000000000000
  0
LINE
  5
285
100
AcDbEntity
  8
A4
  6
CENTER
 62
1
100
AcDbLine
 10
135.5000000000003
 20
80.10000000000005
 30
0.000000000000000
 11
135.5000000000003
 21
72.90000000000006
 31
0.000000000000000
  0
ENDSEC
  0
SECTION
  2
OBJECTS
  0
DICTIONARY
  5
2B6
100
AcDbDictionary
  3
ACAD_GROUP
350
2B7
  3
ACAD_LAYOUT
350
2B8
  3
ACAD_MLINESTYLE
350
2B9
  0
DICTIONARY
  5
2B7
102
{ACAD_REACTORS
330
2B6
102
}
330
2B6
100
AcDbDictionary
  0
DICTIONARY
  5
2B8
102
{ACAD_REACTORS
330
2B6
102
}
330
2B6
100
AcDbDictionary
  3
Model
350
2BA
  3
ﾚｲｱｳﾄ1
350
2BB
  3
ﾚｲｱｳﾄ2
350
2BC
  0
DICTIONARY
  5
2B9
102
{ACAD_REACTORS
330
2B6
102
}
330
2B6
100
AcDbDictionary
  3
STANDARD
350
2BD
  0
LAYOUT
  5
2BA
102
{ACAD_REACTORS
330
2B8
102
}
330
2B8
100
AcDbPlotSettings
 70
11952
  4
A3
 44
297.000000
 45
420.000000
 73
  1
 72
  1
100
AcDbLayout
  1
Model
 71
0
330
2AD
  0
LAYOUT
  5
2BB
102
{ACAD_REACTORS
330
2B8
102
}
330
2B8
100
AcDbPlotSettings
100
AcDbLayout
  1
ﾚｲｱｳﾄ1
 71
1
330
2AE
  0
LAYOUT
  5
2BC
102
{ACAD_REACTORS
330
2B8
102
}
330
2B8
100
AcDbPlotSettings
100
AcDbLayout
  1
ﾚｲｱｳﾄ2
 71
2
330
2AF
  0
MLINESTYLE
  5
2BD
102
{ACAD_REACTORS
330
2B9
102
}
330
2B9
100
AcDbMlineStyle
  2
STANDARD
 70
     0
  3

 62
   256
 51
90.00
 52
90.00
 71
     2
 49
0.50
 62
   256
  6
BYLAYER
 49
-0.50
 62
   256
  6
BYLAYER
  0
ENDSEC
  0
EOF
