  0
SECTION
  2
HEADER
  9
$ACADVER
  1
AC1027
  9
$DWGCODEPAGE
  3
ANSI_932
  9
$LTSCALE
 40
20.0
  9
$FILLMODE
 70
     1
  9
$CLAYER
  8
0
  9
$PDMODE
 70
     0
  9
$SPLFRAME
 70
     0
  9
$SPLINETYPE
 70
     6
  9
$SPLINESEGS
 70
     8
  9
$DIMASZ
 40
2.000000
  9
$DIMEXE
 40
1.500000
  9
$DIMEXO
 40
0.800000
  9
$DIMTAD
 70
     1
  9
$DIMTIH
 70
     0
  9
$DIMTOH
 70
     0
  9
$DIMTVP
 40
0.500000
  9
$DIMTXT
 40
3.100000
  9
$EXTMIN
 10
0.000000
 20
0.000000
 30
0.000000
  9
$EXTMAX
 10
297.000000
 20
420.000000
 30
0.000000
  9
$MEASUREMENT
 70
  1
  9
$LIMMIN
 10
0.000000
 20
0.000000
  9
$LIMMAX
 10
297.000000
 20
420.000000
  9
$HANDSEED
  5
2C7
  9
$LWDISPLAY
290
     0
  9
$DIMBLK
  1
_OPEN
  9
$DIMDEC
 70
     2
  9
$DIMADEC
 70
     2
  9
$DIMAUNIT
 70
     0
  9
$DIMZIN
 70
     8
  9
$DIMAZIN
 70
     2
  9
$DIMTOFL
 70
     1
  0
ENDSEC
  0
SECTION
  2
CLASSES
  0
ENDSEC
  0
SECTION
  2
TABLES
  0
TABLE
  2
VPORT
  5
28C
100
AcDbSymbolTable
 70
     1
  0
VPORT
  5
28D
100
AcDbSymbolTableRecord
100
AcDbViewportTableRecord
  2
*ACTIVE
 70
     0
 12
138.749999
 22
107.750000
 40
179.499999
 41
1.434540
  0
ENDTAB
  0
TABLE
  2
LTYPE
  5
28E
100
AcDbSymbolTable
 70
     3
  0
LTYPE
  5
28F
100
AcDbSymbolTableRecord
100
AcDbLinetypeTableRecord
  2
BYBLOCK
 70
     0
  3

 72
    65
 73
     0
 40
0.0
  0
LTYPE
  5
290
100
AcDbSymbolTableRecord
100
AcDbLinetypeTableRecord
  2
BYLAYER
 70
     0
  3

 72
    65
 73
     0
 40
0.0
  0
LTYPE
  5
291
100
AcDbSymbolTableRecord
100
AcDbLinetypeTableRecord
  2
CONTINUOUS
 70
     0
  3
Solid line (NEC CAE2D for Win R18.0 : 2025.08.07)
 72
    65
 73
     0
 40
0.0
  0
LTYPE
  5
292
100
AcDbSymbolTableRecord
100
AcDbLinetypeTableRecord
  2
DASHED
 70
     0
  3
__ __ __ __ __ __ __ __ __ __ __ __ __ _
 72
    65
 73
     2
 40
0.75
 49
0.5
 74
     0
 49
-0.25
 74
     0
  0
LTYPE
  5
293
100
AcDbSymbolTableRecord
100
AcDbLinetypeTableRecord
  2
CENTER
 70
     0
  3
____ _ ____ _ ____ _ ____ _ ____ _ ____
 72
    65
 73
     4
 40
2.0
 49
1.25
 74
     0
 49
-0.25
 74
     0
 49
0.25
 74
     0
 49
-0.25
 74
     0
  0
ENDTAB
  0
TABLE
  2
LAYER
  5
294
100
AcDbSymbolTable
 70
    20
  0
LAYER
  5
295
100
AcDbSymbolTableRecord
100
AcDbLayerTableRecord
  2
0
 70
     0
 62
     7
  6
CONTINUOUS
370
    -3
390

  0
LAYER
  5
296
100
AcDbSymbolTableRecord
100
AcDbLayerTableRecord
  2
A0
 70
     0
 62
     9
  6
CONTINUOUS
370
    -3
390

  0
LAYER
  5
297
100
AcDbSymbolTableRecord
100
AcDbLayerTableRecord
  2
A1
 70
     0
 62
    12
  6
CONTINUOUS
370
    -3
390

  0
LAYER
  5
298
100
AcDbSymbolTableRecord
100
AcDbLayerTableRecord
  2
A2
 70
     0
 62
    12
  6
CONTINUOUS
370
    -3
390

  0
LAYER
  5
299
100
AcDbSymbolTableRecord
100
AcDbLayerTableRecord
  2
A4
 70
     0
 62
     9
  6
CONTINUOUS
370
    -3
390

  0
LAYER
  5
29A
100
AcDbSymbolTableRecord
100
AcDbLayerTableRecord
  2
A5
 70
     0
 62
     8
  6
CONTINUOUS
370
    -3
390

  0
LAYER
  5
29B
100
AcDbSymbolTableRecord
100
AcDbLayerTableRecord
  2
A6
 70
     0
 62
    12
  6
CONTINUOUS
370
    -3
390

  0
LAYER
  5
29C
100
AcDbSymbolTableRecord
100
AcDbLayerTableRecord
  2
A8
 70
     0
 62
    10
  6
CONTINUOUS
370
    -3
390

  0
LAYER
  5
29D
100
AcDbSymbolTableRecord
100
AcDbLayerTableRecord
  2
A9
 70
     0
 62
     9
  6
CONTINUOUS
370
    -3
390

  0
LAYER
  5
29E
100
AcDbSymbolTableRecord
100
AcDbLayerTableRecord
  2
A10
 70
     0
 62
     6
  6
CONTINUOUS
370
    -3
390

  0
LAYER
  5
29F
100
AcDbSymbolTableRecord
100
AcDbLayerTableRecord
  2
A11
 70
     0
 62
    10
  6
CONTINUOUS
370
    -3
390

  0
LAYER
  5
2A0
100
AcDbSymbolTableRecord
100
AcDbLayerTableRecord
  2
A12
 70
     0
 62
    13
  6
CONTINUOUS
370
    -3
390

  0
LAYER
  5
2A1
100
AcDbSymbolTableRecord
100
AcDbLayerTableRecord
  2
A13
 70
     0
 62
    11
  6
CONTINUOUS
370
    -3
390

  0
LAYER
  5
2A2
100
AcDbSymbolTableRecord
100
AcDbLayerTableRecord
  2
A14
 70
     0
 62
     5
  6
CONTINUOUS
370
    -3
390

  0
LAYER
  5
2A3
100
AcDbSymbolTableRecord
100
AcDbLayerTableRecord
  2
A15
 70
     0
 62
    14
  6
CONTINUOUS
370
    -3
390

  0
LAYER
  5
2A4
100
AcDbSymbolTableRecord
100
AcDbLayerTableRecord
  2
A20
 70
     0
 62
     1
  6
CONTINUOUS
370
    -3
390

  0
LAYER
  5
2A5
100
AcDbSymbolTableRecord
100
AcDbLayerTableRecord
  2
A30
 70
     0
 62
     1
  6
CONTINUOUS
370
    -3
390

  0
LAYER
  5
2A6
100
AcDbSymbolTableRecord
100
AcDbLayerTableRecord
  2
A40
 70
     0
 62
     9
  6
CONTINUOUS
370
    -3
390

  0
LAYER
  5
2A7
100
AcDbSymbolTableRecord
100
AcDbLayerTableRecord
  2
A50
 70
     0
 62
    12
  6
CONTINUOUS
370
    -3
390

  0
LAYER
  5
2A8
100
AcDbSymbolTableRecord
100
AcDbLayerTableRecord
  2
A1023
 70
     0
 62
    16
  6
CONTINUOUS
370
    -3
390

  0
ENDTAB
  0
TABLE
  2
STYLE
  5
2A9
100
AcDbSymbolTable
 70
     4
  0
STYLE
  5
2AA
100
AcDbSymbolTableRecord
100
AcDbTextStyleTableRecord
  2
STANDARD
 70
    64
 40
0.0
 41
1.0
 50
0.0
 71
     0
 42
3.000000000000000
  3
TXT
  4

  0
STYLE
  5
2AB
100
AcDbSymbolTableRecord
100
AcDbTextStyleTableRecord
  2
ANKTATE
 70
    68
 40
0.0
 41
1.0
 50
0.0
 71
     0
 42
3.000000000000000
  3
TXT
  4

  0
STYLE
  5
2AC
100
AcDbSymbolTableRecord
100
AcDbTextStyleTableRecord
  2
KNJYOKO
 70
    64
 40
0.0
 41
1.0
 50
0.0
 71
     0
 42
3.000000000000000
  3
TXT
  4
BIGFONT
  0
STYLE
  5
2AD
100
AcDbSymbolTableRecord
100
AcDbTextStyleTableRecord
  2
KNJTATE
 70
    68
 40
0.0
 41
1.0
 50
0.0
 71
     0
 42
3.000000000000000
  3
TXT
  4
BIGFONT
  0
ENDTAB
  0
TABLE
  2
VIEW
  5
2AE
100
AcDbSymbolTable
 70
     0
  0
ENDTAB
  0
TABLE
  2
UCS
  5
2AF
100
AcDbSymbolTable
 70
     0
  0
ENDTAB
  0
TABLE
  2
APPID
  5
2B0
100
AcDbSymbolTable
 70
     1
  0
APPID
  5
2B1
100
AcDbSymbolTableRecord
100
AcDbRegAppTableRecord
  2
ACAD
 70
     0
  0
ENDTAB
  0
TABLE
  2
DIMSTYLE
  5
2B2
100
AcDbSymbolTable
 70
     2
100
AcDbDimStyleTable
  0
DIMSTYLE
105
2B3
100
AcDbSymbolTableRecord
100
AcDbDimStyleTableRecord
  2
STANDARD
 70
     0
 41
2.000000
 44
1.500000
 42
0.800000
145
0.661290
140
3.100000
144
1.000000
146
0.645161
340
2AA
  0
DIMSTYLE
105
2B4
100
AcDbSymbolTableRecord
100
AcDbDimStyleTableRecord
  2
A001
 70
     0
 41
2.000000
 44
1.500000
 42
0.800000
145
0.661290
140
3.100000
144
1.000000
146
0.645161
 77
     1
 73
     0
 74
     0
271
     2
179
     2
275
     0
 78
     8
 79
     2
172
     1
340
2AA
  0
ENDTAB
  0
TABLE
  2
BLOCK_RECORD
  5
2B5
100
AcDbSymbolTable
 70
    12
  0
BLOCK_RECORD
  5
2B6
100
AcDbSymbolTableRecord
100
AcDbBlockTableRecord
  2
*MODEL_SPACE
  0
BLOCK_RECORD
  5
2B7
100
AcDbSymbolTableRecord
100
AcDbBlockTableRecord
  2
*PAPER_SPACE
  0
BLOCK_RECORD
  5
2B8
100
AcDbSymbolTableRecord
100
AcDbBlockTableRecord
  2
*PAPER_SPACE0
  0
BLOCK_RECORD
  5
1
100
AcDbSymbolTableRecord
100
AcDbBlockTableRecord
  2
_NONE
  0
BLOCK_RECORD
  5
4
100
AcDbSymbolTableRecord
100
AcDbBlockTableRecord
  2
_CLOSED
  0
BLOCK_RECORD
  5
B
100
AcDbSymbolTableRecord
100
AcDbBlockTableRecord
  2
_DOT
  0
BLOCK_RECORD
  5
13
100
AcDbSymbolTableRecord
100
AcDbBlockTableRecord
  2
_OPEN
  0
BLOCK_RECORD
  5
19
100
AcDbSymbolTableRecord
100
AcDbBlockTableRecord
  2
_ORIGIN
  0
BLOCK_RECORD
  5
1E
100
AcDbSymbolTableRecord
100
AcDbBlockTableRecord
  2
_OPEN30
  0
BLOCK_RECORD
  5
24
100
AcDbSymbolTableRecord
100
AcDbBlockTableRecord
  2
_BOXFILLED
  0
BLOCK_RECORD
  5
29
100
AcDbSymbolTableRecord
100
AcDbBlockTableRecord
  2
_BOXBLANK
  0
BLOCK_RECORD
  5
31
100
AcDbSymbolTableRecord
100
AcDbBlockTableRecord
  2
_OBLIQUE
  0
BLOCK_RECORD
  5
35
100
AcDbSymbolTableRecord
100
AcDbBlockTableRecord
  2
_OPEN90
  0
BLOCK_RECORD
  5
3B
100
AcDbSymbolTableRecord
100
AcDbBlockTableRecord
  2
_CLOSEDBLANK
  0
BLOCK_RECORD
  5
41
100
AcDbSymbolTableRecord
100
AcDbBlockTableRecord
  2
_DOTBLANK
  0
ENDTAB
  0
ENDSEC
  0
SECTION
  2
BLOCKS
  0
BLOCK
  5
2B9
100
AcDbEntity
  8
0
100
AcDbBlockBegin
  2
*MODEL_SPACE
 70
     0
 10
0.0
 20
0.0
 30
0.0
  3
*MODEL_SPACE
  1

  0
ENDBLK
  5
2BA
100
AcDbEntity
  8
0
100
AcDbBlockEnd
  0
BLOCK
  5
2BB
100
AcDbEntity
  8
0
100
AcDbBlockBegin
  2
*PAPER_SPACE
 70
     0
 10
0.0
 20
0.0
 30
0.0
  3
*PAPER_SPACE
  1

  0
ENDBLK
  5
2BC
100
AcDbEntity
  8
0
100
AcDbBlockEnd
  0
BLOCK
  5
2BD
100
AcDbEntity
  8
0
100
AcDbBlockBegin
  2
*PAPER_SPACE0
 70
     0
 10
0.0
 20
0.0
 30
0.0
  3
*PAPER_SPACE0
  1

  0
ENDBLK
  5
2BE
100
AcDbEntity
  8
0
100
AcDbBlockEnd
  0
BLOCK
  5
2
330
1
100
AcDbEntity
  8
0
100
AcDbBlockBegin
  2
_NONE
 70
     0
 10
0.0
 20
0.0
 30
0.0
  3
_NONE
  1

  0
ENDBLK
  5
3
330
1
100
AcDbEntity
  8
0
100
AcDbBlockEnd
  0
BLOCK
  5
5
330
4
100
AcDbEntity
  8
0
100
AcDbBlockBegin
  2
_CLOSED
 70
     0
 10
0.0
 20
0.0
 30
0.0
  3
_CLOSED
  1

  0
LINE
  5
6
330
4
100
AcDbEntity
  8
0
  6
BYBLOCK
 62
     0
370
    -2
100
AcDbLine
 10
-1.0
 20
0.166667
 30
0.0
 11
0.0
 21
0.0
 31
0.0
  0
LINE
  5
7
330
4
100
AcDbEntity
  8
0
  6
BYBLOCK
 62
     0
370
    -2
100
AcDbLine
 10
0.0
 20
0.0
 30
0.0
 11
-1.0
 21
-0.166667
 31
0.0
  0
LINE
  5
8
330
4
100
AcDbEntity
  8
0
  6
BYBLOCK
 62
     0
370
    -2
100
AcDbLine
 10
-1.0
 20
0.166667
 30
0.0
 11
-1.0
 21
-0.166667
 31
0.0
  0
LINE
  5
9
330
4
100
AcDbEntity
  8
0
  6
BYBLOCK
 62
     0
370
    -2
100
AcDbLine
 10
0.0
 20
0.0
 30
0.0
 11
-1.0
 21
0.0
 31
0.0
  0
ENDBLK
  5
A
330
4
100
AcDbEntity
  8
0
100
AcDbBlockEnd
  0
BLOCK
  5
C
330
B
100
AcDbEntity
  8
0
100
AcDbBlockBegin
  2
_DOT
 70
     0
 10
0.0
 20
0.0
 30
0.0
  3
_DOT
  1

  0
POLYLINE
  5
D
330
B
100
AcDbEntity
  8
0
  6
BYBLOCK
 62
     0
370
    -2
100
AcDb2dPolyline
 66
     1
 10
0.0
 20
0.0
 30
0.0
 70
     1
 40
0.5
 41
0.5
  0
VERTEX
  5
E
330
B
100
AcDbEntity
  8
0
  6
BYBLOCK
 62
     0
370
    -2
100
AcDbVertex
100
AcDb2dVertex
 10
-0.25
 20
0.0
 30
0.0
 42
1.0
  0
VERTEX
  5
F
330
B
100
AcDbEntity
  8
0
  6
BYBLOCK
 62
     0
370
    -2
100
AcDbVertex
100
AcDb2dVertex
 10
0.25
 20
0.0
 30
0.0
 42
1.0
  0
SEQEND
  5
10
330
B
100
AcDbEntity
  8
0
  6
BYBLOCK
 62
     0
370
    -2
  0
LINE
  5
11
330
B
100
AcDbEntity
  8
0
  6
BYBLOCK
 62
     0
370
    -2
100
AcDbLine
 10
-0.5
 20
0.0
 30
0.0
 11
-1.0
 21
0.0
 31
0.0
  0
ENDBLK
  5
12
330
B
100
AcDbEntity
  8
0
100
AcDbBlockEnd
  0
BLOCK
  5
14
330
13
100
AcDbEntity
  8
0
100
AcDbBlockBegin
  2
_OPEN
 70
     0
 10
0.0
 20
0.0
 30
0.0
  3
_OPEN
  1

  0
LINE
  5
15
330
13
100
AcDbEntity
  8
0
  6
BYBLOCK
 62
     0
370
    -2
100
AcDbLine
 10
-1.0
 20
0.166667
 30
0.0
 11
0.0
 21
0.0
 31
0.0
  0
LINE
  5
16
330
13
100
AcDbEntity
  8
0
  6
BYBLOCK
 62
     0
370
    -2
100
AcDbLine
 10
0.0
 20
0.0
 30
0.0
 11
-1.0
 21
-0.166667
 31
0.0
  0
LINE
  5
17
330
13
100
AcDbEntity
  8
0
  6
BYBLOCK
 62
     0
370
    -2
100
AcDbLine
 10
0.0
 20
0.0
 30
0.0
 11
-1.0
 21
0.0
 31
0.0
  0
ENDBLK
  5
18
330
13
100
AcDbEntity
  8
0
100
AcDbBlockEnd
  0
BLOCK
  5
1A
330
19
100
AcDbEntity
  8
0
100
AcDbBlockBegin
  2
_ORIGIN
 70
     0
 10
0.0
 20
0.0
 30
0.0
  3
_ORIGIN
  1

  0
CIRCLE
  5
1B
330
19
100
AcDbEntity
  8
0
  6
BYBLOCK
 62
     0
370
    -2
100
AcDbCircle
 10
0.0
 20
0.0
 30
0.0
 40
0.5
  0
LINE
  5
1C
330
19
100
AcDbEntity
  8
0
  6
BYBLOCK
 62
     0
370
    -2
100
AcDbLine
 10
0.0
 20
0.0
 30
0.0
 11
-1.0
 21
0.0
 31
0.0
  0
ENDBLK
  5
1D
330
19
100
AcDbEntity
  8
0
100
AcDbBlockEnd
  0
BLOCK
  5
1F
330
1E
100
AcDbEntity
  8
0
100
AcDbBlockBegin
  2
_OPEN30
 70
     0
 10
0.0
 20
0.0
 30
0.0
  3
_OPEN30
  1

  0
LINE
  5
20
330
1E
100
AcDbEntity
  8
0
  6
BYBLOCK
 62
     0
370
    -2
100
AcDbLine
 10
-1.0
 20
0.267949
 30
0.0
 11
0.0
 21
0.0
 31
0.0
  0
LINE
  5
21
330
1E
100
AcDbEntity
  8
0
  6
BYBLOCK
 62
     0
370
    -2
100
AcDbLine
 10
0.0
 20
0.0
 30
0.0
 11
-1.0
 21
-0.267949
 31
0.0
  0
LINE
  5
22
330
1E
100
AcDbEntity
  8
0
  6
BYBLOCK
 62
     0
370
    -2
100
AcDbLine
 10
0.0
 20
0.0
 30
0.0
 11
-1.0
 21
0.0
 31
0.0
  0
ENDBLK
  5
23
330
1E
100
AcDbEntity
  8
0
100
AcDbBlockEnd
  0
BLOCK
  5
25
330
24
100
AcDbEntity
  8
0
100
AcDbBlockBegin
  2
_BOXFILLED
 70
     0
 10
0.0
 20
0.0
 30
0.0
  3
_BOXFILLED
  1

  0
SOLID
  5
26
330
24
100
AcDbEntity
  8
0
  6
BYBLOCK
 62
     0
370
    -2
100
AcDbTrace
 10
-0.5
 20
0.5
 30
0.0
 11
0.5
 21
0.5
 31
0.0
 12
-0.5
 22
-0.5
 32
0.0
 13
0.5
 23
-0.5
 33
0.0
  0
LINE
  5
27
330
24
100
AcDbEntity
  8
0
  6
BYBLOCK
 62
     0
370
    -2
100
AcDbLine
 10
-0.5
 20
0.0
 30
0.0
 11
-1.0
 21
0.0
 31
0.0
  0
ENDBLK
  5
28
330
24
100
AcDbEntity
  8
0
100
AcDbBlockEnd
  0
BLOCK
  5
2A
330
29
100
AcDbEntity
  8
0
100
AcDbBlockBegin
  2
_BOXBLANK
 70
     0
 10
0.0
 20
0.0
 30
0.0
  3
_BOXBLANK
  1

  0
LINE
  5
2B
330
29
100
AcDbEntity
  8
0
  6
BYBLOCK
 62
     0
370
    -2
100
AcDbLine
 10
-0.5
 20
-0.5
 30
0.0
 11
0.5
 21
-0.5
 31
0.0
  0
LINE
  5
2C
330
29
100
AcDbEntity
  8
0
  6
BYBLOCK
 62
     0
370
    -2
100
AcDbLine
 10
0.5
 20
-0.5
 30
0.0
 11
0.5
 21
0.5
 31
0.0
  0
LINE
  5
2D
330
29
100
AcDbEntity
  8
0
  6
BYBLOCK
 62
     0
370
    -2
100
AcDbLine
 10
0.5
 20
0.5
 30
0.0
 11
-0.5
 21
0.5
 31
0.0
  0
LINE
  5
2E
330
29
100
AcDbEntity
  8
0
  6
BYBLOCK
 62
     0
370
    -2
100
AcDbLine
 10
-0.5
 20
0.5
 30
0.0
 11
-0.5
 21
-0.5
 31
0.0
  0
LINE
  5
2F
330
29
100
AcDbEntity
  8
0
  6
BYBLOCK
 62
     0
370
    -2
100
AcDbLine
 10
-0.5
 20
0.0
 30
0.0
 11
-1.0
 21
0.0
 31
0.0
  0
ENDBLK
  5
30
330
29
100
AcDbEntity
  8
0
100
AcDbBlockEnd
  0
BLOCK
  5
32
330
31
100
AcDbEntity
  8
0
100
AcDbBlockBegin
  2
_OBLIQUE
 70
     0
 10
0.0
 20
0.0
 30
0.0
  3
_OBLIQUE
  1

  0
LINE
  5
33
330
31
100
AcDbEntity
  8
0
  6
BYBLOCK
 62
     0
370
    -2
100
AcDbLine
 10
-0.5
 20
-0.5
 30
0.0
 11
0.5
 21
0.5
 31
0.0
  0
ENDBLK
  5
34
330
31
100
AcDbEntity
  8
0
100
AcDbBlockEnd
  0
BLOCK
  5
36
330
35
100
AcDbEntity
  8
0
100
AcDbBlockBegin
  2
_OPEN90
 70
     0
 10
0.0
 20
0.0
 30
0.0
  3
_OPEN90
  1

  0
LINE
  5
37
330
35
100
AcDbEntity
  8
0
  6
BYBLOCK
 62
     0
370
    -2
100
AcDbLine
 10
-0.5
 20
0.5
 30
0.0
 11
0.0
 21
0.0
 31
0.0
  0
LINE
  5
38
330
35
100
AcDbEntity
  8
0
  6
BYBLOCK
 62
     0
370
    -2
100
AcDbLine
 10
0.0
 20
0.0
 30
0.0
 11
-0.5
 21
-0.5
 31
0.0
  0
LINE
  5
39
330
35
100
AcDbEntity
  8
0
  6
BYBLOCK
 62
     0
370
    -2
100
AcDbLine
 10
0.0
 20
0.0
 30
0.0
 11
-1.0
 21
0.0
 31
0.0
  0
ENDBLK
  5
3A
330
35
100
AcDbEntity
  8
0
100
AcDbBlockEnd
  0
BLOCK
  5
3C
330
3B
100
AcDbEntity
  8
0
100
AcDbBlockBegin
  2
_CLOSEDBLANK
 70
     0
 10
0.0
 20
0.0
 30
0.0
  3
_CLOSEDBLANK
  1

  0
LINE
  5
3D
330
3B
100
AcDbEntity
  8
0
  6
BYBLOCK
 62
     0
370
    -2
100
AcDbLine
 10
-1.0
 20
0.1666666666666666
 30
0.0
 11
0.0
 21
0.0
 31
0.0
  0
LINE
  5
3E
330
3B
100
AcDbEntity
  8
0
  6
BYBLOCK
 62
     0
370
    -2
100
AcDbLine
 10
0.0
 20
0.0
 30
0.0
 11
-1.0
 21
-0.1666666666666666
 31
0.0
  0
LINE
  5
3F
330
3B
100
AcDbEntity
  8
0
  6
BYBLOCK
 62
     0
370
    -2
100
AcDbLine
 10
-1.0
 20
0.1666666666666666
 30
0.0
 11
-1.0
 21
-0.1666666666666666
 31
0.0
  0
ENDBLK
  5
40
330
3B
100
AcDbEntity
  8
0
100
AcDbBlockEnd
  0
BLOCK
  5
42
330
41
100
AcDbEntity
  8
0
100
AcDbBlockBegin
  2
_DOTBLANK
 70
     0
 10
0.0
 20
0.0
 30
0.0
  3
_DOTBLANK
  1

  0
CIRCLE
  5
43
330
41
100
AcDbEntity
  8
0
  6
BYBLOCK
 62
     0
370
    -2
100
AcDbCircle
 10
0.0
 20
0.0
 30
0.0
 40
0.5
  0
LINE
  5
44
330
41
100
AcDbEntity
  8
0
  6
BYBLOCK
 62
     0
370
    -2
100
AcDbLine
 10
-0.5
 20
0.0
 30
0.0
 11
-1.0
 21
0.0
 31
0.0
  0
ENDBLK
  5
45
330
41
100
AcDbEntity
  8
0
100
AcDbBlockEnd
  0
ENDSEC
  0
SECTION
  2
ENTITIES
  0
MTEXT
  5
46
100
AcDbEntity
  8
A8
  6
CONTINUOUS
 62
3
100
AcDbMText
 10
9.999997526638502
 20
18.00000076076889
 30
0.000000000000000
 40
3.000000000000000
 41
0.000000000000000
 44
0.6739999771118164
 71
     7
 72
     1
  1
{\H0.94x;{TYPE No.TCA-420G-U32}}
 11
1.000000000000000
 21
0.000000000000000
 31
0.000000000000000
  7
STANDARD
  0
POINT
  5
47
100
AcDbEntity
  8
A0
  6
CONTINUOUS
 62
3
100
AcDbPoint
 10
9.999997526638502
 20
18.00000076076889
 30
0.000000000000000
  0
CIRCLE
  5
48
100
AcDbEntity
  8
A1
  6
CONTINUOUS
 62
7
100
AcDbCircle
 10
118.0000000000004
 20
118.0000000000000
 30
0.000000000000000
 40
2.995918259738260
  0
CIRCLE
  5
49
100
AcDbEntity
  8
A1
  6
CONTINUOUS
 62
7
100
AcDbCircle
 10
118.0000000000004
 20
118.0000000000000
 30
0.000000000000000
 40
1.254068304497216
  0
ARC
  5
4A
100
AcDbEntity
  8
A1
  6
CONTINUOUS
 62
7
100
AcDbCircle
 10
137.4000190000007
 20
140.3844999999999
 30
0.000000000000000
 40
1.800000000000000
100
AcDbArc
 50
334.1616679684519
 51
357.3092606895740
  0
ARC
  5
4B
100
AcDbEntity
  8
A1
  6
CONTINUOUS
 62
7
100
AcDbCircle
 10
120.5999810000002
 20
140.3844999999999
 30
0.000000000000000
 40
1.800000000000000
100
AcDbArc
 50
182.6907393104261
 51
205.8383320315481
  0
ARC
  5
4C
100
AcDbEntity
  8
A1
  6
CONTINUOUS
 62
7
100
AcDbCircle
 10
136.2746298462726
 20
140.3844999999999
 30
0.000000000000000
 40
1.800000000000000
100
AcDbArc
 50
334.1616679684519
 51
357.3092606895740
  0
ARC
  5
4D
100
AcDbEntity
  8
A1
  6
CONTINUOUS
 62
7
100
AcDbCircle
 10
121.7253701537283
 20
140.3844999999999
 30
0.000000000000000
 40
1.800000000000000
100
AcDbArc
 50
182.6907393104261
 51
205.8383320315481
  0
ARC
  5
4E
100
AcDbEntity
  8
A1
  6
CONTINUOUS
 62
7
100
AcDbCircle
 10
133.2000095000006
 20
140.3844999999999
 30
0.000000000000000
 40
1.800000000000000
100
AcDbArc
 50
182.6907393104261
 51
205.8383320315481
  0
ARC
  5
4F
100
AcDbEntity
  8
A1
  6
CONTINUOUS
 62
7
100
AcDbCircle
 10
133.2000095000006
 20
140.3844999999999
 30
0.000000000000000
 40
1.800000000000000
100
AcDbArc
 50
334.1616679684519
 51
357.3092606895740
  0
ARC
  5
50
100
AcDbEntity
  8
A1
  6
CONTINUOUS
 62
7
100
AcDbCircle
 10
124.7999905000003
 20
140.3844999999999
 30
0.000000000000000
 40
1.800000000000000
100
AcDbArc
 50
182.6907393104261
 51
205.8383320315481
  0
ARC
  5
51
100
AcDbEntity
  8
A1
  6
CONTINUOUS
 62
7
100
AcDbCircle
 10
124.7999905000003
 20
140.3844999999999
 30
0.000000000000000
 40
1.800000000000000
100
AcDbArc
 50
334.1616679684519
 51
357.3092606895740
  0
ARC
  5
52
100
AcDbEntity
  8
A1
  6
CONTINUOUS
 62
7
100
AcDbCircle
 10
129.0000000000004
 20
140.3844999999999
 30
0.000000000000000
 40
1.800000000000000
100
AcDbArc
 50
182.6907393104261
 51
205.8383320315481
  0
ARC
  5
53
100
AcDbEntity
  8
A1
  6
CONTINUOUS
 62
7
100
AcDbCircle
 10
129.0000000000004
 20
140.3844999999999
 30
0.000000000000000
 40
1.800000000000000
100
AcDbArc
 50
334.1616679684519
 51
357.3092606895740
  0
ARC
  5
54
100
AcDbEntity
  8
A1
  6
CONTINUOUS
 62
7
100
AcDbCircle
 10
140.9128045141465
 20
142.2999990000000
 30
0.000000000000000
 40
2.000000000000000
100
AcDbArc
 50
270.0000000000000
 51
328.6713181962052
  0
ARC
  5
55
100
AcDbEntity
  8
A1
  6
CONTINUOUS
 62
7
100
AcDbCircle
 10
117.0871954858544
 20
142.2999990000000
 30
0.000000000000000
 40
2.000000000000000
100
AcDbArc
 50
211.3286818037949
 51
270.0000000000000
  0
ARC
  5
56
100
AcDbEntity
  8
A1
  6
CONTINUOUS
 62
7
100
AcDbCircle
 10
114.2822142947963
 20
142.1000000000000
 30
0.000000000000000
 40
0.5000000000000000
100
AcDbArc
 50
31.32868180379440
 51
90.00000000000000
  0
ARC
  5
57
100
AcDbEntity
  8
A1
  6
CONTINUOUS
 62
7
100
AcDbCircle
 10
143.7177857052045
 20
142.1000000000000
 30
0.000000000000000
 40
0.5000000000000000
100
AcDbArc
 50
90.00000000000000
 51
148.6713181962056
  0
LINE
  5
58
100
AcDbEntity
  8
A1
  6
CONTINUOUS
 62
7
100
AcDbLine
 10
140.9128045141465
 20
140.2999990000000
 30
0.000000000000000
 11
117.0871954859229
 21
140.2999990000000
 31
0.000000000000000
  0
LINE
  5
59
100
AcDbEntity
  8
A1
  6
CONTINUOUS
 62
7
100
AcDbLine
 10
142.6212018261824
 20
141.2601054361058
 30
0.000000000000000
 11
143.2906863771956
 21
142.3599733909736
 31
0.000000000000000
  0
LINE
  5
5A
100
AcDbEntity
  8
A1
  6
CONTINUOUS
 62
7
100
AcDbLine
 10
114.7093136228053
 20
142.3599733909736
 30
0.000000000000000
 11
115.3787981738185
 21
141.2601054361058
 31
0.000000000000000
  0
LINE
  5
5B
100
AcDbEntity
  8
A1
  6
CONTINUOUS
 62
7
100
AcDbLine
 10
144.5000000000004
 20
144.0000000000000
 30
0.000000000000000
 11
148.0000000000004
 21
144.0000000000000
 31
0.000000000000000
  0
LINE
  5
5C
100
AcDbEntity
  8
A1
  6
CONTINUOUS
 62
7
100
AcDbLine
 10
144.5000000000004
 20
142.6000000000001
 30
0.000000000000000
 11
148.0000000000004
 21
142.6000000000001
 31
0.000000000000000
  0
LINE
  5
5D
100
AcDbEntity
  8
A1
  6
CONTINUOUS
 62
7
100
AcDbLine
 10
148.0000000000004
 20
142.6000000000001
 30
0.000000000000000
 11
148.0000000000004
 21
144.0000000000000
 31
0.000000000000000
  0
LINE
  5
5E
100
AcDbEntity
  8
A1
  6
CONTINUOUS
 62
7
100
AcDbLine
 10
113.4999969456740
 20
144.0000000000000
 30
0.000000000000000
 11
144.5000000000004
 21
144.0000000000000
 31
0.000000000000000
  0
LINE
  5
5F
100
AcDbEntity
  8
A1
  6
CONTINUOUS
 62
7
100
AcDbLine
 10
113.4999969456740
 20
142.6000000000001
 30
0.000000000000000
 11
144.5000000000004
 21
142.6000000000001
 31
0.000000000000000
  0
LINE
  5
60
100
AcDbEntity
  8
A1
  6
CONTINUOUS
 62
7
100
AcDbLine
 10
110.0000000000004
 20
144.0000000000000
 30
0.000000000000000
 11
110.0000000000004
 21
142.6000000000001
 31
0.000000000000000
  0
LINE
  5
61
100
AcDbEntity
  8
A1
  6
CONTINUOUS
 62
7
100
AcDbLine
 10
110.0000000000004
 20
142.6000000000001
 30
0.000000000000000
 11
113.4999969456740
 21
142.6000000000001
 31
0.000000000000000
  0
LINE
  5
62
100
AcDbEntity
  8
A1
  6
CONTINUOUS
 62
7
100
AcDbLine
 10
110.0000000000004
 20
144.0000000000000
 30
0.000000000000000
 11
113.4999969456740
 21
144.0000000000000
 31
0.000000000000000
  0
ARC
  5
63
100
AcDbEntity
  8
A1
  6
CONTINUOUS
 62
7
100
AcDbCircle
 10
118.0000000000004
 20
118.0000000000000
 30
0.000000000000000
 40
16.00000000000000
100
AcDbArc
 50
99.24022339149403
 51
270.0000000000000
  0
ARC
  5
64
100
AcDbEntity
  8
A1
  6
CONTINUOUS
 62
7
100
AcDbCircle
 10
118.0000000000004
 20
118.0000000000000
 30
0.000000000000000
 40
16.00000000000000
100
AcDbArc
 50
270.0000000000000
 51
392.9414757690415
  0
ARC
  5
65
100
AcDbEntity
  8
A1
  6
CONTINUOUS
 62
7
100
AcDbCircle
 10
118.0000000000004
 20
118.0000000000000
 30
0.000000000000000
 40
10.00000000000000
100
AcDbArc
 50
111.4288550604527
 51
270.0000000000000
  0
ARC
  5
66
100
AcDbEntity
  8
A1
  6
CONTINUOUS
 62
7
100
AcDbCircle
 10
118.0000000000004
 20
118.0000000000000
 30
0.000000000000000
 40
10.00000000000000
100
AcDbArc
 50
270.0000000000000
 51
379.9064541475319
  0
ARC
  5
67
100
AcDbEntity
  8
A1
  6
CONTINUOUS
 62
7
100
AcDbCircle
 10
118.0000000000004
 20
118.0000000000000
 30
0.000000000000000
 40
11.00000000000000
100
AcDbArc
 50
108.3565697689788
 51
270.0000000000000
  0
ARC
  5
68
100
AcDbEntity
  8
A1
  6
CONTINUOUS
 62
7
100
AcDbCircle
 10
118.0000000000004
 20
118.0000000000000
 30
0.000000000000000
 40
11.00000000000000
100
AcDbArc
 50
270.0000000000000
 51
383.2370000792987
  0
ARC
  5
69
100
AcDbEntity
  8
A1
  6
CONTINUOUS
 62
7
100
AcDbCircle
 10
118.0000000000004
 20
118.0000000000000
 30
0.000000000000000
 40
6.337696000000000
100
AcDbArc
 50
134.6834548077967
 51
270.0000000000000
  0
ARC
  5
6A
100
AcDbEntity
  8
A1
  6
CONTINUOUS
 62
7
100
AcDbCircle
 10
118.0000000000004
 20
118.0000000000000
 30
0.000000000000000
 40
6.337696000000000
100
AcDbArc
 50
270.0000000000000
 51
354.0526626704938
  0
SPLINE
  5
6B
100
AcDbEntity
  8
A1
  6
CONTINUOUS
 62
7
100
AcDbSpline
210
0.000000000000000
220
0.000000000000000
230
1.000000000000000
 70
     8
 71
     3
 72
    11
 73
     7
 74
     0
 42
1.000000000000000e-07
 43
1.000000000000000e-07
 12
-0.8453221332247267
 22
-0.5342569522999838
 32
0.000000000000000
 13
-0.4148699414799921
 23
-0.9098807238660811
 33
0.000000000000000
 40
0.000000000000000
 40
0.000000000000000
 40
0.000000000000000
 40
0.000000000000000
 40
0.2224381064619269
 40
0.4459176446259849
 40
0.6713376004834498
 40
0.7083881985962646
 40
0.7083881985962646
 40
0.7083881985962646
 40
0.7083881985962646
 10
116.8172900694431
 20
139.4206878544305
 30
0.000000000000000
 10
116.7546127845548
 20
139.3810748194859
 30
0.000000000000000
 10
116.6359363192786
 20
139.2898779033649
 30
0.000000000000000
 10
116.4867885269956
 20
139.1212857735893
 30
0.000000000000000
 10
116.4038276766058
 20
138.9810319697846
 30
0.000000000000000
 10
116.3664058053466
 20
138.9019562554081
 30
0.000000000000000
 10
116.3612820788563
 20
138.8907190470646
 30
0.000000000000000
  0
SPLINE
  5
6C
100
AcDbEntity
  8
A1
  6
CONTINUOUS
 62
7
100
AcDbSpline
210
0.000000000000000
220
0.000000000000000
230
1.000000000000000
 70
     8
 71
     3
 72
    19
 73
    15
 74
     0
 42
1.000000000000000e-07
 43
1.000000000000000e-07
 12
-0.4122978366385723
 22
-0.9110491171741160
 32
0.000000000000000
 13
-0.6634158087842934
 23
-0.7482509369556283
 33
0.000000000000000
 40
0.000000000000000
 40
0.000000000000000
 40
0.000000000000000
 40
0.000000000000000
 40
0.05447001294217450
 40
0.1374723596170276
 40
0.2409706270158688
 40
0.3658210704120059
 40
0.5126910587124022
 40
0.6820277325896930
 40
0.8740149354499241
 40
1.088548904416702
 40
1.325249054280843
 40
1.576990654237318
 40
1.841232677997700
 40
2.115074240008857
 40
2.115074240008857
 40
2.115074240008857
 40
2.115074240008857
 10
116.3621662451434
 20
138.8910006201400
 30
0.000000000000000
 10
116.3546802889775
 20
138.8744590010722
 30
0.000000000000000
 10
116.3353226737579
 20
138.8329181416892
 30
0.000000000000000
 10
116.2990494970918
 20
138.7612345603595
 30
0.000000000000000
 10
116.2495492845289
 20
138.6700018134328
 30
0.000000000000000
 10
116.1868336338188
 20
138.5617706693653
 30
0.000000000000000
 10
116.1098036109213
 20
138.4365283349129
 30
0.000000000000000
 10
116.0174425430681
 20
138.2945037433011
 30
0.000000000000000
 10
115.9088963897385
 20
138.1361663665107
 30
0.000000000000000
 10
115.7834160710015
 20
137.9622870197618
 30
0.000000000000000
 10
115.6417842944900
 20
137.7755818054769
 30
0.000000000000000
 10
115.4856138627052
 20
137.5791900524527
 30
0.000000000000000
 10
115.3172184555283
 20
137.3767879651868
 30
0.000000000000000
 10
115.1996831134766
 20
137.2412833117707
 30
0.000000000000000
 10
115.1391261730298
 20
137.1729825766533
 30
0.000000000000000
  0
SPLINE
  5
6D
100
AcDbEntity
  8
A1
  6
CONTINUOUS
 62
7
100
AcDbSpline
210
0.000000000000000
220
0.000000000000000
230
1.000000000000000
 70
     8
 71
     3
 72
    12
 73
     8
 74
     0
 42
1.000000000000000e-07
 43
1.000000000000000e-07
 12
-0.9997386691861720
 22
-0.02286030031064001
 32
0.000000000000000
 13
-0.8461414911116663
 23
-0.5329583257826016
 33
0.000000000000000
 40
0.000000000000000
 40
0.000000000000000
 40
0.000000000000000
 40
0.000000000000000
 40
0.09353466507158510
 40
0.2064250221178238
 40
0.3191652654275492
 40
0.4508089050504049
 40
0.5287507727949351
 40
0.5287507727949351
 40
0.5287507727949351
 40
0.5287507727949351
 10
117.3083692684175
 20
139.5999999999999
 30
0.000000000000000
 10
117.2771991945570
 20
139.5992872564889
 30
0.000000000000000
 10
117.2083328027473
 20
139.5930426134524
 30
0.000000000000000
 10
117.1053723704641
 20
139.5644848607640
 30
0.000000000000000
 10
116.9947620962184
 20
139.5199608167595
 30
0.000000000000000
 10
116.8993096686307
 20
139.4702906682923
 30
0.000000000000000
 10
116.8392733521756
 20
139.4345344435443
 30
0.000000000000000
 10
116.8172900694445
 20
139.4206878544305
 30
0.000000000000000
  0
ARC
  5
6E
100
AcDbEntity
  8
A1
  6
CONTINUOUS
 62
7
100
AcDbCircle
 10
117.2500000000004
 20
138.0999999999999
 30
0.000000000000000
 40
1.500000000000000
100
AcDbArc
 50
90.00000000000000
 51
180.0000000000000
  0
ARC
  5
6F
100
AcDbEntity
  8
A1
  6
CONTINUOUS
 62
7
100
AcDbCircle
 10
118.5000000000002
 20
118.8000029999999
 30
0.000000000000000
 40
5.500000000000000
100
AcDbArc
 50
170.5062222482010
 51
171.6363878858998
  0
ARC
  5
70
100
AcDbEntity
  8
A1
  6
CONTINUOUS
 62
7
100
AcDbCircle
 10
118.5000000000002
 20
118.8000029999999
 30
0.000000000000000
 40
5.500000000000000
100
AcDbArc
 50
188.3636121141002
 51
264.7840914295479
  0
ARC
  5
71
100
AcDbEntity
  8
A1
  6
CONTINUOUS
 62
7
100
AcDbCircle
 10
118.4999989339711
 20
118.8000100361460
 30
0.000000000000000
 40
5.500006910099311
100
AcDbArc
 50
264.7841091523034
 51
322.7163071852318
  0
ARC
  5
72
100
AcDbEntity
  8
A1
  6
CONTINUOUS
 62
7
100
AcDbCircle
 10
114.7555255729413
 20
135.8171150682254
 30
0.000000000000000
 40
1.000000000000071
100
AcDbArc
 50
350.5062135272460
 51
389.3576957369992
  0
ARC
  5
73
100
AcDbEntity
  8
A1
  6
CONTINUOUS
 62
7
100
AcDbCircle
 10
140.3000644834902
 20
130.0998639507715
 30
0.000000000000000
 40
5.000136049684793
100
AcDbArc
 50
90.00077416367668
 51
142.7156191781173
  0
ARC
  5
74
100
AcDbEntity
  8
A1
  6
CONTINUOUS
 62
7
100
AcDbCircle
 10
140.7500000000004
 20
138.0999999999999
 30
0.000000000000000
 40
1.500000000000000
100
AcDbArc
 50
0.000000000000000
 51
90.00000000000000
  0
LINE
  5
75
100
AcDbEntity
  8
A1
  6
CONTINUOUS
 62
7
100
AcDbLine
 10
115.7500000000004
 20
138.1000000000000
 30
0.000000000000000
 11
115.7500000000004
 21
137.9198230700889
 31
0.000000000000000
  0
LINE
  5
76
100
AcDbEntity
  8
A1
  6
CONTINUOUS
 62
7
100
AcDbLine
 10
115.1397934837248
 20
137.1737030224010
 30
0.000000000000000
 11
115.1944508831614
 21
137.0765340828652
 31
0.000000000000000
  0
LINE
  5
77
100
AcDbEntity
  8
A1
  6
CONTINUOUS
 62
7
100
AcDbLine
 10
117.3083692684175
 20
139.5999999999999
 30
0.000000000000000
 11
118.8045023832745
 21
139.5999999999999
 31
0.000000000000000
  0
LINE
  5
78
100
AcDbEntity
  8
A1
  6
CONTINUOUS
 62
7
100
AcDbLine
 10
115.1944508831614
 20
137.0765340828652
 30
0.000000000000000
 11
115.4030423025083
 21
136.7057040173452
 31
0.000000000000000
  0
LINE
  5
79
100
AcDbEntity
  8
A1
  6
CONTINUOUS
 62
7
100
AcDbLine
 10
122.8760570000003
 20
115.4683149999999
 30
0.000000000000000
 11
124.9780930332252
 21
118.2292696305988
 31
0.000000000000000
  0
LINE
  5
7A
100
AcDbEntity
  8
A1
  6
CONTINUOUS
 62
7
100
AcDbLine
 10
115.6544075969170
 20
135.1294160593558
 30
0.000000000000000
 11
113.0753290000003
 21
119.7071759999999
 31
0.000000000000000
  0
LINE
  5
7B
100
AcDbEntity
  8
A1
  6
CONTINUOUS
 62
7
100
AcDbLine
 10
113.0584930000004
 20
118.0000020194048
 30
0.000000000000000
 11
113.0584930000004
 21
119.6000039805950
 31
0.000000000000000
  0
LINE
  5
7C
100
AcDbEntity
  8
A1
  6
CONTINUOUS
 62
7
100
AcDbLine
 10
115.6544075969170
 20
135.1294160593558
 30
0.000000000000000
 11
115.7418290675155
 21
135.6521744225650
 31
0.000000000000000
  0
LINE
  5
7D
100
AcDbEntity
  8
A1
  6
CONTINUOUS
 62
7
100
AcDbLine
 10
115.4030423025083
 20
136.7057040173452
 30
0.000000000000000
 11
115.6271016046908
 21
136.3073754285240
 31
0.000000000000000
  0
LINE
  5
7E
100
AcDbEntity
  8
A1
  6
CONTINUOUS
 62
7
100
AcDbLine
 10
121.6518970933528
 20
139.5999999999999
 30
0.000000000000000
 11
118.8045023832745
 21
139.5999999999999
 31
0.000000000000000
  0
LINE
  5
7F
100
AcDbEntity
  8
A1
  6
CONTINUOUS
 62
7
100
AcDbLine
 10
124.9780930332252
 20
118.2292696305988
 30
0.000000000000000
 11
126.1694338761025
 21
119.7940563253907
 31
0.000000000000000
  0
LINE
  5
80
100
AcDbEntity
  8
A1
  6
CONTINUOUS
 62
7
100
AcDbLine
 10
136.3217630000003
 20
133.1288039999998
 30
0.000000000000000
 11
128.0669466539612
 21
122.2863764416223
 31
0.000000000000000
  0
LINE
  5
81
100
AcDbEntity
  8
A1
  6
CONTINUOUS
 62
7
100
AcDbLine
 10
142.2500000000004
 20
135.0999999999998
 30
0.000000000000000
 11
142.2500000000004
 21
138.1000000000000
 31
0.000000000000000
  0
LINE
  5
82
100
AcDbEntity
  8
A1
  6
CONTINUOUS
 62
7
100
AcDbLine
 10
142.2500000000004
 20
135.0999999999998
 30
0.000000000000000
 11
140.2999969231264
 21
135.0999999999998
 31
0.000000000000000
  0
LINE
  5
83
100
AcDbEntity
  8
A1
  6
CONTINUOUS
 62
7
100
AcDbLine
 10
121.6518970933528
 20
139.5999999999999
 30
0.000000000000000
 11
140.7500000000004
 21
139.5999999999999
 31
0.000000000000000
  0
LINE
  5
84
100
AcDbEntity
  8
A1
  6
CONTINUOUS
 62
7
100
AcDbLine
 10
126.1694338761025
 20
119.7940563253906
 30
0.000000000000000
 11
128.0669466539612
 21
122.2863764416223
 31
0.000000000000000
  0
ARC
  5
85
100
AcDbEntity
  8
A1
  6
CONTINUOUS
 62
7
100
AcDbCircle
 10
188.7918850000004
 20
117.9839549999998
 30
0.000000000000000
 40
6.602129000000000
100
AcDbArc
 50
0.1392447326076467
 51
15.85189460833558
  0
ARC
  5
86
100
AcDbEntity
  8
A1
  6
CONTINUOUS
 62
7
100
AcDbCircle
 10
188.7918850000004
 20
118.0160450000002
 30
0.000000000000000
 40
6.602129000000000
100
AcDbArc
 50
337.1639900000002
 51
359.8607552673923
  0
ARC
  5
87
100
AcDbEntity
  8
A1
  6
CONTINUOUS
 62
7
100
AcDbCircle
 10
194.6922150000004
 20
115.5314100000001
 30
0.000000000000000
 40
0.2000000000000000
100
AcDbArc
 50
240.9079435015141
 51
337.1639658219682
  0
ARC
  5
88
100
AcDbEntity
  8
A1
  6
CONTINUOUS
 62
7
100
AcDbCircle
 10
175.6355820000004
 20
118.0000000000000
 30
0.000000000000000
 40
3.366533000000000
100
AcDbArc
 50
147.4380501522695
 51
158.1294808839927
  0
ARC
  5
89
100
AcDbEntity
  8
A1
  6
CONTINUOUS
 62
7
100
AcDbCircle
 10
175.6355820000004
 20
118.0000000000000
 30
0.000000000000000
 40
3.366533000000000
100
AcDbArc
 50
201.8705191160073
 51
242.8621963241216
  0
LINE
  5
8A
100
AcDbEntity
  8
A1
  6
CONTINUOUS
 62
7
100
AcDbLine
 10
172.5079925773052
 20
117.9999999999999
 30
0.000000000000000
 11
172.5113449526968
 21
116.7459316955041
 31
0.000000000000000
  0
LINE
  5
8B
100
AcDbEntity
  8
A1
  6
CONTINUOUS
 62
7
100
AcDbLine
 10
172.5113449526968
 20
119.2540683044960
 30
0.000000000000000
 11
172.5079925773052
 21
118.0000000000000
 31
0.000000000000000
  0
LINE
  5
8C
100
AcDbEntity
  8
A1
  6
CONTINUOUS
 62
7
100
AcDbLine
 10
176.0000000000004
 20
120.4000000000000
 30
0.000000000000000
 11
175.4999980000004
 21
120.4000000000000
 31
0.000000000000000
  0
LINE
  5
8D
100
AcDbEntity
  8
A1
  6
CONTINUOUS
 62
7
100
AcDbLine
 10
192.5000020000004
 20
120.4000000000000
 30
0.000000000000000
 11
192.0000000000004
 21
120.4000000000000
 31
0.000000000000000
  0
LINE
  5
8E
100
AcDbEntity
  8
A1
  6
CONTINUOUS
 62
7
100
AcDbLine
 10
192.0000000000004
 20
115.6000000000000
 30
0.000000000000000
 11
192.5000020000004
 21
115.6000000000000
 31
0.000000000000000
  0
LINE
  5
8F
100
AcDbEntity
  8
A1
  6
CONTINUOUS
 62
7
100
AcDbLine
 10
175.4999980000004
 20
115.6000000000000
 30
0.000000000000000
 11
176.0000000000004
 21
115.6000000000000
 31
0.000000000000000
  0
LINE
  5
90
100
AcDbEntity
  8
A1
  6
CONTINUOUS
 62
7
100
AcDbLine
 10
193.9000020000004
 20
115.7433056565407
 30
0.000000000000000
 11
194.5949710000004
 21
115.3566400000001
 31
0.000000000000000
  0
LINE
  5
91
100
AcDbEntity
  8
A1
  6
CONTINUOUS
 62
7
100
AcDbLine
 10
172.5113449526968
 20
119.2540683044972
 30
0.000000000000000
 11
172.5113449526968
 21
116.7459316955028
 31
0.000000000000000
  0
ARC
  5
92
100
AcDbEntity
  8
A1
  6
CONTINUOUS
 62
7
100
AcDbCircle
 10
192.4000190000007
 20
140.3844999999999
 30
0.000000000000000
 40
1.800000000000000
100
AcDbArc
 50
334.1616679684519
 51
357.3092606895740
  0
ARC
  5
93
100
AcDbEntity
  8
A1
  6
CONTINUOUS
 62
7
100
AcDbCircle
 10
175.5999810000002
 20
140.3844999999999
 30
0.000000000000000
 40
1.800000000000000
100
AcDbArc
 50
182.6907393104261
 51
205.8383320315481
  0
ARC
  5
94
100
AcDbEntity
  8
A1
  6
CONTINUOUS
 62
7
100
AcDbCircle
 10
191.2746298462726
 20
140.3844999999999
 30
0.000000000000000
 40
1.800000000000000
100
AcDbArc
 50
334.1616679684519
 51
357.3092606895740
  0
ARC
  5
95
100
AcDbEntity
  8
A1
  6
CONTINUOUS
 62
7
100
AcDbCircle
 10
176.7253701537282
 20
140.3844999999999
 30
0.000000000000000
 40
1.800000000000000
100
AcDbArc
 50
182.6907393104261
 51
205.8383320315481
  0
ARC
  5
96
100
AcDbEntity
  8
A1
  6
CONTINUOUS
 62
7
100
AcDbCircle
 10
188.2000095000006
 20
140.3844999999999
 30
0.000000000000000
 40
1.800000000000000
100
AcDbArc
 50
182.6907393104261
 51
205.8383320315481
  0
ARC
  5
97
100
AcDbEntity
  8
A1
  6
CONTINUOUS
 62
7
100
AcDbCircle
 10
188.2000095000006
 20
140.3844999999999
 30
0.000000000000000
 40
1.800000000000000
100
AcDbArc
 50
334.1616679684519
 51
357.3092606895740
  0
ARC
  5
98
100
AcDbEntity
  8
A1
  6
CONTINUOUS
 62
7
100
AcDbCircle
 10
179.7999905000003
 20
140.3844999999999
 30
0.000000000000000
 40
1.800000000000000
100
AcDbArc
 50
182.6907393104261
 51
205.8383320315481
  0
ARC
  5
99
100
AcDbEntity
  8
A1
  6
CONTINUOUS
 62
7
100
AcDbCircle
 10
179.7999905000003
 20
140.3844999999999
 30
0.000000000000000
 40
1.800000000000000
100
AcDbArc
 50
334.1616679684519
 51
357.3092606895740
  0
ARC
  5
9A
100
AcDbEntity
  8
A1
  6
CONTINUOUS
 62
7
100
AcDbCircle
 10
184.0000000000004
 20
140.3844999999999
 30
0.000000000000000
 40
1.800000000000000
100
AcDbArc
 50
182.6907393104261
 51
205.8383320315481
  0
ARC
  5
9B
100
AcDbEntity
  8
A1
  6
CONTINUOUS
 62
7
100
AcDbCircle
 10
184.0000000000004
 20
140.3844999999999
 30
0.000000000000000
 40
1.800000000000000
100
AcDbArc
 50
334.1616679684519
 51
357.3092606895740
  0
ARC
  5
9C
100
AcDbEntity
  8
A1
  6
CONTINUOUS
 62
7
100
AcDbCircle
 10
195.9128045141465
 20
142.2999990000000
 30
0.000000000000000
 40
2.000000000000000
100
AcDbArc
 50
270.0000000000000
 51
328.6713181962052
  0
ARC
  5
9D
100
AcDbEntity
  8
A1
  6
CONTINUOUS
 62
7
100
AcDbCircle
 10
172.0871954858544
 20
142.2999990000000
 30
0.000000000000000
 40
2.000000000000000
100
AcDbArc
 50
211.3286818037949
 51
270.0000000000000
  0
ARC
  5
9E
100
AcDbEntity
  8
A1
  6
CONTINUOUS
 62
7
100
AcDbCircle
 10
169.2822142947963
 20
142.1000000000000
 30
0.000000000000000
 40
0.5000000000000000
100
AcDbArc
 50
31.32868180379440
 51
90.00000000000000
  0
ARC
  5
9F
100
AcDbEntity
  8
A1
  6
CONTINUOUS
 62
7
100
AcDbCircle
 10
198.7177857052045
 20
142.1000000000000
 30
0.000000000000000
 40
0.5000000000000000
100
AcDbArc
 50
90.00000000000000
 51
148.6713181962056
  0
LINE
  5
A0
100
AcDbEntity
  8
A1
  6
CONTINUOUS
 62
7
100
AcDbLine
 10
184.0000000000004
 20
140.2999990000000
 30
0.000000000000000
 11
172.0871954858544
 21
140.2999990000000
 31
0.000000000000000
  0
LINE
  5
A1
100
AcDbEntity
  8
A1
  6
CONTINUOUS
 62
7
100
AcDbLine
 10
195.9128045141465
 20
140.2999990000000
 30
0.000000000000000
 11
184.0000000000004
 21
140.2999990000000
 31
0.000000000000000
  0
LINE
  5
A2
100
AcDbEntity
  8
A1
  6
CONTINUOUS
 62
7
100
AcDbLine
 10
197.6212018261824
 20
141.2601054361058
 30
0.000000000000000
 11
198.2906863771956
 21
142.3599733909736
 31
0.000000000000000
  0
LINE
  5
A3
100
AcDbEntity
  8
A1
  6
CONTINUOUS
 62
7
100
AcDbLine
 10
169.7093136228054
 20
142.3599733909736
 30
0.000000000000000
 11
170.3787981738185
 21
141.2601054361058
 31
0.000000000000000
  0
LINE
  5
A4
100
AcDbEntity
  8
A1
  6
CONTINUOUS
 62
7
100
AcDbLine
 10
172.6363638791113
 20
142.6000000000001
 30
0.000000000000000
 11
195.3636363940085
 21
142.6000000000001
 31
0.000000000000000
  0
LINE
  5
A5
100
AcDbEntity
  8
A1
  6
CONTINUOUS
 62
7
100
AcDbLine
 10
172.6363638791113
 20
144.0000000000000
 30
0.000000000000000
 11
195.3636363940085
 21
144.0000000000000
 31
0.000000000000000
  0
LINE
  5
A6
100
AcDbEntity
  8
A1
  6
CONTINUOUS
 62
7
100
AcDbLine
 10
168.0000000000004
 20
142.6000000000001
 30
0.000000000000000
 11
172.6363638791112
 21
142.6000000000001
 31
0.000000000000000
  0
LINE
  5
A7
100
AcDbEntity
  8
A1
  6
CONTINUOUS
 62
7
100
AcDbLine
 10
168.0000000000004
 20
144.0000000000000
 30
0.000000000000000
 11
172.6363638791112
 21
144.0000000000000
 31
0.000000000000000
  0
LINE
  5
A8
100
AcDbEntity
  8
A1
  6
CONTINUOUS
 62
7
100
AcDbLine
 10
168.0000000000004
 20
142.6000000000001
 30
0.000000000000000
 11
168.0000000000004
 21
144.0000000000000
 31
0.000000000000000
  0
LINE
  5
A9
100
AcDbEntity
  8
A1
  6
CONTINUOUS
 62
7
100
AcDbLine
 10
195.3636363940085
 20
142.6000000000001
 30
0.000000000000000
 11
200.0000000000004
 21
142.6000000000001
 31
0.000000000000000
  0
LINE
  5
AA
100
AcDbEntity
  8
A1
  6
CONTINUOUS
 62
7
100
AcDbLine
 10
195.3636363940085
 20
144.0000000000000
 30
0.000000000000000
 11
200.0000000000004
 21
144.0000000000000
 31
0.000000000000000
  0
LINE
  5
AB
100
AcDbEntity
  8
A1
  6
CONTINUOUS
 62
7
100
AcDbLine
 10
200.0000000000004
 20
142.6000000000000
 30
0.000000000000000
 11
200.0000000000004
 21
144.0000000000000
 31
0.000000000000000
  0
ARC
  5
AC
100
AcDbEntity
  8
A1
  6
CONTINUOUS
 62
7
100
AcDbCircle
 10
177.0000000000004
 20
123.3376960000000
 30
0.000000000000000
 40
1.000000000000000
100
AcDbArc
 50
90.00000000001150
 51
180.0000000000000
  0
ARC
  5
AD
100
AcDbEntity
  8
A1
  6
CONTINUOUS
 62
7
100
AcDbCircle
 10
177.0000000000004
 20
112.6623040000000
 30
0.000000000000000
 40
1.000000000000000
100
AcDbArc
 50
180.0000000000000
 51
269.9999999999885
  0
ARC
  5
AE
100
AcDbEntity
  8
A1
  6
CONTINUOUS
 62
7
100
AcDbCircle
 10
191.0000000000004
 20
123.3376960000000
 30
0.000000000000000
 40
1.000000000000000
100
AcDbArc
 50
0.000000000000000
 51
90.00000000000000
  0
ARC
  5
AF
100
AcDbEntity
  8
A1
  6
CONTINUOUS
 62
7
100
AcDbCircle
 10
191.0000000000004
 20
112.6623040000000
 30
0.000000000000000
 40
1.000000000000000
100
AcDbArc
 50
270.0000000000000
 51
360.0000000000000
  0
ARC
  5
B0
100
AcDbEntity
  8
A1
  6
CONTINUOUS
 62
7
100
AcDbCircle
 10
178.0000034188694
 20
132.4138098412015
 30
0.000000000000000
 40
1.000003418870630
100
AcDbArc
 50
101.1599316780567
 51
180.0000000000000
  0
ARC
  5
B1
100
AcDbEntity
  8
A1
  6
CONTINUOUS
 62
7
100
AcDbCircle
 10
178.0000034188694
 20
103.5861901587985
 30
0.000000000000000
 40
1.000003418870630
100
AcDbArc
 50
180.0000000000000
 51
258.8400683219434
  0
ARC
  5
B2
100
AcDbEntity
  8
A1
  6
CONTINUOUS
 62
7
100
AcDbCircle
 10
189.9999965811315
 20
132.4138098412015
 30
0.000000000000000
 40
1.000003418870630
100
AcDbArc
 50
6.639403633070002e-05
 51
78.84006832194257
  0
ARC
  5
B3
100
AcDbEntity
  8
A1
  6
CONTINUOUS
 62
7
100
AcDbCircle
 10
189.9999965811315
 20
103.5861901587985
 30
0.000000000000000
 40
1.000003418870630
100
AcDbArc
 50
281.1599316780574
 51
359.9999336059632
  0
ARC
  5
B4
100
AcDbEntity
  8
A1
  6
CONTINUOUS
 62
7
100
AcDbCircle
 10
184.0000000000004
 20
134.0000000000000
 30
0.000000000000000
 40
32.00000000000000
100
AcDbArc
 50
258.8400683219430
 51
281.1599316780579
  0
ARC
  5
B5
100
AcDbEntity
  8
A1
  6
CONTINUOUS
 62
7
100
AcDbCircle
 10
184.0000000000004
 20
102.0000000000000
 30
0.000000000000000
 40
32.00000000000000
100
AcDbArc
 50
78.84006832194204
 51
101.1599316780570
  0
LINE
  5
B6
100
AcDbEntity
  8
A1
  6
CONTINUOUS
 62
7
100
AcDbLine
 10
176.0000000000004
 20
112.6623040000000
 30
0.000000000000000
 11
176.0000000000004
 21
123.3376960000000
 31
0.000000000000000
  0
LINE
  5
B7
100
AcDbEntity
  8
A1
  6
CONTINUOUS
 62
7
100
AcDbLine
 10
192.0000000000004
 20
112.6623040000000
 30
0.000000000000000
 11
192.0000000000004
 21
123.3376960000000
 31
0.000000000000000
  0
LINE
  5
B8
100
AcDbEntity
  8
A1
  6
CONTINUOUS
 62
7
100
AcDbLine
 10
176.9999999999987
 20
103.5861901587985
 30
0.000000000000000
 11
176.9999999999987
 21
132.4138098411281
 31
0.000000000000000
  0
LINE
  5
B9
100
AcDbEntity
  8
A1
  6
CONTINUOUS
 62
7
100
AcDbLine
 10
191.0000000000006
 20
103.5861890000000
 30
0.000000000000000
 11
191.0000000000006
 21
132.4138109999267
 31
0.000000000000000
  0
SPLINE
  5
BA
100
AcDbEntity
  8
A1
  6
CONTINUOUS
 62
7
100
AcDbSpline
210
0.000000000000000
220
0.000000000000000
230
1.000000000000000
 70
     8
 71
     3
 72
    17
 73
    13
 74
     0
 42
1.000000000000000e-07
 43
1.000000000000000e-07
 12
-0.05267687783180008
 22
-0.9986116094571571
 32
0.000000000000000
 13
-0.9499420722604555
 23
-0.3124260862200572
 33
0.000000000000000
 40
0.000000000000000
 40
0.000000000000000
 40
0.000000000000000
 40
0.000000000000000
 40
0.2578823115560095
 40
0.6705940857705536
 40
1.088709506126576
 40
1.459335418276741
 40
1.841446025012993
 40
2.233244860275595
 40
2.592134834004287
 40
2.961725594472859
 40
3.338368546585089
 40
3.434868001808750
 40
3.434868001808750
 40
3.434868001808750
 40
3.434868001808750
 10
195.8462718747474
 20
123.5114154701864
 30
0.000000000000000
 10
195.8417437297405
 20
123.4255740467886
 30
0.000000000000000
 10
195.8190277021919
 20
123.2028216903702
 30
0.000000000000000
 10
195.7358302834759
 20
122.8479651790180
 30
0.000000000000000
 10
195.5826254855004
 20
122.4759667526051
 30
0.000000000000000
 10
195.3793542001299
 20
122.1413151727929
 30
0.000000000000000
 10
195.1383056080701
 20
121.8441508233748
 30
0.000000000000000
 10
194.8627202368351
 20
121.5843068427162
 30
0.000000000000000
 10
194.5598559653039
 20
121.3644128047476
 30
0.000000000000000
 10
194.2386184810926
 20
121.1826139241955
 30
0.000000000000000
 10
193.9795999087322
 20
121.0721545794434
 30
0.000000000000000
 10
193.8304972606568
 20
121.0207186656947
 30
0.000000000000000
 10
193.7999409631678
 20
121.0106690166554
 30
0.000000000000000
  0
SPLINE
  5
BB
100
AcDbEntity
  8
A1
  6
CONTINUOUS
 62
7
100
AcDbSpline
210
0.000000000000000
220
0.000000000000000
230
1.000000000000000
 70
     8
 71
     3
 72
    14
 73
    10
 74
     0
 42
1.000000000000000e-07
 43
1.000000000000000e-07
 12
-0.006255209521668803
 22
0.9999804359856626
 32
0.000000000000000
 13
-0.9502199795456363
 23
0.3115798300143524
 33
0.000000000000000
 40
0.000000000000000
 40
0.000000000000000
 40
0.000000000000000
 40
0.000000000000000
 40
0.3088675186128958
 40
0.6226101737014595
 40
0.9457433540415475
 40
1.280937451678947
 40
1.622946159816536
 40
1.978345112719555
 40
2.214835207483516
 40
2.214835207483516
 40
2.214835207483516
 40
2.214835207483516
 10
175.4999980000004
 20
119.3911506617049
 30
0.000000000000000
 10
175.4993539896526
 20
119.4941044870130
 30
0.000000000000000
 10
175.4775645296093
 20
119.7022148068850
 30
0.000000000000000
 10
175.3790763449433
 20
120.0040159976930
 30
0.000000000000000
 10
175.2178011142804
 20
120.2874027171735
 30
0.000000000000000
 10
175.0004374803365
 20
120.5428215128789
 30
0.000000000000000
 10
174.7318390038708
 20
120.7608720227126
 30
0.000000000000000
 10
174.4591381486827
 20
120.9141638979776
 30
0.000000000000000
 10
174.2749649078362
 20
120.9861071688132
 30
0.000000000000000
 10
174.2000590368331
 20
121.0106690166554
 30
0.000000000000000
  0
SPLINE
  5
BC
100
AcDbEntity
  8
A1
  6
CONTINUOUS
 62
7
100
AcDbSpline
210
0.000000000000000
220
0.000000000000000
230
1.000000000000000
 70
     8
 71
     3
 72
    18
 73
    14
 74
     0
 42
1.000000000000000e-07
 43
1.000000000000000e-07
 12
-0.9499527339330598
 22
0.3123936671789806
 32
0.000000000000000
 13
-0.05103458191615573
 23
0.9986968866710413
 33
0.000000000000000
 40
0.000000000000000
 40
0.000000000000000
 40
0.000000000000000
 40
0.000000000000000
 40
0.3998164883877343
 40
0.7903132458091853
 40
1.102881060655901
 40
1.409168712604380
 40
1.707686570359435
 40
2.025036269341017
 40
2.336329151927841
 40
2.641051907313446
 40
2.958300945052769
 40
3.273082750176963
 40
3.436170613791042
 40
3.436170613791042
 40
3.436170613791042
 40
3.436170613791042
 10
174.2000590368331
 20
121.0106690166554
 30
0.000000000000000
 10
174.0734567814279
 20
121.0523023963241
 30
0.000000000000000
 10
173.8279040434509
 20
121.1496718567189
 30
0.000000000000000
 10
173.5035504739857
 20
121.3245531814220
 30
0.000000000000000
 10
173.2266736583315
 20
121.5166936587031
 30
0.000000000000000
 10
172.9937515755257
 20
121.7156186352392
 30
0.000000000000000
 10
172.7811129422383
 20
121.9383512598242
 30
0.000000000000000
 10
172.5934353632365
 20
122.1847775207868
 30
0.000000000000000
 10
172.4341897141760
 20
122.4528472665497
 30
0.000000000000000
 10
172.3070523313497
 20
122.7375645923779
 30
0.000000000000000
 10
172.2155114261308
 20
123.0369466343907
 30
0.000000000000000
 10
172.1695822923280
 20
123.2986804812520
 30
0.000000000000000
 10
172.1564822745405
 20
123.4575294149725
 30
0.000000000000000
 10
172.1537079008955
 20
123.5118211955209
 30
0.000000000000000
  0
SPLINE
  5
BD
100
AcDbEntity
  8
A1
  6
CONTINUOUS
 62
7
100
AcDbSpline
210
0.000000000000000
220
0.000000000000000
230
1.000000000000000
 70
     8
 71
     3
 72
    17
 73
    13
 74
     0
 42
1.000000000000000e-07
 43
1.000000000000000e-07
 12
0.05577430580933651
 22
-0.9984434019072523
 32
0.000000000000000
 13
0.9465576161328499
 23
-0.3225347722998322
 33
0.000000000000000
 40
0.000000000000000
 40
0.000000000000000
 40
0.000000000000000
 40
0.000000000000000
 40
0.3386734871704604
 40
0.6815913105506999
 40
1.028796126571341
 40
1.384499171974611
 40
1.750485742048920
 40
2.125239188068562
 40
2.488667616613822
 40
2.862892922648508
 40
3.244519910960445
 40
3.430894380929063
 40
3.430894380929063
 40
3.430894380929063
 40
3.430894380929063
 10
170.7828932268278
 20
122.2863764416223
 30
0.000000000000000
 10
170.7891896530421
 20
122.1736610054002
 30
0.000000000000000
 10
170.8169924475731
 20
121.9473383029993
 30
0.000000000000000
 10
170.9054779771566
 20
121.6149694349142
 30
0.000000000000000
 10
171.0399631179419
 20
121.2921615919556
 30
0.000000000000000
 10
171.2214395893757
 20
120.9842900743095
 30
0.000000000000000
 10
171.4467771733896
 20
120.6953066766158
 30
0.000000000000000
 10
171.7085298297067
 20
120.4351326117277
 30
0.000000000000000
 10
172.0023546127748
 20
120.2075836522779
 30
0.000000000000000
 10
172.3216327871885
 20
120.0131263201477
 30
0.000000000000000
 10
172.6068479766249
 20
119.8799713600399
 30
0.000000000000000
 10
172.7844395999222
 20
119.8140937411353
 30
0.000000000000000
 10
172.8432443245894
 20
119.7940563253907
 30
0.000000000000000
  0
SPLINE
  5
BE
100
AcDbEntity
  8
A1
  6
CONTINUOUS
 62
7
100
AcDbSpline
210
0.000000000000000
220
0.000000000000000
230
1.000000000000000
 70
     8
 71
     3
 72
    14
 73
    10
 74
     0
 42
1.000000000000000e-07
 43
1.000000000000000e-07
 12
0.9466764961562149
 22
-0.3221856788022706
 32
0.000000000000000
 13
0.004954135398065773
 23
-0.9999877281957197
 33
0.000000000000000
 40
0.000000000000000
 40
0.000000000000000
 40
0.000000000000000
 40
0.000000000000000
 40
0.3273362170553360
 40
0.6444539215880580
 40
0.9493775617502038
 40
1.243386820672940
 40
1.540732194915367
 40
1.830086989789953
 40
2.138774334019872
 40
2.138774334019872
 40
2.138774334019872
 40
2.138774334019872
 10
172.8432443245894
 20
119.7940563253907
 30
0.000000000000000
 10
172.9465381589317
 20
119.7589019782945
 30
0.000000000000000
 10
173.1448652479841
 20
119.6739051301098
 30
0.000000000000000
 10
173.4150670951804
 20
119.5068416842369
 30
0.000000000000000
 10
173.6465447557854
 20
119.3056345307864
 30
0.000000000000000
 10
173.8382259053895
 20
119.0746166640874
 30
0.000000000000000
 10
173.9826481461716
 20
118.8170366046417
 30
0.000000000000000
 10
174.0779236983927
 20
118.5322386131432
 30
0.000000000000000
 10
174.0994882403675
 20
118.3321641492919
 30
0.000000000000000
 10
174.0999980000004
 20
118.2292696305988
 30
0.000000000000000
  0
SPLINE
  5
BF
100
AcDbEntity
  8
A1
  6
CONTINUOUS
 62
7
100
AcDbSpline
210
0.000000000000000
220
0.000000000000000
230
1.000000000000000
 70
     8
 71
     3
 72
    15
 73
    11
 74
     0
 42
1.000000000000000e-07
 43
1.000000000000000e-07
 12
-0.9498926809928889
 22
-0.3125762220579418
 32
0.000000000000000
 13
-0.001499918194895145
 23
-0.9999988751226283
 33
0.000000000000000
 40
0.000000000000000
 40
0.000000000000000
 40
0.000000000000000
 40
0.000000000000000
 40
0.3285710174926486
 40
0.6470002105733350
 40
0.9529941427215021
 40
1.248289739254392
 40
1.553492905862311
 40
1.850308418424757
 40
2.033459869522155
 40
2.215578489532844
 40
2.215578489532844
 40
2.215578489532844
 40
2.215578489532844
 10
193.7999409631678
 20
121.0106690166554
 30
0.000000000000000
 10
193.6959052282669
 20
120.9764345208802
 30
0.000000000000000
 10
193.4959264726874
 20
120.8931136945472
 30
0.000000000000000
 10
193.2232441926745
 20
120.7277950747564
 30
0.000000000000000
 10
192.9886364052298
 20
120.5284313670637
 30
0.000000000000000
 10
192.7912567404317
 20
120.2978752695397
 30
0.000000000000000
 10
192.6385472374904
 20
120.0387662446809
 30
0.000000000000000
 10
192.5488328907381
 20
119.7910892381337
 30
0.000000000000000
 10
192.5077010685270
 20
119.5737487997950
 30
0.000000000000000
 10
192.5000930543443
 20
119.4518568000881
 30
0.000000000000000
 10
192.5000020000004
 20
119.3911506617049
 30
0.000000000000000
  0
SPLINE
  5
C0
100
AcDbEntity
  8
A1
  6
CONTINUOUS
 62
7
100
AcDbSpline
210
0.000000000000000
220
0.000000000000000
230
1.000000000000000
 70
     8
 71
     3
 72
    14
 73
    10
 74
     0
 42
1.000000000000000e-07
 43
1.000000000000000e-07
 12
0.006145310242573032
 22
0.9999811174029674
 32
0.000000000000000
 13
0.9469153415766414
 23
0.3214830258150414
 33
0.000000000000000
 40
0.000000000000000
 40
0.000000000000000
 40
0.000000000000000
 40
0.000000000000000
 40
0.2960135154164047
 40
0.5966920388360728
 40
0.9063038448658842
 40
1.227410161641830
 40
1.556824476730948
 40
1.898903055292712
 40
2.138648372895030
 40
2.138648372895030
 40
2.138648372895030
 40
2.138648372895030
 10
193.9000020000004
 20
118.2292696305988
 30
0.000000000000000
 10
193.9006083649631
 20
118.3279389392363
 30
0.000000000000000
 10
193.9214713817541
 20
118.5273859197908
 30
0.000000000000000
 10
194.0157973885237
 20
118.8166239965680
 30
0.000000000000000
 10
194.1703423281262
 20
119.0881381571701
 30
0.000000000000000
 10
194.3786476168576
 20
119.3335041462542
 30
0.000000000000000
 10
194.6360355186934
 20
119.5440212451482
 30
0.000000000000000
 10
194.9008355148028
 20
119.6956120889002
 30
0.000000000000000
 10
195.0810828356423
 20
119.7683649753482
 30
0.000000000000000
 10
195.1567556754119
 20
119.7940563253908
 30
0.000000000000000
  0
SPLINE
  5
C1
100
AcDbEntity
  8
A1
  6
CONTINUOUS
 62
7
100
AcDbSpline
210
0.000000000000000
220
0.000000000000000
230
1.000000000000000
 70
     8
 71
     3
 72
    17
 73
    13
 74
     0
 42
1.000000000000000e-07
 43
1.000000000000000e-07
 12
0.9465319608173104
 22
0.3226100543249686
 32
0.000000000000000
 13
0.05528125882938184
 23
0.9984708220192715
 33
0.000000000000000
 40
0.000000000000000
 40
0.000000000000000
 40
0.000000000000000
 40
0.000000000000000
 40
0.3953858349934505
 40
0.7819357897235790
 40
1.108257117872864
 40
1.427959592038337
 40
1.739402679263029
 40
2.066280530796390
 40
2.386841556045724
 40
2.700481985110017
 40
3.067726221710280
 40
3.431119058699279
 40
3.431119058699279
 40
3.431119058699279
 40
3.431119058699279
 10
195.1567556754119
 20
119.7940563253908
 30
0.000000000000000
 10
195.2815041186371
 20
119.8365748072930
 30
0.000000000000000
 10
195.5236264337347
 20
119.9347926326396
 30
0.000000000000000
 10
195.8491403926290
 20
120.1111142208867
 30
0.000000000000000
 10
196.1325572605562
 20
120.3074530586411
 30
0.000000000000000
 10
196.3756276742892
 20
120.5151275343643
 30
0.000000000000000
 10
196.5961286422974
 20
120.7469484570834
 30
0.000000000000000
 10
196.7892530114815
 20
121.0025692040672
 30
0.000000000000000
 10
196.9515458598303
 20
121.2796412900334
 30
0.000000000000000
 10
197.0849247318868
 20
121.5865427828737
 30
0.000000000000000
 10
197.1795014751265
 20
121.9228468466614
 30
0.000000000000000
 10
197.2104105020136
 20
122.1654307267342
 30
0.000000000000000
 10
197.2171067731730
 20
122.2863764416223
 30
0.000000000000000
  0
SPLINE
  5
C2
100
AcDbEntity
  8
A1
  6
CONTINUOUS
 62
7
100
AcDbSpline
210
0.000000000000000
220
0.000000000000000
230
1.000000000000000
 70
     8
 71
     3
 72
    20
 73
    16
 74
     0
 42
1.000000000000000e-07
 43
1.000000000000000e-07
 12
0.9999833168837995
 22
0.005776327033174766
 32
0.000000000000000
 13
0.5114158278508967
 23
-0.8593333759516781
 33
0.000000000000000
 40
0.000000000000000
 40
0.000000000000000
 40
0.000000000000000
 40
0.000000000000000
 40
0.8364635925805840
 40
1.648243979151455
 40
2.189519503246318
 40
2.716895467290644
 40
3.228829714578514
 40
3.636134446080314
 40
4.034845780797549
 40
4.434926662023633
 40
4.830616870991852
 40
5.202430580947810
 40
5.577430749246161
 40
5.973436144596558
 40
6.381160458020475
 40
6.381160458020475
 40
6.381160458020475
 40
6.381160458020475
 10
187.5682726265444
 20
135.0999999999998
 30
0.000000000000000
 10
187.8470891724648
 20
135.1016105624205
 30
0.000000000000000
 10
188.3965383191687
 20
135.0949441925471
 30
0.000000000000000
 10
189.1260247032204
 20
135.0669181283372
 30
0.000000000000000
 10
189.7508833024629
 20
135.0152442913260
 30
0.000000000000000
 10
190.2735949520977
 20
134.9473788307403
 30
0.000000000000000
 10
190.7475355385774
 20
134.8563581952334
 30
0.000000000000000
 10
191.1724589179633
 20
134.7435174464984
 30
0.000000000000000
 10
191.5526717785229
 20
134.6115213476886
 30
0.000000000000000
 10
191.9163226632603
 20
134.4479108748862
 30
0.000000000000000
 10
192.2539139469801
 20
134.2527088031602
 30
0.000000000000000
 10
192.5612352967651
 20
134.0265230110624
 30
0.000000000000000
 10
192.8416733157736
 20
133.7674564505950
 30
0.000000000000000
 10
193.0974214586051
 20
133.4680624103964
 30
0.000000000000000
 10
193.2479128942084
 20
133.2455943702373
 30
0.000000000000000
 10
193.3174184499699
 20
133.1288039999999
 30
0.000000000000000
  0
SPLINE
  5
C3
100
AcDbEntity
  8
A1
  6
CONTINUOUS
 62
7
100
AcDbSpline
210
0.000000000000000
220
0.000000000000000
230
1.000000000000000
 70
     8
 71
     3
 72
    20
 73
    16
 74
     0
 42
1.000000000000000e-07
 43
1.000000000000000e-07
 12
0.5116493003411051
 22
0.8591943863066263
 32
0.000000000000000
 13
0.9999825275120884
 23
-0.005911401745208877
 33
0.000000000000000
 40
0.000000000000000
 40
0.000000000000000
 40
0.000000000000000
 40
0.000000000000000
 40
0.3685595612500553
 40
0.7272638312749325
 40
1.090531798551881
 40
1.449954694344324
 40
1.874599246617672
 40
2.303604229928272
 40
2.753088669137348
 40
3.213538014993016
 40
3.701079913345300
 40
4.202517569125777
 40
4.716506620490233
 40
5.536213931301242
 40
6.381161545234390
 40
6.381161545234390
 40
6.381161545234390
 40
6.381161545234390
 10
174.6825815500310
 20
133.1288039999999
 30
0.000000000000000
 10
174.7454392972468
 20
133.2343587686818
 30
0.000000000000000
 10
174.8804414567215
 20
133.4363105718280
 30
0.000000000000000
 10
175.1122656534317
 20
133.7171147291288
 30
0.000000000000000
 10
175.3713614625158
 20
133.9688106024319
 30
0.000000000000000
 10
175.6734401625282
 20
134.2045132980434
 30
0.000000000000000
 10
176.0194776217370
 20
134.4155992017714
 30
0.000000000000000
 10
176.4138476714822
 20
134.5995361544989
 30
0.000000000000000
 10
176.8356379065625
 20
134.7473875945448
 30
0.000000000000000
 10
177.2870184980122
 20
134.8642586178527
 30
0.000000000000000
 10
177.7623715716376
 20
134.9524777370403
 30
0.000000000000000
 10
178.2595338717128
 20
135.0159116461116
 30
0.000000000000000
 10
178.8693044193672
 20
135.0665643244539
 30
0.000000000000000
 10
179.5951635502890
 20
135.0948351948476
 30
0.000000000000000
 10
180.1500830899245
 20
135.1016649415997
 30
0.000000000000000
 10
180.4317273734565
 20
135.0999999999998
 30
0.000000000000000
  0
SPLINE
  5
C4
100
AcDbEntity
  8
A1
  6
CONTINUOUS
 62
7
100
AcDbSpline
210
0.000000000000000
220
0.000000000000000
230
1.000000000000000
 70
     8
 71
     3
 72
    19
 73
    15
 74
     0
 42
1.000000000000000e-07
 43
1.000000000000000e-07
 12
0.4477260724952430
 22
0.8941707689298255
 32
0.000000000000000
 13
0.9999824461162916
 23
-0.005925154826059043
 33
0.000000000000000
 40
0.000000000000000
 40
0.000000000000000
 40
0.000000000000000
 40
0.000000000000000
 40
0.3582774818952359
 40
0.7036503906539677
 40
1.049102155952665
 40
1.386510402654372
 40
1.708337930747562
 40
2.029085244482581
 40
2.358335750691465
 40
2.691807324352393
 40
3.198014741315791
 40
3.721163595509592
 40
4.276533605889659
 40
4.851342018848847
 40
4.851342018848847
 40
4.851342018848847
 40
4.851342018848847
 10
172.9567085263577
 20
133.1288039999999
 30
0.000000000000000
 10
173.0101785829684
 20
133.2355910838254
 30
0.000000000000000
 10
173.1255851587203
 20
133.4402582664271
 30
0.000000000000000
 10
173.3250358925818
 20
133.7281450140533
 30
0.000000000000000
 10
173.5494107670573
 20
133.9881591019583
 30
0.000000000000000
 10
173.7950256601222
 20
134.2168179184512
 30
0.000000000000000
 10
174.0574439255412
 20
134.4123681017551
 30
0.000000000000000
 10
174.3360983423448
 20
134.5786153720935
 30
0.000000000000000
 10
174.6331514876192
 20
134.7184388238137
 30
0.000000000000000
 10
174.9994915809493
 20
134.8524673368491
 30
0.000000000000000
 10
175.4404048900608
 20
134.9656388675589
 30
0.000000000000000
 10
175.9628180822059
 20
135.0480003551237
 30
0.000000000000000
 10
176.5125757876914
 20
135.0914481207399
 30
0.000000000000000
 10
176.8893999421049
 20
135.1011352762805
 30
0.000000000000000
 10
177.0809993830513
 20
135.0999999999998
 30
0.000000000000000
  0
SPLINE
  5
C5
100
AcDbEntity
  8
A1
  6
CONTINUOUS
 62
7
100
AcDbSpline
210
0.000000000000000
220
0.000000000000000
230
1.000000000000000
 70
     8
 71
     3
 72
    19
 73
    15
 74
     0
 42
1.000000000000000e-07
 43
1.000000000000000e-07
 12
0.9999880094644595
 22
0.004897032526855583
 32
0.000000000000000
 13
0.4476934503802568
 23
-0.8941871026174795
 33
0.000000000000000
 40
0.000000000000000
 40
0.000000000000000
 40
0.000000000000000
 40
0.000000000000000
 40
0.5264769125356721
 40
1.036733870211291
 40
1.540034836032714
 40
2.027411550338044
 40
2.395678210986795
 40
2.758137722578064
 40
3.126573304862556
 40
3.496231421652859
 40
3.816031876245752
 40
4.143171030298529
 40
4.490713845286857
 40
4.851318335073269
 40
4.851318335073269
 40
4.851318335073269
 40
4.851318335073269
 10
190.9190006169496
 20
135.0999999999998
 30
0.000000000000000
 10
191.0944908168814
 20
135.1008593915216
 30
0.000000000000000
 10
191.4401421010631
 20
135.0928466182508
 30
0.000000000000000
 10
191.9524500121219
 20
135.0563761084172
 30
0.000000000000000
 10
192.4483399761732
 20
134.9863654638747
 30
0.000000000000000
 10
192.8904773341830
 20
134.8844739500550
 30
0.000000000000000
 10
193.2761363272622
 20
134.7558081033426
 30
0.000000000000000
 10
193.6117304215249
 20
134.6072283245391
 30
0.000000000000000
 10
193.9298215800746
 20
134.4229003278772
 30
0.000000000000000
 10
194.2128086988773
 20
134.2110169040096
 30
0.000000000000000
 10
194.4595514471671
 20
133.9778782906895
 30
0.000000000000000
 10
194.6761618221819
 20
133.7261459644843
 30
0.000000000000000
 10
194.8732673955973
 20
133.4422295206230
 30
0.000000000000000
 10
194.9894780508915
 20
133.2362866279709
 30
0.000000000000000
 10
195.0432914736432
 20
133.1288039999999
 30
0.000000000000000
  0
ELLIPSE
  5
C6
100
AcDbEntity
  8
A1
  6
CONTINUOUS
 62
7
100
AcDbEllipse
 10
184.0000000000004
 20
123.5119110735813
 30
0.000000000000000
 11
0.000000000000000
 21
15.56458207921545
 31
0.000000000000000
210
0.000000000000000
220
0.000000000000000
230
1.000000000000000
 40
0.7613439242820521
 41
4.721989611970576
 42
5.378420208704960
  0
ELLIPSE
  5
C7
100
AcDbEntity
  8
A1
  6
CONTINUOUS
 62
7
100
AcDbEllipse
 10
184.0000000000004
 20
123.5119110735813
 30
0.000000000000000
 11
0.000000000000000
 21
15.56458207921545
 31
0.000000000000000
210
0.000000000000000
220
0.000000000000000
230
1.000000000000000
 40
0.7613439242820521
 41
0.9047650984746262
 42
1.561195695209010
  0
ELLIPSE
  5
C8
100
AcDbEntity
  8
A1
  6
CONTINUOUS
 62
7
100
AcDbEllipse
 10
184.0000000000004
 20
123.5119110735813
 30
0.000000000000000
 11
0.000000000000000
 21
17.40343565819447
 31
0.000000000000000
210
0.000000000000000
220
0.000000000000000
230
1.000000000000000
 40
0.7613439242820532
 41
0.9853326609320775
 42
1.570796326794897
  0
ELLIPSE
  5
C9
100
AcDbEntity
  8
A1
  6
CONTINUOUS
 62
7
100
AcDbEllipse
 10
184.0000000000004
 20
123.5119110735813
 30
0.000000000000000
 11
0.000000000000000
 21
17.40343565819447
 31
0.000000000000000
210
0.000000000000000
220
0.000000000000000
230
1.000000000000000
 40
0.7613439242820532
 41
4.641911530000421
 42
4.712388980384690
  0
ELLIPSE
  5
CA
100
AcDbEntity
  8
A1
  6
CONTINUOUS
 62
7
100
AcDbEllipse
 10
184.0000000000004
 20
123.5119110735813
 30
0.000000000000000
 11
0.000000000000000
 21
17.40343565819447
 31
0.000000000000000
210
0.000000000000000
220
0.000000000000000
230
1.000000000000000
 40
0.7613439242820532
 41
1.570796326794897
 42
1.641273777179166
  0
ELLIPSE
  5
CB
100
AcDbEntity
  8
A1
  6
CONTINUOUS
 62
7
100
AcDbEllipse
 10
184.0000000000004
 20
123.5119110735813
 30
0.000000000000000
 11
0.000000000000000
 21
17.40343565819447
 31
0.000000000000000
210
0.000000000000000
220
0.000000000000000
230
1.000000000000000
 40
0.7613439242820532
 41
4.712388980384690
 42
5.297852646247509
  0
ARC
  5
CC
100
AcDbEntity
  8
A1
  6
CONTINUOUS
 62
7
100
AcDbCircle
 10
195.7500000000004
 20
138.0999999999999
 30
0.000000000000000
 40
1.500000000000000
100
AcDbArc
 50
0.000000000000000
 51
90.00000000000000
  0
ARC
  5
CD
100
AcDbEntity
  8
A1
  6
CONTINUOUS
 62
7
100
AcDbCircle
 10
172.2500000000004
 20
138.0999999999999
 30
0.000000000000000
 40
1.500000000000000
100
AcDbArc
 50
90.00000000000000
 51
180.0000000000000
  0
LINE
  5
CE
100
AcDbEntity
  8
A1
  6
CONTINUOUS
 62
7
100
AcDbLine
 10
192.5000020000004
 20
125.8015431782834
 30
0.000000000000000
 11
192.5000020000004
 21
134.0631185458430
 31
0.000000000000000
  0
LINE
  5
CF
100
AcDbEntity
  8
A1
  6
CONTINUOUS
 62
7
100
AcDbLine
 10
175.4999980000004
 20
134.0610754073493
 30
0.000000000000000
 11
175.4999980000004
 21
125.8015431782834
 31
0.000000000000000
  0
LINE
  5
D0
100
AcDbEntity
  8
A1
  6
CONTINUOUS
 62
7
100
AcDbLine
 10
174.0999980000005
 20
113.3000031260467
 30
0.000000000000000
 11
175.4999980000004
 21
113.3000031260467
 31
0.000000000000000
  0
LINE
  5
D1
100
AcDbEntity
  8
A1
  6
CONTINUOUS
 62
7
100
AcDbLine
 10
175.4999980000004
 20
113.3000031260467
 30
0.000000000000000
 11
175.4999980000004
 21
115.4683149999999
 31
0.000000000000000
  0
LINE
  5
D2
100
AcDbEntity
  8
A1
  6
CONTINUOUS
 62
7
100
AcDbLine
 10
174.0999980000004
 20
113.3000031260467
 30
0.000000000000000
 11
174.0999980000004
 21
115.4683149999999
 31
0.000000000000000
  0
LINE
  5
D3
100
AcDbEntity
  8
A1
  6
CONTINUOUS
 62
7
100
AcDbLine
 10
192.5000020000004
 20
115.4683149999999
 30
0.000000000000000
 11
192.5000020000004
 21
113.3000031260467
 31
0.000000000000000
  0
LINE
  5
D4
100
AcDbEntity
  8
A1
  6
CONTINUOUS
 62
7
100
AcDbLine
 10
193.9000020000004
 20
115.4683149999999
 30
0.000000000000000
 11
193.9000020000004
 21
113.3000031260467
 31
0.000000000000000
  0
LINE
  5
D5
100
AcDbEntity
  8
A1
  6
CONTINUOUS
 62
7
100
AcDbLine
 10
192.5000020000004
 20
113.3000031260467
 30
0.000000000000000
 11
193.9000020000004
 21
113.3000031260467
 31
0.000000000000000
  0
LINE
  5
D6
100
AcDbEntity
  8
A1
  6
CONTINUOUS
 62
7
100
AcDbLine
 10
192.5000020000004
 20
119.3911506617049
 30
0.000000000000000
 11
192.5000020000004
 21
125.8015431782834
 31
0.000000000000000
  0
LINE
  5
D7
100
AcDbEntity
  8
A1
  6
CONTINUOUS
 62
7
100
AcDbLine
 10
175.4999980000004
 20
119.3911506617049
 30
0.000000000000000
 11
175.4999980000004
 21
125.8015431782834
 31
0.000000000000000
  0
LINE
  5
D8
100
AcDbEntity
  8
A1
  6
CONTINUOUS
 62
7
100
AcDbLine
 10
172.1537079008955
 20
123.5118211955209
 30
0.000000000000000
 11
172.1505461156573
 21
123.6613385963786
 31
0.000000000000000
  0
LINE
  5
D9
100
AcDbEntity
  8
A1
  6
CONTINUOUS
 62
7
100
AcDbLine
 10
175.4999980000004
 20
115.4683149999999
 30
0.000000000000000
 11
175.4999980000004
 21
119.3911506617049
 31
0.000000000000000
  0
LINE
  5
DA
100
AcDbEntity
  8
A1
  6
CONTINUOUS
 62
7
100
AcDbLine
 10
174.0999980000004
 20
115.4683149999999
 30
0.000000000000000
 11
174.0999980000004
 21
118.2292696305988
 31
0.000000000000000
  0
LINE
  5
DB
100
AcDbEntity
  8
A1
  6
CONTINUOUS
 62
7
100
AcDbLine
 10
195.8494538843436
 20
123.6613385963786
 30
0.000000000000000
 11
195.8462718747473
 21
123.5114154701863
 31
0.000000000000000
  0
LINE
  5
DC
100
AcDbEntity
  8
A1
  6
CONTINUOUS
 62
7
100
AcDbLine
 10
192.5000020000004
 20
119.3911506617049
 30
0.000000000000000
 11
192.5000020000004
 21
115.4683149999999
 31
0.000000000000000
  0
LINE
  5
DD
100
AcDbEntity
  8
A1
  6
CONTINUOUS
 62
7
100
AcDbLine
 10
193.9000020000004
 20
118.2292696305988
 30
0.000000000000000
 11
193.9000020000004
 21
115.4683149999999
 31
0.000000000000000
  0
LINE
  5
DE
100
AcDbEntity
  8
A1
  6
CONTINUOUS
 62
7
100
AcDbLine
 10
190.9190006169496
 20
135.0999999999998
 30
0.000000000000000
 11
177.0809993830513
 21
135.0999999999998
 31
0.000000000000000
  0
LINE
  5
DF
100
AcDbEntity
  8
A1
  6
CONTINUOUS
 62
7
100
AcDbLine
 10
197.2500000000004
 20
123.5119110735814
 30
0.000000000000000
 11
197.2500000000004
 21
138.1000000000000
 31
0.000000000000000
  0
LINE
  5
E0
100
AcDbEntity
  8
A1
  6
CONTINUOUS
 62
7
100
AcDbLine
 10
170.7500000000004
 20
138.1000000000000
 30
0.000000000000000
 11
170.7500000000004
 21
123.5119110735814
 31
0.000000000000000
  0
LINE
  5
E1
100
AcDbEntity
  8
A1
  6
CONTINUOUS
 62
7
100
AcDbLine
 10
172.2500000000004
 20
139.5999999999999
 30
0.000000000000000
 11
195.7500000000004
 21
139.5999999999999
 31
0.000000000000000
  0
ARC
  5
E2
100
AcDbEntity
  8
A1
  6
CONTINUOUS
 62
7
100
AcDbCircle
 10
118.0160450000006
 20
184.7918850000000
 30
0.000000000000000
 40
6.602129000000000
100
AcDbArc
 50
109.0201821902023
 51
112.8360100000000
  0
ARC
  5
E3
100
AcDbEntity
  8
A1
  6
CONTINUOUS
 62
7
100
AcDbCircle
 10
115.5314100000005
 20
190.6922150000000
 30
0.000000000000000
 40
0.2000000000000000
100
AcDbArc
 50
112.8360341780309
 51
209.0920564984859
  0
ARC
  5
E4
100
AcDbEntity
  8
A1
  6
CONTINUOUS
 62
7
100
AcDbCircle
 10
118.0000000000004
 20
171.6355820000000
 30
0.000000000000000
 40
3.366533000000000
100
AcDbArc
 50
215.5029879585830
 51
229.0321288605665
  0
LINE
  5
E5
100
AcDbEntity
  8
A1
  6
CONTINUOUS
 62
7
100
AcDbLine
 10
115.3566400000005
 20
190.5949710000000
 30
0.000000000000000
 11
115.4303690035717
 21
190.4624550368776
 31
0.000000000000000
  0
ELLIPSE
  5
E6
100
AcDbEntity
  8
A1
  6
CONTINUOUS
 62
7
100
AcDbEllipse
 10
132.5394717835747
 20
178.6928932188135
 30
0.000000000000000
 11
-0.3042678581169517
 21
0.6767273091743344
 31
0.000000000000000
210
0.000000000000000
220
0.000000000000000
230
1.000000000000000
 40
0.6738698815027919
 41
4.712388980384695
 42
5.988993965528461
  0
ELLIPSE
  5
E7
100
AcDbEntity
  8
A1
  6
CONTINUOUS
 62
7
100
AcDbEllipse
 10
130.3071067811868
 20
176.4605282164259
 30
0.000000000000000
 11
-0.6767273091743342
 21
0.3042678581169517
 31
0.000000000000000
210
0.000000000000000
220
0.000000000000000
230
1.000000000000000
 40
0.6738698815027920
 41
0.2941913416520465
 42
1.570796326794891
  0
ELLIPSE
  5
E8
100
AcDbEntity
  8
A1
  6
CONTINUOUS
 62
7
100
AcDbEllipse
 10
130.3071067811869
 20
183.5394717835743
 30
0.000000000000000
 11
-0.6767273091743345
 21
-0.3042678581169517
 31
0.000000000000000
210
0.000000000000000
220
0.000000000000000
230
1.000000000000000
 40
0.6738698815027920
 41
4.712388980384695
 42
5.988993965528459
  0
ELLIPSE
  5
E9
100
AcDbEntity
  8
A1
  6
CONTINUOUS
 62
7
100
AcDbEllipse
 10
132.5394717835747
 20
181.3071067811865
 30
0.000000000000000
 11
-0.3042678581169518
 21
-0.6767273091743344
 31
0.000000000000000
210
0.000000000000000
220
0.000000000000000
230
1.000000000000000
 40
0.6738698815027920
 41
0.2941913416511272
 42
1.570796326794891
  0
ELLIPSE
  5
EA
100
AcDbEntity
  8
A1
  6
CONTINUOUS
 62
7
100
AcDbEllipse
 10
125.4605282164263
 20
178.6928932188137
 30
0.000000000000000
 11
-0.3042678581169518
 21
-0.6767273091743344
 31
0.000000000000000
210
0.000000000000000
220
0.000000000000000
230
1.000000000000000
 40
0.6738698815027920
 41
3.435783995241814
 42
4.712388980384684
  0
ELLIPSE
  5
EB
100
AcDbEntity
  8
A1
  6
CONTINUOUS
 62
7
100
AcDbEllipse
 10
127.6928932188139
 20
176.4605282164258
 30
0.000000000000000
 11
-0.6767273091743345
 21
-0.3042678581169517
 31
0.000000000000000
210
0.000000000000000
220
0.000000000000000
230
1.000000000000000
 40
0.6738698815027920
 41
1.570796326794902
 42
2.847401311938666
  0
ELLIPSE
  5
EC
100
AcDbEntity
  8
A1
  6
CONTINUOUS
 62
7
100
AcDbEllipse
 10
125.4605282164262
 20
181.3071067811865
 30
0.000000000000000
 11
-0.3042678581169517
 21
0.6767273091743344
 31
0.000000000000000
210
0.000000000000000
220
0.000000000000000
230
1.000000000000000
 40
0.6738698815027919
 41
1.570796326794902
 42
2.847401311938667
  0
ELLIPSE
  5
ED
100
AcDbEntity
  8
A1
  6
CONTINUOUS
 62
7
100
AcDbEllipse
 10
127.6928932188139
 20
183.5394717835743
 30
0.000000000000000
 11
-0.6767273091743342
 21
0.3042678581169517
 31
0.000000000000000
210
0.000000000000000
220
0.000000000000000
230
1.000000000000000
 40
0.6738698815027920
 41
3.435783995240919
 42
4.712388980384684
  0
ARC
  5
EE
100
AcDbEntity
  8
A1
  6
CONTINUOUS
 62
7
100
AcDbCircle
 10
129.0000000000004
 20
179.9999809999998
 30
0.000000000000000
 40
4.250000000000000
100
AcDbArc
 50
287.1051641839164
 51
342.8953487850712
  0
ARC
  5
EF
100
AcDbEntity
  8
A1
  6
CONTINUOUS
 62
7
100
AcDbCircle
 10
129.0000000000004
 20
179.9999809999998
 30
0.000000000000000
 40
4.250000000000000
100
AcDbArc
 50
17.10496942297340
 51
72.89554354799797
  0
ARC
  5
F0
100
AcDbEntity
  8
A1
  6
CONTINUOUS
 62
7
100
AcDbCircle
 10
129.0000000000004
 20
179.9999809999998
 30
0.000000000000000
 40
4.250000000000000
100
AcDbArc
 50
197.1046512149289
 51
252.8948358160835
  0
ARC
  5
F1
100
AcDbEntity
  8
A1
  6
CONTINUOUS
 62
7
100
AcDbCircle
 10
129.0000000000004
 20
179.9999809999998
 30
0.000000000000000
 40
4.250000000000000
100
AcDbArc
 50
107.1044564520020
 51
162.8950305770266
  0
LINE
  5
F2
100
AcDbEntity
  8
A1
  6
CONTINUOUS
 62
7
100
AcDbLine
 10
129.0000000000004
 20
176.5000109999998
 30
0.000000000000000
 11
127.8979301643083
 21
176.0045020647827
 31
0.000000000000000
  0
LINE
  5
F3
100
AcDbEntity
  8
A1
  6
CONTINUOUS
 62
7
100
AcDbLine
 10
129.0000000000004
 20
183.4999890000002
 30
0.000000000000000
 11
130.1020698356925
 21
183.9954979352173
 31
0.000000000000000
  0
LINE
  5
F4
100
AcDbEntity
  8
A1
  6
CONTINUOUS
 62
7
100
AcDbLine
 10
132.9954979352177
 20
181.1020698356921
 30
0.000000000000000
 11
132.4999890000006
 21
180.0000000000000
 31
0.000000000000000
  0
LINE
  5
F5
100
AcDbEntity
  8
A1
  6
CONTINUOUS
 62
7
100
AcDbLine
 10
130.1020698356924
 20
176.0045020647828
 30
0.000000000000000
 11
129.0000000000004
 21
176.5000109999999
 31
0.000000000000000
  0
LINE
  5
F6
100
AcDbEntity
  8
A1
  6
CONTINUOUS
 62
7
100
AcDbLine
 10
129.0000000000004
 20
176.5000109999999
 30
0.000000000000000
 11
129.0000000000004
 21
176.8892616867951
 31
0.000000000000000
  0
LINE
  5
F7
100
AcDbEntity
  8
A1
  6
CONTINUOUS
 62
7
100
AcDbLine
 10
125.5000110000003
 20
180.0000000000000
 30
0.000000000000000
 11
125.0045020647832
 21
181.1020698356921
 31
0.000000000000000
  0
LINE
  5
F8
100
AcDbEntity
  8
A1
  6
CONTINUOUS
 62
7
100
AcDbLine
 10
127.8979301643083
 20
183.9954979352173
 30
0.000000000000000
 11
129.0000000000004
 21
183.4999890000002
 31
0.000000000000000
  0
LINE
  5
F9
100
AcDbEntity
  8
A1
  6
CONTINUOUS
 62
7
100
AcDbLine
 10
129.0000000000005
 20
183.4999890000001
 30
0.000000000000000
 11
129.0000000000004
 21
183.1107383132050
 31
0.000000000000000
  0
LINE
  5
FA
100
AcDbEntity
  8
A1
  6
CONTINUOUS
 62
7
100
AcDbLine
 10
132.4999890000006
 20
180.0000000000001
 30
0.000000000000000
 11
132.9954979352177
 21
178.8979301643079
 31
0.000000000000000
  0
LINE
  5
FB
100
AcDbEntity
  8
A1
  6
CONTINUOUS
 62
7
100
AcDbLine
 10
132.4999890000005
 20
180.0000000000000
 30
0.000000000000000
 11
132.1107383132055
 21
180.0000000000001
 31
0.000000000000000
  0
LINE
  5
FC
100
AcDbEntity
  8
A1
  6
CONTINUOUS
 62
7
100
AcDbLine
 10
125.5000110000003
 20
180.0000000000002
 30
0.000000000000000
 11
125.8892616867955
 21
180.0000000000000
 31
0.000000000000000
  0
LINE
  5
FD
100
AcDbEntity
  8
A1
  6
CONTINUOUS
 62
7
100
AcDbLine
 10
125.0045020647832
 20
178.8979301643081
 30
0.000000000000000
 11
125.5000110000003
 21
180.0000000000000
 31
0.000000000000000
  0
LINE
  5
FE
100
AcDbEntity
  8
A1
  6
CONTINUOUS
 62
7
100
AcDbLine
 10
132.9954979352177
 20
178.8979301643079
 30
0.000000000000000
 11
133.0620188524171
 21
178.7499798629558
 31
0.000000000000000
  0
LINE
  5
FF
100
AcDbEntity
  8
A1
  6
CONTINUOUS
 62
7
100
AcDbLine
 10
129.6000000000004
 20
176.6194917035312
 30
0.000000000000000
 11
129.6000000000005
 21
179.4000000000000
 31
0.000000000000000
  0
LINE
  5
100
100
AcDbEntity
  8
A1
  6
CONTINUOUS
 62
7
100
AcDbLine
 10
130.2500375042401
 20
175.9379733390032
 30
0.000000000000000
 11
130.1020698356924
 21
176.0045020647828
 31
0.000000000000000
  0
LINE
  5
101
100
AcDbEntity
  8
A1
  6
CONTINUOUS
 62
7
100
AcDbLine
 10
133.0620119101256
 20
181.2500046965757
 30
0.000000000000000
 11
132.9954979352177
 21
181.1020698356921
 31
0.000000000000000
  0
LINE
  5
102
100
AcDbEntity
  8
A1
  6
CONTINUOUS
 62
7
100
AcDbLine
 10
130.1020698356925
 20
183.9954979352173
 30
0.000000000000000
 11
130.2499873292020
 21
184.0620041014648
 31
0.000000000000000
  0
LINE
  5
103
100
AcDbEntity
  8
A1
  6
CONTINUOUS
 62
7
100
AcDbLine
 10
129.6000000000005
 20
180.6000000000000
 30
0.000000000000000
 11
129.6000000000004
 21
183.3805082964689
 31
0.000000000000000
  0
LINE
  5
104
100
AcDbEntity
  8
A1
  6
CONTINUOUS
 62
7
100
AcDbLine
 10
129.6000000000004
 20
179.3999999999999
 30
0.000000000000000
 11
132.3805082964693
 21
179.4000000000000
 31
0.000000000000000
  0
LINE
  5
105
100
AcDbEntity
  8
A1
  6
CONTINUOUS
 62
7
100
AcDbLine
 10
129.6000000000005
 20
179.3999999999999
 30
0.000000000000000
 11
129.0000000000005
 21
179.9999999999999
 31
0.000000000000000
  0
LINE
  5
106
100
AcDbEntity
  8
A1
  6
CONTINUOUS
 62
7
100
AcDbLine
 10
129.0000000000005
 20
179.9999999999999
 30
0.000000000000000
 11
132.1107383132055
 21
180.0000000000000
 31
0.000000000000000
  0
LINE
  5
107
100
AcDbEntity
  8
A1
  6
CONTINUOUS
 62
7
100
AcDbLine
 10
129.6000000000005
 20
180.5999999999999
 30
0.000000000000000
 11
132.3805082964693
 21
180.6000000000000
 31
0.000000000000000
  0
LINE
  5
108
100
AcDbEntity
  8
A1
  6
CONTINUOUS
 62
7
100
AcDbLine
 10
129.0000000000005
 20
179.9999999999999
 30
0.000000000000000
 11
129.6000000000005
 21
180.5999999999999
 31
0.000000000000000
  0
LINE
  5
109
100
AcDbEntity
  8
A1
  6
CONTINUOUS
 62
7
100
AcDbLine
 10
129.0000000000005
 20
179.9999999999999
 30
0.000000000000000
 11
129.0000000000004
 21
183.1107383132050
 31
0.000000000000000
  0
LINE
  5
10A
100
AcDbEntity
  8
A1
  6
CONTINUOUS
 62
7
100
AcDbLine
 10
124.9379811475837
 20
178.7499798629558
 30
0.000000000000000
 11
125.0045020647832
 21
178.8979301643081
 31
0.000000000000000
  0
LINE
  5
10B
100
AcDbEntity
  8
A1
  6
CONTINUOUS
 62
7
100
AcDbLine
 10
127.8979301643083
 20
176.0045020647827
 30
0.000000000000000
 11
127.7499624957608
 21
175.9379733390033
 31
0.000000000000000
  0
LINE
  5
10C
100
AcDbEntity
  8
A1
  6
CONTINUOUS
 62
7
100
AcDbLine
 10
125.0045020647832
 20
181.1020698356921
 30
0.000000000000000
 11
124.9379880898753
 21
181.2500046965757
 31
0.000000000000000
  0
LINE
  5
10D
100
AcDbEntity
  8
A1
  6
CONTINUOUS
 62
7
100
AcDbLine
 10
128.4000000000004
 20
180.6000000000000
 30
0.000000000000000
 11
128.4000000000004
 21
183.3805082964689
 31
0.000000000000000
  0
LINE
  5
10E
100
AcDbEntity
  8
A1
  6
CONTINUOUS
 62
7
100
AcDbLine
 10
127.7500126707989
 20
184.0620041014648
 30
0.000000000000000
 11
127.8979301643083
 21
183.9954979352173
 31
0.000000000000000
  0
LINE
  5
10F
100
AcDbEntity
  8
A1
  6
CONTINUOUS
 62
7
100
AcDbLine
 10
128.4000000000004
 20
176.6194917035312
 30
0.000000000000000
 11
128.4000000000004
 21
179.4000000000000
 31
0.000000000000000
  0
LINE
  5
110
100
AcDbEntity
  8
A1
  6
CONTINUOUS
 62
7
100
AcDbLine
 10
129.0000000000004
 20
176.8892616867951
 30
0.000000000000000
 11
129.0000000000005
 21
179.9999999999999
 31
0.000000000000000
  0
LINE
  5
111
100
AcDbEntity
  8
A1
  6
CONTINUOUS
 62
7
100
AcDbLine
 10
125.6194917035316
 20
179.4000000000001
 30
0.000000000000000
 11
128.4000000000004
 21
179.4000000000000
 31
0.000000000000000
  0
LINE
  5
112
100
AcDbEntity
  8
A1
  6
CONTINUOUS
 62
7
100
AcDbLine
 10
129.0000000000005
 20
179.9999999999999
 30
0.000000000000000
 11
128.4000000000004
 21
179.4000000000000
 31
0.000000000000000
  0
LINE
  5
113
100
AcDbEntity
  8
A1
  6
CONTINUOUS
 62
7
100
AcDbLine
 10
125.6194917035316
 20
180.6000000000001
 30
0.000000000000000
 11
128.4000000000004
 21
180.6000000000000
 31
0.000000000000000
  0
LINE
  5
114
100
AcDbEntity
  8
A1
  6
CONTINUOUS
 62
7
100
AcDbLine
 10
125.8892616867955
 20
180.0000000000001
 30
0.000000000000000
 11
129.0000000000005
 21
179.9999999999999
 31
0.000000000000000
  0
LINE
  5
115
100
AcDbEntity
  8
A1
  6
CONTINUOUS
 62
7
100
AcDbLine
 10
128.4000000000004
 20
180.6000000000000
 30
0.000000000000000
 11
129.0000000000005
 21
179.9999999999999
 31
0.000000000000000
  0
CIRCLE
  5
116
100
AcDbEntity
  8
A1
  6
CONTINUOUS
 62
7
100
AcDbCircle
 10
129.0000000000004
 20
180.0000000000000
 30
0.000000000000000
 40
12.25000000000000
  0
CIRCLE
  5
117
100
AcDbEntity
  8
A1
  6
CONTINUOUS
 62
7
100
AcDbCircle
 10
129.0000000000004
 20
180.0000000000000
 30
0.000000000000000
 40
5.400000000000000
  0
CIRCLE
  5
118
100
AcDbEntity
  8
A1
  6
CONTINUOUS
 62
7
100
AcDbCircle
 10
129.0000000000004
 20
180.0000000000000
 30
0.000000000000000
 40
11.25000000000000
  0
CIRCLE
  5
119
100
AcDbEntity
  8
A1
  6
CONTINUOUS
 62
7
100
AcDbCircle
 10
114.0000000000004
 20
168.0000000000000
 30
0.000000000000000
 40
2.100000000000000
  0
CIRCLE
  5
11A
100
AcDbEntity
  8
A1
  6
CONTINUOUS
 62
7
100
AcDbCircle
 10
114.0000000000004
 20
191.9999999999998
 30
0.000000000000000
 40
2.100000000000000
  0
CIRCLE
  5
11B
100
AcDbEntity
  8
A1
  6
CONTINUOUS
 62
7
100
AcDbCircle
 10
144.0000000000002
 20
168.0000000000000
 30
0.000000000000000
 40
2.100000000000000
  0
CIRCLE
  5
11C
100
AcDbEntity
  8
A1
  6
CONTINUOUS
 62
7
100
AcDbCircle
 10
144.0000000000002
 20
191.9999999999999
 30
0.000000000000000
 40
2.100000000000000
  0
ARC
  5
11D
100
AcDbEntity
  8
A1
  6
CONTINUOUS
 62
7
100
AcDbCircle
 10
180.9143029941158
 20
179.9999999999999
 30
0.000000000000000
 40
35.00001899411540
100
AcDbArc
 50
161.0541048224883
 51
198.9458947048011
  0
ARC
  5
11E
100
AcDbEntity
  8
A1
  6
CONTINUOUS
 62
7
100
AcDbCircle
 10
144.5000000000004
 20
192.5000000000000
 30
0.000000000000000
 40
3.500000000000000
100
AcDbArc
 50
341.0540947271066
 51
450.0000000000000
  0
ARC
  5
11F
100
AcDbEntity
  8
A1
  6
CONTINUOUS
 62
7
100
AcDbCircle
 10
113.5000000000004
 20
192.5000000000000
 30
0.000000000000000
 40
3.500000000000000
100
AcDbArc
 50
90.00000000000000
 51
198.9458800000004
  0
ARC
  5
120
100
AcDbEntity
  8
A1
  6
CONTINUOUS
 62
7
100
AcDbCircle
 10
77.08569700588740
 20
180.0000000000001
 30
0.000000000000000
 40
35.00001899411294
100
AcDbArc
 50
341.0541042951979
 51
378.9458977048005
  0
ARC
  5
121
100
AcDbEntity
  8
A1
  6
CONTINUOUS
 62
7
100
AcDbCircle
 10
113.5000000000004
 20
167.5000000000000
 30
0.000000000000000
 40
3.500000000000000
100
AcDbArc
 50
161.0541000000017
 51
269.9999499999965
  0
ARC
  5
122
100
AcDbEntity
  8
A1
  6
CONTINUOUS
 62
7
100
AcDbCircle
 10
144.5000000000004
 20
167.5000000000000
 30
0.000000000000000
 40
3.500000000000000
100
AcDbArc
 50
270.0000000000000
 51
378.9459099999987
  0
LINE
  5
123
100
AcDbEntity
  8
A1
  6
CONTINUOUS
 62
7
100
AcDbLine
 10
113.4999969456740
 20
164.0000000000013
 30
0.000000000000000
 11
144.5000000000004
 21
164.0000000000000
 31
0.000000000000000
  0
LINE
  5
124
100
AcDbEntity
  8
A1
  6
CONTINUOUS
 62
7
100
AcDbLine
 10
144.5000000000004
 20
196.0000000000000
 30
0.000000000000000
 11
113.5000000000004
 21
196.0000000000000
 31
0.000000000000000
  0
ARC
  5
125
100
AcDbEntity
  8
A1
  6
CONTINUOUS
 62
7
100
AcDbCircle
 10
103.5861901587989
 20
174.0000034188690
 30
0.000000000000000
 40
1.000003418870630
100
AcDbArc
 50
191.1599316780566
 51
270.0000000000000
  0
ARC
  5
126
100
AcDbEntity
  8
A1
  6
CONTINUOUS
 62
7
100
AcDbCircle
 10
103.5861901587989
 20
185.9999965811311
 30
0.000000000000000
 40
1.000003418870630
100
AcDbArc
 50
90.00006639403664
 51
168.8400683219426
  0
ARC
  5
127
100
AcDbEntity
  8
A1
  6
CONTINUOUS
 62
7
100
AcDbCircle
 10
134.0000000000004
 20
180.0000000000000
 30
0.000000000000000
 40
32.00000000000000
100
AcDbArc
 50
168.8400683219421
 51
191.1599316780570
  0
LINE
  5
128
100
AcDbEntity
  8
A1
  6
CONTINUOUS
 62
7
100
AcDbLine
 10
111.3785727906367
 20
172.9999999999984
 30
0.000000000000000
 11
103.5861901587989
 21
172.9999999999984
 31
0.000000000000000
  0
LINE
  5
129
100
AcDbEntity
  8
A1
  6
CONTINUOUS
 62
7
100
AcDbLine
 10
111.3785727906370
 20
187.0000000000002
 30
0.000000000000000
 11
103.5861890000004
 21
187.0000000000002
 31
0.000000000000000
  0
ARC
  5
12A
100
AcDbEntity
  8
A1
  6
CONTINUOUS
 62
7
100
AcDbCircle
 10
61.20811500000039
 20
118.0160450000002
 30
0.000000000000000
 40
6.602129000000000
100
AcDbArc
 50
180.1392447326077
 51
202.8360100000000
  0
ARC
  5
12B
100
AcDbEntity
  8
A1
  6
CONTINUOUS
 62
7
100
AcDbCircle
 10
61.20811500000039
 20
117.9839549999998
 30
0.000000000000000
 40
6.602129000000000
100
AcDbArc
 50
157.1639900000000
 51
179.8607552673924
  0
ARC
  5
12C
100
AcDbEntity
  8
A1
  6
CONTINUOUS
 62
7
100
AcDbCircle
 10
55.30778500000039
 20
120.4685899999999
 30
0.000000000000000
 40
0.2000000000000000
100
AcDbArc
 50
60.90794350151415
 51
157.1639658219682
  0
ARC
  5
12D
100
AcDbEntity
  8
A1
  6
CONTINUOUS
 62
7
100
AcDbCircle
 10
55.30778500000039
 20
115.5314100000001
 30
0.000000000000000
 40
0.2000000000000000
100
AcDbArc
 50
202.8360341780318
 51
299.0920564984859
  0
ARC
  5
12E
100
AcDbEntity
  8
A1
  6
CONTINUOUS
 62
7
100
AcDbCircle
 10
74.36441800000040
 20
118.0000000000000
 30
0.000000000000000
 40
3.366533000000000
100
AcDbArc
 50
297.1378036758784
 51
338.1294808839928
  0
ARC
  5
12F
100
AcDbEntity
  8
A1
  6
CONTINUOUS
 62
7
100
AcDbCircle
 10
74.36441800000040
 20
118.0000000000000
 30
0.000000000000000
 40
3.366533000000000
100
AcDbArc
 50
21.87051911600740
 51
62.86219632412171
  0
LINE
  5
130
100
AcDbEntity
  8
A1
  6
CONTINUOUS
 62
7
100
AcDbLine
 10
77.49200742269559
 20
117.9999999999999
 30
0.000000000000000
 11
77.48865504730409
 21
119.2540683044959
 31
0.000000000000000
  0
LINE
  5
131
100
AcDbEntity
  8
A1
  6
CONTINUOUS
 62
7
100
AcDbLine
 10
77.48865504730414
 20
116.7459316955041
 30
0.000000000000000
 11
77.49200742269564
 21
118.0000000000000
 31
0.000000000000000
  0
LINE
  5
132
100
AcDbEntity
  8
A1
  6
CONTINUOUS
 62
7
100
AcDbLine
 10
74.00000000000040
 20
115.6000000000000
 30
0.000000000000000
 11
74.50000200000051
 21
115.6000000000000
 31
0.000000000000000
  0
LINE
  5
133
100
AcDbEntity
  8
A1
  6
CONTINUOUS
 62
7
100
AcDbLine
 10
57.49999800000040
 20
115.6000000000000
 30
0.000000000000000
 11
58.00000000000040
 21
115.6000000000000
 31
0.000000000000000
  0
LINE
  5
134
100
AcDbEntity
  8
A1
  6
CONTINUOUS
 62
7
100
AcDbLine
 10
58.00000000000040
 20
120.4000000000000
 30
0.000000000000000
 11
57.49999800000040
 21
120.4000000000000
 31
0.000000000000000
  0
LINE
  5
135
100
AcDbEntity
  8
A1
  6
CONTINUOUS
 62
7
100
AcDbLine
 10
74.50000200000051
 20
120.4000000000000
 30
0.000000000000000
 11
74.00000000000040
 21
120.4000000000000
 31
0.000000000000000
  0
LINE
  5
136
100
AcDbEntity
  8
A1
  6
CONTINUOUS
 62
7
100
AcDbLine
 10
56.09999800000036
 20
120.2566943434591
 30
0.000000000000000
 11
55.40502900000036
 21
120.6433599999998
 31
0.000000000000000
  0
LINE
  5
137
100
AcDbEntity
  8
A1
  6
CONTINUOUS
 62
7
100
AcDbLine
 10
55.40502900000038
 20
115.3566400000001
 30
0.000000000000000
 11
56.09999800000039
 21
115.7433056565408
 31
0.000000000000000
  0
LINE
  5
138
100
AcDbEntity
  8
A1
  6
CONTINUOUS
 62
7
100
AcDbLine
 10
77.48865504730409
 20
116.7459316955028
 30
0.000000000000000
 11
77.48865504730409
 21
119.2540683044972
 31
0.000000000000000
  0
ARC
  5
139
100
AcDbEntity
  8
A1
  6
CONTINUOUS
 62
7
100
AcDbCircle
 10
74.40001900000070
 20
140.3844999999999
 30
0.000000000000000
 40
1.800000000000000
100
AcDbArc
 50
334.1616679684519
 51
357.3092606895740
  0
ARC
  5
13A
100
AcDbEntity
  8
A1
  6
CONTINUOUS
 62
7
100
AcDbCircle
 10
57.59998100000018
 20
140.3844999999999
 30
0.000000000000000
 40
1.800000000000000
100
AcDbArc
 50
182.6907393104261
 51
205.8383320315481
  0
ARC
  5
13B
100
AcDbEntity
  8
A1
  6
CONTINUOUS
 62
7
100
AcDbCircle
 10
73.27462984627260
 20
140.3844999999999
 30
0.000000000000000
 40
1.800000000000000
100
AcDbArc
 50
334.1616679684519
 51
357.3092606895740
  0
ARC
  5
13C
100
AcDbEntity
  8
A1
  6
CONTINUOUS
 62
7
100
AcDbCircle
 10
58.72537015372831
 20
140.3844999999999
 30
0.000000000000000
 40
1.800000000000000
100
AcDbArc
 50
182.6907393104261
 51
205.8383320315481
  0
ARC
  5
13D
100
AcDbEntity
  8
A1
  6
CONTINUOUS
 62
7
100
AcDbCircle
 10
70.20000950000059
 20
140.3844999999999
 30
0.000000000000000
 40
1.800000000000000
100
AcDbArc
 50
334.1616679684519
 51
357.3092606895740
  0
ARC
  5
13E
100
AcDbEntity
  8
A1
  6
CONTINUOUS
 62
7
100
AcDbCircle
 10
70.20000950000059
 20
140.3844999999999
 30
0.000000000000000
 40
1.800000000000000
100
AcDbArc
 50
182.6907393104261
 51
205.8383320315481
  0
ARC
  5
13F
100
AcDbEntity
  8
A1
  6
CONTINUOUS
 62
7
100
AcDbCircle
 10
61.79999050000029
 20
140.3844999999999
 30
0.000000000000000
 40
1.800000000000000
100
AcDbArc
 50
334.1616679684519
 51
357.3092606895740
  0
ARC
  5
140
100
AcDbEntity
  8
A1
  6
CONTINUOUS
 62
7
100
AcDbCircle
 10
61.79999050000029
 20
140.3844999999999
 30
0.000000000000000
 40
1.800000000000000
100
AcDbArc
 50
182.6907393104261
 51
205.8383320315481
  0
ARC
  5
141
100
AcDbEntity
  8
A1
  6
CONTINUOUS
 62
7
100
AcDbCircle
 10
66.00000000000040
 20
140.3844999999999
 30
0.000000000000000
 40
1.800000000000000
100
AcDbArc
 50
334.1616679684519
 51
357.3092606895740
  0
ARC
  5
142
100
AcDbEntity
  8
A1
  6
CONTINUOUS
 62
7
100
AcDbCircle
 10
66.00000000000040
 20
140.3844999999999
 30
0.000000000000000
 40
1.800000000000000
100
AcDbArc
 50
182.6907393104261
 51
205.8383320315481
  0
ARC
  5
143
100
AcDbEntity
  8
A1
  6
CONTINUOUS
 62
7
100
AcDbCircle
 10
77.91280451414650
 20
142.2999990000000
 30
0.000000000000000
 40
2.000000000000000
100
AcDbArc
 50
270.0000000000000
 51
328.6713181962052
  0
ARC
  5
144
100
AcDbEntity
  8
A1
  6
CONTINUOUS
 62
7
100
AcDbCircle
 10
54.08719548585441
 20
142.2999990000000
 30
0.000000000000000
 40
2.000000000000000
100
AcDbArc
 50
211.3286818037949
 51
270.0000000000000
  0
ARC
  5
145
100
AcDbEntity
  8
A1
  6
CONTINUOUS
 62
7
100
AcDbCircle
 10
51.28221429479629
 20
142.1000000000000
 30
0.000000000000000
 40
0.5000000000000000
100
AcDbArc
 50
31.32868180379440
 51
90.00000000000000
  0
ARC
  5
146
100
AcDbEntity
  8
A1
  6
CONTINUOUS
 62
7
100
AcDbCircle
 10
80.71778570520451
 20
142.1000000000000
 30
0.000000000000000
 40
0.5000000000000000
100
AcDbArc
 50
90.00000000000000
 51
148.6713181962056
  0
LINE
  5
147
100
AcDbEntity
  8
A1
  6
CONTINUOUS
 62
7
100
AcDbLine
 10
77.91280451414650
 20
140.2999990000000
 30
0.000000000000000
 11
54.08719548585441
 21
140.2999990000000
 31
0.000000000000000
  0
LINE
  5
148
100
AcDbEntity
  8
A1
  6
CONTINUOUS
 62
7
100
AcDbLine
 10
79.62120182618239
 20
141.2601054361058
 30
0.000000000000000
 11
80.29068637719550
 21
142.3599733909736
 31
0.000000000000000
  0
LINE
  5
149
100
AcDbEntity
  8
A1
  6
CONTINUOUS
 62
7
100
AcDbLine
 10
51.70931362280528
 20
142.3599733909736
 30
0.000000000000000
 11
52.37879817381849
 21
141.2601054361058
 31
0.000000000000000
  0
LINE
  5
14A
100
AcDbEntity
  8
A1
  6
CONTINUOUS
 62
7
100
AcDbLine
 10
54.63636214579549
 20
142.6000000000001
 30
0.000000000000000
 11
77.36363669866151
 21
142.6000000000001
 31
0.000000000000000
  0
LINE
  5
14B
100
AcDbEntity
  8
A1
  6
CONTINUOUS
 62
7
100
AcDbLine
 10
54.63636214579549
 20
144.0000000000000
 30
0.000000000000000
 11
77.36363669866151
 21
144.0000000000000
 31
0.000000000000000
  0
LINE
  5
14C
100
AcDbEntity
  8
A1
  6
CONTINUOUS
 62
7
100
AcDbLine
 10
77.36363669866159
 20
142.6000000000001
 30
0.000000000000000
 11
81.99999999999909
 21
142.6000000000001
 31
0.000000000000000
  0
LINE
  5
14D
100
AcDbEntity
  8
A1
  6
CONTINUOUS
 62
7
100
AcDbLine
 10
81.99999999999920
 20
142.6000000000001
 30
0.000000000000000
 11
81.99999999999920
 21
144.0000000000000
 31
0.000000000000000
  0
LINE
  5
14E
100
AcDbEntity
  8
A1
  6
CONTINUOUS
 62
7
100
AcDbLine
 10
77.36363669866159
 20
144.0000000000000
 30
0.000000000000000
 11
81.99999999999909
 21
144.0000000000000
 31
0.000000000000000
  0
LINE
  5
14F
100
AcDbEntity
  8
A1
  6
CONTINUOUS
 62
7
100
AcDbLine
 10
50.00000000000040
 20
142.6000000000001
 30
0.000000000000000
 11
54.63636214579540
 21
142.6000000000001
 31
0.000000000000000
  0
LINE
  5
150
100
AcDbEntity
  8
A1
  6
CONTINUOUS
 62
7
100
AcDbLine
 10
50.00000000000040
 20
144.0000000000000
 30
0.000000000000000
 11
54.63636214579540
 21
144.0000000000000
 31
0.000000000000000
  0
LINE
  5
151
100
AcDbEntity
  8
A1
  6
CONTINUOUS
 62
7
100
AcDbLine
 10
50.00000000000040
 20
142.6000000000001
 30
0.000000000000000
 11
50.00000000000040
 21
144.0000000000000
 31
0.000000000000000
  0
ARC
  5
152
100
AcDbEntity
  8
A1
  6
CONTINUOUS
 62
7
100
AcDbCircle
 10
73.00000000000040
 20
112.6623040000000
 30
0.000000000000000
 40
1.000000000000000
100
AcDbArc
 50
270.0000000000115
 51
360.0000000000000
  0
ARC
  5
153
100
AcDbEntity
  8
A1
  6
CONTINUOUS
 62
7
100
AcDbCircle
 10
73.00000000000040
 20
123.3376960000000
 30
0.000000000000000
 40
1.000000000000000
100
AcDbArc
 50
0.000000000000000
 51
89.99999999998849
  0
ARC
  5
154
100
AcDbEntity
  8
A1
  6
CONTINUOUS
 62
7
100
AcDbCircle
 10
59.00000000000040
 20
112.6623040000000
 30
0.000000000000000
 40
1.000000000000000
100
AcDbArc
 50
180.0000000000000
 51
270.0000000000001
  0
ARC
  5
155
100
AcDbEntity
  8
A1
  6
CONTINUOUS
 62
7
100
AcDbCircle
 10
59.00000000000040
 20
123.3376960000000
 30
0.000000000000000
 40
1.000000000000000
100
AcDbArc
 50
90.00000000000000
 51
180.0000000000000
  0
ARC
  5
156
100
AcDbEntity
  8
A1
  6
CONTINUOUS
 62
7
100
AcDbCircle
 10
71.99999658113148
 20
103.5861901587985
 30
0.000000000000000
 40
1.000003418870630
100
AcDbArc
 50
281.1599316780567
 51
360.0000000000000
  0
ARC
  5
157
100
AcDbEntity
  8
A1
  6
CONTINUOUS
 62
7
100
AcDbCircle
 10
71.99999658113148
 20
132.4138098412015
 30
0.000000000000000
 40
1.000003418870630
100
AcDbArc
 50
0.000000000000000
 51
78.84006832194332
  0
ARC
  5
158
100
AcDbEntity
  8
A1
  6
CONTINUOUS
 62
7
100
AcDbCircle
 10
60.00000341886940
 20
103.5861901587985
 30
0.000000000000000
 40
1.000003418870630
100
AcDbArc
 50
180.0000663940366
 51
258.8400683219427
  0
ARC
  5
159
100
AcDbEntity
  8
A1
  6
CONTINUOUS
 62
7
100
AcDbCircle
 10
60.00000341886940
 20
132.4138098412015
 30
0.000000000000000
 40
1.000003418870630
100
AcDbArc
 50
101.1599316780574
 51
179.9999336059637
  0
ARC
  5
15A
100
AcDbEntity
  8
A1
  6
CONTINUOUS
 62
7
100
AcDbCircle
 10
66.00000000000040
 20
102.0000000000000
 30
0.000000000000000
 40
32.00000000000000
100
AcDbArc
 50
78.84006832194304
 51
101.1599316780579
  0
ARC
  5
15B
100
AcDbEntity
  8
A1
  6
CONTINUOUS
 62
7
100
AcDbCircle
 10
66.00000000000040
 20
134.0000000000000
 30
0.000000000000000
 40
32.00000000000000
100
AcDbArc
 50
258.8400683219421
 51
281.1599316780570
  0
LINE
  5
15C
100
AcDbEntity
  8
A1
  6
CONTINUOUS
 62
7
100
AcDbLine
 10
74.00000000000040
 20
123.3376959996856
 30
0.000000000000000
 11
74.00000000000040
 21
112.6623040000000
 31
0.000000000000000
  0
LINE
  5
15D
100
AcDbEntity
  8
A1
  6
CONTINUOUS
 62
7
100
AcDbLine
 10
58.00000000000040
 20
123.3376959996856
 30
0.000000000000000
 11
58.00000000000040
 21
112.6623040000000
 31
0.000000000000000
  0
LINE
  5
15E
100
AcDbEntity
  8
A1
  6
CONTINUOUS
 62
7
100
AcDbLine
 10
73.00000000000210
 20
132.4138098412015
 30
0.000000000000000
 11
73.00000000000210
 21
103.5861901587985
 31
0.000000000000000
  0
LINE
  5
15F
100
AcDbEntity
  8
A1
  6
CONTINUOUS
 62
7
100
AcDbLine
 10
59.00000000000020
 20
132.4138110000000
 30
0.000000000000000
 11
59.00000000000020
 21
103.5861890000000
 31
0.000000000000000
  0
SPLINE
  5
160
100
AcDbEntity
  8
A1
  6
CONTINUOUS
 62
7
100
AcDbSpline
210
0.000000000000000
220
0.000000000000000
230
1.000000000000000
 70
     8
 71
     3
 72
    17
 73
    13
 74
     0
 42
1.000000000000000e-07
 43
1.000000000000000e-07
 12
-0.9999792704237507
 22
-0.006438844802687527
 32
0.000000000000000
 13
-0.7855938102273967
 23
-0.6187425679008811
 33
0.000000000000000
 40
0.000000000000000
 40
0.000000000000000
 40
0.000000000000000
 40
0.000000000000000
 40
0.4488995763575129
 40
1.260680068435903
 40
1.801955649646196
 40
2.329331676504919
 40
2.841265997678824
 40
3.248570800212173
 40
3.647282216368775
 40
4.047363190406724
 40
4.443053508313532
 40
4.745261650307940
 40
4.745261650307940
 40
4.745261650307940
 40
4.745261650307940
 10
62.04415308718089
 20
135.0983154650938
 30
0.000000000000000
 10
61.89452299689438
 20
135.0973520001924
 30
0.000000000000000
 10
61.47434720777710
 20
135.0902668997086
 30
0.000000000000000
 10
60.87397314201868
 20
135.0668585105101
 30
0.000000000000000
 10
60.24911719916528
 20
135.0152579140622
 30
0.000000000000000
 10
59.72640502938299
 20
134.9473759776219
 30
0.000000000000000
 10
59.25246394705519
 20
134.8563601208415
 30
0.000000000000000
 10
58.82754216580710
 20
134.7435163625521
 30
0.000000000000000
 10
58.44732330381208
 20
134.6115279482264
 30
0.000000000000000
 10
58.08369440641039
 20
134.4478894462773
 30
0.000000000000000
 10
57.76615342565648
 20
134.2644193662107
 30
0.000000000000000
 10
57.57730303176808
 20
134.1280102317272
 30
0.000000000000000
 10
57.49816541651771
 20
134.0656805511211
 30
0.000000000000000
  0
SPLINE
  5
161
100
AcDbEntity
  8
A1
  6
CONTINUOUS
 62
7
100
AcDbSpline
210
0.000000000000000
220
0.000000000000000
230
1.000000000000000
 70
     8
 71
     3
 72
    17
 73
    13
 74
     0
 42
1.000000000000000e-07
 43
1.000000000000000e-07
 12
-0.7848096896739207
 22
0.6197368401140011
 32
0.000000000000000
 13
-0.9999906495603454
 23
0.004324441163021220
 33
0.000000000000000
 40
0.000000000000000
 40
0.000000000000000
 40
0.000000000000000
 40
0.000000000000000
 40
0.2026792981919455
 40
0.6273239774207270
 40
1.056329061902510
 40
1.505813594344685
 40
1.966263020188584
 40
2.453804988607221
 40
2.955242704756226
 40
3.469231811545915
 40
4.288939227450964
 40
4.805738228237352
 40
4.805738228237352
 40
4.805738228237352
 40
4.805738228237352
 10
74.50273363797120
 20
134.0649692606355
 30
0.000000000000000
 10
74.44971207893209
 20
134.1068385365748
 30
0.000000000000000
 10
74.28190543260808
 20
134.2318055401469
 30
0.000000000000000
 10
73.98050281190538
 20
134.4155939964482
 30
0.000000000000000
 10
73.58615823594988
 20
134.5995385453174
 30
0.000000000000000
 10
73.16436069338718
 20
134.7473876814937
 30
0.000000000000000
 10
72.71298201992448
 20
134.8642600937591
 30
0.000000000000000
 10
72.23762841293700
 20
134.9524758129753
 30
0.000000000000000
 10
71.74046571480449
 20
135.0159222719250
 30
0.000000000000000
 10
71.13069732173639
 20
135.0665170937309
 30
0.000000000000000
 10
70.51415567709299
 20
135.0908283152484
 30
0.000000000000000
 10
70.06869720181601
 20
135.0980686551748
 30
0.000000000000000
 10
69.89643247898650
 20
135.0988136107988
 30
0.000000000000000
  0
SPLINE
  5
162
100
AcDbEntity
  8
A1
  6
CONTINUOUS
 62
7
100
AcDbSpline
210
0.000000000000000
220
0.000000000000000
230
1.000000000000000
 70
     8
 71
     3
 72
    17
 73
    13
 74
     0
 42
1.000000000000000e-07
 43
1.000000000000000e-07
 12
-0.05577430580854070
 22
-0.9984434019072523
 32
0.000000000000000
 13
-0.9427357121087425
 23
-0.3335406678625077
 33
0.000000000000000
 40
0.000000000000000
 40
0.000000000000000
 40
0.000000000000000
 40
0.000000000000000
 40
0.3386734921065889
 40
0.6815913152377586
 40
1.028796131069990
 40
1.384499175951037
 40
1.750485745776489
 40
2.125239192053133
 40
2.488667620431108
 40
2.862892926004502
 40
3.244519904146914
 40
3.389773489530385
 40
3.389773489530385
 40
3.389773489530385
 40
3.389773489530385
 10
79.21710677317299
 20
122.2863764416223
 30
0.000000000000000
 10
79.21081034686699
 20
122.1736610037574
 30
0.000000000000000
 10
79.18300754158901
 20
121.9473383005602
 30
0.000000000000000
 10
79.09452201576880
 20
121.6149694329674
 30
0.000000000000000
 10
78.96003686981970
 20
121.2921615824362
 30
0.000000000000000
 10
78.77856041170219
 20
120.9842900974368
 30
0.000000000000000
 10
78.55322277489731
 20
120.6953065757759
 30
0.000000000000000
 10
78.29147031659119
 20
120.4351329849809
 30
0.000000000000000
 10
77.99764480276571
 20
120.2075822863038
 30
0.000000000000000
 10
77.67836943531211
 20
120.0131316373071
 30
0.000000000000000
 10
77.40559317592781
 20
119.8857676028633
 30
0.000000000000000
 10
77.24124947561160
 20
119.8237195074790
 30
0.000000000000000
 10
77.19560422819399
 20
119.8075701815196
 30
0.000000000000000
  0
SPLINE
  5
163
100
AcDbEntity
  8
A1
  6
CONTINUOUS
 62
7
100
AcDbSpline
210
0.000000000000000
220
0.000000000000000
230
1.000000000000000
 70
     8
 71
     3
 72
    17
 73
    13
 74
     0
 42
1.000000000000000e-07
 43
1.000000000000000e-07
 12
-0.9465319608176515
 22
0.3226100543249686
 32
0.000000000000000
 13
-0.05528125882995027
 23
0.9984708220182483
 33
0.000000000000000
 40
0.000000000000000
 40
0.000000000000000
 40
0.000000000000000
 40
0.000000000000000
 40
0.3953858349934242
 40
0.7819357897235839
 40
1.108257117872839
 40
1.427959592038311
 40
1.739402679263008
 40
2.066280530796395
 40
2.386841556045693
 40
2.700481985110016
 40
3.067726221710280
 40
3.431119058699276
 40
3.431119058699276
 40
3.431119058699276
 40
3.431119058699276
 10
54.84324432458899
 20
119.7940563253908
 30
0.000000000000000
 10
54.71849588136371
 20
119.8365748072930
 30
0.000000000000000
 10
54.47637356626620
 20
119.9347926326397
 30
0.000000000000000
 10
54.15085960737190
 20
120.1111142208867
 30
0.000000000000000
 10
53.86744273944458
 20
120.3074530586411
 30
0.000000000000000
 10
53.62437232571170
 20
120.5151275343643
 30
0.000000000000000
 10
53.40387135770351
 20
120.7469484570834
 30
0.000000000000000
 10
53.21074698851939
 20
121.0025692040671
 30
0.000000000000000
 10
53.04845414017061
 20
121.2796412900334
 30
0.000000000000000
 10
52.91507526811398
 20
121.5865427828737
 30
0.000000000000000
 10
52.82049852487438
 20
121.9228468466614
 30
0.000000000000000
 10
52.78958949798729
 20
122.1654307267343
 30
0.000000000000000
 10
52.78289322682778
 20
122.2863764416223
 30
0.000000000000000
  0
SPLINE
  5
164
100
AcDbEntity
  8
A1
  6
CONTINUOUS
 62
7
100
AcDbSpline
210
0.000000000000000
220
0.000000000000000
230
1.000000000000000
 70
     8
 71
     3
 72
    13
 73
     9
 74
     0
 42
1.000000000000000e-07
 43
1.000000000000000e-07
 12
0.1032178718523937
 22
0.9946587711021948
 32
0.000000000000000
 13
0.8779006268590592
 23
0.4788428650008427
 33
0.000000000000000
 40
0.000000000000000
 40
0.000000000000000
 40
0.000000000000000
 40
0.000000000000000
 40
0.2183220692646601
 40
0.4717328807955230
 40
0.7100693942473647
 40
0.9560407426399991
 40
1.197252176489916
 40
1.447136380834693
 40
1.447136380834693
 40
1.447136380834693
 40
1.447136380834693
 10
56.10807005227349
 20
138.2554059846936
 30
0.000000000000000
 10
56.11558163206280
 20
138.3277913050667
 30
0.000000000000000
 10
56.14262511049608
 20
138.4832658490705
 30
0.000000000000000
 10
56.21796229959139
 20
138.7087681908208
 30
0.000000000000000
 10
56.33293968580819
 20
138.9272996594703
 30
0.000000000000000
 10
56.47968165581219
 20
139.1209987579305
 30
0.000000000000000
 10
56.65943468872160
 20
139.2900797164490
 30
0.000000000000000
 10
56.79684808883809
 20
139.3808027649882
 30
0.000000000000000
 10
56.86997258871691
 20
139.4206878544305
 30
0.000000000000000
  0
SPLINE
  5
165
100
AcDbEntity
  8
A1
  6
CONTINUOUS
 62
7
100
AcDbSpline
210
0.000000000000000
220
0.000000000000000
230
1.000000000000000
 70
     8
 71
     3
 72
    13
 73
     9
 74
     0
 42
1.000000000000000e-07
 43
1.000000000000000e-07
 12
-0.1079532663272857
 22
0.9941559697990670
 32
0.000000000000000
 13
-0.8779031811889126
 23
0.4788381819148526
 33
0.000000000000000
 40
0.000000000000000
 40
0.000000000000000
 40
0.000000000000000
 40
0.000000000000000
 40
0.2120653904949497
 40
0.4654431675092262
 40
0.7034673383889579
 40
0.9490998045834850
 40
1.189991744055656
 40
1.439523007992279
 40
1.439523007992279
 40
1.439523007992279
 40
1.439523007992279
 10
75.89112127760521
 20
138.2629952654491
 30
0.000000000000000
 10
75.88349022707891
 20
138.3332706234319
 30
0.000000000000000
 10
75.85637474224970
 20
138.4865603655616
 30
0.000000000000000
 10
75.78154350765200
 20
138.7099079281871
 30
0.000000000000000
 10
75.66650283629289
 20
138.9281424845168
 30
0.000000000000000
 10
75.51984716126390
 20
139.1214956735562
 30
0.000000000000000
 10
75.34028250942040
 20
139.2902783122775
 30
0.000000000000000
 10
75.20304884142269
 20
139.3808594888457
 30
0.000000000000000
 10
75.13002741128400
 20
139.4206878544305
 30
0.000000000000000
  0
SPLINE
  5
166
100
AcDbEntity
  8
A1
  6
CONTINUOUS
 62
7
100
AcDbSpline
210
0.000000000000000
220
0.000000000000000
230
1.000000000000000
 70
     8
 71
     3
 72
    11
 73
     7
 74
     0
 42
1.000000000000000e-07
 43
1.000000000000000e-07
 12
-0.1242743463594707
 22
-0.9922478958596912
 32
0.000000000000000
 13
0.6154911719058873
 23
-0.7881437795767852
 33
0.000000000000000
 40
0.000000000000000
 40
0.000000000000000
 40
0.000000000000000
 40
0.000000000000000
 40
0.06905204993301950
 40
0.1528829714823130
 40
0.2578480151240415
 40
0.2721132185093803
 40
0.2721132185093803
 40
0.2721132185093803
 40
0.2721132185093803
 10
60.19148764503180
 20
135.4973754861746
 30
0.000000000000000
 10
60.18862717890840
 20
135.4745365690910
 30
0.000000000000000
 10
60.18733498409711
 20
135.4231006873845
 30
0.000000000000000
 10
60.20659198787050
 20
135.3385450891852
 30
0.000000000000000
 10
60.23766084621909
 20
135.2771926019639
 30
0.000000000000000
 10
60.26150697573169
 20
135.2453946082678
 30
0.000000000000000
 10
60.26443367798140
 20
135.2416469311636
 30
0.000000000000000
  0
SPLINE
  5
167
100
AcDbEntity
  8
A1
  6
CONTINUOUS
 62
7
100
AcDbSpline
210
0.000000000000000
220
0.000000000000000
230
1.000000000000000
 70
     8
 71
     3
 72
    12
 73
     8
 74
     0
 42
1.000000000000000e-07
 43
1.000000000000000e-07
 12
0.1553774076585341
 22
0.9878551822957888
 32
0.000000000000000
 13
-0.4158952347240756
 23
0.9094125322080799
 33
0.000000000000000
 40
0.000000000000000
 40
0.000000000000000
 40
0.000000000000000
 40
0.000000000000000
 40
0.1276714425424249
 40
0.2600748533500455
 40
0.3868299320006501
 40
0.5136527337557035
 40
0.6720411644290434
 40
0.6720411644290434
 40
0.6720411644290434
 40
0.6720411644290434
 10
60.21527135510121
 20
135.6521744225650
 30
0.000000000000000
 10
60.22188377435930
 20
135.6942147212806
 30
0.000000000000000
 10
60.23025500996039
 20
135.7807480055516
 30
0.000000000000000
 10
60.22674417857579
 20
135.9099725262838
 30
0.000000000000000
 10
60.20758019803949
 20
136.0375052601249
 30
0.000000000000000
 10
60.17208190733689
 20
136.1703793920044
 30
0.000000000000000
 10
60.13783566600449
 20
136.2593619539203
 30
0.000000000000000
 10
60.11587800148700
 20
136.3073754285240
 30
0.000000000000000
  0
SPLINE
  5
168
100
AcDbEntity
  8
A1
  6
CONTINUOUS
 62
7
100
AcDbSpline
210
0.000000000000000
220
0.000000000000000
230
1.000000000000000
 70
     8
 71
     3
 72
    11
 73
     7
 74
     0
 42
1.000000000000000e-07
 43
1.000000000000000e-07
 12
0.6089102279006511
 22
0.7932391407139221
 32
0.000000000000000
 13
-0.1419366911050020
 23
0.9898757375085552
 33
0.000000000000000
 40
0.000000000000000
 40
0.000000000000000
 40
0.000000000000000
 40
0.000000000000000
 40
0.09349381685741180
 40
0.1801022976182061
 40
0.2475061941767378
 40
0.2722366913398844
 40
0.2722366913398844
 40
0.2722366913398844
 40
0.2722366913398844
 10
71.73556632202039
 20
135.2416469311639
 30
0.000000000000000
 10
71.75454276913038
 20
135.2663679161459
 30
0.000000000000000
 10
71.78544664688189
 20
135.3187487309995
 30
0.000000000000000
 10
71.80859629943720
 20
135.3986760108094
 30
0.000000000000000
 10
71.81281334158871
 20
135.4586191149842
 30
0.000000000000000
 10
71.80968240994798
 20
135.4892154464685
 30
0.000000000000000
 10
71.80851235496908
 20
135.4973754861746
 30
0.000000000000000
  0
SPLINE
  5
169
100
AcDbEntity
  8
A1
  6
CONTINUOUS
 62
7
100
AcDbSpline
210
0.000000000000000
220
0.000000000000000
230
1.000000000000000
 70
     8
 71
     3
 72
    12
 73
     8
 74
     0
 42
1.000000000000000e-07
 43
1.000000000000000e-07
 12
-0.4148039483220600
 22
-0.9099108112650356
 32
0.000000000000000
 13
0.1553749805987081
 23
-0.9878555640398190
 33
0.000000000000000
 40
0.000000000000000
 40
0.000000000000000
 40
0.000000000000000
 40
0.000000000000000
 40
0.1287000901240177
 40
0.2662981192849491
 40
0.4053547464013886
 40
0.5515982342044199
 40
0.6720304020489052
 40
0.6720304020489052
 40
0.6720304020489052
 40
0.6720304020489052
 10
71.88412199851379
 20
136.3073754285240
 30
0.000000000000000
 10
71.86632689666951
 20
136.2683402273858
 30
0.000000000000000
 10
71.83348990459049
 20
136.1857085056368
 30
0.000000000000000
 10
71.79592522704348
 20
136.0556494082282
 30
0.000000000000000
 10
71.77325494652229
 20
135.9161288984152
 30
0.000000000000000
 10
71.76961047604681
 20
135.7804938801551
 30
0.000000000000000
 10
71.77849126298548
 20
135.6918309515965
 30
0.000000000000000
 10
71.78472864489959
 20
135.6521744225650
 30
0.000000000000000
  0
SPLINE
  5
16A
100
AcDbEntity
  8
A1
  6
CONTINUOUS
 62
7
100
AcDbSpline
210
0.000000000000000
220
0.000000000000000
230
1.000000000000000
 70
     8
 71
     3
 72
    12
 73
     8
 74
     0
 42
1.000000000000000e-07
 43
1.000000000000000e-07
 12
-0.1549107422715679
 22
0.9879284700450626
 32
0.000000000000000
 13
-0.6687432763126253
 23
0.7434933963309049
 33
0.000000000000000
 40
0.000000000000000
 40
0.000000000000000
 40
0.000000000000000
 40
0.000000000000000
 40
0.1494743063898236
 40
0.3037363395782831
 40
0.4513330542171379
 40
0.5992421368131233
 40
0.7247060819040606
 40
0.7247060819040606
 40
0.7247060819040606
 40
0.7247060819040606
 10
75.85792407887058
 20
135.6521744225650
 30
0.000000000000000
 10
75.85020568695279
 20
135.7013977301726
 30
0.000000000000000
 10
75.82984924019109
 20
135.8007177093065
 30
0.000000000000000
 10
75.78712325755589
 20
135.9452235422692
 30
0.000000000000000
 10
75.72824155198211
 20
136.0835034645324
 30
0.000000000000000
 10
75.65671782237328
 20
136.2047812503615
 30
0.000000000000000
 10
75.59977575335938
 20
136.2762815569731
 30
0.000000000000000
 10
75.57180803012631
 20
136.3073754285240
 30
0.000000000000000
  0
SPLINE
  5
16B
100
AcDbEntity
  8
A1
  6
CONTINUOUS
 62
7
100
AcDbSpline
210
0.000000000000000
220
0.000000000000000
230
1.000000000000000
 70
     8
 71
     3
 72
    12
 73
     8
 74
     0
 42
1.000000000000000e-07
 43
1.000000000000000e-07
 12
-0.6678554280736080
 22
-0.7442910231852693
 32
0.000000000000000
 13
-0.1571985210853200
 23
-0.9875670230262585
 33
0.000000000000000
 40
0.000000000000000
 40
0.000000000000000
 40
0.000000000000000
 40
0.000000000000000
 40
0.1458206276074963
 40
0.2999252899364750
 40
0.4540921745612753
 40
0.6152630471224965
 40
0.7246651145517546
 40
0.7246651145517546
 40
0.7246651145517546
 40
0.7246651145517546
 10
56.42819196987460
 20
136.3073754285240
 30
0.000000000000000
 10
56.39572960398368
 20
136.2711977671495
 30
0.000000000000000
 10
56.33396712864518
 20
136.1920531517597
 30
0.000000000000000
 10
56.25978152035739
 20
136.0595087363680
 30
0.000000000000000
 10
56.20186355717320
 20
135.9137243243840
 30
0.000000000000000
 10
56.16493174232869
 20
135.7767911207488
 30
0.000000000000000
 10
56.14780853553148
 20
135.6881883805797
 30
0.000000000000000
 10
56.14207592113030
 20
135.6521744225650
 30
0.000000000000000
  0
SPLINE
  5
16C
100
AcDbEntity
  8
A1
  6
CONTINUOUS
 62
7
100
AcDbSpline
210
0.000000000000000
220
0.000000000000000
230
1.000000000000000
 70
     8
 71
     3
 72
    10
 73
     6
 74
     0
 42
1.000000000000000e-07
 43
1.000000000000000e-07
 12
-0.9407239111440049
 22
-0.3391732934655920
 32
0.000000000000000
 13
-0.6745177582696442
 23
-0.7382586225560317
 33
0.000000000000000
 40
0.000000000000000
 40
0.000000000000000
 40
0.000000000000000
 40
0.000000000000000
 40
0.2429694870419433
 40
0.4881864652994639
 40
0.7283585581593185
 40
0.7283585581593185
 40
0.7283585581593185
 40
0.7283585581593185
 10
57.03035332147530
 20
136.7057040173452
 30
0.000000000000000
 10
56.95416425276238
 20
136.6782344303013
 30
0.000000000000000
 10
56.80516579661838
 20
136.6109553855293
 30
0.000000000000000
 10
56.60115046361480
 20
136.4774698999104
 30
0.000000000000000
 10
56.48219208376619
 20
136.3664784680077
 30
0.000000000000000
 10
56.42819196987460
 20
136.3073754285240
 30
0.000000000000000
  0
SPLINE
  5
16D
100
AcDbEntity
  8
A1
  6
CONTINUOUS
 62
7
100
AcDbSpline
210
0.000000000000000
220
0.000000000000000
230
1.000000000000000
 70
     8
 71
     3
 72
    10
 73
     6
 74
     0
 42
1.000000000000000e-07
 43
1.000000000000000e-07
 12
-0.6743465228186096
 22
0.7384150371995020
 32
0.000000000000000
 13
-0.9407420370940827
 23
0.3391230155020821
 33
0.000000000000000
 40
0.000000000000000
 40
0.000000000000000
 40
0.000000000000000
 40
0.000000000000000
 40
0.2328762498909658
 40
0.4778921103475514
 40
0.7283602234060360
 40
0.7283602234060360
 40
0.7283602234060360
 40
0.7283602234060360
 10
75.57180803012631
 20
136.3073754285240
 30
0.000000000000000
 10
75.51946160033930
 20
136.3646952034327
 30
0.000000000000000
 10
75.40265127594660
 20
136.4742266727801
 30
0.000000000000000
 10
75.19930350593049
 20
136.6087284478353
 30
0.000000000000000
 10
75.04818863949419
 20
136.6773908500827
 30
0.000000000000000
 10
74.96964667852561
 20
136.7057040173452
 30
0.000000000000000
  0
SPLINE
  5
16E
100
AcDbEntity
  8
A1
  6
CONTINUOUS
 62
7
100
AcDbSpline
210
0.000000000000000
220
0.000000000000000
230
1.000000000000000
 70
     8
 71
     3
 72
    17
 73
    13
 74
     0
 42
1.000000000000000e-07
 43
1.000000000000000e-07
 12
-0.3904805661807131
 22
0.9206111705993862
 32
0.000000000000000
 13
-0.9521373673752578
 23
-0.3056704657772116
 33
0.000000000000000
 40
0.000000000000000
 40
0.000000000000000
 40
0.000000000000000
 40
0.000000000000000
 40
0.1941017519058040
 40
0.3923202064145023
 40
0.5952114235525751
 40
0.8026436909010414
 40
1.016399279308607
 40
1.233113245097669
 40
1.476066162436957
 40
1.719943963934558
 40
1.990705136771675
 40
2.259566382620549
 40
2.259566382620549
 40
2.259566382620549
 40
2.259566382620549
 10
60.07091524705248
 20
136.4108906216506
 30
0.000000000000000
 10
60.04565092639220
 20
136.4704547019964
 30
0.000000000000000
 10
59.98406875441850
 20
136.5867318090651
 30
0.000000000000000
 10
59.86029698091488
 20
136.7431619461989
 30
0.000000000000000
 10
59.70755799943100
 20
136.8781074873303
 30
0.000000000000000
 10
59.53121701074400
 20
136.9900042820701
 30
0.000000000000000
 10
59.33585910541268
 20
137.0758051621533
 30
0.000000000000000
 10
59.11954726355270
 20
137.1380489318271
 30
0.000000000000000
 10
58.88681999454630
 20
137.1723189845558
 30
0.000000000000000
 10
58.63368662927169
 20
137.1770635794111
 30
0.000000000000000
 10
58.37338808784381
 20
137.1477012135695
 30
0.000000000000000
 10
58.19829751409029
 20
137.1039283969489
 30
0.000000000000000
 10
58.11296656781968
 20
137.0765340828662
 30
0.000000000000000
  0
SPLINE
  5
16F
100
AcDbEntity
  8
A1
  6
CONTINUOUS
 62
7
100
AcDbSpline
210
0.000000000000000
220
0.000000000000000
230
1.000000000000000
 70
     8
 71
     3
 72
     9
 73
     5
 74
     0
 42
1.000000000000000e-07
 43
1.000000000000000e-07
 12
-0.9516801923051617
 22
-0.3070908848746967
 32
0.000000000000000
 13
-0.9400979848790030
 23
-0.3409043543672396
 33
0.000000000000000
 40
0.000000000000000
 40
0.000000000000000
 40
0.000000000000000
 40
0.000000000000000
 40
0.5725700459955694
 40
1.144408557950446
 40
1.144408557950446
 40
1.144408557950446
 40
1.144408557950446
 10
58.11296656781968
 20
137.0765340828662
 30
0.000000000000000
 10
57.93133204399260
 20
137.0179237355070
 30
0.000000000000000
 10
57.56933543481350
 20
136.8975289327056
 30
0.000000000000000
 10
57.20954806573030
 20
136.7706847635853
 30
0.000000000000000
 10
57.03035332147530
 20
136.7057040173452
 30
0.000000000000000
  0
SPLINE
  5
170
100
AcDbEntity
  8
A1
  6
CONTINUOUS
 62
7
100
AcDbSpline
210
0.000000000000000
220
0.000000000000000
230
1.000000000000000
 70
     8
 71
     3
 72
    12
 73
     8
 74
     0
 42
1.000000000000000e-07
 43
1.000000000000000e-07
 12
-0.9999902511331129
 22
-0.004415613248966110
 32
0.000000000000000
 13
-0.8781132660283220
 23
-0.4784528106547441
 33
0.000000000000000
 40
0.000000000000000
 40
0.000000000000000
 40
0.000000000000000
 40
0.000000000000000
 40
0.1460541679859494
 40
0.3060640857942313
 40
0.4521808550586955
 40
0.6097962287906122
 40
0.6979346632354437
 40
0.6979346632354437
 40
0.6979346632354437
 40
0.6979346632354437
 10
57.53747506075590
 20
139.5999999999999
 30
0.000000000000000
 10
57.48879081271480
 20
139.5997850270935
 30
0.000000000000000
 10
57.38668637135530
 20
139.5936767704455
 30
0.000000000000000
 10
57.23810196557790
 20
139.5662420618399
 30
0.000000000000000
 10
57.08975042415329
 20
139.5219499895646
 30
0.000000000000000
 10
56.96882697082319
 20
139.4718926392926
 30
0.000000000000000
 10
56.89577109822790
 20
139.4347445483261
 30
0.000000000000000
 10
56.86997258871691
 20
139.4206878544305
 30
0.000000000000000
  0
SPLINE
  5
171
100
AcDbEntity
  8
A1
  6
CONTINUOUS
 62
7
100
AcDbSpline
210
0.000000000000000
220
0.000000000000000
230
1.000000000000000
 70
     8
 71
     3
 72
    16
 73
    12
 74
     0
 42
1.000000000000000e-07
 43
1.000000000000000e-07
 12
-0.9519863267889832
 22
0.3061405455111981
 32
0.000000000000000
 13
-0.3870811556771514
 23
-0.9220456490429569
 33
0.000000000000000
 40
0.000000000000000
 40
0.000000000000000
 40
0.000000000000000
 40
0.000000000000000
 40
0.2890488194382285
 40
0.5883785863225550
 40
0.8800096573564831
 40
1.179567568881471
 40
1.439785097153883
 40
1.704231745134768
 40
1.917192845299619
 40
2.132051073116616
 40
2.259063254643351
 40
2.259063254643351
 40
2.259063254643351
 40
2.259063254643351
 10
73.88703343218410
 20
137.0765340828652
 30
0.000000000000000
 10
73.79530992422420
 20
137.1060306039526
 30
0.000000000000000
 10
73.60407444581529
 20
137.1529232777723
 30
0.000000000000000
 10
73.31098915570328
 20
137.1807051346405
 30
0.000000000000000
 10
73.01347776981129
 20
137.1642532935358
 30
0.000000000000000
 10
72.73487006774928
 20
137.1029988691391
 30
0.000000000000000
 10
72.47936035591471
 20
136.9986403741591
 30
0.000000000000000
 10
72.27107073733589
 20
136.8647867995808
 30
0.000000000000000
 10
72.10351157930191
 20
136.7043983715543
 30
0.000000000000000
 10
71.99567822180811
 20
136.5525368656145
 30
0.000000000000000
 10
71.94547276028510
 20
136.4499276314347
 30
0.000000000000000
 10
71.92908475294828
 20
136.4108906216506
 30
0.000000000000000
  0
SPLINE
  5
172
100
AcDbEntity
  8
A1
  6
CONTINUOUS
 62
7
100
AcDbSpline
210
0.000000000000000
220
0.000000000000000
230
1.000000000000000
 70
     8
 71
     3
 72
     9
 73
     5
 74
     0
 42
1.000000000000000e-07
 43
1.000000000000000e-07
 12
-0.9400980134088854
 22
0.3409042756923100
 32
0.000000000000000
 13
-0.9516801659152634
 23
0.3070909666589614
 33
0.000000000000000
 40
0.000000000000000
 40
0.000000000000000
 40
0.000000000000000
 40
0.000000000000000
 40
0.5716130879722032
 40
1.144408557483642
 40
1.144408557483642
 40
1.144408557483642
 40
1.144408557483642
 10
74.96964667852561
 20
136.7057040173452
 30
0.000000000000000
 10
74.79052256904521
 20
136.7706591325890
 30
0.000000000000000
 10
74.43073566404598
 20
136.8975045448504
 30
0.000000000000000
 10
74.06873946133749
 20
137.0179006447218
 30
0.000000000000000
 10
73.88703343218410
 20
137.0765340828652
 30
0.000000000000000
  0
SPLINE
  5
173
100
AcDbEntity
  8
A1
  6
CONTINUOUS
 62
7
100
AcDbSpline
210
0.000000000000000
220
0.000000000000000
230
1.000000000000000
 70
     8
 71
     3
 72
    12
 73
     8
 74
     0
 42
1.000000000000000e-07
 43
1.000000000000000e-07
 12
-0.8776273266828412
 22
0.4793435881083496
 32
0.000000000000000
 13
-0.9999996002798071
 23
0.0008941187024902320
 33
0.000000000000000
 40
0.000000000000000
 40
0.000000000000000
 40
0.000000000000000
 40
0.000000000000000
 40
0.1750467607577036
 40
0.3484368499090247
 40
0.5045770159197989
 40
0.6536253599184748
 40
0.6978959830741787
 40
0.6978959830741787
 40
0.6978959830741787
 40
0.6978959830741787
 10
75.13002741128400
 20
139.4206878544305
 30
0.000000000000000
 10
75.07881880438791
 20
139.4486570352266
 30
0.000000000000000
 10
74.97360058651128
 20
139.4985201653681
 30
0.000000000000000
 10
74.81412227351970
 20
139.5531086326560
 30
0.000000000000000
 10
74.65793483906239
 20
139.5871404348597
 30
0.000000000000000
 10
74.54172148549810
 20
139.5987881346037
 30
0.000000000000000
 10
74.47728180773160
 20
139.5999868056025
 30
0.000000000000000
 10
74.46252493924499
 20
139.5999999999999
 30
0.000000000000000
  0
SPLINE
  5
174
100
AcDbEntity
  8
A1
  6
CONTINUOUS
 62
7
100
AcDbSpline
210
0.000000000000000
220
0.000000000000000
230
1.000000000000000
 70
     8
 71
     3
 72
    11
 73
     7
 74
     0
 42
1.000000000000000e-07
 43
1.000000000000000e-07
 12
-0.7953949115421892
 22
0.6060915233620108
 32
0.000000000000000
 13
-0.5751225326457643
 23
0.8180672786475043
 33
0.000000000000000
 40
0.000000000000000
 40
0.000000000000000
 40
0.000000000000000
 40
0.000000000000000
 40
0.1684810886146653
 40
0.2430993903597257
 40
0.2616387256152048
 40
0.2680489673763925
 40
0.2680489673763925
 40
0.2680489673763925
 40
0.2680489673763925
 10
57.49999800000040
 20
135.4606832625862
 30
0.000000000000000
 10
57.45532833314201
 20
135.4947215824716
 30
0.000000000000000
 10
57.39527621191618
 20
135.5499948149129
 30
0.000000000000000
 10
57.33920208294458
 20
135.6169017103969
 30
0.000000000000000
 10
57.31953486434080
 20
135.6436424565600
 30
0.000000000000000
 10
57.31472414379729
 20
135.6504264195540
 30
0.000000000000000
 10
57.31349525230510
 20
135.6521744225650
 30
0.000000000000000
  0
SPLINE
  5
175
100
AcDbEntity
  8
A1
  6
CONTINUOUS
 62
7
100
AcDbSpline
210
0.000000000000000
220
0.000000000000000
230
1.000000000000000
 70
     8
 71
     3
 72
     9
 73
     5
 74
     0
 42
1.000000000000000e-07
 43
1.000000000000000e-07
 12
-0.1604205376696655
 22
-0.9870487582156784
 32
0.000000000000000
 13
0.0004771533915572945
 23
-0.9999998861615040
 33
0.000000000000000
 40
0.000000000000000
 40
0.000000000000000
 40
0.000000000000000
 40
0.000000000000000
 40
0.2616154126797152
 40
0.5248786674441922
 40
0.5248786674441922
 40
0.5248786674441922
 40
0.5248786674441922
 10
56.14207592113030
 20
135.6521744225650
 30
0.000000000000000
 10
56.12808642607538
 20
135.5660986998265
 30
0.000000000000000
 10
56.10693407182728
 20
135.3922077431406
 30
0.000000000000000
 10
56.09995612768211
 20
135.2171704676194
 30
0.000000000000000
 10
56.09999800000040
 20
135.1294160593544
 30
0.000000000000000
  0
SPLINE
  5
176
100
AcDbEntity
  8
A1
  6
CONTINUOUS
 62
7
100
AcDbSpline
210
0.000000000000000
220
0.000000000000000
230
1.000000000000000
 70
     8
 71
     3
 72
    11
 73
     7
 74
     0
 42
1.000000000000000e-07
 43
1.000000000000000e-07
 12
-0.5751225326966960
 22
-0.8180672786475043
 32
0.000000000000000
 13
-0.7953949115455998
 23
-0.6060915233615560
 33
0.000000000000000
 40
0.000000000000000
 40
0.000000000000000
 40
0.000000000000000
 40
0.000000000000000
 40
0.006410241761207100
 40
0.02494957701671590
 40
0.09956787876178350
 40
0.2680489673761474
 40
0.2680489673761474
 40
0.2680489673761474
 40
0.2680489673761474
 10
74.68650474769581
 20
135.6521744225650
 30
0.000000000000000
 10
74.68527585620350
 20
135.6504264195540
 30
0.000000000000000
 10
74.68046513565980
 20
135.6436424565602
 30
0.000000000000000
 10
74.66079791705658
 20
135.6169017103965
 30
0.000000000000000
 10
74.60472378808430
 20
135.5499948149133
 30
0.000000000000000
 10
74.54467166685890
 20
135.4947215824718
 30
0.000000000000000
 10
74.50000200000039
 20
135.4606832625865
 30
0.000000000000000
  0
SPLINE
  5
177
100
AcDbEntity
  8
A1
  6
CONTINUOUS
 62
7
100
AcDbSpline
210
0.000000000000000
220
0.000000000000000
230
1.000000000000000
 70
     8
 71
     3
 72
     9
 73
     5
 74
     0
 42
1.000000000000000e-07
 43
1.000000000000000e-07
 12
0.0004739700115123924
 22
0.9999998876767222
 32
0.000000000000000
 13
-0.1604140675708550
 23
0.9870498097493510
 33
0.000000000000000
 40
0.000000000000000
 40
0.000000000000000
 40
0.000000000000000
 40
0.000000000000000
 40
0.2615855299702413
 40
0.5248786151479556
 40
0.5248786151479556
 40
0.5248786151479556
 40
0.5248786151479556
 10
75.90000200000040
 20
135.1294160593558
 30
0.000000000000000
 10
75.90004332789928
 20
135.2166112262185
 30
0.000000000000000
 10
75.89311023322310
 20
135.3916465979298
 30
0.000000000000000
 10
75.87200271712280
 20
135.5655466260207
 30
0.000000000000000
 10
75.85792407887058
 20
135.6521744225650
 30
0.000000000000000
  0
ELLIPSE
  5
178
100
AcDbEntity
  8
A1
  6
CONTINUOUS
 62
7
100
AcDbEllipse
 10
66.00000000000040
 20
123.5119110735813
 30
0.000000000000000
 11
0.000000000000000
 21
-17.40343565819447
 31
0.000000000000000
210
0.000000000000000
220
0.000000000000000
230
1.000000000000000
 40
0.7613439242820532
 41
4.712388980384690
 42
4.782866430768959
  0
ELLIPSE
  5
179
100
AcDbEntity
  8
A1
  6
CONTINUOUS
 62
7
100
AcDbEllipse
 10
66.00000000000040
 20
123.5119110735813
 30
0.000000000000000
 11
0.000000000000000
 21
-17.40343565819447
 31
0.000000000000000
210
0.000000000000000
220
0.000000000000000
230
1.000000000000000
 40
0.7613439242820532
 41
1.500318876410628
 42
1.570796326794897
  0
ELLIPSE
  5
17A
100
AcDbEntity
  8
A1
  6
CONTINUOUS
 62
7
100
AcDbEllipse
 10
61.67610601308340
 20
127.4838253104184
 30
0.000000000000000
 11
0.000000000000000
 21
-11.95949598262984
 31
0.000000000000000
210
0.000000000000000
220
0.000000000000000
230
1.000000000000000
 40
0.1672311277084611
 41
3.960525427169843
 42
3.978102712536272
  0
ELLIPSE
  5
17B
100
AcDbEntity
  8
A1
  6
CONTINUOUS
 62
7
100
AcDbEllipse
 10
70.32389398691748
 20
127.4838253104184
 30
0.000000000000000
 11
0.000000000000000
 21
-11.95949598262984
 31
0.000000000000000
210
0.000000000000000
220
0.000000000000000
230
1.000000000000000
 40
0.1672311277084611
 41
2.305082594643315
 42
2.322659880009744
  0
ELLIPSE
  5
17C
100
AcDbEntity
  8
A1
  6
CONTINUOUS
 62
7
100
AcDbEllipse
 10
61.67610601308340
 20
138.5318691620668
 30
0.000000000000000
 11
0.000000000000000
 21
-3.555563950626609
 31
0.000000000000000
210
0.000000000000000
220
0.000000000000000
230
1.000000000000000
 40
0.5624986718766605
 41
5.351551890586499
 42
5.388337287199083
  0
ELLIPSE
  5
17D
100
AcDbEntity
  8
A1
  6
CONTINUOUS
 62
7
100
AcDbEllipse
 10
70.32389398691748
 20
138.5318691620668
 30
0.000000000000000
 11
0.000000000000000
 21
-3.555563950626609
 31
0.000000000000000
210
0.000000000000000
220
0.000000000000000
230
1.000000000000000
 40
0.5624986718766605
 41
0.8948480199805031
 42
0.9316334165930871
  0
ARC
  5
17E
100
AcDbEntity
  8
A1
  6
CONTINUOUS
 62
7
100
AcDbCircle
 10
77.75000000000040
 20
138.0999999999999
 30
0.000000000000000
 40
1.500000000000000
100
AcDbArc
 50
5.090000000000000e-14
 51
90.00000000000006
  0
ARC
  5
17F
100
AcDbEntity
  8
A1
  6
CONTINUOUS
 62
7
100
AcDbCircle
 10
54.25000000000040
 20
138.0999999999999
 30
0.000000000000000
 40
1.500000000000000
100
AcDbArc
 50
90.00000000000006
 51
180.0000000000000
  0
ARC
  5
180
100
AcDbEntity
  8
A1
  6
CONTINUOUS
 62
7
100
AcDbCircle
 10
74.29738564493610
 20
138.0893810065354
 30
0.000000000000000
 40
1.603164114411723
100
AcDbArc
 50
0.3795169514096488
 51
6.217024767368976
  0
ARC
  5
181
100
AcDbEntity
  8
A1
  6
CONTINUOUS
 62
7
100
AcDbCircle
 10
57.70283668909738
 20
138.0893708135013
 30
0.000000000000000
 40
1.603386511106927
100
AcDbArc
 50
174.0562061144987
 51
179.6201714418095
  0
ARC
  5
182
100
AcDbEntity
  8
A1
  6
CONTINUOUS
 62
7
100
AcDbCircle
 10
70.82462300112809
 20
138.1000000000030
 30
0.000000000000000
 40
3.000000000003371
100
AcDbArc
 50
287.6768292174239
 51
296.0382655217849
  0
ARC
  5
183
100
AcDbEntity
  8
A1
  6
CONTINUOUS
 62
7
100
AcDbCircle
 10
61.17537699886839
 20
138.0999999999924
 30
0.000000000000000
 40
2.999999999991965
100
AcDbArc
 50
243.9617344782002
 51
252.3231707826125
  0
ARC
  5
184
100
AcDbEntity
  8
A1
  6
CONTINUOUS
 62
7
100
AcDbCircle
 10
74.00000200000051
 20
135.7559853336586
 30
0.000000000000000
 40
0.4999999999999751
100
AcDbArc
 50
359.9999999999998
 51
476.0382655217949
  0
ARC
  5
185
100
AcDbEntity
  8
A1
  6
CONTINUOUS
 62
7
100
AcDbCircle
 10
57.99999800000049
 20
135.7559853336584
 30
0.000000000000000
 40
0.5000000000000888
100
AcDbArc
 50
63.96173447822060
 51
179.9999999999921
  0
ARC
  5
186
100
AcDbEntity
  8
A1
  6
CONTINUOUS
 62
7
100
AcDbCircle
 10
61.17537699887180
 20
138.1000000000001
 30
0.000000000000000
 40
3.000000000000272
100
AcDbArc
 50
252.3231707825953
 51
269.9999999999956
  0
ARC
  5
187
100
AcDbEntity
  8
A1
  6
CONTINUOUS
 62
7
100
AcDbCircle
 10
70.82462300112908
 20
138.0999999999994
 30
0.000000000000000
 40
2.999999999999639
100
AcDbArc
 50
270.0000000000020
 51
287.6768292174256
  0
ARC
  5
188
100
AcDbEntity
  8
A1
  6
CONTINUOUS
 62
7
100
AcDbCircle
 10
57.99999800001220
 20
135.1964348350097
 30
0.000000000000000
 40
1.141233488004767
100
AcDbArc
 50
76.76919918074115
 51
103.2308008192588
  0
ARC
  5
189
100
AcDbEntity
  8
A1
  6
CONTINUOUS
 62
7
100
AcDbCircle
 10
74.00000199999801
 20
135.1964348352456
 30
0.000000000000000
 40
1.141233487771924
100
AcDbArc
 50
76.76919917871992
 51
103.2308008212801
  0
LINE
  5
18A
100
AcDbEntity
  8
A1
  6
CONTINUOUS
 62
7
100
AcDbLine
 10
62.43172737345650
 20
135.0999999999997
 30
0.000000000000000
 11
62.04415308718092
 21
135.0983154650937
 31
0.000000000000000
  0
LINE
  5
18B
100
AcDbEntity
  8
A1
  6
CONTINUOUS
 62
7
100
AcDbLine
 10
69.89643247898653
 20
135.0988136107988
 30
0.000000000000000
 11
69.56827262654441
 21
135.0999999999998
 31
0.000000000000000
  0
LINE
  5
18C
100
AcDbEntity
  8
A1
  6
CONTINUOUS
 62
7
100
AcDbLine
 10
79.25000000000040
 20
123.5119110735814
 30
0.000000000000000
 11
79.25000000000040
 21
138.1000000000000
 31
0.000000000000000
  0
LINE
  5
18D
100
AcDbEntity
  8
A1
  6
CONTINUOUS
 62
7
100
AcDbLine
 10
52.75000000000040
 20
138.1000000000000
 30
0.000000000000000
 11
52.75000000000040
 21
123.5119110735814
 31
0.000000000000000
  0
LINE
  5
18E
100
AcDbEntity
  8
A1
  6
CONTINUOUS
 62
7
100
AcDbLine
 10
75.16885400000041
 20
139.5999999999999
 30
0.000000000000000
 11
77.75000000000040
 21
139.5999999999999
 31
0.000000000000000
  0
LINE
  5
18F
100
AcDbEntity
  8
A1
  6
CONTINUOUS
 62
7
100
AcDbLine
 10
54.25000000000040
 20
139.5999999999999
 30
0.000000000000000
 11
56.83114600000039
 21
139.5999999999999
 31
0.000000000000000
  0
LINE
  5
190
100
AcDbEntity
  8
A1
  6
CONTINUOUS
 62
7
100
AcDbLine
 10
57.53747506075590
 20
139.5999999999999
 30
0.000000000000000
 11
56.83114600000039
 21
139.5999999999999
 31
0.000000000000000
  0
LINE
  5
191
100
AcDbEntity
  8
A1
  6
CONTINUOUS
 62
7
100
AcDbLine
 10
75.16885400000041
 20
139.5999999999999
 30
0.000000000000000
 11
74.46252493924499
 21
139.5999999999999
 31
0.000000000000000
  0
LINE
  5
192
100
AcDbEntity
  8
A1
  6
CONTINUOUS
 62
7
100
AcDbLine
 10
56.09999800000048
 20
113.3000031260467
 30
0.000000000000000
 11
57.49999800000040
 21
113.3000031260467
 31
0.000000000000000
  0
LINE
  5
193
100
AcDbEntity
  8
A1
  6
CONTINUOUS
 62
7
100
AcDbLine
 10
57.49999800000040
 20
113.3000031260467
 30
0.000000000000000
 11
57.49999800000040
 21
113.3227774249483
 31
0.000000000000000
  0
LINE
  5
194
100
AcDbEntity
  8
A1
  6
CONTINUOUS
 62
7
100
AcDbLine
 10
56.09999800000040
 20
113.3000031260467
 30
0.000000000000000
 11
56.09999800000040
 21
113.3227774249483
 31
0.000000000000000
  0
LINE
  5
195
100
AcDbEntity
  8
A1
  6
CONTINUOUS
 62
7
100
AcDbLine
 10
75.90000200000040
 20
113.3227774249483
 30
0.000000000000000
 11
75.90000200000040
 21
113.3000031260467
 31
0.000000000000000
  0
LINE
  5
196
100
AcDbEntity
  8
A1
  6
CONTINUOUS
 62
7
100
AcDbLine
 10
74.50000200000039
 20
113.3227774249483
 30
0.000000000000000
 11
74.50000200000039
 21
113.3000031260467
 31
0.000000000000000
  0
LINE
  5
197
100
AcDbEntity
  8
A1
  6
CONTINUOUS
 62
7
100
AcDbLine
 10
74.50000200000051
 20
113.3000031260467
 30
0.000000000000000
 11
75.90000200000040
 21
113.3000031260467
 31
0.000000000000000
  0
LINE
  5
198
100
AcDbEntity
  8
A1
  6
CONTINUOUS
 62
7
100
AcDbLine
 10
62.66847512483480
 20
139.5999999999999
 30
0.000000000000000
 11
59.76555769644941
 21
139.5999999999999
 31
0.000000000000000
  0
LINE
  5
199
100
AcDbEntity
  8
A1
  6
CONTINUOUS
 62
7
100
AcDbLine
 10
72.23444230355150
 20
139.5999999999999
 30
0.000000000000000
 11
69.33152487516600
 21
139.5999999999999
 31
0.000000000000000
  0
LINE
  5
19A
100
AcDbEntity
  8
A1
  6
CONTINUOUS
 62
7
100
AcDbLine
 10
69.75682592305949
 20
135.0999999999998
 30
0.000000000000000
 11
62.24317407694139
 21
135.0999999999998
 31
0.000000000000000
  0
LINE
  5
19B
100
AcDbEntity
  8
A1
  6
CONTINUOUS
 62
7
100
AcDbLine
 10
62.66847512483480
 20
139.5999999999999
 30
0.000000000000000
 11
69.33152487516600
 21
139.5999999999999
 31
0.000000000000000
  0
LINE
  5
19C
100
AcDbEntity
  8
A1
  6
CONTINUOUS
 62
7
100
AcDbLine
 10
72.21315422427622
 20
135.4394860783116
 30
0.000000000000000
 11
72.14153695207852
 21
135.4044967731801
 31
0.000000000000000
  0
LINE
  5
19D
100
AcDbEntity
  8
A1
  6
CONTINUOUS
 62
7
100
AcDbLine
 10
59.85846304792238
 20
135.4044967731801
 30
0.000000000000000
 11
59.78684577572461
 21
135.4394860783116
 31
0.000000000000000
  0
LINE
  5
19E
100
AcDbEntity
  8
A1
  6
CONTINUOUS
 62
7
100
AcDbLine
 10
59.78684577572461
 20
135.4394860783117
 30
0.000000000000000
 11
58.21948365849200
 21
136.2052358714619
 31
0.000000000000000
  0
LINE
  5
19F
100
AcDbEntity
  8
A1
  6
CONTINUOUS
 62
7
100
AcDbLine
 10
73.78051634150887
 20
136.2052358714618
 30
0.000000000000000
 11
72.21315422427617
 21
135.4394860783115
 31
0.000000000000000
  0
LINE
  5
1A0
100
AcDbEntity
  8
A1
  6
CONTINUOUS
 62
7
100
AcDbLine
 10
74.50000200000039
 20
135.7559853336586
 30
0.000000000000000
 11
74.50000200000039
 21
135.4606832625865
 31
0.000000000000000
  0
LINE
  5
1A1
100
AcDbEntity
  8
A1
  6
CONTINUOUS
 62
7
100
AcDbLine
 10
57.49999800000040
 20
135.7559853336585
 30
0.000000000000000
 11
57.49999800000040
 21
135.4606832625862
 31
0.000000000000000
  0
LINE
  5
1A2
100
AcDbEntity
  8
A1
  6
CONTINUOUS
 62
7
100
AcDbLine
 10
61.17537699887160
 20
135.0999999999998
 30
0.000000000000000
 11
62.24317407694139
 21
135.0999999999998
 31
0.000000000000000
  0
LINE
  5
1A3
100
AcDbEntity
  8
A1
  6
CONTINUOUS
 62
7
100
AcDbLine
 10
69.75682592305949
 20
135.0999999999998
 30
0.000000000000000
 11
70.82462300112928
 21
135.0999999999998
 31
0.000000000000000
  0
LINE
  5
1A4
100
AcDbEntity
  8
A1
  6
CONTINUOUS
 62
7
100
AcDbLine
 10
75.90000200000040
 20
138.0440413978804
 30
0.000000000000000
 11
75.90000200000040
 21
135.1294160593558
 31
0.000000000000000
  0
LINE
  5
1A5
100
AcDbEntity
  8
A1
  6
CONTINUOUS
 62
7
100
AcDbLine
 10
56.09999800000040
 20
138.0440413978804
 30
0.000000000000000
 11
56.09999800000040
 21
135.1294160593544
 31
0.000000000000000
  0
LINE
  5
1A6
100
AcDbEntity
  8
A1
  6
CONTINUOUS
 62
7
100
AcDbLine
 10
59.76555769644941
 20
139.5999999999999
 30
0.000000000000000
 11
57.53747506075590
 21
139.5999999999999
 31
0.000000000000000
  0
LINE
  5
1A7
100
AcDbEntity
  8
A1
  6
CONTINUOUS
 62
7
100
AcDbLine
 10
72.23444230355150
 20
139.5999999999999
 30
0.000000000000000
 11
74.46252493924499
 21
139.5999999999999
 31
0.000000000000000
  0
LINE
  5
1A8
100
AcDbEntity
  8
A1
  6
CONTINUOUS
 62
7
100
AcDbLine
 10
57.50000000000038
 20
119.7071759999999
 30
0.000000000000000
 11
57.49999800000039
 21
135.4606832625861
 31
0.000000000000000
  0
LINE
  5
1A9
100
AcDbEntity
  8
A1
  6
CONTINUOUS
 62
7
100
AcDbLine
 10
56.09999800000040
 20
119.7071759999999
 30
0.000000000000000
 11
56.09999800000040
 21
135.1294160593544
 31
0.000000000000000
  0
LINE
  5
1AA
100
AcDbEntity
  8
A1
  6
CONTINUOUS
 62
7
100
AcDbLine
 10
75.90000200000040
 20
135.1294160593558
 30
0.000000000000000
 11
75.90000200000040
 21
119.7071759999999
 31
0.000000000000000
  0
LINE
  5
1AB
100
AcDbEntity
  8
A1
  6
CONTINUOUS
 62
7
100
AcDbLine
 10
74.50000200000039
 20
135.4606832625865
 30
0.000000000000000
 11
74.50000000000040
 21
119.7071757254465
 31
0.000000000000000
  0
LINE
  5
1AC
100
AcDbEntity
  8
A1
  6
CONTINUOUS
 62
7
100
AcDbLine
 10
57.49999800000040
 20
113.3227774249482
 30
0.000000000000000
 11
57.49999800000040
 21
118.0000020194044
 31
0.000000000000000
  0
LINE
  5
1AD
100
AcDbEntity
  8
A1
  6
CONTINUOUS
 62
7
100
AcDbLine
 10
56.09999800000040
 20
113.3227774249482
 30
0.000000000000000
 11
56.09999800000040
 21
118.0000020194048
 31
0.000000000000000
  0
LINE
  5
1AE
100
AcDbEntity
  8
A1
  6
CONTINUOUS
 62
7
100
AcDbLine
 10
75.90000200000040
 20
118.0000020194048
 30
0.000000000000000
 11
75.90000200000040
 21
113.3227774249482
 31
0.000000000000000
  0
LINE
  5
1AF
100
AcDbEntity
  8
A1
  6
CONTINUOUS
 62
7
100
AcDbLine
 10
74.50000200000039
 20
118.0000020194049
 30
0.000000000000000
 11
74.50000200000039
 21
113.3227774249482
 31
0.000000000000000
  0
LINE
  5
1B0
100
AcDbEntity
  8
A1
  6
CONTINUOUS
 62
7
100
AcDbLine
 10
75.90000200000040
 20
119.7071757254465
 30
0.000000000000000
 11
75.90000200000040
 21
119.6000039805950
 31
0.000000000000000
  0
LINE
  5
1B1
100
AcDbEntity
  8
A1
  6
CONTINUOUS
 62
7
100
AcDbLine
 10
74.50000000000040
 20
119.7071757254466
 30
0.000000000000000
 11
74.50000000000040
 21
119.6000039805950
 31
0.000000000000000
  0
LINE
  5
1B2
100
AcDbEntity
  8
A1
  6
CONTINUOUS
 62
7
100
AcDbLine
 10
75.90000200000040
 20
119.6000039805950
 30
0.000000000000000
 11
74.50000000000040
 21
119.6000039805950
 31
0.000000000000000
  0
LINE
  5
1B3
100
AcDbEntity
  8
A1
  6
CONTINUOUS
 62
7
100
AcDbLine
 10
74.50000000000040
 20
119.6000039805950
 30
0.000000000000000
 11
74.50000000000040
 21
118.0000020194049
 31
0.000000000000000
  0
LINE
  5
1B4
100
AcDbEntity
  8
A1
  6
CONTINUOUS
 62
7
100
AcDbLine
 10
74.50000000000040
 20
118.0000020194049
 30
0.000000000000000
 11
75.90000200000040
 21
118.0000020194048
 31
0.000000000000000
  0
LINE
  5
1B5
100
AcDbEntity
  8
A1
  6
CONTINUOUS
 62
7
100
AcDbLine
 10
75.90000200000040
 20
118.0000020194048
 30
0.000000000000000
 11
75.90000200000040
 21
119.6000039805950
 31
0.000000000000000
  0
LINE
  5
1B6
100
AcDbEntity
  8
A1
  6
CONTINUOUS
 62
7
100
AcDbLine
 10
57.50000000000040
 20
118.0000020194044
 30
0.000000000000000
 11
57.50000000000040
 21
119.6000039805948
 31
0.000000000000000
  0
LINE
  5
1B7
100
AcDbEntity
  8
A1
  6
CONTINUOUS
 62
7
100
AcDbLine
 10
56.09999800000038
 20
118.0000020194048
 30
0.000000000000000
 11
57.50000000000038
 21
118.0000020194044
 31
0.000000000000000
  0
LINE
  5
1B8
100
AcDbEntity
  8
A1
  6
CONTINUOUS
 62
7
100
AcDbLine
 10
56.09999800000040
 20
118.0000020194048
 30
0.000000000000000
 11
56.09999800000040
 21
119.6000039805950
 31
0.000000000000000
  0
LINE
  5
1B9
100
AcDbEntity
  8
A1
  6
CONTINUOUS
 62
7
100
AcDbLine
 10
57.50000000000040
 20
119.6000039805948
 30
0.000000000000000
 11
57.50000000000040
 21
119.7071757254465
 31
0.000000000000000
  0
LINE
  5
1BA
100
AcDbEntity
  8
A1
  6
CONTINUOUS
 62
7
100
AcDbLine
 10
57.50000000000039
 20
119.6000039805948
 30
0.000000000000000
 11
56.09999800000039
 21
119.6000039805950
 31
0.000000000000000
  0
LINE
  5
1BB
100
AcDbEntity
  8
A1
  6
CONTINUOUS
 62
7
100
AcDbLine
 10
56.09999800000040
 20
119.6000039805950
 30
0.000000000000000
 11
56.09999800000040
 21
119.7071757254465
 31
0.000000000000000
  0
ARC
  5
1BC
100
AcDbEntity
  8
A1
  6
CONTINUOUS
 62
7
100
AcDbCircle
 10
117.9839550000002
 20
61.20811499999999
 30
0.000000000000000
 40
6.602129000000000
100
AcDbArc
 50
270.1392447326077
 51
292.8360099999998
  0
ARC
  5
1BD
100
AcDbEntity
  8
A1
  6
CONTINUOUS
 62
7
100
AcDbCircle
 10
118.0160450000006
 20
61.20811499999999
 30
0.000000000000000
 40
6.602129000000000
100
AcDbArc
 50
247.1639900000000
 51
269.8607552673923
  0
ARC
  5
1BE
100
AcDbEntity
  8
A1
  6
CONTINUOUS
 62
7
100
AcDbCircle
 10
115.5314100000005
 20
55.30778499999997
 30
0.000000000000000
 40
0.2000000000000000
100
AcDbArc
 50
150.9079435015142
 51
247.1639658219691
  0
ARC
  5
1BF
100
AcDbEntity
  8
A1
  6
CONTINUOUS
 62
7
100
AcDbCircle
 10
120.4685900000004
 20
55.30778499999997
 30
0.000000000000000
 40
0.2000000000000000
100
AcDbArc
 50
292.8360341780309
 51
389.0920564984859
  0
ARC
  5
1C0
100
AcDbEntity
  8
A1
  6
CONTINUOUS
 62
7
100
AcDbCircle
 10
118.0000000000004
 20
74.36441799999997
 30
0.000000000000000
 40
3.366533000000000
100
AcDbArc
 50
27.13780367587834
 51
68.12948088399273
  0
ARC
  5
1C1
100
AcDbEntity
  8
A1
  6
CONTINUOUS
 62
7
100
AcDbCircle
 10
118.0000000000004
 20
74.36441799999997
 30
0.000000000000000
 40
3.366533000000000
100
AcDbArc
 50
111.8705191160072
 51
152.8621963241217
  0
LINE
  5
1C2
100
AcDbEntity
  8
A1
  6
CONTINUOUS
 62
7
100
AcDbLine
 10
118.0000000000004
 20
77.49200742269517
 30
0.000000000000000
 11
116.7459316955045
 21
77.48865504730358
 31
0.000000000000000
  0
LINE
  5
1C3
100
AcDbEntity
  8
A1
  6
CONTINUOUS
 62
7
100
AcDbLine
 10
119.2540683044964
 20
77.48865504730358
 30
0.000000000000000
 11
118.0000000000004
 21
77.49200742269517
 31
0.000000000000000
  0
LINE
  5
1C4
100
AcDbEntity
  8
A1
  6
CONTINUOUS
 62
7
100
AcDbLine
 10
120.4000000000004
 20
73.99999999999997
 30
0.000000000000000
 11
120.4000000000004
 21
74.50000199999997
 31
0.000000000000000
  0
LINE
  5
1C5
100
AcDbEntity
  8
A1
  6
CONTINUOUS
 62
7
100
AcDbLine
 10
120.4000000000004
 20
57.49999799999998
 30
0.000000000000000
 11
120.4000000000004
 21
57.99999999999997
 31
0.000000000000000
  0
LINE
  5
1C6
100
AcDbEntity
  8
A1
  6
CONTINUOUS
 62
7
100
AcDbLine
 10
115.6000000000004
 20
57.99999999999997
 30
0.000000000000000
 11
115.6000000000004
 21
57.49999799999998
 31
0.000000000000000
  0
LINE
  5
1C7
100
AcDbEntity
  8
A1
  6
CONTINUOUS
 62
7
100
AcDbLine
 10
115.6000000000004
 20
74.50000199999997
 30
0.000000000000000
 11
115.6000000000004
 21
73.99999999999997
 31
0.000000000000000
  0
LINE
  5
1C8
100
AcDbEntity
  8
A1
  6
CONTINUOUS
 62
7
100
AcDbLine
 10
115.7433056565412
 20
56.09999799999999
 30
0.000000000000000
 11
115.3566400000005
 21
55.40502899999998
 31
0.000000000000000
  0
LINE
  5
1C9
100
AcDbEntity
  8
A1
  6
CONTINUOUS
 62
7
100
AcDbLine
 10
120.6433600000003
 20
55.40502899999999
 30
0.000000000000000
 11
120.2566943434596
 21
56.09999799999996
 31
0.000000000000000
  0
LINE
  5
1CA
100
AcDbEntity
  8
A1
  6
CONTINUOUS
 62
7
100
AcDbLine
 10
119.2540683044977
 20
77.48865504730358
 30
0.000000000000000
 11
116.7459316955032
 21
77.48865504730358
 31
0.000000000000000
  0
CIRCLE
  5
1CB
100
AcDbEntity
  8
A1
  6
CONTINUOUS
 62
7
100
AcDbCircle
 10
144.0000000000002
 20
77.99999999999997
 30
0.000000000000000
 40
2.100000000000000
  0
CIRCLE
  5
1CC
100
AcDbEntity
  8
A1
  6
CONTINUOUS
 62
7
100
AcDbCircle
 10
144.0000000000002
 20
54.00000000000017
 30
0.000000000000000
 40
2.100000000000000
  0
ARC
  5
1CD
100
AcDbEntity
  8
A1
  6
CONTINUOUS
 62
7
100
AcDbCircle
 10
114.0000000000004
 20
54.00000000000017
 30
0.000000000000000
 40
2.100000000000000
100
AcDbArc
 50
180.0000000000000
 51
387.4005335940137
  0
ARC
  5
1CE
100
AcDbEntity
  8
A1
  6
CONTINUOUS
 62
7
100
AcDbCircle
 10
114.0000000000004
 20
54.00000000000017
 30
0.000000000000000
 40
2.100000000000000
100
AcDbArc
 50
47.06814046593579
 51
90.00000000000000
  0
ARC
  5
1CF
100
AcDbEntity
  8
A1
  6
CONTINUOUS
 62
7
100
AcDbCircle
 10
114.0000000000004
 20
54.00000000000017
 30
0.000000000000000
 40
2.100000000000000
100
AcDbArc
 50
90.00000000000000
 51
180.0000000000000
  0
ARC
  5
1D0
100
AcDbEntity
  8
A1
  6
CONTINUOUS
 62
7
100
AcDbCircle
 10
114.0000000000004
 20
77.99999999999997
 30
0.000000000000000
 40
2.100000000000000
100
AcDbArc
 50
180.0000000000000
 51
270.0000000000000
  0
ARC
  5
1D1
100
AcDbEntity
  8
A1
  6
CONTINUOUS
 62
7
100
AcDbCircle
 10
114.0000000000004
 20
77.99999999999997
 30
0.000000000000000
 40
2.100000000000000
100
AcDbArc
 50
270.0000000000000
 51
306.8479099986998
  0
ARC
  5
1D2
100
AcDbEntity
  8
A1
  6
CONTINUOUS
 62
7
100
AcDbCircle
 10
114.0000000000004
 20
77.99999999999997
 30
0.000000000000000
 40
2.100000000000000
100
AcDbArc
 50
328.6169731821507
 51
540.0000000000000
  0
ARC
  5
1D3
100
AcDbEntity
  8
A1
  6
CONTINUOUS
 62
7
100
AcDbCircle
 10
144.5000000000004
 20
53.49999999999997
 30
0.000000000000000
 40
3.500000000000000
100
AcDbArc
 50
270.0000000000000
 51
378.9459052728934
  0
ARC
  5
1D4
100
AcDbEntity
  8
A1
  6
CONTINUOUS
 62
7
100
AcDbCircle
 10
180.9143029941158
 20
66.00000000000009
 30
0.000000000000000
 40
35.00001899411540
100
AcDbArc
 50
161.0541052951989
 51
198.9458951775116
  0
ARC
  5
1D5
100
AcDbEntity
  8
A1
  6
CONTINUOUS
 62
7
100
AcDbCircle
 10
144.5000000000004
 20
78.49999999999997
 30
0.000000000000000
 40
3.500000000000000
100
AcDbArc
 50
341.0540900000013
 51
450.0000000000000
  0
ARC
  5
1D6
100
AcDbEntity
  8
A1
  6
CONTINUOUS
 62
7
100
AcDbCircle
 10
113.5000000000004
 20
78.49999999999997
 30
0.000000000000000
 40
3.500000000000000
100
AcDbArc
 50
90.00005000000344
 51
198.9458999999983
  0
ARC
  5
1D7
100
AcDbEntity
  8
A1
  6
CONTINUOUS
 62
7
100
AcDbCircle
 10
77.08569700588740
 20
65.99999999999989
 30
0.000000000000000
 40
35.00001899411294
100
AcDbArc
 50
341.0541022951996
 51
348.4630473141733
  0
ARC
  5
1D8
100
AcDbEntity
  8
A1
  6
CONTINUOUS
 62
7
100
AcDbCircle
 10
77.08569700588740
 20
65.99999999999989
 30
0.000000000000000
 40
35.00001899411294
100
AcDbArc
 50
11.53695268582955
 51
18.94589570480217
  0
ARC
  5
1D9
100
AcDbEntity
  8
A1
  6
CONTINUOUS
 62
7
100
AcDbCircle
 10
113.5000000000004
 20
53.49999999999997
 30
0.000000000000000
 40
3.500000000000000
100
AcDbArc
 50
161.0541199999996
 51
270.0000000000000
  0
LINE
  5
1DA
100
AcDbEntity
  8
A1
  6
CONTINUOUS
 62
7
100
AcDbLine
 10
113.4999969456740
 20
81.99999999999878
 30
0.000000000000000
 11
144.5000000000004
 21
81.99999999999997
 31
0.000000000000000
  0
LINE
  5
1DB
100
AcDbEntity
  8
A1
  6
CONTINUOUS
 62
7
100
AcDbLine
 10
144.5000000000004
 20
49.99999999999997
 30
0.000000000000000
 11
113.5000000000004
 21
49.99999999999997
 31
0.000000000000000
  0
ARC
  5
1DC
100
AcDbEntity
  8
A1
  6
CONTINUOUS
 62
7
100
AcDbCircle
 10
123.3376960000004
 20
72.99999999999997
 30
0.000000000000000
 40
1.000000000000000
100
AcDbArc
 50
1.150090000000000e-11
 51
90.00000000000006
  0
ARC
  5
1DD
100
AcDbEntity
  8
A1
  6
CONTINUOUS
 62
7
100
AcDbCircle
 10
112.6623040000004
 20
72.99999999999997
 30
0.000000000000000
 40
1.000000000000000
100
AcDbArc
 50
90.00000000000000
 51
179.9999999999885
  0
ARC
  5
1DE
100
AcDbEntity
  8
A1
  6
CONTINUOUS
 62
7
100
AcDbCircle
 10
123.3376960000004
 20
58.99999999999997
 30
0.000000000000000
 40
1.000000000000000
100
AcDbArc
 50
269.9999999999999
 51
360.0000000000000
  0
ARC
  5
1DF
100
AcDbEntity
  8
A1
  6
CONTINUOUS
 62
7
100
AcDbCircle
 10
112.6623040000004
 20
58.99999999999997
 30
0.000000000000000
 40
1.000000000000000
100
AcDbArc
 50
180.0000000000000
 51
270.0000000000000
  0
ARC
  5
1E0
100
AcDbEntity
  8
A1
  6
CONTINUOUS
 62
7
100
AcDbCircle
 10
132.4138098412019
 20
71.99999658113109
 30
0.000000000000000
 40
1.000003418870630
100
AcDbArc
 50
11.15993167805665
 51
90.00000000000000
  0
ARC
  5
1E1
100
AcDbEntity
  8
A1
  6
CONTINUOUS
 62
7
100
AcDbCircle
 10
103.5861901587989
 20
71.99999658113109
 30
0.000000000000000
 40
1.000003418870630
100
AcDbArc
 50
90.00000000000000
 51
168.8400683219434
  0
ARC
  5
1E2
100
AcDbEntity
  8
A1
  6
CONTINUOUS
 62
7
100
AcDbCircle
 10
132.4138098412019
 20
60.00000341886897
 30
0.000000000000000
 40
1.000003418870630
100
AcDbArc
 50
270.0000663940363
 51
348.8400683219426
  0
ARC
  5
1E3
100
AcDbEntity
  8
A1
  6
CONTINUOUS
 62
7
100
AcDbCircle
 10
103.5861901587989
 20
60.00000341886897
 30
0.000000000000000
 40
1.000003418870630
100
AcDbArc
 50
191.1599316780574
 51
269.9999336059633
  0
ARC
  5
1E4
100
AcDbEntity
  8
A1
  6
CONTINUOUS
 62
7
100
AcDbCircle
 10
134.0000000000004
 20
65.99999999999997
 30
0.000000000000000
 40
32.00000000000000
100
AcDbArc
 50
168.8400683219430
 51
191.1599316780579
  0
ARC
  5
1E5
100
AcDbEntity
  8
A1
  6
CONTINUOUS
 62
7
100
AcDbCircle
 10
102.0000000000004
 20
65.99999999999997
 30
0.000000000000000
 40
32.00000000000000
100
AcDbArc
 50
348.8400683219421
 51
371.1599316780570
  0
LINE
  5
1E6
100
AcDbEntity
  8
A1
  6
CONTINUOUS
 62
7
100
AcDbLine
 10
118.0000000000004
 20
73.99999999999997
 30
0.000000000000000
 11
123.3376960000004
 21
73.99999999999997
 31
0.000000000000000
  0
LINE
  5
1E7
100
AcDbEntity
  8
A1
  6
CONTINUOUS
 62
7
100
AcDbLine
 10
112.6623040000004
 20
73.99999999999997
 30
0.000000000000000
 11
118.0000000000004
 21
73.99999999999997
 31
0.000000000000000
  0
LINE
  5
1E8
100
AcDbEntity
  8
A1
  6
CONTINUOUS
 62
7
100
AcDbLine
 10
118.0000000000004
 20
57.99999999999997
 30
0.000000000000000
 11
123.3376960000004
 21
57.99999999999997
 31
0.000000000000000
  0
LINE
  5
1E9
100
AcDbEntity
  8
A1
  6
CONTINUOUS
 62
7
100
AcDbLine
 10
112.6623040000004
 20
57.99999999999997
 30
0.000000000000000
 11
118.0000000000004
 21
57.99999999999997
 31
0.000000000000000
  0
LINE
  5
1EA
100
AcDbEntity
  8
A1
  6
CONTINUOUS
 62
7
100
AcDbLine
 10
118.0000000000004
 20
73.00000000000168
 30
0.000000000000000
 11
132.4138098412019
 21
73.00000000000168
 31
0.000000000000000
  0
LINE
  5
1EB
100
AcDbEntity
  8
A1
  6
CONTINUOUS
 62
7
100
AcDbLine
 10
103.5861901587989
 20
73.00000000000168
 30
0.000000000000000
 11
118.0000000000004
 21
73.00000000000168
 31
0.000000000000000
  0
LINE
  5
1EC
100
AcDbEntity
  8
A1
  6
CONTINUOUS
 62
7
100
AcDbLine
 10
118.0000000000004
 20
58.99999999999977
 30
0.000000000000000
 11
132.4138110000004
 21
58.99999999999977
 31
0.000000000000000
  0
LINE
  5
1ED
100
AcDbEntity
  8
A1
  6
CONTINUOUS
 62
7
100
AcDbLine
 10
103.5861890000004
 20
58.99999999999977
 30
0.000000000000000
 11
118.0000000000004
 21
58.99999999999977
 31
0.000000000000000
  0
SPLINE
  5
1EE
100
AcDbEntity
  8
A1
  6
CONTINUOUS
 62
7
100
AcDbSpline
210
0.000000000000000
220
0.000000000000000
230
1.000000000000000
 70
     8
 71
     3
 72
     9
 73
     5
 74
     0
 42
1.000000000000000e-07
 43
1.000000000000000e-07
 12
0.1807672845490060
 22
-0.9835258963732940
 32
0.000000000000000
 13
0.1906413350379808
 23
-0.9816597584576812
 33
0.000000000000000
 40
0.000000000000000
 40
0.000000000000000
 40
0.000000000000000
 40
0.000000000000000
 40
0.4375555040777370
 40
0.5087460320333580
 40
0.5087460320333580
 40
0.5087460320333580
 40
0.5087460320333580
 10
115.2151374561514
 20
57.99965826988648
 30
0.000000000000000
 10
115.2415026962553
 20
57.85620921343278
 30
0.000000000000000
 10
115.2728785852727
 20
57.68955195344128
 30
0.000000000000000
 10
115.3050908606440
 20
57.52305747182379
 30
0.000000000000000
 10
115.3096148130745
 20
57.49976251299799
 30
0.000000000000000
  0
SPLINE
  5
1EF
100
AcDbEntity
  8
A1
  6
CONTINUOUS
 62
7
100
AcDbSpline
210
0.000000000000000
220
0.000000000000000
230
1.000000000000000
 70
     8
 71
     3
 72
     9
 73
     5
 74
     0
 42
1.000000000000000e-07
 43
1.000000000000000e-07
 12
-0.1906413054230143
 22
-0.9816597642079614
 32
0.000000000000000
 13
-0.1807673034089703
 23
-0.9835258929073234
 33
0.000000000000000
 40
0.000000000000000
 40
0.000000000000000
 40
0.000000000000000
 40
0.000000000000000
 40
0.07097260344068460
 40
0.5087451236489764
 40
0.5087451236489764
 40
0.5087451236489764
 40
0.5087451236489764
 10
115.3096146729559
 20
74.50023676547627
 30
0.000000000000000
 10
115.3051045696995
 20
74.47701311575668
 30
0.000000000000000
 10
115.2728919981901
 20
74.31051900002907
 30
0.000000000000000
 10
115.2415158064580
 20
74.14386210163428
 30
0.000000000000000
 10
115.2151374871298
 20
74.00034189869157
 30
0.000000000000000
  0
SPLINE
  5
1F0
100
AcDbEntity
  8
A1
  6
CONTINUOUS
 62
7
100
AcDbSpline
210
0.000000000000000
220
0.000000000000000
230
1.000000000000000
 70
     8
 71
     3
 72
    20
 73
    16
 74
     0
 42
1.000000000000000e-07
 43
1.000000000000000e-07
 12
-0.9999641802337464
 22
-0.008463938157433404
 32
0.000000000000000
 13
-0.2428499780116908
 23
0.9700638577858172
 33
0.000000000000000
 40
0.000000000000000
 40
0.000000000000000
 40
0.000000000000000
 40
0.000000000000000
 40
0.2287002021118089
 40
0.4605024966432578
 40
0.7082777848705045
 40
0.9665625340307256
 40
1.192031125530434
 40
1.428269102013635
 40
1.685674091397010
 40
1.956288767184516
 40
2.199174348964342
 40
2.451619662632529
 40
2.722740290405631
 40
3.002658029282291
 40
3.096976495864232
 40
3.096976495864232
 40
3.096976495864232
 40
3.096976495864232
 10
129.1137657366027
 20
54.15054611565688
 30
0.000000000000000
 10
129.0375350665614
 20
54.14990088086779
 30
0.000000000000000
 10
128.8836800185818
 20
54.15992054296689
 30
0.000000000000000
 10
128.6523131687076
 20
54.21117849723737
 30
0.000000000000000
 10
128.4223355674327
 20
54.30111727438259
 30
0.000000000000000
 10
128.2102578652207
 20
54.42323440046869
 30
0.000000000000000
 10
128.0191121277339
 20
54.56918176109798
 30
0.000000000000000
 10
127.8452940744399
 20
54.73490421961409
 30
0.000000000000000
 10
127.6801396085072
 20
54.92945868974127
 30
0.000000000000000
 10
127.5336324205915
 20
55.14105182534607
 30
0.000000000000000
 10
127.4067216540350
 20
55.36287031465397
 30
0.000000000000000
 10
127.2965785473425
 20
55.59364612577889
 30
0.000000000000000
 10
127.1990697322382
 20
55.84333842739238
 30
0.000000000000000
 10
127.1350320783356
 20
56.04890345645597
 30
0.000000000000000
 10
127.1033296359798
 20
56.16956072498169
 30
0.000000000000000
 10
127.0956945568013
 20
56.20005903683267
 30
0.000000000000000
  0
SPLINE
  5
1F1
100
AcDbEntity
  8
A1
  6
CONTINUOUS
 62
7
100
AcDbSpline
210
0.000000000000000
220
0.000000000000000
230
1.000000000000000
 70
     8
 71
     3
 72
    15
 73
    11
 74
     0
 42
1.000000000000000e-07
 43
1.000000000000000e-07
 12
-0.2395810684727167
 22
0.9708763626892960
 32
0.000000000000000
 13
-0.9999931855813884
 23
0.003691718988875436
 33
0.000000000000000
 40
0.000000000000000
 40
0.000000000000000
 40
0.000000000000000
 40
0.000000000000000
 40
0.3182011255524256
 40
0.6179506427318446
 40
0.8956105320460752
 40
1.152407290336059
 40
1.405455486909391
 40
1.640615156436246
 40
1.781786711281459
 40
1.920639100393544
 40
1.920639100393544
 40
1.920639100393544
 40
1.920639100393544
 10
127.0956945568013
 20
56.20005903683267
 30
0.000000000000000
 10
127.0702829015849
 20
56.30303702062599
 30
0.000000000000000
 10
127.0075767448088
 20
56.49991341711998
 30
0.000000000000000
 10
126.8829067545354
 20
56.77206104459239
 30
0.000000000000000
 10
126.7319587497738
 20
57.00678639231987
 30
0.000000000000000
 10
126.5574822822995
 20
57.20446484426699
 30
0.000000000000000
 10
126.3605958155020
 20
57.35850168275019
 30
0.000000000000000
 10
126.1697293563955
 20
57.45037605634309
 30
0.000000000000000
 10
126.0024808125889
 20
57.49223642652109
 30
0.000000000000000
 10
125.9089679113010
 20
57.49982713199947
 30
0.000000000000000
 10
125.8626840969964
 20
57.49999799999998
 30
0.000000000000000
  0
SPLINE
  5
1F2
100
AcDbEntity
  8
A1
  6
CONTINUOUS
 62
7
100
AcDbSpline
210
0.000000000000000
220
0.000000000000000
230
1.000000000000000
 70
     8
 71
     3
 72
    14
 73
    10
 74
     0
 42
1.000000000000000e-07
 43
1.000000000000000e-07
 12
0.9998819222091697
 22
-0.01536690078626179
 32
0.000000000000000
 13
0.2480586489232337
 23
-0.9687450163449967
 33
0.000000000000000
 40
0.000000000000000
 40
0.000000000000000
 40
0.000000000000000
 40
0.000000000000000
 40
0.2262885921911147
 40
0.4629457257584530
 40
0.7184781973173111
 40
0.9974811227574115
 40
1.297601790927431
 40
1.621353180815793
 40
1.853933578140016
 40
1.853933578140016
 40
1.853933578140016
 40
1.853933578140016
 10
124.9780930332251
 20
56.09999799999997
 30
0.000000000000000
 10
125.0535136574031
 20
56.09883888188489
 30
0.000000000000000
 10
125.2085201282306
 20
56.07801915741967
 30
0.000000000000000
 10
125.4304842915058
 20
55.98112549166439
 30
0.000000000000000
 10
125.6370976185062
 20
55.82493496498907
 30
0.000000000000000
 10
125.8229003110792
 20
55.61572823571578
 30
0.000000000000000
 10
125.9818009961333
 20
55.35866655176378
 30
0.000000000000000
 10
126.0955037877876
 20
55.09583133358109
 30
0.000000000000000
 10
126.1502026830604
 20
54.91834802485769
 30
0.000000000000000
 10
126.1694338761025
 20
54.84324432458857
 30
0.000000000000000
  0
SPLINE
  5
1F3
100
AcDbEntity
  8
A1
  6
CONTINUOUS
 62
7
100
AcDbSpline
210
0.000000000000000
220
0.000000000000000
230
1.000000000000000
 70
     8
 71
     3
 72
    17
 73
    13
 74
     0
 42
1.000000000000000e-07
 43
1.000000000000000e-07
 12
0.2494091934530616
 22
-0.9683981899104310
 32
0.000000000000000
 13
0.9970942265001668
 23
-0.07617810368162736
 33
0.000000000000000
 40
0.000000000000000
 40
0.000000000000000
 40
0.000000000000000
 40
0.000000000000000
 40
0.3834782151199534
 40
0.7510315079114613
 40
1.054273805116104
 40
1.344184395962427
 40
1.619015375727957
 40
1.898728797019404
 40
2.164370656173093
 40
2.416473486207431
 40
2.703391172500173
 40
2.981672039287863
 40
2.981672039287863
 40
2.981672039287863
 40
2.981672039287863
 10
126.1694338761025
 20
54.84324432458857
 30
0.000000000000000
 10
126.2013148735491
 20
54.71945778812449
 30
0.000000000000000
 10
126.2754470632487
 20
54.47990924441737
 30
0.000000000000000
 10
126.4091566281993
 20
54.15436026957727
 30
0.000000000000000
 10
126.5584793480559
 20
53.87058294303259
 30
0.000000000000000
 10
126.7161744777495
 20
53.62750304928588
 30
0.000000000000000
 10
126.8920574035365
 20
53.40709105310768
 30
0.000000000000000
 10
127.0862189770063
 20
53.21365168824627
 30
0.000000000000000
 10
127.2971657893250
 20
53.05064867300447
 30
0.000000000000000
 10
127.5306099809186
 20
52.91678140380438
 30
0.000000000000000
 10
127.7873415798746
 20
52.82099990976178
 30
0.000000000000000
 10
127.9744559054214
 20
52.78995952973497
 30
0.000000000000000
 10
128.0669466539612
 20
52.78289322682738
 30
0.000000000000000
  0
SPLINE
  5
1F4
100
AcDbEntity
  8
A1
  6
CONTINUOUS
 62
7
100
AcDbSpline
210
0.000000000000000
220
0.000000000000000
230
1.000000000000000
 70
     8
 71
     3
 72
    14
 73
    10
 74
     0
 42
1.000000000000000e-07
 43
1.000000000000000e-07
 12
0.9998796225534079
 22
0.01551581134856406
 32
0.000000000000000
 13
0.2400416488171686
 23
0.9707625903554344
 33
0.000000000000000
 40
0.000000000000000
 40
0.000000000000000
 40
0.000000000000000
 40
0.000000000000000
 40
0.2361169651475705
 40
0.4830630133773016
 40
0.7497673686269825
 40
1.041127940327481
 40
1.353032580906407
 40
1.689957004319379
 40
1.919768630759334
 40
1.919768630759334
 40
1.919768630759334
 40
1.919768630759334
 10
125.8626840969964
 20
74.50000199999997
 30
0.000000000000000
 10
125.9413802776598
 20
74.50122318209577
 30
0.000000000000000
 10
126.1031217189512
 20
74.52296924097169
 30
0.000000000000000
 10
126.3347247904421
 20
74.62413342993429
 30
0.000000000000000
 10
126.5504130475415
 20
74.78716349248407
 30
0.000000000000000
 10
126.7438191579814
 20
75.00550545615937
 30
0.000000000000000
 10
126.9083797866036
 20
75.27378948749438
 30
0.000000000000000
 10
127.0232296160242
 20
75.54428703318129
 30
0.000000000000000
 10
127.0773064362253
 20
75.72557678657517
 30
0.000000000000000
 10
127.0956945568013
 20
75.79994096316739
 30
0.000000000000000
  0
SPLINE
  5
1F5
100
AcDbEntity
  8
A1
  6
CONTINUOUS
 62
7
100
AcDbSpline
210
0.000000000000000
220
0.000000000000000
230
1.000000000000000
 70
     8
 71
     3
 72
    18
 73
    14
 74
     0
 42
1.000000000000000e-07
 43
1.000000000000000e-07
 12
0.2409395475904148
 22
0.9705401250880641
 32
0.000000000000000
 13
0.9999721928750205
 23
-0.007457444380065681
 33
0.000000000000000
 40
0.000000000000000
 40
0.000000000000000
 40
0.000000000000000
 40
0.000000000000000
 40
0.3882432995095606
 40
0.7596881199816620
 40
1.050102554927087
 40
1.327870385073842
 40
1.591439088938314
 40
1.863301144734397
 40
2.121706583290412
 40
2.367234078050088
 40
2.616162386994915
 40
2.858412403554703
 40
3.096568852336545
 40
3.096568852336545
 40
3.096568852336545
 40
3.096568852336545
 10
127.0956945568013
 20
75.79994096316739
 30
0.000000000000000
 10
127.1268756117809
 20
75.92554286332427
 30
0.000000000000000
 10
127.2003490743432
 20
76.16835978509638
 30
0.000000000000000
 10
127.3329751615526
 20
76.49291154060109
 30
0.000000000000000
 10
127.4792201962115
 20
76.77034903013799
 30
0.000000000000000
 10
127.6302923527187
 20
77.00329753597549
 30
0.000000000000000
 10
127.7992832620753
 20
77.21582647586368
 30
0.000000000000000
 10
127.9864525425384
 20
77.40378262449087
 30
0.000000000000000
 10
128.1905648342549
 20
77.56368427569737
 30
0.000000000000000
 10
128.4074621076451
 20
77.69149758369008
 30
0.000000000000000
 10
128.6361091371779
 20
77.78377474013979
 30
0.000000000000000
 10
128.8738522347024
 20
77.83903173410729
 30
0.000000000000000
 10
129.0343824611575
 20
77.85004589716669
 30
0.000000000000000
 10
129.1137657366027
 20
77.84945388434318
 30
0.000000000000000
  0
SPLINE
  5
1F6
100
AcDbEntity
  8
A1
  6
CONTINUOUS
 62
7
100
AcDbSpline
210
0.000000000000000
220
0.000000000000000
230
1.000000000000000
 70
     8
 71
     3
 72
    17
 73
    13
 74
     0
 42
1.000000000000000e-07
 43
1.000000000000000e-07
 12
-0.9970910199406262
 22
-0.07622006267808956
 32
0.000000000000000
 13
-0.2505646755002999
 23
-0.9680998623027790
 33
0.000000000000000
 40
0.000000000000000
 40
0.000000000000000
 40
0.000000000000000
 40
0.000000000000000
 40
0.2592490368928864
 40
0.5264801974033253
 40
0.8046461060010999
 40
1.099540420975850
 40
1.413974463894173
 40
1.747258171137738
 40
2.080671151809899
 40
2.432918455474338
 40
2.799891972699575
 40
2.981467217776218
 40
2.981467217776218
 40
2.981467217776218
 40
2.981467217776218
 10
128.0669466539612
 20
79.21710677317259
 30
0.000000000000000
 10
127.9807816917565
 20
79.21052011389219
 30
0.000000000000000
 10
127.8064598872728
 20
79.18259800103829
 30
0.000000000000000
 10
127.5522857934934
 20
79.09296927648549
 30
0.000000000000000
 10
127.3058363876105
 20
78.95732398418997
 30
0.000000000000000
 10
127.0715462886836
 20
78.77489981833037
 30
0.000000000000000
 10
126.8519440431810
 20
78.54895252953207
 30
0.000000000000000
 10
126.6546382844697
 20
78.28710351330159
 30
0.000000000000000
 10
126.4822535194148
 20
77.99374015405488
 30
0.000000000000000
 10
126.3347715054729
 20
77.67479561704067
 30
0.000000000000000
 10
126.2343467430941
 20
77.39135476416189
 30
0.000000000000000
 10
126.1845993235563
 20
77.21534999866319
 30
0.000000000000000
 10
126.1694338761025
 20
77.15675567541109
 30
0.000000000000000
  0
SPLINE
  5
1F7
100
AcDbEntity
  8
A1
  6
CONTINUOUS
 62
7
100
AcDbSpline
210
0.000000000000000
220
0.000000000000000
230
1.000000000000000
 70
     8
 71
     3
 72
    14
 73
    10
 74
     0
 42
1.000000000000000e-07
 43
1.000000000000000e-07
 12
-0.2473459875538992
 22
-0.9689272224692331
 32
0.000000000000000
 13
-0.9998965254831091
 23
-0.01438535105125993
 33
0.000000000000000
 40
0.000000000000000
 40
0.000000000000000
 40
0.000000000000000
 40
0.000000000000000
 40
0.3165010057417548
 40
0.6144220696629458
 40
0.8903051729858105
 40
1.144856329248994
 40
1.389997576258151
 40
1.618015691806333
 40
1.854062920825619
 40
1.854062920825619
 40
1.854062920825619
 40
1.854062920825619
 10
126.1694338761025
 20
77.15675567541109
 30
0.000000000000000
 10
126.1433387914935
 20
77.05453352861039
 30
0.000000000000000
 10
126.0793784588713
 20
76.85931035881117
 30
0.000000000000000
 10
125.9534286456509
 20
76.58969344285998
 30
0.000000000000000
 10
125.8011369845311
 20
76.35812802853479
 30
0.000000000000000
 10
125.6262957729198
 20
76.16596123137359
 30
0.000000000000000
 10
125.4303101552348
 20
76.02015767855258
 30
0.000000000000000
 10
125.2123387927554
 20
75.92268157826558
 30
0.000000000000000
 10
125.0567673012740
 20
75.90113387408468
 30
0.000000000000000
 10
124.9780930332252
 20
75.90000199999997
 30
0.000000000000000
  0
ARC
  5
1F8
100
AcDbEntity
  8
A1
  6
CONTINUOUS
 62
7
100
AcDbCircle
 10
129.0000000000004
 20
65.99999999999997
 30
0.000000000000000
 40
6.975219315122500
100
AcDbArc
 50
310.8457723575162
 51
409.1542276424839
  0
ARC
  5
1F9
100
AcDbEntity
  8
A1
  6
CONTINUOUS
 62
7
100
AcDbCircle
 10
129.0000000000004
 20
65.99999999999997
 30
0.000000000000000
 40
9.824780684877510
100
AcDbArc
 50
120.0990809528056
 51
125.4849978348460
  0
ARC
  5
1FA
100
AcDbEntity
  8
A1
  6
CONTINUOUS
 62
7
100
AcDbCircle
 10
129.0000000000004
 20
65.99999999999997
 30
0.000000000000000
 40
9.824780684877510
100
AcDbArc
 50
258.4802556363497
 51
461.5109576313534
  0
ARC
  5
1FB
100
AcDbEntity
  8
A1
  6
CONTINUOUS
 62
7
100
AcDbCircle
 10
129.0000000000004
 20
65.99999999999997
 30
0.000000000000000
 40
9.824780684877510
100
AcDbArc
 50
234.5150021651540
 51
239.9009190471943
  0
ARC
  5
1FC
100
AcDbEntity
  8
A1
  6
CONTINUOUS
 62
7
100
AcDbCircle
 10
129.0000000000004
 20
65.99999999999997
 30
0.000000000000000
 40
13.25000000000000
100
AcDbArc
 50
328.5208182616299
 51
391.4791817383700
  0
ARC
  5
1FD
100
AcDbEntity
  8
A1
  6
CONTINUOUS
 62
7
100
AcDbCircle
 10
129.0000000000004
 20
65.99999999999997
 30
0.000000000000000
 40
11.85000000000000
100
AcDbArc
 50
342.4751114878478
 51
377.5248885121522
  0
ARC
  5
1FE
100
AcDbEntity
  8
A1
  6
CONTINUOUS
 62
7
100
AcDbCircle
 10
128.9991248410751
 20
65.99915583380368
 30
0.000000000000000
 40
13.25118717842719
100
AcDbArc
 50
31.48031861004914
 51
56.45426601612326
  0
ARC
  5
1FF
100
AcDbEntity
  8
A1
  6
CONTINUOUS
 62
7
100
AcDbCircle
 10
128.9990668124615
 20
65.99935426262647
 30
0.000000000000000
 40
11.85108432399501
100
AcDbArc
 50
17.52650698090831
 51
51.83760312457764
  0
ARC
  5
200
100
AcDbEntity
  8
A1
  6
CONTINUOUS
 62
7
100
AcDbCircle
 10
128.9993137395084
 20
66.00066195737989
 30
0.000000000000000
 40
13.25093093179032
100
AcDbArc
 50
303.5454886133668
 51
328.5199267604609
  0
ARC
  5
201
100
AcDbEntity
  8
A1
  6
CONTINUOUS
 62
7
100
AcDbCircle
 10
128.9988876454396
 20
66.00076971549939
 30
0.000000000000000
 40
11.85129250949099
100
AcDbArc
 50
308.1627075788876
 51
342.4731823156264
  0
ARC
  5
202
100
AcDbEntity
  8
A1
  6
CONTINUOUS
 62
7
100
AcDbCircle
 10
129.0000000000004
 20
65.99999999999997
 30
0.000000000000000
 40
13.24999999999999
100
AcDbArc
 50
231.2906165892761
 51
265.9619395421387
  0
ARC
  5
203
100
AcDbEntity
  8
A1
  6
CONTINUOUS
 62
7
100
AcDbCircle
 10
129.0000000000004
 20
65.99999999999997
 30
0.000000000000000
 40
13.24999999999999
100
AcDbArc
 50
94.03806045786126
 51
128.6654260389790
  0
ARC
  5
204
100
AcDbEntity
  8
A1
  6
CONTINUOUS
 62
7
100
AcDbCircle
 10
119.4631004828620
 20
54.09999799999997
 30
0.000000000000000
 40
2.000000000000000
100
AcDbArc
 50
51.29061658927617
 51
62.68929539971514
  0
ARC
  5
205
100
AcDbEntity
  8
A1
  6
CONTINUOUS
 62
7
100
AcDbCircle
 10
129.0000000000004
 20
65.99999999999997
 30
0.000000000000000
 40
13.24999999999999
100
AcDbArc
 50
265.9619395421387
 51
303.5445971121974
  0
ARC
  5
206
100
AcDbEntity
  8
A1
  6
CONTINUOUS
 62
7
100
AcDbCircle
 10
129.0000000000004
 20
65.99999999999997
 30
0.000000000000000
 40
11.85000000000001
100
AcDbArc
 50
270.5500756705313
 51
308.1607784066662
  0
ARC
  5
207
100
AcDbEntity
  8
A1
  6
CONTINUOUS
 62
7
100
AcDbCircle
 10
129.0000000000004
 20
65.99999999999997
 30
0.000000000000000
 40
11.85000000000001
100
AcDbArc
 50
51.83922159333379
 51
89.44992432946874
  0
ARC
  5
208
100
AcDbEntity
  8
A1
  6
CONTINUOUS
 62
7
100
AcDbCircle
 10
129.0000000000004
 20
65.99999999999997
 30
0.000000000000000
 40
13.24999999999999
100
AcDbArc
 50
56.45540288780254
 51
94.03806045786126
  0
LINE
  5
209
100
AcDbEntity
  8
A1
  6
CONTINUOUS
 62
7
100
AcDbLine
 10
125.8626840969964
 20
57.49999799999998
 30
0.000000000000000
 11
122.8760570000003
 21
57.49999799999998
 31
0.000000000000000
  0
LINE
  5
20A
100
AcDbEntity
  8
A1
  6
CONTINUOUS
 62
7
100
AcDbLine
 10
124.9780930332251
 20
56.09999799999997
 30
0.000000000000000
 11
122.8760570000003
 21
56.09999799999997
 31
0.000000000000000
  0
LINE
  5
20B
100
AcDbEntity
  8
A1
  6
CONTINUOUS
 62
7
100
AcDbLine
 10
122.8760570000003
 20
75.90000199999997
 30
0.000000000000000
 11
124.9780930332252
 21
75.90000199999997
 31
0.000000000000000
  0
LINE
  5
20C
100
AcDbEntity
  8
A1
  6
CONTINUOUS
 62
7
100
AcDbLine
 10
122.8760570000003
 20
74.50000199999997
 30
0.000000000000000
 11
125.8626840969964
 21
74.50000199999997
 31
0.000000000000000
  0
LINE
  5
20D
100
AcDbEntity
  8
A1
  6
CONTINUOUS
 62
7
100
AcDbLine
 10
118.0000000000004
 20
57.49999799999998
 30
0.000000000000000
 11
113.0584930000005
 21
57.49999799999998
 31
0.000000000000000
  0
LINE
  5
20E
100
AcDbEntity
  8
A1
  6
CONTINUOUS
 62
7
100
AcDbLine
 10
118.0000000000004
 20
56.09999799999997
 30
0.000000000000000
 11
113.0584930000004
 21
56.09999799999997
 31
0.000000000000000
  0
LINE
  5
20F
100
AcDbEntity
  8
A1
  6
CONTINUOUS
 62
7
100
AcDbLine
 10
113.0584930000004
 20
56.09999799999997
 30
0.000000000000000
 11
113.0584930000004
 21
57.49999999999997
 31
0.000000000000000
  0
LINE
  5
210
100
AcDbEntity
  8
A1
  6
CONTINUOUS
 62
7
100
AcDbLine
 10
113.0584930000004
 20
75.90000199999997
 30
0.000000000000000
 11
118.0000000000004
 21
75.90000199999997
 31
0.000000000000000
  0
LINE
  5
211
100
AcDbEntity
  8
A1
  6
CONTINUOUS
 62
7
100
AcDbLine
 10
113.0584930000004
 20
74.50000199999997
 30
0.000000000000000
 11
118.0000000000004
 21
74.50000199999997
 31
0.000000000000000
  0
LINE
  5
212
100
AcDbEntity
  8
A1
  6
CONTINUOUS
 62
7
100
AcDbLine
 10
113.0584930000004
 20
74.49999999999997
 30
0.000000000000000
 11
113.0584930000004
 21
75.90000199999997
 31
0.000000000000000
  0
LINE
  5
213
100
AcDbEntity
  8
A1
  6
CONTINUOUS
 62
7
100
AcDbLine
 10
118.0000000000004
 20
75.90000199999997
 30
0.000000000000000
 11
122.8760570000003
 21
75.90000199999997
 31
0.000000000000000
  0
LINE
  5
214
100
AcDbEntity
  8
A1
  6
CONTINUOUS
 62
7
100
AcDbLine
 10
118.0000000000004
 20
74.50000199999997
 30
0.000000000000000
 11
122.8760570000003
 21
74.50000199999997
 31
0.000000000000000
  0
LINE
  5
215
100
AcDbEntity
  8
A1
  6
CONTINUOUS
 62
7
100
AcDbLine
 10
122.8760570000003
 20
57.49999799999998
 30
0.000000000000000
 11
118.0000000000004
 21
57.49999799999998
 31
0.000000000000000
  0
LINE
  5
216
100
AcDbEntity
  8
A1
  6
CONTINUOUS
 62
7
100
AcDbLine
 10
122.8760570000003
 20
56.09999799999997
 30
0.000000000000000
 11
118.0000000000004
 21
56.09999799999997
 31
0.000000000000000
  0
CIRCLE
  5
217
100
AcDbEntity
  8
A1
  6
CONTINUOUS
 62
7
100
AcDbCircle
 10
250.0000000000005
 20
118.0000000000000
 30
0.000000000000000
 40
2.668589999999921
  0
ARC
  5
218
100
AcDbEntity
  8
A1
  6
CONTINUOUS
 62
7
100
AcDbCircle
 10
247.4000190000007
 20
140.3844999999999
 30
0.000000000000000
 40
1.800000000000000
100
AcDbArc
 50
334.1616679684519
 51
357.3092606895740
  0
ARC
  5
219
100
AcDbEntity
  8
A1
  6
CONTINUOUS
 62
7
100
AcDbCircle
 10
230.5999810000002
 20
140.3844999999999
 30
0.000000000000000
 40
1.800000000000000
100
AcDbArc
 50
182.6907393104261
 51
205.8383320315481
  0
ARC
  5
21A
100
AcDbEntity
  8
A1
  6
CONTINUOUS
 62
7
100
AcDbCircle
 10
246.2746298462726
 20
140.3844999999999
 30
0.000000000000000
 40
1.800000000000000
100
AcDbArc
 50
334.1616679684519
 51
357.3092606895740
  0
ARC
  5
21B
100
AcDbEntity
  8
A1
  6
CONTINUOUS
 62
7
100
AcDbCircle
 10
231.7253701537282
 20
140.3844999999999
 30
0.000000000000000
 40
1.800000000000000
100
AcDbArc
 50
182.6907393104261
 51
205.8383320315481
  0
ARC
  5
21C
100
AcDbEntity
  8
A1
  6
CONTINUOUS
 62
7
100
AcDbCircle
 10
243.2000095000005
 20
140.3844999999999
 30
0.000000000000000
 40
1.800000000000000
100
AcDbArc
 50
334.1616679684519
 51
357.3092606895740
  0
ARC
  5
21D
100
AcDbEntity
  8
A1
  6
CONTINUOUS
 62
7
100
AcDbCircle
 10
243.2000095000005
 20
140.3844999999999
 30
0.000000000000000
 40
1.800000000000000
100
AcDbArc
 50
182.6907393104261
 51
205.8383320315481
  0
ARC
  5
21E
100
AcDbEntity
  8
A1
  6
CONTINUOUS
 62
7
100
AcDbCircle
 10
234.7999905000003
 20
140.3844999999999
 30
0.000000000000000
 40
1.800000000000000
100
AcDbArc
 50
334.1616679684519
 51
357.3092606895740
  0
ARC
  5
21F
100
AcDbEntity
  8
A1
  6
CONTINUOUS
 62
7
100
AcDbCircle
 10
234.7999905000003
 20
140.3844999999999
 30
0.000000000000000
 40
1.800000000000000
100
AcDbArc
 50
182.6907393104261
 51
205.8383320315481
  0
ARC
  5
220
100
AcDbEntity
  8
A1
  6
CONTINUOUS
 62
7
100
AcDbCircle
 10
239.0000000000005
 20
140.3844999999999
 30
0.000000000000000
 40
1.800000000000000
100
AcDbArc
 50
334.1616679684519
 51
357.3092606895740
  0
ARC
  5
221
100
AcDbEntity
  8
A1
  6
CONTINUOUS
 62
7
100
AcDbCircle
 10
239.0000000000005
 20
140.3844999999999
 30
0.000000000000000
 40
1.800000000000000
100
AcDbArc
 50
182.6907393104261
 51
205.8383320315481
  0
ARC
  5
222
100
AcDbEntity
  8
A1
  6
CONTINUOUS
 62
7
100
AcDbCircle
 10
250.9128045141465
 20
142.2999990000000
 30
0.000000000000000
 40
2.000000000000000
100
AcDbArc
 50
270.0000000000000
 51
328.6713181962052
  0
ARC
  5
223
100
AcDbEntity
  8
A1
  6
CONTINUOUS
 62
7
100
AcDbCircle
 10
227.0871954858544
 20
142.2999990000000
 30
0.000000000000000
 40
2.000000000000000
100
AcDbArc
 50
211.3286818037949
 51
270.0000000000000
  0
ARC
  5
224
100
AcDbEntity
  8
A1
  6
CONTINUOUS
 62
7
100
AcDbCircle
 10
224.2822142947963
 20
142.1000000000000
 30
0.000000000000000
 40
0.5000000000000000
100
AcDbArc
 50
31.32868180379440
 51
90.00000000000000
  0
ARC
  5
225
100
AcDbEntity
  8
A1
  6
CONTINUOUS
 62
7
100
AcDbCircle
 10
253.7177857052045
 20
142.1000000000000
 30
0.000000000000000
 40
0.5000000000000000
100
AcDbArc
 50
90.00000000000000
 51
148.6713181962056
  0
LINE
  5
226
100
AcDbEntity
  8
A1
  6
CONTINUOUS
 62
7
100
AcDbLine
 10
250.9128045141465
 20
140.2999990000000
 30
0.000000000000000
 11
227.0871954858544
 21
140.2999990000000
 31
0.000000000000000
  0
LINE
  5
227
100
AcDbEntity
  8
A1
  6
CONTINUOUS
 62
7
100
AcDbLine
 10
252.6212018261824
 20
141.2601054361058
 30
0.000000000000000
 11
253.2906863771955
 21
142.3599733909736
 31
0.000000000000000
  0
LINE
  5
228
100
AcDbEntity
  8
A1
  6
CONTINUOUS
 62
7
100
AcDbLine
 10
224.7093136228054
 20
142.3599733909736
 30
0.000000000000000
 11
225.3787981738186
 21
141.2601054361058
 31
0.000000000000000
  0
LINE
  5
229
100
AcDbEntity
  8
A1
  6
CONTINUOUS
 62
7
100
AcDbLine
 10
220.0000000000004
 20
144.0000000000000
 30
0.000000000000000
 11
220.0000000000004
 21
142.6000000000001
 31
0.000000000000000
  0
LINE
  5
22A
100
AcDbEntity
  8
A1
  6
CONTINUOUS
 62
7
100
AcDbLine
 10
220.0000000000004
 20
142.6000000000001
 30
0.000000000000000
 11
223.5000000000004
 21
142.6000000000001
 31
0.000000000000000
  0
LINE
  5
22B
100
AcDbEntity
  8
A1
  6
CONTINUOUS
 62
7
100
AcDbLine
 10
220.0000000000004
 20
144.0000000000000
 30
0.000000000000000
 11
223.5000000000004
 21
144.0000000000000
 31
0.000000000000000
  0
LINE
  5
22C
100
AcDbEntity
  8
A1
  6
CONTINUOUS
 62
7
100
AcDbLine
 10
254.5000000000005
 20
144.0000000000000
 30
0.000000000000000
 11
258.0000000000005
 21
144.0000000000000
 31
0.000000000000000
  0
LINE
  5
22D
100
AcDbEntity
  8
A1
  6
CONTINUOUS
 62
7
100
AcDbLine
 10
254.5000000000005
 20
142.6000000000001
 30
0.000000000000000
 11
258.0000000000005
 21
142.6000000000001
 31
0.000000000000000
  0
LINE
  5
22E
100
AcDbEntity
  8
A1
  6
CONTINUOUS
 62
7
100
AcDbLine
 10
258.0000000000005
 20
142.6000000000001
 30
0.000000000000000
 11
258.0000000000005
 21
144.0000000000000
 31
0.000000000000000
  0
LINE
  5
22F
100
AcDbEntity
  8
A1
  6
CONTINUOUS
 62
7
100
AcDbLine
 10
223.5000000000004
 20
142.6000000000000
 30
0.000000000000000
 11
254.5000000000004
 21
142.6000000000001
 31
0.000000000000000
  0
LINE
  5
230
100
AcDbEntity
  8
A1
  6
CONTINUOUS
 62
7
100
AcDbLine
 10
223.5000000000004
 20
144.0000000000000
 30
0.000000000000000
 11
254.5000000000005
 21
144.0000000000000
 31
0.000000000000000
  0
ARC
  5
231
100
AcDbEntity
  8
A1
  6
CONTINUOUS
 62
7
100
AcDbCircle
 10
250.0000000000005
 20
118.0000000000000
 30
0.000000000000000
 40
16.00000000000000
100
AcDbArc
 50
147.0585242309586
 51
440.7597766085060
  0
ARC
  5
232
100
AcDbEntity
  8
A1
  6
CONTINUOUS
 62
7
100
AcDbCircle
 10
250.0000000000005
 20
118.0000000000000
 30
0.000000000000000
 40
10.00000000000000
100
AcDbArc
 50
270.0000000000000
 51
428.5711449395481
  0
ARC
  5
233
100
AcDbEntity
  8
A1
  6
CONTINUOUS
 62
7
100
AcDbCircle
 10
250.0000000000005
 20
118.0000000000000
 30
0.000000000000000
 40
10.00000000000000
100
AcDbArc
 50
160.0935458524682
 51
270.0000000000000
  0
ARC
  5
234
100
AcDbEntity
  8
A1
  6
CONTINUOUS
 62
7
100
AcDbCircle
 10
250.0000000000005
 20
118.0000000000000
 30
0.000000000000000
 40
11.00000000000000
100
AcDbArc
 50
270.0000000000000
 51
431.6434302310219
  0
ARC
  5
235
100
AcDbEntity
  8
A1
  6
CONTINUOUS
 62
7
100
AcDbCircle
 10
250.0000000000005
 20
118.0000000000000
 30
0.000000000000000
 40
11.00000000000000
100
AcDbArc
 50
156.7629999207013
 51
270.0000000000000
  0
ARC
  5
236
100
AcDbEntity
  8
A1
  6
CONTINUOUS
 62
7
100
AcDbCircle
 10
250.0000000000005
 20
118.0000000000000
 30
0.000000000000000
 40
6.337696000000000
100
AcDbArc
 50
185.9473373294995
 51
270.0000000000000
  0
ARC
  5
237
100
AcDbEntity
  8
A1
  6
CONTINUOUS
 62
7
100
AcDbCircle
 10
250.0000000000005
 20
118.0000000000000
 30
0.000000000000000
 40
6.337696000000000
100
AcDbArc
 50
270.0000000000000
 51
405.3165451922034
  0
SPLINE
  5
238
100
AcDbEntity
  8
A1
  6
CONTINUOUS
 62
7
100
AcDbSpline
210
0.000000000000000
220
0.000000000000000
230
1.000000000000000
 70
     8
 71
     3
 72
    11
 73
     7
 74
     0
 42
1.000000000000000e-07
 43
1.000000000000000e-07
 12
0.8461842882170458
 22
-0.5328903736924531
 32
0.000000000000000
 13
0.4130059454910224
 23
-0.9107283288558392
 33
0.000000000000000
 40
0.000000000000000
 40
0.000000000000000
 40
0.000000000000000
 40
0.000000000000000
 40
0.2188747543351497
 40
0.4453328129475168
 40
0.6674753359379799
 40
0.7055024811413512
 40
0.7055024811413512
 40
0.7055024811413512
 40
0.7055024811413512
 10
251.1827099305564
 20
139.4206878544305
 30
0.000000000000000
 10
251.2444460566250
 20
139.3818091045540
 30
0.000000000000000
 10
251.3632322343543
 20
139.2910668230324
 30
0.000000000000000
 10
251.5114091120879
 20
139.1233394408449
 30
0.000000000000000
 10
251.5952737860198
 20
138.9833849254992
 30
0.000000000000000
 10
251.6322671473174
 20
138.9049487302413
 30
0.000000000000000
 10
251.6375022930038
 20
138.8934045974406
 30
0.000000000000000
  0
SPLINE
  5
239
100
AcDbEntity
  8
A1
  6
CONTINUOUS
 62
7
100
AcDbSpline
210
0.000000000000000
220
0.000000000000000
230
1.000000000000000
 70
     8
 71
     3
 72
    20
 73
    16
 74
     0
 42
1.000000000000000e-07
 43
1.000000000000000e-07
 12
-0.6631323007113679
 22
0.7485022055770969
 32
0.000000000000000
 13
-0.4116972318006447
 23
0.9113206841284409
 33
0.000000000000000
 40
0.000000000000000
 40
0.000000000000000
 40
0.000000000000000
 40
0.000000000000000
 40
0.08582254180646449
 40
0.3629903752933763
 40
0.6271921621431849
 40
0.8774996009955570
 40
1.113080584500582
 40
1.333191850848679
 40
1.516165618263624
 40
1.697040440252240
 40
1.834114771128984
 40
1.948140591086333
 40
2.039983307522784
 40
2.110747377817343
 40
2.117216326865496
 40
2.117216326865496
 40
2.117216326865496
 40
2.117216326865496
 10
252.8604729585727
 20
137.1733322644387
 30
0.000000000000000
 10
252.8415023920390
 20
137.1947450517155
 30
0.000000000000000
 10
252.7615622135615
 20
137.2855740129487
 30
0.000000000000000
 10
252.6255460678557
 20
137.4443657843755
 30
0.000000000000000
 10
252.4582759218561
 20
137.6485006623838
 30
0.000000000000000
 10
252.3042262228437
 20
137.8454654410499
 30
0.000000000000000
 10
252.1636941837075
 20
138.0342600064996
 30
0.000000000000000
 10
252.0408910812194
 20
138.2081893866839
 30
0.000000000000000
 10
251.9327035014030
 20
138.3700318102462
 30
0.000000000000000
 10
251.8437198726165
 20
138.5113500605815
 30
0.000000000000000
 10
251.7704631665099
 20
138.6353335054702
 30
0.000000000000000
 10
251.7150338300664
 20
138.7353283505492
 30
0.000000000000000
 10
251.6726799556853
 20
138.8172505740804
 30
0.000000000000000
 10
251.6483175306611
 20
138.8680844213285
 30
0.000000000000000
 10
251.6376893964938
 20
138.8915325659424
 30
0.000000000000000
 10
251.6368016470219
 20
138.8934976616331
 30
0.000000000000000
  0
SPLINE
  5
23A
100
AcDbEntity
  8
A1
  6
CONTINUOUS
 62
7
100
AcDbSpline
210
0.000000000000000
220
0.000000000000000
230
1.000000000000000
 70
     8
 71
     3
 72
    12
 73
     8
 74
     0
 42
1.000000000000000e-07
 43
1.000000000000000e-07
 12
-0.8426404732335868
 22
0.5384765852554665
 32
0.000000000000000
 13
-0.9999882623887970
 23
0.004845108262088615
 33
0.000000000000000
 40
0.000000000000000
 40
0.000000000000000
 40
0.000000000000000
 40
0.000000000000000
 40
0.1518026088960132
 40
0.2897786332086917
 40
0.4030030505027112
 40
0.5013025822232167
 40
0.5287533063460496
 40
0.5287533063460496
 40
0.5287533063460496
 40
0.5287533063460496
 10
251.1827099305564
 20
139.4206878544305
 30
0.000000000000000
 10
251.1400715898236
 20
139.4479352379209
 30
0.000000000000000
 10
251.0558149853097
 20
139.4955091769038
 30
0.000000000000000
 10
250.9332311188394
 20
139.5510668953077
 30
0.000000000000000
 10
250.8217717017580
 20
139.5859361253990
 30
0.000000000000000
 10
250.7427031521794
 20
139.5987453563321
 30
0.000000000000000
 10
250.7007808655557
 20
139.5999556660898
 30
0.000000000000000
 10
250.6916307315834
 20
139.5999999999999
 30
0.000000000000000
  0
ARC
  5
23B
100
AcDbEntity
  8
A1
  6
CONTINUOUS
 62
7
100
AcDbCircle
 10
250.7500000000005
 20
138.0999999999999
 30
0.000000000000000
 40
1.500000000000000
100
AcDbArc
 50
0.000000000000000
 51
90.00000000000000
  0
ARC
  5
23C
100
AcDbEntity
  8
A1
  6
CONTINUOUS
 62
7
100
AcDbCircle
 10
249.5000010660297
 20
118.8000100361460
 30
0.000000000000000
 40
5.500006910099311
100
AcDbArc
 50
217.2836928147682
 51
275.2158908476966
  0
ARC
  5
23D
100
AcDbEntity
  8
A1
  6
CONTINUOUS
 62
7
100
AcDbCircle
 10
249.5000000000006
 20
118.8000029999999
 30
0.000000000000000
 40
5.500000000000000
100
AcDbArc
 50
275.2159085704519
 51
351.6363878858998
  0
ARC
  5
23E
100
AcDbEntity
  8
A1
  6
CONTINUOUS
 62
7
100
AcDbCircle
 10
249.5000000000006
 20
118.8000029999999
 30
0.000000000000000
 40
5.500000000000000
100
AcDbArc
 50
8.363612114100258
 51
9.493777751799078
  0
ARC
  5
23F
100
AcDbEntity
  8
A1
  6
CONTINUOUS
 62
7
100
AcDbCircle
 10
253.2444744270595
 20
135.8171150682254
 30
0.000000000000000
 40
1.000000000000046
100
AcDbArc
 50
150.6423042630003
 51
189.4937864727547
  0
ARC
  5
240
100
AcDbEntity
  8
A1
  6
CONTINUOUS
 62
7
100
AcDbCircle
 10
227.2500000000004
 20
138.0999999999999
 30
0.000000000000000
 40
1.500000000000000
100
AcDbArc
 50
90.00000000000000
 51
180.0000000000000
  0
ARC
  5
241
100
AcDbEntity
  8
A1
  6
CONTINUOUS
 62
7
100
AcDbCircle
 10
227.6999261930520
 20
130.0998451343273
 30
0.000000000000000
 40
5.000154866263644
100
AcDbArc
 50
37.28448765462668
 51
89.99911900357939
  0
LINE
  5
242
100
AcDbEntity
  8
A1
  6
CONTINUOUS
 62
7
100
AcDbLine
 10
252.2500000000005
 20
137.9199060536449
 30
0.000000000000000
 11
252.2500000000005
 21
138.1000000000000
 31
0.000000000000000
  0
LINE
  5
243
100
AcDbEntity
  8
A1
  6
CONTINUOUS
 62
7
100
AcDbLine
 10
252.8055491168401
 20
137.0765340828662
 30
0.000000000000000
 11
252.8602070696264
 21
137.1737040061372
 31
0.000000000000000
  0
LINE
  5
244
100
AcDbEntity
  8
A1
  6
CONTINUOUS
 62
7
100
AcDbLine
 10
250.6916307315833
 20
139.5999999999999
 30
0.000000000000000
 11
249.1954976167264
 21
139.5999999999999
 31
0.000000000000000
  0
LINE
  5
245
100
AcDbEntity
  8
A1
  6
CONTINUOUS
 62
7
100
AcDbLine
 10
252.5969576974926
 20
136.7057040173452
 30
0.000000000000000
 11
252.8055491168400
 21
137.0765340828662
 31
0.000000000000000
  0
LINE
  5
246
100
AcDbEntity
  8
A1
  6
CONTINUOUS
 62
7
100
AcDbLine
 10
243.0219069667758
 20
118.2292696305988
 30
0.000000000000000
 11
245.1239430000006
 21
115.4683149999999
 31
0.000000000000000
  0
LINE
  5
247
100
AcDbEntity
  8
A1
  6
CONTINUOUS
 62
7
100
AcDbLine
 10
254.9246710000006
 20
119.7071759999999
 30
0.000000000000000
 11
252.3455924030841
 21
135.1294160593544
 31
0.000000000000000
  0
LINE
  5
248
100
AcDbEntity
  8
A1
  6
CONTINUOUS
 62
7
100
AcDbLine
 10
254.9415070000005
 20
118.0000020194048
 30
0.000000000000000
 11
254.9415070000005
 21
119.6000039805950
 31
0.000000000000000
  0
LINE
  5
249
100
AcDbEntity
  8
A1
  6
CONTINUOUS
 62
7
100
AcDbLine
 10
252.3455924030841
 20
135.1294160593544
 30
0.000000000000000
 11
252.2581709324853
 21
135.6521744225650
 31
0.000000000000000
  0
LINE
  5
24A
100
AcDbEntity
  8
A1
  6
CONTINUOUS
 62
7
100
AcDbLine
 10
252.3728983953101
 20
136.3073754285239
 30
0.000000000000000
 11
252.5969576974926
 21
136.7057040173451
 31
0.000000000000000
  0
LINE
  5
24B
100
AcDbEntity
  8
A1
  6
CONTINUOUS
 62
7
100
AcDbLine
 10
249.1954976167264
 20
139.5999999999999
 30
0.000000000000000
 11
246.3481029066481
 21
139.5999999999999
 31
0.000000000000000
  0
LINE
  5
24C
100
AcDbEntity
  8
A1
  6
CONTINUOUS
 62
7
100
AcDbLine
 10
243.0219069667757
 20
118.2292696305988
 30
0.000000000000000
 11
241.8305661238983
 21
119.7940563253908
 31
0.000000000000000
  0
LINE
  5
24D
100
AcDbEntity
  8
A1
  6
CONTINUOUS
 62
7
100
AcDbLine
 10
227.2500000000004
 20
139.5999999999999
 30
0.000000000000000
 11
246.3481029066481
 21
139.5999999999999
 31
0.000000000000000
  0
LINE
  5
24E
100
AcDbEntity
  8
A1
  6
CONTINUOUS
 62
7
100
AcDbLine
 10
239.9330533460396
 20
122.2863764416223
 30
0.000000000000000
 11
231.6782370000004
 21
133.1288039999999
 31
0.000000000000000
  0
LINE
  5
24F
100
AcDbEntity
  8
A1
  6
CONTINUOUS
 62
7
100
AcDbLine
 10
227.7000030768744
 20
135.0999999999998
 30
0.000000000000000
 11
225.7500000000004
 21
135.0999999999998
 31
0.000000000000000
  0
LINE
  5
250
100
AcDbEntity
  8
A1
  6
CONTINUOUS
 62
7
100
AcDbLine
 10
225.7500000000004
 20
138.1000000000000
 30
0.000000000000000
 11
225.7500000000004
 21
135.0999999999998
 31
0.000000000000000
  0
LINE
  5
251
100
AcDbEntity
  8
A1
  6
CONTINUOUS
 62
7
100
AcDbLine
 10
241.8305661238983
 20
119.7940563253907
 30
0.000000000000000
 11
239.9330533460396
 21
122.2863764416222
 31
0.000000000000000
  0
LINE
  5
252
100
AcDbEntity
  8
A4
  6
CENTER
 62
1
100
AcDbLine
 10
66.00000000000115
 20
100.5000000000000
 30
0.000000000000000
 11
66.00000000000115
 21
133.9138110000000
 31
0.000000000000000
  0
LINE
  5
253
100
AcDbEntity
  8
A4
  6
CENTER
 62
1
100
AcDbLine
 10
53.10600188732318
 20
118.0000000000000
 30
0.000000000000000
 11
59.50000000000040
 21
118.0000000000000
 31
0.000000000000000
  0
LINE
  5
254
100
AcDbEntity
  8
A4
  6
CENTER
 62
1
100
AcDbLine
 10
59.50000000000040
 20
118.0000000000000
 30
0.000000000000000
 11
78.99200206322564
 21
118.0000000000000
 31
0.000000000000000
  0
LINE
  5
255
100
AcDbEntity
  8
A4
  6
CENTER
 62
1
100
AcDbLine
 10
117.6000000000004
 20
168.0000000000000
 30
0.000000000000000
 11
110.4000000000004
 21
168.0000000000000
 31
0.000000000000000
  0
LINE
  5
256
100
AcDbEntity
  8
A4
  6
CENTER
 62
1
100
AcDbLine
 10
114.0000000000004
 20
171.6000000000000
 30
0.000000000000000
 11
114.0000000000004
 21
164.4000000000000
 31
0.000000000000000
  0
LINE
  5
257
100
AcDbEntity
  8
A4
  6
CENTER
 62
1
100
AcDbLine
 10
147.6000000000002
 20
168.0000000000000
 30
0.000000000000000
 11
140.4000000000002
 21
168.0000000000000
 31
0.000000000000000
  0
LINE
  5
258
100
AcDbEntity
  8
A4
  6
CENTER
 62
1
100
AcDbLine
 10
144.0000000000002
 20
171.6000000000000
 30
0.000000000000000
 11
144.0000000000002
 21
164.4000000000000
 31
0.000000000000000
  0
LINE
  5
259
100
AcDbEntity
  8
A4
  6
CENTER
 62
1
100
AcDbLine
 10
147.6000000000002
 20
191.9999999999999
 30
0.000000000000000
 11
140.4000000000002
 21
191.9999999999999
 31
0.000000000000000
  0
LINE
  5
25A
100
AcDbEntity
  8
A4
  6
CENTER
 62
1
100
AcDbLine
 10
144.0000000000002
 20
195.5999999999999
 30
0.000000000000000
 11
144.0000000000002
 21
188.3999999999999
 31
0.000000000000000
  0
LINE
  5
25B
100
AcDbEntity
  8
A4
  6
CENTER
 62
1
100
AcDbLine
 10
117.6000000000004
 20
191.9999999999998
 30
0.000000000000000
 11
110.4000000000004
 21
191.9999999999998
 31
0.000000000000000
  0
LINE
  5
25C
100
AcDbEntity
  8
A4
  6
CENTER
 62
1
100
AcDbLine
 10
114.0000000000004
 20
195.5999999999998
 30
0.000000000000000
 11
114.0000000000004
 21
188.3999999999998
 31
0.000000000000000
  0
LINE
  5
25D
100
AcDbEntity
  8
A4
  6
CENTER
 62
1
100
AcDbLine
 10
147.4142840000004
 20
180.0000000000000
 30
0.000000000000000
 11
100.5000000000004
 21
180.0000000000000
 31
0.000000000000000
  0
LINE
  5
25E
100
AcDbEntity
  8
A4
  6
CENTER
 62
1
100
AcDbLine
 10
129.0000000000004
 20
197.5000000000000
 30
0.000000000000000
 11
129.0000000000004
 21
162.5000000000007
 31
0.000000000000000
  0
LINE
  5
25F
100
AcDbEntity
  8
A2
  6
DASHED
 62
2
100
AcDbLine
 10
75.89999999999981
 20
142.6000000000001
 30
0.000000000000000
 11
75.89999999999981
 21
144.0000000000000
 31
0.000000000000000
  0
LINE
  5
260
100
AcDbEntity
  8
A2
  6
DASHED
 62
2
100
AcDbLine
 10
80.09999999999980
 20
142.6000000000001
 30
0.000000000000000
 11
80.09999999999980
 21
144.0000000000000
 31
0.000000000000000
  0
LINE
  5
261
100
AcDbEntity
  8
A4
  6
CENTER
 62
1
100
AcDbLine
 10
77.99999999999980
 20
141.1000000000001
 30
0.000000000000000
 11
77.99999999999980
 21
145.5000000000000
 31
0.000000000000000
  0
LINE
  5
262
100
AcDbEntity
  8
A2
  6
DASHED
 62
2
100
AcDbLine
 10
56.09999999999994
 20
142.6000000000001
 30
0.000000000000000
 11
56.09999999999994
 21
144.0000000000000
 31
0.000000000000000
  0
LINE
  5
263
100
AcDbEntity
  8
A2
  6
DASHED
 62
2
100
AcDbLine
 10
51.89999999999995
 20
142.6000000000001
 30
0.000000000000000
 11
51.89999999999995
 21
144.0000000000000
 31
0.000000000000000
  0
LINE
  5
264
100
AcDbEntity
  8
A4
  6
CENTER
 62
1
100
AcDbLine
 10
53.99999999999994
 20
141.1000000000001
 30
0.000000000000000
 11
53.99999999999994
 21
145.5000000000000
 31
0.000000000000000
  0
LINE
  5
265
100
AcDbEntity
  8
A4
  6
CENTER
 62
1
100
AcDbLine
 10
129.0000000000004
 20
121.7170825763961
 30
0.000000000000000
 11
129.0000000000004
 21
145.5000000000000
 31
0.000000000000000
  0
LINE
  5
266
100
AcDbEntity
  8
A2
  6
DASHED
 62
2
100
AcDbLine
 10
111.9000000000004
 20
142.6000000000001
 30
0.000000000000000
 11
111.9000000000004
 21
144.0000000000000
 31
0.000000000000000
  0
LINE
  5
267
100
AcDbEntity
  8
A4
  6
CENTER
 62
1
100
AcDbLine
 10
114.0000000000004
 20
141.1000000000001
 30
0.000000000000000
 11
114.0000000000004
 21
145.5000000000000
 31
0.000000000000000
  0
LINE
  5
268
100
AcDbEntity
  8
A2
  6
DASHED
 62
2
100
AcDbLine
 10
116.1000000000004
 20
142.6000000000001
 30
0.000000000000000
 11
116.1000000000004
 21
144.0000000000000
 31
0.000000000000000
  0
LINE
  5
269
100
AcDbEntity
  8
A2
  6
DASHED
 62
2
100
AcDbLine
 10
141.9000000000002
 20
142.6000000000001
 30
0.000000000000000
 11
141.9000000000002
 21
144.0000000000000
 31
0.000000000000000
  0
LINE
  5
26A
100
AcDbEntity
  8
A4
  6
CENTER
 62
1
100
AcDbLine
 10
144.0000000000002
 20
141.1000000000001
 30
0.000000000000000
 11
144.0000000000002
 21
145.5000000000000
 31
0.000000000000000
  0
LINE
  5
26B
100
AcDbEntity
  8
A2
  6
DASHED
 62
2
100
AcDbLine
 10
146.1000000000002
 20
142.6000000000001
 30
0.000000000000000
 11
146.1000000000002
 21
144.0000000000000
 31
0.000000000000000
  0
LINE
  5
26C
100
AcDbEntity
  8
A2
  6
DASHED
 62
2
100
AcDbLine
 10
193.9000000000010
 20
142.6000000000001
 30
0.000000000000000
 11
193.9000000000010
 21
144.0000000000000
 31
0.000000000000000
  0
LINE
  5
26D
100
AcDbEntity
  8
A2
  6
DASHED
 62
2
100
AcDbLine
 10
198.1000000000010
 20
142.6000000000001
 30
0.000000000000000
 11
198.1000000000010
 21
144.0000000000000
 31
0.000000000000000
  0
LINE
  5
26E
100
AcDbEntity
  8
A4
  6
CENTER
 62
1
100
AcDbLine
 10
196.0000000000010
 20
141.1000000000001
 30
0.000000000000000
 11
196.0000000000010
 21
145.5000000000000
 31
0.000000000000000
  0
LINE
  5
26F
100
AcDbEntity
  8
A2
  6
DASHED
 62
2
100
AcDbLine
 10
174.1000000000012
 20
142.6000000000001
 30
0.000000000000000
 11
174.1000000000012
 21
144.0000000000000
 31
0.000000000000000
  0
LINE
  5
270
100
AcDbEntity
  8
A2
  6
DASHED
 62
2
100
AcDbLine
 10
169.9000000000012
 20
142.6000000000001
 30
0.000000000000000
 11
169.9000000000012
 21
144.0000000000000
 31
0.000000000000000
  0
LINE
  5
271
100
AcDbEntity
  8
A4
  6
CENTER
 62
1
100
AcDbLine
 10
172.0000000000012
 20
141.1000000000001
 30
0.000000000000000
 11
172.0000000000012
 21
145.5000000000000
 31
0.000000000000000
  0
LINE
  5
272
100
AcDbEntity
  8
A4
  6
CENTER
 62
1
100
AcDbLine
 10
66.00000000000040
 20
122.0119110735814
 30
0.000000000000000
 11
65.99999999999980
 21
145.5000000000000
 31
0.000000000000000
  0
LINE
  5
273
100
AcDbEntity
  8
A4
  6
CENTER
 62
1
100
AcDbLine
 10
184.0000000000024
 20
100.5000000000000
 30
0.000000000000000
 11
184.0000000000010
 21
145.5000000000000
 31
0.000000000000000
  0
LINE
  5
274
100
AcDbEntity
  8
A4
  6
CENTER
 62
1
100
AcDbLine
 10
171.1060018873244
 20
118.0000000000000
 30
0.000000000000000
 11
196.9920020632269
 21
118.0000000000000
 31
0.000000000000000
  0
LINE
  5
275
100
AcDbEntity
  8
A4
  6
CENTER
 62
1
100
AcDbLine
 10
100.5000000000004
 20
118.0000000000000
 30
0.000000000000000
 11
135.5000000000004
 21
118.0000000000000
 31
0.000000000000000
  0
LINE
  5
276
100
AcDbEntity
  8
A4
  6
CENTER
 62
1
100
AcDbLine
 10
118.0000000000004
 20
100.5000000000000
 30
0.000000000000000
 11
118.0000000000004
 21
135.5000000000000
 31
0.000000000000000
  0
LINE
  5
277
100
AcDbEntity
  8
A4
  6
CENTER
 62
1
100
AcDbLine
 10
267.4999999999986
 20
118.0000000000000
 30
0.000000000000000
 11
232.4999999999986
 21
118.0000000000000
 31
0.000000000000000
  0
LINE
  5
278
100
AcDbEntity
  8
A4
  6
CENTER
 62
1
100
AcDbLine
 10
249.9999999999986
 20
100.5000000000000
 30
0.000000000000000
 11
249.9999999999986
 21
135.5000000000000
 31
0.000000000000000
  0
LINE
  5
279
100
AcDbEntity
  8
A4
  6
CENTER
 62
1
100
AcDbLine
 10
238.9999999999986
 20
121.7170825763961
 30
0.000000000000000
 11
238.9999999999986
 21
145.5000000000000
 31
0.000000000000000
  0
LINE
  5
27A
100
AcDbEntity
  8
A2
  6
DASHED
 62
2
100
AcDbLine
 10
256.0999999999987
 20
142.6000000000001
 30
0.000000000000000
 11
256.0999999999987
 21
144.0000000000000
 31
0.000000000000000
  0
LINE
  5
27B
100
AcDbEntity
  8
A4
  6
CENTER
 62
1
100
AcDbLine
 10
253.9999999999986
 20
141.1000000000001
 30
0.000000000000000
 11
253.9999999999986
 21
145.5000000000000
 31
0.000000000000000
  0
LINE
  5
27C
100
AcDbEntity
  8
A2
  6
DASHED
 62
2
100
AcDbLine
 10
251.8999999999986
 20
142.6000000000001
 30
0.000000000000000
 11
251.8999999999986
 21
144.0000000000000
 31
0.000000000000000
  0
LINE
  5
27D
100
AcDbEntity
  8
A2
  6
DASHED
 62
2
100
AcDbLine
 10
221.8999999999989
 20
142.6000000000001
 30
0.000000000000000
 11
221.8999999999989
 21
144.0000000000000
 31
0.000000000000000
  0
LINE
  5
27E
100
AcDbEntity
  8
A4
  6
CENTER
 62
1
100
AcDbLine
 10
223.9999999999989
 20
141.1000000000001
 30
0.000000000000000
 11
223.9999999999989
 21
145.5000000000000
 31
0.000000000000000
  0
LINE
  5
27F
100
AcDbEntity
  8
A2
  6
DASHED
 62
2
100
AcDbLine
 10
226.0999999999989
 20
142.6000000000001
 30
0.000000000000000
 11
226.0999999999989
 21
144.0000000000000
 31
0.000000000000000
  0
LINE
  5
280
100
AcDbEntity
  8
A4
  6
CENTER
 62
1
100
AcDbLine
 10
147.6000000000002
 20
54.00000000000017
 30
0.000000000000000
 11
140.4000000000002
 21
54.00000000000017
 31
0.000000000000000
  0
LINE
  5
281
100
AcDbEntity
  8
A4
  6
CENTER
 62
1
100
AcDbLine
 10
144.0000000000002
 20
57.60000000000017
 30
0.000000000000000
 11
144.0000000000002
 21
50.40000000000017
 31
0.000000000000000
  0
LINE
  5
282
100
AcDbEntity
  8
A4
  6
CENTER
 62
1
100
AcDbLine
 10
147.6000000000002
 20
77.99999999999997
 30
0.000000000000000
 11
140.4000000000002
 21
77.99999999999997
 31
0.000000000000000
  0
LINE
  5
283
100
AcDbEntity
  8
A4
  6
CENTER
 62
1
100
AcDbLine
 10
144.0000000000002
 20
81.59999999999997
 30
0.000000000000000
 11
144.0000000000002
 21
74.39999999999998
 31
0.000000000000000
  0
LINE
  5
284
100
AcDbEntity
  8
A4
  6
CENTER
 62
1
100
AcDbLine
 10
117.6000000000004
 20
77.99999999999997
 30
0.000000000000000
 11
110.4000000000004
 21
77.99999999999997
 31
0.000000000000000
  0
LINE
  5
285
100
AcDbEntity
  8
A4
  6
CENTER
 62
1
100
AcDbLine
 10
117.6000000000004
 20
54.00000000000017
 30
0.000000000000000
 11
110.4000000000004
 21
54.00000000000017
 31
0.000000000000000
  0
LINE
  5
286
100
AcDbEntity
  8
A4
  6
CENTER
 62
1
100
AcDbLine
 10
115.5000000000004
 20
54.00000000000017
 30
0.000000000000000
 11
112.5000000000004
 21
54.00000000000017
 31
0.000000000000000
  0
LINE
  5
287
100
AcDbEntity
  8
A4
  6
CENTER
 62
1
100
AcDbLine
 10
115.5000000000004
 20
77.99999999999997
 30
0.000000000000000
 11
110.4000000000004
 21
77.99999999999997
 31
0.000000000000000
  0
LINE
  5
288
100
AcDbEntity
  8
A4
  6
CENTER
 62
1
100
AcDbLine
 10
114.0000000000004
 20
74.39999999999998
 30
0.000000000000000
 11
114.0000000000004
 21
81.59999999999997
 31
0.000000000000000
  0
LINE
  5
289
100
AcDbEntity
  8
A4
  6
CENTER
 62
1
100
AcDbLine
 10
114.0000000000004
 20
50.40000000000017
 30
0.000000000000000
 11
114.0000000000004
 21
57.60000000000017
 31
0.000000000000000
  0
LINE
  5
28A
100
AcDbEntity
  8
A4
  6
CENTER
 62
1
100
AcDbLine
 10
147.4142840000004
 20
66.00000000000020
 30
0.000000000000000
 11
100.5000000000004
 21
66.00000000000020
 31
0.000000000000000
  0
LINE
  5
28B
100
AcDbEntity
  8
A4
  6
CENTER
 62
1
100
AcDbLine
 10
129.0000000000004
 20
83.50000000000017
 30
0.000000000000000
 11
129.0000000000004
 21
48.50000000000085
 31
0.000000000000000
  0
ENDSEC
  0
SECTION
  2
OBJECTS
  0
DICTIONARY
  5
2BF
100
AcDbDictionary
  3
ACAD_GROUP
350
2C0
  3
ACAD_LAYOUT
350
2C1
  3
ACAD_MLINESTYLE
350
2C2
  0
DICTIONARY
  5
2C0
102
{ACAD_REACTORS
330
2BF
102
}
330
2BF
100
AcDbDictionary
  0
DICTIONARY
  5
2C1
102
{ACAD_REACTORS
330
2BF
102
}
330
2BF
100
AcDbDictionary
  3
Model
350
2C3
  3
ﾚｲｱｳﾄ1
350
2C4
  3
ﾚｲｱｳﾄ2
350
2C5
  0
DICTIONARY
  5
2C2
102
{ACAD_REACTORS
330
2BF
102
}
330
2BF
100
AcDbDictionary
  3
STANDARD
350
2C6
  0
LAYOUT
  5
2C3
102
{ACAD_REACTORS
330
2C1
102
}
330
2C1
100
AcDbPlotSettings
 70
11952
  4
A3
 44
297.000000
 45
420.000000
 73
  1
 72
  1
100
AcDbLayout
  1
Model
 71
0
330
2B6
  0
LAYOUT
  5
2C4
102
{ACAD_REACTORS
330
2C1
102
}
330
2C1
100
AcDbPlotSettings
100
AcDbLayout
  1
ﾚｲｱｳﾄ1
 71
1
330
2B7
  0
LAYOUT
  5
2C5
102
{ACAD_REACTORS
330
2C1
102
}
330
2C1
100
AcDbPlotSettings
100
AcDbLayout
  1
ﾚｲｱｳﾄ2
 71
2
330
2B8
  0
MLINESTYLE
  5
2C6
102
{ACAD_REACTORS
330
2C2
102
}
330
2C2
100
AcDbMlineStyle
  2
STANDARD
 70
     0
  3

 62
   256
 51
90.00
 52
90.00
 71
     2
 49
0.50
 62
   256
  6
BYLAYER
 49
-0.50
 62
   256
  6
BYLAYER
  0
ENDSEC
  0
EOF
