  0
SECTION
  2
HEADER
  9
$ACADVER
  1
AC1027
  9
$DWGCODEPAGE
  3
ANSI_932
  9
$LTSCALE
 40
20.0
  9
$FILLMODE
 70
     1
  9
$CLAYER
  8
0
  9
$PDMODE
 70
     0
  9
$SPLFRAME
 70
     0
  9
$SPLINETYPE
 70
     6
  9
$SPLINESEGS
 70
     8
  9
$DIMASZ
 40
2.000000
  9
$DIMEXE
 40
1.500000
  9
$DIMEXO
 40
0.800000
  9
$DIMTAD
 70
     1
  9
$DIMTIH
 70
     0
  9
$DIMTOH
 70
     0
  9
$DIMTVP
 40
0.500000
  9
$DIMTXT
 40
3.100000
  9
$EXTMIN
 10
0.000000
 20
0.000000
 30
0.000000
  9
$EXTMAX
 10
297.000000
 20
420.000000
 30
0.000000
  9
$MEASUREMENT
 70
  1
  9
$LIMMIN
 10
0.000000
 20
0.000000
  9
$LIMMAX
 10
297.000000
 20
420.000000
  9
$HANDSEED
  5
2E1
  9
$LWDISPLAY
290
     0
  9
$DIMBLK
  1
_OPEN
  9
$DIMDEC
 70
     2
  9
$DIMADEC
 70
     2
  9
$DIMAUNIT
 70
     0
  9
$DIMZIN
 70
     8
  9
$DIMAZIN
 70
     2
  9
$DIMTOFL
 70
     1
  0
ENDSEC
  0
SECTION
  2
CLASSES
  0
ENDSEC
  0
SECTION
  2
TABLES
  0
TABLE
  2
VPORT
  5
2A6
100
AcDbSymbolTable
 70
     1
  0
VPORT
  5
2A7
100
AcDbSymbolTableRecord
100
AcDbViewportTableRecord
  2
*ACTIVE
 70
     0
 12
153.749998
 22
117.750094
 40
199.500187
 41
1.441101
  0
ENDTAB
  0
TABLE
  2
LTYPE
  5
2A8
100
AcDbSymbolTable
 70
     3
  0
LTYPE
  5
2A9
100
AcDbSymbolTableRecord
100
AcDbLinetypeTableRecord
  2
BYBLOCK
 70
     0
  3

 72
    65
 73
     0
 40
0.0
  0
LTYPE
  5
2AA
100
AcDbSymbolTableRecord
100
AcDbLinetypeTableRecord
  2
BYLAYER
 70
     0
  3

 72
    65
 73
     0
 40
0.0
  0
LTYPE
  5
2AB
100
AcDbSymbolTableRecord
100
AcDbLinetypeTableRecord
  2
CONTINUOUS
 70
     0
  3
Solid line (NEC CAE2D for Win R18.0 : 2025.08.07)
 72
    65
 73
     0
 40
0.0
  0
LTYPE
  5
2AC
100
AcDbSymbolTableRecord
100
AcDbLinetypeTableRecord
  2
DASHED
 70
     0
  3
__ __ __ __ __ __ __ __ __ __ __ __ __ _
 72
    65
 73
     2
 40
0.75
 49
0.5
 74
     0
 49
-0.25
 74
     0
  0
LTYPE
  5
2AD
100
AcDbSymbolTableRecord
100
AcDbLinetypeTableRecord
  2
CENTER
 70
     0
  3
____ _ ____ _ ____ _ ____ _ ____ _ ____
 72
    65
 73
     4
 40
2.0
 49
1.25
 74
     0
 49
-0.25
 74
     0
 49
0.25
 74
     0
 49
-0.25
 74
     0
  0
ENDTAB
  0
TABLE
  2
LAYER
  5
2AE
100
AcDbSymbolTable
 70
    20
  0
LAYER
  5
2AF
100
AcDbSymbolTableRecord
100
AcDbLayerTableRecord
  2
0
 70
     0
 62
     7
  6
CONTINUOUS
370
    -3
390

  0
LAYER
  5
2B0
100
AcDbSymbolTableRecord
100
AcDbLayerTableRecord
  2
A0
 70
     0
 62
     9
  6
CONTINUOUS
370
    -3
390

  0
LAYER
  5
2B1
100
AcDbSymbolTableRecord
100
AcDbLayerTableRecord
  2
A1
 70
     0
 62
    12
  6
CONTINUOUS
370
    -3
390

  0
LAYER
  5
2B2
100
AcDbSymbolTableRecord
100
AcDbLayerTableRecord
  2
A2
 70
     0
 62
    12
  6
CONTINUOUS
370
    -3
390

  0
LAYER
  5
2B3
100
AcDbSymbolTableRecord
100
AcDbLayerTableRecord
  2
A4
 70
     0
 62
     9
  6
CONTINUOUS
370
    -3
390

  0
LAYER
  5
2B4
100
AcDbSymbolTableRecord
100
AcDbLayerTableRecord
  2
A5
 70
     0
 62
     8
  6
CONTINUOUS
370
    -3
390

  0
LAYER
  5
2B5
100
AcDbSymbolTableRecord
100
AcDbLayerTableRecord
  2
A6
 70
     0
 62
    12
  6
CONTINUOUS
370
    -3
390

  0
LAYER
  5
2B6
100
AcDbSymbolTableRecord
100
AcDbLayerTableRecord
  2
A8
 70
     0
 62
    10
  6
CONTINUOUS
370
    -3
390

  0
LAYER
  5
2B7
100
AcDbSymbolTableRecord
100
AcDbLayerTableRecord
  2
A9
 70
     0
 62
     9
  6
CONTINUOUS
370
    -3
390

  0
LAYER
  5
2B8
100
AcDbSymbolTableRecord
100
AcDbLayerTableRecord
  2
A10
 70
     0
 62
     6
  6
CONTINUOUS
370
    -3
390

  0
LAYER
  5
2B9
100
AcDbSymbolTableRecord
100
AcDbLayerTableRecord
  2
A16
 70
     0
 62
     5
  6
CONTINUOUS
370
    -3
390

  0
LAYER
  5
2BA
100
AcDbSymbolTableRecord
100
AcDbLayerTableRecord
  2
A17
 70
     0
 62
     9
  6
CONTINUOUS
370
    -3
390

  0
LAYER
  5
2BB
100
AcDbSymbolTableRecord
100
AcDbLayerTableRecord
  2
A18
 70
     0
 62
     7
  6
CONTINUOUS
370
    -3
390

  0
LAYER
  5
2BC
100
AcDbSymbolTableRecord
100
AcDbLayerTableRecord
  2
A19
 70
     0
 62
     5
  6
CONTINUOUS
370
    -3
390

  0
LAYER
  5
2BD
100
AcDbSymbolTableRecord
100
AcDbLayerTableRecord
  2
A20
 70
     0
 62
     1
  6
CONTINUOUS
370
    -3
390

  0
LAYER
  5
2BE
100
AcDbSymbolTableRecord
100
AcDbLayerTableRecord
  2
A21
 70
     0
 62
    41
  6
CONTINUOUS
370
    -3
390

  0
LAYER
  5
2BF
100
AcDbSymbolTableRecord
100
AcDbLayerTableRecord
  2
A30
 70
     0
 62
     1
  6
CONTINUOUS
370
    -3
390

  0
LAYER
  5
2C0
100
AcDbSymbolTableRecord
100
AcDbLayerTableRecord
  2
A40
 70
     0
 62
     9
  6
CONTINUOUS
370
    -3
390

  0
LAYER
  5
2C1
100
AcDbSymbolTableRecord
100
AcDbLayerTableRecord
  2
A50
 70
     0
 62
    12
  6
CONTINUOUS
370
    -3
390

  0
LAYER
  5
2C2
100
AcDbSymbolTableRecord
100
AcDbLayerTableRecord
  2
A1023
 70
     0
 62
    16
  6
CONTINUOUS
370
    -3
390

  0
ENDTAB
  0
TABLE
  2
STYLE
  5
2C3
100
AcDbSymbolTable
 70
     4
  0
STYLE
  5
2C4
100
AcDbSymbolTableRecord
100
AcDbTextStyleTableRecord
  2
STANDARD
 70
    64
 40
0.0
 41
1.0
 50
0.0
 71
     0
 42
3.000000000000000
  3
TXT
  4

  0
STYLE
  5
2C5
100
AcDbSymbolTableRecord
100
AcDbTextStyleTableRecord
  2
ANKTATE
 70
    68
 40
0.0
 41
1.0
 50
0.0
 71
     0
 42
3.000000000000000
  3
TXT
  4

  0
STYLE
  5
2C6
100
AcDbSymbolTableRecord
100
AcDbTextStyleTableRecord
  2
KNJYOKO
 70
    64
 40
0.0
 41
1.0
 50
0.0
 71
     0
 42
3.000000000000000
  3
TXT
  4
BIGFONT
  0
STYLE
  5
2C7
100
AcDbSymbolTableRecord
100
AcDbTextStyleTableRecord
  2
KNJTATE
 70
    68
 40
0.0
 41
1.0
 50
0.0
 71
     0
 42
3.000000000000000
  3
TXT
  4
BIGFONT
  0
ENDTAB
  0
TABLE
  2
VIEW
  5
2C8
100
AcDbSymbolTable
 70
     0
  0
ENDTAB
  0
TABLE
  2
UCS
  5
2C9
100
AcDbSymbolTable
 70
     0
  0
ENDTAB
  0
TABLE
  2
APPID
  5
2CA
100
AcDbSymbolTable
 70
     1
  0
APPID
  5
2CB
100
AcDbSymbolTableRecord
100
AcDbRegAppTableRecord
  2
ACAD
 70
     0
  0
ENDTAB
  0
TABLE
  2
DIMSTYLE
  5
2CC
100
AcDbSymbolTable
 70
     2
100
AcDbDimStyleTable
  0
DIMSTYLE
105
2CD
100
AcDbSymbolTableRecord
100
AcDbDimStyleTableRecord
  2
STANDARD
 70
     0
 41
2.000000
 44
1.500000
 42
0.800000
145
0.661290
140
3.100000
144
1.000000
146
0.645161
340
2C4
  0
DIMSTYLE
105
2CE
100
AcDbSymbolTableRecord
100
AcDbDimStyleTableRecord
  2
A001
 70
     0
 41
2.000000
 44
1.500000
 42
0.800000
145
0.661290
140
3.100000
144
1.000000
146
0.645161
 77
     1
 73
     0
 74
     0
271
     2
179
     2
275
     0
 78
     8
 79
     2
172
     1
340
2C4
  0
ENDTAB
  0
TABLE
  2
BLOCK_RECORD
  5
2CF
100
AcDbSymbolTable
 70
    12
  0
BLOCK_RECORD
  5
2D0
100
AcDbSymbolTableRecord
100
AcDbBlockTableRecord
  2
*MODEL_SPACE
  0
BLOCK_RECORD
  5
2D1
100
AcDbSymbolTableRecord
100
AcDbBlockTableRecord
  2
*PAPER_SPACE
  0
BLOCK_RECORD
  5
2D2
100
AcDbSymbolTableRecord
100
AcDbBlockTableRecord
  2
*PAPER_SPACE0
  0
BLOCK_RECORD
  5
1
100
AcDbSymbolTableRecord
100
AcDbBlockTableRecord
  2
_NONE
  0
BLOCK_RECORD
  5
4
100
AcDbSymbolTableRecord
100
AcDbBlockTableRecord
  2
_CLOSED
  0
BLOCK_RECORD
  5
B
100
AcDbSymbolTableRecord
100
AcDbBlockTableRecord
  2
_DOT
  0
BLOCK_RECORD
  5
13
100
AcDbSymbolTableRecord
100
AcDbBlockTableRecord
  2
_OPEN
  0
BLOCK_RECORD
  5
19
100
AcDbSymbolTableRecord
100
AcDbBlockTableRecord
  2
_ORIGIN
  0
BLOCK_RECORD
  5
1E
100
AcDbSymbolTableRecord
100
AcDbBlockTableRecord
  2
_OPEN30
  0
BLOCK_RECORD
  5
24
100
AcDbSymbolTableRecord
100
AcDbBlockTableRecord
  2
_BOXFILLED
  0
BLOCK_RECORD
  5
29
100
AcDbSymbolTableRecord
100
AcDbBlockTableRecord
  2
_BOXBLANK
  0
BLOCK_RECORD
  5
31
100
AcDbSymbolTableRecord
100
AcDbBlockTableRecord
  2
_OBLIQUE
  0
BLOCK_RECORD
  5
35
100
AcDbSymbolTableRecord
100
AcDbBlockTableRecord
  2
_OPEN90
  0
BLOCK_RECORD
  5
3B
100
AcDbSymbolTableRecord
100
AcDbBlockTableRecord
  2
_CLOSEDBLANK
  0
BLOCK_RECORD
  5
41
100
AcDbSymbolTableRecord
100
AcDbBlockTableRecord
  2
_DOTBLANK
  0
ENDTAB
  0
ENDSEC
  0
SECTION
  2
BLOCKS
  0
BLOCK
  5
2D3
100
AcDbEntity
  8
0
100
AcDbBlockBegin
  2
*MODEL_SPACE
 70
     0
 10
0.0
 20
0.0
 30
0.0
  3
*MODEL_SPACE
  1

  0
ENDBLK
  5
2D4
100
AcDbEntity
  8
0
100
AcDbBlockEnd
  0
BLOCK
  5
2D5
100
AcDbEntity
  8
0
100
AcDbBlockBegin
  2
*PAPER_SPACE
 70
     0
 10
0.0
 20
0.0
 30
0.0
  3
*PAPER_SPACE
  1

  0
ENDBLK
  5
2D6
100
AcDbEntity
  8
0
100
AcDbBlockEnd
  0
BLOCK
  5
2D7
100
AcDbEntity
  8
0
100
AcDbBlockBegin
  2
*PAPER_SPACE0
 70
     0
 10
0.0
 20
0.0
 30
0.0
  3
*PAPER_SPACE0
  1

  0
ENDBLK
  5
2D8
100
AcDbEntity
  8
0
100
AcDbBlockEnd
  0
BLOCK
  5
2
330
1
100
AcDbEntity
  8
0
100
AcDbBlockBegin
  2
_NONE
 70
     0
 10
0.0
 20
0.0
 30
0.0
  3
_NONE
  1

  0
ENDBLK
  5
3
330
1
100
AcDbEntity
  8
0
100
AcDbBlockEnd
  0
BLOCK
  5
5
330
4
100
AcDbEntity
  8
0
100
AcDbBlockBegin
  2
_CLOSED
 70
     0
 10
0.0
 20
0.0
 30
0.0
  3
_CLOSED
  1

  0
LINE
  5
6
330
4
100
AcDbEntity
  8
0
  6
BYBLOCK
 62
     0
370
    -2
100
AcDbLine
 10
-1.0
 20
0.166667
 30
0.0
 11
0.0
 21
0.0
 31
0.0
  0
LINE
  5
7
330
4
100
AcDbEntity
  8
0
  6
BYBLOCK
 62
     0
370
    -2
100
AcDbLine
 10
0.0
 20
0.0
 30
0.0
 11
-1.0
 21
-0.166667
 31
0.0
  0
LINE
  5
8
330
4
100
AcDbEntity
  8
0
  6
BYBLOCK
 62
     0
370
    -2
100
AcDbLine
 10
-1.0
 20
0.166667
 30
0.0
 11
-1.0
 21
-0.166667
 31
0.0
  0
LINE
  5
9
330
4
100
AcDbEntity
  8
0
  6
BYBLOCK
 62
     0
370
    -2
100
AcDbLine
 10
0.0
 20
0.0
 30
0.0
 11
-1.0
 21
0.0
 31
0.0
  0
ENDBLK
  5
A
330
4
100
AcDbEntity
  8
0
100
AcDbBlockEnd
  0
BLOCK
  5
C
330
B
100
AcDbEntity
  8
0
100
AcDbBlockBegin
  2
_DOT
 70
     0
 10
0.0
 20
0.0
 30
0.0
  3
_DOT
  1

  0
POLYLINE
  5
D
330
B
100
AcDbEntity
  8
0
  6
BYBLOCK
 62
     0
370
    -2
100
AcDb2dPolyline
 66
     1
 10
0.0
 20
0.0
 30
0.0
 70
     1
 40
0.5
 41
0.5
  0
VERTEX
  5
E
330
B
100
AcDbEntity
  8
0
  6
BYBLOCK
 62
     0
370
    -2
100
AcDbVertex
100
AcDb2dVertex
 10
-0.25
 20
0.0
 30
0.0
 42
1.0
  0
VERTEX
  5
F
330
B
100
AcDbEntity
  8
0
  6
BYBLOCK
 62
     0
370
    -2
100
AcDbVertex
100
AcDb2dVertex
 10
0.25
 20
0.0
 30
0.0
 42
1.0
  0
SEQEND
  5
10
330
B
100
AcDbEntity
  8
0
  6
BYBLOCK
 62
     0
370
    -2
  0
LINE
  5
11
330
B
100
AcDbEntity
  8
0
  6
BYBLOCK
 62
     0
370
    -2
100
AcDbLine
 10
-0.5
 20
0.0
 30
0.0
 11
-1.0
 21
0.0
 31
0.0
  0
ENDBLK
  5
12
330
B
100
AcDbEntity
  8
0
100
AcDbBlockEnd
  0
BLOCK
  5
14
330
13
100
AcDbEntity
  8
0
100
AcDbBlockBegin
  2
_OPEN
 70
     0
 10
0.0
 20
0.0
 30
0.0
  3
_OPEN
  1

  0
LINE
  5
15
330
13
100
AcDbEntity
  8
0
  6
BYBLOCK
 62
     0
370
    -2
100
AcDbLine
 10
-1.0
 20
0.166667
 30
0.0
 11
0.0
 21
0.0
 31
0.0
  0
LINE
  5
16
330
13
100
AcDbEntity
  8
0
  6
BYBLOCK
 62
     0
370
    -2
100
AcDbLine
 10
0.0
 20
0.0
 30
0.0
 11
-1.0
 21
-0.166667
 31
0.0
  0
LINE
  5
17
330
13
100
AcDbEntity
  8
0
  6
BYBLOCK
 62
     0
370
    -2
100
AcDbLine
 10
0.0
 20
0.0
 30
0.0
 11
-1.0
 21
0.0
 31
0.0
  0
ENDBLK
  5
18
330
13
100
AcDbEntity
  8
0
100
AcDbBlockEnd
  0
BLOCK
  5
1A
330
19
100
AcDbEntity
  8
0
100
AcDbBlockBegin
  2
_ORIGIN
 70
     0
 10
0.0
 20
0.0
 30
0.0
  3
_ORIGIN
  1

  0
CIRCLE
  5
1B
330
19
100
AcDbEntity
  8
0
  6
BYBLOCK
 62
     0
370
    -2
100
AcDbCircle
 10
0.0
 20
0.0
 30
0.0
 40
0.5
  0
LINE
  5
1C
330
19
100
AcDbEntity
  8
0
  6
BYBLOCK
 62
     0
370
    -2
100
AcDbLine
 10
0.0
 20
0.0
 30
0.0
 11
-1.0
 21
0.0
 31
0.0
  0
ENDBLK
  5
1D
330
19
100
AcDbEntity
  8
0
100
AcDbBlockEnd
  0
BLOCK
  5
1F
330
1E
100
AcDbEntity
  8
0
100
AcDbBlockBegin
  2
_OPEN30
 70
     0
 10
0.0
 20
0.0
 30
0.0
  3
_OPEN30
  1

  0
LINE
  5
20
330
1E
100
AcDbEntity
  8
0
  6
BYBLOCK
 62
     0
370
    -2
100
AcDbLine
 10
-1.0
 20
0.267949
 30
0.0
 11
0.0
 21
0.0
 31
0.0
  0
LINE
  5
21
330
1E
100
AcDbEntity
  8
0
  6
BYBLOCK
 62
     0
370
    -2
100
AcDbLine
 10
0.0
 20
0.0
 30
0.0
 11
-1.0
 21
-0.267949
 31
0.0
  0
LINE
  5
22
330
1E
100
AcDbEntity
  8
0
  6
BYBLOCK
 62
     0
370
    -2
100
AcDbLine
 10
0.0
 20
0.0
 30
0.0
 11
-1.0
 21
0.0
 31
0.0
  0
ENDBLK
  5
23
330
1E
100
AcDbEntity
  8
0
100
AcDbBlockEnd
  0
BLOCK
  5
25
330
24
100
AcDbEntity
  8
0
100
AcDbBlockBegin
  2
_BOXFILLED
 70
     0
 10
0.0
 20
0.0
 30
0.0
  3
_BOXFILLED
  1

  0
SOLID
  5
26
330
24
100
AcDbEntity
  8
0
  6
BYBLOCK
 62
     0
370
    -2
100
AcDbTrace
 10
-0.5
 20
0.5
 30
0.0
 11
0.5
 21
0.5
 31
0.0
 12
-0.5
 22
-0.5
 32
0.0
 13
0.5
 23
-0.5
 33
0.0
  0
LINE
  5
27
330
24
100
AcDbEntity
  8
0
  6
BYBLOCK
 62
     0
370
    -2
100
AcDbLine
 10
-0.5
 20
0.0
 30
0.0
 11
-1.0
 21
0.0
 31
0.0
  0
ENDBLK
  5
28
330
24
100
AcDbEntity
  8
0
100
AcDbBlockEnd
  0
BLOCK
  5
2A
330
29
100
AcDbEntity
  8
0
100
AcDbBlockBegin
  2
_BOXBLANK
 70
     0
 10
0.0
 20
0.0
 30
0.0
  3
_BOXBLANK
  1

  0
LINE
  5
2B
330
29
100
AcDbEntity
  8
0
  6
BYBLOCK
 62
     0
370
    -2
100
AcDbLine
 10
-0.5
 20
-0.5
 30
0.0
 11
0.5
 21
-0.5
 31
0.0
  0
LINE
  5
2C
330
29
100
AcDbEntity
  8
0
  6
BYBLOCK
 62
     0
370
    -2
100
AcDbLine
 10
0.5
 20
-0.5
 30
0.0
 11
0.5
 21
0.5
 31
0.0
  0
LINE
  5
2D
330
29
100
AcDbEntity
  8
0
  6
BYBLOCK
 62
     0
370
    -2
100
AcDbLine
 10
0.5
 20
0.5
 30
0.0
 11
-0.5
 21
0.5
 31
0.0
  0
LINE
  5
2E
330
29
100
AcDbEntity
  8
0
  6
BYBLOCK
 62
     0
370
    -2
100
AcDbLine
 10
-0.5
 20
0.5
 30
0.0
 11
-0.5
 21
-0.5
 31
0.0
  0
LINE
  5
2F
330
29
100
AcDbEntity
  8
0
  6
BYBLOCK
 62
     0
370
    -2
100
AcDbLine
 10
-0.5
 20
0.0
 30
0.0
 11
-1.0
 21
0.0
 31
0.0
  0
ENDBLK
  5
30
330
29
100
AcDbEntity
  8
0
100
AcDbBlockEnd
  0
BLOCK
  5
32
330
31
100
AcDbEntity
  8
0
100
AcDbBlockBegin
  2
_OBLIQUE
 70
     0
 10
0.0
 20
0.0
 30
0.0
  3
_OBLIQUE
  1

  0
LINE
  5
33
330
31
100
AcDbEntity
  8
0
  6
BYBLOCK
 62
     0
370
    -2
100
AcDbLine
 10
-0.5
 20
-0.5
 30
0.0
 11
0.5
 21
0.5
 31
0.0
  0
ENDBLK
  5
34
330
31
100
AcDbEntity
  8
0
100
AcDbBlockEnd
  0
BLOCK
  5
36
330
35
100
AcDbEntity
  8
0
100
AcDbBlockBegin
  2
_OPEN90
 70
     0
 10
0.0
 20
0.0
 30
0.0
  3
_OPEN90
  1

  0
LINE
  5
37
330
35
100
AcDbEntity
  8
0
  6
BYBLOCK
 62
     0
370
    -2
100
AcDbLine
 10
-0.5
 20
0.5
 30
0.0
 11
0.0
 21
0.0
 31
0.0
  0
LINE
  5
38
330
35
100
AcDbEntity
  8
0
  6
BYBLOCK
 62
     0
370
    -2
100
AcDbLine
 10
0.0
 20
0.0
 30
0.0
 11
-0.5
 21
-0.5
 31
0.0
  0
LINE
  5
39
330
35
100
AcDbEntity
  8
0
  6
BYBLOCK
 62
     0
370
    -2
100
AcDbLine
 10
0.0
 20
0.0
 30
0.0
 11
-1.0
 21
0.0
 31
0.0
  0
ENDBLK
  5
3A
330
35
100
AcDbEntity
  8
0
100
AcDbBlockEnd
  0
BLOCK
  5
3C
330
3B
100
AcDbEntity
  8
0
100
AcDbBlockBegin
  2
_CLOSEDBLANK
 70
     0
 10
0.0
 20
0.0
 30
0.0
  3
_CLOSEDBLANK
  1

  0
LINE
  5
3D
330
3B
100
AcDbEntity
  8
0
  6
BYBLOCK
 62
     0
370
    -2
100
AcDbLine
 10
-1.0
 20
0.1666666666666666
 30
0.0
 11
0.0
 21
0.0
 31
0.0
  0
LINE
  5
3E
330
3B
100
AcDbEntity
  8
0
  6
BYBLOCK
 62
     0
370
    -2
100
AcDbLine
 10
0.0
 20
0.0
 30
0.0
 11
-1.0
 21
-0.1666666666666666
 31
0.0
  0
LINE
  5
3F
330
3B
100
AcDbEntity
  8
0
  6
BYBLOCK
 62
     0
370
    -2
100
AcDbLine
 10
-1.0
 20
0.1666666666666666
 30
0.0
 11
-1.0
 21
-0.1666666666666666
 31
0.0
  0
ENDBLK
  5
40
330
3B
100
AcDbEntity
  8
0
100
AcDbBlockEnd
  0
BLOCK
  5
42
330
41
100
AcDbEntity
  8
0
100
AcDbBlockBegin
  2
_DOTBLANK
 70
     0
 10
0.0
 20
0.0
 30
0.0
  3
_DOTBLANK
  1

  0
CIRCLE
  5
43
330
41
100
AcDbEntity
  8
0
  6
BYBLOCK
 62
     0
370
    -2
100
AcDbCircle
 10
0.0
 20
0.0
 30
0.0
 40
0.5
  0
LINE
  5
44
330
41
100
AcDbEntity
  8
0
  6
BYBLOCK
 62
     0
370
    -2
100
AcDbLine
 10
-0.5
 20
0.0
 30
0.0
 11
-1.0
 21
0.0
 31
0.0
  0
ENDBLK
  5
45
330
41
100
AcDbEntity
  8
0
100
AcDbBlockEnd
  0
ENDSEC
  0
SECTION
  2
ENTITIES
  0
MTEXT
  5
46
100
AcDbEntity
  8
A8
  6
CONTINUOUS
 62
3
100
AcDbMText
 10
9.999997526638502
 20
18.00000076076889
 30
0.000000000000000
 40
3.000000000000000
 41
0.000000000000000
 44
0.6739999771118164
 71
     7
 72
     1
  1
{\H0.94x;{TYPE No.TCA-420G-U38}}
 11
1.000000000000000
 21
0.000000000000000
 31
0.000000000000000
  7
STANDARD
  0
POINT
  5
47
100
AcDbEntity
  8
A0
  6
CONTINUOUS
 62
3
100
AcDbPoint
 10
9.999997526638502
 20
18.00000076076889
 30
0.000000000000000
  0
CIRCLE
  5
48
100
AcDbEntity
  8
A1
  6
CONTINUOUS
 62
7
100
AcDbCircle
 10
126.9999999999998
 20
126.9999999999999
 30
0.000000000000000
 40
3.999999022579120
  0
CIRCLE
  5
49
100
AcDbEntity
  8
A1
  6
CONTINUOUS
 62
7
100
AcDbCircle
 10
126.9999999999998
 20
126.9999999999999
 30
0.000000000000000
 40
1.099999160016902
  0
ARC
  5
4A
100
AcDbEntity
  8
A1
  6
CONTINUOUS
 62
7
100
AcDbCircle
 10
129.6399989999998
 20
153.7816859999999
 30
0.000000000000000
 40
2.200000000000000
100
AcDbArc
 50
179.5181628584270
 51
200.8073740401213
  0
ARC
  5
4B
100
AcDbEntity
  8
A1
  6
CONTINUOUS
 62
7
100
AcDbCircle
 10
150.3599989999998
 20
153.7816859999999
 30
0.000000000000000
 40
2.200000000000000
100
AcDbArc
 50
339.1926259598786
 51
360.4818371415730
  0
ARC
  5
4C
100
AcDbEntity
  8
A1
  6
CONTINUOUS
 62
7
100
AcDbCircle
 10
148.9720221832065
 20
153.7816859999999
 30
0.000000000000000
 40
2.200000000000000
100
AcDbArc
 50
339.1926259598787
 51
360.4818371415730
  0
ARC
  5
4D
100
AcDbEntity
  8
A1
  6
CONTINUOUS
 62
7
100
AcDbCircle
 10
131.0279758167929
 20
153.7816859999999
 30
0.000000000000000
 40
2.200000000000000
100
AcDbArc
 50
179.5181628584270
 51
200.8073740401213
  0
ARC
  5
4E
100
AcDbEntity
  8
A1
  6
CONTINUOUS
 62
7
100
AcDbCircle
 10
134.8199989999998
 20
153.7816859999999
 30
0.000000000000000
 40
2.200000000000000
100
AcDbArc
 50
179.5181628584270
 51
200.8073740401213
  0
ARC
  5
4F
100
AcDbEntity
  8
A1
  6
CONTINUOUS
 62
7
100
AcDbCircle
 10
134.8199989999998
 20
153.7816859999999
 30
0.000000000000000
 40
2.200000000000000
100
AcDbArc
 50
339.1926259598786
 51
360.4818371415730
  0
ARC
  5
50
100
AcDbEntity
  8
A1
  6
CONTINUOUS
 62
7
100
AcDbCircle
 10
145.1799989999998
 20
153.7816859999999
 30
0.000000000000000
 40
2.200000000000000
100
AcDbArc
 50
179.5181628584270
 51
200.8073740401213
  0
ARC
  5
51
100
AcDbEntity
  8
A1
  6
CONTINUOUS
 62
7
100
AcDbCircle
 10
145.1799989999998
 20
153.7816859999999
 30
0.000000000000000
 40
2.200000000000000
100
AcDbArc
 50
339.1926259598786
 51
360.4818371415730
  0
ARC
  5
52
100
AcDbEntity
  8
A1
  6
CONTINUOUS
 62
7
100
AcDbCircle
 10
139.9999989999998
 20
153.7816859999999
 30
0.000000000000000
 40
2.200000000000000
100
AcDbArc
 50
179.5181628584270
 51
200.8073740401213
  0
ARC
  5
53
100
AcDbEntity
  8
A1
  6
CONTINUOUS
 62
7
100
AcDbCircle
 10
139.9999989999998
 20
153.7816859999999
 30
0.000000000000000
 40
2.200000000000000
100
AcDbArc
 50
339.1926259598786
 51
360.4818371415730
  0
ARC
  5
54
100
AcDbEntity
  8
A1
  6
CONTINUOUS
 62
7
100
AcDbCircle
 10
154.7227352301927
 20
156.8001869999999
 30
0.000000000000000
 40
3.000000000000000
100
AcDbArc
 50
270.0000000000000
 51
339.8335912753989
  0
ARC
  5
55
100
AcDbEntity
  8
A1
  6
CONTINUOUS
 62
7
100
AcDbCircle
 10
125.2772627698069
 20
156.8001869999999
 30
0.000000000000000
 40
3.000000000000000
100
AcDbArc
 50
200.1664087246012
 51
270.0000000000000
  0
ARC
  5
56
100
AcDbEntity
  8
A1
  6
CONTINUOUS
 62
7
100
AcDbCircle
 10
121.8792195416310
 20
155.9001879999998
 30
0.000000000000000
 40
0.5000000000000000
100
AcDbArc
 50
20.16640872460071
 51
90.00000000000000
  0
ARC
  5
57
100
AcDbEntity
  8
A1
  6
CONTINUOUS
 62
7
100
AcDbCircle
 10
158.1207784583686
 20
155.9001879999998
 30
0.000000000000000
 40
0.5000000000000000
100
AcDbArc
 50
90.00000000000000
 51
159.8335912753993
  0
LINE
  5
58
100
AcDbEntity
  8
A1
  6
CONTINUOUS
 62
7
100
AcDbLine
 10
154.7227352301927
 20
153.8001869999999
 30
0.000000000000000
 11
125.2772627698069
 21
153.8001869999999
 31
0.000000000000000
  0
LINE
  5
59
100
AcDbEntity
  8
A1
  6
CONTINUOUS
 62
7
100
AcDbLine
 10
157.5388211371460
 20
155.7659432353783
 30
0.000000000000000
 11
157.6514308072096
 21
156.0725619607700
 31
0.000000000000000
  0
LINE
  5
5A
100
AcDbEntity
  8
A1
  6
CONTINUOUS
 62
7
100
AcDbLine
 10
122.3485671927899
 20
156.0725619607701
 30
0.000000000000000
 11
122.4611768628535
 21
155.7659432353784
 31
0.000000000000000
  0
LINE
  5
5B
100
AcDbEntity
  8
A1
  6
CONTINUOUS
 62
7
100
AcDbLine
 10
121.9999946366767
 20
158.0001879999999
 30
0.000000000000000
 11
157.9999989999998
 21
158.0001879999999
 31
0.000000000000000
  0
LINE
  5
5C
100
AcDbEntity
  8
A1
  6
CONTINUOUS
 62
7
100
AcDbLine
 10
121.9999946366767
 20
156.4001879999998
 30
0.000000000000000
 11
157.9999989999998
 21
156.4001879999998
 31
0.000000000000000
  0
LINE
  5
5D
100
AcDbEntity
  8
A1
  6
CONTINUOUS
 62
7
100
AcDbLine
 10
116.9999989999997
 20
158.0001879999999
 30
0.000000000000000
 11
116.9999989999997
 21
156.4001879999998
 31
0.000000000000000
  0
LINE
  5
5E
100
AcDbEntity
  8
A1
  6
CONTINUOUS
 62
7
100
AcDbLine
 10
116.9999989999997
 20
156.4001879999998
 30
0.000000000000000
 11
121.9999946366767
 21
156.4001879999998
 31
0.000000000000000
  0
LINE
  5
5F
100
AcDbEntity
  8
A1
  6
CONTINUOUS
 62
7
100
AcDbLine
 10
116.9999989999997
 20
158.0001879999999
 30
0.000000000000000
 11
121.9999946366767
 21
158.0001879999999
 31
0.000000000000000
  0
LINE
  5
60
100
AcDbEntity
  8
A1
  6
CONTINUOUS
 62
7
100
AcDbLine
 10
157.9999989999998
 20
156.4001879999998
 30
0.000000000000000
 11
162.9999989999998
 21
156.4001879999998
 31
0.000000000000000
  0
LINE
  5
61
100
AcDbEntity
  8
A1
  6
CONTINUOUS
 62
7
100
AcDbLine
 10
157.9999989999998
 20
158.0001879999999
 30
0.000000000000000
 11
162.9999989999998
 21
158.0001879999999
 31
0.000000000000000
  0
LINE
  5
62
100
AcDbEntity
  8
A1
  6
CONTINUOUS
 62
7
100
AcDbLine
 10
162.9999989999998
 20
156.4001879999998
 30
0.000000000000000
 11
162.9999989999998
 21
158.0001879999999
 31
0.000000000000000
  0
ARC
  5
63
100
AcDbEntity
  8
A1
  6
CONTINUOUS
 62
7
100
AcDbCircle
 10
126.9999999999998
 20
126.9999999999999
 30
0.000000000000000
 40
19.00000000000000
100
AcDbArc
 50
97.68032677710106
 51
270.0000000000000
  0
ARC
  5
64
100
AcDbEntity
  8
A1
  6
CONTINUOUS
 62
7
100
AcDbCircle
 10
126.9999999999998
 20
126.9999999999999
 30
0.000000000000000
 40
19.00000000000000
100
AcDbArc
 50
270.0000000000000
 51
391.6852471849296
  0
ARC
  5
65
100
AcDbEntity
  8
A1
  6
CONTINUOUS
 62
7
100
AcDbCircle
 10
126.9999999999998
 20
126.9999999999999
 30
0.000000000000000
 40
12.50000000000000
100
AcDbArc
 50
108.3626378283632
 51
270.0000000000000
  0
ARC
  5
66
100
AcDbEntity
  8
A1
  6
CONTINUOUS
 62
7
100
AcDbCircle
 10
126.9999999999998
 20
126.9999999999999
 30
0.000000000000000
 40
12.50000000000000
100
AcDbArc
 50
270.0000000000000
 51
381.6957969014180
  0
ARC
  5
67
100
AcDbEntity
  8
A1
  6
CONTINUOUS
 62
7
100
AcDbCircle
 10
126.9999999999998
 20
126.9999999999999
 30
0.000000000000000
 40
13.50000000000000
100
AcDbArc
 50
105.9681844993923
 51
270.0000000000000
  0
ARC
  5
68
100
AcDbEntity
  8
A1
  6
CONTINUOUS
 62
7
100
AcDbCircle
 10
126.9999999999998
 20
126.9999999999999
 30
0.000000000000000
 40
13.50000000000000
100
AcDbArc
 50
270.0000000000000
 51
383.9421375454853
  0
ARC
  5
69
100
AcDbEntity
  8
A1
  6
CONTINUOUS
 62
7
100
AcDbCircle
 10
126.9999999999998
 20
126.9999999999999
 30
0.000000000000000
 40
8.145645000000000
100
AcDbArc
 50
128.1704308806007
 51
270.0000000000000
  0
ARC
  5
6A
100
AcDbEntity
  8
A1
  6
CONTINUOUS
 62
7
100
AcDbCircle
 10
126.9999999999998
 20
126.9999999999999
 30
0.000000000000000
 40
8.145645000000000
100
AcDbArc
 50
270.0000000000000
 51
363.6580177039805
  0
SPLINE
  5
6B
100
AcDbEntity
  8
A1
  6
CONTINUOUS
 62
7
100
AcDbSpline
210
0.000000000000000
220
0.000000000000000
230
1.000000000000000
 70
     8
 71
     3
 72
    12
 73
     8
 74
     0
 42
1.000000000000000e-07
 43
1.000000000000000e-07
 12
0.9826263594095508
 22
-0.1855948215597891
 32
0.000000000000000
 13
0.9877990994273205
 23
-0.1557335518400578
 33
0.000000000000000
 40
0.000000000000000
 40
0.000000000000000
 40
0.000000000000000
 40
0.000000000000000
 40
0.02740846693030430
 40
0.1096723492848923
 40
0.2482141653089890
 40
0.4426823284077584
 40
0.5248050152042116
 40
0.5248050152042116
 40
0.5248050152042116
 40
0.5248050152042116
 10
123.9999989999998
 20
147.3001922180522
 30
0.000000000000000
 10
124.0089764273587
 20
147.2984965948758
 30
0.000000000000000
 10
124.0449210805479
 20
147.2918245883227
 30
0.000000000000000
 10
124.1266140655427
 20
147.2786769013926
 30
0.000000000000000
 10
124.2631950672336
 20
147.2561799458074
 30
0.000000000000000
 10
124.3998509623912
 20
147.2344080116054
 30
0.000000000000000
 10
124.4909131546103
 20
147.2199886099690
 30
0.000000000000000
 10
124.5179533932970
 20
147.2157255240685
 30
0.000000000000000
  0
SPLINE
  5
6C
100
AcDbEntity
  8
A1
  6
CONTINUOUS
 62
7
100
AcDbSpline
210
0.000000000000000
220
0.000000000000000
230
1.000000000000000
 70
     8
 71
     3
 72
    10
 73
     6
 74
     0
 42
1.000000000000000e-07
 43
1.000000000000000e-07
 12
-0.9224013249288419
 22
-0.3862328258574053
 32
0.000000000000000
 13
-0.5863759732874314
 23
-0.8100390224876719
 33
0.000000000000000
 40
0.000000000000000
 40
0.000000000000000
 40
0.000000000000000
 40
0.000000000000000
 40
0.2218996744006508
 40
0.4446566253331519
 40
0.6580793911933902
 40
0.6580793911933902
 40
0.6580793911933902
 40
0.6580793911933902
 10
125.5338713938942
 20
152.9091562966508
 30
0.000000000000000
 10
125.4656445426714
 20
152.8805879838839
 30
0.000000000000000
 10
125.3337574350498
 20
152.8107352157966
 30
0.000000000000000
 10
125.1618368028545
 20
152.6725633703419
 30
0.000000000000000
 10
125.0661564421414
 20
152.5619335339463
 30
0.000000000000000
 10
125.0244411147904
 20
152.5043066110683
 30
0.000000000000000
  0
SPLINE
  5
6D
100
AcDbEntity
  8
A1
  6
CONTINUOUS
 62
7
100
AcDbSpline
210
0.000000000000000
220
0.000000000000000
230
1.000000000000000
 70
     8
 71
     3
 72
    21
 73
    17
 74
     0
 42
1.000000000000000e-07
 43
1.000000000000000e-07
 12
-0.5894806037213129
 22
-0.8077825312684581
 32
0.000000000000000
 13
-0.8222563369467935
 23
-0.5691173133454868
 33
0.000000000000000
 40
0.000000000000000
 40
0.000000000000000
 40
0.000000000000000
 40
0.000000000000000
 40
0.01868889576106760
 40
0.06710808704723931
 40
0.1342848452120356
 40
0.2211250552738260
 40
0.3282071731808625
 40
0.4556940068542916
 40
0.6032778828941275
 40
0.7707982418606956
 40
0.9512424373604700
 40
1.150305158821065
 40
1.362315449407526
 40
1.586212854964305
 40
1.820829675328823
 40
1.958137033417477
 40
1.958137033417477
 40
1.958137033417477
 40
1.958137033417477
 10
125.0257215461280
 20
152.5055923511514
 30
0.000000000000000
 10
125.0220492989426
 20
152.5005601633099
 30
0.000000000000000
 10
125.0087339548133
 20
152.4825838947284
 30
0.000000000000000
 10
124.9809596896191
 20
152.4474674501374
 30
0.000000000000000
 10
124.9374572920028
 20
152.3958708908625
 30
0.000000000000000
 10
124.8793150278089
 20
152.3310894917915
 30
0.000000000000000
 10
124.8054728517516
 20
152.2534459591509
 30
0.000000000000000
 10
124.7151631649193
 20
152.1635856004204
 30
0.000000000000000
 10
124.6078629611589
 20
152.0623097446603
 30
0.000000000000000
 10
124.4848596739918
 20
151.9520320238799
 30
0.000000000000000
 10
124.3462723915428
 20
151.8335082507220
 30
0.000000000000000
 10
124.1935939905162
 20
151.7087182498389
 30
0.000000000000000
 10
124.0268987638139
 20
151.5782666435940
 30
0.000000000000000
 10
123.8481446789021
 20
151.4440681839728
 30
0.000000000000000
 10
123.6870518328716
 20
151.3278843759124
 30
0.000000000000000
 10
123.5854916969285
 20
151.2567801747018
 30
0.000000000000000
 10
123.5478577484959
 20
151.2307321764558
 30
0.000000000000000
  0
SPLINE
  5
6E
100
AcDbEntity
  8
A1
  6
CONTINUOUS
 62
7
100
AcDbSpline
210
0.000000000000000
220
0.000000000000000
230
1.000000000000000
 70
     8
 71
     3
 72
    11
 73
     7
 74
     0
 42
1.000000000000000e-07
 43
1.000000000000000e-07
 12
-0.9998483958497673
 22
-0.01741221740576293
 32
0.000000000000000
 13
-0.9206745093006248
 23
-0.3903312028592154
 33
0.000000000000000
 40
0.000000000000000
 40
0.000000000000000
 40
0.000000000000000
 40
0.000000000000000
 40
0.07191876590868761
 40
0.1602378000396215
 40
0.2599457185864233
 40
0.3784369620974554
 40
0.3784369620974554
 40
0.3784369620974554
 40
0.3784369620974554
 10
125.8990495856689
 20
153.0001859999999
 30
0.000000000000000
 10
125.8750802980938
 20
152.9997685782707
 30
0.000000000000000
 10
125.8216494410692
 20
152.9961857267123
 30
0.000000000000000
 10
125.7364963464474
 20
152.9790691913886
 30
0.000000000000000
 10
125.6384571153456
 20
152.9500634070158
 30
0.000000000000000
 10
125.5702353497196
 20
152.9245732398534
 30
0.000000000000000
 10
125.5338713938943
 20
152.9091562966508
 30
0.000000000000000
  0
ARC
  5
6F
100
AcDbEntity
  8
A1
  6
CONTINUOUS
 62
7
100
AcDbCircle
 10
125.4999989999998
 20
151.5001859999999
 30
0.000000000000000
 40
1.500000000000000
100
AcDbArc
 50
90.00000000000000
 51
177.4069570041589
  0
ARC
  5
70
100
AcDbEntity
  8
A1
  6
CONTINUOUS
 62
7
100
AcDbCircle
 10
122.5970371101210
 20
146.7072615211267
 30
0.000000000000000
 40
2.000000000000000
100
AcDbArc
 50
348.6473771801985
 51
402.0661595452050
  0
ARC
  5
71
100
AcDbEntity
  8
A1
  6
CONTINUOUS
 62
7
100
AcDbCircle
 10
126.7999987135429
 20
127.0001888892064
 30
0.000000000000000
 40
6.000000898261001
100
AcDbArc
 50
168.6473873653330
 51
319.6098690940717
  0
ARC
  5
72
100
AcDbEntity
  8
A1
  6
CONTINUOUS
 62
7
100
AcDbCircle
 10
154.4999989999998
 20
151.5001859999999
 30
0.000000000000000
 40
1.500000000000000
100
AcDbArc
 50
0.000000000000000
 51
90.00000000000000
  0
ARC
  5
73
100
AcDbEntity
  8
A1
  6
CONTINUOUS
 62
7
100
AcDbCircle
 10
153.8564779936610
 20
143.3705921274883
 30
0.000000000000000
 40
3.999732480477746
100
AcDbArc
 50
94.67986165397591
 51
139.6114611357798
  0
LINE
  5
74
100
AcDbEntity
  8
A1
  6
CONTINUOUS
 62
7
100
AcDbLine
 10
123.5455502023134
 20
151.2332143215407
 30
0.000000000000000
 11
122.1069469132316
 21
150.2367545518500
 31
0.000000000000000
  0
LINE
  5
75
100
AcDbEntity
  8
A1
  6
CONTINUOUS
 62
7
100
AcDbLine
 10
123.9999989999998
 20
148.1378549526773
 30
0.000000000000000
 11
123.9999989999998
 21
147.3001922180523
 31
0.000000000000000
  0
LINE
  5
76
100
AcDbEntity
  8
A1
  6
CONTINUOUS
 62
7
100
AcDbLine
 10
125.4999989999998
 20
153.0001859999999
 30
0.000000000000000
 11
125.8893536325731
 21
153.0001859999999
 31
0.000000000000000
  0
LINE
  5
77
100
AcDbEntity
  8
A1
  6
CONTINUOUS
 62
7
100
AcDbLine
 10
122.1084332133985
 20
150.2337795221850
 30
0.000000000000000
 11
122.1486098156189
 21
150.1892623669745
 31
0.000000000000000
  0
LINE
  5
78
100
AcDbEntity
  8
A1
  6
CONTINUOUS
 62
7
100
AcDbLine
 10
123.5455504098565
 20
151.2332138904142
 30
0.000000000000000
 11
122.1070936725576
 21
150.2368555503248
 31
0.000000000000000
  0
LINE
  5
79
100
AcDbEntity
  8
A1
  6
CONTINUOUS
 62
7
100
AcDbLine
 10
128.0336143358335
 20
153.0001859999999
 30
0.000000000000000
 11
125.8990495856689
 21
153.0001859999999
 31
0.000000000000000
  0
LINE
  5
7A
100
AcDbEntity
  8
A1
  6
CONTINUOUS
 62
7
100
AcDbLine
 10
122.1486098156188
 20
150.1892623669745
 30
0.000000000000000
 11
122.3486431386221
 21
149.9676180766344
 31
0.000000000000000
  0
LINE
  5
7B
100
AcDbEntity
  8
A1
  6
CONTINUOUS
 62
7
100
AcDbLine
 10
131.3698989999998
 20
123.1122559999998
 30
0.000000000000000
 11
134.8595682070038
 21
127.2140358992569
 31
0.000000000000000
  0
LINE
  5
7C
100
AcDbEntity
  8
A1
  6
CONTINUOUS
 62
7
100
AcDbLine
 10
124.0817804777982
 20
148.0472380627640
 30
0.000000000000000
 11
123.3422013474511
 21
148.8667189824178
 31
0.000000000000000
  0
LINE
  5
7D
100
AcDbEntity
  8
A1
  6
CONTINUOUS
 62
7
100
AcDbLine
 10
120.9173929999997
 20
128.1812679999999
 30
0.000000000000000
 11
124.5579056699538
 21
146.3135681238505
 31
0.000000000000000
  0
LINE
  5
7E
100
AcDbEntity
  8
A1
  6
CONTINUOUS
 62
7
100
AcDbLine
 10
122.3486431386221
 20
149.9676180766344
 30
0.000000000000000
 11
123.3422013474511
 21
148.8667189824178
 31
0.000000000000000
  0
LINE
  5
7F
100
AcDbEntity
  8
A1
  6
CONTINUOUS
 62
7
100
AcDbLine
 10
131.1991616879239
 20
153.0001859999999
 30
0.000000000000000
 11
128.0336143358335
 21
153.0001859999999
 31
0.000000000000000
  0
LINE
  5
80
100
AcDbEntity
  8
A1
  6
CONTINUOUS
 62
7
100
AcDbLine
 10
134.8595682070038
 20
127.2140358992568
 30
0.000000000000000
 11
136.8011360847227
 21
129.4961674198853
 31
0.000000000000000
  0
LINE
  5
81
100
AcDbEntity
  8
A1
  6
CONTINUOUS
 62
7
100
AcDbLine
 10
131.1991616879239
 20
153.0001859999999
 30
0.000000000000000
 11
154.4999989999998
 21
153.0001859999999
 31
0.000000000000000
  0
LINE
  5
82
100
AcDbEntity
  8
A1
  6
CONTINUOUS
 62
7
100
AcDbLine
 10
138.9179441346899
 20
131.9842773795672
 30
0.000000000000000
 11
150.8100099999997
 21
145.9622889999998
 31
0.000000000000000
  0
LINE
  5
83
100
AcDbEntity
  8
A1
  6
CONTINUOUS
 62
7
100
AcDbLine
 10
155.9999989999998
 20
147.5592430000000
 30
0.000000000000000
 11
153.5301469999998
 21
147.3569899999999
 31
0.000000000000000
  0
LINE
  5
84
100
AcDbEntity
  8
A1
  6
CONTINUOUS
 62
7
100
AcDbLine
 10
155.9999989999998
 20
147.5592429999998
 30
0.000000000000000
 11
155.9999989999998
 21
151.5001860000000
 31
0.000000000000000
  0
LINE
  5
85
100
AcDbEntity
  8
A1
  6
CONTINUOUS
 62
7
100
AcDbLine
 10
136.8011360847227
 20
129.4961674198853
 30
0.000000000000000
 11
138.9179441346900
 21
131.9842773795672
 31
0.000000000000000
  0
ARC
  5
86
100
AcDbEntity
  8
A1
  6
CONTINUOUS
 62
7
100
AcDbCircle
 10
215.2999939999998
 20
124.1797979999999
 30
0.000000000000000
 40
1.000000000000000
100
AcDbArc
 50
281.5364193883519
 51
360.0000199999999
  0
ARC
  5
87
100
AcDbEntity
  8
A1
  6
CONTINUOUS
 62
7
100
AcDbCircle
 10
192.8000019999998
 20
126.9999999999999
 30
0.000000000000000
 40
5.315072000000000
100
AcDbArc
 50
152.1319890333849
 51
168.0558300000002
  0
ARC
  5
88
100
AcDbEntity
  8
A1
  6
CONTINUOUS
 62
7
100
AcDbCircle
 10
192.8000019999998
 20
126.9999999999999
 30
0.000000000000000
 40
5.315072000000000
100
AcDbArc
 50
191.9441699999999
 51
228.8140700000000
  0
LINE
  5
89
100
AcDbEntity
  8
A1
  6
CONTINUOUS
 62
7
100
AcDbLine
 10
191.9999989999998
 20
130.0228119999999
 30
0.000000000000000
 11
191.5000009999998
 21
130.0228119999999
 31
0.000000000000000
  0
LINE
  5
8A
100
AcDbEntity
  8
A1
  6
CONTINUOUS
 62
7
100
AcDbLine
 10
212.4999969999998
 20
130.0228119999999
 30
0.000000000000000
 11
211.9999989999998
 21
130.0228119999999
 31
0.000000000000000
  0
LINE
  5
8B
100
AcDbEntity
  8
A1
  6
CONTINUOUS
 62
7
100
AcDbLine
 10
211.9999989999998
 20
123.9771879999998
 30
0.000000000000000
 11
212.4999969999998
 21
123.9771879999998
 31
0.000000000000000
  0
LINE
  5
8C
100
AcDbEntity
  8
A1
  6
CONTINUOUS
 62
7
100
AcDbLine
 10
191.5000009999998
 20
123.9771879999998
 30
0.000000000000000
 11
191.9999989999998
 21
123.9771879999998
 31
0.000000000000000
  0
LINE
  5
8D
100
AcDbEntity
  8
A1
  6
CONTINUOUS
 62
7
100
AcDbLine
 10
216.2999939999997
 20
124.1797983490657
 30
0.000000000000000
 11
216.2999939999997
 21
129.6646349283848
 31
0.000000000000000
  0
LINE
  5
8E
100
AcDbEntity
  8
A1
  6
CONTINUOUS
 62
7
100
AcDbLine
 10
215.4999839999998
 20
123.2000039999999
 30
0.000000000000000
 11
215.4999839999998
 21
129.3074288656931
 31
0.000000000000000
  0
LINE
  5
8F
100
AcDbEntity
  8
A1
  6
CONTINUOUS
 62
7
100
AcDbLine
 10
214.0999972054327
 20
123.9771879999997
 30
0.000000000000000
 11
215.4999839999997
 21
123.2000039999999
 31
0.000000000000000
  0
LINE
  5
90
100
AcDbEntity
  8
A1
  6
CONTINUOUS
 62
7
100
AcDbLine
 10
187.6000027487358
 20
125.9000008399830
 30
0.000000000000000
 11
187.6000027487358
 21
128.0999991600167
 31
0.000000000000000
  0
LINE
  5
91
100
AcDbEntity
  8
A1
  6
CONTINUOUS
 62
7
100
AcDbLine
 10
189.3000022593498
 20
123.0000009774208
 30
0.000000000000000
 11
189.3000022593498
 21
128.6883442056232
 31
0.000000000000000
  0
LINE
  5
92
100
AcDbEntity
  8
A1
  6
CONTINUOUS
 62
7
100
AcDbLine
 10
189.3000022593498
 20
123.0000004887103
 30
0.000000000000000
 11
189.9000009999998
 21
123.0000004887103
 31
0.000000000000000
  0
ARC
  5
93
100
AcDbEntity
  8
A1
  6
CONTINUOUS
 62
7
100
AcDbCircle
 10
191.6399989999998
 20
153.7816859999999
 30
0.000000000000000
 40
2.200000000000000
100
AcDbArc
 50
179.5181628584270
 51
200.8073740401214
  0
ARC
  5
94
100
AcDbEntity
  8
A1
  6
CONTINUOUS
 62
7
100
AcDbCircle
 10
212.3599989999998
 20
153.7816859999999
 30
0.000000000000000
 40
2.200000000000000
100
AcDbArc
 50
339.1926259598786
 51
360.4818371415730
  0
ARC
  5
95
100
AcDbEntity
  8
A1
  6
CONTINUOUS
 62
7
100
AcDbCircle
 10
193.0279758167930
 20
153.7816859999999
 30
0.000000000000000
 40
2.200000000000000
100
AcDbArc
 50
179.5181628584270
 51
200.8073740401213
  0
ARC
  5
96
100
AcDbEntity
  8
A1
  6
CONTINUOUS
 62
7
100
AcDbCircle
 10
210.9720221832065
 20
153.7816859999999
 30
0.000000000000000
 40
2.200000000000000
100
AcDbArc
 50
339.1926259598787
 51
360.4818371415730
  0
ARC
  5
97
100
AcDbEntity
  8
A1
  6
CONTINUOUS
 62
7
100
AcDbCircle
 10
196.8199989999998
 20
153.7816859999999
 30
0.000000000000000
 40
2.200000000000000
100
AcDbArc
 50
179.5181628584271
 51
200.8073740401214
  0
ARC
  5
98
100
AcDbEntity
  8
A1
  6
CONTINUOUS
 62
7
100
AcDbCircle
 10
196.8199989999998
 20
153.7816859999999
 30
0.000000000000000
 40
2.200000000000000
100
AcDbArc
 50
339.1926259598786
 51
360.4818371415730
  0
ARC
  5
99
100
AcDbEntity
  8
A1
  6
CONTINUOUS
 62
7
100
AcDbCircle
 10
207.1799989999998
 20
153.7816859999999
 30
0.000000000000000
 40
2.200000000000000
100
AcDbArc
 50
179.5181628584270
 51
200.8073740401214
  0
ARC
  5
9A
100
AcDbEntity
  8
A1
  6
CONTINUOUS
 62
7
100
AcDbCircle
 10
207.1799989999998
 20
153.7816859999999
 30
0.000000000000000
 40
2.200000000000000
100
AcDbArc
 50
339.1926259598786
 51
360.4818371415730
  0
ARC
  5
9B
100
AcDbEntity
  8
A1
  6
CONTINUOUS
 62
7
100
AcDbCircle
 10
201.9999989999998
 20
153.7816859999999
 30
0.000000000000000
 40
2.200000000000000
100
AcDbArc
 50
179.5181628584270
 51
200.8073740401214
  0
ARC
  5
9C
100
AcDbEntity
  8
A1
  6
CONTINUOUS
 62
7
100
AcDbCircle
 10
201.9999989999998
 20
153.7816859999999
 30
0.000000000000000
 40
2.200000000000000
100
AcDbArc
 50
339.1926259598786
 51
360.4818371415730
  0
ARC
  5
9D
100
AcDbEntity
  8
A1
  6
CONTINUOUS
 62
7
100
AcDbCircle
 10
216.7227352301927
 20
156.8001869999999
 30
0.000000000000000
 40
3.000000000000000
100
AcDbArc
 50
270.0000000000000
 51
339.8335912753988
  0
ARC
  5
9E
100
AcDbEntity
  8
A1
  6
CONTINUOUS
 62
7
100
AcDbCircle
 10
187.2772627698068
 20
156.8001869999999
 30
0.000000000000000
 40
3.000000000000000
100
AcDbArc
 50
200.1664087246012
 51
270.0000000000000
  0
ARC
  5
9F
100
AcDbEntity
  8
A1
  6
CONTINUOUS
 62
7
100
AcDbCircle
 10
183.8792195416310
 20
155.9001879999998
 30
0.000000000000000
 40
0.5000000000000000
100
AcDbArc
 50
20.16640872460070
 51
90.00000000000000
  0
ARC
  5
A0
100
AcDbEntity
  8
A1
  6
CONTINUOUS
 62
7
100
AcDbCircle
 10
220.1207784583686
 20
155.9001879999998
 30
0.000000000000000
 40
0.5000000000000000
100
AcDbArc
 50
90.00000000000000
 51
159.8335912753993
  0
LINE
  5
A1
100
AcDbEntity
  8
A1
  6
CONTINUOUS
 62
7
100
AcDbLine
 10
201.9999989999998
 20
153.8001869999999
 30
0.000000000000000
 11
187.2772627698068
 21
153.8001869999999
 31
0.000000000000000
  0
LINE
  5
A2
100
AcDbEntity
  8
A1
  6
CONTINUOUS
 62
7
100
AcDbLine
 10
216.7227352301927
 20
153.8001869999999
 30
0.000000000000000
 11
201.9999989999998
 21
153.8001869999999
 31
0.000000000000000
  0
LINE
  5
A3
100
AcDbEntity
  8
A1
  6
CONTINUOUS
 62
7
100
AcDbLine
 10
219.5388211371460
 20
155.7659432353782
 30
0.000000000000000
 11
219.6514308072096
 21
156.0725619607701
 31
0.000000000000000
  0
LINE
  5
A4
100
AcDbEntity
  8
A1
  6
CONTINUOUS
 62
7
100
AcDbLine
 10
184.3485671927899
 20
156.0725619607700
 30
0.000000000000000
 11
184.4611768628535
 21
155.7659432353783
 31
0.000000000000000
  0
LINE
  5
A5
100
AcDbEntity
  8
A1
  6
CONTINUOUS
 62
7
100
AcDbLine
 10
190.2580631793046
 20
158.0001879999999
 30
0.000000000000000
 11
213.7419347428346
 21
158.0001879999999
 31
0.000000000000000
  0
LINE
  5
A6
100
AcDbEntity
  8
A1
  6
CONTINUOUS
 62
7
100
AcDbLine
 10
190.2580631793046
 20
156.4001879999998
 30
0.000000000000000
 11
213.7419347428346
 21
156.4001879999998
 31
0.000000000000000
  0
LINE
  5
A7
100
AcDbEntity
  8
A1
  6
CONTINUOUS
 62
7
100
AcDbLine
 10
213.7419347428346
 20
158.0001879999999
 30
0.000000000000000
 11
220.9999989999995
 21
158.0001879999999
 31
0.000000000000000
  0
LINE
  5
A8
100
AcDbEntity
  8
A1
  6
CONTINUOUS
 62
7
100
AcDbLine
 10
213.7419347428346
 20
156.4001879999998
 30
0.000000000000000
 11
220.9999989999995
 21
156.4001879999998
 31
0.000000000000000
  0
LINE
  5
A9
100
AcDbEntity
  8
A1
  6
CONTINUOUS
 62
7
100
AcDbLine
 10
220.9999989999995
 20
156.4001879999998
 30
0.000000000000000
 11
220.9999989999995
 21
158.0001879999999
 31
0.000000000000000
  0
LINE
  5
AA
100
AcDbEntity
  8
A1
  6
CONTINUOUS
 62
7
100
AcDbLine
 10
182.9999989999998
 20
156.4001879999998
 30
0.000000000000000
 11
190.2580631793045
 21
156.4001879999998
 31
0.000000000000000
  0
LINE
  5
AB
100
AcDbEntity
  8
A1
  6
CONTINUOUS
 62
7
100
AcDbLine
 10
182.9999989999998
 20
158.0001879999999
 30
0.000000000000000
 11
190.2580631793045
 21
158.0001879999999
 31
0.000000000000000
  0
LINE
  5
AC
100
AcDbEntity
  8
A1
  6
CONTINUOUS
 62
7
100
AcDbLine
 10
182.9999989999998
 20
156.4001879999998
 30
0.000000000000000
 11
182.9999989999998
 21
158.0001879999999
 31
0.000000000000000
  0
ARC
  5
AD
100
AcDbEntity
  8
A1
  6
CONTINUOUS
 62
7
100
AcDbCircle
 10
193.4999989999998
 20
133.6456449999999
 30
0.000000000000000
 40
1.500000000000000
100
AcDbArc
 50
90.00000000000000
 51
180.0000000000000
  0
ARC
  5
AE
100
AcDbEntity
  8
A1
  6
CONTINUOUS
 62
7
100
AcDbCircle
 10
193.4999989999998
 20
120.3543549999999
 30
0.000000000000000
 40
1.500000000000000
100
AcDbArc
 50
180.0000000000000
 51
270.0000000000000
  0
ARC
  5
AF
100
AcDbEntity
  8
A1
  6
CONTINUOUS
 62
7
100
AcDbCircle
 10
210.4999989999998
 20
133.6456449999999
 30
0.000000000000000
 40
1.500000000000000
100
AcDbArc
 50
0.000000000000000
 51
90.00000000000000
  0
ARC
  5
B0
100
AcDbEntity
  8
A1
  6
CONTINUOUS
 62
7
100
AcDbCircle
 10
210.4999989999998
 20
120.3543549999999
 30
0.000000000000000
 40
1.500000000000000
100
AcDbArc
 50
270.0000000000000
 51
360.0000000000000
  0
ARC
  5
B1
100
AcDbEntity
  8
A1
  6
CONTINUOUS
 62
7
100
AcDbCircle
 10
209.4999989999991
 20
144.2318919999988
 30
0.000000000000000
 40
1.000000000001192
100
AcDbArc
 50
5.729583972259999e-05
 51
78.30479999997308
  0
ARC
  5
B2
100
AcDbEntity
  8
A1
  6
CONTINUOUS
 62
7
100
AcDbCircle
 10
209.4999989999991
 20
109.7681080000009
 30
0.000000000000000
 40
1.000000000001192
100
AcDbArc
 50
281.6952000000270
 51
359.9999427041608
  0
ARC
  5
B3
100
AcDbEntity
  8
A1
  6
CONTINUOUS
 62
7
100
AcDbCircle
 10
194.4999990000005
 20
144.2318919999988
 30
0.000000000000000
 40
1.000000000001192
100
AcDbArc
 50
101.6951867677923
 51
180.0000000000000
  0
ARC
  5
B4
100
AcDbEntity
  8
A1
  6
CONTINUOUS
 62
7
100
AcDbCircle
 10
194.4999990000005
 20
109.7681080000009
 30
0.000000000000000
 40
1.000000000001192
100
AcDbArc
 50
180.0000000000000
 51
258.3048132322077
  0
ARC
  5
B5
100
AcDbEntity
  8
A1
  6
CONTINUOUS
 62
7
100
AcDbCircle
 10
201.9999989999998
 20
145.9999999999999
 30
0.000000000000000
 40
38.00000000000000
100
AcDbArc
 50
258.3049460000000
 51
281.6950543437868
  0
ARC
  5
B6
100
AcDbEntity
  8
A1
  6
CONTINUOUS
 62
7
100
AcDbCircle
 10
201.9999989999998
 20
107.9999999999999
 30
0.000000000000000
 40
38.00000000000000
100
AcDbArc
 50
78.30494565621321
 51
101.6950540000000
  0
LINE
  5
B7
100
AcDbEntity
  8
A1
  6
CONTINUOUS
 62
7
100
AcDbLine
 10
191.9999989999998
 20
120.3543549999999
 30
0.000000000000000
 11
191.9999989999998
 21
133.6456449999999
 31
0.000000000000000
  0
LINE
  5
B8
100
AcDbEntity
  8
A1
  6
CONTINUOUS
 62
7
100
AcDbLine
 10
211.9999989999998
 20
120.3543549999999
 30
0.000000000000000
 11
211.9999989999998
 21
133.6456449999999
 31
0.000000000000000
  0
LINE
  5
B9
100
AcDbEntity
  8
A1
  6
CONTINUOUS
 62
7
100
AcDbLine
 10
210.4999989999998
 20
109.7681069999999
 30
0.000000000000000
 11
210.4999989999998
 21
144.2318929999668
 31
0.000000000000000
  0
LINE
  5
BA
100
AcDbEntity
  8
A1
  6
CONTINUOUS
 62
7
100
AcDbLine
 10
193.4999989999993
 20
109.7681080000009
 30
0.000000000000000
 11
193.4999989999993
 21
144.2318919999657
 31
0.000000000000000
  0
SPLINE
  5
BB
100
AcDbEntity
  8
A1
  6
CONTINUOUS
 62
7
100
AcDbSpline
210
0.000000000000000
220
0.000000000000000
230
1.000000000000000
 70
     8
 71
     3
 72
     9
 73
     5
 74
     0
 42
1.000000000000000e-07
 43
1.000000000000000e-07
 12
0.9982123332770243
 22
-0.05976736311367858
 32
0.000000000000000
 13
0.9570612206912301
 23
0.2898858738381023
 33
0.000000000000000
 40
0.000000000000000
 40
0.000000000000000
 40
0.000000000000000
 40
0.000000000000000
 40
0.1752965604002968
 40
0.3562304919533433
 40
0.3562304919533433
 40
0.3562304919533433
 40
0.3562304919533433
 10
208.0399461790247
 20
147.1132755056773
 30
0.000000000000000
 10
208.0982739085489
 20
147.1097831679513
 30
0.000000000000000
 10
208.2176615790722
 20
147.1127803922986
 30
0.000000000000000
 10
208.3346061957269
 20
147.1372799945304
 30
0.000000000000000
 10
208.3923278121924
 20
147.1547633914821
 30
0.000000000000000
  0
SPLINE
  5
BC
100
AcDbEntity
  8
A1
  6
CONTINUOUS
 62
7
100
AcDbSpline
210
0.000000000000000
220
0.000000000000000
230
1.000000000000000
 70
     8
 71
     3
 72
     9
 73
     5
 74
     0
 42
1.000000000000000e-07
 43
1.000000000000000e-07
 12
0.9570330835281311
 22
-0.2899787527253466
 32
0.000000000000000
 13
0.9982181481436783
 23
0.05967016605154640
 33
0.000000000000000
 40
0.000000000000000
 40
0.000000000000000
 40
0.000000000000000
 40
0.000000000000000
 40
0.1746847936764271
 40
0.3562303204128746
 40
0.3562303204128746
 40
0.3562303204128746
 40
0.3562303204128746
 10
195.6076701878072
 20
147.1547633914821
 30
0.000000000000000
 10
195.6633965633864
 20
147.1378784319520
 30
0.000000000000000
 10
195.7802021839206
 20
147.1130317038472
 30
0.000000000000000
 10
195.8996444744741
 20
147.1096645551019
 30
0.000000000000000
 10
195.9600518209749
 20
147.1132755056773
 30
0.000000000000000
  0
SPLINE
  5
BD
100
AcDbEntity
  8
A1
  6
CONTINUOUS
 62
7
100
AcDbSpline
210
0.000000000000000
220
0.000000000000000
230
1.000000000000000
 70
     8
 71
     3
 72
     9
 73
     5
 74
     0
 42
1.000000000000000e-07
 43
1.000000000000000e-07
 12
-0.1133283659391964
 22
0.9935575884042009
 32
0.000000000000000
 13
0.01635456922031153
 23
0.9998662550879089
 33
0.000000000000000
 40
0.000000000000000
 40
0.000000000000000
 40
0.000000000000000
 40
0.000000000000000
 40
0.2357869574924023
 40
0.3491606169532047
 40
0.3491606169532047
 40
0.3491606169532047
 40
0.3491606169532047
 10
187.6195549522306
 20
133.2280297464447
 30
0.000000000000000
 10
187.6106478353631
 20
133.3061190533991
 30
0.000000000000000
 10
187.6025080425098
 20
133.4224185013595
 30
0.000000000000000
 10
187.6019625008937
 20
133.5388292726708
 30
0.000000000000000
 10
187.6025805600141
 20
133.5766154381077
 30
0.000000000000000
  0
SPLINE
  5
BE
100
AcDbEntity
  8
A1
  6
CONTINUOUS
 62
7
100
AcDbSpline
210
0.000000000000000
220
0.000000000000000
230
1.000000000000000
 70
     8
 71
     3
 72
    17
 73
    13
 74
     0
 42
1.000000000000000e-07
 43
1.000000000000000e-07
 12
-0.1184649676124536
 22
-0.9929582324803050
 32
0.000000000000000
 13
-0.9440338898302798
 23
-0.3298484725619346
 33
0.000000000000000
 40
0.000000000000000
 40
0.000000000000000
 40
0.000000000000000
 40
0.000000000000000
 40
0.04869082081597410
 40
0.4411662661466511
 40
0.8389877845570133
 40
1.235394369119519
 40
1.646445830323699
 40
2.070864991735338
 40
2.385565317708649
 40
2.709965405100727
 40
3.041754341645770
 40
3.238178073296000
 40
3.238178073296000
 40
3.238178073296000
 40
3.238178073296000
 10
216.3814996533321
 20
133.2373894595499
 30
0.000000000000000
 10
216.3795769344951
 20
133.2212734757581
 30
0.000000000000000
 10
216.3608796866414
 20
133.0754198028185
 30
0.000000000000000
 10
216.3051321512927
 20
132.8002477782472
 30
0.000000000000000
 10
216.1667716201695
 20
132.4279207498469
 30
0.000000000000000
 10
215.9699242913519
 20
132.0759802772781
 30
0.000000000000000
 10
215.7184668533574
 20
131.7495664009254
 30
0.000000000000000
 10
215.4422051193416
 20
131.4816781483971
 30
0.000000000000000
 10
215.1583259221903
 20
131.2683673353895
 30
0.000000000000000
 10
214.8810413615123
 20
131.1004537134252
 30
0.000000000000000
 10
214.6240271085856
 20
130.9779767307817
 30
0.000000000000000
 10
214.4594973179553
 20
130.9149938324993
 30
0.000000000000000
 10
214.3976870981404
 20
130.8933971432127
 30
0.000000000000000
  0
SPLINE
  5
BF
100
AcDbEntity
  8
A1
  6
CONTINUOUS
 62
7
100
AcDbSpline
210
0.000000000000000
220
0.000000000000000
230
1.000000000000000
 70
     8
 71
     3
 72
    17
 73
    13
 74
     0
 42
1.000000000000000e-07
 43
1.000000000000000e-07
 12
-0.003449485383725914
 22
0.9999940505078939
 32
0.000000000000000
 13
-0.9440456760689813
 23
0.3298147381440231
 33
0.000000000000000
 40
0.000000000000000
 40
0.000000000000000
 40
0.000000000000000
 40
0.000000000000000
 40
0.3111375602145703
 40
0.6261039440802445
 40
0.9454269881269333
 40
1.272584956500058
 40
1.610158764675720
 40
1.957266453223801
 40
2.308758194951595
 40
2.673119067914138
 40
3.047098705976900
 40
3.245805101199041
 40
3.245805101199041
 40
3.245805101199041
 40
3.245805101199041
 10
191.5000009999998
 20
128.5072197675242
 30
0.000000000000000
 10
191.4996432451777
 20
128.6109316705589
 30
0.000000000000000
 10
191.4841439418925
 20
128.8199372762213
 30
0.000000000000000
 10
191.4143049215789
 20
129.1283256508515
 30
0.000000000000000
 10
191.3002544610147
 20
129.4289473016700
 30
0.000000000000000
 10
191.1419720990530
 20
129.7173915663480
 30
0.000000000000000
 10
190.9422409962858
 20
129.9902864479691
 30
0.000000000000000
 10
190.7043364887022
 20
130.2419419234285
 30
0.000000000000000
 10
190.4302190838591
 20
130.4677888717909
 30
0.000000000000000
 10
190.1242072423353
 20
130.6650312318258
 30
0.000000000000000
 10
189.8431309726841
 20
130.8030093379851
 30
0.000000000000000
 10
189.6648402062647
 20
130.8715517106431
 30
0.000000000000000
 10
189.6023109018592
 20
130.8933971432124
 30
0.000000000000000
  0
SPLINE
  5
C0
100
AcDbEntity
  8
A1
  6
CONTINUOUS
 62
7
100
AcDbSpline
210
0.000000000000000
220
0.000000000000000
230
1.000000000000000
 70
     8
 71
     3
 72
    18
 73
    14
 74
     0
 42
1.000000000000000e-07
 43
1.000000000000000e-07
 12
-0.9439655692126507
 22
0.3300439427409856
 32
0.000000000000000
 13
-0.1162444854244313
 23
0.9932206298726669
 33
0.000000000000000
 40
0.000000000000000
 40
0.000000000000000
 40
0.000000000000000
 40
0.000000000000000
 40
0.3343592934532590
 40
0.6607734416497892
 40
0.9640302894547157
 40
1.260177858765562
 40
1.547951677730457
 40
1.863839673586461
 40
2.172351292023603
 40
2.473242877396291
 40
2.807637423586218
 40
3.138117288370549
 40
3.229651893625784
 40
3.229651893625784
 40
3.229651893625784
 40
3.229651893625784
 10
189.6023109018594
 20
130.8933971432126
 30
0.000000000000000
 10
189.4971030149373
 20
130.9301815630471
 30
0.000000000000000
 10
189.2926910653854
 20
131.0133456311614
 30
0.000000000000000
 10
189.0078512543415
 20
131.1631978708823
 30
0.000000000000000
 10
188.7498840434647
 20
131.3334599816655
 30
0.000000000000000
 10
188.5194353118421
 20
131.5195122838019
 30
0.000000000000000
 10
188.3050135424028
 20
131.7299228443709
 30
0.000000000000000
 10
188.1115259120071
 20
131.9653289278426
 30
0.000000000000000
 10
187.9432305243054
 20
132.2245657774414
 30
0.000000000000000
 10
187.8024531930981
 20
132.5066690080396
 30
0.000000000000000
 10
187.6949064394444
 20
132.8110570075202
 30
0.000000000000000
 10
187.6418506333245
 20
133.0582946003770
 30
0.000000000000000
 10
187.6231017499260
 20
133.1977250603491
 30
0.000000000000000
 10
187.6195549522306
 20
133.2280297464447
 30
0.000000000000000
  0
SPLINE
  5
C1
100
AcDbEntity
  8
A1
  6
CONTINUOUS
 62
7
100
AcDbSpline
210
0.000000000000000
220
0.000000000000000
230
1.000000000000000
 70
     8
 71
     3
 72
    17
 73
    13
 74
     0
 42
1.000000000000000e-07
 43
1.000000000000000e-07
 12
0.05872677468232723
 22
-0.9982740935911352
 32
0.000000000000000
 13
0.9419113132955772
 23
-0.3358616945793074
 33
0.000000000000000
 40
0.000000000000000
 40
0.000000000000000
 40
0.000000000000000
 40
0.000000000000000
 40
0.2927025850775629
 40
0.5885262641805686
 40
0.8878798137632600
 40
1.193722906461260
 40
1.507512054574644
 40
1.828868803689471
 40
2.205039170643187
 40
2.595266088223994
 40
2.996440380822921
 40
3.403850309294883
 40
3.403850309294883
 40
3.403850309294883
 40
3.403850309294883
 10
186.0366297670196
 20
131.9842773795672
 30
0.000000000000000
 10
186.0423595932739
 20
131.8868782436305
 30
0.000000000000000
 10
186.0651923796461
 20
131.6915035719888
 30
0.000000000000000
 10
186.1341774100465
 20
131.4030260702439
 30
0.000000000000000
 10
186.2378338166440
 20
131.1203907973351
 30
0.000000000000000
 10
186.3769608297434
 20
130.8466948341197
 30
0.000000000000000
 10
186.5503833246619
 20
130.5845442219225
 30
0.000000000000000
 10
186.7669889550584
 20
130.3253233693730
 30
0.000000000000000
 10
187.0319077334685
 20
130.0763761821764
 30
0.000000000000000
 10
187.3460508456193
 20
129.8450913246356
 30
0.000000000000000
 10
187.6942327504685
 20
129.6472286556657
 30
0.000000000000000
 10
187.9430573889676
 20
129.5417785495403
 30
0.000000000000000
 10
188.0709720625599
 20
129.4961674198853
 30
0.000000000000000
  0
SPLINE
  5
C2
100
AcDbEntity
  8
A1
  6
CONTINUOUS
 62
7
100
AcDbSpline
210
0.000000000000000
220
0.000000000000000
230
1.000000000000000
 70
     8
 71
     3
 72
    17
 73
    13
 74
     0
 42
1.000000000000000e-07
 43
1.000000000000000e-07
 12
0.9414510738768058
 22
-0.3371496336887958
 32
0.000000000000000
 13
0.003334952339855590
 23
-0.9999944390307292
 33
0.000000000000000
 40
0.000000000000000
 40
0.000000000000000
 40
0.000000000000000
 40
0.000000000000000
 40
0.3300120105835552
 40
0.6530831739446878
 40
0.9664399795745051
 40
1.269636717671191
 40
1.565021926526956
 40
1.851486384338597
 40
2.149524647842107
 40
2.441484082758541
 40
2.727399906121550
 40
3.112639198662686
 40
3.112639198662686
 40
3.112639198662686
 40
3.112639198662686
 10
188.0709720625599
 20
129.4961674198853
 30
0.000000000000000
 10
188.1745354498119
 20
129.4590796103916
 30
0.000000000000000
 10
188.3759116090888
 20
129.3752417809143
 30
0.000000000000000
 10
188.6599593371158
 20
129.2221972719650
 30
0.000000000000000
 10
188.9196832104132
 20
129.0461061102157
 30
0.000000000000000
 10
189.1520084130351
 20
128.8491694020150
 30
0.000000000000000
 10
189.3557201964858
 20
128.6349788057718
 30
0.000000000000000
 10
189.5334204842268
 20
128.4008388000661
 30
0.000000000000000
 10
189.6806786013725
 20
128.1475823835639
 30
0.000000000000000
 10
189.7940693263423
 20
127.8776052398417
 30
0.000000000000000
 10
189.8781893150358
 20
127.5668460689671
 30
0.000000000000000
 10
189.8995727484398
 20
127.3424482826693
 30
0.000000000000000
 10
189.9000009999998
 20
127.2140358992569
 30
0.000000000000000
  0
SPLINE
  5
C3
100
AcDbEntity
  8
A1
  6
CONTINUOUS
 62
7
100
AcDbSpline
210
0.000000000000000
220
0.000000000000000
230
1.000000000000000
 70
     8
 71
     3
 72
    18
 73
    14
 74
     0
 42
1.000000000000000e-07
 43
1.000000000000000e-07
 12
-0.9437314798376519
 22
-0.3307127060829771
 32
0.000000000000000
 13
-0.001289857694246166
 23
-0.9999991681329448
 33
0.000000000000000
 40
0.000000000000000
 40
0.000000000000000
 40
0.000000000000000
 40
0.000000000000000
 40
0.3328447803405485
 40
0.6586852634741276
 40
0.9747769981557096
 40
1.280285253135093
 40
1.578121782087109
 40
1.867287521876500
 40
2.177745892944023
 40
2.481753726743633
 40
2.779289876796891
 40
3.013417649758615
 40
3.246345816755653
 40
3.246345816755653
 40
3.246345816755653
 40
3.246345816755653
 10
214.3976870981404
 20
130.8933971432127
 30
0.000000000000000
 10
214.2929817324381
 20
130.8567051438754
 30
0.000000000000000
 10
214.0893411123483
 20
130.7734064324957
 30
0.000000000000000
 10
213.8021772000559
 20
130.6202584018014
 30
0.000000000000000
 10
213.5395222077711
 20
130.4438679530906
 30
0.000000000000000
 10
213.3040375208267
 20
130.2468422973787
 30
0.000000000000000
 10
213.0965488814074
 20
130.0328765645057
 30
0.000000000000000
 10
212.9119473497011
 20
129.7967277174773
 30
0.000000000000000
 10
212.7551977857009
 20
129.5385860367281
 30
0.000000000000000
 10
212.6308625464055
 20
129.2602870549735
 30
0.000000000000000
 10
212.5510704851795
 20
128.9924915676089
 30
0.000000000000000
 10
212.5087540413685
 20
128.7406819079503
 30
0.000000000000000
 10
212.5000971480626
 20
128.5848624252689
 30
0.000000000000000
 10
212.4999969999998
 20
128.5072197675250
 30
0.000000000000000
  0
SPLINE
  5
C4
100
AcDbEntity
  8
A1
  6
CONTINUOUS
 62
7
100
AcDbSpline
210
0.000000000000000
220
0.000000000000000
230
1.000000000000000
 70
     8
 71
     3
 72
    17
 73
    13
 74
     0
 42
1.000000000000000e-07
 43
1.000000000000000e-07
 12
0.003300890791251732
 22
0.9999945520451092
 32
0.000000000000000
 13
0.9417335494545114
 23
0.3363598100715990
 33
0.000000000000000
 40
0.000000000000000
 40
0.000000000000000
 40
0.000000000000000
 40
0.000000000000000
 40
0.2941274273773137
 40
0.5918542658664701
 40
0.8936903645274923
 40
1.202910700691335
 40
1.521951199066972
 40
1.849925898116346
 40
2.183503755239232
 40
2.528929177896670
 40
2.883249020806192
 40
3.112656518399257
 40
3.112656518399257
 40
3.112656518399257
 40
3.112656518399257
 10
214.0999969999998
 20
127.2140358992569
 30
0.000000000000000
 10
214.1003206275052
 20
127.3120778409183
 30
0.000000000000000
 10
214.1149225447101
 20
127.5096496180312
 30
0.000000000000000
 10
214.1807439628009
 20
127.8012031152826
 30
0.000000000000000
 10
214.2884048869271
 20
128.0854197309916
 30
0.000000000000000
 10
214.4380121608071
 20
128.3580487864684
 30
0.000000000000000
 10
214.6266662843629
 20
128.6160072835619
 30
0.000000000000000
 10
214.8514166670332
 20
128.8545036440463
 30
0.000000000000000
 10
215.1103100587108
 20
129.0693542966631
 30
0.000000000000000
 10
215.3991053607933
 20
129.2583601118004
 30
0.000000000000000
 10
215.6760562181482
 20
129.3984763116862
 30
0.000000000000000
 10
215.8570123584465
 20
129.4704462657788
 30
0.000000000000000
 10
215.9290259374397
 20
129.4961674198853
 30
0.000000000000000
  0
SPLINE
  5
C5
100
AcDbEntity
  8
A1
  6
CONTINUOUS
 62
7
100
AcDbSpline
210
0.000000000000000
220
0.000000000000000
230
1.000000000000000
 70
     8
 71
     3
 72
    18
 73
    14
 74
     0
 42
1.000000000000000e-07
 43
1.000000000000000e-07
 12
0.9415461613116349
 22
0.3368839950492202
 32
0.000000000000000
 13
0.05882416178474159
 23
0.9982683597067989
 33
0.000000000000000
 40
0.000000000000000
 40
0.000000000000000
 40
0.000000000000000
 40
0.000000000000000
 40
0.2993831878158860
 40
0.5927790573980455
 40
0.9140824685604096
 40
1.227885165839210
 40
1.532650452323851
 40
1.861162023051344
 40
2.181726280285717
 40
2.493897603591244
 40
2.800959246728374
 40
3.104250238535966
 40
3.404203979310934
 40
3.404203979310934
 40
3.404203979310934
 40
3.404203979310934
 10
215.9290259374397
 20
129.4961674198853
 30
0.000000000000000
 10
216.0229869678562
 20
129.5297865546726
 30
0.000000000000000
 10
216.2063010554925
 20
129.6042667201079
 30
0.000000000000000
 10
216.4784337974770
 20
129.7420561093426
 30
0.000000000000000
 10
216.7411462150483
 20
129.9066108337337
 30
0.000000000000000
 10
216.9898781918369
 20
130.0978833967825
 30
0.000000000000000
 10
217.2205726084781
 20
130.3141489376639
 30
0.000000000000000
 10
217.4282084566831
 20
130.5558577648351
 30
0.000000000000000
 10
217.6084836828645
 20
130.8215852756094
 30
0.000000000000000
 10
217.7535117062080
 20
131.1000928611765
 30
0.000000000000000
 10
217.8617443036306
 20
131.3887323816439
 30
0.000000000000000
 10
217.9337880001133
 20
131.6842127095963
 30
0.000000000000000
 10
217.9574867238549
 20
131.8844659366368
 30
0.000000000000000
 10
217.9633682329800
 20
131.9842773795672
 30
0.000000000000000
  0
SPLINE
  5
C6
100
AcDbEntity
  8
A1
  6
CONTINUOUS
 62
7
100
AcDbSpline
210
0.000000000000000
220
0.000000000000000
230
1.000000000000000
 70
     8
 71
     3
 72
    16
 73
    12
 74
     0
 42
1.000000000000000e-07
 43
1.000000000000000e-07
 12
0.9996946068540637
 22
-0.02471220399888807
 32
0.000000000000000
 13
0.6954708710959494
 23
-0.7185542898464519
 33
0.000000000000000
 40
0.000000000000000
 40
0.000000000000000
 40
0.000000000000000
 40
0.000000000000000
 40
0.7096589316839641
 40
1.403827647083931
 40
2.027444249464529
 40
2.637838360297773
 40
3.234262587177313
 40
3.734498531532052
 40
4.233205515042696
 40
4.733172600732494
 40
4.911528669384778
 40
4.911528669384778
 40
4.911528669384778
 40
4.911528669384778
 10
206.9290044877321
 20
147.3569899999999
 30
0.000000000000000
 10
207.1654852233023
 20
147.3511442545701
 30
0.000000000000000
 10
207.6330372439908
 20
147.3289159475891
 30
0.000000000000000
 10
208.3066406873097
 20
147.2714717385776
 30
0.000000000000000
 10
208.9433274017147
 20
147.1805012334292
 30
0.000000000000000
 10
209.5402664457045
 20
147.0511434064513
 30
0.000000000000000
 10
210.0838510745364
 20
146.8792826163155
 30
0.000000000000000
 10
210.5712996171788
 20
146.6640360306421
 30
0.000000000000000
 10
211.0022551644628
 20
146.4086527000160
 30
0.000000000000000
 10
211.3105197252429
 20
146.1634143898811
 30
0.000000000000000
 10
211.4719931230303
 20
146.0050085060833
 30
0.000000000000000
 10
211.5133402731739
 20
145.9622889999999
 30
0.000000000000000
  0
SPLINE
  5
C7
100
AcDbEntity
  8
A1
  6
CONTINUOUS
 62
7
100
AcDbSpline
210
0.000000000000000
220
0.000000000000000
230
1.000000000000000
 70
     8
 71
     3
 72
    17
 73
    13
 74
     0
 42
1.000000000000000e-07
 43
1.000000000000000e-07
 12
0.6960252499102353
 22
0.7180173058411583
 32
0.000000000000000
 13
0.9997326511843312
 23
0.02312198425488532
 33
0.000000000000000
 40
0.000000000000000
 40
0.000000000000000
 40
0.000000000000000
 40
0.000000000000000
 40
0.3052993487888441
 40
0.6075764989305750
 40
0.9149155282557122
 40
1.222260231956504
 40
1.729573386595655
 40
2.244148236944344
 40
2.781877460204730
 40
3.330597583792287
 40
4.111340855314299
 40
4.912119768583935
 40
4.912119768583935
 40
4.912119768583935
 40
4.912119768583935
 10
192.4866577268256
 20
145.9622889999999
 30
0.000000000000000
 10
192.5574897453384
 20
146.0353590719640
 30
0.000000000000000
 10
192.7049928164692
 20
146.1746172633466
 30
0.000000000000000
 10
192.9451059487941
 20
146.3632498209698
 30
0.000000000000000
 10
193.2009972608003
 20
146.5310728280133
 30
0.000000000000000
 10
193.5293736598516
 20
146.7107867108058
 30
0.000000000000000
 10
193.9375773039072
 20
146.8855694975563
 30
0.000000000000000
 10
194.4340754792213
 20
147.0419301316027
 30
0.000000000000000
 10
194.9550048251414
 20
147.1601122336809
 30
0.000000000000000
 10
195.5700948980239
 20
147.2575594830785
 30
0.000000000000000
 10
196.2774338417427
 20
147.3242526015377
 30
0.000000000000000
 10
196.8041385702756
 20
147.3508181341918
 30
0.000000000000000
 10
197.0709935122674
 20
147.3569899999999
 30
0.000000000000000
  0
SPLINE
  5
C8
100
AcDbEntity
  8
A1
  6
CONTINUOUS
 62
7
100
AcDbSpline
210
0.000000000000000
220
0.000000000000000
230
1.000000000000000
 70
     8
 71
     3
 72
    16
 73
    12
 74
     0
 42
1.000000000000000e-07
 43
1.000000000000000e-07
 12
0.6147163622149492
 22
0.7887482450216794
 32
0.000000000000000
 13
0.9989337799913756
 23
0.04616603938166008
 33
0.000000000000000
 40
0.000000000000000
 40
0.000000000000000
 40
0.000000000000000
 40
0.000000000000000
 40
0.3329564881508169
 40
0.6583311841888995
 40
1.024750803358374
 40
1.388236108267511
 40
1.762047750215977
 40
2.138843685605794
 40
2.633690609273915
 40
3.140128559530232
 40
3.658034563978726
 40
3.658034563978726
 40
3.658034563978726
 40
3.658034563978726
 10
190.2040818173522
 20
145.9622889999999
 30
0.000000000000000
 10
190.2723064177428
 20
146.0498286152324
 30
0.000000000000000
 10
190.4163942115103
 20
146.2159776904618
 30
0.000000000000000
 10
190.6662662026872
 20
146.4497227543598
 30
0.000000000000000
 10
190.9488257560388
 20
146.6605881160675
 30
0.000000000000000
 10
191.2668206441027
 20
146.8469771939668
 30
0.000000000000000
 10
191.6055518977902
 20
147.0007282915044
 30
0.000000000000000
 10
191.9984598281221
 20
147.1363554733217
 30
0.000000000000000
 10
192.4455924689655
 20
147.2450254299900
 30
0.000000000000000
 10
192.9467766500114
 20
147.3205087319497
 30
0.000000000000000
 10
193.2873431038473
 20
147.3490201103341
 30
0.000000000000000
 10
193.4597943714153
 20
147.3569899999999
 30
0.000000000000000
  0
SPLINE
  5
C9
100
AcDbEntity
  8
A1
  6
CONTINUOUS
 62
7
100
AcDbSpline
210
0.000000000000000
220
0.000000000000000
230
1.000000000000000
 70
     8
 71
     3
 72
    16
 73
    12
 74
     0
 42
1.000000000000000e-07
 43
1.000000000000000e-07
 12
0.9990214213554509
 22
-0.04422894609967898
 32
0.000000000000000
 13
0.6147050458566810
 23
-0.7887570643761137
 33
0.000000000000000
 40
0.000000000000000
 40
0.000000000000000
 40
0.000000000000000
 40
0.000000000000000
 40
0.6509521964253520
 40
1.091662083097938
 40
1.525512126848570
 40
1.952821129872248
 40
2.375496639974947
 40
2.777218216347297
 40
3.185273412243185
 40
3.602398033140205
 40
3.657623754911402
 40
3.657623754911402
 40
3.657623754911402
 40
3.657623754911402
 10
210.5402036285843
 20
147.3569899999999
 30
0.000000000000000
 10
210.7569753580867
 20
147.3473930234635
 30
0.000000000000000
 10
211.1199273490386
 20
147.3137685585675
 30
0.000000000000000
 10
211.6217614050873
 20
147.2296539196823
 30
0.000000000000000
 10
212.0431579878281
 20
147.1236503171897
 30
0.000000000000000
 10
212.4473808356123
 20
146.9810436802779
 30
0.000000000000000
 10
212.8244610618206
 20
146.8002239175554
 30
0.000000000000000
 10
213.1715591287912
 20
146.5785454826596
 30
0.000000000000000
 10
213.4868640604558
 20
146.3164073494957
 30
0.000000000000000
 10
213.6867304369292
 20
146.1001425271410
 30
0.000000000000000
 10
213.7846003393694
 20
145.9768088927273
 30
0.000000000000000
 10
213.7959161826474
 20
145.9622889999999
 30
0.000000000000000
  0
ELLIPSE
  5
CA
100
AcDbEntity
  8
A1
  6
CONTINUOUS
 62
7
100
AcDbEllipse
 10
201.9999989999998
 20
133.2561317110645
 30
0.000000000000000
 11
0.000000000000000
 21
16.92585372583522
 31
0.000000000000000
210
0.000000000000000
220
0.000000000000000
230
1.000000000000000
 40
0.8507694934182367
 41
4.731324679888045
 42
5.561502742829998
  0
ELLIPSE
  5
CB
100
AcDbEntity
  8
A1
  6
CONTINUOUS
 62
7
100
AcDbEllipse
 10
201.9999989999998
 20
133.2561317110645
 30
0.000000000000000
 11
0.000000000000000
 21
16.92585372583522
 31
0.000000000000000
210
0.000000000000000
220
0.000000000000000
230
1.000000000000000
 40
0.8507694934182367
 41
0.7216825643495856
 42
1.551860627291541
  0
ELLIPSE
  5
CC
100
AcDbEntity
  8
A1
  6
CONTINUOUS
 62
7
100
AcDbEllipse
 10
201.9999989999998
 20
146.2490236022385
 30
0.000000000000000
 11
14.40000000000000
 21
0.000000000000000
 31
0.000000000000000
210
0.000000000000000
220
0.000000000000000
230
1.000000000000000
 40
0.08188871236008620
 41
1.221441106499054
 42
1.920151547090741
  0
ELLIPSE
  5
CD
100
AcDbEntity
  8
A1
  6
CONTINUOUS
 62
7
100
AcDbEllipse
 10
201.9999989999998
 20
133.2561317110645
 30
0.000000000000000
 11
0.000000000000000
 21
18.80650413981691
 31
0.000000000000000
210
0.000000000000000
220
0.000000000000000
230
1.000000000000000
 40
0.8507694934182372
 41
1.570796326794897
 42
1.638476413211668
  0
ELLIPSE
  5
CE
100
AcDbEntity
  8
A1
  6
CONTINUOUS
 62
7
100
AcDbEllipse
 10
201.9999989999998
 20
146.2490236022385
 30
0.000000000000000
 11
16.00000000000000
 21
0.000000000000000
 31
0.000000000000000
210
0.000000000000000
220
0.000000000000000
230
1.000000000000000
 40
0.08188871236008630
 41
1.007752312891289
 42
2.133840340698504
  0
ELLIPSE
  5
CF
100
AcDbEntity
  8
A1
  6
CONTINUOUS
 62
7
100
AcDbEllipse
 10
201.9999989999998
 20
133.2561317110645
 30
0.000000000000000
 11
0.000000000000000
 21
18.80650413981691
 31
0.000000000000000
210
0.000000000000000
220
0.000000000000000
230
1.000000000000000
 40
0.8507694934182372
 41
4.712388980384690
 42
5.454202036390180
  0
ELLIPSE
  5
D0
100
AcDbEntity
  8
A1
  6
CONTINUOUS
 62
7
100
AcDbEllipse
 10
201.9999989999998
 20
133.2561317110645
 30
0.000000000000000
 11
0.000000000000000
 21
18.80650413981691
 31
0.000000000000000
210
0.000000000000000
220
0.000000000000000
230
1.000000000000000
 40
0.8507694934182372
 41
0.8289832707894059
 42
1.570796326794897
  0
ELLIPSE
  5
D1
100
AcDbEntity
  8
A1
  6
CONTINUOUS
 62
7
100
AcDbEllipse
 10
201.9999989999998
 20
133.2561317110645
 30
0.000000000000000
 11
0.000000000000000
 21
18.80650413981691
 31
0.000000000000000
210
0.000000000000000
220
0.000000000000000
230
1.000000000000000
 40
0.8507694934182372
 41
4.644708893967919
 42
4.712388980384690
  0
ARC
  5
D2
100
AcDbEntity
  8
A1
  6
CONTINUOUS
 62
7
100
AcDbCircle
 10
201.9281910000341
 20
47.30021800065879
 30
0.000000000000000
 40
99.99999999934019
100
AcDbArc
 50
86.49603849165240
 51
87.10131579291158
  0
ARC
  5
D3
100
AcDbEntity
  8
A1
  6
CONTINUOUS
 62
7
100
AcDbCircle
 10
202.0718070002142
 20
47.30021799615133
 30
0.000000000000000
 40
100.0000000038545
100
AcDbArc
 50
92.89868420710012
 51
93.50396150833193
  0
ARC
  5
D4
100
AcDbEntity
  8
A1
  6
CONTINUOUS
 62
7
100
AcDbCircle
 10
202.0718069999999
 20
47.30021799998781
 30
0.000000000000000
 40
100.0000000000121
100
AcDbArc
 50
90.04114295688865
 51
92.89868420708866
  0
ARC
  5
D5
100
AcDbEntity
  8
A1
  6
CONTINUOUS
 62
7
100
AcDbCircle
 10
201.9281909999984
 20
47.30021799993983
 30
0.000000000000000
 40
100.0000000000601
100
AcDbArc
 50
87.10131579291205
 51
89.95885704311070
  0
ARC
  5
D6
100
AcDbEntity
  8
A1
  6
CONTINUOUS
 62
7
100
AcDbCircle
 10
216.4999989999998
 20
151.5001859999999
 30
0.000000000000000
 40
1.500000000000000
100
AcDbArc
 50
0.000000000000000
 51
90.00000000000000
  0
ARC
  5
D7
100
AcDbEntity
  8
A1
  6
CONTINUOUS
 62
7
100
AcDbCircle
 10
187.4999989999998
 20
151.5001859999999
 30
0.000000000000000
 40
1.500000000000000
100
AcDbArc
 50
90.00000000000000
 51
180.0000000000000
  0
LINE
  5
D8
100
AcDbEntity
  8
A1
  6
CONTINUOUS
 62
7
100
AcDbLine
 10
208.6121994745173
 20
147.2217065861226
 30
0.000000000000000
 11
208.3923278121924
 21
147.1547633914821
 31
0.000000000000000
  0
LINE
  5
D9
100
AcDbEntity
  8
A1
  6
CONTINUOUS
 62
7
100
AcDbLine
 10
195.6076701878071
 20
147.1547633914821
 30
0.000000000000000
 11
195.3818374253668
 21
147.2235215316280
 31
0.000000000000000
  0
LINE
  5
DA
100
AcDbEntity
  8
A1
  6
CONTINUOUS
 62
7
100
AcDbLine
 10
191.5000009999998
 20
144.8391078645927
 30
0.000000000000000
 11
191.5000009999998
 21
135.9424092672379
 31
0.000000000000000
  0
LINE
  5
DB
100
AcDbEntity
  8
A1
  6
CONTINUOUS
 62
7
100
AcDbLine
 10
212.4999969999998
 20
135.9424092672524
 30
0.000000000000000
 11
212.4999969999998
 21
144.8391078645927
 31
0.000000000000000
  0
LINE
  5
DC
100
AcDbEntity
  8
A1
  6
CONTINUOUS
 62
7
100
AcDbLine
 10
191.5000009999998
 20
123.1122559999999
 30
0.000000000000000
 11
191.5000009999998
 21
121.0001879909454
 31
0.000000000000000
  0
LINE
  5
DD
100
AcDbEntity
  8
A1
  6
CONTINUOUS
 62
7
100
AcDbLine
 10
189.9000009999998
 20
123.1122559999999
 30
0.000000000000000
 11
189.9000009999998
 21
121.0001879909454
 31
0.000000000000000
  0
LINE
  5
DE
100
AcDbEntity
  8
A1
  6
CONTINUOUS
 62
7
100
AcDbLine
 10
189.9000009999998
 20
121.0001879909454
 30
0.000000000000000
 11
191.5000009999998
 21
121.0001879909454
 31
0.000000000000000
  0
LINE
  5
DF
100
AcDbEntity
  8
A1
  6
CONTINUOUS
 62
7
100
AcDbLine
 10
212.4999989999997
 20
121.0001879909454
 30
0.000000000000000
 11
214.0999969999997
 21
121.0001879909454
 31
0.000000000000000
  0
LINE
  5
E0
100
AcDbEntity
  8
A1
  6
CONTINUOUS
 62
7
100
AcDbLine
 10
212.4999969999998
 20
121.0001879909454
 30
0.000000000000000
 11
212.4999969999998
 21
123.1122559999999
 31
0.000000000000000
  0
LINE
  5
E1
100
AcDbEntity
  8
A1
  6
CONTINUOUS
 62
7
100
AcDbLine
 10
214.0999969999997
 20
121.0001879909454
 30
0.000000000000000
 11
214.0999969999997
 21
123.1122559999999
 31
0.000000000000000
  0
LINE
  5
E2
100
AcDbEntity
  8
A1
  6
CONTINUOUS
 62
7
100
AcDbLine
 10
191.5000009999998
 20
128.5072197675242
 30
0.000000000000000
 11
191.5000009999998
 21
135.9424092672379
 31
0.000000000000000
  0
LINE
  5
E3
100
AcDbEntity
  8
A1
  6
CONTINUOUS
 62
7
100
AcDbLine
 10
212.4999969999998
 20
128.5072197675250
 30
0.000000000000000
 11
212.4999969999998
 21
135.9424092672524
 31
0.000000000000000
  0
LINE
  5
E4
100
AcDbEntity
  8
A1
  6
CONTINUOUS
 62
7
100
AcDbLine
 10
191.5000009999998
 20
123.1122559999998
 30
0.000000000000000
 11
191.5000009999998
 21
128.5072197675242
 31
0.000000000000000
  0
LINE
  5
E5
100
AcDbEntity
  8
A1
  6
CONTINUOUS
 62
7
100
AcDbLine
 10
189.9000009999998
 20
123.1122559999998
 30
0.000000000000000
 11
189.9000009999998
 21
127.2140358992569
 31
0.000000000000000
  0
LINE
  5
E6
100
AcDbEntity
  8
A1
  6
CONTINUOUS
 62
7
100
AcDbLine
 10
216.3974174399854
 20
133.5766154381077
 30
0.000000000000000
 11
216.3814996533320
 21
133.2373894595499
 31
0.000000000000000
  0
LINE
  5
E7
100
AcDbEntity
  8
A1
  6
CONTINUOUS
 62
7
100
AcDbLine
 10
212.4999969999998
 20
128.5072197675250
 30
0.000000000000000
 11
212.4999969999998
 21
123.1122559999998
 31
0.000000000000000
  0
LINE
  5
E8
100
AcDbEntity
  8
A1
  6
CONTINUOUS
 62
7
100
AcDbLine
 10
214.0999969999998
 20
127.2140358992569
 30
0.000000000000000
 11
214.0999969999997
 21
123.1122559999998
 31
0.000000000000000
  0
LINE
  5
E9
100
AcDbEntity
  8
A1
  6
CONTINUOUS
 62
7
100
AcDbLine
 10
187.4999989999998
 20
153.0001859999999
 30
0.000000000000000
 11
216.4999989999998
 21
153.0001859999999
 31
0.000000000000000
  0
LINE
  5
EA
100
AcDbEntity
  8
A1
  6
CONTINUOUS
 62
7
100
AcDbLine
 10
217.9999989999998
 20
133.2561317110645
 30
0.000000000000000
 11
217.9999989999998
 21
151.5001860000000
 31
0.000000000000000
  0
LINE
  5
EB
100
AcDbEntity
  8
A1
  6
CONTINUOUS
 62
7
100
AcDbLine
 10
185.9999989999998
 20
151.5001860000000
 30
0.000000000000000
 11
185.9999989999998
 21
133.2561317110645
 31
0.000000000000000
  0
ARC
  5
EC
100
AcDbEntity
  8
A1
  6
CONTINUOUS
 62
7
100
AcDbCircle
 10
124.1797979999998
 20
210.3001829999999
 30
0.000000000000000
 40
1.000000000000000
100
AcDbArc
 50
89.99997999999992
 51
168.4635806116481
  0
ARC
  5
ED
100
AcDbEntity
  8
A1
  6
CONTINUOUS
 62
7
100
AcDbCircle
 10
126.9999999999998
 20
187.8001909999999
 30
0.000000000000000
 40
5.315072000000000
100
AcDbArc
 50
221.1859300000000
 51
243.7571229301461
  0
LINE
  5
EE
100
AcDbEntity
  8
A1
  6
CONTINUOUS
 62
7
100
AcDbLine
 10
124.6329636788315
 20
211.3001829999999
 30
0.000000000000000
 11
124.1797983490657
 21
211.3001829999999
 31
0.000000000000000
  0
LINE
  5
EF
100
AcDbEntity
  8
A1
  6
CONTINUOUS
 62
7
100
AcDbLine
 10
123.2000039999998
 20
210.5001729999999
 30
0.000000000000000
 11
123.9303243819909
 21
209.1846043694170
 31
0.000000000000000
  0
LINE
  5
F0
100
AcDbEntity
  8
A1
  6
CONTINUOUS
 62
7
100
AcDbLine
 10
124.6023988539375
 20
210.5001729999999
 30
0.000000000000000
 11
123.2000039999998
 21
210.5001729999999
 31
0.000000000000000
  0
LINE
  5
F1
100
AcDbEntity
  8
A1
  6
CONTINUOUS
 62
7
100
AcDbLine
 10
123.0000004887103
 20
184.9001899999999
 30
0.000000000000000
 11
123.0000004887103
 21
184.3001912593499
 31
0.000000000000000
  0
LINE
  5
F2
100
AcDbEntity
  8
A1
  6
CONTINUOUS
 62
7
100
AcDbLine
 10
124.3092178128626
 20
184.3001912593499
 30
0.000000000000000
 11
123.0000009774207
 21
184.3001912593499
 31
0.000000000000000
  0
ELLIPSE
  5
F3
100
AcDbEntity
  8
A1
  6
CONTINUOUS
 62
7
100
AcDbEllipse
 10
135.4167443437834
 20
195.6930812188135
 30
0.000000000000000
 11
-0.3290424560928565
 21
-0.6720561531421476
 31
0.000000000000000
210
0.000000000000000
220
0.000000000000000
230
1.000000000000000
 40
0.6681958164544027
 41
3.457770103776572
 42
4.712388980384694
  0
ELLIPSE
  5
F4
100
AcDbEntity
  8
A1
  6
CONTINUOUS
 62
7
100
AcDbEllipse
 10
138.6928922188134
 20
192.4169333437834
 30
0.000000000000000
 11
-0.6720561531421477
 21
-0.3290424560928563
 31
0.000000000000000
210
0.000000000000000
220
0.000000000000000
230
1.000000000000000
 40
0.6681958164544027
 41
1.570796326794893
 42
2.825415203403176
  0
ELLIPSE
  5
F5
100
AcDbEntity
  8
A1
  6
CONTINUOUS
 62
7
100
AcDbEllipse
 10
141.3071057811863
 20
201.5834426562164
 30
0.000000000000000
 11
-0.6720561531421477
 21
-0.3290424560928563
 31
0.000000000000000
210
0.000000000000000
220
0.000000000000000
230
1.000000000000000
 40
0.6681958164544027
 41
4.712388980384685
 42
5.967007856992969
  0
ELLIPSE
  5
F6
100
AcDbEntity
  8
A1
  6
CONTINUOUS
 62
7
100
AcDbEllipse
 10
144.5832536562162
 20
198.3072947811863
 30
0.000000000000000
 11
-0.3290424560928565
 21
-0.6720561531421476
 31
0.000000000000000
210
0.000000000000000
220
0.000000000000000
230
1.000000000000000
 40
0.6681958164544027
 41
0.3161774501867788
 42
1.570796326794901
  0
ELLIPSE
  5
F7
100
AcDbEntity
  8
A1
  6
CONTINUOUS
 62
7
100
AcDbEllipse
 10
144.5832536562162
 20
195.6930812188135
 30
0.000000000000000
 11
-0.3290424560928563
 21
0.6720561531421476
 31
0.000000000000000
210
0.000000000000000
220
0.000000000000000
230
1.000000000000000
 40
0.6681958164544028
 41
4.712388980384685
 42
5.967007856992969
  0
ELLIPSE
  5
F8
100
AcDbEntity
  8
A1
  6
CONTINUOUS
 62
7
100
AcDbEllipse
 10
141.3071057811862
 20
192.4169333437835
 30
0.000000000000000
 11
-0.6720561531421478
 21
0.3290424560928565
 31
0.000000000000000
210
0.000000000000000
220
0.000000000000000
230
1.000000000000000
 40
0.6681958164544025
 41
0.3161774501867256
 42
1.570796326794901
  0
ELLIPSE
  5
F9
100
AcDbEntity
  8
A1
  6
CONTINUOUS
 62
7
100
AcDbEllipse
 10
135.4167443437833
 20
198.3072947811864
 30
0.000000000000000
 11
-0.3290424560928563
 21
0.6720561531421476
 31
0.000000000000000
210
0.000000000000000
220
0.000000000000000
230
1.000000000000000
 40
0.6681958164544028
 41
1.570796326794892
 42
2.825415203403176
  0
ELLIPSE
  5
FA
100
AcDbEntity
  8
A1
  6
CONTINUOUS
 62
7
100
AcDbEllipse
 10
138.6928922188134
 20
201.5834426562163
 30
0.000000000000000
 11
-0.6720561531421478
 21
0.3290424560928565
 31
0.000000000000000
210
0.000000000000000
220
0.000000000000000
230
1.000000000000000
 40
0.6681958164544025
 41
3.457770103776573
 42
4.712388980384694
  0
ARC
  5
FB
100
AcDbEntity
  8
A1
  6
CONTINUOUS
 62
7
100
AcDbCircle
 10
139.9999989999998
 20
197.0001879999999
 30
0.000000000000000
 40
5.300000000000000
100
AcDbArc
 50
194.2226659169928
 51
255.7773340830072
  0
ARC
  5
FC
100
AcDbEntity
  8
A1
  6
CONTINUOUS
 62
7
100
AcDbCircle
 10
139.9999989999998
 20
197.0001879999999
 30
0.000000000000000
 40
5.300000000000000
100
AcDbArc
 50
14.22266591699275
 51
75.77733408300725
  0
ARC
  5
FD
100
AcDbEntity
  8
A1
  6
CONTINUOUS
 62
7
100
AcDbCircle
 10
139.9999989999998
 20
197.0001879999999
 30
0.000000000000000
 40
5.300000000000000
100
AcDbArc
 50
284.2226659169928
 51
345.7773340830073
  0
ARC
  5
FE
100
AcDbEntity
  8
A1
  6
CONTINUOUS
 62
7
100
AcDbCircle
 10
139.9999989999998
 20
197.0001879999999
 30
0.000000000000000
 40
5.300000000000000
100
AcDbArc
 50
104.2226659169928
 51
165.7773340830074
  0
LINE
  5
FF
100
AcDbEntity
  8
A1
  6
CONTINUOUS
 62
7
100
AcDbLine
 10
139.9999989999998
 20
192.5001879999999
 30
0.000000000000000
 11
138.9127570114105
 21
191.9678682338314
 31
0.000000000000000
  0
LINE
  5
100
100
AcDbEntity
  8
A1
  6
CONTINUOUS
 62
7
100
AcDbLine
 10
139.9999989999997
 20
201.5001879999999
 30
0.000000000000000
 11
141.0872409885891
 21
202.0325077661684
 31
0.000000000000000
  0
LINE
  5
101
100
AcDbEntity
  8
A1
  6
CONTINUOUS
 62
7
100
AcDbLine
 10
145.0323187661683
 20
198.0874299885892
 30
0.000000000000000
 11
144.4999989999998
 21
197.0001879999999
 31
0.000000000000000
  0
LINE
  5
102
100
AcDbEntity
  8
A1
  6
CONTINUOUS
 62
7
100
AcDbLine
 10
135.4999989999998
 20
197.0001879999999
 30
0.000000000000000
 11
134.9676792338313
 21
198.0874299885892
 31
0.000000000000000
  0
LINE
  5
103
100
AcDbEntity
  8
A1
  6
CONTINUOUS
 62
7
100
AcDbLine
 10
144.4999989999997
 20
197.0001879999999
 30
0.000000000000000
 11
145.0323187661682
 21
195.9129460114104
 31
0.000000000000000
  0
LINE
  5
104
100
AcDbEntity
  8
A1
  6
CONTINUOUS
 62
7
100
AcDbLine
 10
144.4999989999998
 20
197.0001879999999
 30
0.000000000000000
 11
144.1163885762829
 21
197.0001879999999
 31
0.000000000000000
  0
LINE
  5
105
100
AcDbEntity
  8
A1
  6
CONTINUOUS
 62
7
100
AcDbLine
 10
138.9127570114104
 20
202.0325077661684
 30
0.000000000000000
 11
139.9999989999997
 21
201.5001879999999
 31
0.000000000000000
  0
LINE
  5
106
100
AcDbEntity
  8
A1
  6
CONTINUOUS
 62
7
100
AcDbLine
 10
139.9999989999997
 20
201.5001879999999
 30
0.000000000000000
 11
139.9999989999997
 21
201.1165775762829
 31
0.000000000000000
  0
LINE
  5
107
100
AcDbEntity
  8
A1
  6
CONTINUOUS
 62
7
100
AcDbLine
 10
135.4999989999998
 20
197.0001879999999
 30
0.000000000000000
 11
135.8836094237168
 21
197.0001879999999
 31
0.000000000000000
  0
LINE
  5
108
100
AcDbEntity
  8
A1
  6
CONTINUOUS
 62
7
100
AcDbLine
 10
134.9676792338313
 20
195.9129460114106
 30
0.000000000000000
 11
135.4999989999997
 21
197.0001879999999
 31
0.000000000000000
  0
LINE
  5
109
100
AcDbEntity
  8
A1
  6
CONTINUOUS
 62
7
100
AcDbLine
 10
139.9999989999999
 20
192.5001880000000
 30
0.000000000000000
 11
139.9999989999998
 21
192.8837984237169
 31
0.000000000000000
  0
LINE
  5
10A
100
AcDbEntity
  8
A1
  6
CONTINUOUS
 62
7
100
AcDbLine
 10
141.0872409885891
 20
191.9678682338313
 30
0.000000000000000
 11
139.9999989999997
 21
192.5001879999999
 31
0.000000000000000
  0
LINE
  5
10B
100
AcDbEntity
  8
A1
  6
CONTINUOUS
 62
7
100
AcDbLine
 10
139.9999989999998
 20
197.0001880000001
 30
0.000000000000000
 11
140.5999989999998
 21
197.6001879999999
 31
0.000000000000000
  0
LINE
  5
10C
100
AcDbEntity
  8
A1
  6
CONTINUOUS
 62
7
100
AcDbLine
 10
139.9999989999998
 20
197.0001880000000
 30
0.000000000000000
 11
139.9999989999998
 21
192.8837984237168
 31
0.000000000000000
  0
LINE
  5
10D
100
AcDbEntity
  8
A1
  6
CONTINUOUS
 62
7
100
AcDbLine
 10
144.1163885762828
 20
197.0001880000000
 30
0.000000000000000
 11
139.9999989999998
 21
197.0001880000001
 31
0.000000000000000
  0
LINE
  5
10E
100
AcDbEntity
  8
A1
  6
CONTINUOUS
 62
7
100
AcDbLine
 10
140.5999989999997
 20
196.4001879999998
 30
0.000000000000000
 11
139.9999989999997
 21
197.0001880000000
 31
0.000000000000000
  0
LINE
  5
10F
100
AcDbEntity
  8
A1
  6
CONTINUOUS
 62
7
100
AcDbLine
 10
134.8624533720159
 20
195.6980263662606
 30
0.000000000000000
 11
134.9676792338314
 21
195.9129460114106
 31
0.000000000000000
  0
LINE
  5
110
100
AcDbEntity
  8
A1
  6
CONTINUOUS
 62
7
100
AcDbLine
 10
138.9127570114105
 20
191.9678682338314
 30
0.000000000000000
 11
138.6978373662604
 21
191.8626423720159
 31
0.000000000000000
  0
LINE
  5
111
100
AcDbEntity
  8
A1
  6
CONTINUOUS
 62
7
100
AcDbLine
 10
139.3999990000000
 20
196.4001880000000
 30
0.000000000000000
 11
139.3999989999998
 21
192.5900350637169
 31
0.000000000000000
  0
LINE
  5
112
100
AcDbEntity
  8
A1
  6
CONTINUOUS
 62
7
100
AcDbLine
 10
141.0872409885892
 20
202.0325077661684
 30
0.000000000000000
 11
141.3021606337392
 21
202.1377336279839
 31
0.000000000000000
  0
LINE
  5
113
100
AcDbEntity
  8
A1
  6
CONTINUOUS
 62
7
100
AcDbLine
 10
140.5999989999997
 20
201.4103409362830
 30
0.000000000000000
 11
140.5999989999997
 21
197.6001879999999
 31
0.000000000000000
  0
LINE
  5
114
100
AcDbEntity
  8
A1
  6
CONTINUOUS
 62
7
100
AcDbLine
 10
144.4101519362828
 20
197.6001879999999
 30
0.000000000000000
 11
140.5999989999997
 21
197.6001879999999
 31
0.000000000000000
  0
LINE
  5
115
100
AcDbEntity
  8
A1
  6
CONTINUOUS
 62
7
100
AcDbLine
 10
145.1375446279838
 20
198.3023496337393
 30
0.000000000000000
 11
145.0323187661683
 21
198.0874299885892
 31
0.000000000000000
  0
LINE
  5
116
100
AcDbEntity
  8
A1
  6
CONTINUOUS
 62
7
100
AcDbLine
 10
145.0323187661683
 20
195.9129460114105
 30
0.000000000000000
 11
145.1375446279837
 21
195.6980263662605
 31
0.000000000000000
  0
LINE
  5
117
100
AcDbEntity
  8
A1
  6
CONTINUOUS
 62
7
100
AcDbLine
 10
144.4101519362829
 20
196.4001879999999
 30
0.000000000000000
 11
140.5999989999997
 21
196.4001879999999
 31
0.000000000000000
  0
LINE
  5
118
100
AcDbEntity
  8
A1
  6
CONTINUOUS
 62
7
100
AcDbLine
 10
140.5999989999997
 20
196.4001879999999
 30
0.000000000000000
 11
140.5999989999997
 21
192.5900350637169
 31
0.000000000000000
  0
LINE
  5
119
100
AcDbEntity
  8
A1
  6
CONTINUOUS
 62
7
100
AcDbLine
 10
141.3021606337391
 20
191.8626423720159
 30
0.000000000000000
 11
141.0872409885890
 21
191.9678682338314
 31
0.000000000000000
  0
LINE
  5
11A
100
AcDbEntity
  8
A1
  6
CONTINUOUS
 62
7
100
AcDbLine
 10
139.3999990000000
 20
196.4001879999999
 30
0.000000000000000
 11
135.5898460637168
 21
196.4001879999999
 31
0.000000000000000
  0
LINE
  5
11B
100
AcDbEntity
  8
A1
  6
CONTINUOUS
 62
7
100
AcDbLine
 10
139.9999989999997
 20
197.0001880000000
 30
0.000000000000000
 11
139.3999989999999
 21
196.4001879999999
 31
0.000000000000000
  0
LINE
  5
11C
100
AcDbEntity
  8
A1
  6
CONTINUOUS
 62
7
100
AcDbLine
 10
139.9999989999998
 20
201.1165775762829
 30
0.000000000000000
 11
139.9999989999998
 21
197.0001880000000
 31
0.000000000000000
  0
LINE
  5
11D
100
AcDbEntity
  8
A1
  6
CONTINUOUS
 62
7
100
AcDbLine
 10
139.9999989999998
 20
197.0001880000000
 30
0.000000000000000
 11
135.8836094237168
 21
197.0001879999999
 31
0.000000000000000
  0
LINE
  5
11E
100
AcDbEntity
  8
A1
  6
CONTINUOUS
 62
7
100
AcDbLine
 10
139.3999989999998
 20
197.6001880000000
 30
0.000000000000000
 11
139.9999989999998
 21
197.0001880000000
 31
0.000000000000000
  0
LINE
  5
11F
100
AcDbEntity
  8
A1
  6
CONTINUOUS
 62
7
100
AcDbLine
 10
134.9676792338313
 20
198.0874299885893
 30
0.000000000000000
 11
134.8624533720159
 21
198.3023496337393
 31
0.000000000000000
  0
LINE
  5
120
100
AcDbEntity
  8
A1
  6
CONTINUOUS
 62
7
100
AcDbLine
 10
139.3999989999998
 20
197.6001880000000
 30
0.000000000000000
 11
135.5898460637167
 21
197.6001879999999
 31
0.000000000000000
  0
LINE
  5
121
100
AcDbEntity
  8
A1
  6
CONTINUOUS
 62
7
100
AcDbLine
 10
139.3999989999998
 20
201.4103409362829
 30
0.000000000000000
 11
139.3999989999998
 21
197.6001880000000
 31
0.000000000000000
  0
LINE
  5
122
100
AcDbEntity
  8
A1
  6
CONTINUOUS
 62
7
100
AcDbLine
 10
138.6978373662604
 20
202.1377336279839
 30
0.000000000000000
 11
138.9127570114105
 21
202.0325077661684
 31
0.000000000000000
  0
CIRCLE
  5
123
100
AcDbEntity
  8
A1
  6
CONTINUOUS
 62
7
100
AcDbCircle
 10
139.9999989999998
 20
197.0001879999999
 30
0.000000000000000
 40
15.70000000000000
  0
CIRCLE
  5
124
100
AcDbEntity
  8
A1
  6
CONTINUOUS
 62
7
100
AcDbCircle
 10
139.9999989999998
 20
197.0001879999999
 30
0.000000000000000
 40
6.700000000000000
  0
CIRCLE
  5
125
100
AcDbEntity
  8
A1
  6
CONTINUOUS
 62
7
100
AcDbCircle
 10
139.9999989999998
 20
197.0001879999999
 30
0.000000000000000
 40
13.90000000000000
  0
CIRCLE
  5
126
100
AcDbEntity
  8
A1
  6
CONTINUOUS
 62
7
100
AcDbCircle
 10
121.9999989999998
 20
211.0001879999999
 30
0.000000000000000
 40
2.650000000000000
  0
CIRCLE
  5
127
100
AcDbEntity
  8
A1
  6
CONTINUOUS
 62
7
100
AcDbCircle
 10
157.9999989999998
 20
183.0001879999999
 30
0.000000000000000
 40
2.650000000000000
  0
CIRCLE
  5
128
100
AcDbEntity
  8
A1
  6
CONTINUOUS
 62
7
100
AcDbCircle
 10
121.9999989999998
 20
183.0001879999999
 30
0.000000000000000
 40
2.650000000000000
  0
CIRCLE
  5
129
100
AcDbEntity
  8
A1
  6
CONTINUOUS
 62
7
100
AcDbCircle
 10
157.9999989999998
 20
211.0001879999999
 30
0.000000000000000
 40
2.650000000000000
  0
ARC
  5
12A
100
AcDbEntity
  8
A1
  6
CONTINUOUS
 62
7
100
AcDbCircle
 10
139.9999989999998
 20
197.0001879999999
 30
0.000000000000000
 40
4.500000000000000
100
AcDbArc
 50
89.99999999999990
 51
270.0000000000001
  0
ARC
  5
12B
100
AcDbEntity
  8
A1
  6
CONTINUOUS
 62
7
100
AcDbCircle
 10
121.9999989999998
 20
211.0001879999999
 30
0.000000000000000
 40
5.000000000000000
100
AcDbArc
 50
90.00000000000006
 51
206.8471961955373
  0
ARC
  5
12C
100
AcDbEntity
  8
A1
  6
CONTINUOUS
 62
7
100
AcDbCircle
 10
94.34135726149535
 20
197.0001863917274
 30
0.000000000000000
 40
26.00000673850440
100
AcDbArc
 50
333.1527936769077
 51
386.8472114558767
  0
ARC
  5
12D
100
AcDbEntity
  8
A1
  6
CONTINUOUS
 62
7
100
AcDbCircle
 10
121.9999989999998
 20
183.0001879999999
 30
0.000000000000000
 40
5.000000000000000
100
AcDbArc
 50
153.1528099999998
 51
269.9999500000004
  0
ARC
  5
12E
100
AcDbEntity
  8
A1
  6
CONTINUOUS
 62
7
100
AcDbCircle
 10
157.9999989999998
 20
183.0001879999999
 30
0.000000000000000
 40
5.000000000000000
100
AcDbArc
 50
270.0000000000001
 51
386.8472090000000
  0
ARC
  5
12F
100
AcDbEntity
  8
A1
  6
CONTINUOUS
 62
7
100
AcDbCircle
 10
185.6586010888364
 20
197.0001879999999
 30
0.000000000000000
 40
25.99997208883655
100
AcDbArc
 50
153.1527549010847
 51
206.8472452912230
  0
ARC
  5
130
100
AcDbEntity
  8
A1
  6
CONTINUOUS
 62
7
100
AcDbCircle
 10
157.9999989999998
 20
211.0001879999999
 30
0.000000000000000
 40
5.000000000000000
100
AcDbArc
 50
333.1527900000002
 51
449.9999819999998
  0
LINE
  5
131
100
AcDbEntity
  8
A1
  6
CONTINUOUS
 62
7
100
AcDbLine
 10
158.0000005707961
 20
216.0001879999997
 30
0.000000000000000
 11
121.9999989999998
 21
216.0001880000000
 31
0.000000000000000
  0
LINE
  5
132
100
AcDbEntity
  8
A1
  6
CONTINUOUS
 62
7
100
AcDbLine
 10
121.9999946366767
 20
178.0001880000018
 30
0.000000000000000
 11
157.9999989999997
 21
178.0001879999999
 31
0.000000000000000
  0
ARC
  5
133
100
AcDbEntity
  8
A1
  6
CONTINUOUS
 62
7
100
AcDbCircle
 10
120.3543549999998
 20
205.5001879999999
 30
0.000000000000000
 40
1.500000000000000
100
AcDbArc
 50
174.3957429435690
 51
180.0000000000000
  0
ARC
  5
134
100
AcDbEntity
  8
A1
  6
CONTINUOUS
 62
7
100
AcDbCircle
 10
120.3543549999998
 20
188.5001879999999
 30
0.000000000000000
 40
1.500000000000000
100
AcDbArc
 50
180.0000000000000
 51
185.6043536344448
  0
ARC
  5
135
100
AcDbEntity
  8
A1
  6
CONTINUOUS
 62
7
100
AcDbCircle
 10
109.7681080000009
 20
204.5001879999992
 30
0.000000000000000
 40
1.000000000001192
100
AcDbArc
 50
90.00005729583984
 51
168.3047999999730
  0
ARC
  5
136
100
AcDbEntity
  8
A1
  6
CONTINUOUS
 62
7
100
AcDbCircle
 10
109.7681080000009
 20
189.5001880000006
 30
0.000000000000000
 40
1.000000000001192
100
AcDbArc
 50
191.6951867677923
 51
270.0000000000000
  0
ARC
  5
137
100
AcDbEntity
  8
A1
  6
CONTINUOUS
 62
7
100
AcDbCircle
 10
145.9999999999998
 20
197.0001879999999
 30
0.000000000000000
 40
38.00000000000000
100
AcDbArc
 50
168.3049456562133
 51
191.6950540000000
  0
LINE
  5
138
100
AcDbEntity
  8
A1
  6
CONTINUOUS
 62
7
100
AcDbLine
 10
118.9126885860622
 20
205.5001879999999
 30
0.000000000000000
 11
109.7681069999998
 21
205.5001879999999
 31
0.000000000000000
  0
LINE
  5
139
100
AcDbEntity
  8
A1
  6
CONTINUOUS
 62
7
100
AcDbLine
 10
118.9126896987666
 20
188.5001879999994
 30
0.000000000000000
 11
109.7681080000009
 21
188.5001879999994
 31
0.000000000000000
  0
SPLINE
  5
13A
100
AcDbEntity
  8
A1
  6
CONTINUOUS
 62
7
100
AcDbSpline
210
0.000000000000000
220
0.000000000000000
230
1.000000000000000
 70
     8
 71
     3
 72
    14
 73
    10
 74
     0
 42
1.000000000000000e-07
 43
1.000000000000000e-07
 12
0.3953455861528710
 22
0.9185324531608785
 32
0.000000000000000
 13
0.9999809680393810
 23
0.006169567317556357
 33
0.000000000000000
 40
0.000000000000000
 40
0.000000000000000
 40
0.000000000000000
 40
0.000000000000000
 40
0.08296966520526500
 40
0.3022383448007308
 40
0.5081702403500317
 40
0.7044814670250441
 40
0.8888915338086949
 40
1.040696606336901
 40
1.189118203674624
 40
1.189118203674624
 40
1.189118203674624
 40
1.189118203674624
 10
122.4645081924430
 20
208.3966614252438
 30
0.000000000000000
 10
122.4754420894175
 20
208.4220648686168
 30
0.000000000000000
 10
122.5177698947922
 20
208.5135218294601
 30
0.000000000000000
 10
122.6031635079199
 20
208.6605397197137
 30
0.000000000000000
 10
122.7336167284292
 20
208.8226539474964
 30
0.000000000000000
 10
122.8820826355753
 20
208.9516727040574
 30
0.000000000000000
 10
123.0374546799074
 20
209.0402870069467
 30
0.000000000000000
 10
123.1923776502736
 20
209.0896777028214
 30
0.000000000000000
 10
123.2927284232565
 20
209.0998807676545
 30
0.000000000000000
 10
123.3422013474511
 20
209.1001859999999
 30
0.000000000000000
  0
SPLINE
  5
13B
100
AcDbEntity
  8
A1
  6
CONTINUOUS
 62
7
100
AcDbSpline
210
0.000000000000000
220
0.000000000000000
230
1.000000000000000
 70
     8
 71
     3
 72
    13
 73
     9
 74
     0
 42
1.000000000000000e-07
 43
1.000000000000000e-07
 12
-0.9999444344016410
 22
0.01054173171587536
 32
0.000000000000000
 13
-0.3929450082121093
 23
0.9195619720931063
 33
0.000000000000000
 40
0.000000000000000
 40
0.000000000000000
 40
0.000000000000000
 40
0.000000000000000
 40
0.1793643692394473
 40
0.3645928122255468
 40
0.5608223925698264
 40
0.7708959732664062
 40
0.9928604762019179
 40
1.188623522937214
 40
1.188623522937214
 40
1.188623522937214
 40
1.188623522937214
 10
123.3422013474511
 20
184.9001899999999
 30
0.000000000000000
 10
123.2824165465341
 20
184.9008202703532
 30
0.000000000000000
 10
123.1604276525355
 20
184.9156902620626
 30
0.000000000000000
 10
122.9845871432258
 20
184.9842321957978
 30
0.000000000000000
 10
122.8203841806494
 20
185.0959530806156
 30
0.000000000000000
 10
122.6724024755182
 20
185.2458672338480
 30
0.000000000000000
 10
122.5535042496533
 20
185.4191285167922
 30
0.000000000000000
 10
122.4902016054271
 20
185.5435888635158
 30
0.000000000000000
 10
122.4645602347581
 20
185.6035942812887
 30
0.000000000000000
  0
LINE
  5
13C
100
AcDbEntity
  8
A1
  6
CONTINUOUS
 62
7
100
AcDbLine
 10
120.7999978152819
 20
185.3629188684391
 30
0.000000000000000
 11
120.7999978152819
 21
184.9001899999999
 31
0.000000000000000
  0
LINE
  5
13D
100
AcDbEntity
  8
A1
  6
CONTINUOUS
 62
7
100
AcDbLine
 10
120.7999978152819
 20
184.9001900000000
 30
0.000000000000000
 11
120.9173919434046
 21
184.9001900000000
 31
0.000000000000000
  0
LINE
  5
13E
100
AcDbEntity
  8
A1
  6
CONTINUOUS
 62
7
100
AcDbLine
 10
120.9173919434046
 20
209.1001859999999
 30
0.000000000000000
 11
120.7999978152819
 21
209.1001859999999
 31
0.000000000000000
  0
LINE
  5
13F
100
AcDbEntity
  8
A1
  6
CONTINUOUS
 62
7
100
AcDbLine
 10
120.7999978152819
 20
209.1001859999999
 30
0.000000000000000
 11
120.7999978152819
 21
208.6374571315607
 31
0.000000000000000
  0
LINE
  5
140
100
AcDbEntity
  8
A1
  6
CONTINUOUS
 62
7
100
AcDbLine
 10
123.3321913474509
 20
209.1001859999999
 30
0.000000000000000
 11
120.9173929999997
 21
209.1001859999999
 31
0.000000000000000
  0
LINE
  5
141
100
AcDbEntity
  8
A1
  6
CONTINUOUS
 62
7
100
AcDbLine
 10
120.9173929999997
 20
184.9001900000000
 30
0.000000000000000
 11
123.3321913474509
 21
184.9001899999999
 31
0.000000000000000
  0
LINE
  5
142
100
AcDbEntity
  8
A1
  6
CONTINUOUS
 62
7
100
AcDbLine
 10
123.3422013474511
 20
209.1001859999999
 30
0.000000000000000
 11
123.8308534908246
 21
209.1001859999999
 31
0.000000000000000
  0
LINE
  5
143
100
AcDbEntity
  8
A1
  6
CONTINUOUS
 62
7
100
AcDbLine
 10
123.8328906383123
 20
184.9001899999999
 30
0.000000000000000
 11
123.3422013474511
 21
184.9001899999999
 31
0.000000000000000
  0
ARC
  5
144
100
AcDbEntity
  8
A1
  6
CONTINUOUS
 62
7
100
AcDbCircle
 10
55.70000499999975
 20
124.1797979999999
 30
0.000000000000000
 40
1.000000000000000
100
AcDbArc
 50
179.9999800000000
 51
258.4635806116482
  0
ARC
  5
145
100
AcDbEntity
  8
A1
  6
CONTINUOUS
 62
7
100
AcDbCircle
 10
55.70000499999975
 20
129.8202019999999
 30
0.000000000000000
 40
1.000000000000000
100
AcDbArc
 50
101.5364193883520
 51
180.0000200000004
  0
ARC
  5
146
100
AcDbEntity
  8
A1
  6
CONTINUOUS
 62
7
100
AcDbCircle
 10
78.19999699999977
 20
126.9999999999999
 30
0.000000000000000
 40
5.315072000000000
100
AcDbArc
 50
311.1859300000000
 51
348.0558300000002
  0
ARC
  5
147
100
AcDbEntity
  8
A1
  6
CONTINUOUS
 62
7
100
AcDbCircle
 10
78.19999699999977
 20
126.9999999999999
 30
0.000000000000000
 40
5.315072000000000
100
AcDbArc
 50
11.94416999999987
 51
48.81407000000009
  0
LINE
  5
148
100
AcDbEntity
  8
A1
  6
CONTINUOUS
 62
7
100
AcDbLine
 10
78.99999999999977
 20
123.9771879999998
 30
0.000000000000000
 11
79.49999799999975
 21
123.9771879999998
 31
0.000000000000000
  0
LINE
  5
149
100
AcDbEntity
  8
A1
  6
CONTINUOUS
 62
7
100
AcDbLine
 10
58.50000199999977
 20
123.9771879999998
 30
0.000000000000000
 11
58.99999999999977
 21
123.9771879999998
 31
0.000000000000000
  0
LINE
  5
14A
100
AcDbEntity
  8
A1
  6
CONTINUOUS
 62
7
100
AcDbLine
 10
58.99999999999977
 20
130.0228119999999
 30
0.000000000000000
 11
58.50000199999977
 21
130.0228119999999
 31
0.000000000000000
  0
LINE
  5
14B
100
AcDbEntity
  8
A1
  6
CONTINUOUS
 62
7
100
AcDbLine
 10
79.49999979687675
 20
130.0228119999999
 30
0.000000000000000
 11
78.99999999999977
 21
130.0228119999999
 31
0.000000000000000
  0
LINE
  5
14C
100
AcDbEntity
  8
A1
  6
CONTINUOUS
 62
7
100
AcDbLine
 10
56.90000179456689
 20
130.0228119999999
 30
0.000000000000000
 11
55.50001499999978
 21
130.7999959999998
 31
0.000000000000000
  0
LINE
  5
14D
100
AcDbEntity
  8
A1
  6
CONTINUOUS
 62
7
100
AcDbLine
 10
55.50001499999971
 20
123.2000039999999
 30
0.000000000000000
 11
56.90000179456684
 21
123.9771879999998
 31
0.000000000000000
  0
LINE
  5
14E
100
AcDbEntity
  8
A1
  6
CONTINUOUS
 62
7
100
AcDbLine
 10
54.70000499999975
 20
129.8202016499189
 30
0.000000000000000
 11
54.70000499999975
 21
124.1797983490657
 31
0.000000000000000
  0
LINE
  5
14F
100
AcDbEntity
  8
A1
  6
CONTINUOUS
 62
7
100
AcDbLine
 10
55.50001499999976
 20
130.7999959999998
 30
0.000000000000000
 11
55.50001499999976
 21
123.2000039999999
 31
0.000000000000000
  0
LINE
  5
150
100
AcDbEntity
  8
A1
  6
CONTINUOUS
 62
7
100
AcDbLine
 10
83.39999625126376
 20
128.0999991600167
 30
0.000000000000000
 11
83.39999625126376
 21
125.9000008399830
 31
0.000000000000000
  0
LINE
  5
151
100
AcDbEntity
  8
A1
  6
CONTINUOUS
 62
7
100
AcDbLine
 10
81.09999799999977
 20
123.0000004887103
 30
0.000000000000000
 11
81.69999674064977
 21
123.0000004887103
 31
0.000000000000000
  0
LINE
  5
152
100
AcDbEntity
  8
A1
  6
CONTINUOUS
 62
7
100
AcDbLine
 10
81.69999674064977
 20
130.9999995112894
 30
0.000000000000000
 11
81.09999799999977
 21
130.9999995112894
 31
0.000000000000000
  0
LINE
  5
153
100
AcDbEntity
  8
A1
  6
CONTINUOUS
 62
7
100
AcDbLine
 10
81.69999674064977
 20
130.9999990225790
 30
0.000000000000000
 11
81.69999674064977
 21
123.0000009774208
 31
0.000000000000000
  0
ARC
  5
154
100
AcDbEntity
  8
A1
  6
CONTINUOUS
 62
7
100
AcDbCircle
 10
58.63999999999976
 20
153.7816859999999
 30
0.000000000000000
 40
2.200000000000000
100
AcDbArc
 50
179.5181628584271
 51
200.8073740401215
  0
ARC
  5
155
100
AcDbEntity
  8
A1
  6
CONTINUOUS
 62
7
100
AcDbCircle
 10
79.35999999999976
 20
153.7816859999999
 30
0.000000000000000
 40
2.200000000000000
100
AcDbArc
 50
339.1926259598787
 51
360.4818371415730
  0
ARC
  5
156
100
AcDbEntity
  8
A1
  6
CONTINUOUS
 62
7
100
AcDbCircle
 10
77.97202318320655
 20
153.7816859999999
 30
0.000000000000000
 40
2.200000000000000
100
AcDbArc
 50
339.1926259598787
 51
360.4818371415730
  0
ARC
  5
157
100
AcDbEntity
  8
A1
  6
CONTINUOUS
 62
7
100
AcDbCircle
 10
60.02797681679297
 20
153.7816859999999
 30
0.000000000000000
 40
2.200000000000000
100
AcDbArc
 50
179.5181628584270
 51
200.8073740401215
  0
ARC
  5
158
100
AcDbEntity
  8
A1
  6
CONTINUOUS
 62
7
100
AcDbCircle
 10
63.81999999999977
 20
153.7816859999999
 30
0.000000000000000
 40
2.200000000000000
100
AcDbArc
 50
339.1926259598786
 51
360.4818371415730
  0
ARC
  5
159
100
AcDbEntity
  8
A1
  6
CONTINUOUS
 62
7
100
AcDbCircle
 10
63.81999999999977
 20
153.7816859999999
 30
0.000000000000000
 40
2.200000000000000
100
AcDbArc
 50
179.5181628584271
 51
200.8073740401215
  0
ARC
  5
15A
100
AcDbEntity
  8
A1
  6
CONTINUOUS
 62
7
100
AcDbCircle
 10
74.17999999999975
 20
153.7816859999999
 30
0.000000000000000
 40
2.200000000000000
100
AcDbArc
 50
339.1926259598786
 51
360.4818371415730
  0
ARC
  5
15B
100
AcDbEntity
  8
A1
  6
CONTINUOUS
 62
7
100
AcDbCircle
 10
74.17999999999975
 20
153.7816859999999
 30
0.000000000000000
 40
2.200000000000000
100
AcDbArc
 50
179.5181628584270
 51
200.8073740401215
  0
ARC
  5
15C
100
AcDbEntity
  8
A1
  6
CONTINUOUS
 62
7
100
AcDbCircle
 10
68.99999999999977
 20
153.7816859999999
 30
0.000000000000000
 40
2.200000000000000
100
AcDbArc
 50
339.1926259598786
 51
360.4818371415730
  0
ARC
  5
15D
100
AcDbEntity
  8
A1
  6
CONTINUOUS
 62
7
100
AcDbCircle
 10
68.99999999999977
 20
153.7816859999999
 30
0.000000000000000
 40
2.200000000000000
100
AcDbArc
 50
179.5181628584270
 51
200.8073740401215
  0
ARC
  5
15E
100
AcDbEntity
  8
A1
  6
CONTINUOUS
 62
7
100
AcDbCircle
 10
83.72273623019265
 20
156.8001869999999
 30
0.000000000000000
 40
3.000000000000000
100
AcDbArc
 50
270.0000000000000
 51
339.8335912753989
  0
ARC
  5
15F
100
AcDbEntity
  8
A1
  6
CONTINUOUS
 62
7
100
AcDbCircle
 10
54.27726376980686
 20
156.8001869999999
 30
0.000000000000000
 40
3.000000000000000
100
AcDbArc
 50
200.1664087246012
 51
270.0000000000000
  0
ARC
  5
160
100
AcDbEntity
  8
A1
  6
CONTINUOUS
 62
7
100
AcDbCircle
 10
50.87922054163096
 20
155.9001879999998
 30
0.000000000000000
 40
0.5000000000000000
100
AcDbArc
 50
20.16640872460070
 51
90.00000000000000
  0
ARC
  5
161
100
AcDbEntity
  8
A1
  6
CONTINUOUS
 62
7
100
AcDbCircle
 10
87.12077945836856
 20
155.9001879999998
 30
0.000000000000000
 40
0.5000000000000000
100
AcDbArc
 50
90.00000000000000
 51
159.8335912753993
  0
LINE
  5
162
100
AcDbEntity
  8
A1
  6
CONTINUOUS
 62
7
100
AcDbLine
 10
83.72273623019265
 20
153.8001869999999
 30
0.000000000000000
 11
54.27726376980686
 21
153.8001869999999
 31
0.000000000000000
  0
LINE
  5
163
100
AcDbEntity
  8
A1
  6
CONTINUOUS
 62
7
100
AcDbLine
 10
86.53882213714604
 20
155.7659432353783
 30
0.000000000000000
 11
86.65143180720963
 21
156.0725619607701
 31
0.000000000000000
  0
LINE
  5
164
100
AcDbEntity
  8
A1
  6
CONTINUOUS
 62
7
100
AcDbLine
 10
51.34856819278984
 20
156.0725619607700
 30
0.000000000000000
 11
51.46117786285341
 21
155.7659432353783
 31
0.000000000000000
  0
LINE
  5
165
100
AcDbEntity
  8
A1
  6
CONTINUOUS
 62
7
100
AcDbLine
 10
57.25806383837175
 20
156.4001879999998
 30
0.000000000000000
 11
80.74193730004197
 21
156.4001879999998
 31
0.000000000000000
  0
LINE
  5
166
100
AcDbEntity
  8
A1
  6
CONTINUOUS
 62
7
100
AcDbLine
 10
57.25806383837175
 20
158.0001879999999
 30
0.000000000000000
 11
80.74193730004197
 21
158.0001879999999
 31
0.000000000000000
  0
LINE
  5
167
100
AcDbEntity
  8
A1
  6
CONTINUOUS
 62
7
100
AcDbLine
 10
80.74193730004197
 20
156.4001879999998
 30
0.000000000000000
 11
87.99999999999787
 21
156.4001879999998
 31
0.000000000000000
  0
LINE
  5
168
100
AcDbEntity
  8
A1
  6
CONTINUOUS
 62
7
100
AcDbLine
 10
87.99999999999787
 20
156.4001879999998
 30
0.000000000000000
 11
87.99999999999787
 21
158.0001879999999
 31
0.000000000000000
  0
LINE
  5
169
100
AcDbEntity
  8
A1
  6
CONTINUOUS
 62
7
100
AcDbLine
 10
80.74193730004197
 20
158.0001879999999
 30
0.000000000000000
 11
87.99999999999787
 21
158.0001879999999
 31
0.000000000000000
  0
LINE
  5
16A
100
AcDbEntity
  8
A1
  6
CONTINUOUS
 62
7
100
AcDbLine
 10
49.99999999999977
 20
156.4001879999998
 30
0.000000000000000
 11
57.25806318234447
 21
156.4001879999998
 31
0.000000000000000
  0
LINE
  5
16B
100
AcDbEntity
  8
A1
  6
CONTINUOUS
 62
7
100
AcDbLine
 10
49.99999999999977
 20
158.0001879999999
 30
0.000000000000000
 11
57.25806318234447
 21
158.0001879999999
 31
0.000000000000000
  0
LINE
  5
16C
100
AcDbEntity
  8
A1
  6
CONTINUOUS
 62
7
100
AcDbLine
 10
49.99999999999977
 20
156.4001879999998
 30
0.000000000000000
 11
49.99999999999977
 21
158.0001879999999
 31
0.000000000000000
  0
ARC
  5
16D
100
AcDbEntity
  8
A1
  6
CONTINUOUS
 62
7
100
AcDbCircle
 10
77.49999999999977
 20
120.3543549999999
 30
0.000000000000000
 40
1.500000000000000
100
AcDbArc
 50
270.0000000000000
 51
360.0000000000000
  0
ARC
  5
16E
100
AcDbEntity
  8
A1
  6
CONTINUOUS
 62
7
100
AcDbCircle
 10
77.49999999999977
 20
133.6456449999999
 30
0.000000000000000
 40
1.500000000000000
100
AcDbArc
 50
1.527000000000000e-13
 51
90.00000000000006
  0
ARC
  5
16F
100
AcDbEntity
  8
A1
  6
CONTINUOUS
 62
7
100
AcDbCircle
 10
60.49999999999977
 20
120.3543549999999
 30
0.000000000000000
 40
1.500000000000000
100
AcDbArc
 50
180.0000000000000
 51
270.0000000000000
  0
ARC
  5
170
100
AcDbEntity
  8
A1
  6
CONTINUOUS
 62
7
100
AcDbCircle
 10
60.49999999999977
 20
133.6456449999999
 30
0.000000000000000
 40
1.500000000000000
100
AcDbArc
 50
90.00000000000006
 51
180.0000000000001
  0
ARC
  5
171
100
AcDbEntity
  8
A1
  6
CONTINUOUS
 62
7
100
AcDbCircle
 10
61.50000000000045
 20
109.7681080000009
 30
0.000000000000000
 40
1.000000000001192
100
AcDbArc
 50
180.0000572958392
 51
258.3047999999730
  0
ARC
  5
172
100
AcDbEntity
  8
A1
  6
CONTINUOUS
 62
7
100
AcDbCircle
 10
61.50000000000045
 20
144.2318919999988
 30
0.000000000000000
 40
1.000000000001192
100
AcDbArc
 50
101.6952000000269
 51
179.9999427041603
  0
ARC
  5
173
100
AcDbEntity
  8
A1
  6
CONTINUOUS
 62
7
100
AcDbCircle
 10
76.49999999999906
 20
109.7681080000009
 30
0.000000000000000
 40
1.000000000001192
100
AcDbArc
 50
281.6951867677923
 51
360.0000000000000
  0
ARC
  5
174
100
AcDbEntity
  8
A1
  6
CONTINUOUS
 62
7
100
AcDbCircle
 10
76.49999999999906
 20
144.2318919999988
 30
0.000000000000000
 40
1.000000000001192
100
AcDbArc
 50
0.000000000000000
 51
78.30481323220771
  0
ARC
  5
175
100
AcDbEntity
  8
A1
  6
CONTINUOUS
 62
7
100
AcDbCircle
 10
68.99999999999977
 20
107.9999999999999
 30
0.000000000000000
 40
38.00000000000000
100
AcDbArc
 50
78.30494599999997
 51
101.6950543437868
  0
ARC
  5
176
100
AcDbEntity
  8
A1
  6
CONTINUOUS
 62
7
100
AcDbCircle
 10
68.99999999999977
 20
145.9999999999999
 30
0.000000000000000
 40
38.00000000000000
100
AcDbArc
 50
258.3049456562131
 51
281.6950540000000
  0
LINE
  5
177
100
AcDbEntity
  8
A1
  6
CONTINUOUS
 62
7
100
AcDbLine
 10
78.99999999999977
 20
133.6456449998521
 30
0.000000000000000
 11
78.99999999999977
 21
120.3543549999999
 31
0.000000000000000
  0
LINE
  5
178
100
AcDbEntity
  8
A1
  6
CONTINUOUS
 62
7
100
AcDbLine
 10
58.99999999999977
 20
133.6456449998521
 30
0.000000000000000
 11
58.99999999999977
 21
120.3543549999999
 31
0.000000000000000
  0
LINE
  5
179
100
AcDbEntity
  8
A1
  6
CONTINUOUS
 62
7
100
AcDbLine
 10
60.49999999999977
 20
144.2318929999998
 30
0.000000000000000
 11
60.49999999999977
 21
109.7681069999999
 31
0.000000000000000
  0
LINE
  5
17A
100
AcDbEntity
  8
A1
  6
CONTINUOUS
 62
7
100
AcDbLine
 10
77.50000000000026
 20
144.2318919999988
 30
0.000000000000000
 11
77.50000000000026
 21
109.7681080000009
 31
0.000000000000000
  0
SPLINE
  5
17B
100
AcDbEntity
  8
A1
  6
CONTINUOUS
 62
7
100
AcDbSpline
210
0.000000000000000
220
0.000000000000000
230
1.000000000000000
 70
     8
 71
     3
 72
    14
 73
    10
 74
     0
 42
1.000000000000000e-07
 43
1.000000000000000e-07
 12
-0.9904204186842662
 22
-0.1380847357688708
 32
0.000000000000000
 13
-0.6954708710959494
 23
-0.7185542898455424
 33
0.000000000000000
 40
0.000000000000000
 40
0.000000000000000
 40
0.000000000000000
 40
0.000000000000000
 40
0.3369520806266594
 40
0.9473462119218781
 40
1.543770380605715
 40
2.044006272148800
 40
2.542713196306738
 40
3.042680150624144
 40
3.221036289543127
 40
3.221036289543127
 40
3.221036289543127
 40
3.221036289543127
 10
62.38628494980546
 20
147.2258796696319
 30
0.000000000000000
 10
62.27504354288186
 20
147.2103703566252
 30
0.000000000000000
 10
61.96323456154946
 20
147.1600162590413
 30
0.000000000000000
 10
61.45971656479077
 20
147.0512164017947
 30
0.000000000000000
 10
60.91615155655256
 20
146.8792662672895
 30
0.000000000000000
 10
60.42869875740087
 20
146.6640395838790
 30
0.000000000000000
 10
59.99774416954315
 20
146.4086514618304
 30
0.000000000000000
 10
59.68948003199816
 20
146.1634137023196
 30
0.000000000000000
 10
59.52800589325875
 20
146.0050085229134
 30
0.000000000000000
 10
59.48665872682565
 20
145.9622889999999
 30
0.000000000000000
  0
SPLINE
  5
17C
100
AcDbEntity
  8
A1
  6
CONTINUOUS
 62
7
100
AcDbSpline
210
0.000000000000000
220
0.000000000000000
230
1.000000000000000
 70
     8
 71
     3
 72
    15
 73
    11
 74
     0
 42
1.000000000000000e-07
 43
1.000000000000000e-07
 12
-0.6960252499112585
 22
0.7180173058411583
 32
0.000000000000000
 13
-0.9904533639678448
 23
0.1378482274262751
 33
0.000000000000000
 40
0.000000000000000
 40
0.000000000000000
 40
0.000000000000000
 40
0.000000000000000
 40
0.3052994186972386
 40
0.6075764923122429
 40
0.9149154635470449
 40
1.222260118446262
 40
1.729573202774342
 40
2.244147997880133
 40
2.781877245309226
 40
3.217823850793124
 40
3.217823850793124
 40
3.217823850793124
 40
3.217823850793124
 10
78.51334127317395
 20
145.9622889999999
 30
0.000000000000000
 10
78.44250923844177
 20
146.0353590886958
 30
0.000000000000000
 10
78.29500569043617
 20
146.1746167270688
 30
0.000000000000000
 10
78.05489279534225
 20
146.3632497038389
 30
0.000000000000000
 10
77.79900135467247
 20
146.5310717436978
 30
0.000000000000000
 10
77.47062564146626
 20
146.7107896658526
 30
0.000000000000000
 10
77.06241824041797
 20
146.8855472359787
 30
0.000000000000000
 10
76.56593604384997
 20
147.0420130203485
 30
0.000000000000000
 10
76.08164221538527
 20
147.1514882055699
 30
0.000000000000000
 10
75.76142709136076
 20
147.2053069155725
 30
0.000000000000000
 10
75.61749883072346
 20
147.2253384045120
 30
0.000000000000000
  0
SPLINE
  5
17D
100
AcDbEntity
  8
A1
  6
CONTINUOUS
 62
7
100
AcDbSpline
210
0.000000000000000
220
0.000000000000000
230
1.000000000000000
 70
     8
 71
     3
 72
    17
 73
    13
 74
     0
 42
1.000000000000000e-07
 43
1.000000000000000e-07
 12
-0.8973470241897985
 22
0.4413256373422882
 32
0.000000000000000
 13
-0.05882416178496896
 23
0.9982683597061168
 33
0.000000000000000
 40
0.000000000000000
 40
0.000000000000000
 40
0.000000000000000
 40
0.000000000000000
 40
0.1877935310879658
 40
0.5090969065305098
 40
0.8228995920521059
 40
1.127664871677217
 40
1.456176439809793
 40
1.776740692660018
 40
2.088912010268631
 40
2.395973650796148
 40
2.699264640518740
 40
2.999218435419349
 40
2.999218435419349
 40
2.999218435419349
 40
2.999218435419349
 10
54.69809975953106
 20
129.6540484380074
 30
0.000000000000000
 10
54.64192777076977
 20
129.6816744712728
 30
0.000000000000000
 10
54.49171052888775
 20
129.7608033121629
 30
0.000000000000000
 10
54.25884505976614
 20
129.9066007810997
 30
0.000000000000000
 10
54.01012290371506
 20
130.0978859632996
 30
0.000000000000000
 10
53.77942591536436
 20
130.3141481806065
 30
0.000000000000000
 10
53.57179079664695
 20
130.5558579415701
 30
0.000000000000000
 10
53.39151537308885
 20
130.8215851950408
 30
0.000000000000000
 10
53.24648740060215
 20
131.1000928395737
 30
0.000000000000000
 10
53.13825477375747
 20
131.3887323362426
 30
0.000000000000000
 10
53.06621111191305
 20
131.6842126878728
 30
0.000000000000000
 10
53.04251227720596
 20
131.8844659186262
 30
0.000000000000000
 10
53.03663076701955
 20
131.9842773795672
 30
0.000000000000000
  0
SPLINE
  5
17E
100
AcDbEntity
  8
A1
  6
CONTINUOUS
 62
7
100
AcDbSpline
210
0.000000000000000
220
0.000000000000000
230
1.000000000000000
 70
     8
 71
     3
 72
    17
 73
    13
 74
     0
 42
1.000000000000000e-07
 43
1.000000000000000e-07
 12
-0.05872677468278198
 22
-0.9982740935913625
 32
0.000000000000000
 13
-0.9419113132961456
 23
-0.3358616945793074
 33
0.000000000000000
 40
0.000000000000000
 40
0.000000000000000
 40
0.000000000000000
 40
0.000000000000000
 40
0.2927025850775596
 40
0.5885262641805687
 40
0.8878798137632601
 40
1.193722906461260
 40
1.507512054574644
 40
1.828868803689471
 40
2.205039170643198
 40
2.595266088223993
 40
2.996440380822920
 40
3.403850309294882
 40
3.403850309294882
 40
3.403850309294882
 40
3.403850309294882
 10
84.96336923297997
 20
131.9842773795672
 30
0.000000000000000
 10
84.95763940672566
 20
131.8868782436305
 30
0.000000000000000
 10
84.93480662035347
 20
131.6915035719887
 30
0.000000000000000
 10
84.86582158995296
 20
131.4030260702439
 30
0.000000000000000
 10
84.76216518335556
 20
131.1203907973352
 30
0.000000000000000
 10
84.62303817025625
 20
130.8466948341197
 30
0.000000000000000
 10
84.44961567533767
 20
130.5845442219225
 30
0.000000000000000
 10
84.23301004494115
 20
130.3253233693730
 30
0.000000000000000
 10
83.96809126653105
 20
130.0763761821764
 30
0.000000000000000
 10
83.65394815438015
 20
129.8450913246355
 30
0.000000000000000
 10
83.30576624953096
 20
129.6472286556658
 30
0.000000000000000
 10
83.05694161103196
 20
129.5417785495403
 30
0.000000000000000
 10
82.92902693743966
 20
129.4961674198853
 30
0.000000000000000
  0
SPLINE
  5
17F
100
AcDbEntity
  8
A1
  6
CONTINUOUS
 62
7
100
AcDbSpline
210
0.000000000000000
220
0.000000000000000
230
1.000000000000000
 70
     8
 71
     3
 72
    13
 73
     9
 74
     0
 42
1.000000000000000e-07
 43
1.000000000000000e-07
 12
-0.2920962621228682
 22
0.9563889238461343
 32
0.000000000000000
 13
-0.9250466597540026
 23
0.3798534944930907
 33
0.000000000000000
 40
0.000000000000000
 40
0.000000000000000
 40
0.000000000000000
 40
0.000000000000000
 40
0.07903373625444921
 40
0.3325737067255063
 40
0.5762001800234587
 40
0.8274484807619245
 40
1.072653992919941
 40
1.325675326081411
 40
1.325675326081411
 40
1.325675326081411
 40
1.325675326081411
 10
81.03458292353977
 20
151.9383255166761
 30
0.000000000000000
 10
81.02688777055926
 20
151.9635211799974
 30
0.000000000000000
 10
80.99175885507046
 20
152.0686992745886
 30
0.000000000000000
 10
80.91096766928547
 20
152.2440706640598
 30
0.000000000000000
 10
80.77014156163045
 20
152.4512623999143
 30
0.000000000000000
 10
80.59887537910055
 20
152.6304886313460
 30
0.000000000000000
 10
80.39784026731115
 20
152.7806137383508
 30
0.000000000000000
 10
80.24912930935216
 20
152.8566476559699
 30
0.000000000000000
 10
80.17111046298965
 20
152.8886846684975
 30
0.000000000000000
  0
SPLINE
  5
180
100
AcDbEntity
  8
A1
  6
CONTINUOUS
 62
7
100
AcDbSpline
210
0.000000000000000
220
0.000000000000000
230
1.000000000000000
 70
     8
 71
     3
 72
    13
 73
     9
 74
     0
 42
1.000000000000000e-07
 43
1.000000000000000e-07
 12
0.2963427358899935
 22
0.9550816629398469
 32
0.000000000000000
 13
0.9250466597525246
 23
0.3798534944946823
 33
0.000000000000000
 40
0.000000000000000
 40
0.000000000000000
 40
0.000000000000000
 40
0.000000000000000
 40
0.07225586752985870
 40
0.3257958274146788
 40
0.5694223036996773
 40
0.8206706055190860
 40
1.065876118666401
 40
1.318897453617473
 40
1.318897453617473
 40
1.318897453617473
 40
1.318897453617473
 10
56.96741207101115
 20
151.9448053199011
 30
0.000000000000000
 10
56.97454957150046
 20
151.9678087379403
 30
0.000000000000000
 10
57.00919029748397
 20
152.0707585540530
 30
0.000000000000000
 10
57.08903276827627
 20
152.2440719941428
 30
0.000000000000000
 10
57.22985831551566
 20
152.4512620327757
 30
0.000000000000000
 10
57.40112465071525
 20
152.6304887255208
 30
0.000000000000000
 10
57.60215972248585
 20
152.7806137085646
 30
0.000000000000000
 10
57.75087069009567
 20
152.8566476557432
 30
0.000000000000000
 10
57.82888953700987
 20
152.8886846684975
 30
0.000000000000000
  0
SPLINE
  5
181
100
AcDbEntity
  8
A1
  6
CONTINUOUS
 62
7
100
AcDbSpline
210
0.000000000000000
220
0.000000000000000
230
1.000000000000000
 70
     8
 71
     3
 72
    10
 73
     6
 74
     0
 42
1.000000000000000e-07
 43
1.000000000000000e-07
 12
-0.5393132264046017
 22
-0.8421052451003561
 32
0.000000000000000
 13
-0.9501537093569823
 23
-0.3117818605996945
 33
0.000000000000000
 40
0.000000000000000
 40
0.000000000000000
 40
0.000000000000000
 40
0.000000000000000
 40
0.2101131628897615
 40
0.3935814296956311
 40
0.4568263173030154
 40
0.4568263173030154
 40
0.4568263173030154
 40
0.4568263173030154
 10
78.20600208369697
 20
148.1995182193991
 30
0.000000000000000
 10
78.16822981443426
 20
148.1405390872211
 30
0.000000000000000
 10
78.08224167369815
 20
148.0403036067799
 30
0.000000000000000
 10
77.96087502292906
 20
147.9438827982693
 30
0.000000000000000
 10
77.88389707513477
 20
147.9138325695169
 30
0.000000000000000
 10
77.86386628694876
 20
147.9072596999397
 30
0.000000000000000
  0
SPLINE
  5
182
100
AcDbEntity
  8
A1
  6
CONTINUOUS
 62
7
100
AcDbSpline
210
0.000000000000000
220
0.000000000000000
230
1.000000000000000
 70
     8
 71
     3
 72
    10
 73
     6
 74
     0
 42
1.000000000000000e-07
 43
1.000000000000000e-07
 12
-0.9376100560191389
 22
0.3476886291673509
 32
0.000000000000000
 13
-0.5572412388432895
 23
0.8303506498655224
 33
0.000000000000000
 40
0.000000000000000
 40
0.000000000000000
 40
0.000000000000000
 40
0.000000000000000
 40
0.1498667275996870
 40
0.3282244614855632
 40
0.4568271220290441
 40
0.4568271220290441
 40
0.4568271220290441
 40
0.4568271220290441
 10
60.13613371305087
 20
147.9072596999395
 30
0.000000000000000
 10
60.08929486276415
 20
147.9246286856318
 30
0.000000000000000
 10
59.98988469955736
 20
147.9743081530668
 30
0.000000000000000
 10
59.88118454935395
 20
148.0834726742332
 30
0.000000000000000
 10
59.81788548492895
 20
148.1639231184805
 30
0.000000000000000
 10
59.79399791630235
 20
148.1995182193994
 30
0.000000000000000
  0
SPLINE
  5
183
100
AcDbEntity
  8
A1
  6
CONTINUOUS
 62
7
100
AcDbSpline
210
0.000000000000000
220
0.000000000000000
230
1.000000000000000
 70
     8
 71
     3
 72
    12
 73
     8
 74
     0
 42
1.000000000000000e-07
 43
1.000000000000000e-07
 12
0.9590451878276554
 22
0.2832531159647260
 32
0.000000000000000
 13
0.5329696954756855
 23
0.8461343295864481
 33
0.000000000000000
 40
0.000000000000000
 40
0.000000000000000
 40
0.000000000000000
 40
0.000000000000000
 40
0.3191516924061030
 40
0.6334357264809087
 40
0.9241592935270915
 40
1.208685126646975
 40
1.487999386919353
 40
1.487999386919353
 40
1.487999386919353
 40
1.487999386919353
 10
74.98987422649225
 20
147.1163289670428
 30
0.000000000000000
 10
75.09190119142195
 20
147.1464625374893
 30
0.000000000000000
 10
75.29207757548437
 20
147.2141311638211
 30
0.000000000000000
 10
75.57766991232657
 20
147.3304945556139
 30
0.000000000000000
 10
75.83952161508856
 20
147.4710530057585
 30
0.000000000000000
 10
76.06769139442287
 20
147.6451631102135
 30
0.000000000000000
 10
76.18512313734047
 20
147.7946893318523
 30
0.000000000000000
 10
76.23474514942026
 20
147.8734684599721
 30
0.000000000000000
  0
SPLINE
  5
184
100
AcDbEntity
  8
A1
  6
CONTINUOUS
 62
7
100
AcDbSpline
210
0.000000000000000
220
0.000000000000000
230
1.000000000000000
 70
     8
 71
     3
 72
    13
 73
     9
 74
     0
 42
1.000000000000000e-07
 43
1.000000000000000e-07
 12
0.5265674085427463
 22
-0.8501333802755653
 32
0.000000000000000
 13
0.9577143661015270
 23
-0.2877206856737757
 33
0.000000000000000
 40
0.000000000000000
 40
0.000000000000000
 40
0.000000000000000
 40
0.000000000000000
 40
0.2252074727759747
 40
0.4570124924519389
 40
0.7532338792413906
 40
1.075733411355272
 40
1.278784453470605
 40
1.488376444365778
 40
1.488376444365778
 40
1.488376444365778
 40
1.488376444365778
 10
61.76525485057925
 20
147.8734684599720
 30
0.000000000000000
 10
61.80478382235395
 20
147.8096496632739
 30
0.000000000000000
 10
61.89703216088955
 20
147.6869081619434
 30
0.000000000000000
 10
62.08729110162997
 20
147.5208554405195
 30
0.000000000000000
 10
62.33121873916227
 20
147.3740372180970
 30
0.000000000000000
 10
62.58225458157807
 20
147.2633290507675
 30
0.000000000000000
 10
62.81231797598005
 20
147.1788379766937
 30
0.000000000000000
 10
62.94321601994056
 20
147.1364302841535
 30
0.000000000000000
 10
63.01012577350727
 20
147.1163289670428
 30
0.000000000000000
  0
SPLINE
  5
185
100
AcDbEntity
  8
A1
  6
CONTINUOUS
 62
7
100
AcDbSpline
210
0.000000000000000
220
0.000000000000000
230
1.000000000000000
 70
     8
 71
     3
 72
    12
 73
     8
 74
     0
 42
1.000000000000000e-07
 43
1.000000000000000e-07
 12
-0.9253519913104356
 22
0.3791090768827416
 32
0.000000000000000
 13
-0.9999989489774634
 23
0.001449844377020781
 33
0.000000000000000
 40
0.000000000000000
 40
0.000000000000000
 40
0.000000000000000
 40
0.000000000000000
 40
0.1120846128616047
 40
0.2237871510900408
 40
0.3553695139516541
 40
0.4801522820237618
 40
0.5646466122500921
 40
0.5646466122500921
 40
0.5646466122500921
 40
0.5646466122500921
 10
80.17111046298965
 20
152.8886846684975
 30
0.000000000000000
 10
80.13653788975407
 20
152.9028487665357
 30
0.000000000000000
 10
80.06644692891945
 20
152.9286090354577
 30
0.000000000000000
 10
79.95248183124707
 20
152.9612778517339
 30
0.000000000000000
 10
79.83202659699475
 20
152.9854400633067
 30
0.000000000000000
 10
79.71893800481996
 20
152.9979187910157
 30
0.000000000000000
 10
79.64916460916837
 20
153.0001451654567
 30
0.000000000000000
 10
79.62099986202807
 20
153.0001859999999
 30
0.000000000000000
  0
SPLINE
  5
186
100
AcDbEntity
  8
A1
  6
CONTINUOUS
 62
7
100
AcDbSpline
210
0.000000000000000
220
0.000000000000000
230
1.000000000000000
 70
     8
 71
     3
 72
    12
 73
     8
 74
     0
 42
1.000000000000000e-07
 43
1.000000000000000e-07
 12
-0.9999979199185418
 22
-0.002039646926277783
 32
0.000000000000000
 13
-0.9254006071114418
 23
-0.3789903908609631
 33
0.000000000000000
 40
0.000000000000000
 40
0.000000000000000
 40
0.000000000000000
 40
0.000000000000000
 40
0.1104082750782322
 40
0.2320810711466951
 40
0.3615943790927679
 40
0.5046642975384443
 40
0.5646293889287729
 40
0.5646293889287729
 40
0.5646293889287729
 40
0.5646293889287729
 10
58.37900013797145
 20
153.0001859999999
 30
0.000000000000000
 10
58.34219745616477
 20
153.0001109353669
 30
0.000000000000000
 10
58.26480518543727
 20
152.9969013969302
 30
0.000000000000000
 10
58.14509959716875
 20
152.9816028988471
 30
0.000000000000000
 10
58.01648408506986
 20
152.9538420477455
 30
0.000000000000000
 10
57.91051924949707
 20
152.9206837672836
 30
0.000000000000000
 10
57.84738678100257
 20
152.8962600663055
 30
0.000000000000000
 10
57.82888953700987
 20
152.8886846684975
 30
0.000000000000000
  0
SPLINE
  5
187
100
AcDbEntity
  8
A1
  6
CONTINUOUS
 62
7
100
AcDbSpline
210
0.000000000000000
220
0.000000000000000
230
1.000000000000000
 70
     8
 71
     3
 72
     9
 73
     5
 74
     0
 42
1.000000000000000e-07
 43
1.000000000000000e-07
 12
0.9893622999181559
 22
-0.1454724699078724
 32
0.000000000000000
 13
0.9921425818683929
 23
-0.1251123384627135
 33
0.000000000000000
 40
0.000000000000000
 40
0.000000000000000
 40
0.000000000000000
 40
0.000000000000000
 40
1.097511722631355
 40
1.125501019398089
 40
1.125501019398089
 40
1.125501019398089
 40
1.125501019398089
 10
59.79399791630235
 20
148.1995182193994
 30
0.000000000000000
 10
60.15594349033225
 20
148.1462989723847
 30
0.000000000000000
 10
60.52768475717625
 20
148.0954384540604
 30
0.000000000000000
 10
60.89989169749117
 20
148.0484053315541
 30
0.000000000000000
 10
60.90914815521077
 20
148.0472380627640
 30
0.000000000000000
  0
SPLINE
  5
188
100
AcDbEntity
  8
A1
  6
CONTINUOUS
 62
7
100
AcDbSpline
210
0.000000000000000
220
0.000000000000000
230
1.000000000000000
 70
     8
 71
     3
 72
    15
 73
    11
 74
     0
 42
1.000000000000000e-07
 43
1.000000000000000e-07
 12
-0.9760066701306869
 22
-0.2177406252014862
 32
0.000000000000000
 13
-0.004264763844503250
 23
-0.9999909058542471
 33
0.000000000000000
 40
0.000000000000000
 40
0.000000000000000
 40
0.000000000000000
 40
0.000000000000000
 40
0.2436345059642860
 40
0.4793151941355484
 40
0.7048714779495819
 40
0.9199525150782739
 40
1.128716179474199
 40
1.328451709625847
 40
1.495242533565349
 40
1.659535401911887
 40
1.659535401911887
 40
1.659535401911887
 40
1.659535401911887
 10
57.97629797089007
 20
149.9676180766344
 30
0.000000000000000
 10
57.89703500325837
 20
149.9499350334180
 30
0.000000000000000
 10
57.74337190710807
 20
149.9041293829366
 30
0.000000000000000
 10
57.52842683541155
 20
149.8073965946436
 30
0.000000000000000
 10
57.33832662967995
 20
149.6845720590958
 30
0.000000000000000
 10
57.17619159345915
 20
149.5396564459384
 30
0.000000000000000
 10
57.04749301966277
 20
149.3749367184246
 30
0.000000000000000
 10
56.95941964664675
 20
149.2031229379647
 30
0.000000000000000
 10
56.91045111338465
 20
149.0320949062981
 30
0.000000000000000
 10
56.90023555676134
 20
148.9214827738322
 30
0.000000000000000
 10
56.90000199999974
 20
148.8667189824178
 30
0.000000000000000
  0
SPLINE
  5
189
100
AcDbEntity
  8
A1
  6
CONTINUOUS
 62
7
100
AcDbSpline
210
0.000000000000000
220
0.000000000000000
230
1.000000000000000
 70
     8
 71
     3
 72
    11
 73
     7
 74
     0
 42
1.000000000000000e-07
 43
1.000000000000000e-07
 12
0.03917770615839800
 22
0.9992322589569085
 32
0.000000000000000
 13
0.9784477382518162
 23
0.2064946089126352
 33
0.000000000000000
 40
0.000000000000000
 40
0.000000000000000
 40
0.000000000000000
 40
0.000000000000000
 40
0.1327075855851852
 40
0.2760363345014147
 40
0.4324614468581791
 40
0.5535245657394522
 40
0.5535245657394522
 40
0.5535245657394522
 40
0.5535245657394522
 10
58.50000199999977
 20
148.5233930810707
 30
0.000000000000000
 10
58.50173505959745
 20
148.5675949812457
 30
0.000000000000000
 10
58.52122734913337
 20
148.6606793091082
 30
0.000000000000000
 10
58.61307856018485
 20
148.7772163443852
 30
0.000000000000000
 10
58.73347371521075
 20
148.8530359872962
 30
0.000000000000000
 10
58.82202672940187
 20
148.8822890584879
 30
0.000000000000000
 10
58.86151137435357
 20
148.8906220189503
 30
0.000000000000000
  0
SPLINE
  5
18A
100
AcDbEntity
  8
A1
  6
CONTINUOUS
 62
7
100
AcDbSpline
210
0.000000000000000
220
0.000000000000000
230
1.000000000000000
 70
     8
 71
     3
 72
    12
 73
     8
 74
     0
 42
1.000000000000000e-07
 43
1.000000000000000e-07
 12
0.9787834426450672
 22
0.2048974680305946
 32
0.000000000000000
 13
0.4080920442734168
 23
-0.9129407885520777
 33
0.000000000000000
 40
0.000000000000000
 40
0.000000000000000
 40
0.000000000000000
 40
0.000000000000000
 40
0.1879256476480147
 40
0.3741716309711161
 40
0.5564891650509289
 40
0.7210727861572441
 40
0.7978138666663785
 40
0.7978138666663785
 40
0.7978138666663785
 40
0.7978138666663785
 10
58.91661810109267
 20
148.9027326091259
 30
0.000000000000000
 10
58.97793093854807
 20
148.9155677722529
 30
0.000000000000000
 10
59.10362426205145
 20
148.9266418924367
 30
0.000000000000000
 10
59.28859878969925
 20
148.8965949785993
 30
0.000000000000000
 10
59.45308035377116
 20
148.8244222596237
 30
0.000000000000000
 10
59.56219931166837
 20
148.7287989200913
 30
0.000000000000000
 10
59.60157476974376
 20
148.6578809712688
 30
0.000000000000000
 10
59.61201391121867
 20
148.6345276170840
 30
0.000000000000000
  0
SPLINE
  5
18B
100
AcDbEntity
  8
A1
  6
CONTINUOUS
 62
7
100
AcDbSpline
210
0.000000000000000
220
0.000000000000000
230
1.000000000000000
 70
     8
 71
     3
 72
    16
 73
    12
 74
     0
 42
1.000000000000000e-07
 43
1.000000000000000e-07
 12
-0.3999760744591185
 22
0.9165255805814922
 32
0.000000000000000
 13
-0.9803153979241301
 23
-0.1974378904674268
 33
0.000000000000000
 40
0.000000000000000
 40
0.000000000000000
 40
0.000000000000000
 40
0.000000000000000
 40
0.2091794872784982
 40
0.4286968028365112
 40
0.6587780626162959
 40
0.8995481534567439
 40
1.163869323389861
 40
1.436407339354802
 40
1.726415465137726
 40
2.018901106550118
 40
2.371359660151616
 40
2.371359660151616
 40
2.371359660151616
 40
2.371359660151616
 10
61.06374883511305
 20
149.3798549818164
 30
0.000000000000000
 10
61.03585990505337
 20
149.4437610988243
 30
0.000000000000000
 10
60.96661331608516
 20
149.5700118500975
 30
0.000000000000000
 10
60.82276617227856
 20
149.7376953818733
 30
0.000000000000000
 10
60.64478976151625
 20
149.8850263361126
 30
0.000000000000000
 10
60.43431559561495
 20
150.0121470879682
 30
0.000000000000000
 10
60.19514588075785
 20
150.1141360426857
 30
0.000000000000000
 10
59.92921497337306
 20
150.1892737029729
 30
0.000000000000000
 10
59.64651483824827
 20
150.2311900544421
 30
0.000000000000000
 10
59.33419869587897
 20
150.2388059958901
 30
0.000000000000000
 10
59.11972455812995
 20
150.2124585914079
 30
0.000000000000000
 10
59.00455104238807
 20
150.1892623669745
 30
0.000000000000000
  0
SPLINE
  5
18C
100
AcDbEntity
  8
A1
  6
CONTINUOUS
 62
7
100
AcDbSpline
210
0.000000000000000
220
0.000000000000000
230
1.000000000000000
 70
     8
 71
     3
 72
    12
 73
     8
 74
     0
 42
1.000000000000000e-07
 43
1.000000000000000e-07
 12
0.4351502275799248
 22
0.9003578618726351
 32
0.000000000000000
 13
0.9781182689155230
 23
-0.2080496383441641
 33
0.000000000000000
 40
0.000000000000000
 40
0.000000000000000
 40
0.000000000000000
 40
0.000000000000000
 40
0.1423292298730808
 40
0.2989628880072871
 40
0.4777089553665016
 40
0.6716411824255379
 40
0.7978029985260329
 40
0.7978029985260329
 40
0.7978029985260329
 40
0.7978029985260329
 10
78.38798608878096
 20
148.6345276170841
 30
0.000000000000000
 10
78.40863095437115
 20
148.6772433641143
 30
0.000000000000000
 10
78.46556048398557
 20
148.7619376582013
 30
0.000000000000000
 10
78.60013144099776
 20
148.8525039247798
 30
0.000000000000000
 10
78.76825283983487
 20
148.9108462655376
 30
0.000000000000000
 10
78.93592845273827
 20
148.9252250192498
 30
0.000000000000000
 10
79.04224817318436
 20
148.9114819158634
 30
0.000000000000000
 10
79.08338189890685
 20
148.9027326091259
 30
0.000000000000000
  0
SPLINE
  5
18D
100
AcDbEntity
  8
A1
  6
CONTINUOUS
 62
7
100
AcDbSpline
210
0.000000000000000
220
0.000000000000000
230
1.000000000000000
 70
     8
 71
     3
 72
    11
 73
     7
 74
     0
 42
1.000000000000000e-07
 43
1.000000000000000e-07
 12
0.9791959925814808
 22
-0.2029167516843700
 32
0.000000000000000
 13
0.02740507970020190
 23
-0.9996244102699166
 33
0.000000000000000
 40
0.000000000000000
 40
0.000000000000000
 40
0.000000000000000
 40
0.000000000000000
 40
0.1595475255185976
 40
0.3061930937176559
 40
0.4418474787601246
 40
0.5537662476362979
 40
0.5537662476362979
 40
0.5537662476362979
 40
0.5537662476362979
 10
79.13848862564595
 20
148.8906220189503
 30
0.000000000000000
 10
79.19056472485065
 20
148.8798303970778
 30
0.000000000000000
 10
79.28794593718575
 20
148.8440478362002
 30
0.000000000000000
 10
79.40839315971647
 20
148.7558635287239
 30
0.000000000000000
 10
79.48414943364085
 20
148.6439270704205
 30
0.000000000000000
 10
79.49897561907275
 20
148.5606853255160
 30
0.000000000000000
 10
79.49999799999975
 20
148.5233930810707
 30
0.000000000000000
  0
SPLINE
  5
18E
100
AcDbEntity
  8
A1
  6
CONTINUOUS
 62
7
100
AcDbSpline
210
0.000000000000000
220
0.000000000000000
230
1.000000000000000
 70
     8
 71
     3
 72
    15
 73
    11
 74
     0
 42
1.000000000000000e-07
 43
1.000000000000000e-07
 12
-0.007347280357862473
 22
0.9999730083713985
 32
0.000000000000000
 13
-0.9758202293016893
 23
0.2185746556310733
 33
0.000000000000000
 40
0.000000000000000
 40
0.000000000000000
 40
0.000000000000000
 40
0.000000000000000
 40
0.1984535051858078
 40
0.4012440035667911
 40
0.6123395107197431
 40
0.8340134925521313
 40
1.064092703000592
 40
1.305329963998534
 40
1.480350486321410
 40
1.659327111948653
 40
1.659327111948653
 40
1.659327111948653
 40
1.659327111948653
 10
81.09999799999977
 20
148.8667189824178
 30
0.000000000000000
 10
81.09951196881957
 20
148.9328683652853
 30
0.000000000000000
 10
81.08462676733635
 20
149.0670358264004
 30
0.000000000000000
 10
81.01676720234457
 20
149.2612668438122
 30
0.000000000000000
 10
80.90551209614696
 20
149.4432351482019
 30
0.000000000000000
 10
80.75581864635885
 20
149.6074693361266
 30
0.000000000000000
 10
80.57144185231485
 20
149.7483832707909
 30
0.000000000000000
 10
80.38121797974435
 20
149.8513952184403
 30
0.000000000000000
 10
80.19583354967725
 20
149.9229301673384
 30
0.000000000000000
 10
80.08191836639597
 20
149.9545781585303
 30
0.000000000000000
 10
80.02370202910956
 20
149.9676180766344
 30
0.000000000000000
  0
SPLINE
  5
18F
100
AcDbEntity
  8
A1
  6
CONTINUOUS
 62
7
100
AcDbSpline
210
0.000000000000000
220
0.000000000000000
230
1.000000000000000
 70
     8
 71
     3
 72
    16
 73
    12
 74
     0
 42
1.000000000000000e-07
 43
1.000000000000000e-07
 12
-0.9801218892504266
 22
0.1983962757030895
 32
0.000000000000000
 13
-0.3990640578970215
 23
-0.9169230489505935
 33
0.000000000000000
 40
0.000000000000000
 40
0.000000000000000
 40
0.000000000000000
 40
0.000000000000000
 40
0.2781616517308604
 40
0.5667958466669177
 40
0.8455574643010286
 40
1.127137403875701
 40
1.401782158150451
 40
1.673539775478239
 40
1.922108480097301
 40
2.165282396026158
 40
2.371421082446684
 40
2.371421082446684
 40
2.371421082446684
 40
2.371421082446684
 10
78.99544895761147
 20
150.1892623669745
 30
0.000000000000000
 10
78.90457151640766
 20
150.2076577788901
 30
0.000000000000000
 10
78.71687629274257
 20
150.2338545216941
 30
0.000000000000000
 10
78.43429350651155
 20
150.2365958064011
 30
0.000000000000000
 10
78.15240474177216
 20
150.2049117860114
 30
0.000000000000000
 10
77.88100992640847
 20
150.1398125825631
 30
0.000000000000000
 10
77.62255193582985
 20
150.0406807551284
 30
0.000000000000000
 10
77.39031271896357
 20
149.9107926339901
 30
0.000000000000000
 10
77.19026260962525
 20
149.7517115377138
 30
0.000000000000000
 10
77.03586901557537
 20
149.5753625678188
 30
0.000000000000000
 10
76.96367201178407
 20
149.4428594194362
 30
0.000000000000000
 10
76.93625116488656
 20
149.3798549818164
 30
0.000000000000000
  0
ELLIPSE
  5
190
100
AcDbEntity
  8
A1
  6
CONTINUOUS
 62
7
100
AcDbEllipse
 10
68.99999999999977
 20
133.2561317110645
 30
0.000000000000000
 11
0.000000000000000
 21
-16.92585372583522
 31
0.000000000000000
210
0.000000000000000
220
0.000000000000000
230
1.000000000000000
 40
0.8507694934182367
 41
3.863275217939379
 42
3.958695884809805
  0
ELLIPSE
  5
191
100
AcDbEntity
  8
A1
  6
CONTINUOUS
 62
7
100
AcDbEllipse
 10
68.99999999999977
 20
133.2561317110645
 30
0.000000000000000
 11
0.000000000000000
 21
-16.92585372583522
 31
0.000000000000000
210
0.000000000000000
220
0.000000000000000
230
1.000000000000000
 40
0.8507694934182367
 41
2.324489422369782
 42
2.419910089240208
  0
ELLIPSE
  5
192
100
AcDbEntity
  8
A1
  6
CONTINUOUS
 62
7
100
AcDbEllipse
 10
68.99999999999977
 20
133.2561317110645
 30
0.000000000000000
 11
0.000000000000000
 21
-18.80650413981691
 31
0.000000000000000
210
0.000000000000000
220
0.000000000000000
230
1.000000000000000
 40
0.8507694934182372
 41
1.503116240378126
 42
1.570796326794897
  0
ELLIPSE
  5
193
100
AcDbEntity
  8
A1
  6
CONTINUOUS
 62
7
100
AcDbEllipse
 10
68.99999999999977
 20
133.2561317110645
 30
0.000000000000000
 11
0.000000000000000
 21
-18.80650413981691
 31
0.000000000000000
210
0.000000000000000
220
0.000000000000000
230
1.000000000000000
 40
0.8507694934182372
 41
4.712388980384690
 42
4.780069066801460
  0
ELLIPSE
  5
194
100
AcDbEntity
  8
A1
  6
CONTINUOUS
 62
7
100
AcDbEllipse
 10
63.29140084268874
 20
149.3243305095156
 30
0.000000000000000
 11
0.000000000000000
 21
-2.216073672249594
 31
0.000000000000000
210
0.000000000000000
220
0.000000000000000
230
1.000000000000000
 40
0.9024970717556291
 41
5.146446919473977
 42
5.326565949008856
  0
ELLIPSE
  5
195
100
AcDbEntity
  8
A1
  6
CONTINUOUS
 62
7
100
AcDbEllipse
 10
74.70859915731077
 20
149.3243305095156
 30
0.000000000000000
 11
0.000000000000000
 21
-2.216073672249594
 31
0.000000000000000
210
0.000000000000000
220
0.000000000000000
230
1.000000000000000
 40
0.9024970717556291
 41
0.9566193581707302
 42
1.136738387705582
  0
ARC
  5
196
100
AcDbEntity
  8
A1
  6
CONTINUOUS
 62
7
100
AcDbCircle
 10
83.49999999999977
 20
151.5001859999999
 30
0.000000000000000
 40
1.500000000000000
100
AcDbArc
 50
0.000000000000000
 51
90.00000000000000
  0
ARC
  5
197
100
AcDbEntity
  8
A1
  6
CONTINUOUS
 62
7
100
AcDbCircle
 10
54.49999999999977
 20
151.5001859999999
 30
0.000000000000000
 40
1.500000000000000
100
AcDbArc
 50
90.00000000000000
 51
180.0000000000000
  0
ARC
  5
198
100
AcDbEntity
  8
A1
  6
CONTINUOUS
 62
7
100
AcDbCircle
 10
58.43124986227926
 20
151.4908711284889
 30
0.000000000000000
 40
1.532604753117273
100
AcDbArc
 50
162.7714048336360
 51
179.6517653304944
  0
ARC
  5
199
100
AcDbEntity
  8
A1
  6
CONTINUOUS
 62
7
100
AcDbCircle
 10
79.56867365222396
 20
151.4908638777959
 30
0.000000000000000
 40
1.532681281284158
100
AcDbArc
 50
0.3484883374800108
 51
16.97455361661070
  0
ARC
  5
19A
100
AcDbEntity
  8
A1
  6
CONTINUOUS
 62
7
100
AcDbCircle
 10
69.07180800000066
 20
47.30021799997058
 30
0.000000000000000
 40
100.0000000000293
100
AcDbArc
 50
90.04114295688902
 51
92.94981158322697
  0
ARC
  5
19B
100
AcDbEntity
  8
A1
  6
CONTINUOUS
 62
7
100
AcDbCircle
 10
68.92819199999886
 20
47.30021799996751
 30
0.000000000000000
 40
100.0000000000324
100
AcDbArc
 50
87.05018841677308
 51
89.95885704311097
  0
ARC
  5
19C
100
AcDbEntity
  8
A1
  6
CONTINUOUS
 62
7
100
AcDbCircle
 10
75.10106473081476
 20
148.1114060807349
 30
0.000000000000000
 40
1.000000000000791
100
AcDbArc
 50
266.4960384916625
 51
286.9336498908561
  0
ARC
  5
19D
100
AcDbEntity
  8
A1
  6
CONTINUOUS
 62
7
100
AcDbCircle
 10
62.89893526918476
 20
148.1114060807350
 30
0.000000000000000
 40
1.000000000000989
100
AcDbArc
 50
253.0663501091436
 51
273.5039615082529
  0
ARC
  5
19E
100
AcDbEntity
  8
A1
  6
CONTINUOUS
 62
7
100
AcDbCircle
 10
68.92819199991297
 20
47.30021799841262
 30
0.000000000000000
 40
100.0000000015897
100
AcDbArc
 50
86.52478147355774
 51
87.05018841676980
  0
ARC
  5
19F
100
AcDbEntity
  8
A1
  6
CONTINUOUS
 62
7
100
AcDbCircle
 10
69.07180800001757
 20
47.30021799967233
 30
0.000000000000000
 40
100.0000000003281
100
AcDbArc
 50
92.94981158322787
 51
93.47521852644660
  0
ARC
  5
1A0
100
AcDbEntity
  8
A1
  6
CONTINUOUS
 62
7
100
AcDbCircle
 10
70.95909391888006
 20
197.1094805230546
 30
0.000000000000000
 40
49.44392875262123
100
AcDbArc
 50
277.1238407585701
 51
278.4281013557657
  0
LINE
  5
1A1
100
AcDbEntity
  8
A1
  6
CONTINUOUS
 62
7
100
AcDbLine
 10
84.99999999999977
 20
133.2561317110646
 30
0.000000000000000
 11
84.99999999999977
 21
151.5001860000000
 31
0.000000000000000
  0
LINE
  5
1A2
100
AcDbEntity
  8
A1
  6
CONTINUOUS
 62
7
100
AcDbLine
 10
52.99999999999977
 20
151.5001860000000
 30
0.000000000000000
 11
52.99999999999977
 21
133.2561317110645
 31
0.000000000000000
  0
LINE
  5
1A3
100
AcDbEntity
  8
A1
  6
CONTINUOUS
 62
7
100
AcDbLine
 10
80.52368268421026
 20
153.0001859999999
 30
0.000000000000000
 11
83.49999999999977
 21
153.0001859999999
 31
0.000000000000000
  0
LINE
  5
1A4
100
AcDbEntity
  8
A1
  6
CONTINUOUS
 62
7
100
AcDbLine
 10
54.49999999999977
 20
153.0001859999999
 30
0.000000000000000
 11
57.47631731578926
 21
153.0001859999999
 31
0.000000000000000
  0
LINE
  5
1A5
100
AcDbEntity
  8
A1
  6
CONTINUOUS
 62
7
100
AcDbLine
 10
80.52368268421037
 20
153.0001859999999
 30
0.000000000000000
 11
79.62099986202807
 21
153.0001859999999
 31
0.000000000000000
  0
LINE
  5
1A6
100
AcDbEntity
  8
A1
  6
CONTINUOUS
 62
7
100
AcDbLine
 10
58.37900013797145
 20
153.0001859999999
 30
0.000000000000000
 11
57.47631731578926
 21
153.0001859999999
 31
0.000000000000000
  0
LINE
  5
1A7
100
AcDbEntity
  8
A1
  6
CONTINUOUS
 62
7
100
AcDbLine
 10
82.92902693743964
 20
129.4961674198853
 30
0.000000000000000
 11
82.88941334959566
 21
129.4816945961329
 31
0.000000000000000
  0
LINE
  5
1A8
100
AcDbEntity
  8
A1
  6
CONTINUOUS
 62
7
100
AcDbLine
 10
64.40140623438816
 20
153.0001859999999
 30
0.000000000000000
 11
61.43936341208735
 21
153.0001859999999
 31
0.000000000000000
  0
LINE
  5
1A9
100
AcDbEntity
  8
A1
  6
CONTINUOUS
 62
7
100
AcDbLine
 10
76.56063658791217
 20
153.0001859999999
 30
0.000000000000000
 11
73.59859376561147
 21
153.0001859999999
 31
0.000000000000000
  0
LINE
  5
1AA
100
AcDbEntity
  8
A1
  6
CONTINUOUS
 62
7
100
AcDbLine
 10
58.50000199999977
 20
148.0472380627640
 30
0.000000000000000
 11
58.50000199999977
 21
146.3135681238506
 31
0.000000000000000
  0
LINE
  5
1AB
100
AcDbEntity
  8
A1
  6
CONTINUOUS
 62
7
100
AcDbLine
 10
56.90000199999986
 20
148.0472380627640
 30
0.000000000000000
 11
56.90000199999986
 21
146.3135681238506
 31
0.000000000000000
  0
LINE
  5
1AC
100
AcDbEntity
  8
A1
  6
CONTINUOUS
 62
7
100
AcDbLine
 10
81.09999799999977
 20
146.3135681238506
 30
0.000000000000000
 11
81.09999799999977
 21
148.0472380627640
 31
0.000000000000000
  0
LINE
  5
1AD
100
AcDbEntity
  8
A1
  6
CONTINUOUS
 62
7
100
AcDbLine
 10
79.49999799999975
 20
146.3135681238506
 30
0.000000000000000
 11
79.49999799999975
 21
148.0472380627640
 31
0.000000000000000
  0
LINE
  5
1AE
100
AcDbEntity
  8
A1
  6
CONTINUOUS
 62
7
100
AcDbLine
 10
64.40140623438816
 20
153.0001859999999
 30
0.000000000000000
 11
73.59859376561147
 21
153.0001859999999
 31
0.000000000000000
  0
LINE
  5
1AF
100
AcDbEntity
  8
A1
  6
CONTINUOUS
 62
7
100
AcDbLine
 10
75.03994717902455
 20
147.1132755056774
 30
0.000000000000000
 11
74.98987422649226
 21
147.1163289670429
 31
0.000000000000000
  0
LINE
  5
1B0
100
AcDbEntity
  8
A1
  6
CONTINUOUS
 62
7
100
AcDbLine
 10
77.86386628694875
 20
147.9072596999396
 30
0.000000000000000
 11
75.39232881219232
 21
147.1547633914819
 31
0.000000000000000
  0
LINE
  5
1B1
100
AcDbEntity
  8
A1
  6
CONTINUOUS
 62
7
100
AcDbLine
 10
62.60767118780718
 20
147.1547633914820
 30
0.000000000000000
 11
60.13613371305085
 21
147.9072596999395
 31
0.000000000000000
  0
LINE
  5
1B2
100
AcDbEntity
  8
A1
  6
CONTINUOUS
 62
7
100
AcDbLine
 10
63.01012577350728
 20
147.1163289670428
 30
0.000000000000000
 11
62.96005282097345
 21
147.1132755056773
 31
0.000000000000000
  0
LINE
  5
1B3
100
AcDbEntity
  8
A1
  6
CONTINUOUS
 62
7
100
AcDbLine
 10
76.34309520767167
 20
148.0472380627640
 30
0.000000000000000
 11
76.23474514942026
 21
147.8734684599721
 31
0.000000000000000
  0
LINE
  5
1B4
100
AcDbEntity
  8
A1
  6
CONTINUOUS
 62
7
100
AcDbLine
 10
61.76525485057918
 20
147.8734684599719
 30
0.000000000000000
 11
61.65690479232792
 21
148.0472380627639
 31
0.000000000000000
  0
LINE
  5
1B5
100
AcDbEntity
  8
A1
  6
CONTINUOUS
 62
7
100
AcDbLine
 10
56.90000199999974
 20
151.4390613328267
 30
0.000000000000000
 11
56.90000199999974
 21
148.8667189824178
 31
0.000000000000000
  0
LINE
  5
1B6
100
AcDbEntity
  8
A1
  6
CONTINUOUS
 62
7
100
AcDbLine
 10
81.09999799999977
 20
151.4390613328268
 30
0.000000000000000
 11
81.09999799999977
 21
148.8667189824178
 31
0.000000000000000
  0
LINE
  5
1B7
100
AcDbEntity
  8
A1
  6
CONTINUOUS
 62
7
100
AcDbLine
 10
79.62099986202816
 20
153.0001859999999
 30
0.000000000000000
 11
76.56063658791217
 21
153.0001859999999
 31
0.000000000000000
  0
LINE
  5
1B8
100
AcDbEntity
  8
A1
  6
CONTINUOUS
 62
7
100
AcDbLine
 10
61.43936341208735
 20
153.0001859999999
 30
0.000000000000000
 11
58.37900013797145
 21
153.0001859999999
 31
0.000000000000000
  0
LINE
  5
1B9
100
AcDbEntity
  8
A1
  6
CONTINUOUS
 62
7
100
AcDbLine
 10
58.50000199999977
 20
148.5233930810707
 30
0.000000000000000
 11
58.50000199999977
 21
148.0472380627640
 31
0.000000000000000
  0
LINE
  5
1BA
100
AcDbEntity
  8
A1
  6
CONTINUOUS
 62
7
100
AcDbLine
 10
56.90000199999976
 20
148.8667189824178
 30
0.000000000000000
 11
56.90000199999987
 21
148.0472380627640
 31
0.000000000000000
  0
LINE
  5
1BB
100
AcDbEntity
  8
A1
  6
CONTINUOUS
 62
7
100
AcDbLine
 10
59.79399791630236
 20
148.1995182193994
 30
0.000000000000000
 11
59.61201391121868
 21
148.6345276170840
 31
0.000000000000000
  0
LINE
  5
1BC
100
AcDbEntity
  8
A1
  6
CONTINUOUS
 62
7
100
AcDbLine
 10
61.47686757450236
 20
148.3923476791212
 30
0.000000000000000
 11
61.06374883511300
 21
149.3798549818165
 31
0.000000000000000
  0
LINE
  5
1BD
100
AcDbEntity
  8
A1
  6
CONTINUOUS
 62
7
100
AcDbLine
 10
57.97629797089007
 20
149.9676180766345
 30
0.000000000000000
 11
59.00455104238807
 21
150.1892623669746
 31
0.000000000000000
  0
LINE
  5
1BE
100
AcDbEntity
  8
A1
  6
CONTINUOUS
 62
7
100
AcDbLine
 10
58.86151137435358
 20
148.8906220189503
 30
0.000000000000000
 11
58.91661810109268
 21
148.9027326091259
 31
0.000000000000000
  0
LINE
  5
1BF
100
AcDbEntity
  8
A1
  6
CONTINUOUS
 62
7
100
AcDbLine
 10
81.09999799999977
 20
148.0472380627640
 30
0.000000000000000
 11
81.09999799999977
 21
148.8667189824178
 31
0.000000000000000
  0
LINE
  5
1C0
100
AcDbEntity
  8
A1
  6
CONTINUOUS
 62
7
100
AcDbLine
 10
79.49999799999975
 20
148.0472380627640
 30
0.000000000000000
 11
79.49999799999975
 21
148.5233930810707
 31
0.000000000000000
  0
LINE
  5
1C1
100
AcDbEntity
  8
A1
  6
CONTINUOUS
 62
7
100
AcDbLine
 10
78.38798608878095
 20
148.6345276170842
 30
0.000000000000000
 11
78.20600208369697
 21
148.1995182193992
 31
0.000000000000000
  0
LINE
  5
1C2
100
AcDbEntity
  8
A1
  6
CONTINUOUS
 62
7
100
AcDbLine
 10
79.08338189890688
 20
148.9027326091259
 30
0.000000000000000
 11
79.13848862564598
 21
148.8906220189503
 31
0.000000000000000
  0
LINE
  5
1C3
100
AcDbEntity
  8
A1
  6
CONTINUOUS
 62
7
100
AcDbLine
 10
78.99544895761144
 20
150.1892623669744
 30
0.000000000000000
 11
80.02370202910953
 21
149.9676180766344
 31
0.000000000000000
  0
LINE
  5
1C4
100
AcDbEntity
  8
A1
  6
CONTINUOUS
 62
7
100
AcDbLine
 10
76.93625116488657
 20
149.3798549818165
 30
0.000000000000000
 11
76.52313242549728
 21
148.3923476791213
 31
0.000000000000000
  0
LINE
  5
1C5
100
AcDbEntity
  8
A1
  6
CONTINUOUS
 62
7
100
AcDbLine
 10
81.09999799999977
 20
128.1812679999999
 30
0.000000000000000
 11
81.09999799999977
 21
146.3135681238506
 31
0.000000000000000
  0
LINE
  5
1C6
100
AcDbEntity
  8
A1
  6
CONTINUOUS
 62
7
100
AcDbLine
 10
79.49999999999976
 20
128.1812679999999
 30
0.000000000000000
 11
79.49999799999974
 21
146.3135681238506
 31
0.000000000000000
  0
LINE
  5
1C7
100
AcDbEntity
  8
A1
  6
CONTINUOUS
 62
7
100
AcDbLine
 10
58.50000199999978
 20
146.3135681238506
 30
0.000000000000000
 11
58.49999999999979
 21
128.1812679999999
 31
0.000000000000000
  0
LINE
  5
1C8
100
AcDbEntity
  8
A1
  6
CONTINUOUS
 62
7
100
AcDbLine
 10
56.90000199999986
 20
146.3135681238506
 30
0.000000000000000
 11
56.90000199999986
 21
128.1812679999999
 31
0.000000000000000
  0
LINE
  5
1C9
100
AcDbEntity
  8
A1
  6
CONTINUOUS
 62
7
100
AcDbLine
 10
58.50000199999977
 20
128.1812682121376
 30
0.000000000000000
 11
58.50000199999977
 21
121.0001879909454
 31
0.000000000000000
  0
LINE
  5
1CA
100
AcDbEntity
  8
A1
  6
CONTINUOUS
 62
7
100
AcDbLine
 10
56.90000199999986
 20
128.1812682121376
 30
0.000000000000000
 11
56.90000199999986
 21
121.0001879909454
 31
0.000000000000000
  0
LINE
  5
1CB
100
AcDbEntity
  8
A1
  6
CONTINUOUS
 62
7
100
AcDbLine
 10
56.90000199999986
 20
121.0001879909454
 30
0.000000000000000
 11
58.49999999999986
 21
121.0001879909454
 31
0.000000000000000
  0
LINE
  5
1CC
100
AcDbEntity
  8
A1
  6
CONTINUOUS
 62
7
100
AcDbLine
 10
79.49999799999975
 20
121.0001879909454
 30
0.000000000000000
 11
81.09999799999977
 21
121.0001879909454
 31
0.000000000000000
  0
LINE
  5
1CD
100
AcDbEntity
  8
A1
  6
CONTINUOUS
 62
7
100
AcDbLine
 10
79.49999799999975
 20
121.0001879909454
 30
0.000000000000000
 11
79.49999799999975
 21
128.1812682121376
 31
0.000000000000000
  0
LINE
  5
1CE
100
AcDbEntity
  8
A1
  6
CONTINUOUS
 62
7
100
AcDbLine
 10
81.09999799999977
 20
121.0001879909454
 30
0.000000000000000
 11
81.09999799999977
 21
128.1812682121376
 31
0.000000000000000
  0
ARC
  5
1CF
100
AcDbEntity
  8
A1
  6
CONTINUOUS
 62
7
100
AcDbCircle
 10
129.8202019999998
 20
55.70000499999992
 30
0.000000000000000
 40
1.000000000000000
100
AcDbArc
 50
269.9999799999997
 51
348.4635806116481
  0
ARC
  5
1D0
100
AcDbEntity
  8
A1
  6
CONTINUOUS
 62
7
100
AcDbCircle
 10
124.1797979999998
 20
55.70000499999992
 30
0.000000000000000
 40
1.000000000000000
100
AcDbArc
 50
191.5364193883520
 51
270.0000200000000
  0
ARC
  5
1D1
100
AcDbEntity
  8
A1
  6
CONTINUOUS
 62
7
100
AcDbCircle
 10
126.9999999999998
 20
78.19999699999988
 30
0.000000000000000
 40
5.315072000000000
100
AcDbArc
 50
41.18592999999994
 51
78.05583000000011
  0
ARC
  5
1D2
100
AcDbEntity
  8
A1
  6
CONTINUOUS
 62
7
100
AcDbCircle
 10
126.9999999999998
 20
78.19999699999988
 30
0.000000000000000
 40
5.315072000000000
100
AcDbArc
 50
101.9441699999998
 51
138.8140700000001
  0
LINE
  5
1D3
100
AcDbEntity
  8
A1
  6
CONTINUOUS
 62
7
100
AcDbLine
 10
130.0228119999998
 20
78.99999999999989
 30
0.000000000000000
 11
130.0228119999998
 21
79.49999799999989
 31
0.000000000000000
  0
LINE
  5
1D4
100
AcDbEntity
  8
A1
  6
CONTINUOUS
 62
7
100
AcDbLine
 10
130.0228119999998
 20
58.50000199999994
 30
0.000000000000000
 11
130.0228119999998
 21
58.99999999999989
 31
0.000000000000000
  0
LINE
  5
1D5
100
AcDbEntity
  8
A1
  6
CONTINUOUS
 62
7
100
AcDbLine
 10
123.9771879999998
 20
58.99999999999989
 30
0.000000000000000
 11
123.9771879999998
 21
58.50000199999994
 31
0.000000000000000
  0
LINE
  5
1D6
100
AcDbEntity
  8
A1
  6
CONTINUOUS
 62
7
100
AcDbLine
 10
123.9771879999998
 20
79.49999799999989
 30
0.000000000000000
 11
123.9771879999998
 21
78.99999999999989
 31
0.000000000000000
  0
LINE
  5
1D7
100
AcDbEntity
  8
A1
  6
CONTINUOUS
 62
7
100
AcDbLine
 10
123.9771879999997
 20
56.90000179456686
 30
0.000000000000000
 11
123.2000039999998
 21
55.50001499999992
 31
0.000000000000000
  0
LINE
  5
1D8
100
AcDbEntity
  8
A1
  6
CONTINUOUS
 62
7
100
AcDbLine
 10
130.7999959999998
 20
55.50001499999986
 30
0.000000000000000
 11
130.0228119999997
 21
56.90000179456690
 31
0.000000000000000
  0
LINE
  5
1D9
100
AcDbEntity
  8
A1
  6
CONTINUOUS
 62
7
100
AcDbLine
 10
126.9999999999998
 20
54.70000499999992
 30
0.000000000000000
 11
129.8202016509339
 21
54.70000499999992
 31
0.000000000000000
  0
LINE
  5
1DA
100
AcDbEntity
  8
A1
  6
CONTINUOUS
 62
7
100
AcDbLine
 10
126.9999999999998
 20
55.50001499999991
 30
0.000000000000000
 11
130.7999959999998
 21
55.50001499999991
 31
0.000000000000000
  0
LINE
  5
1DB
100
AcDbEntity
  8
A1
  6
CONTINUOUS
 62
7
100
AcDbLine
 10
124.1797983490657
 20
54.70000499999992
 30
0.000000000000000
 11
126.9999999999998
 21
54.70000499999992
 31
0.000000000000000
  0
LINE
  5
1DC
100
AcDbEntity
  8
A1
  6
CONTINUOUS
 62
7
100
AcDbLine
 10
123.2000039999998
 20
55.50001499999991
 30
0.000000000000000
 11
126.9999999999998
 21
55.50001499999991
 31
0.000000000000000
  0
LINE
  5
1DD
100
AcDbEntity
  8
A1
  6
CONTINUOUS
 62
7
100
AcDbLine
 10
126.9999999999998
 20
83.39999625126393
 30
0.000000000000000
 11
128.0999991600167
 21
83.39999625126393
 31
0.000000000000000
  0
LINE
  5
1DE
100
AcDbEntity
  8
A1
  6
CONTINUOUS
 62
7
100
AcDbLine
 10
125.9000008399829
 20
83.39999625126393
 30
0.000000000000000
 11
126.9999999999998
 21
83.39999625126393
 31
0.000000000000000
  0
LINE
  5
1DF
100
AcDbEntity
  8
A1
  6
CONTINUOUS
 62
7
100
AcDbLine
 10
126.9999999999998
 20
81.69999674064991
 30
0.000000000000000
 11
130.9999990225789
 21
81.69999674064991
 31
0.000000000000000
  0
LINE
  5
1E0
100
AcDbEntity
  8
A1
  6
CONTINUOUS
 62
7
100
AcDbLine
 10
130.9999995112894
 20
81.09999799999991
 30
0.000000000000000
 11
130.9999995112894
 21
81.69999674064991
 31
0.000000000000000
  0
LINE
  5
1E1
100
AcDbEntity
  8
A1
  6
CONTINUOUS
 62
7
100
AcDbLine
 10
123.0000004887103
 20
81.69999674064991
 30
0.000000000000000
 11
123.0000004887103
 21
81.09999799999991
 31
0.000000000000000
  0
LINE
  5
1E2
100
AcDbEntity
  8
A1
  6
CONTINUOUS
 62
7
100
AcDbLine
 10
123.0000009774207
 20
81.69999674064991
 30
0.000000000000000
 11
126.9999999999998
 21
81.69999674064991
 31
0.000000000000000
  0
CIRCLE
  5
1E3
100
AcDbEntity
  8
A1
  6
CONTINUOUS
 62
7
100
AcDbCircle
 10
157.9999989999998
 20
82.99999999999989
 30
0.000000000000000
 40
2.650000000000000
  0
CIRCLE
  5
1E4
100
AcDbEntity
  8
A1
  6
CONTINUOUS
 62
7
100
AcDbCircle
 10
157.9999989999998
 20
54.99999999999989
 30
0.000000000000000
 40
2.650000000000000
  0
ARC
  5
1E5
100
AcDbEntity
  8
A1
  6
CONTINUOUS
 62
7
100
AcDbCircle
 10
121.9999989999998
 20
82.99999999999989
 30
0.000000000000000
 40
5.000000000000000
100
AcDbArc
 50
90.00004999999962
 51
206.8471900000002
  0
ARC
  5
1E6
100
AcDbEntity
  8
A1
  6
CONTINUOUS
 62
7
100
AcDbCircle
 10
121.9999989999998
 20
54.99999999999989
 30
0.000000000000000
 40
2.650000000000000
100
AcDbArc
 50
180.0000000000000
 51
353.4998589126557
  0
ARC
  5
1E7
100
AcDbEntity
  8
A1
  6
CONTINUOUS
 62
7
100
AcDbCircle
 10
121.9999989999998
 20
54.99999999999989
 30
0.000000000000000
 40
2.650000000000000
100
AcDbArc
 50
43.24550914327586
 51
45.80585830918127
  0
ARC
  5
1E8
100
AcDbEntity
  8
A1
  6
CONTINUOUS
 62
7
100
AcDbCircle
 10
121.9999989999998
 20
54.99999999999989
 30
0.000000000000000
 40
2.650000000000000
100
AcDbArc
 50
116.9254401574150
 51
180.0000000000000
  0
ARC
  5
1E9
100
AcDbEntity
  8
A1
  6
CONTINUOUS
 62
7
100
AcDbCircle
 10
121.9999989999998
 20
82.99999999999989
 30
0.000000000000000
 40
2.650000000000000
100
AcDbArc
 50
180.0000000000000
 51
243.0745598425850
  0
ARC
  5
1EA
100
AcDbEntity
  8
A1
  6
CONTINUOUS
 62
7
100
AcDbCircle
 10
121.9999989999998
 20
82.99999999999989
 30
0.000000000000000
 40
2.650000000000000
100
AcDbArc
 50
359.2915122132283
 51
540.0000000000000
  0
ARC
  5
1EB
100
AcDbEntity
  8
A1
  6
CONTINUOUS
 62
7
100
AcDbCircle
 10
121.9999989999998
 20
54.99999999999989
 30
0.000000000000000
 40
5.000000000000000
100
AcDbArc
 50
153.1528038044627
 51
270.0000000000000
  0
ARC
  5
1EC
100
AcDbEntity
  8
A1
  6
CONTINUOUS
 62
7
100
AcDbCircle
 10
157.9999989999998
 20
54.99999999999989
 30
0.000000000000000
 40
5.000000000000000
100
AcDbArc
 50
270.0000180000003
 51
386.8472099999998
  0
ARC
  5
1ED
100
AcDbEntity
  8
A1
  6
CONTINUOUS
 62
7
100
AcDbCircle
 10
185.6586010888364
 20
68.99999999999989
 30
0.000000000000000
 40
25.99997208883655
100
AcDbArc
 50
153.1527547087770
 51
206.8472450989153
  0
ARC
  5
1EE
100
AcDbEntity
  8
A1
  6
CONTINUOUS
 62
7
100
AcDbCircle
 10
157.9999989999998
 20
82.99999999999989
 30
0.000000000000000
 40
5.000000000000000
100
AcDbArc
 50
333.1527910000000
 51
450.0000000000000
  0
ARC
  5
1EF
100
AcDbEntity
  8
A1
  6
CONTINUOUS
 62
7
100
AcDbCircle
 10
94.34135726149535
 20
69.00000160827238
 30
0.000000000000000
 40
26.00000673850440
100
AcDbArc
 50
333.1527885441233
 51
340.5759451759759
  0
ARC
  5
1F0
100
AcDbEntity
  8
A1
  6
CONTINUOUS
 62
7
100
AcDbCircle
 10
94.34135726149535
 20
69.00000160827238
 30
0.000000000000000
 40
26.00000673850440
100
AcDbArc
 50
19.42405318782442
 51
26.84720632309240
  0
LINE
  5
1F1
100
AcDbEntity
  8
A1
  6
CONTINUOUS
 62
7
100
AcDbLine
 10
158.0000005707961
 20
50.00000000000011
 30
0.000000000000000
 11
121.9999989999998
 21
49.99999999999989
 31
0.000000000000000
  0
LINE
  5
1F2
100
AcDbEntity
  8
A1
  6
CONTINUOUS
 62
7
100
AcDbLine
 10
121.9999946366766
 20
87.99999999999800
 30
0.000000000000000
 11
157.9999989999998
 21
87.99999999999987
 31
0.000000000000000
  0
ARC
  5
1F3
100
AcDbEntity
  8
A1
  6
CONTINUOUS
 62
7
100
AcDbCircle
 10
133.6456449999998
 20
77.49999999999989
 30
0.000000000000000
 40
1.500000000000000
100
AcDbArc
 50
0.000000000000000
 51
89.99999999999991
  0
ARC
  5
1F4
100
AcDbEntity
  8
A1
  6
CONTINUOUS
 62
7
100
AcDbCircle
 10
120.3543549999998
 20
77.49999999999989
 30
0.000000000000000
 40
1.500000000000000
100
AcDbArc
 50
90.00000000000017
 51
180.0000000000000
  0
ARC
  5
1F5
100
AcDbEntity
  8
A1
  6
CONTINUOUS
 62
7
100
AcDbCircle
 10
133.6456449999998
 20
60.49999999999989
 30
0.000000000000000
 40
1.500000000000000
100
AcDbArc
 50
270.0000000000001
 51
360.0000000000000
  0
ARC
  5
1F6
100
AcDbEntity
  8
A1
  6
CONTINUOUS
 62
7
100
AcDbCircle
 10
120.3543549999998
 20
60.49999999999989
 30
0.000000000000000
 40
1.500000000000000
100
AcDbArc
 50
180.0000000000000
 51
269.9999999999998
  0
ARC
  5
1F7
100
AcDbEntity
  8
A1
  6
CONTINUOUS
 62
7
100
AcDbCircle
 10
144.2318919999988
 20
61.50000000000063
 30
0.000000000000000
 40
1.000000000001192
100
AcDbArc
 50
270.0000572958397
 51
348.3047999999731
  0
ARC
  5
1F8
100
AcDbEntity
  8
A1
  6
CONTINUOUS
 62
7
100
AcDbCircle
 10
109.7681080000009
 20
61.50000000000063
 30
0.000000000000000
 40
1.000000000001192
100
AcDbArc
 50
191.6952000000270
 51
269.9999427041602
  0
ARC
  5
1F9
100
AcDbEntity
  8
A1
  6
CONTINUOUS
 62
7
100
AcDbCircle
 10
144.2318919999988
 20
76.49999999999920
 30
0.000000000000000
 40
1.000000000001192
100
AcDbArc
 50
11.69518676779226
 51
90.00000000000000
  0
ARC
  5
1FA
100
AcDbEntity
  8
A1
  6
CONTINUOUS
 62
7
100
AcDbCircle
 10
109.7681080000009
 20
76.49999999999920
 30
0.000000000000000
 40
1.000000000001192
100
AcDbArc
 50
90.00000000000000
 51
168.3048132322077
  0
ARC
  5
1FB
100
AcDbEntity
  8
A1
  6
CONTINUOUS
 62
7
100
AcDbCircle
 10
145.9999999999998
 20
68.99999999999989
 30
0.000000000000000
 40
38.00000000000000
100
AcDbArc
 50
168.3049460000000
 51
191.6950543437868
  0
ARC
  5
1FC
100
AcDbEntity
  8
A1
  6
CONTINUOUS
 62
7
100
AcDbCircle
 10
107.9999999999998
 20
68.99999999999989
 30
0.000000000000000
 40
38.00000000000000
100
AcDbArc
 50
348.3049456562132
 51
371.6950540000000
  0
LINE
  5
1FD
100
AcDbEntity
  8
A1
  6
CONTINUOUS
 62
7
100
AcDbLine
 10
126.9999999999998
 20
78.99999999999989
 30
0.000000000000000
 11
133.6456449999998
 21
78.99999999999989
 31
0.000000000000000
  0
LINE
  5
1FE
100
AcDbEntity
  8
A1
  6
CONTINUOUS
 62
7
100
AcDbLine
 10
120.3543549999998
 20
78.99999999999989
 30
0.000000000000000
 11
126.9999999999998
 21
78.99999999999989
 31
0.000000000000000
  0
LINE
  5
1FF
100
AcDbEntity
  8
A1
  6
CONTINUOUS
 62
7
100
AcDbLine
 10
126.9999999999998
 20
58.99999999999989
 30
0.000000000000000
 11
133.6456449999998
 21
58.99999999999989
 31
0.000000000000000
  0
LINE
  5
200
100
AcDbEntity
  8
A1
  6
CONTINUOUS
 62
7
100
AcDbLine
 10
120.3543549999998
 20
58.99999999999989
 30
0.000000000000000
 11
126.9999999999998
 21
58.99999999999989
 31
0.000000000000000
  0
LINE
  5
201
100
AcDbEntity
  8
A1
  6
CONTINUOUS
 62
7
100
AcDbLine
 10
126.9999999999998
 20
60.49999999999989
 30
0.000000000000000
 11
144.2318929999998
 21
60.49999999999989
 31
0.000000000000000
  0
LINE
  5
202
100
AcDbEntity
  8
A1
  6
CONTINUOUS
 62
7
100
AcDbLine
 10
109.7681069999998
 20
60.49999999999989
 30
0.000000000000000
 11
126.9999999999998
 21
60.49999999999989
 31
0.000000000000000
  0
LINE
  5
203
100
AcDbEntity
  8
A1
  6
CONTINUOUS
 62
7
100
AcDbLine
 10
126.9999999999998
 20
77.50000000000040
 30
0.000000000000000
 11
144.2318919999988
 21
77.50000000000040
 31
0.000000000000000
  0
LINE
  5
204
100
AcDbEntity
  8
A1
  6
CONTINUOUS
 62
7
100
AcDbLine
 10
109.7681080000009
 20
77.50000000000040
 30
0.000000000000000
 11
126.9999999999998
 21
77.50000000000040
 31
0.000000000000000
  0
SPLINE
  5
205
100
AcDbEntity
  8
A1
  6
CONTINUOUS
 62
7
100
AcDbSpline
210
0.000000000000000
220
0.000000000000000
230
1.000000000000000
 70
     8
 71
     3
 72
    11
 73
     7
 74
     0
 42
1.000000000000000e-07
 43
1.000000000000000e-07
 12
-0.9984378521185135
 22
0.05587356671117050
 32
0.000000000000000
 13
-0.1833385363734124
 23
0.9830498365183757
 33
0.000000000000000
 40
0.000000000000000
 40
0.000000000000000
 40
0.000000000000000
 40
0.000000000000000
 40
0.1204410281416466
 40
0.2549727422811477
 40
0.4070278488792576
 40
0.5269912115202694
 40
0.5269912115202694
 40
0.5269912115202694
 40
0.5269912115202694
 10
123.6520519680747
 20
58.50000199999994
 30
0.000000000000000
 10
123.6119676742598
 20
58.50224515660682
 30
0.000000000000000
 10
123.5259522512694
 20
58.52196770922478
 30
0.000000000000000
 10
123.4214007325402
 20
58.61530032827551
 30
0.000000000000000
 10
123.3542053553026
 20
58.73469801503319
 30
0.000000000000000
 10
123.3279602294161
 20
58.82220138634290
 30
0.000000000000000
 10
123.3206289269744
 20
58.86151137435371
 30
0.000000000000000
  0
SPLINE
  5
206
100
AcDbEntity
  8
A1
  6
CONTINUOUS
 62
7
100
AcDbSpline
210
0.000000000000000
220
0.000000000000000
230
1.000000000000000
 70
     8
 71
     3
 72
    11
 73
     7
 74
     0
 42
1.000000000000000e-07
 43
1.000000000000000e-07
 12
0.1776226346382828
 22
0.9840986737428921
 32
0.000000000000000
 13
0.9992081907180363
 23
0.03978682703836967
 33
0.000000000000000
 40
0.000000000000000
 40
0.000000000000000
 40
0.000000000000000
 40
0.000000000000000
 40
0.1577821488968580
 40
0.2993967538034171
 40
0.4258633961313018
 40
0.5272783463037953
 40
0.5272783463037953
 40
0.5272783463037953
 40
0.5272783463037953
 10
123.3206289269744
 20
79.13848862564612
 30
0.000000000000000
 10
123.3299708206364
 20
79.19024636013603
 30
0.000000000000000
 10
123.3620909657653
 20
79.28630331365332
 30
0.000000000000000
 10
123.4405740065943
 20
79.40645178303123
 30
0.000000000000000
 10
123.5415754072383
 20
79.48371513676881
 30
0.000000000000000
 10
123.6182737517836
 20
79.49865300697269
 30
0.000000000000000
 10
123.6520519680748
 20
79.49999799999989
 30
0.000000000000000
  0
SPLINE
  5
207
100
AcDbEntity
  8
A1
  6
CONTINUOUS
 62
7
100
AcDbSpline
210
0.000000000000000
220
0.000000000000000
230
1.000000000000000
 70
     8
 71
     3
 72
    16
 73
    12
 74
     0
 42
1.000000000000000e-07
 43
1.000000000000000e-07
 12
-0.5335352493066239
 22
-0.8457778300165160
 32
0.000000000000000
 13
-0.7372737886198593
 23
-0.6755940797702351
 33
0.000000000000000
 40
0.000000000000000
 40
0.000000000000000
 40
0.000000000000000
 40
0.000000000000000
 40
0.7787882520528118
 40
1.315985407464975
 40
1.849241626130974
 40
2.373216496671665
 40
2.882509925176571
 40
3.348470532201457
 40
3.792350313295416
 40
4.204049244375709
 40
4.254772652817639
 40
4.254772652817639
 40
4.254772652817639
 40
4.254772652817639
 10
153.5301469999998
 20
60.45979537141540
 30
0.000000000000000
 10
153.3916433385944
 20
60.24023475879420
 30
0.000000000000000
 10
153.1484400387038
 20
59.87489368568100
 30
0.000000000000000
 10
152.7856722727286
 20
59.37640924355372
 30
0.000000000000000
 10
152.4586941467834
 20
58.95729369006580
 30
0.000000000000000
 10
152.1244544948413
 20
58.55599611087672
 30
0.000000000000000
 10
151.7924504153597
 20
58.18235532961592
 30
0.000000000000000
 10
151.4670259470702
 20
57.83893677180623
 30
0.000000000000000
 10
151.1552490527708
 20
57.52766464606100
 30
0.000000000000000
 10
150.9359553729705
 20
57.31982116830739
 30
0.000000000000000
 10
150.8224756798377
 20
57.21550562883533
 30
0.000000000000000
 10
150.8100099999998
 20
57.20408281735229
 30
0.000000000000000
  0
SPLINE
  5
208
100
AcDbEntity
  8
A1
  6
CONTINUOUS
 62
7
100
AcDbSpline
210
0.000000000000000
220
0.000000000000000
230
1.000000000000000
 70
     8
 71
     3
 72
    16
 73
    12
 74
     0
 42
1.000000000000000e-07
 43
1.000000000000000e-07
 12
-0.3424092716733185
 22
-0.9395508983936907
 32
0.000000000000000
 13
-0.6607591207562109
 23
-0.7505980178077607
 33
0.000000000000000
 40
0.000000000000000
 40
0.000000000000000
 40
0.000000000000000
 40
0.000000000000000
 40
0.7621007933858672
 40
1.522304826024477
 40
2.217847035867568
 40
2.907593148841836
 40
3.583997815749698
 40
4.144766656344118
 40
4.685190965396961
 40
5.192182136115764
 40
5.360998233992986
 40
5.360998233992986
 40
5.360998233992986
 40
5.360998233992986
 10
153.5301469999998
 20
64.07099451226753
 30
0.000000000000000
 10
153.4431635407981
 20
63.83231701723679
 30
0.000000000000000
 10
153.2567761232233
 20
63.36005747563001
 30
0.000000000000000
 10
152.9494948886419
 20
62.68729136474150
 30
0.000000000000000
 10
152.6192380146977
 20
62.05262899907223
 30
0.000000000000000
 10
152.2732302693369
 20
61.45857222218120
 30
0.000000000000000
 10
151.9243644991834
 20
60.91896747280600
 30
0.000000000000000
 10
151.5806021020422
 20
60.43615991177398
 30
0.000000000000000
 10
151.2535685890963
 20
60.01127076296393
 30
0.000000000000000
 10
150.9950378051894
 20
59.69886660226780
 30
0.000000000000000
 10
150.8471922588007
 20
59.52889640297263
 30
0.000000000000000
 10
150.8100099999998
 20
59.48665872682574
 30
0.000000000000000
  0
SPLINE
  5
209
100
AcDbEntity
  8
A1
  6
CONTINUOUS
 62
7
100
AcDbSpline
210
0.000000000000000
220
0.000000000000000
230
1.000000000000000
 70
     8
 71
     3
 72
    17
 73
    13
 74
     0
 42
1.000000000000000e-07
 43
1.000000000000000e-07
 12
0.9999855345436117
 22
0.005378727024663021
 32
0.000000000000000
 13
0.2844111813883501
 23
0.9587023938131551
 33
0.000000000000000
 40
0.000000000000000
 40
0.000000000000000
 40
0.000000000000000
 40
0.000000000000000
 40
0.2649905668479520
 40
0.5353980840814685
 40
0.8134950075187319
 40
1.103767491750318
 40
1.409414135521027
 40
1.730180253712963
 40
2.061375023756656
 40
2.410623293586129
 40
2.774428197362247
 40
2.969568910277089
 40
2.969568910277089
 40
2.969568910277089
 40
2.969568910277089
 10
135.9597695915062
 20
79.49999799999989
 30
0.000000000000000
 10
136.0480985027190
 20
79.50047310397429
 30
0.000000000000000
 10
136.2269173449325
 20
79.51595317486652
 30
0.000000000000000
 10
136.4900634780269
 20
79.58634939173413
 30
0.000000000000000
 10
136.7463128103943
 20
79.70101027460350
 30
0.000000000000000
 10
136.9917799915254
 20
79.85985394543678
 30
0.000000000000000
 10
137.2238127026397
 20
80.06000913919382
 30
0.000000000000000
 10
137.4375972815243
 20
80.29817346648110
 30
0.000000000000000
 10
137.6292863693089
 20
80.57226215935162
 30
0.000000000000000
 10
137.7967153870604
 20
80.87817732339761
 30
0.000000000000000
 10
137.9133768278411
 20
81.15817050830412
 30
0.000000000000000
 10
137.9713564417275
 20
81.33532747527323
 30
0.000000000000000
 10
137.9898565086265
 20
81.39768809814052
 30
0.000000000000000
  0
SPLINE
  5
20A
100
AcDbEntity
  8
A1
  6
CONTINUOUS
 62
7
100
AcDbSpline
210
0.000000000000000
220
0.000000000000000
230
1.000000000000000
 70
     8
 71
     3
 72
    19
 73
    15
 74
     0
 42
1.000000000000000e-07
 43
1.000000000000000e-07
 12
0.2841814153271116
 22
0.9587705268634181
 32
0.000000000000000
 13
0.9998122178285485
 23
-0.01937857270513632
 33
0.000000000000000
 40
0.000000000000000
 40
0.000000000000000
 40
0.000000000000000
 40
0.000000000000000
 40
0.3277421848891344
 40
0.6441959828932884
 40
0.9344571101046893
 40
1.213976882594552
 40
1.481499775410192
 40
1.770168569633639
 40
2.047065377171253
 40
2.312581068721707
 40
2.603038951281213
 40
2.886574284436985
 40
3.165342922351852
 40
3.261796518620727
 40
3.261796518620727
 40
3.261796518620727
 40
3.261796518620727
 10
137.9898565086265
 20
81.39768809814052
 30
0.000000000000000
 10
138.0209025879479
 20
81.50243128056769
 30
0.000000000000000
 10
138.0913055583976
 20
81.70564246536298
 30
0.000000000000000
 10
138.2185096633515
 20
81.99040652384679
 30
0.000000000000000
 10
138.3631999334102
 20
82.24841728802829
 30
0.000000000000000
 10
138.5212840870757
 20
82.47890374557130
 30
0.000000000000000
 10
138.6999228352997
 20
82.69321353147939
 30
0.000000000000000
 10
138.8998816549902
 20
82.88680678298562
 30
0.000000000000000
 10
139.1204556910004
 20
83.05547740146233
 30
0.000000000000000
 10
139.3603815523534
 20
83.19656365425880
 30
0.000000000000000
 10
139.6196748561784
 20
83.30450128116308
 30
0.000000000000000
 10
139.8961223839609
 20
83.37472256531589
 30
0.000000000000000
 10
140.1154016399719
 20
83.39735416899879
 30
0.000000000000000
 10
140.2405116167707
 20
83.39804148432819
 30
0.000000000000000
 10
140.2726567781050
 20
83.39741843998553
 30
0.000000000000000
  0
SPLINE
  5
20B
100
AcDbEntity
  8
A1
  6
CONTINUOUS
 62
7
100
AcDbSpline
210
0.000000000000000
220
0.000000000000000
230
1.000000000000000
 70
     8
 71
     3
 72
    17
 73
    13
 74
     0
 42
1.000000000000000e-07
 43
1.000000000000000e-07
 12
-0.9975470998158471
 22
-0.06999845461427867
 32
0.000000000000000
 13
-0.2889587751244562
 23
-0.9573415410801545
 33
0.000000000000000
 40
0.000000000000000
 40
0.000000000000000
 40
0.000000000000000
 40
0.000000000000000
 40
0.2496663106946256
 40
0.5039176245237174
 40
0.7642956813597275
 40
1.034451925323918
 40
1.316453763863322
 40
1.610503865558566
 40
1.961354973501596
 40
2.332104504254849
 40
2.719482882500968
 40
3.118233791027147
 40
3.118233791027147
 40
3.118233791027147
 40
3.118233791027147
 10
138.9179441346899
 20
84.96336923298009
 30
0.000000000000000
 10
138.8349261666382
 20
84.95754381434080
 30
0.000000000000000
 10
138.6679005772029
 20
84.93466691311738
 30
0.000000000000000
 10
138.4219723068821
 20
84.86530777855143
 30
0.000000000000000
 10
138.1811298713221
 20
84.76123421939900
 30
0.000000000000000
 10
137.9481443321060
 20
84.62168321452862
 30
0.000000000000000
 10
137.7251344224709
 20
84.44790217116849
 30
0.000000000000000
 10
137.5044598280693
 20
84.23070445641719
 30
0.000000000000000
 10
137.2928468364742
 20
83.96535535507729
 30
0.000000000000000
 10
137.0964911969706
 20
83.65125261020648
 30
0.000000000000000
 10
136.9287145742072
 20
83.30327599263080
 30
0.000000000000000
 10
136.8395436094252
 20
83.05627387386500
 30
0.000000000000000
 10
136.8011360847227
 20
82.92902693743980
 30
0.000000000000000
  0
SPLINE
  5
20C
100
AcDbEntity
  8
A1
  6
CONTINUOUS
 62
7
100
AcDbSpline
210
0.000000000000000
220
0.000000000000000
230
1.000000000000000
 70
     8
 71
     3
 72
    17
 73
    13
 74
     0
 42
1.000000000000000e-07
 43
1.000000000000000e-07
 12
-0.2904745430917046
 22
-0.9568827199908583
 32
0.000000000000000
 13
-0.9999804886886068
 23
-0.006246778539889419
 33
0.000000000000000
 40
0.000000000000000
 40
0.000000000000000
 40
0.000000000000000
 40
0.000000000000000
 40
0.3232124480168111
 40
0.6360560481135179
 40
0.9354118232013314
 40
1.220541938673598
 40
1.493619985748056
 40
1.753700241062079
 40
2.019167638620882
 40
2.274527189952303
 40
2.520874565677684
 40
2.849208136943832
 40
2.849208136943832
 40
2.849208136943832
 40
2.849208136943832
 10
136.8011360847227
 20
82.92902693743980
 30
0.000000000000000
 10
136.7698410886696
 20
82.82593480197539
 30
0.000000000000000
 10
136.6988824265551
 20
82.62578154799053
 30
0.000000000000000
 10
136.5690030172522
 20
82.34188020753220
 30
0.000000000000000
 10
136.4194835775750
 20
82.08226334998602
 30
0.000000000000000
 10
136.2521842252517
 20
81.84985642998930
 30
0.000000000000000
 10
136.0701699482499
 20
81.64599468285144
 30
0.000000000000000
 10
135.8712542367516
 20
81.46815384310923
 30
0.000000000000000
 10
135.6558718749733
 20
81.32051543917993
 30
0.000000000000000
 10
135.4258748520041
 20
81.20665472959092
 30
0.000000000000000
 10
135.1613399623965
 20
81.12204692828578
 30
0.000000000000000
 10
134.9690105953530
 20
81.10068167570222
 30
0.000000000000000
 10
134.8595682070037
 20
81.09999799999991
 30
0.000000000000000
  0
SPLINE
  5
20D
100
AcDbEntity
  8
A1
  6
CONTINUOUS
 62
7
100
AcDbSpline
210
0.000000000000000
220
0.000000000000000
230
1.000000000000000
 70
     8
 71
     3
 72
    20
 73
    16
 74
     0
 42
1.000000000000000e-07
 43
1.000000000000000e-07
 12
-0.9998183621864882
 22
-0.01905892528168351
 32
0.000000000000000
 13
-0.2847901543177613
 23
0.9585898851967158
 33
0.000000000000000
 40
0.000000000000000
 40
0.000000000000000
 40
0.000000000000000
 40
0.000000000000000
 40
0.2441658589997680
 40
0.4902385280681373
 40
0.7484267200332320
 40
1.013793324707715
 40
1.271249372150897
 40
1.539008330103403
 40
1.830127206348085
 40
2.135180499295703
 40
2.354951686086359
 40
2.581739739550954
 40
2.822032405852667
 40
3.069217410367552
 40
3.262143824689403
 40
3.262143824689403
 40
3.262143824689403
 40
3.262143824689403
 10
140.2726567781050
 20
54.60258156001419
 30
0.000000000000000
 10
140.1912829416894
 20
54.60103038039318
 30
0.000000000000000
 10
140.0275177097648
 20
54.60812524898853
 30
0.000000000000000
 10
139.7810008936515
 20
54.65049022150129
 30
0.000000000000000
 10
139.5353318906444
 20
54.72700442534318
 30
0.000000000000000
 10
139.2983852782050
 20
54.83664161861839
 30
0.000000000000000
 10
139.0744236630020
 20
54.97668311517958
 30
0.000000000000000
 10
138.8614812831084
 20
55.14704344349030
 30
0.000000000000000
 10
138.6582640721051
 20
55.35195544131813
 30
0.000000000000000
 10
138.4887261399666
 20
55.56533035806274
 30
0.000000000000000
 10
138.3508100460924
 20
55.77472454018772
 30
0.000000000000000
 10
138.2385135465070
 20
55.97445966883402
 30
0.000000000000000
 10
138.1365193545437
 20
56.18980866651259
 30
0.000000000000000
 10
138.0536411065967
 20
56.40111111463199
 30
0.000000000000000
 10
138.0081710230623
 20
56.54066613207380
 30
0.000000000000000
 10
137.9898565086268
 20
56.60231190185920
 30
0.000000000000000
  0
SPLINE
  5
20E
100
AcDbEntity
  8
A1
  6
CONTINUOUS
 62
7
100
AcDbSpline
210
0.000000000000000
220
0.000000000000000
230
1.000000000000000
 70
     8
 71
     3
 72
    18
 73
    14
 74
     0
 42
1.000000000000000e-07
 43
1.000000000000000e-07
 12
-0.2847158374013361
 22
0.9586119610846708
 32
0.000000000000000
 13
-0.9999977975435286
 23
0.002098787783666012
 33
0.000000000000000
 40
0.000000000000000
 40
0.000000000000000
 40
0.000000000000000
 40
0.000000000000000
 40
0.3261884602358860
 40
0.6418922727612761
 40
0.9440611360541298
 40
1.231658962572906
 40
1.507445465597640
 40
1.770599077082151
 40
2.047935877412181
 40
2.314614639834567
 40
2.571620321609325
 40
2.771844313212254
 40
2.970130225540923
 40
2.970130225540923
 40
2.970130225540923
 40
2.970130225540923
 10
137.9898565086268
 20
56.60231190185920
 30
0.000000000000000
 10
137.9588995017579
 20
56.70654128837583
 30
0.000000000000000
 10
137.8883997301435
 20
56.90893388258570
 30
0.000000000000000
 10
137.7584273710463
 20
57.19597397582362
 30
0.000000000000000
 10
137.6086301970732
 20
57.45855134164032
 30
0.000000000000000
 10
137.4412305484649
 20
57.69413220603582
 30
0.000000000000000
 10
137.2593848073788
 20
57.90176938936190
 30
0.000000000000000
 10
137.0588009765125
 20
58.08644469915089
 30
0.000000000000000
 10
136.8393490771924
 20
58.24349727224990
 30
0.000000000000000
 10
136.6023382724777
 20
58.36833355901899
 30
0.000000000000000
 10
136.3737488816726
 20
58.44864599054210
 30
0.000000000000000
 10
136.1588575814060
 20
58.49121559543693
 30
0.000000000000000
 10
136.0258647500445
 20
58.49986327998312
 30
0.000000000000000
 10
135.9597695915070
 20
58.50000199999994
 30
0.000000000000000
  0
SPLINE
  5
20F
100
AcDbEntity
  8
A1
  6
CONTINUOUS
 62
7
100
AcDbSpline
210
0.000000000000000
220
0.000000000000000
230
1.000000000000000
 70
     8
 71
     3
 72
    17
 73
    13
 74
     0
 42
1.000000000000000e-07
 43
1.000000000000000e-07
 12
0.9999865034965296
 22
-0.005195462009737639
 32
0.000000000000000
 13
0.2901532120974935
 23
-0.9569802053904368
 33
0.000000000000000
 40
0.000000000000000
 40
0.000000000000000
 40
0.000000000000000
 40
0.000000000000000
 40
0.2505012938215855
 40
0.5060964986779606
 40
0.7689498663440643
 40
1.043301499591341
 40
1.332144501083836
 40
1.635144166639316
 40
1.949276199258076
 40
2.280046285750920
 40
2.624226090167910
 40
2.849266638245175
 40
2.849266638245175
 40
2.849266638245175
 40
2.849266638245175
 10
134.8595682070039
 20
56.90000199999980
 30
0.000000000000000
 10
134.9430675113139
 20
56.89956817668133
 30
0.000000000000000
 10
135.1120991868066
 20
56.88498477972610
 30
0.000000000000000
 10
135.3608845795937
 20
56.81863803631489
 30
0.000000000000000
 10
135.6031565074460
 20
56.71039527275980
 30
0.000000000000000
 10
135.8351519512916
 20
56.56026466089440
 30
0.000000000000000
 10
136.0544710728100
 20
56.37122842893268
 30
0.000000000000000
 10
136.2570778659849
 20
56.14624669287502
 30
0.000000000000000
 10
136.4394361046100
 20
55.88739988847374
 30
0.000000000000000
 10
136.5998862532044
 20
55.59871760795920
 30
0.000000000000000
 10
136.7184769373773
 20
55.32259763133288
 30
0.000000000000000
 10
136.7793706720971
 20
55.14275951253330
 30
0.000000000000000
 10
136.8011360847227
 20
55.07097306255991
 30
0.000000000000000
  0
SPLINE
  5
210
100
AcDbEntity
  8
A1
  6
CONTINUOUS
 62
7
100
AcDbSpline
210
0.000000000000000
220
0.000000000000000
230
1.000000000000000
 70
     8
 71
     3
 72
    18
 73
    14
 74
     0
 42
1.000000000000000e-07
 43
1.000000000000000e-07
 12
0.2905568727978789
 22
-0.9568577238385387
 32
0.000000000000000
 13
0.9975344500587653
 23
-0.07017849346766525
 33
0.000000000000000
 40
0.000000000000000
 40
0.000000000000000
 40
0.000000000000000
 40
0.000000000000000
 40
0.2934723076643642
 40
0.5784535664346531
 40
0.8869862367562453
 40
1.184219030124499
 40
1.468559296477599
 40
1.769814034782011
 40
2.058434691641887
 40
2.334565720869660
 40
2.601878017863484
 40
2.862644519565281
 40
3.118512725061811
 40
3.118512725061811
 40
3.118512725061811
 40
3.118512725061811
 10
136.8011360847227
 20
55.07097306255991
 30
0.000000000000000
 10
136.8295595500452
 20
54.97736931445280
 30
0.000000000000000
 10
136.8926575695036
 20
54.79494282436690
 30
0.000000000000000
 10
137.0095936131448
 20
54.52310627616481
 30
0.000000000000000
 10
137.1492772802263
 20
54.26064379881592
 30
0.000000000000000
 10
137.3117734460359
 20
54.01190731294054
 30
0.000000000000000
 10
137.4953713320739
 20
53.78134030613552
 30
0.000000000000000
 10
137.7006658283693
 20
53.57360833199283
 30
0.000000000000000
 10
137.9267016814032
 20
53.39296051957240
 30
0.000000000000000
 10
138.1637593057671
 20
53.24749379016589
 30
0.000000000000000
 10
138.4097154285159
 20
53.13881397865629
 30
0.000000000000000
 10
138.6616334991378
 20
53.06636211435023
 30
0.000000000000000
 10
138.8328650181375
 20
53.04261624874903
 30
0.000000000000000
 10
138.9179441346899
 20
53.03663076701969
 30
0.000000000000000
  0
ARC
  5
211
100
AcDbEntity
  8
A1
  6
CONTINUOUS
 62
7
100
AcDbCircle
 10
139.9999989999998
 20
68.99999999999989
 30
0.000000000000000
 40
8.667481725152280
100
AcDbArc
 50
78.71824435372334
 51
101.2817556462767
  0
ARC
  5
212
100
AcDbEntity
  8
A1
  6
CONTINUOUS
 62
7
100
AcDbCircle
 10
139.9999989999998
 20
68.99999999999989
 30
0.000000000000000
 40
8.667481725152280
100
AcDbArc
 50
308.4411935159633
 51
411.5588064840367
  0
ARC
  5
213
100
AcDbEntity
  8
A1
  6
CONTINUOUS
 62
7
100
AcDbCircle
 10
139.9999989999998
 20
68.99999999999989
 30
0.000000000000000
 40
8.667481725152280
100
AcDbArc
 50
258.7182443537064
 51
281.2817556462936
  0
ARC
  5
214
100
AcDbEntity
  8
A1
  6
CONTINUOUS
 62
7
100
AcDbCircle
 10
139.9999989999998
 20
68.99999999999989
 30
0.000000000000000
 40
12.06159427484770
100
AcDbArc
 50
119.4795355678347
 51
123.9958784030581
  0
ARC
  5
215
100
AcDbEntity
  8
A1
  6
CONTINUOUS
 62
7
100
AcDbCircle
 10
139.9999989999998
 20
68.99999999999989
 30
0.000000000000000
 40
12.06159427484770
100
AcDbArc
 50
259.3733472359266
 51
460.6391740828983
  0
ARC
  5
216
100
AcDbEntity
  8
A1
  6
CONTINUOUS
 62
7
100
AcDbCircle
 10
139.9999989999998
 20
68.99999999999989
 30
0.000000000000000
 40
12.06159427484770
100
AcDbArc
 50
236.0041215969420
 51
240.5204644321653
  0
ARC
  5
217
100
AcDbEntity
  8
A1
  6
CONTINUOUS
 62
7
100
AcDbCircle
 10
139.9999989999998
 20
68.99999999999989
 30
0.000000000000000
 40
16.00000000000002
100
AcDbArc
 50
327.7399543232188
 51
392.2600456767811
  0
ARC
  5
218
100
AcDbEntity
  8
A1
  6
CONTINUOUS
 62
7
100
AcDbCircle
 10
139.9999989999998
 20
68.99999999999989
 30
0.000000000000000
 40
14.40000000000001
100
AcDbArc
 50
339.9834203261871
 51
380.0165796738129
  0
ARC
  5
219
100
AcDbEntity
  8
A1
  6
CONTINUOUS
 62
7
100
AcDbCircle
 10
139.9939122418044
 20
68.99491453379193
 30
0.000000000000000
 40
16.00786163836811
100
AcDbArc
 50
32.26380944706151
 51
47.49347893290196
  0
ARC
  5
21A
100
AcDbEntity
  8
A1
  6
CONTINUOUS
 62
7
100
AcDbCircle
 10
139.9978474835191
 20
68.99872338767062
 30
0.000000000000000
 40
14.40245853283158
100
AcDbArc
 50
20.01842177594840
 51
41.34752298327366
  0
ARC
  5
21B
100
AcDbEntity
  8
A1
  6
CONTINUOUS
 62
7
100
AcDbCircle
 10
140.0002614374015
 20
69.00070781579529
 30
0.000000000000000
 40
16.00072394496553
100
AcDbArc
 50
233.1919341463503
 51
266.1214505090833
  0
ARC
  5
21C
100
AcDbEntity
  8
A1
  6
CONTINUOUS
 62
7
100
AcDbCircle
 10
140.0002810290140
 20
68.99921326736433
 30
0.000000000000000
 40
16.00080400627802
100
AcDbArc
 50
93.87860036939884
 51
125.5650241249948
  0
ARC
  5
21D
100
AcDbEntity
  8
A1
  6
CONTINUOUS
 62
7
100
AcDbCircle
 10
139.9999989999998
 20
68.99999999999989
 30
0.000000000000000
 40
14.40000000000003
100
AcDbArc
 50
41.34936508540940
 51
88.91506433632986
  0
ARC
  5
21E
100
AcDbEntity
  8
A1
  6
CONTINUOUS
 62
7
100
AcDbCircle
 10
139.9999989999998
 20
68.99999999999989
 30
0.000000000000000
 40
16.00000000000002
100
AcDbArc
 50
47.49724270318359
 51
93.87778330876164
  0
ARC
  5
21F
100
AcDbEntity
  8
A1
  6
CONTINUOUS
 62
7
100
AcDbCircle
 10
139.9999989999998
 20
68.99999999999989
 30
0.000000000000000
 40
16.00000000000002
100
AcDbArc
 50
266.1222166912385
 51
312.5027572968164
  0
ARC
  5
220
100
AcDbEntity
  8
A1
  6
CONTINUOUS
 62
7
100
AcDbCircle
 10
139.9999989999998
 20
68.99999999999989
 30
0.000000000000000
 40
14.40000000000003
100
AcDbArc
 50
271.0849356636701
 51
318.6506349145906
  0
LINE
  5
221
100
AcDbEntity
  8
A1
  6
CONTINUOUS
 62
7
100
AcDbLine
 10
122.2446858124870
 20
58.49910226674176
 30
0.000000000000000
 11
122.1486098156189
 21
59.00455104238817
 31
0.000000000000000
  0
LINE
  5
222
100
AcDbEntity
  8
A1
  6
CONTINUOUS
 62
7
100
AcDbLine
 10
123.3206289269744
 20
58.86151137435375
 30
0.000000000000000
 11
123.3096991548037
 21
58.91661810109281
 31
0.000000000000000
  0
LINE
  5
223
100
AcDbEntity
  8
A1
  6
CONTINUOUS
 62
7
100
AcDbLine
 10
123.3096991548037
 20
58.91661810109281
 30
0.000000000000000
 11
123.2979627574793
 21
58.99894614138721
 31
0.000000000000000
  0
LINE
  5
224
100
AcDbEntity
  8
A1
  6
CONTINUOUS
 62
7
100
AcDbLine
 10
123.2979069007799
 20
79.00042795671914
 30
0.000000000000000
 11
123.3096991548037
 21
79.08338189890701
 31
0.000000000000000
  0
LINE
  5
225
100
AcDbEntity
  8
A1
  6
CONTINUOUS
 62
7
100
AcDbLine
 10
123.3096991548037
 20
79.08338189890705
 30
0.000000000000000
 11
123.3206289269744
 21
79.13848862564609
 31
0.000000000000000
  0
LINE
  5
226
100
AcDbEntity
  8
A1
  6
CONTINUOUS
 62
7
100
AcDbLine
 10
122.1486098156189
 20
78.99544895761160
 30
0.000000000000000
 11
122.2446858124870
 21
79.50089773325801
 31
0.000000000000000
  0
LINE
  5
227
100
AcDbEntity
  8
A1
  6
CONTINUOUS
 62
7
100
AcDbLine
 10
131.3698989999997
 20
79.49999799999989
 30
0.000000000000000
 11
135.9597695915062
 21
79.49999799999989
 31
0.000000000000000
  0
LINE
  5
228
100
AcDbEntity
  8
A1
  6
CONTINUOUS
 62
7
100
AcDbLine
 10
131.3698989999997
 20
81.09999799999983
 30
0.000000000000000
 11
134.8595682070037
 21
81.09999799999994
 31
0.000000000000000
  0
LINE
  5
229
100
AcDbEntity
  8
A1
  6
CONTINUOUS
 62
7
100
AcDbLine
 10
134.8595682070039
 20
56.90000199999985
 30
0.000000000000000
 11
131.3698989999997
 21
56.90000200000008
 31
0.000000000000000
  0
LINE
  5
22A
100
AcDbEntity
  8
A1
  6
CONTINUOUS
 62
7
100
AcDbLine
 10
135.9597695915070
 20
58.50000199999994
 30
0.000000000000000
 11
131.3698989999997
 21
58.50000199999994
 31
0.000000000000000
  0
LINE
  5
22B
100
AcDbEntity
  8
A1
  6
CONTINUOUS
 62
7
100
AcDbLine
 10
120.7999978152819
 20
58.49999999999989
 30
0.000000000000000
 11
120.7999978152819
 21
56.90000199999992
 31
0.000000000000000
  0
LINE
  5
22C
100
AcDbEntity
  8
A1
  6
CONTINUOUS
 62
7
100
AcDbLine
 10
120.7999978152819
 20
58.50000199999994
 30
0.000000000000000
 11
131.3698989999997
 21
58.50000199999994
 31
0.000000000000000
  0
LINE
  5
22D
100
AcDbEntity
  8
A1
  6
CONTINUOUS
 62
7
100
AcDbLine
 10
120.7999978152819
 20
56.90000200000003
 30
0.000000000000000
 11
131.3698989999997
 21
56.90000200000003
 31
0.000000000000000
  0
LINE
  5
22E
100
AcDbEntity
  8
A1
  6
CONTINUOUS
 62
7
100
AcDbLine
 10
131.3698989999997
 20
79.49999799999989
 30
0.000000000000000
 11
120.7999978152819
 21
79.49999799999989
 31
0.000000000000000
  0
LINE
  5
22F
100
AcDbEntity
  8
A1
  6
CONTINUOUS
 62
7
100
AcDbLine
 10
131.3698989999997
 20
81.09999799999980
 30
0.000000000000000
 11
120.7999978152819
 21
81.09999799999980
 31
0.000000000000000
  0
LINE
  5
230
100
AcDbEntity
  8
A1
  6
CONTINUOUS
 62
7
100
AcDbLine
 10
120.7999978152819
 20
81.09999799999980
 30
0.000000000000000
 11
120.7999978152819
 21
79.49999799999989
 31
0.000000000000000
  0
CIRCLE
  5
231
100
AcDbEntity
  8
A1
  6
CONTINUOUS
 62
7
100
AcDbCircle
 10
276.9999979999998
 20
126.9999999999999
 30
0.000000000000000
 40
3.799996000000000
  0
ARC
  5
232
100
AcDbEntity
  8
A1
  6
CONTINUOUS
 62
7
100
AcDbCircle
 10
253.6399989999998
 20
153.7816859999999
 30
0.000000000000000
 40
2.200000000000000
100
AcDbArc
 50
179.5181628584270
 51
200.8073740401214
  0
ARC
  5
233
100
AcDbEntity
  8
A1
  6
CONTINUOUS
 62
7
100
AcDbCircle
 10
274.3599989999998
 20
153.7816859999999
 30
0.000000000000000
 40
2.200000000000000
100
AcDbArc
 50
339.1926259598786
 51
360.4818371415730
  0
ARC
  5
234
100
AcDbEntity
  8
A1
  6
CONTINUOUS
 62
7
100
AcDbCircle
 10
272.9720221832065
 20
153.7816859999999
 30
0.000000000000000
 40
2.200000000000000
100
AcDbArc
 50
339.1926259598787
 51
360.4818371415730
  0
ARC
  5
235
100
AcDbEntity
  8
A1
  6
CONTINUOUS
 62
7
100
AcDbCircle
 10
255.0279758167930
 20
153.7816859999999
 30
0.000000000000000
 40
2.200000000000000
100
AcDbArc
 50
179.5181628584270
 51
200.8073740401213
  0
ARC
  5
236
100
AcDbEntity
  8
A1
  6
CONTINUOUS
 62
7
100
AcDbCircle
 10
269.1799989999998
 20
153.7816859999999
 30
0.000000000000000
 40
2.200000000000000
100
AcDbArc
 50
339.1926259598786
 51
360.4818371415730
  0
ARC
  5
237
100
AcDbEntity
  8
A1
  6
CONTINUOUS
 62
7
100
AcDbCircle
 10
269.1799989999998
 20
153.7816859999999
 30
0.000000000000000
 40
2.200000000000000
100
AcDbArc
 50
179.5181628584270
 51
200.8073740401214
  0
ARC
  5
238
100
AcDbEntity
  8
A1
  6
CONTINUOUS
 62
7
100
AcDbCircle
 10
258.8199989999998
 20
153.7816859999999
 30
0.000000000000000
 40
2.200000000000000
100
AcDbArc
 50
339.1926259598786
 51
360.4818371415730
  0
ARC
  5
239
100
AcDbEntity
  8
A1
  6
CONTINUOUS
 62
7
100
AcDbCircle
 10
258.8199989999998
 20
153.7816859999999
 30
0.000000000000000
 40
2.200000000000000
100
AcDbArc
 50
179.5181628584271
 51
200.8073740401214
  0
ARC
  5
23A
100
AcDbEntity
  8
A1
  6
CONTINUOUS
 62
7
100
AcDbCircle
 10
263.9999989999998
 20
153.7816859999999
 30
0.000000000000000
 40
2.200000000000000
100
AcDbArc
 50
339.1926259598786
 51
360.4818371415730
  0
ARC
  5
23B
100
AcDbEntity
  8
A1
  6
CONTINUOUS
 62
7
100
AcDbCircle
 10
263.9999989999998
 20
153.7816859999999
 30
0.000000000000000
 40
2.200000000000000
100
AcDbArc
 50
179.5181628584270
 51
200.8073740401214
  0
ARC
  5
23C
100
AcDbEntity
  8
A1
  6
CONTINUOUS
 62
7
100
AcDbCircle
 10
278.7227352301927
 20
156.8001869999999
 30
0.000000000000000
 40
3.000000000000000
100
AcDbArc
 50
270.0000000000000
 51
339.8335912753988
  0
ARC
  5
23D
100
AcDbEntity
  8
A1
  6
CONTINUOUS
 62
7
100
AcDbCircle
 10
249.2772627698068
 20
156.8001869999999
 30
0.000000000000000
 40
3.000000000000000
100
AcDbArc
 50
200.1664087246012
 51
270.0000000000000
  0
ARC
  5
23E
100
AcDbEntity
  8
A1
  6
CONTINUOUS
 62
7
100
AcDbCircle
 10
245.8792195416310
 20
155.9001879999998
 30
0.000000000000000
 40
0.5000000000000000
100
AcDbArc
 50
20.16640872460070
 51
90.00000000000000
  0
ARC
  5
23F
100
AcDbEntity
  8
A1
  6
CONTINUOUS
 62
7
100
AcDbCircle
 10
282.1207784583686
 20
155.9001879999998
 30
0.000000000000000
 40
0.5000000000000000
100
AcDbArc
 50
90.00000000000000
 51
159.8335912753993
  0
LINE
  5
240
100
AcDbEntity
  8
A1
  6
CONTINUOUS
 62
7
100
AcDbLine
 10
278.7227352301679
 20
153.8001869999999
 30
0.000000000000000
 11
249.2772627698068
 21
153.8001869999999
 31
0.000000000000000
  0
LINE
  5
241
100
AcDbEntity
  8
A1
  6
CONTINUOUS
 62
7
100
AcDbLine
 10
281.5388211371460
 20
155.7659432353783
 30
0.000000000000000
 11
281.6514308072096
 21
156.0725619607701
 31
0.000000000000000
  0
LINE
  5
242
100
AcDbEntity
  8
A1
  6
CONTINUOUS
 62
7
100
AcDbLine
 10
246.3485671927899
 20
156.0725619607701
 30
0.000000000000000
 11
246.4611768628535
 21
155.7659432353783
 31
0.000000000000000
  0
LINE
  5
243
100
AcDbEntity
  8
A1
  6
CONTINUOUS
 62
7
100
AcDbLine
 10
240.9999989999998
 20
158.0001879999999
 30
0.000000000000000
 11
240.9999989999998
 21
156.4001879999998
 31
0.000000000000000
  0
LINE
  5
244
100
AcDbEntity
  8
A1
  6
CONTINUOUS
 62
7
100
AcDbLine
 10
240.9999989999998
 20
156.4001879999998
 30
0.000000000000000
 11
245.9999974292034
 21
156.4001879999998
 31
0.000000000000000
  0
LINE
  5
245
100
AcDbEntity
  8
A1
  6
CONTINUOUS
 62
7
100
AcDbLine
 10
240.9999989999998
 20
158.0001879999999
 30
0.000000000000000
 11
245.9999974292034
 21
158.0001879999999
 31
0.000000000000000
  0
LINE
  5
246
100
AcDbEntity
  8
A1
  6
CONTINUOUS
 62
7
100
AcDbLine
 10
281.9999989999998
 20
158.0001879999999
 30
0.000000000000000
 11
286.9999989999998
 21
158.0001879999999
 31
0.000000000000000
  0
LINE
  5
247
100
AcDbEntity
  8
A1
  6
CONTINUOUS
 62
7
100
AcDbLine
 10
281.9999989999998
 20
156.4001879999998
 30
0.000000000000000
 11
286.9999989999998
 21
156.4001879999998
 31
0.000000000000000
  0
LINE
  5
248
100
AcDbEntity
  8
A1
  6
CONTINUOUS
 62
7
100
AcDbLine
 10
286.9999989999998
 20
156.4001879999998
 30
0.000000000000000
 11
286.9999989999998
 21
158.0001879999999
 31
0.000000000000000
  0
LINE
  5
249
100
AcDbEntity
  8
A1
  6
CONTINUOUS
 62
7
100
AcDbLine
 10
245.9999974292034
 20
156.4001879999998
 30
0.000000000000000
 11
281.9999989999998
 21
156.4001879999998
 31
0.000000000000000
  0
LINE
  5
24A
100
AcDbEntity
  8
A1
  6
CONTINUOUS
 62
7
100
AcDbLine
 10
245.9999974292034
 20
158.0001879999999
 30
0.000000000000000
 11
281.9999989999998
 21
158.0001879999999
 31
0.000000000000000
  0
ARC
  5
24B
100
AcDbEntity
  8
A1
  6
CONTINUOUS
 62
7
100
AcDbCircle
 10
276.9999979999998
 20
126.9999999999999
 30
0.000000000000000
 40
19.00000000000000
100
AcDbArc
 50
148.3147528150704
 51
442.3196732228992
  0
ARC
  5
24C
100
AcDbEntity
  8
A1
  6
CONTINUOUS
 62
7
100
AcDbCircle
 10
276.9999979999998
 20
126.9999999999999
 30
0.000000000000000
 40
13.50000000000000
100
AcDbArc
 50
270.0000000000000
 51
434.0318155006079
  0
ARC
  5
24D
100
AcDbEntity
  8
A1
  6
CONTINUOUS
 62
7
100
AcDbCircle
 10
276.9999979999998
 20
126.9999999999999
 30
0.000000000000000
 40
13.50000000000000
100
AcDbArc
 50
156.0578624545147
 51
270.0000000000000
  0
ARC
  5
24E
100
AcDbEntity
  8
A1
  6
CONTINUOUS
 62
7
100
AcDbCircle
 10
276.9999979999998
 20
126.9999999999999
 30
0.000000000000000
 40
12.50000000000000
100
AcDbArc
 50
270.0000000000000
 51
431.6373621716371
  0
ARC
  5
24F
100
AcDbEntity
  8
A1
  6
CONTINUOUS
 62
7
100
AcDbCircle
 10
276.9999979999998
 20
126.9999999999999
 30
0.000000000000000
 40
12.50000000000000
100
AcDbArc
 50
158.3042030985821
 51
270.0000000000000
  0
ARC
  5
250
100
AcDbEntity
  8
A1
  6
CONTINUOUS
 62
7
100
AcDbCircle
 10
276.9999979999998
 20
126.9999999999999
 30
0.000000000000000
 40
8.145645000000000
100
AcDbArc
 50
176.3419822960199
 51
270.0000000000000
  0
ARC
  5
251
100
AcDbEntity
  8
A1
  6
CONTINUOUS
 62
7
100
AcDbCircle
 10
276.9999979999998
 20
126.9999999999999
 30
0.000000000000000
 40
8.145645000000000
100
AcDbArc
 50
270.0000000000000
 51
411.8295691193999
  0
SPLINE
  5
252
100
AcDbEntity
  8
A1
  6
CONTINUOUS
 62
7
100
AcDbSpline
210
0.000000000000000
220
0.000000000000000
230
1.000000000000000
 70
     8
 71
     3
 72
    12
 73
     8
 74
     0
 42
1.000000000000000e-07
 43
1.000000000000000e-07
 12
0.9878164271776768
 22
0.1556236042383716
 32
0.000000000000000
 13
0.9817904603405623
 23
0.1899670812672412
 33
0.000000000000000
 40
0.000000000000000
 40
0.000000000000000
 40
0.000000000000000
 40
0.000000000000000
 40
0.1625586632182367
 40
0.3285359013718502
 40
0.4448045361056843
 40
0.5056127073800839
 40
0.5260393409480246
 40
0.5260393409480246
 40
0.5260393409480246
 40
0.5260393409480246
 10
279.4808259360518
 20
147.2155333407167
 30
0.000000000000000
 10
279.5343519753542
 20
147.2239659957401
 30
0.000000000000000
 10
279.6425043467236
 20
147.2411658802721
 30
0.000000000000000
 10
279.7889072996075
 20
147.2646242590515
 30
0.000000000000000
 10
279.9017111654421
 20
147.2833512450059
 30
0.000000000000000
 10
279.9667093660410
 20
147.2938506717352
 30
0.000000000000000
 10
279.9933141086751
 20
147.2988987553992
 30
0.000000000000000
 10
279.9999989999998
 20
147.3001922180522
 30
0.000000000000000
  0
SPLINE
  5
253
100
AcDbEntity
  8
A1
  6
CONTINUOUS
 62
7
100
AcDbSpline
210
0.000000000000000
220
0.000000000000000
230
1.000000000000000
 70
     8
 71
     3
 72
    10
 73
     6
 74
     0
 42
1.000000000000000e-07
 43
1.000000000000000e-07
 12
0.9229648960144914
 22
-0.3848841393505609
 32
0.000000000000000
 13
0.5852214555784485
 23
-0.8108735092046118
 33
0.000000000000000
 40
0.000000000000000
 40
0.000000000000000
 40
0.000000000000000
 40
0.000000000000000
 40
0.2187046004768093
 40
0.4446865281781824
 40
0.6603221578861680
 40
0.6603221578861680
 40
0.6603221578861680
 40
0.6603221578861680
 10
278.4661266061054
 20
152.9091562966508
 30
0.000000000000000
 10
278.5334121623844
 20
152.8810976526753
 30
0.000000000000000
 10
278.6654588623426
 20
152.8115490278935
 30
0.000000000000000
 10
278.8380020221556
 20
152.6728698287803
 30
0.000000000000000
 10
278.9347956155669
 20
152.5607927863145
 30
0.000000000000000
 10
278.9768604812643
 20
152.5025083797242
 30
0.000000000000000
  0
SPLINE
  5
254
100
AcDbEntity
  8
A1
  6
CONTINUOUS
 62
7
100
AcDbSpline
210
0.000000000000000
220
0.000000000000000
230
1.000000000000000
 70
     8
 71
     3
 72
    21
 73
    17
 74
     0
 42
1.000000000000000e-07
 43
1.000000000000000e-07
 12
-0.8222817582591233
 22
0.5690805830736281
 32
0.000000000000000
 13
-0.5884485548303928
 23
0.8085346611696878
 33
0.000000000000000
 40
0.000000000000000
 40
0.000000000000000
 40
0.000000000000000
 40
0.000000000000000
 40
0.07901758516869541
 40
0.3190188180708082
 40
0.5503050793984340
 40
0.7712457564961007
 40
0.9738013757277053
 40
1.170362056535759
 40
1.348815965015527
 40
1.507170172552686
 40
1.643928753914750
 40
1.747084343453219
 40
1.831046629432856
 40
1.896035341432880
 40
1.942581591845454
 40
1.956098564287814
 40
1.956098564287814
 40
1.956098564287814
 40
1.956098564287814
 10
280.4523410431580
 20
151.2306454877102
 30
0.000000000000000
 10
280.4306828035360
 20
151.2456346121905
 30
0.000000000000000
 10
280.3434259995671
 20
151.3064165059516
 30
0.000000000000000
 10
280.1941552326256
 20
151.4130515770845
 30
0.000000000000000
 10
280.0090153979852
 20
151.5507909913840
 30
0.000000000000000
 10
279.8365721209004
 20
151.6846134912910
 30
0.000000000000000
 10
279.6761038574059
 20
151.8149051862976
 30
0.000000000000000
 10
279.5294861188171
 20
151.9397082301476
 30
0.000000000000000
 10
279.3969773527060
 20
152.0582721218264
 30
0.000000000000000
 10
279.2821172396275
 20
152.1665842338637
 30
0.000000000000000
 10
279.1880973690810
 20
152.2603372211565
 30
0.000000000000000
 10
279.1138750506572
 20
152.3387534978781
 30
0.000000000000000
 10
279.0578910083191
 20
152.4014436325562
 30
0.000000000000000
 10
279.0160298014872
 20
152.4513983969629
 30
0.000000000000000
 10
278.9903009591393
 20
152.4842083406284
 30
0.000000000000000
 10
278.9784315625168
 20
152.5003324783535
 30
0.000000000000000
 10
278.9757802148836
 20
152.5039754585981
 30
0.000000000000000
  0
SPLINE
  5
255
100
AcDbEntity
  8
A1
  6
CONTINUOUS
 62
7
100
AcDbSpline
210
0.000000000000000
220
0.000000000000000
230
1.000000000000000
 70
     8
 71
     3
 72
    11
 73
     7
 74
     0
 42
1.000000000000000e-07
 43
1.000000000000000e-07
 12
-0.9207385505824277
 22
0.3901801141423675
 32
0.000000000000000
 13
-0.9998467942477873
 23
0.01750394332066207
 33
0.000000000000000
 40
0.000000000000000
 40
0.000000000000000
 40
0.000000000000000
 40
0.000000000000000
 40
0.1153704511108180
 40
0.2197659745175903
 40
0.3054894616004201
 40
0.3784365554481918
 40
0.3784365554481918
 40
0.3784365554481918
 40
0.3784365554481918
 10
278.4661266061054
 20
152.9091562966508
 30
0.000000000000000
 10
278.4307179321268
 20
152.9241613819118
 30
0.000000000000000
 10
278.3620381755030
 20
152.9498936161689
 30
0.000000000000000
 10
278.2643419242900
 20
152.9789034012252
 30
0.000000000000000
 10
278.1781694955370
 20
152.9961640140988
 30
0.000000000000000
 10
278.1252603869752
 20
152.9997603794012
 30
0.000000000000000
 10
278.1009484143307
 20
153.0001859999999
 30
0.000000000000000
  0
SPLINE
  5
256
100
AcDbEntity
  8
A1
  6
CONTINUOUS
 62
7
100
AcDbSpline
210
0.000000000000000
220
0.000000000000000
230
1.000000000000000
 70
     8
 71
     3
 72
    12
 73
     8
 74
     0
 42
1.000000000000000e-07
 43
1.000000000000000e-07
 12
-0.9997265906258690
 22
0.02338255752056284
 32
0.000000000000000
 13
-0.1470102773600956
 23
-0.9891349646968592
 33
0.000000000000000
 40
0.000000000000000
 40
0.000000000000000
 40
0.000000000000000
 40
0.000000000000000
 40
0.08905939891886960
 40
0.1677812538273526
 40
0.2322149386374728
 40
0.2878250104414761
 40
0.3102385361759550
 40
0.3102385361759550
 40
0.3102385361759550
 40
0.3102385361759550
 10
275.9663836641661
 20
153.0001859999999
 30
0.000000000000000
 10
275.9367053144180
 20
153.0008801455059
 30
0.000000000000000
 10
275.8806817620137
 20
152.9975639348768
 30
0.000000000000000
 10
275.8041964471262
 20
152.9841453360742
 30
0.000000000000000
 10
275.7420812364020
 20
152.9586937765102
 30
0.000000000000000
 10
275.7079645400917
 20
152.9216240481228
 30
0.000000000000000
 10
275.7014361867327
 20
152.8960746691595
 30
0.000000000000000
 10
275.7003378471878
 20
152.8886846684975
 30
0.000000000000000
  0
SPLINE
  5
257
100
AcDbEntity
  8
A1
  6
CONTINUOUS
 62
7
100
AcDbSpline
210
0.000000000000000
220
0.000000000000000
230
1.000000000000000
 70
     8
 71
     3
 72
    15
 73
    11
 74
     0
 42
1.000000000000000e-07
 43
1.000000000000000e-07
 12
0.2049772689788369
 22
0.9787667338023311
 32
0.000000000000000
 13
0.1429382558262660
 23
0.9897316075666822
 33
0.000000000000000
 40
0.000000000000000
 40
0.000000000000000
 40
0.000000000000000
 40
0.000000000000000
 40
0.01059359748135430
 40
0.2814341245892347
 40
0.5234049811663878
 40
0.7577666300725794
 40
0.9625751477184524
 40
1.146980220575932
 40
1.295642398500390
 40
1.412340709592610
 40
1.412340709592610
 40
1.412340709592610
 40
1.412340709592610
 10
275.4428572700259
 20
151.5001859999878
 30
0.000000000000000
 10
275.4435810855860
 20
151.5036422202565
 30
0.000000000000000
 10
275.4628092614621
 20
151.5954618819342
 30
0.000000000000000
 10
275.4977925295956
 20
151.7663892882727
 30
0.000000000000000
 10
275.5459630549142
 20
152.0107460032906
 30
0.000000000000000
 10
275.5883535426226
 20
152.2338023544794
 30
0.000000000000000
 10
275.6258237722888
 20
152.4382575763354
 30
0.000000000000000
 10
275.6568215862727
 20
152.6148502006280
 30
0.000000000000000
 10
275.6816317713703
 20
152.7627096853478
 30
0.000000000000000
 10
275.6947776295060
 20
152.8501846661516
 30
0.000000000000000
 10
275.7003378471878
 20
152.8886846684975
 30
0.000000000000000
  0
SPLINE
  5
258
100
AcDbEntity
  8
A1
  6
CONTINUOUS
 62
7
100
AcDbSpline
210
0.000000000000000
220
0.000000000000000
230
1.000000000000000
 70
     8
 71
     3
 72
    16
 73
    12
 74
     0
 42
1.000000000000000e-07
 43
1.000000000000000e-07
 12
0.9966385499744774
 22
-0.08192435965531786
 32
0.000000000000000
 13
0.6479624452840653
 23
-0.7616722848442805
 33
0.000000000000000
 40
0.000000000000000
 40
0.000000000000000
 40
0.000000000000000
 40
0.000000000000000
 40
0.4356263256937682
 40
0.7603230886177286
 40
1.105213547777831
 40
1.469923853884777
 40
1.855041639689067
 40
2.241753941099804
 40
2.650194877670118
 40
3.078207215038979
 40
3.135354456888028
 40
3.135354456888028
 40
3.135354456888028
 40
3.135354456888028
 10
250.4698509999998
 20
147.3569899999999
 30
0.000000000000000
 10
250.6145716631898
 20
147.3450938640727
 30
0.000000000000000
 10
250.8662937280737
 20
147.3106566780072
 30
0.000000000000000
 10
251.2252217931954
 20
147.2261176340318
 30
0.000000000000000
 10
251.5534735754789
 20
147.1192528056628
 30
0.000000000000000
 10
251.8894955698579
 20
146.9756818097858
 30
0.000000000000000
 10
252.2229361417123
 20
146.7945916197573
 30
0.000000000000000
 10
252.5493391290639
 20
146.5738440651664
 30
0.000000000000000
 10
252.8634265962160
 20
146.3128321533767
 30
0.000000000000000
 10
253.0719754158726
 20
146.0992187719354
 30
0.000000000000000
 10
253.1776449111432
 20
145.9767981567571
 30
0.000000000000000
 10
253.1899879999998
 20
145.9622889999999
 30
0.000000000000000
  0
ARC
  5
259
100
AcDbEntity
  8
A1
  6
CONTINUOUS
 62
7
100
AcDbCircle
 10
278.4999989999998
 20
151.5001859999999
 30
0.000000000000000
 40
1.500000000000000
100
AcDbArc
 50
2.302633043845563
 51
90.00000000000000
  0
ARC
  5
25A
100
AcDbEntity
  8
A1
  6
CONTINUOUS
 62
7
100
AcDbCircle
 10
277.1999992864567
 20
127.0001888892064
 30
0.000000000000000
 40
6.000000898261001
100
AcDbArc
 50
220.3901309059283
 51
371.3526126346671
  0
ARC
  5
25B
100
AcDbEntity
  8
A1
  6
CONTINUOUS
 62
7
100
AcDbCircle
 10
281.4029608898786
 20
146.7072615211267
 30
0.000000000000000
 40
2.000000000000000
100
AcDbArc
 50
137.9338404547949
 51
191.3526228198016
  0
ARC
  5
25C
100
AcDbEntity
  8
A1
  6
CONTINUOUS
 62
7
100
AcDbCircle
 10
249.4999989999998
 20
151.5001859999999
 30
0.000000000000000
 40
1.500000000000000
100
AcDbArc
 50
90.00000000000000
 51
180.0000000000000
  0
LINE
  5
25D
100
AcDbEntity
  8
A1
  6
CONTINUOUS
 62
7
100
AcDbLine
 10
281.8929625335543
 20
150.2368152148347
 30
0.000000000000000
 11
280.4545218952086
 21
151.2331624479294
 31
0.000000000000000
  0
LINE
  5
25E
100
AcDbEntity
  8
A1
  6
CONTINUOUS
 62
7
100
AcDbLine
 10
279.9999989999998
 20
147.3001922180523
 30
0.000000000000000
 11
279.9999989999998
 21
148.1378549526773
 31
0.000000000000000
  0
LINE
  5
25F
100
AcDbEntity
  8
A1
  6
CONTINUOUS
 62
7
100
AcDbLine
 10
278.1072940953408
 20
153.0001859999999
 30
0.000000000000000
 11
278.4999989999998
 21
153.0001859999999
 31
0.000000000000000
  0
LINE
  5
260
100
AcDbEntity
  8
A1
  6
CONTINUOUS
 62
7
100
AcDbLine
 10
281.8931126425047
 20
150.2367118951487
 30
0.000000000000000
 11
280.4545220653806
 21
151.2331629049357
 31
0.000000000000000
  0
LINE
  5
261
100
AcDbEntity
  8
A1
  6
CONTINUOUS
 62
7
100
AcDbLine
 10
281.8513881843808
 20
150.1892623669745
 30
0.000000000000000
 11
281.8915647426413
 21
150.2337794734759
 31
0.000000000000000
  0
LINE
  5
262
100
AcDbEntity
  8
A1
  6
CONTINUOUS
 62
7
100
AcDbLine
 10
278.1009484143307
 20
153.0001859999999
 30
0.000000000000000
 11
275.9663836641661
 21
153.0001859999999
 31
0.000000000000000
  0
LINE
  5
263
100
AcDbEntity
  8
A1
  6
CONTINUOUS
 62
7
100
AcDbLine
 10
281.6513548613775
 20
149.9676180766345
 30
0.000000000000000
 11
281.8513881843808
 21
150.1892623669746
 31
0.000000000000000
  0
LINE
  5
264
100
AcDbEntity
  8
A1
  6
CONTINUOUS
 62
7
100
AcDbLine
 10
269.1404297929957
 20
127.2140358992569
 30
0.000000000000000
 11
272.6300989999999
 21
123.1122559999999
 31
0.000000000000000
  0
LINE
  5
265
100
AcDbEntity
  8
A1
  6
CONTINUOUS
 62
7
100
AcDbLine
 10
280.6577966525485
 20
148.8667189824178
 30
0.000000000000000
 11
279.9182175222014
 21
148.0472380627640
 31
0.000000000000000
  0
LINE
  5
266
100
AcDbEntity
  8
A1
  6
CONTINUOUS
 62
7
100
AcDbLine
 10
279.4420923300456
 20
146.3135681238505
 30
0.000000000000000
 11
283.0826049999997
 21
128.1812679999999
 31
0.000000000000000
  0
LINE
  5
267
100
AcDbEntity
  8
A1
  6
CONTINUOUS
 62
7
100
AcDbLine
 10
280.6577966525485
 20
148.8667189824179
 30
0.000000000000000
 11
281.6513548613775
 21
149.9676180766345
 31
0.000000000000000
  0
LINE
  5
268
100
AcDbEntity
  8
A1
  6
CONTINUOUS
 62
7
100
AcDbLine
 10
275.9663836641661
 20
153.0001859999999
 30
0.000000000000000
 11
272.8008363120756
 21
153.0001859999999
 31
0.000000000000000
  0
LINE
  5
269
100
AcDbEntity
  8
A1
  6
CONTINUOUS
 62
7
100
AcDbLine
 10
269.1404297929957
 20
127.2140358992569
 30
0.000000000000000
 11
267.1988619152770
 21
129.4961674198854
 31
0.000000000000000
  0
LINE
  5
26A
100
AcDbEntity
  8
A1
  6
CONTINUOUS
 62
7
100
AcDbLine
 10
249.4999989999998
 20
153.0001859999999
 30
0.000000000000000
 11
272.8008363120756
 21
153.0001859999999
 31
0.000000000000000
  0
LINE
  5
26B
100
AcDbEntity
  8
A1
  6
CONTINUOUS
 62
7
100
AcDbLine
 10
253.1899879999997
 20
145.9622889999998
 30
0.000000000000000
 11
265.0820538653095
 21
131.9842773795672
 31
0.000000000000000
  0
LINE
  5
26C
100
AcDbEntity
  8
A1
  6
CONTINUOUS
 62
7
100
AcDbLine
 10
247.9999989999998
 20
151.5001860000000
 30
0.000000000000000
 11
247.9999989999998
 21
147.5592429999998
 31
0.000000000000000
  0
LINE
  5
26D
100
AcDbEntity
  8
A1
  6
CONTINUOUS
 62
7
100
AcDbLine
 10
247.9999989999997
 20
147.5592429999997
 30
0.000000000000000
 11
250.4698509999997
 21
147.3569899999998
 31
0.000000000000000
  0
LINE
  5
26E
100
AcDbEntity
  8
A1
  6
CONTINUOUS
 62
7
100
AcDbLine
 10
267.1988619152770
 20
129.4961674198853
 30
0.000000000000000
 11
265.0820538653097
 21
131.9842773795672
 31
0.000000000000000
  0
LINE
  5
26F
100
AcDbEntity
  8
A4
  6
CENTER
 62
1
100
AcDbLine
 10
162.1499989999998
 20
211.0001879999999
 30
0.000000000000000
 11
153.8499989999998
 21
211.0001879999999
 31
0.000000000000000
  0
LINE
  5
270
100
AcDbEntity
  8
A4
  6
CENTER
 62
1
100
AcDbLine
 10
157.9999989999998
 20
215.1501879999999
 30
0.000000000000000
 11
157.9999989999998
 21
206.8501879999999
 31
0.000000000000000
  0
LINE
  5
271
100
AcDbEntity
  8
A4
  6
CENTER
 62
1
100
AcDbLine
 10
126.1499989999998
 20
211.0001879999999
 30
0.000000000000000
 11
117.8499989999998
 21
211.0001879999999
 31
0.000000000000000
  0
LINE
  5
272
100
AcDbEntity
  8
A4
  6
CENTER
 62
1
100
AcDbLine
 10
121.9999989999998
 20
215.1501879999999
 30
0.000000000000000
 11
121.9999989999998
 21
206.8501879999999
 31
0.000000000000000
  0
LINE
  5
273
100
AcDbEntity
  8
A4
  6
CENTER
 62
1
100
AcDbLine
 10
126.1499989999998
 20
183.0001879999999
 30
0.000000000000000
 11
117.8499989999998
 21
183.0001879999999
 31
0.000000000000000
  0
LINE
  5
274
100
AcDbEntity
  8
A4
  6
CENTER
 62
1
100
AcDbLine
 10
121.9999989999998
 20
187.1501879999999
 30
0.000000000000000
 11
121.9999989999998
 21
178.8501879999999
 31
0.000000000000000
  0
LINE
  5
275
100
AcDbEntity
  8
A4
  6
CENTER
 62
1
100
AcDbLine
 10
162.1499989999998
 20
183.0001879999999
 30
0.000000000000000
 11
153.8499989999998
 21
183.0001879999999
 31
0.000000000000000
  0
LINE
  5
276
100
AcDbEntity
  8
A4
  6
CENTER
 62
1
100
AcDbLine
 10
157.9999989999998
 20
187.1501879999999
 30
0.000000000000000
 11
157.9999989999998
 21
178.8501879999999
 31
0.000000000000000
  0
LINE
  5
277
100
AcDbEntity
  8
A4
  6
CENTER
 62
1
100
AcDbLine
 10
68.99999999999882
 20
106.4999999999999
 30
0.000000000000000
 11
68.99999999999882
 21
159.5001879999999
 31
0.000000000000000
  0
LINE
  5
278
100
AcDbEntity
  8
A4
  6
CENTER
 62
1
100
AcDbLine
 10
126.9999999999998
 20
147.4999999999999
 30
0.000000000000000
 11
126.9999999999998
 21
106.4999999999999
 31
0.000000000000000
  0
LINE
  5
279
100
AcDbEntity
  8
A4
  6
CENTER
 62
1
100
AcDbLine
 10
126.9999999999998
 20
128.4999999999999
 30
0.000000000000000
 11
126.9999999999998
 21
106.4999999999999
 31
0.000000000000000
  0
LINE
  5
27A
100
AcDbEntity
  8
A4
  6
CENTER
 62
1
100
AcDbLine
 10
139.9999989999998
 20
131.9124916875708
 30
0.000000000000000
 11
139.9999989999998
 21
159.5001879999999
 31
0.000000000000000
  0
LINE
  5
27B
100
AcDbEntity
  8
A4
  6
CENTER
 62
1
100
AcDbLine
 10
53.20000499999975
 20
126.9999999999999
 30
0.000000000000000
 11
84.89999625126379
 21
126.9999999999999
 31
0.000000000000000
  0
LINE
  5
27C
100
AcDbEntity
  8
A4
  6
CENTER
 62
1
100
AcDbLine
 10
161.1586289999998
 20
197.0001879999999
 30
0.000000000000000
 11
106.4999999999998
 21
197.0001879999999
 31
0.000000000000000
  0
LINE
  5
27D
100
AcDbEntity
  8
A4
  6
CENTER
 62
1
100
AcDbLine
 10
139.9999989999998
 20
217.5001879999999
 30
0.000000000000000
 11
139.9999989999998
 21
176.5001880000008
 31
0.000000000000000
  0
LINE
  5
27E
100
AcDbEntity
  8
A4
  6
CENTER
 62
1
100
AcDbLine
 10
201.9999990000005
 20
106.4999999999999
 30
0.000000000000000
 11
201.9999990000005
 21
159.5001879999999
 31
0.000000000000000
  0
LINE
  5
27F
100
AcDbEntity
  8
A4
  6
CENTER
 62
1
100
AcDbLine
 10
186.2000040000014
 20
126.9999999999999
 30
0.000000000000000
 11
217.8999952512654
 21
126.9999999999999
 31
0.000000000000000
  0
LINE
  5
280
100
AcDbEntity
  8
A2
  6
DASHED
 62
2
100
AcDbLine
 10
119.3499990000256
 20
158.0001879999972
 30
0.000000000000000
 11
119.3499990000273
 21
156.4001879999996
 31
0.000000000000000
  0
LINE
  5
281
100
AcDbEntity
  8
A2
  6
DASHED
 62
2
100
AcDbLine
 10
124.6499990000147
 20
158.0001879999999
 30
0.000000000000000
 11
124.6499990000157
 21
156.4001879999996
 31
0.000000000000000
  0
LINE
  5
282
100
AcDbEntity
  8
A4
  6
CENTER
 62
1
100
AcDbLine
 10
121.9999990000208
 20
154.9001879999996
 30
0.000000000000000
 11
121.9999990000208
 21
159.5001879999972
 31
0.000000000000000
  0
LINE
  5
283
100
AcDbEntity
  8
A2
  6
DASHED
 62
2
100
AcDbLine
 10
155.3500033633487
 20
158.0001879999972
 30
0.000000000000000
 11
155.3500033633504
 21
156.4001879999996
 31
0.000000000000000
  0
LINE
  5
284
100
AcDbEntity
  8
A2
  6
DASHED
 62
2
100
AcDbLine
 10
160.6500033633378
 20
158.0001879999999
 30
0.000000000000000
 11
160.6500033633388
 21
156.4001879999996
 31
0.000000000000000
  0
LINE
  5
285
100
AcDbEntity
  8
A4
  6
CENTER
 62
1
100
AcDbLine
 10
158.0000033633440
 20
154.9001879999996
 30
0.000000000000000
 11
158.0000033633440
 21
159.5001879999972
 31
0.000000000000000
  0
LINE
  5
286
100
AcDbEntity
  8
A2
  6
DASHED
 62
2
100
AcDbLine
 10
80.35000436334779
 20
158.0001879999972
 30
0.000000000000000
 11
80.35000436334946
 21
156.4001879999996
 31
0.000000000000000
  0
LINE
  5
287
100
AcDbEntity
  8
A2
  6
DASHED
 62
2
100
AcDbLine
 10
85.65000436333686
 20
158.0001879999999
 30
0.000000000000000
 11
85.65000436333781
 21
156.4001879999996
 31
0.000000000000000
  0
LINE
  5
288
100
AcDbEntity
  8
A4
  6
CENTER
 62
1
100
AcDbLine
 10
83.00000436334300
 20
154.9001879999996
 30
0.000000000000000
 11
83.00000436334300
 21
159.5001879999972
 31
0.000000000000000
  0
LINE
  5
289
100
AcDbEntity
  8
A2
  6
DASHED
 62
2
100
AcDbLine
 10
52.35000436334779
 20
158.0001879999972
 30
0.000000000000000
 11
52.35000436334946
 21
156.4001879999996
 31
0.000000000000000
  0
LINE
  5
28A
100
AcDbEntity
  8
A2
  6
DASHED
 62
2
100
AcDbLine
 10
57.65000436333685
 20
158.0001879999999
 30
0.000000000000000
 11
57.65000436333781
 21
156.4001879999996
 31
0.000000000000000
  0
LINE
  5
28B
100
AcDbEntity
  8
A4
  6
CENTER
 62
1
100
AcDbLine
 10
55.00000436334300
 20
154.9001879999996
 30
0.000000000000000
 11
55.00000436334300
 21
159.5001879999972
 31
0.000000000000000
  0
LINE
  5
28C
100
AcDbEntity
  8
A2
  6
DASHED
 62
2
100
AcDbLine
 10
185.3500033633494
 20
158.0001879999972
 30
0.000000000000000
 11
185.3500033633511
 21
156.4001879999996
 31
0.000000000000000
  0
LINE
  5
28D
100
AcDbEntity
  8
A4
  6
CENTER
 62
1
100
AcDbLine
 10
188.0000033633447
 20
154.9001879999996
 30
0.000000000000000
 11
188.0000033633447
 21
159.5001879999972
 31
0.000000000000000
  0
LINE
  5
28E
100
AcDbEntity
  8
A2
  6
DASHED
 62
2
100
AcDbLine
 10
190.6500033633385
 20
158.0001879999999
 30
0.000000000000000
 11
190.6500033633394
 21
156.4001879999996
 31
0.000000000000000
  0
LINE
  5
28F
100
AcDbEntity
  8
A2
  6
DASHED
 62
2
100
AcDbLine
 10
213.3500033633494
 20
158.0001879999972
 30
0.000000000000000
 11
213.3500033633511
 21
156.4001879999996
 31
0.000000000000000
  0
LINE
  5
290
100
AcDbEntity
  8
A4
  6
CENTER
 62
1
100
AcDbLine
 10
216.0000033633447
 20
154.9001879999996
 30
0.000000000000000
 11
216.0000033633447
 21
159.5001879999972
 31
0.000000000000000
  0
LINE
  5
291
100
AcDbEntity
  8
A2
  6
DASHED
 62
2
100
AcDbLine
 10
218.6500033633385
 20
158.0001879999999
 30
0.000000000000000
 11
218.6500033633394
 21
156.4001879999996
 31
0.000000000000000
  0
LINE
  5
292
100
AcDbEntity
  8
A2
  6
DASHED
 62
2
100
AcDbLine
 10
284.6499989999708
 20
158.0001879999971
 30
0.000000000000000
 11
284.6499989999691
 21
156.4001879999996
 31
0.000000000000000
  0
LINE
  5
293
100
AcDbEntity
  8
A4
  6
CENTER
 62
1
100
AcDbLine
 10
281.9999989999756
 20
154.9001879999996
 30
0.000000000000000
 11
281.9999989999756
 21
159.5001879999972
 31
0.000000000000000
  0
LINE
  5
294
100
AcDbEntity
  8
A2
  6
DASHED
 62
2
100
AcDbLine
 10
279.3499989999817
 20
158.0001879999999
 30
0.000000000000000
 11
279.3499989999808
 21
156.4001879999996
 31
0.000000000000000
  0
LINE
  5
295
100
AcDbEntity
  8
A4
  6
CENTER
 62
1
100
AcDbLine
 10
263.9999989999966
 20
131.9124916875708
 30
0.000000000000000
 11
263.9999989999966
 21
159.5001879999999
 31
0.000000000000000
  0
LINE
  5
296
100
AcDbEntity
  8
A2
  6
DASHED
 62
2
100
AcDbLine
 10
248.6499946366477
 20
158.0001879999972
 30
0.000000000000000
 11
248.6499946366460
 21
156.4001879999996
 31
0.000000000000000
  0
LINE
  5
297
100
AcDbEntity
  8
A4
  6
CENTER
 62
1
100
AcDbLine
 10
245.9999946366525
 20
154.9001879999996
 30
0.000000000000000
 11
245.9999946366525
 21
159.5001879999972
 31
0.000000000000000
  0
LINE
  5
298
100
AcDbEntity
  8
A2
  6
DASHED
 62
2
100
AcDbLine
 10
243.3499946366586
 20
158.0001879999999
 30
0.000000000000000
 11
243.3499946366577
 21
156.4001879999996
 31
0.000000000000000
  0
LINE
  5
299
100
AcDbEntity
  8
A4
  6
CENTER
 62
1
100
AcDbLine
 10
276.9999979999967
 20
147.4999999999999
 30
0.000000000000000
 11
276.9999979999967
 21
106.4999999999999
 31
0.000000000000000
  0
LINE
  5
29A
100
AcDbEntity
  8
A4
  6
CENTER
 62
1
100
AcDbLine
 10
106.4999999999998
 20
126.9999999999999
 30
0.000000000000000
 11
147.4999999999998
 21
126.9999999999999
 31
0.000000000000000
  0
LINE
  5
29B
100
AcDbEntity
  8
A4
  6
CENTER
 62
1
100
AcDbLine
 10
256.4999979999967
 20
126.9999999999999
 30
0.000000000000000
 11
297.4999979999967
 21
126.9999999999999
 31
0.000000000000000
  0
LINE
  5
29C
100
AcDbEntity
  8
A4
  6
CENTER
 62
1
100
AcDbLine
 10
162.1499989999998
 20
82.99999999999989
 30
0.000000000000000
 11
153.8499989999998
 21
82.99999999999989
 31
0.000000000000000
  0
LINE
  5
29D
100
AcDbEntity
  8
A4
  6
CENTER
 62
1
100
AcDbLine
 10
157.9999989999998
 20
87.14999999999989
 30
0.000000000000000
 11
157.9999989999998
 21
78.84999999999988
 31
0.000000000000000
  0
LINE
  5
29E
100
AcDbEntity
  8
A4
  6
CENTER
 62
1
100
AcDbLine
 10
126.1499989999998
 20
82.99999999999989
 30
0.000000000000000
 11
117.8499989999998
 21
82.99999999999989
 31
0.000000000000000
  0
LINE
  5
29F
100
AcDbEntity
  8
A4
  6
CENTER
 62
1
100
AcDbLine
 10
121.9999989999998
 20
87.14999999999989
 30
0.000000000000000
 11
121.9999989999998
 21
78.84999999999988
 31
0.000000000000000
  0
LINE
  5
2A0
100
AcDbEntity
  8
A4
  6
CENTER
 62
1
100
AcDbLine
 10
161.1586289999998
 20
68.99999999999989
 30
0.000000000000000
 11
106.4999999999998
 21
68.99999999999989
 31
0.000000000000000
  0
LINE
  5
2A1
100
AcDbEntity
  8
A4
  6
CENTER
 62
1
100
AcDbLine
 10
126.1499989999998
 20
54.99999999999989
 30
0.000000000000000
 11
117.8499989999998
 21
54.99999999999989
 31
0.000000000000000
  0
LINE
  5
2A2
100
AcDbEntity
  8
A4
  6
CENTER
 62
1
100
AcDbLine
 10
121.9999989999998
 20
59.14999999999989
 30
0.000000000000000
 11
121.9999989999998
 21
50.84999999999988
 31
0.000000000000000
  0
LINE
  5
2A3
100
AcDbEntity
  8
A4
  6
CENTER
 62
1
100
AcDbLine
 10
157.9999989999998
 20
59.14999999999989
 30
0.000000000000000
 11
157.9999989999998
 21
50.84999999999988
 31
0.000000000000000
  0
LINE
  5
2A4
100
AcDbEntity
  8
A4
  6
CENTER
 62
1
100
AcDbLine
 10
162.1499989999998
 20
54.99999999999989
 30
0.000000000000000
 11
153.8499989999998
 21
54.99999999999989
 31
0.000000000000000
  0
LINE
  5
2A5
100
AcDbEntity
  8
A4
  6
CENTER
 62
1
100
AcDbLine
 10
139.9999989999998
 20
89.49999999999983
 30
0.000000000000000
 11
139.9999989999998
 21
48.50000000000080
 31
0.000000000000000
  0
ENDSEC
  0
SECTION
  2
OBJECTS
  0
DICTIONARY
  5
2D9
100
AcDbDictionary
  3
ACAD_GROUP
350
2DA
  3
ACAD_LAYOUT
350
2DB
  3
ACAD_MLINESTYLE
350
2DC
  0
DICTIONARY
  5
2DA
102
{ACAD_REACTORS
330
2D9
102
}
330
2D9
100
AcDbDictionary
  0
DICTIONARY
  5
2DB
102
{ACAD_REACTORS
330
2D9
102
}
330
2D9
100
AcDbDictionary
  3
Model
350
2DD
  3
ﾚｲｱｳﾄ1
350
2DE
  3
ﾚｲｱｳﾄ2
350
2DF
  0
DICTIONARY
  5
2DC
102
{ACAD_REACTORS
330
2D9
102
}
330
2D9
100
AcDbDictionary
  3
STANDARD
350
2E0
  0
LAYOUT
  5
2DD
102
{ACAD_REACTORS
330
2DB
102
}
330
2DB
100
AcDbPlotSettings
 70
11952
  4
A3
 44
297.000000
 45
420.000000
 73
  1
 72
  1
100
AcDbLayout
  1
Model
 71
0
330
2D0
  0
LAYOUT
  5
2DE
102
{ACAD_REACTORS
330
2DB
102
}
330
2DB
100
AcDbPlotSettings
100
AcDbLayout
  1
ﾚｲｱｳﾄ1
 71
1
330
2D1
  0
LAYOUT
  5
2DF
102
{ACAD_REACTORS
330
2DB
102
}
330
2DB
100
AcDbPlotSettings
100
AcDbLayout
  1
ﾚｲｱｳﾄ2
 71
2
330
2D2
  0
MLINESTYLE
  5
2E0
102
{ACAD_REACTORS
330
2DC
102
}
330
2DC
100
AcDbMlineStyle
  2
STANDARD
 70
     0
  3

 62
   256
 51
90.00
 52
90.00
 71
     2
 49
0.50
 62
   256
  6
BYLAYER
 49
-0.50
 62
   256
  6
BYLAYER
  0
ENDSEC
  0
EOF
