  0
SECTION
  2
HEADER
  9
$ACADVER
  1
AC1015
  9
$ACADMAINTVER
 70
    20
  9
$DWGCODEPAGE
  3
ANSI_932
  9
$INSBASE
 10
0.0
 20
0.0
 30
0.0
  9
$EXTMIN
 10
10.0
 20
9.999999999999998
 30
0.0
  9
$EXTMAX
 10
456.2663679999998
 20
350.1037339944149
 30
0.0
  9
$LIMMIN
 10
0.0
 20
0.0
  9
$LIMMAX
 10
544.9999999638298
 20
375.7196968653162
  9
$ORTHOMODE
 70
     1
  9
$REGENMODE
 70
     1
  9
$FILLMODE
 70
     1
  9
$QTEXTMODE
 70
     0
  9
$MIRRTEXT
 70
     1
  9
$LTSCALE
 40
20.0
  9
$ATTMODE
 70
     1
  9
$TEXTSIZE
 40
5.0
  9
$TRACEWID
 40
1.0
  9
$TEXTSTYLE
  7
STANDARD
  9
$CLAYER
  8
0
  9
$CELTYPE
  6
BYLAYER
  9
$CECOLOR
 62
   256
  9
$CELTSCALE
 40
1.0
  9
$DISPSILH
 70
     0
  9
$DIMSCALE
 40
1.0
  9
$DIMASZ
 40
2.5
  9
$DIMEXO
 40
1.0
  9
$DIMDLI
 40
10.0
  9
$DIMRND
 40
0.0
  9
$DIMDLE
 40
0.0
  9
$DIMEXE
 40
1.0
  9
$DIMTP
 40
0.0
  9
$DIMTM
 40
0.0
  9
$DIMTXT
 40
3.2
  9
$DIMCEN
 40
0.0
  9
$DIMTSZ
 40
0.0
  9
$DIMTOL
 70
     0
  9
$DIMLIM
 70
     0
  9
$DIMTIH
 70
     0
  9
$DIMTOH
 70
     0
  9
$DIMSE1
 70
     0
  9
$DIMSE2
 70
     0
  9
$DIMTAD
 70
     3
  9
$DIMZIN
 70
     8
  9
$DIMBLK
  1

  9
$DIMASO
 70
     1
  9
$DIMSHO
 70
     1
  9
$DIMPOST
  1

  9
$DIMAPOST
  1

  9
$DIMALT
 70
     0
  9
$DIMALTD
 70
     2
  9
$DIMALTF
 40
25.4
  9
$DIMLFAC
 40
1.0
  9
$DIMTOFL
 70
     1
  9
$DIMTVP
 40
0.0
  9
$DIMTIX
 70
     0
  9
$DIMSOXD
 70
     0
  9
$DIMSAH
 70
     1
  9
$DIMBLK1
  1

  9
$DIMBLK2
  1

  9
$DIMSTYLE
  2
STANDARD
  9
$DIMCLRD
 70
     0
  9
$DIMCLRE
 70
     0
  9
$DIMCLRT
 70
     0
  9
$DIMTFAC
 40
1.0
  9
$DIMGAP
 40
1.0
  9
$DIMJUST
 70
     0
  9
$DIMSD1
 70
     0
  9
$DIMSD2
 70
     0
  9
$DIMTOLJ
 70
     1
  9
$DIMTZIN
 70
     0
  9
$DIMALTZ
 70
     0
  9
$DIMALTTZ
 70
     0
  9
$DIMUPT
 70
     0
  9
$DIMDEC
 70
     4
  9
$DIMTDEC
 70
     4
  9
$DIMALTU
 70
     2
  9
$DIMALTTD
 70
     2
  9
$DIMTXSTY
  7
STANDARD
  9
$DIMAUNIT
 70
     0
  9
$DIMADEC
 70
     0
  9
$DIMALTRND
 40
0.0
  9
$DIMAZIN
 70
     0
  9
$DIMDSEP
 70
    46
  9
$DIMATFIT
 70
     3
  9
$DIMFRAC
 70
     0
  9
$DIMLDRBLK
  1

  9
$DIMLUNIT
 70
     2
  9
$DIMLWD
 70
    -2
  9
$DIMLWE
 70
    -2
  9
$DIMTMOVE
 70
     0
  9
$LUNITS
 70
     2
  9
$LUPREC
 70
     4
  9
$SKETCHINC
 40
1.0
  9
$FILLETRAD
 40
2.0
  9
$AUNITS
 70
     0
  9
$AUPREC
 70
     2
  9
$MENU
  1
.
  9
$ELEVATION
 40
0.0
  9
$PELEVATION
 40
0.0
  9
$THICKNESS
 40
0.0
  9
$LIMCHECK
 70
     0
  9
$CHAMFERA
 40
10.0
  9
$CHAMFERB
 40
10.0
  9
$CHAMFERC
 40
0.0
  9
$CHAMFERD
 40
0.0
  9
$SKPOLY
 70
     0
  9
$TDCREATE
 40
2451301.476537500
  9
$TDUCREATE
 40
2451301.101537500
  9
$TDUPDATE
 40
2457192.690658472
  9
$TDUUPDATE
 40
2457192.315658472
  9
$TDINDWG
 40
0.0185865278
  9
$TDUSRTIMER
 40
0.0185862037
  9
$USRTIMER
 70
     1
  9
$ANGBASE
 50
0.0
  9
$ANGDIR
 70
     0
  9
$PDMODE
 70
     0
  9
$PDSIZE
 40
0.0
  9
$PLINEWID
 40
0.0
  9
$SPLFRAME
 70
     0
  9
$SPLINETYPE
 70
     6
  9
$SPLINESEGS
 70
     8
  9
$HANDSEED
  5
9B7A
  9
$SURFTAB1
 70
     6
  9
$SURFTAB2
 70
     6
  9
$SURFTYPE
 70
     6
  9
$SURFU
 70
     6
  9
$SURFV
 70
     6
  9
$UCSBASE
  2

  9
$UCSNAME
  2

  9
$UCSORG
 10
0.0
 20
0.0
 30
0.0
  9
$UCSXDIR
 10
1.0
 20
0.0
 30
0.0
  9
$UCSYDIR
 10
0.0
 20
1.0
 30
0.0
  9
$UCSORTHOREF
  2

  9
$UCSORTHOVIEW
 70
     0
  9
$UCSORGTOP
 10
0.0
 20
0.0
 30
0.0
  9
$UCSORGBOTTOM
 10
0.0
 20
0.0
 30
0.0
  9
$UCSORGLEFT
 10
0.0
 20
0.0
 30
0.0
  9
$UCSORGRIGHT
 10
0.0
 20
0.0
 30
0.0
  9
$UCSORGFRONT
 10
0.0
 20
0.0
 30
0.0
  9
$UCSORGBACK
 10
0.0
 20
0.0
 30
0.0
  9
$PUCSBASE
  2

  9
$PUCSNAME
  2

  9
$PUCSORG
 10
0.0
 20
0.0
 30
0.0
  9
$PUCSXDIR
 10
1.0
 20
0.0
 30
0.0
  9
$PUCSYDIR
 10
0.0
 20
1.0
 30
0.0
  9
$PUCSORTHOREF
  2

  9
$PUCSORTHOVIEW
 70
     0
  9
$PUCSORGTOP
 10
0.0
 20
0.0
 30
0.0
  9
$PUCSORGBOTTOM
 10
0.0
 20
0.0
 30
0.0
  9
$PUCSORGLEFT
 10
0.0
 20
0.0
 30
0.0
  9
$PUCSORGRIGHT
 10
0.0
 20
0.0
 30
0.0
  9
$PUCSORGFRONT
 10
0.0
 20
0.0
 30
0.0
  9
$PUCSORGBACK
 10
0.0
 20
0.0
 30
0.0
  9
$USERI1
 70
     0
  9
$USERI2
 70
     0
  9
$USERI3
 70
     0
  9
$USERI4
 70
     0
  9
$USERI5
 70
     0
  9
$USERR1
 40
0.0
  9
$USERR2
 40
0.0
  9
$USERR3
 40
0.0
  9
$USERR4
 40
0.0
  9
$USERR5
 40
0.0
  9
$WORLDVIEW
 70
     1
  9
$SHADEDGE
 70
     3
  9
$SHADEDIF
 70
    70
  9
$TILEMODE
 70
     1
  9
$MAXACTVP
 70
    16
  9
$PINSBASE
 10
0.0
 20
0.0
 30
0.0
  9
$PLIMCHECK
 70
     0
  9
$PEXTMIN
 10
1.000000000000000E+20
 20
1.000000000000000E+20
 30
1.000000000000000E+20
  9
$PEXTMAX
 10
-1.000000000000000E+20
 20
-1.000000000000000E+20
 30
-1.000000000000000E+20
  9
$PLIMMIN
 10
0.0
 20
0.0
  9
$PLIMMAX
 10
420.0
 20
297.0
  9
$UNITMODE
 70
     0
  9
$VISRETAIN
 70
     0
  9
$PLINEGEN
 70
     0
  9
$PSLTSCALE
 70
     0
  9
$TREEDEPTH
 70
  3020
  9
$CMLSTYLE
  2
STANDARD
  9
$CMLJUST
 70
     0
  9
$CMLSCALE
 40
1.0
  9
$PROXYGRAPHICS
 70
     1
  9
$MEASUREMENT
 70
     0
  9
$CELWEIGHT
370
    -1
  9
$ENDCAPS
280
     0
  9
$JOINSTYLE
280
     0
  9
$LWDISPLAY
290
     0
  9
$INSUNITS
 70
     0
  9
$HYPERLINKBASE
  1

  9
$STYLESHEET
  1

  9
$XEDIT
290
     1
  9
$CEPSNTYPE
380
     0
  9
$PSTYLEMODE
290
     1
  9
$FINGERPRINTGUID
  2
{8830F8B0-6FB8-405E-9E01-572E59307350}
  9
$VERSIONGUID
  2
{C07931A6-360F-4B45-9FAD-9A1DE2C9EE40}
  9
$EXTNAMES
290
     1
  9
$PSVPSCALE
 40
0.0
  9
$OLESTARTUP
290
     0
  0
ENDSEC
  0
SECTION
  2
CLASSES
  0
CLASS
  1
ACDBDICTIONARYWDFLT
  2
AcDbDictionaryWithDefault
  3
ObjectDBX Classes
 90
        0
280
     0
281
     0
  0
CLASS
  1
ACDBPLACEHOLDER
  2
AcDbPlaceHolder
  3
ObjectDBX Classes
 90
        0
280
     0
281
     0
  0
CLASS
  1
LAYOUT
  2
AcDbLayout
  3
ObjectDBX Classes
 90
        0
280
     0
281
     0
  0
CLASS
  1
DICTIONARYVAR
  2
AcDbDictionaryVar
  3
ObjectDBX Classes
 90
        0
280
     0
281
     0
  0
CLASS
  1
MATERIAL
  2
AcDbMaterial
  3
ObjectDBX Classes
 90
     1153
280
     0
281
     0
  0
CLASS
  1
VISUALSTYLE
  2
AcDbVisualStyle
  3
ObjectDBX Classes
 90
     4095
280
     0
281
     0
  0
CLASS
  1
TABLESTYLE
  2
AcDbTableStyle
  3
ObjectDBX Classes
 90
     4095
280
     0
281
     0
  0
CLASS
  1
SCALE
  2
AcDbScale
  3
ObjectDBX Classes
 90
     1153
280
     0
281
     0
  0
CLASS
  1
MLEADERSTYLE
  2
AcDbMLeaderStyle
  3
ACDB_MLEADERSTYLE_CLASS
 90
     4095
280
     0
281
     0
  0
CLASS
  1
ACDBSECTIONVIEWSTYLE
  2
AcDbSectionViewStyle
  3
ObjectDBX Classes
 90
     1025
280
     0
281
     0
  0
CLASS
  1
ACDBDETAILVIEWSTYLE
  2
AcDbDetailViewStyle
  3
ObjectDBX Classes
 90
     1025
280
     0
281
     0
  0
CLASS
  1
CELLSTYLEMAP
  2
AcDbCellStyleMap
  3
ObjectDBX Classes
 90
     1152
280
     0
281
     0
  0
ENDSEC
  0
SECTION
  2
TABLES
  0
TABLE
  2
VPORT
  5
98C9
330
0
100
AcDbSymbolTable
 70
     1
  0
VPORT
  5
9AC5
330
98C9
100
AcDbSymbolTableRecord
100
AcDbViewportTableRecord
  2
*ACTIVE
 70
     0
 10
0.0
 20
0.0
 11
1.0
 21
1.0
 12
364.0322740879283
 22
180.0485991918641
 13
0.0
 23
0.0
 14
10.0
 24
10.0
 15
10.0
 25
10.0
 16
0.0
 26
0.0
 36
1.0
 17
0.0
 27
0.0
 37
0.0
 40
342.7969560439411
 41
2.35006605019815
 42
50.0
 43
0.0
 44
0.0
 50
0.0
 51
0.0
 71
     0
 72
   100
 73
     1
 74
     0
 75
     0
 76
     0
 77
     0
 78
     0
281
     0
 65
     1
110
0.0
120
0.0
130
0.0
111
1.0
121
0.0
131
0.0
112
0.0
122
1.0
132
0.0
 79
     0
146
0.0
1001
ACAD_NAV_VCDISPLAY
1070
     3
  0
ENDTAB
  0
TABLE
  2
LTYPE
  5
98C6
330
0
100
AcDbSymbolTable
 70
     4
  0
LTYPE
  5
98D4
330
98C6
100
AcDbSymbolTableRecord
100
AcDbLinetypeTableRecord
  2
BYBLOCK
 70
     0
  3

 72
    65
 73
     0
 40
0.0
  0
LTYPE
  5
98D5
330
98C6
100
AcDbSymbolTableRecord
100
AcDbLinetypeTableRecord
  2
BYLAYER
 70
     0
  3

 72
    65
 73
     0
 40
0.0
  0
LTYPE
  5
98D6
330
98C6
100
AcDbSymbolTableRecord
100
AcDbLinetypeTableRecord
  2
CONTINUOUS
 70
     0
  3
Solid line
 72
    65
 73
     0
 40
0.0
  0
LTYPE
  5
98E4
330
98C6
100
AcDbSymbolTableRecord
100
AcDbLinetypeTableRecord
  2
DASHED
 70
     0
  3
__ __ __ __ __ __ __ __ __ __ __ __ __ __ __ __
 72
    65
 73
     2
 40
0.75
 49
0.5
 74
     0
 49
-0.25
 74
     0
  0
LTYPE
  5
98E5
330
98C6
100
AcDbSymbolTableRecord
100
AcDbLinetypeTableRecord
  2
CENTER
 70
     0
  3
____ _ ____ _ ____ _ ____ _ ____ _ ____ _ ____ 
 72
    65
 73
     4
 40
2.0
 49
1.25
 74
     0
 49
-0.25
 74
     0
 49
0.25
 74
     0
 49
-0.25
 74
     0
  0
LTYPE
  5
98E6
330
98C6
100
AcDbSymbolTableRecord
100
AcDbLinetypeTableRecord
  2
PHANTOM
 70
     0
  3
______  __  __  ______  __  __  ______  __  __ 
 72
    65
 73
     6
 40
2.5
 49
1.25
 74
     0
 49
-0.25
 74
     0
 49
0.25
 74
     0
 49
-0.25
 74
     0
 49
0.25
 74
     0
 49
-0.25
 74
     0
  0
ENDTAB
  0
TABLE
  2
LAYER
  5
98C3
330
0
100
AcDbSymbolTable
 70
     8
  0
LAYER
  5
98D1
102
{ACAD_XDICTIONARY
360
9B1E
102
}
330
98C3
100
AcDbSymbolTableRecord
100
AcDbLayerTableRecord
  2
0
 70
     0
 62
     7
  6
CONTINUOUS
370
    -3
390
9ACC
  0
LAYER
  5
98E7
102
{ACAD_XDICTIONARY
360
9B20
102
}
330
98C3
100
AcDbSymbolTableRecord
100
AcDbLayerTableRecord
  2
4
 70
     0
 62
     1
  6
CENTER
370
    -3
390
9ACC
  0
LAYER
  5
98E8
102
{ACAD_XDICTIONARY
360
9B22
102
}
330
98C3
100
AcDbSymbolTableRecord
100
AcDbLayerTableRecord
  2
5
 70
     0
 62
     6
  6
PHANTOM
370
    -3
390
9ACC
  0
LAYER
  5
98E9
102
{ACAD_XDICTIONARY
360
9B24
102
}
330
98C3
100
AcDbSymbolTableRecord
100
AcDbLayerTableRecord
  2
1
 70
     0
 62
     7
  6
CONTINUOUS
370
    -3
390
9ACC
  0
LAYER
  5
98EA
102
{ACAD_XDICTIONARY
360
9B26
102
}
330
98C3
100
AcDbSymbolTableRecord
100
AcDbLayerTableRecord
  2
2
 70
     0
 62
     4
  6
CONTINUOUS
370
    -3
390
9ACC
  0
LAYER
  5
98EB
102
{ACAD_XDICTIONARY
360
9B28
102
}
330
98C3
100
AcDbSymbolTableRecord
100
AcDbLayerTableRecord
  2
3
 70
     0
 62
     2
  6
DASHED
370
    -3
390
9ACC
  0
LAYER
  5
98EC
102
{ACAD_XDICTIONARY
360
9B2A
102
}
330
98C3
100
AcDbSymbolTableRecord
100
AcDbLayerTableRecord
  2
6
 70
     0
 62
     5
  6
CONTINUOUS
370
    -3
390
9ACC
  0
LAYER
  5
98ED
102
{ACAD_XDICTIONARY
360
9B2C
102
}
330
98C3
100
AcDbSymbolTableRecord
100
AcDbLayerTableRecord
  2
7
 70
     0
 62
     3
  6
CONTINUOUS
370
    -3
390
9ACC
  0
ENDTAB
  0
TABLE
  2
STYLE
  5
98C4
330
0
100
AcDbSymbolTable
 70
     1
  0
STYLE
  5
98D2
330
98C4
100
AcDbSymbolTableRecord
100
AcDbTextStyleTableRecord
  2
STANDARD
 70
     0
 40
0.0
 41
1.0
 50
0.0
 71
     0
 42
5.0
  3
txt
  4

  0
ENDTAB
  0
TABLE
  2
VIEW
  5
98C7
330
0
100
AcDbSymbolTable
 70
     0
  0
ENDTAB
  0
TABLE
  2
UCS
  5
98C8
330
0
100
AcDbSymbolTable
 70
     0
  0
ENDTAB
  0
TABLE
  2
APPID
  5
98CA
330
0
100
AcDbSymbolTable
 70
     3
  0
APPID
  5
98D3
330
98CA
100
AcDbSymbolTableRecord
100
AcDbRegAppTableRecord
  2
ACAD
 70
     0
  0
APPID
  5
9B38
330
98CA
100
AcDbSymbolTableRecord
100
AcDbRegAppTableRecord
  2
ACAD_NAV_VCDISPLAY
 70
     0
  0
APPID
  5
9B71
330
98CA
100
AcDbSymbolTableRecord
100
AcDbRegAppTableRecord
  2
ACAD_MLEADERVER
 70
     0
  0
ENDTAB
  0
TABLE
  2
DIMSTYLE
  5
98CB
330
0
100
AcDbSymbolTable
 70
     1
100
AcDbDimStyleTable
 71
     0
  0
DIMSTYLE
105
98EF
330
98CB
100
AcDbSymbolTableRecord
100
AcDbDimStyleTableRecord
  2
STANDARD
 70
     0
 41
2.5
 42
1.0
 43
10.0
 44
1.0
 73
     0
 74
     0
 77
     3
 78
     8
140
3.2
141
0.0
147
1.0
172
     1
173
     1
284
     8
285
     8
286
     8
340
98D2
  0
ENDTAB
  0
TABLE
  2
BLOCK_RECORD
  5
98C2
330
0
100
AcDbSymbolTable
 70
     0
  0
BLOCK_RECORD
  5
98DF
102
{ACAD_XDICTIONARY
360
9A84
102
}
330
98C2
100
AcDbSymbolTableRecord
100
AcDbBlockTableRecord
  2
*MODEL_SPACE
340
9B1A
  0
BLOCK_RECORD
  5
98DB
102
{ACAD_XDICTIONARY
360
9A82
102
}
330
98C2
100
AcDbSymbolTableRecord
100
AcDbBlockTableRecord
  2
*PAPER_SPACE
340
9B1B
  0
ENDTAB
  0
ENDSEC
  0
SECTION
  2
BLOCKS
  0
BLOCK
  5
98E0
330
98DF
100
AcDbEntity
  8
0
100
AcDbBlockBegin
  2
*MODEL_SPACE
 70
     0
 10
0.0
 20
0.0
 30
0.0
  3
*MODEL_SPACE
  1

  0
ENDBLK
  5
98E1
330
98DF
100
AcDbEntity
  8
0
100
AcDbBlockEnd
  0
BLOCK
  5
98DC
330
98DB
100
AcDbEntity
 67
     1
  8
0
100
AcDbBlockBegin
  2
*PAPER_SPACE
 70
     0
 10
0.0
 20
0.0
 30
0.0
  3
*PAPER_SPACE
  1

  0
ENDBLK
  5
98DD
330
98DB
100
AcDbEntity
 67
     1
  8
0
100
AcDbBlockEnd
  0
ENDSEC
  0
SECTION
  2
ENTITIES
  0
TEXT
  5
98F7
330
98DF
100
AcDbEntity
  8
7
  6
Continuous
100
AcDbText
 10
10.0
 20
18.0
 30
0.0
 40
3.0
  1
TYPE No.TCA-420R-N75
100
AcDbText
  0
TEXT
  5
98F8
330
98DF
100
AcDbEntity
  8
7
  6
Continuous
100
AcDbText
 10
10.0
 20
26.0
 30
0.0
 40
3.0
  1
CODE No.9736
100
AcDbText
  0
TEXT
  5
98F9
330
98DF
100
AcDbEntity
  8
1
  6
Continuous
100
AcDbText
 10
10.0
 20
10.0
 30
0.0
 40
1.399999999999999
  1
LAYER
100
AcDbText
  0
TEXT
  5
98FA
330
98DF
100
AcDbEntity
  8
1
  6
Continuous
100
AcDbText
 10
17.97951099999998
 20
10.04873699999998
 30
0.0
 40
1.399999999999999
  1
1
100
AcDbText
  0
TEXT
  5
98FB
330
98DF
100
AcDbEntity
  8
7
  6
Continuous
100
AcDbText
 10
29.97951099999999
 20
10.04873699999998
 30
0.0
 40
1.399999999999999
  1
7
100
AcDbText
  0
TEXT
  5
98FC
330
98DF
100
AcDbEntity
  8
4
  6
CENTER
100
AcDbText
 10
23.97951099999999
 20
10.04873699999998
 30
0.0
 40
1.399999999999999
  1
4
100
AcDbText
  0
TEXT
  5
98FD
330
98DF
100
AcDbEntity
  8
3
  6
DASHED
100
AcDbText
 10
21.979511
 20
10.04873699999998
 30
0.0
 40
1.399999999999999
  1
3
100
AcDbText
  0
TEXT
  5
98FE
330
98DF
100
AcDbEntity
  8
2
  6
Continuous
100
AcDbText
 10
19.97951099999998
 20
10.04873699999998
 30
0.0
 40
1.399999999999999
  1
2
100
AcDbText
  0
TEXT
  5
98FF
330
98DF
100
AcDbEntity
  8
6
  6
Continuous
100
AcDbText
 10
27.979511
 20
10.04873699999998
 30
0.0
 40
1.399999999999999
  1
6
100
AcDbText
  0
TEXT
  5
9900
330
98DF
100
AcDbEntity
  8
5
  6
PHANTOM
100
AcDbText
 10
25.97951099999999
 20
10.04873699999998
 30
0.0
 40
1.399999999999999
  1
5
100
AcDbText
  0
LINE
  5
9901
330
98DF
100
AcDbEntity
  8
4
  6
CENTER
100
AcDbLine
 10
173.7663679999998
 20
350.1037339944149
 30
0.0
 11
173.7663679999998
 21
294.7037479944149
 31
0.0
  0
LINE
  5
9902
330
98DF
100
AcDbEntity
  8
4
  6
CENTER
100
AcDbLine
 10
131.2663679999998
 20
322.4037409944149
 30
0.0
 11
216.266368
 21
322.4037409944149
 31
0.0
  0
LINE
  5
9903
330
98DF
100
AcDbEntity
  8
1
  6
Continuous
100
AcDbLine
 10
143.266368
 20
345.9037409944151
 30
0.0
 11
148.7663639999998
 21
345.9037409944151
 31
0.0
  0
LINE
  5
9904
330
98DF
100
AcDbEntity
  8
4
  6
CENTER
100
AcDbLine
 10
146.266368
 20
342.4037409944151
 30
0.0
 11
146.266368
 21
330.4037409944149
 31
0.0
  0
LINE
  5
9905
330
98DF
100
AcDbEntity
  8
4
  6
CENTER
100
AcDbLine
 10
140.266368
 20
336.4037409944149
 30
0.0
 11
152.2663679999998
 21
336.4037409944149
 31
0.0
  0
LINE
  5
9906
330
98DF
100
AcDbEntity
  8
1
  6
Continuous
100
AcDbLine
 10
148.766375
 20
345.9037639944152
 30
0.0
 11
158.765948
 21
343.321411994415
 31
0.0
  0
LINE
  5
9907
330
98DF
100
AcDbEntity
  8
1
  6
Continuous
100
AcDbLine
 10
204.2663679999999
 20
345.9037409944151
 30
0.0
 11
198.766372
 21
345.9037409944151
 31
0.0
  0
LINE
  5
9908
330
98DF
100
AcDbEntity
  8
4
  6
CENTER
100
AcDbLine
 10
201.266368
 20
342.4037409944151
 30
0.0
 11
201.266368
 21
330.4037409944149
 31
0.0
  0
LINE
  5
9909
330
98DF
100
AcDbEntity
  8
4
  6
CENTER
100
AcDbLine
 10
207.266368
 20
336.4037409944149
 30
0.0
 11
195.266368
 21
336.4037409944149
 31
0.0
  0
LINE
  5
990A
330
98DF
100
AcDbEntity
  8
1
  6
Continuous
100
AcDbLine
 10
198.7663599999999
 20
345.9037869944152
 30
0.0
 11
188.7667839999997
 21
343.321434994415
 31
0.0
  0
LINE
  5
990B
330
98DF
100
AcDbEntity
  8
1
  6
Continuous
100
AcDbLine
 10
143.266368
 20
298.903740994415
 30
0.0
 11
148.7663639999998
 21
298.903740994415
 31
0.0
  0
LINE
  5
990C
330
98DF
100
AcDbEntity
  8
1
  6
Continuous
100
AcDbLine
 10
138.7663679999997
 20
303.403740994415
 30
0.0
 11
138.7663679999997
 21
341.403740994415
 31
0.0
  0
LINE
  5
990D
330
98DF
100
AcDbEntity
  8
4
  6
CENTER
100
AcDbLine
 10
146.266368
 20
302.4037409944151
 30
0.0
 11
146.266368
 21
314.4037409944151
 31
0.0
  0
LINE
  5
990E
330
98DF
100
AcDbEntity
  8
4
  6
CENTER
100
AcDbLine
 10
140.266368
 20
308.4037409944151
 30
0.0
 11
152.2663679999998
 21
308.4037409944151
 31
0.0
  0
LINE
  5
990F
330
98DF
100
AcDbEntity
  8
1
  6
Continuous
100
AcDbLine
 10
148.7663639999998
 20
298.9037519944151
 30
0.0
 11
158.765937
 21
301.4861039944151
 31
0.0
  0
LINE
  5
9910
330
98DF
100
AcDbEntity
  8
1
  6
Continuous
100
AcDbLine
 10
204.2663679999999
 20
298.903740994415
 30
0.0
 11
198.766372
 21
298.903740994415
 31
0.0
  0
LINE
  5
9911
330
98DF
100
AcDbEntity
  8
1
  6
Continuous
100
AcDbLine
 10
208.7663679999999
 20
303.403740994415
 30
0.0
 11
208.7663679999999
 21
341.403740994415
 31
0.0
  0
LINE
  5
9912
330
98DF
100
AcDbEntity
  8
4
  6
CENTER
100
AcDbLine
 10
201.266368
 20
302.4037409944151
 30
0.0
 11
201.266368
 21
314.4037409944151
 31
0.0
  0
LINE
  5
9913
330
98DF
100
AcDbEntity
  8
4
  6
CENTER
100
AcDbLine
 10
207.266368
 20
308.4037409944151
 30
0.0
 11
195.266368
 21
308.4037409944151
 31
0.0
  0
LINE
  5
9914
330
98DF
100
AcDbEntity
  8
1
  6
Continuous
100
AcDbLine
 10
198.766387
 20
298.9037559944151
 30
0.0
 11
188.7668109999999
 21
301.486107994415
 31
0.0
  0
LINE
  5
9915
330
98DF
100
AcDbEntity
  8
4
  6
CENTER
100
AcDbLine
 10
53.76636799999999
 20
245.4037409944149
 30
0.0
 11
53.76636799999999
 21
145.903740994415
 31
0.0
  0
LINE
  5
9916
330
98DF
100
AcDbEntity
  8
1
  6
Continuous
100
AcDbLine
 10
77.266368
 20
240.4037409944151
 30
0.0
 11
77.266368
 21
238.1037409944151
 31
0.0
  0
LINE
  5
9917
330
98DF
100
AcDbEntity
  8
1
  6
Continuous
100
AcDbLine
 10
76.33939999999999
 20
225.9033339944149
 30
0.0
 11
76.19542999999999
 21
209.593784994415
 31
0.0
  0
LINE
  5
9918
330
98DF
100
AcDbEntity
  8
1
  6
Continuous
100
AcDbLine
 10
69.81383000000001
 20
178.5150119944151
 30
0.0
 11
72.11380300000001
 21
178.5266959944151
 31
0.0
  0
LINE
  5
9919
330
98DF
100
AcDbEntity
  8
1
  6
Continuous
100
AcDbLine
 10
70.27563800000002
 20
202.0900889944151
 30
0.0
 11
70.67809599999998
 21
202.6637549944152
 31
0.0
  0
LINE
  5
991A
330
98DF
100
AcDbEntity
  8
1
  6
Continuous
100
AcDbLine
 10
30.266368
 20
240.4037409944151
 30
0.0
 11
77.266368
 21
240.4037409944151
 31
0.0
  0
LINE
  5
991B
330
98DF
100
AcDbEntity
  8
1
  6
Continuous
100
AcDbLine
 10
30.266368
 20
238.1037409944151
 30
0.0
 11
77.266368
 21
238.1037409944151
 31
0.0
  0
LINE
  5
991C
330
98DF
100
AcDbEntity
  8
1
  6
Continuous
100
AcDbLine
 10
30.266368
 20
240.4037409944151
 30
0.0
 11
30.266368
 21
238.1037409944151
 31
0.0
  0
LINE
  5
991D
330
98DF
100
AcDbEntity
  8
1
  6
Continuous
100
AcDbLine
 10
72.12830600000002
 20
207.3639729944151
 30
0.0
 11
71.86783100000003
 21
238.1037409944151
 31
0.0
  0
LINE
  5
991E
330
98DF
100
AcDbEntity
  8
1
  6
Continuous
100
AcDbLine
 10
73.06725599999999
 20
206.5945249944151
 30
0.0
 11
75.20654200000001
 21
235.2027759944151
 31
0.0
  0
LINE
  5
991F
330
98DF
100
AcDbEntity
  8
1
  6
Continuous
100
AcDbLine
 10
77.26640600000002
 20
238.1037359944151
 30
0.0
 11
74.86042299999997
 21
206.4381229944151
 31
0.0
  0
LINE
  5
9920
330
98DF
100
AcDbEntity
  8
1
  6
Continuous
100
AcDbLine
 10
38.266368
 20
236.6037409944151
 30
0.0
 11
69.266369
 21
236.6037409944151
 31
0.0
  0
LINE
  5
9921
330
98DF
100
AcDbEntity
  8
1
  6
Continuous
100
AcDbLine
 10
31.19328799999999
 20
225.9033279944151
 30
0.0
 11
31.33724799999999
 21
209.5937739944151
 31
0.0
  0
LINE
  5
9922
330
98DF
100
AcDbEntity
  8
1
  6
Continuous
100
AcDbLine
 10
37.71887800000001
 20
178.514999994415
 30
0.0
 11
35.41890799999999
 21
178.5266849944151
 31
0.0
  0
LINE
  5
9923
330
98DF
100
AcDbEntity
  8
1
  6
Continuous
100
AcDbLine
 10
37.25705800000004
 20
202.0900809944151
 30
0.0
 11
36.85459799999995
 21
202.6637509944151
 31
0.0
  0
LINE
  5
9924
330
98DF
100
AcDbEntity
  8
1
  6
Continuous
100
AcDbLine
 10
35.40439800000001
 20
207.3639579944151
 30
0.0
 11
35.66487799999999
 21
238.1037399944149
 31
0.0
  0
LINE
  5
9925
330
98DF
100
AcDbEntity
  8
1
  6
Continuous
100
AcDbLine
 10
34.46542799999997
 20
206.5945059944151
 30
0.0
 11
32.32614799999999
 21
235.2027729944151
 31
0.0
  0
LINE
  5
9926
330
98DF
100
AcDbEntity
  8
1
  6
Continuous
100
AcDbLine
 10
30.26628799999997
 20
238.1037339944149
 30
0.0
 11
32.67226800000003
 21
206.4381079944151
 31
0.0
  0
LINE
  5
9927
330
98DF
100
AcDbEntity
  8
4
  6
CENTER
100
AcDbLine
 10
173.7663679999998
 20
245.4037409944149
 30
0.0
 11
173.7663679999998
 21
145.903740994415
 31
0.0
  0
LINE
  5
9928
330
98DF
100
AcDbEntity
  8
1
  6
Continuous
100
AcDbLine
 10
208.7663679999999
 20
240.4037409944151
 30
0.0
 11
208.7663679999999
 21
238.1037409944151
 31
0.0
  0
LINE
  5
9929
330
98DF
100
AcDbEntity
  8
1
  6
Continuous
100
AcDbLine
 10
208.7663679999999
 20
238.1037409944151
 30
0.0
 11
199.3704789999999
 21
238.1037409944151
 31
0.0
  0
LINE
  5
992A
330
98DF
100
AcDbEntity
  8
4
  6
CENTER
100
AcDbLine
 10
201.266368
 20
245.4037409944149
 30
0.0
 11
201.266368
 21
233.5687419944151
 31
0.0
  0
LINE
  5
992B
330
98DF
100
AcDbEntity
  8
1
  6
Continuous
100
AcDbLine
 10
138.7663679999997
 20
240.4037409944151
 30
0.0
 11
208.7663679999999
 21
240.4037409944151
 31
0.0
  0
LINE
  5
992C
330
98DF
100
AcDbEntity
  8
1
  6
Continuous
100
AcDbLine
 10
138.7663679999997
 20
240.4037409944151
 30
0.0
 11
138.7663679999997
 21
238.1037409944151
 31
0.0
  0
LINE
  5
992D
330
98DF
100
AcDbEntity
  8
1
  6
Continuous
100
AcDbLine
 10
138.7663679999997
 20
238.1037409944151
 30
0.0
 11
148.162257
 21
238.1037409944151
 31
0.0
  0
LINE
  5
992E
330
98DF
100
AcDbEntity
  8
4
  6
CENTER
100
AcDbLine
 10
146.266368
 20
245.4037409944149
 30
0.0
 11
146.266368
 21
233.1037409944151
 31
0.0
  0
LINE
  5
992F
330
98DF
100
AcDbEntity
  8
1
  6
Continuous
100
AcDbLine
 10
161.2663679999998
 20
234.9037409944149
 30
0.0
 11
161.2663679999998
 21
203.903740994415
 31
0.0
  0
LINE
  5
9930
330
98DF
100
AcDbEntity
  8
1
  6
Continuous
100
AcDbLine
 10
186.2663679999998
 20
234.9037409944149
 30
0.0
 11
186.2663679999998
 21
203.903740994415
 31
0.0
  0
LINE
  5
9931
330
98DF
100
AcDbEntity
  8
1
  6
Continuous
100
AcDbLine
 10
183.406425
 20
185.744938994415
 30
0.0
 11
197.8743469999997
 21
238.2013859944151
 31
0.0
  0
LINE
  5
9932
330
98DF
100
AcDbEntity
  8
1
  6
Continuous
100
AcDbLine
 10
164.1263059999998
 20
185.7449349944151
 30
0.0
 11
149.6583829999998
 21
238.2013839944151
 31
0.0
  0
LINE
  5
9933
330
98DF
100
AcDbEntity
  8
4
  6
CENTER
100
AcDbLine
 10
131.2663679999998
 20
187.9037409944151
 30
0.0
 11
216.266368
 21
187.9037409944151
 31
0.0
  0
LINE
  5
9934
330
98DF
100
AcDbEntity
  8
4
  6
CENTER
100
AcDbLine
 10
28.46636799999998
 20
187.9037409944151
 30
0.0
 11
80.26635999999994
 21
187.9037409944151
 31
0.0
  0
LINE
  5
9935
330
98DF
100
AcDbEntity
  8
1
  6
Continuous
100
AcDbLine
 10
37.766368
 20
183.9037409944151
 30
0.0
 11
38.76636799999999
 21
183.9037409944151
 31
0.0
  0
LINE
  5
9936
330
98DF
100
AcDbEntity
  8
1
  6
Continuous
100
AcDbLine
 10
37.766368
 20
191.9037409944151
 30
0.0
 11
38.76636799999999
 21
191.9037409944151
 31
0.0
  0
LINE
  5
9937
330
98DF
100
AcDbEntity
  8
1
  6
Continuous
100
AcDbLine
 10
35.01736799999997
 20
193.5794269944151
 30
0.0
 11
35.41890799999999
 21
192.0808709944149
 31
0.0
  0
LINE
  5
9938
330
98DF
100
AcDbEntity
  8
1
  6
Continuous
100
AcDbLine
 10
35.017378
 20
182.228069994415
 30
0.0
 11
35.41890799999999
 21
183.7266199944149
 31
0.0
  0
LINE
  5
9939
330
98DF
100
AcDbEntity
  8
1
  6
Continuous
100
AcDbLine
 10
72.06636299999995
 20
193.9037409944151
 30
0.0
 11
73.26635999999997
 21
193.9037409944151
 31
0.0
  0
LINE
  5
993A
330
98DF
100
AcDbEntity
  8
1
  6
Continuous
100
AcDbLine
 10
72.06636299999995
 20
181.9037409944151
 30
0.0
 11
73.26635999999997
 21
181.9037409944151
 31
0.0
  0
LINE
  5
993B
330
98DF
100
AcDbEntity
  8
1
  6
Continuous
100
AcDbLine
 10
75.26635999999995
 20
191.9037409944151
 30
0.0
 11
75.26635999999995
 21
183.9037409944151
 31
0.0
  0
LINE
  5
993C
330
98DF
100
AcDbEntity
  8
1
  6
Continuous
100
AcDbLine
 10
33.46636799999998
 20
192.0803079944149
 30
0.0
 11
33.46636799999998
 21
183.7271969944151
 31
0.0
  0
LINE
  5
993D
330
98DF
100
AcDbEntity
  8
1
  6
Continuous
100
AcDbLine
 10
35.01733799999999
 20
182.2280589944151
 30
0.0
 11
35.01733799999999
 21
193.5794379944151
 31
0.0
  0
LINE
  5
993E
330
98DF
100
AcDbEntity
  8
1
  6
Continuous
100
AcDbLine
 10
68.76636799999999
 20
191.9037409944151
 30
0.0
 11
69.766368
 21
191.9037409944151
 31
0.0
  0
LINE
  5
993F
330
98DF
100
AcDbEntity
  8
1
  6
Continuous
100
AcDbLine
 10
68.76636799999999
 20
183.9037409944151
 30
0.0
 11
69.766368
 21
183.9037409944151
 31
0.0
  0
LINE
  5
9940
330
98DF
100
AcDbEntity
  8
4
  6
CENTER
100
AcDbLine
 10
39.76636799999999
 20
245.4037409944149
 30
0.0
 11
39.76636799999999
 21
233.1037409944151
 31
0.0
  0
LINE
  5
9941
330
98DF
100
AcDbEntity
  8
4
  6
CENTER
100
AcDbLine
 10
67.766368
 20
245.4037409944149
 30
0.0
 11
67.766368
 21
233.1037409944151
 31
0.0
  0
CIRCLE
  5
9942
330
98DF
100
AcDbEntity
  8
1
  6
Continuous
100
AcDbCircle
 10
146.266368
 20
336.4037409944149
 30
0.0
 40
4.4
  0
ARC
  5
9943
330
98DF
100
AcDbEntity
  8
1
  6
Continuous
100
AcDbCircle
 10
161.2663679999998
 20
353.0037409944152
 30
0.0
 40
10.0
100
AcDbArc
 50
255.51994
 51
289.07327
  0
ARC
  5
9944
330
98DF
100
AcDbEntity
  8
1
  6
Continuous
100
AcDbCircle
 10
173.7663679999998
 20
316.8513269944151
 30
0.0
 40
28.252407
100
AcDbArc
 50
70.92675300000002
 51
109.07327
  0
CIRCLE
  5
9945
330
98DF
100
AcDbEntity
  8
1
  6
Continuous
100
AcDbCircle
 10
201.266368
 20
336.4037409944149
 30
0.0
 40
4.4
  0
ARC
  5
9946
330
98DF
100
AcDbEntity
  8
1
  6
Continuous
100
AcDbCircle
 10
186.2663679999998
 20
353.0037409944152
 30
0.0
 40
10.0
100
AcDbArc
 50
250.9267100000001
 51
284.48004
  0
ARC
  5
9947
330
98DF
100
AcDbEntity
  8
1
  6
Continuous
100
AcDbCircle
 10
143.266368
 20
303.403740994415
 30
0.0
 40
4.5
100
AcDbArc
 50
179.9999799999999
 51
269.99997
  0
CIRCLE
  5
9948
330
98DF
100
AcDbEntity
  8
1
  6
Continuous
100
AcDbCircle
 10
146.266368
 20
308.4037409944151
 30
0.0
 40
4.4
  0
ARC
  5
9949
330
98DF
100
AcDbEntity
  8
1
  6
Continuous
100
AcDbCircle
 10
161.2663679999998
 20
291.8037429944151
 30
0.0
 40
10.0
100
AcDbArc
 50
70.92667900000002
 51
104.4799999999999
  0
ARC
  5
994A
330
98DF
100
AcDbEntity
  8
1
  6
Continuous
100
AcDbCircle
 10
173.7663679999998
 20
327.9561549944152
 30
0.0
 40
28.252407
100
AcDbArc
 50
250.92667
 51
289.0732709999998
  0
ARC
  5
994B
330
98DF
100
AcDbEntity
  8
1
  6
Continuous
100
AcDbCircle
 10
204.2663679999999
 20
303.403740994415
 30
0.0
 40
4.5
100
AcDbArc
 50
269.9999599999998
 51
359.99995
  0
CIRCLE
  5
994C
330
98DF
100
AcDbEntity
  8
1
  6
Continuous
100
AcDbCircle
 10
201.266368
 20
308.4037409944151
 30
0.0
 40
4.4
  0
ARC
  5
994D
330
98DF
100
AcDbEntity
  8
1
  6
Continuous
100
AcDbCircle
 10
186.2663679999998
 20
291.8037429944151
 30
0.0
 40
10.0
100
AcDbArc
 50
75.51989899999998
 51
109.0732199999999
  0
CIRCLE
  5
994E
330
98DF
100
AcDbEntity
  8
1
  6
Continuous
100
AcDbCircle
 10
173.7663679999998
 20
322.4037409944149
 30
0.0
 40
6.5
  0
CIRCLE
  5
994F
330
98DF
100
AcDbEntity
  8
1
  6
Continuous
100
AcDbCircle
 10
173.7663679999998
 20
322.4037409944149
 30
0.0
 40
16.5
  0
CIRCLE
  5
9950
330
98DF
100
AcDbEntity
  8
1
  6
Continuous
100
AcDbCircle
 10
173.7663679999998
 20
322.4037409944149
 30
0.0
 40
13.5
  0
ARC
  5
9951
330
98DF
100
AcDbEntity
  8
1
  6
Continuous
100
AcDbCircle
 10
69.266368
 20
240.3537409944151
 30
0.0
 40
3.75
100
AcDbArc
 50
270.00002
 51
314.0060199999999
  0
ARC
  5
9952
330
98DF
100
AcDbEntity
  8
1
  6
Continuous
100
AcDbCircle
 10
66.195796
 20
209.6820419944151
 30
0.0
 40
10.0
100
AcDbArc
 50
326.18417
 51
359.49425
  0
ARC
  5
9953
330
98DF
100
AcDbEntity
  8
1
  6
Continuous
100
AcDbCircle
 10
82.01291999999998
 20
198.4125259944151
 30
0.0
 40
12.3
100
AcDbArc
 50
162.6029799999997
 51
180.2910299999997
  0
ARC
  5
9954
330
98DF
100
AcDbEntity
  8
1
  6
Continuous
100
AcDbCircle
 10
79.19134099999997
 20
234.8551749944151
 30
0.0
 40
4.0
100
AcDbArc
 50
125.6943499999997
 51
175.0146499999999
  0
ARC
  5
9955
330
98DF
100
AcDbEntity
  8
1
  6
Continuous
100
AcDbCircle
 10
56.92847699999997
 20
208.002331994415
 30
0.0
 40
18.0
100
AcDbArc
 50
335.8078499999998
 51
355.0146299999998
  0
ARC
  5
9956
330
98DF
100
AcDbEntity
  8
1
  6
Continuous
100
AcDbCircle
 10
87.03029200000003
 20
194.4790089944151
 30
0.0
 40
15.0
100
AcDbArc
 50
155.80787
 51
173.9503449999999
  0
ARC
  5
9957
330
98DF
100
AcDbEntity
  8
1
  6
Continuous
100
AcDbCircle
 10
87.03029200000003
 20
194.4790089944151
 30
0.0
 40
17.299999
100
AcDbArc
 50
153.5063199999999
 51
174.367208
  0
ARC
  5
9958
330
98DF
100
AcDbEntity
  8
1
  6
Continuous
100
AcDbCircle
 10
55.43738100000002
 20
210.2263039944151
 30
0.0
 40
18.0
100
AcDbArc
 50
333.5063
 51
348.3597299999999
  0
ARC
  5
9959
330
98DF
100
AcDbEntity
  8
1
  6
Continuous
100
AcDbCircle
 10
64.12894699999998
 20
207.2583089944149
 30
0.0
 40
8.0
100
AcDbArc
 50
324.94833
 51
0.7565820000000001
  0
ARC
  5
995A
330
98DF
100
AcDbEntity
  8
1
  6
Continuous
100
AcDbCircle
 10
38.266368
 20
240.3537409944151
 30
0.0
 40
3.75
100
AcDbArc
 50
225.99396
 51
269.9999599999998
  0
ARC
  5
995B
330
98DF
100
AcDbEntity
  8
1
  6
Continuous
100
AcDbCircle
 10
41.33694000000002
 20
209.6820419944151
 30
0.0
 40
10.0
100
AcDbArc
 50
180.5057299999998
 51
213.81581
  0
ARC
  5
995C
330
98DF
100
AcDbEntity
  8
1
  6
Continuous
100
AcDbCircle
 10
25.51981799999998
 20
198.4125259944151
 30
0.0
 40
12.3
100
AcDbArc
 50
359.7089399999999
 51
17.39698399999999
  0
ARC
  5
995D
330
98DF
100
AcDbEntity
  8
1
  6
Continuous
100
AcDbCircle
 10
28.34139799999997
 20
234.8551749944151
 30
0.0
 40
4.0
100
AcDbArc
 50
4.985313999999998
 51
54.305618
  0
ARC
  5
995E
330
98DF
100
AcDbEntity
  8
1
  6
Continuous
100
AcDbCircle
 10
50.60425900000002
 20
208.002331994415
 30
0.0
 40
18.0
100
AcDbArc
 50
184.9853499999999
 51
204.1921299999999
  0
ARC
  5
995F
330
98DF
100
AcDbEntity
  8
1
  6
Continuous
100
AcDbCircle
 10
20.50244800000001
 20
194.4790089944151
 30
0.0
 40
15.0
100
AcDbArc
 50
6.0498
 51
24.192093
  0
ARC
  5
9960
330
98DF
100
AcDbEntity
  8
1
  6
Continuous
100
AcDbCircle
 10
20.50244800000001
 20
194.4790089944151
 30
0.0
 40
17.299999
100
AcDbArc
 50
5.632926999999997
 51
26.49364799999998
  0
ARC
  5
9961
330
98DF
100
AcDbEntity
  8
1
  6
Continuous
100
AcDbCircle
 10
52.09535499999998
 20
210.2263039944151
 30
0.0
 40
18.0
100
AcDbArc
 50
191.64025
 51
206.49368
  0
ARC
  5
9962
330
98DF
100
AcDbEntity
  8
1
  6
Continuous
100
AcDbCircle
 10
43.40378900000001
 20
207.2583089944149
 30
0.0
 40
8.0
100
AcDbArc
 50
179.2433799999997
 51
215.05163
  0
ARC
  5
9963
330
98DF
100
AcDbEntity
  8
1
  6
Continuous
100
AcDbCircle
 10
200.7663679999998
 20
237.4037409944151
 30
0.0
 40
3.0
100
AcDbArc
 50
89.99998199999996
 51
164.58073
  0
ARC
  5
9964
330
98DF
100
AcDbEntity
  8
1
  6
Continuous
100
AcDbCircle
 10
146.766368
 20
237.4037409944151
 30
0.0
 40
3.0
100
AcDbArc
 50
15.419304
 51
89.99998199999996
  0
ARC
  5
9965
330
98DF
100
AcDbEntity
  8
1
  6
Continuous
100
AcDbCircle
 10
173.7663679999998
 20
191.9037409944151
 30
0.0
 40
15.0
100
AcDbArc
 50
39.94450399999997
 51
140.05546
  0
ARC
  5
9966
330
98DF
100
AcDbEntity
  8
1
  6
Continuous
100
AcDbCircle
 10
173.7663679999998
 20
187.0037389944151
 30
0.0
 40
14.0
100
AcDbArc
 50
47.26789
 51
132.73208
  0
ARC
  5
9967
330
98DF
100
AcDbEntity
  8
1
  6
Continuous
100
AcDbCircle
 10
173.7663679999998
 20
188.4037409944151
 30
0.0
 40
10.0
100
AcDbArc
 50
195.41928
 51
344.5806999999998
  0
ARC
  5
9968
330
98DF
100
AcDbEntity
  8
1
  6
Continuous
100
AcDbCircle
 10
148.162257
 20
236.1037409944151
 30
0.0
 40
2.0
100
AcDbArc
 50
15.41928399999999
 51
89.99998199999996
  0
ARC
  5
9969
330
98DF
100
AcDbEntity
  8
1
  6
Continuous
100
AcDbCircle
 10
199.3704789999999
 20
236.1037409944151
 30
0.0
 40
2.0
100
AcDbArc
 50
89.99998199999996
 51
164.5807199999999
  0
CIRCLE
  5
996A
330
98DF
100
AcDbEntity
  8
1
  6
Continuous
100
AcDbCircle
 10
173.7663679999998
 20
187.9037409944151
 30
0.0
 40
6.0
  0
CIRCLE
  5
996B
330
98DF
100
AcDbEntity
  8
1
  6
Continuous
100
AcDbCircle
 10
173.7663679999998
 20
187.9037409944151
 30
0.0
 40
2.0
  0
CIRCLE
  5
996C
330
98DF
100
AcDbEntity
  8
1
  6
Continuous
100
AcDbCircle
 10
173.7663679999998
 20
187.9037409944151
 30
0.0
 40
1.5
  0
ARC
  5
996D
330
98DF
100
AcDbEntity
  8
1
  6
Continuous
100
AcDbCircle
 10
73.26635999999997
 20
191.9037409944151
 30
0.0
 40
2.0
100
AcDbArc
 50
0.0
 51
89.99998199999996
  0
ARC
  5
996E
330
98DF
100
AcDbEntity
  8
1
  6
Continuous
100
AcDbCircle
 10
34.96636799999999
 20
183.7271969944151
 30
0.0
 40
1.5
100
AcDbArc
 50
179.9999799999999
 51
271.94882
  0
ARC
  5
996F
330
98DF
100
AcDbEntity
  8
1
  6
Continuous
100
AcDbCircle
 10
73.26635999999997
 20
183.9037409944151
 30
0.0
 40
2.0
100
AcDbArc
 50
270.00002
 51
0.0
  0
ARC
  5
9970
330
98DF
100
AcDbEntity
  8
1
  6
Continuous
100
AcDbCircle
 10
34.96636799999999
 20
192.0803079944149
 30
0.0
 40
1.5
100
AcDbArc
 50
88.051186
 51
179.9999599999999
  0
ARC
  5
9971
330
98DF
100
AcDbEntity
  8
1
  6
Continuous
100
AcDbCircle
 10
204.2663679999999
 20
341.403740994415
 30
0.0
 40
4.5
100
AcDbArc
 50
0.0
 51
90.0
  0
ARC
  5
9972
330
98DF
100
AcDbEntity
  8
1
  6
Continuous
100
AcDbCircle
 10
143.266368
 20
341.403740994415
 30
0.0
 40
4.5
100
AcDbArc
 50
90.0
 51
180.0
  0
LINE
  5
9973
330
98DF
100
AcDbEntity
  8
4
  6
CENTER
100
AcDbLine
 10
173.7663679999998
 20
40.70374799441515
 30
0.0
 11
173.7663679999998
 21
96.10373399441506
 31
0.0
  0
LINE
  5
9974
330
98DF
100
AcDbEntity
  8
1
  6
Continuous
100
AcDbLine
 10
208.7663679999999
 20
87.40374099441517
 30
0.0
 11
208.7663679999999
 21
80.88688899441505
 31
0.0
  0
LINE
  5
9975
330
98DF
100
AcDbEntity
  8
1
  6
Continuous
100
AcDbLine
 10
138.7663679999997
 20
87.40374099441517
 30
0.0
 11
138.7663679999997
 21
80.88688899441505
 31
0.0
  0
LINE
  5
9976
330
98DF
100
AcDbEntity
  8
4
  6
CENTER
100
AcDbLine
 10
131.2663679999998
 20
68.40374099441516
 30
0.0
 11
216.266368
 21
68.40374099441516
 31
0.0
  0
LINE
  5
9977
330
98DF
100
AcDbEntity
  8
1
  6
Continuous
100
AcDbLine
 10
198.766387
 20
91.90372599441507
 30
0.0
 11
188.7668109999999
 21
89.32137399441506
 31
0.0
  0
ARC
  5
9978
330
98DF
100
AcDbEntity
  8
1
  6
Continuous
100
AcDbCircle
 10
161.2663679999998
 20
99.00373899441508
 30
0.0
 40
10.0
100
AcDbArc
 50
255.5200000000001
 51
289.073321
  0
LINE
  5
9979
330
98DF
100
AcDbEntity
  8
4
  6
CENTER
100
AcDbLine
 10
146.266368
 20
88.40374099441515
 30
0.0
 11
146.266368
 21
76.40374099441515
 31
0.0
  0
ARC
  5
997A
330
98DF
100
AcDbEntity
  8
1
  6
Continuous
100
AcDbCircle
 10
146.266368
 20
82.40374099441517
 30
0.0
 40
4.4
100
AcDbArc
 50
340.0677299999998
 51
199.93227
  0
LINE
  5
997B
330
98DF
100
AcDbEntity
  8
1
  6
Continuous
100
AcDbLine
 10
143.266368
 20
91.90374099441518
 30
0.0
 11
148.7663639999998
 21
91.90374099441518
 31
0.0
  0
ARC
  5
997C
330
98DF
100
AcDbEntity
  8
1
  6
Continuous
100
AcDbCircle
 10
143.266368
 20
87.40374099441517
 30
0.0
 40
4.5
100
AcDbArc
 50
90.00003000000004
 51
180.00002
  0
LINE
  5
997D
330
98DF
100
AcDbEntity
  8
1
  6
Continuous
100
AcDbLine
 10
148.7663639999998
 20
91.90372999441507
 30
0.0
 11
158.765937
 21
89.32137799441514
 31
0.0
  0
LINE
  5
997E
330
98DF
100
AcDbEntity
  8
4
  6
CENTER
100
AcDbLine
 10
140.266368
 20
82.40374099441517
 30
0.0
 11
152.2663679999998
 21
82.40374099441517
 31
0.0
  0
ARC
  5
997F
330
98DF
100
AcDbEntity
  8
1
  6
Continuous
100
AcDbCircle
 10
173.7663679999998
 20
62.85132699441515
 30
0.0
 40
28.252407
100
AcDbArc
 50
70.92678599999998
 51
109.0733299999999
  0
ARC
  5
9980
330
98DF
100
AcDbEntity
  8
1
  6
Continuous
100
AcDbCircle
 10
186.2663679999998
 20
99.00373899441508
 30
0.0
 40
10.0
100
AcDbArc
 50
279.6613759999999
 51
284.4801009999999
  0
LINE
  5
9981
330
98DF
100
AcDbEntity
  8
4
  6
CENTER
100
AcDbLine
 10
201.266368
 20
88.40374099441515
 30
0.0
 11
201.266368
 21
76.40374099441515
 31
0.0
  0
ARC
  5
9982
330
98DF
100
AcDbEntity
  8
1
  6
Continuous
100
AcDbCircle
 10
201.266368
 20
82.40374099441517
 30
0.0
 40
4.4
100
AcDbArc
 50
340.0677299999998
 51
199.93227
  0
ARC
  5
9983
330
98DF
100
AcDbEntity
  8
1
  6
Continuous
100
AcDbCircle
 10
204.2663679999999
 20
87.40374099441517
 30
0.0
 40
4.5
100
AcDbArc
 50
0.00005
 51
90.00004000000002
  0
LINE
  5
9984
330
98DF
100
AcDbEntity
  8
1
  6
Continuous
100
AcDbLine
 10
204.2663679999999
 20
91.90374099441518
 30
0.0
 11
198.766372
 21
91.90374099441518
 31
0.0
  0
LINE
  5
9985
330
98DF
100
AcDbEntity
  8
4
  6
CENTER
100
AcDbLine
 10
207.266368
 20
82.40374099441517
 30
0.0
 11
195.266368
 21
82.40374099441517
 31
0.0
  0
LINE
  5
9986
330
98DF
100
AcDbEntity
  8
1
  6
Continuous
100
AcDbLine
 10
198.7663599999999
 20
44.90369499441515
 30
0.0
 11
188.7667839999997
 21
47.48604699441516
 31
0.0
  0
ARC
  5
9987
330
98DF
100
AcDbEntity
  8
1
  6
Continuous
100
AcDbCircle
 10
161.2663679999998
 20
37.80374099441516
 30
0.0
 40
10.0
100
AcDbArc
 50
70.92673000000002
 51
104.48006
  0
LINE
  5
9988
330
98DF
100
AcDbEntity
  8
1
  6
Continuous
100
AcDbLine
 10
143.266368
 20
44.90374099441516
 30
0.0
 11
148.7663639999998
 21
44.90374099441516
 31
0.0
  0
LINE
  5
9989
330
98DF
100
AcDbEntity
  8
4
  6
CENTER
100
AcDbLine
 10
140.266368
 20
54.40374099441513
 30
0.0
 11
152.2663679999998
 21
54.40374099441513
 31
0.0
  0
ARC
  5
998A
330
98DF
100
AcDbEntity
  8
1
  6
Continuous
100
AcDbCircle
 10
146.266368
 20
54.40374099441513
 30
0.0
 40
4.4
100
AcDbArc
 50
160.06773
 51
19.93227
  0
ARC
  5
998B
330
98DF
100
AcDbEntity
  8
1
  6
Continuous
100
AcDbCircle
 10
143.266368
 20
49.40374099441513
 30
0.0
 40
4.5
100
AcDbArc
 50
180.0
 51
270.0
  0
LINE
  5
998C
330
98DF
100
AcDbEntity
  8
1
  6
Continuous
100
AcDbLine
 10
148.766375
 20
44.90371799441516
 30
0.0
 11
158.765948
 21
47.48606999441514
 31
0.0
  0
LINE
  5
998D
330
98DF
100
AcDbEntity
  8
4
  6
CENTER
100
AcDbLine
 10
146.266368
 20
48.40374099441516
 30
0.0
 11
146.266368
 21
60.40374099441514
 31
0.0
  0
ARC
  5
998E
330
98DF
100
AcDbEntity
  8
1
  6
Continuous
100
AcDbCircle
 10
173.7663679999998
 20
73.95615499441515
 30
0.0
 40
28.252407
100
AcDbArc
 50
250.92673
 51
289.0732469999998
  0
ARC
  5
998F
330
98DF
100
AcDbEntity
  8
1
  6
Continuous
100
AcDbCircle
 10
186.2663679999998
 20
37.80374099441516
 30
0.0
 40
10.0
100
AcDbArc
 50
75.51995999999999
 51
109.0732899999999
  0
ARC
  5
9990
330
98DF
100
AcDbEntity
  8
1
  6
Continuous
100
AcDbCircle
 10
204.2663679999999
 20
49.40374099441513
 30
0.0
 40
4.5
100
AcDbArc
 50
270.0
 51
0.0
  0
LINE
  5
9991
330
98DF
100
AcDbEntity
  8
1
  6
Continuous
100
AcDbLine
 10
204.2663679999999
 20
44.90374099441516
 30
0.0
 11
198.766372
 21
44.90374099441516
 31
0.0
  0
LINE
  5
9992
330
98DF
100
AcDbEntity
  8
4
  6
CENTER
100
AcDbLine
 10
207.266368
 20
54.40374099441513
 30
0.0
 11
195.266368
 21
54.40374099441513
 31
0.0
  0
ARC
  5
9993
330
98DF
100
AcDbEntity
  8
1
  6
Continuous
100
AcDbCircle
 10
201.266368
 20
54.40374099441513
 30
0.0
 40
4.4
100
AcDbArc
 50
160.06773
 51
19.93227
  0
LINE
  5
9994
330
98DF
100
AcDbEntity
  8
4
  6
CENTER
100
AcDbLine
 10
201.266368
 20
48.40374099441516
 30
0.0
 11
201.266368
 21
60.40374099441514
 31
0.0
  0
ARC
  5
9995
330
98DF
100
AcDbEntity
  8
1
  6
Continuous
100
AcDbCircle
 10
169.589801
 20
49.60374099441516
 30
0.0
 40
1.5
100
AcDbArc
 50
178.051186
 51
269.9999599999998
  0
ARC
  5
9996
330
98DF
100
AcDbEntity
  8
1
  6
Continuous
100
AcDbCircle
 10
177.942912
 20
49.60374099441516
 30
0.0
 40
1.5
100
AcDbArc
 50
269.99998
 51
1.94882
  0
LINE
  5
9997
330
98DF
100
AcDbEntity
  8
1
  6
Continuous
100
AcDbLine
 10
179.44205
 20
49.65471099441518
 30
0.0
 11
168.0906709999999
 21
49.65471099441518
 31
0.0
  0
LINE
  5
9998
330
98DF
100
AcDbEntity
  8
1
  6
Continuous
100
AcDbLine
 10
169.589801
 20
48.10374099441514
 30
0.0
 11
177.942912
 21
48.10374099441514
 31
0.0
  0
LINE
  5
9999
330
98DF
100
AcDbEntity
  8
1
  6
Continuous
100
AcDbLine
 10
179.4420389999999
 20
49.65475099441515
 30
0.0
 11
177.7663639999999
 21
50.10374099441515
 31
0.0
  0
LINE
  5
999A
330
98DF
100
AcDbEntity
  8
1
  6
Continuous
100
AcDbLine
 10
168.0906819999998
 20
49.65474099441515
 30
0.0
 11
169.76636
 21
50.10374099441515
 31
0.0
  0
LINE
  5
999B
330
98DF
100
AcDbEntity
  8
1
  6
Continuous
100
AcDbLine
 10
169.7663679999998
 20
52.40374099441513
 30
0.0
 11
169.7663679999998
 21
53.40374099441515
 31
0.0
  0
LINE
  5
999C
330
98DF
100
AcDbEntity
  8
1
  6
Continuous
100
AcDbLine
 10
177.766368
 20
52.40374099441513
 30
0.0
 11
177.766368
 21
53.40374099441515
 31
0.0
  0
ARC
  5
999D
330
98DF
100
AcDbEntity
  8
1
  6
Continuous
100
AcDbCircle
 10
177.766368
 20
87.90373299441505
 30
0.0
 40
2.0
100
AcDbArc
 50
0.00002
 51
90.0
  0
ARC
  5
999E
330
98DF
100
AcDbEntity
  8
1
  6
Continuous
100
AcDbCircle
 10
169.7663679999998
 20
87.90373299441505
 30
0.0
 40
2.0
100
AcDbArc
 50
90.0
 51
179.999982
  0
LINE
  5
999F
330
98DF
100
AcDbEntity
  8
1
  6
Continuous
100
AcDbLine
 10
177.766368
 20
83.40374099441516
 30
0.0
 11
177.766368
 21
84.40374099441518
 31
0.0
  0
LINE
  5
99A0
330
98DF
100
AcDbEntity
  8
1
  6
Continuous
100
AcDbLine
 10
169.7663679999998
 20
83.40374099441516
 30
0.0
 11
169.7663679999998
 21
84.40374099441518
 31
0.0
  0
LINE
  5
99A1
330
98DF
100
AcDbEntity
  8
1
  6
Continuous
100
AcDbLine
 10
169.7663679999998
 20
89.90373299441506
 30
0.0
 11
177.766368
 21
89.90373299441506
 31
0.0
  0
LINE
  5
99A2
330
98DF
100
AcDbEntity
  8
1
  6
Continuous
100
AcDbLine
 10
179.766368
 20
86.70373599441516
 30
0.0
 11
179.766368
 21
87.90373299441505
 31
0.0
  0
LINE
  5
99A3
330
98DF
100
AcDbEntity
  8
1
  6
Continuous
100
AcDbLine
 10
167.766368
 20
86.70373599441516
 30
0.0
 11
167.766368
 21
87.90373299441505
 31
0.0
  0
LINE
  5
99A4
330
98DF
100
AcDbEntity
  8
1
  6
Continuous
100
AcDbLine
 10
208.7663679999999
 20
55.92059399441517
 30
0.0
 11
208.7663679999999
 21
49.40374099441513
 31
0.0
  0
LINE
  5
99A5
330
98DF
100
AcDbEntity
  8
1
  6
Continuous
100
AcDbLine
 10
138.7663679999997
 20
55.92059399441517
 30
0.0
 11
138.7663679999997
 21
49.40374099441513
 31
0.0
  0
LINE
  5
99A6
330
98DF
100
AcDbEntity
  8
1
  6
Continuous
100
AcDbLine
 10
186.290112
 20
87.7182649944152
 30
0.0
 11
186.5399079999999
 21
88.15940899441519
 31
0.0
  0
LINE
  5
99A7
330
98DF
100
AcDbEntity
  8
1
  6
Continuous
100
AcDbLine
 10
186.2901329999999
 20
85.41826999441507
 30
0.0
 11
186.670433
 21
86.08988699441516
 31
0.0
  0
LINE
  5
99A8
330
98DF
100
AcDbEntity
  8
4
  6
CENTER
100
AcDbLine
 10
413.766368
 20
245.4037409944149
 30
0.0
 11
413.766368
 21
145.903740994415
 31
0.0
  0
LINE
  5
99A9
330
98DF
100
AcDbEntity
  8
4
  6
CENTER
100
AcDbLine
 10
441.2663679999998
 20
245.4037409944149
 30
0.0
 11
441.2663679999998
 21
233.1037409944151
 31
0.0
  0
LINE
  5
99AA
330
98DF
100
AcDbEntity
  8
4
  6
CENTER
100
AcDbLine
 10
386.266368
 20
245.4037409944149
 30
0.0
 11
386.266368
 21
233.1037409944151
 31
0.0
  0
LINE
  5
99AB
330
98DF
100
AcDbEntity
  8
1
  6
Continuous
100
AcDbLine
 10
404.126311
 20
185.744938994415
 30
0.0
 11
389.658389
 21
238.2013859944151
 31
0.0
  0
LINE
  5
99AC
330
98DF
100
AcDbEntity
  8
1
  6
Continuous
100
AcDbLine
 10
448.7663679999998
 20
240.4037409944151
 30
0.0
 11
378.766368
 21
240.4037409944151
 31
0.0
  0
LINE
  5
99AD
330
98DF
100
AcDbEntity
  8
4
  6
CENTER
100
AcDbLine
 10
456.2663679999998
 20
187.9037409944151
 30
0.0
 11
371.2663679999999
 21
187.9037409944151
 31
0.0
  0
LINE
  5
99AE
330
98DF
100
AcDbEntity
  8
1
  6
Continuous
100
AcDbLine
 10
423.40643
 20
185.7449349944151
 30
0.0
 11
437.874353
 21
238.2013839944151
 31
0.0
  0
CIRCLE
  5
99AF
330
98DF
100
AcDbEntity
  8
1
  6
Continuous
100
AcDbCircle
 10
413.766368
 20
187.9037409944151
 30
0.0
 40
6.0
  0
ARC
  5
99B0
330
98DF
100
AcDbEntity
  8
1
  6
Continuous
100
AcDbCircle
 10
413.766368
 20
188.4037409944151
 30
0.0
 40
10.0
100
AcDbArc
 50
195.4193
 51
344.5807199999999
  0
LINE
  5
99B1
330
98DF
100
AcDbEntity
  8
1
  6
Continuous
100
AcDbLine
 10
448.7663679999998
 20
238.1037409944151
 30
0.0
 11
439.370478
 21
238.1037409944151
 31
0.0
  0
LINE
  5
99B2
330
98DF
100
AcDbEntity
  8
1
  6
Continuous
100
AcDbLine
 10
448.7663679999998
 20
240.4037409944151
 30
0.0
 11
448.7663679999998
 21
238.1037409944151
 31
0.0
  0
ARC
  5
99B3
330
98DF
100
AcDbEntity
  8
1
  6
Continuous
100
AcDbCircle
 10
439.370478
 20
236.1037409944151
 30
0.0
 40
2.0
100
AcDbArc
 50
90.00001800000005
 51
164.5807159999999
  0
ARC
  5
99B4
330
98DF
100
AcDbEntity
  8
1
  6
Continuous
100
AcDbCircle
 10
440.7663679999997
 20
237.4037409944151
 30
0.0
 40
3.0
100
AcDbArc
 50
90.00001800000005
 51
164.5806959999999
  0
LINE
  5
99B5
330
98DF
100
AcDbEntity
  8
1
  6
Continuous
100
AcDbLine
 10
401.266368
 20
234.9037409944149
 30
0.0
 11
401.266368
 21
203.903740994415
 31
0.0
  0
LINE
  5
99B6
330
98DF
100
AcDbEntity
  8
1
  6
Continuous
100
AcDbLine
 10
426.2663679999998
 20
234.9037409944149
 30
0.0
 11
426.2663679999998
 21
203.903740994415
 31
0.0
  0
ARC
  5
99B7
330
98DF
100
AcDbEntity
  8
1
  6
Continuous
100
AcDbCircle
 10
413.766368
 20
187.0037389944151
 30
0.0
 40
14.0
100
AcDbArc
 50
47.26791999999996
 51
132.73211
  0
ARC
  5
99B8
330
98DF
100
AcDbEntity
  8
1
  6
Continuous
100
AcDbCircle
 10
413.766368
 20
191.9037409944151
 30
0.0
 40
15.0
100
AcDbArc
 50
39.94454000000001
 51
140.055496
  0
LINE
  5
99B9
330
98DF
100
AcDbEntity
  8
1
  6
Continuous
100
AcDbLine
 10
378.766368
 20
238.1037409944151
 30
0.0
 11
388.162257
 21
238.1037409944151
 31
0.0
  0
ARC
  5
99BA
330
98DF
100
AcDbEntity
  8
1
  6
Continuous
100
AcDbCircle
 10
388.162257
 20
236.1037409944151
 30
0.0
 40
2.0
100
AcDbArc
 50
15.41927999999999
 51
90.00001800000005
  0
ARC
  5
99BB
330
98DF
100
AcDbEntity
  8
1
  6
Continuous
100
AcDbCircle
 10
386.766368
 20
237.4037409944151
 30
0.0
 40
3.0
100
AcDbArc
 50
15.41927
 51
90.00001800000005
  0
LINE
  5
99BC
330
98DF
100
AcDbEntity
  8
1
  6
Continuous
100
AcDbLine
 10
378.766368
 20
240.4037409944151
 30
0.0
 11
378.766368
 21
238.1037409944151
 31
0.0
  0
LINE
  5
99BD
330
98DF
100
AcDbEntity
  8
1
  6
Continuous
100
AcDbLine
 10
162.9829599999998
 20
84.40374099441518
 30
0.0
 11
184.549775
 21
84.40374099441518
 31
0.0
  0
LINE
  5
99BE
330
98DF
100
AcDbEntity
  8
1
  6
Continuous
100
AcDbLine
 10
162.9829809999999
 20
86.70373599441516
 30
0.0
 11
184.549754
 21
86.70373599441516
 31
0.0
  0
ARC
  5
99BF
330
98DF
100
AcDbEntity
  8
1
  6
Continuous
100
AcDbCircle
 10
184.549754
 20
88.70373599441505
 30
0.0
 40
2.0
100
AcDbArc
 50
270.0
 51
330.4794489999999
  0
ARC
  5
99C0
330
98DF
100
AcDbEntity
  8
1
  6
Continuous
100
AcDbCircle
 10
184.549775
 20
86.40374099441517
 30
0.0
 40
2.0
100
AcDbArc
 50
270.0
 51
330.4794489999999
  0
LINE
  5
99C1
330
98DF
100
AcDbEntity
  8
1
  6
Continuous
100
AcDbLine
 10
197.668198
 20
89.56071999441505
 30
0.0
 11
187.910706
 21
87.04088499441516
 31
0.0
  0
ARC
  5
99C2
330
98DF
100
AcDbEntity
  8
1
  6
Continuous
100
AcDbCircle
 10
188.4107909999999
 20
85.10441499441506
 30
0.0
 40
2.0
100
AcDbArc
 50
104.4800509999999
 51
150.4794489999999
  0
ARC
  5
99C3
330
98DF
100
AcDbEntity
  8
1
  6
Continuous
100
AcDbCircle
 10
196.9497889999999
 20
93.73052999441515
 30
0.0
 40
4.231244999999998
100
AcDbArc
 50
279.775418
 51
334.422093
  0
ARC
  5
99C4
330
98DF
100
AcDbEntity
  8
1
  6
Continuous
100
AcDbCircle
 10
188.2802659999999
 20
87.17393699441506
 30
0.0
 40
2.0
100
AcDbArc
 50
99.66137600000001
 51
150.4794489999999
  0
ARC
  5
99C5
330
98DF
100
AcDbEntity
  8
1
  6
Continuous
100
AcDbCircle
 10
186.2663679999998
 20
99.00373899441508
 30
0.0
 40
10.0
100
AcDbArc
 50
250.9266789999998
 51
284.48
  0
ARC
  5
99C6
330
98DF
100
AcDbEntity
  8
1
  6
Continuous
100
AcDbCircle
 10
150.5829459999999
 20
93.73052999441515
 30
0.0
 40
4.231244999999998
100
AcDbArc
 50
205.577907
 51
260.2245819999998
  0
LINE
  5
99C7
330
98DF
100
AcDbEntity
  8
1
  6
Continuous
100
AcDbLine
 10
149.864537
 20
89.56071999441505
 30
0.0
 11
159.6220289999999
 21
87.04088499441516
 31
0.0
  0
ARC
  5
99C8
330
98DF
100
AcDbEntity
  8
1
  6
Continuous
100
AcDbCircle
 10
159.2524689999999
 20
87.17393699441506
 30
0.0
 40
2.0
100
AcDbArc
 50
29.52055099999999
 51
80.33862399999998
  0
ARC
  5
99C9
330
98DF
100
AcDbEntity
  8
1
  6
Continuous
100
AcDbCircle
 10
162.9829809999999
 20
88.70373599441505
 30
0.0
 40
2.0
100
AcDbArc
 50
209.5205509999999
 51
270.0
  0
ARC
  5
99CA
330
98DF
100
AcDbEntity
  8
1
  6
Continuous
100
AcDbCircle
 10
159.1219439999998
 20
85.10441499441506
 30
0.0
 40
2.0
100
AcDbArc
 50
29.52055099999999
 51
75.51994899999998
  0
LINE
  5
99CB
330
98DF
100
AcDbEntity
  8
1
  6
Continuous
100
AcDbLine
 10
161.242602
 20
85.41826999441507
 30
0.0
 11
160.862302
 21
86.08988699441516
 31
0.0
  0
ARC
  5
99CC
330
98DF
100
AcDbEntity
  8
1
  6
Continuous
100
AcDbCircle
 10
162.9829599999998
 20
86.40374099441517
 30
0.0
 40
2.0
100
AcDbArc
 50
209.5205509999999
 51
270.0
  0
LINE
  5
99CD
330
98DF
100
AcDbEntity
  8
1
  6
Continuous
100
AcDbLine
 10
161.242623
 20
87.7182649944152
 30
0.0
 11
160.992827
 21
88.15940899441519
 31
0.0
  0
ARC
  5
99CE
330
98DF
100
AcDbEntity
  8
1
  6
Continuous
100
AcDbCircle
 10
196.9497889999999
 20
43.07695199441514
 30
0.0
 40
4.231244999999998
100
AcDbArc
 50
25.57790699999999
 51
80.224582
  0
LINE
  5
99CF
330
98DF
100
AcDbEntity
  8
1
  6
Continuous
100
AcDbLine
 10
197.668198
 20
47.24676299441515
 30
0.0
 11
187.910706
 21
49.76659799441517
 31
0.0
  0
ARC
  5
99D0
330
98DF
100
AcDbEntity
  8
1
  6
Continuous
100
AcDbCircle
 10
188.2802659999999
 20
49.63354499441514
 30
0.0
 40
2.0
100
AcDbArc
 50
209.5205509999999
 51
260.3386239999999
  0
ARC
  5
99D1
330
98DF
100
AcDbEntity
  8
1
  6
Continuous
100
AcDbCircle
 10
188.4107909999999
 20
51.70306699441517
 30
0.0
 40
2.0
100
AcDbArc
 50
209.5205509999999
 51
255.519949
  0
LINE
  5
99D2
330
98DF
100
AcDbEntity
  8
1
  6
Continuous
100
AcDbLine
 10
186.290112
 20
49.08921799441515
 30
0.0
 11
186.5399079999999
 21
48.64807399441517
 31
0.0
  0
LINE
  5
99D3
330
98DF
100
AcDbEntity
  8
1
  6
Continuous
100
AcDbLine
 10
186.2901329999999
 20
51.38921299441514
 30
0.0
 11
186.670433
 21
50.71759599441516
 31
0.0
  0
ARC
  5
99D4
330
98DF
100
AcDbEntity
  8
1
  6
Continuous
100
AcDbCircle
 10
184.549754
 20
48.10374599441516
 30
0.0
 40
2.0
100
AcDbArc
 50
29.52055099999999
 51
90.0
  0
LINE
  5
99D5
330
98DF
100
AcDbEntity
  8
1
  6
Continuous
100
AcDbLine
 10
162.9829809999999
 20
50.10374599441515
 30
0.0
 11
184.549754
 21
50.10374599441515
 31
0.0
  0
ARC
  5
99D6
330
98DF
100
AcDbEntity
  8
1
  6
Continuous
100
AcDbCircle
 10
184.549775
 20
50.40374099441514
 30
0.0
 40
2.0
100
AcDbArc
 50
29.52055099999999
 51
90.0
  0
LINE
  5
99D7
330
98DF
100
AcDbEntity
  8
1
  6
Continuous
100
AcDbLine
 10
162.9829599999998
 20
52.40374099441513
 30
0.0
 11
184.549775
 21
52.40374099441513
 31
0.0
  0
ARC
  5
99D8
330
98DF
100
AcDbEntity
  8
1
  6
Continuous
100
AcDbCircle
 10
162.9829599999998
 20
50.40374099441514
 30
0.0
 40
2.0
100
AcDbArc
 50
90.0
 51
150.4794489999999
  0
LINE
  5
99D9
330
98DF
100
AcDbEntity
  8
1
  6
Continuous
100
AcDbLine
 10
161.242602
 20
51.38921299441514
 30
0.0
 11
160.862302
 21
50.71759599441516
 31
0.0
  0
LINE
  5
99DA
330
98DF
100
AcDbEntity
  8
1
  6
Continuous
100
AcDbLine
 10
149.864537
 20
47.24676299441515
 30
0.0
 11
159.6220289999999
 21
49.76659799441517
 31
0.0
  0
ARC
  5
99DB
330
98DF
100
AcDbEntity
  8
1
  6
Continuous
100
AcDbCircle
 10
159.1219439999998
 20
51.70306699441517
 30
0.0
 40
2.0
100
AcDbArc
 50
284.480051
 51
330.4794489999999
  0
ARC
  5
99DC
330
98DF
100
AcDbEntity
  8
1
  6
Continuous
100
AcDbCircle
 10
162.9829809999999
 20
48.10374599441516
 30
0.0
 40
2.0
100
AcDbArc
 50
90.0
 51
150.4794489999999
  0
LINE
  5
99DD
330
98DF
100
AcDbEntity
  8
1
  6
Continuous
100
AcDbLine
 10
161.242623
 20
49.08921799441515
 30
0.0
 11
160.992827
 21
48.64807399441517
 31
0.0
  0
ARC
  5
99DE
330
98DF
100
AcDbEntity
  8
1
  6
Continuous
100
AcDbCircle
 10
150.5829459999999
 20
43.07695199441514
 30
0.0
 40
4.231244999999998
100
AcDbArc
 50
99.775418
 51
154.4220929999999
  0
ARC
  5
99DF
330
98DF
100
AcDbEntity
  8
1
  6
Continuous
100
AcDbCircle
 10
159.2524689999999
 20
49.63354499441514
 30
0.0
 40
2.0
100
AcDbArc
 50
279.6613759999999
 51
330.4794489999999
  0
LINE
  5
99E0
330
98DF
100
AcDbEntity
  8
1
  6
Continuous
100
AcDbLine
 10
35.41890799999999
 20
178.5266849944151
 30
0.0
 11
35.41890799999999
 21
196.0599019944151
 31
0.0
  0
LINE
  5
99E1
330
98DF
100
AcDbEntity
  8
1
  6
Continuous
100
AcDbLine
 10
37.71890799999999
 20
178.5266849944151
 30
0.0
 11
37.71890799999999
 21
196.1770879944151
 31
0.0
  0
LINE
  5
99E2
330
98DF
100
AcDbEntity
  8
1
  6
Continuous
100
AcDbLine
 10
72.11382799999999
 20
178.5266849944151
 30
0.0
 11
72.11382799999999
 21
196.0599019944151
 31
0.0
  0
LINE
  5
99E3
330
98DF
100
AcDbEntity
  8
1
  6
Continuous
100
AcDbLine
 10
69.813828
 20
178.5266849944151
 30
0.0
 11
69.813828
 21
196.1770879944151
 31
0.0
  0
ARC
  5
99E4
330
98DF
100
AcDbEntity
  8
1
  6
Continuous
100
AcDbCircle
 10
53.76636799999999
 20
150.403740994415
 30
0.0
 40
75.0
100
AcDbArc
 50
81.73013899999999
 51
98.269879
  0
ARC
  5
99E5
330
98DF
100
AcDbEntity
  8
1
  6
Continuous
100
AcDbCircle
 10
53.76636799999999
 20
225.4037409944151
 30
0.0
 40
75.0
100
AcDbArc
 50
261.7301199999999
 51
278.2698599999998
  0
LINE
  5
99E6
330
98DF
100
AcDbEntity
  8
1
  6
Continuous
100
AcDbLine
 10
41.26636799999999
 20
222.6446539944151
 30
0.0
 11
41.26636799999999
 21
153.162827994415
 31
0.0
  0
ARC
  5
99E7
330
98DF
100
AcDbEntity
  8
1
  6
Continuous
100
AcDbCircle
 10
43.266368
 20
153.162827994415
 30
0.0
 40
2.0
100
AcDbArc
 50
179.9999799999999
 51
261.7301199999999
  0
LINE
  5
99E8
330
98DF
100
AcDbEntity
  8
1
  6
Continuous
100
AcDbLine
 10
38.76636799999999
 20
196.903740994415
 30
0.0
 11
38.76636799999999
 21
178.9037409944149
 31
0.0
  0
ARC
  5
99E9
330
98DF
100
AcDbEntity
  8
1
  6
Continuous
100
AcDbCircle
 10
39.76636799999999
 20
178.9037409944149
 30
0.0
 40
1.0
100
AcDbArc
 50
179.9999799999999
 51
266.0317999999999
  0
LINE
  5
99EA
330
98DF
100
AcDbEntity
  8
1
  6
Continuous
100
AcDbLine
 10
39.69716900000003
 20
177.9061379944151
 30
0.0
 11
41.26636799999999
 21
177.797283994415
 31
0.0
  0
ARC
  5
99EB
330
98DF
100
AcDbEntity
  8
1
  6
Continuous
100
AcDbCircle
 10
39.76636799999999
 20
196.903740994415
 30
0.0
 40
1.0
100
AcDbArc
 50
93.968199
 51
180.00002
  0
LINE
  5
99EC
330
98DF
100
AcDbEntity
  8
1
  6
Continuous
100
AcDbLine
 10
39.69716900000003
 20
197.9013449944151
 30
0.0
 11
41.26636799999999
 21
198.0101979944151
 31
0.0
  0
ARC
  5
99ED
330
98DF
100
AcDbEntity
  8
1
  6
Continuous
100
AcDbCircle
 10
43.266368
 20
222.6446539944151
 30
0.0
 40
2.0
100
AcDbArc
 50
98.269879
 51
180.00002
  0
LINE
  5
99EE
330
98DF
100
AcDbEntity
  8
1
  6
Continuous
100
AcDbLine
 10
66.26636799999999
 20
222.6446539944151
 30
0.0
 11
66.26636799999999
 21
153.162827994415
 31
0.0
  0
ARC
  5
99EF
330
98DF
100
AcDbEntity
  8
1
  6
Continuous
100
AcDbCircle
 10
64.266368
 20
153.162827994415
 30
0.0
 40
2.0
100
AcDbArc
 50
278.2698599999998
 51
0.0
  0
LINE
  5
99F0
330
98DF
100
AcDbEntity
  8
1
  6
Continuous
100
AcDbLine
 10
68.76636799999999
 20
196.903740994415
 30
0.0
 11
68.76636799999999
 21
178.9037409944149
 31
0.0
  0
LINE
  5
99F1
330
98DF
100
AcDbEntity
  8
1
  6
Continuous
100
AcDbLine
 10
66.26636799999999
 20
177.797283994415
 30
0.0
 11
67.83556999999999
 21
177.9061389944151
 31
0.0
  0
ARC
  5
99F2
330
98DF
100
AcDbEntity
  8
1
  6
Continuous
100
AcDbCircle
 10
67.766368
 20
178.9037409944149
 30
0.0
 40
1.0
100
AcDbArc
 50
273.9681799999999
 51
0.0
  0
LINE
  5
99F3
330
98DF
100
AcDbEntity
  8
1
  6
Continuous
100
AcDbLine
 10
66.26636799999999
 20
198.0101979944151
 30
0.0
 11
67.83556999999999
 21
197.901343994415
 31
0.0
  0
ARC
  5
99F4
330
98DF
100
AcDbEntity
  8
1
  6
Continuous
100
AcDbCircle
 10
67.766368
 20
196.903740994415
 30
0.0
 40
1.0
100
AcDbArc
 50
0.0
 51
86.03181999999998
  0
ARC
  5
99F5
330
98DF
100
AcDbEntity
  8
1
  6
Continuous
100
AcDbCircle
 10
64.266368
 20
222.6446539944151
 30
0.0
 40
2.0
100
AcDbArc
 50
0.0
 51
81.73013899999999
  0
ARC
  5
99F6
330
98DF
100
AcDbEntity
  8
1
  6
Continuous
100
AcDbCircle
 10
211.266368
 20
68.40374099441516
 30
0.0
 40
75.0
100
AcDbArc
 50
171.730139
 51
188.269879
  0
ARC
  5
99F7
330
98DF
100
AcDbEntity
  8
1
  6
Continuous
100
AcDbCircle
 10
136.266368
 20
68.40374099441516
 30
0.0
 40
75.0
100
AcDbArc
 50
351.7301199999999
 51
8.269860000000001
  0
LINE
  5
99F8
330
98DF
100
AcDbEntity
  8
1
  6
Continuous
100
AcDbLine
 10
139.0254549999999
 20
55.90374099441515
 30
0.0
 11
208.507281
 21
55.90374099441515
 31
0.0
  0
ARC
  5
99F9
330
98DF
100
AcDbEntity
  8
1
  6
Continuous
100
AcDbCircle
 10
139.0254549999999
 20
57.90374099441514
 30
0.0
 40
2.0
100
AcDbArc
 50
188.269879
 51
270.00002
  0
LINE
  5
99FA
330
98DF
100
AcDbEntity
  8
1
  6
Continuous
100
AcDbLine
 10
164.7663679999998
 20
53.40374099441515
 30
0.0
 11
182.766368
 21
53.40374099441515
 31
0.0
  0
ARC
  5
99FB
330
98DF
100
AcDbEntity
  8
1
  6
Continuous
100
AcDbCircle
 10
164.7663679999998
 20
54.40374099441513
 30
0.0
 40
1.0
100
AcDbArc
 50
183.968199
 51
270.00002
  0
LINE
  5
99FC
330
98DF
100
AcDbEntity
  8
1
  6
Continuous
100
AcDbLine
 10
163.7687639999998
 20
54.33454199441515
 30
0.0
 11
163.6599109999998
 21
55.90374099441515
 31
0.0
  0
ARC
  5
99FD
330
98DF
100
AcDbEntity
  8
1
  6
Continuous
100
AcDbCircle
 10
182.766368
 20
54.40374099441513
 30
0.0
 40
1.0
100
AcDbArc
 50
269.99998
 51
356.0317999999999
  0
LINE
  5
99FE
330
98DF
100
AcDbEntity
  8
1
  6
Continuous
100
AcDbLine
 10
183.7639709999999
 20
54.33454199441515
 30
0.0
 11
183.872825
 21
55.90374099441515
 31
0.0
  0
ARC
  5
99FF
330
98DF
100
AcDbEntity
  8
1
  6
Continuous
100
AcDbCircle
 10
208.507281
 20
57.90374099441514
 30
0.0
 40
2.0
100
AcDbArc
 50
269.99998
 51
351.7301199999999
  0
LINE
  5
9A00
330
98DF
100
AcDbEntity
  8
1
  6
Continuous
100
AcDbLine
 10
139.0254549999999
 20
80.90374099441516
 30
0.0
 11
208.507281
 21
80.90374099441516
 31
0.0
  0
ARC
  5
9A01
330
98DF
100
AcDbEntity
  8
1
  6
Continuous
100
AcDbCircle
 10
139.0254549999999
 20
78.90374099441515
 30
0.0
 40
2.0
100
AcDbArc
 50
90.0
 51
171.730139
  0
LINE
  5
9A02
330
98DF
100
AcDbEntity
  8
1
  6
Continuous
100
AcDbLine
 10
164.7663679999998
 20
83.40374099441516
 30
0.0
 11
182.766368
 21
83.40374099441516
 31
0.0
  0
LINE
  5
9A03
330
98DF
100
AcDbEntity
  8
1
  6
Continuous
100
AcDbLine
 10
163.6599109999998
 20
80.90374099441516
 30
0.0
 11
163.768765
 21
82.47294299441518
 31
0.0
  0
ARC
  5
9A04
330
98DF
100
AcDbEntity
  8
1
  6
Continuous
100
AcDbCircle
 10
164.7663679999998
 20
82.40374099441517
 30
0.0
 40
1.0
100
AcDbArc
 50
90.0
 51
176.0318199999999
  0
LINE
  5
9A05
330
98DF
100
AcDbEntity
  8
1
  6
Continuous
100
AcDbLine
 10
183.872825
 20
80.90374099441516
 30
0.0
 11
183.76397
 21
82.47294299441518
 31
0.0
  0
ARC
  5
9A06
330
98DF
100
AcDbEntity
  8
1
  6
Continuous
100
AcDbCircle
 10
182.766368
 20
82.40374099441517
 30
0.0
 40
1.0
100
AcDbArc
 50
3.96818
 51
90.0
  0
ARC
  5
9A07
330
98DF
100
AcDbEntity
  8
1
  6
Continuous
100
AcDbCircle
 10
208.507281
 20
78.90374099441515
 30
0.0
 40
2.0
100
AcDbArc
 50
8.269860000000001
 51
90.0
  0
ARC
  5
9A08
330
98DF
100
AcDbEntity
  8
1
  6
Continuous
100
AcDbCircle
 10
173.7663679999998
 20
187.9037409944151
 30
0.0
 40
37.5
100
AcDbArc
 50
120.674668
 51
59.325342
  0
ARC
  5
9A09
330
98DF
100
AcDbEntity
  8
1
  6
Continuous
100
AcDbCircle
 10
173.7663679999998
 20
187.9037409944151
 30
0.0
 40
31.799999
100
AcDbArc
 50
123.495703
 51
56.50430899999999
  0
ARC
  5
9A0A
330
98DF
100
AcDbEntity
  8
1
  6
Continuous
100
AcDbCircle
 10
197.3059649999999
 20
172.0037339944151
 30
0.0
 40
4.0
100
AcDbArc
 50
0.000014
 51
59.999954
  0
ARC
  5
9A0B
330
98DF
100
AcDbEntity
  8
1
  6
Continuous
100
AcDbCircle
 10
199.3059719999999
 20
175.4678349944151
 30
0.0
 40
4.0
100
AcDbArc
 50
239.9999999999999
 51
299.9999799999999
  0
LINE
  5
9A0C
330
98DF
100
AcDbEntity
  8
1
  6
Continuous
100
AcDbLine
 10
148.22676
 20
175.467845994415
 30
0.0
 11
160.932906
 21
182.803741994415
 31
0.0
  0
LINE
  5
9A0D
330
98DF
100
AcDbEntity
  8
1
  6
Continuous
100
AcDbLine
 10
150.22676
 20
172.003735994415
 30
0.0
 11
162.932906
 21
179.339630994415
 31
0.0
  0
ARC
  5
9A0E
330
98DF
100
AcDbEntity
  8
1
  6
Continuous
100
AcDbCircle
 10
148.22676
 20
175.4678479944151
 30
0.0
 40
4.0
100
AcDbArc
 50
240.00002
 51
299.9999599999998
  0
ARC
  5
9A0F
330
98DF
100
AcDbEntity
  8
1
  6
Continuous
100
AcDbCircle
 10
150.22676
 20
172.0037459944149
 30
0.0
 40
4.0
100
AcDbArc
 50
119.9999899999999
 51
179.9999899999999
  0
ARC
  5
9A10
330
98DF
100
AcDbEntity
  8
1
  6
Continuous
100
AcDbCircle
 10
160.93291
 20
182.8037429944151
 30
0.0
 40
4.0
100
AcDbArc
 50
299.9999599999998
 51
359.99997
  0
ARC
  5
9A11
330
98DF
100
AcDbEntity
  8
1
  6
Continuous
100
AcDbCircle
 10
162.9329099999999
 20
179.3396419944151
 30
0.0
 40
4.0
100
AcDbArc
 50
59.999988
 51
119.9999899999999
  0
ARC
  5
9A12
330
98DF
100
AcDbEntity
  8
1
  6
Continuous
100
AcDbCircle
 10
184.599826
 20
179.3396399944149
 30
0.0
 40
4.0
100
AcDbArc
 50
59.999954
 51
119.99996
  0
LINE
  5
9A13
330
98DF
100
AcDbEntity
  8
1
  6
Continuous
100
AcDbLine
 10
197.306003
 20
172.0037529944151
 30
0.0
 11
184.5998559999999
 21
179.3396559944151
 31
0.0
  0
ARC
  5
9A14
330
98DF
100
AcDbEntity
  8
1
  6
Continuous
100
AcDbCircle
 10
186.5998259999997
 20
182.803740994415
 30
0.0
 40
4.0
100
AcDbArc
 50
179.9999599999999
 51
239.99998
  0
LINE
  5
9A15
330
98DF
100
AcDbEntity
  8
1
  6
Continuous
100
AcDbLine
 10
199.3060099999999
 20
175.4678569944151
 30
0.0
 11
186.5998559999999
 21
182.8037599944151
 31
0.0
  0
ARC
  5
9A16
330
98DF
100
AcDbEntity
  8
1
  6
Continuous
100
AcDbCircle
 10
413.766368
 20
187.9037409944151
 30
0.0
 40
37.5
100
AcDbArc
 50
120.674668
 51
59.325342
  0
ARC
  5
9A17
330
98DF
100
AcDbEntity
  8
1
  6
Continuous
100
AcDbCircle
 10
413.766368
 20
187.9037409944151
 30
0.0
 40
31.799999
100
AcDbArc
 50
123.495703
 51
56.50430899999999
  0
LINE
  5
9A18
330
98DF
100
AcDbEntity
  8
1
  6
Continuous
100
AcDbLine
 10
439.3060099999998
 20
175.4678569944151
 30
0.0
 11
426.5998559999998
 21
182.8037599944151
 31
0.0
  0
LINE
  5
9A19
330
98DF
100
AcDbEntity
  8
1
  6
Continuous
100
AcDbLine
 10
437.3060029999998
 20
172.0037529944151
 30
0.0
 11
424.5998559999998
 21
179.3396559944151
 31
0.0
  0
ARC
  5
9A1A
330
98DF
100
AcDbEntity
  8
1
  6
Continuous
100
AcDbCircle
 10
426.5998259999998
 20
182.803740994415
 30
0.0
 40
4.0
100
AcDbArc
 50
179.9999599999999
 51
239.99998
  0
ARC
  5
9A1B
330
98DF
100
AcDbEntity
  8
1
  6
Continuous
100
AcDbCircle
 10
424.5998259999998
 20
179.3396399944149
 30
0.0
 40
4.0
100
AcDbArc
 50
59.999954
 51
119.99996
  0
ARC
  5
9A1C
330
98DF
100
AcDbEntity
  8
1
  6
Continuous
100
AcDbCircle
 10
437.305965
 20
172.0037339944151
 30
0.0
 40
4.0
100
AcDbArc
 50
0.000014
 51
59.999954
  0
ARC
  5
9A1D
330
98DF
100
AcDbEntity
  8
1
  6
Continuous
100
AcDbCircle
 10
439.305972
 20
175.4678349944151
 30
0.0
 40
4.0
100
AcDbArc
 50
239.9999999999999
 51
299.9999799999999
  0
LINE
  5
9A1E
330
98DF
100
AcDbEntity
  8
1
  6
Continuous
100
AcDbLine
 10
390.22676
 20
172.003735994415
 30
0.0
 11
402.932906
 21
179.339630994415
 31
0.0
  0
LINE
  5
9A1F
330
98DF
100
AcDbEntity
  8
1
  6
Continuous
100
AcDbLine
 10
388.22676
 20
175.467845994415
 30
0.0
 11
400.9329059999998
 21
182.803741994415
 31
0.0
  0
ARC
  5
9A20
330
98DF
100
AcDbEntity
  8
1
  6
Continuous
100
AcDbCircle
 10
390.22676
 20
172.0037459944149
 30
0.0
 40
4.0
100
AcDbArc
 50
119.9999899999999
 51
179.9999899999999
  0
ARC
  5
9A21
330
98DF
100
AcDbEntity
  8
1
  6
Continuous
100
AcDbCircle
 10
388.22676
 20
175.4678479944151
 30
0.0
 40
4.0
100
AcDbArc
 50
240.00002
 51
299.9999599999998
  0
ARC
  5
9A22
330
98DF
100
AcDbEntity
  8
1
  6
Continuous
100
AcDbCircle
 10
402.9329099999998
 20
179.3396419944151
 30
0.0
 40
4.0
100
AcDbArc
 50
59.999988
 51
119.9999899999999
  0
ARC
  5
9A23
330
98DF
100
AcDbEntity
  8
1
  6
Continuous
100
AcDbCircle
 10
400.93291
 20
182.8037429944151
 30
0.0
 40
4.0
100
AcDbArc
 50
299.9999599999998
 51
359.99997
  0
ARC
  5
9A24
330
98DF
100
AcDbEntity
  8
1
  6
Continuous
100
AcDbCircle
 10
136.266368
 20
322.4037409944149
 30
0.0
 40
75.0
100
AcDbArc
 50
351.7301199999999
 51
8.269860000000001
  0
ARC
  5
9A25
330
98DF
100
AcDbEntity
  8
1
  6
Continuous
100
AcDbCircle
 10
208.507281
 20
332.9037409944149
 30
0.0
 40
2.0
100
AcDbArc
 50
8.269860000000001
 51
82.55678600000001
  0
ARC
  5
9A26
330
98DF
100
AcDbEntity
  8
1
  6
Continuous
100
AcDbCircle
 10
208.507281
 20
311.9037409944149
 30
0.0
 40
2.0
100
AcDbArc
 50
277.443214
 51
351.7301199999999
  0
ARC
  5
9A27
330
98DF
100
AcDbEntity
  8
1
  6
Continuous
100
AcDbCircle
 10
211.266368
 20
322.4037409944149
 30
0.0
 40
75.0
100
AcDbArc
 50
171.730139
 51
188.269879
  0
ARC
  5
9A28
330
98DF
100
AcDbEntity
  8
1
  6
Continuous
100
AcDbCircle
 10
139.0254549999999
 20
332.9037409944149
 30
0.0
 40
2.0
100
AcDbArc
 50
97.443214
 51
171.730139
  0
ARC
  5
9A29
330
98DF
100
AcDbEntity
  8
1
  6
Continuous
100
AcDbCircle
 10
139.0254549999999
 20
311.9037409944149
 30
0.0
 40
2.0
100
AcDbArc
 50
188.269879
 51
262.556786
  0
LINE
  5
9A2A
330
98DF
100
AcDbEntity
  8
1
  6
Continuous
100
AcDbLine
 10
281.2663679999999
 20
222.6446539944151
 30
0.0
 11
281.2663679999999
 21
153.162827994415
 31
0.0
  0
LINE
  5
9A2B
330
98DF
100
AcDbEntity
  8
1
  6
Continuous
100
AcDbLine
 10
306.2663679999999
 20
222.6446539944151
 30
0.0
 11
306.2663679999999
 21
153.162827994415
 31
0.0
  0
LINE
  5
9A2C
330
98DF
100
AcDbEntity
  8
4
  6
CENTER
100
AcDbLine
 10
293.7663679999999
 20
245.4037409944149
 30
0.0
 11
293.7663679999999
 21
145.903740994415
 31
0.0
  0
ARC
  5
9A2D
330
98DF
100
AcDbEntity
  8
1
  6
Continuous
100
AcDbCircle
 10
293.7663679999999
 20
225.4037409944151
 30
0.0
 40
75.0
100
AcDbArc
 50
261.73014
 51
278.2698799999999
  0
ARC
  5
9A2E
330
98DF
100
AcDbEntity
  8
1
  6
Continuous
100
AcDbCircle
 10
304.2663679999999
 20
153.162827994415
 30
0.0
 40
2.0
100
AcDbArc
 50
278.2698799999999
 51
0.00002
  0
ARC
  5
9A2F
330
98DF
100
AcDbEntity
  8
1
  6
Continuous
100
AcDbCircle
 10
283.2663679999999
 20
153.162827994415
 30
0.0
 40
2.0
100
AcDbArc
 50
180.0
 51
261.73014
  0
LINE
  5
9A30
330
98DF
100
AcDbEntity
  8
4
  6
CENTER
100
AcDbLine
 10
279.7663679999998
 20
245.4037409944149
 30
0.0
 11
279.7663679999998
 21
233.1037409944151
 31
0.0
  0
LINE
  5
9A31
330
98DF
100
AcDbEntity
  8
4
  6
CENTER
100
AcDbLine
 10
307.766368
 20
245.4037409944149
 30
0.0
 11
307.766368
 21
233.1037409944151
 31
0.0
  0
ARC
  5
9A32
330
98DF
100
AcDbEntity
  8
1
  6
Continuous
100
AcDbCircle
 10
293.7663679999999
 20
150.403740994415
 30
0.0
 40
75.0
100
AcDbArc
 50
81.73012099999999
 51
98.26986100000002
  0
LINE
  5
9A33
330
98DF
100
AcDbEntity
  8
4
  6
CENTER
100
AcDbLine
 10
319.066368
 20
187.9037409944151
 30
0.0
 11
267.2663759999999
 21
187.9037409944151
 31
0.0
  0
LINE
  5
9A34
330
98DF
100
AcDbEntity
  8
1
  6
Continuous
100
AcDbLine
 10
309.266368
 20
236.6037409944151
 30
0.0
 11
278.266366
 21
236.6037409944151
 31
0.0
  0
LINE
  5
9A35
330
98DF
100
AcDbEntity
  8
1
  6
Continuous
100
AcDbLine
 10
317.2663679999998
 20
238.1037409944151
 30
0.0
 11
270.266368
 21
238.1037409944151
 31
0.0
  0
LINE
  5
9A36
330
98DF
100
AcDbEntity
  8
1
  6
Continuous
100
AcDbLine
 10
317.2663679999998
 20
240.4037409944151
 30
0.0
 11
270.266368
 21
240.4037409944151
 31
0.0
  0
ARC
  5
9A37
330
98DF
100
AcDbEntity
  8
1
  6
Continuous
100
AcDbCircle
 10
307.766368
 20
196.903740994415
 30
0.0
 40
1.0
100
AcDbArc
 50
359.9999799999998
 51
86.03180100000001
  0
ARC
  5
9A38
330
98DF
100
AcDbEntity
  8
1
  6
Continuous
100
AcDbCircle
 10
327.030288
 20
194.4790089944151
 30
0.0
 40
17.299999
100
AcDbArc
 50
153.506352
 51
174.367073
  0
ARC
  5
9A39
330
98DF
100
AcDbEntity
  8
1
  6
Continuous
100
AcDbCircle
 10
327.030288
 20
194.4790089944151
 30
0.0
 40
15.0
100
AcDbArc
 50
155.8079069999998
 51
173.9501999999999
  0
LINE
  5
9A3A
330
98DF
100
AcDbEntity
  8
1
  6
Continuous
100
AcDbLine
 10
307.8355669999999
 20
177.9061379944151
 30
0.0
 11
306.2663679999999
 21
177.797283994415
 31
0.0
  0
ARC
  5
9A3B
330
98DF
100
AcDbEntity
  8
1
  6
Continuous
100
AcDbCircle
 10
307.766368
 20
178.9037409944149
 30
0.0
 40
1.0
100
AcDbArc
 50
273.9682
 51
0.00002
  0
LINE
  5
9A3C
330
98DF
100
AcDbEntity
  8
1
  6
Continuous
100
AcDbLine
 10
308.7663679999999
 20
196.903740994415
 30
0.0
 11
308.7663679999999
 21
178.9037409944149
 31
0.0
  0
LINE
  5
9A3D
330
98DF
100
AcDbEntity
  8
1
  6
Continuous
100
AcDbLine
 10
309.813828
 20
178.5266849944151
 30
0.0
 11
309.813828
 21
196.1770879944151
 31
0.0
  0
LINE
  5
9A3E
330
98DF
100
AcDbEntity
  8
1
  6
Continuous
100
AcDbLine
 10
312.1138279999998
 20
178.5266849944151
 30
0.0
 11
312.1138279999998
 21
196.0599019944151
 31
0.0
  0
ARC
  5
9A3F
330
98DF
100
AcDbEntity
  8
1
  6
Continuous
100
AcDbCircle
 10
312.566368
 20
192.0803079944149
 30
0.0
 40
1.5
100
AcDbArc
 50
0.00004
 51
91.94881399999998
  0
ARC
  5
9A40
330
98DF
100
AcDbEntity
  8
1
  6
Continuous
100
AcDbCircle
 10
312.566368
 20
183.7271969944151
 30
0.0
 40
1.5
100
AcDbArc
 50
268.05118
 51
0.00002
  0
LINE
  5
9A41
330
98DF
100
AcDbEntity
  8
1
  6
Continuous
100
AcDbLine
 10
312.515398
 20
182.2280589944151
 30
0.0
 11
312.515398
 21
193.5794379944151
 31
0.0
  0
LINE
  5
9A42
330
98DF
100
AcDbEntity
  8
1
  6
Continuous
100
AcDbLine
 10
314.066368
 20
192.0803079944149
 30
0.0
 11
314.066368
 21
183.7271969944151
 31
0.0
  0
LINE
  5
9A43
330
98DF
100
AcDbEntity
  8
1
  6
Continuous
100
AcDbLine
 10
312.515358
 20
182.228069994415
 30
0.0
 11
312.1138279999998
 21
183.7266199944149
 31
0.0
  0
LINE
  5
9A44
330
98DF
100
AcDbEntity
  8
1
  6
Continuous
100
AcDbLine
 10
312.515368
 20
193.5794269944151
 30
0.0
 11
312.1138279999998
 21
192.0808709944149
 31
0.0
  0
LINE
  5
9A45
330
98DF
100
AcDbEntity
  8
1
  6
Continuous
100
AcDbLine
 10
309.766368
 20
191.9037409944151
 30
0.0
 11
308.7663679999999
 21
191.9037409944151
 31
0.0
  0
LINE
  5
9A46
330
98DF
100
AcDbEntity
  8
1
  6
Continuous
100
AcDbLine
 10
309.766368
 20
183.9037409944151
 30
0.0
 11
308.7663679999999
 21
183.9037409944151
 31
0.0
  0
LINE
  5
9A47
330
98DF
100
AcDbEntity
  8
1
  6
Continuous
100
AcDbLine
 10
309.813858
 20
178.514999994415
 30
0.0
 11
312.1138279999998
 21
178.5266849944151
 31
0.0
  0
ARC
  5
9A48
330
98DF
100
AcDbEntity
  8
1
  6
Continuous
100
AcDbCircle
 10
319.1913379999998
 20
234.8551749944151
 30
0.0
 40
4.0
100
AcDbArc
 50
125.694382
 51
175.014686
  0
ARC
  5
9A49
330
98DF
100
AcDbEntity
  8
1
  6
Continuous
100
AcDbCircle
 10
306.1957959999998
 20
209.6820419944151
 30
0.0
 40
10.0
100
AcDbArc
 50
326.18419
 51
359.4942699999998
  0
LINE
  5
9A4A
330
98DF
100
AcDbEntity
  8
1
  6
Continuous
100
AcDbLine
 10
317.266448
 20
238.1037339944149
 30
0.0
 11
314.860468
 21
206.4381079944151
 31
0.0
  0
LINE
  5
9A4B
330
98DF
100
AcDbEntity
  8
1
  6
Continuous
100
AcDbLine
 10
316.339448
 20
225.9033279944151
 30
0.0
 11
316.195488
 21
209.5937739944151
 31
0.0
  0
LINE
  5
9A4C
330
98DF
100
AcDbEntity
  8
1
  6
Continuous
100
AcDbLine
 10
317.2663679999998
 20
240.4037409944151
 30
0.0
 11
317.2663679999998
 21
238.1037409944151
 31
0.0
  0
LINE
  5
9A4D
330
98DF
100
AcDbEntity
  8
1
  6
Continuous
100
AcDbLine
 10
313.0673080000001
 20
206.5945059944151
 30
0.0
 11
315.206588
 21
235.2027729944151
 31
0.0
  0
LINE
  5
9A4E
330
98DF
100
AcDbEntity
  8
1
  6
Continuous
100
AcDbLine
 10
312.1283379999998
 20
207.3639579944151
 30
0.0
 11
311.867858
 21
238.1037399944149
 31
0.0
  0
LINE
  5
9A4F
330
98DF
100
AcDbEntity
  8
1
  6
Continuous
100
AcDbLine
 10
307.8355669999999
 20
197.9013449944151
 30
0.0
 11
306.2663679999999
 21
198.0101979944151
 31
0.0
  0
ARC
  5
9A50
330
98DF
100
AcDbEntity
  8
1
  6
Continuous
100
AcDbCircle
 10
304.1289469999998
 20
207.2583089944149
 30
0.0
 40
8.0
100
AcDbArc
 50
324.94837
 51
0.75662
  0
ARC
  5
9A51
330
98DF
100
AcDbEntity
  8
1
  6
Continuous
100
AcDbCircle
 10
295.437381
 20
210.2263039944151
 30
0.0
 40
18.0
100
AcDbArc
 50
333.50632
 51
348.35975
  0
ARC
  5
9A52
330
98DF
100
AcDbEntity
  8
1
  6
Continuous
100
AcDbCircle
 10
296.9284769999998
 20
208.002331994415
 30
0.0
 40
18.0
100
AcDbArc
 50
335.80787
 51
355.01465
  0
ARC
  5
9A53
330
98DF
100
AcDbEntity
  8
1
  6
Continuous
100
AcDbCircle
 10
322.012918
 20
198.4125259944151
 30
0.0
 40
12.3
100
AcDbArc
 50
162.603016
 51
180.2910599999999
  0
LINE
  5
9A54
330
98DF
100
AcDbEntity
  8
1
  6
Continuous
100
AcDbLine
 10
310.2756779999999
 20
202.0900809944151
 30
0.0
 11
310.678138
 21
202.6637509944151
 31
0.0
  0
ARC
  5
9A55
330
98DF
100
AcDbEntity
  8
1
  6
Continuous
100
AcDbCircle
 10
304.2663679999999
 20
222.6446539944151
 30
0.0
 40
2.0
100
AcDbArc
 50
359.9999799999998
 51
81.73012099999999
  0
ARC
  5
9A56
330
98DF
100
AcDbEntity
  8
1
  6
Continuous
100
AcDbCircle
 10
309.266368
 20
240.3537409944151
 30
0.0
 40
3.75
100
AcDbArc
 50
270.0000399999999
 51
314.0060399999998
  0
ARC
  5
9A57
330
98DF
100
AcDbEntity
  8
1
  6
Continuous
100
AcDbCircle
 10
279.7663679999998
 20
196.903740994415
 30
0.0
 40
1.0
100
AcDbArc
 50
93.96818000000001
 51
180.0
  0
ARC
  5
9A58
330
98DF
100
AcDbEntity
  8
1
  6
Continuous
100
AcDbCircle
 10
260.5024439999999
 20
194.4790089944151
 30
0.0
 40
17.299999
100
AcDbArc
 50
5.632791999999997
 51
26.49368
  0
ARC
  5
9A59
330
98DF
100
AcDbEntity
  8
1
  6
Continuous
100
AcDbCircle
 10
260.5024439999999
 20
194.4790089944151
 30
0.0
 40
15.0
100
AcDbArc
 50
6.049655000000001
 51
24.19213
  0
ARC
  5
9A5A
330
98DF
100
AcDbEntity
  8
1
  6
Continuous
100
AcDbCircle
 10
279.7663679999998
 20
178.9037409944149
 30
0.0
 40
1.0
100
AcDbArc
 50
180.0
 51
266.0318199999999
  0
LINE
  5
9A5B
330
98DF
100
AcDbEntity
  8
1
  6
Continuous
100
AcDbLine
 10
281.2663679999999
 20
177.797283994415
 30
0.0
 11
279.697166
 21
177.9061389944151
 31
0.0
  0
LINE
  5
9A5C
330
98DF
100
AcDbEntity
  8
1
  6
Continuous
100
AcDbLine
 10
278.766368
 20
196.903740994415
 30
0.0
 11
278.766368
 21
178.9037409944149
 31
0.0
  0
LINE
  5
9A5D
330
98DF
100
AcDbEntity
  8
1
  6
Continuous
100
AcDbLine
 10
277.7189079999998
 20
178.5266849944151
 30
0.0
 11
277.7189079999998
 21
196.1770879944151
 31
0.0
  0
LINE
  5
9A5E
330
98DF
100
AcDbEntity
  8
1
  6
Continuous
100
AcDbLine
 10
275.4189079999998
 20
178.5266849944151
 30
0.0
 11
275.4189079999998
 21
196.0599019944151
 31
0.0
  0
ARC
  5
9A5F
330
98DF
100
AcDbEntity
  8
1
  6
Continuous
100
AcDbCircle
 10
274.2663759999999
 20
183.9037409944151
 30
0.0
 40
2.0
100
AcDbArc
 50
180.0
 51
269.99998
  0
ARC
  5
9A60
330
98DF
100
AcDbEntity
  8
1
  6
Continuous
100
AcDbCircle
 10
274.2663759999999
 20
191.9037409944151
 30
0.0
 40
2.0
100
AcDbArc
 50
90.00001800000005
 51
180.0
  0
LINE
  5
9A61
330
98DF
100
AcDbEntity
  8
1
  6
Continuous
100
AcDbLine
 10
278.766368
 20
183.9037409944151
 30
0.0
 11
277.7663679999998
 21
183.9037409944151
 31
0.0
  0
LINE
  5
9A62
330
98DF
100
AcDbEntity
  8
1
  6
Continuous
100
AcDbLine
 10
278.766368
 20
191.9037409944151
 30
0.0
 11
277.7663679999998
 21
191.9037409944151
 31
0.0
  0
LINE
  5
9A63
330
98DF
100
AcDbEntity
  8
1
  6
Continuous
100
AcDbLine
 10
272.2663759999999
 20
191.9037409944151
 30
0.0
 11
272.2663759999999
 21
183.9037409944151
 31
0.0
  0
LINE
  5
9A64
330
98DF
100
AcDbEntity
  8
1
  6
Continuous
100
AcDbLine
 10
275.4663729999999
 20
181.9037409944151
 30
0.0
 11
274.2663759999999
 21
181.9037409944151
 31
0.0
  0
LINE
  5
9A65
330
98DF
100
AcDbEntity
  8
1
  6
Continuous
100
AcDbLine
 10
275.4663729999999
 20
193.9037409944151
 30
0.0
 11
274.2663759999999
 21
193.9037409944151
 31
0.0
  0
LINE
  5
9A66
330
98DF
100
AcDbEntity
  8
1
  6
Continuous
100
AcDbLine
 10
277.7189059999999
 20
178.5150119944151
 30
0.0
 11
275.4189329999999
 21
178.5266959944151
 31
0.0
  0
LINE
  5
9A67
330
98DF
100
AcDbEntity
  8
1
  6
Continuous
100
AcDbLine
 10
270.2663299999999
 20
238.1037359944151
 30
0.0
 11
272.6723129999999
 21
206.4381229944151
 31
0.0
  0
LINE
  5
9A68
330
98DF
100
AcDbEntity
  8
1
  6
Continuous
100
AcDbLine
 10
274.4654799999997
 20
206.5945249944151
 30
0.0
 11
272.3261939999998
 21
235.2027759944151
 31
0.0
  0
LINE
  5
9A69
330
98DF
100
AcDbEntity
  8
1
  6
Continuous
100
AcDbLine
 10
275.4044299999999
 20
207.3639729944151
 30
0.0
 11
275.6649049999999
 21
238.1037409944151
 31
0.0
  0
LINE
  5
9A6A
330
98DF
100
AcDbEntity
  8
1
  6
Continuous
100
AcDbLine
 10
271.1933359999998
 20
225.9033339944149
 30
0.0
 11
271.337306
 21
209.593784994415
 31
0.0
  0
LINE
  5
9A6B
330
98DF
100
AcDbEntity
  8
1
  6
Continuous
100
AcDbLine
 10
281.2663679999999
 20
198.0101979944151
 30
0.0
 11
279.697166
 21
197.901343994415
 31
0.0
  0
ARC
  5
9A6C
330
98DF
100
AcDbEntity
  8
1
  6
Continuous
100
AcDbCircle
 10
283.403789
 20
207.2583089944149
 30
0.0
 40
8.0
100
AcDbArc
 50
179.2434179999999
 51
215.05167
  0
ARC
  5
9A6D
330
98DF
100
AcDbEntity
  8
1
  6
Continuous
100
AcDbCircle
 10
292.0953549999998
 20
210.2263039944151
 30
0.0
 40
18.0
100
AcDbArc
 50
191.6402699999999
 51
206.4937
  0
ARC
  5
9A6E
330
98DF
100
AcDbEntity
  8
1
  6
Continuous
100
AcDbCircle
 10
290.604259
 20
208.002331994415
 30
0.0
 40
18.0
100
AcDbArc
 50
184.98537
 51
204.1921499999999
  0
ARC
  5
9A6F
330
98DF
100
AcDbEntity
  8
1
  6
Continuous
100
AcDbCircle
 10
265.5198159999998
 20
198.4125259944151
 30
0.0
 40
12.3
100
AcDbArc
 50
359.70897
 51
17.39702
  0
ARC
  5
9A70
330
98DF
100
AcDbEntity
  8
1
  6
Continuous
100
AcDbCircle
 10
281.3369399999999
 20
209.6820419944151
 30
0.0
 40
10.0
100
AcDbArc
 50
180.50575
 51
213.81583
  0
LINE
  5
9A71
330
98DF
100
AcDbEntity
  8
1
  6
Continuous
100
AcDbLine
 10
277.2570979999999
 20
202.0900889944151
 30
0.0
 11
276.85464
 21
202.6637549944152
 31
0.0
  0
ARC
  5
9A72
330
98DF
100
AcDbEntity
  8
1
  6
Continuous
100
AcDbCircle
 10
283.2663679999999
 20
222.6446539944151
 30
0.0
 40
2.0
100
AcDbArc
 50
98.26986100000002
 51
180.0
  0
ARC
  5
9A73
330
98DF
100
AcDbEntity
  8
1
  6
Continuous
100
AcDbCircle
 10
268.3413949999999
 20
234.8551749944151
 30
0.0
 40
4.0
100
AcDbArc
 50
4.98535
 51
54.30565
  0
ARC
  5
9A74
330
98DF
100
AcDbEntity
  8
1
  6
Continuous
100
AcDbCircle
 10
278.266368
 20
240.3537409944151
 30
0.0
 40
3.75
100
AcDbArc
 50
225.99398
 51
269.99998
  0
LINE
  5
9A75
330
98DF
100
AcDbEntity
  8
1
  6
Continuous
100
AcDbLine
 10
270.266368
 20
240.4037409944151
 30
0.0
 11
270.266368
 21
238.1037409944151
 31
0.0
  0
ENDSEC
  0
SECTION
  2
OBJECTS
  0
DICTIONARY
  5
98CD
330
0
100
AcDbDictionary
281
     1
  3
ACAD_CIP_PREVIOUS_PRODUCT_INFO
350
9B1D
  3
ACAD_COLOR
350
9AFF
  3
ACAD_DETAILVIEWSTYLE
350
9B18
  3
ACAD_GROUP
350
98CE
  3
ACAD_LAYOUT
350
98DA
  3
ACAD_MATERIAL
350
9ACD
  3
ACAD_MLEADERSTYLE
350
9B14
  3
ACAD_MLINESTYLE
350
98D7
  3
ACAD_PLOTSETTINGS
350
98D9
  3
ACAD_PLOTSTYLENAME
350
9ACB
  3
ACAD_SCALELIST
350
9B02
  3
ACAD_SECTIONVIEWSTYLE
350
9B16
  3
ACAD_TABLESTYLE
350
9B00
  3
ACAD_VISUALSTYLE
350
9AE6
  3
ACDB_RECOMPOSE_DATA
350
9B3B
  3
AcDbVariableDictionary
350
9B2E
  3
DWGPROPS
350
9B3C
  0
DICTIONARY
  5
9B1E
330
98D1
100
AcDbDictionary
280
     1
281
     1
  3
ADSK_XREC_LAYER_RECONCILED
360
9B1F
  0
DICTIONARY
  5
9B20
330
98E7
100
AcDbDictionary
280
     1
281
     1
  3
ADSK_XREC_LAYER_RECONCILED
360
9B21
  0
DICTIONARY
  5
9B22
330
98E8
100
AcDbDictionary
280
     1
281
     1
  3
ADSK_XREC_LAYER_RECONCILED
360
9B23
  0
DICTIONARY
  5
9B24
330
98E9
100
AcDbDictionary
280
     1
281
     1
  3
ADSK_XREC_LAYER_RECONCILED
360
9B25
  0
DICTIONARY
  5
9B26
330
98EA
100
AcDbDictionary
280
     1
281
     1
  3
ADSK_XREC_LAYER_RECONCILED
360
9B27
  0
DICTIONARY
  5
9B28
330
98EB
100
AcDbDictionary
280
     1
281
     1
  3
ADSK_XREC_LAYER_RECONCILED
360
9B29
  0
DICTIONARY
  5
9B2A
330
98EC
100
AcDbDictionary
280
     1
281
     1
  3
ADSK_XREC_LAYER_RECONCILED
360
9B2B
  0
DICTIONARY
  5
9B2C
330
98ED
100
AcDbDictionary
280
     1
281
     1
  3
ADSK_XREC_LAYER_RECONCILED
360
9B2D
  0
DICTIONARY
  5
9A84
330
98DF
100
AcDbDictionary
281
     1
  3
ACAD_LAYOUTSELFREF
350
9AC7
  0
DICTIONARY
  5
9A82
330
98DB
100
AcDbDictionary
281
     1
  3
ACAD_LAYOUTSELFREF
350
9AC6
  0
XRECORD
  5
9B1D
102
{ACAD_REACTORS
330
98CD
102
}
330
98CD
100
AcDbXrecord
280
     1
300
ACDLT
300
2014
300
ACDLT_F_S
  0
DICTIONARY
  5
9AFF
102
{ACAD_REACTORS
330
98CD
102
}
330
98CD
100
AcDbDictionary
281
     1
  0
DICTIONARY
  5
9B18
102
{ACAD_REACTORS
330
98CD
102
}
330
98CD
100
AcDbDictionary
281
     1
  3
Imperial24
350
9B19
  0
DICTIONARY
  5
98CE
102
{ACAD_REACTORS
330
98CD
102
}
330
98CD
100
AcDbDictionary
281
     1
  0
DICTIONARY
  5
98DA
102
{ACAD_REACTORS
330
98CD
102
}
330
98CD
100
AcDbDictionary
281
     1
  3
Model
350
9B1A
  3
レイアウト1
350
9B1B
  0
DICTIONARY
  5
9ACD
102
{ACAD_REACTORS
330
98CD
102
}
330
98CD
100
AcDbDictionary
281
     1
  3
ByBlock
350
9AD6
  3
ByLayer
350
9ACE
  3
Global
350
9ADE
  0
DICTIONARY
  5
9B14
102
{ACAD_REACTORS
330
98CD
102
}
330
98CD
100
AcDbDictionary
281
     1
  3
Standard
350
9B15
  0
DICTIONARY
  5
98D7
102
{ACAD_REACTORS
330
98CD
102
}
330
98CD
100
AcDbDictionary
281
     1
  3
STANDARD
350
98D8
  0
DICTIONARY
  5
98D9
102
{ACAD_REACTORS
330
98CD
102
}
330
98CD
100
AcDbDictionary
281
     1
  0
ACDBDICTIONARYWDFLT
  5
9ACB
102
{ACAD_REACTORS
330
98CD
102
}
330
98CD
100
AcDbDictionary
281
     1
  3
Normal
350
9ACC
100
AcDbDictionaryWithDefault
340
9ACC
  0
DICTIONARY
  5
9B02
102
{ACAD_REACTORS
330
98CD
102
}
330
98CD
100
AcDbDictionary
281
     1
  3
A0
350
9B03
  3
A1
350
9B04
  3
A2
350
9B05
  3
A3
350
9B06
  3
A4
350
9B07
  3
A5
350
9B08
  3
A6
350
9B09
  3
A7
350
9B0A
  3
A8
350
9B0B
  3
A9
350
9B0C
  3
B0
350
9B0D
  3
B1
350
9B0E
  3
B2
350
9B0F
  3
B3
350
9B10
  3
B4
350
9B11
  3
B5
350
9B12
  3
B6
350
9B13
  0
DICTIONARY
  5
9B16
102
{ACAD_REACTORS
330
98CD
102
}
330
98CD
100
AcDbDictionary
281
     1
  3
Imperial24
350
9B17
  0
DICTIONARY
  5
9B00
102
{ACAD_REACTORS
330
98CD
102
}
330
98CD
100
AcDbDictionary
281
     1
  3
Standard
350
9B01
  0
DICTIONARY
  5
9AE6
102
{ACAD_REACTORS
330
98CD
102
}
330
98CD
100
AcDbDictionary
281
     1
  3
2dWireframe
350
9AEC
  3
Basic
350
9AEB
  3
Brighten
350
9AF2
  3
ColorChange
350
9AF6
  3
Conceptual
350
9AEF
  3
Dim
350
9AF1
  3
EdgeColorOff
350
9AFE
  3
Facepattern
350
9AF5
  3
Flat
350
9AE7
  3
FlatWithEdges
350
9AE8
  3
Gouraud
350
9AE9
  3
GouraudWithEdges
350
9AEA
  3
Hidden
350
9AEE
  3
JitterOff
350
9AFC
  3
Linepattern
350
9AF4
  3
OverhangOff
350
9AFD
  3
Realistic
350
9AF0
  3
Shaded
350
9AFB
  3
Shaded with edges
350
9AFA
  3
Shades of Gray
350
9AF7
  3
Sketchy
350
9AF8
  3
Thicken
350
9AF3
  3
Wireframe
350
9AED
  3
X-Ray
350
9AF9
  0
XRECORD
  5
9B3B
102
{ACAD_REACTORS
330
98CD
102
}
330
98CD
100
AcDbXrecord
280
     1
 90
        1
330
9B01
  0
DICTIONARY
  5
9B2E
102
{ACAD_REACTORS
330
98CD
102
}
330
98CD
100
AcDbDictionary
281
     1
  3
CANNOSCALE
350
9B33
  3
CMLEADERSTYLE
350
9B30
  3
CTABLESTYLE
350
9B2F
  3
CVIEWDETAILSTYLE
350
9B31
  3
CVIEWSECTIONSTYLE
350
9B32
  3
DIMASSOC
350
9B36
  3
INDEXCTL
350
9B35
  3
SORTENTS
350
9B34
  3
XCLIPFRAME
350
9B37
  0
XRECORD
  5
9B3C
102
{ACAD_REACTORS
330
98CD
102
}
330
98CD
100
AcDbXrecord
280
     1
  1
DWGPROPS COOKIE
  2

  3

  4

  6

  7

  8
Yoshitsune
  9

300
=
301
=
302
=
303
=
304
=
305
=
306
=
307
=
308
=
309
=
 40
0.0185858564814815
 41
2451301.4765375
 42
2457192.690658472
  1

 90
        0
  0
XRECORD
  5
9B1F
102
{ACAD_REACTORS
330
9B1E
102
}
330
9B1E
100
AcDbXrecord
280
     1
290
     1
  0
XRECORD
  5
9B21
102
{ACAD_REACTORS
330
9B20
102
}
330
9B20
100
AcDbXrecord
280
     1
290
     1
  0
XRECORD
  5
9B23
102
{ACAD_REACTORS
330
9B22
102
}
330
9B22
100
AcDbXrecord
280
     1
290
     1
  0
XRECORD
  5
9B25
102
{ACAD_REACTORS
330
9B24
102
}
330
9B24
100
AcDbXrecord
280
     1
290
     1
  0
XRECORD
  5
9B27
102
{ACAD_REACTORS
330
9B26
102
}
330
9B26
100
AcDbXrecord
280
     1
290
     1
  0
XRECORD
  5
9B29
102
{ACAD_REACTORS
330
9B28
102
}
330
9B28
100
AcDbXrecord
280
     1
290
     1
  0
XRECORD
  5
9B2B
102
{ACAD_REACTORS
330
9B2A
102
}
330
9B2A
100
AcDbXrecord
280
     1
290
     1
  0
XRECORD
  5
9B2D
102
{ACAD_REACTORS
330
9B2C
102
}
330
9B2C
100
AcDbXrecord
280
     1
290
     1
  0
XRECORD
  5
9AC7
102
{ACAD_REACTORS
330
9A84
102
}
330
9A84
100
AcDbXrecord
280
     1
340
98DF
  0
XRECORD
  5
9AC6
102
{ACAD_REACTORS
330
9A82
102
}
330
9A82
100
AcDbXrecord
280
     1
340
98DB
  0
ACDBDETAILVIEWSTYLE
  5
9B19
102
{ACAD_XDICTIONARY
360
9B74
102
}
102
{ACAD_REACTORS
330
9B18
102
}
330
9B18
100
AcDbModelDocViewStyle
 70
     0
  3
Imperial24
290
     0
100
AcDbDetailViewStyle
 70
     0
 71
     0
 90
        3
 71
     1
340
98D2
 40
0.24
340
0
 40
0.24
300

 40
0.36
280
     3
 71
     2
340
98D6
 90
       25
 71
     3
340
98D2
 40
0.24
 90
        1
 40
0.75
 90
        1
300
%<\AcVar ViewType \f "%tc1">% %<\AcVar ViewDetailId>%\PSCALE %<\AcVar ViewScale \f "%sn">%
 71
     4
340
98D6
 90
       25
340
98D6
 90
       25
280
     0
  0
LAYOUT
  5
9B1A
102
{ACAD_XDICTIONARY
360
9B76
102
}
102
{ACAD_REACTORS
330
98DA
102
}
330
98DA
100
AcDbPlotSettings
  1

  2
Canon LBP9100C
  4

  6

 40
0.0
 41
0.0
 42
0.0
 43
0.0
 44
0.0
 45
0.0
 46
0.0
 47
0.0
 48
0.0
 49
0.0
140
0.0
141
0.0
142
1.0
143
1.0
 70
  1712
 72
     0
 73
     0
 74
     0
  7

 75
     0
147
1.0
148
0.0
149
0.0
100
AcDbLayout
  1
Model
 70
     1
 71
     0
 10
0.0
 20
0.0
 11
12.0
 21
9.0
 12
0.0
 22
0.0
 32
0.0
 14
0.0
 24
0.0
 34
0.0
 15
0.0
 25
0.0
 35
0.0
146
0.0
 13
0.0
 23
0.0
 33
0.0
 16
1.0
 26
0.0
 36
0.0
 17
0.0
 27
1.0
 37
0.0
 76
     0
330
98DF
331
9AC5
  0
LAYOUT
  5
9B1B
102
{ACAD_XDICTIONARY
360
9B78
102
}
102
{ACAD_REACTORS
330
98DA
102
}
330
98DA
100
AcDbPlotSettings
  1

  2
Canon LBP9100C
  4

  6

 40
0.0
 41
0.0
 42
0.0
 43
0.0
 44
0.0
 45
0.0
 46
0.0
 47
0.0
 48
0.0
 49
0.0
140
0.0
141
0.0
142
1.0
143
1.0
 70
   688
 72
     0
 73
     0
 74
     5
  7

 75
    16
147
1.0
148
0.0
149
0.0
100
AcDbLayout
  1
レイアウト1
 70
     0
 71
     1
 10
0.0
 20
0.0
 11
420.0
 21
297.0
 12
0.0
 22
0.0
 32
0.0
 14
1.000000000000000E+20
 24
1.000000000000000E+20
 34
1.000000000000000E+20
 15
-1.000000000000000E+20
 25
-1.000000000000000E+20
 35
-1.000000000000000E+20
146
0.0
 13
0.0
 23
0.0
 33
0.0
 16
1.0
 26
0.0
 36
0.0
 17
0.0
 27
1.0
 37
0.0
 76
     0
330
98DB
  0
MATERIAL
  5
9AD6
102
{ACAD_XDICTIONARY
360
9AD7
102
}
102
{ACAD_REACTORS
330
9ACD
102
}
330
9ACD
100
AcDbMaterial
  1
ByBlock
 72
     0
 43
0.0208333333333333
 43
0.0
 43
0.0
 43
0.0
 43
0.0
 43
0.0208333333333333
 43
0.0
 43
0.0
 43
0.0
 43
0.0
 43
1.0
 43
0.0
 43
0.0
 43
0.0
 43
0.0
 43
1.0
 77
     0
 47
0.0208333333333333
 47
0.0
 47
0.0
 47
0.0
 47
0.0
 47
0.0208333333333333
 47
0.0
 47
0.0
 47
0.0
 47
0.0
 47
1.0
 47
0.0
 47
0.0
 47
0.0
 47
0.0
 47
1.0
171
     0
 49
0.0208333333333333
 49
0.0
 49
0.0
 49
0.0
 49
0.0
 49
0.0208333333333333
 49
0.0
 49
0.0
 49
0.0
 49
0.0
 49
1.0
 49
0.0
 49
0.0
 49
0.0
 49
0.0
 49
1.0
175
     0
142
0.0208333333333333
142
0.0
142
0.0
142
0.0
142
0.0
142
0.0208333333333333
142
0.0
142
0.0
142
0.0
142
0.0
142
1.0
142
0.0
142
0.0
142
0.0
142
0.0
142
1.0
179
     0
144
0.0208333333333333
144
0.0
144
0.0
144
0.0
144
0.0
144
0.0208333333333333
144
0.0
144
0.0
144
0.0
144
0.0
144
1.0
144
0.0
144
0.0
144
0.0
144
0.0
144
1.0
147
0.0208333333333333
147
0.0
147
0.0
147
0.0
147
0.0
147
0.0208333333333333
147
0.0
147
0.0
147
0.0
147
0.0
147
1.0
147
0.0
147
0.0
147
0.0
147
0.0
147
1.0
  0
MATERIAL
  5
9ACE
102
{ACAD_XDICTIONARY
360
9ACF
102
}
102
{ACAD_REACTORS
330
9ACD
102
}
330
9ACD
100
AcDbMaterial
  1
ByLayer
 72
     0
 43
0.0208333333333333
 43
0.0
 43
0.0
 43
0.0
 43
0.0
 43
0.0208333333333333
 43
0.0
 43
0.0
 43
0.0
 43
0.0
 43
1.0
 43
0.0
 43
0.0
 43
0.0
 43
0.0
 43
1.0
 77
     0
 47
0.0208333333333333
 47
0.0
 47
0.0
 47
0.0
 47
0.0
 47
0.0208333333333333
 47
0.0
 47
0.0
 47
0.0
 47
0.0
 47
1.0
 47
0.0
 47
0.0
 47
0.0
 47
0.0
 47
1.0
171
     0
 49
0.0208333333333333
 49
0.0
 49
0.0
 49
0.0
 49
0.0
 49
0.0208333333333333
 49
0.0
 49
0.0
 49
0.0
 49
0.0
 49
1.0
 49
0.0
 49
0.0
 49
0.0
 49
0.0
 49
1.0
175
     0
142
0.0208333333333333
142
0.0
142
0.0
142
0.0
142
0.0
142
0.0208333333333333
142
0.0
142
0.0
142
0.0
142
0.0
142
1.0
142
0.0
142
0.0
142
0.0
142
0.0
142
1.0
179
     0
144
0.0208333333333333
144
0.0
144
0.0
144
0.0
144
0.0
144
0.0208333333333333
144
0.0
144
0.0
144
0.0
144
0.0
144
1.0
144
0.0
144
0.0
144
0.0
144
0.0
144
1.0
147
0.0208333333333333
147
0.0
147
0.0
147
0.0
147
0.0
147
0.0208333333333333
147
0.0
147
0.0
147
0.0
147
0.0
147
1.0
147
0.0
147
0.0
147
0.0
147
0.0
147
1.0
  0
MATERIAL
  5
9ADE
102
{ACAD_XDICTIONARY
360
9ADF
102
}
102
{ACAD_REACTORS
330
9ACD
102
}
330
9ACD
100
AcDbMaterial
  1
Global
 72
     0
 43
0.0208333333333333
 43
0.0
 43
0.0
 43
0.0
 43
0.0
 43
0.0208333333333333
 43
0.0
 43
0.0
 43
0.0
 43
0.0
 43
1.0
 43
0.0
 43
0.0
 43
0.0
 43
0.0
 43
1.0
 77
     0
 47
0.0208333333333333
 47
0.0
 47
0.0
 47
0.0
 47
0.0
 47
0.0208333333333333
 47
0.0
 47
0.0
 47
0.0
 47
0.0
 47
1.0
 47
0.0
 47
0.0
 47
0.0
 47
0.0
 47
1.0
171
     0
 49
0.0208333333333333
 49
0.0
 49
0.0
 49
0.0
 49
0.0
 49
0.0208333333333333
 49
0.0
 49
0.0
 49
0.0
 49
0.0
 49
1.0
 49
0.0
 49
0.0
 49
0.0
 49
0.0
 49
1.0
175
     0
142
0.0208333333333333
142
0.0
142
0.0
142
0.0
142
0.0
142
0.0208333333333333
142
0.0
142
0.0
142
0.0
142
0.0
142
1.0
142
0.0
142
0.0
142
0.0
142
0.0
142
1.0
179
     0
144
0.0208333333333333
144
0.0
144
0.0
144
0.0
144
0.0
144
0.0208333333333333
144
0.0
144
0.0
144
0.0
144
0.0
144
1.0
144
0.0
144
0.0
144
0.0
144
0.0
144
1.0
147
0.0208333333333333
147
0.0
147
0.0
147
0.0
147
0.0
147
0.0208333333333333
147
0.0
147
0.0
147
0.0
147
0.0
147
1.0
147
0.0
147
0.0
147
0.0
147
0.0
147
1.0
  0
MLEADERSTYLE
  5
9B15
102
{ACAD_REACTORS
330
9B14
102
}
330
9B14
100
AcDbMLeaderStyle
170
     2
171
     1
172
     0
 90
        2
 40
0.0
 41
0.0
173
     1
 91
-1056964608
340
98D4
 92
       -2
290
     1
 42
0.09
291
     1
 43
0.36
  3
Standard
 44
0.18
300

342
98D2
174
     1
178
     6
175
     1
176
     0
 93
-1056964608
 45
0.18
292
     0
297
     0
 46
0.18
 94
-1056964608
 47
1.0
 49
1.0
140
1.0
293
     1
141
0.0
294
     1
177
     0
142
1.0
295
     0
296
     0
143
0.125
1001
ACAD_MLEADERVER
1070
     2
  0
MLINESTYLE
  5
98D8
102
{ACAD_REACTORS
330
98D7
102
}
330
98D7
100
AcDbMlineStyle
  2
STANDARD
 70
     0
  3

 62
   256
 51
90.0
 52
90.0
 71
     2
 49
0.5
 62
   256
  6
BYLAYER
 49
-0.5
 62
   256
  6
BYLAYER
  0
ACDBPLACEHOLDER
  5
9ACC
102
{ACAD_REACTORS
330
9ACB
102
}
330
9ACB
  0
SCALE
  5
9B03
102
{ACAD_REACTORS
330
9B02
102
}
330
9B02
100
AcDbScale
 70
     0
300
1:1
140
1.0
141
1.0
290
     1
  0
SCALE
  5
9B04
102
{ACAD_REACTORS
330
9B02
102
}
330
9B02
100
AcDbScale
 70
     0
300
1/128" = 1'-0"
140
0.0078125
141
12.0
290
     0
  0
SCALE
  5
9B05
102
{ACAD_REACTORS
330
9B02
102
}
330
9B02
100
AcDbScale
 70
     0
300
1/64" = 1'-0"
140
0.015625
141
12.0
290
     0
  0
SCALE
  5
9B06
102
{ACAD_REACTORS
330
9B02
102
}
330
9B02
100
AcDbScale
 70
     0
300
1/32" = 1'-0"
140
0.03125
141
12.0
290
     0
  0
SCALE
  5
9B07
102
{ACAD_REACTORS
330
9B02
102
}
330
9B02
100
AcDbScale
 70
     0
300
1/16" = 1'-0"
140
0.0625
141
12.0
290
     0
  0
SCALE
  5
9B08
102
{ACAD_REACTORS
330
9B02
102
}
330
9B02
100
AcDbScale
 70
     0
300
3/32" = 1'-0"
140
0.09375
141
12.0
290
     0
  0
SCALE
  5
9B09
102
{ACAD_REACTORS
330
9B02
102
}
330
9B02
100
AcDbScale
 70
     0
300
1/8" = 1'-0"
140
0.125
141
12.0
290
     0
  0
SCALE
  5
9B0A
102
{ACAD_REACTORS
330
9B02
102
}
330
9B02
100
AcDbScale
 70
     0
300
3/16" = 1'-0"
140
0.1875
141
12.0
290
     0
  0
SCALE
  5
9B0B
102
{ACAD_REACTORS
330
9B02
102
}
330
9B02
100
AcDbScale
 70
     0
300
1/4" = 1'-0"
140
0.25
141
12.0
290
     0
  0
SCALE
  5
9B0C
102
{ACAD_REACTORS
330
9B02
102
}
330
9B02
100
AcDbScale
 70
     0
300
3/8" = 1'-0"
140
0.375
141
12.0
290
     0
  0
SCALE
  5
9B0D
102
{ACAD_REACTORS
330
9B02
102
}
330
9B02
100
AcDbScale
 70
     0
300
1/2" = 1'-0"
140
0.5
141
12.0
290
     0
  0
SCALE
  5
9B0E
102
{ACAD_REACTORS
330
9B02
102
}
330
9B02
100
AcDbScale
 70
     0
300
3/4" = 1'-0"
140
0.75
141
12.0
290
     0
  0
SCALE
  5
9B0F
102
{ACAD_REACTORS
330
9B02
102
}
330
9B02
100
AcDbScale
 70
     0
300
1" = 1'-0"
140
1.0
141
12.0
290
     0
  0
SCALE
  5
9B10
102
{ACAD_REACTORS
330
9B02
102
}
330
9B02
100
AcDbScale
 70
     0
300
1-1/2" = 1'-0"
140
1.5
141
12.0
290
     0
  0
SCALE
  5
9B11
102
{ACAD_REACTORS
330
9B02
102
}
330
9B02
100
AcDbScale
 70
     0
300
3" = 1'-0"
140
3.0
141
12.0
290
     0
  0
SCALE
  5
9B12
102
{ACAD_REACTORS
330
9B02
102
}
330
9B02
100
AcDbScale
 70
     0
300
6" = 1'-0"
140
6.0
141
12.0
290
     0
  0
SCALE
  5
9B13
102
{ACAD_REACTORS
330
9B02
102
}
330
9B02
100
AcDbScale
 70
     0
300
1'-0" = 1'-0"
140
12.0
141
12.0
290
     0
  0
ACDBSECTIONVIEWSTYLE
  5
9B17
102
{ACAD_XDICTIONARY
360
9B72
102
}
102
{ACAD_REACTORS
330
9B16
102
}
330
9B16
100
AcDbModelDocViewStyle
 70
     0
  3
Imperial24
290
     0
100
AcDbSectionViewStyle
 70
     0
 71
     0
 90
       78
 71
     1
340
98D2
 40
0.24
340
0
340
0
 40
0.24
300
I, O, Q, S, X, Z
 40
0.48
 90
        3
 40
0.18
 90
        1
 71
     2
340
98D6
 90
       25
340
98D6
 90
       50
 40
0.24
 40
0.0
 40
0.24
 71
     3
340
98D2
 40
0.24
 90
        1
 40
0.75
 90
        1
300
%<\AcVar ViewType \f "%tc1">% %<\AcVar ViewSectionStartId>%-%<\AcVar ViewSectionEndId>%\PSCALE %<\AcVar ViewScale \f "%sn">%
 71
     4
300
ANSI31
 40
1.0
 90
        0
290
     0
290
     0
 90
        6
 40
0.0
 40
1.570796326794896
 40
0.2617993877991494
 40
1.308996938995747
 40
-0.2617993877991494
 40
1.832595714594046
  0
TABLESTYLE
  5
9B01
102
{ACAD_XDICTIONARY
360
9B39
102
}
102
{ACAD_REACTORS
330
9B00
102
}
330
9B00
100
AcDbTableStyle
  3
Standard
 70
     0
 71
     0
 40
0.06
 41
0.06
280
     0
281
     0
  7
STANDARD
140
0.18
170
     2
 62
     0
 63
     7
283
     0
274
    -2
284
     1
 64
     0
275
    -2
285
     1
 65
     0
276
    -2
286
     1
 66
     0
277
    -2
287
     1
 67
     0
278
    -2
288
     1
 68
     0
279
    -2
289
     1
 69
     0
  7
STANDARD
140
0.25
170
     5
 62
     0
 63
     7
283
     0
274
    -2
284
     1
 64
     0
275
    -2
285
     1
 65
     0
276
    -2
286
     1
 66
     0
277
    -2
287
     1
 67
     0
278
    -2
288
     1
 68
     0
279
    -2
289
     1
 69
     0
  7
STANDARD
140
0.18
170
     5
 62
     0
 63
     7
283
     0
274
    -2
284
     1
 64
     0
275
    -2
285
     1
 65
     0
276
    -2
286
     1
 66
     0
277
    -2
287
     1
 67
     0
278
    -2
288
     1
 68
     0
279
    -2
289
     1
 69
     0
  0
VISUALSTYLE
  5
9AEC
102
{ACAD_XDICTIONARY
360
9B4A
102
}
102
{ACAD_REACTORS
330
9AE6
102
}
330
9AE6
100
AcDbVisualStyle
  2
2dWireframe
 70
     4
 71
     0
 72
     2
 73
     0
 90
        0
 40
-0.6
 41
-30.0
 62
     5
 63
     7
 74
     1
 91
        4
 64
     7
 65
   257
 75
     1
175
     1
 42
1.0
 92
        0
 66
   257
 43
1.0
 76
     1
 77
     6
 78
     2
 67
     7
 79
     5
170
     0
171
     0
290
     0
174
     0
 93
        1
 44
0.0
173
     0
291
     0
 45
0.0
1001
ACAD
1000
AcDbSavedByObjectVersion
1070
     0
  0
VISUALSTYLE
  5
9AEB
102
{ACAD_XDICTIONARY
360
9B48
102
}
102
{ACAD_REACTORS
330
9AE6
102
}
330
9AE6
100
AcDbVisualStyle
  2
Basic
 70
     7
 71
     1
 72
     0
 73
     1
 90
        0
 40
-0.6
 41
-30.0
 62
     5
 63
     7
 74
     0
 91
        4
 64
     7
 65
   257
 75
     1
175
     1
 42
1.0
 92
        8
 66
     7
 43
1.0
 76
     1
 77
     6
 78
     2
 67
     7
 79
     5
170
     0
171
     0
290
     0
174
     0
 93
        1
 44
0.0
173
     0
291
     1
 45
0.0
1001
ACAD
1000
AcDbSavedByObjectVersion
1070
     0
  0
VISUALSTYLE
  5
9AF2
102
{ACAD_XDICTIONARY
360
9B56
102
}
102
{ACAD_REACTORS
330
9AE6
102
}
330
9AE6
100
AcDbVisualStyle
  2
Brighten
 70
    12
 71
     2
 72
     2
 73
     0
 90
        0
 40
-0.6
 41
-30.0
 62
     5
 63
     7
 74
     1
 91
        4
 64
     7
 65
   257
 75
     1
175
     1
 42
1.0
 92
        8
 66
     7
 43
1.0
 76
     1
 77
     6
 78
     2
 67
     7
 79
     5
170
     0
171
     0
290
     0
174
     0
 93
        1
 44
50.0
173
     0
291
     1
 45
0.0
1001
ACAD
1000
AcDbSavedByObjectVersion
1070
     0
  0
VISUALSTYLE
  5
9AF6
102
{ACAD_XDICTIONARY
360
9B5E
102
}
102
{ACAD_REACTORS
330
9AE6
102
}
330
9AE6
100
AcDbVisualStyle
  2
ColorChange
 70
    16
 71
     2
 72
     2
 73
     3
 90
        0
 40
-0.6
 41
-30.0
 62
     5
 63
     8
 74
     1
 91
        4
 64
     7
 65
   257
 75
     1
175
     1
 42
1.0
 92
        8
 66
     8
 43
1.0
 76
     1
 77
     6
 78
     2
 67
     7
 79
     5
170
     0
171
     0
290
     0
174
     0
 93
        1
 44
0.0
173
     0
291
     1
 45
0.0
1001
ACAD
1000
AcDbSavedByObjectVersion
1070
     0
  0
VISUALSTYLE
  5
9AEF
102
{ACAD_XDICTIONARY
360
9B50
102
}
102
{ACAD_REACTORS
330
9AE6
102
}
330
9AE6
100
AcDbVisualStyle
  2
Conceptual
 70
     9
 71
     3
 72
     2
 73
     0
 90
        0
 40
-0.6
 41
-30.0
 62
     5
 63
     7
 74
     2
 91
        2
 64
     7
 65
   257
 75
     1
175
     1
 42
179.0
 92
        8
 66
     7
 43
1.0
 76
     1
 77
     6
 78
     2
 67
     7
 79
     3
170
     0
171
     0
290
     0
174
     0
 93
        1
 44
0.0
173
     0
291
     0
 45
0.0
1001
ACAD
1000
AcDbSavedByObjectVersion
1070
     0
  0
VISUALSTYLE
  5
9AF1
102
{ACAD_XDICTIONARY
360
9B54
102
}
102
{ACAD_REACTORS
330
9AE6
102
}
330
9AE6
100
AcDbVisualStyle
  2
Dim
 70
    11
 71
     2
 72
     2
 73
     0
 90
        0
 40
-0.6
 41
-30.0
 62
     5
 63
     7
 74
     1
 91
        4
 64
     7
 65
   257
 75
     1
175
     1
 42
1.0
 92
        8
 66
     7
 43
1.0
 76
     1
 77
     6
 78
     2
 67
     7
 79
     5
170
     0
171
     0
290
     0
174
     0
 93
        1
 44
-50.0
173
     0
291
     1
 45
0.0
1001
ACAD
1000
AcDbSavedByObjectVersion
1070
     0
  0
VISUALSTYLE
  5
9AFE
102
{ACAD_XDICTIONARY
360
9B6E
102
}
102
{ACAD_REACTORS
330
9AE6
102
}
330
9AE6
100
AcDbVisualStyle
  2
EdgeColorOff
 70
    22
 71
     2
 72
     2
 73
     0
 90
        0
 40
-0.6
 41
-30.0
 62
     5
 63
     7
 74
     1
 91
        4
 64
     7
 65
   257
 75
     1
175
     1
 42
1.0
 92
        8
 66
     7
 43
1.0
 76
     1
 77
     6
 78
     2
 67
     7
 79
     5
170
     0
171
     0
290
     0
174
     0
 93
        1
 44
0.0
173
     0
291
     1
 45
0.0
1001
ACAD
1000
AcDbSavedByObjectVersion
1070
     0
  0
VISUALSTYLE
  5
9AF5
102
{ACAD_XDICTIONARY
360
9B5C
102
}
102
{ACAD_REACTORS
330
9AE6
102
}
330
9AE6
100
AcDbVisualStyle
  2
Facepattern
 70
    15
 71
     2
 72
     2
 73
     0
 90
        0
 40
-0.6
 41
-30.0
 62
     5
 63
     7
 74
     1
 91
        4
 64
     7
 65
   257
 75
     1
175
     1
 42
1.0
 92
        8
 66
     7
 43
1.0
 76
     1
 77
     6
 78
     2
 67
     7
 79
     5
170
     0
171
     0
290
     0
174
     0
 93
        1
 44
0.0
173
     0
291
     1
 45
0.0
1001
ACAD
1000
AcDbSavedByObjectVersion
1070
     0
  0
VISUALSTYLE
  5
9AE7
102
{ACAD_XDICTIONARY
360
9B40
102
}
102
{ACAD_REACTORS
330
9AE6
102
}
330
9AE6
100
AcDbVisualStyle
  2
Flat
 70
     0
 71
     2
 72
     1
 73
     1
 90
        2
 40
-0.6
 41
30.0
 62
     5
 63
     7
 74
     0
 91
        0
 64
     7
 65
   257
 75
     1
175
     1
 42
1.0
 92
        8
 66
     7
 43
1.0
 76
     1
 77
     6
 78
     2
 67
     7
 79
     5
170
     0
171
     0
290
     0
174
     0
 93
       13
 44
0.0
173
     0
291
     1
 45
0.0
1001
ACAD
1000
AcDbSavedByObjectVersion
1070
     0
  0
VISUALSTYLE
  5
9AE8
102
{ACAD_XDICTIONARY
360
9B42
102
}
102
{ACAD_REACTORS
330
9AE6
102
}
330
9AE6
100
AcDbVisualStyle
  2
FlatWithEdges
 70
     1
 71
     2
 72
     1
 73
     1
 90
        2
 40
-0.6
 41
30.0
 62
     5
 63
     7
 74
     1
 91
        0
 64
     7
 65
   257
 75
     1
175
     1
 42
1.0
 92
        0
 66
   257
 43
1.0
 76
     1
 77
     6
 78
     2
 67
     7
 79
     5
170
     0
171
     0
290
     0
174
     0
 93
       13
 44
0.0
173
     0
291
     1
 45
0.0
1001
ACAD
1000
AcDbSavedByObjectVersion
1070
     0
  0
VISUALSTYLE
  5
9AE9
102
{ACAD_XDICTIONARY
360
9B44
102
}
102
{ACAD_REACTORS
330
9AE6
102
}
330
9AE6
100
AcDbVisualStyle
  2
Gouraud
 70
     2
 71
     2
 72
     2
 73
     1
 90
        2
 40
-0.6
 41
30.0
 62
     5
 63
     7
 74
     0
 91
        0
 64
     7
 65
   257
 75
     1
175
     1
 42
1.0
 92
        0
 66
     7
 43
1.0
 76
     1
 77
     6
 78
     2
 67
     7
 79
     5
170
     0
171
     0
290
     0
174
     0
 93
       13
 44
0.0
173
     0
291
     1
 45
0.0
1001
ACAD
1000
AcDbSavedByObjectVersion
1070
     0
  0
VISUALSTYLE
  5
9AEA
102
{ACAD_XDICTIONARY
360
9B46
102
}
102
{ACAD_REACTORS
330
9AE6
102
}
330
9AE6
100
AcDbVisualStyle
  2
GouraudWithEdges
 70
     3
 71
     2
 72
     2
 73
     1
 90
        2
 40
-0.6
 41
30.0
 62
     5
 63
     7
 74
     1
 91
        0
 64
     7
 65
   257
 75
     1
175
     1
 42
1.0
 92
        0
 66
   257
 43
1.0
 76
     1
 77
     6
 78
     2
 67
     7
 79
     5
170
     0
171
     0
290
     0
174
     0
 93
       13
 44
0.0
173
     0
291
     1
 45
0.0
1001
ACAD
1000
AcDbSavedByObjectVersion
1070
     0
  0
VISUALSTYLE
  5
9AEE
102
{ACAD_XDICTIONARY
360
9B4E
102
}
102
{ACAD_REACTORS
330
9AE6
102
}
330
9AE6
100
AcDbVisualStyle
  2
Hidden
 70
     6
 71
     1
 72
     2
 73
     2
 90
        0
 40
-0.6
 41
-30.0
 62
     5
 63
     7
 74
     2
 91
        2
 64
     7
 65
   257
 75
     2
175
     1
 42
40.0
 92
        0
 66
   257
 43
1.0
 76
     1
 77
     6
 78
     2
 67
     7
 79
     3
170
     0
171
     0
290
     0
174
     0
 93
        1
 44
0.0
173
     0
291
     0
 45
0.0
1001
ACAD
1000
AcDbSavedByObjectVersion
1070
     0
  0
VISUALSTYLE
  5
9AFC
102
{ACAD_XDICTIONARY
360
9B6A
102
}
102
{ACAD_REACTORS
330
9AE6
102
}
330
9AE6
100
AcDbVisualStyle
  2
JitterOff
 70
    20
 71
     2
 72
     2
 73
     0
 90
        0
 40
-0.6
 41
-30.0
 62
     5
 63
     7
 74
     1
 91
        4
 64
     7
 65
   257
 75
     1
175
     1
 42
1.0
 92
       10
 66
     7
 43
1.0
 76
     1
 77
     6
 78
     2
 67
     7
 79
     5
170
     0
171
     0
290
     0
174
     0
 93
        1
 44
0.0
173
     0
291
     1
 45
0.0
1001
ACAD
1000
AcDbSavedByObjectVersion
1070
     0
  0
VISUALSTYLE
  5
9AF4
102
{ACAD_XDICTIONARY
360
9B5A
102
}
102
{ACAD_REACTORS
330
9AE6
102
}
330
9AE6
100
AcDbVisualStyle
  2
Linepattern
 70
    14
 71
     2
 72
     2
 73
     0
 90
        0
 40
-0.6
 41
-30.0
 62
     5
 63
     7
 74
     1
 91
        4
 64
     7
 65
   257
 75
     7
175
     7
 42
1.0
 92
        8
 66
     7
 43
1.0
 76
     1
 77
     6
 78
     2
 67
     7
 79
     5
170
     0
171
     0
290
     0
174
     0
 93
        1
 44
0.0
173
     0
291
     1
 45
0.0
1001
ACAD
1000
AcDbSavedByObjectVersion
1070
     0
  0
VISUALSTYLE
  5
9AFD
102
{ACAD_XDICTIONARY
360
9B6C
102
}
102
{ACAD_REACTORS
330
9AE6
102
}
330
9AE6
100
AcDbVisualStyle
  2
OverhangOff
 70
    21
 71
     2
 72
     2
 73
     0
 90
        0
 40
-0.6
 41
-30.0
 62
     5
 63
     7
 74
     1
 91
        4
 64
     7
 65
   257
 75
     1
175
     1
 42
1.0
 92
        9
 66
     7
 43
1.0
 76
     1
 77
     6
 78
     2
 67
     7
 79
     5
170
     0
171
     0
290
     0
174
     0
 93
        1
 44
0.0
173
     0
291
     1
 45
0.0
1001
ACAD
1000
AcDbSavedByObjectVersion
1070
     0
  0
VISUALSTYLE
  5
9AF0
102
{ACAD_XDICTIONARY
360
9B52
102
}
102
{ACAD_REACTORS
330
9AE6
102
}
330
9AE6
100
AcDbVisualStyle
  2
Realistic
 70
     8
 71
     2
 72
     3
 73
     0
 90
        2
 40
-0.6
 41
30.0
 62
     5
 63
     7
 74
     0
 91
        0
 64
     7
 65
   257
 75
     1
175
     1
 42
1.0
 92
        8
 66
   257
 43
1.0
 76
     1
 77
     6
 78
     2
 67
     7
 79
     3
170
     0
171
     0
290
     0
174
     0
 93
       13
 44
0.0
173
     0
291
     0
 45
0.0
1001
ACAD
1000
AcDbSavedByObjectVersion
1070
     0
  0
VISUALSTYLE
  5
9AFB
102
{ACAD_XDICTIONARY
360
9B68
102
}
102
{ACAD_REACTORS
330
9AE6
102
}
330
9AE6
100
AcDbVisualStyle
  2
Shaded
 70
    27
 71
     2
 72
     2
 73
     1
 90
        2
 40
-0.6
 41
30.0
 62
     5
 63
     7
 74
     0
 91
        4
 64
     7
 65
   257
 75
     1
175
     1
 42
1.0
 92
        8
 66
   257
 43
1.0
 76
     1
 77
     6
 78
     2
 67
     8
 79
     3
170
     0
171
     0
290
     0
174
     0
 93
        5
 44
0.0
173
     0
291
     0
 45
0.0
1001
ACAD
1000
AcDbSavedByObjectVersion
1070
     0
  0
VISUALSTYLE
  5
9AFA
102
{ACAD_XDICTIONARY
360
9B66
102
}
102
{ACAD_REACTORS
330
9AE6
102
}
330
9AE6
100
AcDbVisualStyle
  2
Shaded with edges
 70
    26
 71
     2
 72
     2
 73
     1
 90
        2
 40
-0.6
 41
30.0
 62
     5
 63
     7
 74
     1
 91
       10
 64
     7
 65
   257
 75
     2
175
     1
 42
1.0
 92
        8
 66
   257
 43
1.0
 76
     1
 77
     6
 78
     2
 67
     7
 79
     3
170
     0
171
     0
290
     0
174
     0
 93
        5
 44
0.0
173
     0
291
     0
 45
0.0
1001
ACAD
1000
AcDbSavedByObjectVersion
1070
     0
  0
VISUALSTYLE
  5
9AF7
102
{ACAD_XDICTIONARY
360
9B60
102
}
102
{ACAD_REACTORS
330
9AE6
102
}
330
9AE6
100
AcDbVisualStyle
  2
Shades of Gray
 70
    23
 71
     2
 72
     2
 73
     3
 90
        0
 40
-0.6
 41
-30.0
 62
     5
 63
     7
 74
     2
 91
        2
 64
     7
 65
     7
 75
     1
175
     1
 42
40.0
 92
        8
 66
     7
 43
1.0
 76
     1
 77
     6
 78
     2
 67
     7
 79
     3
170
     0
171
     0
290
     0
174
     0
 93
        1
 44
0.0
173
     0
291
     0
 45
0.0
1001
ACAD
1000
AcDbSavedByObjectVersion
1070
     0
  0
VISUALSTYLE
  5
9AF8
102
{ACAD_XDICTIONARY
360
9B62
102
}
102
{ACAD_REACTORS
330
9AE6
102
}
330
9AE6
100
AcDbVisualStyle
  2
Sketchy
 70
    24
 71
     1
 72
     2
 73
     2
 90
        0
 40
-0.6
 41
-30.0
 62
     5
 63
     7
 74
     2
 91
        2
 64
     7
 65
     7
 75
     1
175
     1
 42
40.0
 92
       11
 66
     7
 43
1.0
 76
     1
 77
     6
 78
     2
 67
     7
 79
     6
170
     0
171
     0
290
     0
174
     0
 93
        1
 44
0.0
173
     0
291
     0
 45
0.0
1001
ACAD
1000
AcDbSavedByObjectVersion
1070
     0
  0
VISUALSTYLE
  5
9AF3
102
{ACAD_XDICTIONARY
360
9B58
102
}
102
{ACAD_REACTORS
330
9AE6
102
}
330
9AE6
100
AcDbVisualStyle
  2
Thicken
 70
    13
 71
     2
 72
     2
 73
     0
 90
        0
 40
-0.6
 41
-30.0
 62
     5
 63
     7
 74
     1
 91
        4
 64
     7
 65
   257
 75
     1
175
     1
 42
1.0
 92
       12
 66
     7
 43
1.0
 76
     1
 77
     6
 78
     2
 67
     7
 79
     5
170
     0
171
     0
290
     0
174
     0
 93
        1
 44
0.0
173
     0
291
     1
 45
0.0
1001
ACAD
1000
AcDbSavedByObjectVersion
1070
     0
  0
VISUALSTYLE
  5
9AED
102
{ACAD_XDICTIONARY
360
9B4C
102
}
102
{ACAD_REACTORS
330
9AE6
102
}
330
9AE6
100
AcDbVisualStyle
  2
Wireframe
 70
     5
 71
     0
 72
     2
 73
     0
 90
        0
 40
-0.6
 41
-30.0
 62
     5
 63
     7
 74
     1
 91
        4
 64
     7
 65
   257
 75
     1
175
     1
 42
1.0
 92
        0
 66
   257
 43
1.0
 76
     1
 77
     6
 78
     2
 67
     7
 79
     3
170
     0
171
     0
290
     0
174
     0
 93
        1
 44
0.0
173
     0
291
     0
 45
0.0
1001
ACAD
1000
AcDbSavedByObjectVersion
1070
     0
  0
VISUALSTYLE
  5
9AF9
102
{ACAD_XDICTIONARY
360
9B64
102
}
102
{ACAD_REACTORS
330
9AE6
102
}
330
9AE6
100
AcDbVisualStyle
  2
X-Ray
 70
    25
 71
     2
 72
     2
 73
     1
 90
        1
 40
0.5
 41
-30.0
 62
     5
 63
     7
 74
     1
 91
        0
 64
     7
 65
   257
 75
     1
175
     1
 42
1.0
 92
        8
 66
     7
 43
1.0
 76
     1
 77
     6
 78
     2
 67
     7
 79
     3
170
     0
171
     0
290
     0
174
     0
 93
       13
 44
0.0
173
     0
291
     0
 45
0.0
1001
ACAD
1000
AcDbSavedByObjectVersion
1070
     0
  0
DICTIONARYVAR
  5
9B33
102
{ACAD_REACTORS
330
9B2E
102
}
330
9B2E
100
DictionaryVariables
280
     0
  1
1:1
  0
DICTIONARYVAR
  5
9B30
102
{ACAD_REACTORS
330
9B2E
102
}
330
9B2E
100
DictionaryVariables
280
     0
  1
STANDARD
  0
DICTIONARYVAR
  5
9B2F
102
{ACAD_REACTORS
330
9B2E
102
}
330
9B2E
100
DictionaryVariables
280
     0
  1
STANDARD
  0
DICTIONARYVAR
  5
9B31
102
{ACAD_REACTORS
330
9B2E
102
}
330
9B2E
100
DictionaryVariables
280
     0
  1
Imperial24
  0
DICTIONARYVAR
  5
9B32
102
{ACAD_REACTORS
330
9B2E
102
}
330
9B2E
100
DictionaryVariables
280
     0
  1
Imperial24
  0
DICTIONARYVAR
  5
9B36
102
{ACAD_REACTORS
330
9B2E
102
}
330
9B2E
100
DictionaryVariables
280
     0
  1
1
  0
DICTIONARYVAR
  5
9B35
102
{ACAD_REACTORS
330
9B2E
102
}
330
9B2E
100
DictionaryVariables
280
     0
  1
0
  0
DICTIONARYVAR
  5
9B34
102
{ACAD_REACTORS
330
9B2E
102
}
330
9B2E
100
DictionaryVariables
280
     0
  1
127
  0
DICTIONARYVAR
  5
9B37
102
{ACAD_REACTORS
330
9B2E
102
}
330
9B2E
100
DictionaryVariables
280
     0
  1
2
  0
DICTIONARY
  5
9B74
330
9B19
100
AcDbDictionary
280
     1
281
     1
  3
ACAD_XREC_ROUNDTRIP
360
9B75
  0
DICTIONARY
  5
9B76
330
9B1A
100
AcDbDictionary
280
     1
281
     1
  3
ACAD_XREC_ROUNDTRIP
360
9B77
  0
DICTIONARY
  5
9B78
330
9B1B
100
AcDbDictionary
280
     1
281
     1
  3
ACAD_XREC_ROUNDTRIP
360
9B79
  0
DICTIONARY
  5
9AD7
330
9AD6
100
AcDbDictionary
280
     1
281
     1
  3
ACAD_XREC_ROUNDTRIP
360
9B3E
  3
BUMPTILE
360
9AD9
  3
DIFFUSETILE
360
9AD8
  3
OPACITYTILE
360
9ADC
  3
REFLECTIONTILE
360
9ADB
  3
REFRACTIONTILE
360
9ADD
  3
SPECULARTILE
360
9ADA
  0
DICTIONARY
  5
9ACF
330
9ACE
100
AcDbDictionary
280
     1
281
     1
  3
ACAD_XREC_ROUNDTRIP
360
9B3D
  3
BUMPTILE
360
9AD1
  3
DIFFUSETILE
360
9AD0
  3
OPACITYTILE
360
9AD4
  3
REFLECTIONTILE
360
9AD3
  3
REFRACTIONTILE
360
9AD5
  3
SPECULARTILE
360
9AD2
  0
DICTIONARY
  5
9ADF
330
9ADE
100
AcDbDictionary
280
     1
281
     1
  3
ACAD_XREC_ROUNDTRIP
360
9B3F
  3
BUMPTILE
360
9AE1
  3
DIFFUSETILE
360
9AE0
  3
OPACITYTILE
360
9AE4
  3
REFLECTIONTILE
360
9AE3
  3
REFRACTIONTILE
360
9AE5
  3
SPECULARTILE
360
9AE2
  0
DICTIONARY
  5
9B72
330
9B17
100
AcDbDictionary
280
     1
281
     1
  3
ACAD_XREC_ROUNDTRIP
360
9B73
  0
DICTIONARY
  5
9B39
330
9B01
100
AcDbDictionary
280
     1
281
     1
  3
ACAD_ROUNDTRIP_2008_TABLESTYLE_CELLSTYLEMAP
360
9B3A
  3
ACAD_XREC_ROUNDTRIP
360
9B70
  0
DICTIONARY
  5
9B4A
330
9AEC
100
AcDbDictionary
280
     1
281
     1
  3
ACAD_XREC_ROUNDTRIP
360
9B4B
  0
DICTIONARY
  5
9B48
330
9AEB
100
AcDbDictionary
280
     1
281
     1
  3
ACAD_XREC_ROUNDTRIP
360
9B49
  0
DICTIONARY
  5
9B56
330
9AF2
100
AcDbDictionary
280
     1
281
     1
  3
ACAD_XREC_ROUNDTRIP
360
9B57
  0
DICTIONARY
  5
9B5E
330
9AF6
100
AcDbDictionary
280
     1
281
     1
  3
ACAD_XREC_ROUNDTRIP
360
9B5F
  0
DICTIONARY
  5
9B50
330
9AEF
100
AcDbDictionary
280
     1
281
     1
  3
ACAD_XREC_ROUNDTRIP
360
9B51
  0
DICTIONARY
  5
9B54
330
9AF1
100
AcDbDictionary
280
     1
281
     1
  3
ACAD_XREC_ROUNDTRIP
360
9B55
  0
DICTIONARY
  5
9B6E
330
9AFE
100
AcDbDictionary
280
     1
281
     1
  3
ACAD_XREC_ROUNDTRIP
360
9B6F
  0
DICTIONARY
  5
9B5C
330
9AF5
100
AcDbDictionary
280
     1
281
     1
  3
ACAD_XREC_ROUNDTRIP
360
9B5D
  0
DICTIONARY
  5
9B40
330
9AE7
100
AcDbDictionary
280
     1
281
     1
  3
ACAD_XREC_ROUNDTRIP
360
9B41
  0
DICTIONARY
  5
9B42
330
9AE8
100
AcDbDictionary
280
     1
281
     1
  3
ACAD_XREC_ROUNDTRIP
360
9B43
  0
DICTIONARY
  5
9B44
330
9AE9
100
AcDbDictionary
280
     1
281
     1
  3
ACAD_XREC_ROUNDTRIP
360
9B45
  0
DICTIONARY
  5
9B46
330
9AEA
100
AcDbDictionary
280
     1
281
     1
  3
ACAD_XREC_ROUNDTRIP
360
9B47
  0
DICTIONARY
  5
9B4E
330
9AEE
100
AcDbDictionary
280
     1
281
     1
  3
ACAD_XREC_ROUNDTRIP
360
9B4F
  0
DICTIONARY
  5
9B6A
330
9AFC
100
AcDbDictionary
280
     1
281
     1
  3
ACAD_XREC_ROUNDTRIP
360
9B6B
  0
DICTIONARY
  5
9B5A
330
9AF4
100
AcDbDictionary
280
     1
281
     1
  3
ACAD_XREC_ROUNDTRIP
360
9B5B
  0
DICTIONARY
  5
9B6C
330
9AFD
100
AcDbDictionary
280
     1
281
     1
  3
ACAD_XREC_ROUNDTRIP
360
9B6D
  0
DICTIONARY
  5
9B52
330
9AF0
100
AcDbDictionary
280
     1
281
     1
  3
ACAD_XREC_ROUNDTRIP
360
9B53
  0
DICTIONARY
  5
9B68
330
9AFB
100
AcDbDictionary
280
     1
281
     1
  3
ACAD_XREC_ROUNDTRIP
360
9B69
  0
DICTIONARY
  5
9B66
330
9AFA
100
AcDbDictionary
280
     1
281
     1
  3
ACAD_XREC_ROUNDTRIP
360
9B67
  0
DICTIONARY
  5
9B60
330
9AF7
100
AcDbDictionary
280
     1
281
     1
  3
ACAD_XREC_ROUNDTRIP
360
9B61
  0
DICTIONARY
  5
9B62
330
9AF8
100
AcDbDictionary
280
     1
281
     1
  3
ACAD_XREC_ROUNDTRIP
360
9B63
  0
DICTIONARY
  5
9B58
330
9AF3
100
AcDbDictionary
280
     1
281
     1
  3
ACAD_XREC_ROUNDTRIP
360
9B59
  0
DICTIONARY
  5
9B4C
330
9AED
100
AcDbDictionary
280
     1
281
     1
  3
ACAD_XREC_ROUNDTRIP
360
9B4D
  0
DICTIONARY
  5
9B64
330
9AF9
100
AcDbDictionary
280
     1
281
     1
  3
ACAD_XREC_ROUNDTRIP
360
9B65
  0
XRECORD
  5
9B75
102
{ACAD_REACTORS
330
9B74
102
}
330
9B74
100
AcDbXrecord
280
     1
102
DISPLAYNAME
  1
Imperial24
102
FLAGS
 90
        0
  0
XRECORD
  5
9B77
102
{ACAD_REACTORS
330
9B76
102
}
330
9B76
100
AcDbXrecord
280
     1
102
SHADEPLOT
 70
     0
102
SHADEPLOTRESLEVEL
 70
     2
102
SHADEPLOTCUSTOMDPI
 70
   300
  0
XRECORD
  5
9B79
102
{ACAD_REACTORS
330
9B78
102
}
330
9B78
100
AcDbXrecord
280
     1
102
SHADEPLOT
 70
     0
102
SHADEPLOTRESLEVEL
 70
     2
102
SHADEPLOTCUSTOMDPI
 70
   300
  0
XRECORD
  5
9B3E
102
{ACAD_REACTORS
330
9AD7
102
}
330
9AD7
100
AcDbXrecord
280
     1
102
MATERIAL
148
0.0
149
0.0
149
0.0
 93
        0
 94
      127
282
     0
 72
     0
 77
     0
171
     0
175
     0
179
     0
273
     0
  0
XRECORD
  5
9AD9
102
{ACAD_REACTORS
330
9AD7
102
}
330
9AD7
100
AcDbXrecord
280
     1
270
     1
271
     1
  0
XRECORD
  5
9AD8
102
{ACAD_REACTORS
330
9AD7
102
}
330
9AD7
100
AcDbXrecord
280
     1
270
     1
271
     1
  0
XRECORD
  5
9ADC
102
{ACAD_REACTORS
330
9AD7
102
}
330
9AD7
100
AcDbXrecord
280
     1
270
     1
271
     1
  0
XRECORD
  5
9ADB
102
{ACAD_REACTORS
330
9AD7
102
}
330
9AD7
100
AcDbXrecord
280
     1
270
     1
271
     1
  0
XRECORD
  5
9ADD
102
{ACAD_REACTORS
330
9AD7
102
}
330
9AD7
100
AcDbXrecord
280
     1
270
     1
271
     1
  0
XRECORD
  5
9ADA
102
{ACAD_REACTORS
330
9AD7
102
}
330
9AD7
100
AcDbXrecord
280
     1
270
     1
271
     1
  0
XRECORD
  5
9B3D
102
{ACAD_REACTORS
330
9ACF
102
}
330
9ACF
100
AcDbXrecord
280
     1
102
MATERIAL
148
0.0
149
0.0
149
0.0
 93
        0
 94
      127
282
     0
 72
     0
 77
     0
171
     0
175
     0
179
     0
273
     0
  0
XRECORD
  5
9AD1
102
{ACAD_REACTORS
330
9ACF
102
}
330
9ACF
100
AcDbXrecord
280
     1
270
     1
271
     1
  0
XRECORD
  5
9AD0
102
{ACAD_REACTORS
330
9ACF
102
}
330
9ACF
100
AcDbXrecord
280
     1
270
     1
271
     1
  0
XRECORD
  5
9AD4
102
{ACAD_REACTORS
330
9ACF
102
}
330
9ACF
100
AcDbXrecord
280
     1
270
     1
271
     1
  0
XRECORD
  5
9AD3
102
{ACAD_REACTORS
330
9ACF
102
}
330
9ACF
100
AcDbXrecord
280
     1
270
     1
271
     1
  0
XRECORD
  5
9AD5
102
{ACAD_REACTORS
330
9ACF
102
}
330
9ACF
100
AcDbXrecord
280
     1
270
     1
271
     1
  0
XRECORD
  5
9AD2
102
{ACAD_REACTORS
330
9ACF
102
}
330
9ACF
100
AcDbXrecord
280
     1
270
     1
271
     1
  0
XRECORD
  5
9B3F
102
{ACAD_REACTORS
330
9ADF
102
}
330
9ADF
100
AcDbXrecord
280
     1
102
MATERIAL
148
0.0
149
0.0
149
0.0
 93
        0
 94
      127
282
     0
 72
     0
 77
     0
171
     0
175
     0
179
     0
273
     0
  0
XRECORD
  5
9AE1
102
{ACAD_REACTORS
330
9ADF
102
}
330
9ADF
100
AcDbXrecord
280
     1
270
     1
271
     1
  0
XRECORD
  5
9AE0
102
{ACAD_REACTORS
330
9ADF
102
}
330
9ADF
100
AcDbXrecord
280
     1
270
     1
271
     1
  0
XRECORD
  5
9AE4
102
{ACAD_REACTORS
330
9ADF
102
}
330
9ADF
100
AcDbXrecord
280
     1
270
     1
271
     1
  0
XRECORD
  5
9AE3
102
{ACAD_REACTORS
330
9ADF
102
}
330
9ADF
100
AcDbXrecord
280
     1
270
     1
271
     1
  0
XRECORD
  5
9AE5
102
{ACAD_REACTORS
330
9ADF
102
}
330
9ADF
100
AcDbXrecord
280
     1
270
     1
271
     1
  0
XRECORD
  5
9AE2
102
{ACAD_REACTORS
330
9ADF
102
}
330
9ADF
100
AcDbXrecord
280
     1
270
     1
271
     1
  0
XRECORD
  5
9B73
102
{ACAD_REACTORS
330
9B72
102
}
330
9B72
100
AcDbXrecord
280
     1
102
DISPLAYNAME
  1
Imperial24
102
FLAGS
 90
        0
  0
CELLSTYLEMAP
  5
9B3A
102
{ACAD_REACTORS
330
9B39
102
}
330
9B39
100
AcDbCellStyleMap
 90
        3
300
CELLSTYLE
  1
TABLEFORMAT_BEGIN
 90
        5
170
     1
 91
        0
 92
    32768
 62
   257
 93
        1
300
CONTENTFORMAT
  1
CONTENTFORMAT_BEGIN
 90
        0
 91
        0
 92
      512
 93
        0
300

 40
0.0
140
1.0
 94
        5
 62
     0
340
98D2
144
0.25
309
CONTENTFORMAT_END
171
     0
 94
        0
309
TABLEFORMAT_END
  1
CELLSTYLE_BEGIN
 90
        1
 91
        1
300
_TITLE
309
CELLSTYLE_END
300
CELLSTYLE
  1
TABLEFORMAT_BEGIN
 90
        5
170
     1
 91
        0
 92
        0
 62
   257
 93
        1
300
CONTENTFORMAT
  1
CONTENTFORMAT_BEGIN
 90
        0
 91
        0
 92
      512
 93
        0
300

 40
0.0
140
1.0
 94
        5
 62
     0
340
98D2
144
0.18
309
CONTENTFORMAT_END
171
     0
 94
        0
309
TABLEFORMAT_END
  1
CELLSTYLE_BEGIN
 90
        2
 91
        1
300
_HEADER
309
CELLSTYLE_END
300
CELLSTYLE
  1
TABLEFORMAT_BEGIN
 90
        5
170
     1
 91
        0
 92
        0
 62
   257
 93
        1
300
CONTENTFORMAT
  1
CONTENTFORMAT_BEGIN
 90
        0
 91
        0
 92
      512
 93
        0
300

 40
0.0
140
1.0
 94
        2
 62
     0
340
98D2
144
0.18
309
CONTENTFORMAT_END
171
     0
 94
        0
309
TABLEFORMAT_END
  1
CELLSTYLE_BEGIN
 90
        3
 91
        2
300
_DATA
309
CELLSTYLE_END
  0
XRECORD
  5
9B70
102
{ACAD_REACTORS
330
9B39
102
}
330
9B39
100
AcDbXrecord
280
     1
102
ACAD_ROUNDTRIP_PRE2007_TABLESTYLE
 90
      512
 91
        0
  1

 92
      512
 93
        0
  2

 94
      512
 95
        0
  3

  0
XRECORD
  5
9B4B
102
{ACAD_REACTORS
330
9B4A
102
}
330
9B4A
100
AcDbXrecord
280
     1
102
RTVSPost2010Prop28
280
     1
102
RTVSPost2010PropOp28
 70
     1
102
RTVSPost2010Prop29
280
     1
102
RTVSPost2010PropOp29
 70
     1
102
RTVSPost2010Prop30
280
     0
102
RTVSPost2010PropOp30
 70
     1
102
RTVSPost2010Prop31
280
     0
102
RTVSPost2010PropOp31
 70
     1
102
RTVSPost2010Prop32
280
     0
102
RTVSPost2010PropOp32
 70
     1
102
RTVSPost2010Prop33
280
     0
102
RTVSPost2010PropOp33
 70
     1
102
RTVSPost2010Prop34
280
     0
102
RTVSPost2010PropOp34
 70
     1
102
RTVSPost2010Prop35
280
     0
102
RTVSPost2010PropOp35
 70
     1
102
RTVSPost2010Prop36
280
     0
102
RTVSPost2010PropOp36
 70
     1
102
RTVSPost2010Prop37
 90
       50
102
RTVSPost2010PropOp37
 70
     1
102
RTVSPost2010Prop38
140
0.0
102
RTVSPost2010PropOp38
 70
     1
102
RTVSPost2010Prop39
140
1.0
102
RTVSPost2010PropOp39
 70
     1
102
RTVSPost2010Prop40
 90
        0
102
RTVSPost2010PropOp40
 70
     1
102
RTVSPost2010Prop41ColorIndex
 90
       18
102
RTVSPost2010Prop41ColorRGB
 90
        0
102
RTVSPost2010PropOp41
 70
     1
102
RTVSPost2010Prop42
 90
       50
102
RTVSPost2010PropOp42
 70
     1
102
RTVSPost2010Prop43
 90
        3
102
RTVSPost2010PropOp43
 70
     1
102
RTVSPost2010Prop44ColorIndex
 90
        5
102
RTVSPost2010Prop44ColorRGB
 90
      255
102
RTVSPost2010PropOp44
 70
     1
102
RTVSPost2010Prop45
280
     0
102
RTVSPost2010PropOp45
 70
     1
102
RTVSPost2010Prop46
 90
       50
102
RTVSPost2010PropOp46
 70
     1
102
RTVSPost2010Prop47
 90
       50
102
RTVSPost2010PropOp47
 70
     1
102
RTVSPost2010Prop48
 90
       50
102
RTVSPost2010PropOp48
 70
     1
102
RTVSPost2010Prop49
280
     0
102
RTVSPost2010PropOp49
 70
     1
102
RTVSPost2010Prop50
 90
       50
102
RTVSPost2010PropOp50
 70
     1
102
RTVSPost2010Prop51ColorIndex
 90
      256
102
RTVSPost2010Prop51ColorRGB
 90
-16777216
102
RTVSPost2010PropOp51
 70
     0
102
RTVSPost2010Prop52
140
1.0
102
RTVSPost2010PropOp52
 70
     0
102
RTVSPost2010Prop53
 90
        2
102
RTVSPost2010PropOp53
 70
     1
102
RTVSPost2010Prop54
  1
strokes_ogs.tif
102
RTVSPost2010PropOp54
 70
     1
102
RTVSPost2010Prop55
280
     0
102
RTVSPost2010PropOp55
 70
     1
102
RTVSPost2010Prop56
140
1.0
102
RTVSPost2010PropOp56
 70
     1
102
RTVSPost2010Prop57
140
1.0
102
RTVSPost2010PropOp57
 70
     1
102
RTVSPropertyOp0
 70
     1
102
RTVSPropertyOp1
 70
     1
102
RTVSPropertyOp2
 70
     1
102
RTVSPropertyOp3
 70
     1
102
RTVSPropertyOp4
 70
     1
102
RTVSPropertyOp5
 70
     1
102
RTVSPropertyOp6
 70
     1
102
RTVSPropertyOp7
 70
     1
102
RTVSPropertyOp8
 70
     1
102
RTVSPropertyOp9
 70
     1
102
RTVSPropertyOp10
 70
     1
102
RTVSPropertyOp11
 70
     1
102
RTVSPropertyOp12
 70
     1
102
RTVSPropertyOp13
 70
     1
102
RTVSPropertyOp14
 70
     1
102
RTVSPropertyOp15
 70
     1
102
RTVSPropertyOp16
 70
     1
102
RTVSPropertyOp17
 70
     1
102
RTVSPropertyOp18
 70
     1
102
RTVSPropertyOp19
 70
     1
102
RTVSPropertyOp20
 70
     1
102
RTVSPropertyOp21
 70
     1
102
RTVSPropertyOp22
 70
     1
102
RTVSPropertyOp23
 70
     1
102
RTVSPropertyOp24
 70
     1
102
RTVSPropertyOp25
 70
     1
102
RTVSPropertyOp26
 70
     1
102
RTVSPropertyOp27
 70
     1
102
RTVSPropertyOp28
 70
     1
102
RTVSPropertyOp29
 70
     1
102
RTVSPropertyOp30
 70
     1
102
RTVSPropertyOp31
 70
     1
102
RTVSPropertyOp32
 70
     1
102
RTVSPropertyOp33
 70
     1
102
RTVSPropertyOp34
 70
     1
102
RTVSPropertyOp35
 70
     1
102
RTVSPropertyOp36
 70
     1
102
RTVSPropertyOp37
 70
     1
102
RTVSPropertyOp38
 70
     1
102
RTVSPropertyOp39
 70
     1
102
RTVSPropertyOp40
 70
     1
102
RTVSPropertyOp41
 70
     1
102
RTVSPropertyOp42
 70
     1
102
RTVSPropertyOp43
 70
     1
102
RTVSPropertyOp44
 70
     1
102
RTVSPropertyOp45
 70
     1
102
RTVSPropertyOp46
 70
     1
102
RTVSPropertyOp47
 70
     1
102
RTVSPropertyOp48
 70
     1
102
RTVSPropertyOp49
 70
     1
102
RTVSPropertyOp50
 70
     1
102
RTVSPropertyOp51
 70
     0
102
RTVSPropertyOp52
 70
     0
102
RTVSPropertyOp53
 70
     1
102
RTVSPropertyOp54
 70
     1
102
RTVSPropertyOp55
 70
     1
102
RTVSPropertyOp56
 70
     1
102
RTVSPropertyOp57
 70
     1
102
RTVSPropertyOp58
 70
     1
102
RTVSPropertyOp59
 70
     1
102
RTVSPropertyOp60
 70
     1
102
RTVSPropertyOp61
 70
     1
102
RTVSPropertyOp62
 70
     1
  0
XRECORD
  5
9B49
102
{ACAD_REACTORS
330
9B48
102
}
330
9B48
100
AcDbXrecord
280
     1
102
RTVSPost2010Prop28
280
     0
102
RTVSPost2010PropOp28
 70
     1
102
RTVSPost2010Prop29
280
     1
102
RTVSPost2010PropOp29
 70
     1
102
RTVSPost2010Prop30
280
     1
102
RTVSPost2010PropOp30
 70
     1
102
RTVSPost2010Prop31
280
     0
102
RTVSPost2010PropOp31
 70
     1
102
RTVSPost2010Prop32
280
     0
102
RTVSPost2010PropOp32
 70
     1
102
RTVSPost2010Prop33
280
     0
102
RTVSPost2010PropOp33
 70
     1
102
RTVSPost2010Prop34
280
     0
102
RTVSPost2010PropOp34
 70
     1
102
RTVSPost2010Prop35
280
     0
102
RTVSPost2010PropOp35
 70
     1
102
RTVSPost2010Prop36
280
     0
102
RTVSPost2010PropOp36
 70
     1
102
RTVSPost2010Prop37
 90
       50
102
RTVSPost2010PropOp37
 70
     1
102
RTVSPost2010Prop38
140
0.0
102
RTVSPost2010PropOp38
 70
     1
102
RTVSPost2010Prop39
140
1.0
102
RTVSPost2010PropOp39
 70
     1
102
RTVSPost2010Prop40
 90
        0
102
RTVSPost2010PropOp40
 70
     1
102
RTVSPost2010Prop41ColorIndex
 90
       18
102
RTVSPost2010Prop41ColorRGB
 90
        0
102
RTVSPost2010PropOp41
 70
     1
102
RTVSPost2010Prop42
 90
       50
102
RTVSPost2010PropOp42
 70
     1
102
RTVSPost2010Prop43
 90
        3
102
RTVSPost2010PropOp43
 70
     1
102
RTVSPost2010Prop44ColorIndex
 90
        5
102
RTVSPost2010Prop44ColorRGB
 90
      255
102
RTVSPost2010PropOp44
 70
     1
102
RTVSPost2010Prop45
280
     0
102
RTVSPost2010PropOp45
 70
     1
102
RTVSPost2010Prop46
 90
       50
102
RTVSPost2010PropOp46
 70
     1
102
RTVSPost2010Prop47
 90
       50
102
RTVSPost2010PropOp47
 70
     1
102
RTVSPost2010Prop48
 90
       50
102
RTVSPost2010PropOp48
 70
     1
102
RTVSPost2010Prop49
280
     0
102
RTVSPost2010PropOp49
 70
     1
102
RTVSPost2010Prop50
 90
       50
102
RTVSPost2010PropOp50
 70
     1
102
RTVSPost2010Prop51ColorIndex
 90
      256
102
RTVSPost2010Prop51ColorRGB
 90
-16777216
102
RTVSPost2010PropOp51
 70
     0
102
RTVSPost2010Prop52
140
1.0
102
RTVSPost2010PropOp52
 70
     0
102
RTVSPost2010Prop53
 90
        2
102
RTVSPost2010PropOp53
 70
     1
102
RTVSPost2010Prop54
  1
strokes_ogs.tif
102
RTVSPost2010PropOp54
 70
     1
102
RTVSPost2010Prop55
280
     0
102
RTVSPost2010PropOp55
 70
     1
102
RTVSPost2010Prop56
140
1.0
102
RTVSPost2010PropOp56
 70
     1
102
RTVSPost2010Prop57
140
1.0
102
RTVSPost2010PropOp57
 70
     1
102
RTVSPropertyOp0
 70
     1
102
RTVSPropertyOp1
 70
     1
102
RTVSPropertyOp2
 70
     1
102
RTVSPropertyOp3
 70
     1
102
RTVSPropertyOp4
 70
     1
102
RTVSPropertyOp5
 70
     1
102
RTVSPropertyOp6
 70
     1
102
RTVSPropertyOp7
 70
     1
102
RTVSPropertyOp8
 70
     1
102
RTVSPropertyOp9
 70
     1
102
RTVSPropertyOp10
 70
     1
102
RTVSPropertyOp11
 70
     1
102
RTVSPropertyOp12
 70
     1
102
RTVSPropertyOp13
 70
     1
102
RTVSPropertyOp14
 70
     1
102
RTVSPropertyOp15
 70
     1
102
RTVSPropertyOp16
 70
     1
102
RTVSPropertyOp17
 70
     1
102
RTVSPropertyOp18
 70
     1
102
RTVSPropertyOp19
 70
     1
102
RTVSPropertyOp20
 70
     1
102
RTVSPropertyOp21
 70
     1
102
RTVSPropertyOp22
 70
     1
102
RTVSPropertyOp23
 70
     1
102
RTVSPropertyOp24
 70
     1
102
RTVSPropertyOp25
 70
     1
102
RTVSPropertyOp26
 70
     1
102
RTVSPropertyOp27
 70
     1
102
RTVSPropertyOp28
 70
     1
102
RTVSPropertyOp29
 70
     1
102
RTVSPropertyOp30
 70
     1
102
RTVSPropertyOp31
 70
     1
102
RTVSPropertyOp32
 70
     1
102
RTVSPropertyOp33
 70
     1
102
RTVSPropertyOp34
 70
     1
102
RTVSPropertyOp35
 70
     1
102
RTVSPropertyOp36
 70
     1
102
RTVSPropertyOp37
 70
     1
102
RTVSPropertyOp38
 70
     1
102
RTVSPropertyOp39
 70
     1
102
RTVSPropertyOp40
 70
     1
102
RTVSPropertyOp41
 70
     1
102
RTVSPropertyOp42
 70
     1
102
RTVSPropertyOp43
 70
     1
102
RTVSPropertyOp44
 70
     1
102
RTVSPropertyOp45
 70
     1
102
RTVSPropertyOp46
 70
     1
102
RTVSPropertyOp47
 70
     1
102
RTVSPropertyOp48
 70
     1
102
RTVSPropertyOp49
 70
     1
102
RTVSPropertyOp50
 70
     1
102
RTVSPropertyOp51
 70
     0
102
RTVSPropertyOp52
 70
     0
102
RTVSPropertyOp53
 70
     1
102
RTVSPropertyOp54
 70
     1
102
RTVSPropertyOp55
 70
     1
102
RTVSPropertyOp56
 70
     1
102
RTVSPropertyOp57
 70
     1
102
RTVSPropertyOp58
 70
     1
102
RTVSPropertyOp59
 70
     1
102
RTVSPropertyOp60
 70
     1
102
RTVSPropertyOp61
 70
     1
102
RTVSPropertyOp62
 70
     1
  0
XRECORD
  5
9B57
102
{ACAD_REACTORS
330
9B56
102
}
330
9B56
100
AcDbXrecord
280
     1
102
RTVSPost2010Prop28
280
     0
102
RTVSPost2010PropOp28
 70
     1
102
RTVSPost2010Prop29
280
     1
102
RTVSPost2010PropOp29
 70
     1
102
RTVSPost2010Prop30
280
     1
102
RTVSPost2010PropOp30
 70
     1
102
RTVSPost2010Prop31
280
     0
102
RTVSPost2010PropOp31
 70
     1
102
RTVSPost2010Prop32
280
     0
102
RTVSPost2010PropOp32
 70
     1
102
RTVSPost2010Prop33
280
     0
102
RTVSPost2010PropOp33
 70
     1
102
RTVSPost2010Prop34
280
     0
102
RTVSPost2010PropOp34
 70
     1
102
RTVSPost2010Prop35
280
     0
102
RTVSPost2010PropOp35
 70
     1
102
RTVSPost2010Prop36
280
     0
102
RTVSPost2010PropOp36
 70
     1
102
RTVSPost2010Prop37
 90
       50
102
RTVSPost2010PropOp37
 70
     1
102
RTVSPost2010Prop38
140
0.0
102
RTVSPost2010PropOp38
 70
     1
102
RTVSPost2010Prop39
140
1.0
102
RTVSPost2010PropOp39
 70
     1
102
RTVSPost2010Prop40
 90
        0
102
RTVSPost2010PropOp40
 70
     1
102
RTVSPost2010Prop41ColorIndex
 90
       18
102
RTVSPost2010Prop41ColorRGB
 90
        0
102
RTVSPost2010PropOp41
 70
     1
102
RTVSPost2010Prop42
 90
       50
102
RTVSPost2010PropOp42
 70
     1
102
RTVSPost2010Prop43
 90
        3
102
RTVSPost2010PropOp43
 70
     1
102
RTVSPost2010Prop44ColorIndex
 90
        5
102
RTVSPost2010Prop44ColorRGB
 90
      255
102
RTVSPost2010PropOp44
 70
     1
102
RTVSPost2010Prop45
280
     0
102
RTVSPost2010PropOp45
 70
     1
102
RTVSPost2010Prop46
 90
       50
102
RTVSPost2010PropOp46
 70
     1
102
RTVSPost2010Prop47
 90
       50
102
RTVSPost2010PropOp47
 70
     1
102
RTVSPost2010Prop48
 90
       50
102
RTVSPost2010PropOp48
 70
     1
102
RTVSPost2010Prop49
280
     0
102
RTVSPost2010PropOp49
 70
     1
102
RTVSPost2010Prop50
 90
       50
102
RTVSPost2010PropOp50
 70
     1
102
RTVSPost2010Prop51ColorIndex
 90
      256
102
RTVSPost2010Prop51ColorRGB
 90
-16777216
102
RTVSPost2010PropOp51
 70
     0
102
RTVSPost2010Prop52
140
1.0
102
RTVSPost2010PropOp52
 70
     0
102
RTVSPost2010Prop53
 90
        2
102
RTVSPost2010PropOp53
 70
     1
102
RTVSPost2010Prop54
  1
strokes_ogs.tif
102
RTVSPost2010PropOp54
 70
     1
102
RTVSPost2010Prop55
280
     0
102
RTVSPost2010PropOp55
 70
     1
102
RTVSPost2010Prop56
140
1.0
102
RTVSPost2010PropOp56
 70
     1
102
RTVSPost2010Prop57
140
1.0
102
RTVSPost2010PropOp57
 70
     1
102
RTVSPropertyOp0
 70
     1
102
RTVSPropertyOp1
 70
     1
102
RTVSPropertyOp2
 70
     1
102
RTVSPropertyOp3
 70
     1
102
RTVSPropertyOp4
 70
     1
102
RTVSPropertyOp5
 70
     1
102
RTVSPropertyOp6
 70
     1
102
RTVSPropertyOp7
 70
     1
102
RTVSPropertyOp8
 70
     1
102
RTVSPropertyOp9
 70
     1
102
RTVSPropertyOp10
 70
     1
102
RTVSPropertyOp11
 70
     1
102
RTVSPropertyOp12
 70
     1
102
RTVSPropertyOp13
 70
     1
102
RTVSPropertyOp14
 70
     1
102
RTVSPropertyOp15
 70
     1
102
RTVSPropertyOp16
 70
     1
102
RTVSPropertyOp17
 70
     1
102
RTVSPropertyOp18
 70
     1
102
RTVSPropertyOp19
 70
     1
102
RTVSPropertyOp20
 70
     1
102
RTVSPropertyOp21
 70
     1
102
RTVSPropertyOp22
 70
     1
102
RTVSPropertyOp23
 70
     1
102
RTVSPropertyOp24
 70
     1
102
RTVSPropertyOp25
 70
     1
102
RTVSPropertyOp26
 70
     1
102
RTVSPropertyOp27
 70
     1
102
RTVSPropertyOp28
 70
     1
102
RTVSPropertyOp29
 70
     1
102
RTVSPropertyOp30
 70
     1
102
RTVSPropertyOp31
 70
     1
102
RTVSPropertyOp32
 70
     1
102
RTVSPropertyOp33
 70
     1
102
RTVSPropertyOp34
 70
     1
102
RTVSPropertyOp35
 70
     1
102
RTVSPropertyOp36
 70
     1
102
RTVSPropertyOp37
 70
     1
102
RTVSPropertyOp38
 70
     1
102
RTVSPropertyOp39
 70
     1
102
RTVSPropertyOp40
 70
     1
102
RTVSPropertyOp41
 70
     1
102
RTVSPropertyOp42
 70
     1
102
RTVSPropertyOp43
 70
     1
102
RTVSPropertyOp44
 70
     1
102
RTVSPropertyOp45
 70
     1
102
RTVSPropertyOp46
 70
     1
102
RTVSPropertyOp47
 70
     1
102
RTVSPropertyOp48
 70
     1
102
RTVSPropertyOp49
 70
     1
102
RTVSPropertyOp50
 70
     1
102
RTVSPropertyOp51
 70
     0
102
RTVSPropertyOp52
 70
     0
102
RTVSPropertyOp53
 70
     1
102
RTVSPropertyOp54
 70
     1
102
RTVSPropertyOp55
 70
     1
102
RTVSPropertyOp56
 70
     1
102
RTVSPropertyOp57
 70
     1
102
RTVSPropertyOp58
 70
     1
102
RTVSPropertyOp59
 70
     1
102
RTVSPropertyOp60
 70
     1
102
RTVSPropertyOp61
 70
     1
102
RTVSPropertyOp62
 70
     1
  0
XRECORD
  5
9B5F
102
{ACAD_REACTORS
330
9B5E
102
}
330
9B5E
100
AcDbXrecord
280
     1
102
RTVSPost2010Prop28
280
     0
102
RTVSPost2010PropOp28
 70
     1
102
RTVSPost2010Prop29
280
     1
102
RTVSPost2010PropOp29
 70
     1
102
RTVSPost2010Prop30
280
     1
102
RTVSPost2010PropOp30
 70
     1
102
RTVSPost2010Prop31
280
     0
102
RTVSPost2010PropOp31
 70
     1
102
RTVSPost2010Prop32
280
     0
102
RTVSPost2010PropOp32
 70
     1
102
RTVSPost2010Prop33
280
     0
102
RTVSPost2010PropOp33
 70
     1
102
RTVSPost2010Prop34
280
     0
102
RTVSPost2010PropOp34
 70
     1
102
RTVSPost2010Prop35
280
     0
102
RTVSPost2010PropOp35
 70
     1
102
RTVSPost2010Prop36
280
     0
102
RTVSPost2010PropOp36
 70
     1
102
RTVSPost2010Prop37
 90
       50
102
RTVSPost2010PropOp37
 70
     1
102
RTVSPost2010Prop38
140
0.0
102
RTVSPost2010PropOp38
 70
     1
102
RTVSPost2010Prop39
140
1.0
102
RTVSPost2010PropOp39
 70
     1
102
RTVSPost2010Prop40
 90
        0
102
RTVSPost2010PropOp40
 70
     1
102
RTVSPost2010Prop41ColorIndex
 90
       18
102
RTVSPost2010Prop41ColorRGB
 90
        0
102
RTVSPost2010PropOp41
 70
     1
102
RTVSPost2010Prop42
 90
       50
102
RTVSPost2010PropOp42
 70
     1
102
RTVSPost2010Prop43
 90
        3
102
RTVSPost2010PropOp43
 70
     1
102
RTVSPost2010Prop44ColorIndex
 90
        5
102
RTVSPost2010Prop44ColorRGB
 90
      255
102
RTVSPost2010PropOp44
 70
     1
102
RTVSPost2010Prop45
280
     0
102
RTVSPost2010PropOp45
 70
     1
102
RTVSPost2010Prop46
 90
       50
102
RTVSPost2010PropOp46
 70
     1
102
RTVSPost2010Prop47
 90
       50
102
RTVSPost2010PropOp47
 70
     1
102
RTVSPost2010Prop48
 90
       50
102
RTVSPost2010PropOp48
 70
     1
102
RTVSPost2010Prop49
280
     0
102
RTVSPost2010PropOp49
 70
     1
102
RTVSPost2010Prop50
 90
       50
102
RTVSPost2010PropOp50
 70
     1
102
RTVSPost2010Prop51ColorIndex
 90
      256
102
RTVSPost2010Prop51ColorRGB
 90
-16777216
102
RTVSPost2010PropOp51
 70
     0
102
RTVSPost2010Prop52
140
1.0
102
RTVSPost2010PropOp52
 70
     0
102
RTVSPost2010Prop53
 90
        2
102
RTVSPost2010PropOp53
 70
     1
102
RTVSPost2010Prop54
  1
strokes_ogs.tif
102
RTVSPost2010PropOp54
 70
     1
102
RTVSPost2010Prop55
280
     0
102
RTVSPost2010PropOp55
 70
     1
102
RTVSPost2010Prop56
140
1.0
102
RTVSPost2010PropOp56
 70
     1
102
RTVSPost2010Prop57
140
1.0
102
RTVSPost2010PropOp57
 70
     1
102
RTVSPropertyOp0
 70
     1
102
RTVSPropertyOp1
 70
     1
102
RTVSPropertyOp2
 70
     1
102
RTVSPropertyOp3
 70
     1
102
RTVSPropertyOp4
 70
     1
102
RTVSPropertyOp5
 70
     1
102
RTVSPropertyOp6
 70
     1
102
RTVSPropertyOp7
 70
     1
102
RTVSPropertyOp8
 70
     1
102
RTVSPropertyOp9
 70
     1
102
RTVSPropertyOp10
 70
     1
102
RTVSPropertyOp11
 70
     1
102
RTVSPropertyOp12
 70
     1
102
RTVSPropertyOp13
 70
     1
102
RTVSPropertyOp14
 70
     1
102
RTVSPropertyOp15
 70
     1
102
RTVSPropertyOp16
 70
     1
102
RTVSPropertyOp17
 70
     1
102
RTVSPropertyOp18
 70
     1
102
RTVSPropertyOp19
 70
     1
102
RTVSPropertyOp20
 70
     1
102
RTVSPropertyOp21
 70
     1
102
RTVSPropertyOp22
 70
     1
102
RTVSPropertyOp23
 70
     1
102
RTVSPropertyOp24
 70
     1
102
RTVSPropertyOp25
 70
     1
102
RTVSPropertyOp26
 70
     1
102
RTVSPropertyOp27
 70
     1
102
RTVSPropertyOp28
 70
     1
102
RTVSPropertyOp29
 70
     1
102
RTVSPropertyOp30
 70
     1
102
RTVSPropertyOp31
 70
     1
102
RTVSPropertyOp32
 70
     1
102
RTVSPropertyOp33
 70
     1
102
RTVSPropertyOp34
 70
     1
102
RTVSPropertyOp35
 70
     1
102
RTVSPropertyOp36
 70
     1
102
RTVSPropertyOp37
 70
     1
102
RTVSPropertyOp38
 70
     1
102
RTVSPropertyOp39
 70
     1
102
RTVSPropertyOp40
 70
     1
102
RTVSPropertyOp41
 70
     1
102
RTVSPropertyOp42
 70
     1
102
RTVSPropertyOp43
 70
     1
102
RTVSPropertyOp44
 70
     1
102
RTVSPropertyOp45
 70
     1
102
RTVSPropertyOp46
 70
     1
102
RTVSPropertyOp47
 70
     1
102
RTVSPropertyOp48
 70
     1
102
RTVSPropertyOp49
 70
     1
102
RTVSPropertyOp50
 70
     1
102
RTVSPropertyOp51
 70
     0
102
RTVSPropertyOp52
 70
     0
102
RTVSPropertyOp53
 70
     1
102
RTVSPropertyOp54
 70
     1
102
RTVSPropertyOp55
 70
     1
102
RTVSPropertyOp56
 70
     1
102
RTVSPropertyOp57
 70
     1
102
RTVSPropertyOp58
 70
     1
102
RTVSPropertyOp59
 70
     1
102
RTVSPropertyOp60
 70
     1
102
RTVSPropertyOp61
 70
     1
102
RTVSPropertyOp62
 70
     1
  0
XRECORD
  5
9B51
102
{ACAD_REACTORS
330
9B50
102
}
330
9B50
100
AcDbXrecord
280
     1
102
RTVSPost2010Prop28
280
     0
102
RTVSPost2010PropOp28
 70
     1
102
RTVSPost2010Prop29
280
     1
102
RTVSPost2010PropOp29
 70
     1
102
RTVSPost2010Prop30
280
     1
102
RTVSPost2010PropOp30
 70
     1
102
RTVSPost2010Prop31
280
     0
102
RTVSPost2010PropOp31
 70
     1
102
RTVSPost2010Prop32
280
     0
102
RTVSPost2010PropOp32
 70
     1
102
RTVSPost2010Prop33
280
     0
102
RTVSPost2010PropOp33
 70
     1
102
RTVSPost2010Prop34
280
     0
102
RTVSPost2010PropOp34
 70
     1
102
RTVSPost2010Prop35
280
     0
102
RTVSPost2010PropOp35
 70
     1
102
RTVSPost2010Prop36
280
     0
102
RTVSPost2010PropOp36
 70
     1
102
RTVSPost2010Prop37
 90
       50
102
RTVSPost2010PropOp37
 70
     1
102
RTVSPost2010Prop38
140
0.0
102
RTVSPost2010PropOp38
 70
     1
102
RTVSPost2010Prop39
140
1.0
102
RTVSPost2010PropOp39
 70
     1
102
RTVSPost2010Prop40
 90
        0
102
RTVSPost2010PropOp40
 70
     1
102
RTVSPost2010Prop41ColorIndex
 90
       18
102
RTVSPost2010Prop41ColorRGB
 90
        0
102
RTVSPost2010PropOp41
 70
     1
102
RTVSPost2010Prop42
 90
       50
102
RTVSPost2010PropOp42
 70
     1
102
RTVSPost2010Prop43
 90
        3
102
RTVSPost2010PropOp43
 70
     1
102
RTVSPost2010Prop44ColorIndex
 90
        5
102
RTVSPost2010Prop44ColorRGB
 90
      255
102
RTVSPost2010PropOp44
 70
     1
102
RTVSPost2010Prop45
280
     0
102
RTVSPost2010PropOp45
 70
     1
102
RTVSPost2010Prop46
 90
       50
102
RTVSPost2010PropOp46
 70
     1
102
RTVSPost2010Prop47
 90
       50
102
RTVSPost2010PropOp47
 70
     1
102
RTVSPost2010Prop48
 90
       50
102
RTVSPost2010PropOp48
 70
     1
102
RTVSPost2010Prop49
280
     0
102
RTVSPost2010PropOp49
 70
     1
102
RTVSPost2010Prop50
 90
       50
102
RTVSPost2010PropOp50
 70
     1
102
RTVSPost2010Prop51ColorIndex
 90
      256
102
RTVSPost2010Prop51ColorRGB
 90
-16777216
102
RTVSPost2010PropOp51
 70
     0
102
RTVSPost2010Prop52
140
1.0
102
RTVSPost2010PropOp52
 70
     0
102
RTVSPost2010Prop53
 90
        2
102
RTVSPost2010PropOp53
 70
     1
102
RTVSPost2010Prop54
  1
strokes_ogs.tif
102
RTVSPost2010PropOp54
 70
     1
102
RTVSPost2010Prop55
280
     0
102
RTVSPost2010PropOp55
 70
     1
102
RTVSPost2010Prop56
140
1.0
102
RTVSPost2010PropOp56
 70
     1
102
RTVSPost2010Prop57
140
1.0
102
RTVSPost2010PropOp57
 70
     1
102
RTVSPropertyOp0
 70
     1
102
RTVSPropertyOp1
 70
     1
102
RTVSPropertyOp2
 70
     1
102
RTVSPropertyOp3
 70
     1
102
RTVSPropertyOp4
 70
     1
102
RTVSPropertyOp5
 70
     1
102
RTVSPropertyOp6
 70
     1
102
RTVSPropertyOp7
 70
     1
102
RTVSPropertyOp8
 70
     1
102
RTVSPropertyOp9
 70
     1
102
RTVSPropertyOp10
 70
     1
102
RTVSPropertyOp11
 70
     1
102
RTVSPropertyOp12
 70
     1
102
RTVSPropertyOp13
 70
     1
102
RTVSPropertyOp14
 70
     1
102
RTVSPropertyOp15
 70
     1
102
RTVSPropertyOp16
 70
     1
102
RTVSPropertyOp17
 70
     1
102
RTVSPropertyOp18
 70
     1
102
RTVSPropertyOp19
 70
     1
102
RTVSPropertyOp20
 70
     1
102
RTVSPropertyOp21
 70
     1
102
RTVSPropertyOp22
 70
     1
102
RTVSPropertyOp23
 70
     1
102
RTVSPropertyOp24
 70
     1
102
RTVSPropertyOp25
 70
     1
102
RTVSPropertyOp26
 70
     1
102
RTVSPropertyOp27
 70
     1
102
RTVSPropertyOp28
 70
     1
102
RTVSPropertyOp29
 70
     1
102
RTVSPropertyOp30
 70
     1
102
RTVSPropertyOp31
 70
     1
102
RTVSPropertyOp32
 70
     1
102
RTVSPropertyOp33
 70
     1
102
RTVSPropertyOp34
 70
     1
102
RTVSPropertyOp35
 70
     1
102
RTVSPropertyOp36
 70
     1
102
RTVSPropertyOp37
 70
     1
102
RTVSPropertyOp38
 70
     1
102
RTVSPropertyOp39
 70
     1
102
RTVSPropertyOp40
 70
     1
102
RTVSPropertyOp41
 70
     1
102
RTVSPropertyOp42
 70
     1
102
RTVSPropertyOp43
 70
     1
102
RTVSPropertyOp44
 70
     1
102
RTVSPropertyOp45
 70
     1
102
RTVSPropertyOp46
 70
     1
102
RTVSPropertyOp47
 70
     1
102
RTVSPropertyOp48
 70
     1
102
RTVSPropertyOp49
 70
     1
102
RTVSPropertyOp50
 70
     1
102
RTVSPropertyOp51
 70
     0
102
RTVSPropertyOp52
 70
     0
102
RTVSPropertyOp53
 70
     1
102
RTVSPropertyOp54
 70
     1
102
RTVSPropertyOp55
 70
     1
102
RTVSPropertyOp56
 70
     1
102
RTVSPropertyOp57
 70
     1
102
RTVSPropertyOp58
 70
     1
102
RTVSPropertyOp59
 70
     1
102
RTVSPropertyOp60
 70
     1
102
RTVSPropertyOp61
 70
     1
102
RTVSPropertyOp62
 70
     1
  0
XRECORD
  5
9B55
102
{ACAD_REACTORS
330
9B54
102
}
330
9B54
100
AcDbXrecord
280
     1
102
RTVSPost2010Prop28
280
     0
102
RTVSPost2010PropOp28
 70
     1
102
RTVSPost2010Prop29
280
     1
102
RTVSPost2010PropOp29
 70
     1
102
RTVSPost2010Prop30
280
     1
102
RTVSPost2010PropOp30
 70
     1
102
RTVSPost2010Prop31
280
     0
102
RTVSPost2010PropOp31
 70
     1
102
RTVSPost2010Prop32
280
     0
102
RTVSPost2010PropOp32
 70
     1
102
RTVSPost2010Prop33
280
     0
102
RTVSPost2010PropOp33
 70
     1
102
RTVSPost2010Prop34
280
     0
102
RTVSPost2010PropOp34
 70
     1
102
RTVSPost2010Prop35
280
     0
102
RTVSPost2010PropOp35
 70
     1
102
RTVSPost2010Prop36
280
     0
102
RTVSPost2010PropOp36
 70
     1
102
RTVSPost2010Prop37
 90
       50
102
RTVSPost2010PropOp37
 70
     1
102
RTVSPost2010Prop38
140
0.0
102
RTVSPost2010PropOp38
 70
     1
102
RTVSPost2010Prop39
140
1.0
102
RTVSPost2010PropOp39
 70
     1
102
RTVSPost2010Prop40
 90
        0
102
RTVSPost2010PropOp40
 70
     1
102
RTVSPost2010Prop41ColorIndex
 90
       18
102
RTVSPost2010Prop41ColorRGB
 90
        0
102
RTVSPost2010PropOp41
 70
     1
102
RTVSPost2010Prop42
 90
       50
102
RTVSPost2010PropOp42
 70
     1
102
RTVSPost2010Prop43
 90
        3
102
RTVSPost2010PropOp43
 70
     1
102
RTVSPost2010Prop44ColorIndex
 90
        5
102
RTVSPost2010Prop44ColorRGB
 90
      255
102
RTVSPost2010PropOp44
 70
     1
102
RTVSPost2010Prop45
280
     0
102
RTVSPost2010PropOp45
 70
     1
102
RTVSPost2010Prop46
 90
       50
102
RTVSPost2010PropOp46
 70
     1
102
RTVSPost2010Prop47
 90
       50
102
RTVSPost2010PropOp47
 70
     1
102
RTVSPost2010Prop48
 90
       50
102
RTVSPost2010PropOp48
 70
     1
102
RTVSPost2010Prop49
280
     0
102
RTVSPost2010PropOp49
 70
     1
102
RTVSPost2010Prop50
 90
       50
102
RTVSPost2010PropOp50
 70
     1
102
RTVSPost2010Prop51ColorIndex
 90
      256
102
RTVSPost2010Prop51ColorRGB
 90
-16777216
102
RTVSPost2010PropOp51
 70
     0
102
RTVSPost2010Prop52
140
1.0
102
RTVSPost2010PropOp52
 70
     0
102
RTVSPost2010Prop53
 90
        2
102
RTVSPost2010PropOp53
 70
     1
102
RTVSPost2010Prop54
  1
strokes_ogs.tif
102
RTVSPost2010PropOp54
 70
     1
102
RTVSPost2010Prop55
280
     0
102
RTVSPost2010PropOp55
 70
     1
102
RTVSPost2010Prop56
140
1.0
102
RTVSPost2010PropOp56
 70
     1
102
RTVSPost2010Prop57
140
1.0
102
RTVSPost2010PropOp57
 70
     1
102
RTVSPropertyOp0
 70
     1
102
RTVSPropertyOp1
 70
     1
102
RTVSPropertyOp2
 70
     1
102
RTVSPropertyOp3
 70
     1
102
RTVSPropertyOp4
 70
     1
102
RTVSPropertyOp5
 70
     1
102
RTVSPropertyOp6
 70
     1
102
RTVSPropertyOp7
 70
     1
102
RTVSPropertyOp8
 70
     1
102
RTVSPropertyOp9
 70
     1
102
RTVSPropertyOp10
 70
     1
102
RTVSPropertyOp11
 70
     1
102
RTVSPropertyOp12
 70
     1
102
RTVSPropertyOp13
 70
     1
102
RTVSPropertyOp14
 70
     1
102
RTVSPropertyOp15
 70
     1
102
RTVSPropertyOp16
 70
     1
102
RTVSPropertyOp17
 70
     1
102
RTVSPropertyOp18
 70
     1
102
RTVSPropertyOp19
 70
     1
102
RTVSPropertyOp20
 70
     1
102
RTVSPropertyOp21
 70
     1
102
RTVSPropertyOp22
 70
     1
102
RTVSPropertyOp23
 70
     1
102
RTVSPropertyOp24
 70
     1
102
RTVSPropertyOp25
 70
     1
102
RTVSPropertyOp26
 70
     1
102
RTVSPropertyOp27
 70
     1
102
RTVSPropertyOp28
 70
     1
102
RTVSPropertyOp29
 70
     1
102
RTVSPropertyOp30
 70
     1
102
RTVSPropertyOp31
 70
     1
102
RTVSPropertyOp32
 70
     1
102
RTVSPropertyOp33
 70
     1
102
RTVSPropertyOp34
 70
     1
102
RTVSPropertyOp35
 70
     1
102
RTVSPropertyOp36
 70
     1
102
RTVSPropertyOp37
 70
     1
102
RTVSPropertyOp38
 70
     1
102
RTVSPropertyOp39
 70
     1
102
RTVSPropertyOp40
 70
     1
102
RTVSPropertyOp41
 70
     1
102
RTVSPropertyOp42
 70
     1
102
RTVSPropertyOp43
 70
     1
102
RTVSPropertyOp44
 70
     1
102
RTVSPropertyOp45
 70
     1
102
RTVSPropertyOp46
 70
     1
102
RTVSPropertyOp47
 70
     1
102
RTVSPropertyOp48
 70
     1
102
RTVSPropertyOp49
 70
     1
102
RTVSPropertyOp50
 70
     1
102
RTVSPropertyOp51
 70
     0
102
RTVSPropertyOp52
 70
     0
102
RTVSPropertyOp53
 70
     1
102
RTVSPropertyOp54
 70
     1
102
RTVSPropertyOp55
 70
     1
102
RTVSPropertyOp56
 70
     1
102
RTVSPropertyOp57
 70
     1
102
RTVSPropertyOp58
 70
     1
102
RTVSPropertyOp59
 70
     1
102
RTVSPropertyOp60
 70
     1
102
RTVSPropertyOp61
 70
     1
102
RTVSPropertyOp62
 70
     1
  0
XRECORD
  5
9B6F
102
{ACAD_REACTORS
330
9B6E
102
}
330
9B6E
100
AcDbXrecord
280
     1
102
RTVSPost2010Prop28
280
     0
102
RTVSPost2010PropOp28
 70
     1
102
RTVSPost2010Prop29
280
     1
102
RTVSPost2010PropOp29
 70
     1
102
RTVSPost2010Prop30
280
     1
102
RTVSPost2010PropOp30
 70
     1
102
RTVSPost2010Prop31
280
     0
102
RTVSPost2010PropOp31
 70
     1
102
RTVSPost2010Prop32
280
     0
102
RTVSPost2010PropOp32
 70
     1
102
RTVSPost2010Prop33
280
     0
102
RTVSPost2010PropOp33
 70
     1
102
RTVSPost2010Prop34
280
     0
102
RTVSPost2010PropOp34
 70
     1
102
RTVSPost2010Prop35
280
     0
102
RTVSPost2010PropOp35
 70
     1
102
RTVSPost2010Prop36
280
     0
102
RTVSPost2010PropOp36
 70
     1
102
RTVSPost2010Prop37
 90
       50
102
RTVSPost2010PropOp37
 70
     0
102
RTVSPost2010Prop38
140
0.0
102
RTVSPost2010PropOp38
 70
     0
102
RTVSPost2010Prop39
140
1.0
102
RTVSPost2010PropOp39
 70
     0
102
RTVSPost2010Prop40
 90
        0
102
RTVSPost2010PropOp40
 70
     0
102
RTVSPost2010Prop41ColorIndex
 90
       18
102
RTVSPost2010Prop41ColorRGB
 90
        0
102
RTVSPost2010PropOp41
 70
     0
102
RTVSPost2010Prop42
 90
       50
102
RTVSPost2010PropOp42
 70
     0
102
RTVSPost2010Prop43
 90
        3
102
RTVSPost2010PropOp43
 70
     0
102
RTVSPost2010Prop44ColorIndex
 90
        5
102
RTVSPost2010Prop44ColorRGB
 90
      255
102
RTVSPost2010PropOp44
 70
     0
102
RTVSPost2010Prop45
280
     0
102
RTVSPost2010PropOp45
 70
     1
102
RTVSPost2010Prop46
 90
       50
102
RTVSPost2010PropOp46
 70
     0
102
RTVSPost2010Prop47
 90
       50
102
RTVSPost2010PropOp47
 70
     0
102
RTVSPost2010Prop48
 90
       50
102
RTVSPost2010PropOp48
 70
     0
102
RTVSPost2010Prop49
280
     0
102
RTVSPost2010PropOp49
 70
     1
102
RTVSPost2010Prop50
 90
       50
102
RTVSPost2010PropOp50
 70
     0
102
RTVSPost2010Prop51ColorIndex
 90
      256
102
RTVSPost2010Prop51ColorRGB
 90
-16777216
102
RTVSPost2010PropOp51
 70
     0
102
RTVSPost2010Prop52
140
1.0
102
RTVSPost2010PropOp52
 70
     0
102
RTVSPost2010Prop53
 90
        2
102
RTVSPost2010PropOp53
 70
     0
102
RTVSPost2010Prop54
  1
strokes_ogs.tif
102
RTVSPost2010PropOp54
 70
     0
102
RTVSPost2010Prop55
280
     0
102
RTVSPost2010PropOp55
 70
     1
102
RTVSPost2010Prop56
140
1.0
102
RTVSPost2010PropOp56
 70
     0
102
RTVSPost2010Prop57
140
1.0
102
RTVSPost2010PropOp57
 70
     0
102
RTVSPropertyOp0
 70
     0
102
RTVSPropertyOp1
 70
     0
102
RTVSPropertyOp2
 70
     0
102
RTVSPropertyOp3
 70
     0
102
RTVSPropertyOp4
 70
     0
102
RTVSPropertyOp5
 70
     0
102
RTVSPropertyOp6
 70
     0
102
RTVSPropertyOp7
 70
     0
102
RTVSPropertyOp8
 70
     0
102
RTVSPropertyOp9
 70
     0
102
RTVSPropertyOp10
 70
     0
102
RTVSPropertyOp11
 70
     0
102
RTVSPropertyOp12
 70
     0
102
RTVSPropertyOp13
 70
     0
102
RTVSPropertyOp14
 70
     2
102
RTVSPropertyOp15
 70
     0
102
RTVSPropertyOp16
 70
     0
102
RTVSPropertyOp17
 70
     0
102
RTVSPropertyOp18
 70
     0
102
RTVSPropertyOp19
 70
     0
102
RTVSPropertyOp20
 70
     0
102
RTVSPropertyOp21
 70
     0
102
RTVSPropertyOp22
 70
     0
102
RTVSPropertyOp23
 70
     0
102
RTVSPropertyOp24
 70
     0
102
RTVSPropertyOp25
 70
     0
102
RTVSPropertyOp26
 70
     0
102
RTVSPropertyOp27
 70
     0
102
RTVSPropertyOp28
 70
     1
102
RTVSPropertyOp29
 70
     1
102
RTVSPropertyOp30
 70
     1
102
RTVSPropertyOp31
 70
     1
102
RTVSPropertyOp32
 70
     1
102
RTVSPropertyOp33
 70
     1
102
RTVSPropertyOp34
 70
     1
102
RTVSPropertyOp35
 70
     1
102
RTVSPropertyOp36
 70
     1
102
RTVSPropertyOp37
 70
     0
102
RTVSPropertyOp38
 70
     0
102
RTVSPropertyOp39
 70
     0
102
RTVSPropertyOp40
 70
     0
102
RTVSPropertyOp41
 70
     0
102
RTVSPropertyOp42
 70
     0
102
RTVSPropertyOp43
 70
     0
102
RTVSPropertyOp44
 70
     0
102
RTVSPropertyOp45
 70
     1
102
RTVSPropertyOp46
 70
     0
102
RTVSPropertyOp47
 70
     0
102
RTVSPropertyOp48
 70
     0
102
RTVSPropertyOp49
 70
     1
102
RTVSPropertyOp50
 70
     0
102
RTVSPropertyOp51
 70
     0
102
RTVSPropertyOp52
 70
     0
102
RTVSPropertyOp53
 70
     0
102
RTVSPropertyOp54
 70
     0
102
RTVSPropertyOp55
 70
     1
102
RTVSPropertyOp56
 70
     0
102
RTVSPropertyOp57
 70
     0
102
RTVSPropertyOp58
 70
     0
102
RTVSPropertyOp59
 70
     0
102
RTVSPropertyOp60
 70
     0
102
RTVSPropertyOp61
 70
     0
102
RTVSPropertyOp62
 70
     0
  0
XRECORD
  5
9B5D
102
{ACAD_REACTORS
330
9B5C
102
}
330
9B5C
100
AcDbXrecord
280
     1
102
RTVSPost2010Prop28
280
     0
102
RTVSPost2010PropOp28
 70
     1
102
RTVSPost2010Prop29
280
     1
102
RTVSPost2010PropOp29
 70
     1
102
RTVSPost2010Prop30
280
     1
102
RTVSPost2010PropOp30
 70
     1
102
RTVSPost2010Prop31
280
     0
102
RTVSPost2010PropOp31
 70
     1
102
RTVSPost2010Prop32
280
     0
102
RTVSPost2010PropOp32
 70
     1
102
RTVSPost2010Prop33
280
     0
102
RTVSPost2010PropOp33
 70
     1
102
RTVSPost2010Prop34
280
     0
102
RTVSPost2010PropOp34
 70
     1
102
RTVSPost2010Prop35
280
     0
102
RTVSPost2010PropOp35
 70
     1
102
RTVSPost2010Prop36
280
     0
102
RTVSPost2010PropOp36
 70
     1
102
RTVSPost2010Prop37
 90
       50
102
RTVSPost2010PropOp37
 70
     1
102
RTVSPost2010Prop38
140
0.0
102
RTVSPost2010PropOp38
 70
     1
102
RTVSPost2010Prop39
140
1.0
102
RTVSPost2010PropOp39
 70
     1
102
RTVSPost2010Prop40
 90
        0
102
RTVSPost2010PropOp40
 70
     1
102
RTVSPost2010Prop41ColorIndex
 90
       18
102
RTVSPost2010Prop41ColorRGB
 90
        0
102
RTVSPost2010PropOp41
 70
     1
102
RTVSPost2010Prop42
 90
       50
102
RTVSPost2010PropOp42
 70
     1
102
RTVSPost2010Prop43
 90
        3
102
RTVSPost2010PropOp43
 70
     1
102
RTVSPost2010Prop44ColorIndex
 90
        5
102
RTVSPost2010Prop44ColorRGB
 90
      255
102
RTVSPost2010PropOp44
 70
     1
102
RTVSPost2010Prop45
280
     0
102
RTVSPost2010PropOp45
 70
     1
102
RTVSPost2010Prop46
 90
       50
102
RTVSPost2010PropOp46
 70
     1
102
RTVSPost2010Prop47
 90
       50
102
RTVSPost2010PropOp47
 70
     1
102
RTVSPost2010Prop48
 90
       50
102
RTVSPost2010PropOp48
 70
     1
102
RTVSPost2010Prop49
280
     0
102
RTVSPost2010PropOp49
 70
     1
102
RTVSPost2010Prop50
 90
       50
102
RTVSPost2010PropOp50
 70
     1
102
RTVSPost2010Prop51ColorIndex
 90
      256
102
RTVSPost2010Prop51ColorRGB
 90
-16777216
102
RTVSPost2010PropOp51
 70
     0
102
RTVSPost2010Prop52
140
1.0
102
RTVSPost2010PropOp52
 70
     0
102
RTVSPost2010Prop53
 90
        2
102
RTVSPost2010PropOp53
 70
     1
102
RTVSPost2010Prop54
  1
strokes_ogs.tif
102
RTVSPost2010PropOp54
 70
     1
102
RTVSPost2010Prop55
280
     0
102
RTVSPost2010PropOp55
 70
     1
102
RTVSPost2010Prop56
140
1.0
102
RTVSPost2010PropOp56
 70
     1
102
RTVSPost2010Prop57
140
1.0
102
RTVSPost2010PropOp57
 70
     1
102
RTVSPropertyOp0
 70
     1
102
RTVSPropertyOp1
 70
     1
102
RTVSPropertyOp2
 70
     1
102
RTVSPropertyOp3
 70
     1
102
RTVSPropertyOp4
 70
     1
102
RTVSPropertyOp5
 70
     1
102
RTVSPropertyOp6
 70
     1
102
RTVSPropertyOp7
 70
     1
102
RTVSPropertyOp8
 70
     1
102
RTVSPropertyOp9
 70
     1
102
RTVSPropertyOp10
 70
     1
102
RTVSPropertyOp11
 70
     1
102
RTVSPropertyOp12
 70
     1
102
RTVSPropertyOp13
 70
     1
102
RTVSPropertyOp14
 70
     1
102
RTVSPropertyOp15
 70
     1
102
RTVSPropertyOp16
 70
     1
102
RTVSPropertyOp17
 70
     1
102
RTVSPropertyOp18
 70
     1
102
RTVSPropertyOp19
 70
     1
102
RTVSPropertyOp20
 70
     1
102
RTVSPropertyOp21
 70
     1
102
RTVSPropertyOp22
 70
     1
102
RTVSPropertyOp23
 70
     1
102
RTVSPropertyOp24
 70
     1
102
RTVSPropertyOp25
 70
     1
102
RTVSPropertyOp26
 70
     1
102
RTVSPropertyOp27
 70
     1
102
RTVSPropertyOp28
 70
     1
102
RTVSPropertyOp29
 70
     1
102
RTVSPropertyOp30
 70
     1
102
RTVSPropertyOp31
 70
     1
102
RTVSPropertyOp32
 70
     1
102
RTVSPropertyOp33
 70
     1
102
RTVSPropertyOp34
 70
     1
102
RTVSPropertyOp35
 70
     1
102
RTVSPropertyOp36
 70
     1
102
RTVSPropertyOp37
 70
     1
102
RTVSPropertyOp38
 70
     1
102
RTVSPropertyOp39
 70
     1
102
RTVSPropertyOp40
 70
     1
102
RTVSPropertyOp41
 70
     1
102
RTVSPropertyOp42
 70
     1
102
RTVSPropertyOp43
 70
     1
102
RTVSPropertyOp44
 70
     1
102
RTVSPropertyOp45
 70
     1
102
RTVSPropertyOp46
 70
     1
102
RTVSPropertyOp47
 70
     1
102
RTVSPropertyOp48
 70
     1
102
RTVSPropertyOp49
 70
     1
102
RTVSPropertyOp50
 70
     1
102
RTVSPropertyOp51
 70
     0
102
RTVSPropertyOp52
 70
     0
102
RTVSPropertyOp53
 70
     1
102
RTVSPropertyOp54
 70
     1
102
RTVSPropertyOp55
 70
     1
102
RTVSPropertyOp56
 70
     1
102
RTVSPropertyOp57
 70
     1
102
RTVSPropertyOp58
 70
     1
102
RTVSPropertyOp59
 70
     1
102
RTVSPropertyOp60
 70
     1
102
RTVSPropertyOp61
 70
     1
102
RTVSPropertyOp62
 70
     1
  0
XRECORD
  5
9B41
102
{ACAD_REACTORS
330
9B40
102
}
330
9B40
100
AcDbXrecord
280
     1
102
RTVSPost2010Prop28
280
     0
102
RTVSPost2010PropOp28
 70
     1
102
RTVSPost2010Prop29
280
     1
102
RTVSPost2010PropOp29
 70
     1
102
RTVSPost2010Prop30
280
     1
102
RTVSPost2010PropOp30
 70
     1
102
RTVSPost2010Prop31
280
     0
102
RTVSPost2010PropOp31
 70
     1
102
RTVSPost2010Prop32
280
     0
102
RTVSPost2010PropOp32
 70
     1
102
RTVSPost2010Prop33
280
     0
102
RTVSPost2010PropOp33
 70
     1
102
RTVSPost2010Prop34
280
     0
102
RTVSPost2010PropOp34
 70
     1
102
RTVSPost2010Prop35
280
     0
102
RTVSPost2010PropOp35
 70
     1
102
RTVSPost2010Prop36
280
     0
102
RTVSPost2010PropOp36
 70
     1
102
RTVSPost2010Prop37
 90
       50
102
RTVSPost2010PropOp37
 70
     1
102
RTVSPost2010Prop38
140
0.0
102
RTVSPost2010PropOp38
 70
     1
102
RTVSPost2010Prop39
140
1.0
102
RTVSPost2010PropOp39
 70
     1
102
RTVSPost2010Prop40
 90
        0
102
RTVSPost2010PropOp40
 70
     1
102
RTVSPost2010Prop41ColorIndex
 90
       18
102
RTVSPost2010Prop41ColorRGB
 90
        0
102
RTVSPost2010PropOp41
 70
     1
102
RTVSPost2010Prop42
 90
       50
102
RTVSPost2010PropOp42
 70
     1
102
RTVSPost2010Prop43
 90
        3
102
RTVSPost2010PropOp43
 70
     1
102
RTVSPost2010Prop44ColorIndex
 90
        5
102
RTVSPost2010Prop44ColorRGB
 90
      255
102
RTVSPost2010PropOp44
 70
     1
102
RTVSPost2010Prop45
280
     0
102
RTVSPost2010PropOp45
 70
     1
102
RTVSPost2010Prop46
 90
       50
102
RTVSPost2010PropOp46
 70
     1
102
RTVSPost2010Prop47
 90
       50
102
RTVSPost2010PropOp47
 70
     1
102
RTVSPost2010Prop48
 90
       50
102
RTVSPost2010PropOp48
 70
     1
102
RTVSPost2010Prop49
280
     0
102
RTVSPost2010PropOp49
 70
     1
102
RTVSPost2010Prop50
 90
       50
102
RTVSPost2010PropOp50
 70
     1
102
RTVSPost2010Prop51ColorIndex
 90
      256
102
RTVSPost2010Prop51ColorRGB
 90
-16777216
102
RTVSPost2010PropOp51
 70
     0
102
RTVSPost2010Prop52
140
1.0
102
RTVSPost2010PropOp52
 70
     0
102
RTVSPost2010Prop53
 90
        2
102
RTVSPost2010PropOp53
 70
     1
102
RTVSPost2010Prop54
  1
strokes_ogs.tif
102
RTVSPost2010PropOp54
 70
     1
102
RTVSPost2010Prop55
280
     0
102
RTVSPost2010PropOp55
 70
     1
102
RTVSPost2010Prop56
140
1.0
102
RTVSPost2010PropOp56
 70
     1
102
RTVSPost2010Prop57
140
1.0
102
RTVSPost2010PropOp57
 70
     1
102
RTVSPropertyOp0
 70
     1
102
RTVSPropertyOp1
 70
     1
102
RTVSPropertyOp2
 70
     1
102
RTVSPropertyOp3
 70
     1
102
RTVSPropertyOp4
 70
     1
102
RTVSPropertyOp5
 70
     1
102
RTVSPropertyOp6
 70
     1
102
RTVSPropertyOp7
 70
     1
102
RTVSPropertyOp8
 70
     1
102
RTVSPropertyOp9
 70
     1
102
RTVSPropertyOp10
 70
     1
102
RTVSPropertyOp11
 70
     1
102
RTVSPropertyOp12
 70
     1
102
RTVSPropertyOp13
 70
     1
102
RTVSPropertyOp14
 70
     1
102
RTVSPropertyOp15
 70
     1
102
RTVSPropertyOp16
 70
     1
102
RTVSPropertyOp17
 70
     1
102
RTVSPropertyOp18
 70
     1
102
RTVSPropertyOp19
 70
     1
102
RTVSPropertyOp20
 70
     1
102
RTVSPropertyOp21
 70
     1
102
RTVSPropertyOp22
 70
     1
102
RTVSPropertyOp23
 70
     1
102
RTVSPropertyOp24
 70
     1
102
RTVSPropertyOp25
 70
     1
102
RTVSPropertyOp26
 70
     1
102
RTVSPropertyOp27
 70
     1
102
RTVSPropertyOp28
 70
     1
102
RTVSPropertyOp29
 70
     1
102
RTVSPropertyOp30
 70
     1
102
RTVSPropertyOp31
 70
     1
102
RTVSPropertyOp32
 70
     1
102
RTVSPropertyOp33
 70
     1
102
RTVSPropertyOp34
 70
     1
102
RTVSPropertyOp35
 70
     1
102
RTVSPropertyOp36
 70
     1
102
RTVSPropertyOp37
 70
     1
102
RTVSPropertyOp38
 70
     1
102
RTVSPropertyOp39
 70
     1
102
RTVSPropertyOp40
 70
     1
102
RTVSPropertyOp41
 70
     1
102
RTVSPropertyOp42
 70
     1
102
RTVSPropertyOp43
 70
     1
102
RTVSPropertyOp44
 70
     1
102
RTVSPropertyOp45
 70
     1
102
RTVSPropertyOp46
 70
     1
102
RTVSPropertyOp47
 70
     1
102
RTVSPropertyOp48
 70
     1
102
RTVSPropertyOp49
 70
     1
102
RTVSPropertyOp50
 70
     1
102
RTVSPropertyOp51
 70
     0
102
RTVSPropertyOp52
 70
     0
102
RTVSPropertyOp53
 70
     1
102
RTVSPropertyOp54
 70
     1
102
RTVSPropertyOp55
 70
     1
102
RTVSPropertyOp56
 70
     1
102
RTVSPropertyOp57
 70
     1
102
RTVSPropertyOp58
 70
     1
102
RTVSPropertyOp59
 70
     1
102
RTVSPropertyOp60
 70
     1
102
RTVSPropertyOp61
 70
     1
102
RTVSPropertyOp62
 70
     1
  0
XRECORD
  5
9B43
102
{ACAD_REACTORS
330
9B42
102
}
330
9B42
100
AcDbXrecord
280
     1
102
RTVSPost2010Prop28
280
     0
102
RTVSPost2010PropOp28
 70
     1
102
RTVSPost2010Prop29
280
     1
102
RTVSPost2010PropOp29
 70
     1
102
RTVSPost2010Prop30
280
     1
102
RTVSPost2010PropOp30
 70
     1
102
RTVSPost2010Prop31
280
     0
102
RTVSPost2010PropOp31
 70
     1
102
RTVSPost2010Prop32
280
     0
102
RTVSPost2010PropOp32
 70
     1
102
RTVSPost2010Prop33
280
     0
102
RTVSPost2010PropOp33
 70
     1
102
RTVSPost2010Prop34
280
     0
102
RTVSPost2010PropOp34
 70
     1
102
RTVSPost2010Prop35
280
     0
102
RTVSPost2010PropOp35
 70
     1
102
RTVSPost2010Prop36
280
     0
102
RTVSPost2010PropOp36
 70
     1
102
RTVSPost2010Prop37
 90
       50
102
RTVSPost2010PropOp37
 70
     1
102
RTVSPost2010Prop38
140
0.0
102
RTVSPost2010PropOp38
 70
     1
102
RTVSPost2010Prop39
140
1.0
102
RTVSPost2010PropOp39
 70
     1
102
RTVSPost2010Prop40
 90
        0
102
RTVSPost2010PropOp40
 70
     1
102
RTVSPost2010Prop41ColorIndex
 90
       18
102
RTVSPost2010Prop41ColorRGB
 90
        0
102
RTVSPost2010PropOp41
 70
     1
102
RTVSPost2010Prop42
 90
       50
102
RTVSPost2010PropOp42
 70
     1
102
RTVSPost2010Prop43
 90
        3
102
RTVSPost2010PropOp43
 70
     1
102
RTVSPost2010Prop44ColorIndex
 90
        5
102
RTVSPost2010Prop44ColorRGB
 90
      255
102
RTVSPost2010PropOp44
 70
     1
102
RTVSPost2010Prop45
280
     0
102
RTVSPost2010PropOp45
 70
     1
102
RTVSPost2010Prop46
 90
       50
102
RTVSPost2010PropOp46
 70
     1
102
RTVSPost2010Prop47
 90
       50
102
RTVSPost2010PropOp47
 70
     1
102
RTVSPost2010Prop48
 90
       50
102
RTVSPost2010PropOp48
 70
     1
102
RTVSPost2010Prop49
280
     0
102
RTVSPost2010PropOp49
 70
     1
102
RTVSPost2010Prop50
 90
       50
102
RTVSPost2010PropOp50
 70
     1
102
RTVSPost2010Prop51ColorIndex
 90
      256
102
RTVSPost2010Prop51ColorRGB
 90
-16777216
102
RTVSPost2010PropOp51
 70
     0
102
RTVSPost2010Prop52
140
1.0
102
RTVSPost2010PropOp52
 70
     0
102
RTVSPost2010Prop53
 90
        2
102
RTVSPost2010PropOp53
 70
     1
102
RTVSPost2010Prop54
  1
strokes_ogs.tif
102
RTVSPost2010PropOp54
 70
     1
102
RTVSPost2010Prop55
280
     0
102
RTVSPost2010PropOp55
 70
     1
102
RTVSPost2010Prop56
140
1.0
102
RTVSPost2010PropOp56
 70
     1
102
RTVSPost2010Prop57
140
1.0
102
RTVSPost2010PropOp57
 70
     1
102
RTVSPropertyOp0
 70
     1
102
RTVSPropertyOp1
 70
     1
102
RTVSPropertyOp2
 70
     1
102
RTVSPropertyOp3
 70
     1
102
RTVSPropertyOp4
 70
     1
102
RTVSPropertyOp5
 70
     1
102
RTVSPropertyOp6
 70
     1
102
RTVSPropertyOp7
 70
     1
102
RTVSPropertyOp8
 70
     1
102
RTVSPropertyOp9
 70
     1
102
RTVSPropertyOp10
 70
     1
102
RTVSPropertyOp11
 70
     1
102
RTVSPropertyOp12
 70
     1
102
RTVSPropertyOp13
 70
     1
102
RTVSPropertyOp14
 70
     1
102
RTVSPropertyOp15
 70
     1
102
RTVSPropertyOp16
 70
     1
102
RTVSPropertyOp17
 70
     1
102
RTVSPropertyOp18
 70
     1
102
RTVSPropertyOp19
 70
     1
102
RTVSPropertyOp20
 70
     1
102
RTVSPropertyOp21
 70
     1
102
RTVSPropertyOp22
 70
     1
102
RTVSPropertyOp23
 70
     1
102
RTVSPropertyOp24
 70
     1
102
RTVSPropertyOp25
 70
     1
102
RTVSPropertyOp26
 70
     1
102
RTVSPropertyOp27
 70
     1
102
RTVSPropertyOp28
 70
     1
102
RTVSPropertyOp29
 70
     1
102
RTVSPropertyOp30
 70
     1
102
RTVSPropertyOp31
 70
     1
102
RTVSPropertyOp32
 70
     1
102
RTVSPropertyOp33
 70
     1
102
RTVSPropertyOp34
 70
     1
102
RTVSPropertyOp35
 70
     1
102
RTVSPropertyOp36
 70
     1
102
RTVSPropertyOp37
 70
     1
102
RTVSPropertyOp38
 70
     1
102
RTVSPropertyOp39
 70
     1
102
RTVSPropertyOp40
 70
     1
102
RTVSPropertyOp41
 70
     1
102
RTVSPropertyOp42
 70
     1
102
RTVSPropertyOp43
 70
     1
102
RTVSPropertyOp44
 70
     1
102
RTVSPropertyOp45
 70
     1
102
RTVSPropertyOp46
 70
     1
102
RTVSPropertyOp47
 70
     1
102
RTVSPropertyOp48
 70
     1
102
RTVSPropertyOp49
 70
     1
102
RTVSPropertyOp50
 70
     1
102
RTVSPropertyOp51
 70
     0
102
RTVSPropertyOp52
 70
     0
102
RTVSPropertyOp53
 70
     1
102
RTVSPropertyOp54
 70
     1
102
RTVSPropertyOp55
 70
     1
102
RTVSPropertyOp56
 70
     1
102
RTVSPropertyOp57
 70
     1
102
RTVSPropertyOp58
 70
     1
102
RTVSPropertyOp59
 70
     1
102
RTVSPropertyOp60
 70
     1
102
RTVSPropertyOp61
 70
     1
102
RTVSPropertyOp62
 70
     1
  0
XRECORD
  5
9B45
102
{ACAD_REACTORS
330
9B44
102
}
330
9B44
100
AcDbXrecord
280
     1
102
RTVSPost2010Prop28
280
     0
102
RTVSPost2010PropOp28
 70
     1
102
RTVSPost2010Prop29
280
     1
102
RTVSPost2010PropOp29
 70
     1
102
RTVSPost2010Prop30
280
     1
102
RTVSPost2010PropOp30
 70
     1
102
RTVSPost2010Prop31
280
     0
102
RTVSPost2010PropOp31
 70
     1
102
RTVSPost2010Prop32
280
     0
102
RTVSPost2010PropOp32
 70
     1
102
RTVSPost2010Prop33
280
     0
102
RTVSPost2010PropOp33
 70
     1
102
RTVSPost2010Prop34
280
     0
102
RTVSPost2010PropOp34
 70
     1
102
RTVSPost2010Prop35
280
     0
102
RTVSPost2010PropOp35
 70
     1
102
RTVSPost2010Prop36
280
     0
102
RTVSPost2010PropOp36
 70
     1
102
RTVSPost2010Prop37
 90
       50
102
RTVSPost2010PropOp37
 70
     1
102
RTVSPost2010Prop38
140
0.0
102
RTVSPost2010PropOp38
 70
     1
102
RTVSPost2010Prop39
140
1.0
102
RTVSPost2010PropOp39
 70
     1
102
RTVSPost2010Prop40
 90
        0
102
RTVSPost2010PropOp40
 70
     1
102
RTVSPost2010Prop41ColorIndex
 90
       18
102
RTVSPost2010Prop41ColorRGB
 90
        0
102
RTVSPost2010PropOp41
 70
     1
102
RTVSPost2010Prop42
 90
       50
102
RTVSPost2010PropOp42
 70
     1
102
RTVSPost2010Prop43
 90
        3
102
RTVSPost2010PropOp43
 70
     1
102
RTVSPost2010Prop44ColorIndex
 90
        5
102
RTVSPost2010Prop44ColorRGB
 90
      255
102
RTVSPost2010PropOp44
 70
     1
102
RTVSPost2010Prop45
280
     0
102
RTVSPost2010PropOp45
 70
     1
102
RTVSPost2010Prop46
 90
       50
102
RTVSPost2010PropOp46
 70
     1
102
RTVSPost2010Prop47
 90
       50
102
RTVSPost2010PropOp47
 70
     1
102
RTVSPost2010Prop48
 90
       50
102
RTVSPost2010PropOp48
 70
     1
102
RTVSPost2010Prop49
280
     0
102
RTVSPost2010PropOp49
 70
     1
102
RTVSPost2010Prop50
 90
       50
102
RTVSPost2010PropOp50
 70
     1
102
RTVSPost2010Prop51ColorIndex
 90
      256
102
RTVSPost2010Prop51ColorRGB
 90
-16777216
102
RTVSPost2010PropOp51
 70
     0
102
RTVSPost2010Prop52
140
1.0
102
RTVSPost2010PropOp52
 70
     0
102
RTVSPost2010Prop53
 90
        2
102
RTVSPost2010PropOp53
 70
     1
102
RTVSPost2010Prop54
  1
strokes_ogs.tif
102
RTVSPost2010PropOp54
 70
     1
102
RTVSPost2010Prop55
280
     0
102
RTVSPost2010PropOp55
 70
     1
102
RTVSPost2010Prop56
140
1.0
102
RTVSPost2010PropOp56
 70
     1
102
RTVSPost2010Prop57
140
1.0
102
RTVSPost2010PropOp57
 70
     1
102
RTVSPropertyOp0
 70
     1
102
RTVSPropertyOp1
 70
     1
102
RTVSPropertyOp2
 70
     1
102
RTVSPropertyOp3
 70
     1
102
RTVSPropertyOp4
 70
     1
102
RTVSPropertyOp5
 70
     1
102
RTVSPropertyOp6
 70
     1
102
RTVSPropertyOp7
 70
     1
102
RTVSPropertyOp8
 70
     1
102
RTVSPropertyOp9
 70
     1
102
RTVSPropertyOp10
 70
     1
102
RTVSPropertyOp11
 70
     1
102
RTVSPropertyOp12
 70
     1
102
RTVSPropertyOp13
 70
     1
102
RTVSPropertyOp14
 70
     1
102
RTVSPropertyOp15
 70
     1
102
RTVSPropertyOp16
 70
     1
102
RTVSPropertyOp17
 70
     1
102
RTVSPropertyOp18
 70
     1
102
RTVSPropertyOp19
 70
     1
102
RTVSPropertyOp20
 70
     1
102
RTVSPropertyOp21
 70
     1
102
RTVSPropertyOp22
 70
     1
102
RTVSPropertyOp23
 70
     1
102
RTVSPropertyOp24
 70
     1
102
RTVSPropertyOp25
 70
     1
102
RTVSPropertyOp26
 70
     1
102
RTVSPropertyOp27
 70
     1
102
RTVSPropertyOp28
 70
     1
102
RTVSPropertyOp29
 70
     1
102
RTVSPropertyOp30
 70
     1
102
RTVSPropertyOp31
 70
     1
102
RTVSPropertyOp32
 70
     1
102
RTVSPropertyOp33
 70
     1
102
RTVSPropertyOp34
 70
     1
102
RTVSPropertyOp35
 70
     1
102
RTVSPropertyOp36
 70
     1
102
RTVSPropertyOp37
 70
     1
102
RTVSPropertyOp38
 70
     1
102
RTVSPropertyOp39
 70
     1
102
RTVSPropertyOp40
 70
     1
102
RTVSPropertyOp41
 70
     1
102
RTVSPropertyOp42
 70
     1
102
RTVSPropertyOp43
 70
     1
102
RTVSPropertyOp44
 70
     1
102
RTVSPropertyOp45
 70
     1
102
RTVSPropertyOp46
 70
     1
102
RTVSPropertyOp47
 70
     1
102
RTVSPropertyOp48
 70
     1
102
RTVSPropertyOp49
 70
     1
102
RTVSPropertyOp50
 70
     1
102
RTVSPropertyOp51
 70
     0
102
RTVSPropertyOp52
 70
     0
102
RTVSPropertyOp53
 70
     1
102
RTVSPropertyOp54
 70
     1
102
RTVSPropertyOp55
 70
     1
102
RTVSPropertyOp56
 70
     1
102
RTVSPropertyOp57
 70
     1
102
RTVSPropertyOp58
 70
     1
102
RTVSPropertyOp59
 70
     1
102
RTVSPropertyOp60
 70
     1
102
RTVSPropertyOp61
 70
     1
102
RTVSPropertyOp62
 70
     1
  0
XRECORD
  5
9B47
102
{ACAD_REACTORS
330
9B46
102
}
330
9B46
100
AcDbXrecord
280
     1
102
RTVSPost2010Prop28
280
     0
102
RTVSPost2010PropOp28
 70
     1
102
RTVSPost2010Prop29
280
     1
102
RTVSPost2010PropOp29
 70
     1
102
RTVSPost2010Prop30
280
     1
102
RTVSPost2010PropOp30
 70
     1
102
RTVSPost2010Prop31
280
     0
102
RTVSPost2010PropOp31
 70
     1
102
RTVSPost2010Prop32
280
     0
102
RTVSPost2010PropOp32
 70
     1
102
RTVSPost2010Prop33
280
     0
102
RTVSPost2010PropOp33
 70
     1
102
RTVSPost2010Prop34
280
     0
102
RTVSPost2010PropOp34
 70
     1
102
RTVSPost2010Prop35
280
     0
102
RTVSPost2010PropOp35
 70
     1
102
RTVSPost2010Prop36
280
     0
102
RTVSPost2010PropOp36
 70
     1
102
RTVSPost2010Prop37
 90
       50
102
RTVSPost2010PropOp37
 70
     1
102
RTVSPost2010Prop38
140
0.0
102
RTVSPost2010PropOp38
 70
     1
102
RTVSPost2010Prop39
140
1.0
102
RTVSPost2010PropOp39
 70
     1
102
RTVSPost2010Prop40
 90
        0
102
RTVSPost2010PropOp40
 70
     1
102
RTVSPost2010Prop41ColorIndex
 90
       18
102
RTVSPost2010Prop41ColorRGB
 90
        0
102
RTVSPost2010PropOp41
 70
     1
102
RTVSPost2010Prop42
 90
       50
102
RTVSPost2010PropOp42
 70
     1
102
RTVSPost2010Prop43
 90
        3
102
RTVSPost2010PropOp43
 70
     1
102
RTVSPost2010Prop44ColorIndex
 90
        5
102
RTVSPost2010Prop44ColorRGB
 90
      255
102
RTVSPost2010PropOp44
 70
     1
102
RTVSPost2010Prop45
280
     0
102
RTVSPost2010PropOp45
 70
     1
102
RTVSPost2010Prop46
 90
       50
102
RTVSPost2010PropOp46
 70
     1
102
RTVSPost2010Prop47
 90
       50
102
RTVSPost2010PropOp47
 70
     1
102
RTVSPost2010Prop48
 90
       50
102
RTVSPost2010PropOp48
 70
     1
102
RTVSPost2010Prop49
280
     0
102
RTVSPost2010PropOp49
 70
     1
102
RTVSPost2010Prop50
 90
       50
102
RTVSPost2010PropOp50
 70
     1
102
RTVSPost2010Prop51ColorIndex
 90
      256
102
RTVSPost2010Prop51ColorRGB
 90
-16777216
102
RTVSPost2010PropOp51
 70
     0
102
RTVSPost2010Prop52
140
1.0
102
RTVSPost2010PropOp52
 70
     0
102
RTVSPost2010Prop53
 90
        2
102
RTVSPost2010PropOp53
 70
     1
102
RTVSPost2010Prop54
  1
strokes_ogs.tif
102
RTVSPost2010PropOp54
 70
     1
102
RTVSPost2010Prop55
280
     0
102
RTVSPost2010PropOp55
 70
     1
102
RTVSPost2010Prop56
140
1.0
102
RTVSPost2010PropOp56
 70
     1
102
RTVSPost2010Prop57
140
1.0
102
RTVSPost2010PropOp57
 70
     1
102
RTVSPropertyOp0
 70
     1
102
RTVSPropertyOp1
 70
     1
102
RTVSPropertyOp2
 70
     1
102
RTVSPropertyOp3
 70
     1
102
RTVSPropertyOp4
 70
     1
102
RTVSPropertyOp5
 70
     1
102
RTVSPropertyOp6
 70
     1
102
RTVSPropertyOp7
 70
     1
102
RTVSPropertyOp8
 70
     1
102
RTVSPropertyOp9
 70
     1
102
RTVSPropertyOp10
 70
     1
102
RTVSPropertyOp11
 70
     1
102
RTVSPropertyOp12
 70
     1
102
RTVSPropertyOp13
 70
     1
102
RTVSPropertyOp14
 70
     1
102
RTVSPropertyOp15
 70
     1
102
RTVSPropertyOp16
 70
     1
102
RTVSPropertyOp17
 70
     1
102
RTVSPropertyOp18
 70
     1
102
RTVSPropertyOp19
 70
     1
102
RTVSPropertyOp20
 70
     1
102
RTVSPropertyOp21
 70
     1
102
RTVSPropertyOp22
 70
     1
102
RTVSPropertyOp23
 70
     1
102
RTVSPropertyOp24
 70
     1
102
RTVSPropertyOp25
 70
     1
102
RTVSPropertyOp26
 70
     1
102
RTVSPropertyOp27
 70
     1
102
RTVSPropertyOp28
 70
     1
102
RTVSPropertyOp29
 70
     1
102
RTVSPropertyOp30
 70
     1
102
RTVSPropertyOp31
 70
     1
102
RTVSPropertyOp32
 70
     1
102
RTVSPropertyOp33
 70
     1
102
RTVSPropertyOp34
 70
     1
102
RTVSPropertyOp35
 70
     1
102
RTVSPropertyOp36
 70
     1
102
RTVSPropertyOp37
 70
     1
102
RTVSPropertyOp38
 70
     1
102
RTVSPropertyOp39
 70
     1
102
RTVSPropertyOp40
 70
     1
102
RTVSPropertyOp41
 70
     1
102
RTVSPropertyOp42
 70
     1
102
RTVSPropertyOp43
 70
     1
102
RTVSPropertyOp44
 70
     1
102
RTVSPropertyOp45
 70
     1
102
RTVSPropertyOp46
 70
     1
102
RTVSPropertyOp47
 70
     1
102
RTVSPropertyOp48
 70
     1
102
RTVSPropertyOp49
 70
     1
102
RTVSPropertyOp50
 70
     1
102
RTVSPropertyOp51
 70
     0
102
RTVSPropertyOp52
 70
     0
102
RTVSPropertyOp53
 70
     1
102
RTVSPropertyOp54
 70
     1
102
RTVSPropertyOp55
 70
     1
102
RTVSPropertyOp56
 70
     1
102
RTVSPropertyOp57
 70
     1
102
RTVSPropertyOp58
 70
     1
102
RTVSPropertyOp59
 70
     1
102
RTVSPropertyOp60
 70
     1
102
RTVSPropertyOp61
 70
     1
102
RTVSPropertyOp62
 70
     1
  0
XRECORD
  5
9B4F
102
{ACAD_REACTORS
330
9B4E
102
}
330
9B4E
100
AcDbXrecord
280
     1
102
RTVSPost2010Prop28
280
     0
102
RTVSPost2010PropOp28
 70
     1
102
RTVSPost2010Prop29
280
     1
102
RTVSPost2010PropOp29
 70
     1
102
RTVSPost2010Prop30
280
     1
102
RTVSPost2010PropOp30
 70
     1
102
RTVSPost2010Prop31
280
     0
102
RTVSPost2010PropOp31
 70
     1
102
RTVSPost2010Prop32
280
     0
102
RTVSPost2010PropOp32
 70
     1
102
RTVSPost2010Prop33
280
     0
102
RTVSPost2010PropOp33
 70
     1
102
RTVSPost2010Prop34
280
     0
102
RTVSPost2010PropOp34
 70
     1
102
RTVSPost2010Prop35
280
     0
102
RTVSPost2010PropOp35
 70
     1
102
RTVSPost2010Prop36
280
     0
102
RTVSPost2010PropOp36
 70
     1
102
RTVSPost2010Prop37
 90
       50
102
RTVSPost2010PropOp37
 70
     1
102
RTVSPost2010Prop38
140
0.0
102
RTVSPost2010PropOp38
 70
     1
102
RTVSPost2010Prop39
140
1.0
102
RTVSPost2010PropOp39
 70
     1
102
RTVSPost2010Prop40
 90
        0
102
RTVSPost2010PropOp40
 70
     1
102
RTVSPost2010Prop41ColorIndex
 90
       18
102
RTVSPost2010Prop41ColorRGB
 90
        0
102
RTVSPost2010PropOp41
 70
     1
102
RTVSPost2010Prop42
 90
       50
102
RTVSPost2010PropOp42
 70
     1
102
RTVSPost2010Prop43
 90
        3
102
RTVSPost2010PropOp43
 70
     1
102
RTVSPost2010Prop44ColorIndex
 90
        5
102
RTVSPost2010Prop44ColorRGB
 90
      255
102
RTVSPost2010PropOp44
 70
     1
102
RTVSPost2010Prop45
280
     0
102
RTVSPost2010PropOp45
 70
     1
102
RTVSPost2010Prop46
 90
       50
102
RTVSPost2010PropOp46
 70
     1
102
RTVSPost2010Prop47
 90
       50
102
RTVSPost2010PropOp47
 70
     1
102
RTVSPost2010Prop48
 90
       50
102
RTVSPost2010PropOp48
 70
     1
102
RTVSPost2010Prop49
280
     0
102
RTVSPost2010PropOp49
 70
     1
102
RTVSPost2010Prop50
 90
       50
102
RTVSPost2010PropOp50
 70
     1
102
RTVSPost2010Prop51ColorIndex
 90
      256
102
RTVSPost2010Prop51ColorRGB
 90
-16777216
102
RTVSPost2010PropOp51
 70
     0
102
RTVSPost2010Prop52
140
1.0
102
RTVSPost2010PropOp52
 70
     0
102
RTVSPost2010Prop53
 90
        2
102
RTVSPost2010PropOp53
 70
     1
102
RTVSPost2010Prop54
  1
strokes_ogs.tif
102
RTVSPost2010PropOp54
 70
     1
102
RTVSPost2010Prop55
280
     0
102
RTVSPost2010PropOp55
 70
     1
102
RTVSPost2010Prop56
140
1.0
102
RTVSPost2010PropOp56
 70
     1
102
RTVSPost2010Prop57
140
1.0
102
RTVSPost2010PropOp57
 70
     1
102
RTVSPropertyOp0
 70
     1
102
RTVSPropertyOp1
 70
     1
102
RTVSPropertyOp2
 70
     1
102
RTVSPropertyOp3
 70
     1
102
RTVSPropertyOp4
 70
     1
102
RTVSPropertyOp5
 70
     1
102
RTVSPropertyOp6
 70
     1
102
RTVSPropertyOp7
 70
     1
102
RTVSPropertyOp8
 70
     1
102
RTVSPropertyOp9
 70
     1
102
RTVSPropertyOp10
 70
     1
102
RTVSPropertyOp11
 70
     1
102
RTVSPropertyOp12
 70
     1
102
RTVSPropertyOp13
 70
     1
102
RTVSPropertyOp14
 70
     1
102
RTVSPropertyOp15
 70
     1
102
RTVSPropertyOp16
 70
     1
102
RTVSPropertyOp17
 70
     1
102
RTVSPropertyOp18
 70
     1
102
RTVSPropertyOp19
 70
     1
102
RTVSPropertyOp20
 70
     1
102
RTVSPropertyOp21
 70
     1
102
RTVSPropertyOp22
 70
     1
102
RTVSPropertyOp23
 70
     1
102
RTVSPropertyOp24
 70
     1
102
RTVSPropertyOp25
 70
     1
102
RTVSPropertyOp26
 70
     1
102
RTVSPropertyOp27
 70
     1
102
RTVSPropertyOp28
 70
     1
102
RTVSPropertyOp29
 70
     1
102
RTVSPropertyOp30
 70
     1
102
RTVSPropertyOp31
 70
     1
102
RTVSPropertyOp32
 70
     1
102
RTVSPropertyOp33
 70
     1
102
RTVSPropertyOp34
 70
     1
102
RTVSPropertyOp35
 70
     1
102
RTVSPropertyOp36
 70
     1
102
RTVSPropertyOp37
 70
     1
102
RTVSPropertyOp38
 70
     1
102
RTVSPropertyOp39
 70
     1
102
RTVSPropertyOp40
 70
     1
102
RTVSPropertyOp41
 70
     1
102
RTVSPropertyOp42
 70
     1
102
RTVSPropertyOp43
 70
     1
102
RTVSPropertyOp44
 70
     1
102
RTVSPropertyOp45
 70
     1
102
RTVSPropertyOp46
 70
     1
102
RTVSPropertyOp47
 70
     1
102
RTVSPropertyOp48
 70
     1
102
RTVSPropertyOp49
 70
     1
102
RTVSPropertyOp50
 70
     1
102
RTVSPropertyOp51
 70
     0
102
RTVSPropertyOp52
 70
     0
102
RTVSPropertyOp53
 70
     1
102
RTVSPropertyOp54
 70
     1
102
RTVSPropertyOp55
 70
     1
102
RTVSPropertyOp56
 70
     1
102
RTVSPropertyOp57
 70
     1
102
RTVSPropertyOp58
 70
     1
102
RTVSPropertyOp59
 70
     1
102
RTVSPropertyOp60
 70
     1
102
RTVSPropertyOp61
 70
     1
102
RTVSPropertyOp62
 70
     1
  0
XRECORD
  5
9B6B
102
{ACAD_REACTORS
330
9B6A
102
}
330
9B6A
100
AcDbXrecord
280
     1
102
RTVSPost2010Prop28
280
     0
102
RTVSPost2010PropOp28
 70
     1
102
RTVSPost2010Prop29
280
     1
102
RTVSPost2010PropOp29
 70
     1
102
RTVSPost2010Prop30
280
     1
102
RTVSPost2010PropOp30
 70
     1
102
RTVSPost2010Prop31
280
     0
102
RTVSPost2010PropOp31
 70
     1
102
RTVSPost2010Prop32
280
     0
102
RTVSPost2010PropOp32
 70
     1
102
RTVSPost2010Prop33
280
     0
102
RTVSPost2010PropOp33
 70
     1
102
RTVSPost2010Prop34
280
     0
102
RTVSPost2010PropOp34
 70
     1
102
RTVSPost2010Prop35
280
     0
102
RTVSPost2010PropOp35
 70
     1
102
RTVSPost2010Prop36
280
     0
102
RTVSPost2010PropOp36
 70
     1
102
RTVSPost2010Prop37
 90
       50
102
RTVSPost2010PropOp37
 70
     0
102
RTVSPost2010Prop38
140
0.0
102
RTVSPost2010PropOp38
 70
     0
102
RTVSPost2010Prop39
140
1.0
102
RTVSPost2010PropOp39
 70
     0
102
RTVSPost2010Prop40
 90
        0
102
RTVSPost2010PropOp40
 70
     0
102
RTVSPost2010Prop41ColorIndex
 90
       18
102
RTVSPost2010Prop41ColorRGB
 90
        0
102
RTVSPost2010PropOp41
 70
     0
102
RTVSPost2010Prop42
 90
       50
102
RTVSPost2010PropOp42
 70
     0
102
RTVSPost2010Prop43
 90
        3
102
RTVSPost2010PropOp43
 70
     0
102
RTVSPost2010Prop44ColorIndex
 90
        5
102
RTVSPost2010Prop44ColorRGB
 90
      255
102
RTVSPost2010PropOp44
 70
     0
102
RTVSPost2010Prop45
280
     0
102
RTVSPost2010PropOp45
 70
     1
102
RTVSPost2010Prop46
 90
       50
102
RTVSPost2010PropOp46
 70
     0
102
RTVSPost2010Prop47
 90
       50
102
RTVSPost2010PropOp47
 70
     0
102
RTVSPost2010Prop48
 90
       50
102
RTVSPost2010PropOp48
 70
     0
102
RTVSPost2010Prop49
280
     0
102
RTVSPost2010PropOp49
 70
     1
102
RTVSPost2010Prop50
 90
       50
102
RTVSPost2010PropOp50
 70
     0
102
RTVSPost2010Prop51ColorIndex
 90
      256
102
RTVSPost2010Prop51ColorRGB
 90
-16777216
102
RTVSPost2010PropOp51
 70
     0
102
RTVSPost2010Prop52
140
1.0
102
RTVSPost2010PropOp52
 70
     0
102
RTVSPost2010Prop53
 90
        2
102
RTVSPost2010PropOp53
 70
     0
102
RTVSPost2010Prop54
  1
strokes_ogs.tif
102
RTVSPost2010PropOp54
 70
     0
102
RTVSPost2010Prop55
280
     0
102
RTVSPost2010PropOp55
 70
     1
102
RTVSPost2010Prop56
140
1.0
102
RTVSPost2010PropOp56
 70
     0
102
RTVSPost2010Prop57
140
1.0
102
RTVSPost2010PropOp57
 70
     0
102
RTVSPropertyOp0
 70
     0
102
RTVSPropertyOp1
 70
     0
102
RTVSPropertyOp2
 70
     0
102
RTVSPropertyOp3
 70
     0
102
RTVSPropertyOp4
 70
     0
102
RTVSPropertyOp5
 70
     0
102
RTVSPropertyOp6
 70
     0
102
RTVSPropertyOp7
 70
     0
102
RTVSPropertyOp8
 70
     0
102
RTVSPropertyOp9
 70
     0
102
RTVSPropertyOp10
 70
     0
102
RTVSPropertyOp11
 70
     0
102
RTVSPropertyOp12
 70
     0
102
RTVSPropertyOp13
 70
     0
102
RTVSPropertyOp14
 70
     2
102
RTVSPropertyOp15
 70
     0
102
RTVSPropertyOp16
 70
     0
102
RTVSPropertyOp17
 70
     0
102
RTVSPropertyOp18
 70
     0
102
RTVSPropertyOp19
 70
     0
102
RTVSPropertyOp20
 70
     0
102
RTVSPropertyOp21
 70
     0
102
RTVSPropertyOp22
 70
     0
102
RTVSPropertyOp23
 70
     0
102
RTVSPropertyOp24
 70
     0
102
RTVSPropertyOp25
 70
     0
102
RTVSPropertyOp26
 70
     0
102
RTVSPropertyOp27
 70
     0
102
RTVSPropertyOp28
 70
     1
102
RTVSPropertyOp29
 70
     1
102
RTVSPropertyOp30
 70
     1
102
RTVSPropertyOp31
 70
     1
102
RTVSPropertyOp32
 70
     1
102
RTVSPropertyOp33
 70
     1
102
RTVSPropertyOp34
 70
     1
102
RTVSPropertyOp35
 70
     1
102
RTVSPropertyOp36
 70
     1
102
RTVSPropertyOp37
 70
     0
102
RTVSPropertyOp38
 70
     0
102
RTVSPropertyOp39
 70
     0
102
RTVSPropertyOp40
 70
     0
102
RTVSPropertyOp41
 70
     0
102
RTVSPropertyOp42
 70
     0
102
RTVSPropertyOp43
 70
     0
102
RTVSPropertyOp44
 70
     0
102
RTVSPropertyOp45
 70
     1
102
RTVSPropertyOp46
 70
     0
102
RTVSPropertyOp47
 70
     0
102
RTVSPropertyOp48
 70
     0
102
RTVSPropertyOp49
 70
     1
102
RTVSPropertyOp50
 70
     0
102
RTVSPropertyOp51
 70
     0
102
RTVSPropertyOp52
 70
     0
102
RTVSPropertyOp53
 70
     0
102
RTVSPropertyOp54
 70
     0
102
RTVSPropertyOp55
 70
     1
102
RTVSPropertyOp56
 70
     0
102
RTVSPropertyOp57
 70
     0
102
RTVSPropertyOp58
 70
     0
102
RTVSPropertyOp59
 70
     0
102
RTVSPropertyOp60
 70
     0
102
RTVSPropertyOp61
 70
     0
102
RTVSPropertyOp62
 70
     0
  0
XRECORD
  5
9B5B
102
{ACAD_REACTORS
330
9B5A
102
}
330
9B5A
100
AcDbXrecord
280
     1
102
RTVSPost2010Prop28
280
     0
102
RTVSPost2010PropOp28
 70
     1
102
RTVSPost2010Prop29
280
     1
102
RTVSPost2010PropOp29
 70
     1
102
RTVSPost2010Prop30
280
     1
102
RTVSPost2010PropOp30
 70
     1
102
RTVSPost2010Prop31
280
     0
102
RTVSPost2010PropOp31
 70
     1
102
RTVSPost2010Prop32
280
     0
102
RTVSPost2010PropOp32
 70
     1
102
RTVSPost2010Prop33
280
     0
102
RTVSPost2010PropOp33
 70
     1
102
RTVSPost2010Prop34
280
     0
102
RTVSPost2010PropOp34
 70
     1
102
RTVSPost2010Prop35
280
     0
102
RTVSPost2010PropOp35
 70
     1
102
RTVSPost2010Prop36
280
     0
102
RTVSPost2010PropOp36
 70
     1
102
RTVSPost2010Prop37
 90
       50
102
RTVSPost2010PropOp37
 70
     1
102
RTVSPost2010Prop38
140
0.0
102
RTVSPost2010PropOp38
 70
     1
102
RTVSPost2010Prop39
140
1.0
102
RTVSPost2010PropOp39
 70
     1
102
RTVSPost2010Prop40
 90
        0
102
RTVSPost2010PropOp40
 70
     1
102
RTVSPost2010Prop41ColorIndex
 90
       18
102
RTVSPost2010Prop41ColorRGB
 90
        0
102
RTVSPost2010PropOp41
 70
     1
102
RTVSPost2010Prop42
 90
       50
102
RTVSPost2010PropOp42
 70
     1
102
RTVSPost2010Prop43
 90
        3
102
RTVSPost2010PropOp43
 70
     1
102
RTVSPost2010Prop44ColorIndex
 90
        5
102
RTVSPost2010Prop44ColorRGB
 90
      255
102
RTVSPost2010PropOp44
 70
     1
102
RTVSPost2010Prop45
280
     0
102
RTVSPost2010PropOp45
 70
     1
102
RTVSPost2010Prop46
 90
       50
102
RTVSPost2010PropOp46
 70
     1
102
RTVSPost2010Prop47
 90
       50
102
RTVSPost2010PropOp47
 70
     1
102
RTVSPost2010Prop48
 90
       50
102
RTVSPost2010PropOp48
 70
     1
102
RTVSPost2010Prop49
280
     0
102
RTVSPost2010PropOp49
 70
     1
102
RTVSPost2010Prop50
 90
       50
102
RTVSPost2010PropOp50
 70
     1
102
RTVSPost2010Prop51ColorIndex
 90
      256
102
RTVSPost2010Prop51ColorRGB
 90
-16777216
102
RTVSPost2010PropOp51
 70
     0
102
RTVSPost2010Prop52
140
1.0
102
RTVSPost2010PropOp52
 70
     0
102
RTVSPost2010Prop53
 90
        2
102
RTVSPost2010PropOp53
 70
     1
102
RTVSPost2010Prop54
  1
strokes_ogs.tif
102
RTVSPost2010PropOp54
 70
     1
102
RTVSPost2010Prop55
280
     0
102
RTVSPost2010PropOp55
 70
     1
102
RTVSPost2010Prop56
140
1.0
102
RTVSPost2010PropOp56
 70
     1
102
RTVSPost2010Prop57
140
1.0
102
RTVSPost2010PropOp57
 70
     1
102
RTVSPropertyOp0
 70
     1
102
RTVSPropertyOp1
 70
     1
102
RTVSPropertyOp2
 70
     1
102
RTVSPropertyOp3
 70
     1
102
RTVSPropertyOp4
 70
     1
102
RTVSPropertyOp5
 70
     1
102
RTVSPropertyOp6
 70
     1
102
RTVSPropertyOp7
 70
     1
102
RTVSPropertyOp8
 70
     1
102
RTVSPropertyOp9
 70
     1
102
RTVSPropertyOp10
 70
     1
102
RTVSPropertyOp11
 70
     1
102
RTVSPropertyOp12
 70
     1
102
RTVSPropertyOp13
 70
     1
102
RTVSPropertyOp14
 70
     1
102
RTVSPropertyOp15
 70
     1
102
RTVSPropertyOp16
 70
     1
102
RTVSPropertyOp17
 70
     1
102
RTVSPropertyOp18
 70
     1
102
RTVSPropertyOp19
 70
     1
102
RTVSPropertyOp20
 70
     1
102
RTVSPropertyOp21
 70
     1
102
RTVSPropertyOp22
 70
     1
102
RTVSPropertyOp23
 70
     1
102
RTVSPropertyOp24
 70
     1
102
RTVSPropertyOp25
 70
     1
102
RTVSPropertyOp26
 70
     1
102
RTVSPropertyOp27
 70
     1
102
RTVSPropertyOp28
 70
     1
102
RTVSPropertyOp29
 70
     1
102
RTVSPropertyOp30
 70
     1
102
RTVSPropertyOp31
 70
     1
102
RTVSPropertyOp32
 70
     1
102
RTVSPropertyOp33
 70
     1
102
RTVSPropertyOp34
 70
     1
102
RTVSPropertyOp35
 70
     1
102
RTVSPropertyOp36
 70
     1
102
RTVSPropertyOp37
 70
     1
102
RTVSPropertyOp38
 70
     1
102
RTVSPropertyOp39
 70
     1
102
RTVSPropertyOp40
 70
     1
102
RTVSPropertyOp41
 70
     1
102
RTVSPropertyOp42
 70
     1
102
RTVSPropertyOp43
 70
     1
102
RTVSPropertyOp44
 70
     1
102
RTVSPropertyOp45
 70
     1
102
RTVSPropertyOp46
 70
     1
102
RTVSPropertyOp47
 70
     1
102
RTVSPropertyOp48
 70
     1
102
RTVSPropertyOp49
 70
     1
102
RTVSPropertyOp50
 70
     1
102
RTVSPropertyOp51
 70
     0
102
RTVSPropertyOp52
 70
     0
102
RTVSPropertyOp53
 70
     1
102
RTVSPropertyOp54
 70
     1
102
RTVSPropertyOp55
 70
     1
102
RTVSPropertyOp56
 70
     1
102
RTVSPropertyOp57
 70
     1
102
RTVSPropertyOp58
 70
     1
102
RTVSPropertyOp59
 70
     1
102
RTVSPropertyOp60
 70
     1
102
RTVSPropertyOp61
 70
     1
102
RTVSPropertyOp62
 70
     1
  0
XRECORD
  5
9B6D
102
{ACAD_REACTORS
330
9B6C
102
}
330
9B6C
100
AcDbXrecord
280
     1
102
RTVSPost2010Prop28
280
     0
102
RTVSPost2010PropOp28
 70
     1
102
RTVSPost2010Prop29
280
     1
102
RTVSPost2010PropOp29
 70
     1
102
RTVSPost2010Prop30
280
     1
102
RTVSPost2010PropOp30
 70
     1
102
RTVSPost2010Prop31
280
     0
102
RTVSPost2010PropOp31
 70
     1
102
RTVSPost2010Prop32
280
     0
102
RTVSPost2010PropOp32
 70
     1
102
RTVSPost2010Prop33
280
     0
102
RTVSPost2010PropOp33
 70
     1
102
RTVSPost2010Prop34
280
     0
102
RTVSPost2010PropOp34
 70
     1
102
RTVSPost2010Prop35
280
     0
102
RTVSPost2010PropOp35
 70
     1
102
RTVSPost2010Prop36
280
     0
102
RTVSPost2010PropOp36
 70
     1
102
RTVSPost2010Prop37
 90
       50
102
RTVSPost2010PropOp37
 70
     0
102
RTVSPost2010Prop38
140
0.0
102
RTVSPost2010PropOp38
 70
     0
102
RTVSPost2010Prop39
140
1.0
102
RTVSPost2010PropOp39
 70
     0
102
RTVSPost2010Prop40
 90
        0
102
RTVSPost2010PropOp40
 70
     0
102
RTVSPost2010Prop41ColorIndex
 90
       18
102
RTVSPost2010Prop41ColorRGB
 90
        0
102
RTVSPost2010PropOp41
 70
     0
102
RTVSPost2010Prop42
 90
       50
102
RTVSPost2010PropOp42
 70
     0
102
RTVSPost2010Prop43
 90
        3
102
RTVSPost2010PropOp43
 70
     0
102
RTVSPost2010Prop44ColorIndex
 90
        5
102
RTVSPost2010Prop44ColorRGB
 90
      255
102
RTVSPost2010PropOp44
 70
     0
102
RTVSPost2010Prop45
280
     0
102
RTVSPost2010PropOp45
 70
     1
102
RTVSPost2010Prop46
 90
       50
102
RTVSPost2010PropOp46
 70
     0
102
RTVSPost2010Prop47
 90
       50
102
RTVSPost2010PropOp47
 70
     0
102
RTVSPost2010Prop48
 90
       50
102
RTVSPost2010PropOp48
 70
     0
102
RTVSPost2010Prop49
280
     0
102
RTVSPost2010PropOp49
 70
     1
102
RTVSPost2010Prop50
 90
       50
102
RTVSPost2010PropOp50
 70
     0
102
RTVSPost2010Prop51ColorIndex
 90
      256
102
RTVSPost2010Prop51ColorRGB
 90
-16777216
102
RTVSPost2010PropOp51
 70
     0
102
RTVSPost2010Prop52
140
1.0
102
RTVSPost2010PropOp52
 70
     0
102
RTVSPost2010Prop53
 90
        2
102
RTVSPost2010PropOp53
 70
     0
102
RTVSPost2010Prop54
  1
strokes_ogs.tif
102
RTVSPost2010PropOp54
 70
     0
102
RTVSPost2010Prop55
280
     0
102
RTVSPost2010PropOp55
 70
     1
102
RTVSPost2010Prop56
140
1.0
102
RTVSPost2010PropOp56
 70
     0
102
RTVSPost2010Prop57
140
1.0
102
RTVSPost2010PropOp57
 70
     0
102
RTVSPropertyOp0
 70
     0
102
RTVSPropertyOp1
 70
     0
102
RTVSPropertyOp2
 70
     0
102
RTVSPropertyOp3
 70
     0
102
RTVSPropertyOp4
 70
     0
102
RTVSPropertyOp5
 70
     0
102
RTVSPropertyOp6
 70
     0
102
RTVSPropertyOp7
 70
     0
102
RTVSPropertyOp8
 70
     0
102
RTVSPropertyOp9
 70
     0
102
RTVSPropertyOp10
 70
     0
102
RTVSPropertyOp11
 70
     0
102
RTVSPropertyOp12
 70
     0
102
RTVSPropertyOp13
 70
     0
102
RTVSPropertyOp14
 70
     2
102
RTVSPropertyOp15
 70
     0
102
RTVSPropertyOp16
 70
     0
102
RTVSPropertyOp17
 70
     0
102
RTVSPropertyOp18
 70
     0
102
RTVSPropertyOp19
 70
     0
102
RTVSPropertyOp20
 70
     0
102
RTVSPropertyOp21
 70
     0
102
RTVSPropertyOp22
 70
     0
102
RTVSPropertyOp23
 70
     0
102
RTVSPropertyOp24
 70
     0
102
RTVSPropertyOp25
 70
     0
102
RTVSPropertyOp26
 70
     0
102
RTVSPropertyOp27
 70
     0
102
RTVSPropertyOp28
 70
     1
102
RTVSPropertyOp29
 70
     1
102
RTVSPropertyOp30
 70
     1
102
RTVSPropertyOp31
 70
     1
102
RTVSPropertyOp32
 70
     1
102
RTVSPropertyOp33
 70
     1
102
RTVSPropertyOp34
 70
     1
102
RTVSPropertyOp35
 70
     1
102
RTVSPropertyOp36
 70
     1
102
RTVSPropertyOp37
 70
     0
102
RTVSPropertyOp38
 70
     0
102
RTVSPropertyOp39
 70
     0
102
RTVSPropertyOp40
 70
     0
102
RTVSPropertyOp41
 70
     0
102
RTVSPropertyOp42
 70
     0
102
RTVSPropertyOp43
 70
     0
102
RTVSPropertyOp44
 70
     0
102
RTVSPropertyOp45
 70
     1
102
RTVSPropertyOp46
 70
     0
102
RTVSPropertyOp47
 70
     0
102
RTVSPropertyOp48
 70
     0
102
RTVSPropertyOp49
 70
     1
102
RTVSPropertyOp50
 70
     0
102
RTVSPropertyOp51
 70
     0
102
RTVSPropertyOp52
 70
     0
102
RTVSPropertyOp53
 70
     0
102
RTVSPropertyOp54
 70
     0
102
RTVSPropertyOp55
 70
     1
102
RTVSPropertyOp56
 70
     0
102
RTVSPropertyOp57
 70
     0
102
RTVSPropertyOp58
 70
     0
102
RTVSPropertyOp59
 70
     0
102
RTVSPropertyOp60
 70
     0
102
RTVSPropertyOp61
 70
     0
102
RTVSPropertyOp62
 70
     0
  0
XRECORD
  5
9B53
102
{ACAD_REACTORS
330
9B52
102
}
330
9B52
100
AcDbXrecord
280
     1
102
RTVSPost2010Prop28
280
     0
102
RTVSPost2010PropOp28
 70
     1
102
RTVSPost2010Prop29
280
     1
102
RTVSPost2010PropOp29
 70
     1
102
RTVSPost2010Prop30
280
     1
102
RTVSPost2010PropOp30
 70
     1
102
RTVSPost2010Prop31
280
     0
102
RTVSPost2010PropOp31
 70
     1
102
RTVSPost2010Prop32
280
     0
102
RTVSPost2010PropOp32
 70
     1
102
RTVSPost2010Prop33
280
     0
102
RTVSPost2010PropOp33
 70
     1
102
RTVSPost2010Prop34
280
     0
102
RTVSPost2010PropOp34
 70
     1
102
RTVSPost2010Prop35
280
     0
102
RTVSPost2010PropOp35
 70
     1
102
RTVSPost2010Prop36
280
     0
102
RTVSPost2010PropOp36
 70
     1
102
RTVSPost2010Prop37
 90
       50
102
RTVSPost2010PropOp37
 70
     1
102
RTVSPost2010Prop38
140
0.0
102
RTVSPost2010PropOp38
 70
     1
102
RTVSPost2010Prop39
140
1.0
102
RTVSPost2010PropOp39
 70
     1
102
RTVSPost2010Prop40
 90
        0
102
RTVSPost2010PropOp40
 70
     1
102
RTVSPost2010Prop41ColorIndex
 90
       18
102
RTVSPost2010Prop41ColorRGB
 90
        0
102
RTVSPost2010PropOp41
 70
     1
102
RTVSPost2010Prop42
 90
       50
102
RTVSPost2010PropOp42
 70
     1
102
RTVSPost2010Prop43
 90
        3
102
RTVSPost2010PropOp43
 70
     1
102
RTVSPost2010Prop44ColorIndex
 90
        5
102
RTVSPost2010Prop44ColorRGB
 90
      255
102
RTVSPost2010PropOp44
 70
     1
102
RTVSPost2010Prop45
280
     0
102
RTVSPost2010PropOp45
 70
     1
102
RTVSPost2010Prop46
 90
       50
102
RTVSPost2010PropOp46
 70
     1
102
RTVSPost2010Prop47
 90
       50
102
RTVSPost2010PropOp47
 70
     1
102
RTVSPost2010Prop48
 90
       50
102
RTVSPost2010PropOp48
 70
     1
102
RTVSPost2010Prop49
280
     0
102
RTVSPost2010PropOp49
 70
     1
102
RTVSPost2010Prop50
 90
       50
102
RTVSPost2010PropOp50
 70
     1
102
RTVSPost2010Prop51ColorIndex
 90
      256
102
RTVSPost2010Prop51ColorRGB
 90
-16777216
102
RTVSPost2010PropOp51
 70
     0
102
RTVSPost2010Prop52
140
1.0
102
RTVSPost2010PropOp52
 70
     0
102
RTVSPost2010Prop53
 90
        2
102
RTVSPost2010PropOp53
 70
     1
102
RTVSPost2010Prop54
  1
strokes_ogs.tif
102
RTVSPost2010PropOp54
 70
     1
102
RTVSPost2010Prop55
280
     0
102
RTVSPost2010PropOp55
 70
     1
102
RTVSPost2010Prop56
140
1.0
102
RTVSPost2010PropOp56
 70
     1
102
RTVSPost2010Prop57
140
1.0
102
RTVSPost2010PropOp57
 70
     1
102
RTVSPropertyOp0
 70
     1
102
RTVSPropertyOp1
 70
     1
102
RTVSPropertyOp2
 70
     1
102
RTVSPropertyOp3
 70
     1
102
RTVSPropertyOp4
 70
     1
102
RTVSPropertyOp5
 70
     1
102
RTVSPropertyOp6
 70
     1
102
RTVSPropertyOp7
 70
     1
102
RTVSPropertyOp8
 70
     1
102
RTVSPropertyOp9
 70
     1
102
RTVSPropertyOp10
 70
     1
102
RTVSPropertyOp11
 70
     1
102
RTVSPropertyOp12
 70
     1
102
RTVSPropertyOp13
 70
     1
102
RTVSPropertyOp14
 70
     1
102
RTVSPropertyOp15
 70
     1
102
RTVSPropertyOp16
 70
     1
102
RTVSPropertyOp17
 70
     1
102
RTVSPropertyOp18
 70
     1
102
RTVSPropertyOp19
 70
     1
102
RTVSPropertyOp20
 70
     1
102
RTVSPropertyOp21
 70
     1
102
RTVSPropertyOp22
 70
     1
102
RTVSPropertyOp23
 70
     1
102
RTVSPropertyOp24
 70
     1
102
RTVSPropertyOp25
 70
     1
102
RTVSPropertyOp26
 70
     1
102
RTVSPropertyOp27
 70
     1
102
RTVSPropertyOp28
 70
     1
102
RTVSPropertyOp29
 70
     1
102
RTVSPropertyOp30
 70
     1
102
RTVSPropertyOp31
 70
     1
102
RTVSPropertyOp32
 70
     1
102
RTVSPropertyOp33
 70
     1
102
RTVSPropertyOp34
 70
     1
102
RTVSPropertyOp35
 70
     1
102
RTVSPropertyOp36
 70
     1
102
RTVSPropertyOp37
 70
     1
102
RTVSPropertyOp38
 70
     1
102
RTVSPropertyOp39
 70
     1
102
RTVSPropertyOp40
 70
     1
102
RTVSPropertyOp41
 70
     1
102
RTVSPropertyOp42
 70
     1
102
RTVSPropertyOp43
 70
     1
102
RTVSPropertyOp44
 70
     1
102
RTVSPropertyOp45
 70
     1
102
RTVSPropertyOp46
 70
     1
102
RTVSPropertyOp47
 70
     1
102
RTVSPropertyOp48
 70
     1
102
RTVSPropertyOp49
 70
     1
102
RTVSPropertyOp50
 70
     1
102
RTVSPropertyOp51
 70
     0
102
RTVSPropertyOp52
 70
     0
102
RTVSPropertyOp53
 70
     1
102
RTVSPropertyOp54
 70
     1
102
RTVSPropertyOp55
 70
     1
102
RTVSPropertyOp56
 70
     1
102
RTVSPropertyOp57
 70
     1
102
RTVSPropertyOp58
 70
     1
102
RTVSPropertyOp59
 70
     1
102
RTVSPropertyOp60
 70
     1
102
RTVSPropertyOp61
 70
     1
102
RTVSPropertyOp62
 70
     1
  0
XRECORD
  5
9B69
102
{ACAD_REACTORS
330
9B68
102
}
330
9B68
100
AcDbXrecord
280
     1
102
RTVSPost2010Prop28
280
     0
102
RTVSPost2010PropOp28
 70
     1
102
RTVSPost2010Prop29
280
     1
102
RTVSPost2010PropOp29
 70
     1
102
RTVSPost2010Prop30
280
     1
102
RTVSPost2010PropOp30
 70
     1
102
RTVSPost2010Prop31
280
     0
102
RTVSPost2010PropOp31
 70
     1
102
RTVSPost2010Prop32
280
     0
102
RTVSPost2010PropOp32
 70
     1
102
RTVSPost2010Prop33
280
     0
102
RTVSPost2010PropOp33
 70
     1
102
RTVSPost2010Prop34
280
     0
102
RTVSPost2010PropOp34
 70
     1
102
RTVSPost2010Prop35
280
     0
102
RTVSPost2010PropOp35
 70
     1
102
RTVSPost2010Prop36
280
     0
102
RTVSPost2010PropOp36
 70
     1
102
RTVSPost2010Prop37
 90
       50
102
RTVSPost2010PropOp37
 70
     1
102
RTVSPost2010Prop38
140
0.0
102
RTVSPost2010PropOp38
 70
     1
102
RTVSPost2010Prop39
140
1.0
102
RTVSPost2010PropOp39
 70
     1
102
RTVSPost2010Prop40
 90
        0
102
RTVSPost2010PropOp40
 70
     1
102
RTVSPost2010Prop41ColorIndex
 90
       18
102
RTVSPost2010Prop41ColorRGB
 90
        0
102
RTVSPost2010PropOp41
 70
     1
102
RTVSPost2010Prop42
 90
       50
102
RTVSPost2010PropOp42
 70
     1
102
RTVSPost2010Prop43
 90
        3
102
RTVSPost2010PropOp43
 70
     1
102
RTVSPost2010Prop44ColorIndex
 90
        5
102
RTVSPost2010Prop44ColorRGB
 90
      255
102
RTVSPost2010PropOp44
 70
     1
102
RTVSPost2010Prop45
280
     0
102
RTVSPost2010PropOp45
 70
     1
102
RTVSPost2010Prop46
 90
       50
102
RTVSPost2010PropOp46
 70
     1
102
RTVSPost2010Prop47
 90
       50
102
RTVSPost2010PropOp47
 70
     1
102
RTVSPost2010Prop48
 90
       50
102
RTVSPost2010PropOp48
 70
     1
102
RTVSPost2010Prop49
280
     0
102
RTVSPost2010PropOp49
 70
     1
102
RTVSPost2010Prop50
 90
       50
102
RTVSPost2010PropOp50
 70
     1
102
RTVSPost2010Prop51ColorIndex
 90
      256
102
RTVSPost2010Prop51ColorRGB
 90
-16777216
102
RTVSPost2010PropOp51
 70
     0
102
RTVSPost2010Prop52
140
1.0
102
RTVSPost2010PropOp52
 70
     0
102
RTVSPost2010Prop53
 90
        2
102
RTVSPost2010PropOp53
 70
     1
102
RTVSPost2010Prop54
  1
strokes_ogs.tif
102
RTVSPost2010PropOp54
 70
     1
102
RTVSPost2010Prop55
280
     0
102
RTVSPost2010PropOp55
 70
     1
102
RTVSPost2010Prop56
140
1.0
102
RTVSPost2010PropOp56
 70
     1
102
RTVSPost2010Prop57
140
1.0
102
RTVSPost2010PropOp57
 70
     1
102
RTVSPropertyOp0
 70
     1
102
RTVSPropertyOp1
 70
     1
102
RTVSPropertyOp2
 70
     1
102
RTVSPropertyOp3
 70
     1
102
RTVSPropertyOp4
 70
     1
102
RTVSPropertyOp5
 70
     1
102
RTVSPropertyOp6
 70
     1
102
RTVSPropertyOp7
 70
     1
102
RTVSPropertyOp8
 70
     1
102
RTVSPropertyOp9
 70
     1
102
RTVSPropertyOp10
 70
     1
102
RTVSPropertyOp11
 70
     1
102
RTVSPropertyOp12
 70
     1
102
RTVSPropertyOp13
 70
     1
102
RTVSPropertyOp14
 70
     1
102
RTVSPropertyOp15
 70
     1
102
RTVSPropertyOp16
 70
     1
102
RTVSPropertyOp17
 70
     1
102
RTVSPropertyOp18
 70
     1
102
RTVSPropertyOp19
 70
     1
102
RTVSPropertyOp20
 70
     1
102
RTVSPropertyOp21
 70
     1
102
RTVSPropertyOp22
 70
     1
102
RTVSPropertyOp23
 70
     1
102
RTVSPropertyOp24
 70
     1
102
RTVSPropertyOp25
 70
     1
102
RTVSPropertyOp26
 70
     1
102
RTVSPropertyOp27
 70
     1
102
RTVSPropertyOp28
 70
     1
102
RTVSPropertyOp29
 70
     1
102
RTVSPropertyOp30
 70
     1
102
RTVSPropertyOp31
 70
     1
102
RTVSPropertyOp32
 70
     1
102
RTVSPropertyOp33
 70
     1
102
RTVSPropertyOp34
 70
     1
102
RTVSPropertyOp35
 70
     1
102
RTVSPropertyOp36
 70
     1
102
RTVSPropertyOp37
 70
     1
102
RTVSPropertyOp38
 70
     1
102
RTVSPropertyOp39
 70
     1
102
RTVSPropertyOp40
 70
     1
102
RTVSPropertyOp41
 70
     1
102
RTVSPropertyOp42
 70
     1
102
RTVSPropertyOp43
 70
     1
102
RTVSPropertyOp44
 70
     1
102
RTVSPropertyOp45
 70
     1
102
RTVSPropertyOp46
 70
     1
102
RTVSPropertyOp47
 70
     1
102
RTVSPropertyOp48
 70
     1
102
RTVSPropertyOp49
 70
     1
102
RTVSPropertyOp50
 70
     1
102
RTVSPropertyOp51
 70
     0
102
RTVSPropertyOp52
 70
     0
102
RTVSPropertyOp53
 70
     1
102
RTVSPropertyOp54
 70
     1
102
RTVSPropertyOp55
 70
     1
102
RTVSPropertyOp56
 70
     1
102
RTVSPropertyOp57
 70
     1
102
RTVSPropertyOp58
 70
     1
102
RTVSPropertyOp59
 70
     1
102
RTVSPropertyOp60
 70
     1
102
RTVSPropertyOp61
 70
     1
102
RTVSPropertyOp62
 70
     1
  0
XRECORD
  5
9B67
102
{ACAD_REACTORS
330
9B66
102
}
330
9B66
100
AcDbXrecord
280
     1
102
RTVSPost2010Prop28
280
     0
102
RTVSPost2010PropOp28
 70
     1
102
RTVSPost2010Prop29
280
     1
102
RTVSPost2010PropOp29
 70
     1
102
RTVSPost2010Prop30
280
     1
102
RTVSPost2010PropOp30
 70
     1
102
RTVSPost2010Prop31
280
     0
102
RTVSPost2010PropOp31
 70
     1
102
RTVSPost2010Prop32
280
     0
102
RTVSPost2010PropOp32
 70
     1
102
RTVSPost2010Prop33
280
     0
102
RTVSPost2010PropOp33
 70
     1
102
RTVSPost2010Prop34
280
     0
102
RTVSPost2010PropOp34
 70
     1
102
RTVSPost2010Prop35
280
     0
102
RTVSPost2010PropOp35
 70
     1
102
RTVSPost2010Prop36
280
     0
102
RTVSPost2010PropOp36
 70
     1
102
RTVSPost2010Prop37
 90
       50
102
RTVSPost2010PropOp37
 70
     1
102
RTVSPost2010Prop38
140
0.0
102
RTVSPost2010PropOp38
 70
     1
102
RTVSPost2010Prop39
140
1.0
102
RTVSPost2010PropOp39
 70
     1
102
RTVSPost2010Prop40
 90
        0
102
RTVSPost2010PropOp40
 70
     1
102
RTVSPost2010Prop41ColorIndex
 90
       18
102
RTVSPost2010Prop41ColorRGB
 90
        0
102
RTVSPost2010PropOp41
 70
     1
102
RTVSPost2010Prop42
 90
       50
102
RTVSPost2010PropOp42
 70
     1
102
RTVSPost2010Prop43
 90
        3
102
RTVSPost2010PropOp43
 70
     1
102
RTVSPost2010Prop44ColorIndex
 90
        5
102
RTVSPost2010Prop44ColorRGB
 90
      255
102
RTVSPost2010PropOp44
 70
     1
102
RTVSPost2010Prop45
280
     0
102
RTVSPost2010PropOp45
 70
     1
102
RTVSPost2010Prop46
 90
       50
102
RTVSPost2010PropOp46
 70
     1
102
RTVSPost2010Prop47
 90
       50
102
RTVSPost2010PropOp47
 70
     1
102
RTVSPost2010Prop48
 90
       50
102
RTVSPost2010PropOp48
 70
     1
102
RTVSPost2010Prop49
280
     0
102
RTVSPost2010PropOp49
 70
     1
102
RTVSPost2010Prop50
 90
       50
102
RTVSPost2010PropOp50
 70
     1
102
RTVSPost2010Prop51ColorIndex
 90
      256
102
RTVSPost2010Prop51ColorRGB
 90
-16777216
102
RTVSPost2010PropOp51
 70
     0
102
RTVSPost2010Prop52
140
1.0
102
RTVSPost2010PropOp52
 70
     0
102
RTVSPost2010Prop53
 90
        2
102
RTVSPost2010PropOp53
 70
     1
102
RTVSPost2010Prop54
  1
strokes_ogs.tif
102
RTVSPost2010PropOp54
 70
     1
102
RTVSPost2010Prop55
280
     0
102
RTVSPost2010PropOp55
 70
     1
102
RTVSPost2010Prop56
140
1.0
102
RTVSPost2010PropOp56
 70
     1
102
RTVSPost2010Prop57
140
1.0
102
RTVSPost2010PropOp57
 70
     1
102
RTVSPropertyOp0
 70
     1
102
RTVSPropertyOp1
 70
     1
102
RTVSPropertyOp2
 70
     1
102
RTVSPropertyOp3
 70
     1
102
RTVSPropertyOp4
 70
     1
102
RTVSPropertyOp5
 70
     1
102
RTVSPropertyOp6
 70
     1
102
RTVSPropertyOp7
 70
     1
102
RTVSPropertyOp8
 70
     1
102
RTVSPropertyOp9
 70
     1
102
RTVSPropertyOp10
 70
     1
102
RTVSPropertyOp11
 70
     1
102
RTVSPropertyOp12
 70
     1
102
RTVSPropertyOp13
 70
     1
102
RTVSPropertyOp14
 70
     1
102
RTVSPropertyOp15
 70
     1
102
RTVSPropertyOp16
 70
     1
102
RTVSPropertyOp17
 70
     1
102
RTVSPropertyOp18
 70
     1
102
RTVSPropertyOp19
 70
     1
102
RTVSPropertyOp20
 70
     1
102
RTVSPropertyOp21
 70
     1
102
RTVSPropertyOp22
 70
     1
102
RTVSPropertyOp23
 70
     1
102
RTVSPropertyOp24
 70
     1
102
RTVSPropertyOp25
 70
     1
102
RTVSPropertyOp26
 70
     1
102
RTVSPropertyOp27
 70
     1
102
RTVSPropertyOp28
 70
     1
102
RTVSPropertyOp29
 70
     1
102
RTVSPropertyOp30
 70
     1
102
RTVSPropertyOp31
 70
     1
102
RTVSPropertyOp32
 70
     1
102
RTVSPropertyOp33
 70
     1
102
RTVSPropertyOp34
 70
     1
102
RTVSPropertyOp35
 70
     1
102
RTVSPropertyOp36
 70
     1
102
RTVSPropertyOp37
 70
     1
102
RTVSPropertyOp38
 70
     1
102
RTVSPropertyOp39
 70
     1
102
RTVSPropertyOp40
 70
     1
102
RTVSPropertyOp41
 70
     1
102
RTVSPropertyOp42
 70
     1
102
RTVSPropertyOp43
 70
     1
102
RTVSPropertyOp44
 70
     1
102
RTVSPropertyOp45
 70
     1
102
RTVSPropertyOp46
 70
     1
102
RTVSPropertyOp47
 70
     1
102
RTVSPropertyOp48
 70
     1
102
RTVSPropertyOp49
 70
     1
102
RTVSPropertyOp50
 70
     1
102
RTVSPropertyOp51
 70
     0
102
RTVSPropertyOp52
 70
     0
102
RTVSPropertyOp53
 70
     1
102
RTVSPropertyOp54
 70
     1
102
RTVSPropertyOp55
 70
     1
102
RTVSPropertyOp56
 70
     1
102
RTVSPropertyOp57
 70
     1
102
RTVSPropertyOp58
 70
     1
102
RTVSPropertyOp59
 70
     1
102
RTVSPropertyOp60
 70
     1
102
RTVSPropertyOp61
 70
     1
102
RTVSPropertyOp62
 70
     1
  0
XRECORD
  5
9B61
102
{ACAD_REACTORS
330
9B60
102
}
330
9B60
100
AcDbXrecord
280
     1
102
RTVSPost2010Prop28
280
     0
102
RTVSPost2010PropOp28
 70
     1
102
RTVSPost2010Prop29
280
     1
102
RTVSPost2010PropOp29
 70
     1
102
RTVSPost2010Prop30
280
     1
102
RTVSPost2010PropOp30
 70
     1
102
RTVSPost2010Prop31
280
     0
102
RTVSPost2010PropOp31
 70
     1
102
RTVSPost2010Prop32
280
     0
102
RTVSPost2010PropOp32
 70
     1
102
RTVSPost2010Prop33
280
     0
102
RTVSPost2010PropOp33
 70
     1
102
RTVSPost2010Prop34
280
     0
102
RTVSPost2010PropOp34
 70
     1
102
RTVSPost2010Prop35
280
     0
102
RTVSPost2010PropOp35
 70
     1
102
RTVSPost2010Prop36
280
     0
102
RTVSPost2010PropOp36
 70
     1
102
RTVSPost2010Prop37
 90
       50
102
RTVSPost2010PropOp37
 70
     1
102
RTVSPost2010Prop38
140
0.0
102
RTVSPost2010PropOp38
 70
     1
102
RTVSPost2010Prop39
140
1.0
102
RTVSPost2010PropOp39
 70
     1
102
RTVSPost2010Prop40
 90
        0
102
RTVSPost2010PropOp40
 70
     1
102
RTVSPost2010Prop41ColorIndex
 90
       18
102
RTVSPost2010Prop41ColorRGB
 90
        0
102
RTVSPost2010PropOp41
 70
     1
102
RTVSPost2010Prop42
 90
       50
102
RTVSPost2010PropOp42
 70
     1
102
RTVSPost2010Prop43
 90
        3
102
RTVSPost2010PropOp43
 70
     1
102
RTVSPost2010Prop44ColorIndex
 90
        5
102
RTVSPost2010Prop44ColorRGB
 90
      255
102
RTVSPost2010PropOp44
 70
     1
102
RTVSPost2010Prop45
280
     0
102
RTVSPost2010PropOp45
 70
     1
102
RTVSPost2010Prop46
 90
       50
102
RTVSPost2010PropOp46
 70
     1
102
RTVSPost2010Prop47
 90
       50
102
RTVSPost2010PropOp47
 70
     1
102
RTVSPost2010Prop48
 90
       50
102
RTVSPost2010PropOp48
 70
     1
102
RTVSPost2010Prop49
280
     0
102
RTVSPost2010PropOp49
 70
     1
102
RTVSPost2010Prop50
 90
       50
102
RTVSPost2010PropOp50
 70
     1
102
RTVSPost2010Prop51ColorIndex
 90
      256
102
RTVSPost2010Prop51ColorRGB
 90
-16777216
102
RTVSPost2010PropOp51
 70
     0
102
RTVSPost2010Prop52
140
1.0
102
RTVSPost2010PropOp52
 70
     0
102
RTVSPost2010Prop53
 90
        2
102
RTVSPost2010PropOp53
 70
     1
102
RTVSPost2010Prop54
  1
strokes_ogs.tif
102
RTVSPost2010PropOp54
 70
     1
102
RTVSPost2010Prop55
280
     0
102
RTVSPost2010PropOp55
 70
     1
102
RTVSPost2010Prop56
140
1.0
102
RTVSPost2010PropOp56
 70
     1
102
RTVSPost2010Prop57
140
1.0
102
RTVSPost2010PropOp57
 70
     1
102
RTVSPropertyOp0
 70
     1
102
RTVSPropertyOp1
 70
     1
102
RTVSPropertyOp2
 70
     1
102
RTVSPropertyOp3
 70
     1
102
RTVSPropertyOp4
 70
     1
102
RTVSPropertyOp5
 70
     1
102
RTVSPropertyOp6
 70
     1
102
RTVSPropertyOp7
 70
     1
102
RTVSPropertyOp8
 70
     1
102
RTVSPropertyOp9
 70
     1
102
RTVSPropertyOp10
 70
     1
102
RTVSPropertyOp11
 70
     1
102
RTVSPropertyOp12
 70
     1
102
RTVSPropertyOp13
 70
     1
102
RTVSPropertyOp14
 70
     1
102
RTVSPropertyOp15
 70
     1
102
RTVSPropertyOp16
 70
     1
102
RTVSPropertyOp17
 70
     1
102
RTVSPropertyOp18
 70
     1
102
RTVSPropertyOp19
 70
     1
102
RTVSPropertyOp20
 70
     1
102
RTVSPropertyOp21
 70
     1
102
RTVSPropertyOp22
 70
     1
102
RTVSPropertyOp23
 70
     1
102
RTVSPropertyOp24
 70
     1
102
RTVSPropertyOp25
 70
     1
102
RTVSPropertyOp26
 70
     1
102
RTVSPropertyOp27
 70
     1
102
RTVSPropertyOp28
 70
     1
102
RTVSPropertyOp29
 70
     1
102
RTVSPropertyOp30
 70
     1
102
RTVSPropertyOp31
 70
     1
102
RTVSPropertyOp32
 70
     1
102
RTVSPropertyOp33
 70
     1
102
RTVSPropertyOp34
 70
     1
102
RTVSPropertyOp35
 70
     1
102
RTVSPropertyOp36
 70
     1
102
RTVSPropertyOp37
 70
     1
102
RTVSPropertyOp38
 70
     1
102
RTVSPropertyOp39
 70
     1
102
RTVSPropertyOp40
 70
     1
102
RTVSPropertyOp41
 70
     1
102
RTVSPropertyOp42
 70
     1
102
RTVSPropertyOp43
 70
     1
102
RTVSPropertyOp44
 70
     1
102
RTVSPropertyOp45
 70
     1
102
RTVSPropertyOp46
 70
     1
102
RTVSPropertyOp47
 70
     1
102
RTVSPropertyOp48
 70
     1
102
RTVSPropertyOp49
 70
     1
102
RTVSPropertyOp50
 70
     1
102
RTVSPropertyOp51
 70
     0
102
RTVSPropertyOp52
 70
     0
102
RTVSPropertyOp53
 70
     1
102
RTVSPropertyOp54
 70
     1
102
RTVSPropertyOp55
 70
     1
102
RTVSPropertyOp56
 70
     1
102
RTVSPropertyOp57
 70
     1
102
RTVSPropertyOp58
 70
     1
102
RTVSPropertyOp59
 70
     1
102
RTVSPropertyOp60
 70
     1
102
RTVSPropertyOp61
 70
     1
102
RTVSPropertyOp62
 70
     1
  0
XRECORD
  5
9B63
102
{ACAD_REACTORS
330
9B62
102
}
330
9B62
100
AcDbXrecord
280
     1
102
RTVSPost2010Prop28
280
     0
102
RTVSPost2010PropOp28
 70
     1
102
RTVSPost2010Prop29
280
     1
102
RTVSPost2010PropOp29
 70
     1
102
RTVSPost2010Prop30
280
     1
102
RTVSPost2010PropOp30
 70
     1
102
RTVSPost2010Prop31
280
     0
102
RTVSPost2010PropOp31
 70
     1
102
RTVSPost2010Prop32
280
     0
102
RTVSPost2010PropOp32
 70
     1
102
RTVSPost2010Prop33
280
     0
102
RTVSPost2010PropOp33
 70
     1
102
RTVSPost2010Prop34
280
     0
102
RTVSPost2010PropOp34
 70
     1
102
RTVSPost2010Prop35
280
     0
102
RTVSPost2010PropOp35
 70
     1
102
RTVSPost2010Prop36
280
     0
102
RTVSPost2010PropOp36
 70
     1
102
RTVSPost2010Prop37
 90
       50
102
RTVSPost2010PropOp37
 70
     1
102
RTVSPost2010Prop38
140
0.0
102
RTVSPost2010PropOp38
 70
     1
102
RTVSPost2010Prop39
140
1.0
102
RTVSPost2010PropOp39
 70
     1
102
RTVSPost2010Prop40
 90
        0
102
RTVSPost2010PropOp40
 70
     1
102
RTVSPost2010Prop41ColorIndex
 90
       18
102
RTVSPost2010Prop41ColorRGB
 90
        0
102
RTVSPost2010PropOp41
 70
     1
102
RTVSPost2010Prop42
 90
       50
102
RTVSPost2010PropOp42
 70
     1
102
RTVSPost2010Prop43
 90
        3
102
RTVSPost2010PropOp43
 70
     1
102
RTVSPost2010Prop44ColorIndex
 90
        5
102
RTVSPost2010Prop44ColorRGB
 90
      255
102
RTVSPost2010PropOp44
 70
     1
102
RTVSPost2010Prop45
280
     0
102
RTVSPost2010PropOp45
 70
     1
102
RTVSPost2010Prop46
 90
       50
102
RTVSPost2010PropOp46
 70
     1
102
RTVSPost2010Prop47
 90
       50
102
RTVSPost2010PropOp47
 70
     1
102
RTVSPost2010Prop48
 90
       50
102
RTVSPost2010PropOp48
 70
     1
102
RTVSPost2010Prop49
280
     0
102
RTVSPost2010PropOp49
 70
     1
102
RTVSPost2010Prop50
 90
       50
102
RTVSPost2010PropOp50
 70
     1
102
RTVSPost2010Prop51ColorIndex
 90
      256
102
RTVSPost2010Prop51ColorRGB
 90
-16777216
102
RTVSPost2010PropOp51
 70
     0
102
RTVSPost2010Prop52
140
1.0
102
RTVSPost2010PropOp52
 70
     0
102
RTVSPost2010Prop53
 90
        2
102
RTVSPost2010PropOp53
 70
     1
102
RTVSPost2010Prop54
  1
strokes_ogs.tif
102
RTVSPost2010PropOp54
 70
     1
102
RTVSPost2010Prop55
280
     0
102
RTVSPost2010PropOp55
 70
     1
102
RTVSPost2010Prop56
140
1.0
102
RTVSPost2010PropOp56
 70
     1
102
RTVSPost2010Prop57
140
1.0
102
RTVSPost2010PropOp57
 70
     1
102
RTVSPropertyOp0
 70
     1
102
RTVSPropertyOp1
 70
     1
102
RTVSPropertyOp2
 70
     1
102
RTVSPropertyOp3
 70
     1
102
RTVSPropertyOp4
 70
     1
102
RTVSPropertyOp5
 70
     1
102
RTVSPropertyOp6
 70
     1
102
RTVSPropertyOp7
 70
     1
102
RTVSPropertyOp8
 70
     1
102
RTVSPropertyOp9
 70
     1
102
RTVSPropertyOp10
 70
     1
102
RTVSPropertyOp11
 70
     1
102
RTVSPropertyOp12
 70
     1
102
RTVSPropertyOp13
 70
     1
102
RTVSPropertyOp14
 70
     1
102
RTVSPropertyOp15
 70
     1
102
RTVSPropertyOp16
 70
     1
102
RTVSPropertyOp17
 70
     1
102
RTVSPropertyOp18
 70
     1
102
RTVSPropertyOp19
 70
     1
102
RTVSPropertyOp20
 70
     1
102
RTVSPropertyOp21
 70
     1
102
RTVSPropertyOp22
 70
     1
102
RTVSPropertyOp23
 70
     1
102
RTVSPropertyOp24
 70
     1
102
RTVSPropertyOp25
 70
     1
102
RTVSPropertyOp26
 70
     1
102
RTVSPropertyOp27
 70
     1
102
RTVSPropertyOp28
 70
     1
102
RTVSPropertyOp29
 70
     1
102
RTVSPropertyOp30
 70
     1
102
RTVSPropertyOp31
 70
     1
102
RTVSPropertyOp32
 70
     1
102
RTVSPropertyOp33
 70
     1
102
RTVSPropertyOp34
 70
     1
102
RTVSPropertyOp35
 70
     1
102
RTVSPropertyOp36
 70
     1
102
RTVSPropertyOp37
 70
     1
102
RTVSPropertyOp38
 70
     1
102
RTVSPropertyOp39
 70
     1
102
RTVSPropertyOp40
 70
     1
102
RTVSPropertyOp41
 70
     1
102
RTVSPropertyOp42
 70
     1
102
RTVSPropertyOp43
 70
     1
102
RTVSPropertyOp44
 70
     1
102
RTVSPropertyOp45
 70
     1
102
RTVSPropertyOp46
 70
     1
102
RTVSPropertyOp47
 70
     1
102
RTVSPropertyOp48
 70
     1
102
RTVSPropertyOp49
 70
     1
102
RTVSPropertyOp50
 70
     1
102
RTVSPropertyOp51
 70
     0
102
RTVSPropertyOp52
 70
     0
102
RTVSPropertyOp53
 70
     1
102
RTVSPropertyOp54
 70
     1
102
RTVSPropertyOp55
 70
     1
102
RTVSPropertyOp56
 70
     1
102
RTVSPropertyOp57
 70
     1
102
RTVSPropertyOp58
 70
     1
102
RTVSPropertyOp59
 70
     1
102
RTVSPropertyOp60
 70
     1
102
RTVSPropertyOp61
 70
     1
102
RTVSPropertyOp62
 70
     1
  0
XRECORD
  5
9B59
102
{ACAD_REACTORS
330
9B58
102
}
330
9B58
100
AcDbXrecord
280
     1
102
RTVSPost2010Prop28
280
     0
102
RTVSPost2010PropOp28
 70
     1
102
RTVSPost2010Prop29
280
     1
102
RTVSPost2010PropOp29
 70
     1
102
RTVSPost2010Prop30
280
     1
102
RTVSPost2010PropOp30
 70
     1
102
RTVSPost2010Prop31
280
     0
102
RTVSPost2010PropOp31
 70
     1
102
RTVSPost2010Prop32
280
     0
102
RTVSPost2010PropOp32
 70
     1
102
RTVSPost2010Prop33
280
     0
102
RTVSPost2010PropOp33
 70
     1
102
RTVSPost2010Prop34
280
     0
102
RTVSPost2010PropOp34
 70
     1
102
RTVSPost2010Prop35
280
     0
102
RTVSPost2010PropOp35
 70
     1
102
RTVSPost2010Prop36
280
     0
102
RTVSPost2010PropOp36
 70
     1
102
RTVSPost2010Prop37
 90
       50
102
RTVSPost2010PropOp37
 70
     1
102
RTVSPost2010Prop38
140
0.0
102
RTVSPost2010PropOp38
 70
     1
102
RTVSPost2010Prop39
140
1.0
102
RTVSPost2010PropOp39
 70
     1
102
RTVSPost2010Prop40
 90
        0
102
RTVSPost2010PropOp40
 70
     1
102
RTVSPost2010Prop41ColorIndex
 90
       18
102
RTVSPost2010Prop41ColorRGB
 90
        0
102
RTVSPost2010PropOp41
 70
     1
102
RTVSPost2010Prop42
 90
       50
102
RTVSPost2010PropOp42
 70
     1
102
RTVSPost2010Prop43
 90
        3
102
RTVSPost2010PropOp43
 70
     1
102
RTVSPost2010Prop44ColorIndex
 90
        5
102
RTVSPost2010Prop44ColorRGB
 90
      255
102
RTVSPost2010PropOp44
 70
     1
102
RTVSPost2010Prop45
280
     0
102
RTVSPost2010PropOp45
 70
     1
102
RTVSPost2010Prop46
 90
       50
102
RTVSPost2010PropOp46
 70
     1
102
RTVSPost2010Prop47
 90
       50
102
RTVSPost2010PropOp47
 70
     1
102
RTVSPost2010Prop48
 90
       50
102
RTVSPost2010PropOp48
 70
     1
102
RTVSPost2010Prop49
280
     0
102
RTVSPost2010PropOp49
 70
     1
102
RTVSPost2010Prop50
 90
       50
102
RTVSPost2010PropOp50
 70
     1
102
RTVSPost2010Prop51ColorIndex
 90
      256
102
RTVSPost2010Prop51ColorRGB
 90
-16777216
102
RTVSPost2010PropOp51
 70
     0
102
RTVSPost2010Prop52
140
1.0
102
RTVSPost2010PropOp52
 70
     0
102
RTVSPost2010Prop53
 90
        2
102
RTVSPost2010PropOp53
 70
     1
102
RTVSPost2010Prop54
  1
strokes_ogs.tif
102
RTVSPost2010PropOp54
 70
     1
102
RTVSPost2010Prop55
280
     0
102
RTVSPost2010PropOp55
 70
     1
102
RTVSPost2010Prop56
140
1.0
102
RTVSPost2010PropOp56
 70
     1
102
RTVSPost2010Prop57
140
1.0
102
RTVSPost2010PropOp57
 70
     1
102
RTVSPropertyOp0
 70
     1
102
RTVSPropertyOp1
 70
     1
102
RTVSPropertyOp2
 70
     1
102
RTVSPropertyOp3
 70
     1
102
RTVSPropertyOp4
 70
     1
102
RTVSPropertyOp5
 70
     1
102
RTVSPropertyOp6
 70
     1
102
RTVSPropertyOp7
 70
     1
102
RTVSPropertyOp8
 70
     1
102
RTVSPropertyOp9
 70
     1
102
RTVSPropertyOp10
 70
     1
102
RTVSPropertyOp11
 70
     1
102
RTVSPropertyOp12
 70
     1
102
RTVSPropertyOp13
 70
     1
102
RTVSPropertyOp14
 70
     1
102
RTVSPropertyOp15
 70
     1
102
RTVSPropertyOp16
 70
     1
102
RTVSPropertyOp17
 70
     1
102
RTVSPropertyOp18
 70
     1
102
RTVSPropertyOp19
 70
     1
102
RTVSPropertyOp20
 70
     1
102
RTVSPropertyOp21
 70
     1
102
RTVSPropertyOp22
 70
     1
102
RTVSPropertyOp23
 70
     1
102
RTVSPropertyOp24
 70
     1
102
RTVSPropertyOp25
 70
     1
102
RTVSPropertyOp26
 70
     1
102
RTVSPropertyOp27
 70
     1
102
RTVSPropertyOp28
 70
     1
102
RTVSPropertyOp29
 70
     1
102
RTVSPropertyOp30
 70
     1
102
RTVSPropertyOp31
 70
     1
102
RTVSPropertyOp32
 70
     1
102
RTVSPropertyOp33
 70
     1
102
RTVSPropertyOp34
 70
     1
102
RTVSPropertyOp35
 70
     1
102
RTVSPropertyOp36
 70
     1
102
RTVSPropertyOp37
 70
     1
102
RTVSPropertyOp38
 70
     1
102
RTVSPropertyOp39
 70
     1
102
RTVSPropertyOp40
 70
     1
102
RTVSPropertyOp41
 70
     1
102
RTVSPropertyOp42
 70
     1
102
RTVSPropertyOp43
 70
     1
102
RTVSPropertyOp44
 70
     1
102
RTVSPropertyOp45
 70
     1
102
RTVSPropertyOp46
 70
     1
102
RTVSPropertyOp47
 70
     1
102
RTVSPropertyOp48
 70
     1
102
RTVSPropertyOp49
 70
     1
102
RTVSPropertyOp50
 70
     1
102
RTVSPropertyOp51
 70
     0
102
RTVSPropertyOp52
 70
     0
102
RTVSPropertyOp53
 70
     1
102
RTVSPropertyOp54
 70
     1
102
RTVSPropertyOp55
 70
     1
102
RTVSPropertyOp56
 70
     1
102
RTVSPropertyOp57
 70
     1
102
RTVSPropertyOp58
 70
     1
102
RTVSPropertyOp59
 70
     1
102
RTVSPropertyOp60
 70
     1
102
RTVSPropertyOp61
 70
     1
102
RTVSPropertyOp62
 70
     1
  0
XRECORD
  5
9B4D
102
{ACAD_REACTORS
330
9B4C
102
}
330
9B4C
100
AcDbXrecord
280
     1
102
RTVSPost2010Prop28
280
     0
102
RTVSPost2010PropOp28
 70
     1
102
RTVSPost2010Prop29
280
     1
102
RTVSPost2010PropOp29
 70
     1
102
RTVSPost2010Prop30
280
     1
102
RTVSPost2010PropOp30
 70
     1
102
RTVSPost2010Prop31
280
     0
102
RTVSPost2010PropOp31
 70
     1
102
RTVSPost2010Prop32
280
     0
102
RTVSPost2010PropOp32
 70
     1
102
RTVSPost2010Prop33
280
     0
102
RTVSPost2010PropOp33
 70
     1
102
RTVSPost2010Prop34
280
     0
102
RTVSPost2010PropOp34
 70
     1
102
RTVSPost2010Prop35
280
     0
102
RTVSPost2010PropOp35
 70
     1
102
RTVSPost2010Prop36
280
     0
102
RTVSPost2010PropOp36
 70
     1
102
RTVSPost2010Prop37
 90
       50
102
RTVSPost2010PropOp37
 70
     1
102
RTVSPost2010Prop38
140
0.0
102
RTVSPost2010PropOp38
 70
     1
102
RTVSPost2010Prop39
140
1.0
102
RTVSPost2010PropOp39
 70
     1
102
RTVSPost2010Prop40
 90
        0
102
RTVSPost2010PropOp40
 70
     1
102
RTVSPost2010Prop41ColorIndex
 90
       18
102
RTVSPost2010Prop41ColorRGB
 90
        0
102
RTVSPost2010PropOp41
 70
     1
102
RTVSPost2010Prop42
 90
       50
102
RTVSPost2010PropOp42
 70
     1
102
RTVSPost2010Prop43
 90
        3
102
RTVSPost2010PropOp43
 70
     1
102
RTVSPost2010Prop44ColorIndex
 90
        5
102
RTVSPost2010Prop44ColorRGB
 90
      255
102
RTVSPost2010PropOp44
 70
     1
102
RTVSPost2010Prop45
280
     0
102
RTVSPost2010PropOp45
 70
     1
102
RTVSPost2010Prop46
 90
       50
102
RTVSPost2010PropOp46
 70
     1
102
RTVSPost2010Prop47
 90
       50
102
RTVSPost2010PropOp47
 70
     1
102
RTVSPost2010Prop48
 90
       50
102
RTVSPost2010PropOp48
 70
     1
102
RTVSPost2010Prop49
280
     0
102
RTVSPost2010PropOp49
 70
     1
102
RTVSPost2010Prop50
 90
       50
102
RTVSPost2010PropOp50
 70
     1
102
RTVSPost2010Prop51ColorIndex
 90
      256
102
RTVSPost2010Prop51ColorRGB
 90
-16777216
102
RTVSPost2010PropOp51
 70
     0
102
RTVSPost2010Prop52
140
1.0
102
RTVSPost2010PropOp52
 70
     0
102
RTVSPost2010Prop53
 90
        2
102
RTVSPost2010PropOp53
 70
     1
102
RTVSPost2010Prop54
  1
strokes_ogs.tif
102
RTVSPost2010PropOp54
 70
     1
102
RTVSPost2010Prop55
280
     0
102
RTVSPost2010PropOp55
 70
     1
102
RTVSPost2010Prop56
140
1.0
102
RTVSPost2010PropOp56
 70
     1
102
RTVSPost2010Prop57
140
1.0
102
RTVSPost2010PropOp57
 70
     1
102
RTVSPropertyOp0
 70
     1
102
RTVSPropertyOp1
 70
     1
102
RTVSPropertyOp2
 70
     1
102
RTVSPropertyOp3
 70
     1
102
RTVSPropertyOp4
 70
     1
102
RTVSPropertyOp5
 70
     1
102
RTVSPropertyOp6
 70
     1
102
RTVSPropertyOp7
 70
     1
102
RTVSPropertyOp8
 70
     1
102
RTVSPropertyOp9
 70
     1
102
RTVSPropertyOp10
 70
     1
102
RTVSPropertyOp11
 70
     1
102
RTVSPropertyOp12
 70
     1
102
RTVSPropertyOp13
 70
     1
102
RTVSPropertyOp14
 70
     1
102
RTVSPropertyOp15
 70
     1
102
RTVSPropertyOp16
 70
     1
102
RTVSPropertyOp17
 70
     1
102
RTVSPropertyOp18
 70
     1
102
RTVSPropertyOp19
 70
     1
102
RTVSPropertyOp20
 70
     1
102
RTVSPropertyOp21
 70
     1
102
RTVSPropertyOp22
 70
     1
102
RTVSPropertyOp23
 70
     1
102
RTVSPropertyOp24
 70
     1
102
RTVSPropertyOp25
 70
     1
102
RTVSPropertyOp26
 70
     1
102
RTVSPropertyOp27
 70
     1
102
RTVSPropertyOp28
 70
     1
102
RTVSPropertyOp29
 70
     1
102
RTVSPropertyOp30
 70
     1
102
RTVSPropertyOp31
 70
     1
102
RTVSPropertyOp32
 70
     1
102
RTVSPropertyOp33
 70
     1
102
RTVSPropertyOp34
 70
     1
102
RTVSPropertyOp35
 70
     1
102
RTVSPropertyOp36
 70
     1
102
RTVSPropertyOp37
 70
     1
102
RTVSPropertyOp38
 70
     1
102
RTVSPropertyOp39
 70
     1
102
RTVSPropertyOp40
 70
     1
102
RTVSPropertyOp41
 70
     1
102
RTVSPropertyOp42
 70
     1
102
RTVSPropertyOp43
 70
     1
102
RTVSPropertyOp44
 70
     1
102
RTVSPropertyOp45
 70
     1
102
RTVSPropertyOp46
 70
     1
102
RTVSPropertyOp47
 70
     1
102
RTVSPropertyOp48
 70
     1
102
RTVSPropertyOp49
 70
     1
102
RTVSPropertyOp50
 70
     1
102
RTVSPropertyOp51
 70
     0
102
RTVSPropertyOp52
 70
     0
102
RTVSPropertyOp53
 70
     1
102
RTVSPropertyOp54
 70
     1
102
RTVSPropertyOp55
 70
     1
102
RTVSPropertyOp56
 70
     1
102
RTVSPropertyOp57
 70
     1
102
RTVSPropertyOp58
 70
     1
102
RTVSPropertyOp59
 70
     1
102
RTVSPropertyOp60
 70
     1
102
RTVSPropertyOp61
 70
     1
102
RTVSPropertyOp62
 70
     1
  0
XRECORD
  5
9B65
102
{ACAD_REACTORS
330
9B64
102
}
330
9B64
100
AcDbXrecord
280
     1
102
RTVSPost2010Prop28
280
     0
102
RTVSPost2010PropOp28
 70
     1
102
RTVSPost2010Prop29
280
     1
102
RTVSPost2010PropOp29
 70
     1
102
RTVSPost2010Prop30
280
     1
102
RTVSPost2010PropOp30
 70
     1
102
RTVSPost2010Prop31
280
     0
102
RTVSPost2010PropOp31
 70
     1
102
RTVSPost2010Prop32
280
     0
102
RTVSPost2010PropOp32
 70
     1
102
RTVSPost2010Prop33
280
     0
102
RTVSPost2010PropOp33
 70
     1
102
RTVSPost2010Prop34
280
     0
102
RTVSPost2010PropOp34
 70
     1
102
RTVSPost2010Prop35
280
     0
102
RTVSPost2010PropOp35
 70
     1
102
RTVSPost2010Prop36
280
     0
102
RTVSPost2010PropOp36
 70
     1
102
RTVSPost2010Prop37
 90
       50
102
RTVSPost2010PropOp37
 70
     1
102
RTVSPost2010Prop38
140
0.0
102
RTVSPost2010PropOp38
 70
     1
102
RTVSPost2010Prop39
140
1.0
102
RTVSPost2010PropOp39
 70
     1
102
RTVSPost2010Prop40
 90
        0
102
RTVSPost2010PropOp40
 70
     1
102
RTVSPost2010Prop41ColorIndex
 90
       18
102
RTVSPost2010Prop41ColorRGB
 90
        0
102
RTVSPost2010PropOp41
 70
     1
102
RTVSPost2010Prop42
 90
       50
102
RTVSPost2010PropOp42
 70
     1
102
RTVSPost2010Prop43
 90
        3
102
RTVSPost2010PropOp43
 70
     1
102
RTVSPost2010Prop44ColorIndex
 90
        5
102
RTVSPost2010Prop44ColorRGB
 90
      255
102
RTVSPost2010PropOp44
 70
     1
102
RTVSPost2010Prop45
280
     0
102
RTVSPost2010PropOp45
 70
     1
102
RTVSPost2010Prop46
 90
       50
102
RTVSPost2010PropOp46
 70
     1
102
RTVSPost2010Prop47
 90
       50
102
RTVSPost2010PropOp47
 70
     1
102
RTVSPost2010Prop48
 90
       50
102
RTVSPost2010PropOp48
 70
     1
102
RTVSPost2010Prop49
280
     0
102
RTVSPost2010PropOp49
 70
     1
102
RTVSPost2010Prop50
 90
       50
102
RTVSPost2010PropOp50
 70
     1
102
RTVSPost2010Prop51ColorIndex
 90
      256
102
RTVSPost2010Prop51ColorRGB
 90
-16777216
102
RTVSPost2010PropOp51
 70
     0
102
RTVSPost2010Prop52
140
1.0
102
RTVSPost2010PropOp52
 70
     0
102
RTVSPost2010Prop53
 90
        2
102
RTVSPost2010PropOp53
 70
     1
102
RTVSPost2010Prop54
  1
strokes_ogs.tif
102
RTVSPost2010PropOp54
 70
     1
102
RTVSPost2010Prop55
280
     0
102
RTVSPost2010PropOp55
 70
     1
102
RTVSPost2010Prop56
140
1.0
102
RTVSPost2010PropOp56
 70
     1
102
RTVSPost2010Prop57
140
1.0
102
RTVSPost2010PropOp57
 70
     1
102
RTVSPropertyOp0
 70
     1
102
RTVSPropertyOp1
 70
     1
102
RTVSPropertyOp2
 70
     1
102
RTVSPropertyOp3
 70
     1
102
RTVSPropertyOp4
 70
     1
102
RTVSPropertyOp5
 70
     1
102
RTVSPropertyOp6
 70
     1
102
RTVSPropertyOp7
 70
     1
102
RTVSPropertyOp8
 70
     1
102
RTVSPropertyOp9
 70
     1
102
RTVSPropertyOp10
 70
     1
102
RTVSPropertyOp11
 70
     1
102
RTVSPropertyOp12
 70
     1
102
RTVSPropertyOp13
 70
     1
102
RTVSPropertyOp14
 70
     1
102
RTVSPropertyOp15
 70
     1
102
RTVSPropertyOp16
 70
     1
102
RTVSPropertyOp17
 70
     1
102
RTVSPropertyOp18
 70
     1
102
RTVSPropertyOp19
 70
     1
102
RTVSPropertyOp20
 70
     1
102
RTVSPropertyOp21
 70
     1
102
RTVSPropertyOp22
 70
     1
102
RTVSPropertyOp23
 70
     1
102
RTVSPropertyOp24
 70
     1
102
RTVSPropertyOp25
 70
     1
102
RTVSPropertyOp26
 70
     1
102
RTVSPropertyOp27
 70
     1
102
RTVSPropertyOp28
 70
     1
102
RTVSPropertyOp29
 70
     1
102
RTVSPropertyOp30
 70
     1
102
RTVSPropertyOp31
 70
     1
102
RTVSPropertyOp32
 70
     1
102
RTVSPropertyOp33
 70
     1
102
RTVSPropertyOp34
 70
     1
102
RTVSPropertyOp35
 70
     1
102
RTVSPropertyOp36
 70
     1
102
RTVSPropertyOp37
 70
     1
102
RTVSPropertyOp38
 70
     1
102
RTVSPropertyOp39
 70
     1
102
RTVSPropertyOp40
 70
     1
102
RTVSPropertyOp41
 70
     1
102
RTVSPropertyOp42
 70
     1
102
RTVSPropertyOp43
 70
     1
102
RTVSPropertyOp44
 70
     1
102
RTVSPropertyOp45
 70
     1
102
RTVSPropertyOp46
 70
     1
102
RTVSPropertyOp47
 70
     1
102
RTVSPropertyOp48
 70
     1
102
RTVSPropertyOp49
 70
     1
102
RTVSPropertyOp50
 70
     1
102
RTVSPropertyOp51
 70
     0
102
RTVSPropertyOp52
 70
     0
102
RTVSPropertyOp53
 70
     1
102
RTVSPropertyOp54
 70
     1
102
RTVSPropertyOp55
 70
     1
102
RTVSPropertyOp56
 70
     1
102
RTVSPropertyOp57
 70
     1
102
RTVSPropertyOp58
 70
     1
102
RTVSPropertyOp59
 70
     1
102
RTVSPropertyOp60
 70
     1
102
RTVSPropertyOp61
 70
     1
102
RTVSPropertyOp62
 70
     1
  0
ENDSEC
  0
EOF
