  0
SECTION
  2
HEADER
  9
$ACADVER
  1
AC1027
  9
$DWGCODEPAGE
  3
ANSI_932
  9
$LTSCALE
 40
20.0
  9
$FILLMODE
 70
     1
  9
$CLAYER
  8
0
  9
$PDMODE
 70
     0
  9
$SPLFRAME
 70
     0
  9
$SPLINETYPE
 70
     6
  9
$SPLINESEGS
 70
     8
  9
$DIMASZ
 40
2.000000
  9
$DIMEXE
 40
1.500000
  9
$DIMEXO
 40
0.800000
  9
$DIMTAD
 70
     1
  9
$DIMTIH
 70
     0
  9
$DIMTOH
 70
     0
  9
$DIMTVP
 40
0.500000
  9
$DIMTXT
 40
3.100000
  9
$EXTMIN
 10
0.000000
 20
0.000000
 30
0.000000
  9
$EXTMAX
 10
297.000000
 20
420.000000
 30
0.000000
  9
$MEASUREMENT
 70
  1
  9
$LIMMIN
 10
0.000000
 20
0.000000
  9
$LIMMAX
 10
297.000000
 20
420.000000
  9
$HANDSEED
  5
1CB
  9
$LWDISPLAY
290
     0
  9
$DIMBLK
  1
_OPEN
  9
$DIMDEC
 70
     2
  9
$DIMADEC
 70
     2
  9
$DIMAUNIT
 70
     0
  9
$DIMZIN
 70
     8
  9
$DIMAZIN
 70
     2
  9
$DIMTOFL
 70
     1
  0
ENDSEC
  0
SECTION
  2
CLASSES
  0
ENDSEC
  0
SECTION
  2
TABLES
  0
TABLE
  2
VPORT
  5
18E
100
AcDbSymbolTable
 70
     1
  0
VPORT
  5
18F
100
AcDbSymbolTableRecord
100
AcDbViewportTableRecord
  2
*ACTIVE
 70
     0
 12
117.651983
 22
92.901986
 40
149.803971
 41
1.437238
  0
ENDTAB
  0
TABLE
  2
LTYPE
  5
190
100
AcDbSymbolTable
 70
     3
  0
LTYPE
  5
191
100
AcDbSymbolTableRecord
100
AcDbLinetypeTableRecord
  2
BYBLOCK
 70
     0
  3

 72
    65
 73
     0
 40
0.0
  0
LTYPE
  5
192
100
AcDbSymbolTableRecord
100
AcDbLinetypeTableRecord
  2
BYLAYER
 70
     0
  3

 72
    65
 73
     0
 40
0.0
  0
LTYPE
  5
193
100
AcDbSymbolTableRecord
100
AcDbLinetypeTableRecord
  2
CONTINUOUS
 70
     0
  3
Solid line (NEC CAE2D for Win R18.0 : 2025.08.18)
 72
    65
 73
     0
 40
0.0
  0
LTYPE
  5
194
100
AcDbSymbolTableRecord
100
AcDbLinetypeTableRecord
  2
DASHED
 70
     0
  3
__ __ __ __ __ __ __ __ __ __ __ __ __ _
 72
    65
 73
     2
 40
0.75
 49
0.5
 74
     0
 49
-0.25
 74
     0
  0
LTYPE
  5
195
100
AcDbSymbolTableRecord
100
AcDbLinetypeTableRecord
  2
CENTER
 70
     0
  3
____ _ ____ _ ____ _ ____ _ ____ _ ____
 72
    65
 73
     4
 40
2.0
 49
1.25
 74
     0
 49
-0.25
 74
     0
 49
0.25
 74
     0
 49
-0.25
 74
     0
  0
ENDTAB
  0
TABLE
  2
LAYER
  5
196
100
AcDbSymbolTable
 70
    22
  0
LAYER
  5
197
100
AcDbSymbolTableRecord
100
AcDbLayerTableRecord
  2
0
 70
     0
 62
     7
  6
CONTINUOUS
370
    -3
390

  0
LAYER
  5
198
100
AcDbSymbolTableRecord
100
AcDbLayerTableRecord
  2
A0
 70
     0
 62
     9
  6
CONTINUOUS
370
    -3
390

  0
LAYER
  5
199
100
AcDbSymbolTableRecord
100
AcDbLayerTableRecord
  2
A1
 70
     0
 62
    12
  6
CONTINUOUS
370
    -3
390

  0
LAYER
  5
19A
100
AcDbSymbolTableRecord
100
AcDbLayerTableRecord
  2
A2
 70
     0
 62
    12
  6
CONTINUOUS
370
    -3
390

  0
LAYER
  5
19B
100
AcDbSymbolTableRecord
100
AcDbLayerTableRecord
  2
A3
 70
     0
 62
    10
  6
CONTINUOUS
370
    -3
390

  0
LAYER
  5
19C
100
AcDbSymbolTableRecord
100
AcDbLayerTableRecord
  2
A4
 70
     0
 62
     9
  6
CONTINUOUS
370
    -3
390

  0
LAYER
  5
19D
100
AcDbSymbolTableRecord
100
AcDbLayerTableRecord
  2
A5
 70
     0
 62
     8
  6
CONTINUOUS
370
    -3
390

  0
LAYER
  5
19E
100
AcDbSymbolTableRecord
100
AcDbLayerTableRecord
  2
A6
 70
     0
 62
    12
  6
CONTINUOUS
370
    -3
390

  0
LAYER
  5
19F
100
AcDbSymbolTableRecord
100
AcDbLayerTableRecord
  2
A7
 70
     0
 62
    12
  6
CONTINUOUS
370
    -3
390

  0
LAYER
  5
1A0
100
AcDbSymbolTableRecord
100
AcDbLayerTableRecord
  2
A8
 70
     0
 62
    10
  6
CONTINUOUS
370
    -3
390

  0
LAYER
  5
1A1
100
AcDbSymbolTableRecord
100
AcDbLayerTableRecord
  2
A9
 70
     0
 62
     9
  6
CONTINUOUS
370
    -3
390

  0
LAYER
  5
1A2
100
AcDbSymbolTableRecord
100
AcDbLayerTableRecord
  2
A10
 70
     0
 62
     6
  6
CONTINUOUS
370
    -3
390

  0
LAYER
  5
1A3
100
AcDbSymbolTableRecord
100
AcDbLayerTableRecord
  2
A16
 70
     0
 62
     5
  6
CONTINUOUS
370
    -3
390

  0
LAYER
  5
1A4
100
AcDbSymbolTableRecord
100
AcDbLayerTableRecord
  2
A17
 70
     0
 62
     9
  6
CONTINUOUS
370
    -3
390

  0
LAYER
  5
1A5
100
AcDbSymbolTableRecord
100
AcDbLayerTableRecord
  2
A18
 70
     0
 62
     7
  6
CONTINUOUS
370
    -3
390

  0
LAYER
  5
1A6
100
AcDbSymbolTableRecord
100
AcDbLayerTableRecord
  2
A19
 70
     0
 62
     5
  6
CONTINUOUS
370
    -3
390

  0
LAYER
  5
1A7
100
AcDbSymbolTableRecord
100
AcDbLayerTableRecord
  2
A20
 70
     0
 62
     1
  6
CONTINUOUS
370
    -3
390

  0
LAYER
  5
1A8
100
AcDbSymbolTableRecord
100
AcDbLayerTableRecord
  2
A21
 70
     0
 62
    41
  6
CONTINUOUS
370
    -3
390

  0
LAYER
  5
1A9
100
AcDbSymbolTableRecord
100
AcDbLayerTableRecord
  2
A30
 70
     0
 62
     1
  6
CONTINUOUS
370
    -3
390

  0
LAYER
  5
1AA
100
AcDbSymbolTableRecord
100
AcDbLayerTableRecord
  2
A40
 70
     0
 62
     9
  6
CONTINUOUS
370
    -3
390

  0
LAYER
  5
1AB
100
AcDbSymbolTableRecord
100
AcDbLayerTableRecord
  2
A50
 70
     0
 62
    12
  6
CONTINUOUS
370
    -3
390

  0
LAYER
  5
1AC
100
AcDbSymbolTableRecord
100
AcDbLayerTableRecord
  2
A1023
 70
     0
 62
    16
  6
CONTINUOUS
370
    -3
390

  0
ENDTAB
  0
TABLE
  2
STYLE
  5
1AD
100
AcDbSymbolTable
 70
     4
  0
STYLE
  5
1AE
100
AcDbSymbolTableRecord
100
AcDbTextStyleTableRecord
  2
STANDARD
 70
    64
 40
0.0
 41
1.0
 50
0.0
 71
     0
 42
3.000000000000000
  3
TXT
  4

  0
STYLE
  5
1AF
100
AcDbSymbolTableRecord
100
AcDbTextStyleTableRecord
  2
ANKTATE
 70
    68
 40
0.0
 41
1.0
 50
0.0
 71
     0
 42
3.000000000000000
  3
TXT
  4

  0
STYLE
  5
1B0
100
AcDbSymbolTableRecord
100
AcDbTextStyleTableRecord
  2
KNJYOKO
 70
    64
 40
0.0
 41
1.0
 50
0.0
 71
     0
 42
3.000000000000000
  3
TXT
  4
BIGFONT
  0
STYLE
  5
1B1
100
AcDbSymbolTableRecord
100
AcDbTextStyleTableRecord
  2
KNJTATE
 70
    68
 40
0.0
 41
1.0
 50
0.0
 71
     0
 42
3.000000000000000
  3
TXT
  4
BIGFONT
  0
ENDTAB
  0
TABLE
  2
VIEW
  5
1B2
100
AcDbSymbolTable
 70
     0
  0
ENDTAB
  0
TABLE
  2
UCS
  5
1B3
100
AcDbSymbolTable
 70
     0
  0
ENDTAB
  0
TABLE
  2
APPID
  5
1B4
100
AcDbSymbolTable
 70
     1
  0
APPID
  5
1B5
100
AcDbSymbolTableRecord
100
AcDbRegAppTableRecord
  2
ACAD
 70
     0
  0
ENDTAB
  0
TABLE
  2
DIMSTYLE
  5
1B6
100
AcDbSymbolTable
 70
     2
100
AcDbDimStyleTable
  0
DIMSTYLE
105
1B7
100
AcDbSymbolTableRecord
100
AcDbDimStyleTableRecord
  2
STANDARD
 70
     0
 41
2.000000
 44
1.500000
 42
0.800000
145
0.661290
140
3.100000
144
1.000000
146
0.645161
340
1AE
  0
DIMSTYLE
105
1B8
100
AcDbSymbolTableRecord
100
AcDbDimStyleTableRecord
  2
A001
 70
     0
 41
2.000000
 44
1.500000
 42
0.800000
145
0.661290
140
3.100000
144
1.000000
146
0.645161
 77
     1
 73
     0
 74
     0
271
     2
179
     2
275
     0
 78
     8
 79
     2
172
     1
340
1AE
  0
ENDTAB
  0
TABLE
  2
BLOCK_RECORD
  5
1B9
100
AcDbSymbolTable
 70
    12
  0
BLOCK_RECORD
  5
1BA
100
AcDbSymbolTableRecord
100
AcDbBlockTableRecord
  2
*MODEL_SPACE
  0
BLOCK_RECORD
  5
1BB
100
AcDbSymbolTableRecord
100
AcDbBlockTableRecord
  2
*PAPER_SPACE
  0
BLOCK_RECORD
  5
1BC
100
AcDbSymbolTableRecord
100
AcDbBlockTableRecord
  2
*PAPER_SPACE0
  0
BLOCK_RECORD
  5
1
100
AcDbSymbolTableRecord
100
AcDbBlockTableRecord
  2
_NONE
  0
BLOCK_RECORD
  5
4
100
AcDbSymbolTableRecord
100
AcDbBlockTableRecord
  2
_CLOSED
  0
BLOCK_RECORD
  5
B
100
AcDbSymbolTableRecord
100
AcDbBlockTableRecord
  2
_DOT
  0
BLOCK_RECORD
  5
13
100
AcDbSymbolTableRecord
100
AcDbBlockTableRecord
  2
_OPEN
  0
BLOCK_RECORD
  5
19
100
AcDbSymbolTableRecord
100
AcDbBlockTableRecord
  2
_ORIGIN
  0
BLOCK_RECORD
  5
1E
100
AcDbSymbolTableRecord
100
AcDbBlockTableRecord
  2
_OPEN30
  0
BLOCK_RECORD
  5
24
100
AcDbSymbolTableRecord
100
AcDbBlockTableRecord
  2
_BOXFILLED
  0
BLOCK_RECORD
  5
29
100
AcDbSymbolTableRecord
100
AcDbBlockTableRecord
  2
_BOXBLANK
  0
BLOCK_RECORD
  5
31
100
AcDbSymbolTableRecord
100
AcDbBlockTableRecord
  2
_OBLIQUE
  0
BLOCK_RECORD
  5
35
100
AcDbSymbolTableRecord
100
AcDbBlockTableRecord
  2
_OPEN90
  0
BLOCK_RECORD
  5
3B
100
AcDbSymbolTableRecord
100
AcDbBlockTableRecord
  2
_CLOSEDBLANK
  0
BLOCK_RECORD
  5
41
100
AcDbSymbolTableRecord
100
AcDbBlockTableRecord
  2
_DOTBLANK
  0
ENDTAB
  0
ENDSEC
  0
SECTION
  2
BLOCKS
  0
BLOCK
  5
1BD
100
AcDbEntity
  8
0
100
AcDbBlockBegin
  2
*MODEL_SPACE
 70
     0
 10
0.0
 20
0.0
 30
0.0
  3
*MODEL_SPACE
  1

  0
ENDBLK
  5
1BE
100
AcDbEntity
  8
0
100
AcDbBlockEnd
  0
BLOCK
  5
1BF
100
AcDbEntity
  8
0
100
AcDbBlockBegin
  2
*PAPER_SPACE
 70
     0
 10
0.0
 20
0.0
 30
0.0
  3
*PAPER_SPACE
  1

  0
ENDBLK
  5
1C0
100
AcDbEntity
  8
0
100
AcDbBlockEnd
  0
BLOCK
  5
1C1
100
AcDbEntity
  8
0
100
AcDbBlockBegin
  2
*PAPER_SPACE0
 70
     0
 10
0.0
 20
0.0
 30
0.0
  3
*PAPER_SPACE0
  1

  0
ENDBLK
  5
1C2
100
AcDbEntity
  8
0
100
AcDbBlockEnd
  0
BLOCK
  5
2
330
1
100
AcDbEntity
  8
0
100
AcDbBlockBegin
  2
_NONE
 70
     0
 10
0.0
 20
0.0
 30
0.0
  3
_NONE
  1

  0
ENDBLK
  5
3
330
1
100
AcDbEntity
  8
0
100
AcDbBlockEnd
  0
BLOCK
  5
5
330
4
100
AcDbEntity
  8
0
100
AcDbBlockBegin
  2
_CLOSED
 70
     0
 10
0.0
 20
0.0
 30
0.0
  3
_CLOSED
  1

  0
LINE
  5
6
330
4
100
AcDbEntity
  8
0
  6
BYBLOCK
 62
     0
370
    -2
100
AcDbLine
 10
-1.0
 20
0.166667
 30
0.0
 11
0.0
 21
0.0
 31
0.0
  0
LINE
  5
7
330
4
100
AcDbEntity
  8
0
  6
BYBLOCK
 62
     0
370
    -2
100
AcDbLine
 10
0.0
 20
0.0
 30
0.0
 11
-1.0
 21
-0.166667
 31
0.0
  0
LINE
  5
8
330
4
100
AcDbEntity
  8
0
  6
BYBLOCK
 62
     0
370
    -2
100
AcDbLine
 10
-1.0
 20
0.166667
 30
0.0
 11
-1.0
 21
-0.166667
 31
0.0
  0
LINE
  5
9
330
4
100
AcDbEntity
  8
0
  6
BYBLOCK
 62
     0
370
    -2
100
AcDbLine
 10
0.0
 20
0.0
 30
0.0
 11
-1.0
 21
0.0
 31
0.0
  0
ENDBLK
  5
A
330
4
100
AcDbEntity
  8
0
100
AcDbBlockEnd
  0
BLOCK
  5
C
330
B
100
AcDbEntity
  8
0
100
AcDbBlockBegin
  2
_DOT
 70
     0
 10
0.0
 20
0.0
 30
0.0
  3
_DOT
  1

  0
POLYLINE
  5
D
330
B
100
AcDbEntity
  8
0
  6
BYBLOCK
 62
     0
370
    -2
100
AcDb2dPolyline
 66
     1
 10
0.0
 20
0.0
 30
0.0
 70
     1
 40
0.5
 41
0.5
  0
VERTEX
  5
E
330
B
100
AcDbEntity
  8
0
  6
BYBLOCK
 62
     0
370
    -2
100
AcDbVertex
100
AcDb2dVertex
 10
-0.25
 20
0.0
 30
0.0
 42
1.0
  0
VERTEX
  5
F
330
B
100
AcDbEntity
  8
0
  6
BYBLOCK
 62
     0
370
    -2
100
AcDbVertex
100
AcDb2dVertex
 10
0.25
 20
0.0
 30
0.0
 42
1.0
  0
SEQEND
  5
10
330
B
100
AcDbEntity
  8
0
  6
BYBLOCK
 62
     0
370
    -2
  0
LINE
  5
11
330
B
100
AcDbEntity
  8
0
  6
BYBLOCK
 62
     0
370
    -2
100
AcDbLine
 10
-0.5
 20
0.0
 30
0.0
 11
-1.0
 21
0.0
 31
0.0
  0
ENDBLK
  5
12
330
B
100
AcDbEntity
  8
0
100
AcDbBlockEnd
  0
BLOCK
  5
14
330
13
100
AcDbEntity
  8
0
100
AcDbBlockBegin
  2
_OPEN
 70
     0
 10
0.0
 20
0.0
 30
0.0
  3
_OPEN
  1

  0
LINE
  5
15
330
13
100
AcDbEntity
  8
0
  6
BYBLOCK
 62
     0
370
    -2
100
AcDbLine
 10
-1.0
 20
0.166667
 30
0.0
 11
0.0
 21
0.0
 31
0.0
  0
LINE
  5
16
330
13
100
AcDbEntity
  8
0
  6
BYBLOCK
 62
     0
370
    -2
100
AcDbLine
 10
0.0
 20
0.0
 30
0.0
 11
-1.0
 21
-0.166667
 31
0.0
  0
LINE
  5
17
330
13
100
AcDbEntity
  8
0
  6
BYBLOCK
 62
     0
370
    -2
100
AcDbLine
 10
0.0
 20
0.0
 30
0.0
 11
-1.0
 21
0.0
 31
0.0
  0
ENDBLK
  5
18
330
13
100
AcDbEntity
  8
0
100
AcDbBlockEnd
  0
BLOCK
  5
1A
330
19
100
AcDbEntity
  8
0
100
AcDbBlockBegin
  2
_ORIGIN
 70
     0
 10
0.0
 20
0.0
 30
0.0
  3
_ORIGIN
  1

  0
CIRCLE
  5
1B
330
19
100
AcDbEntity
  8
0
  6
BYBLOCK
 62
     0
370
    -2
100
AcDbCircle
 10
0.0
 20
0.0
 30
0.0
 40
0.5
  0
LINE
  5
1C
330
19
100
AcDbEntity
  8
0
  6
BYBLOCK
 62
     0
370
    -2
100
AcDbLine
 10
0.0
 20
0.0
 30
0.0
 11
-1.0
 21
0.0
 31
0.0
  0
ENDBLK
  5
1D
330
19
100
AcDbEntity
  8
0
100
AcDbBlockEnd
  0
BLOCK
  5
1F
330
1E
100
AcDbEntity
  8
0
100
AcDbBlockBegin
  2
_OPEN30
 70
     0
 10
0.0
 20
0.0
 30
0.0
  3
_OPEN30
  1

  0
LINE
  5
20
330
1E
100
AcDbEntity
  8
0
  6
BYBLOCK
 62
     0
370
    -2
100
AcDbLine
 10
-1.0
 20
0.267949
 30
0.0
 11
0.0
 21
0.0
 31
0.0
  0
LINE
  5
21
330
1E
100
AcDbEntity
  8
0
  6
BYBLOCK
 62
     0
370
    -2
100
AcDbLine
 10
0.0
 20
0.0
 30
0.0
 11
-1.0
 21
-0.267949
 31
0.0
  0
LINE
  5
22
330
1E
100
AcDbEntity
  8
0
  6
BYBLOCK
 62
     0
370
    -2
100
AcDbLine
 10
0.0
 20
0.0
 30
0.0
 11
-1.0
 21
0.0
 31
0.0
  0
ENDBLK
  5
23
330
1E
100
AcDbEntity
  8
0
100
AcDbBlockEnd
  0
BLOCK
  5
25
330
24
100
AcDbEntity
  8
0
100
AcDbBlockBegin
  2
_BOXFILLED
 70
     0
 10
0.0
 20
0.0
 30
0.0
  3
_BOXFILLED
  1

  0
SOLID
  5
26
330
24
100
AcDbEntity
  8
0
  6
BYBLOCK
 62
     0
370
    -2
100
AcDbTrace
 10
-0.5
 20
0.5
 30
0.0
 11
0.5
 21
0.5
 31
0.0
 12
-0.5
 22
-0.5
 32
0.0
 13
0.5
 23
-0.5
 33
0.0
  0
LINE
  5
27
330
24
100
AcDbEntity
  8
0
  6
BYBLOCK
 62
     0
370
    -2
100
AcDbLine
 10
-0.5
 20
0.0
 30
0.0
 11
-1.0
 21
0.0
 31
0.0
  0
ENDBLK
  5
28
330
24
100
AcDbEntity
  8
0
100
AcDbBlockEnd
  0
BLOCK
  5
2A
330
29
100
AcDbEntity
  8
0
100
AcDbBlockBegin
  2
_BOXBLANK
 70
     0
 10
0.0
 20
0.0
 30
0.0
  3
_BOXBLANK
  1

  0
LINE
  5
2B
330
29
100
AcDbEntity
  8
0
  6
BYBLOCK
 62
     0
370
    -2
100
AcDbLine
 10
-0.5
 20
-0.5
 30
0.0
 11
0.5
 21
-0.5
 31
0.0
  0
LINE
  5
2C
330
29
100
AcDbEntity
  8
0
  6
BYBLOCK
 62
     0
370
    -2
100
AcDbLine
 10
0.5
 20
-0.5
 30
0.0
 11
0.5
 21
0.5
 31
0.0
  0
LINE
  5
2D
330
29
100
AcDbEntity
  8
0
  6
BYBLOCK
 62
     0
370
    -2
100
AcDbLine
 10
0.5
 20
0.5
 30
0.0
 11
-0.5
 21
0.5
 31
0.0
  0
LINE
  5
2E
330
29
100
AcDbEntity
  8
0
  6
BYBLOCK
 62
     0
370
    -2
100
AcDbLine
 10
-0.5
 20
0.5
 30
0.0
 11
-0.5
 21
-0.5
 31
0.0
  0
LINE
  5
2F
330
29
100
AcDbEntity
  8
0
  6
BYBLOCK
 62
     0
370
    -2
100
AcDbLine
 10
-0.5
 20
0.0
 30
0.0
 11
-1.0
 21
0.0
 31
0.0
  0
ENDBLK
  5
30
330
29
100
AcDbEntity
  8
0
100
AcDbBlockEnd
  0
BLOCK
  5
32
330
31
100
AcDbEntity
  8
0
100
AcDbBlockBegin
  2
_OBLIQUE
 70
     0
 10
0.0
 20
0.0
 30
0.0
  3
_OBLIQUE
  1

  0
LINE
  5
33
330
31
100
AcDbEntity
  8
0
  6
BYBLOCK
 62
     0
370
    -2
100
AcDbLine
 10
-0.5
 20
-0.5
 30
0.0
 11
0.5
 21
0.5
 31
0.0
  0
ENDBLK
  5
34
330
31
100
AcDbEntity
  8
0
100
AcDbBlockEnd
  0
BLOCK
  5
36
330
35
100
AcDbEntity
  8
0
100
AcDbBlockBegin
  2
_OPEN90
 70
     0
 10
0.0
 20
0.0
 30
0.0
  3
_OPEN90
  1

  0
LINE
  5
37
330
35
100
AcDbEntity
  8
0
  6
BYBLOCK
 62
     0
370
    -2
100
AcDbLine
 10
-0.5
 20
0.5
 30
0.0
 11
0.0
 21
0.0
 31
0.0
  0
LINE
  5
38
330
35
100
AcDbEntity
  8
0
  6
BYBLOCK
 62
     0
370
    -2
100
AcDbLine
 10
0.0
 20
0.0
 30
0.0
 11
-0.5
 21
-0.5
 31
0.0
  0
LINE
  5
39
330
35
100
AcDbEntity
  8
0
  6
BYBLOCK
 62
     0
370
    -2
100
AcDbLine
 10
0.0
 20
0.0
 30
0.0
 11
-1.0
 21
0.0
 31
0.0
  0
ENDBLK
  5
3A
330
35
100
AcDbEntity
  8
0
100
AcDbBlockEnd
  0
BLOCK
  5
3C
330
3B
100
AcDbEntity
  8
0
100
AcDbBlockBegin
  2
_CLOSEDBLANK
 70
     0
 10
0.0
 20
0.0
 30
0.0
  3
_CLOSEDBLANK
  1

  0
LINE
  5
3D
330
3B
100
AcDbEntity
  8
0
  6
BYBLOCK
 62
     0
370
    -2
100
AcDbLine
 10
-1.0
 20
0.1666666666666666
 30
0.0
 11
0.0
 21
0.0
 31
0.0
  0
LINE
  5
3E
330
3B
100
AcDbEntity
  8
0
  6
BYBLOCK
 62
     0
370
    -2
100
AcDbLine
 10
0.0
 20
0.0
 30
0.0
 11
-1.0
 21
-0.1666666666666666
 31
0.0
  0
LINE
  5
3F
330
3B
100
AcDbEntity
  8
0
  6
BYBLOCK
 62
     0
370
    -2
100
AcDbLine
 10
-1.0
 20
0.1666666666666666
 30
0.0
 11
-1.0
 21
-0.1666666666666666
 31
0.0
  0
ENDBLK
  5
40
330
3B
100
AcDbEntity
  8
0
100
AcDbBlockEnd
  0
BLOCK
  5
42
330
41
100
AcDbEntity
  8
0
100
AcDbBlockBegin
  2
_DOTBLANK
 70
     0
 10
0.0
 20
0.0
 30
0.0
  3
_DOTBLANK
  1

  0
CIRCLE
  5
43
330
41
100
AcDbEntity
  8
0
  6
BYBLOCK
 62
     0
370
    -2
100
AcDbCircle
 10
0.0
 20
0.0
 30
0.0
 40
0.5
  0
LINE
  5
44
330
41
100
AcDbEntity
  8
0
  6
BYBLOCK
 62
     0
370
    -2
100
AcDbLine
 10
-0.5
 20
0.0
 30
0.0
 11
-1.0
 21
0.0
 31
0.0
  0
ENDBLK
  5
45
330
41
100
AcDbEntity
  8
0
100
AcDbBlockEnd
  0
ENDSEC
  0
SECTION
  2
ENTITIES
  0
MTEXT
  5
46
100
AcDbEntity
  8
A8
  6
CONTINUOUS
 62
3
100
AcDbMText
 10
9.999997526638502
 20
18.00000076076889
 30
0.000000000000000
 40
3.000000000000000
 41
0.000000000000000
 44
0.6739999771118164
 71
     7
 72
     1
  1
{\H0.94x;{TYPE No.TCA-420R-U25}}
 11
1.000000000000000
 21
0.000000000000000
 31
0.000000000000000
  7
STANDARD
  0
POINT
  5
47
100
AcDbEntity
  8
A0
  6
CONTINUOUS
 62
3
100
AcDbPoint
 10
9.999997526638502
 20
18.00000076076889
 30
0.000000000000000
  0
ARC
  5
48
100
AcDbEntity
  8
A1
  6
CONTINUOUS
 62
7
100
AcDbCircle
 10
108.3919949973263
 20
102.3919949973247
 30
0.000000000000000
 40
12.50000000000000
100
AcDbArc
 50
135.4894038924768
 51
270.0000000000000
  0
ARC
  5
49
100
AcDbEntity
  8
A1
  6
CONTINUOUS
 62
7
100
AcDbCircle
 10
108.3919949973263
 20
102.3919949973247
 30
0.000000000000000
 40
12.50000000000000
100
AcDbArc
 50
270.0000000000000
 51
404.5106985820852
  0
ARC
  5
4A
100
AcDbEntity
  8
A1
  6
CONTINUOUS
 62
7
100
AcDbCircle
 10
108.3919949973263
 20
102.3919949973247
 30
0.000000000000000
 40
8.500000000000000
100
AcDbArc
 50
147.9431140078085
 51
270.0000000000000
  0
ARC
  5
4B
100
AcDbEntity
  8
A1
  6
CONTINUOUS
 62
7
100
AcDbCircle
 10
108.3919949973263
 20
102.3919949973247
 30
0.000000000000000
 40
8.500000000000000
100
AcDbArc
 50
270.0000000000000
 51
392.0570032811992
  0
ARC
  5
4C
100
AcDbEntity
  8
A1
  6
CONTINUOUS
 62
7
100
AcDbCircle
 10
108.3919949973263
 20
102.3919949973247
 30
0.000000000000000
 40
9.000000000000000
100
AcDbArc
 50
145.6602215927059
 51
270.0000000000000
  0
ARC
  5
4D
100
AcDbEntity
  8
A1
  6
CONTINUOUS
 62
7
100
AcDbCircle
 10
108.3919949973263
 20
102.3919949973247
 30
0.000000000000000
 40
9.000000000000000
100
AcDbArc
 50
270.0000000000000
 51
394.3398926800307
  0
SPLINE
  5
4E
100
AcDbEntity
  8
A1
  6
CONTINUOUS
 62
7
100
AcDbSpline
210
0.000000000000000
220
0.000000000000000
230
1.000000000000000
 70
     8
 71
     3
 72
     9
 73
     5
 74
     0
 42
1.000000000000000e-07
 43
1.000000000000000e-07
 12
-0.9999085496253883
 22
-0.01352377119007997
 32
0.000000000000000
 13
-0.9999585314917567
 23
-0.009106881659590726
 33
0.000000000000000
 40
0.000000000000000
 40
0.000000000000000
 40
0.000000000000000
 40
0.000000000000000
 40
0.3981883949622361
 40
0.5361689758832274
 40
0.5361689758832274
 40
0.5361689758832274
 40
0.5361689758832274
 10
123.5224710079728
 20
124.8919949973246
 30
0.000000000000000
 10
123.3897536811447
 20
124.8901999944100
 30
0.000000000000000
 10
123.2110428703092
 20
124.8880761007016
 30
0.000000000000000
 10
123.0323282275978
 20
124.8863469145806
 30
0.000000000000000
 10
122.9863366079071
 20
124.8859280569734
 30
0.000000000000000
  0
SPLINE
  5
4F
100
AcDbEntity
  8
A1
  6
CONTINUOUS
 62
7
100
AcDbSpline
210
0.000000000000000
220
0.000000000000000
230
1.000000000000000
 70
     8
 71
     3
 72
     9
 73
     5
 74
     0
 42
1.000000000000000e-07
 43
1.000000000000000e-07
 12
-0.9998514705116577
 22
0.01723475894675630
 32
0.000000000000000
 13
-0.9999854449529266
 23
0.005395357278757729
 33
0.000000000000000
 40
0.000000000000000
 40
0.000000000000000
 40
0.000000000000000
 40
0.000000000000000
 40
0.3994252336919938
 40
0.5361754465515073
 40
0.5361754465515073
 40
0.5361754465515073
 40
0.5361754465515073
 10
93.79765832212180
 20
124.8859280276227
 30
0.000000000000000
 10
93.66453635303299
 20
124.8882226934960
 30
0.000000000000000
 10
93.48582272516128
 20
124.8905149071891
 30
0.000000000000000
 10
93.30710172749770
 20
124.8917490585725
 30
0.000000000000000
 10
93.26151898667979
 20
124.8919949973246
 30
0.000000000000000
  0
ARC
  5
50
100
AcDbEntity
  8
A1
  6
CONTINUOUS
 62
7
100
AcDbCircle
 10
93.64199499732629
 20
122.8919949973247
 30
0.000000000000000
 40
2.000000000000000
100
AcDbArc
 50
0.000000000000000
 51
64.15806723683286
  0
ARC
  5
51
100
AcDbEntity
  8
A1
  6
CONTINUOUS
 62
7
100
AcDbCircle
 10
123.1419995567900
 20
122.8919949973284
 30
0.000000000000000
 40
2.000000000000002
100
AcDbArc
 50
115.8419327634147
 51
180.0000463882808
  0
ARC
  5
52
100
AcDbEntity
  8
A1
  6
CONTINUOUS
 62
7
100
AcDbCircle
 10
108.3919926027097
 20
102.3919932983510
 30
0.000000000000000
 40
5.000000000000000
100
AcDbArc
 50
201.9111699999999
 51
338.0888100000000
  0
ARC
  5
53
100
AcDbEntity
  8
A1
  6
CONTINUOUS
 62
7
100
AcDbCircle
 10
93.64199499732629
 20
122.8919949973247
 30
0.000000000000000
 40
1.999999999999927
100
AcDbArc
 50
64.15806723683258
 51
85.53605955339248
  0
ARC
  5
54
100
AcDbEntity
  8
A1
  6
CONTINUOUS
 62
7
100
AcDbCircle
 10
123.1419995567898
 20
122.8919949973293
 30
0.000000000000000
 40
1.999999999999111
100
AcDbArc
 50
94.46392964473404
 51
115.8419327634195
  0
LINE
  5
55
100
AcDbEntity
  8
A1
  6
CONTINUOUS
 62
7
100
AcDbLine
 10
93.89199499732629
 20
123.2919969973246
 30
0.000000000000000
 11
89.89199499732629
 21
123.2919969973246
 31
0.000000000000000
  0
LINE
  5
56
100
AcDbEntity
  8
A1
  6
CONTINUOUS
 62
7
100
AcDbLine
 10
93.26151898667979
 20
124.8919949973246
 30
0.000000000000000
 11
89.89199499732629
 21
124.8919949973246
 31
0.000000000000000
  0
LINE
  5
57
100
AcDbEntity
  8
A1
  6
CONTINUOUS
 62
7
100
AcDbLine
 10
89.89199499732629
 20
123.2919969973246
 30
0.000000000000000
 11
89.89199499732629
 21
124.8919949973246
 31
0.000000000000000
  0
LINE
  5
58
100
AcDbEntity
  8
A1
  6
CONTINUOUS
 62
7
100
AcDbLine
 10
93.89199499732628
 20
123.2919969973246
 30
0.000000000000000
 11
95.60158638330337
 21
123.2919969973247
 31
0.000000000000000
  0
LINE
  5
59
100
AcDbEntity
  8
A1
  6
CONTINUOUS
 62
7
100
AcDbLine
 10
123.5224710079728
 20
124.8919949973246
 30
0.000000000000000
 11
126.8919949973263
 21
124.8919949973246
 31
0.000000000000000
  0
LINE
  5
5A
100
AcDbEntity
  8
A1
  6
CONTINUOUS
 62
7
100
AcDbLine
 10
122.8919949973262
 20
123.2919969973246
 30
0.000000000000000
 11
126.8919949973263
 21
123.2919969973246
 31
0.000000000000000
  0
LINE
  5
5B
100
AcDbEntity
  8
A1
  6
CONTINUOUS
 62
7
100
AcDbLine
 10
126.8919949973263
 20
123.2919969973246
 30
0.000000000000000
 11
126.8919949973263
 21
124.8919949973246
 31
0.000000000000000
  0
LINE
  5
5C
100
AcDbEntity
  8
A1
  6
CONTINUOUS
 62
7
100
AcDbLine
 10
121.1824081708121
 20
123.2919969973247
 30
0.000000000000000
 11
122.8919949973262
 21
123.2919969973246
 31
0.000000000000000
  0
LINE
  5
5D
100
AcDbEntity
  8
A1
  6
CONTINUOUS
 62
7
100
AcDbLine
 10
121.1419995567907
 20
120.6920461017199
 30
0.000000000000000
 11
113.0308095567906
 21
100.5261483780720
 31
0.000000000000000
  0
LINE
  5
5E
100
AcDbEntity
  8
A1
  6
CONTINUOUS
 62
7
100
AcDbLine
 10
121.1419995567907
 20
122.8919933780720
 30
0.000000000000000
 11
121.1419995567907
 21
120.6920461017199
 31
0.000000000000000
  0
LINE
  5
5F
100
AcDbEntity
  8
A1
  6
CONTINUOUS
 62
7
100
AcDbLine
 10
103.7531749973262
 20
100.5261499973247
 30
0.000000000000000
 11
95.64199499732631
 21
120.6919412738782
 31
0.000000000000000
  0
LINE
  5
60
100
AcDbEntity
  8
A1
  6
CONTINUOUS
 62
7
100
AcDbLine
 10
95.64199499732629
 20
120.6919412738782
 30
0.000000000000000
 11
95.64199499732629
 21
122.8919949973247
 31
0.000000000000000
  0
LINE
  5
61
100
AcDbEntity
  8
A1
  6
CONTINUOUS
 62
7
100
AcDbLine
 10
93.26151898667979
 20
124.8919949973246
 30
0.000000000000000
 11
123.5224710079728
 21
124.8919949973246
 31
0.000000000000000
  0
CIRCLE
  5
62
100
AcDbEntity
  8
A1
  6
CONTINUOUS
 62
7
100
AcDbCircle
 10
108.3919949973263
 20
102.3919949973247
 30
0.000000000000000
 40
2.991828621566930
  0
CIRCLE
  5
63
100
AcDbEntity
  8
A1
  6
CONTINUOUS
 62
7
100
AcDbCircle
 10
108.3919949973263
 20
102.3919949973247
 30
0.000000000000000
 40
1.249966761842702
  0
ARC
  5
64
100
AcDbEntity
  8
A1
  6
CONTINUOUS
 62
7
100
AcDbCircle
 10
163.6339879946527
 20
106.8919949973246
 30
0.000000000000000
 40
0.5000000000000000
100
AcDbArc
 50
0.000000000000000
 51
89.99996300000019
  0
ARC
  5
65
100
AcDbEntity
  8
A1
  6
CONTINUOUS
 62
7
100
AcDbCircle
 10
163.6339879946527
 20
97.89199499732477
 30
0.000000000000000
 40
0.5000000000000000
100
AcDbArc
 50
270.0000369999998
 51
360.0000000000000
  0
ARC
  5
66
100
AcDbEntity
  8
A1
  6
CONTINUOUS
 62
7
100
AcDbCircle
 10
151.6339879946528
 20
106.8919949973246
 30
0.000000000000000
 40
0.5000000000000000
100
AcDbArc
 50
89.99996299999907
 51
179.9999449999993
  0
ARC
  5
67
100
AcDbEntity
  8
A1
  6
CONTINUOUS
 62
7
100
AcDbCircle
 10
151.6339879946528
 20
97.89199499732477
 30
0.000000000000000
 40
0.5000000000000000
100
AcDbArc
 50
180.0000550000007
 51
270.0000370000009
  0
ARC
  5
68
100
AcDbEntity
  8
A1
  6
CONTINUOUS
 62
7
100
AcDbCircle
 10
152.6339879946528
 20
113.3653839973247
 30
0.000000000000000
 40
1.000000000000000
100
AcDbArc
 50
102.0248924150109
 51
180.0000000000000
  0
ARC
  5
69
100
AcDbEntity
  8
A1
  6
CONTINUOUS
 62
7
100
AcDbCircle
 10
152.6339879946528
 20
91.41860599732468
 30
0.000000000000000
 40
1.000000000000000
100
AcDbArc
 50
180.0000000000000
 51
257.9751075849891
  0
ARC
  5
6A
100
AcDbEntity
  8
A1
  6
CONTINUOUS
 62
7
100
AcDbCircle
 10
162.6339879946528
 20
113.3653839973247
 30
0.000000000000000
 40
1.000000000000000
100
AcDbArc
 50
0.000000000000000
 51
77.97530072562658
  0
ARC
  5
6B
100
AcDbEntity
  8
A1
  6
CONTINUOUS
 62
7
100
AcDbCircle
 10
162.6339879946528
 20
91.41860599732468
 30
0.000000000000000
 40
1.000000000000000
100
AcDbArc
 50
282.0246992743735
 51
360.0000000000000
  0
ARC
  5
6C
100
AcDbEntity
  8
A1
  6
CONTINUOUS
 62
7
100
AcDbCircle
 10
157.6339879946527
 20
114.8919949973247
 30
0.000000000000000
 40
25.00000000000000
100
AcDbArc
 50
257.9752930000000
 51
282.0246992293459
  0
ARC
  5
6D
100
AcDbEntity
  8
A1
  6
CONTINUOUS
 62
7
100
AcDbCircle
 10
157.6339879946527
 20
89.89199499732467
 30
0.000000000000000
 40
25.00000000000000
100
AcDbArc
 50
77.97530077065412
 51
102.0247070000000
  0
LINE
  5
6E
100
AcDbEntity
  8
A1
  6
CONTINUOUS
 62
7
100
AcDbLine
 10
164.1339879946527
 20
97.89199499732477
 30
0.000000000000000
 11
164.1339879946527
 21
106.8919949973246
 31
0.000000000000000
  0
LINE
  5
6F
100
AcDbEntity
  8
A1
  6
CONTINUOUS
 62
7
100
AcDbLine
 10
151.1339879946530
 20
97.89199451735922
 30
0.000000000000000
 11
151.1339879946530
 21
106.8919954772901
 31
0.000000000000000
  0
LINE
  5
70
100
AcDbEntity
  8
A1
  6
CONTINUOUS
 62
7
100
AcDbLine
 10
151.6339879946528
 20
91.41860599732468
 30
0.000000000000000
 11
151.6339879946528
 21
113.3653839973247
 31
0.000000000000000
  0
LINE
  5
71
100
AcDbEntity
  8
A1
  6
CONTINUOUS
 62
7
100
AcDbLine
 10
163.6339879946527
 20
91.41860599732468
 30
0.000000000000000
 11
163.6339879946527
 21
113.3653839973247
 31
0.000000000000000
  0
SPLINE
  5
72
100
AcDbEntity
  8
A1
  6
CONTINUOUS
 62
7
100
AcDbSpline
210
0.000000000000000
220
0.000000000000000
230
1.000000000000000
 70
     8
 71
     3
 72
     9
 73
     5
 74
     0
 42
1.000000000000000e-07
 43
1.000000000000000e-07
 12
-0.9999989586012816
 22
-0.001443191637008567
 32
0.000000000000000
 13
-0.9696716295729857
 23
-0.2444113967649173
 33
0.000000000000000
 40
0.000000000000000
 40
0.000000000000000
 40
0.000000000000000
 40
0.000000000000000
 40
0.04350517389564250
 40
0.04930120676895070
 40
0.04930120676895070
 40
0.04930120676895070
 40
0.04930120676895070
 10
148.6839879946527
 20
124.8919949973246
 30
0.000000000000000
 10
148.6694862851229
 20
124.8919740685569
 30
0.000000000000000
 10
148.6529632017244
 20
124.8901857229696
 30
0.000000000000000
 10
148.6369741080641
 20
124.8864002624701
 30
0.000000000000000
 10
148.6351006918503
 20
124.8859280569734
 30
0.000000000000000
  0
SPLINE
  5
73
100
AcDbEntity
  8
A1
  6
CONTINUOUS
 62
7
100
AcDbSpline
210
0.000000000000000
220
0.000000000000000
230
1.000000000000000
 70
     8
 71
     3
 72
     9
 73
     5
 74
     0
 42
1.000000000000000e-07
 43
1.000000000000000e-07
 12
-0.9698352970262931
 22
0.2437611466939416
 32
0.000000000000000
 13
-0.9999999579558789
 23
0.0002899909704865422
 33
0.000000000000000
 40
0.000000000000000
 40
0.000000000000000
 40
0.000000000000000
 40
0.000000000000000
 40
0.02991787505630930
 40
0.04934974906330770
 40
0.04934974906330770
 40
0.04934974906330770
 40
0.04934974906330770
 10
166.6328751325275
 20
124.8859286027028
 30
0.000000000000000
 10
166.6232033287802
 20
124.8883595412129
 30
0.000000000000000
 10
166.6069222482484
 20
124.8911979617324
 30
0.000000000000000
 10
166.5904672857160
 20
124.8919931189686
 30
0.000000000000000
 10
166.5839899946527
 20
124.8919949973246
 30
0.000000000000000
  0
ARC
  5
74
100
AcDbEntity
  8
A1
  6
CONTINUOUS
 62
7
100
AcDbCircle
 10
148.6839879946509
 20
124.6919949973261
 30
0.000000000000000
 40
0.1999999999981869
100
AcDbArc
 50
104.1485359130302
 51
180.0000000004040
  0
ARC
  5
75
100
AcDbEntity
  8
A1
  6
CONTINUOUS
 62
7
100
AcDbCircle
 10
166.5839899946526
 20
124.6919949973246
 30
0.000000000000000
 40
0.2000000000001165
100
AcDbArc
 50
2.849780000000000e-11
 51
75.85210369403811
  0
LINE
  5
76
100
AcDbEntity
  8
A1
  6
CONTINUOUS
 62
7
100
AcDbLine
 10
165.1839909946526
 20
97.39199329835100
 30
0.000000000000000
 11
166.7839899946527
 21
97.39199329835100
 31
0.000000000000000
  0
LINE
  5
77
100
AcDbEntity
  8
A1
  6
CONTINUOUS
 62
7
100
AcDbLine
 10
165.1839909946526
 20
97.39199329835100
 30
0.000000000000000
 11
165.1839909946526
 21
100.5261483780720
 31
0.000000000000000
  0
LINE
  5
78
100
AcDbEntity
  8
A1
  6
CONTINUOUS
 62
7
100
AcDbLine
 10
166.7839899946527
 20
97.39199329835100
 30
0.000000000000000
 11
166.7839899946527
 21
100.5261483780720
 31
0.000000000000000
  0
LINE
  5
79
100
AcDbEntity
  8
A1
  6
CONTINUOUS
 62
7
100
AcDbLine
 10
148.4839879946527
 20
97.39199329835100
 30
0.000000000000000
 11
150.0839879946527
 21
97.39199329835100
 31
0.000000000000000
  0
LINE
  5
7A
100
AcDbEntity
  8
A1
  6
CONTINUOUS
 62
7
100
AcDbLine
 10
148.4839879946527
 20
97.39199329835100
 30
0.000000000000000
 11
148.4839879946527
 21
100.5261483780720
 31
0.000000000000000
  0
LINE
  5
7B
100
AcDbEntity
  8
A1
  6
CONTINUOUS
 62
7
100
AcDbLine
 10
150.0839879946527
 20
97.39199329835100
 30
0.000000000000000
 11
150.0839879946527
 21
100.5261483780720
 31
0.000000000000000
  0
LINE
  5
7C
100
AcDbEntity
  8
A1
  6
CONTINUOUS
 62
7
100
AcDbLine
 10
148.4839879946527
 20
120.6920461017199
 30
0.000000000000000
 11
148.4839879946527
 21
100.5261483780720
 31
0.000000000000000
  0
LINE
  5
7D
100
AcDbEntity
  8
A1
  6
CONTINUOUS
 62
7
100
AcDbLine
 10
150.0839879946527
 20
120.6920461017199
 30
0.000000000000000
 11
150.0839879946527
 21
100.5261483780720
 31
0.000000000000000
  0
LINE
  5
7E
100
AcDbEntity
  8
A1
  6
CONTINUOUS
 62
7
100
AcDbLine
 10
166.7839899946527
 20
100.5261483780720
 30
0.000000000000000
 11
166.7839899946527
 21
120.6920461017199
 31
0.000000000000000
  0
LINE
  5
7F
100
AcDbEntity
  8
A1
  6
CONTINUOUS
 62
7
100
AcDbLine
 10
165.1839909946526
 20
100.5261483780720
 30
0.000000000000000
 11
165.1839909946526
 21
120.6920461017199
 31
0.000000000000000
  0
LINE
  5
80
100
AcDbEntity
  8
A1
  6
CONTINUOUS
 62
7
100
AcDbLine
 10
166.7839899946527
 20
120.6920461017199
 30
0.000000000000000
 11
166.7839899946527
 21
122.8919933780720
 31
0.000000000000000
  0
LINE
  5
81
100
AcDbEntity
  8
A1
  6
CONTINUOUS
 62
7
100
AcDbLine
 10
165.1839909946526
 20
120.6920461017199
 30
0.000000000000000
 11
165.1839909946526
 21
122.8919933780720
 31
0.000000000000000
  0
LINE
  5
82
100
AcDbEntity
  8
A1
  6
CONTINUOUS
 62
7
100
AcDbLine
 10
166.7839899946527
 20
120.6920461017199
 30
0.000000000000000
 11
165.1839909946526
 21
120.6920461017199
 31
0.000000000000000
  0
LINE
  5
83
100
AcDbEntity
  8
A1
  6
CONTINUOUS
 62
7
100
AcDbLine
 10
148.4839879946527
 20
122.8919933780720
 30
0.000000000000000
 11
148.4839879946527
 21
120.6920461017199
 31
0.000000000000000
  0
LINE
  5
84
100
AcDbEntity
  8
A1
  6
CONTINUOUS
 62
7
100
AcDbLine
 10
150.0839879946527
 20
122.8919933780720
 30
0.000000000000000
 11
150.0839879946527
 21
120.6920461017199
 31
0.000000000000000
  0
LINE
  5
85
100
AcDbEntity
  8
A1
  6
CONTINUOUS
 62
7
100
AcDbLine
 10
150.0839879946527
 20
120.6920461017199
 30
0.000000000000000
 11
148.4839879946527
 21
120.6920461017199
 31
0.000000000000000
  0
LINE
  5
86
100
AcDbEntity
  8
A1
  6
CONTINUOUS
 62
7
100
AcDbLine
 10
148.4839879946527
 20
122.8919933780720
 30
0.000000000000000
 11
148.4839879946527
 21
124.6919949973247
 31
0.000000000000000
  0
LINE
  5
87
100
AcDbEntity
  8
A1
  6
CONTINUOUS
 62
7
100
AcDbLine
 10
150.0839879946527
 20
122.8919933780720
 30
0.000000000000000
 11
150.0839879946527
 21
123.2919969973247
 31
0.000000000000000
  0
LINE
  5
88
100
AcDbEntity
  8
A1
  6
CONTINUOUS
 62
7
100
AcDbLine
 10
166.7839899946527
 20
122.8919933780720
 30
0.000000000000000
 11
166.7839899946527
 21
124.6919949973247
 31
0.000000000000000
  0
LINE
  5
89
100
AcDbEntity
  8
A1
  6
CONTINUOUS
 62
7
100
AcDbLine
 10
165.1839909946526
 20
122.8919933780720
 30
0.000000000000000
 11
165.1839909946526
 21
123.2919969973247
 31
0.000000000000000
  0
LINE
  5
8A
100
AcDbEntity
  8
A1
  6
CONTINUOUS
 62
7
100
AcDbLine
 10
152.6339879946526
 20
124.8919949973246
 30
0.000000000000000
 11
162.6339879946526
 21
124.8919949973246
 31
0.000000000000000
  0
LINE
  5
8B
100
AcDbEntity
  8
A1
  6
CONTINUOUS
 62
7
100
AcDbLine
 10
152.6339879946526
 20
123.2919969973246
 30
0.000000000000000
 11
162.6339879946526
 21
123.2919969973246
 31
0.000000000000000
  0
LINE
  5
8C
100
AcDbEntity
  8
A1
  6
CONTINUOUS
 62
7
100
AcDbLine
 10
148.6839879946527
 20
124.8919949973246
 30
0.000000000000000
 11
152.6339879946526
 21
124.8919949973246
 31
0.000000000000000
  0
LINE
  5
8D
100
AcDbEntity
  8
A1
  6
CONTINUOUS
 62
7
100
AcDbLine
 10
148.6339879946526
 20
123.2919969973246
 30
0.000000000000000
 11
152.6339879946526
 21
123.2919969973246
 31
0.000000000000000
  0
LINE
  5
8E
100
AcDbEntity
  8
A1
  6
CONTINUOUS
 62
7
100
AcDbLine
 10
148.6351006918503
 20
124.8859280569734
 30
0.000000000000000
 11
148.6339879946526
 21
124.8763079061831
 31
0.000000000000000
  0
LINE
  5
8F
100
AcDbEntity
  8
A1
  6
CONTINUOUS
 62
7
100
AcDbLine
 10
148.6339879946526
 20
123.2919969973246
 30
0.000000000000000
 11
148.6339879946526
 21
124.8763079061831
 31
0.000000000000000
  0
LINE
  5
90
100
AcDbEntity
  8
A1
  6
CONTINUOUS
 62
7
100
AcDbLine
 10
162.6339879946526
 20
124.8919949973246
 30
0.000000000000000
 11
166.5839899946527
 21
124.8919949973246
 31
0.000000000000000
  0
LINE
  5
91
100
AcDbEntity
  8
A1
  6
CONTINUOUS
 62
7
100
AcDbLine
 10
166.6339879946526
 20
124.8763079061831
 30
0.000000000000000
 11
166.6328751325274
 21
124.8859286027028
 31
0.000000000000000
  0
LINE
  5
92
100
AcDbEntity
  8
A1
  6
CONTINUOUS
 62
7
100
AcDbLine
 10
162.6339879946526
 20
123.2919969973246
 30
0.000000000000000
 11
166.6339879946526
 21
123.2919969973246
 31
0.000000000000000
  0
LINE
  5
93
100
AcDbEntity
  8
A1
  6
CONTINUOUS
 62
7
100
AcDbLine
 10
166.6339879946526
 20
123.2919969973246
 30
0.000000000000000
 11
166.6339879946526
 21
124.8763079061831
 31
0.000000000000000
  0
ARC
  5
94
100
AcDbEntity
  8
A1
  6
CONTINUOUS
 62
7
100
AcDbCircle
 10
161.7018589946527
 20
102.3759499973246
 30
0.000000000000000
 40
6.602129000000000
100
AcDbArc
 50
0.1392447326068834
 51
22.83600999999990
  0
ARC
  5
95
100
AcDbEntity
  8
A1
  6
CONTINUOUS
 62
7
100
AcDbCircle
 10
161.7018589946527
 20
102.4080399973248
 30
0.000000000000000
 40
6.602129000000000
100
AcDbArc
 50
337.1639900000002
 51
359.8607552673931
  0
ARC
  5
96
100
AcDbEntity
  8
A1
  6
CONTINUOUS
 62
7
100
AcDbCircle
 10
167.6021849946527
 20
99.92340499732478
 30
0.000000000000000
 40
0.2000000000000000
100
AcDbArc
 50
240.9085006456598
 51
337.1644105467684
  0
ARC
  5
97
100
AcDbEntity
  8
A1
  6
CONTINUOUS
 62
7
100
AcDbCircle
 10
167.6021849946527
 20
104.8605849973246
 30
0.000000000000000
 40
0.2000000000000000
100
AcDbArc
 50
22.83558945323173
 51
119.0914993543402
  0
ARC
  5
98
100
AcDbEntity
  8
A1
  6
CONTINUOUS
 62
7
100
AcDbCircle
 10
150.0195809946527
 20
102.3879109973247
 30
0.000000000000000
 40
3.366533000000000
100
AcDbArc
 50
117.1380140468275
 51
158.1298026005969
  0
ARC
  5
99
100
AcDbEntity
  8
A1
  6
CONTINUOUS
 62
7
100
AcDbCircle
 10
150.0195809946527
 20
102.3960789973247
 30
0.000000000000000
 40
3.366533000000000
100
AcDbArc
 50
201.8701973994031
 51
242.8619859531725
  0
LINE
  5
9A
100
AcDbEntity
  8
A1
  6
CONTINUOUS
 62
7
100
AcDbLine
 10
146.8919949973263
 20
102.3919949973247
 30
0.000000000000000
 11
146.8953369057872
 21
101.1420282354859
 31
0.000000000000000
  0
LINE
  5
9B
100
AcDbEntity
  8
A1
  6
CONTINUOUS
 62
7
100
AcDbLine
 10
146.8953369057872
 20
103.6419617591635
 30
0.000000000000000
 11
146.8919949973263
 21
102.3919949973247
 31
0.000000000000000
  0
LINE
  5
9C
100
AcDbEntity
  8
A1
  6
CONTINUOUS
 62
7
100
AcDbLine
 10
151.1339879946529
 20
104.6419949973247
 30
0.000000000000000
 11
150.0839879946527
 21
104.6419949973247
 31
0.000000000000000
  0
LINE
  5
9D
100
AcDbEntity
  8
A1
  6
CONTINUOUS
 62
7
100
AcDbLine
 10
165.1839909946526
 20
104.6419949973247
 30
0.000000000000000
 11
164.1339879946526
 21
104.6419949973247
 31
0.000000000000000
  0
LINE
  5
9E
100
AcDbEntity
  8
A1
  6
CONTINUOUS
 62
7
100
AcDbLine
 10
164.1339879946526
 20
100.1419949973247
 30
0.000000000000000
 11
165.1839909946526
 21
100.1419949973247
 31
0.000000000000000
  0
LINE
  5
9F
100
AcDbEntity
  8
A1
  6
CONTINUOUS
 62
7
100
AcDbLine
 10
150.0839879946527
 20
100.1419949973247
 30
0.000000000000000
 11
151.1339879946529
 21
100.1419949973247
 31
0.000000000000000
  0
LINE
  5
A0
100
AcDbEntity
  8
A1
  6
CONTINUOUS
 62
7
100
AcDbLine
 10
166.7839899946526
 20
100.1497559973246
 30
0.000000000000000
 11
167.5049409946527
 21
99.74863099732463
 31
0.000000000000000
  0
LINE
  5
A1
100
AcDbEntity
  8
A1
  6
CONTINUOUS
 62
7
100
AcDbLine
 10
167.5049409946526
 20
105.0353589973247
 30
0.000000000000000
 11
166.7839899946526
 21
104.6342339973247
 31
0.000000000000000
  0
LINE
  5
A2
100
AcDbEntity
  8
A1
  6
CONTINUOUS
 62
7
100
AcDbLine
 10
146.8953369057872
 20
103.6419617591674
 30
0.000000000000000
 11
146.8953369057872
 21
101.1420282354820
 31
0.000000000000000
  0
ARC
  5
A3
100
AcDbEntity
  8
A1
  6
CONTINUOUS
 62
7
100
AcDbCircle
 10
95.89199499732629
 20
155.6339879946511
 30
0.000000000000000
 40
25.00000000000000
100
AcDbArc
 50
358.5878732942241
 51
361.4121267057760
  0
ARC
  5
A4
100
AcDbEntity
  8
A1
  6
CONTINUOUS
 62
7
100
AcDbCircle
 10
120.8919949973263
 20
155.6339879946511
 30
0.000000000000000
 40
25.00000000000000
100
AcDbArc
 50
178.5878732942241
 51
181.4121267057759
  0
CIRCLE
  5
A5
100
AcDbEntity
  8
A1
  6
CONTINUOUS
 62
7
100
AcDbCircle
 10
122.8919949973263
 20
155.6339879946511
 30
0.000000000000000
 40
2.100000000000001
  0
CIRCLE
  5
A6
100
AcDbEntity
  8
A1
  6
CONTINUOUS
 62
7
100
AcDbCircle
 10
93.89199499732629
 20
155.6339879946511
 30
0.000000000000000
 40
2.100000000000001
  0
SPLINE
  5
A7
100
AcDbEntity
  8
A1
  6
CONTINUOUS
 62
7
100
AcDbSpline
210
0.000000000000000
220
0.000000000000000
230
1.000000000000000
 70
     8
 71
     3
 72
    11
 73
     7
 74
     0
 42
1.000000000000000e-07
 43
1.000000000000000e-07
 12
-0.9996000716937488
 22
0.02827890860362459
 32
0.000000000000000
 13
-0.9531266164776753
 23
0.3025717319264913
 33
0.000000000000000
 40
0.000000000000000
 40
0.000000000000000
 40
0.000000000000000
 40
0.000000000000000
 40
0.1745402003633250
 40
0.3598671790291126
 40
0.5447230602981512
 40
0.7341438619373993
 40
0.7341438619373993
 40
0.7341438619373993
 40
0.7341438619373993
 10
94.51377478603439
 20
146.4839879946511
 30
0.000000000000000
 10
94.45561798710219
 20
146.4856332634424
 30
0.000000000000000
 10
94.33567323506441
 20
146.4949734152966
 30
0.000000000000000
 10
94.15768258215510
 20
146.5323572476508
 30
0.000000000000000
 10
93.97746110990130
 20
146.5804527595320
 30
0.000000000000000
 10
93.85783899137411
 20
146.6159961154116
 30
0.000000000000000
 10
93.79765832212180
 20
146.6351005754166
 30
0.000000000000000
  0
SPLINE
  5
A8
100
AcDbEntity
  8
A1
  6
CONTINUOUS
 62
7
100
AcDbSpline
210
0.000000000000000
220
0.000000000000000
230
1.000000000000000
 70
     8
 71
     3
 72
     9
 73
     5
 74
     0
 42
1.000000000000000e-07
 43
1.000000000000000e-07
 12
-0.9875265108205440
 22
-0.1574528196849769
 32
0.000000000000000
 13
-0.9997213526171436
 23
-0.02360544684415800
 33
0.000000000000000
 40
0.000000000000000
 40
0.000000000000000
 40
0.000000000000000
 40
0.000000000000000
 40
0.4005012706928202
 40
0.5385914711445101
 40
0.5385914711445101
 40
0.5385914711445101
 40
0.5385914711445101
 10
123.5224710079728
 20
146.6839879946511
 30
0.000000000000000
 10
123.3906358004973
 20
146.6629679765317
 30
0.000000000000000
 10
123.2117501182942
 20
146.6435113763468
 30
0.000000000000000
 10
123.0323538485667
 20
146.6361872521443
 30
0.000000000000000
 10
122.9863366079071
 20
146.6351006918487
 30
0.000000000000000
  0
SPLINE
  5
A9
100
AcDbEntity
  8
A1
  6
CONTINUOUS
 62
7
100
AcDbSpline
210
0.000000000000000
220
0.000000000000000
230
1.000000000000000
 70
     8
 71
     3
 72
     9
 73
     5
 74
     0
 42
1.000000000000000e-07
 43
1.000000000000000e-07
 12
-0.9997178722387616
 22
0.02375238780723521
 32
0.000000000000000
 13
-0.9875031613566989
 23
0.1575991951385731
 33
0.000000000000000
 40
0.000000000000000
 40
0.000000000000000
 40
0.000000000000000
 40
0.000000000000000
 40
0.4004777960742864
 40
0.5385964331218073
 40
0.5385964331218073
 40
0.5385964331218073
 40
0.5385964331218073
 10
93.79765832212180
 20
146.6351005754166
 30
0.000000000000000
 10
93.66420338539839
 20
146.6382713433901
 30
0.000000000000000
 10
93.48474723987380
 20
146.6514892887283
 30
0.000000000000000
 10
93.30698318358870
 20
146.6767321993070
 30
0.000000000000000
 10
93.26151898667979
 20
146.6839879946511
 30
0.000000000000000
  0
SPLINE
  5
AA
100
AcDbEntity
  8
A1
  6
CONTINUOUS
 62
7
100
AcDbSpline
210
0.000000000000000
220
0.000000000000000
230
1.000000000000000
 70
     8
 71
     3
 72
    11
 73
     7
 74
     0
 42
1.000000000000000e-07
 43
1.000000000000000e-07
 12
-0.9528463032081618
 22
-0.3034533283102974
 32
0.000000000000000
 13
-0.9996568236269923
 23
-0.02619608705936116
 33
0.000000000000000
 40
0.000000000000000
 40
0.000000000000000
 40
0.000000000000000
 40
0.000000000000000
 40
0.1987686275423865
 40
0.3963168931361067
 40
0.5667244093465891
 40
0.7341605873530563
 40
0.7341605873530563
 40
0.7341605873530563
 40
0.7341605873530563
 10
122.9863366079071
 20
146.6351006918487
 30
0.000000000000000
 10
122.9232046239246
 20
146.6149950246516
 30
0.000000000000000
 10
122.7964993230162
 20
146.5774903016591
 30
0.000000000000000
 10
122.6138177975459
 20
146.5293192555916
 30
0.000000000000000
 10
122.4386250614174
 20
146.4939543966718
 30
0.000000000000000
 10
122.3260126740295
 20
146.4854500522164
 30
0.000000000000000
 10
122.2702197680741
 20
146.4839879946511
 30
0.000000000000000
  0
SPLINE
  5
AB
100
AcDbEntity
  8
A1
  6
CONTINUOUS
 62
7
100
AcDbSpline
210
0.000000000000000
220
0.000000000000000
230
1.000000000000000
 70
     8
 71
     3
 72
    11
 73
     7
 74
     0
 42
1.000000000000000e-07
 43
1.000000000000000e-07
 12
0.9996000716932940
 22
-0.02827890860316984
 32
0.000000000000000
 13
0.9531263724118162
 23
-0.3025725007510118
 33
0.000000000000000
 40
0.000000000000000
 40
0.000000000000000
 40
0.000000000000000
 40
0.000000000000000
 40
0.1745402003429722
 40
0.3598671790346692
 40
0.5447268238640895
 40
0.7341515727547250
 40
0.7341515727547250
 40
0.7341515727547250
 40
0.7341515727547250
 10
122.2702197680741
 20
164.7839899946511
 30
0.000000000000000
 10
122.3283765669995
 20
164.7823447258601
 30
0.000000000000000
 10
122.4483213189410
 20
164.7730045732698
 30
0.000000000000000
 10
122.6263132020835
 20
164.7356204861944
 30
0.000000000000000
 10
122.8065371291031
 20
164.6875241996822
 30
0.000000000000000
 10
122.9261616905572
 20
164.6519800391845
 30
0.000000000000000
 10
122.9863435984756
 20
164.6328751325259
 30
0.000000000000000
  0
SPLINE
  5
AC
100
AcDbEntity
  8
A1
  6
CONTINUOUS
 62
7
100
AcDbSpline
210
0.000000000000000
220
0.000000000000000
230
1.000000000000000
 70
     8
 71
     3
 72
     9
 73
     5
 74
     0
 42
1.000000000000000e-07
 43
1.000000000000000e-07
 12
0.9875270095700444
 22
0.1574496915513919
 32
0.000000000000000
 13
0.9997213405986258
 23
0.02360595580967129
 33
0.000000000000000
 40
0.000000000000000
 40
0.000000000000000
 40
0.000000000000000
 40
0.000000000000000
 40
0.4005012706789772
 40
0.5385767286567911
 40
0.5385767286567911
 40
0.5385767286567911
 40
0.5385767286567911
 10
93.26153151702360
 20
164.5839899946511
 30
0.000000000000000
 10
93.39336679107780
 20
164.6050095951625
 30
0.000000000000000
 10
93.57224764267261
 20
164.6244650950035
 30
0.000000000000000
 10
93.75163900426480
 20
164.6317887812476
 30
0.000000000000000
 10
93.79765133158259
 20
164.6328752489674
 30
0.000000000000000
  0
SPLINE
  5
AD
100
AcDbEntity
  8
A1
  6
CONTINUOUS
 62
7
100
AcDbSpline
210
0.000000000000000
220
0.000000000000000
230
1.000000000000000
 70
     8
 71
     3
 72
     9
 73
     5
 74
     0
 42
1.000000000000000e-07
 43
1.000000000000000e-07
 12
0.9997178015798909
 22
-0.02375536161548553
 32
0.000000000000000
 13
0.9875036600255953
 23
-0.1575960705031321
 33
0.000000000000000
 40
0.000000000000000
 40
0.000000000000000
 40
0.000000000000000
 40
0.000000000000000
 40
0.4004777962049122
 40
0.5385718185794721
 40
0.5385718185794721
 40
0.5385718185794721
 40
0.5385718185794721
 10
122.9863435984756
 20
164.6328751325259
 30
0.000000000000000
 10
123.1197985258101
 20
164.6297039675700
 30
0.000000000000000
 10
123.2992464373183
 20
164.6164860893462
 30
0.000000000000000
 10
123.4770023601214
 20
164.5912443530798
 30
0.000000000000000
 10
123.5224584776289
 20
164.5839899946511
 30
0.000000000000000
  0
SPLINE
  5
AE
100
AcDbEntity
  8
A1
  6
CONTINUOUS
 62
7
100
AcDbSpline
210
0.000000000000000
220
0.000000000000000
230
1.000000000000000
 70
     8
 71
     3
 72
    11
 73
     7
 74
     0
 42
1.000000000000000e-07
 43
1.000000000000000e-07
 12
0.9528461774280004
 22
0.3034537232597359
 32
0.000000000000000
 13
0.9996568031588140
 23
0.02619686813159205
 33
0.000000000000000
 40
0.000000000000000
 40
0.000000000000000
 40
0.000000000000000
 40
0.000000000000000
 40
0.1987687042263118
 40
0.3963170992630991
 40
0.5667280000563030
 40
0.7341675050290648
 40
0.7341675050290648
 40
0.7341675050290648
 40
0.7341675050290648
 10
93.79765133158259
 20
164.6328752489674
 30
0.000000000000000
 10
93.86078333158738
 20
164.6529809500890
 30
0.000000000000000
 10
93.98748866333310
 20
164.6904858086184
 30
0.000000000000000
 10
94.17017126390300
 20
164.7386574533794
 30
0.000000000000000
 10
94.34536615111310
 20
164.7740232181619
 30
0.000000000000000
 10
94.45798077261318
 20
164.7825278644405
 30
0.000000000000000
 10
94.51377478603439
 20
164.7839899946511
 30
0.000000000000000
  0
ARC
  5
AF
100
AcDbEntity
  8
A1
  6
CONTINUOUS
 62
7
100
AcDbCircle
 10
122.8919949973263
 20
160.6339879946510
 30
0.000000000000000
 40
4.000000000000000
100
AcDbArc
 50
0.000000000000000
 51
80.93146020981648
  0
ARC
  5
B0
100
AcDbEntity
  8
A1
  6
CONTINUOUS
 62
7
100
AcDbCircle
 10
93.89199499732629
 20
160.6339879946510
 30
0.000000000000000
 40
4.000000000000000
100
AcDbArc
 50
99.06853979018366
 51
180.0000000000000
  0
ARC
  5
B1
100
AcDbEntity
  8
A1
  6
CONTINUOUS
 62
7
100
AcDbCircle
 10
93.89199499732629
 20
150.6339879946510
 30
0.000000000000000
 40
4.000000000000000
100
AcDbArc
 50
180.0000000000000
 51
260.9312784539587
  0
ARC
  5
B2
100
AcDbEntity
  8
A1
  6
CONTINUOUS
 62
7
100
AcDbCircle
 10
122.8919949973263
 20
150.6339879946510
 30
0.000000000000000
 40
4.000000000000000
100
AcDbArc
 50
279.0687215460413
 51
360.0000000000000
  0
LINE
  5
B3
100
AcDbEntity
  8
A1
  6
CONTINUOUS
 62
7
100
AcDbLine
 10
118.8919949973263
 20
159.8839879946511
 30
0.000000000000000
 11
97.89199499732629
 21
159.8839879946511
 31
0.000000000000000
  0
LINE
  5
B4
100
AcDbEntity
  8
A1
  6
CONTINUOUS
 62
7
100
AcDbLine
 10
97.89199499732629
 20
150.6839879946509
 30
0.000000000000000
 11
97.89199499732629
 21
151.3839879946511
 31
0.000000000000000
  0
LINE
  5
B5
100
AcDbEntity
  8
A1
  6
CONTINUOUS
 62
7
100
AcDbLine
 10
89.89199499732629
 20
150.6339879946510
 30
0.000000000000000
 11
89.89199499732629
 21
160.6339879946510
 31
0.000000000000000
  0
LINE
  5
B6
100
AcDbEntity
  8
A1
  6
CONTINUOUS
 62
7
100
AcDbLine
 10
126.8919949973263
 20
150.6339879946510
 30
0.000000000000000
 11
126.8919949973263
 21
160.6339879946510
 31
0.000000000000000
  0
LINE
  5
B7
100
AcDbEntity
  8
A1
  6
CONTINUOUS
 62
7
100
AcDbLine
 10
118.8919949973263
 20
151.3839879946511
 30
0.000000000000000
 11
97.89199499732629
 21
151.3839879946511
 31
0.000000000000000
  0
LINE
  5
B8
100
AcDbEntity
  8
A1
  6
CONTINUOUS
 62
7
100
AcDbLine
 10
118.8919949973263
 20
150.6839879946509
 30
0.000000000000000
 11
118.8919949973263
 21
151.3839879946511
 31
0.000000000000000
  0
LINE
  5
B9
100
AcDbEntity
  8
A1
  6
CONTINUOUS
 62
7
100
AcDbLine
 10
97.89199499732629
 20
150.6839879946509
 30
0.000000000000000
 11
118.8919949973263
 21
150.6839879946509
 31
0.000000000000000
  0
LINE
  5
BA
100
AcDbEntity
  8
A1
  6
CONTINUOUS
 62
7
100
AcDbLine
 10
97.89199499732629
 20
160.5839879946510
 30
0.000000000000000
 11
97.89199499732629
 21
159.8839879946511
 31
0.000000000000000
  0
LINE
  5
BB
100
AcDbEntity
  8
A1
  6
CONTINUOUS
 62
7
100
AcDbLine
 10
97.89199499732629
 20
160.5839879946510
 30
0.000000000000000
 11
118.8919949973263
 21
160.5839879946510
 31
0.000000000000000
  0
LINE
  5
BC
100
AcDbEntity
  8
A1
  6
CONTINUOUS
 62
7
100
AcDbLine
 10
118.8919949973263
 20
160.5839879946510
 30
0.000000000000000
 11
118.8919949973263
 21
159.8839879946511
 31
0.000000000000000
  0
LINE
  5
BD
100
AcDbEntity
  8
A1
  6
CONTINUOUS
 62
7
100
AcDbLine
 10
122.2702197680741
 20
146.4839879946511
 30
0.000000000000000
 11
94.51377478603439
 21
146.4839879946511
 31
0.000000000000000
  0
LINE
  5
BE
100
AcDbEntity
  8
A1
  6
CONTINUOUS
 62
7
100
AcDbLine
 10
94.51377478603439
 20
164.7839899946511
 30
0.000000000000000
 11
122.2702197680741
 21
164.7839899946511
 31
0.000000000000000
  0
ARC
  5
BF
100
AcDbEntity
  8
A1
  6
CONTINUOUS
 62
7
100
AcDbCircle
 10
108.4080399973264
 20
159.7018589946511
 30
0.000000000000000
 40
6.602129000000000
100
AcDbArc
 50
90.13924473260690
 51
112.8360100000000
  0
ARC
  5
C0
100
AcDbEntity
  8
A1
  6
CONTINUOUS
 62
7
100
AcDbCircle
 10
108.3759499973262
 20
159.7018589946511
 30
0.000000000000000
 40
6.602129000000000
100
AcDbArc
 50
67.16399000000010
 51
89.86075526739312
  0
ARC
  5
C1
100
AcDbEntity
  8
A1
  6
CONTINUOUS
 62
7
100
AcDbCircle
 10
110.8605849973262
 20
165.6021849946511
 30
0.000000000000000
 40
0.2000000000000000
100
AcDbArc
 50
330.9085006456598
 51
427.1644105467683
  0
ARC
  5
C2
100
AcDbEntity
  8
A1
  6
CONTINUOUS
 62
7
100
AcDbCircle
 10
105.9234049973264
 20
165.6021849946511
 30
0.000000000000000
 40
0.2000000000000000
100
AcDbArc
 50
112.8355894532317
 51
209.0914993543402
  0
ARC
  5
C3
100
AcDbEntity
  8
A1
  6
CONTINUOUS
 62
7
100
AcDbCircle
 10
108.3960789973263
 20
148.0195809946511
 30
0.000000000000000
 40
3.366533000000000
100
AcDbArc
 50
207.1380140468275
 51
248.1298026005969
  0
ARC
  5
C4
100
AcDbEntity
  8
A1
  6
CONTINUOUS
 62
7
100
AcDbCircle
 10
108.3879109973263
 20
148.0195809946511
 30
0.000000000000000
 40
3.366533000000000
100
AcDbArc
 50
291.8701973994031
 51
332.8619859531725
  0
LINE
  5
C5
100
AcDbEntity
  8
A1
  6
CONTINUOUS
 62
7
100
AcDbLine
 10
108.3919949973263
 20
144.8919949973246
 30
0.000000000000000
 11
109.6419617591649
 21
144.8953369057856
 31
0.000000000000000
  0
LINE
  5
C6
100
AcDbEntity
  8
A1
  6
CONTINUOUS
 62
7
100
AcDbLine
 10
107.1420282354874
 20
144.8953369057856
 30
0.000000000000000
 11
108.3919949973262
 21
144.8919949973246
 31
0.000000000000000
  0
LINE
  5
C7
100
AcDbEntity
  8
A1
  6
CONTINUOUS
 62
7
100
AcDbLine
 10
110.6342339973263
 20
164.7839899946511
 30
0.000000000000000
 11
111.0353589973263
 21
165.5049409946511
 31
0.000000000000000
  0
LINE
  5
C8
100
AcDbEntity
  8
A1
  6
CONTINUOUS
 62
7
100
AcDbLine
 10
105.7486309973262
 20
165.5049409946511
 30
0.000000000000000
 11
106.1497559973263
 21
164.7839899946511
 31
0.000000000000000
  0
LINE
  5
C9
100
AcDbEntity
  8
A1
  6
CONTINUOUS
 62
7
100
AcDbLine
 10
108.3919949973263
 20
144.8953369057856
 30
0.000000000000000
 11
109.6419617591690
 21
144.8953369057856
 31
0.000000000000000
  0
LINE
  5
CA
100
AcDbEntity
  8
A1
  6
CONTINUOUS
 62
7
100
AcDbLine
 10
107.1420282354836
 20
144.8953369057856
 30
0.000000000000000
 11
108.3919949973263
 21
144.8953369057856
 31
0.000000000000000
  0
ARC
  5
CB
100
AcDbEntity
  8
A1
  6
CONTINUOUS
 62
7
100
AcDbCircle
 10
53.15000199999989
 20
97.89199499732477
 30
0.000000000000000
 40
0.5000000000000000
100
AcDbArc
 50
180.0000000000000
 51
269.9999630000002
  0
ARC
  5
CC
100
AcDbEntity
  8
A1
  6
CONTINUOUS
 62
7
100
AcDbCircle
 10
53.15000199999989
 20
106.8919949973246
 30
0.000000000000000
 40
0.5000000000000000
100
AcDbArc
 50
90.00003699999982
 51
180.0000000000000
  0
ARC
  5
CD
100
AcDbEntity
  8
A1
  6
CONTINUOUS
 62
7
100
AcDbCircle
 10
65.15000199999980
 20
97.89199499732477
 30
0.000000000000000
 40
0.5000000000000000
100
AcDbArc
 50
269.9999629999991
 51
359.9999449999992
  0
ARC
  5
CE
100
AcDbEntity
  8
A1
  6
CONTINUOUS
 62
7
100
AcDbCircle
 10
65.15000199999980
 20
106.8919949973246
 30
0.000000000000000
 40
0.5000000000000000
100
AcDbArc
 50
5.500000075180000e-05
 51
90.00003700000092
  0
ARC
  5
CF
100
AcDbEntity
  8
A1
  6
CONTINUOUS
 62
7
100
AcDbCircle
 10
64.15000199999980
 20
91.41860599732468
 30
0.000000000000000
 40
1.000000000000000
100
AcDbArc
 50
282.0248924150109
 51
360.0000000000000
  0
ARC
  5
D0
100
AcDbEntity
  8
A1
  6
CONTINUOUS
 62
7
100
AcDbCircle
 10
64.15000199999980
 20
113.3653839973247
 30
0.000000000000000
 40
1.000000000000000
100
AcDbArc
 50
0.000000000000000
 51
77.97510758498915
  0
ARC
  5
D1
100
AcDbEntity
  8
A1
  6
CONTINUOUS
 62
7
100
AcDbCircle
 10
54.15000199999980
 20
91.41860599732468
 30
0.000000000000000
 40
1.000000000000000
100
AcDbArc
 50
180.0000000000000
 51
257.9753007256265
  0
ARC
  5
D2
100
AcDbEntity
  8
A1
  6
CONTINUOUS
 62
7
100
AcDbCircle
 10
54.15000199999980
 20
113.3653839973247
 30
0.000000000000000
 40
1.000000000000000
100
AcDbArc
 50
102.0246992743734
 51
180.0000000000000
  0
ARC
  5
D3
100
AcDbEntity
  8
A1
  6
CONTINUOUS
 62
7
100
AcDbCircle
 10
59.15000199999989
 20
89.89199499732467
 30
0.000000000000000
 40
25.00000000000000
100
AcDbArc
 50
77.97529300000002
 51
102.0246992293458
  0
ARC
  5
D4
100
AcDbEntity
  8
A1
  6
CONTINUOUS
 62
7
100
AcDbCircle
 10
59.15000199999989
 20
114.8919949973247
 30
0.000000000000000
 40
25.00000000000000
100
AcDbArc
 50
257.9753007706541
 51
282.0247070000000
  0
LINE
  5
D5
100
AcDbEntity
  8
A1
  6
CONTINUOUS
 62
7
100
AcDbLine
 10
52.65000199999989
 20
106.8919949972536
 30
0.000000000000000
 11
52.65000199999989
 21
97.89199499732477
 31
0.000000000000000
  0
LINE
  5
D6
100
AcDbEntity
  8
A1
  6
CONTINUOUS
 62
7
100
AcDbLine
 10
65.65000199999949
 20
106.8919954772191
 30
0.000000000000000
 11
65.65000199999949
 21
97.89199451735922
 31
0.000000000000000
  0
LINE
  5
D7
100
AcDbEntity
  8
A1
  6
CONTINUOUS
 62
7
100
AcDbLine
 10
65.15000199999980
 20
113.3653839971879
 30
0.000000000000000
 11
65.15000199999980
 21
91.41860599732468
 31
0.000000000000000
  0
LINE
  5
D8
100
AcDbEntity
  8
A1
  6
CONTINUOUS
 62
7
100
AcDbLine
 10
53.15000199999989
 20
113.3653839971879
 30
0.000000000000000
 11
53.15000199999989
 21
91.41860599732468
 31
0.000000000000000
  0
SPLINE
  5
D9
100
AcDbEntity
  8
A1
  6
CONTINUOUS
 62
7
100
AcDbSpline
210
0.000000000000000
220
0.000000000000000
230
1.000000000000000
 70
     8
 71
     3
 72
     9
 73
     5
 74
     0
 42
1.000000000000000e-07
 43
1.000000000000000e-07
 12
-0.9698324247547134
 22
0.2437725741183385
 32
0.000000000000000
 13
-0.9999999579031282
 23
0.0002901084590121172
 33
0.000000000000000
 40
0.000000000000000
 40
0.000000000000000
 40
0.000000000000000
 40
0.000000000000000
 40
0.02991674218888150
 40
0.04935210083345140
 40
0.04935210083345140
 40
0.04935210083345140
 40
0.04935210083345140
 10
68.14888941923439
 20
124.8859280276227
 30
0.000000000000000
 10
68.13921801036179
 20
124.8883589880403
 30
0.000000000000000
 10
68.12293620421320
 20
124.8911977802897
 30
0.000000000000000
 10
68.10648045260871
 20
124.8919931178707
 30
0.000000000000000
 10
68.10000199999990
 20
124.8919949973246
 30
0.000000000000000
  0
SPLINE
  5
DA
100
AcDbEntity
  8
A1
  6
CONTINUOUS
 62
7
100
AcDbSpline
210
0.000000000000000
220
0.000000000000000
230
1.000000000000000
 70
     8
 71
     3
 72
     9
 73
     5
 74
     0
 42
1.000000000000000e-07
 43
1.000000000000000e-07
 12
-0.9999989588145581
 22
-0.001443045806809096
 32
0.000000000000000
 13
-0.9696742091327906
 23
-0.2444011624247651
 33
0.000000000000000
 40
0.000000000000000
 40
0.000000000000000
 40
0.000000000000000
 40
0.000000000000000
 40
0.04350388789216680
 40
0.04929910196771700
 40
0.04929910196771700
 40
0.04929910196771700
 40
0.04929910196771700
 10
50.19999999999990
 20
124.8919949973246
 30
0.000000000000000
 10
50.18549871913439
 20
124.8919740712903
 30
0.000000000000000
 10
50.16897634572581
 20
124.8901858543386
 30
0.000000000000000
 10
50.15298790222531
 20
124.8864006923700
 30
0.000000000000000
 10
50.15111474568349
 20
124.8859285733512
 30
0.000000000000000
  0
ARC
  5
DB
100
AcDbEntity
  8
A1
  6
CONTINUOUS
 62
7
100
AcDbCircle
 10
68.10000199999990
 20
124.6919949973247
 30
0.000000000000000
 40
0.1999999999999655
100
AcDbArc
 50
359.9999999999930
 51
435.8514296877289
  0
ARC
  5
DC
100
AcDbEntity
  8
A1
  6
CONTINUOUS
 62
7
100
AcDbCircle
 10
50.19999999999808
 20
124.6919949973260
 30
0.000000000000000
 40
0.1999999999983243
100
AcDbArc
 50
104.1479307070649
 51
180.0000000003705
  0
LINE
  5
DD
100
AcDbEntity
  8
A1
  6
CONTINUOUS
 62
7
100
AcDbLine
 10
49.99999999999980
 20
100.5261499973247
 30
0.000000000000000
 11
49.99999999999980
 21
97.39199329835100
 31
0.000000000000000
  0
LINE
  5
DE
100
AcDbEntity
  8
A1
  6
CONTINUOUS
 62
7
100
AcDbLine
 10
51.59999899999988
 20
100.5261499973247
 30
0.000000000000000
 11
51.59999899999988
 21
97.39199329835100
 31
0.000000000000000
  0
LINE
  5
DF
100
AcDbEntity
  8
A1
  6
CONTINUOUS
 62
7
100
AcDbLine
 10
49.99999999999980
 20
97.39199329835100
 30
0.000000000000000
 11
51.59999899999988
 21
97.39199329835100
 31
0.000000000000000
  0
LINE
  5
E0
100
AcDbEntity
  8
A1
  6
CONTINUOUS
 62
7
100
AcDbLine
 10
68.30000199999982
 20
100.5261499973247
 30
0.000000000000000
 11
68.30000199999991
 21
97.39199329835101
 31
0.000000000000000
  0
LINE
  5
E1
100
AcDbEntity
  8
A1
  6
CONTINUOUS
 62
7
100
AcDbLine
 10
66.70000199999978
 20
100.5261499973247
 30
0.000000000000000
 11
66.70000199999978
 21
97.39199329835100
 31
0.000000000000000
  0
LINE
  5
E2
100
AcDbEntity
  8
A1
  6
CONTINUOUS
 62
7
100
AcDbLine
 10
66.70000199999978
 20
97.39199329835100
 30
0.000000000000000
 11
68.30000199999989
 21
97.39199329835100
 31
0.000000000000000
  0
LINE
  5
E3
100
AcDbEntity
  8
A1
  6
CONTINUOUS
 62
7
100
AcDbLine
 10
68.30000199999981
 20
120.6919412738782
 30
0.000000000000000
 11
68.30000199999981
 21
122.8919949973247
 31
0.000000000000000
  0
LINE
  5
E4
100
AcDbEntity
  8
A1
  6
CONTINUOUS
 62
7
100
AcDbLine
 10
66.70000199999978
 20
120.6919412738782
 30
0.000000000000000
 11
66.70000199999978
 21
122.8919949973247
 31
0.000000000000000
  0
LINE
  5
E5
100
AcDbEntity
  8
A1
  6
CONTINUOUS
 62
7
100
AcDbLine
 10
49.99999999999980
 20
122.8919949973247
 30
0.000000000000000
 11
49.99999999999980
 21
120.6919412738782
 31
0.000000000000000
  0
LINE
  5
E6
100
AcDbEntity
  8
A1
  6
CONTINUOUS
 62
7
100
AcDbLine
 10
51.59999899999988
 20
122.8919949973247
 30
0.000000000000000
 11
51.59999899999988
 21
120.6919412738782
 31
0.000000000000000
  0
LINE
  5
E7
100
AcDbEntity
  8
A1
  6
CONTINUOUS
 62
7
100
AcDbLine
 10
68.30000199999981
 20
100.5261499973247
 30
0.000000000000000
 11
68.30000199999981
 21
120.6919412738782
 31
0.000000000000000
  0
LINE
  5
E8
100
AcDbEntity
  8
A1
  6
CONTINUOUS
 62
7
100
AcDbLine
 10
66.70000199999978
 20
100.5261499973247
 30
0.000000000000000
 11
66.70000199999978
 21
120.6919412738782
 31
0.000000000000000
  0
LINE
  5
E9
100
AcDbEntity
  8
A1
  6
CONTINUOUS
 62
7
100
AcDbLine
 10
66.70000199999978
 20
120.6919412738782
 30
0.000000000000000
 11
68.30000199999981
 21
120.6919412738782
 31
0.000000000000000
  0
LINE
  5
EA
100
AcDbEntity
  8
A1
  6
CONTINUOUS
 62
7
100
AcDbLine
 10
49.99999999999980
 20
120.6919412738782
 30
0.000000000000000
 11
49.99999999999980
 21
100.5261499973247
 31
0.000000000000000
  0
LINE
  5
EB
100
AcDbEntity
  8
A1
  6
CONTINUOUS
 62
7
100
AcDbLine
 10
51.59999899999988
 20
120.6919412738782
 30
0.000000000000000
 11
51.59999899999988
 21
100.5261499973247
 31
0.000000000000000
  0
LINE
  5
EC
100
AcDbEntity
  8
A1
  6
CONTINUOUS
 62
7
100
AcDbLine
 10
49.99999999999980
 20
120.6919412738782
 30
0.000000000000000
 11
51.59999899999988
 21
120.6919412738782
 31
0.000000000000000
  0
LINE
  5
ED
100
AcDbEntity
  8
A1
  6
CONTINUOUS
 62
7
100
AcDbLine
 10
68.30000199999981
 20
124.6919949973247
 30
0.000000000000000
 11
68.30000199999981
 21
122.8919949973247
 31
0.000000000000000
  0
LINE
  5
EE
100
AcDbEntity
  8
A1
  6
CONTINUOUS
 62
7
100
AcDbLine
 10
66.70000199999978
 20
123.2919969973247
 30
0.000000000000000
 11
66.70000199999978
 21
122.8919949973247
 31
0.000000000000000
  0
LINE
  5
EF
100
AcDbEntity
  8
A1
  6
CONTINUOUS
 62
7
100
AcDbLine
 10
49.99999999999980
 20
124.6919949973247
 30
0.000000000000000
 11
49.99999999999980
 21
122.8919949973247
 31
0.000000000000000
  0
LINE
  5
F0
100
AcDbEntity
  8
A1
  6
CONTINUOUS
 62
7
100
AcDbLine
 10
51.59999899999988
 20
123.2919969973247
 30
0.000000000000000
 11
51.59999899999988
 21
122.8919949973247
 31
0.000000000000000
  0
LINE
  5
F1
100
AcDbEntity
  8
A1
  6
CONTINUOUS
 62
7
100
AcDbLine
 10
64.15000199999989
 20
124.8919949973246
 30
0.000000000000000
 11
54.15000199999989
 21
124.8919949973246
 31
0.000000000000000
  0
LINE
  5
F2
100
AcDbEntity
  8
A1
  6
CONTINUOUS
 62
7
100
AcDbLine
 10
64.15000199999989
 20
123.2919969973246
 30
0.000000000000000
 11
54.15000199999989
 21
123.2919969973246
 31
0.000000000000000
  0
LINE
  5
F3
100
AcDbEntity
  8
A1
  6
CONTINUOUS
 62
7
100
AcDbLine
 10
68.10000199999990
 20
124.8919949973246
 30
0.000000000000000
 11
64.15000199999989
 21
124.8919949973246
 31
0.000000000000000
  0
LINE
  5
F4
100
AcDbEntity
  8
A1
  6
CONTINUOUS
 62
7
100
AcDbLine
 10
68.15000199999989
 20
123.2919969973246
 30
0.000000000000000
 11
64.15000199999989
 21
123.2919969973246
 31
0.000000000000000
  0
LINE
  5
F5
100
AcDbEntity
  8
A1
  6
CONTINUOUS
 62
7
100
AcDbLine
 10
68.15000199999989
 20
124.8763084806231
 30
0.000000000000000
 11
68.14888941923439
 21
124.8859280276227
 31
0.000000000000000
  0
LINE
  5
F6
100
AcDbEntity
  8
A1
  6
CONTINUOUS
 62
7
100
AcDbLine
 10
68.15000199999989
 20
123.2919969973246
 30
0.000000000000000
 11
68.15000199999989
 21
124.8763084806231
 31
0.000000000000000
  0
LINE
  5
F7
100
AcDbEntity
  8
A1
  6
CONTINUOUS
 62
7
100
AcDbLine
 10
54.15000199999989
 20
124.8919949973246
 30
0.000000000000000
 11
50.19999999999990
 21
124.8919949973246
 31
0.000000000000000
  0
LINE
  5
F8
100
AcDbEntity
  8
A1
  6
CONTINUOUS
 62
7
100
AcDbLine
 10
50.15111474568348
 20
124.8859285733512
 30
0.000000000000000
 11
50.15000199999987
 21
124.8763084806231
 31
0.000000000000000
  0
LINE
  5
F9
100
AcDbEntity
  8
A1
  6
CONTINUOUS
 62
7
100
AcDbLine
 10
50.15000199999989
 20
123.2919969973246
 30
0.000000000000000
 11
50.15000199999989
 21
124.8763084806231
 31
0.000000000000000
  0
LINE
  5
FA
100
AcDbEntity
  8
A1
  6
CONTINUOUS
 62
7
100
AcDbLine
 10
54.15000199999989
 20
123.2919969973246
 30
0.000000000000000
 11
50.15000199999989
 21
123.2919969973246
 31
0.000000000000000
  0
ARC
  5
FB
100
AcDbEntity
  8
A1
  6
CONTINUOUS
 62
7
100
AcDbCircle
 10
55.08213099999989
 20
102.4080399973248
 30
0.000000000000000
 40
6.602129000000000
100
AcDbArc
 50
180.1392447326069
 51
202.8360100000000
  0
ARC
  5
FC
100
AcDbEntity
  8
A1
  6
CONTINUOUS
 62
7
100
AcDbCircle
 10
55.08213099999989
 20
102.3759499973246
 30
0.000000000000000
 40
6.602129000000000
100
AcDbArc
 50
157.1639900000002
 51
179.8607552673931
  0
ARC
  5
FD
100
AcDbEntity
  8
A1
  6
CONTINUOUS
 62
7
100
AcDbCircle
 10
49.18180499999988
 20
104.8605849973246
 30
0.000000000000000
 40
0.2000000000000000
100
AcDbArc
 50
60.90850064565977
 51
157.1644105467683
  0
ARC
  5
FE
100
AcDbEntity
  8
A1
  6
CONTINUOUS
 62
7
100
AcDbCircle
 10
49.18180499999988
 20
99.92340499732477
 30
0.000000000000000
 40
0.2000000000000000
100
AcDbArc
 50
202.8355894532317
 51
299.0914993543402
  0
ARC
  5
FF
100
AcDbEntity
  8
A1
  6
CONTINUOUS
 62
7
100
AcDbCircle
 10
66.76440899999989
 20
102.3960789973247
 30
0.000000000000000
 40
3.366533000000000
100
AcDbArc
 50
297.1380140468275
 51
338.1298026005967
  0
ARC
  5
100
100
AcDbEntity
  8
A1
  6
CONTINUOUS
 62
7
100
AcDbCircle
 10
66.76440899999989
 20
102.3879109973247
 30
0.000000000000000
 40
3.366533000000000
100
AcDbArc
 50
21.87019739940312
 51
62.86198595317247
  0
LINE
  5
101
100
AcDbEntity
  8
A1
  6
CONTINUOUS
 62
7
100
AcDbLine
 10
69.89199499732628
 20
102.3919949973247
 30
0.000000000000000
 11
69.88865308886527
 21
103.6419617591635
 31
0.000000000000000
  0
LINE
  5
102
100
AcDbEntity
  8
A1
  6
CONTINUOUS
 62
7
100
AcDbLine
 10
69.88865308886530
 20
101.1420282354859
 30
0.000000000000000
 11
69.89199499732631
 21
102.3919949973247
 31
0.000000000000000
  0
LINE
  5
103
100
AcDbEntity
  8
A1
  6
CONTINUOUS
 62
7
100
AcDbLine
 10
65.65000199999960
 20
100.1419949973247
 30
0.000000000000000
 11
66.70000199999978
 21
100.1419949973247
 31
0.000000000000000
  0
LINE
  5
104
100
AcDbEntity
  8
A1
  6
CONTINUOUS
 62
7
100
AcDbLine
 10
51.59999899999988
 20
100.1419949973247
 30
0.000000000000000
 11
52.65000199999989
 21
100.1419949973247
 31
0.000000000000000
  0
LINE
  5
105
100
AcDbEntity
  8
A1
  6
CONTINUOUS
 62
7
100
AcDbLine
 10
52.65000199999989
 20
104.6419949973247
 30
0.000000000000000
 11
51.59999899999988
 21
104.6419949973247
 31
0.000000000000000
  0
LINE
  5
106
100
AcDbEntity
  8
A1
  6
CONTINUOUS
 62
7
100
AcDbLine
 10
66.70000199999978
 20
104.6419949973247
 30
0.000000000000000
 11
65.65000199999960
 21
104.6419949973247
 31
0.000000000000000
  0
LINE
  5
107
100
AcDbEntity
  8
A1
  6
CONTINUOUS
 62
7
100
AcDbLine
 10
49.99999999999988
 20
104.6342339973247
 30
0.000000000000000
 11
49.27904899999989
 21
105.0353589973247
 31
0.000000000000000
  0
LINE
  5
108
100
AcDbEntity
  8
A1
  6
CONTINUOUS
 62
7
100
AcDbLine
 10
49.27904899999993
 20
99.74863099732471
 30
0.000000000000000
 11
49.99999999999991
 21
100.1497559973247
 31
0.000000000000000
  0
LINE
  5
109
100
AcDbEntity
  8
A1
  6
CONTINUOUS
 62
7
100
AcDbLine
 10
69.88865308886528
 20
101.1420282354820
 30
0.000000000000000
 11
69.88865308886528
 21
103.6419617591674
 31
0.000000000000000
  0
ARC
  5
10A
100
AcDbEntity
  8
A1
  6
CONTINUOUS
 62
7
100
AcDbCircle
 10
112.8919949973262
 20
53.15000199999827
 30
0.000000000000000
 40
0.5000000000000000
100
AcDbArc
 50
270.0000000000000
 51
359.9999630000002
  0
ARC
  5
10B
100
AcDbEntity
  8
A1
  6
CONTINUOUS
 62
7
100
AcDbCircle
 10
103.8919949973264
 20
53.15000199999827
 30
0.000000000000000
 40
0.5000000000000000
100
AcDbArc
 50
180.0000369999998
 51
270.0000000000000
  0
ARC
  5
10C
100
AcDbEntity
  8
A1
  6
CONTINUOUS
 62
7
100
AcDbCircle
 10
112.8919949973262
 20
65.15000199999821
 30
0.000000000000000
 40
0.5000000000000000
100
AcDbArc
 50
359.9999629999990
 51
449.9999449999992
  0
ARC
  5
10D
100
AcDbEntity
  8
A1
  6
CONTINUOUS
 62
7
100
AcDbCircle
 10
103.8919949973264
 20
65.15000199999821
 30
0.000000000000000
 40
0.5000000000000000
100
AcDbArc
 50
90.00005500000078
 51
180.0000370000009
  0
ARC
  5
10E
100
AcDbEntity
  8
A1
  6
CONTINUOUS
 62
7
100
AcDbCircle
 10
119.3653839973263
 20
64.15000199999821
 30
0.000000000000000
 40
1.000000000000000
100
AcDbArc
 50
12.02489241501085
 51
90.00000000000001
  0
ARC
  5
10F
100
AcDbEntity
  8
A1
  6
CONTINUOUS
 62
7
100
AcDbCircle
 10
97.41860599732630
 20
64.15000199999821
 30
0.000000000000000
 40
1.000000000000000
100
AcDbArc
 50
90.00000000000000
 51
167.9751075849891
  0
ARC
  5
110
100
AcDbEntity
  8
A1
  6
CONTINUOUS
 62
7
100
AcDbCircle
 10
119.3653839973263
 20
54.15000199999818
 30
0.000000000000000
 40
1.000000000000000
100
AcDbArc
 50
270.0000000000000
 51
347.9753007256265
  0
ARC
  5
111
100
AcDbEntity
  8
A1
  6
CONTINUOUS
 62
7
100
AcDbCircle
 10
97.41860599732630
 20
54.15000199999818
 30
0.000000000000000
 40
1.000000000000000
100
AcDbArc
 50
192.0246992743734
 51
270.0000000000000
  0
ARC
  5
112
100
AcDbEntity
  8
A1
  6
CONTINUOUS
 62
7
100
AcDbCircle
 10
120.8919949973263
 20
59.15000199999827
 30
0.000000000000000
 40
25.00000000000000
100
AcDbArc
 50
167.9752930000000
 51
192.0246992293459
  0
ARC
  5
113
100
AcDbEntity
  8
A1
  6
CONTINUOUS
 62
7
100
AcDbCircle
 10
95.89199499732629
 20
59.15000199999827
 30
0.000000000000000
 40
25.00000000000000
100
AcDbArc
 50
347.9753007706541
 51
372.0247070000000
  0
LINE
  5
114
100
AcDbEntity
  8
A1
  6
CONTINUOUS
 62
7
100
AcDbLine
 10
108.3919949973263
 20
52.65000199999827
 30
0.000000000000000
 11
112.8919949973262
 21
52.65000199999827
 31
0.000000000000000
  0
LINE
  5
115
100
AcDbEntity
  8
A1
  6
CONTINUOUS
 62
7
100
AcDbLine
 10
103.8919949973264
 20
52.65000199999827
 30
0.000000000000000
 11
108.3919949973263
 21
52.65000199999827
 31
0.000000000000000
  0
LINE
  5
116
100
AcDbEntity
  8
A1
  6
CONTINUOUS
 62
7
100
AcDbLine
 10
108.3919949973263
 20
65.65000199999798
 30
0.000000000000000
 11
112.8919954772917
 21
65.65000199999798
 31
0.000000000000000
  0
LINE
  5
117
100
AcDbEntity
  8
A1
  6
CONTINUOUS
 62
7
100
AcDbLine
 10
103.8919945173608
 20
65.65000199999798
 30
0.000000000000000
 11
108.3919949973263
 21
65.65000199999798
 31
0.000000000000000
  0
LINE
  5
118
100
AcDbEntity
  8
A1
  6
CONTINUOUS
 62
7
100
AcDbLine
 10
108.3919949973263
 20
65.15000199999821
 30
0.000000000000000
 11
119.3653839973263
 21
65.15000199999821
 31
0.000000000000000
  0
LINE
  5
119
100
AcDbEntity
  8
A1
  6
CONTINUOUS
 62
7
100
AcDbLine
 10
97.41860599732630
 20
65.15000199999821
 30
0.000000000000000
 11
108.3919949973263
 21
65.15000199999821
 31
0.000000000000000
  0
LINE
  5
11A
100
AcDbEntity
  8
A1
  6
CONTINUOUS
 62
7
100
AcDbLine
 10
108.3919949973263
 20
53.15000199999827
 30
0.000000000000000
 11
119.3653839973263
 21
53.15000199999827
 31
0.000000000000000
  0
LINE
  5
11B
100
AcDbEntity
  8
A1
  6
CONTINUOUS
 62
7
100
AcDbLine
 10
97.41860599732630
 20
53.15000199999827
 30
0.000000000000000
 11
108.3919949973263
 21
53.15000199999827
 31
0.000000000000000
  0
SPLINE
  5
11C
100
AcDbEntity
  8
A1
  6
CONTINUOUS
 62
7
100
AcDbSpline
210
0.000000000000000
220
0.000000000000000
230
1.000000000000000
 70
     8
 71
     3
 72
    11
 73
     7
 74
     0
 42
1.000000000000000e-07
 43
1.000000000000000e-07
 12
0.9528461774280004
 22
-0.3034537232596222
 32
0.000000000000000
 13
0.9996568031590414
 23
-0.02619686813159205
 33
0.000000000000000
 40
0.000000000000000
 40
0.000000000000000
 40
0.000000000000000
 40
0.000000000000000
 40
0.1987687042263113
 40
0.3963170992630991
 40
0.5667280000563024
 40
0.7341675050290647
 40
0.7341675050290647
 40
0.7341675050290647
 40
0.7341675050290647
 10
93.79765133158259
 20
50.15111474568198
 30
0.000000000000000
 10
93.86078333158738
 20
50.13100904456033
 30
0.000000000000000
 10
93.98748866333310
 20
50.09350418603100
 30
0.000000000000000
 10
94.17017126390309
 20
50.04533254126991
 30
0.000000000000000
 10
94.34536615111298
 20
50.00996677648746
 30
0.000000000000000
 10
94.45798077261318
 20
50.00146213020884
 30
0.000000000000000
 10
94.51377478603439
 20
49.99999999999824
 30
0.000000000000000
  0
SPLINE
  5
11D
100
AcDbEntity
  8
A1
  6
CONTINUOUS
 62
7
100
AcDbSpline
210
0.000000000000000
220
0.000000000000000
230
1.000000000000000
 70
     8
 71
     3
 72
    11
 73
     7
 74
     0
 42
1.000000000000000e-07
 43
1.000000000000000e-07
 12
-0.9996000716935214
 22
-0.02827890860407933
 32
0.000000000000000
 13
-0.9531266164776753
 23
-0.3025717319262640
 33
0.000000000000000
 40
0.000000000000000
 40
0.000000000000000
 40
0.000000000000000
 40
0.000000000000000
 40
0.1745402003633251
 40
0.3598671790291134
 40
0.5447230602981512
 40
0.7341438619374001
 40
0.7341438619374001
 40
0.7341438619374001
 40
0.7341438619374001
 10
94.51377478603439
 20
68.30000199999826
 30
0.000000000000000
 10
94.45561798710219
 20
68.29835673120699
 30
0.000000000000000
 10
94.33567323506441
 20
68.28901657935275
 30
0.000000000000000
 10
94.15768258215510
 20
68.25163274699854
 30
0.000000000000000
 10
93.97746110990130
 20
68.20353723511739
 30
0.000000000000000
 10
93.85783899137411
 20
68.16799387923776
 30
0.000000000000000
 10
93.79765832212180
 20
68.14888941923279
 30
0.000000000000000
  0
SPLINE
  5
11E
100
AcDbEntity
  8
A1
  6
CONTINUOUS
 62
7
100
AcDbSpline
210
0.000000000000000
220
0.000000000000000
230
1.000000000000000
 70
     8
 71
     3
 72
    11
 73
     7
 74
     0
 42
1.000000000000000e-07
 43
1.000000000000000e-07
 12
0.9996000716932940
 22
0.02827890860339721
 32
0.000000000000000
 13
0.9531263724120436
 23
0.3025725007512392
 33
0.000000000000000
 40
0.000000000000000
 40
0.000000000000000
 40
0.000000000000000
 40
0.000000000000000
 40
0.1745402003429726
 40
0.3598671790346686
 40
0.5447268238640925
 40
0.7341515727547270
 40
0.7341515727547270
 40
0.7341515727547270
 40
0.7341515727547270
 10
122.2702197680741
 20
49.99999999999824
 30
0.000000000000000
 10
122.3283765669995
 20
50.00164526878928
 30
0.000000000000000
 10
122.4483213189410
 20
50.01098542137959
 30
0.000000000000000
 10
122.6263132020835
 20
50.04836950845493
 30
0.000000000000000
 10
122.8065371291031
 20
50.09646579496714
 30
0.000000000000000
 10
122.9261616905572
 20
50.13200995546481
 30
0.000000000000000
 10
122.9863435984756
 20
50.15111486212348
 30
0.000000000000000
  0
SPLINE
  5
11F
100
AcDbEntity
  8
A1
  6
CONTINUOUS
 62
7
100
AcDbSpline
210
0.000000000000000
220
0.000000000000000
230
1.000000000000000
 70
     8
 71
     3
 72
    11
 73
     7
 74
     0
 42
1.000000000000000e-07
 43
1.000000000000000e-07
 12
-0.9528463032081618
 22
0.3034533283102974
 32
0.000000000000000
 13
-0.9996568236269923
 23
0.02619608706004328
 33
0.000000000000000
 40
0.000000000000000
 40
0.000000000000000
 40
0.000000000000000
 40
0.000000000000000
 40
0.1987686275423998
 40
0.3963168931361053
 40
0.5667244093466030
 40
0.7341605873530559
 40
0.7341605873530559
 40
0.7341605873530559
 40
0.7341605873530559
 10
122.9863366079071
 20
68.14888930280060
 30
0.000000000000000
 10
122.9232046239246
 20
68.16899496999774
 30
0.000000000000000
 10
122.7964993230162
 20
68.20649969299028
 30
0.000000000000000
 10
122.6138177975459
 20
68.25467073905769
 30
0.000000000000000
 10
122.4386250614174
 20
68.29003559797754
 30
0.000000000000000
 10
122.3260126740295
 20
68.29853994243291
 30
0.000000000000000
 10
122.2702197680741
 20
68.30000199999826
 30
0.000000000000000
  0
ARC
  5
120
100
AcDbEntity
  8
A1
  6
CONTINUOUS
 62
7
100
AcDbCircle
 10
93.89199499732629
 20
54.15000199999835
 30
0.000000000000000
 40
4.000000000000000
100
AcDbArc
 50
180.0000000000000
 51
270.0000000000000
  0
ARC
  5
121
100
AcDbEntity
  8
A1
  6
CONTINUOUS
 62
7
100
AcDbCircle
 10
93.89199499732629
 20
59.15000199999827
 30
0.000000000000000
 40
2.100000000000001
100
AcDbArc
 50
17.06031014751361
 51
342.9396898524864
  0
ARC
  5
122
100
AcDbEntity
  8
A1
  6
CONTINUOUS
 62
7
100
AcDbCircle
 10
93.89199499732629
 20
64.15000199999835
 30
0.000000000000000
 40
4.000000000000000
100
AcDbArc
 50
89.99999999999930
 51
180.0000000000000
  0
ARC
  5
123
100
AcDbEntity
  8
A1
  6
CONTINUOUS
 62
7
100
AcDbCircle
 10
122.8919949973263
 20
59.15000199999827
 30
0.000000000000000
 40
2.100000000000001
100
AcDbArc
 50
197.0603101475136
 51
522.9396898524864
  0
ARC
  5
124
100
AcDbEntity
  8
A1
  6
CONTINUOUS
 62
7
100
AcDbCircle
 10
122.8919949973263
 20
54.15000199999835
 30
0.000000000000000
 40
4.000000000000000
100
AcDbArc
 50
270.0000000000000
 51
360.0000000000000
  0
ARC
  5
125
100
AcDbEntity
  8
A1
  6
CONTINUOUS
 62
7
100
AcDbCircle
 10
122.8919949973263
 20
64.15000199999835
 30
0.000000000000000
 40
4.000000000000000
100
AcDbArc
 50
1.270000000000000e-14
 51
90.00000000000072
  0
LINE
  5
126
100
AcDbEntity
  8
A1
  6
CONTINUOUS
 62
7
100
AcDbLine
 10
122.8919949973263
 20
50.15000199999837
 30
0.000000000000000
 11
121.1824081708121
 21
50.15000199999839
 31
0.000000000000000
  0
LINE
  5
127
100
AcDbEntity
  8
A1
  6
CONTINUOUS
 62
7
100
AcDbLine
 10
126.8919949973263
 20
64.15000199999838
 30
0.000000000000000
 11
126.8919949973263
 21
54.15000199999835
 31
0.000000000000000
  0
LINE
  5
128
100
AcDbEntity
  8
A1
  6
CONTINUOUS
 62
7
100
AcDbLine
 10
93.89199499732631
 20
68.15000199999837
 30
0.000000000000000
 11
95.60158638330340
 21
68.15000199999707
 31
0.000000000000000
  0
LINE
  5
129
100
AcDbEntity
  8
A1
  6
CONTINUOUS
 62
7
100
AcDbLine
 10
89.89199499732629
 20
64.15000199999838
 30
0.000000000000000
 11
89.89199499732629
 21
54.15000199999835
 31
0.000000000000000
  0
LINE
  5
12A
100
AcDbEntity
  8
A1
  6
CONTINUOUS
 62
7
100
AcDbLine
 10
121.1824081708121
 20
68.15000199999828
 30
0.000000000000000
 11
122.8919949973262
 21
68.15000199999835
 31
0.000000000000000
  0
LINE
  5
12B
100
AcDbEntity
  8
A1
  6
CONTINUOUS
 62
7
100
AcDbLine
 10
95.60158638330338
 20
50.15000199999837
 30
0.000000000000000
 11
93.89199499732629
 21
50.15000199999835
 31
0.000000000000000
  0
LINE
  5
12C
100
AcDbEntity
  8
A1
  6
CONTINUOUS
 62
7
100
AcDbLine
 10
94.51377478603439
 20
49.99999999999824
 30
0.000000000000000
 11
95.64199499732629
 21
49.99999999999824
 31
0.000000000000000
  0
LINE
  5
12D
100
AcDbEntity
  8
A1
  6
CONTINUOUS
 62
7
100
AcDbLine
 10
95.60158638330338
 20
51.59999899999829
 30
0.000000000000000
 11
95.64199499732629
 21
51.59999899999829
 31
0.000000000000000
  0
LINE
  5
12E
100
AcDbEntity
  8
A1
  6
CONTINUOUS
 62
7
100
AcDbLine
 10
95.60158638330338
 20
51.59999899999829
 30
0.000000000000000
 11
95.60158638330338
 21
50.15000199999838
 31
0.000000000000000
  0
LINE
  5
12F
100
AcDbEntity
  8
A1
  6
CONTINUOUS
 62
7
100
AcDbLine
 10
95.60158638330338
 20
66.70000199999822
 30
0.000000000000000
 11
95.64199499732629
 21
66.70000199999822
 31
0.000000000000000
  0
LINE
  5
130
100
AcDbEntity
  8
A1
  6
CONTINUOUS
 62
7
100
AcDbLine
 10
94.51377478603439
 20
68.30000199999826
 30
0.000000000000000
 11
95.64199499732629
 21
68.30000199999826
 31
0.000000000000000
  0
LINE
  5
131
100
AcDbEntity
  8
A1
  6
CONTINUOUS
 62
7
100
AcDbLine
 10
95.60158638330338
 20
68.15000199999707
 30
0.000000000000000
 11
95.60158638330338
 21
66.70000199999822
 31
0.000000000000000
  0
LINE
  5
132
100
AcDbEntity
  8
A1
  6
CONTINUOUS
 62
7
100
AcDbLine
 10
121.1419995567900
 20
49.99999999999824
 30
0.000000000000000
 11
122.2702197680741
 21
49.99999999999824
 31
0.000000000000000
  0
LINE
  5
133
100
AcDbEntity
  8
A1
  6
CONTINUOUS
 62
7
100
AcDbLine
 10
121.1419995567900
 20
51.59999899999829
 30
0.000000000000000
 11
121.1824081708121
 21
51.59999899999829
 31
0.000000000000000
  0
LINE
  5
134
100
AcDbEntity
  8
A1
  6
CONTINUOUS
 62
7
100
AcDbLine
 10
121.1824081708121
 20
50.15000199999838
 30
0.000000000000000
 11
121.1824081708121
 21
51.59999899999829
 31
0.000000000000000
  0
LINE
  5
135
100
AcDbEntity
  8
A1
  6
CONTINUOUS
 62
7
100
AcDbLine
 10
121.1419995567900
 20
66.70000199999822
 30
0.000000000000000
 11
121.1824081708121
 21
66.70000199999822
 31
0.000000000000000
  0
LINE
  5
136
100
AcDbEntity
  8
A1
  6
CONTINUOUS
 62
7
100
AcDbLine
 10
121.1419995567900
 20
68.30000199999826
 30
0.000000000000000
 11
122.2702197680741
 21
68.30000199999826
 31
0.000000000000000
  0
LINE
  5
137
100
AcDbEntity
  8
A1
  6
CONTINUOUS
 62
7
100
AcDbLine
 10
121.1824081708121
 20
66.70000199999822
 30
0.000000000000000
 11
121.1824081708121
 21
68.15000199999828
 31
0.000000000000000
  0
LINE
  5
138
100
AcDbEntity
  8
A1
  6
CONTINUOUS
 62
7
100
AcDbLine
 10
103.7531749973262
 20
66.70000199999822
 30
0.000000000000000
 11
95.64199499732629
 21
66.70000199999822
 31
0.000000000000000
  0
LINE
  5
139
100
AcDbEntity
  8
A1
  6
CONTINUOUS
 62
7
100
AcDbLine
 10
103.7531749973262
 20
68.30000199999826
 30
0.000000000000000
 11
95.64199499732629
 21
68.30000199999826
 31
0.000000000000000
  0
LINE
  5
13A
100
AcDbEntity
  8
A1
  6
CONTINUOUS
 62
7
100
AcDbLine
 10
95.64199499732629
 20
66.70000199999822
 30
0.000000000000000
 11
95.64199499732629
 21
68.30000199999826
 31
0.000000000000000
  0
LINE
  5
13B
100
AcDbEntity
  8
A1
  6
CONTINUOUS
 62
7
100
AcDbLine
 10
95.64199499732629
 20
49.99999999999824
 30
0.000000000000000
 11
103.7531749973262
 21
49.99999999999824
 31
0.000000000000000
  0
LINE
  5
13C
100
AcDbEntity
  8
A1
  6
CONTINUOUS
 62
7
100
AcDbLine
 10
95.64199499732629
 20
51.59999899999829
 30
0.000000000000000
 11
103.7531749973262
 21
51.59999899999829
 31
0.000000000000000
  0
LINE
  5
13D
100
AcDbEntity
  8
A1
  6
CONTINUOUS
 62
7
100
AcDbLine
 10
95.64199499732629
 20
49.99999999999824
 30
0.000000000000000
 11
95.64199499732629
 21
51.59999899999829
 31
0.000000000000000
  0
LINE
  5
13E
100
AcDbEntity
  8
A1
  6
CONTINUOUS
 62
7
100
AcDbLine
 10
121.1419995567907
 20
66.70000199999822
 30
0.000000000000000
 11
113.0308095567906
 21
66.70000199999822
 31
0.000000000000000
  0
LINE
  5
13F
100
AcDbEntity
  8
A1
  6
CONTINUOUS
 62
7
100
AcDbLine
 10
121.1419995567907
 20
68.30000199999826
 30
0.000000000000000
 11
113.0308095567906
 21
68.30000199999826
 31
0.000000000000000
  0
LINE
  5
140
100
AcDbEntity
  8
A1
  6
CONTINUOUS
 62
7
100
AcDbLine
 10
121.1419995567907
 20
66.70000199999822
 30
0.000000000000000
 11
121.1419995567907
 21
68.30000199999826
 31
0.000000000000000
  0
LINE
  5
141
100
AcDbEntity
  8
A1
  6
CONTINUOUS
 62
7
100
AcDbLine
 10
113.0308095567906
 20
49.99999999999824
 30
0.000000000000000
 11
121.1419995567907
 21
49.99999999999824
 31
0.000000000000000
  0
LINE
  5
142
100
AcDbEntity
  8
A1
  6
CONTINUOUS
 62
7
100
AcDbLine
 10
113.0308095567906
 20
51.59999899999829
 30
0.000000000000000
 11
121.1419995567907
 21
51.59999899999829
 31
0.000000000000000
  0
LINE
  5
143
100
AcDbEntity
  8
A1
  6
CONTINUOUS
 62
7
100
AcDbLine
 10
121.1419995567907
 20
49.99999999999824
 30
0.000000000000000
 11
121.1419995567907
 21
51.59999899999829
 31
0.000000000000000
  0
LINE
  5
144
100
AcDbEntity
  8
A1
  6
CONTINUOUS
 62
7
100
AcDbLine
 10
103.7531749973262
 20
66.70000199999822
 30
0.000000000000000
 11
113.0308095567906
 21
66.70000199999822
 31
0.000000000000000
  0
LINE
  5
145
100
AcDbEntity
  8
A1
  6
CONTINUOUS
 62
7
100
AcDbLine
 10
103.7531749973262
 20
68.30000199999826
 30
0.000000000000000
 11
113.0308095567906
 21
68.30000199999826
 31
0.000000000000000
  0
LINE
  5
146
100
AcDbEntity
  8
A1
  6
CONTINUOUS
 62
7
100
AcDbLine
 10
103.7531749973262
 20
49.99999999999824
 30
0.000000000000000
 11
113.0308095567906
 21
49.99999999999824
 31
0.000000000000000
  0
LINE
  5
147
100
AcDbEntity
  8
A1
  6
CONTINUOUS
 62
7
100
AcDbLine
 10
103.7531749973262
 20
51.59999899999829
 30
0.000000000000000
 11
113.0308095567906
 21
51.59999899999829
 31
0.000000000000000
  0
ARC
  5
148
100
AcDbEntity
  8
A1
  6
CONTINUOUS
 62
7
100
AcDbCircle
 10
108.3759499973262
 20
55.08213099999827
 30
0.000000000000000
 40
6.602129000000000
100
AcDbArc
 50
270.1392447326069
 51
292.8360099999998
  0
ARC
  5
149
100
AcDbEntity
  8
A1
  6
CONTINUOUS
 62
7
100
AcDbCircle
 10
108.4080399973264
 20
55.08213099999827
 30
0.000000000000000
 40
6.602129000000000
100
AcDbArc
 50
247.1639900000000
 51
269.8607552673931
  0
ARC
  5
14A
100
AcDbEntity
  8
A1
  6
CONTINUOUS
 62
7
100
AcDbCircle
 10
105.9234049973264
 20
49.18180499999826
 30
0.000000000000000
 40
0.2000000000000000
100
AcDbArc
 50
150.9085006456598
 51
247.1644105467683
  0
ARC
  5
14B
100
AcDbEntity
  8
A1
  6
CONTINUOUS
 62
7
100
AcDbCircle
 10
110.8605849973262
 20
49.18180499999826
 30
0.000000000000000
 40
0.2000000000000000
100
AcDbArc
 50
292.8355894532319
 51
389.0914993543402
  0
ARC
  5
14C
100
AcDbEntity
  8
A1
  6
CONTINUOUS
 62
7
100
AcDbCircle
 10
108.3879109973263
 20
66.76440899999828
 30
0.000000000000000
 40
3.366533000000000
100
AcDbArc
 50
27.13801404682752
 51
68.12980260059688
  0
ARC
  5
14D
100
AcDbEntity
  8
A1
  6
CONTINUOUS
 62
7
100
AcDbCircle
 10
108.3960789973263
 20
66.76440899999828
 30
0.000000000000000
 40
3.366533000000000
100
AcDbArc
 50
111.8701973994031
 51
152.8619859531725
  0
LINE
  5
14E
100
AcDbEntity
  8
A1
  6
CONTINUOUS
 62
7
100
AcDbLine
 10
108.3919949973263
 20
69.89199499732466
 30
0.000000000000000
 11
107.1420282354875
 21
69.88865308886372
 31
0.000000000000000
  0
LINE
  5
14F
100
AcDbEntity
  8
A1
  6
CONTINUOUS
 62
7
100
AcDbLine
 10
109.6419617591649
 20
69.88865308886372
 30
0.000000000000000
 11
108.3919949973263
 21
69.89199499732466
 31
0.000000000000000
  0
LINE
  5
150
100
AcDbEntity
  8
A1
  6
CONTINUOUS
 62
7
100
AcDbLine
 10
110.6419949973263
 20
65.65000199999798
 30
0.000000000000000
 11
110.6419949973263
 21
66.70000199999822
 31
0.000000000000000
  0
LINE
  5
151
100
AcDbEntity
  8
A1
  6
CONTINUOUS
 62
7
100
AcDbLine
 10
110.6419949973263
 20
51.59999899999829
 30
0.000000000000000
 11
110.6419949973263
 21
52.65000199999832
 31
0.000000000000000
  0
LINE
  5
152
100
AcDbEntity
  8
A1
  6
CONTINUOUS
 62
7
100
AcDbLine
 10
106.1419949973263
 20
52.65000199999832
 30
0.000000000000000
 11
106.1419949973263
 21
51.59999899999829
 31
0.000000000000000
  0
LINE
  5
153
100
AcDbEntity
  8
A1
  6
CONTINUOUS
 62
7
100
AcDbLine
 10
106.1419949973263
 20
66.70000199999822
 30
0.000000000000000
 11
106.1419949973263
 21
65.65000199999798
 31
0.000000000000000
  0
LINE
  5
154
100
AcDbEntity
  8
A1
  6
CONTINUOUS
 62
7
100
AcDbLine
 10
106.1497559973263
 20
49.99999999999828
 30
0.000000000000000
 11
105.7486309973262
 21
49.27904899999828
 31
0.000000000000000
  0
LINE
  5
155
100
AcDbEntity
  8
A1
  6
CONTINUOUS
 62
7
100
AcDbLine
 10
111.0353589973263
 20
49.27904899999826
 30
0.000000000000000
 11
110.6342339973263
 21
49.99999999999827
 31
0.000000000000000
  0
LINE
  5
156
100
AcDbEntity
  8
A1
  6
CONTINUOUS
 62
7
100
AcDbLine
 10
109.6419617591690
 20
69.88865308886373
 30
0.000000000000000
 11
107.1420282354836
 21
69.88865308886373
 31
0.000000000000000
  0
ARC
  5
157
100
AcDbEntity
  8
A1
  6
CONTINUOUS
 62
7
100
AcDbCircle
 10
206.8039684977294
 20
102.3919949973247
 30
0.000000000000000
 40
12.50000000000000
100
AcDbArc
 50
135.4893014179147
 51
404.5105961075232
  0
ARC
  5
158
100
AcDbEntity
  8
A1
  6
CONTINUOUS
 62
7
100
AcDbCircle
 10
206.8039684977294
 20
102.3919949973247
 30
0.000000000000000
 40
8.500000000000000
100
AcDbArc
 50
270.0000000000000
 51
392.0568859921915
  0
ARC
  5
159
100
AcDbEntity
  8
A1
  6
CONTINUOUS
 62
7
100
AcDbCircle
 10
206.8039684977294
 20
102.3919949973247
 30
0.000000000000000
 40
8.500000000000000
100
AcDbArc
 50
147.9429967188009
 51
270.0000000000000
  0
ARC
  5
15A
100
AcDbEntity
  8
A1
  6
CONTINUOUS
 62
7
100
AcDbCircle
 10
206.8039684977294
 20
102.3919949973247
 30
0.000000000000000
 40
9.000000000000000
100
AcDbArc
 50
270.0000000000000
 51
394.3397784072941
  0
ARC
  5
15B
100
AcDbEntity
  8
A1
  6
CONTINUOUS
 62
7
100
AcDbCircle
 10
206.8039684977294
 20
102.3919949973247
 30
0.000000000000000
 40
9.000000000000000
100
AcDbArc
 50
145.6601073199693
 51
270.0000000000000
  0
SPLINE
  5
15C
100
AcDbEntity
  8
A1
  6
CONTINUOUS
 62
7
100
AcDbSpline
210
0.000000000000000
220
0.000000000000000
230
1.000000000000000
 70
     8
 71
     3
 72
     9
 73
     5
 74
     0
 42
1.000000000000000e-07
 43
1.000000000000000e-07
 12
-0.9999085588090111
 22
-0.01352309210494695
 32
0.000000000000000
 13
-0.9999585372415822
 23
-0.009106250371132774
 33
0.000000000000000
 40
0.000000000000000
 40
0.000000000000000
 40
0.000000000000000
 40
0.000000000000000
 40
0.3981885288207927
 40
0.5361543854422084
 40
0.5361543854422084
 40
0.5361543854422084
 40
0.5361543854422084
 10
221.9344319780320
 20
124.8919949973246
 30
0.000000000000000
 10
221.8017146053695
 20
124.8902000839412
 30
0.000000000000000
 10
221.6230086561631
 20
124.8880763742974
 30
0.000000000000000
 10
221.4442988755319
 20
124.8863473572289
 30
0.000000000000000
 10
221.3983121634730
 20
124.8859285733512
 30
0.000000000000000
  0
SPLINE
  5
15D
100
AcDbEntity
  8
A1
  6
CONTINUOUS
 62
7
100
AcDbSpline
210
0.000000000000000
220
0.000000000000000
230
1.000000000000000
 70
     8
 71
     3
 72
     9
 73
     5
 74
     0
 42
1.000000000000000e-07
 43
1.000000000000000e-07
 12
-0.9998514687852094
 22
0.01723485909553801
 32
0.000000000000000
 13
-0.9999854514981052
 23
0.005394144287492963
 33
0.000000000000000
 40
0.000000000000000
 40
0.000000000000000
 40
0.000000000000000
 40
0.000000000000000
 40
0.3994251428891706
 40
0.5361509854801944
 40
0.5361509854801944
 40
0.5361509854801944
 40
0.5361509854801944
 10
192.2096198965800
 20
124.8859286027028
 30
0.000000000000000
 10
192.0764979579842
 20
124.8882232813885
 30
0.000000000000000
 10
191.8977924808804
 20
124.8905152852374
 30
0.000000000000000
 10
191.7190796352384
 20
124.8917491576837
 30
0.000000000000000
 10
191.6735050174267
 20
124.8919949973246
 30
0.000000000000000
  0
ARC
  5
15E
100
AcDbEntity
  8
A1
  6
CONTINUOUS
 62
7
100
AcDbCircle
 10
221.5539684977291
 20
122.8919949973256
 30
0.000000000000000
 40
1.999999999999015
100
AcDbArc
 50
94.46373957308808
 51
115.8419327631724
  0
ARC
  5
15F
100
AcDbEntity
  8
A1
  6
CONTINUOUS
 62
7
100
AcDbCircle
 10
192.0539639382656
 20
122.8919949973284
 30
0.000000000000000
 40
2.000000000000077
100
AcDbArc
 50
64.15806723658552
 51
85.53627122961697
  0
ARC
  5
160
100
AcDbEntity
  8
A1
  6
CONTINUOUS
 62
7
100
AcDbCircle
 10
206.8039708923460
 20
102.3919932983510
 30
0.000000000000000
 40
5.000000000000000
100
AcDbArc
 50
201.9111899999999
 51
338.0888300000001
  0
ARC
  5
161
100
AcDbEntity
  8
A1
  6
CONTINUOUS
 62
7
100
AcDbCircle
 10
221.5539684977294
 20
122.8919949973247
 30
0.000000000000000
 40
1.999999999999999
100
AcDbArc
 50
115.8419327631671
 51
180.0000000000000
  0
ARC
  5
162
100
AcDbEntity
  8
A1
  6
CONTINUOUS
 62
7
100
AcDbCircle
 10
192.0539639382656
 20
122.8919949973284
 30
0.000000000000000
 40
2.000000000000002
100
AcDbArc
 50
359.9999536117192
 51
424.1580672365853
  0
LINE
  5
163
100
AcDbEntity
  8
A1
  6
CONTINUOUS
 62
7
100
AcDbLine
 10
225.3039684977294
 20
123.2919969973246
 30
0.000000000000000
 11
221.3039684977294
 21
123.2919969973246
 31
0.000000000000000
  0
LINE
  5
164
100
AcDbEntity
  8
A1
  6
CONTINUOUS
 62
7
100
AcDbLine
 10
225.3039684977294
 20
124.8919949973246
 30
0.000000000000000
 11
221.9344319780320
 21
124.8919949973246
 31
0.000000000000000
  0
LINE
  5
165
100
AcDbEntity
  8
A1
  6
CONTINUOUS
 62
7
100
AcDbLine
 10
225.3039684977294
 20
123.2919969973246
 30
0.000000000000000
 11
225.3039684977294
 21
124.8919949973246
 31
0.000000000000000
  0
LINE
  5
166
100
AcDbEntity
  8
A1
  6
CONTINUOUS
 62
7
100
AcDbLine
 10
192.3039684977294
 20
123.2919969973246
 30
0.000000000000000
 11
194.0135553242436
 21
123.2919969973247
 31
0.000000000000000
  0
LINE
  5
167
100
AcDbEntity
  8
A1
  6
CONTINUOUS
 62
7
100
AcDbLine
 10
188.3039684977294
 20
124.8919949973246
 30
0.000000000000000
 11
191.6735050174267
 21
124.8919949973246
 31
0.000000000000000
  0
LINE
  5
168
100
AcDbEntity
  8
A1
  6
CONTINUOUS
 62
7
100
AcDbLine
 10
188.3039684977294
 20
123.2919969973246
 30
0.000000000000000
 11
188.3039684977294
 21
124.8919949973246
 31
0.000000000000000
  0
LINE
  5
169
100
AcDbEntity
  8
A1
  6
CONTINUOUS
 62
7
100
AcDbLine
 10
188.3039684977294
 20
123.2919969973246
 30
0.000000000000000
 11
192.3039684977294
 21
123.2919969973246
 31
0.000000000000000
  0
LINE
  5
16A
100
AcDbEntity
  8
A1
  6
CONTINUOUS
 62
7
100
AcDbLine
 10
219.5943771117522
 20
123.2919969973247
 30
0.000000000000000
 11
221.3039684977294
 21
123.2919969973247
 31
0.000000000000000
  0
LINE
  5
16B
100
AcDbEntity
  8
A1
  6
CONTINUOUS
 62
7
100
AcDbLine
 10
191.6735050174267
 20
124.8919949973246
 30
0.000000000000000
 11
221.9344319780320
 21
124.8919949973246
 31
0.000000000000000
  0
LINE
  5
16C
100
AcDbEntity
  8
A1
  6
CONTINUOUS
 62
7
100
AcDbLine
 10
219.5539684977294
 20
122.8919949973247
 30
0.000000000000000
 11
219.5539684977294
 21
120.6919412738782
 31
0.000000000000000
  0
LINE
  5
16D
100
AcDbEntity
  8
A1
  6
CONTINUOUS
 62
7
100
AcDbLine
 10
219.5539684977294
 20
120.6919412738782
 30
0.000000000000000
 11
211.4427884977295
 21
100.5261499973247
 31
0.000000000000000
  0
LINE
  5
16E
100
AcDbEntity
  8
A1
  6
CONTINUOUS
 62
7
100
AcDbLine
 10
194.0539639382650
 20
120.6920461017199
 30
0.000000000000000
 11
194.0539639382650
 21
122.8919933780720
 31
0.000000000000000
  0
LINE
  5
16F
100
AcDbEntity
  8
A1
  6
CONTINUOUS
 62
7
100
AcDbLine
 10
202.1651539382650
 20
100.5261483780720
 30
0.000000000000000
 11
194.0539639382649
 21
120.6920461017199
 31
0.000000000000000
  0
CIRCLE
  5
170
100
AcDbEntity
  8
A1
  6
CONTINUOUS
 62
7
100
AcDbCircle
 10
206.8039684977294
 20
102.3919949973247
 30
0.000000000000000
 40
2.668589999999901
  0
LINE
  5
171
100
AcDbEntity
  8
A4
  6
CENTER
 62
1
100
AcDbLine
 10
93.89199499732629
 20
152.0339879946511
 30
0.000000000000000
 11
93.89199499732629
 21
159.2339879946511
 31
0.000000000000000
  0
LINE
  5
172
100
AcDbEntity
  8
A4
  6
CENTER
 62
1
100
AcDbLine
 10
122.8919949973263
 20
152.0339879946511
 30
0.000000000000000
 11
122.8919949973263
 21
159.2339879946511
 31
0.000000000000000
  0
LINE
  5
173
100
AcDbEntity
  8
A4
  6
CENTER
 62
1
100
AcDbLine
 10
128.3919949973262
 20
155.6339879946511
 30
0.000000000000000
 11
88.39199499732631
 21
155.6339879946511
 31
0.000000000000000
  0
LINE
  5
174
100
AcDbEntity
  8
A4
  6
CENTER
 62
1
100
AcDbLine
 10
93.89199499732629
 20
159.2339879946511
 30
0.000000000000000
 11
93.89199499732629
 21
152.0339879946511
 31
0.000000000000000
  0
LINE
  5
175
100
AcDbEntity
  8
A4
  6
CENTER
 62
1
100
AcDbLine
 10
108.3919949973263
 20
167.8039721073283
 30
0.000000000000000
 11
108.3919949973263
 21
143.3920003583901
 31
0.000000000000000
  0
LINE
  5
176
100
AcDbEntity
  8
A4
  6
CENTER
 62
1
100
AcDbLine
 10
94.39199499732629
 20
102.3919949973247
 30
0.000000000000000
 11
122.3919949973263
 21
102.3919949973247
 31
0.000000000000000
  0
LINE
  5
177
100
AcDbEntity
  8
A3
  6
DASHED
 62
2
100
AcDbLine
 10
57.05000199999986
 20
123.2763104806231
 30
0.000000000000000
 11
57.05000199999986
 21
124.8763084806231
 31
0.000000000000000
  0
LINE
  5
178
100
AcDbEntity
  8
A4
  6
CENTER
 62
1
100
AcDbLine
 10
59.15000199999989
 20
126.3919949973246
 30
0.000000000000000
 11
59.15000199999989
 21
88.39199499732467
 31
0.000000000000000
  0
LINE
  5
179
100
AcDbEntity
  8
A3
  6
DASHED
 62
2
100
AcDbLine
 10
61.25000099999991
 20
123.2763104806231
 30
0.000000000000000
 11
61.25000099999991
 21
124.8763084806231
 31
0.000000000000000
  0
LINE
  5
17A
100
AcDbEntity
  8
A4
  6
CENTER
 62
1
100
AcDbLine
 10
72.31667199999984
 20
102.3763084806231
 30
0.000000000000000
 11
47.06806199999986
 21
102.3763084806231
 31
0.000000000000000
  0
LINE
  5
17B
100
AcDbEntity
  8
A4
  6
CENTER
 62
1
100
AcDbLine
 10
108.3919949973263
 20
88.39199499732467
 30
0.000000000000000
 11
108.3919949973263
 21
126.3919949973246
 31
0.000000000000000
  0
LINE
  5
17C
100
AcDbEntity
  8
A4
  6
CENTER
 62
1
100
AcDbLine
 10
170.8006609946527
 20
102.3763084806231
 30
0.000000000000000
 11
145.5520509946527
 21
102.3763084806231
 31
0.000000000000000
  0
LINE
  5
17D
100
AcDbEntity
  8
A4
  6
CENTER
 62
1
100
AcDbLine
 10
157.6339909946527
 20
126.3919949973246
 30
0.000000000000000
 11
157.6339909946527
 21
88.39199499732467
 31
0.000000000000000
  0
LINE
  5
17E
100
AcDbEntity
  8
A3
  6
DASHED
 62
2
100
AcDbLine
 10
155.5339909946527
 20
123.2763104806231
 30
0.000000000000000
 11
155.5339909946527
 21
124.8763084806231
 31
0.000000000000000
  0
LINE
  5
17F
100
AcDbEntity
  8
A3
  6
DASHED
 62
2
100
AcDbLine
 10
159.7339899946528
 20
123.2763104806231
 30
0.000000000000000
 11
159.7339899946528
 21
124.8763084806231
 31
0.000000000000000
  0
LINE
  5
180
100
AcDbEntity
  8
A3
  6
DASHED
 62
2
100
AcDbLine
 10
91.79199499732613
 20
123.2919969973246
 30
0.000000000000000
 11
91.79199499732613
 21
124.8919949973246
 31
0.000000000000000
  0
LINE
  5
181
100
AcDbEntity
  8
A4
  6
CENTER
 62
1
100
AcDbLine
 10
93.89199499732626
 20
126.3919949973246
 30
0.000000000000000
 11
93.89199499732626
 21
121.4473999973247
 31
0.000000000000000
  0
LINE
  5
182
100
AcDbEntity
  8
A3
  6
DASHED
 62
2
100
AcDbLine
 10
124.9919939973263
 20
123.2919969973246
 30
0.000000000000000
 11
124.9919939973263
 21
124.8919949973246
 31
0.000000000000000
  0
LINE
  5
183
100
AcDbEntity
  8
A4
  6
CENTER
 62
1
100
AcDbLine
 10
122.8919949973263
 20
126.3919949973246
 30
0.000000000000000
 11
122.8919949973263
 21
121.3842439973247
 31
0.000000000000000
  0
LINE
  5
184
100
AcDbEntity
  8
A3
  6
DASHED
 62
2
100
AcDbLine
 10
190.2039684977292
 20
123.2919969973246
 30
0.000000000000000
 11
190.2039684977292
 21
124.8919949973246
 31
0.000000000000000
  0
LINE
  5
185
100
AcDbEntity
  8
A4
  6
CENTER
 62
1
100
AcDbLine
 10
192.3039684977294
 20
126.3919949973246
 30
0.000000000000000
 11
192.3039684977294
 21
121.4473999973247
 31
0.000000000000000
  0
LINE
  5
186
100
AcDbEntity
  8
A4
  6
CENTER
 62
1
100
AcDbLine
 10
206.8039684977294
 20
88.39199499732467
 30
0.000000000000000
 11
206.8039684977294
 21
126.3919949973246
 31
0.000000000000000
  0
LINE
  5
187
100
AcDbEntity
  8
A4
  6
CENTER
 62
1
100
AcDbLine
 10
221.3039684977294
 20
126.3919949973246
 30
0.000000000000000
 11
221.3039684977294
 21
121.3842439973247
 31
0.000000000000000
  0
LINE
  5
188
100
AcDbEntity
  8
A3
  6
DASHED
 62
2
100
AcDbLine
 10
223.4039674977294
 20
123.2919969973246
 30
0.000000000000000
 11
223.4039674977294
 21
124.8919949973246
 31
0.000000000000000
  0
LINE
  5
189
100
AcDbEntity
  8
A4
  6
CENTER
 62
1
100
AcDbLine
 10
192.8039684977294
 20
102.3919949973247
 30
0.000000000000000
 11
220.8039684977294
 21
102.3919949973247
 31
0.000000000000000
  0
LINE
  5
18A
100
AcDbEntity
  8
A4
  6
CENTER
 62
1
100
AcDbLine
 10
122.8919949973263
 20
62.75000199999826
 30
0.000000000000000
 11
122.8919949973263
 21
55.55000199999827
 31
0.000000000000000
  0
LINE
  5
18B
100
AcDbEntity
  8
A4
  6
CENTER
 62
1
100
AcDbLine
 10
93.89199499732629
 20
62.75000199999826
 30
0.000000000000000
 11
93.89199499732629
 21
55.55000199999827
 31
0.000000000000000
  0
LINE
  5
18C
100
AcDbEntity
  8
A4
  6
CENTER
 62
1
100
AcDbLine
 10
108.3919949973263
 20
46.98002592661157
 30
0.000000000000000
 11
108.3919949973263
 21
71.39198963625930
 31
0.000000000000000
  0
LINE
  5
18D
100
AcDbEntity
  8
A4
  6
CENTER
 62
1
100
AcDbLine
 10
88.39199499732631
 20
59.15000199999827
 30
0.000000000000000
 11
128.3919949973262
 21
59.15000199999827
 31
0.000000000000000
  0
ENDSEC
  0
SECTION
  2
OBJECTS
  0
DICTIONARY
  5
1C3
100
AcDbDictionary
  3
ACAD_GROUP
350
1C4
  3
ACAD_LAYOUT
350
1C5
  3
ACAD_MLINESTYLE
350
1C6
  0
DICTIONARY
  5
1C4
102
{ACAD_REACTORS
330
1C3
102
}
330
1C3
100
AcDbDictionary
  0
DICTIONARY
  5
1C5
102
{ACAD_REACTORS
330
1C3
102
}
330
1C3
100
AcDbDictionary
  3
Model
350
1C7
  3
ﾚｲｱｳﾄ1
350
1C8
  3
ﾚｲｱｳﾄ2
350
1C9
  0
DICTIONARY
  5
1C6
102
{ACAD_REACTORS
330
1C3
102
}
330
1C3
100
AcDbDictionary
  3
STANDARD
350
1CA
  0
LAYOUT
  5
1C7
102
{ACAD_REACTORS
330
1C5
102
}
330
1C5
100
AcDbPlotSettings
 70
11952
  4
A3
 44
297.000000
 45
420.000000
 73
  1
 72
  1
100
AcDbLayout
  1
Model
 71
0
330
1BA
  0
LAYOUT
  5
1C8
102
{ACAD_REACTORS
330
1C5
102
}
330
1C5
100
AcDbPlotSettings
100
AcDbLayout
  1
ﾚｲｱｳﾄ1
 71
1
330
1BB
  0
LAYOUT
  5
1C9
102
{ACAD_REACTORS
330
1C5
102
}
330
1C5
100
AcDbPlotSettings
100
AcDbLayout
  1
ﾚｲｱｳﾄ2
 71
2
330
1BC
  0
MLINESTYLE
  5
1CA
102
{ACAD_REACTORS
330
1C6
102
}
330
1C6
100
AcDbMlineStyle
  2
STANDARD
 70
     0
  3

 62
   256
 51
90.00
 52
90.00
 71
     2
 49
0.50
 62
   256
  6
BYLAYER
 49
-0.50
 62
   256
  6
BYLAYER
  0
ENDSEC
  0
EOF
