  0
SECTION
  2
HEADER
  9
$ACADVER
  1
AC1027
  9
$DWGCODEPAGE
  3
ANSI_932
  9
$LTSCALE
 40
20.0
  9
$FILLMODE
 70
     1
  9
$CLAYER
  8
0
  9
$PDMODE
 70
     0
  9
$SPLFRAME
 70
     0
  9
$SPLINETYPE
 70
     6
  9
$SPLINESEGS
 70
     8
  9
$DIMASZ
 40
2.000000
  9
$DIMEXE
 40
1.500000
  9
$DIMEXO
 40
0.800000
  9
$DIMTAD
 70
     1
  9
$DIMTIH
 70
     0
  9
$DIMTOH
 70
     0
  9
$DIMTVP
 40
0.500000
  9
$DIMTXT
 40
3.100000
  9
$EXTMIN
 10
0.000000
 20
0.000000
 30
0.000000
  9
$EXTMAX
 10
297.000000
 20
420.000000
 30
0.000000
  9
$MEASUREMENT
 70
  1
  9
$LIMMIN
 10
0.000000
 20
0.000000
  9
$LIMMAX
 10
297.000000
 20
420.000000
  9
$HANDSEED
  5
1A2
  9
$LWDISPLAY
290
     0
  9
$DIMBLK
  1
_OPEN
  9
$DIMDEC
 70
     2
  9
$DIMADEC
 70
     2
  9
$DIMAUNIT
 70
     0
  9
$DIMZIN
 70
     8
  9
$DIMAZIN
 70
     2
  9
$DIMTOFL
 70
     1
  0
ENDSEC
  0
SECTION
  2
CLASSES
  0
ENDSEC
  0
SECTION
  2
TABLES
  0
TABLE
  2
VPORT
  5
16A
100
AcDbSymbolTable
 70
     1
  0
VPORT
  5
16B
100
AcDbSymbolTableRecord
100
AcDbViewportTableRecord
  2
*ACTIVE
 70
     0
 12
118.339024
 22
98.089027
 40
160.178053
 41
1.352732
  0
ENDTAB
  0
TABLE
  2
LTYPE
  5
16C
100
AcDbSymbolTable
 70
     3
  0
LTYPE
  5
16D
100
AcDbSymbolTableRecord
100
AcDbLinetypeTableRecord
  2
BYBLOCK
 70
     0
  3

 72
    65
 73
     0
 40
0.0
  0
LTYPE
  5
16E
100
AcDbSymbolTableRecord
100
AcDbLinetypeTableRecord
  2
BYLAYER
 70
     0
  3

 72
    65
 73
     0
 40
0.0
  0
LTYPE
  5
16F
100
AcDbSymbolTableRecord
100
AcDbLinetypeTableRecord
  2
CONTINUOUS
 70
     0
  3
Solid line (NEC CAE2D for Win R18.0 : 2025.08.18)
 72
    65
 73
     0
 40
0.0
  0
LTYPE
  5
170
100
AcDbSymbolTableRecord
100
AcDbLinetypeTableRecord
  2
DASHED
 70
     0
  3
__ __ __ __ __ __ __ __ __ __ __ __ __ _
 72
    65
 73
     2
 40
0.75
 49
0.5
 74
     0
 49
-0.25
 74
     0
  0
LTYPE
  5
171
100
AcDbSymbolTableRecord
100
AcDbLinetypeTableRecord
  2
CENTER
 70
     0
  3
____ _ ____ _ ____ _ ____ _ ____ _ ____
 72
    65
 73
     4
 40
2.0
 49
1.25
 74
     0
 49
-0.25
 74
     0
 49
0.25
 74
     0
 49
-0.25
 74
     0
  0
ENDTAB
  0
TABLE
  2
LAYER
  5
172
100
AcDbSymbolTable
 70
    17
  0
LAYER
  5
173
100
AcDbSymbolTableRecord
100
AcDbLayerTableRecord
  2
0
 70
     0
 62
     7
  6
CONTINUOUS
370
    -3
390

  0
LAYER
  5
174
100
AcDbSymbolTableRecord
100
AcDbLayerTableRecord
  2
A0
 70
     0
 62
     9
  6
CONTINUOUS
370
    -3
390

  0
LAYER
  5
175
100
AcDbSymbolTableRecord
100
AcDbLayerTableRecord
  2
A1
 70
     0
 62
     1
  6
CONTINUOUS
370
    -3
390

  0
LAYER
  5
176
100
AcDbSymbolTableRecord
100
AcDbLayerTableRecord
  2
A2
 70
     0
 62
     9
  6
CONTINUOUS
370
    -3
390

  0
LAYER
  5
177
100
AcDbSymbolTableRecord
100
AcDbLayerTableRecord
  2
A3
 70
     0
 62
    12
  6
CONTINUOUS
370
    -3
390

  0
LAYER
  5
178
100
AcDbSymbolTableRecord
100
AcDbLayerTableRecord
  2
A4
 70
     0
 62
     9
  6
CONTINUOUS
370
    -3
390

  0
LAYER
  5
179
100
AcDbSymbolTableRecord
100
AcDbLayerTableRecord
  2
A5
 70
     0
 62
     8
  6
CONTINUOUS
370
    -3
390

  0
LAYER
  5
17A
100
AcDbSymbolTableRecord
100
AcDbLayerTableRecord
  2
A6
 70
     0
 62
    12
  6
CONTINUOUS
370
    -3
390

  0
LAYER
  5
17B
100
AcDbSymbolTableRecord
100
AcDbLayerTableRecord
  2
A7
 70
     0
 62
    12
  6
CONTINUOUS
370
    -3
390

  0
LAYER
  5
17C
100
AcDbSymbolTableRecord
100
AcDbLayerTableRecord
  2
A8
 70
     0
 62
    10
  6
CONTINUOUS
370
    -3
390

  0
LAYER
  5
17D
100
AcDbSymbolTableRecord
100
AcDbLayerTableRecord
  2
A9
 70
     0
 62
     9
  6
CONTINUOUS
370
    -3
390

  0
LAYER
  5
17E
100
AcDbSymbolTableRecord
100
AcDbLayerTableRecord
  2
A10
 70
     0
 62
     6
  6
CONTINUOUS
370
    -3
390

  0
LAYER
  5
17F
100
AcDbSymbolTableRecord
100
AcDbLayerTableRecord
  2
A20
 70
     0
 62
     1
  6
CONTINUOUS
370
    -3
390

  0
LAYER
  5
180
100
AcDbSymbolTableRecord
100
AcDbLayerTableRecord
  2
A30
 70
     0
 62
     1
  6
CONTINUOUS
370
    -3
390

  0
LAYER
  5
181
100
AcDbSymbolTableRecord
100
AcDbLayerTableRecord
  2
A40
 70
     0
 62
     9
  6
CONTINUOUS
370
    -3
390

  0
LAYER
  5
182
100
AcDbSymbolTableRecord
100
AcDbLayerTableRecord
  2
A50
 70
     0
 62
    12
  6
CONTINUOUS
370
    -3
390

  0
LAYER
  5
183
100
AcDbSymbolTableRecord
100
AcDbLayerTableRecord
  2
A1023
 70
     0
 62
    16
  6
CONTINUOUS
370
    -3
390

  0
ENDTAB
  0
TABLE
  2
STYLE
  5
184
100
AcDbSymbolTable
 70
     4
  0
STYLE
  5
185
100
AcDbSymbolTableRecord
100
AcDbTextStyleTableRecord
  2
STANDARD
 70
    64
 40
0.0
 41
1.0
 50
0.0
 71
     0
 42
3.000000000000000
  3
TXT
  4

  0
STYLE
  5
186
100
AcDbSymbolTableRecord
100
AcDbTextStyleTableRecord
  2
ANKTATE
 70
    68
 40
0.0
 41
1.0
 50
0.0
 71
     0
 42
3.000000000000000
  3
TXT
  4

  0
STYLE
  5
187
100
AcDbSymbolTableRecord
100
AcDbTextStyleTableRecord
  2
KNJYOKO
 70
    64
 40
0.0
 41
1.0
 50
0.0
 71
     0
 42
3.000000000000000
  3
TXT
  4
BIGFONT
  0
STYLE
  5
188
100
AcDbSymbolTableRecord
100
AcDbTextStyleTableRecord
  2
KNJTATE
 70
    68
 40
0.0
 41
1.0
 50
0.0
 71
     0
 42
3.000000000000000
  3
TXT
  4
BIGFONT
  0
ENDTAB
  0
TABLE
  2
VIEW
  5
189
100
AcDbSymbolTable
 70
     0
  0
ENDTAB
  0
TABLE
  2
UCS
  5
18A
100
AcDbSymbolTable
 70
     0
  0
ENDTAB
  0
TABLE
  2
APPID
  5
18B
100
AcDbSymbolTable
 70
     1
  0
APPID
  5
18C
100
AcDbSymbolTableRecord
100
AcDbRegAppTableRecord
  2
ACAD
 70
     0
  0
ENDTAB
  0
TABLE
  2
DIMSTYLE
  5
18D
100
AcDbSymbolTable
 70
     2
100
AcDbDimStyleTable
  0
DIMSTYLE
105
18E
100
AcDbSymbolTableRecord
100
AcDbDimStyleTableRecord
  2
STANDARD
 70
     0
 41
2.000000
 44
1.500000
 42
0.800000
145
0.661290
140
3.100000
144
1.000000
146
0.645161
340
185
  0
DIMSTYLE
105
18F
100
AcDbSymbolTableRecord
100
AcDbDimStyleTableRecord
  2
A001
 70
     0
 41
2.000000
 44
1.500000
 42
0.800000
145
0.661290
140
3.100000
144
1.000000
146
0.645161
 77
     1
 73
     0
 74
     0
271
     2
179
     2
275
     0
 78
     8
 79
     2
172
     1
340
185
  0
ENDTAB
  0
TABLE
  2
BLOCK_RECORD
  5
190
100
AcDbSymbolTable
 70
    12
  0
BLOCK_RECORD
  5
191
100
AcDbSymbolTableRecord
100
AcDbBlockTableRecord
  2
*MODEL_SPACE
  0
BLOCK_RECORD
  5
192
100
AcDbSymbolTableRecord
100
AcDbBlockTableRecord
  2
*PAPER_SPACE
  0
BLOCK_RECORD
  5
193
100
AcDbSymbolTableRecord
100
AcDbBlockTableRecord
  2
*PAPER_SPACE0
  0
BLOCK_RECORD
  5
1
100
AcDbSymbolTableRecord
100
AcDbBlockTableRecord
  2
_NONE
  0
BLOCK_RECORD
  5
4
100
AcDbSymbolTableRecord
100
AcDbBlockTableRecord
  2
_CLOSED
  0
BLOCK_RECORD
  5
B
100
AcDbSymbolTableRecord
100
AcDbBlockTableRecord
  2
_DOT
  0
BLOCK_RECORD
  5
13
100
AcDbSymbolTableRecord
100
AcDbBlockTableRecord
  2
_OPEN
  0
BLOCK_RECORD
  5
19
100
AcDbSymbolTableRecord
100
AcDbBlockTableRecord
  2
_ORIGIN
  0
BLOCK_RECORD
  5
1E
100
AcDbSymbolTableRecord
100
AcDbBlockTableRecord
  2
_OPEN30
  0
BLOCK_RECORD
  5
24
100
AcDbSymbolTableRecord
100
AcDbBlockTableRecord
  2
_BOXFILLED
  0
BLOCK_RECORD
  5
29
100
AcDbSymbolTableRecord
100
AcDbBlockTableRecord
  2
_BOXBLANK
  0
BLOCK_RECORD
  5
31
100
AcDbSymbolTableRecord
100
AcDbBlockTableRecord
  2
_OBLIQUE
  0
BLOCK_RECORD
  5
35
100
AcDbSymbolTableRecord
100
AcDbBlockTableRecord
  2
_OPEN90
  0
BLOCK_RECORD
  5
3B
100
AcDbSymbolTableRecord
100
AcDbBlockTableRecord
  2
_CLOSEDBLANK
  0
BLOCK_RECORD
  5
41
100
AcDbSymbolTableRecord
100
AcDbBlockTableRecord
  2
_DOTBLANK
  0
ENDTAB
  0
ENDSEC
  0
SECTION
  2
BLOCKS
  0
BLOCK
  5
194
100
AcDbEntity
  8
0
100
AcDbBlockBegin
  2
*MODEL_SPACE
 70
     0
 10
0.0
 20
0.0
 30
0.0
  3
*MODEL_SPACE
  1

  0
ENDBLK
  5
195
100
AcDbEntity
  8
0
100
AcDbBlockEnd
  0
BLOCK
  5
196
100
AcDbEntity
  8
0
100
AcDbBlockBegin
  2
*PAPER_SPACE
 70
     0
 10
0.0
 20
0.0
 30
0.0
  3
*PAPER_SPACE
  1

  0
ENDBLK
  5
197
100
AcDbEntity
  8
0
100
AcDbBlockEnd
  0
BLOCK
  5
198
100
AcDbEntity
  8
0
100
AcDbBlockBegin
  2
*PAPER_SPACE0
 70
     0
 10
0.0
 20
0.0
 30
0.0
  3
*PAPER_SPACE0
  1

  0
ENDBLK
  5
199
100
AcDbEntity
  8
0
100
AcDbBlockEnd
  0
BLOCK
  5
2
330
1
100
AcDbEntity
  8
0
100
AcDbBlockBegin
  2
_NONE
 70
     0
 10
0.0
 20
0.0
 30
0.0
  3
_NONE
  1

  0
ENDBLK
  5
3
330
1
100
AcDbEntity
  8
0
100
AcDbBlockEnd
  0
BLOCK
  5
5
330
4
100
AcDbEntity
  8
0
100
AcDbBlockBegin
  2
_CLOSED
 70
     0
 10
0.0
 20
0.0
 30
0.0
  3
_CLOSED
  1

  0
LINE
  5
6
330
4
100
AcDbEntity
  8
0
  6
BYBLOCK
 62
     0
370
    -2
100
AcDbLine
 10
-1.0
 20
0.166667
 30
0.0
 11
0.0
 21
0.0
 31
0.0
  0
LINE
  5
7
330
4
100
AcDbEntity
  8
0
  6
BYBLOCK
 62
     0
370
    -2
100
AcDbLine
 10
0.0
 20
0.0
 30
0.0
 11
-1.0
 21
-0.166667
 31
0.0
  0
LINE
  5
8
330
4
100
AcDbEntity
  8
0
  6
BYBLOCK
 62
     0
370
    -2
100
AcDbLine
 10
-1.0
 20
0.166667
 30
0.0
 11
-1.0
 21
-0.166667
 31
0.0
  0
LINE
  5
9
330
4
100
AcDbEntity
  8
0
  6
BYBLOCK
 62
     0
370
    -2
100
AcDbLine
 10
0.0
 20
0.0
 30
0.0
 11
-1.0
 21
0.0
 31
0.0
  0
ENDBLK
  5
A
330
4
100
AcDbEntity
  8
0
100
AcDbBlockEnd
  0
BLOCK
  5
C
330
B
100
AcDbEntity
  8
0
100
AcDbBlockBegin
  2
_DOT
 70
     0
 10
0.0
 20
0.0
 30
0.0
  3
_DOT
  1

  0
POLYLINE
  5
D
330
B
100
AcDbEntity
  8
0
  6
BYBLOCK
 62
     0
370
    -2
100
AcDb2dPolyline
 66
     1
 10
0.0
 20
0.0
 30
0.0
 70
     1
 40
0.5
 41
0.5
  0
VERTEX
  5
E
330
B
100
AcDbEntity
  8
0
  6
BYBLOCK
 62
     0
370
    -2
100
AcDbVertex
100
AcDb2dVertex
 10
-0.25
 20
0.0
 30
0.0
 42
1.0
  0
VERTEX
  5
F
330
B
100
AcDbEntity
  8
0
  6
BYBLOCK
 62
     0
370
    -2
100
AcDbVertex
100
AcDb2dVertex
 10
0.25
 20
0.0
 30
0.0
 42
1.0
  0
SEQEND
  5
10
330
B
100
AcDbEntity
  8
0
  6
BYBLOCK
 62
     0
370
    -2
  0
LINE
  5
11
330
B
100
AcDbEntity
  8
0
  6
BYBLOCK
 62
     0
370
    -2
100
AcDbLine
 10
-0.5
 20
0.0
 30
0.0
 11
-1.0
 21
0.0
 31
0.0
  0
ENDBLK
  5
12
330
B
100
AcDbEntity
  8
0
100
AcDbBlockEnd
  0
BLOCK
  5
14
330
13
100
AcDbEntity
  8
0
100
AcDbBlockBegin
  2
_OPEN
 70
     0
 10
0.0
 20
0.0
 30
0.0
  3
_OPEN
  1

  0
LINE
  5
15
330
13
100
AcDbEntity
  8
0
  6
BYBLOCK
 62
     0
370
    -2
100
AcDbLine
 10
-1.0
 20
0.166667
 30
0.0
 11
0.0
 21
0.0
 31
0.0
  0
LINE
  5
16
330
13
100
AcDbEntity
  8
0
  6
BYBLOCK
 62
     0
370
    -2
100
AcDbLine
 10
0.0
 20
0.0
 30
0.0
 11
-1.0
 21
-0.166667
 31
0.0
  0
LINE
  5
17
330
13
100
AcDbEntity
  8
0
  6
BYBLOCK
 62
     0
370
    -2
100
AcDbLine
 10
0.0
 20
0.0
 30
0.0
 11
-1.0
 21
0.0
 31
0.0
  0
ENDBLK
  5
18
330
13
100
AcDbEntity
  8
0
100
AcDbBlockEnd
  0
BLOCK
  5
1A
330
19
100
AcDbEntity
  8
0
100
AcDbBlockBegin
  2
_ORIGIN
 70
     0
 10
0.0
 20
0.0
 30
0.0
  3
_ORIGIN
  1

  0
CIRCLE
  5
1B
330
19
100
AcDbEntity
  8
0
  6
BYBLOCK
 62
     0
370
    -2
100
AcDbCircle
 10
0.0
 20
0.0
 30
0.0
 40
0.5
  0
LINE
  5
1C
330
19
100
AcDbEntity
  8
0
  6
BYBLOCK
 62
     0
370
    -2
100
AcDbLine
 10
0.0
 20
0.0
 30
0.0
 11
-1.0
 21
0.0
 31
0.0
  0
ENDBLK
  5
1D
330
19
100
AcDbEntity
  8
0
100
AcDbBlockEnd
  0
BLOCK
  5
1F
330
1E
100
AcDbEntity
  8
0
100
AcDbBlockBegin
  2
_OPEN30
 70
     0
 10
0.0
 20
0.0
 30
0.0
  3
_OPEN30
  1

  0
LINE
  5
20
330
1E
100
AcDbEntity
  8
0
  6
BYBLOCK
 62
     0
370
    -2
100
AcDbLine
 10
-1.0
 20
0.267949
 30
0.0
 11
0.0
 21
0.0
 31
0.0
  0
LINE
  5
21
330
1E
100
AcDbEntity
  8
0
  6
BYBLOCK
 62
     0
370
    -2
100
AcDbLine
 10
0.0
 20
0.0
 30
0.0
 11
-1.0
 21
-0.267949
 31
0.0
  0
LINE
  5
22
330
1E
100
AcDbEntity
  8
0
  6
BYBLOCK
 62
     0
370
    -2
100
AcDbLine
 10
0.0
 20
0.0
 30
0.0
 11
-1.0
 21
0.0
 31
0.0
  0
ENDBLK
  5
23
330
1E
100
AcDbEntity
  8
0
100
AcDbBlockEnd
  0
BLOCK
  5
25
330
24
100
AcDbEntity
  8
0
100
AcDbBlockBegin
  2
_BOXFILLED
 70
     0
 10
0.0
 20
0.0
 30
0.0
  3
_BOXFILLED
  1

  0
SOLID
  5
26
330
24
100
AcDbEntity
  8
0
  6
BYBLOCK
 62
     0
370
    -2
100
AcDbTrace
 10
-0.5
 20
0.5
 30
0.0
 11
0.5
 21
0.5
 31
0.0
 12
-0.5
 22
-0.5
 32
0.0
 13
0.5
 23
-0.5
 33
0.0
  0
LINE
  5
27
330
24
100
AcDbEntity
  8
0
  6
BYBLOCK
 62
     0
370
    -2
100
AcDbLine
 10
-0.5
 20
0.0
 30
0.0
 11
-1.0
 21
0.0
 31
0.0
  0
ENDBLK
  5
28
330
24
100
AcDbEntity
  8
0
100
AcDbBlockEnd
  0
BLOCK
  5
2A
330
29
100
AcDbEntity
  8
0
100
AcDbBlockBegin
  2
_BOXBLANK
 70
     0
 10
0.0
 20
0.0
 30
0.0
  3
_BOXBLANK
  1

  0
LINE
  5
2B
330
29
100
AcDbEntity
  8
0
  6
BYBLOCK
 62
     0
370
    -2
100
AcDbLine
 10
-0.5
 20
-0.5
 30
0.0
 11
0.5
 21
-0.5
 31
0.0
  0
LINE
  5
2C
330
29
100
AcDbEntity
  8
0
  6
BYBLOCK
 62
     0
370
    -2
100
AcDbLine
 10
0.5
 20
-0.5
 30
0.0
 11
0.5
 21
0.5
 31
0.0
  0
LINE
  5
2D
330
29
100
AcDbEntity
  8
0
  6
BYBLOCK
 62
     0
370
    -2
100
AcDbLine
 10
0.5
 20
0.5
 30
0.0
 11
-0.5
 21
0.5
 31
0.0
  0
LINE
  5
2E
330
29
100
AcDbEntity
  8
0
  6
BYBLOCK
 62
     0
370
    -2
100
AcDbLine
 10
-0.5
 20
0.5
 30
0.0
 11
-0.5
 21
-0.5
 31
0.0
  0
LINE
  5
2F
330
29
100
AcDbEntity
  8
0
  6
BYBLOCK
 62
     0
370
    -2
100
AcDbLine
 10
-0.5
 20
0.0
 30
0.0
 11
-1.0
 21
0.0
 31
0.0
  0
ENDBLK
  5
30
330
29
100
AcDbEntity
  8
0
100
AcDbBlockEnd
  0
BLOCK
  5
32
330
31
100
AcDbEntity
  8
0
100
AcDbBlockBegin
  2
_OBLIQUE
 70
     0
 10
0.0
 20
0.0
 30
0.0
  3
_OBLIQUE
  1

  0
LINE
  5
33
330
31
100
AcDbEntity
  8
0
  6
BYBLOCK
 62
     0
370
    -2
100
AcDbLine
 10
-0.5
 20
-0.5
 30
0.0
 11
0.5
 21
0.5
 31
0.0
  0
ENDBLK
  5
34
330
31
100
AcDbEntity
  8
0
100
AcDbBlockEnd
  0
BLOCK
  5
36
330
35
100
AcDbEntity
  8
0
100
AcDbBlockBegin
  2
_OPEN90
 70
     0
 10
0.0
 20
0.0
 30
0.0
  3
_OPEN90
  1

  0
LINE
  5
37
330
35
100
AcDbEntity
  8
0
  6
BYBLOCK
 62
     0
370
    -2
100
AcDbLine
 10
-0.5
 20
0.5
 30
0.0
 11
0.0
 21
0.0
 31
0.0
  0
LINE
  5
38
330
35
100
AcDbEntity
  8
0
  6
BYBLOCK
 62
     0
370
    -2
100
AcDbLine
 10
0.0
 20
0.0
 30
0.0
 11
-0.5
 21
-0.5
 31
0.0
  0
LINE
  5
39
330
35
100
AcDbEntity
  8
0
  6
BYBLOCK
 62
     0
370
    -2
100
AcDbLine
 10
0.0
 20
0.0
 30
0.0
 11
-1.0
 21
0.0
 31
0.0
  0
ENDBLK
  5
3A
330
35
100
AcDbEntity
  8
0
100
AcDbBlockEnd
  0
BLOCK
  5
3C
330
3B
100
AcDbEntity
  8
0
100
AcDbBlockBegin
  2
_CLOSEDBLANK
 70
     0
 10
0.0
 20
0.0
 30
0.0
  3
_CLOSEDBLANK
  1

  0
LINE
  5
3D
330
3B
100
AcDbEntity
  8
0
  6
BYBLOCK
 62
     0
370
    -2
100
AcDbLine
 10
-1.0
 20
0.1666666666666666
 30
0.0
 11
0.0
 21
0.0
 31
0.0
  0
LINE
  5
3E
330
3B
100
AcDbEntity
  8
0
  6
BYBLOCK
 62
     0
370
    -2
100
AcDbLine
 10
0.0
 20
0.0
 30
0.0
 11
-1.0
 21
-0.1666666666666666
 31
0.0
  0
LINE
  5
3F
330
3B
100
AcDbEntity
  8
0
  6
BYBLOCK
 62
     0
370
    -2
100
AcDbLine
 10
-1.0
 20
0.1666666666666666
 30
0.0
 11
-1.0
 21
-0.1666666666666666
 31
0.0
  0
ENDBLK
  5
40
330
3B
100
AcDbEntity
  8
0
100
AcDbBlockEnd
  0
BLOCK
  5
42
330
41
100
AcDbEntity
  8
0
100
AcDbBlockBegin
  2
_DOTBLANK
 70
     0
 10
0.0
 20
0.0
 30
0.0
  3
_DOTBLANK
  1

  0
CIRCLE
  5
43
330
41
100
AcDbEntity
  8
0
  6
BYBLOCK
 62
     0
370
    -2
100
AcDbCircle
 10
0.0
 20
0.0
 30
0.0
 40
0.5
  0
LINE
  5
44
330
41
100
AcDbEntity
  8
0
  6
BYBLOCK
 62
     0
370
    -2
100
AcDbLine
 10
-0.5
 20
0.0
 30
0.0
 11
-1.0
 21
0.0
 31
0.0
  0
ENDBLK
  5
45
330
41
100
AcDbEntity
  8
0
100
AcDbBlockEnd
  0
ENDSEC
  0
SECTION
  2
ENTITIES
  0
MTEXT
  5
46
100
AcDbEntity
  8
A8
  6
CONTINUOUS
 62
3
100
AcDbMText
 10
9.999997526638502
 20
18.00000076076889
 30
0.000000000000000
 40
3.000000000000000
 41
0.000000000000000
 44
0.6739999771118164
 71
     7
 72
     1
  1
{\H0.94x;{TYPE No.TCA-420R-U32}}
 11
1.000000000000000
 21
0.000000000000000
 31
0.000000000000000
  7
STANDARD
  0
POINT
  5
47
100
AcDbEntity
  8
A0
  6
CONTINUOUS
 62
3
100
AcDbPoint
 10
9.999997526638502
 20
18.00000076076889
 30
0.000000000000000
  0
CIRCLE
  5
48
100
AcDbEntity
  8
A1
  6
CONTINUOUS
 62
7
100
AcDbCircle
 10
109.5920274173314
 20
107.5920274173315
 30
0.000000000000000
 40
2.995920822526525
  0
CIRCLE
  5
49
100
AcDbEntity
  8
A1
  6
CONTINUOUS
 62
7
100
AcDbCircle
 10
109.5920274173314
 20
107.5920274173315
 30
0.000000000000000
 40
1.254020651747298
  0
ARC
  5
4A
100
AcDbEntity
  8
A1
  6
CONTINUOUS
 62
7
100
AcDbCircle
 10
109.5920276466881
 20
106.5920275649650
 30
0.000000000000000
 40
5.000000147633511
100
AcDbArc
 50
199.3535179764600
 51
340.6463970052005
  0
ARC
  5
4B
100
AcDbEntity
  8
A1
  6
CONTINUOUS
 62
7
100
AcDbCircle
 10
96.59202741731767
 20
131.4920284173245
 30
0.000000000000000
 40
0.5000000000137668
100
AcDbArc
 50
7.979376000000000e-10
 51
90.00029999842272
  0
ARC
  5
4C
100
AcDbEntity
  8
A1
  6
CONTINUOUS
 62
7
100
AcDbCircle
 10
122.5920274173313
 20
131.4920284173316
 30
0.000000000000000
 40
0.4999999999998224
100
AcDbArc
 50
89.99999999997965
 51
180.0000000000147
  0
LINE
  5
4D
100
AcDbEntity
  8
A1
  6
CONTINUOUS
 62
7
100
AcDbLine
 10
96.59202479933757
 20
133.5920274173315
 30
0.000000000000000
 11
97.93605422628255
 21
133.5920274173315
 31
0.000000000000000
  0
LINE
  5
4E
100
AcDbEntity
  8
A1
  6
CONTINUOUS
 62
7
100
AcDbLine
 10
121.5059099374037
 20
133.5920274173315
 30
0.000000000000000
 11
122.5920274173313
 21
133.5920274173315
 31
0.000000000000000
  0
LINE
  5
4F
100
AcDbEntity
  8
A1
  6
CONTINUOUS
 62
7
100
AcDbLine
 10
97.94752442959384
 20
133.5916880454486
 30
0.000000000000000
 11
121.4923921550258
 21
133.5917350878017
 31
0.000000000000000
  0
LINE
  5
50
100
AcDbEntity
  8
A1
  6
CONTINUOUS
 62
7
100
AcDbLine
 10
91.59202741733137
 20
131.9920284173314
 30
0.000000000000000
 11
96.59202479933757
 21
131.9920284173314
 31
0.000000000000000
  0
LINE
  5
51
100
AcDbEntity
  8
A1
  6
CONTINUOUS
 62
7
100
AcDbLine
 10
91.59202741733137
 20
133.5920274173315
 30
0.000000000000000
 11
96.59202479933757
 21
133.5920274173315
 31
0.000000000000000
  0
LINE
  5
52
100
AcDbEntity
  8
A1
  6
CONTINUOUS
 62
7
100
AcDbLine
 10
91.59202741733137
 20
131.9920284173314
 30
0.000000000000000
 11
91.59202741733137
 21
133.5920274173315
 31
0.000000000000000
  0
LINE
  5
53
100
AcDbEntity
  8
A1
  6
CONTINUOUS
 62
7
100
AcDbLine
 10
122.5920274173313
 20
133.5920274173315
 30
0.000000000000000
 11
127.5920274173295
 21
133.5920274173315
 31
0.000000000000000
  0
LINE
  5
54
100
AcDbEntity
  8
A1
  6
CONTINUOUS
 62
7
100
AcDbLine
 10
122.5920274173313
 20
131.9920284173314
 30
0.000000000000000
 11
127.5920274173295
 21
131.9920284173314
 31
0.000000000000000
  0
LINE
  5
55
100
AcDbEntity
  8
A1
  6
CONTINUOUS
 62
7
100
AcDbLine
 10
127.5920274173295
 20
131.9920284173314
 30
0.000000000000000
 11
127.5920274173295
 21
133.5920274173315
 31
0.000000000000000
  0
LINE
  5
56
100
AcDbEntity
  8
A1
  6
CONTINUOUS
 62
7
100
AcDbLine
 10
122.0920274173313
 20
127.0920274173315
 30
0.000000000000000
 11
122.0920274173313
 21
131.4920284173315
 31
0.000000000000000
  0
LINE
  5
57
100
AcDbEntity
  8
A1
  6
CONTINUOUS
 62
7
100
AcDbLine
 10
104.8745684173314
 20
104.9350484173314
 30
0.000000000000000
 11
97.09202541733136
 21
127.0920294173315
 31
0.000000000000000
  0
LINE
  5
58
100
AcDbEntity
  8
A1
  6
CONTINUOUS
 62
7
100
AcDbLine
 10
122.0920274173314
 20
127.0920274173315
 30
0.000000000000000
 11
114.3094844173311
 21
104.9350414173316
 31
0.000000000000000
  0
LINE
  5
59
100
AcDbEntity
  8
A1
  6
CONTINUOUS
 62
7
100
AcDbLine
 10
97.09202541733133
 20
127.0920294173315
 30
0.000000000000000
 11
97.09202741733135
 21
131.4920284173315
 31
0.000000000000000
  0
ARC
  5
5A
100
AcDbEntity
  8
A1
  6
CONTINUOUS
 62
7
100
AcDbCircle
 10
109.5920274173314
 20
107.5920274173315
 30
0.000000000000000
 40
16.00000000000000
100
AcDbArc
 50
128.8174693652476
 51
270.0000000000000
  0
ARC
  5
5B
100
AcDbEntity
  8
A1
  6
CONTINUOUS
 62
7
100
AcDbCircle
 10
109.5920274173314
 20
107.5920274173315
 30
0.000000000000000
 40
16.00000000000000
100
AcDbArc
 50
270.0000000000000
 51
411.1825358637910
  0
ARC
  5
5C
100
AcDbEntity
  8
A1
  6
CONTINUOUS
 62
7
100
AcDbCircle
 10
109.5920274173314
 20
107.5920274173315
 30
0.000000000000000
 40
10.50000000000000
100
AcDbArc
 50
139.8678170138136
 51
270.0000000000000
  0
ARC
  5
5D
100
AcDbEntity
  8
A1
  6
CONTINUOUS
 62
7
100
AcDbCircle
 10
109.5920274173314
 20
107.5920274173315
 30
0.000000000000000
 40
10.50000000000000
100
AcDbArc
 50
270.0000000000000
 51
400.1321873877868
  0
ARC
  5
5E
100
AcDbEntity
  8
A1
  6
CONTINUOUS
 62
7
100
AcDbCircle
 10
109.5920274173314
 20
107.5920274173315
 30
0.000000000000000
 40
11.00000000000000
100
AcDbArc
 50
138.3446181291304
 51
270.0000000000000
  0
ARC
  5
5F
100
AcDbEntity
  8
A1
  6
CONTINUOUS
 62
7
100
AcDbCircle
 10
109.5920274173314
 20
107.5920274173315
 30
0.000000000000000
 40
11.00000000000000
100
AcDbArc
 50
270.0000000000000
 51
401.6553863961634
  0
ARC
  5
60
100
AcDbEntity
  8
A1
  6
CONTINUOUS
 62
7
100
AcDbCircle
 10
109.5920274173314
 20
107.5920274173315
 30
0.000000000000000
 40
6.337696000000110
100
AcDbArc
 50
166.6227843570045
 51
270.0000000000000
  0
ARC
  5
61
100
AcDbEntity
  8
A1
  6
CONTINUOUS
 62
7
100
AcDbCircle
 10
109.5920274173314
 20
107.5920274173315
 30
0.000000000000000
 40
6.337696000000110
100
AcDbArc
 50
270.0000000000000
 51
373.3772166557499
  0
ARC
  5
62
100
AcDbEntity
  8
A1
  6
CONTINUOUS
 62
7
100
AcDbCircle
 10
164.0759408346627
 20
107.5759824173315
 30
0.000000000000000
 40
6.602129000000000
100
AcDbArc
 50
0.1392447326059674
 51
22.83601000000020
  0
ARC
  5
63
100
AcDbEntity
  8
A1
  6
CONTINUOUS
 62
7
100
AcDbCircle
 10
164.0759408346627
 20
107.6080724173315
 30
0.000000000000000
 40
6.602129000000000
100
AcDbArc
 50
337.1639899999998
 51
359.8607552673940
  0
ARC
  5
64
100
AcDbEntity
  8
A1
  6
CONTINUOUS
 62
7
100
AcDbCircle
 10
169.9762654141258
 20
105.1234442425111
 30
0.000000000000000
 40
0.2000076445552025
100
AcDbArc
 50
240.9092497440653
 51
337.1627664914899
  0
ARC
  5
65
100
AcDbEntity
  8
A1
  6
CONTINUOUS
 62
7
100
AcDbCircle
 10
169.9762654141258
 20
110.0606105921518
 30
0.000000000000000
 40
0.2000076445552025
100
AcDbArc
 50
22.83723350851022
 51
119.0907502559347
  0
ARC
  5
66
100
AcDbEntity
  8
A1
  6
CONTINUOUS
 62
7
100
AcDbCircle
 10
150.7196358346628
 20
107.5920274173315
 30
0.000000000000000
 40
3.366533000000000
100
AcDbArc
 50
117.1377080528506
 51
158.1303547911434
  0
ARC
  5
67
100
AcDbEntity
  8
A1
  6
CONTINUOUS
 62
7
100
AcDbCircle
 10
150.7196358346628
 20
107.5920274173315
 30
0.000000000000000
 40
3.366533000000000
100
AcDbArc
 50
201.8696452088567
 51
242.8622919471494
  0
LINE
  5
68
100
AcDbEntity
  8
A1
  6
CONTINUOUS
 62
7
100
AcDbLine
 10
147.5920274173313
 20
107.5920274173315
 30
0.000000000000000
 11
147.5953796599740
 21
106.3380067655887
 31
0.000000000000000
  0
LINE
  5
69
100
AcDbEntity
  8
A1
  6
CONTINUOUS
 62
7
100
AcDbLine
 10
147.5953796599740
 20
108.8460480690743
 30
0.000000000000000
 11
147.5920274173313
 21
107.5920274173315
 31
0.000000000000000
  0
LINE
  5
6A
100
AcDbEntity
  8
A1
  6
CONTINUOUS
 62
7
100
AcDbLine
 10
151.1840548346628
 20
109.9920274173315
 30
0.000000000000000
 11
150.7840548346628
 21
109.9920274173315
 31
0.000000000000000
  0
LINE
  5
6B
100
AcDbEntity
  8
A1
  6
CONTINUOUS
 62
7
100
AcDbLine
 10
167.5840548346627
 20
109.9920274173315
 30
0.000000000000000
 11
167.1840548346627
 21
109.9920274173315
 31
0.000000000000000
  0
LINE
  5
6C
100
AcDbEntity
  8
A1
  6
CONTINUOUS
 62
7
100
AcDbLine
 10
167.1840548346627
 20
105.1920274173315
 30
0.000000000000000
 11
167.5840548346627
 21
105.1920274173315
 31
0.000000000000000
  0
LINE
  5
6D
100
AcDbEntity
  8
A1
  6
CONTINUOUS
 62
7
100
AcDbLine
 10
150.7840548346628
 20
105.1920274173315
 30
0.000000000000000
 11
151.1840548346628
 21
105.1920274173315
 31
0.000000000000000
  0
LINE
  5
6E
100
AcDbEntity
  8
A1
  6
CONTINUOUS
 62
7
100
AcDbLine
 10
169.1840528346628
 20
105.3353358179046
 30
0.000000000000000
 11
169.8790228346627
 21
104.9486674173315
 31
0.000000000000000
  0
LINE
  5
6F
100
AcDbEntity
  8
A1
  6
CONTINUOUS
 62
7
100
AcDbLine
 10
169.8790228346627
 20
110.2353874173315
 30
0.000000000000000
 11
169.1840528346628
 21
109.8487190167584
 31
0.000000000000000
  0
LINE
  5
70
100
AcDbEntity
  8
A1
  6
CONTINUOUS
 62
7
100
AcDbLine
 10
170.1605911256720
 20
110.1382349748991
 30
0.000000000000000
 11
170.1605911256720
 21
105.0458198597638
 31
0.000000000000000
  0
LINE
  5
71
100
AcDbEntity
  8
A1
  6
CONTINUOUS
 62
7
100
AcDbLine
 10
147.5953796599741
 20
108.8460480690788
 30
0.000000000000000
 11
147.5953796599741
 21
106.3380067655842
 31
0.000000000000000
  0
LINE
  5
72
100
AcDbEntity
  8
A1
  6
CONTINUOUS
 62
7
100
AcDbLine
 10
167.5840548346627
 20
101.5920274173315
 30
0.000000000000000
 11
169.1840548346627
 21
101.5920274173315
 31
0.000000000000000
  0
LINE
  5
73
100
AcDbEntity
  8
A1
  6
CONTINUOUS
 62
7
100
AcDbLine
 10
169.1840548346627
 20
101.5920274173315
 30
0.000000000000000
 11
169.1840548346627
 21
104.9350414173316
 31
0.000000000000000
  0
LINE
  5
74
100
AcDbEntity
  8
A1
  6
CONTINUOUS
 62
7
100
AcDbLine
 10
167.5840548346627
 20
101.5920274173315
 30
0.000000000000000
 11
167.5840548346627
 21
104.9350414173316
 31
0.000000000000000
  0
LINE
  5
75
100
AcDbEntity
  8
A1
  6
CONTINUOUS
 62
7
100
AcDbLine
 10
150.7840548346628
 20
104.9350414173316
 30
0.000000000000000
 11
150.7840548346628
 21
101.5920274173315
 31
0.000000000000000
  0
LINE
  5
76
100
AcDbEntity
  8
A1
  6
CONTINUOUS
 62
7
100
AcDbLine
 10
149.1840548346628
 20
101.5920274173315
 30
0.000000000000000
 11
150.7840548346628
 21
101.5920274173315
 31
0.000000000000000
  0
LINE
  5
77
100
AcDbEntity
  8
A1
  6
CONTINUOUS
 62
7
100
AcDbLine
 10
149.1840548346627
 20
101.5920274173315
 30
0.000000000000000
 11
149.1840548346627
 21
104.9350414173316
 31
0.000000000000000
  0
LINE
  5
78
100
AcDbEntity
  8
A1
  6
CONTINUOUS
 62
7
100
AcDbLine
 10
149.1840548346625
 20
127.0920274173315
 30
0.000000000000000
 11
149.1840548346626
 21
104.9350414173316
 31
0.000000000000000
  0
LINE
  5
79
100
AcDbEntity
  8
A1
  6
CONTINUOUS
 62
7
100
AcDbLine
 10
150.7840548346628
 20
104.9350414173316
 30
0.000000000000000
 11
150.7840548346628
 21
127.0920274173315
 31
0.000000000000000
  0
LINE
  5
7A
100
AcDbEntity
  8
A1
  6
CONTINUOUS
 62
7
100
AcDbLine
 10
169.1840548346627
 20
127.0920274173315
 30
0.000000000000000
 11
169.1840548346627
 21
104.9350414173316
 31
0.000000000000000
  0
LINE
  5
7B
100
AcDbEntity
  8
A1
  6
CONTINUOUS
 62
7
100
AcDbLine
 10
167.5840548346627
 20
127.0920274173315
 30
0.000000000000000
 11
167.5840548346627
 21
104.9350414173316
 31
0.000000000000000
  0
LINE
  5
7C
100
AcDbEntity
  8
A1
  6
CONTINUOUS
 62
7
100
AcDbLine
 10
169.1840548346627
 20
127.0920274173315
 30
0.000000000000000
 11
169.1840548346627
 21
131.4920284173315
 31
0.000000000000000
  0
LINE
  5
7D
100
AcDbEntity
  8
A1
  6
CONTINUOUS
 62
7
100
AcDbLine
 10
167.5840548346627
 20
127.0920274173315
 30
0.000000000000000
 11
167.5840548346627
 21
131.9920284173315
 31
0.000000000000000
  0
LINE
  5
7E
100
AcDbEntity
  8
A1
  6
CONTINUOUS
 62
7
100
AcDbLine
 10
169.1840548346627
 20
127.0920274173315
 30
0.000000000000000
 11
167.5840548346627
 21
127.0920274173315
 31
0.000000000000000
  0
LINE
  5
7F
100
AcDbEntity
  8
A1
  6
CONTINUOUS
 62
7
100
AcDbLine
 10
149.1840548346625
 20
127.0920274173315
 30
0.000000000000000
 11
149.1840548346627
 21
131.4920284173315
 31
0.000000000000000
  0
LINE
  5
80
100
AcDbEntity
  8
A1
  6
CONTINUOUS
 62
7
100
AcDbLine
 10
150.7840548346628
 20
127.0920274173315
 30
0.000000000000000
 11
150.7840548346628
 21
131.9920284173314
 31
0.000000000000000
  0
LINE
  5
81
100
AcDbEntity
  8
A1
  6
CONTINUOUS
 62
7
100
AcDbLine
 10
150.7840548346628
 20
127.0920274173315
 30
0.000000000000000
 11
149.1840548346626
 21
127.0920274173315
 31
0.000000000000000
  0
LINE
  5
82
100
AcDbEntity
  8
A1
  6
CONTINUOUS
 62
7
100
AcDbLine
 10
149.1840548346628
 20
131.4920284173315
 30
0.000000000000000
 11
149.1840548346628
 21
131.9920284173314
 31
0.000000000000000
  0
LINE
  5
83
100
AcDbEntity
  8
A1
  6
CONTINUOUS
 62
7
100
AcDbLine
 10
169.1840548346628
 20
131.4920284173315
 30
0.000000000000000
 11
169.1840548346624
 21
131.9920284173314
 31
0.000000000000000
  0
LINE
  5
84
100
AcDbEntity
  8
A1
  6
CONTINUOUS
 62
7
100
AcDbLine
 10
164.1840548346626
 20
131.9920284173314
 30
0.000000000000000
 11
169.1840548346624
 21
131.9920284173314
 31
0.000000000000000
  0
LINE
  5
85
100
AcDbEntity
  8
A1
  6
CONTINUOUS
 62
7
100
AcDbLine
 10
164.1840548346626
 20
133.5920274173315
 30
0.000000000000000
 11
169.1840548346624
 21
133.5920274173315
 31
0.000000000000000
  0
LINE
  5
86
100
AcDbEntity
  8
A1
  6
CONTINUOUS
 62
7
100
AcDbLine
 10
169.1840548346624
 20
131.9920284173314
 30
0.000000000000000
 11
169.1840548346624
 21
133.5920274173315
 31
0.000000000000000
  0
LINE
  5
87
100
AcDbEntity
  8
A1
  6
CONTINUOUS
 62
7
100
AcDbLine
 10
154.1840504713395
 20
133.5920274173315
 30
0.000000000000000
 11
164.1840548346626
 21
133.5920274173315
 31
0.000000000000000
  0
LINE
  5
88
100
AcDbEntity
  8
A1
  6
CONTINUOUS
 62
7
100
AcDbLine
 10
154.1840504713395
 20
131.9920284173314
 30
0.000000000000000
 11
164.1840548346626
 21
131.9920284173314
 31
0.000000000000000
  0
LINE
  5
89
100
AcDbEntity
  8
A1
  6
CONTINUOUS
 62
7
100
AcDbLine
 10
149.1840548346627
 20
133.5920274173315
 30
0.000000000000000
 11
154.1840504713395
 21
133.5920274173315
 31
0.000000000000000
  0
LINE
  5
8A
100
AcDbEntity
  8
A1
  6
CONTINUOUS
 62
7
100
AcDbLine
 10
149.1840548346628
 20
131.9920284173314
 30
0.000000000000000
 11
149.1840548346628
 21
133.5920274173315
 31
0.000000000000000
  0
LINE
  5
8B
100
AcDbEntity
  8
A1
  6
CONTINUOUS
 62
7
100
AcDbLine
 10
149.1840548346627
 20
131.9920284173314
 30
0.000000000000000
 11
154.1840504713395
 21
131.9920284173314
 31
0.000000000000000
  0
ARC
  5
8C
100
AcDbEntity
  8
A1
  6
CONTINUOUS
 62
7
100
AcDbCircle
 10
152.1840548346627
 20
112.9297234173316
 30
0.000000000000000
 40
1.000000000000000
100
AcDbArc
 50
90.00000000000000
 51
180.0000000000000
  0
ARC
  5
8D
100
AcDbEntity
  8
A1
  6
CONTINUOUS
 62
7
100
AcDbCircle
 10
152.1840548346627
 20
102.2543314173314
 30
0.000000000000000
 40
1.000000000000000
100
AcDbArc
 50
180.0000000000000
 51
270.0000000000000
  0
ARC
  5
8E
100
AcDbEntity
  8
A1
  6
CONTINUOUS
 62
7
100
AcDbCircle
 10
166.1840548346627
 20
112.9297234173316
 30
0.000000000000000
 40
1.000000000000000
100
AcDbArc
 50
5.090000000000000e-14
 51
90.00000000000000
  0
ARC
  5
8F
100
AcDbEntity
  8
A1
  6
CONTINUOUS
 62
7
100
AcDbCircle
 10
166.1840548346627
 20
102.2543314173314
 30
0.000000000000000
 40
1.000000000000000
100
AcDbArc
 50
270.0000000000000
 51
360.0000000000001
  0
ARC
  5
90
100
AcDbEntity
  8
A1
  6
CONTINUOUS
 62
7
100
AcDbCircle
 10
165.1840555794040
 20
122.0058406809964
 30
0.000000000000000
 40
0.9999992552587780
100
AcDbArc
 50
359.9999848930993
 51
438.8400941127215
  0
ARC
  5
91
100
AcDbEntity
  8
A1
  6
CONTINUOUS
 62
7
100
AcDbCircle
 10
165.1840555794040
 20
93.17821415366663
 30
0.000000000000000
 40
0.9999992552587780
100
AcDbArc
 50
281.1599058872785
 51
360.0000151069007
  0
ARC
  5
92
100
AcDbEntity
  8
A1
  6
CONTINUOUS
 62
7
100
AcDbCircle
 10
153.1840540899215
 20
122.0058406809964
 30
0.000000000000000
 40
0.9999992552587780
100
AcDbArc
 50
101.1599058872779
 51
180.0000000000000
  0
ARC
  5
93
100
AcDbEntity
  8
A1
  6
CONTINUOUS
 62
7
100
AcDbCircle
 10
153.1840540899215
 20
93.17821415366663
 30
0.000000000000000
 40
0.9999992552587780
100
AcDbArc
 50
180.0000000000000
 51
258.8400941127221
  0
ARC
  5
94
100
AcDbEntity
  8
A1
  6
CONTINUOUS
 62
7
100
AcDbCircle
 10
159.1840548346627
 20
123.5920274173315
 30
0.000000000000000
 40
32.00000000000000
100
AcDbArc
 50
258.8400629999998
 51
281.1599370000001
  0
ARC
  5
95
100
AcDbEntity
  8
A1
  6
CONTINUOUS
 62
7
100
AcDbCircle
 10
159.1840548346627
 20
91.59202741733148
 30
0.000000000000000
 40
32.00000000000000
100
AcDbArc
 50
78.84006299999973
 51
101.1599370000003
  0
LINE
  5
96
100
AcDbEntity
  8
A1
  6
CONTINUOUS
 62
7
100
AcDbLine
 10
151.1840548346628
 20
102.2543314173314
 30
0.000000000000000
 11
151.1840548346628
 21
112.9297234173316
 31
0.000000000000000
  0
LINE
  5
97
100
AcDbEntity
  8
A1
  6
CONTINUOUS
 62
7
100
AcDbLine
 10
167.1840548346627
 20
102.2543314173314
 30
0.000000000000000
 11
167.1840548346627
 21
112.9297234173316
 31
0.000000000000000
  0
LINE
  5
98
100
AcDbEntity
  8
A1
  6
CONTINUOUS
 62
7
100
AcDbLine
 10
166.1840548346627
 20
93.17821441733159
 30
0.000000000000000
 11
166.1840548346627
 21
122.0058404172580
 31
0.000000000000000
  0
LINE
  5
99
100
AcDbEntity
  8
A1
  6
CONTINUOUS
 62
7
100
AcDbLine
 10
152.1840548346627
 20
93.17821415366663
 30
0.000000000000000
 11
152.1840548346627
 21
122.0058406809229
 31
0.000000000000000
  0
ARC
  5
9A
100
AcDbEntity
  8
A1
  6
CONTINUOUS
 62
7
100
AcDbCircle
 10
109.6080724173314
 20
170.0759408346628
 30
0.000000000000000
 40
6.602129000000000
100
AcDbArc
 50
90.13924473260597
 51
112.8360100000002
  0
ARC
  5
9B
100
AcDbEntity
  8
A1
  6
CONTINUOUS
 62
7
100
AcDbCircle
 10
109.5759824173313
 20
170.0759408346628
 30
0.000000000000000
 40
6.602129000000000
100
AcDbArc
 50
67.16398999999979
 51
89.86075526739408
  0
ARC
  5
9C
100
AcDbEntity
  8
A1
  6
CONTINUOUS
 62
7
100
AcDbCircle
 10
112.0606105921518
 20
175.9762654141259
 30
0.000000000000000
 40
0.2000076445552025
100
AcDbArc
 50
330.9092497440653
 51
427.1627664914898
  0
ARC
  5
9D
100
AcDbEntity
  8
A1
  6
CONTINUOUS
 62
7
100
AcDbCircle
 10
107.1234442425111
 20
175.9762654141259
 30
0.000000000000000
 40
0.2000076445552025
100
AcDbArc
 50
112.8372335085103
 51
209.0907502559347
  0
ARC
  5
9E
100
AcDbEntity
  8
A1
  6
CONTINUOUS
 62
7
100
AcDbCircle
 10
109.5920274173314
 20
156.7196358346628
 30
0.000000000000000
 40
3.366533000000000
100
AcDbArc
 50
207.1377080528506
 51
248.1303547911434
  0
ARC
  5
9F
100
AcDbEntity
  8
A1
  6
CONTINUOUS
 62
7
100
AcDbCircle
 10
109.5920274173314
 20
156.7196358346628
 30
0.000000000000000
 40
3.366533000000000
100
AcDbArc
 50
291.8696452088566
 51
332.8622919471494
  0
LINE
  5
A0
100
AcDbEntity
  8
A1
  6
CONTINUOUS
 62
7
100
AcDbLine
 10
109.5920274173313
 20
153.5920274173315
 30
0.000000000000000
 11
110.8460480690741
 21
153.5953796599741
 31
0.000000000000000
  0
LINE
  5
A1
100
AcDbEntity
  8
A1
  6
CONTINUOUS
 62
7
100
AcDbLine
 10
108.3380067655885
 20
153.5953796599741
 30
0.000000000000000
 11
109.5920274173314
 21
153.5920274173315
 31
0.000000000000000
  0
LINE
  5
A2
100
AcDbEntity
  8
A1
  6
CONTINUOUS
 62
7
100
AcDbLine
 10
111.8487190167582
 20
175.1840528346629
 30
0.000000000000000
 11
112.2353874173313
 21
175.8790228346627
 31
0.000000000000000
  0
LINE
  5
A3
100
AcDbEntity
  8
A1
  6
CONTINUOUS
 62
7
100
AcDbLine
 10
106.9486674173314
 20
175.8790228346627
 30
0.000000000000000
 11
107.3353358179046
 21
175.1840528346628
 31
0.000000000000000
  0
LINE
  5
A4
100
AcDbEntity
  8
A1
  6
CONTINUOUS
 62
7
100
AcDbLine
 10
109.5920274173314
 20
176.1605911256721
 30
0.000000000000000
 11
112.1382349748991
 21
176.1605911256721
 31
0.000000000000000
  0
LINE
  5
A5
100
AcDbEntity
  8
A1
  6
CONTINUOUS
 62
7
100
AcDbLine
 10
107.0458198597638
 20
176.1605911256721
 30
0.000000000000000
 11
109.5920274173314
 21
176.1605911256721
 31
0.000000000000000
  0
LINE
  5
A6
100
AcDbEntity
  8
A1
  6
CONTINUOUS
 62
7
100
AcDbLine
 10
109.5920274173314
 20
153.5953796599741
 30
0.000000000000000
 11
110.8460480690788
 21
153.5953796599741
 31
0.000000000000000
  0
LINE
  5
A7
100
AcDbEntity
  8
A1
  6
CONTINUOUS
 62
7
100
AcDbLine
 10
108.3380067655841
 20
153.5953796599741
 30
0.000000000000000
 11
109.5920274173314
 21
153.5953796599741
 31
0.000000000000000
  0
CIRCLE
  5
A8
100
AcDbEntity
  8
A1
  6
CONTINUOUS
 62
7
100
AcDbCircle
 10
124.0920274173313
 20
165.1840548346628
 30
0.000000000000000
 40
2.100000000000000
  0
CIRCLE
  5
A9
100
AcDbEntity
  8
A1
  6
CONTINUOUS
 62
7
100
AcDbCircle
 10
95.09202741733137
 20
165.1840548346628
 30
0.000000000000000
 40
2.100000000000000
  0
ARC
  5
AA
100
AcDbEntity
  8
A1
  6
CONTINUOUS
 62
7
100
AcDbCircle
 10
96.59202741733137
 20
170.1840548346627
 30
0.000000000000000
 40
5.000000000000000
100
AcDbArc
 50
90.00000000000000
 51
180.0000000000000
  0
ARC
  5
AB
100
AcDbEntity
  8
A1
  6
CONTINUOUS
 62
7
100
AcDbCircle
 10
96.59202741733137
 20
160.1840548346627
 30
0.000000000000000
 40
5.000000000000000
100
AcDbArc
 50
180.0000000000000
 51
269.9999700000000
  0
ARC
  5
AC
100
AcDbEntity
  8
A1
  6
CONTINUOUS
 62
7
100
AcDbCircle
 10
122.5920274173313
 20
160.1840548346627
 30
0.000000000000000
 40
5.000000000000000
100
AcDbArc
 50
270.0000000000000
 51
359.9999500000001
  0
ARC
  5
AD
100
AcDbEntity
  8
A1
  6
CONTINUOUS
 62
7
100
AcDbCircle
 10
122.5920274173313
 20
170.1840548346627
 30
0.000000000000000
 40
5.000000000000000
100
AcDbArc
 50
0.000000000000000
 51
89.99998200000013
  0
LINE
  5
AE
100
AcDbEntity
  8
A1
  6
CONTINUOUS
 62
7
100
AcDbLine
 10
121.5920274173313
 20
159.2840528346628
 30
0.000000000000000
 11
97.59202741733137
 21
159.2840528346628
 31
0.000000000000000
  0
LINE
  5
AF
100
AcDbEntity
  8
A1
  6
CONTINUOUS
 62
7
100
AcDbLine
 10
121.5920274173313
 20
158.8840558346626
 30
0.000000000000000
 11
121.5920274173313
 21
159.2840528346628
 31
0.000000000000000
  0
LINE
  5
B0
100
AcDbEntity
  8
A1
  6
CONTINUOUS
 62
7
100
AcDbLine
 10
97.59202741733137
 20
158.8840558346626
 30
0.000000000000000
 11
121.5920274173313
 21
158.8840558346626
 31
0.000000000000000
  0
LINE
  5
B1
100
AcDbEntity
  8
A1
  6
CONTINUOUS
 62
7
100
AcDbLine
 10
127.5920274173294
 20
160.1840504713396
 30
0.000000000000000
 11
127.5920274173314
 21
170.1840548346627
 31
0.000000000000000
  0
LINE
  5
B2
100
AcDbEntity
  8
A1
  6
CONTINUOUS
 62
7
100
AcDbLine
 10
97.59202741733137
 20
171.4840538346626
 30
0.000000000000000
 11
97.59202741733137
 21
171.0840568346628
 31
0.000000000000000
  0
LINE
  5
B3
100
AcDbEntity
  8
A1
  6
CONTINUOUS
 62
7
100
AcDbLine
 10
97.59202741733137
 20
159.2840528346628
 30
0.000000000000000
 11
97.59202741733137
 21
158.8840558346626
 31
0.000000000000000
  0
LINE
  5
B4
100
AcDbEntity
  8
A1
  6
CONTINUOUS
 62
7
100
AcDbLine
 10
91.59202741733137
 20
170.1840548346627
 30
0.000000000000000
 11
91.59202741733137
 21
160.1840548346627
 31
0.000000000000000
  0
LINE
  5
B5
100
AcDbEntity
  8
A1
  6
CONTINUOUS
 62
7
100
AcDbLine
 10
97.59202741733137
 20
171.0840568346628
 30
0.000000000000000
 11
121.5920274173313
 21
171.0840568346628
 31
0.000000000000000
  0
LINE
  5
B6
100
AcDbEntity
  8
A1
  6
CONTINUOUS
 62
7
100
AcDbLine
 10
121.5920274173313
 20
171.0840568346628
 30
0.000000000000000
 11
121.5920274173313
 21
171.4840538346626
 31
0.000000000000000
  0
LINE
  5
B7
100
AcDbEntity
  8
A1
  6
CONTINUOUS
 62
7
100
AcDbLine
 10
121.5920274173313
 20
171.4840538346626
 30
0.000000000000000
 11
97.59202741733137
 21
171.4840538346626
 31
0.000000000000000
  0
LINE
  5
B8
100
AcDbEntity
  8
A1
  6
CONTINUOUS
 62
7
100
AcDbLine
 10
97.93605680921314
 20
175.1840548346628
 30
0.000000000000000
 11
96.59202741733137
 21
175.1840548346628
 31
0.000000000000000
  0
LINE
  5
B9
100
AcDbEntity
  8
A1
  6
CONTINUOUS
 62
7
100
AcDbLine
 10
122.5920289881278
 20
175.1840548346628
 30
0.000000000000000
 11
121.5059116809012
 21
175.1840548346628
 31
0.000000000000000
  0
LINE
  5
BA
100
AcDbEntity
  8
A1
  6
CONTINUOUS
 62
7
100
AcDbLine
 10
97.94752701557010
 20
175.1837154629553
 30
0.000000000000000
 11
121.4923938946776
 21
175.1837625048710
 31
0.000000000000000
  0
LINE
  5
BB
100
AcDbEntity
  8
A1
  6
CONTINUOUS
 62
7
100
AcDbLine
 10
122.5920274173313
 20
155.1840548346628
 30
0.000000000000000
 11
96.59202479933755
 21
155.1840548346634
 31
0.000000000000000
  0
ARC
  5
BC
100
AcDbEntity
  8
A1
  6
CONTINUOUS
 62
7
100
AcDbCircle
 10
93.59202741733137
 20
165.1840548346628
 30
0.000000000000000
 40
32.00000000000000
100
AcDbArc
 50
357.3043428515419
 51
362.6956571484581
  0
ARC
  5
BD
100
AcDbEntity
  8
A1
  6
CONTINUOUS
 62
7
100
AcDbCircle
 10
125.5920274173313
 20
165.1840548346628
 30
0.000000000000000
 40
32.00000000000000
100
AcDbArc
 50
177.3043428515419
 51
182.6956571484581
  0
ARC
  5
BE
100
AcDbEntity
  8
A1
  6
CONTINUOUS
 62
7
100
AcDbCircle
 10
55.10811400000006
 20
107.6080724173315
 30
0.000000000000000
 40
6.602129000000000
100
AcDbArc
 50
180.1392447326058
 51
202.8360100000003
  0
ARC
  5
BF
100
AcDbEntity
  8
A1
  6
CONTINUOUS
 62
7
100
AcDbCircle
 10
55.10811400000006
 20
107.5759824173315
 30
0.000000000000000
 40
6.602129000000000
100
AcDbArc
 50
157.1639899999997
 51
179.8607552673940
  0
ARC
  5
C0
100
AcDbEntity
  8
A1
  6
CONTINUOUS
 62
7
100
AcDbCircle
 10
49.20778942053695
 20
110.0606105921518
 30
0.000000000000000
 40
0.2000076445552025
100
AcDbArc
 50
60.90924974406533
 51
157.1627664914900
  0
ARC
  5
C1
100
AcDbEntity
  8
A1
  6
CONTINUOUS
 62
7
100
AcDbCircle
 10
49.20778942053695
 20
105.1234442425111
 30
0.000000000000000
 40
0.2000076445552025
100
AcDbArc
 50
202.8372335085104
 51
299.0907502559346
  0
ARC
  5
C2
100
AcDbEntity
  8
A1
  6
CONTINUOUS
 62
7
100
AcDbCircle
 10
68.46441900000005
 20
107.5920274173315
 30
0.000000000000000
 40
3.366533000000000
100
AcDbArc
 50
297.1377080528507
 51
338.1303547911433
  0
ARC
  5
C3
100
AcDbEntity
  8
A1
  6
CONTINUOUS
 62
7
100
AcDbCircle
 10
68.46441900000005
 20
107.5920274173315
 30
0.000000000000000
 40
3.366533000000000
100
AcDbArc
 50
21.86964520885660
 51
62.86229194714944
  0
LINE
  5
C4
100
AcDbEntity
  8
A1
  6
CONTINUOUS
 62
7
100
AcDbLine
 10
71.59202741733139
 20
107.5920274173315
 30
0.000000000000000
 11
71.58867517468877
 21
108.8460480690743
 31
0.000000000000000
  0
LINE
  5
C5
100
AcDbEntity
  8
A1
  6
CONTINUOUS
 62
7
100
AcDbLine
 10
71.58867517468870
 20
106.3380067655887
 30
0.000000000000000
 11
71.59202741733132
 21
107.5920274173315
 31
0.000000000000000
  0
LINE
  5
C6
100
AcDbEntity
  8
A1
  6
CONTINUOUS
 62
7
100
AcDbLine
 10
68.00000000000006
 20
105.1920274173315
 30
0.000000000000000
 11
68.40000000000006
 21
105.1920274173315
 31
0.000000000000000
  0
LINE
  5
C7
100
AcDbEntity
  8
A1
  6
CONTINUOUS
 62
7
100
AcDbLine
 10
51.60000000000005
 20
105.1920274173315
 30
0.000000000000000
 11
52.00000000000006
 21
105.1920274173315
 31
0.000000000000000
  0
LINE
  5
C8
100
AcDbEntity
  8
A1
  6
CONTINUOUS
 62
7
100
AcDbLine
 10
52.00000000000006
 20
109.9920274173315
 30
0.000000000000000
 11
51.60000000000005
 21
109.9920274173315
 31
0.000000000000000
  0
LINE
  5
C9
100
AcDbEntity
  8
A1
  6
CONTINUOUS
 62
7
100
AcDbLine
 10
68.40000000000006
 20
109.9920274173315
 30
0.000000000000000
 11
68.00000000000006
 21
109.9920274173315
 31
0.000000000000000
  0
LINE
  5
CA
100
AcDbEntity
  8
A1
  6
CONTINUOUS
 62
7
100
AcDbLine
 10
50.00000200000004
 20
109.8487190167583
 30
0.000000000000000
 11
49.30503200000003
 21
110.2353874173315
 31
0.000000000000000
  0
LINE
  5
CB
100
AcDbEntity
  8
A1
  6
CONTINUOUS
 62
7
100
AcDbLine
 10
49.30503200000003
 20
104.9486674173315
 30
0.000000000000000
 11
50.00000200000007
 21
105.3353358179046
 31
0.000000000000000
  0
LINE
  5
CC
100
AcDbEntity
  8
A1
  6
CONTINUOUS
 62
7
100
AcDbLine
 10
49.02346370899085
 20
105.0458198597638
 30
0.000000000000000
 11
49.02346370899085
 21
110.1382349748991
 31
0.000000000000000
  0
LINE
  5
CD
100
AcDbEntity
  8
A1
  6
CONTINUOUS
 62
7
100
AcDbLine
 10
71.58867517468875
 20
106.3380067655842
 30
0.000000000000000
 11
71.58867517468875
 21
108.8460480690788
 31
0.000000000000000
  0
LINE
  5
CE
100
AcDbEntity
  8
A1
  6
CONTINUOUS
 62
7
100
AcDbLine
 10
70.00000000000014
 20
104.9350484173314
 30
0.000000000000000
 11
70.00000000000014
 21
101.5920274173315
 31
0.000000000000000
  0
LINE
  5
CF
100
AcDbEntity
  8
A1
  6
CONTINUOUS
 62
7
100
AcDbLine
 10
68.40000000000006
 20
101.5920274173315
 30
0.000000000000000
 11
70.00000000000006
 21
101.5920274173315
 31
0.000000000000000
  0
LINE
  5
D0
100
AcDbEntity
  8
A1
  6
CONTINUOUS
 62
7
100
AcDbLine
 10
68.40000000000006
 20
101.5920274173315
 30
0.000000000000000
 11
68.40000000000006
 21
104.9350484173314
 31
0.000000000000000
  0
LINE
  5
D1
100
AcDbEntity
  8
A1
  6
CONTINUOUS
 62
7
100
AcDbLine
 10
50.00000000000006
 20
104.9350484173314
 30
0.000000000000000
 11
50.00000000000006
 21
101.5920274173315
 31
0.000000000000000
  0
LINE
  5
D2
100
AcDbEntity
  8
A1
  6
CONTINUOUS
 62
7
100
AcDbLine
 10
51.60000000000005
 20
104.9350484173313
 30
0.000000000000000
 11
51.60000000000005
 21
101.5920274173315
 31
0.000000000000000
  0
LINE
  5
D3
100
AcDbEntity
  8
A1
  6
CONTINUOUS
 62
7
100
AcDbLine
 10
50.00000000000006
 20
101.5920274173315
 30
0.000000000000000
 11
51.60000000000016
 21
101.5920274173315
 31
0.000000000000000
  0
LINE
  5
D4
100
AcDbEntity
  8
A1
  6
CONTINUOUS
 62
7
100
AcDbLine
 10
50.00000000000006
 20
127.0920294173315
 30
0.000000000000000
 11
50.00000000000006
 21
131.4920284173315
 31
0.000000000000000
  0
LINE
  5
D5
100
AcDbEntity
  8
A1
  6
CONTINUOUS
 62
7
100
AcDbLine
 10
51.60000000000005
 20
127.0920294173315
 30
0.000000000000000
 11
51.60000000000005
 21
131.9920284173314
 31
0.000000000000000
  0
LINE
  5
D6
100
AcDbEntity
  8
A1
  6
CONTINUOUS
 62
7
100
AcDbLine
 10
70.00000000000014
 20
127.0920294173315
 30
0.000000000000000
 11
70.00000000000006
 21
131.4920284173315
 31
0.000000000000000
  0
LINE
  5
D7
100
AcDbEntity
  8
A1
  6
CONTINUOUS
 62
7
100
AcDbLine
 10
68.40000000000006
 20
127.0920294173315
 30
0.000000000000000
 11
68.40000000000006
 21
131.9920284173315
 31
0.000000000000000
  0
LINE
  5
D8
100
AcDbEntity
  8
A1
  6
CONTINUOUS
 62
7
100
AcDbLine
 10
50.00000000000006
 20
104.9350484173314
 30
0.000000000000000
 11
50.00000000000006
 21
127.0920294173315
 31
0.000000000000000
  0
LINE
  5
D9
100
AcDbEntity
  8
A1
  6
CONTINUOUS
 62
7
100
AcDbLine
 10
51.60000000000005
 20
104.9350484173313
 30
0.000000000000000
 11
51.60000000000005
 21
127.0920294173315
 31
0.000000000000000
  0
LINE
  5
DA
100
AcDbEntity
  8
A1
  6
CONTINUOUS
 62
7
100
AcDbLine
 10
50.00000000000006
 20
127.0920294173315
 30
0.000000000000000
 11
51.60000000000005
 21
127.0920294173315
 31
0.000000000000000
  0
LINE
  5
DB
100
AcDbEntity
  8
A1
  6
CONTINUOUS
 62
7
100
AcDbLine
 10
70.00000000000014
 20
104.9350484173314
 30
0.000000000000000
 11
70.00000000000014
 21
127.0920294173315
 31
0.000000000000000
  0
LINE
  5
DC
100
AcDbEntity
  8
A1
  6
CONTINUOUS
 62
7
100
AcDbLine
 10
68.40000000000006
 20
127.0920294173315
 30
0.000000000000000
 11
68.40000000000006
 21
104.9350484173314
 31
0.000000000000000
  0
LINE
  5
DD
100
AcDbEntity
  8
A1
  6
CONTINUOUS
 62
7
100
AcDbLine
 10
68.40000000000005
 20
127.0920294173315
 30
0.000000000000000
 11
70.00000000000013
 21
127.0920294173315
 31
0.000000000000000
  0
LINE
  5
DE
100
AcDbEntity
  8
A1
  6
CONTINUOUS
 62
7
100
AcDbLine
 10
50.00000000000006
 20
131.9920284173314
 30
0.000000000000000
 11
50.00000000000006
 21
131.4920284173315
 31
0.000000000000000
  0
LINE
  5
DF
100
AcDbEntity
  8
A1
  6
CONTINUOUS
 62
7
100
AcDbLine
 10
69.99999999999946
 20
131.9920284173314
 30
0.000000000000000
 11
70.00000000000006
 21
131.4920284173315
 31
0.000000000000000
  0
LINE
  5
E0
100
AcDbEntity
  8
A1
  6
CONTINUOUS
 62
7
100
AcDbLine
 10
65.00000000000016
 20
131.9920284173314
 30
0.000000000000000
 11
69.99999999999947
 21
131.9920284173315
 31
0.000000000000000
  0
LINE
  5
E1
100
AcDbEntity
  8
A1
  6
CONTINUOUS
 62
7
100
AcDbLine
 10
65.00000000000014
 20
133.5920274173315
 30
0.000000000000000
 11
69.99999999999946
 21
133.5920274173315
 31
0.000000000000000
  0
LINE
  5
E2
100
AcDbEntity
  8
A1
  6
CONTINUOUS
 62
7
100
AcDbLine
 10
69.99999999999946
 20
131.9920284173314
 30
0.000000000000000
 11
69.99999999999946
 21
133.5920274173315
 31
0.000000000000000
  0
LINE
  5
E3
100
AcDbEntity
  8
A1
  6
CONTINUOUS
 62
7
100
AcDbLine
 10
55.00000000000014
 20
133.5920274173315
 30
0.000000000000000
 11
65.00000000000014
 21
133.5920274173315
 31
0.000000000000000
  0
LINE
  5
E4
100
AcDbEntity
  8
A1
  6
CONTINUOUS
 62
7
100
AcDbLine
 10
55.00000000000014
 20
131.9920284173314
 30
0.000000000000000
 11
65.00000000000014
 21
131.9920284173314
 31
0.000000000000000
  0
LINE
  5
E5
100
AcDbEntity
  8
A1
  6
CONTINUOUS
 62
7
100
AcDbLine
 10
50.00000000000014
 20
133.5920274173315
 30
0.000000000000000
 11
55.00000000000014
 21
133.5920274173315
 31
0.000000000000000
  0
LINE
  5
E6
100
AcDbEntity
  8
A1
  6
CONTINUOUS
 62
7
100
AcDbLine
 10
50.00000000000006
 20
131.9920284173314
 30
0.000000000000000
 11
50.00000000000006
 21
133.5920274173315
 31
0.000000000000000
  0
LINE
  5
E7
100
AcDbEntity
  8
A1
  6
CONTINUOUS
 62
7
100
AcDbLine
 10
50.00000000000014
 20
131.9920284173314
 30
0.000000000000000
 11
55.00000000000014
 21
131.9920284173314
 31
0.000000000000000
  0
ARC
  5
E8
100
AcDbEntity
  8
A1
  6
CONTINUOUS
 62
7
100
AcDbCircle
 10
67.00000000000006
 20
102.2543314173314
 30
0.000000000000000
 40
1.000000000000000
100
AcDbArc
 50
270.0000000000000
 51
360.0000000000001
  0
ARC
  5
E9
100
AcDbEntity
  8
A1
  6
CONTINUOUS
 62
7
100
AcDbCircle
 10
67.00000000000006
 20
112.9297234173316
 30
0.000000000000000
 40
1.000000000000000
100
AcDbArc
 50
5.090000000000000e-14
 51
90.00000000000000
  0
ARC
  5
EA
100
AcDbEntity
  8
A1
  6
CONTINUOUS
 62
7
100
AcDbCircle
 10
53.00000000000006
 20
102.2543314173314
 30
0.000000000000000
 40
1.000000000000000
100
AcDbArc
 50
180.0000000000000
 51
270.0000000000000
  0
ARC
  5
EB
100
AcDbEntity
  8
A1
  6
CONTINUOUS
 62
7
100
AcDbCircle
 10
53.00000000000006
 20
112.9297234173316
 30
0.000000000000000
 40
1.000000000000000
100
AcDbArc
 50
90.00000000000000
 51
180.0000000000000
  0
ARC
  5
EC
100
AcDbEntity
  8
A1
  6
CONTINUOUS
 62
7
100
AcDbCircle
 10
53.99999925525884
 20
93.17821415366662
 30
0.000000000000000
 40
0.9999992552587780
100
AcDbArc
 50
179.9999848930993
 51
258.8400941127215
  0
ARC
  5
ED
100
AcDbEntity
  8
A1
  6
CONTINUOUS
 62
7
100
AcDbCircle
 10
53.99999925525884
 20
122.0058406809963
 30
0.000000000000000
 40
0.9999992552587780
100
AcDbArc
 50
101.1599058872785
 51
180.0000151069007
  0
ARC
  5
EE
100
AcDbEntity
  8
A1
  6
CONTINUOUS
 62
7
100
AcDbCircle
 10
66.00000074474124
 20
93.17821415366663
 30
0.000000000000000
 40
0.9999992552587780
100
AcDbArc
 50
281.1599058872779
 51
360.0000000000000
  0
ARC
  5
EF
100
AcDbEntity
  8
A1
  6
CONTINUOUS
 62
7
100
AcDbCircle
 10
66.00000074474124
 20
122.0058406809964
 30
0.000000000000000
 40
0.9999992552587780
100
AcDbArc
 50
0.000000000000000
 51
78.84009411272211
  0
ARC
  5
F0
100
AcDbEntity
  8
A1
  6
CONTINUOUS
 62
7
100
AcDbCircle
 10
60.00000000000006
 20
91.59202741733148
 30
0.000000000000000
 40
32.00000000000000
100
AcDbArc
 50
78.84006299999973
 51
101.1599370000003
  0
ARC
  5
F1
100
AcDbEntity
  8
A1
  6
CONTINUOUS
 62
7
100
AcDbCircle
 10
60.00000000000006
 20
123.5920274173315
 30
0.000000000000000
 40
32.00000000000000
100
AcDbArc
 50
258.8400629999998
 51
281.1599370000001
  0
LINE
  5
F2
100
AcDbEntity
  8
A1
  6
CONTINUOUS
 62
7
100
AcDbLine
 10
68.00000000000006
 20
112.9297234170171
 30
0.000000000000000
 11
68.00000000000006
 21
102.2543314173314
 31
0.000000000000000
  0
LINE
  5
F3
100
AcDbEntity
  8
A1
  6
CONTINUOUS
 62
7
100
AcDbLine
 10
52.00000000000006
 20
112.9297234170171
 30
0.000000000000000
 11
52.00000000000006
 21
102.2543314173314
 31
0.000000000000000
  0
LINE
  5
F4
100
AcDbEntity
  8
A1
  6
CONTINUOUS
 62
7
100
AcDbLine
 10
53.00000000000006
 20
122.0058404173314
 30
0.000000000000000
 11
53.00000000000006
 21
93.17821441733157
 31
0.000000000000000
  0
LINE
  5
F5
100
AcDbEntity
  8
A1
  6
CONTINUOUS
 62
7
100
AcDbLine
 10
67.00000000000006
 20
122.0058406809964
 30
0.000000000000000
 11
67.00000000000006
 21
93.17821415366663
 31
0.000000000000000
  0
ARC
  5
F6
100
AcDbEntity
  8
A1
  6
CONTINUOUS
 62
7
100
AcDbCircle
 10
109.5759824173313
 20
55.10811400000014
 30
0.000000000000000
 40
6.602129000000000
100
AcDbArc
 50
270.1392447326057
 51
292.8360100000002
  0
ARC
  5
F7
100
AcDbEntity
  8
A1
  6
CONTINUOUS
 62
7
100
AcDbCircle
 10
109.6080724173314
 20
55.10811400000014
 30
0.000000000000000
 40
6.602129000000000
100
AcDbArc
 50
247.1639899999998
 51
269.8607552673940
  0
ARC
  5
F8
100
AcDbEntity
  8
A1
  6
CONTINUOUS
 62
7
100
AcDbCircle
 10
107.1234442425111
 20
49.20778942053707
 30
0.000000000000000
 40
0.2000076445552025
100
AcDbArc
 50
150.9092497440653
 51
247.1627664914898
  0
ARC
  5
F9
100
AcDbEntity
  8
A1
  6
CONTINUOUS
 62
7
100
AcDbCircle
 10
112.0606105921518
 20
49.20778942053707
 30
0.000000000000000
 40
0.2000076445552025
100
AcDbArc
 50
292.8372335085102
 51
389.0907502559347
  0
ARC
  5
FA
100
AcDbEntity
  8
A1
  6
CONTINUOUS
 62
7
100
AcDbCircle
 10
109.5920274173314
 20
68.46441900000013
 30
0.000000000000000
 40
3.366533000000000
100
AcDbArc
 50
27.13770805285059
 51
68.13035479114336
  0
ARC
  5
FB
100
AcDbEntity
  8
A1
  6
CONTINUOUS
 62
7
100
AcDbCircle
 10
109.5920274173314
 20
68.46441900000013
 30
0.000000000000000
 40
3.366533000000000
100
AcDbArc
 50
111.8696452088566
 51
152.8622919471494
  0
LINE
  5
FC
100
AcDbEntity
  8
A1
  6
CONTINUOUS
 62
7
100
AcDbLine
 10
109.5920274173314
 20
71.59202741733148
 30
0.000000000000000
 11
108.3380067655885
 21
71.58867517468882
 31
0.000000000000000
  0
LINE
  5
FD
100
AcDbEntity
  8
A1
  6
CONTINUOUS
 62
7
100
AcDbLine
 10
110.8460480690741
 20
71.58867517468882
 30
0.000000000000000
 11
109.5920274173314
 21
71.59202741733148
 31
0.000000000000000
  0
LINE
  5
FE
100
AcDbEntity
  8
A1
  6
CONTINUOUS
 62
7
100
AcDbLine
 10
111.9920274173313
 20
68.00000000000014
 30
0.000000000000000
 11
111.9920274173313
 21
68.40000000000011
 31
0.000000000000000
  0
LINE
  5
FF
100
AcDbEntity
  8
A1
  6
CONTINUOUS
 62
7
100
AcDbLine
 10
111.9920274173313
 20
51.60000000000018
 30
0.000000000000000
 11
111.9920274173313
 21
52.00000000000013
 31
0.000000000000000
  0
LINE
  5
100
100
AcDbEntity
  8
A1
  6
CONTINUOUS
 62
7
100
AcDbLine
 10
107.1920274173314
 20
52.00000000000013
 30
0.000000000000000
 11
107.1920274173314
 21
51.60000000000018
 31
0.000000000000000
  0
LINE
  5
101
100
AcDbEntity
  8
A1
  6
CONTINUOUS
 62
7
100
AcDbLine
 10
107.1920274173314
 20
68.40000000000011
 30
0.000000000000000
 11
107.1920274173314
 21
68.00000000000014
 31
0.000000000000000
  0
LINE
  5
102
100
AcDbEntity
  8
A1
  6
CONTINUOUS
 62
7
100
AcDbLine
 10
107.3353358179046
 20
50.00000200000014
 30
0.000000000000000
 11
106.9486674173314
 21
49.30503200000019
 31
0.000000000000000
  0
LINE
  5
103
100
AcDbEntity
  8
A1
  6
CONTINUOUS
 62
7
100
AcDbLine
 10
112.2353874173313
 20
49.30503200000018
 30
0.000000000000000
 11
111.8487190167582
 21
50.00000200000014
 31
0.000000000000000
  0
LINE
  5
104
100
AcDbEntity
  8
A1
  6
CONTINUOUS
 62
7
100
AcDbLine
 10
112.1382349748991
 20
49.02346370899090
 30
0.000000000000000
 11
107.0458198597638
 21
49.02346370899090
 31
0.000000000000000
  0
LINE
  5
105
100
AcDbEntity
  8
A1
  6
CONTINUOUS
 62
7
100
AcDbLine
 10
110.8460480690788
 20
71.58867517468882
 30
0.000000000000000
 11
108.3380067655841
 21
71.58867517468882
 31
0.000000000000000
  0
ARC
  5
106
100
AcDbEntity
  8
A1
  6
CONTINUOUS
 62
7
100
AcDbCircle
 10
96.59202741733137
 20
65.00000000000023
 30
0.000000000000000
 40
5.000000000000000
100
AcDbArc
 50
90.00003000000002
 51
180.0000000000000
  0
ARC
  5
107
100
AcDbEntity
  8
A1
  6
CONTINUOUS
 62
7
100
AcDbCircle
 10
124.0920274173313
 20
60.00000000000014
 30
0.000000000000000
 40
2.100000000000000
100
AcDbArc
 50
314.2206858100649
 51
405.7793141899351
  0
ARC
  5
108
100
AcDbEntity
  8
A1
  6
CONTINUOUS
 62
7
100
AcDbCircle
 10
95.09202741733137
 20
60.00000000000014
 30
0.000000000000000
 40
2.100000000000000
100
AcDbArc
 50
180.0000000000000
 51
225.7793141899351
  0
ARC
  5
109
100
AcDbEntity
  8
A1
  6
CONTINUOUS
 62
7
100
AcDbCircle
 10
95.09202741733137
 20
60.00000000000014
 30
0.000000000000000
 40
2.100000000000000
100
AcDbArc
 50
134.2206858100649
 51
180.0000000000000
  0
ARC
  5
10A
100
AcDbEntity
  8
A1
  6
CONTINUOUS
 62
7
100
AcDbCircle
 10
122.5920274173313
 20
55.00000000000021
 30
0.000000000000000
 40
5.000000000000000
100
AcDbArc
 50
270.0000179999998
 51
360.0000000000000
  0
ARC
  5
10B
100
AcDbEntity
  8
A1
  6
CONTINUOUS
 62
7
100
AcDbCircle
 10
122.5920274173313
 20
65.00000000000023
 30
0.000000000000000
 40
5.000000000000000
100
AcDbArc
 50
4.999999999420000e-05
 51
90.00000000000000
  0
ARC
  5
10C
100
AcDbEntity
  8
A1
  6
CONTINUOUS
 62
7
100
AcDbCircle
 10
96.59202741733137
 20
55.00000000000021
 30
0.000000000000000
 40
5.000000000000000
100
AcDbArc
 50
180.0000000000000
 51
270.0000000000000
  0
LINE
  5
10D
100
AcDbEntity
  8
A1
  6
CONTINUOUS
 62
7
100
AcDbLine
 10
127.5920274173294
 20
65.00000436332336
 30
0.000000000000000
 11
127.5920274173313
 21
55.00000000000022
 31
0.000000000000000
  0
LINE
  5
10E
100
AcDbEntity
  8
A1
  6
CONTINUOUS
 62
7
100
AcDbLine
 10
91.59202741733137
 20
55.00000000000021
 30
0.000000000000000
 11
91.59202741733137
 21
65.00000000000023
 31
0.000000000000000
  0
LINE
  5
10F
100
AcDbEntity
  8
A1
  6
CONTINUOUS
 62
7
100
AcDbLine
 10
122.0920274173313
 20
70.00000000000014
 30
0.000000000000000
 11
122.5920274173313
 21
70.00000000000014
 31
0.000000000000000
  0
LINE
  5
110
100
AcDbEntity
  8
A1
  6
CONTINUOUS
 62
7
100
AcDbLine
 10
96.59202741733137
 20
50.00000000000014
 30
0.000000000000000
 11
97.09202741733137
 21
50.00000000000014
 31
0.000000000000000
  0
LINE
  5
111
100
AcDbEntity
  8
A1
  6
CONTINUOUS
 62
7
100
AcDbLine
 10
122.0920274173314
 20
50.00000000000015
 30
0.000000000000000
 11
122.5920289881278
 21
50.00000000000048
 31
0.000000000000000
  0
LINE
  5
112
100
AcDbEntity
  8
A1
  6
CONTINUOUS
 62
7
100
AcDbLine
 10
96.59202479933759
 20
69.99999999999953
 30
0.000000000000000
 11
97.09202741733139
 21
70.00000000000013
 31
0.000000000000000
  0
LINE
  5
113
100
AcDbEntity
  8
A1
  6
CONTINUOUS
 62
7
100
AcDbLine
 10
97.09202741733137
 20
68.40000000000013
 30
0.000000000000000
 11
104.8745684173313
 21
68.40000000000013
 31
0.000000000000000
  0
LINE
  5
114
100
AcDbEntity
  8
A1
  6
CONTINUOUS
 62
7
100
AcDbLine
 10
104.8745684173313
 20
70.00000000000026
 30
0.000000000000000
 11
97.09202541733134
 21
70.00000000000026
 31
0.000000000000000
  0
LINE
  5
115
100
AcDbEntity
  8
A1
  6
CONTINUOUS
 62
7
100
AcDbLine
 10
97.09202741733138
 20
68.40000000000015
 30
0.000000000000000
 11
97.09202541733136
 21
70.00000000000026
 31
0.000000000000000
  0
LINE
  5
116
100
AcDbEntity
  8
A1
  6
CONTINUOUS
 62
7
100
AcDbLine
 10
104.8745684173313
 20
50.00000000000014
 30
0.000000000000000
 11
97.09202541733134
 21
50.00000000000014
 31
0.000000000000000
  0
LINE
  5
117
100
AcDbEntity
  8
A1
  6
CONTINUOUS
 62
7
100
AcDbLine
 10
104.8745684173313
 20
51.60000000000014
 30
0.000000000000000
 11
97.09202541733134
 21
51.60000000000014
 31
0.000000000000000
  0
LINE
  5
118
100
AcDbEntity
  8
A1
  6
CONTINUOUS
 62
7
100
AcDbLine
 10
97.09202541733134
 20
50.00000000000014
 30
0.000000000000000
 11
97.09202541733134
 21
51.60000000000014
 31
0.000000000000000
  0
LINE
  5
119
100
AcDbEntity
  8
A1
  6
CONTINUOUS
 62
7
100
AcDbLine
 10
122.0920274173313
 20
50.00000000000014
 30
0.000000000000000
 11
114.3094844173311
 21
50.00000000000014
 31
0.000000000000000
  0
LINE
  5
11A
100
AcDbEntity
  8
A1
  6
CONTINUOUS
 62
7
100
AcDbLine
 10
122.0920274173313
 20
51.60000000000014
 30
0.000000000000000
 11
114.3094844173311
 21
51.60000000000014
 31
0.000000000000000
  0
LINE
  5
11B
100
AcDbEntity
  8
A1
  6
CONTINUOUS
 62
7
100
AcDbLine
 10
122.0920274173313
 20
50.00000000000014
 30
0.000000000000000
 11
122.0920274173313
 21
51.60000000000014
 31
0.000000000000000
  0
LINE
  5
11C
100
AcDbEntity
  8
A1
  6
CONTINUOUS
 62
7
100
AcDbLine
 10
114.3094844173311
 20
68.40000000000013
 30
0.000000000000000
 11
122.0920274173313
 21
68.40000000000013
 31
0.000000000000000
  0
LINE
  5
11D
100
AcDbEntity
  8
A1
  6
CONTINUOUS
 62
7
100
AcDbLine
 10
122.0920274173313
 20
70.00000000000026
 30
0.000000000000000
 11
114.3094844173311
 21
70.00000000000026
 31
0.000000000000000
  0
LINE
  5
11E
100
AcDbEntity
  8
A1
  6
CONTINUOUS
 62
7
100
AcDbLine
 10
122.0920274173313
 20
68.40000000000013
 30
0.000000000000000
 11
122.0920274173313
 21
70.00000000000026
 31
0.000000000000000
  0
LINE
  5
11F
100
AcDbEntity
  8
A1
  6
CONTINUOUS
 62
7
100
AcDbLine
 10
114.3094844173311
 20
68.40000000000013
 30
0.000000000000000
 11
104.8745684173313
 21
68.40000000000013
 31
0.000000000000000
  0
LINE
  5
120
100
AcDbEntity
  8
A1
  6
CONTINUOUS
 62
7
100
AcDbLine
 10
104.8745684173313
 20
70.00000000000026
 30
0.000000000000000
 11
114.3094844173311
 21
70.00000000000026
 31
0.000000000000000
  0
LINE
  5
121
100
AcDbEntity
  8
A1
  6
CONTINUOUS
 62
7
100
AcDbLine
 10
104.8745684173313
 20
50.00000000000014
 30
0.000000000000000
 11
114.3094844173311
 21
50.00000000000014
 31
0.000000000000000
  0
LINE
  5
122
100
AcDbEntity
  8
A1
  6
CONTINUOUS
 62
7
100
AcDbLine
 10
104.8745684173315
 20
51.60000000000014
 30
0.000000000000000
 11
114.3094844173311
 21
51.60000000000014
 31
0.000000000000000
  0
ARC
  5
123
100
AcDbEntity
  8
A1
  6
CONTINUOUS
 62
7
100
AcDbCircle
 10
114.9297234173314
 20
67.00000000000014
 30
0.000000000000000
 40
1.000000000000000
100
AcDbArc
 50
0.000000000000000
 51
90.00000000000000
  0
ARC
  5
124
100
AcDbEntity
  8
A1
  6
CONTINUOUS
 62
7
100
AcDbCircle
 10
104.2543314173313
 20
67.00000000000014
 30
0.000000000000000
 40
1.000000000000000
100
AcDbArc
 50
90.00000000000000
 51
180.0000000000000
  0
ARC
  5
125
100
AcDbEntity
  8
A1
  6
CONTINUOUS
 62
7
100
AcDbCircle
 10
114.9297234173314
 20
53.00000000000014
 30
0.000000000000000
 40
1.000000000000000
100
AcDbArc
 50
270.0000000000000
 51
360.0000000000000
  0
ARC
  5
126
100
AcDbEntity
  8
A1
  6
CONTINUOUS
 62
7
100
AcDbCircle
 10
104.2543314173313
 20
53.00000000000014
 30
0.000000000000000
 40
1.000000000000000
100
AcDbArc
 50
180.0000000000000
 51
270.0000000000000
  0
ARC
  5
127
100
AcDbEntity
  8
A1
  6
CONTINUOUS
 62
7
100
AcDbCircle
 10
124.0058406809962
 20
53.99999925525889
 30
0.000000000000000
 40
0.9999992552587780
100
AcDbArc
 50
269.9999848930993
 51
348.8400941127214
  0
ARC
  5
128
100
AcDbEntity
  8
A1
  6
CONTINUOUS
 62
7
100
AcDbCircle
 10
95.17821415366654
 20
53.99999925525889
 30
0.000000000000000
 40
0.9999992552587780
100
AcDbArc
 50
191.1599058872785
 51
270.0000151069007
  0
ARC
  5
129
100
AcDbEntity
  8
A1
  6
CONTINUOUS
 62
7
100
AcDbCircle
 10
124.0058406809962
 20
66.00000074474139
 30
0.000000000000000
 40
0.9999992552587780
100
AcDbArc
 50
11.15990588727791
 51
90.00000000000000
  0
ARC
  5
12A
100
AcDbEntity
  8
A1
  6
CONTINUOUS
 62
7
100
AcDbCircle
 10
95.17821415366654
 20
66.00000074474139
 30
0.000000000000000
 40
0.9999992552587780
100
AcDbArc
 50
90.00000000000000
 51
168.8400941127221
  0
ARC
  5
12B
100
AcDbEntity
  8
A1
  6
CONTINUOUS
 62
7
100
AcDbCircle
 10
125.5920274173313
 20
60.00000000000014
 30
0.000000000000000
 40
32.00000000000000
100
AcDbArc
 50
168.8400629999998
 51
191.1599370000002
  0
ARC
  5
12C
100
AcDbEntity
  8
A1
  6
CONTINUOUS
 62
7
100
AcDbCircle
 10
93.59202741733137
 20
60.00000000000014
 30
0.000000000000000
 40
32.00000000000000
100
AcDbArc
 50
348.8400629999998
 51
371.1599370000002
  0
LINE
  5
12D
100
AcDbEntity
  8
A1
  6
CONTINUOUS
 62
7
100
AcDbLine
 10
109.5920274173314
 20
68.00000000000014
 30
0.000000000000000
 11
114.9297234173314
 21
68.00000000000014
 31
0.000000000000000
  0
LINE
  5
12E
100
AcDbEntity
  8
A1
  6
CONTINUOUS
 62
7
100
AcDbLine
 10
104.2543314173313
 20
68.00000000000014
 30
0.000000000000000
 11
109.5920274173314
 21
68.00000000000014
 31
0.000000000000000
  0
LINE
  5
12F
100
AcDbEntity
  8
A1
  6
CONTINUOUS
 62
7
100
AcDbLine
 10
109.5920274173314
 20
52.00000000000014
 30
0.000000000000000
 11
114.9297234173314
 21
52.00000000000014
 31
0.000000000000000
  0
LINE
  5
130
100
AcDbEntity
  8
A1
  6
CONTINUOUS
 62
7
100
AcDbLine
 10
104.2543314173313
 20
52.00000000000014
 30
0.000000000000000
 11
109.5920274173314
 21
52.00000000000014
 31
0.000000000000000
  0
LINE
  5
131
100
AcDbEntity
  8
A1
  6
CONTINUOUS
 62
7
100
AcDbLine
 10
109.5920274173314
 20
53.00000000000014
 30
0.000000000000000
 11
124.0058404173313
 21
53.00000000000014
 31
0.000000000000000
  0
LINE
  5
132
100
AcDbEntity
  8
A1
  6
CONTINUOUS
 62
7
100
AcDbLine
 10
95.17821441733145
 20
53.00000000000014
 30
0.000000000000000
 11
109.5920274173314
 21
53.00000000000014
 31
0.000000000000000
  0
LINE
  5
133
100
AcDbEntity
  8
A1
  6
CONTINUOUS
 62
7
100
AcDbLine
 10
109.5920274173314
 20
67.00000000000014
 30
0.000000000000000
 11
124.0058406809962
 21
67.00000000000014
 31
0.000000000000000
  0
LINE
  5
134
100
AcDbEntity
  8
A1
  6
CONTINUOUS
 62
7
100
AcDbLine
 10
95.17821415366654
 20
67.00000000000014
 30
0.000000000000000
 11
109.5920274173314
 21
67.00000000000014
 31
0.000000000000000
  0
CIRCLE
  5
135
100
AcDbEntity
  8
A1
  6
CONTINUOUS
 62
7
100
AcDbCircle
 10
208.6780503377394
 20
107.5920274173315
 30
0.000000000000000
 40
2.668590819375543
  0
CIRCLE
  5
136
100
AcDbEntity
  8
A1
  6
CONTINUOUS
 62
7
100
AcDbCircle
 10
208.6780503377394
 20
107.5920274173315
 30
0.000000000000000
 40
2.546207557567675
  0
ARC
  5
137
100
AcDbEntity
  8
A1
  6
CONTINUOUS
 62
7
100
AcDbCircle
 10
195.6780503377346
 20
131.4920284173290
 30
0.000000000000000
 40
0.5000000000048406
100
AcDbArc
 50
2.776497000000000e-10
 51
90.00017999944448
  0
ARC
  5
138
100
AcDbEntity
  8
A1
  6
CONTINUOUS
 62
7
100
AcDbCircle
 10
208.6780501083827
 20
106.5920275649650
 30
0.000000000000000
 40
5.000000147633511
100
AcDbArc
 50
199.3536029947995
 51
340.6464820235400
  0
ARC
  5
139
100
AcDbEntity
  8
A1
  6
CONTINUOUS
 62
7
100
AcDbCircle
 10
221.6780503377393
 20
131.4920284173316
 30
0.000000000000000
 40
0.4999999999998295
100
AcDbArc
 50
89.99999999998046
 51
180.0000000000138
  0
LINE
  5
13A
100
AcDbEntity
  8
A1
  6
CONTINUOUS
 62
7
100
AcDbLine
 10
190.6780503377394
 20
131.9920284173314
 30
0.000000000000000
 11
195.6780487669431
 21
131.9920284173314
 31
0.000000000000000
  0
LINE
  5
13B
100
AcDbEntity
  8
A1
  6
CONTINUOUS
 62
7
100
AcDbLine
 10
190.6780503377394
 20
133.5920274173315
 30
0.000000000000000
 11
195.6780487669431
 21
133.5920274173315
 31
0.000000000000000
  0
LINE
  5
13C
100
AcDbEntity
  8
A1
  6
CONTINUOUS
 62
7
100
AcDbLine
 10
190.6780503377394
 20
131.9920284173314
 30
0.000000000000000
 11
190.6780503377394
 21
133.5920274173315
 31
0.000000000000000
  0
LINE
  5
13D
100
AcDbEntity
  8
A1
  6
CONTINUOUS
 62
7
100
AcDbLine
 10
197.0220781416680
 20
133.5920274173315
 30
0.000000000000000
 11
195.6780487669431
 21
133.5920274173315
 31
0.000000000000000
  0
LINE
  5
13E
100
AcDbEntity
  8
A1
  6
CONTINUOUS
 62
7
100
AcDbLine
 10
221.6780503377394
 20
133.5920274173315
 30
0.000000000000000
 11
220.5919329494939
 21
133.5920274173315
 31
0.000000000000000
  0
LINE
  5
13F
100
AcDbEntity
  8
A1
  6
CONTINUOUS
 62
7
100
AcDbLine
 10
197.0335483454230
 20
133.5916880454568
 30
0.000000000000000
 11
220.5784151654677
 21
133.5917350877015
 31
0.000000000000000
  0
LINE
  5
140
100
AcDbEntity
  8
A1
  6
CONTINUOUS
 62
7
100
AcDbLine
 10
221.6780503377394
 20
131.9920284173314
 30
0.000000000000000
 11
226.6780503377394
 21
131.9920284173314
 31
0.000000000000000
  0
LINE
  5
141
100
AcDbEntity
  8
A1
  6
CONTINUOUS
 62
7
100
AcDbLine
 10
221.6780503377394
 20
133.5920274173315
 30
0.000000000000000
 11
226.6780503377394
 21
133.5920274173315
 31
0.000000000000000
  0
LINE
  5
142
100
AcDbEntity
  8
A1
  6
CONTINUOUS
 62
7
100
AcDbLine
 10
226.6780503377394
 20
131.9920284173314
 30
0.000000000000000
 11
226.6780503377394
 21
133.5920274173315
 31
0.000000000000000
  0
LINE
  5
143
100
AcDbEntity
  8
A1
  6
CONTINUOUS
 62
7
100
AcDbLine
 10
196.1780503377394
 20
127.0920274173315
 30
0.000000000000000
 11
196.1780503377394
 21
131.4920284173315
 31
0.000000000000000
  0
LINE
  5
144
100
AcDbEntity
  8
A1
  6
CONTINUOUS
 62
7
100
AcDbLine
 10
196.1780503377394
 20
127.0920274173315
 30
0.000000000000000
 11
203.9605933377396
 21
104.9350414173316
 31
0.000000000000000
  0
LINE
  5
145
100
AcDbEntity
  8
A1
  6
CONTINUOUS
 62
7
100
AcDbLine
 10
213.3955093377394
 20
104.9350484173314
 30
0.000000000000000
 11
221.1780523377394
 21
127.0920294173315
 31
0.000000000000000
  0
LINE
  5
146
100
AcDbEntity
  8
A1
  6
CONTINUOUS
 62
7
100
AcDbLine
 10
221.1780523377394
 20
127.0920294173315
 30
0.000000000000000
 11
221.1780503377394
 21
131.4920284173315
 31
0.000000000000000
  0
ARC
  5
147
100
AcDbEntity
  8
A1
  6
CONTINUOUS
 62
7
100
AcDbCircle
 10
208.6780503377394
 20
107.5920274173315
 30
0.000000000000000
 40
16.00000000000000
100
AcDbArc
 50
128.8174641362104
 51
411.1825306347523
  0
ARC
  5
148
100
AcDbEntity
  8
A1
  6
CONTINUOUS
 62
7
100
AcDbCircle
 10
208.6780503377394
 20
107.5920274173315
 30
0.000000000000000
 40
11.00000000000000
100
AcDbArc
 50
270.0000000000000
 51
401.6553818708696
  0
ARC
  5
149
100
AcDbEntity
  8
A1
  6
CONTINUOUS
 62
7
100
AcDbCircle
 10
208.6780503377394
 20
107.5920274173315
 30
0.000000000000000
 40
11.00000000000000
100
AcDbArc
 50
138.3446136038366
 51
270.0000000000000
  0
ARC
  5
14A
100
AcDbEntity
  8
A1
  6
CONTINUOUS
 62
7
100
AcDbCircle
 10
208.6780503377394
 20
107.5920274173315
 30
0.000000000000000
 40
10.50000000000000
100
AcDbArc
 50
270.0000000000000
 51
400.1321829861864
  0
ARC
  5
14B
100
AcDbEntity
  8
A1
  6
CONTINUOUS
 62
7
100
AcDbCircle
 10
208.6780503377394
 20
107.5920274173315
 30
0.000000000000000
 40
10.50000000000000
100
AcDbArc
 50
139.8678126122133
 51
270.0000000000000
  0
ARC
  5
14C
100
AcDbEntity
  8
A1
  6
CONTINUOUS
 62
7
100
AcDbCircle
 10
208.6780503377394
 20
107.5920274173315
 30
0.000000000000000
 40
6.337696000000110
100
AcDbArc
 50
166.6227833442557
 51
270.0000000000000
  0
ARC
  5
14D
100
AcDbEntity
  8
A1
  6
CONTINUOUS
 62
7
100
AcDbCircle
 10
208.6780503377394
 20
107.5920274173315
 30
0.000000000000000
 40
6.337696000000110
100
AcDbArc
 50
270.0000000000000
 51
373.3772156429955
  0
LINE
  5
14E
100
AcDbEntity
  8
A4
  6
CENTER
 62
1
100
AcDbLine
 10
47.00600892661333
 20
107.5920274173315
 30
0.000000000000000
 11
73.08867517468875
 21
107.5920274173315
 31
0.000000000000000
  0
LINE
  5
14F
100
AcDbEntity
  8
A4
  6
CENTER
 62
1
100
AcDbLine
 10
60.00000000000011
 20
90.09202741733148
 30
0.000000000000000
 11
60.00000000000011
 21
135.0920274173315
 31
0.000000000000000
  0
LINE
  5
150
100
AcDbEntity
  8
A4
  6
CENTER
 62
1
100
AcDbLine
 10
124.0920274173313
 20
168.7840548346628
 30
0.000000000000000
 11
124.0920274173313
 21
161.5840548346628
 31
0.000000000000000
  0
LINE
  5
151
100
AcDbEntity
  8
A4
  6
CENTER
 62
1
100
AcDbLine
 10
95.09202741733137
 20
168.7840548346628
 30
0.000000000000000
 11
95.09202741733137
 21
161.5840548346628
 31
0.000000000000000
  0
LINE
  5
152
100
AcDbEntity
  8
A4
  6
CENTER
 62
1
100
AcDbLine
 10
109.5920274173314
 20
90.09202741733149
 30
0.000000000000000
 11
109.5920274173304
 21
135.0920274173315
 31
0.000000000000000
  0
LINE
  5
153
100
AcDbEntity
  8
A4
  6
CENTER
 62
1
100
AcDbLine
 10
92.09202741733137
 20
107.5920274173315
 30
0.000000000000000
 11
127.0920274173314
 21
107.5920274173315
 31
0.000000000000000
  0
LINE
  5
154
100
AcDbEntity
  8
A4
  6
CENTER
 62
1
100
AcDbLine
 10
109.5920274173309
 20
152.0920327767843
 30
0.000000000000000
 11
109.5920274173309
 21
178.1780539473400
 31
0.000000000000000
  0
LINE
  5
155
100
AcDbEntity
  8
A4
  6
CENTER
 62
1
100
AcDbLine
 10
90.09202741733137
 20
165.1840548346628
 30
0.000000000000000
 11
129.0920274173304
 21
165.1840548346628
 31
0.000000000000000
  0
LINE
  5
156
100
AcDbEntity
  8
A4
  6
CENTER
 62
1
100
AcDbLine
 10
109.5920274173309
 20
73.09202205787906
 30
0.000000000000000
 11
109.5920274173309
 21
47.00600088732331
 31
0.000000000000000
  0
LINE
  5
157
100
AcDbEntity
  8
A4
  6
CENTER
 62
1
100
AcDbLine
 10
90.09202741733137
 20
60.00000000000053
 30
0.000000000000000
 11
129.0920274173304
 21
60.00000000000053
 31
0.000000000000000
  0
LINE
  5
158
100
AcDbEntity
  8
A4
  6
CENTER
 62
1
100
AcDbLine
 10
95.09202741733137
 20
56.40000000000053
 30
0.000000000000000
 11
95.09202741733137
 21
63.60000000000052
 31
0.000000000000000
  0
LINE
  5
159
100
AcDbEntity
  8
A4
  6
CENTER
 62
1
100
AcDbLine
 10
124.0920274173313
 20
56.40000000000053
 30
0.000000000000000
 11
124.0920274173313
 21
63.60000000000052
 31
0.000000000000000
  0
LINE
  5
15A
100
AcDbEntity
  8
A3
  6
DASHED
 62
2
100
AcDbLine
 10
92.99202841732944
 20
133.5920274173315
 30
0.000000000000000
 11
92.99202841732944
 21
131.9920294173315
 31
0.000000000000000
  0
LINE
  5
15B
100
AcDbEntity
  8
A4
  6
CENTER
 62
1
100
AcDbLine
 10
95.09202741732946
 20
135.8493284173315
 30
0.000000000000000
 11
95.09202741732946
 21
129.7393744173315
 31
0.000000000000000
  0
LINE
  5
15C
100
AcDbEntity
  8
A3
  6
DASHED
 62
2
100
AcDbLine
 10
126.1920274173294
 20
133.5920274173315
 30
0.000000000000000
 11
126.1920274173294
 21
131.9920294173315
 31
0.000000000000000
  0
LINE
  5
15D
100
AcDbEntity
  8
A4
  6
CENTER
 62
1
100
AcDbLine
 10
124.0920274173295
 20
135.8493284173315
 30
0.000000000000000
 11
124.0920274173295
 21
129.6418094173315
 31
0.000000000000000
  0
LINE
  5
15E
100
AcDbEntity
  8
A3
  6
DASHED
 62
2
100
AcDbLine
 10
57.90000000000009
 20
133.5920274173315
 30
0.000000000000000
 11
57.90000000000009
 21
131.9920294173315
 31
0.000000000000000
  0
LINE
  5
15F
100
AcDbEntity
  8
A3
  6
DASHED
 62
2
100
AcDbLine
 10
62.10000100000013
 20
133.5920274173315
 30
0.000000000000000
 11
62.10000100000013
 21
131.9920294173315
 31
0.000000000000000
  0
LINE
  5
160
100
AcDbEntity
  8
A3
  6
DASHED
 62
2
100
AcDbLine
 10
161.2840548346608
 20
133.5920274173333
 30
0.000000000000000
 11
161.2840548346609
 21
131.9920294173333
 31
0.000000000000000
  0
LINE
  5
161
100
AcDbEntity
  8
A4
  6
CENTER
 62
1
100
AcDbLine
 10
159.1840548346626
 20
90.09202741733320
 30
0.000000000000000
 11
159.1840548346607
 21
135.0920274173332
 31
0.000000000000000
  0
LINE
  5
162
100
AcDbEntity
  8
A3
  6
DASHED
 62
2
100
AcDbLine
 10
157.0840538346607
 20
133.5920274173331
 30
0.000000000000000
 11
157.0840538346608
 21
131.9920294173331
 31
0.000000000000000
  0
LINE
  5
163
100
AcDbEntity
  8
A4
  6
CENTER
 62
1
100
AcDbLine
 10
172.1780459080486
 20
107.5920274173337
 30
0.000000000000000
 11
146.0953796599732
 21
107.5920274173326
 31
0.000000000000000
  0
LINE
  5
164
100
AcDbEntity
  8
A4
  6
CENTER
 62
1
100
AcDbLine
 10
194.2760822519918
 20
135.8493284173337
 30
0.000000000000000
 11
194.2760822519923
 21
129.6418094173336
 31
0.000000000000000
  0
LINE
  5
165
100
AcDbEntity
  8
A3
  6
DASHED
 62
2
100
AcDbLine
 10
192.1760822519921
 20
133.5920274173335
 30
0.000000000000000
 11
192.1760822519922
 21
131.9920294173335
 31
0.000000000000000
  0
LINE
  5
166
100
AcDbEntity
  8
A4
  6
CENTER
 62
1
100
AcDbLine
 10
223.2760822519918
 20
135.8493284173362
 30
0.000000000000000
 11
223.2760822519923
 21
129.7393744173361
 31
0.000000000000000
  0
LINE
  5
167
100
AcDbEntity
  8
A3
  6
DASHED
 62
2
100
AcDbLine
 10
225.3760812519920
 20
133.5920274173363
 30
0.000000000000000
 11
225.3760812519922
 21
131.9920294173363
 31
0.000000000000000
  0
LINE
  5
168
100
AcDbEntity
  8
A4
  6
CENTER
 62
1
100
AcDbLine
 10
226.2760822519924
 20
107.5920274173364
 30
0.000000000000000
 11
191.2760822519923
 21
107.5920274173334
 31
0.000000000000000
  0
LINE
  5
169
100
AcDbEntity
  8
A4
  6
CENTER
 62
1
100
AcDbLine
 10
208.7760822519938
 20
90.09202741733490
 30
0.000000000000000
 11
208.7760822519909
 21
135.0920274173349
 31
0.000000000000000
  0
ENDSEC
  0
SECTION
  2
OBJECTS
  0
DICTIONARY
  5
19A
100
AcDbDictionary
  3
ACAD_GROUP
350
19B
  3
ACAD_LAYOUT
350
19C
  3
ACAD_MLINESTYLE
350
19D
  0
DICTIONARY
  5
19B
102
{ACAD_REACTORS
330
19A
102
}
330
19A
100
AcDbDictionary
  0
DICTIONARY
  5
19C
102
{ACAD_REACTORS
330
19A
102
}
330
19A
100
AcDbDictionary
  3
Model
350
19E
  3
ﾚｲｱｳﾄ1
350
19F
  3
ﾚｲｱｳﾄ2
350
1A0
  0
DICTIONARY
  5
19D
102
{ACAD_REACTORS
330
19A
102
}
330
19A
100
AcDbDictionary
  3
STANDARD
350
1A1
  0
LAYOUT
  5
19E
102
{ACAD_REACTORS
330
19C
102
}
330
19C
100
AcDbPlotSettings
 70
11952
  4
A3
 44
297.000000
 45
420.000000
 73
  1
 72
  1
100
AcDbLayout
  1
Model
 71
0
330
191
  0
LAYOUT
  5
19F
102
{ACAD_REACTORS
330
19C
102
}
330
19C
100
AcDbPlotSettings
100
AcDbLayout
  1
ﾚｲｱｳﾄ1
 71
1
330
192
  0
LAYOUT
  5
1A0
102
{ACAD_REACTORS
330
19C
102
}
330
19C
100
AcDbPlotSettings
100
AcDbLayout
  1
ﾚｲｱｳﾄ2
 71
2
330
193
  0
MLINESTYLE
  5
1A1
102
{ACAD_REACTORS
330
19D
102
}
330
19D
100
AcDbMlineStyle
  2
STANDARD
 70
     0
  3

 62
   256
 51
90.00
 52
90.00
 71
     2
 49
0.50
 62
   256
  6
BYLAYER
 49
-0.50
 62
   256
  6
BYLAYER
  0
ENDSEC
  0
EOF
