  0
SECTION
  2
HEADER
  9
$ACADVER
  1
AC1027
  9
$DWGCODEPAGE
  3
ANSI_932
  9
$LTSCALE
 40
20.0
  9
$FILLMODE
 70
     1
  9
$CLAYER
  8
0
  9
$PDMODE
 70
     0
  9
$SPLFRAME
 70
     0
  9
$SPLINETYPE
 70
     6
  9
$SPLINESEGS
 70
     8
  9
$DIMASZ
 40
2.000000
  9
$DIMEXE
 40
1.500000
  9
$DIMEXO
 40
0.800000
  9
$DIMTAD
 70
     1
  9
$DIMTIH
 70
     0
  9
$DIMTOH
 70
     0
  9
$DIMTVP
 40
0.500000
  9
$DIMTXT
 40
3.100000
  9
$EXTMIN
 10
0.000000
 20
0.000000
 30
0.000000
  9
$EXTMAX
 10
297.000000
 20
420.000000
 30
0.000000
  9
$MEASUREMENT
 70
  1
  9
$LIMMIN
 10
0.000000
 20
0.000000
  9
$LIMMAX
 10
297.000000
 20
420.000000
  9
$HANDSEED
  5
22B
  9
$LWDISPLAY
290
     0
  9
$DIMBLK
  1
_OPEN
  9
$DIMDEC
 70
     2
  9
$DIMADEC
 70
     2
  9
$DIMAUNIT
 70
     0
  9
$DIMZIN
 70
     8
  9
$DIMAZIN
 70
     2
  9
$DIMTOFL
 70
     1
  0
ENDSEC
  0
SECTION
  2
CLASSES
  0
ENDSEC
  0
SECTION
  2
TABLES
  0
TABLE
  2
VPORT
  5
1F0
100
AcDbSymbolTable
 70
     1
  0
VPORT
  5
1F1
100
AcDbSymbolTableRecord
100
AcDbViewportTableRecord
  2
*ACTIVE
 70
     0
 12
134.999993
 22
108.864330
 40
181.728659
 41
1.375677
  0
ENDTAB
  0
TABLE
  2
LTYPE
  5
1F2
100
AcDbSymbolTable
 70
     3
  0
LTYPE
  5
1F3
100
AcDbSymbolTableRecord
100
AcDbLinetypeTableRecord
  2
BYBLOCK
 70
     0
  3

 72
    65
 73
     0
 40
0.0
  0
LTYPE
  5
1F4
100
AcDbSymbolTableRecord
100
AcDbLinetypeTableRecord
  2
BYLAYER
 70
     0
  3

 72
    65
 73
     0
 40
0.0
  0
LTYPE
  5
1F5
100
AcDbSymbolTableRecord
100
AcDbLinetypeTableRecord
  2
CONTINUOUS
 70
     0
  3
Solid line (NEC CAE2D for Win R18.0 : 2025.08.18)
 72
    65
 73
     0
 40
0.0
  0
LTYPE
  5
1F6
100
AcDbSymbolTableRecord
100
AcDbLinetypeTableRecord
  2
DASHED
 70
     0
  3
__ __ __ __ __ __ __ __ __ __ __ __ __ _
 72
    65
 73
     2
 40
0.75
 49
0.5
 74
     0
 49
-0.25
 74
     0
  0
LTYPE
  5
1F7
100
AcDbSymbolTableRecord
100
AcDbLinetypeTableRecord
  2
CENTER
 70
     0
  3
____ _ ____ _ ____ _ ____ _ ____ _ ____
 72
    65
 73
     4
 40
2.0
 49
1.25
 74
     0
 49
-0.25
 74
     0
 49
0.25
 74
     0
 49
-0.25
 74
     0
  0
ENDTAB
  0
TABLE
  2
LAYER
  5
1F8
100
AcDbSymbolTable
 70
    20
  0
LAYER
  5
1F9
100
AcDbSymbolTableRecord
100
AcDbLayerTableRecord
  2
0
 70
     0
 62
     7
  6
CONTINUOUS
370
    -3
390

  0
LAYER
  5
1FA
100
AcDbSymbolTableRecord
100
AcDbLayerTableRecord
  2
A0
 70
     0
 62
     9
  6
CONTINUOUS
370
    -3
390

  0
LAYER
  5
1FB
100
AcDbSymbolTableRecord
100
AcDbLayerTableRecord
  2
A1
 70
     0
 62
     1
  6
CONTINUOUS
370
    -3
390

  0
LAYER
  5
1FC
100
AcDbSymbolTableRecord
100
AcDbLayerTableRecord
  2
A2
 70
     0
 62
     9
  6
CONTINUOUS
370
    -3
390

  0
LAYER
  5
1FD
100
AcDbSymbolTableRecord
100
AcDbLayerTableRecord
  2
A4
 70
     0
 62
     9
  6
CONTINUOUS
370
    -3
390

  0
LAYER
  5
1FE
100
AcDbSymbolTableRecord
100
AcDbLayerTableRecord
  2
A5
 70
     0
 62
     8
  6
CONTINUOUS
370
    -3
390

  0
LAYER
  5
1FF
100
AcDbSymbolTableRecord
100
AcDbLayerTableRecord
  2
A6
 70
     0
 62
    12
  6
CONTINUOUS
370
    -3
390

  0
LAYER
  5
200
100
AcDbSymbolTableRecord
100
AcDbLayerTableRecord
  2
A8
 70
     0
 62
    10
  6
CONTINUOUS
370
    -3
390

  0
LAYER
  5
201
100
AcDbSymbolTableRecord
100
AcDbLayerTableRecord
  2
A9
 70
     0
 62
     9
  6
CONTINUOUS
370
    -3
390

  0
LAYER
  5
202
100
AcDbSymbolTableRecord
100
AcDbLayerTableRecord
  2
A10
 70
     0
 62
     6
  6
CONTINUOUS
370
    -3
390

  0
LAYER
  5
203
100
AcDbSymbolTableRecord
100
AcDbLayerTableRecord
  2
A11
 70
     0
 62
    10
  6
CONTINUOUS
370
    -3
390

  0
LAYER
  5
204
100
AcDbSymbolTableRecord
100
AcDbLayerTableRecord
  2
A12
 70
     0
 62
    13
  6
CONTINUOUS
370
    -3
390

  0
LAYER
  5
205
100
AcDbSymbolTableRecord
100
AcDbLayerTableRecord
  2
A13
 70
     0
 62
    11
  6
CONTINUOUS
370
    -3
390

  0
LAYER
  5
206
100
AcDbSymbolTableRecord
100
AcDbLayerTableRecord
  2
A14
 70
     0
 62
     5
  6
CONTINUOUS
370
    -3
390

  0
LAYER
  5
207
100
AcDbSymbolTableRecord
100
AcDbLayerTableRecord
  2
A15
 70
     0
 62
    14
  6
CONTINUOUS
370
    -3
390

  0
LAYER
  5
208
100
AcDbSymbolTableRecord
100
AcDbLayerTableRecord
  2
A20
 70
     0
 62
     1
  6
CONTINUOUS
370
    -3
390

  0
LAYER
  5
209
100
AcDbSymbolTableRecord
100
AcDbLayerTableRecord
  2
A30
 70
     0
 62
     1
  6
CONTINUOUS
370
    -3
390

  0
LAYER
  5
20A
100
AcDbSymbolTableRecord
100
AcDbLayerTableRecord
  2
A40
 70
     0
 62
     9
  6
CONTINUOUS
370
    -3
390

  0
LAYER
  5
20B
100
AcDbSymbolTableRecord
100
AcDbLayerTableRecord
  2
A50
 70
     0
 62
    12
  6
CONTINUOUS
370
    -3
390

  0
LAYER
  5
20C
100
AcDbSymbolTableRecord
100
AcDbLayerTableRecord
  2
A1023
 70
     0
 62
    16
  6
CONTINUOUS
370
    -3
390

  0
ENDTAB
  0
TABLE
  2
STYLE
  5
20D
100
AcDbSymbolTable
 70
     4
  0
STYLE
  5
20E
100
AcDbSymbolTableRecord
100
AcDbTextStyleTableRecord
  2
STANDARD
 70
    64
 40
0.0
 41
1.0
 50
0.0
 71
     0
 42
3.000000000000000
  3
TXT
  4

  0
STYLE
  5
20F
100
AcDbSymbolTableRecord
100
AcDbTextStyleTableRecord
  2
ANKTATE
 70
    68
 40
0.0
 41
1.0
 50
0.0
 71
     0
 42
3.000000000000000
  3
TXT
  4

  0
STYLE
  5
210
100
AcDbSymbolTableRecord
100
AcDbTextStyleTableRecord
  2
KNJYOKO
 70
    64
 40
0.0
 41
1.0
 50
0.0
 71
     0
 42
3.000000000000000
  3
TXT
  4
BIGFONT
  0
STYLE
  5
211
100
AcDbSymbolTableRecord
100
AcDbTextStyleTableRecord
  2
KNJTATE
 70
    68
 40
0.0
 41
1.0
 50
0.0
 71
     0
 42
3.000000000000000
  3
TXT
  4
BIGFONT
  0
ENDTAB
  0
TABLE
  2
VIEW
  5
212
100
AcDbSymbolTable
 70
     0
  0
ENDTAB
  0
TABLE
  2
UCS
  5
213
100
AcDbSymbolTable
 70
     0
  0
ENDTAB
  0
TABLE
  2
APPID
  5
214
100
AcDbSymbolTable
 70
     1
  0
APPID
  5
215
100
AcDbSymbolTableRecord
100
AcDbRegAppTableRecord
  2
ACAD
 70
     0
  0
ENDTAB
  0
TABLE
  2
DIMSTYLE
  5
216
100
AcDbSymbolTable
 70
     2
100
AcDbDimStyleTable
  0
DIMSTYLE
105
217
100
AcDbSymbolTableRecord
100
AcDbDimStyleTableRecord
  2
STANDARD
 70
     0
 41
2.000000
 44
1.500000
 42
0.800000
145
0.661290
140
3.100000
144
1.000000
146
0.645161
340
20E
  0
DIMSTYLE
105
218
100
AcDbSymbolTableRecord
100
AcDbDimStyleTableRecord
  2
A001
 70
     0
 41
2.000000
 44
1.500000
 42
0.800000
145
0.661290
140
3.100000
144
1.000000
146
0.645161
 77
     1
 73
     0
 74
     0
271
     2
179
     2
275
     0
 78
     8
 79
     2
172
     1
340
20E
  0
ENDTAB
  0
TABLE
  2
BLOCK_RECORD
  5
219
100
AcDbSymbolTable
 70
    12
  0
BLOCK_RECORD
  5
21A
100
AcDbSymbolTableRecord
100
AcDbBlockTableRecord
  2
*MODEL_SPACE
  0
BLOCK_RECORD
  5
21B
100
AcDbSymbolTableRecord
100
AcDbBlockTableRecord
  2
*PAPER_SPACE
  0
BLOCK_RECORD
  5
21C
100
AcDbSymbolTableRecord
100
AcDbBlockTableRecord
  2
*PAPER_SPACE0
  0
BLOCK_RECORD
  5
1
100
AcDbSymbolTableRecord
100
AcDbBlockTableRecord
  2
_NONE
  0
BLOCK_RECORD
  5
4
100
AcDbSymbolTableRecord
100
AcDbBlockTableRecord
  2
_CLOSED
  0
BLOCK_RECORD
  5
B
100
AcDbSymbolTableRecord
100
AcDbBlockTableRecord
  2
_DOT
  0
BLOCK_RECORD
  5
13
100
AcDbSymbolTableRecord
100
AcDbBlockTableRecord
  2
_OPEN
  0
BLOCK_RECORD
  5
19
100
AcDbSymbolTableRecord
100
AcDbBlockTableRecord
  2
_ORIGIN
  0
BLOCK_RECORD
  5
1E
100
AcDbSymbolTableRecord
100
AcDbBlockTableRecord
  2
_OPEN30
  0
BLOCK_RECORD
  5
24
100
AcDbSymbolTableRecord
100
AcDbBlockTableRecord
  2
_BOXFILLED
  0
BLOCK_RECORD
  5
29
100
AcDbSymbolTableRecord
100
AcDbBlockTableRecord
  2
_BOXBLANK
  0
BLOCK_RECORD
  5
31
100
AcDbSymbolTableRecord
100
AcDbBlockTableRecord
  2
_OBLIQUE
  0
BLOCK_RECORD
  5
35
100
AcDbSymbolTableRecord
100
AcDbBlockTableRecord
  2
_OPEN90
  0
BLOCK_RECORD
  5
3B
100
AcDbSymbolTableRecord
100
AcDbBlockTableRecord
  2
_CLOSEDBLANK
  0
BLOCK_RECORD
  5
41
100
AcDbSymbolTableRecord
100
AcDbBlockTableRecord
  2
_DOTBLANK
  0
ENDTAB
  0
ENDSEC
  0
SECTION
  2
BLOCKS
  0
BLOCK
  5
21D
100
AcDbEntity
  8
0
100
AcDbBlockBegin
  2
*MODEL_SPACE
 70
     0
 10
0.0
 20
0.0
 30
0.0
  3
*MODEL_SPACE
  1

  0
ENDBLK
  5
21E
100
AcDbEntity
  8
0
100
AcDbBlockEnd
  0
BLOCK
  5
21F
100
AcDbEntity
  8
0
100
AcDbBlockBegin
  2
*PAPER_SPACE
 70
     0
 10
0.0
 20
0.0
 30
0.0
  3
*PAPER_SPACE
  1

  0
ENDBLK
  5
220
100
AcDbEntity
  8
0
100
AcDbBlockEnd
  0
BLOCK
  5
221
100
AcDbEntity
  8
0
100
AcDbBlockBegin
  2
*PAPER_SPACE0
 70
     0
 10
0.0
 20
0.0
 30
0.0
  3
*PAPER_SPACE0
  1

  0
ENDBLK
  5
222
100
AcDbEntity
  8
0
100
AcDbBlockEnd
  0
BLOCK
  5
2
330
1
100
AcDbEntity
  8
0
100
AcDbBlockBegin
  2
_NONE
 70
     0
 10
0.0
 20
0.0
 30
0.0
  3
_NONE
  1

  0
ENDBLK
  5
3
330
1
100
AcDbEntity
  8
0
100
AcDbBlockEnd
  0
BLOCK
  5
5
330
4
100
AcDbEntity
  8
0
100
AcDbBlockBegin
  2
_CLOSED
 70
     0
 10
0.0
 20
0.0
 30
0.0
  3
_CLOSED
  1

  0
LINE
  5
6
330
4
100
AcDbEntity
  8
0
  6
BYBLOCK
 62
     0
370
    -2
100
AcDbLine
 10
-1.0
 20
0.166667
 30
0.0
 11
0.0
 21
0.0
 31
0.0
  0
LINE
  5
7
330
4
100
AcDbEntity
  8
0
  6
BYBLOCK
 62
     0
370
    -2
100
AcDbLine
 10
0.0
 20
0.0
 30
0.0
 11
-1.0
 21
-0.166667
 31
0.0
  0
LINE
  5
8
330
4
100
AcDbEntity
  8
0
  6
BYBLOCK
 62
     0
370
    -2
100
AcDbLine
 10
-1.0
 20
0.166667
 30
0.0
 11
-1.0
 21
-0.166667
 31
0.0
  0
LINE
  5
9
330
4
100
AcDbEntity
  8
0
  6
BYBLOCK
 62
     0
370
    -2
100
AcDbLine
 10
0.0
 20
0.0
 30
0.0
 11
-1.0
 21
0.0
 31
0.0
  0
ENDBLK
  5
A
330
4
100
AcDbEntity
  8
0
100
AcDbBlockEnd
  0
BLOCK
  5
C
330
B
100
AcDbEntity
  8
0
100
AcDbBlockBegin
  2
_DOT
 70
     0
 10
0.0
 20
0.0
 30
0.0
  3
_DOT
  1

  0
POLYLINE
  5
D
330
B
100
AcDbEntity
  8
0
  6
BYBLOCK
 62
     0
370
    -2
100
AcDb2dPolyline
 66
     1
 10
0.0
 20
0.0
 30
0.0
 70
     1
 40
0.5
 41
0.5
  0
VERTEX
  5
E
330
B
100
AcDbEntity
  8
0
  6
BYBLOCK
 62
     0
370
    -2
100
AcDbVertex
100
AcDb2dVertex
 10
-0.25
 20
0.0
 30
0.0
 42
1.0
  0
VERTEX
  5
F
330
B
100
AcDbEntity
  8
0
  6
BYBLOCK
 62
     0
370
    -2
100
AcDbVertex
100
AcDb2dVertex
 10
0.25
 20
0.0
 30
0.0
 42
1.0
  0
SEQEND
  5
10
330
B
100
AcDbEntity
  8
0
  6
BYBLOCK
 62
     0
370
    -2
  0
LINE
  5
11
330
B
100
AcDbEntity
  8
0
  6
BYBLOCK
 62
     0
370
    -2
100
AcDbLine
 10
-0.5
 20
0.0
 30
0.0
 11
-1.0
 21
0.0
 31
0.0
  0
ENDBLK
  5
12
330
B
100
AcDbEntity
  8
0
100
AcDbBlockEnd
  0
BLOCK
  5
14
330
13
100
AcDbEntity
  8
0
100
AcDbBlockBegin
  2
_OPEN
 70
     0
 10
0.0
 20
0.0
 30
0.0
  3
_OPEN
  1

  0
LINE
  5
15
330
13
100
AcDbEntity
  8
0
  6
BYBLOCK
 62
     0
370
    -2
100
AcDbLine
 10
-1.0
 20
0.166667
 30
0.0
 11
0.0
 21
0.0
 31
0.0
  0
LINE
  5
16
330
13
100
AcDbEntity
  8
0
  6
BYBLOCK
 62
     0
370
    -2
100
AcDbLine
 10
0.0
 20
0.0
 30
0.0
 11
-1.0
 21
-0.166667
 31
0.0
  0
LINE
  5
17
330
13
100
AcDbEntity
  8
0
  6
BYBLOCK
 62
     0
370
    -2
100
AcDbLine
 10
0.0
 20
0.0
 30
0.0
 11
-1.0
 21
0.0
 31
0.0
  0
ENDBLK
  5
18
330
13
100
AcDbEntity
  8
0
100
AcDbBlockEnd
  0
BLOCK
  5
1A
330
19
100
AcDbEntity
  8
0
100
AcDbBlockBegin
  2
_ORIGIN
 70
     0
 10
0.0
 20
0.0
 30
0.0
  3
_ORIGIN
  1

  0
CIRCLE
  5
1B
330
19
100
AcDbEntity
  8
0
  6
BYBLOCK
 62
     0
370
    -2
100
AcDbCircle
 10
0.0
 20
0.0
 30
0.0
 40
0.5
  0
LINE
  5
1C
330
19
100
AcDbEntity
  8
0
  6
BYBLOCK
 62
     0
370
    -2
100
AcDbLine
 10
0.0
 20
0.0
 30
0.0
 11
-1.0
 21
0.0
 31
0.0
  0
ENDBLK
  5
1D
330
19
100
AcDbEntity
  8
0
100
AcDbBlockEnd
  0
BLOCK
  5
1F
330
1E
100
AcDbEntity
  8
0
100
AcDbBlockBegin
  2
_OPEN30
 70
     0
 10
0.0
 20
0.0
 30
0.0
  3
_OPEN30
  1

  0
LINE
  5
20
330
1E
100
AcDbEntity
  8
0
  6
BYBLOCK
 62
     0
370
    -2
100
AcDbLine
 10
-1.0
 20
0.267949
 30
0.0
 11
0.0
 21
0.0
 31
0.0
  0
LINE
  5
21
330
1E
100
AcDbEntity
  8
0
  6
BYBLOCK
 62
     0
370
    -2
100
AcDbLine
 10
0.0
 20
0.0
 30
0.0
 11
-1.0
 21
-0.267949
 31
0.0
  0
LINE
  5
22
330
1E
100
AcDbEntity
  8
0
  6
BYBLOCK
 62
     0
370
    -2
100
AcDbLine
 10
0.0
 20
0.0
 30
0.0
 11
-1.0
 21
0.0
 31
0.0
  0
ENDBLK
  5
23
330
1E
100
AcDbEntity
  8
0
100
AcDbBlockEnd
  0
BLOCK
  5
25
330
24
100
AcDbEntity
  8
0
100
AcDbBlockBegin
  2
_BOXFILLED
 70
     0
 10
0.0
 20
0.0
 30
0.0
  3
_BOXFILLED
  1

  0
SOLID
  5
26
330
24
100
AcDbEntity
  8
0
  6
BYBLOCK
 62
     0
370
    -2
100
AcDbTrace
 10
-0.5
 20
0.5
 30
0.0
 11
0.5
 21
0.5
 31
0.0
 12
-0.5
 22
-0.5
 32
0.0
 13
0.5
 23
-0.5
 33
0.0
  0
LINE
  5
27
330
24
100
AcDbEntity
  8
0
  6
BYBLOCK
 62
     0
370
    -2
100
AcDbLine
 10
-0.5
 20
0.0
 30
0.0
 11
-1.0
 21
0.0
 31
0.0
  0
ENDBLK
  5
28
330
24
100
AcDbEntity
  8
0
100
AcDbBlockEnd
  0
BLOCK
  5
2A
330
29
100
AcDbEntity
  8
0
100
AcDbBlockBegin
  2
_BOXBLANK
 70
     0
 10
0.0
 20
0.0
 30
0.0
  3
_BOXBLANK
  1

  0
LINE
  5
2B
330
29
100
AcDbEntity
  8
0
  6
BYBLOCK
 62
     0
370
    -2
100
AcDbLine
 10
-0.5
 20
-0.5
 30
0.0
 11
0.5
 21
-0.5
 31
0.0
  0
LINE
  5
2C
330
29
100
AcDbEntity
  8
0
  6
BYBLOCK
 62
     0
370
    -2
100
AcDbLine
 10
0.5
 20
-0.5
 30
0.0
 11
0.5
 21
0.5
 31
0.0
  0
LINE
  5
2D
330
29
100
AcDbEntity
  8
0
  6
BYBLOCK
 62
     0
370
    -2
100
AcDbLine
 10
0.5
 20
0.5
 30
0.0
 11
-0.5
 21
0.5
 31
0.0
  0
LINE
  5
2E
330
29
100
AcDbEntity
  8
0
  6
BYBLOCK
 62
     0
370
    -2
100
AcDbLine
 10
-0.5
 20
0.5
 30
0.0
 11
-0.5
 21
-0.5
 31
0.0
  0
LINE
  5
2F
330
29
100
AcDbEntity
  8
0
  6
BYBLOCK
 62
     0
370
    -2
100
AcDbLine
 10
-0.5
 20
0.0
 30
0.0
 11
-1.0
 21
0.0
 31
0.0
  0
ENDBLK
  5
30
330
29
100
AcDbEntity
  8
0
100
AcDbBlockEnd
  0
BLOCK
  5
32
330
31
100
AcDbEntity
  8
0
100
AcDbBlockBegin
  2
_OBLIQUE
 70
     0
 10
0.0
 20
0.0
 30
0.0
  3
_OBLIQUE
  1

  0
LINE
  5
33
330
31
100
AcDbEntity
  8
0
  6
BYBLOCK
 62
     0
370
    -2
100
AcDbLine
 10
-0.5
 20
-0.5
 30
0.0
 11
0.5
 21
0.5
 31
0.0
  0
ENDBLK
  5
34
330
31
100
AcDbEntity
  8
0
100
AcDbBlockEnd
  0
BLOCK
  5
36
330
35
100
AcDbEntity
  8
0
100
AcDbBlockBegin
  2
_OPEN90
 70
     0
 10
0.0
 20
0.0
 30
0.0
  3
_OPEN90
  1

  0
LINE
  5
37
330
35
100
AcDbEntity
  8
0
  6
BYBLOCK
 62
     0
370
    -2
100
AcDbLine
 10
-0.5
 20
0.5
 30
0.0
 11
0.0
 21
0.0
 31
0.0
  0
LINE
  5
38
330
35
100
AcDbEntity
  8
0
  6
BYBLOCK
 62
     0
370
    -2
100
AcDbLine
 10
0.0
 20
0.0
 30
0.0
 11
-0.5
 21
-0.5
 31
0.0
  0
LINE
  5
39
330
35
100
AcDbEntity
  8
0
  6
BYBLOCK
 62
     0
370
    -2
100
AcDbLine
 10
0.0
 20
0.0
 30
0.0
 11
-1.0
 21
0.0
 31
0.0
  0
ENDBLK
  5
3A
330
35
100
AcDbEntity
  8
0
100
AcDbBlockEnd
  0
BLOCK
  5
3C
330
3B
100
AcDbEntity
  8
0
100
AcDbBlockBegin
  2
_CLOSEDBLANK
 70
     0
 10
0.0
 20
0.0
 30
0.0
  3
_CLOSEDBLANK
  1

  0
LINE
  5
3D
330
3B
100
AcDbEntity
  8
0
  6
BYBLOCK
 62
     0
370
    -2
100
AcDbLine
 10
-1.0
 20
0.1666666666666666
 30
0.0
 11
0.0
 21
0.0
 31
0.0
  0
LINE
  5
3E
330
3B
100
AcDbEntity
  8
0
  6
BYBLOCK
 62
     0
370
    -2
100
AcDbLine
 10
0.0
 20
0.0
 30
0.0
 11
-1.0
 21
-0.1666666666666666
 31
0.0
  0
LINE
  5
3F
330
3B
100
AcDbEntity
  8
0
  6
BYBLOCK
 62
     0
370
    -2
100
AcDbLine
 10
-1.0
 20
0.1666666666666666
 30
0.0
 11
-1.0
 21
-0.1666666666666666
 31
0.0
  0
ENDBLK
  5
40
330
3B
100
AcDbEntity
  8
0
100
AcDbBlockEnd
  0
BLOCK
  5
42
330
41
100
AcDbEntity
  8
0
100
AcDbBlockBegin
  2
_DOTBLANK
 70
     0
 10
0.0
 20
0.0
 30
0.0
  3
_DOTBLANK
  1

  0
CIRCLE
  5
43
330
41
100
AcDbEntity
  8
0
  6
BYBLOCK
 62
     0
370
    -2
100
AcDbCircle
 10
0.0
 20
0.0
 30
0.0
 40
0.5
  0
LINE
  5
44
330
41
100
AcDbEntity
  8
0
  6
BYBLOCK
 62
     0
370
    -2
100
AcDbLine
 10
-0.5
 20
0.0
 30
0.0
 11
-1.0
 21
0.0
 31
0.0
  0
ENDBLK
  5
45
330
41
100
AcDbEntity
  8
0
100
AcDbBlockEnd
  0
ENDSEC
  0
SECTION
  2
ENTITIES
  0
MTEXT
  5
46
100
AcDbEntity
  8
A8
  6
CONTINUOUS
 62
3
100
AcDbMText
 10
9.999997526638502
 20
18.00000076076889
 30
0.000000000000000
 40
3.000000000000000
 41
0.000000000000000
 44
0.6739999771118164
 71
     7
 72
     1
  1
{\H0.94x;{TYPE No.TCA-420R-U38}}
 11
1.000000000000000
 21
0.000000000000000
 31
0.000000000000000
  7
STANDARD
  0
POINT
  5
47
100
AcDbEntity
  8
A0
  6
CONTINUOUS
 62
3
100
AcDbPoint
 10
9.999997526638502
 20
18.00000076076889
 30
0.000000000000000
  0
CIRCLE
  5
48
100
AcDbEntity
  8
A10
  6
CONTINUOUS
 62
7
100
AcDbCircle
 10
120.8999980000000
 20
116.8999980000000
 30
0.000000000000000
 40
4.000000000000195
  0
CIRCLE
  5
49
100
AcDbEntity
  8
A10
  6
CONTINUOUS
 62
7
100
AcDbCircle
 10
120.8999980000000
 20
116.8999980000000
 30
0.000000000000000
 40
1.099991000000100
  0
SPLINE
  5
4A
100
AcDbEntity
  8
A10
  6
CONTINUOUS
 62
7
100
AcDbSpline
210
0.000000000000000
220
0.000000000000000
230
1.000000000000000
 70
     8
 71
     3
 72
    14
 73
    10
 74
     0
 42
1.000000000000000e-07
 43
1.000000000000000e-07
 12
-0.9972681423032554
 22
-0.07386644939469988
 32
0.000000000000000
 13
0.1046601841562733
 23
-0.9945080421255170
 33
0.000000000000000
 40
0.000000000000000
 40
0.000000000000000
 40
0.000000000000000
 40
0.000000000000000
 40
0.05552912648059240
 40
0.3320600333401187
 40
0.4901607630133127
 40
0.6693113236245545
 40
0.8173221075230570
 40
0.9820069752637672
 40
1.358034115897400
 40
1.358034115897400
 40
1.358034115897400
 40
1.358034115897400
 10
136.8127588750051
 20
147.8999980000000
 30
0.000000000000000
 10
136.7942997320687
 20
147.8986307535297
 30
0.000000000000000
 10
136.6840463121272
 20
147.8863375299116
 30
0.000000000000000
 10
136.5307644519189
 20
147.8174118281945
 30
0.000000000000000
 10
136.3612374632884
 20
147.7027067289224
 30
0.000000000000000
 10
136.2492646774072
 20
147.5833280556674
 30
0.000000000000000
 10
136.1714426149601
 20
147.4356841298335
 30
0.000000000000000
 10
136.1434492170815
 20
147.2055667385336
 30
0.000000000000000
 10
136.1369281529668
 20
147.0248151564461
 30
0.000000000000000
 10
136.1500465095623
 20
146.9001611513069
 30
0.000000000000000
  0
SPLINE
  5
4B
100
AcDbEntity
  8
A10
  6
CONTINUOUS
 62
7
100
AcDbSpline
210
0.000000000000000
220
0.000000000000000
230
1.000000000000000
 70
     8
 71
     3
 72
    16
 73
    12
 74
     0
 42
1.000000000000000e-07
 43
1.000000000000000e-07
 12
0.9978134710618178
 22
-0.06609294192639936
 32
0.000000000000000
 13
-0.005326948954916588
 23
-0.9999858117068925
 33
0.000000000000000
 40
0.000000000000000
 40
0.000000000000000
 40
0.000000000000000
 40
0.000000000000000
 40
0.04980018375394260
 40
0.3320155087914166
 40
0.5280052312660377
 40
0.6696981082981304
 40
0.8270678279524231
 40
0.9997895795440698
 40
1.010638243784792
 40
1.102096568996234
 40
1.356942482461452
 40
1.356942482461452
 40
1.356942482461452
 40
1.356942482461452
 10
104.9872371424700
 20
147.8999980000000
 30
0.000000000000000
 10
105.0038009072070
 20
147.8989008531158
 30
0.000000000000000
 10
105.1141868541645
 20
147.8878543787818
 30
0.000000000000000
 10
105.2788918146107
 20
147.8123540929233
 30
0.000000000000000
 10
105.4501272676594
 20
147.6961493864529
 30
0.000000000000000
 10
105.5605105282515
 20
147.5701455266693
 30
0.000000000000000
 10
105.6220440016821
 20
147.4234796205942
 30
0.000000000000000
 10
105.6453437585051
 20
147.3110957391391
 30
0.000000000000000
 10
105.6495277743838
 20
147.2195068789682
 30
0.000000000000000
 10
105.6490738333667
 20
147.1004118575408
 30
0.000000000000000
 10
105.6504020253848
 20
146.9850013085089
 30
0.000000000000000
 10
105.6499495083273
 20
146.9000538759634
 30
0.000000000000000
  0
ARC
  5
4C
100
AcDbEntity
  8
A10
  6
CONTINUOUS
 62
7
100
AcDbCircle
 10
105.1499491215501
 20
145.5999491215501
 30
0.000000000000000
 40
0.5000488808387862
100
AcDbArc
 50
0.005600510272394600
 51
89.99439948972760
  0
ARC
  5
4D
100
AcDbEntity
  8
A10
  6
CONTINUOUS
 62
7
100
AcDbCircle
 10
120.8999980000000
 20
116.8999980000000
 30
0.000000000000000
 40
7.000000000000000
100
AcDbArc
 50
197.3508754244598
 51
342.6865060000000
  0
ARC
  5
4E
100
AcDbEntity
  8
A10
  6
CONTINUOUS
 62
7
100
AcDbCircle
 10
136.6499979999995
 20
145.5999980000006
 30
0.000000000000000
 40
0.4999999999994387
100
AcDbArc
 50
89.99999999993588
 51
180.0000000000643
  0
LINE
  5
4F
100
AcDbEntity
  8
A10
  6
CONTINUOUS
 62
7
100
AcDbLine
 10
97.89999799999998
 20
147.8999980000000
 30
0.000000000000000
 11
102.3999980000000
 21
147.8999980000000
 31
0.000000000000000
  0
LINE
  5
50
100
AcDbEntity
  8
A10
  6
CONTINUOUS
 62
7
100
AcDbLine
 10
97.89999799999998
 20
146.0999980000000
 30
0.000000000000000
 11
102.3999980000000
 21
146.0999980000000
 31
0.000000000000000
  0
LINE
  5
51
100
AcDbEntity
  8
A10
  6
CONTINUOUS
 62
7
100
AcDbLine
 10
97.89999799999998
 20
146.0999980000000
 30
0.000000000000000
 11
97.89999799999998
 21
147.8999980000000
 31
0.000000000000000
  0
LINE
  5
52
100
AcDbEntity
  8
A10
  6
CONTINUOUS
 62
7
100
AcDbLine
 10
139.3999980000000
 20
147.8999980000000
 30
0.000000000000000
 11
143.8999980000000
 21
147.8999980000000
 31
0.000000000000000
  0
LINE
  5
53
100
AcDbEntity
  8
A10
  6
CONTINUOUS
 62
7
100
AcDbLine
 10
139.3999980000000
 20
146.0999980000000
 30
0.000000000000000
 11
143.8999980000000
 21
146.0999980000000
 31
0.000000000000000
  0
LINE
  5
54
100
AcDbEntity
  8
A10
  6
CONTINUOUS
 62
7
100
AcDbLine
 10
143.8999980000000
 20
146.0999980000000
 30
0.000000000000000
 11
143.8999980000000
 21
147.8999980000000
 31
0.000000000000000
  0
LINE
  5
55
100
AcDbEntity
  8
A10
  6
CONTINUOUS
 62
7
100
AcDbLine
 10
136.8641408428543
 20
147.8999980000000
 30
0.000000000000000
 11
139.3999980000000
 21
147.8999980000000
 31
0.000000000000000
  0
LINE
  5
56
100
AcDbEntity
  8
A10
  6
CONTINUOUS
 62
7
100
AcDbLine
 10
102.3999980000000
 20
147.8999980000000
 30
0.000000000000000
 11
104.9358551571456
 21
147.8999980000000
 31
0.000000000000000
  0
LINE
  5
57
100
AcDbEntity
  8
A10
  6
CONTINUOUS
 62
7
100
AcDbLine
 10
136.8641408428543
 20
146.0999980000000
 30
0.000000000000000
 11
139.3999980000000
 21
146.0999980000000
 31
0.000000000000000
  0
LINE
  5
58
100
AcDbEntity
  8
A10
  6
CONTINUOUS
 62
7
100
AcDbLine
 10
102.3999980000000
 20
146.0999980000000
 30
0.000000000000000
 11
104.9358551571456
 21
146.0999980000000
 31
0.000000000000000
  0
LINE
  5
59
100
AcDbEntity
  8
A10
  6
CONTINUOUS
 62
7
100
AcDbLine
 10
104.9767530277920
 20
147.8999980000000
 30
0.000000000000000
 11
136.8365653156874
 21
147.8999980000000
 31
0.000000000000000
  0
LINE
  5
5A
100
AcDbEntity
  8
A10
  6
CONTINUOUS
 62
7
100
AcDbLine
 10
104.9358551571456
 20
146.0999980000000
 30
0.000000000000000
 11
105.1499980000000
 21
146.0999980000000
 31
0.000000000000000
  0
LINE
  5
5B
100
AcDbEntity
  8
A10
  6
CONTINUOUS
 62
7
100
AcDbLine
 10
105.6499980000000
 20
145.5999980000000
 30
0.000000000000000
 11
105.6499980000000
 21
146.9001097522288
 31
0.000000000000000
  0
LINE
  5
5C
100
AcDbEntity
  8
A10
  6
CONTINUOUS
 62
7
100
AcDbLine
 10
105.6499990000000
 20
142.2999970000000
 30
0.000000000000000
 11
105.6499980000000
 21
145.5999980000000
 31
0.000000000000000
  0
LINE
  5
5D
100
AcDbEntity
  8
A10
  6
CONTINUOUS
 62
7
100
AcDbLine
 10
105.6499990000000
 20
142.2999970000000
 30
0.000000000000000
 11
114.2185234029006
 21
114.8124402862315
 31
0.000000000000000
  0
LINE
  5
5E
100
AcDbEntity
  8
A10
  6
CONTINUOUS
 62
7
100
AcDbLine
 10
127.5828331580308
 20
114.8167999175825
 30
0.000000000000000
 11
136.1499980000000
 21
142.2999990000002
 31
0.000000000000000
  0
LINE
  5
5F
100
AcDbEntity
  8
A10
  6
CONTINUOUS
 62
7
100
AcDbLine
 10
136.1499980000000
 20
142.2999990000002
 30
0.000000000000000
 11
136.1499980000000
 21
145.5999980000000
 31
0.000000000000000
  0
LINE
  5
60
100
AcDbEntity
  8
A10
  6
CONTINUOUS
 62
7
100
AcDbLine
 10
136.1499980000000
 20
145.5999980000000
 30
0.000000000000000
 11
136.1499980000000
 21
146.9001097537505
 31
0.000000000000000
  0
LINE
  5
61
100
AcDbEntity
  8
A10
  6
CONTINUOUS
 62
7
100
AcDbLine
 10
136.6499980000000
 20
146.0999980000000
 30
0.000000000000000
 11
136.8641408428543
 21
146.0999980000000
 31
0.000000000000000
  0
ARC
  5
62
100
AcDbEntity
  8
A10
  6
CONTINUOUS
 62
7
100
AcDbCircle
 10
120.8999980000000
 20
116.8999980000000
 30
0.000000000000000
 40
19.00000000000000
100
AcDbArc
 50
128.9317646309586
 51
270.0000000000000
  0
ARC
  5
63
100
AcDbEntity
  8
A10
  6
CONTINUOUS
 62
7
100
AcDbCircle
 10
120.8999980000000
 20
116.8999980000000
 30
0.000000000000000
 40
19.00000000000000
100
AcDbArc
 50
270.0000000000000
 51
411.0682326332794
  0
ARC
  5
64
100
AcDbEntity
  8
A10
  6
CONTINUOUS
 62
7
100
AcDbCircle
 10
120.8999980000000
 20
116.8999980000000
 30
0.000000000000000
 40
13.50000000000000
100
AcDbArc
 50
138.5464186625698
 51
270.0000000000000
  0
ARC
  5
65
100
AcDbEntity
  8
A10
  6
CONTINUOUS
 62
7
100
AcDbCircle
 10
120.8999980000000
 20
116.8999980000000
 30
0.000000000000000
 40
13.50000000000000
100
AcDbArc
 50
270.0000000000000
 51
401.4535758297652
  0
ARC
  5
66
100
AcDbEntity
  8
A10
  6
CONTINUOUS
 62
7
100
AcDbCircle
 10
120.8999980000000
 20
116.8999980000000
 30
0.000000000000000
 40
14.50000000000000
100
AcDbArc
 50
136.1792177345691
 51
270.0000000000000
  0
ARC
  5
67
100
AcDbEntity
  8
A10
  6
CONTINUOUS
 62
7
100
AcDbCircle
 10
120.8999980000000
 20
116.8999980000000
 30
0.000000000000000
 40
14.50000000000000
100
AcDbArc
 50
270.0000000000000
 51
403.8207774854421
  0
ARC
  5
68
100
AcDbEntity
  8
A10
  6
CONTINUOUS
 62
7
100
AcDbCircle
 10
120.8999980000000
 20
116.8999980000000
 30
0.000000000000000
 40
8.145640999999999
100
AcDbArc
 50
166.5577526793292
 51
270.0000000000000
  0
ARC
  5
69
100
AcDbEntity
  8
A10
  6
CONTINUOUS
 62
7
100
AcDbCircle
 10
120.8999980000000
 20
116.8999980000000
 30
0.000000000000000
 40
8.145640999999999
100
AcDbArc
 50
270.0000000000000
 51
373.4422276433554
  0
ARC
  5
6A
100
AcDbEntity
  8
A11
  6
CONTINUOUS
 62
7
100
AcDbCircle
 10
192.9999960000000
 20
119.7202000000002
 30
0.000000000000000
 40
1.000000000000000
100
AcDbArc
 50
0.000000000000000
 51
78.46369404296283
  0
ARC
  5
6B
100
AcDbEntity
  8
A11
  6
CONTINUOUS
 62
7
100
AcDbCircle
 10
192.9999960000000
 20
114.0797959999998
 30
0.000000000000000
 40
1.000000000000000
100
AcDbArc
 50
281.5363059570371
 51
360.0000000000000
  0
ARC
  5
6C
100
AcDbEntity
  8
A11
  6
CONTINUOUS
 62
7
100
AcDbCircle
 10
169.0999980000001
 20
116.8999980000000
 30
0.000000000000000
 40
5.315072000000000
100
AcDbArc
 50
131.1859294403129
 51
168.0558933647291
  0
ARC
  5
6D
100
AcDbEntity
  8
A11
  6
CONTINUOUS
 62
7
100
AcDbCircle
 10
169.0999980000001
 20
116.8999980000000
 30
0.000000000000000
 40
5.315072000000000
100
AcDbArc
 50
191.9441066352708
 51
228.8140705596871
  0
LINE
  5
6E
100
AcDbEntity
  8
A11
  6
CONTINUOUS
 62
7
100
AcDbLine
 10
166.1999959999999
 20
119.8999980000000
 30
0.000000000000000
 11
166.1500080000000
 21
119.8999980000000
 31
0.000000000000000
  0
LINE
  5
6F
100
AcDbEntity
  8
A11
  6
CONTINUOUS
 62
7
100
AcDbLine
 10
168.9999960000000
 20
119.8999980000000
 30
0.000000000000000
 11
167.9999960000000
 21
119.8999980000000
 31
0.000000000000000
  0
LINE
  5
70
100
AcDbEntity
  8
A11
  6
CONTINUOUS
 62
7
100
AcDbLine
 10
189.9999960000000
 20
119.8999980000000
 30
0.000000000000000
 11
188.9999960000000
 21
119.8999980000000
 31
0.000000000000000
  0
LINE
  5
71
100
AcDbEntity
  8
A11
  6
CONTINUOUS
 62
7
100
AcDbLine
 10
191.8388049992050
 20
119.8999980000000
 30
0.000000000000000
 11
191.7999960000000
 21
119.8999980000000
 31
0.000000000000000
  0
LINE
  5
72
100
AcDbEntity
  8
A11
  6
CONTINUOUS
 62
7
100
AcDbLine
 10
191.7999960000001
 20
113.8999980000000
 30
0.000000000000000
 11
191.8388049992050
 21
113.8999980000000
 31
0.000000000000000
  0
LINE
  5
73
100
AcDbEntity
  8
A11
  6
CONTINUOUS
 62
7
100
AcDbLine
 10
188.9999960000000
 20
113.8999980000000
 30
0.000000000000000
 11
189.9999960000000
 21
113.8999980000000
 31
0.000000000000000
  0
LINE
  5
74
100
AcDbEntity
  8
A11
  6
CONTINUOUS
 62
7
100
AcDbLine
 10
167.9999960000000
 20
113.8999980000000
 30
0.000000000000000
 11
168.9999960000000
 21
113.8999980000000
 31
0.000000000000000
  0
LINE
  5
75
100
AcDbEntity
  8
A11
  6
CONTINUOUS
 62
7
100
AcDbLine
 10
166.1500080000000
 20
113.8999980000000
 30
0.000000000000000
 11
166.1999959999999
 21
113.8999980000000
 31
0.000000000000000
  0
LINE
  5
76
100
AcDbEntity
  8
A11
  6
CONTINUOUS
 62
7
100
AcDbLine
 10
191.8388049992050
 20
113.8999980000000
 30
0.000000000000000
 11
193.1999850000000
 21
113.0999969999999
 31
0.000000000000000
  0
LINE
  5
77
100
AcDbEntity
  8
A11
  6
CONTINUOUS
 62
7
100
AcDbLine
 10
193.1999850000000
 20
120.6999990000001
 30
0.000000000000000
 11
191.8388049992051
 21
119.8999980000000
 31
0.000000000000000
  0
LINE
  5
78
100
AcDbEntity
  8
A11
  6
CONTINUOUS
 62
7
100
AcDbLine
 10
191.8388049992051
 20
113.8999980000000
 30
0.000000000000000
 11
191.8388049992051
 21
119.8999980000000
 31
0.000000000000000
  0
LINE
  5
79
100
AcDbEntity
  8
A11
  6
CONTINUOUS
 62
7
100
AcDbLine
 10
193.1999850000001
 20
113.0999969999999
 30
0.000000000000000
 11
193.1999850000001
 21
120.6999990000001
 31
0.000000000000000
  0
LINE
  5
7A
100
AcDbEntity
  8
A11
  6
CONTINUOUS
 62
7
100
AcDbLine
 10
193.9999879999999
 20
114.0797959999998
 30
0.000000000000000
 11
193.9999879999999
 21
119.7202000000002
 31
0.000000000000000
  0
LINE
  5
7B
100
AcDbEntity
  8
A11
  6
CONTINUOUS
 62
7
100
AcDbLine
 10
163.8999980000000
 20
115.8000069999999
 30
0.000000000000000
 11
163.8999980000000
 21
117.9999890000001
 31
0.000000000000000
  0
LINE
  5
7C
100
AcDbEntity
  8
A11
  6
CONTINUOUS
 62
7
100
AcDbLine
 10
165.5999980000000
 20
112.8999979999998
 30
0.000000000000000
 11
165.5999980000000
 21
120.8999980000002
 31
0.000000000000000
  0
LINE
  5
7D
100
AcDbEntity
  8
A11
  6
CONTINUOUS
 62
7
100
AcDbLine
 10
166.1500080000001
 20
112.8999979999998
 30
0.000000000000000
 11
166.1500080000001
 21
120.8999980000002
 31
0.000000000000000
  0
LINE
  5
7E
100
AcDbEntity
  8
A11
  6
CONTINUOUS
 62
7
100
AcDbLine
 10
166.1500080000001
 20
120.8999980000002
 30
0.000000000000000
 11
165.5999980000000
 21
120.8999980000002
 31
0.000000000000000
  0
LINE
  5
7F
100
AcDbEntity
  8
A11
  6
CONTINUOUS
 62
7
100
AcDbLine
 10
165.5999980000000
 20
112.8999979999998
 30
0.000000000000000
 11
166.1500080000001
 21
112.8999979999998
 31
0.000000000000000
  0
SPLINE
  5
80
100
AcDbEntity
  8
A11
  6
CONTINUOUS
 62
7
100
AcDbSpline
210
0.000000000000000
220
0.000000000000000
230
1.000000000000000
 70
     8
 71
     3
 72
    11
 73
     7
 74
     0
 42
1.000000000000000e-07
 43
1.000000000000000e-07
 12
0.02833958258270286
 22
0.9995983533590334
 32
0.000000000000000
 13
-0.4819316614739364
 23
0.8762088071161998
 33
0.000000000000000
 40
0.000000000000000
 40
0.000000000000000
 40
0.000000000000000
 40
0.000000000000000
 40
0.006197426613441700
 40
0.02704761229180820
 40
0.05319913152137330
 40
0.06093842597003050
 40
0.06093842597003050
 40
0.06093842597003050
 40
0.06093842597003050
 10
191.5165546947244
 20
147.6836589372291
 30
0.000000000000000
 10
191.5166132388856
 20
147.6857239163751
 30
0.000000000000000
 10
191.5164458487386
 20
147.6948286103020
 30
0.000000000000000
 10
191.5082222350616
 20
147.7110841154494
 30
0.000000000000000
 10
191.5028975012428
 20
147.7284846055761
 30
0.000000000000000
 10
191.4975611178144
 20
147.7384763458901
 30
0.000000000000000
 10
191.4963178474703
 20
147.7407367585423
 30
0.000000000000000
  0
SPLINE
  5
81
100
AcDbEntity
  8
A11
  6
CONTINUOUS
 62
7
100
AcDbSpline
210
0.000000000000000
220
0.000000000000000
230
1.000000000000000
 70
     8
 71
     3
 72
     9
 73
     5
 74
     0
 42
1.000000000000000e-07
 43
1.000000000000000e-07
 12
-0.4876459599472582
 22
-0.8730414753808873
 32
0.000000000000000
 13
-0.3171567985700676
 23
-0.9483731149266532
 33
0.000000000000000
 40
0.000000000000000
 40
0.000000000000000
 40
0.000000000000000
 40
0.000000000000000
 40
0.006415206099954200
 40
0.02598697486569770
 40
0.02598697486569770
 40
0.02598697486569770
 40
0.02598697486569770
 10
166.5036016142282
 20
147.7399593087915
 30
0.000000000000000
 10
166.5025588311159
 20
147.7380923951254
 30
0.000000000000000
 10
166.4985097001359
 20
147.7304333559829
 30
0.000000000000000
 10
166.4951812359678
 20
147.7223935851069
 30
0.000000000000000
 10
166.4931121294598
 20
147.7162064720039
 30
0.000000000000000
  0
SPLINE
  5
82
100
AcDbEntity
  8
A11
  6
CONTINUOUS
 62
7
100
AcDbSpline
210
0.000000000000000
220
0.000000000000000
230
1.000000000000000
 70
     8
 71
     3
 72
    10
 73
     6
 74
     0
 42
1.000000000000000e-07
 43
1.000000000000000e-07
 12
-0.7720647356545669
 22
-0.5528623393911403
 32
0.000000000000000
 13
0.3134914410984493
 23
-0.1475919487966166
 33
0.000000000000000
 40
0.000000000000000
 40
0.000000000000000
 40
0.000000000000000
 40
0.000000000000000
 40
0.02110596246441815
 40
0.02864084921241173
 40
0.04374888053083209
 40
0.04374888053083209
 40
0.04374888053083209
 40
0.04374888053083209
 10
166.4947898738845
 20
147.6818562648013
 30
0.000000000000000
 10
166.4893581507742
 20
147.6779667008736
 30
0.000000000000000
 10
166.4777072377263
 20
147.6694612209115
 30
0.000000000000000
 10
166.4761616308713
 20
147.6620865603936
 30
0.000000000000000
 10
166.4651250390143
 20
147.6545522900546
 30
0.000000000000000
 10
166.4667037851843
 20
147.6538090154597
 30
0.000000000000000
  0
SPLINE
  5
83
100
AcDbEntity
  8
A11
  6
CONTINUOUS
 62
7
100
AcDbSpline
210
0.000000000000000
220
0.000000000000000
230
1.000000000000000
 70
     8
 71
     3
 72
    11
 73
     7
 74
     0
 42
1.000000000000000e-07
 43
1.000000000000000e-07
 12
-0.5302475007765679
 22
-0.8478429028550636
 32
0.000000000000000
 13
-0.04113658746632609
 23
-0.9991535323322296
 33
0.000000000000000
 40
0.000000000000000
 40
0.000000000000000
 40
0.000000000000000
 40
0.000000000000000
 40
0.1186162367221883
 40
0.2699249427773651
 40
0.4470455675020330
 40
0.8299260220929613
 40
0.8299260220929613
 40
0.8299260220929613
 40
0.8299260220929613
 10
166.4787734373637
 20
147.6718443798756
 30
0.000000000000000
 10
166.4578081163392
 20
147.6383217350529
 30
0.000000000000000
 10
166.4114999565791
 20
147.5611813484466
 30
0.000000000000000
 10
166.3371347422190
 20
147.4319448737375
 30
0.000000000000000
 10
166.2398643120947
 20
147.2151306489382
 30
0.000000000000000
 10
166.2052461524976
 20
147.0276799375287
 30
0.000000000000000
 10
166.1999960207278
 20
146.9001611513069
 30
0.000000000000000
  0
SPLINE
  5
84
100
AcDbEntity
  8
A11
  6
CONTINUOUS
 62
7
100
AcDbSpline
210
0.000000000000000
220
0.000000000000000
230
1.000000000000000
 70
     8
 71
     3
 72
    13
 73
     9
 74
     0
 42
1.000000000000000e-07
 43
1.000000000000000e-07
 12
0.5199583357143638
 22
-0.8541916231852156
 32
0.000000000000000
 13
0.004182442700312095
 23
-0.9999912535481599
 33
0.000000000000000
 40
0.000000000000000
 40
0.000000000000000
 40
0.000000000000000
 40
0.000000000000000
 40
0.09729226151325310
 40
0.2609761715755531
 40
0.4457548566279760
 40
0.4572863280197222
 40
0.5530980551442354
 40
0.8100613620890580
 40
0.8100613620890580
 40
0.8100613620890580
 40
0.8100613620890580
 10
191.5330446370944
 20
147.6540706207134
 30
0.000000000000000
 10
191.5499072778859
 20
147.6263685424516
 30
0.000000000000000
 10
191.5939842868283
 20
147.5513768064243
 30
0.000000000000000
 10
191.6673200152715
 20
147.4220295706987
 30
0.000000000000000
 10
191.7147941056419
 20
147.3114505046166
 30
0.000000000000000
 10
191.7481211711032
 20
147.2199594724725
 30
0.000000000000000
 10
191.7848358429374
 20
147.1041120640933
 30
0.000000000000000
 10
191.7996377550405
 20
146.9857075680889
 30
0.000000000000000
 10
191.7999959998097
 20
146.9000538816130
 30
0.000000000000000
  0
SPLINE
  5
85
100
AcDbEntity
  8
A11
  6
CONTINUOUS
 62
7
100
AcDbSpline
210
0.000000000000000
220
0.000000000000000
230
1.000000000000000
 70
     8
 71
     3
 72
    13
 73
     9
 74
     0
 42
1.000000000000000e-07
 43
1.000000000000000e-07
 12
-0.01981171743500454
 22
0.9998037286641193
 32
0.000000000000000
 13
-0.9479272156531806
 23
0.3184870387103729
 33
0.000000000000000
 40
0.000000000000000
 40
0.000000000000000
 40
0.000000000000000
 40
0.000000000000000
 40
0.1382435693099335
 40
0.2667137332447314
 40
0.4280870514894636
 40
0.4940375617379040
 40
0.5464119721566462
 40
0.5948062475854472
 40
0.5948062475854472
 40
0.5948062475854472
 40
0.5948062475854472
 10
191.7999960000000
 20
145.5999980000000
 30
0.000000000000000
 10
191.7990830524892
 20
145.6460701453533
 30
0.000000000000000
 10
191.7873600784767
 20
145.7354111381088
 30
0.000000000000000
 10
191.7331888170159
 20
145.8683346152251
 30
0.000000000000000
 10
191.6693980858035
 20
145.9694991505800
 30
0.000000000000000
 10
191.6085402431958
 20
146.0399021617118
 30
0.000000000000000
 10
191.5695621793939
 20
146.0802989855522
 30
0.000000000000000
 10
191.5384850608347
 20
146.0948603501761
 30
0.000000000000000
 10
191.5231936439145
 20
146.0999980000000
 30
0.000000000000000
  0
SPLINE
  5
86
100
AcDbEntity
  8
A11
  6
CONTINUOUS
 62
7
100
AcDbSpline
210
0.000000000000000
220
0.000000000000000
230
1.000000000000000
 70
     8
 71
     3
 72
    12
 73
     8
 74
     0
 42
1.000000000000000e-07
 43
1.000000000000000e-07
 12
-0.9281932053563651
 22
-0.3720986072739834
 32
0.000000000000000
 13
-0.02174704624121659
 23
-0.9997635050240206
 33
0.000000000000000
 40
0.000000000000000
 40
0.000000000000000
 40
0.000000000000000
 40
0.000000000000000
 40
0.05717473054800460
 40
0.1580980259716873
 40
0.3095466887675403
 40
0.4540264486093264
 40
0.5944821463670210
 40
0.5944821463670210
 40
0.5944821463670210
 40
0.5944821463670210
 10
166.4767983560856
 20
146.0999980000000
 30
0.000000000000000
 10
166.4591086239480
 20
146.0929064541306
 30
0.000000000000000
 10
166.4114007871240
 20
146.0684293570075
 30
0.000000000000000
 10
166.3454800414791
 20
145.9864370543470
 30
0.000000000000000
 10
166.2709783606769
 20
145.8776332552676
 30
0.000000000000000
 10
166.2137852029892
 20
145.7420658643675
 30
0.000000000000000
 10
166.2010141655181
 20
145.6468054935636
 30
0.000000000000000
 10
166.1999960000001
 20
145.5999980000000
 30
0.000000000000000
  0
SPLINE
  5
87
100
AcDbEntity
  8
A11
  6
CONTINUOUS
 62
7
100
AcDbSpline
210
0.000000000000000
220
0.000000000000000
230
1.000000000000000
 70
     8
 71
     3
 72
     9
 73
     5
 74
     0
 42
1.000000000000000e-07
 43
1.000000000000000e-07
 12
0.5266474058007589
 22
-0.8500838252657559
 32
0.000000000000000
 13
0.5244636364877806
 23
-0.8514328476121591
 33
0.000000000000000
 40
0.000000000000000
 40
0.000000000000000
 40
0.000000000000000
 40
0.000000000000000
 40
0.005674367255133400
 40
0.02236763554938440
 40
0.02236763554938440
 40
0.02236763554938440
 40
0.02236763554938440
 10
191.4995021730811
 20
147.7070830487893
 30
0.000000000000000
 10
191.5004983033459
 20
147.7054751528486
 30
0.000000000000000
 10
191.5044228587097
 20
147.6991357528165
 30
0.000000000000000
 10
191.5083392778796
 20
147.6927913159879
 30
0.000000000000000
 10
191.5112576152778
 20
147.6880535836680
 30
0.000000000000000
  0
ARC
  5
88
100
AcDbEntity
  8
A11
  6
CONTINUOUS
 62
7
100
AcDbCircle
 10
191.4044993967388
 20
147.5515398684989
 30
0.000000000000000
 40
0.1646918421459975
100
AcDbArc
 50
38.05790642979674
 51
52.30474214287909
  0
LINE
  5
89
100
AcDbEntity
  8
A11
  6
CONTINUOUS
 62
7
100
AcDbLine
 10
166.4931121294598
 20
147.7162064720039
 30
0.000000000000000
 11
166.4873020405255
 21
147.7020136757532
 31
0.000000000000000
  0
LINE
  5
8A
100
AcDbEntity
  8
A11
  6
CONTINUOUS
 62
7
100
AcDbLine
 10
189.9999960000000
 20
114.8167999175825
 30
0.000000000000000
 11
189.9999960000000
 21
109.8999980000000
 31
0.000000000000000
  0
LINE
  5
8B
100
AcDbEntity
  8
A11
  6
CONTINUOUS
 62
7
100
AcDbLine
 10
189.9999960000000
 20
109.8999980000000
 30
0.000000000000000
 11
191.7999960000001
 21
109.8999980000000
 31
0.000000000000000
  0
LINE
  5
8C
100
AcDbEntity
  8
A11
  6
CONTINUOUS
 62
7
100
AcDbLine
 10
191.7999960000000
 20
109.8999980000000
 30
0.000000000000000
 11
191.7999960000000
 21
114.8167999175825
 31
0.000000000000000
  0
LINE
  5
8D
100
AcDbEntity
  8
A11
  6
CONTINUOUS
 62
7
100
AcDbLine
 10
167.9999960000000
 20
114.8167999539499
 30
0.000000000000000
 11
167.9999960000000
 21
109.8999980000000
 31
0.000000000000000
  0
LINE
  5
8E
100
AcDbEntity
  8
A11
  6
CONTINUOUS
 62
7
100
AcDbLine
 10
166.1999960000000
 20
109.8999980000000
 30
0.000000000000000
 11
167.9999960000000
 21
109.8999980000000
 31
0.000000000000000
  0
LINE
  5
8F
100
AcDbEntity
  8
A11
  6
CONTINUOUS
 62
7
100
AcDbLine
 10
166.1999959999999
 20
109.8999980000000
 30
0.000000000000000
 11
166.1999959999999
 21
114.8167999175825
 31
0.000000000000000
  0
LINE
  5
90
100
AcDbEntity
  8
A11
  6
CONTINUOUS
 62
7
100
AcDbLine
 10
191.7999960000000
 20
114.8167999175825
 30
0.000000000000000
 11
191.7999960000000
 21
142.2999990000002
 31
0.000000000000000
  0
LINE
  5
91
100
AcDbEntity
  8
A11
  6
CONTINUOUS
 62
7
100
AcDbLine
 10
189.9999960000000
 20
142.2999990000003
 30
0.000000000000000
 11
189.9999960000000
 21
114.8167999175825
 31
0.000000000000000
  0
LINE
  5
92
100
AcDbEntity
  8
A11
  6
CONTINUOUS
 62
7
100
AcDbLine
 10
166.1999959999999
 20
114.8167999175825
 30
0.000000000000000
 11
166.1999959999999
 21
142.2999990000002
 31
0.000000000000000
  0
LINE
  5
93
100
AcDbEntity
  8
A11
  6
CONTINUOUS
 62
7
100
AcDbLine
 10
167.9999960000000
 20
142.2999990000002
 30
0.000000000000000
 11
167.9999960000000
 21
114.8167999175827
 31
0.000000000000000
  0
LINE
  5
94
100
AcDbEntity
  8
A11
  6
CONTINUOUS
 62
7
100
AcDbLine
 10
189.9999960000000
 20
142.2999990000003
 30
0.000000000000000
 11
189.9999960000000
 21
145.5999980000000
 31
0.000000000000000
  0
LINE
  5
95
100
AcDbEntity
  8
A11
  6
CONTINUOUS
 62
7
100
AcDbLine
 10
167.9999960000000
 20
142.2999990000002
 30
0.000000000000000
 11
167.9999960000000
 21
145.5999980000000
 31
0.000000000000000
  0
LINE
  5
96
100
AcDbEntity
  8
A11
  6
CONTINUOUS
 62
7
100
AcDbLine
 10
191.7999960000000
 20
142.2999990000002
 30
0.000000000000000
 11
191.7999960000000
 21
145.5999980000000
 31
0.000000000000000
  0
LINE
  5
97
100
AcDbEntity
  8
A11
  6
CONTINUOUS
 62
7
100
AcDbLine
 10
191.7999960000000
 20
142.2999990000002
 30
0.000000000000000
 11
189.9999960000000
 21
142.2999990000003
 31
0.000000000000000
  0
LINE
  5
98
100
AcDbEntity
  8
A11
  6
CONTINUOUS
 62
7
100
AcDbLine
 10
166.1999959999999
 20
142.2999990000002
 30
0.000000000000000
 11
166.1999960000001
 21
145.5999980000000
 31
0.000000000000000
  0
LINE
  5
99
100
AcDbEntity
  8
A11
  6
CONTINUOUS
 62
7
100
AcDbLine
 10
167.9999960000000
 20
142.2999990000002
 30
0.000000000000000
 11
166.1999959999999
 21
142.2999990000002
 31
0.000000000000000
  0
LINE
  5
9A
100
AcDbEntity
  8
A11
  6
CONTINUOUS
 62
7
100
AcDbLine
 10
189.9999960000000
 20
145.5999980000000
 30
0.000000000000000
 11
189.9999960000000
 21
146.0999980000000
 31
0.000000000000000
  0
LINE
  5
9B
100
AcDbEntity
  8
A11
  6
CONTINUOUS
 62
7
100
AcDbLine
 10
167.9999960000000
 20
146.0999980000000
 30
0.000000000000000
 11
167.9999960000000
 21
145.5999980000000
 31
0.000000000000000
  0
LINE
  5
9C
100
AcDbEntity
  8
A11
  6
CONTINUOUS
 62
7
100
AcDbLine
 10
191.4999960000000
 20
146.0999980000000
 30
0.000000000000000
 11
191.5231936439145
 21
146.0999980000000
 31
0.000000000000000
  0
LINE
  5
9D
100
AcDbEntity
  8
A11
  6
CONTINUOUS
 62
7
100
AcDbLine
 10
191.7999960000000
 20
145.5999980000000
 30
0.000000000000000
 11
191.7999960000000
 21
146.9001097635286
 31
0.000000000000000
  0
LINE
  5
9E
100
AcDbEntity
  8
A11
  6
CONTINUOUS
 62
7
100
AcDbLine
 10
166.4767983560856
 20
146.0999980000000
 30
0.000000000000000
 11
166.4999960000000
 21
146.0999980000000
 31
0.000000000000000
  0
LINE
  5
9F
100
AcDbEntity
  8
A11
  6
CONTINUOUS
 62
7
100
AcDbLine
 10
166.4999960000000
 20
147.6999980000001
 30
0.000000000000000
 11
166.4958281243106
 21
147.6843854055686
 31
0.000000000000000
  0
LINE
  5
A0
100
AcDbEntity
  8
A11
  6
CONTINUOUS
 62
7
100
AcDbLine
 10
166.1999960000001
 20
145.5999980000000
 30
0.000000000000000
 11
166.1999960000001
 21
146.9001097537505
 31
0.000000000000000
  0
LINE
  5
A1
100
AcDbEntity
  8
A11
  6
CONTINUOUS
 62
7
100
AcDbLine
 10
166.5002715965247
 20
147.7081917712582
 30
0.000000000000000
 11
166.4922272417137
 21
147.6953156096023
 31
0.000000000000000
  0
LINE
  5
A2
100
AcDbEntity
  8
A11
  6
CONTINUOUS
 62
7
100
AcDbLine
 10
166.4999960000000
 20
147.8999980000000
 30
0.000000000000000
 11
170.9999960000000
 21
147.8999980000000
 31
0.000000000000000
  0
LINE
  5
A3
100
AcDbEntity
  8
A11
  6
CONTINUOUS
 62
7
100
AcDbLine
 10
166.4999960000000
 20
146.0999980000000
 30
0.000000000000000
 11
166.4999960000000
 21
147.8999980000000
 31
0.000000000000000
  0
LINE
  5
A4
100
AcDbEntity
  8
A11
  6
CONTINUOUS
 62
7
100
AcDbLine
 10
166.4999960000000
 20
146.0999980000000
 30
0.000000000000000
 11
170.9999960000000
 21
146.0999980000000
 31
0.000000000000000
  0
LINE
  5
A5
100
AcDbEntity
  8
A11
  6
CONTINUOUS
 62
7
100
AcDbLine
 10
186.9999960000000
 20
147.8999980000000
 30
0.000000000000000
 11
191.4999960000000
 21
147.8999980000000
 31
0.000000000000000
  0
LINE
  5
A6
100
AcDbEntity
  8
A11
  6
CONTINUOUS
 62
7
100
AcDbLine
 10
186.9999960000000
 20
146.0999980000000
 30
0.000000000000000
 11
191.4999960000000
 21
146.0999980000000
 31
0.000000000000000
  0
LINE
  5
A7
100
AcDbEntity
  8
A11
  6
CONTINUOUS
 62
7
100
AcDbLine
 10
191.4999960000000
 20
146.0999980000000
 30
0.000000000000000
 11
191.4999960000000
 21
147.8999980000000
 31
0.000000000000000
  0
LINE
  5
A8
100
AcDbEntity
  8
A11
  6
CONTINUOUS
 62
7
100
AcDbLine
 10
170.9999960000000
 20
147.8999980000000
 30
0.000000000000000
 11
186.9999960000000
 21
147.8999980000000
 31
0.000000000000000
  0
LINE
  5
A9
100
AcDbEntity
  8
A11
  6
CONTINUOUS
 62
7
100
AcDbLine
 10
170.9999960000000
 20
146.0999980000000
 30
0.000000000000000
 11
186.9999960000000
 21
146.0999980000000
 31
0.000000000000000
  0
ARC
  5
AA
100
AcDbEntity
  8
A11
  6
CONTINUOUS
 62
7
100
AcDbCircle
 10
187.4999960000000
 20
123.5456390000000
 30
0.000000000000000
 40
1.500000000000000
100
AcDbArc
 50
0.000000000000000
 51
90.00000000000000
  0
ARC
  5
AB
100
AcDbEntity
  8
A11
  6
CONTINUOUS
 62
7
100
AcDbCircle
 10
187.4999960000000
 20
110.2543570000000
 30
0.000000000000000
 40
1.500000000000000
100
AcDbArc
 50
270.0000000000000
 51
360.0000000000000
  0
ARC
  5
AC
100
AcDbEntity
  8
A11
  6
CONTINUOUS
 62
7
100
AcDbCircle
 10
170.4999960000000
 20
123.5456390000000
 30
0.000000000000000
 40
1.500000000000000
100
AcDbArc
 50
90.00000000000000
 51
180.0000000000000
  0
ARC
  5
AD
100
AcDbEntity
  8
A11
  6
CONTINUOUS
 62
7
100
AcDbCircle
 10
170.4999960000000
 20
110.2543570000000
 30
0.000000000000000
 40
1.500000000000000
100
AcDbArc
 50
180.0000000000000
 51
270.0000000000000
  0
ARC
  5
AE
100
AcDbEntity
  8
A11
  6
CONTINUOUS
 62
7
100
AcDbCircle
 10
171.4999960680198
 20
134.1318899736232
 30
0.000000000000000
 40
1.000000068019862
100
AcDbArc
 50
101.6954182777460
 51
179.9999984887294
  0
ARC
  5
AF
100
AcDbEntity
  8
A11
  6
CONTINUOUS
 62
7
100
AcDbCircle
 10
171.4999960680198
 20
99.66810602637682
 30
0.000000000000000
 40
1.000000068019862
100
AcDbArc
 50
180.0000015112706
 51
258.3045817222541
  0
ARC
  5
B0
100
AcDbEntity
  8
A11
  6
CONTINUOUS
 62
7
100
AcDbCircle
 10
186.4999959319804
 20
134.1318899736232
 30
0.000000000000000
 40
1.000000068019862
100
AcDbArc
 50
0.000000000000000
 51
78.30458172225562
  0
ARC
  5
B1
100
AcDbEntity
  8
A11
  6
CONTINUOUS
 62
7
100
AcDbCircle
 10
186.4999959319804
 20
99.66810602637682
 30
0.000000000000000
 40
1.000000068019862
100
AcDbArc
 50
281.6954182777443
 51
360.0000000000000
  0
ARC
  5
B2
100
AcDbEntity
  8
A11
  6
CONTINUOUS
 62
7
100
AcDbCircle
 10
178.9999960000000
 20
135.8999980000000
 30
0.000000000000000
 40
38.00000000000000
100
AcDbArc
 50
258.3049399999999
 51
281.6950600000001
  0
ARC
  5
B3
100
AcDbEntity
  8
A11
  6
CONTINUOUS
 62
7
100
AcDbCircle
 10
178.9999960000000
 20
97.89999800000001
 30
0.000000000000000
 40
38.00000000000000
100
AcDbArc
 50
78.30493999999989
 51
101.6950600000001
  0
LINE
  5
B4
100
AcDbEntity
  8
A11
  6
CONTINUOUS
 62
7
100
AcDbLine
 10
188.9999960000000
 20
110.2543570000000
 30
0.000000000000000
 11
188.9999960000000
 21
123.5456390000000
 31
0.000000000000000
  0
LINE
  5
B5
100
AcDbEntity
  8
A11
  6
CONTINUOUS
 62
7
100
AcDbLine
 10
168.9999960000000
 20
110.2543570000000
 30
0.000000000000000
 11
168.9999960000000
 21
123.5456390000000
 31
0.000000000000000
  0
LINE
  5
B6
100
AcDbEntity
  8
A11
  6
CONTINUOUS
 62
7
100
AcDbLine
 10
170.4999960000000
 20
99.66810600000022
 30
0.000000000000000
 11
170.4999960000000
 21
134.1318899999667
 31
0.000000000000000
  0
LINE
  5
B7
100
AcDbEntity
  8
A11
  6
CONTINUOUS
 62
7
100
AcDbLine
 10
187.4999960000002
 20
99.66810602637682
 30
0.000000000000000
 11
187.4999960000002
 21
134.1318899735900
 31
0.000000000000000
  0
ARC
  5
B8
100
AcDbEntity
  8
A12
  6
CONTINUOUS
 62
7
100
AcDbCircle
 10
118.0797959999999
 20
197.2286595522289
 30
0.000000000000000
 40
1.000000000000000
100
AcDbArc
 50
90.00000000000000
 51
168.4636940429628
  0
ARC
  5
B9
100
AcDbEntity
  8
A12
  6
CONTINUOUS
 62
7
100
AcDbCircle
 10
123.7202000000002
 20
197.2286595522289
 30
0.000000000000000
 40
1.000000000000000
100
AcDbArc
 50
11.53630595703716
 51
90.00000000000000
  0
ARC
  5
BA
100
AcDbEntity
  8
A12
  6
CONTINUOUS
 62
7
100
AcDbCircle
 10
120.8999980000000
 20
173.3286615522289
 30
0.000000000000000
 40
5.315072000000000
100
AcDbArc
 50
221.1859294403129
 51
258.0558933647292
  0
ARC
  5
BB
100
AcDbEntity
  8
A12
  6
CONTINUOUS
 62
7
100
AcDbCircle
 10
120.8999980000000
 20
173.3286615522289
 30
0.000000000000000
 40
5.315072000000000
100
AcDbArc
 50
281.9441066352708
 51
318.8140705596871
  0
LINE
  5
BC
100
AcDbEntity
  8
A12
  6
CONTINUOUS
 62
7
100
AcDbLine
 10
117.8999980000000
 20
170.4286595522289
 30
0.000000000000000
 11
117.8999980000000
 21
170.3786715522289
 31
0.000000000000000
  0
LINE
  5
BD
100
AcDbEntity
  8
A12
  6
CONTINUOUS
 62
7
100
AcDbLine
 10
117.8999980000000
 20
196.0674685514339
 30
0.000000000000000
 11
117.8999980000000
 21
196.0286595522290
 31
0.000000000000000
  0
LINE
  5
BE
100
AcDbEntity
  8
A12
  6
CONTINUOUS
 62
7
100
AcDbLine
 10
123.8999980000000
 20
196.0286595522290
 30
0.000000000000000
 11
123.8999980000000
 21
196.0674685514339
 31
0.000000000000000
  0
LINE
  5
BF
100
AcDbEntity
  8
A12
  6
CONTINUOUS
 62
7
100
AcDbLine
 10
123.8999980000000
 20
170.3786715522289
 30
0.000000000000000
 11
123.8999980000000
 21
170.4286595522289
 31
0.000000000000000
  0
LINE
  5
C0
100
AcDbEntity
  8
A12
  6
CONTINUOUS
 62
7
100
AcDbLine
 10
120.8999980000000
 20
196.0674685514339
 30
0.000000000000000
 11
117.8999980000000
 21
196.0674685514339
 31
0.000000000000000
  0
LINE
  5
C1
100
AcDbEntity
  8
A12
  6
CONTINUOUS
 62
7
100
AcDbLine
 10
123.8999980000000
 20
196.0674685514340
 30
0.000000000000000
 11
124.6999990000001
 21
197.4286485522290
 31
0.000000000000000
  0
LINE
  5
C2
100
AcDbEntity
  8
A12
  6
CONTINUOUS
 62
7
100
AcDbLine
 10
117.0999970000000
 20
197.4286485522290
 30
0.000000000000000
 11
117.8999980000000
 21
196.0674685514340
 31
0.000000000000000
  0
LINE
  5
C3
100
AcDbEntity
  8
A12
  6
CONTINUOUS
 62
7
100
AcDbLine
 10
123.8999980000000
 20
196.0674685514339
 30
0.000000000000000
 11
120.8999980000000
 21
196.0674685514339
 31
0.000000000000000
  0
LINE
  5
C4
100
AcDbEntity
  8
A12
  6
CONTINUOUS
 62
7
100
AcDbLine
 10
123.7202000000002
 20
198.2286515522288
 30
0.000000000000000
 11
118.0797959999999
 21
198.2286515522288
 31
0.000000000000000
  0
LINE
  5
C5
100
AcDbEntity
  8
A12
  6
CONTINUOUS
 62
7
100
AcDbLine
 10
124.6999990000001
 20
197.4286485522289
 30
0.000000000000000
 11
117.0999970000000
 21
197.4286485522289
 31
0.000000000000000
  0
LINE
  5
C6
100
AcDbEntity
  8
A12
  6
CONTINUOUS
 62
7
100
AcDbLine
 10
121.9999890000002
 20
168.1286615522289
 30
0.000000000000000
 11
119.8000069999999
 21
168.1286615522289
 31
0.000000000000000
  0
LINE
  5
C7
100
AcDbEntity
  8
A12
  6
CONTINUOUS
 62
7
100
AcDbLine
 10
116.8999979999998
 20
170.3786715522289
 30
0.000000000000000
 11
116.8999979999998
 21
169.8286615522288
 31
0.000000000000000
  0
LINE
  5
C8
100
AcDbEntity
  8
A12
  6
CONTINUOUS
 62
7
100
AcDbLine
 10
124.8999980000002
 20
169.8286615522288
 30
0.000000000000000
 11
124.8999980000002
 21
170.3786715522289
 31
0.000000000000000
  0
LINE
  5
C9
100
AcDbEntity
  8
A12
  6
CONTINUOUS
 62
7
100
AcDbLine
 10
124.8999980000002
 20
169.8286615522288
 30
0.000000000000000
 11
116.8999979999998
 21
169.8286615522288
 31
0.000000000000000
  0
LINE
  5
CA
100
AcDbEntity
  8
A12
  6
CONTINUOUS
 62
7
100
AcDbLine
 10
124.8999980000002
 20
170.3786715522289
 30
0.000000000000000
 11
116.8999979999998
 21
170.3786715522289
 31
0.000000000000000
  0
SPLINE
  5
CB
100
AcDbEntity
  8
A12
  6
CONTINUOUS
 62
7
100
AcDbSpline
210
0.000000000000000
220
0.000000000000000
230
1.000000000000000
 70
     8
 71
     3
 72
    14
 73
    10
 74
     0
 42
1.000000000000000e-07
 43
1.000000000000000e-07
 12
0.7495378499970684
 22
0.6619614878709399
 32
0.000000000000000
 13
-0.1071191623714185
 23
0.9942461893588188
 33
0.000000000000000
 40
0.000000000000000
 40
0.000000000000000
 40
0.000000000000000
 40
0.000000000000000
 40
0.07026461573922300
 40
0.3483787230090663
 40
0.4899590909000331
 40
0.6352710809553527
 40
0.7349297984652234
 40
0.8118368071609637
 40
0.8841195521350425
 40
0.8841195521350425
 40
0.8841195521350425
 40
0.8841195521350425
 10
104.9872371249946
 20
195.5257302084821
 30
0.000000000000000
 10
105.0047924546653
 20
195.5412343650086
 30
0.000000000000000
 10
105.0953770023926
 20
195.6154303829918
 30
0.000000000000000
 10
105.2594550845068
 20
195.6539871370904
 30
0.000000000000000
 10
105.4323117649380
 20
195.7282753169696
 30
0.000000000000000
 10
105.5417604936134
 20
195.7977365495669
 30
0.000000000000000
 10
105.6183973987575
 20
195.8755031961977
 30
0.000000000000000
 10
105.6505041846304
 20
195.9540524031805
 30
0.000000000000000
 10
105.6525304461360
 20
196.0047039169186
 30
0.000000000000000
 10
105.6499494904375
 20
196.0286595315009
 30
0.000000000000000
  0
SPLINE
  5
CC
100
AcDbEntity
  8
A12
  6
CONTINUOUS
 62
7
100
AcDbSpline
210
0.000000000000000
220
0.000000000000000
230
1.000000000000000
 70
     8
 71
     3
 72
    14
 73
    10
 74
     0
 42
1.000000000000000e-07
 43
1.000000000000000e-07
 12
-0.7495378498588252
 22
-0.6619614880255540
 32
0.000000000000000
 13
0.1071191600540260
 23
-0.9942461896080204
 33
0.000000000000000
 40
0.000000000000000
 40
0.000000000000000
 40
0.000000000000000
 40
0.000000000000000
 40
0.07026461570772290
 40
0.3483787228471349
 40
0.4899590906908610
 40
0.6352710807162328
 40
0.7349297981728787
 40
0.8118368068940842
 40
0.8841195520963540
 40
0.8841195520963540
 40
0.8841195520963540
 40
0.8841195520963540
 10
136.8127588750051
 20
170.9315888959758
 30
0.000000000000000
 10
136.7952035453455
 20
170.9160847394526
 30
0.000000000000000
 10
136.7046189976730
 20
170.8418887214876
 30
0.000000000000000
 10
136.5405409156272
 20
170.8033319673980
 30
0.000000000000000
 10
136.3676842352472
 20
170.7290437875780
 30
0.000000000000000
 10
136.2582355065835
 20
170.6595825550568
 30
0.000000000000000
 10
136.1815986013986
 20
170.5818159084764
 30
0.000000000000000
 10
136.1494918155291
 20
170.5032667014292
 30
0.000000000000000
 10
136.1474655539115
 20
170.4526151876206
 30
0.000000000000000
 10
136.1500465095623
 20
170.4286595729567
 30
0.000000000000000
  0
SPLINE
  5
CD
100
AcDbEntity
  8
A12
  6
CONTINUOUS
 62
7
100
AcDbSpline
210
0.000000000000000
220
0.000000000000000
230
1.000000000000000
 70
     8
 71
     3
 72
    16
 73
    12
 74
     0
 42
1.000000000000000e-07
 43
1.000000000000000e-07
 12
0.7667321208073190
 22
-0.6419671758940240
 32
0.000000000000000
 13
0.004335515048296656
 23
-0.9999906016109890
 33
0.000000000000000
 40
0.000000000000000
 40
0.000000000000000
 40
0.000000000000000
 40
0.000000000000000
 40
0.06232666366943170
 40
0.3478224631172840
 40
0.5227612862682767
 40
0.6348178681964384
 40
0.7366450241319126
 40
0.8166968959997443
 40
0.8206720865853000
 40
0.8492691977790491
 40
0.8822040841279779
 40
0.8822040841279779
 40
0.8822040841279779
 40
0.8822040841279779
 10
104.9872371424700
 20
170.9315889090814
 30
0.000000000000000
 10
105.0031664274760
 20
170.9182516849952
 30
0.000000000000000
 10
105.0947944709060
 20
170.8461282254527
 30
0.000000000000000
 10
105.2680618316295
 20
170.8007769822041
 30
0.000000000000000
 10
105.4420878518729
 20
170.7241826074268
 30
0.000000000000000
 10
105.5525016737578
 20
170.6525701049080
 30
0.000000000000000
 10
105.6129245038918
 20
170.5751842875129
 30
0.000000000000000
 10
105.6445570018748
 20
170.5192879616277
 30
0.000000000000000
 10
105.6493527803302
 20
170.4820188676304
 30
0.000000000000000
 10
105.6492239363965
 20
170.4601217201341
 30
0.000000000000000
 10
105.6499019117622
 20
170.4396377446905
 30
0.000000000000000
 10
105.6499495083273
 20
170.4286595524191
 30
0.000000000000000
  0
SPLINE
  5
CE
100
AcDbEntity
  8
A12
  6
CONTINUOUS
 62
7
100
AcDbSpline
210
0.000000000000000
220
0.000000000000000
230
1.000000000000000
 70
     8
 71
     3
 72
    16
 73
    12
 74
     0
 42
1.000000000000000e-07
 43
1.000000000000000e-07
 12
-0.7667321202834501
 22
0.6419671765179373
 32
0.000000000000000
 13
-0.004335563022323186
 23
0.9999906014018052
 33
0.000000000000000
 40
0.000000000000000
 40
0.000000000000000
 40
0.000000000000000
 40
0.000000000000000
 40
0.06232666358198660
 40
0.3478224618758008
 40
0.5227612849718840
 40
0.6348178663608766
 40
0.7366450224498892
 40
0.8166968945515771
 40
0.8206720838830364
 40
0.8492691945011103
 40
0.8822040840875127
 40
0.8822040840875127
 40
0.8822040840875127
 40
0.8822040840875127
 10
136.8127588575301
 20
195.5257301953765
 30
0.000000000000000
 10
136.7968295725573
 20
195.5390674194570
 30
0.000000000000000
 10
136.7052015295032
 20
195.6111908788016
 30
0.000000000000000
 10
136.5319341691866
 20
195.6565421220682
 30
0.000000000000000
 10
136.3579081495660
 20
195.7331364964136
 30
0.000000000000000
 10
136.2474943272480
 20
195.8047489984227
 30
0.000000000000000
 10
136.1870714977591
 20
195.8821348156320
 30
0.000000000000000
 10
136.1554389975982
 20
195.9380311407861
 30
0.000000000000000
 10
136.1506432206376
 20
195.9753002344352
 30
0.000000000000000
 10
136.1507720647522
 20
195.9971973823668
 30
0.000000000000000
 10
136.1500940887691
 20
196.0176813586903
 30
0.000000000000000
 10
136.1500464916726
 20
196.0286595520385
 30
0.000000000000000
  0
CIRCLE
  5
CF
100
AcDbEntity
  8
A12
  6
CONTINUOUS
 62
7
100
AcDbCircle
 10
138.8999980000000
 20
175.7286595522289
 30
0.000000000000000
 40
2.650000000000000
  0
CIRCLE
  5
D0
100
AcDbEntity
  8
A12
  6
CONTINUOUS
 62
7
100
AcDbCircle
 10
138.8999980000000
 20
190.7286595522289
 30
0.000000000000000
 40
2.650000000000000
  0
CIRCLE
  5
D1
100
AcDbEntity
  8
A12
  6
CONTINUOUS
 62
7
100
AcDbCircle
 10
102.8999980000000
 20
190.7286595522289
 30
0.000000000000000
 40
2.650000000000000
  0
CIRCLE
  5
D2
100
AcDbEntity
  8
A12
  6
CONTINUOUS
 62
7
100
AcDbCircle
 10
102.8999980000000
 20
175.7286595522289
 30
0.000000000000000
 40
2.650000000000000
  0
ARC
  5
D3
100
AcDbEntity
  8
A12
  6
CONTINUOUS
 62
7
100
AcDbCircle
 10
136.8641408428543
 20
169.7286595522289
 30
0.000000000000000
 40
1.000000000000005
100
AcDbArc
 50
90.00000000000010
 51
135.5729959415681
  0
ARC
  5
D4
100
AcDbEntity
  8
A12
  6
CONTINUOUS
 62
7
100
AcDbCircle
 10
104.9358551571457
 20
196.7286595522288
 30
0.000000000000000
 40
0.9999999999999201
100
AcDbArc
 50
269.9999999999987
 51
315.5729959977537
  0
ARC
  5
D5
100
AcDbEntity
  8
A12
  6
CONTINUOUS
 62
7
100
AcDbCircle
 10
104.9358551571453
 20
169.7286595522278
 30
0.000000000000000
 40
1.000000000001075
100
AcDbArc
 50
44.42700400083162
 51
89.99999999998361
  0
ARC
  5
D6
100
AcDbEntity
  8
A12
  6
CONTINUOUS
 62
7
100
AcDbCircle
 10
136.8641408428542
 20
196.7286595522289
 30
0.000000000000000
 40
0.9999999999999364
100
AcDbArc
 50
224.4270044287276
 51
270.0000000000007
  0
ARC
  5
D7
100
AcDbEntity
  8
A12
  6
CONTINUOUS
 62
7
100
AcDbCircle
 10
102.3999980000000
 20
191.2286595522289
 30
0.000000000000000
 40
4.500000000000000
100
AcDbArc
 50
90.00000000000000
 51
180.0000000000000
  0
ARC
  5
D8
100
AcDbEntity
  8
A12
  6
CONTINUOUS
 62
7
100
AcDbCircle
 10
102.3999980000000
 20
175.2286595522289
 30
0.000000000000000
 40
4.500000000000000
100
AcDbArc
 50
180.0000000000000
 51
270.0000000000000
  0
ARC
  5
D9
100
AcDbEntity
  8
A12
  6
CONTINUOUS
 62
7
100
AcDbCircle
 10
139.3999980000000
 20
175.2286595522289
 30
0.000000000000000
 40
4.500000000000000
100
AcDbArc
 50
270.0000000000000
 51
360.0000000000000
  0
ARC
  5
DA
100
AcDbEntity
  8
A12
  6
CONTINUOUS
 62
7
100
AcDbCircle
 10
139.3999980000000
 20
191.2286595522289
 30
0.000000000000000
 40
4.500000000000000
100
AcDbArc
 50
0.000000000000000
 51
90.00000000000000
  0
LINE
  5
DB
100
AcDbEntity
  8
A12
  6
CONTINUOUS
 62
7
100
AcDbLine
 10
104.9358551571457
 20
195.7286595522289
 30
0.000000000000000
 11
102.3999980000000
 21
195.7286595522289
 31
0.000000000000000
  0
LINE
  5
DC
100
AcDbEntity
  8
A12
  6
CONTINUOUS
 62
7
100
AcDbLine
 10
139.3999980000000
 20
170.7286595522289
 30
0.000000000000000
 11
136.8641408428543
 21
170.7286595522289
 31
0.000000000000000
  0
LINE
  5
DD
100
AcDbEntity
  8
A12
  6
CONTINUOUS
 62
7
100
AcDbLine
 10
139.3999980000000
 20
195.7286595522289
 30
0.000000000000000
 11
136.8641408428542
 21
195.7286595522289
 31
0.000000000000000
  0
LINE
  5
DE
100
AcDbEntity
  8
A12
  6
CONTINUOUS
 62
7
100
AcDbLine
 10
136.1500537521694
 20
196.0286595522289
 30
0.000000000000000
 11
105.6499422518851
 21
196.0286595522289
 31
0.000000000000000
  0
LINE
  5
DF
100
AcDbEntity
  8
A12
  6
CONTINUOUS
 62
7
100
AcDbLine
 10
104.9358551571456
 20
170.7286595522289
 30
0.000000000000000
 11
102.3999980000000
 21
170.7286595522289
 31
0.000000000000000
  0
LINE
  5
E0
100
AcDbEntity
  8
A12
  6
CONTINUOUS
 62
7
100
AcDbLine
 10
136.1500537486494
 20
170.4286595522289
 30
0.000000000000000
 11
105.6499422518983
 21
170.4286595522289
 31
0.000000000000000
  0
LINE
  5
E1
100
AcDbEntity
  8
A12
  6
CONTINUOUS
 62
7
100
AcDbLine
 10
109.8999980000000
 20
190.7286595522289
 30
0.000000000000000
 11
109.8999980000000
 21
190.1286615522289
 31
0.000000000000000
  0
LINE
  5
E2
100
AcDbEntity
  8
A12
  6
CONTINUOUS
 62
7
100
AcDbLine
 10
131.8999980000000
 20
190.7286595522289
 30
0.000000000000000
 11
109.8999980000000
 21
190.7286595522289
 31
0.000000000000000
  0
LINE
  5
E3
100
AcDbEntity
  8
A12
  6
CONTINUOUS
 62
7
100
AcDbLine
 10
131.8999980000000
 20
190.1286615522289
 30
0.000000000000000
 11
131.8999980000000
 21
190.7286595522289
 31
0.000000000000000
  0
LINE
  5
E4
100
AcDbEntity
  8
A12
  6
CONTINUOUS
 62
7
100
AcDbLine
 10
109.8999980000000
 20
190.1286615522289
 30
0.000000000000000
 11
131.8999980000000
 21
190.1286615522289
 31
0.000000000000000
  0
LINE
  5
E5
100
AcDbEntity
  8
A12
  6
CONTINUOUS
 62
7
100
AcDbLine
 10
131.8999980000000
 20
175.7286595522289
 30
0.000000000000000
 11
131.8999980000000
 21
176.3286575522289
 31
0.000000000000000
  0
LINE
  5
E6
100
AcDbEntity
  8
A12
  6
CONTINUOUS
 62
7
100
AcDbLine
 10
109.8999980000000
 20
175.7286595522289
 30
0.000000000000000
 11
131.8999980000000
 21
175.7286595522289
 31
0.000000000000000
  0
LINE
  5
E7
100
AcDbEntity
  8
A12
  6
CONTINUOUS
 62
7
100
AcDbLine
 10
109.8999980000000
 20
176.3286575522289
 30
0.000000000000000
 11
109.8999980000000
 21
175.7286595522289
 31
0.000000000000000
  0
LINE
  5
E8
100
AcDbEntity
  8
A12
  6
CONTINUOUS
 62
7
100
AcDbLine
 10
131.8999980000000
 20
176.3286575522289
 30
0.000000000000000
 11
109.8999980000000
 21
176.3286575522289
 31
0.000000000000000
  0
LINE
  5
E9
100
AcDbEntity
  8
A12
  6
CONTINUOUS
 62
7
100
AcDbLine
 10
97.89999799999998
 20
191.2286595522289
 30
0.000000000000000
 11
97.89999799999998
 21
175.2286595522289
 31
0.000000000000000
  0
LINE
  5
EA
100
AcDbEntity
  8
A12
  6
CONTINUOUS
 62
7
100
AcDbLine
 10
143.8999980000000
 20
175.2286595522289
 30
0.000000000000000
 11
143.8999980000000
 21
191.2286595522289
 31
0.000000000000000
  0
ARC
  5
EB
100
AcDbEntity
  8
A12
  6
CONTINUOUS
 62
7
100
AcDbCircle
 10
103.6681060263769
 20
190.7286594842092
 30
0.000000000000000
 40
1.000000068019862
100
AcDbArc
 50
90.00000000000000
 51
168.3045817222557
  0
ARC
  5
EC
100
AcDbEntity
  8
A12
  6
CONTINUOUS
 62
7
100
AcDbCircle
 10
138.1318899736232
 20
190.7286594842092
 30
0.000000000000000
 40
1.000000068019862
100
AcDbArc
 50
11.69541827774439
 51
90.00000000000000
  0
ARC
  5
ED
100
AcDbEntity
  8
A12
  6
CONTINUOUS
 62
7
100
AcDbCircle
 10
103.6681060263769
 20
175.7286596202486
 30
0.000000000000000
 40
1.000000068019862
100
AcDbArc
 50
191.6954182777460
 51
269.9999984887294
  0
ARC
  5
EE
100
AcDbEntity
  8
A12
  6
CONTINUOUS
 62
7
100
AcDbCircle
 10
138.1318899736232
 20
175.7286596202486
 30
0.000000000000000
 40
1.000000068019862
100
AcDbArc
 50
270.0000015112706
 51
348.3045817222541
  0
ARC
  5
EF
100
AcDbEntity
  8
A12
  6
CONTINUOUS
 62
7
100
AcDbCircle
 10
101.8999980000000
 20
183.2286595522289
 30
0.000000000000000
 40
38.00000000000000
100
AcDbArc
 50
7.466765683760737
 51
11.69506000000010
  0
ARC
  5
F0
100
AcDbEntity
  8
A12
  6
CONTINUOUS
 62
7
100
AcDbCircle
 10
101.8999980000000
 20
183.2286595522289
 30
0.000000000000000
 40
38.00000000000000
100
AcDbArc
 50
348.3049399999999
 51
352.5332343162393
  0
ARC
  5
F1
100
AcDbEntity
  8
A12
  6
CONTINUOUS
 62
7
100
AcDbCircle
 10
139.8999980000000
 20
183.2286595522289
 30
0.000000000000000
 40
38.00000000000000
100
AcDbArc
 50
187.4667656837607
 51
191.6950600000002
  0
ARC
  5
F2
100
AcDbEntity
  8
A12
  6
CONTINUOUS
 62
7
100
AcDbCircle
 10
139.8999980000000
 20
183.2286595522289
 30
0.000000000000000
 40
38.00000000000000
100
AcDbArc
 50
168.3049399999999
 51
172.5332343162394
  0
LINE
  5
F3
100
AcDbEntity
  8
A12
  6
CONTINUOUS
 62
7
100
AcDbLine
 10
105.3540762383616
 20
191.7286595522291
 30
0.000000000000000
 11
103.6681060263769
 21
191.7286595522291
 31
0.000000000000000
  0
LINE
  5
F4
100
AcDbEntity
  8
A12
  6
CONTINUOUS
 62
7
100
AcDbLine
 10
138.1318899736232
 20
191.7286595522291
 30
0.000000000000000
 11
136.4459197616385
 21
191.7286595522291
 31
0.000000000000000
  0
LINE
  5
F5
100
AcDbEntity
  8
A12
  6
CONTINUOUS
 62
7
100
AcDbLine
 10
105.3540762383617
 20
174.7286595522289
 30
0.000000000000000
 11
103.6681060000003
 21
174.7286595522289
 31
0.000000000000000
  0
LINE
  5
F6
100
AcDbEntity
  8
A12
  6
CONTINUOUS
 62
7
100
AcDbLine
 10
138.1318899999999
 20
174.7286595522289
 30
0.000000000000000
 11
136.4459197616384
 21
174.7286595522289
 31
0.000000000000000
  0
ARC
  5
F7
100
AcDbEntity
  8
A13
  6
CONTINUOUS
 62
7
100
AcDbCircle
 10
48.79999999999998
 20
114.0797959999998
 30
0.000000000000000
 40
1.000000000000000
100
AcDbArc
 50
180.0000000000000
 51
258.4636940429629
  0
ARC
  5
F8
100
AcDbEntity
  8
A13
  6
CONTINUOUS
 62
7
100
AcDbCircle
 10
48.79999999999998
 20
119.7202000000002
 30
0.000000000000000
 40
1.000000000000000
100
AcDbArc
 50
101.5363059570372
 51
180.0000000000000
  0
ARC
  5
F9
100
AcDbEntity
  8
A13
  6
CONTINUOUS
 62
7
100
AcDbCircle
 10
72.69999800000008
 20
116.8999980000000
 30
0.000000000000000
 40
5.315072000000000
100
AcDbArc
 50
311.1859294403129
 51
348.0558933647293
  0
ARC
  5
FA
100
AcDbEntity
  8
A13
  6
CONTINUOUS
 62
7
100
AcDbCircle
 10
72.69999800000008
 20
116.8999980000000
 30
0.000000000000000
 40
5.315072000000000
100
AcDbArc
 50
11.94410663527083
 51
48.81407055968712
  0
LINE
  5
FB
100
AcDbEntity
  8
A13
  6
CONTINUOUS
 62
7
100
AcDbLine
 10
75.60000000000019
 20
113.8999980000000
 30
0.000000000000000
 11
75.64998800000009
 21
113.8999980000000
 31
0.000000000000000
  0
LINE
  5
FC
100
AcDbEntity
  8
A13
  6
CONTINUOUS
 62
7
100
AcDbLine
 10
72.79999999999998
 20
113.8999980000000
 30
0.000000000000000
 11
73.79999999999998
 21
113.8999980000000
 31
0.000000000000000
  0
LINE
  5
FD
100
AcDbEntity
  8
A13
  6
CONTINUOUS
 62
7
100
AcDbLine
 10
51.79999999999998
 20
113.8999980000000
 30
0.000000000000000
 11
52.79999999999998
 21
113.8999980000000
 31
0.000000000000000
  0
LINE
  5
FE
100
AcDbEntity
  8
A13
  6
CONTINUOUS
 62
7
100
AcDbLine
 10
49.96119100079508
 20
113.8999980000000
 30
0.000000000000000
 11
50.00000000000000
 21
113.8999980000000
 31
0.000000000000000
  0
LINE
  5
FF
100
AcDbEntity
  8
A13
  6
CONTINUOUS
 62
7
100
AcDbLine
 10
50.00000000000000
 20
119.8999980000000
 30
0.000000000000000
 11
49.96119100079508
 21
119.8999980000000
 31
0.000000000000000
  0
LINE
  5
100
100
AcDbEntity
  8
A13
  6
CONTINUOUS
 62
7
100
AcDbLine
 10
52.79999999999998
 20
119.8999980000000
 30
0.000000000000000
 11
51.79999999999998
 21
119.8999980000000
 31
0.000000000000000
  0
LINE
  5
101
100
AcDbEntity
  8
A13
  6
CONTINUOUS
 62
7
100
AcDbLine
 10
73.79999999999998
 20
119.8999980000000
 30
0.000000000000000
 11
72.79999999999998
 21
119.8999980000000
 31
0.000000000000000
  0
LINE
  5
102
100
AcDbEntity
  8
A13
  6
CONTINUOUS
 62
7
100
AcDbLine
 10
75.64998800000009
 20
119.8999980000000
 30
0.000000000000000
 11
75.60000000000019
 21
119.8999980000000
 31
0.000000000000000
  0
LINE
  5
103
100
AcDbEntity
  8
A13
  6
CONTINUOUS
 62
7
100
AcDbLine
 10
47.80000800000010
 20
119.7201999989854
 30
0.000000000000000
 11
47.80000800000010
 21
114.0797959999998
 31
0.000000000000000
  0
LINE
  5
104
100
AcDbEntity
  8
A13
  6
CONTINUOUS
 62
7
100
AcDbLine
 10
49.96119100079500
 20
119.8999980000000
 30
0.000000000000000
 11
49.96119100079500
 21
113.8999980000000
 31
0.000000000000000
  0
LINE
  5
105
100
AcDbEntity
  8
A13
  6
CONTINUOUS
 62
7
100
AcDbLine
 10
49.96119100079498
 20
119.8999980000000
 30
0.000000000000000
 11
48.60001100000000
 21
120.6999990000000
 31
0.000000000000000
  0
LINE
  5
106
100
AcDbEntity
  8
A13
  6
CONTINUOUS
 62
7
100
AcDbLine
 10
48.60001100000002
 20
113.0999969999999
 30
0.000000000000000
 11
49.96119100079499
 21
113.8999980000000
 31
0.000000000000000
  0
LINE
  5
107
100
AcDbEntity
  8
A13
  6
CONTINUOUS
 62
7
100
AcDbLine
 10
48.60001099999999
 20
120.6999990000001
 30
0.000000000000000
 11
48.60001099999999
 21
113.0999969999999
 31
0.000000000000000
  0
LINE
  5
108
100
AcDbEntity
  8
A13
  6
CONTINUOUS
 62
7
100
AcDbLine
 10
77.89999799999998
 20
117.9999890000001
 30
0.000000000000000
 11
77.89999799999998
 21
115.8000069999999
 31
0.000000000000000
  0
LINE
  5
109
100
AcDbEntity
  8
A13
  6
CONTINUOUS
 62
7
100
AcDbLine
 10
75.64998799999998
 20
112.8999979999998
 30
0.000000000000000
 11
76.19999800000008
 21
112.8999979999998
 31
0.000000000000000
  0
LINE
  5
10A
100
AcDbEntity
  8
A13
  6
CONTINUOUS
 62
7
100
AcDbLine
 10
76.19999800000008
 20
120.8999980000002
 30
0.000000000000000
 11
75.64998799999998
 21
120.8999980000002
 31
0.000000000000000
  0
LINE
  5
10B
100
AcDbEntity
  8
A13
  6
CONTINUOUS
 62
7
100
AcDbLine
 10
76.19999800000008
 20
120.8999980000002
 30
0.000000000000000
 11
76.19999800000008
 21
112.8999979999998
 31
0.000000000000000
  0
LINE
  5
10C
100
AcDbEntity
  8
A13
  6
CONTINUOUS
 62
7
100
AcDbLine
 10
75.64998799999998
 20
120.8999980000002
 30
0.000000000000000
 11
75.64998799999998
 21
112.8999979999998
 31
0.000000000000000
  0
SPLINE
  5
10D
100
AcDbEntity
  8
A13
  6
CONTINUOUS
 62
7
100
AcDbSpline
210
0.000000000000000
220
0.000000000000000
230
1.000000000000000
 70
     8
 71
     3
 72
    10
 73
     6
 74
     0
 42
1.000000000000000e-07
 43
1.000000000000000e-07
 12
-0.3032197114025621
 22
0.9529206717379566
 32
0.000000000000000
 13
-0.4819316615430580
 23
0.8762088070870959
 33
0.000000000000000
 40
0.000000000000000
 40
0.000000000000000
 40
0.000000000000000
 40
0.000000000000000
 40
0.02084969425692420
 40
0.04700139842974040
 40
0.05474001254530660
 40
0.05474001254530660
 40
0.05474001254530660
 40
0.05474001254530660
 10
75.31632897819540
 20
147.6898526910871
 30
0.000000000000000
 10
75.31422163210360
 20
147.6964753926394
 30
0.000000000000000
 10
75.30900336858798
 20
147.7112365195849
 30
0.000000000000000
 10
75.30282939817218
 20
147.7284694512128
 30
0.000000000000000
 10
75.29756500852349
 20
147.7384765445919
 30
0.000000000000000
 10
75.29632184747058
 20
147.7407367585394
 30
0.000000000000000
  0
SPLINE
  5
10E
100
AcDbEntity
  8
A13
  6
CONTINUOUS
 62
7
100
AcDbSpline
210
0.000000000000000
220
0.000000000000000
230
1.000000000000000
 70
     8
 71
     3
 72
     9
 73
     5
 74
     0
 42
1.000000000000000e-07
 43
1.000000000000000e-07
 12
-0.4876459602783143
 22
-0.8730414751917124
 32
0.000000000000000
 13
-0.3171567982835768
 23
-0.9483731150248786
 33
0.000000000000000
 40
0.000000000000000
 40
0.000000000000000
 40
0.000000000000000
 40
0.000000000000000
 40
0.006415206073422800
 40
0.02598697481381900
 40
0.02598697481381900
 40
0.02598697481381900
 40
0.02598697481381900
 10
50.30360561422879
 20
147.7399593087972
 30
0.000000000000000
 10
50.30256283112010
 20
147.7380923951392
 30
0.000000000000000
 10
50.29851370014518
 20
147.7304333560134
 30
0.000000000000000
 10
50.29518523598358
 20
147.7223935851533
 30
0.000000000000000
 10
50.29311612948010
 20
147.7162064720576
 30
0.000000000000000
  0
SPLINE
  5
10F
100
AcDbEntity
  8
A13
  6
CONTINUOUS
 62
7
100
AcDbSpline
210
0.000000000000000
220
0.000000000000000
230
1.000000000000000
 70
     8
 71
     3
 72
    10
 73
     6
 74
     0
 42
1.000000000000000e-07
 43
1.000000000000000e-07
 12
-0.7720647353899039
 22
-0.5528623395766772
 32
0.000000000000000
 13
0.3134914408747136
 23
-0.1475919471413363
 33
0.000000000000000
 40
0.000000000000000
 40
0.000000000000000
 40
0.000000000000000
 40
0.000000000000000
 40
0.02110596247711585
 40
0.02864084920987553
 40
0.04374888053734204
 40
0.04374888053734204
 40
0.04374888053734204
 40
0.04374888053734204
 10
50.29479387388008
 20
147.6818562647861
 30
0.000000000000000
 10
50.28936215076840
 20
147.6779667008547
 30
0.000000000000000
 10
50.27771123771640
 20
147.6694612208823
 30
0.000000000000000
 10
50.27616563086508
 20
147.6620865603791
 30
0.000000000000000
 10
50.26512903900300
 20
147.6545522900254
 30
0.000000000000000
 10
50.26670778517288
 20
147.6538090154384
 30
0.000000000000000
  0
SPLINE
  5
110
100
AcDbEntity
  8
A13
  6
CONTINUOUS
 62
7
100
AcDbSpline
210
0.000000000000000
220
0.000000000000000
230
1.000000000000000
 70
     8
 71
     3
 72
    11
 73
     7
 74
     0
 42
1.000000000000000e-07
 43
1.000000000000000e-07
 12
-0.5302475007840712
 22
-0.8478429028491519
 32
0.000000000000000
 13
-0.04113658713117729
 23
-0.9991535323458720
 33
0.000000000000000
 40
0.000000000000000
 40
0.000000000000000
 40
0.000000000000000
 40
0.000000000000000
 40
0.1186162370068352
 40
0.2699249432352385
 40
0.4470455680011295
 40
0.8299260220648055
 40
0.8299260220648055
 40
0.8299260220648055
 40
0.8299260220648055
 10
50.27877743734089
 20
147.6718443798387
 30
0.000000000000000
 10
50.25781211626580
 20
147.6383217349357
 30
0.000000000000000
 10
50.21150395642988
 20
147.5611813481967
 30
0.000000000000000
 10
50.13713874200349
 20
147.4319448733341
 30
0.000000000000000
 10
50.03986831194908
 20
147.2151306486160
 30
0.000000000000000
 10
50.00525015244779
 20
147.0276799373552
 30
0.000000000000000
 10
50.00000002072798
 20
146.9001611513073
 30
0.000000000000000
  0
SPLINE
  5
111
100
AcDbEntity
  8
A13
  6
CONTINUOUS
 62
7
100
AcDbSpline
210
0.000000000000000
220
0.000000000000000
230
1.000000000000000
 70
     8
 71
     3
 72
    13
 73
     9
 74
     0
 42
1.000000000000000e-07
 43
1.000000000000000e-07
 12
0.5199583360727047
 22
-0.8541916229696653
 32
0.000000000000000
 13
0.004182437927056526
 23
-0.9999912535681688
 33
0.000000000000000
 40
0.000000000000000
 40
0.000000000000000
 40
0.000000000000000
 40
0.000000000000000
 40
0.09729226399168880
 40
0.2609761748118569
 40
0.4457548608361733
 40
0.4572863360754993
 40
0.5530980683780213
 40
0.8100613677403808
 40
0.8100613677403808
 40
0.8100613677403808
 40
0.8100613677403808
 10
75.33304863711018
 20
147.6540706207003
 30
0.000000000000000
 10
75.34991127834280
 20
147.6263685417398
 30
0.000000000000000
 10
75.39398828783180
 20
147.5513768047793
 30
0.000000000000000
 10
75.46732401670769
 20
147.4220295677029
 30
0.000000000000000
 10
75.51479810786859
 20
147.3114504999036
 30
0.000000000000000
 10
75.54812517370118
 20
147.2199594643485
 30
0.000000000000000
 10
75.58483984454668
 20
147.1041120551322
 30
0.000000000000000
 10
75.59964175546008
 20
146.9857075599135
 30
0.000000000000000
 10
75.59999999980980
 20
146.9000538759634
 30
0.000000000000000
  0
SPLINE
  5
112
100
AcDbEntity
  8
A13
  6
CONTINUOUS
 62
7
100
AcDbSpline
210
0.000000000000000
220
0.000000000000000
230
1.000000000000000
 70
     8
 71
     3
 72
    12
 73
     8
 74
     0
 42
1.000000000000000e-07
 43
1.000000000000000e-07
 12
-0.9281932053527271
 22
-0.3720986072721644
 32
0.000000000000000
 13
-0.02174704624349033
 23
-0.9997635050249301
 33
0.000000000000000
 40
0.000000000000000
 40
0.000000000000000
 40
0.000000000000000
 40
0.000000000000000
 40
0.05717473054799980
 40
0.1580980259716532
 40
0.3095466887674432
 40
0.4540264486092239
 40
0.5944821463669524
 40
0.5944821463669524
 40
0.5944821463669524
 40
0.5944821463669524
 10
50.27680235608560
 20
146.0999980000000
 30
0.000000000000000
 10
50.25911262394808
 20
146.0929064541306
 30
0.000000000000000
 10
50.21140478712408
 20
146.0684293570074
 30
0.000000000000000
 10
50.14548404147908
 20
145.9864370543470
 30
0.000000000000000
 10
50.07098236067699
 20
145.8776332552676
 30
0.000000000000000
 10
50.01378920298939
 20
145.7420658643675
 30
0.000000000000000
 10
50.00101816551810
 20
145.6468054935636
 30
0.000000000000000
 10
50.00000000000000
 20
145.5999980000000
 30
0.000000000000000
  0
SPLINE
  5
113
100
AcDbEntity
  8
A13
  6
CONTINUOUS
 62
7
100
AcDbSpline
210
0.000000000000000
220
0.000000000000000
230
1.000000000000000
 70
     8
 71
     3
 72
    13
 73
     9
 74
     0
 42
1.000000000000000e-07
 43
1.000000000000000e-07
 12
-0.01981171743295818
 22
0.9998037286645740
 32
0.000000000000000
 13
-0.9479272156568186
 23
0.3184870387103729
 33
0.000000000000000
 40
0.000000000000000
 40
0.000000000000000
 40
0.000000000000000
 40
0.000000000000000
 40
0.1382435693099121
 40
0.2667137332446857
 40
0.4280870514894691
 40
0.4940375617379280
 40
0.5464119721566904
 40
0.5948062475855106
 40
0.5948062475855106
 40
0.5948062475855106
 40
0.5948062475855106
 10
75.59999999999999
 20
145.5999980000000
 30
0.000000000000000
 10
75.59908705248930
 20
145.6460701453533
 30
0.000000000000000
 10
75.58736407847690
 20
145.7354111381088
 30
0.000000000000000
 10
75.53319281701599
 20
145.8683346152251
 30
0.000000000000000
 10
75.46940208580378
 20
145.9694991505801
 30
0.000000000000000
 10
75.40854424319579
 20
146.0399021617118
 30
0.000000000000000
 10
75.36956617939398
 20
146.0802989855522
 30
0.000000000000000
 10
75.33848906083480
 20
146.0948603501761
 30
0.000000000000000
 10
75.32319764391448
 20
146.0999980000000
 30
0.000000000000000
  0
SPLINE
  5
114
100
AcDbEntity
  8
A13
  6
CONTINUOUS
 62
7
100
AcDbSpline
210
0.000000000000000
220
0.000000000000000
230
1.000000000000000
 70
     8
 71
     3
 72
     9
 73
     5
 74
     0
 42
1.000000000000000e-07
 43
1.000000000000000e-07
 12
0.5266474058080348
 22
-0.8500838252657559
 32
0.000000000000000
 13
0.5244636365023325
 23
-0.8514328476230730
 33
0.000000000000000
 40
0.000000000000000
 40
0.000000000000000
 40
0.000000000000000
 40
0.000000000000000
 40
0.005674367031744700
 40
0.02236763550834310
 40
0.02236763550834310
 40
0.02236763550834310
 40
0.02236763550834310
 10
75.29950617309999
 20
147.7070830487594
 30
0.000000000000000
 10
75.30050230332560
 20
147.7054751528820
 30
0.000000000000000
 10
75.30442685868209
 20
147.6991357528615
 30
0.000000000000000
 10
75.30834327784478
 20
147.6927913160446
 30
0.000000000000000
 10
75.31126161527490
 20
147.6880535836729
 30
0.000000000000000
  0
ARC
  5
115
100
AcDbEntity
  8
A13
  6
CONTINUOUS
 62
7
100
AcDbCircle
 10
75.20450339399068
 20
147.5515398655500
 30
0.000000000000000
 40
0.1646918460886460
100
AcDbArc
 50
38.05790658276259
 51
52.30474197969949
  0
LINE
  5
116
100
AcDbEntity
  8
A13
  6
CONTINUOUS
 62
7
100
AcDbLine
 10
75.31655869473137
 20
147.6836589372255
 30
0.000000000000000
 11
75.31632897819539
 21
147.6898526910872
 31
0.000000000000000
  0
LINE
  5
117
100
AcDbEntity
  8
A13
  6
CONTINUOUS
 62
7
100
AcDbLine
 10
50.29311612948011
 20
147.7162064720576
 30
0.000000000000000
 11
50.28730604051913
 21
147.7020136757390
 31
0.000000000000000
  0
LINE
  5
118
100
AcDbEntity
  8
A13
  6
CONTINUOUS
 62
7
100
AcDbLine
 10
50.00000000000000
 20
114.8124402862315
 30
0.000000000000000
 11
50.00000000000000
 21
109.8999980000000
 31
0.000000000000000
  0
LINE
  5
119
100
AcDbEntity
  8
A13
  6
CONTINUOUS
 62
7
100
AcDbLine
 10
50.00000000000000
 20
109.8999980000000
 30
0.000000000000000
 11
51.79999999999998
 21
109.8999980000000
 31
0.000000000000000
  0
LINE
  5
11A
100
AcDbEntity
  8
A13
  6
CONTINUOUS
 62
7
100
AcDbLine
 10
51.79999999999998
 20
109.8999980000000
 30
0.000000000000000
 11
51.79999999999998
 21
114.8124402862315
 31
0.000000000000000
  0
LINE
  5
11B
100
AcDbEntity
  8
A13
  6
CONTINUOUS
 62
7
100
AcDbLine
 10
75.60000000000019
 20
114.8124402862315
 30
0.000000000000000
 11
75.60000000000019
 21
109.8999980000000
 31
0.000000000000000
  0
LINE
  5
11C
100
AcDbEntity
  8
A13
  6
CONTINUOUS
 62
7
100
AcDbLine
 10
73.79999999999998
 20
109.8999980000000
 30
0.000000000000000
 11
75.60000000000008
 21
109.8999980000000
 31
0.000000000000000
  0
LINE
  5
11D
100
AcDbEntity
  8
A13
  6
CONTINUOUS
 62
7
100
AcDbLine
 10
73.79999999999998
 20
109.8999980000000
 30
0.000000000000000
 11
73.79999999999998
 21
114.8124402862315
 31
0.000000000000000
  0
LINE
  5
11E
100
AcDbEntity
  8
A13
  6
CONTINUOUS
 62
7
100
AcDbLine
 10
75.60000000000019
 20
142.2999970000000
 30
0.000000000000000
 11
75.60000000000019
 21
114.8124402862315
 31
0.000000000000000
  0
LINE
  5
11F
100
AcDbEntity
  8
A13
  6
CONTINUOUS
 62
7
100
AcDbLine
 10
73.79999999999998
 20
114.8124402862315
 30
0.000000000000000
 11
73.79999999999998
 21
142.2999970000000
 31
0.000000000000000
  0
LINE
  5
120
100
AcDbEntity
  8
A13
  6
CONTINUOUS
 62
7
100
AcDbLine
 10
50.00000000000000
 20
142.2999970000000
 30
0.000000000000000
 11
50.00000000000000
 21
114.8124402862315
 31
0.000000000000000
  0
LINE
  5
121
100
AcDbEntity
  8
A13
  6
CONTINUOUS
 62
7
100
AcDbLine
 10
51.79999999999998
 20
114.8124402862315
 30
0.000000000000000
 11
51.79999999999998
 21
142.2999970000000
 31
0.000000000000000
  0
LINE
  5
122
100
AcDbEntity
  8
A13
  6
CONTINUOUS
 62
7
100
AcDbLine
 10
73.79999999999998
 20
145.5999980000000
 30
0.000000000000000
 11
73.79999999999998
 21
142.2999970000000
 31
0.000000000000000
  0
LINE
  5
123
100
AcDbEntity
  8
A13
  6
CONTINUOUS
 62
7
100
AcDbLine
 10
51.79999999999998
 20
145.5999980000000
 30
0.000000000000000
 11
51.79999999999998
 21
142.2999970000000
 31
0.000000000000000
  0
LINE
  5
124
100
AcDbEntity
  8
A13
  6
CONTINUOUS
 62
7
100
AcDbLine
 10
50.00000000000000
 20
142.2999970000000
 30
0.000000000000000
 11
50.00000000000000
 21
145.5999980000000
 31
0.000000000000000
  0
LINE
  5
125
100
AcDbEntity
  8
A13
  6
CONTINUOUS
 62
7
100
AcDbLine
 10
50.00000000000000
 20
142.2999970000000
 30
0.000000000000000
 11
51.79999999999998
 21
142.2999970000000
 31
0.000000000000000
  0
LINE
  5
126
100
AcDbEntity
  8
A13
  6
CONTINUOUS
 62
7
100
AcDbLine
 10
75.60000000000019
 20
142.2999970000000
 30
0.000000000000000
 11
75.59999999999999
 21
145.5999980000000
 31
0.000000000000000
  0
LINE
  5
127
100
AcDbEntity
  8
A13
  6
CONTINUOUS
 62
7
100
AcDbLine
 10
73.79999999999998
 20
142.2999970000000
 30
0.000000000000000
 11
75.60000000000019
 21
142.2999970000000
 31
0.000000000000000
  0
LINE
  5
128
100
AcDbEntity
  8
A13
  6
CONTINUOUS
 62
7
100
AcDbLine
 10
73.79999999999998
 20
145.5999980000000
 30
0.000000000000000
 11
73.79999999999998
 21
146.0999980000000
 31
0.000000000000000
  0
LINE
  5
129
100
AcDbEntity
  8
A13
  6
CONTINUOUS
 62
7
100
AcDbLine
 10
51.79999999999998
 20
146.0999979999634
 30
0.000000000000000
 11
51.79999999999998
 21
145.5999980000000
 31
0.000000000000000
  0
LINE
  5
12A
100
AcDbEntity
  8
A13
  6
CONTINUOUS
 62
7
100
AcDbLine
 10
50.27680235608560
 20
146.0999980000000
 30
0.000000000000000
 11
50.29999999999998
 21
146.0999980000000
 31
0.000000000000000
  0
LINE
  5
12B
100
AcDbEntity
  8
A13
  6
CONTINUOUS
 62
7
100
AcDbLine
 10
50.30000000000002
 20
147.6999980000000
 30
0.000000000000000
 11
50.29583212430772
 21
147.6843854055339
 31
0.000000000000000
  0
LINE
  5
12C
100
AcDbEntity
  8
A13
  6
CONTINUOUS
 62
7
100
AcDbLine
 10
50.00000000000000
 20
145.5999980000000
 30
0.000000000000000
 11
50.00000000000000
 21
146.9001097522668
 31
0.000000000000000
  0
LINE
  5
12D
100
AcDbEntity
  8
A13
  6
CONTINUOUS
 62
7
100
AcDbLine
 10
75.29999999999998
 20
146.0999980000000
 30
0.000000000000000
 11
75.32319764391448
 21
146.0999980000000
 31
0.000000000000000
  0
LINE
  5
12E
100
AcDbEntity
  8
A13
  6
CONTINUOUS
 62
7
100
AcDbLine
 10
75.59999999999999
 20
145.5999980000000
 30
0.000000000000000
 11
75.59999999999999
 21
146.9001097522288
 31
0.000000000000000
  0
LINE
  5
12F
100
AcDbEntity
  8
A13
  6
CONTINUOUS
 62
7
100
AcDbLine
 10
50.30027559647566
 20
147.7081917712050
 30
0.000000000000000
 11
50.29223124165445
 21
147.6953156095246
 31
0.000000000000000
  0
LINE
  5
130
100
AcDbEntity
  8
A13
  6
CONTINUOUS
 62
7
100
AcDbLine
 10
70.79999999999998
 20
146.0999980000000
 30
0.000000000000000
 11
75.29999999999998
 21
146.0999980000000
 31
0.000000000000000
  0
LINE
  5
131
100
AcDbEntity
  8
A13
  6
CONTINUOUS
 62
7
100
AcDbLine
 10
70.79999999999998
 20
147.8999980000000
 30
0.000000000000000
 11
75.29999999999998
 21
147.8999980000000
 31
0.000000000000000
  0
LINE
  5
132
100
AcDbEntity
  8
A13
  6
CONTINUOUS
 62
7
100
AcDbLine
 10
75.29999999999998
 20
146.0999980000000
 30
0.000000000000000
 11
75.29999999999998
 21
147.8999980000000
 31
0.000000000000000
  0
LINE
  5
133
100
AcDbEntity
  8
A13
  6
CONTINUOUS
 62
7
100
AcDbLine
 10
54.79999999999998
 20
146.0999980000000
 30
0.000000000000000
 11
70.79999999999998
 21
146.0999980000000
 31
0.000000000000000
  0
LINE
  5
134
100
AcDbEntity
  8
A13
  6
CONTINUOUS
 62
7
100
AcDbLine
 10
54.79999999999998
 20
147.8999980000000
 30
0.000000000000000
 11
70.79999999999998
 21
147.8999980000000
 31
0.000000000000000
  0
LINE
  5
135
100
AcDbEntity
  8
A13
  6
CONTINUOUS
 62
7
100
AcDbLine
 10
50.29999999999999
 20
146.0999980000000
 30
0.000000000000000
 11
54.79999999999999
 21
146.0999980000000
 31
0.000000000000000
  0
LINE
  5
136
100
AcDbEntity
  8
A13
  6
CONTINUOUS
 62
7
100
AcDbLine
 10
50.29999999999998
 20
147.8999980000000
 30
0.000000000000000
 11
54.79999999999998
 21
147.8999980000000
 31
0.000000000000000
  0
LINE
  5
137
100
AcDbEntity
  8
A13
  6
CONTINUOUS
 62
7
100
AcDbLine
 10
50.29999999999998
 20
146.0999980000000
 30
0.000000000000000
 11
50.29999999999998
 21
147.8999980000000
 31
0.000000000000000
  0
ARC
  5
138
100
AcDbEntity
  8
A13
  6
CONTINUOUS
 62
7
100
AcDbCircle
 10
71.29999999999998
 20
110.2543570000000
 30
0.000000000000000
 40
1.500000000000000
100
AcDbArc
 50
270.0000000000000
 51
360.0000000000000
  0
ARC
  5
139
100
AcDbEntity
  8
A13
  6
CONTINUOUS
 62
7
100
AcDbCircle
 10
71.29999999999998
 20
123.5456390000000
 30
0.000000000000000
 40
1.500000000000000
100
AcDbArc
 50
0.000000000000000
 51
90.00000000000000
  0
ARC
  5
13A
100
AcDbEntity
  8
A13
  6
CONTINUOUS
 62
7
100
AcDbCircle
 10
54.29999999999998
 20
110.2543570000000
 30
0.000000000000000
 40
1.500000000000000
100
AcDbArc
 50
180.0000000000000
 51
270.0000000000000
  0
ARC
  5
13B
100
AcDbEntity
  8
A13
  6
CONTINUOUS
 62
7
100
AcDbCircle
 10
54.29999999999998
 20
123.5456390000000
 30
0.000000000000000
 40
1.500000000000000
100
AcDbArc
 50
90.00000000000000
 51
180.0000000000000
  0
ARC
  5
13C
100
AcDbEntity
  8
A13
  6
CONTINUOUS
 62
7
100
AcDbCircle
 10
70.29999993198030
 20
99.66810602637682
 30
0.000000000000000
 40
1.000000068019862
100
AcDbArc
 50
281.6954182777459
 51
359.9999984887294
  0
ARC
  5
13D
100
AcDbEntity
  8
A13
  6
CONTINUOUS
 62
7
100
AcDbCircle
 10
70.29999993198030
 20
134.1318899736232
 30
0.000000000000000
 40
1.000000068019862
100
AcDbArc
 50
1.511270632200000e-06
 51
78.30458172225403
  0
ARC
  5
13E
100
AcDbEntity
  8
A13
  6
CONTINUOUS
 62
7
100
AcDbCircle
 10
55.30000006801978
 20
99.66810602637682
 30
0.000000000000000
 40
1.000000068019862
100
AcDbArc
 50
180.0000000000000
 51
258.3045817222555
  0
ARC
  5
13F
100
AcDbEntity
  8
A13
  6
CONTINUOUS
 62
7
100
AcDbCircle
 10
55.30000006801970
 20
134.1318899736232
 30
0.000000000000000
 40
1.000000068019862
100
AcDbArc
 50
101.6954182777443
 51
180.0000000000000
  0
ARC
  5
140
100
AcDbEntity
  8
A13
  6
CONTINUOUS
 62
7
100
AcDbCircle
 10
62.79999999999998
 20
97.89999800000001
 30
0.000000000000000
 40
38.00000000000000
100
AcDbArc
 50
78.30493999999989
 51
101.6950600000001
  0
ARC
  5
141
100
AcDbEntity
  8
A13
  6
CONTINUOUS
 62
7
100
AcDbCircle
 10
62.79999999999998
 20
135.8999980000000
 30
0.000000000000000
 40
38.00000000000000
100
AcDbArc
 50
258.3049399999999
 51
281.6950600000001
  0
LINE
  5
142
100
AcDbEntity
  8
A13
  6
CONTINUOUS
 62
7
100
AcDbLine
 10
72.79999999999998
 20
123.5456389998523
 30
0.000000000000000
 11
72.79999999999998
 21
110.2543570000000
 31
0.000000000000000
  0
LINE
  5
143
100
AcDbEntity
  8
A13
  6
CONTINUOUS
 62
7
100
AcDbLine
 10
52.79999999999998
 20
123.5456389998522
 30
0.000000000000000
 11
52.79999999999998
 21
110.2543570000000
 31
0.000000000000000
  0
LINE
  5
144
100
AcDbEntity
  8
A13
  6
CONTINUOUS
 62
7
100
AcDbLine
 10
71.29999999999998
 20
134.1318899999998
 30
0.000000000000000
 11
71.29999999999998
 21
99.66810600000022
 31
0.000000000000000
  0
LINE
  5
145
100
AcDbEntity
  8
A13
  6
CONTINUOUS
 62
7
100
AcDbLine
 10
54.29999999999990
 20
134.1318899736232
 30
0.000000000000000
 11
54.29999999999990
 21
99.66810602637682
 31
0.000000000000000
  0
ARC
  5
146
100
AcDbEntity
  8
A14
  6
CONTINUOUS
 62
7
100
AcDbCircle
 10
123.7202000000002
 20
48.80000000000001
 30
0.000000000000000
 40
1.000000000000000
100
AcDbArc
 50
270.0000000000000
 51
348.4636940429629
  0
ARC
  5
147
100
AcDbEntity
  8
A14
  6
CONTINUOUS
 62
7
100
AcDbCircle
 10
118.0797959999999
 20
48.80000000000001
 30
0.000000000000000
 40
1.000000000000000
100
AcDbArc
 50
191.5363059570371
 51
270.0000000000000
  0
ARC
  5
148
100
AcDbEntity
  8
A14
  6
CONTINUOUS
 62
7
100
AcDbCircle
 10
120.8999980000000
 20
72.69999800000002
 30
0.000000000000000
 40
5.315072000000000
100
AcDbArc
 50
41.18592944031291
 51
78.05589336472917
  0
ARC
  5
149
100
AcDbEntity
  8
A14
  6
CONTINUOUS
 62
7
100
AcDbCircle
 10
120.8999980000000
 20
72.69999800000002
 30
0.000000000000000
 40
5.315072000000000
100
AcDbArc
 50
101.9441066352708
 51
138.8140705596871
  0
LINE
  5
14A
100
AcDbEntity
  8
A14
  6
CONTINUOUS
 62
7
100
AcDbLine
 10
123.8999980000000
 20
75.60000000000022
 30
0.000000000000000
 11
123.8999980000000
 21
75.64998800000001
 31
0.000000000000000
  0
LINE
  5
14B
100
AcDbEntity
  8
A14
  6
CONTINUOUS
 62
7
100
AcDbLine
 10
123.8999980000000
 20
72.80000000000001
 30
0.000000000000000
 11
123.8999980000000
 21
73.80000000000001
 31
0.000000000000000
  0
LINE
  5
14C
100
AcDbEntity
  8
A14
  6
CONTINUOUS
 62
7
100
AcDbLine
 10
123.8999980000000
 20
51.80000000000001
 30
0.000000000000000
 11
123.8999980000000
 21
52.80000000000001
 31
0.000000000000000
  0
LINE
  5
14D
100
AcDbEntity
  8
A14
  6
CONTINUOUS
 62
7
100
AcDbLine
 10
123.8999980000000
 20
49.96119100079500
 30
0.000000000000000
 11
123.8999980000000
 21
50.00000000000000
 31
0.000000000000000
  0
LINE
  5
14E
100
AcDbEntity
  8
A14
  6
CONTINUOUS
 62
7
100
AcDbLine
 10
117.8999980000000
 20
50.00000000000000
 30
0.000000000000000
 11
117.8999980000000
 21
49.96119100079500
 31
0.000000000000000
  0
LINE
  5
14F
100
AcDbEntity
  8
A14
  6
CONTINUOUS
 62
7
100
AcDbLine
 10
117.8999980000000
 20
52.80000000000001
 30
0.000000000000000
 11
117.8999980000000
 21
51.80000000000001
 31
0.000000000000000
  0
LINE
  5
150
100
AcDbEntity
  8
A14
  6
CONTINUOUS
 62
7
100
AcDbLine
 10
117.8999980000000
 20
73.80000000000001
 30
0.000000000000000
 11
117.8999980000000
 21
72.80000000000001
 31
0.000000000000000
  0
LINE
  5
151
100
AcDbEntity
  8
A14
  6
CONTINUOUS
 62
7
100
AcDbLine
 10
117.8999980000000
 20
75.64998800000001
 30
0.000000000000000
 11
117.8999980000000
 21
75.60000000000022
 31
0.000000000000000
  0
LINE
  5
152
100
AcDbEntity
  8
A14
  6
CONTINUOUS
 62
7
100
AcDbLine
 10
117.8999980000000
 20
49.96119100079502
 30
0.000000000000000
 11
117.0999970000000
 21
48.60001100000007
 31
0.000000000000000
  0
LINE
  5
153
100
AcDbEntity
  8
A14
  6
CONTINUOUS
 62
7
100
AcDbLine
 10
124.6999990000001
 20
48.60001100000002
 30
0.000000000000000
 11
123.8999980000000
 21
49.96119100079501
 31
0.000000000000000
  0
LINE
  5
154
100
AcDbEntity
  8
A14
  6
CONTINUOUS
 62
7
100
AcDbLine
 10
117.8999980000000
 20
49.96119100079500
 30
0.000000000000000
 11
123.8999980000000
 21
49.96119100079500
 31
0.000000000000000
  0
LINE
  5
155
100
AcDbEntity
  8
A14
  6
CONTINUOUS
 62
7
100
AcDbLine
 10
120.8999980000000
 20
48.60001100000002
 30
0.000000000000000
 11
124.6999990000001
 21
48.60001100000002
 31
0.000000000000000
  0
LINE
  5
156
100
AcDbEntity
  8
A14
  6
CONTINUOUS
 62
7
100
AcDbLine
 10
120.8999980000000
 20
47.80000800000010
 30
0.000000000000000
 11
123.7202000000002
 21
47.80000800000010
 31
0.000000000000000
  0
LINE
  5
157
100
AcDbEntity
  8
A14
  6
CONTINUOUS
 62
7
100
AcDbLine
 10
118.0797959999999
 20
47.80000800000010
 30
0.000000000000000
 11
120.8999980000000
 21
47.80000800000010
 31
0.000000000000000
  0
LINE
  5
158
100
AcDbEntity
  8
A14
  6
CONTINUOUS
 62
7
100
AcDbLine
 10
117.0999970000000
 20
48.60001100000002
 30
0.000000000000000
 11
120.8999980000000
 21
48.60001100000002
 31
0.000000000000000
  0
LINE
  5
159
100
AcDbEntity
  8
A14
  6
CONTINUOUS
 62
7
100
AcDbLine
 10
120.8999980000000
 20
77.89999800000001
 30
0.000000000000000
 11
121.9999890000002
 21
77.89999800000001
 31
0.000000000000000
  0
LINE
  5
15A
100
AcDbEntity
  8
A14
  6
CONTINUOUS
 62
7
100
AcDbLine
 10
119.8000069999999
 20
77.89999800000001
 30
0.000000000000000
 11
120.8999980000000
 21
77.89999800000001
 31
0.000000000000000
  0
LINE
  5
15B
100
AcDbEntity
  8
A14
  6
CONTINUOUS
 62
7
100
AcDbLine
 10
120.8999980000000
 20
75.64998800000001
 30
0.000000000000000
 11
124.8999980000002
 21
75.64998800000001
 31
0.000000000000000
  0
LINE
  5
15C
100
AcDbEntity
  8
A14
  6
CONTINUOUS
 62
7
100
AcDbLine
 10
120.8999980000000
 20
76.19999800000011
 30
0.000000000000000
 11
124.8999980000002
 21
76.19999800000011
 31
0.000000000000000
  0
LINE
  5
15D
100
AcDbEntity
  8
A14
  6
CONTINUOUS
 62
7
100
AcDbLine
 10
124.8999980000002
 20
75.64998800000001
 30
0.000000000000000
 11
124.8999980000002
 21
76.19999800000011
 31
0.000000000000000
  0
LINE
  5
15E
100
AcDbEntity
  8
A14
  6
CONTINUOUS
 62
7
100
AcDbLine
 10
116.8999979999998
 20
76.19999800000011
 30
0.000000000000000
 11
116.8999979999998
 21
75.64998800000001
 31
0.000000000000000
  0
LINE
  5
15F
100
AcDbEntity
  8
A14
  6
CONTINUOUS
 62
7
100
AcDbLine
 10
116.8999979999998
 20
76.19999800000011
 30
0.000000000000000
 11
120.8999980000000
 21
76.19999800000011
 31
0.000000000000000
  0
LINE
  5
160
100
AcDbEntity
  8
A14
  6
CONTINUOUS
 62
7
100
AcDbLine
 10
116.8999979999998
 20
75.64998800000001
 30
0.000000000000000
 11
120.8999980000000
 21
75.64998800000001
 31
0.000000000000000
  0
SPLINE
  5
161
100
AcDbEntity
  8
A14
  6
CONTINUOUS
 62
7
100
AcDbSpline
210
0.000000000000000
220
0.000000000000000
230
1.000000000000000
 70
     8
 71
     3
 72
    23
 73
    19
 74
     0
 42
1.000000000000000e-07
 43
1.000000000000000e-07
 12
-0.6307388070290472
 22
0.6682101674350633
 32
0.000000000000000
 13
-0.6261722921772161
 23
0.6028419294307241
 33
0.000000000000000
 40
0.000000000000000
 40
0.000000000000000
 40
0.000000000000000
 40
0.000000000000000
 40
0.07313195079804018
 40
0.1569348487720773
 40
0.2537854440936841
 40
0.3602427348788833
 40
0.4741383649698694
 40
0.5662258012835544
 40
0.6345353879248715
 40
0.6770619565658357
 40
0.7211965401319441
 40
0.7669439606191982
 40
0.8296007204411977
 40
0.8997179046393227
 40
0.9678530571958994
 40
1.007934134054514
 40
1.026277033987022
 40
1.033047509522605
 40
1.033047509522605
 40
1.033047509522605
 40
1.033047509522605
 10
105.6498863578803
 20
74.09761354027830
 30
0.000000000000000
 10
105.6345106380796
 20
74.11390271130750
 30
0.000000000000000
 10
105.6005549544782
 20
74.15159575265491
 30
0.000000000000000
 10
105.5479606986468
 20
74.21683967928712
 30
0.000000000000000
 10
105.4917529151493
 20
74.29571123872680
 30
0.000000000000000
 10
105.4349530736116
 20
74.38574974583690
 30
0.000000000000000
 10
105.3789071129235
 20
74.48490147221810
 30
0.000000000000000
 10
105.3370456113874
 20
74.56692409480462
 30
0.000000000000000
 10
105.3074633859102
 20
74.62849593547000
 30
0.000000000000000
 10
105.2894577462204
 20
74.66702262725292
 30
0.000000000000000
 10
105.2711774134029
 20
74.70719339894870
 30
0.000000000000000
 10
105.2525975651486
 20
74.74899789296651
 30
0.000000000000000
 10
105.2277472318452
 20
74.80651598130490
 30
0.000000000000000
 10
105.2000790222831
 20
74.87094337997581
 30
0.000000000000000
 10
105.1725076167652
 20
74.93325081622282
 30
0.000000000000000
 10
105.1557978232674
 20
74.96968260897870
 30
0.000000000000000
 10
105.1474319943533
 20
74.98600666743590
 30
0.000000000000000
 10
105.1448909265359
 20
74.99008930476910
 30
0.000000000000000
 10
105.1434777651408
 20
74.99144981361411
 30
0.000000000000000
  0
SPLINE
  5
162
100
AcDbEntity
  8
A14
  6
CONTINUOUS
 62
7
100
AcDbSpline
210
0.000000000000000
220
0.000000000000000
230
1.000000000000000
 70
     8
 71
     3
 72
    23
 73
    19
 74
     0
 42
1.000000000000000e-07
 43
1.000000000000000e-07
 12
0.6301266107184347
 22
-0.6675518617494163
 32
0.000000000000000
 13
0.6260956289479509
 23
-0.6028683032018307
 33
0.000000000000000
 40
0.000000000000000
 40
0.000000000000000
 40
0.000000000000000
 40
0.000000000000000
 40
0.07299692637431884
 40
0.1567381348006853
 40
0.2536015240411519
 40
0.3600924764913289
 40
0.4740257188572763
 40
0.5661422352972676
 40
0.6344711913114321
 40
0.6770061805878670
 40
0.7211497034646920
 40
0.7669065859546174
 40
0.8295734105333290
 40
0.8997000405651212
 40
0.9678428019255044
 40
1.007928246136298
 40
1.026273052782661
 40
1.033044007874643
 40
1.033044007874643
 40
1.033044007874643
 40
1.033044007874643
 10
136.1501116287011
 20
51.50238364602140
 30
0.000000000000000
 10
136.1654440639708
 20
51.48614056798701
 30
0.000000000000000
 10
136.1993542644487
 20
51.44850318308411
 30
0.000000000000000
 10
136.2519188094227
 20
51.38331454450051
 30
0.000000000000000
 10
136.3081430914415
 20
51.30443903317652
 30
0.000000000000000
 10
136.3649681692814
 20
51.21437664656460
 30
0.000000000000000
 10
136.4210378397615
 20
51.11519511719411
 30
0.000000000000000
 10
136.4629149219165
 20
51.03314779797390
 30
0.000000000000000
 10
136.4925066055159
 20
50.97155901253581
 30
0.000000000000000
 10
136.5105163451693
 20
50.93302494202200
 30
0.000000000000000
 10
136.5288008068334
 20
50.89284622783612
 30
0.000000000000000
 10
136.5473848229885
 20
50.85103323178532
 30
0.000000000000000
 10
136.5722394259118
 20
50.79350602416750
 30
0.000000000000000
 10
136.5999115618135
 20
50.72907003163030
 30
0.000000000000000
 10
136.6274860851827
 20
50.66675565458311
 30
0.000000000000000
 10
136.6441975744284
 20
50.63031983477941
 30
0.000000000000000
 10
136.6525640080906
 20
50.61399394372660
 30
0.000000000000000
 10
136.6551051462885
 20
50.60991085081750
 30
0.000000000000000
 10
136.6565182347508
 20
50.60855018608171
 30
0.000000000000000
  0
SPLINE
  5
163
100
AcDbEntity
  8
A14
  6
CONTINUOUS
 62
7
100
AcDbSpline
210
0.000000000000000
220
0.000000000000000
230
1.000000000000000
 70
     8
 71
     3
 72
    16
 73
    12
 74
     0
 42
1.000000000000000e-07
 43
1.000000000000000e-07
 12
-0.6493760984158143
 22
-0.6650890067758155
 32
0.000000000000000
 13
-0.6971894048688227
 23
-0.7481071407171385
 33
0.000000000000000
 40
0.000000000000000
 40
0.000000000000000
 40
0.000000000000000
 40
0.000000000000000
 40
0.006932584972439780
 40
0.02511899222177770
 40
0.1124474014386402
 40
0.2473382785489895
 40
0.4232601437144189
 40
0.5807979478502040
 40
0.7342650584435944
 40
0.8832478737680578
 40
1.031058438982445
 40
1.031058438982445
 40
1.031058438982445
 40
1.031058438982445
 10
136.6565182347447
 20
74.99144981393150
 30
0.000000000000000
 10
136.6550176164176
 20
74.98991288524692
 30
0.000000000000000
 10
136.6524558663850
 20
74.98587191199360
 30
0.000000000000000
 10
136.6442384162826
 20
74.96964788898902
 30
0.000000000000000
 10
136.6076565124380
 20
74.89035088168450
 30
0.000000000000000
 10
136.5557420763210
 20
74.76585011843281
 30
0.000000000000000
 10
136.4828613383361
 20
74.60573484535101
 30
0.000000000000000
 10
136.4113656678684
 20
74.46535490078520
 30
0.000000000000000
 10
136.3336030616444
 20
74.33304794289131
 30
0.000000000000000
 10
136.2490377014184
 20
74.21039159730802
 30
0.000000000000000
 10
136.1860057539316
 20
74.13610267594640
 30
0.000000000000000
 10
136.1516551005999
 20
74.09924329617630
 30
0.000000000000000
  0
SPLINE
  5
164
100
AcDbEntity
  8
A14
  6
CONTINUOUS
 62
7
100
AcDbSpline
210
0.000000000000000
220
0.000000000000000
230
1.000000000000000
 70
     8
 71
     3
 72
    16
 73
    12
 74
     0
 42
1.000000000000000e-07
 43
1.000000000000000e-07
 12
0.6490320464217803
 22
0.6651999980022083
 32
0.000000000000000
 13
0.6964910263427555
 23
0.7473063618786000
 33
0.000000000000000
 40
0.000000000000000
 40
0.000000000000000
 40
0.000000000000000
 40
0.000000000000000
 40
0.006934743820429180
 40
0.02512939752906712
 40
0.1124987578347279
 40
0.2474487988823813
 40
0.4234524910062186
 40
0.5810662707626263
 40
0.7346130018447523
 40
0.8835060302148929
 40
1.031057658102196
 40
1.031057658102196
 40
1.031057658102196
 40
1.031057658102196
 10
105.1434777652546
 20
50.60855018606972
 30
0.000000000000000
 10
105.1449780555790
 20
50.61008784992822
 30
0.000000000000000
 10
105.1475401532187
 20
50.61413080718472
 30
0.000000000000000
 10
105.1557601778026
 20
50.63036277007950
 30
0.000000000000000
 10
105.1923581292677
 20
50.70969747288211
 30
0.000000000000000
 10
105.2442972651537
 20
50.83425203820261
 30
0.000000000000000
 10
105.3172169218690
 20
50.99443950121312
 30
0.000000000000000
 10
105.3887572169850
 20
51.13488197962980
 30
0.000000000000000
 10
105.4665778457942
 20
51.26724718788992
 30
0.000000000000000
 10
105.5511192900330
 20
51.38981095946721
 30
0.000000000000000
 10
105.6140853357565
 20
51.46400046439362
 30
0.000000000000000
 10
105.6483414640051
 20
51.50075588780220
 30
0.000000000000000
  0
SPLINE
  5
165
100
AcDbEntity
  8
A14
  6
CONTINUOUS
 62
7
100
AcDbSpline
210
0.000000000000000
220
0.000000000000000
230
1.000000000000000
 70
     8
 71
     3
 72
     8
 73
     4
 74
     0
 42
1.000000000000000e-07
 43
1.000000000000000e-07
 12
-0.6275442882360949
 22
-0.7785808668941172
 32
0.000000000000000
 13
-0.7892190743586980
 23
-0.9256010303324729
 33
0.000000000000000
 40
0.000000000000000
 40
0.000000000000000
 40
0.000000000000000
 40
0.000000000000000
 40
0.01268604108044040
 40
0.01405862465329200
 40
0.01405862465329200
 40
0.01405862465329200
 10
105.6499980000000
 20
51.10000000000002
 30
0.000000000000000
 10
105.6473443157932
 20
51.09670763037940
 30
0.000000000000000
 10
105.6443556625862
 20
51.09309712099940
 30
0.000000000000000
 10
105.6410183073866
 20
51.08918305010110
 30
0.000000000000000
  0
ARC
  5
166
100
AcDbEntity
  8
A14
  6
CONTINUOUS
 62
7
100
AcDbCircle
 10
104.9358551571456
 20
76.30000000000001
 30
0.000000000000000
 40
1.000000000000000
100
AcDbArc
 50
270.0000000000000
 51
282.3652446477659
  0
ARC
  5
167
100
AcDbEntity
  8
A14
  6
CONTINUOUS
 62
7
100
AcDbCircle
 10
136.8641408428542
 20
49.30000000000001
 30
0.000000000000000
 40
1.000000000000000
100
AcDbArc
 50
90.00000000000000
 51
102.3652446477517
  0
ARC
  5
168
100
AcDbEntity
  8
A14
  6
CONTINUOUS
 62
7
100
AcDbCircle
 10
104.9358551571457
 20
49.30000000000001
 30
0.000000000000000
 40
1.000000000000000
100
AcDbArc
 50
77.63475535223999
 51
90.00000000000000
  0
ARC
  5
169
100
AcDbEntity
  8
A14
  6
CONTINUOUS
 62
7
100
AcDbCircle
 10
136.8641408428543
 20
76.30000000000001
 30
0.000000000000000
 40
1.000000000000000
100
AcDbArc
 50
257.6347553522423
 51
270.0000000000000
  0
ARC
  5
16A
100
AcDbEntity
  8
A14
  6
CONTINUOUS
 62
7
100
AcDbCircle
 10
138.8999980000000
 20
70.30000000000001
 30
0.000000000000000
 40
2.650000000000000
100
AcDbArc
 50
284.8188790231460
 51
517.8298428364596
  0
ARC
  5
16B
100
AcDbEntity
  8
A14
  6
CONTINUOUS
 62
7
100
AcDbCircle
 10
138.8999980000000
 20
55.30000000000001
 30
0.000000000000000
 40
2.650000000000000
100
AcDbArc
 50
202.1701571635440
 51
435.1811209768540
  0
ARC
  5
16C
100
AcDbEntity
  8
A14
  6
CONTINUOUS
 62
7
100
AcDbCircle
 10
139.3999980000000
 20
54.80000000000001
 30
0.000000000000000
 40
4.500000000000000
100
AcDbArc
 50
270.0000000000000
 51
360.0000000000000
  0
ARC
  5
16D
100
AcDbEntity
  8
A14
  6
CONTINUOUS
 62
7
100
AcDbCircle
 10
139.3999980000000
 20
70.80000000000001
 30
0.000000000000000
 40
4.500000000000000
100
AcDbArc
 50
0.000000000000000
 51
90.00000000000000
  0
ARC
  5
16E
100
AcDbEntity
  8
A14
  6
CONTINUOUS
 62
7
100
AcDbCircle
 10
102.3999980000000
 20
70.80000000000001
 30
0.000000000000000
 40
4.500000000000000
100
AcDbArc
 50
90.00000000000000
 51
180.0000000000000
  0
ARC
  5
16F
100
AcDbEntity
  8
A14
  6
CONTINUOUS
 62
7
100
AcDbCircle
 10
102.3999980000000
 20
54.80000000000001
 30
0.000000000000000
 40
4.500000000000000
100
AcDbArc
 50
180.0000000000000
 51
270.0000000000000
  0
ARC
  5
170
100
AcDbEntity
  8
A14
  6
CONTINUOUS
 62
7
100
AcDbCircle
 10
102.8999980000000
 20
70.30000000000001
 30
0.000000000000000
 40
2.650000000000000
100
AcDbArc
 50
180.0000000000000
 51
255.1811209768540
  0
ARC
  5
171
100
AcDbEntity
  8
A14
  6
CONTINUOUS
 62
7
100
AcDbCircle
 10
102.8999980000000
 20
70.30000000000001
 30
0.000000000000000
 40
2.650000000000000
100
AcDbArc
 50
22.17015716354034
 51
180.0000000000000
  0
ARC
  5
172
100
AcDbEntity
  8
A14
  6
CONTINUOUS
 62
7
100
AcDbCircle
 10
102.8999980000000
 20
55.30000000000001
 30
0.000000000000000
 40
2.650000000000000
100
AcDbArc
 50
180.0000000000000
 51
337.8298428364560
  0
ARC
  5
173
100
AcDbEntity
  8
A14
  6
CONTINUOUS
 62
7
100
AcDbCircle
 10
102.8999980000000
 20
55.30000000000001
 30
0.000000000000000
 40
2.650000000000000
100
AcDbArc
 50
104.8188790231460
 51
180.0000000000000
  0
ARC
  5
174
100
AcDbEntity
  8
A14
  6
CONTINUOUS
 62
7
100
AcDbCircle
 10
104.9358551571451
 20
49.29999999999882
 30
0.000000000000000
 40
1.000000000001315
100
AcDbArc
 50
44.42700400082730
 51
77.63475535222041
  0
ARC
  5
175
100
AcDbEntity
  8
A14
  6
CONTINUOUS
 62
7
100
AcDbCircle
 10
136.8641408428536
 20
49.30000000000140
 30
0.000000000000000
 40
0.9999999999984667
100
AcDbArc
 50
102.3652446477309
 51
135.5729959992213
  0
ARC
  5
176
100
AcDbEntity
  8
A14
  6
CONTINUOUS
 62
7
100
AcDbCircle
 10
136.8641408428543
 20
76.29999999999990
 30
0.000000000000000
 40
0.9999999999999141
100
AcDbArc
 50
224.4270040008053
 51
257.6347553522457
  0
ARC
  5
177
100
AcDbEntity
  8
A14
  6
CONTINUOUS
 62
7
100
AcDbCircle
 10
104.9358551571442
 20
76.30000000000300
 30
0.000000000000000
 40
1.000000000003220
100
AcDbArc
 50
282.3652446478106
 51
315.5729959991381
  0
LINE
  5
178
100
AcDbEntity
  8
A14
  6
CONTINUOUS
 62
7
100
AcDbLine
 10
139.3999980000000
 20
50.30000000000001
 30
0.000000000000000
 11
136.8641408428542
 21
50.30000000000001
 31
0.000000000000000
  0
LINE
  5
179
100
AcDbEntity
  8
A14
  6
CONTINUOUS
 62
7
100
AcDbLine
 10
143.8999980000000
 20
70.80000000000001
 30
0.000000000000000
 11
143.8999980000000
 21
54.80000000000001
 31
0.000000000000000
  0
LINE
  5
17A
100
AcDbEntity
  8
A14
  6
CONTINUOUS
 62
7
100
AcDbLine
 10
136.8641408428543
 20
75.30000000000001
 30
0.000000000000000
 11
139.3999980000000
 21
75.30000000000001
 31
0.000000000000000
  0
LINE
  5
17B
100
AcDbEntity
  8
A14
  6
CONTINUOUS
 62
7
100
AcDbLine
 10
102.3999980000000
 20
75.30000000000001
 30
0.000000000000000
 11
104.9358551571456
 21
75.30000000000001
 31
0.000000000000000
  0
LINE
  5
17C
100
AcDbEntity
  8
A14
  6
CONTINUOUS
 62
7
100
AcDbLine
 10
97.89999799999998
 20
54.80000000000001
 30
0.000000000000000
 11
97.89999799999998
 21
70.80000000000001
 31
0.000000000000000
  0
LINE
  5
17D
100
AcDbEntity
  8
A14
  6
CONTINUOUS
 62
7
100
AcDbLine
 10
104.9358551571457
 20
50.30000000000001
 30
0.000000000000000
 11
102.3999980000000
 21
50.30000000000001
 31
0.000000000000000
  0
LINE
  5
17E
100
AcDbEntity
  8
A14
  6
CONTINUOUS
 62
7
100
AcDbLine
 10
127.5828331580308
 20
75.60000000000022
 30
0.000000000000000
 11
136.1499980000000
 21
75.60000000000022
 31
0.000000000000000
  0
LINE
  5
17F
100
AcDbEntity
  8
A14
  6
CONTINUOUS
 62
7
100
AcDbLine
 10
136.1499980000000
 20
73.80000000000001
 30
0.000000000000000
 11
127.5828332860324
 21
73.80000000000001
 31
0.000000000000000
  0
LINE
  5
180
100
AcDbEntity
  8
A14
  6
CONTINUOUS
 62
7
100
AcDbLine
 10
136.1499980000000
 20
73.80000000000001
 30
0.000000000000000
 11
136.1499980000000
 21
75.60000000000022
 31
0.000000000000000
  0
LINE
  5
181
100
AcDbEntity
  8
A14
  6
CONTINUOUS
 62
7
100
AcDbLine
 10
127.5828331580308
 20
50.00000000000000
 30
0.000000000000000
 11
136.1499980000000
 21
50.00000000000000
 31
0.000000000000000
  0
LINE
  5
182
100
AcDbEntity
  8
A14
  6
CONTINUOUS
 62
7
100
AcDbLine
 10
136.1499980000000
 20
51.80000000000001
 30
0.000000000000000
 11
127.5828331580308
 21
51.80000000000001
 31
0.000000000000000
  0
LINE
  5
183
100
AcDbEntity
  8
A14
  6
CONTINUOUS
 62
7
100
AcDbLine
 10
136.1499980000000
 20
50.00000000000000
 30
0.000000000000000
 11
136.1499980000000
 21
51.80000000000001
 31
0.000000000000000
  0
LINE
  5
184
100
AcDbEntity
  8
A14
  6
CONTINUOUS
 62
7
100
AcDbLine
 10
105.6499990000000
 20
75.60000000000022
 30
0.000000000000000
 11
114.2185234029006
 21
75.60000000000022
 31
0.000000000000000
  0
LINE
  5
185
100
AcDbEntity
  8
A14
  6
CONTINUOUS
 62
7
100
AcDbLine
 10
114.2185234029006
 20
73.80000000000001
 30
0.000000000000000
 11
105.6499990000000
 21
73.80000000000001
 31
0.000000000000000
  0
LINE
  5
186
100
AcDbEntity
  8
A14
  6
CONTINUOUS
 62
7
100
AcDbLine
 10
105.6499990000000
 20
73.80000000000001
 30
0.000000000000000
 11
105.6499990000000
 21
75.60000000000022
 31
0.000000000000000
  0
LINE
  5
187
100
AcDbEntity
  8
A14
  6
CONTINUOUS
 62
7
100
AcDbLine
 10
105.6499990000000
 20
50.00000000000000
 30
0.000000000000000
 11
114.2185234029006
 21
50.00000000000000
 31
0.000000000000000
  0
LINE
  5
188
100
AcDbEntity
  8
A14
  6
CONTINUOUS
 62
7
100
AcDbLine
 10
114.2185234029006
 20
51.80000000000001
 30
0.000000000000000
 11
105.6499990000000
 21
51.80000000000001
 31
0.000000000000000
  0
LINE
  5
189
100
AcDbEntity
  8
A14
  6
CONTINUOUS
 62
7
100
AcDbLine
 10
105.6499990000000
 20
50.00000000000000
 30
0.000000000000000
 11
105.6499990000000
 21
51.80000000000001
 31
0.000000000000000
  0
LINE
  5
18A
100
AcDbEntity
  8
A14
  6
CONTINUOUS
 62
7
100
AcDbLine
 10
114.2185234029006
 20
75.60000000000022
 30
0.000000000000000
 11
127.5828331580308
 21
75.60000000000022
 31
0.000000000000000
  0
LINE
  5
18B
100
AcDbEntity
  8
A14
  6
CONTINUOUS
 62
7
100
AcDbLine
 10
127.5828331693674
 20
73.80000000000001
 30
0.000000000000000
 11
114.2185234029006
 21
73.80000000000001
 31
0.000000000000000
  0
LINE
  5
18C
100
AcDbEntity
  8
A14
  6
CONTINUOUS
 62
7
100
AcDbLine
 10
127.5828331580308
 20
51.80000000000001
 30
0.000000000000000
 11
114.2185234029006
 21
51.80000000000001
 31
0.000000000000000
  0
LINE
  5
18D
100
AcDbEntity
  8
A14
  6
CONTINUOUS
 62
7
100
AcDbLine
 10
114.2185234029006
 20
50.00000000000000
 30
0.000000000000000
 11
127.5828331580308
 21
50.00000000000000
 31
0.000000000000000
  0
ARC
  5
18E
100
AcDbEntity
  8
A14
  6
CONTINUOUS
 62
7
100
AcDbCircle
 10
127.5456390000001
 20
54.30000000000001
 30
0.000000000000000
 40
1.500000000000000
100
AcDbArc
 50
270.0000000000000
 51
360.0000000000000
  0
ARC
  5
18F
100
AcDbEntity
  8
A14
  6
CONTINUOUS
 62
7
100
AcDbCircle
 10
114.2543570000000
 20
54.30000000000001
 30
0.000000000000000
 40
1.500000000000000
100
AcDbArc
 50
180.0000000000000
 51
270.0000000000000
  0
ARC
  5
190
100
AcDbEntity
  8
A14
  6
CONTINUOUS
 62
7
100
AcDbCircle
 10
127.5456390000001
 20
71.30000000000001
 30
0.000000000000000
 40
1.500000000000000
100
AcDbArc
 50
0.000000000000000
 51
90.00000000000000
  0
ARC
  5
191
100
AcDbEntity
  8
A14
  6
CONTINUOUS
 62
7
100
AcDbCircle
 10
114.2543570000000
 20
71.30000000000001
 30
0.000000000000000
 40
1.500000000000000
100
AcDbArc
 50
90.00000000000000
 51
180.0000000000000
  0
ARC
  5
192
100
AcDbEntity
  8
A14
  6
CONTINUOUS
 62
7
100
AcDbCircle
 10
138.1318899736232
 20
55.30000006801970
 30
0.000000000000000
 40
1.000000068019862
100
AcDbArc
 50
270.0000000000000
 51
348.3045817222556
  0
ARC
  5
193
100
AcDbEntity
  8
A14
  6
CONTINUOUS
 62
7
100
AcDbCircle
 10
103.6681060263769
 20
55.30000006801970
 30
0.000000000000000
 40
1.000000068019862
100
AcDbArc
 50
191.6954182777444
 51
270.0000000000000
  0
ARC
  5
194
100
AcDbEntity
  8
A14
  6
CONTINUOUS
 62
7
100
AcDbCircle
 10
138.1318899736232
 20
70.29999993198032
 30
0.000000000000000
 40
1.000000068019862
100
AcDbArc
 50
11.69541827774596
 51
89.99999848872937
  0
ARC
  5
195
100
AcDbEntity
  8
A14
  6
CONTINUOUS
 62
7
100
AcDbCircle
 10
103.6681060263769
 20
70.29999993198032
 30
0.000000000000000
 40
1.000000068019862
100
AcDbArc
 50
90.00000151127064
 51
168.3045817222540
  0
ARC
  5
196
100
AcDbEntity
  8
A14
  6
CONTINUOUS
 62
7
100
AcDbCircle
 10
139.8999980000000
 20
62.80000000000001
 30
0.000000000000000
 40
38.00000000000000
100
AcDbArc
 50
168.3049399999999
 51
191.6950600000001
  0
ARC
  5
197
100
AcDbEntity
  8
A14
  6
CONTINUOUS
 62
7
100
AcDbCircle
 10
101.8999980000000
 20
62.80000000000001
 30
0.000000000000000
 40
38.00000000000000
100
AcDbArc
 50
348.3049399999999
 51
371.6950600000001
  0
LINE
  5
198
100
AcDbEntity
  8
A14
  6
CONTINUOUS
 62
7
100
AcDbLine
 10
120.8999980000000
 20
52.80000000000001
 30
0.000000000000000
 11
127.5456390000001
 21
52.80000000000001
 31
0.000000000000000
  0
LINE
  5
199
100
AcDbEntity
  8
A14
  6
CONTINUOUS
 62
7
100
AcDbLine
 10
114.2543570000000
 20
52.80000000000001
 30
0.000000000000000
 11
120.8999980000000
 21
52.80000000000001
 31
0.000000000000000
  0
LINE
  5
19A
100
AcDbEntity
  8
A14
  6
CONTINUOUS
 62
7
100
AcDbLine
 10
120.8999980000000
 20
72.80000000000001
 30
0.000000000000000
 11
127.5456390000001
 21
72.80000000000001
 31
0.000000000000000
  0
LINE
  5
19B
100
AcDbEntity
  8
A14
  6
CONTINUOUS
 62
7
100
AcDbLine
 10
114.2543570000000
 20
72.80000000000001
 30
0.000000000000000
 11
120.8999980000000
 21
72.80000000000001
 31
0.000000000000000
  0
LINE
  5
19C
100
AcDbEntity
  8
A14
  6
CONTINUOUS
 62
7
100
AcDbLine
 10
120.8999980000000
 20
54.29999999999981
 30
0.000000000000000
 11
138.1318899736232
 21
54.29999999999981
 31
0.000000000000000
  0
LINE
  5
19D
100
AcDbEntity
  8
A14
  6
CONTINUOUS
 62
7
100
AcDbLine
 10
103.6681060263769
 20
54.29999999999981
 30
0.000000000000000
 11
120.8999980000000
 21
54.29999999999981
 31
0.000000000000000
  0
LINE
  5
19E
100
AcDbEntity
  8
A14
  6
CONTINUOUS
 62
7
100
AcDbLine
 10
120.8999980000000
 20
71.30000000000001
 30
0.000000000000000
 11
138.1318899999999
 21
71.30000000000001
 31
0.000000000000000
  0
LINE
  5
19F
100
AcDbEntity
  8
A14
  6
CONTINUOUS
 62
7
100
AcDbLine
 10
103.6681060000003
 20
71.30000000000001
 30
0.000000000000000
 11
120.8999980000000
 21
71.30000000000001
 31
0.000000000000000
  0
CIRCLE
  5
1A0
100
AcDbEntity
  8
A15
  6
CONTINUOUS
 62
7
100
AcDbCircle
 10
236.9999879999999
 20
116.8999980000000
 30
0.000000000000000
 40
3.800001000000095
  0
SPLINE
  5
1A1
100
AcDbEntity
  8
A15
  6
CONTINUOUS
 62
7
100
AcDbSpline
210
0.000000000000000
220
0.000000000000000
230
1.000000000000000
 70
     8
 71
     3
 72
    14
 73
    10
 74
     0
 42
1.000000000000000e-07
 43
1.000000000000000e-07
 12
-0.9972681423059839
 22
-0.07386644937650999
 32
0.000000000000000
 13
0.1046601845648638
 23
-0.9945080420825434
 33
0.000000000000000
 40
0.000000000000000
 40
0.000000000000000
 40
0.000000000000000
 40
0.000000000000000
 40
0.05552912651322520
 40
0.3320600335164617
 40
0.4901607632594353
 40
0.6693113239550746
 40
0.8173221079979391
 40
0.9820069757831098
 40
1.358034115921046
 40
1.358034115921046
 40
1.358034115921046
 40
1.358034115921046
 10
252.9127488750054
 20
147.8999980000000
 30
0.000000000000000
 10
252.8942897320582
 20
147.8986307535292
 30
0.000000000000000
 10
252.7840363120580
 20
147.8863375299047
 30
0.000000000000000
 10
252.6307544517761
 20
147.8174118281364
 30
0.000000000000000
 10
252.4612274630897
 20
147.7027067287650
 30
0.000000000000000
 10
252.3492546772077
 20
147.5833280553690
 30
0.000000000000000
 10
252.2714326147938
 20
147.4356841294174
 30
0.000000000000000
 10
252.2434392169564
 20
147.2055667382214
 30
0.000000000000000
 10
252.2369181529330
 20
147.0248151562768
 30
0.000000000000000
 10
252.2500365095624
 20
146.9001611513073
 30
0.000000000000000
  0
SPLINE
  5
1A2
100
AcDbEntity
  8
A15
  6
CONTINUOUS
 62
7
100
AcDbSpline
210
0.000000000000000
220
0.000000000000000
230
1.000000000000000
 70
     8
 71
     3
 72
    16
 73
    12
 74
     0
 42
1.000000000000000e-07
 43
1.000000000000000e-07
 12
0.9978134710654558
 22
-0.06609294188820058
 32
0.000000000000000
 13
-0.005326940548457060
 23
-0.9999858117514577
 33
0.000000000000000
 40
0.000000000000000
 40
0.000000000000000
 40
0.000000000000000
 40
0.000000000000000
 40
0.04980018365905740
 40
0.3320155074544097
 40
0.5280052297223096
 40
0.6696981057762780
 40
0.8270678249340288
 40
0.9997895755720682
 40
1.010638236153928
 40
1.102096556113257
 40
1.356942476809772
 40
1.356942476809772
 40
1.356942476809772
 40
1.356942476809772
 10
221.0872271424699
 20
147.8999980000000
 30
0.000000000000000
 10
221.1037909071754
 20
147.8989008531185
 30
0.000000000000000
 10
221.2141768536888
 20
147.8878543788355
 30
0.000000000000000
 10
221.3788818136835
 20
147.8123540933025
 30
0.000000000000000
 10
221.5501172661940
 20
147.6961493875880
 30
0.000000000000000
 10
221.6605005270163
 20
147.5701455287054
 30
0.000000000000000
 10
221.7220340003421
 20
147.4234796236632
 30
0.000000000000000
 10
221.7453337587704
 20
147.3110957440526
 30
0.000000000000000
 10
221.7495177733346
 20
147.2195068871124
 30
0.000000000000000
 10
221.7490638324231
 20
147.1004118662724
 30
0.000000000000000
 10
221.7503920246836
 20
146.9850013165727
 30
0.000000000000000
 10
221.7499395083274
 20
146.9000538816130
 30
0.000000000000000
  0
ARC
  5
1A3
100
AcDbEntity
  8
A15
  6
CONTINUOUS
 62
7
100
AcDbCircle
 10
252.7499879999998
 20
145.5999980000001
 30
0.000000000000000
 40
0.4999999999998543
100
AcDbArc
 50
89.99999999998329
 51
180.0000000000167
  0
ARC
  5
1A4
100
AcDbEntity
  8
A15
  6
CONTINUOUS
 62
7
100
AcDbCircle
 10
236.9999879999999
 20
116.8999980000000
 30
0.000000000000000
 40
7.000000000000000
100
AcDbArc
 50
197.3134940000000
 51
342.6491245755403
  0
ARC
  5
1A5
100
AcDbEntity
  8
A15
  6
CONTINUOUS
 62
7
100
AcDbCircle
 10
221.2499880000003
 20
145.5999980000004
 30
0.000000000000000
 40
0.4999999999996412
100
AcDbArc
 50
359.9999999999587
 51
450.0000000000411
  0
LINE
  5
1A6
100
AcDbEntity
  8
A15
  6
CONTINUOUS
 62
7
100
AcDbLine
 10
255.4999879999999
 20
147.8999980000000
 30
0.000000000000000
 11
259.9999879999999
 21
147.8999980000000
 31
0.000000000000000
  0
LINE
  5
1A7
100
AcDbEntity
  8
A15
  6
CONTINUOUS
 62
7
100
AcDbLine
 10
255.4999879999999
 20
146.0999980000000
 30
0.000000000000000
 11
259.9999879999999
 21
146.0999980000000
 31
0.000000000000000
  0
LINE
  5
1A8
100
AcDbEntity
  8
A15
  6
CONTINUOUS
 62
7
100
AcDbLine
 10
259.9999879999999
 20
146.0999980000000
 30
0.000000000000000
 11
259.9999879999999
 21
147.8999980000000
 31
0.000000000000000
  0
LINE
  5
1A9
100
AcDbEntity
  8
A15
  6
CONTINUOUS
 62
7
100
AcDbLine
 10
213.9999879999999
 20
147.8999980000000
 30
0.000000000000000
 11
218.4999879999999
 21
147.8999980000000
 31
0.000000000000000
  0
LINE
  5
1AA
100
AcDbEntity
  8
A15
  6
CONTINUOUS
 62
7
100
AcDbLine
 10
213.9999879999999
 20
146.0999980000000
 30
0.000000000000000
 11
218.4999879999999
 21
146.0999980000000
 31
0.000000000000000
  0
LINE
  5
1AB
100
AcDbEntity
  8
A15
  6
CONTINUOUS
 62
7
100
AcDbLine
 10
213.9999879999999
 20
146.0999980000000
 30
0.000000000000000
 11
213.9999879999999
 21
147.8999980000000
 31
0.000000000000000
  0
LINE
  5
1AC
100
AcDbEntity
  8
A15
  6
CONTINUOUS
 62
7
100
AcDbLine
 10
255.4999879999999
 20
147.8999980000000
 30
0.000000000000000
 11
252.9641308428543
 21
147.8999980000000
 31
0.000000000000000
  0
LINE
  5
1AD
100
AcDbEntity
  8
A15
  6
CONTINUOUS
 62
7
100
AcDbLine
 10
221.0358451571458
 20
147.8999980000000
 30
0.000000000000000
 11
218.4999879999999
 21
147.8999980000000
 31
0.000000000000000
  0
LINE
  5
1AE
100
AcDbEntity
  8
A15
  6
CONTINUOUS
 62
7
100
AcDbLine
 10
218.4999879999999
 20
146.0999980000000
 30
0.000000000000000
 11
221.0358451571458
 21
146.0999980000000
 31
0.000000000000000
  0
LINE
  5
1AF
100
AcDbEntity
  8
A15
  6
CONTINUOUS
 62
7
100
AcDbLine
 10
252.9641308428543
 20
146.0999980000000
 30
0.000000000000000
 11
255.4999879999999
 21
146.0999980000000
 31
0.000000000000000
  0
LINE
  5
1B0
100
AcDbEntity
  8
A15
  6
CONTINUOUS
 62
7
100
AcDbLine
 10
252.9365553156877
 20
147.8999980000000
 30
0.000000000000000
 11
221.0767430277919
 21
147.8999980000000
 31
0.000000000000000
  0
LINE
  5
1B1
100
AcDbEntity
  8
A15
  6
CONTINUOUS
 62
7
100
AcDbLine
 10
252.7499879999999
 20
146.0999980000000
 30
0.000000000000000
 11
252.9641308428543
 21
146.0999980000000
 31
0.000000000000000
  0
LINE
  5
1B2
100
AcDbEntity
  8
A15
  6
CONTINUOUS
 62
7
100
AcDbLine
 10
252.2499879999999
 20
145.5999980000000
 30
0.000000000000000
 11
252.2499879999999
 21
146.9001097522668
 31
0.000000000000000
  0
LINE
  5
1B3
100
AcDbEntity
  8
A15
  6
CONTINUOUS
 62
7
100
AcDbLine
 10
221.7499879999999
 20
142.2999990000002
 30
0.000000000000000
 11
221.7499879999999
 21
145.5999980000000
 31
0.000000000000000
  0
LINE
  5
1B4
100
AcDbEntity
  8
A15
  6
CONTINUOUS
 62
7
100
AcDbLine
 10
230.3171528419692
 20
114.8167999175825
 30
0.000000000000000
 11
221.7499880000000
 21
142.2999990000002
 31
0.000000000000000
  0
LINE
  5
1B5
100
AcDbEntity
  8
A15
  6
CONTINUOUS
 62
7
100
AcDbLine
 10
252.2499870000001
 20
142.2999970000001
 30
0.000000000000000
 11
243.6814625970995
 21
114.8124402862316
 31
0.000000000000000
  0
LINE
  5
1B6
100
AcDbEntity
  8
A15
  6
CONTINUOUS
 62
7
100
AcDbLine
 10
252.2499870000001
 20
142.2999970000000
 30
0.000000000000000
 11
252.2499880000000
 21
145.5999980000001
 31
0.000000000000000
  0
LINE
  5
1B7
100
AcDbEntity
  8
A15
  6
CONTINUOUS
 62
7
100
AcDbLine
 10
221.7499879999999
 20
145.5999980000000
 30
0.000000000000000
 11
221.7499879999999
 21
146.9001097635286
 31
0.000000000000000
  0
LINE
  5
1B8
100
AcDbEntity
  8
A15
  6
CONTINUOUS
 62
7
100
AcDbLine
 10
221.0358451571458
 20
146.0999980000000
 30
0.000000000000000
 11
221.2499879999999
 21
146.0999980000000
 31
0.000000000000000
  0
ARC
  5
1B9
100
AcDbEntity
  8
A15
  6
CONTINUOUS
 62
7
100
AcDbCircle
 10
236.9999879999999
 20
116.8999980000000
 30
0.000000000000000
 40
19.00000000000000
100
AcDbArc
 50
128.9317673667206
 51
411.0682353690414
  0
ARC
  5
1BA
100
AcDbEntity
  8
A15
  6
CONTINUOUS
 62
7
100
AcDbCircle
 10
236.9999879999999
 20
116.8999980000000
 30
0.000000000000000
 40
13.50000000000000
100
AcDbArc
 50
270.0000000000000
 51
401.4535813374302
  0
ARC
  5
1BB
100
AcDbEntity
  8
A15
  6
CONTINUOUS
 62
7
100
AcDbCircle
 10
236.9999879999999
 20
116.8999980000000
 30
0.000000000000000
 40
13.50000000000000
100
AcDbArc
 50
138.5464241702348
 51
270.0000000000000
  0
ARC
  5
1BC
100
AcDbEntity
  8
A15
  6
CONTINUOUS
 62
7
100
AcDbCircle
 10
236.9999879999999
 20
116.8999980000000
 30
0.000000000000000
 40
14.50000000000000
100
AcDbArc
 50
270.0000000000000
 51
403.8207822654309
  0
ARC
  5
1BD
100
AcDbEntity
  8
A15
  6
CONTINUOUS
 62
7
100
AcDbCircle
 10
236.9999879999999
 20
116.8999980000000
 30
0.000000000000000
 40
14.50000000000000
100
AcDbArc
 50
136.1792225145580
 51
270.0000000000000
  0
ARC
  5
1BE
100
AcDbEntity
  8
A15
  6
CONTINUOUS
 62
7
100
AcDbCircle
 10
236.9999879999999
 20
116.8999980000000
 30
0.000000000000000
 40
8.145640999999999
100
AcDbArc
 50
166.5577723566446
 51
270.0000000000000
  0
ARC
  5
1BF
100
AcDbEntity
  8
A15
  6
CONTINUOUS
 62
7
100
AcDbCircle
 10
236.9999879999999
 20
116.8999980000000
 30
0.000000000000000
 40
8.145640999999999
100
AcDbArc
 50
270.0000000000000
 51
373.4422473206708
  0
LINE
  5
1C0
100
AcDbEntity
  8
A2
  6
CENTER
 62
1
100
AcDbLine
 10
46.30000800000008
 20
116.8999959999634
 30
0.000000000000000
 11
79.39999799999998
 21
116.8999959999634
 31
0.000000000000000
  0
LINE
  5
1C1
100
AcDbEntity
  8
A2
  6
CENTER
 62
1
100
AcDbLine
 10
62.79998499999996
 20
149.3999980000000
 30
0.000000000000000
 11
62.79998499999996
 21
96.39999800000001
 31
0.000000000000000
  0
LINE
  5
1C2
100
AcDbEntity
  8
A2
  6
CENTER
 62
1
100
AcDbLine
 10
70.29998499999996
 20
149.3999980000000
 30
0.000000000000000
 11
70.29998499999996
 21
144.5999980000000
 31
0.000000000000000
  0
LINE
  5
1C3
100
AcDbEntity
  8
A1
  6
DASHED
 62
2
100
AcDbLine
 10
72.94998499999994
 20
147.8999979999634
 30
0.000000000000000
 11
72.94998499999994
 21
146.0999979999634
 31
0.000000000000000
  0
LINE
  5
1C4
100
AcDbEntity
  8
A1
  6
DASHED
 62
2
100
AcDbLine
 10
67.64998499999999
 20
147.8999979999634
 30
0.000000000000000
 11
67.64998499999999
 21
146.0999979999634
 31
0.000000000000000
  0
LINE
  5
1C5
100
AcDbEntity
  8
A1
  6
DASHED
 62
2
100
AcDbLine
 10
57.94998499999994
 20
147.8999979999634
 30
0.000000000000000
 11
57.94998499999994
 21
146.0999979999634
 31
0.000000000000000
  0
LINE
  5
1C6
100
AcDbEntity
  8
A2
  6
CENTER
 62
1
100
AcDbLine
 10
55.29998499999996
 20
149.3999980000000
 30
0.000000000000000
 11
55.29998499999996
 21
144.5999980000000
 31
0.000000000000000
  0
LINE
  5
1C7
100
AcDbEntity
  8
A1
  6
DASHED
 62
2
100
AcDbLine
 10
52.64998499999999
 20
147.8999979999634
 30
0.000000000000000
 11
52.64998499999999
 21
146.0999979999634
 31
0.000000000000000
  0
LINE
  5
1C8
100
AcDbEntity
  8
A2
  6
CENTER
 62
1
100
AcDbLine
 10
102.8999979999999
 20
149.3999980000000
 30
0.000000000000000
 11
102.8999979999999
 21
144.5999980000000
 31
0.000000000000000
  0
LINE
  5
1C9
100
AcDbEntity
  8
A1
  6
DASHED
 62
2
100
AcDbLine
 10
100.2499979999999
 20
147.8999980000000
 30
0.000000000000000
 11
100.2499979999999
 21
146.0999980000000
 31
0.000000000000000
  0
LINE
  5
1CA
100
AcDbEntity
  8
A2
  6
CENTER
 62
1
100
AcDbLine
 10
138.8999980000000
 20
149.3999980000000
 30
0.000000000000000
 11
138.8999980000000
 21
144.5999980000000
 31
0.000000000000000
  0
LINE
  5
1CB
100
AcDbEntity
  8
A1
  6
DASHED
 62
2
100
AcDbLine
 10
141.5499980000000
 20
147.8999980000000
 30
0.000000000000000
 11
141.5499980000000
 21
146.0999980000000
 31
0.000000000000000
  0
LINE
  5
1CC
100
AcDbEntity
  8
A2
  6
CENTER
 62
1
100
AcDbLine
 10
96.31697799999992
 20
183.2286595522288
 30
0.000000000000000
 11
146.1374979999998
 21
183.2286595522288
 31
0.000000000000000
  0
LINE
  5
1CD
100
AcDbEntity
  8
A2
  6
CENTER
 62
1
100
AcDbLine
 10
120.8999980000000
 20
199.7286595522289
 30
0.000000000000000
 11
120.8999980000000
 21
166.6286615522289
 31
0.000000000000000
  0
LINE
  5
1CE
100
AcDbEntity
  8
A12
  6
CENTER
 62
1
100
AcDbLine
 10
107.0499980000000
 20
190.7286595522289
 30
0.000000000000000
 11
98.74999799999998
 21
190.7286595522289
 31
0.000000000000000
  0
LINE
  5
1CF
100
AcDbEntity
  8
A12
  6
CENTER
 62
1
100
AcDbLine
 10
102.8999980000000
 20
194.8786595522289
 30
0.000000000000000
 11
102.8999980000000
 21
186.5786595522289
 31
0.000000000000000
  0
LINE
  5
1D0
100
AcDbEntity
  8
A12
  6
CENTER
 62
1
100
AcDbLine
 10
107.0499980000000
 20
175.7286595522289
 30
0.000000000000000
 11
98.74999799999998
 21
175.7286595522289
 31
0.000000000000000
  0
LINE
  5
1D1
100
AcDbEntity
  8
A12
  6
CENTER
 62
1
100
AcDbLine
 10
102.8999980000000
 20
179.8786595522289
 30
0.000000000000000
 11
102.8999980000000
 21
171.5786595522289
 31
0.000000000000000
  0
LINE
  5
1D2
100
AcDbEntity
  8
A12
  6
CENTER
 62
1
100
AcDbLine
 10
143.0499980000000
 20
190.7286595522289
 30
0.000000000000000
 11
134.7499980000000
 21
190.7286595522289
 31
0.000000000000000
  0
LINE
  5
1D3
100
AcDbEntity
  8
A12
  6
CENTER
 62
1
100
AcDbLine
 10
138.8999980000000
 20
194.8786595522289
 30
0.000000000000000
 11
138.8999980000000
 21
186.5786595522289
 31
0.000000000000000
  0
LINE
  5
1D4
100
AcDbEntity
  8
A12
  6
CENTER
 62
1
100
AcDbLine
 10
143.0499980000000
 20
175.7286595522289
 30
0.000000000000000
 11
134.7499980000000
 21
175.7286595522289
 31
0.000000000000000
  0
LINE
  5
1D5
100
AcDbEntity
  8
A12
  6
CENTER
 62
1
100
AcDbLine
 10
138.8999980000000
 20
179.8786595522289
 30
0.000000000000000
 11
138.8999980000000
 21
171.5786595522289
 31
0.000000000000000
  0
LINE
  5
1D6
100
AcDbEntity
  8
A10
  6
CENTER
 62
1
100
AcDbLine
 10
100.3999980000000
 20
116.8999980000000
 30
0.000000000000000
 11
141.3999980000000
 21
116.8999980000000
 31
0.000000000000000
  0
LINE
  5
1D7
100
AcDbEntity
  8
A10
  6
CENTER
 62
1
100
AcDbLine
 10
120.8999980000000
 20
96.39999800000001
 30
0.000000000000000
 11
120.8999980000000
 21
149.3999980000000
 31
0.000000000000000
  0
LINE
  5
1D8
100
AcDbEntity
  8
A12
  6
CENTER
 62
1
100
AcDbLine
 10
107.0499980000000
 20
55.30000000000021
 30
0.000000000000000
 11
98.74999799999998
 21
55.30000000000021
 31
0.000000000000000
  0
LINE
  5
1D9
100
AcDbEntity
  8
A12
  6
CENTER
 62
1
100
AcDbLine
 10
102.8999980000000
 20
51.15000000000020
 30
0.000000000000000
 11
102.8999980000000
 21
59.45000000000022
 31
0.000000000000000
  0
LINE
  5
1DA
100
AcDbEntity
  8
A2
  6
CENTER
 62
1
100
AcDbLine
 10
120.8999980000000
 20
46.30000000000021
 30
0.000000000000000
 11
120.8999980000000
 21
79.39999800000021
 31
0.000000000000000
  0
LINE
  5
1DB
100
AcDbEntity
  8
A2
  6
CENTER
 62
1
100
AcDbLine
 10
96.31697799999992
 20
62.80000000000032
 30
0.000000000000000
 11
146.1374979999998
 21
62.80000000000032
 31
0.000000000000000
  0
LINE
  5
1DC
100
AcDbEntity
  8
A12
  6
CENTER
 62
1
100
AcDbLine
 10
102.8999980000000
 20
66.15000000000020
 30
0.000000000000000
 11
102.8999980000000
 21
74.45000000000022
 31
0.000000000000000
  0
LINE
  5
1DD
100
AcDbEntity
  8
A12
  6
CENTER
 62
1
100
AcDbLine
 10
107.0499980000000
 20
70.30000000000021
 30
0.000000000000000
 11
98.74999799999998
 21
70.30000000000021
 31
0.000000000000000
  0
LINE
  5
1DE
100
AcDbEntity
  8
A12
  6
CENTER
 62
1
100
AcDbLine
 10
143.0499980000000
 20
70.30000000000021
 30
0.000000000000000
 11
134.7499980000000
 21
70.30000000000021
 31
0.000000000000000
  0
LINE
  5
1DF
100
AcDbEntity
  8
A12
  6
CENTER
 62
1
100
AcDbLine
 10
138.8999980000000
 20
66.15000000000020
 30
0.000000000000000
 11
138.8999980000000
 21
74.45000000000022
 31
0.000000000000000
  0
LINE
  5
1E0
100
AcDbEntity
  8
A12
  6
CENTER
 62
1
100
AcDbLine
 10
138.8999980000000
 20
51.15000000000020
 30
0.000000000000000
 11
138.8999980000000
 21
59.45000000000022
 31
0.000000000000000
  0
LINE
  5
1E1
100
AcDbEntity
  8
A12
  6
CENTER
 62
1
100
AcDbLine
 10
143.0499980000000
 20
55.30000000000021
 30
0.000000000000000
 11
134.7499980000000
 21
55.30000000000021
 31
0.000000000000000
  0
LINE
  5
1E2
100
AcDbEntity
  8
A2
  6
CENTER
 62
1
100
AcDbLine
 10
179.0000110000000
 20
149.3999980000000
 30
0.000000000000000
 11
179.0000110000000
 21
96.39999800000001
 31
0.000000000000000
  0
LINE
  5
1E3
100
AcDbEntity
  8
A2
  6
CENTER
 62
1
100
AcDbLine
 10
171.5000110000000
 20
149.3999980000000
 30
0.000000000000000
 11
171.5000110000000
 21
144.5999980000000
 31
0.000000000000000
  0
LINE
  5
1E4
100
AcDbEntity
  8
A1
  6
DASHED
 62
2
100
AcDbLine
 10
168.8500110000000
 20
147.8999979999634
 30
0.000000000000000
 11
168.8500110000000
 21
146.0999979999634
 31
0.000000000000000
  0
LINE
  5
1E5
100
AcDbEntity
  8
A1
  6
DASHED
 62
2
100
AcDbLine
 10
174.1500110000000
 20
147.8999979999634
 30
0.000000000000000
 11
174.1500110000000
 21
146.0999979999634
 31
0.000000000000000
  0
LINE
  5
1E6
100
AcDbEntity
  8
A1
  6
DASHED
 62
2
100
AcDbLine
 10
183.8500110000000
 20
147.8999979999634
 30
0.000000000000000
 11
183.8500110000000
 21
146.0999979999634
 31
0.000000000000000
  0
LINE
  5
1E7
100
AcDbEntity
  8
A2
  6
CENTER
 62
1
100
AcDbLine
 10
186.5000110000000
 20
149.3999980000000
 30
0.000000000000000
 11
186.5000110000000
 21
144.5999980000000
 31
0.000000000000000
  0
LINE
  5
1E8
100
AcDbEntity
  8
A1
  6
DASHED
 62
2
100
AcDbLine
 10
189.1500110000000
 20
147.8999979999634
 30
0.000000000000000
 11
189.1500110000000
 21
146.0999979999634
 31
0.000000000000000
  0
LINE
  5
1E9
100
AcDbEntity
  8
A2
  6
CENTER
 62
1
100
AcDbLine
 10
195.4999879999999
 20
116.8999959999634
 30
0.000000000000000
 11
162.3999980000000
 21
116.8999959999634
 31
0.000000000000000
  0
LINE
  5
1EA
100
AcDbEntity
  8
A1
  6
DASHED
 62
2
100
AcDbLine
 10
257.7500240000002
 20
147.8999980000000
 30
0.000000000000000
 11
257.7500240000002
 21
146.0999980000000
 31
0.000000000000000
  0
LINE
  5
1EB
100
AcDbEntity
  8
A2
  6
CENTER
 62
1
100
AcDbLine
 10
255.1000240000002
 20
149.3999980000000
 30
0.000000000000000
 11
255.1000240000002
 21
144.5999980000000
 31
0.000000000000000
  0
LINE
  5
1EC
100
AcDbEntity
  8
A10
  6
CENTER
 62
1
100
AcDbLine
 10
237.1000240000000
 20
96.39999800000001
 30
0.000000000000000
 11
237.1000240000000
 21
149.3999980000000
 31
0.000000000000000
  0
LINE
  5
1ED
100
AcDbEntity
  8
A2
  6
CENTER
 62
1
100
AcDbLine
 10
219.1000240000000
 20
149.3999980000000
 30
0.000000000000000
 11
219.1000240000000
 21
144.5999980000000
 31
0.000000000000000
  0
LINE
  5
1EE
100
AcDbEntity
  8
A1
  6
DASHED
 62
2
100
AcDbLine
 10
216.4500240000001
 20
147.8999980000000
 30
0.000000000000000
 11
216.4500240000001
 21
146.0999980000000
 31
0.000000000000000
  0
LINE
  5
1EF
100
AcDbEntity
  8
A10
  6
CENTER
 62
1
100
AcDbLine
 10
257.6000240000001
 20
116.8999980000000
 30
0.000000000000000
 11
216.6000240000000
 21
116.8999980000000
 31
0.000000000000000
  0
ENDSEC
  0
SECTION
  2
OBJECTS
  0
DICTIONARY
  5
223
100
AcDbDictionary
  3
ACAD_GROUP
350
224
  3
ACAD_LAYOUT
350
225
  3
ACAD_MLINESTYLE
350
226
  0
DICTIONARY
  5
224
102
{ACAD_REACTORS
330
223
102
}
330
223
100
AcDbDictionary
  0
DICTIONARY
  5
225
102
{ACAD_REACTORS
330
223
102
}
330
223
100
AcDbDictionary
  3
Model
350
227
  3
ﾚｲｱｳﾄ1
350
228
  3
ﾚｲｱｳﾄ2
350
229
  0
DICTIONARY
  5
226
102
{ACAD_REACTORS
330
223
102
}
330
223
100
AcDbDictionary
  3
STANDARD
350
22A
  0
LAYOUT
  5
227
102
{ACAD_REACTORS
330
225
102
}
330
225
100
AcDbPlotSettings
 70
11952
  4
A3
 44
297.000000
 45
420.000000
 73
  1
 72
  1
100
AcDbLayout
  1
Model
 71
0
330
21A
  0
LAYOUT
  5
228
102
{ACAD_REACTORS
330
225
102
}
330
225
100
AcDbPlotSettings
100
AcDbLayout
  1
ﾚｲｱｳﾄ1
 71
1
330
21B
  0
LAYOUT
  5
229
102
{ACAD_REACTORS
330
225
102
}
330
225
100
AcDbPlotSettings
100
AcDbLayout
  1
ﾚｲｱｳﾄ2
 71
2
330
21C
  0
MLINESTYLE
  5
22A
102
{ACAD_REACTORS
330
226
102
}
330
226
100
AcDbMlineStyle
  2
STANDARD
 70
     0
  3

 62
   256
 51
90.00
 52
90.00
 71
     2
 49
0.50
 62
   256
  6
BYLAYER
 49
-0.50
 62
   256
  6
BYLAYER
  0
ENDSEC
  0
EOF
