  0
SECTION
  2
HEADER
  9
$ACADVER
  1
AC1015
  9
$ACADMAINTVER
 70
    20
  9
$DWGCODEPAGE
  3
ANSI_932
  9
$INSBASE
 10
0.0
 20
0.0
 30
0.0
  9
$EXTMIN
 10
9.9999975266385
 20
10.0
 30
0.0
  9
$EXTMAX
 10
453.7942938176961
 20
323.251314405808
 30
0.0
  9
$LIMMIN
 10
0.0000015376081137
 20
-0.0000001931532552
  9
$LIMMAX
 10
495.0000015376081
 20
341.2499998068465
  9
$ORTHOMODE
 70
     1
  9
$REGENMODE
 70
     1
  9
$FILLMODE
 70
     1
  9
$QTEXTMODE
 70
     0
  9
$MIRRTEXT
 70
     1
  9
$LTSCALE
 40
0.5
  9
$ATTMODE
 70
     1
  9
$TEXTSIZE
 40
2.5
  9
$TRACEWID
 40
1.0
  9
$TEXTSTYLE
  7
STANDARD
  9
$CLAYER
  8
0
  9
$CELTYPE
  6
BYLAYER
  9
$CECOLOR
 62
   256
  9
$CELTSCALE
 40
1.0
  9
$DISPSILH
 70
     0
  9
$DIMSCALE
 40
1.0
  9
$DIMASZ
 40
3.0
  9
$DIMEXO
 40
1.0
  9
$DIMDLI
 40
10.0
  9
$DIMRND
 40
0.0
  9
$DIMDLE
 40
0.0
  9
$DIMEXE
 40
1.0
  9
$DIMTP
 40
0.0
  9
$DIMTM
 40
0.0
  9
$DIMTXT
 40
3.2
  9
$DIMCEN
 40
0.0
  9
$DIMTSZ
 40
0.0
  9
$DIMTOL
 70
     0
  9
$DIMLIM
 70
     0
  9
$DIMTIH
 70
     0
  9
$DIMTOH
 70
     0
  9
$DIMSE1
 70
     0
  9
$DIMSE2
 70
     0
  9
$DIMTAD
 70
     3
  9
$DIMZIN
 70
     8
  9
$DIMBLK
  1

  9
$DIMASO
 70
     1
  9
$DIMSHO
 70
     1
  9
$DIMPOST
  1

  9
$DIMAPOST
  1

  9
$DIMALT
 70
     0
  9
$DIMALTD
 70
     2
  9
$DIMALTF
 40
25.4
  9
$DIMLFAC
 40
1.0
  9
$DIMTOFL
 70
     1
  9
$DIMTVP
 40
0.0
  9
$DIMTIX
 70
     0
  9
$DIMSOXD
 70
     0
  9
$DIMSAH
 70
     1
  9
$DIMBLK1
  1
OPEN
  9
$DIMBLK2
  1
OPEN
  9
$DIMSTYLE
  2
STANDARD
  9
$DIMCLRD
 70
     0
  9
$DIMCLRE
 70
     0
  9
$DIMCLRT
 70
     0
  9
$DIMTFAC
 40
1.0
  9
$DIMGAP
 40
1.0
  9
$DIMJUST
 70
     0
  9
$DIMSD1
 70
     0
  9
$DIMSD2
 70
     0
  9
$DIMTOLJ
 70
     1
  9
$DIMTZIN
 70
     0
  9
$DIMALTZ
 70
     0
  9
$DIMALTTZ
 70
     0
  9
$DIMUPT
 70
     0
  9
$DIMDEC
 70
     4
  9
$DIMTDEC
 70
     4
  9
$DIMALTU
 70
     2
  9
$DIMALTTD
 70
     2
  9
$DIMTXSTY
  7
STANDARD
  9
$DIMAUNIT
 70
     0
  9
$DIMADEC
 70
     0
  9
$DIMALTRND
 40
0.0
  9
$DIMAZIN
 70
     0
  9
$DIMDSEP
 70
    46
  9
$DIMATFIT
 70
     3
  9
$DIMFRAC
 70
     0
  9
$DIMLDRBLK
  1
OPEN
  9
$DIMLUNIT
 70
     2
  9
$DIMLWD
 70
    -2
  9
$DIMLWE
 70
    -2
  9
$DIMTMOVE
 70
     0
  9
$LUNITS
 70
     2
  9
$LUPREC
 70
     4
  9
$SKETCHINC
 40
1.0
  9
$FILLETRAD
 40
0.0
  9
$AUNITS
 70
     0
  9
$AUPREC
 70
     0
  9
$MENU
  1
.
  9
$ELEVATION
 40
0.0
  9
$PELEVATION
 40
0.0
  9
$THICKNESS
 40
0.0
  9
$LIMCHECK
 70
     0
  9
$CHAMFERA
 40
10.0
  9
$CHAMFERB
 40
10.0
  9
$CHAMFERC
 40
20.0
  9
$CHAMFERD
 40
0.0
  9
$SKPOLY
 70
     0
  9
$TDCREATE
 40
2452930.629301215
  9
$TDUCREATE
 40
2452930.254301215
  9
$TDUPDATE
 40
2457192.690754907
  9
$TDUUPDATE
 40
2457192.315754908
  9
$TDINDWG
 40
0.2092045949
  9
$TDUSRTIMER
 40
0.2092045718
  9
$USRTIMER
 70
     1
  9
$ANGBASE
 50
0.0
  9
$ANGDIR
 70
     0
  9
$PDMODE
 70
     0
  9
$PDSIZE
 40
0.0
  9
$PLINEWID
 40
0.0
  9
$SPLFRAME
 70
     0
  9
$SPLINETYPE
 70
     6
  9
$SPLINESEGS
 70
     8
  9
$HANDSEED
  5
185E
  9
$SURFTAB1
 70
     6
  9
$SURFTAB2
 70
     6
  9
$SURFTYPE
 70
     6
  9
$SURFU
 70
     6
  9
$SURFV
 70
     6
  9
$UCSBASE
  2

  9
$UCSNAME
  2

  9
$UCSORG
 10
0.0
 20
0.0
 30
0.0
  9
$UCSXDIR
 10
1.0
 20
0.0
 30
0.0
  9
$UCSYDIR
 10
0.0
 20
1.0
 30
0.0
  9
$UCSORTHOREF
  2

  9
$UCSORTHOVIEW
 70
     0
  9
$UCSORGTOP
 10
0.0
 20
0.0
 30
0.0
  9
$UCSORGBOTTOM
 10
0.0
 20
0.0
 30
0.0
  9
$UCSORGLEFT
 10
0.0
 20
0.0
 30
0.0
  9
$UCSORGRIGHT
 10
0.0
 20
0.0
 30
0.0
  9
$UCSORGFRONT
 10
0.0
 20
0.0
 30
0.0
  9
$UCSORGBACK
 10
0.0
 20
0.0
 30
0.0
  9
$PUCSBASE
  2

  9
$PUCSNAME
  2

  9
$PUCSORG
 10
0.0
 20
0.0
 30
0.0
  9
$PUCSXDIR
 10
1.0
 20
0.0
 30
0.0
  9
$PUCSYDIR
 10
0.0
 20
1.0
 30
0.0
  9
$PUCSORTHOREF
  2

  9
$PUCSORTHOVIEW
 70
     0
  9
$PUCSORGTOP
 10
0.0
 20
0.0
 30
0.0
  9
$PUCSORGBOTTOM
 10
0.0
 20
0.0
 30
0.0
  9
$PUCSORGLEFT
 10
0.0
 20
0.0
 30
0.0
  9
$PUCSORGRIGHT
 10
0.0
 20
0.0
 30
0.0
  9
$PUCSORGFRONT
 10
0.0
 20
0.0
 30
0.0
  9
$PUCSORGBACK
 10
0.0
 20
0.0
 30
0.0
  9
$USERI1
 70
     0
  9
$USERI2
 70
     0
  9
$USERI3
 70
     0
  9
$USERI4
 70
     0
  9
$USERI5
 70
     0
  9
$USERR1
 40
0.0
  9
$USERR2
 40
0.0
  9
$USERR3
 40
0.0
  9
$USERR4
 40
0.0
  9
$USERR5
 40
0.0
  9
$WORLDVIEW
 70
     1
  9
$SHADEDGE
 70
     3
  9
$SHADEDIF
 70
    70
  9
$TILEMODE
 70
     1
  9
$MAXACTVP
 70
    48
  9
$PINSBASE
 10
0.0
 20
0.0
 30
0.0
  9
$PLIMCHECK
 70
     0
  9
$PEXTMIN
 10
1.000000000000000E+20
 20
1.000000000000000E+20
 30
1.000000000000000E+20
  9
$PEXTMAX
 10
-1.000000000000000E+20
 20
-1.000000000000000E+20
 30
-1.000000000000000E+20
  9
$PLIMMIN
 10
0.0
 20
0.0
  9
$PLIMMAX
 10
420.0
 20
297.0
  9
$UNITMODE
 70
     0
  9
$VISRETAIN
 70
     1
  9
$PLINEGEN
 70
     0
  9
$PSLTSCALE
 70
     1
  9
$TREEDEPTH
 70
  3020
  9
$CMLSTYLE
  2
STANDARD
  9
$CMLJUST
 70
     0
  9
$CMLSCALE
 40
20.0
  9
$PROXYGRAPHICS
 70
     1
  9
$MEASUREMENT
 70
     0
  9
$CELWEIGHT
370
    -1
  9
$ENDCAPS
280
     0
  9
$JOINSTYLE
280
     0
  9
$LWDISPLAY
290
     0
  9
$INSUNITS
 70
     0
  9
$HYPERLINKBASE
  1

  9
$STYLESHEET
  1

  9
$XEDIT
290
     1
  9
$CEPSNTYPE
380
     0
  9
$PSTYLEMODE
290
     1
  9
$FINGERPRINTGUID
  2
{C14F8BBB-C21C-43AE-9ABC-90BF7B06FE79}
  9
$VERSIONGUID
  2
{555A30C8-4638-4C3E-AB87-DC2CD600B649}
  9
$EXTNAMES
290
     1
  9
$PSVPSCALE
 40
0.0
  9
$OLESTARTUP
290
     0
  0
ENDSEC
  0
SECTION
  2
CLASSES
  0
CLASS
  1
ACDBDICTIONARYWDFLT
  2
AcDbDictionaryWithDefault
  3
ObjectDBX Classes
 90
        0
280
     0
281
     0
  0
CLASS
  1
ACDBPLACEHOLDER
  2
AcDbPlaceHolder
  3
ObjectDBX Classes
 90
        0
280
     0
281
     0
  0
CLASS
  1
LAYOUT
  2
AcDbLayout
  3
ObjectDBX Classes
 90
        0
280
     0
281
     0
  0
CLASS
  1
DICTIONARYVAR
  2
AcDbDictionaryVar
  3
ObjectDBX Classes
 90
        0
280
     0
281
     0
  0
CLASS
  1
MATERIAL
  2
AcDbMaterial
  3
ObjectDBX Classes
 90
     1153
280
     0
281
     0
  0
CLASS
  1
VISUALSTYLE
  2
AcDbVisualStyle
  3
ObjectDBX Classes
 90
     4095
280
     0
281
     0
  0
CLASS
  1
TABLESTYLE
  2
AcDbTableStyle
  3
ObjectDBX Classes
 90
     4095
280
     0
281
     0
  0
CLASS
  1
SCALE
  2
AcDbScale
  3
ObjectDBX Classes
 90
     1153
280
     0
281
     0
  0
CLASS
  1
MLEADERSTYLE
  2
AcDbMLeaderStyle
  3
ACDB_MLEADERSTYLE_CLASS
 90
     4095
280
     0
281
     0
  0
CLASS
  1
ACDBSECTIONVIEWSTYLE
  2
AcDbSectionViewStyle
  3
ObjectDBX Classes
 90
     1025
280
     0
281
     0
  0
CLASS
  1
ACDBDETAILVIEWSTYLE
  2
AcDbDetailViewStyle
  3
ObjectDBX Classes
 90
     1025
280
     0
281
     0
  0
CLASS
  1
CELLSTYLEMAP
  2
AcDbCellStyleMap
  3
ObjectDBX Classes
 90
     1152
280
     0
281
     0
  0
ENDSEC
  0
SECTION
  2
TABLES
  0
TABLE
  2
VPORT
  5
8
330
0
100
AcDbSymbolTable
 70
     1
  0
VPORT
  5
17AA
330
8
100
AcDbSymbolTableRecord
100
AcDbViewportTableRecord
  2
*ACTIVE
 70
     0
 10
0.0
 20
0.0
 11
1.0
 21
1.0
 12
352.4851200193861
 22
166.6285806901125
 13
0.0
 23
0.0
 14
10.0
 24
10.0
 15
10.0
 25
10.0
 16
0.0
 26
0.0
 36
1.0
 17
0.0
 27
0.0
 37
0.0
 40
315.7561570391515
 41
2.35006605019815
 42
50.0
 43
0.0
 44
0.0
 50
0.0
 51
0.0
 71
     0
 72
   100
 73
     1
 74
     0
 75
     0
 76
     0
 77
     0
 78
     0
281
     0
 65
     1
110
0.0
120
0.0
130
0.0
111
1.0
121
0.0
131
0.0
112
0.0
122
1.0
132
0.0
 79
     0
146
0.0
1001
ACAD_NAV_VCDISPLAY
1070
     3
  0
ENDTAB
  0
TABLE
  2
LTYPE
  5
5
330
0
100
AcDbSymbolTable
 70
     4
  0
LTYPE
  5
12
330
5
100
AcDbSymbolTableRecord
100
AcDbLinetypeTableRecord
  2
BYBLOCK
 70
     0
  3

 72
    65
 73
     0
 40
0.0
  0
LTYPE
  5
13
330
5
100
AcDbSymbolTableRecord
100
AcDbLinetypeTableRecord
  2
BYLAYER
 70
     0
  3

 72
    65
 73
     0
 40
0.0
  0
LTYPE
  5
14
330
5
100
AcDbSymbolTableRecord
100
AcDbLinetypeTableRecord
  2
CONTINUOUS
 70
     0
  3
Solid line
 72
    65
 73
     0
 40
0.0
  0
LTYPE
  5
4B
330
5
100
AcDbSymbolTableRecord
100
AcDbLinetypeTableRecord
  2
DASHED
 70
     0
  3
Dashed __ __ __ __ __ __ __ __ __ __ __ __ __ _
 72
    65
 73
     2
 40
19.04999999999998
 49
12.7
 74
     0
 49
-6.349999999999997
 74
     0
  0
LTYPE
  5
4C
330
5
100
AcDbSymbolTableRecord
100
AcDbLinetypeTableRecord
  2
CENTER
 70
     0
  3
Center ____ _ ____ _ ____ _ ____ _ ____ _ ____
 72
    65
 73
     4
 40
50.8
 49
31.75
 74
     0
 49
-6.349999999999997
 74
     0
 49
6.349999999999997
 74
     0
 49
-6.349999999999997
 74
     0
  0
LTYPE
  5
4D
330
5
100
AcDbSymbolTableRecord
100
AcDbLinetypeTableRecord
  2
PHANTOM
 70
     0
  3
Phantom ______  __  __  ______  __  __  ______
 72
    65
 73
     6
 40
63.5
 49
31.75
 74
     0
 49
-6.349999999999997
 74
     0
 49
6.349999999999997
 74
     0
 49
-6.349999999999997
 74
     0
 49
6.349999999999997
 74
     0
 49
-6.349999999999997
 74
     0
  0
ENDTAB
  0
TABLE
  2
LAYER
  5
2
330
0
100
AcDbSymbolTable
 70
     8
  0
LAYER
  5
E
102
{ACAD_XDICTIONARY
360
1802
102
}
330
2
100
AcDbSymbolTableRecord
100
AcDbLayerTableRecord
  2
0
 70
     0
 62
     7
  6
CONTINUOUS
370
    -3
390
17B1
  0
LAYER
  5
4E
102
{ACAD_XDICTIONARY
360
1804
102
}
330
2
100
AcDbSymbolTableRecord
100
AcDbLayerTableRecord
  2
4
 70
     0
 62
     1
  6
CENTER
370
    -3
390
17B1
  0
LAYER
  5
4F
102
{ACAD_XDICTIONARY
360
1806
102
}
330
2
100
AcDbSymbolTableRecord
100
AcDbLayerTableRecord
  2
5
 70
     0
 62
     6
  6
PHANTOM
370
    -3
390
17B1
  0
LAYER
  5
50
102
{ACAD_XDICTIONARY
360
1808
102
}
330
2
100
AcDbSymbolTableRecord
100
AcDbLayerTableRecord
  2
1
 70
     0
 62
     7
  6
CONTINUOUS
370
    -3
390
17B1
  0
LAYER
  5
51
102
{ACAD_XDICTIONARY
360
180A
102
}
330
2
100
AcDbSymbolTableRecord
100
AcDbLayerTableRecord
  2
2
 70
     0
 62
     4
  6
CONTINUOUS
370
    -3
390
17B1
  0
LAYER
  5
52
102
{ACAD_XDICTIONARY
360
180C
102
}
330
2
100
AcDbSymbolTableRecord
100
AcDbLayerTableRecord
  2
3
 70
     0
 62
     2
  6
DASHED
370
    -3
390
17B1
  0
LAYER
  5
53
102
{ACAD_XDICTIONARY
360
180E
102
}
330
2
100
AcDbSymbolTableRecord
100
AcDbLayerTableRecord
  2
6
 70
     0
 62
     5
  6
CONTINUOUS
370
    -3
390
17B1
  0
LAYER
  5
54
102
{ACAD_XDICTIONARY
360
1810
102
}
330
2
100
AcDbSymbolTableRecord
100
AcDbLayerTableRecord
  2
7
 70
     0
 62
     3
  6
CONTINUOUS
370
    -3
390
17B1
  0
ENDTAB
  0
TABLE
  2
STYLE
  5
3
330
0
100
AcDbSymbolTable
 70
     1
  0
STYLE
  5
F
330
3
100
AcDbSymbolTableRecord
100
AcDbTextStyleTableRecord
  2
STANDARD
 70
     0
 40
0.0
 41
1.0
 50
0.0
 71
     0
 42
2.5
  3
simplex.shx
  4

  0
ENDTAB
  0
TABLE
  2
VIEW
  5
6
330
0
100
AcDbSymbolTable
 70
     0
  0
ENDTAB
  0
TABLE
  2
UCS
  5
7
330
0
100
AcDbSymbolTable
 70
     0
  0
ENDTAB
  0
TABLE
  2
APPID
  5
9
330
0
100
AcDbSymbolTable
 70
     5
  0
APPID
  5
10
330
9
100
AcDbSymbolTableRecord
100
AcDbRegAppTableRecord
  2
ACAD
 70
     0
  0
APPID
  5
3E
330
9
100
AcDbSymbolTableRecord
100
AcDbRegAppTableRecord
  2
CONTENTTABDATA
 70
     0
  0
APPID
  5
3F
330
9
100
AcDbSymbolTableRecord
100
AcDbRegAppTableRecord
  2
CONTENTCURRENTTAB
 70
     0
  0
APPID
  5
181C
330
9
100
AcDbSymbolTableRecord
100
AcDbRegAppTableRecord
  2
ACAD_NAV_VCDISPLAY
 70
     0
  0
APPID
  5
1855
330
9
100
AcDbSymbolTableRecord
100
AcDbRegAppTableRecord
  2
ACAD_MLEADERVER
 70
     0
  0
ENDTAB
  0
TABLE
  2
DIMSTYLE
  5
A
330
0
100
AcDbSymbolTable
 70
     1
100
AcDbDimStyleTable
 71
     0
  0
DIMSTYLE
105
1D
330
A
100
AcDbSymbolTableRecord
100
AcDbDimStyleTableRecord
  2
STANDARD
 70
     0
 41
3.0
 42
1.0
 43
10.0
 44
1.0
 73
     0
 74
     0
 77
     3
 78
     8
140
3.2
141
0.0
147
1.0
172
     1
173
     1
340
F
341
2E
343
2E
344
2E
  0
ENDTAB
  0
TABLE
  2
BLOCK_RECORD
  5
1
330
0
100
AcDbSymbolTable
 70
     1
  0
BLOCK_RECORD
  5
18
102
{ACAD_XDICTIONARY
360
1794
102
}
330
1
100
AcDbSymbolTableRecord
100
AcDbBlockTableRecord
  2
*MODEL_SPACE
340
17FF
  0
BLOCK_RECORD
  5
15
102
{ACAD_XDICTIONARY
360
1792
102
}
330
1
100
AcDbSymbolTableRecord
100
AcDbBlockTableRecord
  2
*PAPER_SPACE
340
1800
  0
BLOCK_RECORD
  5
2E
330
1
100
AcDbSymbolTableRecord
100
AcDbBlockTableRecord
  2
_OPEN
340
0
  0
ENDTAB
  0
ENDSEC
  0
SECTION
  2
BLOCKS
  0
BLOCK
  5
19
330
18
100
AcDbEntity
  8
0
100
AcDbBlockBegin
  2
*MODEL_SPACE
 70
     0
 10
0.0
 20
0.0
 30
0.0
  3
*MODEL_SPACE
  1

  0
ENDBLK
  5
1A
330
18
100
AcDbEntity
  8
0
100
AcDbBlockEnd
  0
BLOCK
  5
16
330
15
100
AcDbEntity
 67
     1
  8
0
100
AcDbBlockBegin
  2
*PAPER_SPACE
 70
     0
 10
0.0
 20
0.0
 30
0.0
  3
*PAPER_SPACE
  1

  0
ENDBLK
  5
17
330
15
100
AcDbEntity
 67
     1
  8
0
100
AcDbBlockEnd
  0
BLOCK
  5
2F
330
2E
100
AcDbEntity
  8
0
100
AcDbBlockBegin
  2
_OPEN
 70
     0
 10
0.0
 20
0.0
 30
0.0
  3
_OPEN
  1

  0
LINE
  5
30
330
2E
100
AcDbEntity
  8
0
  6
ByBlock
 62
     0
100
AcDbLine
 10
-1.0
 20
0.1666666666666666
 30
0.0
 11
0.0
 21
0.0
 31
0.0
  0
LINE
  5
31
330
2E
100
AcDbEntity
  8
0
  6
ByBlock
 62
     0
100
AcDbLine
 10
0.0
 20
0.0
 30
0.0
 11
-1.0
 21
-0.1666666666666666
 31
0.0
  0
LINE
  5
32
330
2E
100
AcDbEntity
  8
0
  6
ByBlock
 62
     0
100
AcDbLine
 10
0.0
 20
0.0
 30
0.0
 11
-1.0
 21
0.0
 31
0.0
  0
ENDBLK
  5
33
330
2E
100
AcDbEntity
  8
0
100
AcDbBlockEnd
  0
ENDSEC
  0
SECTION
  2
ENTITIES
  0
TEXT
  5
63
330
18
100
AcDbEntity
  8
4
  6
CENTER
 48
0.25
100
AcDbText
 10
23.97950852663849
 20
10.0
 30
0.0
 40
1.399999999999999
  1
4
100
AcDbText
  0
TEXT
  5
64
330
18
100
AcDbEntity
  8
7
  6
Continuous
 48
0.25
100
AcDbText
 10
9.999997526638502
 20
26.0000007607689
 30
0.0
 40
3.0
  1
CODE No.9699
100
AcDbText
  0
TEXT
  5
65
330
18
100
AcDbEntity
  8
7
  6
Continuous
 48
0.25
100
AcDbText
 10
9.999997526638502
 20
18.00000076076889
 30
0.0
 40
3.0
  1
TYPE No.TCA-420-TPR
100
AcDbText
  0
TEXT
  5
66
330
18
100
AcDbEntity
  8
1
  6
Continuous
 48
0.25
100
AcDbText
 10
9.999997526638502
 20
10.00000076076889
 30
0.0
 40
1.399999999999999
  1
LAYER
100
AcDbText
  0
TEXT
  5
67
330
18
100
AcDbEntity
  8
2
  6
Continuous
 48
0.25
100
AcDbText
 10
19.9795085266385
 20
10.0
 30
0.0
 40
1.399999999999999
  1
2
100
AcDbText
  0
TEXT
  5
68
330
18
100
AcDbEntity
  8
3
  6
DASHED
 48
0.25
100
AcDbText
 10
21.97950852663849
 20
10.0
 30
0.0
 40
1.399999999999999
  1
3
100
AcDbText
  0
TEXT
  5
69
330
18
100
AcDbEntity
  8
1
  6
Continuous
 48
0.25
100
AcDbText
 10
17.9795085266385
 20
10.0
 30
0.0
 40
1.399999999999999
  1
1
100
AcDbText
  0
TEXT
  5
6A
330
18
100
AcDbEntity
  8
5
  6
PHANTOM
 48
0.25
100
AcDbText
 10
25.97950852663849
 20
10.0
 30
0.0
 40
1.399999999999999
  1
5
100
AcDbText
  0
TEXT
  5
6B
330
18
100
AcDbEntity
  8
6
  6
Continuous
 48
0.25
100
AcDbText
 10
27.97950852663849
 20
10.0
 30
0.0
 40
1.399999999999999
  1
6
100
AcDbText
  0
TEXT
  5
6C
330
18
100
AcDbEntity
  8
7
  6
Continuous
 48
0.25
100
AcDbText
 10
29.9795085266385
 20
10.0
 30
0.0
 40
1.399999999999999
  1
7
100
AcDbText
  0
LINE
  5
34F
330
18
100
AcDbEntity
  8
4
  6
CENTER
100
AcDbLine
 10
182.1569980180763
 20
200.2148609313048
 30
0.0
 11
182.1569980180763
 21
145.3346942265575
 31
0.0
  0
LINE
  5
355
330
18
100
AcDbEntity
  8
1
  6
Continuous
100
AcDbLine
 10
194.9532250180761
 20
185.6413388305199
 30
0.0
 11
195.0764840180763
 21
185.5220698305199
 31
0.0
  0
LINE
  5
356
330
18
100
AcDbEntity
  8
1
  6
Continuous
100
AcDbLine
 10
147.1569960180763
 20
192.0132208305199
 30
0.0
 11
217.1569960180763
 21
192.0132208305199
 31
0.0
  0
LINE
  5
357
330
18
100
AcDbEntity
  8
1
  6
Continuous
100
AcDbLine
 10
147.1569960180763
 20
194.8132208305199
 30
0.0
 11
217.1569960180763
 21
194.8132208305199
 31
0.0
  0
LINE
  5
358
330
18
100
AcDbEntity
  8
1
  6
Continuous
100
AcDbLine
 10
160.0483640180764
 20
189.8132208305199
 30
0.0
 11
204.2656310180763
 21
189.8132208305199
 31
0.0
  0
LINE
  5
359
330
18
100
AcDbEntity
  8
1
  6
Continuous
100
AcDbLine
 10
189.5722260180764
 20
161.31082283052
 30
0.0
 11
198.1569980180763
 21
182.5132218305199
 31
0.0
  0
ARC
  5
35A
330
18
100
AcDbEntity
  8
1
  6
Continuous
100
AcDbCircle
 10
182.1569980180763
 20
164.31322083052
 30
0.0
 40
16.0
100
AcDbArc
 50
142.0428410000004
 51
37.95715899999954
  0
LINE
  5
35B
330
18
100
AcDbEntity
  8
4
  6
CENTER
100
AcDbLine
 10
203.1569980180763
 20
164.31322083052
 30
0.0
 11
161.1569980180763
 21
164.31322083052
 31
0.0
  0
LINE
  5
35C
330
18
100
AcDbEntity
  8
1
  6
Continuous
100
AcDbLine
 10
166.1569980180764
 20
186.8132208305199
 30
0.0
 11
162.1569980180763
 21
186.8132208305199
 31
0.0
  0
LINE
  5
35D
330
18
100
AcDbEntity
  8
1
  6
Continuous
100
AcDbLine
 10
147.1569960180763
 20
192.0132208305199
 30
0.0
 11
147.1569960180763
 21
194.8132208305199
 31
0.0
  0
ARC
  5
35E
330
18
100
AcDbEntity
  8
1
  6
Continuous
100
AcDbCircle
 10
160.0483640180764
 20
192.81322083052
 30
0.0
 40
3.0
100
AcDbArc
 50
195.4660099999999
 51
270.0
  0
LINE
  5
35F
330
18
100
AcDbEntity
  8
1
  6
Continuous
100
AcDbLine
 10
162.1569980180763
 20
189.8132208305199
 30
0.0
 11
162.1569980180763
 21
186.8132208305199
 31
0.0
  0
LINE
  5
360
330
18
100
AcDbEntity
  8
1
  6
Continuous
100
AcDbLine
 10
166.1569980180764
 20
182.5132218305199
 30
0.0
 11
174.7417700180764
 21
161.31082283052
 31
0.0
  0
ARC
  5
361
330
18
100
AcDbEntity
  8
1
  6
Continuous
100
AcDbCircle
 10
182.1569980180763
 20
164.31322083052
 30
0.0
 40
11.709202
100
AcDbArc
 50
155.1388839999997
 51
24.86111600000029
  0
ARC
  5
362
330
18
100
AcDbEntity
  8
1
  6
Continuous
100
AcDbCircle
 10
182.1569980180763
 20
164.31322083052
 30
0.0
 40
8.0
100
AcDbArc
 50
202.0428409999996
 51
337.9571609999998
  0
CIRCLE
  5
363
330
18
100
AcDbEntity
  8
1
  6
Continuous
100
AcDbCircle
 10
182.1569980180763
 20
164.31322083052
 30
0.0
 40
6.0
  0
ARC
  5
364
330
18
100
AcDbEntity
  8
1
  6
Continuous
100
AcDbCircle
 10
210.9248160180761
 20
142.6005808305198
 30
0.0
 40
59.831438
100
AcDbArc
 50
132.3576699999997
 51
138.1575379999999
  0
LINE
  5
365
330
18
100
AcDbEntity
  8
1
  6
Continuous
100
AcDbLine
 10
166.1569980180764
 20
182.5132218305199
 30
0.0
 11
166.1569980180764
 21
189.8132208305199
 31
0.0
  0
LINE
  5
366
330
18
100
AcDbEntity
  8
1
  6
Continuous
100
AcDbLine
 10
166.1569980180764
 20
182.5132218305199
 30
0.0
 11
166.3514810180764
 21
182.5132218305199
 31
0.0
  0
LINE
  5
367
330
18
100
AcDbEntity
  8
1
  6
Continuous
100
AcDbLine
 10
171.6348570180761
 20
188.2906538305199
 30
0.0
 11
171.6394560180763
 21
188.3132208305199
 31
0.0
  0
LINE
  5
368
330
18
100
AcDbEntity
  8
1
  6
Continuous
100
AcDbLine
 10
171.6300070180761
 20
188.26812083052
 30
0.0
 11
171.6348570180761
 21
188.2906538305199
 31
0.0
  0
LINE
  5
369
330
18
100
AcDbEntity
  8
1
  6
Continuous
100
AcDbLine
 10
171.6249020180764
 20
188.2456308305199
 30
0.0
 11
171.6300070180764
 21
188.2681208305199
 31
0.0
  0
LINE
  5
36A
330
18
100
AcDbEntity
  8
1
  6
Continuous
100
AcDbLine
 10
171.6195360180763
 20
188.2231898305199
 30
0.0
 11
171.6249020180763
 21
188.2456308305199
 31
0.0
  0
LINE
  5
36B
330
18
100
AcDbEntity
  8
1
  6
Continuous
100
AcDbLine
 10
171.6139060180764
 20
188.2008058305198
 30
0.0
 11
171.6195360180764
 21
188.2231898305199
 31
0.0
  0
LINE
  5
36C
330
18
100
AcDbEntity
  8
1
  6
Continuous
100
AcDbLine
 10
171.6080060180764
 20
188.1784868305199
 30
0.0
 11
171.6139060180764
 21
188.2008058305198
 31
0.0
  0
LINE
  5
36D
330
18
100
AcDbEntity
  8
1
  6
Continuous
100
AcDbLine
 10
171.6018330180762
 20
188.1562398305199
 30
0.0
 11
171.6080060180764
 21
188.1784868305199
 31
0.0
  0
LINE
  5
36E
330
18
100
AcDbEntity
  8
1
  6
Continuous
100
AcDbLine
 10
171.5953830180763
 20
188.1340738305199
 30
0.0
 11
171.6018330180762
 21
188.1562398305199
 31
0.0
  0
LINE
  5
36F
330
18
100
AcDbEntity
  8
1
  6
Continuous
100
AcDbLine
 10
171.5886500180764
 20
188.1119948305199
 30
0.0
 11
171.5953830180763
 21
188.1340738305198
 31
0.0
  0
LINE
  5
370
330
18
100
AcDbEntity
  8
1
  6
Continuous
100
AcDbLine
 10
171.5816310180762
 20
188.0900108305199
 30
0.0
 11
171.5886500180763
 21
188.1119948305199
 31
0.0
  0
LINE
  5
371
330
18
100
AcDbEntity
  8
1
  6
Continuous
100
AcDbLine
 10
171.5743210180762
 20
188.0681298305199
 30
0.0
 11
171.5816310180762
 21
188.0900108305199
 31
0.0
  0
LINE
  5
372
330
18
100
AcDbEntity
  8
1
  6
Continuous
100
AcDbLine
 10
171.5667150180763
 20
188.0463588305198
 30
0.0
 11
171.5743210180762
 21
188.0681298305199
 31
0.0
  0
LINE
  5
373
330
18
100
AcDbEntity
  8
1
  6
Continuous
100
AcDbLine
 10
171.5588090180764
 20
188.02470683052
 30
0.0
 11
171.5667150180763
 21
188.0463588305199
 31
0.0
  0
LINE
  5
374
330
18
100
AcDbEntity
  8
1
  6
Continuous
100
AcDbLine
 10
171.5506000180764
 20
188.0031788305199
 30
0.0
 11
171.5588090180764
 21
188.02470683052
 31
0.0
  0
LINE
  5
375
330
18
100
AcDbEntity
  8
1
  6
Continuous
100
AcDbLine
 10
171.5420820180762
 20
187.9817848305199
 30
0.0
 11
171.5506000180761
 21
188.0031788305199
 31
0.0
  0
LINE
  5
376
330
18
100
AcDbEntity
  8
1
  6
Continuous
100
AcDbLine
 10
171.5332510180763
 20
187.9605318305199
 30
0.0
 11
171.5420820180763
 21
187.9817848305199
 31
0.0
  0
LINE
  5
377
330
18
100
AcDbEntity
  8
1
  6
Continuous
100
AcDbLine
 10
171.5187630180764
 20
187.9274808305199
 30
0.0
 11
171.5332510180763
 21
187.9605318305199
 31
0.0
  0
LINE
  5
378
330
18
100
AcDbEntity
  8
1
  6
Continuous
100
AcDbLine
 10
171.5035290180763
 20
187.8947828305199
 30
0.0
 11
171.5187630180764
 21
187.9274808305199
 31
0.0
  0
LINE
  5
379
330
18
100
AcDbEntity
  8
1
  6
Continuous
100
AcDbLine
 10
171.4875860180763
 20
187.8624258305199
 30
0.0
 11
171.5035290180763
 21
187.8947828305199
 31
0.0
  0
LINE
  5
37A
330
18
100
AcDbEntity
  8
1
  6
Continuous
100
AcDbLine
 10
171.4709700180763
 20
187.8303978305199
 30
0.0
 11
171.4875860180763
 21
187.8624258305199
 31
0.0
  0
LINE
  5
37B
330
18
100
AcDbEntity
  8
1
  6
Continuous
100
AcDbLine
 10
171.4537160180763
 20
187.79868583052
 30
0.0
 11
171.4709700180764
 21
187.8303978305199
 31
0.0
  0
LINE
  5
37C
330
18
100
AcDbEntity
  8
1
  6
Continuous
100
AcDbLine
 10
171.4358600180764
 20
187.7672788305199
 30
0.0
 11
171.4537160180763
 21
187.79868583052
 31
0.0
  0
LINE
  5
37D
330
18
100
AcDbEntity
  8
1
  6
Continuous
100
AcDbLine
 10
171.4174390180762
 20
187.7361638305199
 30
0.0
 11
171.4358600180764
 21
187.7672788305199
 31
0.0
  0
LINE
  5
37E
330
18
100
AcDbEntity
  8
1
  6
Continuous
100
AcDbLine
 10
171.3984870180764
 20
187.70532883052
 30
0.0
 11
171.4174390180762
 21
187.7361638305199
 31
0.0
  0
LINE
  5
37F
330
18
100
AcDbEntity
  8
1
  6
Continuous
100
AcDbLine
 10
171.3790420180764
 20
187.6747628305199
 30
0.0
 11
171.3984870180764
 21
187.70532883052
 31
0.0
  0
LINE
  5
380
330
18
100
AcDbEntity
  8
1
  6
Continuous
100
AcDbLine
 10
171.3591380180764
 20
187.6444518305199
 30
0.0
 11
171.3790420180761
 21
187.6747628305199
 31
0.0
  0
LINE
  5
381
330
18
100
AcDbEntity
  8
1
  6
Continuous
100
AcDbLine
 10
171.3388130180764
 20
187.6143858305199
 30
0.0
 11
171.3591380180764
 21
187.6444518305199
 31
0.0
  0
LINE
  5
382
330
18
100
AcDbEntity
  8
1
  6
Continuous
100
AcDbLine
 10
171.3181010180761
 20
187.5845508305199
 30
0.0
 11
171.3388130180762
 21
187.6143858305199
 31
0.0
  0
LINE
  5
383
330
18
100
AcDbEntity
  8
1
  6
Continuous
100
AcDbLine
 10
171.2970380180763
 20
187.5549348305199
 30
0.0
 11
171.3181010180761
 21
187.5845508305199
 31
0.0
  0
LINE
  5
384
330
18
100
AcDbEntity
  8
1
  6
Continuous
100
AcDbLine
 10
171.2756610180761
 20
187.5255278305199
 30
0.0
 11
171.2970380180763
 21
187.5549348305199
 31
0.0
  0
LINE
  5
385
330
18
100
AcDbEntity
  8
1
  6
Continuous
100
AcDbLine
 10
171.2540060180763
 20
187.4963148305199
 30
0.0
 11
171.2756610180761
 21
187.5255278305199
 31
0.0
  0
LINE
  5
386
330
18
100
AcDbEntity
  8
1
  6
Continuous
100
AcDbLine
 10
171.2321080180764
 20
187.4672858305198
 30
0.0
 11
171.2540060180764
 21
187.49631483052
 31
0.0
  0
LINE
  5
387
330
18
100
AcDbEntity
  8
1
  6
Continuous
100
AcDbLine
 10
171.1975590180761
 20
187.4223938305199
 30
0.0
 11
171.2321080180763
 21
187.4672858305198
 31
0.0
  0
LINE
  5
388
330
18
100
AcDbEntity
  8
1
  6
Continuous
100
AcDbLine
 10
171.1624980180761
 20
187.3779388305199
 30
0.0
 11
171.1975590180763
 21
187.4223938305199
 31
0.0
  0
LINE
  5
389
330
18
100
AcDbEntity
  8
1
  6
Continuous
100
AcDbLine
 10
171.1269180180764
 20
187.33394183052
 30
0.0
 11
171.1624980180764
 21
187.3779388305201
 31
0.0
  0
LINE
  5
38A
330
18
100
AcDbEntity
  8
1
  6
Continuous
100
AcDbLine
 10
171.0908080180763
 20
187.2904228305199
 30
0.0
 11
171.1269180180763
 21
187.3339418305199
 31
0.0
  0
LINE
  5
38B
330
18
100
AcDbEntity
  8
1
  6
Continuous
100
AcDbLine
 10
171.0541610180762
 20
187.2474038305199
 30
0.0
 11
171.0908080180763
 21
187.2904228305199
 31
0.0
  0
LINE
  5
38C
330
18
100
AcDbEntity
  8
1
  6
Continuous
100
AcDbLine
 10
171.0169670180762
 20
187.2049058305199
 30
0.0
 11
171.0541610180762
 21
187.2474038305199
 31
0.0
  0
LINE
  5
38D
330
18
100
AcDbEntity
  8
1
  6
Continuous
100
AcDbLine
 10
170.9792170180763
 20
187.1629498305199
 30
0.0
 11
171.0169670180764
 21
187.2049058305199
 31
0.0
  0
LINE
  5
38E
330
18
100
AcDbEntity
  8
1
  6
Continuous
100
AcDbLine
 10
170.9409020180762
 20
187.1215578305199
 30
0.0
 11
170.9792170180763
 21
187.1629498305199
 31
0.0
  0
LINE
  5
38F
330
18
100
AcDbEntity
  8
1
  6
Continuous
100
AcDbLine
 10
170.9020140180761
 20
187.0807488305199
 30
0.0
 11
170.9409020180763
 21
187.1215578305199
 31
0.0
  0
LINE
  5
390
330
18
100
AcDbEntity
  8
1
  6
Continuous
100
AcDbLine
 10
170.8625430180763
 20
187.0405458305199
 30
0.0
 11
170.9020140180761
 21
187.0807488305199
 31
0.0
  0
LINE
  5
391
330
18
100
AcDbEntity
  8
1
  6
Continuous
100
AcDbLine
 10
170.8224810180763
 20
187.0009688305199
 30
0.0
 11
170.8625430180761
 21
187.0405458305199
 31
0.0
  0
LINE
  5
392
330
18
100
AcDbEntity
  8
1
  6
Continuous
100
AcDbLine
 10
170.7818190180763
 20
186.9620398305199
 30
0.0
 11
170.8224810180763
 21
187.0009688305199
 31
0.0
  0
LINE
  5
393
330
18
100
AcDbEntity
  8
1
  6
Continuous
100
AcDbLine
 10
170.7405470180763
 20
186.9237798305199
 30
0.0
 11
170.7818190180763
 21
186.9620398305199
 31
0.0
  0
LINE
  5
394
330
18
100
AcDbEntity
  8
1
  6
Continuous
100
AcDbLine
 10
170.6986570180762
 20
186.8862088305199
 30
0.0
 11
170.7405470180763
 21
186.9237798305199
 31
0.0
  0
LINE
  5
395
330
18
100
AcDbEntity
  8
1
  6
Continuous
100
AcDbLine
 10
170.6561400180762
 20
186.8493488305199
 30
0.0
 11
170.6986570180762
 21
186.8862088305199
 31
0.0
  0
LINE
  5
396
330
18
100
AcDbEntity
  8
1
  6
Continuous
100
AcDbLine
 10
170.6129870180764
 20
186.8132208305199
 30
0.0
 11
170.6561400180762
 21
186.8493488305199
 31
0.0
  0
LINE
  5
397
330
18
100
AcDbEntity
  8
1
  6
Continuous
100
AcDbLine
 10
171.6420530180761
 20
188.3309948305198
 30
0.0
 11
171.6394560180763
 21
188.3132208305198
 31
0.0
  0
LINE
  5
398
330
18
100
AcDbEntity
  8
1
  6
Continuous
100
AcDbLine
 10
171.6447170180764
 20
188.3487678305199
 30
0.0
 11
171.6420530180764
 21
188.3309948305198
 31
0.0
  0
LINE
  5
399
330
18
100
AcDbEntity
  8
1
  6
Continuous
100
AcDbLine
 10
171.6474440180762
 20
188.3665388305199
 30
0.0
 11
171.6447170180764
 21
188.3487678305199
 31
0.0
  0
LINE
  5
39A
330
18
100
AcDbEntity
  8
1
  6
Continuous
100
AcDbLine
 10
171.6502360180762
 20
188.38430483052
 30
0.0
 11
171.6474440180762
 21
188.3665388305199
 31
0.0
  0
LINE
  5
39B
330
18
100
AcDbEntity
  8
1
  6
Continuous
100
AcDbLine
 10
171.6530910180764
 20
188.4020638305198
 30
0.0
 11
171.6502360180762
 21
188.38430483052
 31
0.0
  0
LINE
  5
39C
330
18
100
AcDbEntity
  8
1
  6
Continuous
100
AcDbLine
 10
171.6560090180763
 20
188.4198138305199
 30
0.0
 11
171.6530910180764
 21
188.4020638305198
 31
0.0
  0
LINE
  5
39D
330
18
100
AcDbEntity
  8
1
  6
Continuous
100
AcDbLine
 10
171.6589890180763
 20
188.43755183052
 30
0.0
 11
171.6560090180763
 21
188.4198138305199
 31
0.0
  0
LINE
  5
39E
330
18
100
AcDbEntity
  8
1
  6
Continuous
100
AcDbLine
 10
171.6620290180763
 20
188.4552768305199
 30
0.0
 11
171.6589890180763
 21
188.4375518305199
 31
0.0
  0
LINE
  5
39F
330
18
100
AcDbEntity
  8
1
  6
Continuous
100
AcDbLine
 10
171.6651300180764
 20
188.4729858305199
 30
0.0
 11
171.6620290180763
 21
188.4552768305199
 31
0.0
  0
LINE
  5
3A0
330
18
100
AcDbEntity
  8
1
  6
Continuous
100
AcDbLine
 10
171.6682910180763
 20
188.4906778305199
 30
0.0
 11
171.6651300180764
 21
188.4729858305199
 31
0.0
  0
LINE
  5
3A1
330
18
100
AcDbEntity
  8
1
  6
Continuous
100
AcDbLine
 10
171.6715110180762
 20
188.5083488305199
 30
0.0
 11
171.6682910180763
 21
188.4906778305199
 31
0.0
  0
LINE
  5
3A2
330
18
100
AcDbEntity
  8
1
  6
Continuous
100
AcDbLine
 10
171.6747890180764
 20
188.5259968305199
 30
0.0
 11
171.6715110180762
 21
188.5083488305199
 31
0.0
  0
LINE
  5
3A3
330
18
100
AcDbEntity
  8
1
  6
Continuous
100
AcDbLine
 10
171.6781240180764
 20
188.5436218305199
 30
0.0
 11
171.6747890180764
 21
188.5259968305199
 31
0.0
  0
LINE
  5
3A4
330
18
100
AcDbEntity
  8
1
  6
Continuous
100
AcDbLine
 10
171.6815170180763
 20
188.5612188305199
 30
0.0
 11
171.6781240180762
 21
188.5436218305199
 31
0.0
  0
LINE
  5
3A5
330
18
100
AcDbEntity
  8
1
  6
Continuous
100
AcDbLine
 10
171.6849650180764
 20
188.5787868305199
 30
0.0
 11
171.6815170180763
 21
188.5612188305199
 31
0.0
  0
LINE
  5
3A6
330
18
100
AcDbEntity
  8
1
  6
Continuous
100
AcDbLine
 10
171.6884690180762
 20
188.5963238305199
 30
0.0
 11
171.6849650180764
 21
188.5787868305198
 31
0.0
  0
LINE
  5
3A7
330
18
100
AcDbEntity
  8
1
  6
Continuous
100
AcDbLine
 10
171.6975270180764
 20
188.6402968305199
 30
0.0
 11
171.6884690180763
 21
188.5963238305199
 31
0.0
  0
LINE
  5
3A8
330
18
100
AcDbEntity
  8
1
  6
Continuous
100
AcDbLine
 10
171.7069410180764
 20
188.6840848305199
 30
0.0
 11
171.6975270180764
 21
188.6402968305199
 31
0.0
  0
LINE
  5
3A9
330
18
100
AcDbEntity
  8
1
  6
Continuous
100
AcDbLine
 10
171.7167210180761
 20
188.7277148305199
 30
0.0
 11
171.7069410180761
 21
188.6840848305199
 31
0.0
  0
LINE
  5
3AA
330
18
100
AcDbEntity
  8
1
  6
Continuous
100
AcDbLine
 10
171.7268770180762
 20
188.7712148305199
 30
0.0
 11
171.7167210180764
 21
188.7277148305199
 31
0.0
  0
LINE
  5
3AB
330
18
100
AcDbEntity
  8
1
  6
Continuous
100
AcDbLine
 10
171.7374180180764
 20
188.8146108305199
 30
0.0
 11
171.7268770180762
 21
188.7712148305199
 31
0.0
  0
LINE
  5
3AC
330
18
100
AcDbEntity
  8
1
  6
Continuous
100
AcDbLine
 10
171.7483550180762
 20
188.8579288305199
 30
0.0
 11
171.7374180180764
 21
188.8146108305199
 31
0.0
  0
LINE
  5
3AD
330
18
100
AcDbEntity
  8
1
  6
Continuous
100
AcDbLine
 10
171.7596980180764
 20
188.9011968305198
 30
0.0
 11
171.7483550180762
 21
188.8579288305199
 31
0.0
  0
LINE
  5
3AE
330
18
100
AcDbEntity
  8
1
  6
Continuous
100
AcDbLine
 10
171.7714560180761
 20
188.94444083052
 30
0.0
 11
171.7596980180761
 21
188.9011968305198
 31
0.0
  0
LINE
  5
3AF
330
18
100
AcDbEntity
  8
1
  6
Continuous
100
AcDbLine
 10
171.7836390180764
 20
188.9876888305199
 30
0.0
 11
171.7714560180763
 21
188.94444083052
 31
0.0
  0
LINE
  5
3B0
330
18
100
AcDbEntity
  8
1
  6
Continuous
100
AcDbLine
 10
171.7962570180764
 20
189.0309668305199
 30
0.0
 11
171.7836390180764
 21
188.9876888305199
 31
0.0
  0
LINE
  5
3B1
330
18
100
AcDbEntity
  8
1
  6
Continuous
100
AcDbLine
 10
171.8093210180761
 20
189.0743008305199
 30
0.0
 11
171.7962570180763
 21
189.0309668305199
 31
0.0
  0
LINE
  5
3B2
330
18
100
AcDbEntity
  8
1
  6
Continuous
100
AcDbLine
 10
171.8228390180763
 20
189.1177188305198
 30
0.0
 11
171.8093210180761
 21
189.0743008305199
 31
0.0
  0
LINE
  5
3B3
330
18
100
AcDbEntity
  8
1
  6
Continuous
100
AcDbLine
 10
171.8368230180763
 20
189.16124783052
 30
0.0
 11
171.8228390180764
 21
189.1177188305198
 31
0.0
  0
LINE
  5
3B4
330
18
100
AcDbEntity
  8
1
  6
Continuous
100
AcDbLine
 10
171.8512820180763
 20
189.2049138305199
 30
0.0
 11
171.8368230180763
 21
189.16124783052
 31
0.0
  0
LINE
  5
3B5
330
18
100
AcDbEntity
  8
1
  6
Continuous
100
AcDbLine
 10
171.8662250180764
 20
189.2487438305199
 30
0.0
 11
171.8512820180763
 21
189.2049138305199
 31
0.0
  0
LINE
  5
3B6
330
18
100
AcDbEntity
  8
1
  6
Continuous
100
AcDbLine
 10
171.8816630180764
 20
189.2927638305199
 30
0.0
 11
171.8662250180764
 21
189.2487438305199
 31
0.0
  0
LINE
  5
3B7
330
18
100
AcDbEntity
  8
1
  6
Continuous
100
AcDbLine
 10
171.8925790180763
 20
189.3231278305199
 30
0.0
 11
171.8816630180764
 21
189.2927638305199
 31
0.0
  0
LINE
  5
3B8
330
18
100
AcDbEntity
  8
1
  6
Continuous
100
AcDbLine
 10
171.9038120180761
 20
189.3534878305199
 30
0.0
 11
171.8925790180761
 21
189.3231278305199
 31
0.0
  0
LINE
  5
3B9
330
18
100
AcDbEntity
  8
1
  6
Continuous
100
AcDbLine
 10
171.9154400180763
 20
189.3837368305199
 30
0.0
 11
171.9038120180764
 21
189.3534878305199
 31
0.0
  0
LINE
  5
3BA
330
18
100
AcDbEntity
  8
1
  6
Continuous
100
AcDbLine
 10
171.9275420180764
 20
189.4137678305199
 30
0.0
 11
171.9154400180763
 21
189.3837368305199
 31
0.0
  0
LINE
  5
3BB
330
18
100
AcDbEntity
  8
1
  6
Continuous
100
AcDbLine
 10
171.9401950180761
 20
189.44347383052
 30
0.0
 11
171.9275420180761
 21
189.41376783052
 31
0.0
  0
LINE
  5
3BC
330
18
100
AcDbEntity
  8
1
  6
Continuous
100
AcDbLine
 10
171.9534790180764
 20
189.4727478305199
 30
0.0
 11
171.9401950180763
 21
189.44347383052
 31
0.0
  0
LINE
  5
3BD
330
18
100
AcDbEntity
  8
1
  6
Continuous
100
AcDbLine
 10
171.9674710180763
 20
189.50148183052
 30
0.0
 11
171.9534790180764
 21
189.4727478305199
 31
0.0
  0
LINE
  5
3BE
330
18
100
AcDbEntity
  8
1
  6
Continuous
100
AcDbLine
 10
171.9822500180764
 20
189.52957083052
 30
0.0
 11
171.9674710180763
 21
189.50148183052
 31
0.0
  0
LINE
  5
3BF
330
18
100
AcDbEntity
  8
1
  6
Continuous
100
AcDbLine
 10
171.9978950180764
 20
189.5569068305198
 30
0.0
 11
171.9822500180764
 21
189.52957083052
 31
0.0
  0
LINE
  5
3C0
330
18
100
AcDbEntity
  8
1
  6
Continuous
100
AcDbLine
 10
172.0144830180763
 20
189.5833818305199
 30
0.0
 11
171.9978950180761
 21
189.5569068305198
 31
0.0
  0
LINE
  5
3C1
330
18
100
AcDbEntity
  8
1
  6
Continuous
100
AcDbLine
 10
172.0320930180761
 20
189.6088908305199
 30
0.0
 11
172.0144830180763
 21
189.5833818305199
 31
0.0
  0
LINE
  5
3C2
330
18
100
AcDbEntity
  8
1
  6
Continuous
100
AcDbLine
 10
172.0508030180764
 20
189.6333258305199
 30
0.0
 11
172.0320930180764
 21
189.6088908305199
 31
0.0
  0
LINE
  5
3C3
330
18
100
AcDbEntity
  8
1
  6
Continuous
100
AcDbLine
 10
172.0706920180763
 20
189.6565798305199
 30
0.0
 11
172.0508030180764
 21
189.6333258305199
 31
0.0
  0
LINE
  5
3C4
330
18
100
AcDbEntity
  8
1
  6
Continuous
100
AcDbLine
 10
172.0918390180761
 20
189.6785458305199
 30
0.0
 11
172.0706920180761
 21
189.6565798305199
 31
0.0
  0
LINE
  5
3C5
330
18
100
AcDbEntity
  8
1
  6
Continuous
100
AcDbLine
 10
172.1143210180763
 20
189.6991168305199
 30
0.0
 11
172.0918390180764
 21
189.6785458305199
 31
0.0
  0
LINE
  5
3C6
330
18
100
AcDbEntity
  8
1
  6
Continuous
100
AcDbLine
 10
172.1382160180761
 20
189.7181868305199
 30
0.0
 11
172.1143210180761
 21
189.6991168305198
 31
0.0
  0
LINE
  5
3C7
330
18
100
AcDbEntity
  8
1
  6
Continuous
100
AcDbLine
 10
172.1497440180763
 20
189.7264588305199
 30
0.0
 11
172.1382160180763
 21
189.7181868305199
 31
0.0
  0
LINE
  5
3C8
330
18
100
AcDbEntity
  8
1
  6
Continuous
100
AcDbLine
 10
172.1615700180763
 20
189.73439283052
 30
0.0
 11
172.1497440180763
 21
189.7264588305199
 31
0.0
  0
LINE
  5
3C9
330
18
100
AcDbEntity
  8
1
  6
Continuous
100
AcDbLine
 10
172.1736740180763
 20
189.7419948305199
 30
0.0
 11
172.1615700180763
 21
189.7343928305198
 31
0.0
  0
LINE
  5
3CA
330
18
100
AcDbEntity
  8
1
  6
Continuous
100
AcDbLine
 10
172.1860340180763
 20
189.7492718305198
 30
0.0
 11
172.1736740180764
 21
189.7419948305199
 31
0.0
  0
LINE
  5
3CB
330
18
100
AcDbEntity
  8
1
  6
Continuous
100
AcDbLine
 10
172.1986310180764
 20
189.7562278305199
 30
0.0
 11
172.1860340180763
 21
189.7492718305199
 31
0.0
  0
LINE
  5
3CC
330
18
100
AcDbEntity
  8
1
  6
Continuous
100
AcDbLine
 10
172.2114450180764
 20
189.7628698305199
 30
0.0
 11
172.1986310180764
 21
189.7562278305199
 31
0.0
  0
LINE
  5
3CD
330
18
100
AcDbEntity
  8
1
  6
Continuous
100
AcDbLine
 10
172.2244540180763
 20
189.76920183052
 30
0.0
 11
172.2114450180763
 21
189.7628698305199
 31
0.0
  0
LINE
  5
3CE
330
18
100
AcDbEntity
  8
1
  6
Continuous
100
AcDbLine
 10
172.2376400180761
 20
189.7752308305199
 30
0.0
 11
172.2244540180764
 21
189.76920183052
 31
0.0
  0
LINE
  5
3CF
330
18
100
AcDbEntity
  8
1
  6
Continuous
100
AcDbLine
 10
172.2509800180764
 20
189.7809618305199
 30
0.0
 11
172.2376400180761
 21
189.7752308305199
 31
0.0
  0
LINE
  5
3D0
330
18
100
AcDbEntity
  8
1
  6
Continuous
100
AcDbLine
 10
172.2644560180764
 20
189.78640183052
 30
0.0
 11
172.2509800180764
 21
189.7809618305199
 31
0.0
  0
LINE
  5
3D1
330
18
100
AcDbEntity
  8
1
  6
Continuous
100
AcDbLine
 10
172.2780460180761
 20
189.7915538305198
 30
0.0
 11
172.2644560180763
 21
189.7864018305199
 31
0.0
  0
LINE
  5
3D2
330
18
100
AcDbEntity
  8
1
  6
Continuous
100
AcDbLine
 10
172.2917300180764
 20
189.7964268305199
 30
0.0
 11
172.2780460180763
 21
189.7915538305199
 31
0.0
  0
LINE
  5
3D3
330
18
100
AcDbEntity
  8
1
  6
Continuous
100
AcDbLine
 10
172.3054890180763
 20
189.8010238305199
 30
0.0
 11
172.2917300180761
 21
189.7964268305199
 31
0.0
  0
LINE
  5
3D4
330
18
100
AcDbEntity
  8
1
  6
Continuous
100
AcDbLine
 10
172.3193000180764
 20
189.8053508305199
 30
0.0
 11
172.3054890180764
 21
189.8010238305199
 31
0.0
  0
LINE
  5
3D5
330
18
100
AcDbEntity
  8
1
  6
Continuous
100
AcDbLine
 10
172.3331450180763
 20
189.8094148305199
 30
0.0
 11
172.3193000180763
 21
189.8053508305199
 31
0.0
  0
LINE
  5
3D6
330
18
100
AcDbEntity
  8
1
  6
Continuous
100
AcDbLine
 10
172.3470030180763
 20
189.8132208305199
 30
0.0
 11
172.3331450180761
 21
189.8094148305198
 31
0.0
  0
LINE
  5
3D7
330
18
100
AcDbEntity
  8
1
  6
Continuous
100
AcDbLine
 10
194.7056000180764
 20
185.8787268305198
 30
0.0
 11
194.8295950180764
 21
185.7602238305198
 31
0.0
  0
LINE
  5
3D8
330
18
100
AcDbEntity
  8
1
  6
Continuous
100
AcDbLine
 10
194.8295950180764
 20
185.7602238305198
 30
0.0
 11
194.9532250180764
 21
185.6413388305199
 31
0.0
  0
LINE
  5
3D9
330
18
100
AcDbEntity
  8
1
  6
Continuous
100
AcDbLine
 10
194.5812430180764
 20
185.9968508305199
 30
0.0
 11
194.7056000180764
 21
185.8787268305198
 31
0.0
  0
LINE
  5
3DA
330
18
100
AcDbEntity
  8
1
  6
Continuous
100
AcDbLine
 10
194.4565300180761
 20
186.1145958305199
 30
0.0
 11
194.5812430180761
 21
185.9968508305199
 31
0.0
  0
LINE
  5
3DB
330
18
100
AcDbEntity
  8
1
  6
Continuous
100
AcDbLine
 10
194.3314640180764
 20
186.2319648305199
 30
0.0
 11
194.4565300180763
 21
186.1145958305199
 31
0.0
  0
LINE
  5
3DC
330
18
100
AcDbEntity
  8
1
  6
Continuous
100
AcDbLine
 10
194.2060510180763
 20
186.3489578305199
 30
0.0
 11
194.3314640180764
 21
186.2319648305199
 31
0.0
  0
LINE
  5
3DD
330
18
100
AcDbEntity
  8
1
  6
Continuous
100
AcDbLine
 10
194.0802940180763
 20
186.4655788305199
 30
0.0
 11
194.2060510180764
 21
186.3489578305199
 31
0.0
  0
LINE
  5
3DE
330
18
100
AcDbEntity
  8
1
  6
Continuous
100
AcDbLine
 10
193.9541980180764
 20
186.5818288305199
 30
0.0
 11
194.0802940180763
 21
186.4655788305199
 31
0.0
  0
LINE
  5
3DF
330
18
100
AcDbEntity
  8
1
  6
Continuous
100
AcDbLine
 10
193.8277680180761
 20
186.6977088305199
 30
0.0
 11
193.9541980180764
 21
186.5818288305199
 31
0.0
  0
LINE
  5
3E0
330
18
100
AcDbEntity
  8
1
  6
Continuous
100
AcDbLine
 10
193.7010080180763
 20
186.8132208305198
 30
0.0
 11
193.8277680180761
 21
186.6977088305199
 31
0.0
  0
LINE
  5
3E1
330
18
100
AcDbEntity
  8
1
  6
Continuous
100
AcDbLine
 10
191.9938010180761
 20
189.8116708305199
 30
0.0
 11
191.9711060180761
 21
189.8131858305198
 31
0.0
  0
LINE
  5
3E2
330
18
100
AcDbEntity
  8
1
  6
Continuous
100
AcDbLine
 10
192.0160230180764
 20
189.8079658305199
 30
0.0
 11
191.9938010180763
 21
189.8116708305199
 31
0.0
  0
LINE
  5
3E3
330
18
100
AcDbEntity
  8
1
  6
Continuous
100
AcDbLine
 10
192.0377630180763
 20
189.8022098305198
 30
0.0
 11
192.0160230180764
 21
189.8079658305199
 31
0.0
  0
LINE
  5
3E4
330
18
100
AcDbEntity
  8
1
  6
Continuous
100
AcDbLine
 10
192.0590140180763
 20
189.79454183052
 30
0.0
 11
192.0377630180763
 21
189.8022098305198
 31
0.0
  0
LINE
  5
3E5
330
18
100
AcDbEntity
  8
1
  6
Continuous
100
AcDbLine
 10
192.0797670180763
 20
189.7850998305199
 30
0.0
 11
192.0590140180763
 21
189.79454183052
 31
0.0
  0
LINE
  5
3E6
330
18
100
AcDbEntity
  8
1
  6
Continuous
100
AcDbLine
 10
192.1000140180763
 20
189.7740238305199
 30
0.0
 11
192.0797670180763
 21
189.7850998305199
 31
0.0
  0
LINE
  5
3E7
330
18
100
AcDbEntity
  8
1
  6
Continuous
100
AcDbLine
 10
192.1197470180761
 20
189.7614518305198
 30
0.0
 11
192.1000140180763
 21
189.7740238305198
 31
0.0
  0
LINE
  5
3E8
330
18
100
AcDbEntity
  8
1
  6
Continuous
100
AcDbLine
 10
192.1389570180764
 20
189.7475238305199
 30
0.0
 11
192.1197470180761
 21
189.7614518305199
 31
0.0
  0
LINE
  5
3E9
330
18
100
AcDbEntity
  8
1
  6
Continuous
100
AcDbLine
 10
192.1576370180764
 20
189.7323768305199
 30
0.0
 11
192.1389570180764
 21
189.7475238305199
 31
0.0
  0
LINE
  5
3EA
330
18
100
AcDbEntity
  8
1
  6
Continuous
100
AcDbLine
 10
192.1757790180764
 20
189.7161508305199
 30
0.0
 11
192.1576370180764
 21
189.7323768305199
 31
0.0
  0
LINE
  5
3EB
330
18
100
AcDbEntity
  8
1
  6
Continuous
100
AcDbLine
 10
192.1933730180763
 20
189.6989848305199
 30
0.0
 11
192.1757790180764
 21
189.7161508305199
 31
0.0
  0
LINE
  5
3EC
330
18
100
AcDbEntity
  8
1
  6
Continuous
100
AcDbLine
 10
192.2104130180763
 20
189.6810168305199
 30
0.0
 11
192.1933730180763
 21
189.6989848305199
 31
0.0
  0
LINE
  5
3ED
330
18
100
AcDbEntity
  8
1
  6
Continuous
100
AcDbLine
 10
192.2268900180764
 20
189.6623868305199
 30
0.0
 11
192.2104130180763
 21
189.6810168305199
 31
0.0
  0
LINE
  5
3EE
330
18
100
AcDbEntity
  8
1
  6
Continuous
100
AcDbLine
 10
192.2427950180764
 20
189.6432318305199
 30
0.0
 11
192.2268900180764
 21
189.6623868305199
 31
0.0
  0
LINE
  5
3EF
330
18
100
AcDbEntity
  8
1
  6
Continuous
100
AcDbLine
 10
192.2581210180761
 20
189.6236928305198
 30
0.0
 11
192.2427950180763
 21
189.6432318305199
 31
0.0
  0
LINE
  5
3F0
330
18
100
AcDbEntity
  8
1
  6
Continuous
100
AcDbLine
 10
192.2728600180764
 20
189.6039078305199
 30
0.0
 11
192.2581210180764
 21
189.6236928305199
 31
0.0
  0
LINE
  5
3F1
330
18
100
AcDbEntity
  8
1
  6
Continuous
100
AcDbLine
 10
192.2943370180761
 20
189.5733008305199
 30
0.0
 11
192.2728600180763
 21
189.6039078305199
 31
0.0
  0
LINE
  5
3F2
330
18
100
AcDbEntity
  8
1
  6
Continuous
100
AcDbLine
 10
192.3144920180764
 20
189.5424498305199
 30
0.0
 11
192.2943370180763
 21
189.5733008305199
 31
0.0
  0
LINE
  5
3F3
330
18
100
AcDbEntity
  8
1
  6
Continuous
100
AcDbLine
 10
192.3334070180763
 20
189.5113628305199
 30
0.0
 11
192.3144920180764
 21
189.5424498305199
 31
0.0
  0
LINE
  5
3F4
330
18
100
AcDbEntity
  8
1
  6
Continuous
100
AcDbLine
 10
192.3511650180761
 20
189.4800498305199
 30
0.0
 11
192.3334070180761
 21
189.5113628305199
 31
0.0
  0
LINE
  5
3F5
330
18
100
AcDbEntity
  8
1
  6
Continuous
100
AcDbLine
 10
192.3678450180764
 20
189.4485178305199
 30
0.0
 11
192.3511650180763
 21
189.4800498305199
 31
0.0
  0
LINE
  5
3F6
330
18
100
AcDbEntity
  8
1
  6
Continuous
100
AcDbLine
 10
192.3835300180761
 20
189.4167768305198
 30
0.0
 11
192.3678450180763
 21
189.4485178305199
 31
0.0
  0
LINE
  5
3F7
330
18
100
AcDbEntity
  8
1
  6
Continuous
100
AcDbLine
 10
192.3983020180763
 20
189.3848348305199
 30
0.0
 11
192.3835300180764
 21
189.4167768305199
 31
0.0
  0
LINE
  5
3F8
330
18
100
AcDbEntity
  8
1
  6
Continuous
100
AcDbLine
 10
192.4122420180763
 20
189.3526998305198
 30
0.0
 11
192.3983020180763
 21
189.3848348305199
 31
0.0
  0
LINE
  5
3F9
330
18
100
AcDbEntity
  8
1
  6
Continuous
100
AcDbLine
 10
192.4254320180764
 20
189.3203808305199
 30
0.0
 11
192.4122420180763
 21
189.3526998305198
 31
0.0
  0
LINE
  5
3FA
330
18
100
AcDbEntity
  8
1
  6
Continuous
100
AcDbLine
 10
192.4379530180763
 20
189.2878868305199
 30
0.0
 11
192.4254320180763
 21
189.3203808305198
 31
0.0
  0
LINE
  5
3FB
330
18
100
AcDbEntity
  8
1
  6
Continuous
100
AcDbLine
 10
192.4498870180761
 20
189.2552258305199
 30
0.0
 11
192.4379530180763
 21
189.2878868305199
 31
0.0
  0
LINE
  5
3FC
330
18
100
AcDbEntity
  8
1
  6
Continuous
100
AcDbLine
 10
192.4613160180765
 20
189.2224068305199
 30
0.0
 11
192.4498870180764
 21
189.2552258305199
 31
0.0
  0
LINE
  5
3FD
330
18
100
AcDbEntity
  8
1
  6
Continuous
100
AcDbLine
 10
192.4723210180761
 20
189.1894388305199
 30
0.0
 11
192.4613160180763
 21
189.2224068305199
 31
0.0
  0
LINE
  5
3FE
330
18
100
AcDbEntity
  8
1
  6
Continuous
100
AcDbLine
 10
192.4829830180763
 20
189.1563288305198
 30
0.0
 11
192.4723210180761
 21
189.1894388305199
 31
0.0
  0
LINE
  5
3FF
330
18
100
AcDbEntity
  8
1
  6
Continuous
100
AcDbLine
 10
192.4933850180764
 20
189.12308683052
 30
0.0
 11
192.4829830180764
 21
189.1563288305198
 31
0.0
  0
LINE
  5
400
330
18
100
AcDbEntity
  8
1
  6
Continuous
100
AcDbLine
 10
192.5036080180763
 20
189.0897208305198
 30
0.0
 11
192.4933850180763
 21
189.12308683052
 31
0.0
  0
LINE
  5
401
330
18
100
AcDbEntity
  8
1
  6
Continuous
100
AcDbLine
 10
192.5178360180763
 20
189.0424528305199
 30
0.0
 11
192.5036080180763
 21
189.0897208305198
 31
0.0
  0
LINE
  5
402
330
18
100
AcDbEntity
  8
1
  6
Continuous
100
AcDbLine
 10
192.5318220180764
 20
188.99496583052
 30
0.0
 11
192.5178360180763
 21
189.0424528305199
 31
0.0
  0
LINE
  5
403
330
18
100
AcDbEntity
  8
1
  6
Continuous
100
AcDbLine
 10
192.5455150180763
 20
188.9472718305198
 30
0.0
 11
192.5318220180764
 21
188.99496583052
 31
0.0
  0
LINE
  5
404
330
18
100
AcDbEntity
  8
1
  6
Continuous
100
AcDbLine
 10
192.5588660180761
 20
188.8993798305199
 30
0.0
 11
192.5455150180763
 21
188.9472718305198
 31
0.0
  0
LINE
  5
405
330
18
100
AcDbEntity
  8
1
  6
Continuous
100
AcDbLine
 10
192.5718270180763
 20
188.8513018305198
 30
0.0
 11
192.5588660180761
 21
188.8993798305198
 31
0.0
  0
LINE
  5
406
330
18
100
AcDbEntity
  8
1
  6
Continuous
100
AcDbLine
 10
192.5843480180764
 20
188.8030478305199
 30
0.0
 11
192.5718270180763
 21
188.8513018305199
 31
0.0
  0
LINE
  5
407
330
18
100
AcDbEntity
  8
1
  6
Continuous
100
AcDbLine
 10
192.5963800180763
 20
188.7546288305199
 30
0.0
 11
192.5843480180764
 21
188.8030478305199
 31
0.0
  0
LINE
  5
408
330
18
100
AcDbEntity
  8
1
  6
Continuous
100
AcDbLine
 10
192.6078730180763
 20
188.7060558305199
 30
0.0
 11
192.5963800180761
 21
188.7546288305199
 31
0.0
  0
LINE
  5
409
330
18
100
AcDbEntity
  8
1
  6
Continuous
100
AcDbLine
 10
192.6187790180763
 20
188.6573398305199
 30
0.0
 11
192.6078730180763
 21
188.7060558305199
 31
0.0
  0
LINE
  5
40A
330
18
100
AcDbEntity
  8
1
  6
Continuous
100
AcDbLine
 10
192.6290490180763
 20
188.60849183052
 30
0.0
 11
192.6187790180764
 21
188.6573398305199
 31
0.0
  0
LINE
  5
40B
330
18
100
AcDbEntity
  8
1
  6
Continuous
100
AcDbLine
 10
192.6386320180764
 20
188.5595208305199
 30
0.0
 11
192.6290490180763
 21
188.60849183052
 31
0.0
  0
LINE
  5
40C
330
18
100
AcDbEntity
  8
1
  6
Continuous
100
AcDbLine
 10
192.6474810180761
 20
188.5104398305199
 30
0.0
 11
192.6386320180763
 21
188.5595208305199
 31
0.0
  0
LINE
  5
40D
330
18
100
AcDbEntity
  8
1
  6
Continuous
100
AcDbLine
 10
192.6555450180761
 20
188.46125883052
 30
0.0
 11
192.6474810180761
 21
188.5104398305199
 31
0.0
  0
LINE
  5
40E
330
18
100
AcDbEntity
  8
1
  6
Continuous
100
AcDbLine
 10
192.6627750180763
 20
188.41198783052
 30
0.0
 11
192.6555450180764
 21
188.46125883052
 31
0.0
  0
LINE
  5
40F
330
18
100
AcDbEntity
  8
1
  6
Continuous
100
AcDbLine
 10
192.6691230180763
 20
188.3626378305199
 30
0.0
 11
192.6627750180763
 21
188.41198783052
 31
0.0
  0
LINE
  5
410
330
18
100
AcDbEntity
  8
1
  6
Continuous
100
AcDbLine
 10
192.6745390180761
 20
188.3132208305198
 30
0.0
 11
192.6691230180763
 21
188.3626378305199
 31
0.0
  0
LINE
  5
411
330
18
100
AcDbEntity
  8
1
  6
Continuous
100
AcDbLine
 10
193.6853370180764
 20
186.8270378305199
 30
0.0
 11
193.7010080180764
 21
186.8132208305199
 31
0.0
  0
LINE
  5
412
330
18
100
AcDbEntity
  8
1
  6
Continuous
100
AcDbLine
 10
193.6697530180764
 20
186.8409398305199
 30
0.0
 11
193.6853370180764
 21
186.8270378305199
 31
0.0
  0
LINE
  5
413
330
18
100
AcDbEntity
  8
1
  6
Continuous
100
AcDbLine
 10
193.6542520180763
 20
186.8549228305199
 30
0.0
 11
193.6697530180764
 21
186.8409398305199
 31
0.0
  0
LINE
  5
414
330
18
100
AcDbEntity
  8
1
  6
Continuous
100
AcDbLine
 10
193.6388290180763
 20
186.8689858305199
 30
0.0
 11
193.6542520180763
 21
186.8549228305199
 31
0.0
  0
LINE
  5
415
330
18
100
AcDbEntity
  8
1
  6
Continuous
100
AcDbLine
 10
193.6234790180764
 20
186.8831258305199
 30
0.0
 11
193.6388290180764
 21
186.8689858305199
 31
0.0
  0
LINE
  5
416
330
18
100
AcDbEntity
  8
1
  6
Continuous
100
AcDbLine
 10
193.6081980180764
 20
186.8973408305199
 30
0.0
 11
193.6234790180764
 21
186.8831258305199
 31
0.0
  0
LINE
  5
417
330
18
100
AcDbEntity
  8
1
  6
Continuous
100
AcDbLine
 10
193.5929810180763
 20
186.91162683052
 30
0.0
 11
193.6081980180764
 21
186.8973408305199
 31
0.0
  0
LINE
  5
418
330
18
100
AcDbEntity
  8
1
  6
Continuous
100
AcDbLine
 10
193.5778230180764
 20
186.9259828305199
 30
0.0
 11
193.5929810180763
 21
186.91162683052
 31
0.0
  0
LINE
  5
419
330
18
100
AcDbEntity
  8
1
  6
Continuous
100
AcDbLine
 10
193.5627190180763
 20
186.9404058305199
 30
0.0
 11
193.5778230180761
 21
186.9259828305199
 31
0.0
  0
LINE
  5
41A
330
18
100
AcDbEntity
  8
1
  6
Continuous
100
AcDbLine
 10
193.5476650180763
 20
186.9548928305198
 30
0.0
 11
193.5627190180763
 21
186.9404058305199
 31
0.0
  0
LINE
  5
41B
330
18
100
AcDbEntity
  8
1
  6
Continuous
100
AcDbLine
 10
193.5326570180763
 20
186.9694408305199
 30
0.0
 11
193.5476650180763
 21
186.9548928305198
 31
0.0
  0
LINE
  5
41C
330
18
100
AcDbEntity
  8
1
  6
Continuous
100
AcDbLine
 10
193.5176890180763
 20
186.9840488305198
 30
0.0
 11
193.5326570180761
 21
186.9694408305199
 31
0.0
  0
LINE
  5
41D
330
18
100
AcDbEntity
  8
1
  6
Continuous
100
AcDbLine
 10
193.5027560180764
 20
186.9987128305199
 30
0.0
 11
193.5176890180763
 21
186.9840488305199
 31
0.0
  0
LINE
  5
41E
330
18
100
AcDbEntity
  8
1
  6
Continuous
100
AcDbLine
 10
193.4878550180761
 20
187.0134318305199
 30
0.0
 11
193.5027560180764
 21
186.9987128305199
 31
0.0
  0
LINE
  5
41F
330
18
100
AcDbEntity
  8
1
  6
Continuous
100
AcDbLine
 10
193.4729810180764
 20
187.0282018305199
 30
0.0
 11
193.4878550180764
 21
187.0134318305199
 31
0.0
  0
LINE
  5
420
330
18
100
AcDbEntity
  8
1
  6
Continuous
100
AcDbLine
 10
193.4581280180763
 20
187.0430208305199
 30
0.0
 11
193.4729810180764
 21
187.0282018305199
 31
0.0
  0
LINE
  5
421
330
18
100
AcDbEntity
  8
1
  6
Continuous
100
AcDbLine
 10
193.4123350180763
 20
187.0891428305199
 30
0.0
 11
193.4581280180763
 21
187.0430208305199
 31
0.0
  0
LINE
  5
422
330
18
100
AcDbEntity
  8
1
  6
Continuous
100
AcDbLine
 10
193.3668270180763
 20
187.1357498305199
 30
0.0
 11
193.4123350180763
 21
187.0891428305199
 31
0.0
  0
LINE
  5
423
330
18
100
AcDbEntity
  8
1
  6
Continuous
100
AcDbLine
 10
193.3217250180763
 20
187.1828848305199
 30
0.0
 11
193.3668270180763
 21
187.1357498305199
 31
0.0
  0
LINE
  5
424
330
18
100
AcDbEntity
  8
1
  6
Continuous
100
AcDbLine
 10
193.2771510180764
 20
187.2305868305199
 30
0.0
 11
193.3217250180764
 21
187.1828848305199
 31
0.0
  0
LINE
  5
425
330
18
100
AcDbEntity
  8
1
  6
Continuous
100
AcDbLine
 10
193.2332260180763
 20
187.2788978305199
 30
0.0
 11
193.2771510180764
 21
187.2305868305199
 31
0.0
  0
LINE
  5
426
330
18
100
AcDbEntity
  8
1
  6
Continuous
100
AcDbLine
 10
193.1900710180763
 20
187.3278588305199
 30
0.0
 11
193.2332260180763
 21
187.2788978305199
 31
0.0
  0
LINE
  5
427
330
18
100
AcDbEntity
  8
1
  6
Continuous
100
AcDbLine
 10
193.1478070180763
 20
187.3775118305199
 30
0.0
 11
193.1900710180763
 21
187.3278588305199
 31
0.0
  0
LINE
  5
428
330
18
100
AcDbEntity
  8
1
  6
Continuous
100
AcDbLine
 10
193.1065570180764
 20
187.4278968305199
 30
0.0
 11
193.1478070180763
 21
187.3775118305199
 31
0.0
  0
LINE
  5
429
330
18
100
AcDbEntity
  8
1
  6
Continuous
100
AcDbLine
 10
193.0664410180763
 20
187.4790558305199
 30
0.0
 11
193.1065570180764
 21
187.4278968305199
 31
0.0
  0
LINE
  5
42A
330
18
100
AcDbEntity
  8
1
  6
Continuous
100
AcDbLine
 10
193.0275810180763
 20
187.5310298305199
 30
0.0
 11
193.0664410180763
 21
187.4790558305199
 31
0.0
  0
LINE
  5
42B
330
18
100
AcDbEntity
  8
1
  6
Continuous
100
AcDbLine
 10
192.9900970180763
 20
187.5838598305199
 30
0.0
 11
193.0275810180763
 21
187.5310298305199
 31
0.0
  0
LINE
  5
42C
330
18
100
AcDbEntity
  8
1
  6
Continuous
100
AcDbLine
 10
192.9541130180763
 20
187.6375868305198
 30
0.0
 11
192.9900970180763
 21
187.5838598305199
 31
0.0
  0
LINE
  5
42D
330
18
100
AcDbEntity
  8
1
  6
Continuous
100
AcDbLine
 10
192.9197480180764
 20
187.6922518305199
 30
0.0
 11
192.9541130180764
 21
187.6375868305199
 31
0.0
  0
LINE
  5
42E
330
18
100
AcDbEntity
  8
1
  6
Continuous
100
AcDbLine
 10
192.8871240180764
 20
187.7478968305198
 30
0.0
 11
192.9197480180764
 21
187.6922518305199
 31
0.0
  0
LINE
  5
42F
330
18
100
AcDbEntity
  8
1
  6
Continuous
100
AcDbLine
 10
192.8563630180764
 20
187.8045618305199
 30
0.0
 11
192.8871240180764
 21
187.7478968305198
 31
0.0
  0
LINE
  5
430
330
18
100
AcDbEntity
  8
1
  6
Continuous
100
AcDbLine
 10
192.8275860180763
 20
187.8622888305199
 30
0.0
 11
192.8563630180763
 21
187.8045618305199
 31
0.0
  0
LINE
  5
431
330
18
100
AcDbEntity
  8
1
  6
Continuous
100
AcDbLine
 10
192.8150280180761
 20
187.8892438305199
 30
0.0
 11
192.8275860180763
 21
187.8622888305199
 31
0.0
  0
LINE
  5
432
330
18
100
AcDbEntity
  8
1
  6
Continuous
100
AcDbLine
 10
192.8029080180763
 20
187.9164218305199
 30
0.0
 11
192.8150280180764
 21
187.8892438305199
 31
0.0
  0
LINE
  5
433
330
18
100
AcDbEntity
  8
1
  6
Continuous
100
AcDbLine
 10
192.7912180180763
 20
187.9438078305199
 30
0.0
 11
192.8029080180763
 21
187.9164218305199
 31
0.0
  0
LINE
  5
434
330
18
100
AcDbEntity
  8
1
  6
Continuous
100
AcDbLine
 10
192.7799500180763
 20
187.9713918305199
 30
0.0
 11
192.7912180180761
 21
187.9438078305199
 31
0.0
  0
LINE
  5
435
330
18
100
AcDbEntity
  8
1
  6
Continuous
100
AcDbLine
 10
192.7690950180764
 20
187.9991588305199
 30
0.0
 11
192.7799500180763
 21
187.9713918305199
 31
0.0
  0
LINE
  5
436
330
18
100
AcDbEntity
  8
1
  6
Continuous
100
AcDbLine
 10
192.7586440180764
 20
188.0270988305199
 30
0.0
 11
192.7690950180764
 21
187.9991588305199
 31
0.0
  0
LINE
  5
437
330
18
100
AcDbEntity
  8
1
  6
Continuous
100
AcDbLine
 10
192.7485890180761
 20
188.0551978305199
 30
0.0
 11
192.7586440180763
 21
188.0270988305199
 31
0.0
  0
LINE
  5
438
330
18
100
AcDbEntity
  8
1
  6
Continuous
100
AcDbLine
 10
192.7389230180764
 20
188.08344483052
 30
0.0
 11
192.7485890180763
 21
188.0551978305199
 31
0.0
  0
LINE
  5
439
330
18
100
AcDbEntity
  8
1
  6
Continuous
100
AcDbLine
 10
192.7296350180764
 20
188.11182483052
 30
0.0
 11
192.7389230180764
 21
188.08344483052
 31
0.0
  0
LINE
  5
43A
330
18
100
AcDbEntity
  8
1
  6
Continuous
100
AcDbLine
 10
192.7207190180764
 20
188.1403288305199
 30
0.0
 11
192.7296350180764
 21
188.11182483052
 31
0.0
  0
LINE
  5
43B
330
18
100
AcDbEntity
  8
1
  6
Continuous
100
AcDbLine
 10
192.7121650180764
 20
188.1689418305199
 30
0.0
 11
192.7207190180764
 21
188.1403288305199
 31
0.0
  0
LINE
  5
43C
330
18
100
AcDbEntity
  8
1
  6
Continuous
100
AcDbLine
 10
192.7039650180763
 20
188.1976518305199
 30
0.0
 11
192.7121650180763
 21
188.1689418305199
 31
0.0
  0
LINE
  5
43D
330
18
100
AcDbEntity
  8
1
  6
Continuous
100
AcDbLine
 10
192.6961110180764
 20
188.2264478305199
 30
0.0
 11
192.7039650180763
 21
188.1976518305199
 31
0.0
  0
LINE
  5
43E
330
18
100
AcDbEntity
  8
1
  6
Continuous
100
AcDbLine
 10
192.6885950180763
 20
188.2553158305199
 30
0.0
 11
192.6961110180764
 21
188.2264478305199
 31
0.0
  0
LINE
  5
43F
330
18
100
AcDbEntity
  8
1
  6
Continuous
100
AcDbLine
 10
192.6814070180764
 20
188.2842448305199
 30
0.0
 11
192.6885950180761
 21
188.2553158305199
 31
0.0
  0
LINE
  5
440
330
18
100
AcDbEntity
  8
1
  6
Continuous
100
AcDbLine
 10
192.6745390180763
 20
188.3132208305199
 30
0.0
 11
192.6814070180764
 21
188.2842448305199
 31
0.0
  0
LINE
  5
441
330
18
100
AcDbEntity
  8
1
  6
Continuous
100
AcDbLine
 10
198.1569980180763
 20
182.5132218305199
 30
0.0
 11
198.1569980180763
 21
189.8132208305199
 31
0.0
  0
LINE
  5
442
330
18
100
AcDbEntity
  8
1
  6
Continuous
100
AcDbLine
 10
197.9390090180763
 20
182.5392648305198
 30
0.0
 11
197.9625140180763
 21
182.5132218305199
 31
0.0
  0
LINE
  5
443
330
18
100
AcDbEntity
  8
1
  6
Continuous
100
AcDbLine
 10
197.9154920180764
 20
182.5652948305199
 30
0.0
 11
197.9390090180763
 21
182.5392648305199
 31
0.0
  0
LINE
  5
444
330
18
100
AcDbEntity
  8
1
  6
Continuous
100
AcDbLine
 10
197.8919600180763
 20
182.5913128305199
 30
0.0
 11
197.9154920180764
 21
182.5652948305199
 31
0.0
  0
LINE
  5
445
330
18
100
AcDbEntity
  8
1
  6
Continuous
100
AcDbLine
 10
197.8684150180764
 20
182.6173188305199
 30
0.0
 11
197.8919600180763
 21
182.5913128305199
 31
0.0
  0
LINE
  5
446
330
18
100
AcDbEntity
  8
1
  6
Continuous
100
AcDbLine
 10
197.8448580180763
 20
182.6433128305199
 30
0.0
 11
197.8684150180764
 21
182.6173188305199
 31
0.0
  0
LINE
  5
447
330
18
100
AcDbEntity
  8
1
  6
Continuous
100
AcDbLine
 10
197.8212870180763
 20
182.6692958305199
 30
0.0
 11
197.8448580180763
 21
182.6433128305199
 31
0.0
  0
LINE
  5
448
330
18
100
AcDbEntity
  8
1
  6
Continuous
100
AcDbLine
 10
197.7977030180763
 20
182.6952668305199
 30
0.0
 11
197.8212870180763
 21
182.6692958305199
 31
0.0
  0
LINE
  5
449
330
18
100
AcDbEntity
  8
1
  6
Continuous
100
AcDbLine
 10
197.7741070180764
 20
182.7212258305199
 30
0.0
 11
197.7977030180763
 21
182.6952668305199
 31
0.0
  0
LINE
  5
44A
330
18
100
AcDbEntity
  8
1
  6
Continuous
100
AcDbLine
 10
197.7504980180763
 20
182.7471738305199
 30
0.0
 11
197.7741070180761
 21
182.7212258305199
 31
0.0
  0
LINE
  5
44B
330
18
100
AcDbEntity
  8
1
  6
Continuous
100
AcDbLine
 10
197.7268770180763
 20
182.7731108305199
 30
0.0
 11
197.7504980180763
 21
182.7471738305199
 31
0.0
  0
LINE
  5
44C
330
18
100
AcDbEntity
  8
1
  6
Continuous
100
AcDbLine
 10
197.7032440180763
 20
182.7990378305198
 30
0.0
 11
197.7268770180763
 21
182.7731108305199
 31
0.0
  0
LINE
  5
44D
330
18
100
AcDbEntity
  8
1
  6
Continuous
100
AcDbLine
 10
197.6795990180763
 20
182.8249528305199
 30
0.0
 11
197.7032440180764
 21
182.7990378305199
 31
0.0
  0
LINE
  5
44E
330
18
100
AcDbEntity
  8
1
  6
Continuous
100
AcDbLine
 10
197.6559430180764
 20
182.8508578305199
 30
0.0
 11
197.6795990180763
 21
182.8249528305199
 31
0.0
  0
LINE
  5
44F
330
18
100
AcDbEntity
  8
1
  6
Continuous
100
AcDbLine
 10
197.6322740180763
 20
182.8767518305198
 30
0.0
 11
197.6559430180761
 21
182.8508578305198
 31
0.0
  0
LINE
  5
450
330
18
100
AcDbEntity
  8
1
  6
Continuous
100
AcDbLine
 10
197.6085950180764
 20
182.90263683052
 30
0.0
 11
197.6322740180763
 21
182.8767518305199
 31
0.0
  0
LINE
  5
451
330
18
100
AcDbEntity
  8
1
  6
Continuous
100
AcDbLine
 10
197.5849040180763
 20
182.9285108305199
 30
0.0
 11
197.6085950180764
 21
182.90263683052
 31
0.0
  0
LINE
  5
452
330
18
100
AcDbEntity
  8
1
  6
Continuous
100
AcDbLine
 10
197.4686340180763
 20
183.0551748305199
 30
0.0
 11
197.5849040180763
 21
182.9285108305199
 31
0.0
  0
LINE
  5
453
330
18
100
AcDbEntity
  8
1
  6
Continuous
100
AcDbLine
 10
197.3520910180764
 20
183.1815918305198
 30
0.0
 11
197.4686340180763
 21
183.0551748305199
 31
0.0
  0
LINE
  5
454
330
18
100
AcDbEntity
  8
1
  6
Continuous
100
AcDbLine
 10
197.2352660180764
 20
183.3077518305199
 30
0.0
 11
197.3520910180764
 21
183.1815918305198
 31
0.0
  0
LINE
  5
455
330
18
100
AcDbEntity
  8
1
  6
Continuous
100
AcDbLine
 10
197.1181510180763
 20
183.4336448305199
 30
0.0
 11
197.2352660180763
 21
183.3077518305199
 31
0.0
  0
LINE
  5
456
330
18
100
AcDbEntity
  8
1
  6
Continuous
100
AcDbLine
 10
197.000736018076
 20
183.5592608305199
 30
0.0
 11
197.1181510180763
 21
183.4336448305199
 31
0.0
  0
LINE
  5
457
330
18
100
AcDbEntity
  8
1
  6
Continuous
100
AcDbLine
 10
196.8830150180764
 20
183.6845888305199
 30
0.0
 11
197.000736018076
 21
183.5592608305199
 31
0.0
  0
LINE
  5
458
330
18
100
AcDbEntity
  8
1
  6
Continuous
100
AcDbLine
 10
196.7649780180763
 20
183.8096208305199
 30
0.0
 11
196.8830150180763
 21
183.6845888305199
 31
0.0
  0
LINE
  5
459
330
18
100
AcDbEntity
  8
1
  6
Continuous
100
AcDbLine
 10
196.6466170180763
 20
183.9343458305199
 30
0.0
 11
196.7649780180764
 21
183.8096208305199
 31
0.0
  0
LINE
  5
45A
330
18
100
AcDbEntity
  8
1
  6
Continuous
100
AcDbLine
 10
196.5279250180763
 20
184.0587538305199
 30
0.0
 11
196.6466170180764
 21
183.9343458305199
 31
0.0
  0
LINE
  5
45B
330
18
100
AcDbEntity
  8
1
  6
Continuous
100
AcDbLine
 10
196.4088910180763
 20
184.18283583052
 30
0.0
 11
196.5279250180763
 21
184.0587538305199
 31
0.0
  0
LINE
  5
45C
330
18
100
AcDbEntity
  8
1
  6
Continuous
100
AcDbLine
 10
196.2895080180763
 20
184.3065808305199
 30
0.0
 11
196.4088910180763
 21
184.18283583052
 31
0.0
  0
LINE
  5
45D
330
18
100
AcDbEntity
  8
1
  6
Continuous
100
AcDbLine
 10
196.1697690180764
 20
184.4299798305199
 30
0.0
 11
196.2895080180763
 21
184.3065808305199
 31
0.0
  0
LINE
  5
45E
330
18
100
AcDbEntity
  8
1
  6
Continuous
100
AcDbLine
 10
196.0496630180763
 20
184.5530228305199
 30
0.0
 11
196.1697690180764
 21
184.4299798305199
 31
0.0
  0
LINE
  5
45F
330
18
100
AcDbEntity
  8
1
  6
Continuous
100
AcDbLine
 10
195.9291830180761
 20
184.67569883052
 30
0.0
 11
196.0496630180763
 21
184.5530228305199
 31
0.0
  0
LINE
  5
460
330
18
100
AcDbEntity
  8
1
  6
Continuous
100
AcDbLine
 10
195.8083210180764
 20
184.7979998305199
 30
0.0
 11
195.9291830180761
 21
184.67569883052
 31
0.0
  0
LINE
  5
461
330
18
100
AcDbEntity
  8
1
  6
Continuous
100
AcDbLine
 10
195.6870680180763
 20
184.9199138305199
 30
0.0
 11
195.8083210180764
 21
184.7979998305199
 31
0.0
  0
LINE
  5
462
330
18
100
AcDbEntity
  8
1
  6
Continuous
100
AcDbLine
 10
195.5657280180761
 20
185.0411258305199
 30
0.0
 11
195.6870680180761
 21
184.9199138305199
 31
0.0
  0
LINE
  5
463
330
18
100
AcDbEntity
  8
1
  6
Continuous
100
AcDbLine
 10
195.4439940180764
 20
185.1619458305199
 30
0.0
 11
195.5657280180764
 21
185.0411258305199
 31
0.0
  0
LINE
  5
464
330
18
100
AcDbEntity
  8
1
  6
Continuous
100
AcDbLine
 10
195.3218730180763
 20
185.2823748305199
 30
0.0
 11
195.4439940180764
 21
185.1619458305199
 31
0.0
  0
LINE
  5
465
330
18
100
AcDbEntity
  8
1
  6
Continuous
100
AcDbLine
 10
195.1993680180763
 20
185.4024158305199
 30
0.0
 11
195.3218730180763
 21
185.2823748305199
 31
0.0
  0
LINE
  5
466
330
18
100
AcDbEntity
  8
1
  6
Continuous
100
AcDbLine
 10
195.0764840180763
 20
185.5220698305199
 30
0.0
 11
195.1993680180763
 21
185.4024158305199
 31
0.0
  0
LINE
  5
467
330
18
100
AcDbEntity
  8
1
  6
Continuous
100
AcDbLine
 10
197.9625140180763
 20
182.5132218305199
 30
0.0
 11
198.1569980180763
 21
182.5132218305199
 31
0.0
  0
LINE
  5
468
330
18
100
AcDbEntity
  8
1
  6
Continuous
100
AcDbLine
 10
202.1569980180764
 20
186.8132208305199
 30
0.0
 11
198.1569980180763
 21
186.8132208305199
 31
0.0
  0
LINE
  5
469
330
18
100
AcDbEntity
  8
1
  6
Continuous
100
AcDbLine
 10
202.1569980180764
 20
189.8132208305199
 30
0.0
 11
202.1569980180764
 21
186.8132208305199
 31
0.0
  0
ARC
  5
46A
330
18
100
AcDbEntity
  8
1
  6
Continuous
100
AcDbCircle
 10
204.2656310180763
 20
192.81322083052
 30
0.0
 40
3.0
100
AcDbArc
 50
270.0
 51
344.53399
  0
LINE
  5
46B
330
18
100
AcDbEntity
  8
1
  6
Continuous
100
AcDbLine
 10
217.1569960180763
 20
192.0132208305199
 30
0.0
 11
217.1569960180763
 21
194.8132208305199
 31
0.0
  0
LINE
  5
470
330
18
100
AcDbEntity
  8
1
  6
Continuous
100
AcDbLine
 10
147.1569960180763
 20
310.251306405808
 30
0.0
 11
147.1569960180763
 21
256.2513104058079
 31
0.0
  0
LINE
  5
471
330
18
100
AcDbEntity
  8
1
  6
Continuous
100
AcDbLine
 10
217.1569960180763
 20
310.251306405808
 30
0.0
 11
217.1569960180763
 21
256.2513104058079
 31
0.0
  0
LINE
  5
472
330
18
100
AcDbEntity
  8
4
  6
CENTER
100
AcDbLine
 10
182.1569960180763
 20
243.251310405808
 30
0.0
 11
182.1569960180763
 21
323.251314405808
 31
0.0
  0
CIRCLE
  5
473
330
18
100
AcDbEntity
  8
1
  6
Continuous
100
AcDbCircle
 10
182.1569960180763
 20
283.2513104058079
 30
0.0
 40
25.0
  0
CIRCLE
  5
474
330
18
100
AcDbEntity
  8
1
  6
Continuous
100
AcDbCircle
 10
182.1569960180763
 20
283.2513104058079
 30
0.0
 40
22.0
  0
LINE
  5
477
330
18
100
AcDbEntity
  8
1
  6
Continuous
100
AcDbLine
 10
155.1569960180763
 20
248.2513104058079
 30
0.0
 11
209.1569960180763
 21
248.2513104058079
 31
0.0
  0
LINE
  5
478
330
18
100
AcDbEntity
  8
4
  6
CENTER
100
AcDbLine
 10
220.3170295422048
 20
283.2513104058079
 30
0.0
 11
142.1569960180763
 21
283.2513104058079
 31
0.0
  0
LINE
  5
479
330
18
100
AcDbEntity
  8
4
  6
CENTER
100
AcDbLine
 10
156.1569960180763
 20
249.8513104058079
 30
0.0
 11
156.1569960180763
 21
264.6513104058079
 31
0.0
  0
ARC
  5
47A
330
18
100
AcDbEntity
  8
1
  6
Continuous
100
AcDbCircle
 10
155.1569960180763
 20
256.2513104058079
 30
0.0
 40
8.0
100
AcDbArc
 50
179.999996
 51
269.9999910000004
  0
LINE
  5
47B
330
18
100
AcDbEntity
  8
4
  6
CENTER
100
AcDbLine
 10
148.7569960180763
 20
257.251310405808
 30
0.0
 11
163.5569960180764
 21
257.251310405808
 31
0.0
  0
CIRCLE
  5
47C
330
18
100
AcDbEntity
  8
1
  6
Continuous
100
AcDbCircle
 10
156.1569960180763
 20
257.251310405808
 30
0.0
 40
4.4
  0
CIRCLE
  5
47D
330
18
100
AcDbEntity
  8
1
  6
Continuous
100
AcDbCircle
 10
182.1569960180763
 20
283.2513104058079
 30
0.0
 40
10.9
  0
CIRCLE
  5
47E
330
18
100
AcDbEntity
  8
1
  6
Continuous
100
AcDbCircle
 10
182.1569960180763
 20
283.2513104058079
 30
0.0
 40
9.4
  0
CIRCLE
  5
47F
330
18
100
AcDbEntity
  8
1
  6
Continuous
100
AcDbCircle
 10
182.1569960180763
 20
283.2513104058079
 30
0.0
 40
7.799999999999998
  0
CIRCLE
  5
480
330
18
100
AcDbEntity
  8
1
  6
Continuous
100
AcDbCircle
 10
182.1569960180763
 20
283.2513104058079
 30
0.0
 40
6.299999999999998
  0
CIRCLE
  5
481
330
18
100
AcDbEntity
  8
1
  6
Continuous
100
AcDbCircle
 10
182.1569940180763
 20
283.2513104058079
 30
0.0
 40
5.0
  0
CIRCLE
  5
483
330
18
100
AcDbEntity
  8
1
  6
Continuous
100
AcDbCircle
 10
166.1569900180762
 20
283.2513104058079
 30
0.0
 40
1.5
  0
CIRCLE
  5
484
330
18
100
AcDbEntity
  8
1
  6
Continuous
100
AcDbCircle
 10
166.1569900180762
 20
283.2513104058079
 30
0.0
 40
1.6
  0
LINE
  5
485
330
18
100
AcDbEntity
  8
4
  6
CENTER
100
AcDbLine
 10
208.1569960180763
 20
249.8513104058079
 30
0.0
 11
208.1569960180763
 21
264.6513104058079
 31
0.0
  0
ARC
  5
486
330
18
100
AcDbEntity
  8
1
  6
Continuous
100
AcDbCircle
 10
209.1569960180763
 20
256.2513104058079
 30
0.0
 40
8.0
100
AcDbArc
 50
269.9999910000004
 51
0.000000999999775
  0
LINE
  5
487
330
18
100
AcDbEntity
  8
4
  6
CENTER
100
AcDbLine
 10
215.5569960180763
 20
257.251310405808
 30
0.0
 11
200.7569960180761
 21
257.251310405808
 31
0.0
  0
CIRCLE
  5
488
330
18
100
AcDbEntity
  8
1
  6
Continuous
100
AcDbCircle
 10
208.1569960180763
 20
257.251310405808
 30
0.0
 40
4.4
  0
CIRCLE
  5
48A
330
18
100
AcDbEntity
  8
1
  6
Continuous
100
AcDbCircle
 10
198.1570010180764
 20
283.2513104058079
 30
0.0
 40
1.5
  0
CIRCLE
  5
48B
330
18
100
AcDbEntity
  8
1
  6
Continuous
100
AcDbCircle
 10
198.1570010180764
 20
283.2513104058079
 30
0.0
 40
1.6
  0
LINE
  5
48C
330
18
100
AcDbEntity
  8
1
  6
Continuous
100
AcDbLine
 10
155.1569960180763
 20
318.251306405808
 30
0.0
 11
209.1569960180763
 21
318.251306405808
 31
0.0
  0
LINE
  5
48D
330
18
100
AcDbEntity
  8
4
  6
CENTER
100
AcDbLine
 10
148.7569960180763
 20
309.251310405808
 30
0.0
 11
163.5569960180764
 21
309.251310405808
 31
0.0
  0
ARC
  5
48E
330
18
100
AcDbEntity
  8
1
  6
Continuous
100
AcDbCircle
 10
155.1569960180763
 20
310.251306405808
 30
0.0
 40
8.0
100
AcDbArc
 50
90.00000399999908
 51
180.0000029999999
  0
LINE
  5
48F
330
18
100
AcDbEntity
  8
4
  6
CENTER
100
AcDbLine
 10
156.1569960180763
 20
316.6513104058078
 30
0.0
 11
156.1569960180763
 21
301.8513104058079
 31
0.0
  0
CIRCLE
  5
490
330
18
100
AcDbEntity
  8
1
  6
Continuous
100
AcDbCircle
 10
156.1569960180763
 20
309.251310405808
 30
0.0
 40
4.4
  0
LINE
  5
491
330
18
100
AcDbEntity
  8
4
  6
CENTER
100
AcDbLine
 10
215.5569960180763
 20
309.251310405808
 30
0.0
 11
200.7569960180761
 21
309.251310405808
 31
0.0
  0
CIRCLE
  5
492
330
18
100
AcDbEntity
  8
1
  6
Continuous
100
AcDbCircle
 10
208.1569960180763
 20
309.251310405808
 30
0.0
 40
4.4
  0
ARC
  5
493
330
18
100
AcDbEntity
  8
1
  6
Continuous
100
AcDbCircle
 10
209.1569960180763
 20
310.251306405808
 30
0.0
 40
8.0
100
AcDbArc
 50
0.000003999999914
 51
90.00000099999978
  0
LINE
  5
494
330
18
100
AcDbEntity
  8
4
  6
CENTER
100
AcDbLine
 10
208.1569960180763
 20
316.6513104058078
 30
0.0
 11
208.1569960180763
 21
301.8513104058079
 31
0.0
  0
LINE
  5
495
330
18
100
AcDbEntity
  8
4
  6
CENTER
100
AcDbLine
 10
300.4756449178863
 20
200.2148609313048
 30
0.0
 11
300.4756449178863
 21
145.3346942265575
 31
0.0
  0
LINE
  5
496
330
18
100
AcDbEntity
  8
1
  6
Continuous
100
AcDbLine
 10
312.2198369178863
 20
189.6118118305199
 30
0.0
 11
312.3001439178863
 21
189.5926328305199
 31
0.0
  0
LINE
  5
497
330
18
100
AcDbEntity
  8
4
  6
CENTER
100
AcDbLine
 10
324.4756449178863
 20
164.31322083052
 30
0.0
 11
276.4756449178863
 21
164.31322083052
 31
0.0
  0
LINE
  5
498
330
18
100
AcDbEntity
  8
1
  6
Continuous
100
AcDbLine
 10
335.4756449178863
 20
192.0132208305199
 30
0.0
 11
265.4756449178863
 21
192.0132208305199
 31
0.0
  0
LINE
  5
499
330
18
100
AcDbEntity
  8
1
  6
Continuous
100
AcDbLine
 10
335.4756449178863
 20
194.8132208305199
 30
0.0
 11
265.4756449178863
 21
194.8132208305199
 31
0.0
  0
LINE
  5
49A
330
18
100
AcDbEntity
  8
1
  6
Continuous
100
AcDbLine
 10
322.5842789178863
 20
189.8132208305199
 30
0.0
 11
278.3670109178863
 21
189.8132208305199
 31
0.0
  0
ARC
  5
49B
330
18
100
AcDbEntity
  8
1
  6
Continuous
100
AcDbCircle
 10
268.0509749178863
 20
142.9600668305199
 30
0.0
 40
61.734803
100
AcDbArc
 50
39.84363299999967
 51
45.26318400000054
  0
ARC
  5
49C
330
18
100
AcDbEntity
  8
1
  6
Continuous
100
AcDbCircle
 10
311.0038039178864
 20
188.5132218305199
 30
0.0
 40
3.0
100
AcDbArc
 50
269.9999990000001
 51
298.3485019999995
  0
LINE
  5
49D
330
18
100
AcDbEntity
  8
1
  6
Continuous
100
AcDbLine
 10
310.9756449178863
 20
171.8059548305198
 30
0.0
 11
315.5246809178863
 21
171.3576618305198
 31
0.0
  0
LINE
  5
49E
330
18
100
AcDbEntity
  8
1
  6
Continuous
100
AcDbLine
 10
315.5246809178863
 20
157.26877983052
 30
0.0
 11
310.9756449178863
 21
156.8204868305199
 31
0.0
  0
LINE
  5
49F
330
18
100
AcDbEntity
  8
1
  6
Continuous
100
AcDbLine
 10
289.9756449178862
 20
178.38348383052
 30
0.0
 11
289.9756449178862
 21
150.2429578305199
 31
0.0
  0
LINE
  5
4A0
330
18
100
AcDbEntity
  8
1
  6
Continuous
100
AcDbLine
 10
310.9756449178863
 20
178.38348383052
 30
0.0
 11
310.9756449178863
 21
150.2429578305199
 31
0.0
  0
ARC
  5
4A2
330
18
100
AcDbEntity
  8
1
  6
Continuous
100
AcDbCircle
 10
300.4756449178863
 20
198.3132208305199
 30
0.0
 40
50.0
100
AcDbArc
 50
258.8208399999995
 51
281.1791600000004
  0
ARC
  5
4A3
330
18
100
AcDbEntity
  8
1
  6
Continuous
100
AcDbCircle
 10
290.9756449178863
 20
150.2429578305199
 30
0.0
 40
1.0
100
AcDbArc
 50
180.0
 51
258.8208399999995
  0
ARC
  5
4A4
330
18
100
AcDbEntity
  8
1
  6
Continuous
100
AcDbCircle
 10
309.9756449178863
 20
150.2429578305199
 30
0.0
 40
1.0
100
AcDbArc
 50
281.1791600000004
 51
0.0
  0
ARC
  5
4A5
330
18
100
AcDbEntity
  8
1
  6
Continuous
100
AcDbCircle
 10
279.4756449178863
 20
159.31322083052
 30
0.0
 40
1.0
100
AcDbArc
 50
180.0
 51
270.0
  0
ARC
  5
4A6
330
18
100
AcDbEntity
  8
1
  6
Continuous
100
AcDbCircle
 10
279.4756449178863
 20
169.31322083052
 30
0.0
 40
1.0
100
AcDbArc
 50
90.0
 51
180.0
  0
LINE
  5
4A7
330
18
100
AcDbEntity
  8
1
  6
Continuous
100
AcDbLine
 10
278.4756449178863
 20
169.31322083052
 30
0.0
 11
278.4756449178863
 21
159.31322083052
 31
0.0
  0
LINE
  5
4A8
330
18
100
AcDbEntity
  8
1
  6
Continuous
100
AcDbLine
 10
265.4756449178863
 20
192.0132208305199
 30
0.0
 11
265.4756449178863
 21
194.8132208305199
 31
0.0
  0
ARC
  5
4A9
330
18
100
AcDbEntity
  8
1
  6
Continuous
100
AcDbCircle
 10
278.3670109178863
 20
192.81322083052
 30
0.0
 40
3.0
100
AcDbArc
 50
195.4660099999999
 51
270.0
  0
LINE
  5
4AA
330
18
100
AcDbEntity
  8
1
  6
Continuous
100
AcDbLine
 10
281.4756449178863
 20
186.8715028305199
 30
0.0
 11
281.4756449178863
 21
156.31322083052
 31
0.0
  0
LINE
  5
4AB
330
18
100
AcDbEntity
  8
1
  6
Continuous
100
AcDbLine
 10
284.4756449178863
 20
182.5132218305199
 30
0.0
 11
284.4756449178863
 21
156.31322083052
 31
0.0
  0
LINE
  5
4AC
330
18
100
AcDbEntity
  8
1
  6
Continuous
100
AcDbLine
 10
284.9756449178863
 20
170.8600708305199
 30
0.0
 11
284.9756449178863
 21
157.76637083052
 31
0.0
  0
LINE
  5
4AD
330
18
100
AcDbEntity
  8
1
  6
Continuous
100
AcDbLine
 10
289.9756449178862
 20
156.8204878305199
 30
0.0
 11
285.4266089178862
 21
157.2687808305199
 31
0.0
  0
LINE
  5
4AE
330
18
100
AcDbEntity
  8
1
  6
Continuous
100
AcDbLine
 10
284.4756449178863
 20
156.31322083052
 30
0.0
 11
281.4756449178863
 21
156.31322083052
 31
0.0
  0
LINE
  5
4AF
330
18
100
AcDbEntity
  8
1
  6
Continuous
100
AcDbLine
 10
280.9756449178863
 20
158.31322083052
 30
0.0
 11
279.4756449178863
 21
158.31322083052
 31
0.0
  0
ARC
  5
4B0
330
18
100
AcDbEntity
  8
1
  6
Continuous
100
AcDbCircle
 10
280.9756449178863
 20
158.81322083052
 30
0.0
 40
0.5
100
AcDbArc
 50
270.0
 51
0.0
  0
LINE
  5
4B1
330
18
100
AcDbEntity
  8
1
  6
Continuous
100
AcDbLine
 10
284.9756449178863
 20
160.31322083052
 30
0.0
 11
284.4756449178863
 21
160.31322083052
 31
0.0
  0
ARC
  5
4B2
330
18
100
AcDbEntity
  8
1
  6
Continuous
100
AcDbCircle
 10
285.4756449178863
 20
157.76637083052
 30
0.0
 40
0.5
100
AcDbArc
 50
180.0
 51
264.3718569999995
  0
LINE
  5
4B3
330
18
100
AcDbEntity
  8
1
  6
Continuous
100
AcDbLine
 10
285.4266089178863
 20
171.3576608305199
 30
0.0
 11
289.9756449178862
 21
171.8059538305199
 31
0.0
  0
LINE
  5
4B4
330
18
100
AcDbEntity
  8
1
  6
Continuous
100
AcDbLine
 10
284.4756449178863
 20
168.31322083052
 30
0.0
 11
284.9756449178863
 21
168.31322083052
 31
0.0
  0
LINE
  5
4B5
330
18
100
AcDbEntity
  8
1
  6
Continuous
100
AcDbLine
 10
279.4756449178863
 20
170.31322083052
 30
0.0
 11
280.9756449178863
 21
170.31322083052
 31
0.0
  0
ARC
  5
4B6
330
18
100
AcDbEntity
  8
1
  6
Continuous
100
AcDbCircle
 10
280.9756449178863
 20
169.81322083052
 30
0.0
 40
0.5
100
AcDbArc
 50
0.0
 51
90.0
  0
ARC
  5
4B7
330
18
100
AcDbEntity
  8
1
  6
Continuous
100
AcDbCircle
 10
285.4756449178863
 20
170.8600708305199
 30
0.0
 40
0.5
100
AcDbArc
 50
95.62814300000031
 51
180.0
  0
LINE
  5
4B8
330
18
100
AcDbEntity
  8
1
  6
Continuous
100
AcDbLine
 10
292.9756449178863
 20
186.8132208305199
 30
0.0
 11
295.9756449178863
 21
186.8132208305199
 31
0.0
  0
LINE
  5
4B9
330
18
100
AcDbEntity
  8
1
  6
Continuous
100
AcDbLine
 10
311.0038039178864
 20
185.5132218305199
 30
0.0
 11
289.9474859178864
 21
185.5132218305199
 31
0.0
  0
ARC
  5
4BA
330
18
100
AcDbEntity
  8
1
  6
Continuous
100
AcDbCircle
 10
300.4756449178863
 20
130.3132208305199
 30
0.0
 40
50.0
100
AcDbArc
 50
78.82083999999959
 51
101.1791600000004
  0
LINE
  5
4BB
330
18
100
AcDbEntity
  8
1
  6
Continuous
100
AcDbLine
 10
307.4756449178863
 20
182.5132218305199
 30
0.0
 11
293.4756449178863
 21
182.5132218305199
 31
0.0
  0
ARC
  5
4BC
330
18
100
AcDbEntity
  8
1
  6
Continuous
100
AcDbCircle
 10
334.5047239178863
 20
141.4871428305199
 30
0.0
 40
63.91044
100
AcDbArc
 50
134.8291270000002
 51
140.0640549999998
  0
ARC
  5
4BD
330
18
100
AcDbEntity
  8
1
  6
Continuous
100
AcDbCircle
 10
369.9615819178863
 20
116.0852848305199
 30
0.0
 40
110.514825
100
AcDbArc
 50
139.1895390000002
 51
143.0529179999995
  0
ARC
  5
4BE
330
18
100
AcDbEntity
  8
1
  6
Continuous
100
AcDbCircle
 10
289.9474859178864
 20
188.5132218305199
 30
0.0
 40
3.0
100
AcDbArc
 50
241.6328549999994
 51
270.0000009999997
  0
LINE
  5
4BF
330
18
100
AcDbEntity
  8
1
  6
Continuous
100
AcDbLine
 10
285.5005909178863
 20
182.5132218305199
 30
0.0
 11
281.4756449178863
 21
182.5132218305199
 31
0.0
  0
ARC
  5
4C0
330
18
100
AcDbEntity
  8
1
  6
Continuous
100
AcDbCircle
 10
290.9756449178863
 20
178.38348383052
 30
0.0
 40
1.0
100
AcDbArc
 50
101.1791600000004
 51
180.0
  0
ARC
  5
4C1
330
18
100
AcDbEntity
  8
1
  6
Continuous
100
AcDbCircle
 10
293.4756449178863
 20
183.5132218305199
 30
0.0
 40
1.0
100
AcDbArc
 50
180.0
 51
270.0
  0
LINE
  5
4C2
330
18
100
AcDbEntity
  8
1
  6
Continuous
100
AcDbLine
 10
292.4756449178863
 20
183.5132218305199
 30
0.0
 11
292.4756449178863
 21
185.2132218305199
 31
0.0
  0
ARC
  5
4C3
330
18
100
AcDbEntity
  8
1
  6
Continuous
100
AcDbCircle
 10
292.7756449178863
 20
185.2132218305199
 30
0.0
 40
0.3
100
AcDbArc
 50
90.0
 51
180.0
  0
LINE
  5
4C4
330
18
100
AcDbEntity
  8
1
  6
Continuous
100
AcDbLine
 10
287.6184489178863
 20
189.2464888305199
 30
0.0
 11
287.6873869178863
 21
189.2768258305199
 31
0.0
  0
ARC
  5
4C5
330
18
100
AcDbEntity
  8
1
  6
Continuous
100
AcDbCircle
 10
284.4764559178863
 20
186.8118168305199
 30
0.0
 40
3.001403999999998
100
AcDbArc
 50
90.01547400000013
 51
181.1394559999995
  0
LINE
  5
4C6
330
18
100
AcDbEntity
  8
1
  6
Continuous
100
AcDbLine
 10
287.5500269178863
 20
189.2150658305199
 30
0.0
 11
287.6184489178863
 21
189.2464888305199
 31
0.0
  0
LINE
  5
4C7
330
18
100
AcDbEntity
  8
1
  6
Continuous
100
AcDbLine
 10
287.4821569178864
 20
189.1825318305199
 30
0.0
 11
287.5500269178863
 21
189.2150658305199
 31
0.0
  0
LINE
  5
4C8
330
18
100
AcDbEntity
  8
1
  6
Continuous
100
AcDbLine
 10
287.4148779178863
 20
189.14886083052
 30
0.0
 11
287.4821569178864
 21
189.1825318305199
 31
0.0
  0
LINE
  5
4C9
330
18
100
AcDbEntity
  8
1
  6
Continuous
100
AcDbLine
 10
287.3482239178861
 20
189.1140278305199
 30
0.0
 11
287.4148779178862
 21
189.14886083052
 31
0.0
  0
LINE
  5
4CA
330
18
100
AcDbEntity
  8
1
  6
Continuous
100
AcDbLine
 10
287.2822349178864
 20
189.0780058305199
 30
0.0
 11
287.3482239178862
 21
189.1140278305199
 31
0.0
  0
LINE
  5
4CB
330
18
100
AcDbEntity
  8
1
  6
Continuous
100
AcDbLine
 10
287.2169469178863
 20
189.04076983052
 30
0.0
 11
287.2822349178864
 21
189.0780058305199
 31
0.0
  0
LINE
  5
4CC
330
18
100
AcDbEntity
  8
1
  6
Continuous
100
AcDbLine
 10
287.1523979178864
 20
189.0022948305199
 30
0.0
 11
287.2169469178863
 21
189.0407698305199
 31
0.0
  0
LINE
  5
4CD
330
18
100
AcDbEntity
  8
1
  6
Continuous
100
AcDbLine
 10
287.0886229178862
 20
188.9625558305199
 30
0.0
 11
287.1523979178864
 21
189.0022948305199
 31
0.0
  0
LINE
  5
4CE
330
18
100
AcDbEntity
  8
1
  6
Continuous
100
AcDbLine
 10
287.0256609178864
 20
188.9215248305199
 30
0.0
 11
287.0886229178863
 21
188.9625558305199
 31
0.0
  0
LINE
  5
4CF
330
18
100
AcDbEntity
  8
1
  6
Continuous
100
AcDbLine
 10
286.9772129178863
 20
188.8886668305199
 30
0.0
 11
287.0256609178864
 21
188.9215248305199
 31
0.0
  0
LINE
  5
4D0
330
18
100
AcDbEntity
  8
1
  6
Continuous
100
AcDbLine
 10
286.9292849178863
 20
188.8550288305198
 30
0.0
 11
286.9772129178863
 21
188.8886668305199
 31
0.0
  0
LINE
  5
4D1
330
18
100
AcDbEntity
  8
1
  6
Continuous
100
AcDbLine
 10
286.8818809178863
 20
188.8206328305199
 30
0.0
 11
286.9292849178863
 21
188.8550288305199
 31
0.0
  0
LINE
  5
4D2
330
18
100
AcDbEntity
  8
1
  6
Continuous
100
AcDbLine
 10
286.8350069178863
 20
188.7854958305198
 30
0.0
 11
286.8818809178863
 21
188.8206328305199
 31
0.0
  0
LINE
  5
4D3
330
18
100
AcDbEntity
  8
1
  6
Continuous
100
AcDbLine
 10
286.7886679178864
 20
188.7496388305198
 30
0.0
 11
286.8350069178863
 21
188.7854958305198
 31
0.0
  0
LINE
  5
4D4
330
18
100
AcDbEntity
  8
1
  6
Continuous
100
AcDbLine
 10
286.7428679178863
 20
188.7130808305199
 30
0.0
 11
286.7886679178864
 21
188.7496388305198
 31
0.0
  0
LINE
  5
4D5
330
18
100
AcDbEntity
  8
1
  6
Continuous
100
AcDbLine
 10
286.6976129178863
 20
188.6758418305199
 30
0.0
 11
286.7428679178863
 21
188.7130808305199
 31
0.0
  0
LINE
  5
4D6
330
18
100
AcDbEntity
  8
1
  6
Continuous
100
AcDbLine
 10
286.6529059178864
 20
188.6379398305199
 30
0.0
 11
286.6976129178863
 21
188.6758418305199
 31
0.0
  0
LINE
  5
4D7
330
18
100
AcDbEntity
  8
1
  6
Continuous
100
AcDbLine
 10
286.6087529178863
 20
188.5993948305199
 30
0.0
 11
286.6529059178864
 21
188.6379398305199
 31
0.0
  0
LINE
  5
4D8
330
18
100
AcDbEntity
  8
1
  6
Continuous
100
AcDbLine
 10
286.5651589178863
 20
188.5602278305198
 30
0.0
 11
286.6087529178863
 21
188.5993948305199
 31
0.0
  0
LINE
  5
4D9
330
18
100
AcDbEntity
  8
1
  6
Continuous
100
AcDbLine
 10
286.5221269178864
 20
188.5204558305199
 30
0.0
 11
286.5651589178863
 21
188.5602278305198
 31
0.0
  0
LINE
  5
4DA
330
18
100
AcDbEntity
  8
1
  6
Continuous
100
AcDbLine
 10
286.4796649178863
 20
188.4800998305199
 30
0.0
 11
286.5221269178864
 21
188.5204558305199
 31
0.0
  0
LINE
  5
4DB
330
18
100
AcDbEntity
  8
1
  6
Continuous
100
AcDbLine
 10
286.4377749178863
 20
188.4391788305199
 30
0.0
 11
286.4796649178862
 21
188.4800998305199
 31
0.0
  0
LINE
  5
4DC
330
18
100
AcDbEntity
  8
1
  6
Continuous
100
AcDbLine
 10
286.3964629178862
 20
188.39771283052
 30
0.0
 11
286.4377749178863
 21
188.4391788305199
 31
0.0
  0
LINE
  5
4DD
330
18
100
AcDbEntity
  8
1
  6
Continuous
100
AcDbLine
 10
286.3557329178863
 20
188.3557198305199
 30
0.0
 11
286.3964629178862
 21
188.39771283052
 31
0.0
  0
LINE
  5
4DE
330
18
100
AcDbEntity
  8
1
  6
Continuous
100
AcDbLine
 10
286.3155909178863
 20
188.3132208305199
 30
0.0
 11
286.3557329178862
 21
188.3557198305199
 31
0.0
  0
LINE
  5
4DF
330
18
100
AcDbEntity
  8
1
  6
Continuous
100
AcDbLine
 10
289.4481939178863
 20
186.8132208305199
 30
0.0
 11
292.9756449178863
 21
186.8132208305199
 31
0.0
  0
LINE
  5
4E0
330
18
100
AcDbEntity
  8
1
  6
Continuous
100
AcDbLine
 10
290.5864999178863
 20
189.8139328305199
 30
0.0
 11
290.6656509178864
 21
189.8132208305199
 31
0.0
  0
LINE
  5
4E1
330
18
100
AcDbEntity
  8
1
  6
Continuous
100
AcDbLine
 10
290.5073349178863
 20
189.81384783052
 30
0.0
 11
290.5864999178863
 21
189.8139328305199
 31
0.0
  0
LINE
  5
4E2
330
18
100
AcDbEntity
  8
1
  6
Continuous
100
AcDbLine
 10
290.4281639178863
 20
189.8129748305198
 30
0.0
 11
290.5073349178863
 21
189.81384783052
 31
0.0
  0
LINE
  5
4E3
330
18
100
AcDbEntity
  8
1
  6
Continuous
100
AcDbLine
 10
290.3489939178863
 20
189.8113188305199
 30
0.0
 11
290.4281639178863
 21
189.8129748305199
 31
0.0
  0
LINE
  5
4E4
330
18
100
AcDbEntity
  8
1
  6
Continuous
100
AcDbLine
 10
290.2698339178865
 20
189.8088858305198
 30
0.0
 11
290.3489939178863
 21
189.8113188305199
 31
0.0
  0
LINE
  5
4E5
330
18
100
AcDbEntity
  8
1
  6
Continuous
100
AcDbLine
 10
290.1906889178864
 20
189.8056828305199
 30
0.0
 11
290.2698339178864
 21
189.8088858305198
 31
0.0
  0
LINE
  5
4E6
330
18
100
AcDbEntity
  8
1
  6
Continuous
100
AcDbLine
 10
290.1115689178864
 20
189.8017158305199
 30
0.0
 11
290.1906889178864
 21
189.8056828305199
 31
0.0
  0
LINE
  5
4E7
330
18
100
AcDbEntity
  8
1
  6
Continuous
100
AcDbLine
 10
290.0324809178864
 20
189.7969918305199
 30
0.0
 11
290.1115689178864
 21
189.8017158305199
 31
0.0
  0
LINE
  5
4E8
330
18
100
AcDbEntity
  8
1
  6
Continuous
100
AcDbLine
 10
289.9534319178864
 20
189.7915168305199
 30
0.0
 11
290.0324809178862
 21
189.7969918305199
 31
0.0
  0
LINE
  5
4E9
330
18
100
AcDbEntity
  8
1
  6
Continuous
100
AcDbLine
 10
289.8744299178864
 20
189.7852968305199
 30
0.0
 11
289.9534319178864
 21
189.7915168305199
 31
0.0
  0
LINE
  5
4EA
330
18
100
AcDbEntity
  8
1
  6
Continuous
100
AcDbLine
 10
289.7954819178863
 20
189.7783378305199
 30
0.0
 11
289.8744299178862
 21
189.7852968305199
 31
0.0
  0
LINE
  5
4EB
330
18
100
AcDbEntity
  8
1
  6
Continuous
100
AcDbLine
 10
289.7165959178863
 20
189.7706478305199
 30
0.0
 11
289.7954819178863
 21
189.7783378305199
 31
0.0
  0
LINE
  5
4EC
330
18
100
AcDbEntity
  8
1
  6
Continuous
100
AcDbLine
 10
289.6377799178864
 20
189.7622308305199
 30
0.0
 11
289.7165959178865
 21
189.7706478305199
 31
0.0
  0
LINE
  5
4ED
330
18
100
AcDbEntity
  8
1
  6
Continuous
100
AcDbLine
 10
289.5590419178864
 20
189.7530958305199
 30
0.0
 11
289.6377799178864
 21
189.7622308305199
 31
0.0
  0
LINE
  5
4EE
330
18
100
AcDbEntity
  8
1
  6
Continuous
100
AcDbLine
 10
289.4803879178864
 20
189.7432468305199
 30
0.0
 11
289.5590419178862
 21
189.7530958305199
 31
0.0
  0
LINE
  5
4EF
330
18
100
AcDbEntity
  8
1
  6
Continuous
100
AcDbLine
 10
289.4018259178864
 20
189.7326918305199
 30
0.0
 11
289.4803879178864
 21
189.7432468305199
 31
0.0
  0
LINE
  5
4F0
330
18
100
AcDbEntity
  8
1
  6
Continuous
100
AcDbLine
 10
289.3197139178864
 20
189.7208908305199
 30
0.0
 11
289.4018259178864
 21
189.7326918305199
 31
0.0
  0
LINE
  5
4F1
330
18
100
AcDbEntity
  8
1
  6
Continuous
100
AcDbLine
 10
289.2377239178864
 20
189.70830083052
 30
0.0
 11
289.3197139178862
 21
189.7208908305199
 31
0.0
  0
LINE
  5
4F2
330
18
100
AcDbEntity
  8
1
  6
Continuous
100
AcDbLine
 10
289.1558689178864
 20
189.69490283052
 30
0.0
 11
289.2377239178864
 21
189.70830083052
 31
0.0
  0
LINE
  5
4F3
330
18
100
AcDbEntity
  8
1
  6
Continuous
100
AcDbLine
 10
289.0741609178864
 20
189.6806738305199
 30
0.0
 11
289.1558689178864
 21
189.69490283052
 31
0.0
  0
LINE
  5
4F4
330
18
100
AcDbEntity
  8
1
  6
Continuous
100
AcDbLine
 10
288.9926129178864
 20
189.6655938305199
 30
0.0
 11
289.0741609178864
 21
189.6806738305199
 31
0.0
  0
LINE
  5
4F5
330
18
100
AcDbEntity
  8
1
  6
Continuous
100
AcDbLine
 10
288.9112379178864
 20
189.6496408305199
 30
0.0
 11
288.9926129178864
 21
189.6655938305199
 31
0.0
  0
LINE
  5
4F6
330
18
100
AcDbEntity
  8
1
  6
Continuous
100
AcDbLine
 10
288.8300489178864
 20
189.6327938305199
 30
0.0
 11
288.9112379178864
 21
189.6496408305199
 31
0.0
  0
LINE
  5
4F7
330
18
100
AcDbEntity
  8
1
  6
Continuous
100
AcDbLine
 10
288.7490569178863
 20
189.61503283052
 30
0.0
 11
288.8300489178864
 21
189.6327938305199
 31
0.0
  0
LINE
  5
4F8
330
18
100
AcDbEntity
  8
1
  6
Continuous
100
AcDbLine
 10
288.6682749178863
 20
189.5963358305199
 30
0.0
 11
288.7490569178865
 21
189.61503283052
 31
0.0
  0
LINE
  5
4F9
330
18
100
AcDbEntity
  8
1
  6
Continuous
100
AcDbLine
 10
288.5877169178863
 20
189.5766828305199
 30
0.0
 11
288.6682749178863
 21
189.5963358305199
 31
0.0
  0
LINE
  5
4FA
330
18
100
AcDbEntity
  8
1
  6
Continuous
100
AcDbLine
 10
288.5073939178864
 20
189.5560508305199
 30
0.0
 11
288.5877169178865
 21
189.5766828305199
 31
0.0
  0
LINE
  5
4FB
330
18
100
AcDbEntity
  8
1
  6
Continuous
100
AcDbLine
 10
288.4273189178863
 20
189.5344198305199
 30
0.0
 11
288.5073939178864
 21
189.5560508305199
 31
0.0
  0
LINE
  5
4FC
330
18
100
AcDbEntity
  8
1
  6
Continuous
100
AcDbLine
 10
288.3475059178863
 20
189.5117688305199
 30
0.0
 11
288.4273189178863
 21
189.5344198305199
 31
0.0
  0
LINE
  5
4FD
330
18
100
AcDbEntity
  8
1
  6
Continuous
100
AcDbLine
 10
288.2679659178863
 20
189.4880768305199
 30
0.0
 11
288.3475059178863
 21
189.5117688305199
 31
0.0
  0
LINE
  5
4FE
330
18
100
AcDbEntity
  8
1
  6
Continuous
100
AcDbLine
 10
288.1887119178863
 20
189.46332183052
 30
0.0
 11
288.2679659178863
 21
189.4880768305199
 31
0.0
  0
LINE
  5
4FF
330
18
100
AcDbEntity
  8
1
  6
Continuous
100
AcDbLine
 10
288.1097569178864
 20
189.43748383052
 30
0.0
 11
288.1887119178863
 21
189.46332183052
 31
0.0
  0
LINE
  5
500
330
18
100
AcDbEntity
  8
1
  6
Continuous
100
AcDbLine
 10
288.0385069178863
 20
189.41312283052
 30
0.0
 11
288.1097569178864
 21
189.43748383052
 31
0.0
  0
LINE
  5
501
330
18
100
AcDbEntity
  8
1
  6
Continuous
100
AcDbLine
 10
287.9675489178864
 20
189.38782983052
 30
0.0
 11
288.0385069178863
 21
189.41312283052
 31
0.0
  0
LINE
  5
502
330
18
100
AcDbEntity
  8
1
  6
Continuous
100
AcDbLine
 10
287.8969209178864
 20
189.36157983052
 30
0.0
 11
287.9675489178864
 21
189.38782983052
 31
0.0
  0
LINE
  5
503
330
18
100
AcDbEntity
  8
1
  6
Continuous
100
AcDbLine
 10
287.8266599178863
 20
189.3343458305199
 30
0.0
 11
287.8969209178864
 21
189.36157983052
 31
0.0
  0
LINE
  5
504
330
18
100
AcDbEntity
  8
1
  6
Continuous
100
AcDbLine
 10
287.7568029178863
 20
189.30610383052
 30
0.0
 11
287.8266599178863
 21
189.3343458305199
 31
0.0
  0
LINE
  5
505
330
18
100
AcDbEntity
  8
1
  6
Continuous
100
AcDbLine
 10
287.6873869178863
 20
189.2768258305199
 30
0.0
 11
287.7568029178863
 21
189.30610383052
 31
0.0
  0
LINE
  5
506
330
18
100
AcDbEntity
  8
1
  6
Continuous
100
AcDbLine
 10
292.9756449178863
 20
186.8132208305199
 30
0.0
 11
292.9756449178863
 21
189.8132208305199
 31
0.0
  0
ARC
  5
507
330
18
100
AcDbEntity
  8
1
  6
Continuous
100
AcDbCircle
 10
309.9756449178863
 20
178.38348383052
 30
0.0
 40
1.0
100
AcDbArc
 50
0.0
 51
78.82083999999959
  0
ARC
  5
508
330
18
100
AcDbEntity
  8
1
  6
Continuous
100
AcDbCircle
 10
307.4756449178863
 20
183.5132218305199
 30
0.0
 40
1.0
100
AcDbArc
 50
270.0
 51
0.0
  0
LINE
  5
509
330
18
100
AcDbEntity
  8
1
  6
Continuous
100
AcDbLine
 10
308.4756449178863
 20
185.2132218305199
 30
0.0
 11
308.4756449178863
 21
183.5132218305199
 31
0.0
  0
ARC
  5
50A
330
18
100
AcDbEntity
  8
1
  6
Continuous
100
AcDbCircle
 10
308.1756449178862
 20
185.2132218305199
 30
0.0
 40
0.3
100
AcDbArc
 50
0.0
 51
90.0
  0
LINE
  5
50B
330
18
100
AcDbEntity
  8
1
  6
Continuous
100
AcDbLine
 10
304.9756449178863
 20
186.8132208305199
 30
0.0
 11
295.9756449178863
 21
186.8132208305199
 31
0.0
  0
LINE
  5
50C
330
18
100
AcDbEntity
  8
1
  6
Continuous
100
AcDbLine
 10
307.9756449178863
 20
186.8132208305199
 30
0.0
 11
311.5030959178862
 21
186.8132208305199
 31
0.0
  0
LINE
  5
50D
330
18
100
AcDbEntity
  8
1
  6
Continuous
100
AcDbLine
 10
307.9756449178863
 20
186.8132208305199
 30
0.0
 11
307.9756449178863
 21
189.8132208305199
 31
0.0
  0
LINE
  5
50E
330
18
100
AcDbEntity
  8
1
  6
Continuous
100
AcDbLine
 10
304.9756449178863
 20
186.8132208305199
 30
0.0
 11
307.9756449178863
 21
186.8132208305199
 31
0.0
  0
LINE
  5
50F
330
18
100
AcDbEntity
  8
1
  6
Continuous
100
AcDbLine
 10
312.1393119178863
 20
189.6301368305199
 30
0.0
 11
312.2198369178863
 21
189.6118118305199
 31
0.0
  0
LINE
  5
510
330
18
100
AcDbEntity
  8
1
  6
Continuous
100
AcDbLine
 10
312.0251009178863
 20
189.6546348305199
 30
0.0
 11
312.1393119178863
 21
189.6301368305199
 31
0.0
  0
LINE
  5
511
330
18
100
AcDbEntity
  8
1
  6
Continuous
100
AcDbLine
 10
311.9105269178863
 20
189.67746783052
 30
0.0
 11
312.0251009178863
 21
189.6546348305199
 31
0.0
  0
LINE
  5
512
330
18
100
AcDbEntity
  8
1
  6
Continuous
100
AcDbLine
 10
311.7956209178863
 20
189.6986198305199
 30
0.0
 11
311.9105269178863
 21
189.67746783052
 31
0.0
  0
LINE
  5
513
330
18
100
AcDbEntity
  8
1
  6
Continuous
100
AcDbLine
 10
311.6804139178863
 20
189.7180738305199
 30
0.0
 11
311.7956209178863
 21
189.6986198305199
 31
0.0
  0
LINE
  5
514
330
18
100
AcDbEntity
  8
1
  6
Continuous
100
AcDbLine
 10
311.5649359178863
 20
189.7358148305199
 30
0.0
 11
311.6804139178863
 21
189.7180738305199
 31
0.0
  0
LINE
  5
515
330
18
100
AcDbEntity
  8
1
  6
Continuous
100
AcDbLine
 10
311.4492189178864
 20
189.7518258305199
 30
0.0
 11
311.5649359178863
 21
189.7358148305199
 31
0.0
  0
LINE
  5
516
330
18
100
AcDbEntity
  8
1
  6
Continuous
100
AcDbLine
 10
311.3332929178864
 20
189.7660908305199
 30
0.0
 11
311.4492189178864
 21
189.7518258305199
 31
0.0
  0
LINE
  5
517
330
18
100
AcDbEntity
  8
1
  6
Continuous
100
AcDbLine
 10
311.2171889178863
 20
189.7785938305199
 30
0.0
 11
311.3332929178864
 21
189.7660908305199
 31
0.0
  0
LINE
  5
518
330
18
100
AcDbEntity
  8
1
  6
Continuous
100
AcDbLine
 10
311.1009369178863
 20
189.7893178305199
 30
0.0
 11
311.2171889178863
 21
189.7785938305199
 31
0.0
  0
LINE
  5
519
330
18
100
AcDbEntity
  8
1
  6
Continuous
100
AcDbLine
 10
310.9845689178864
 20
189.7982468305199
 30
0.0
 11
311.1009369178863
 21
189.7893178305199
 31
0.0
  0
LINE
  5
51A
330
18
100
AcDbEntity
  8
1
  6
Continuous
100
AcDbLine
 10
310.8681159178863
 20
189.8053648305198
 30
0.0
 11
310.9845689178864
 21
189.7982468305199
 31
0.0
  0
LINE
  5
51B
330
18
100
AcDbEntity
  8
1
  6
Continuous
100
AcDbLine
 10
310.7516069178863
 20
189.8106558305199
 30
0.0
 11
310.8681159178863
 21
189.8053648305199
 31
0.0
  0
LINE
  5
51C
330
18
100
AcDbEntity
  8
1
  6
Continuous
100
AcDbLine
 10
310.6350749178862
 20
189.8141028305199
 30
0.0
 11
310.7516069178863
 21
189.8106558305199
 31
0.0
  0
LINE
  5
51D
330
18
100
AcDbEntity
  8
1
  6
Continuous
100
AcDbLine
 10
310.5185479178864
 20
189.8156908305199
 30
0.0
 11
310.6350749178862
 21
189.8141028305199
 31
0.0
  0
LINE
  5
51E
330
18
100
AcDbEntity
  8
1
  6
Continuous
100
AcDbLine
 10
310.4020599178864
 20
189.8154018305199
 30
0.0
 11
310.5185479178864
 21
189.8156908305199
 31
0.0
  0
LINE
  5
51F
330
18
100
AcDbEntity
  8
1
  6
Continuous
100
AcDbLine
 10
310.2856389178863
 20
189.8132208305199
 30
0.0
 11
310.4020599178864
 21
189.8154018305199
 31
0.0
  0
LINE
  5
520
330
18
100
AcDbEntity
  8
1
  6
Continuous
100
AcDbLine
 10
319.4756449178863
 20
186.8715028305199
 30
0.0
 11
319.4756449178863
 21
156.31322083052
 31
0.0
  0
LINE
  5
521
330
18
100
AcDbEntity
  8
1
  6
Continuous
100
AcDbLine
 10
316.4756449178863
 20
182.5132218305199
 30
0.0
 11
316.4756449178863
 21
156.31322083052
 31
0.0
  0
LINE
  5
522
330
18
100
AcDbEntity
  8
1
  6
Continuous
100
AcDbLine
 10
321.4756449178863
 20
169.31322083052
 30
0.0
 11
321.4756449178863
 21
159.31322083052
 31
0.0
  0
LINE
  5
523
330
18
100
AcDbEntity
  8
1
  6
Continuous
100
AcDbLine
 10
315.9756449178863
 20
170.86007183052
 30
0.0
 11
315.9756449178863
 21
157.76636983052
 31
0.0
  0
LINE
  5
524
330
18
100
AcDbEntity
  8
1
  6
Continuous
100
AcDbLine
 10
320.4756449178863
 20
158.31322083052
 30
0.0
 11
319.4756449178863
 21
158.31322083052
 31
0.0
  0
LINE
  5
525
330
18
100
AcDbEntity
  8
1
  6
Continuous
100
AcDbLine
 10
319.4756449178863
 20
156.31322083052
 30
0.0
 11
316.4756449178863
 21
156.31322083052
 31
0.0
  0
LINE
  5
526
330
18
100
AcDbEntity
  8
1
  6
Continuous
100
AcDbLine
 10
316.4756449178863
 20
160.31322083052
 30
0.0
 11
315.9756449178863
 21
160.31322083052
 31
0.0
  0
ARC
  5
527
330
18
100
AcDbEntity
  8
1
  6
Continuous
100
AcDbCircle
 10
315.4756449178863
 20
157.76636983052
 30
0.0
 40
0.5
100
AcDbArc
 50
275.6281430000003
 51
0.0
  0
ARC
  5
528
330
18
100
AcDbEntity
  8
1
  6
Continuous
100
AcDbCircle
 10
320.4756449178863
 20
159.31322083052
 30
0.0
 40
1.0
100
AcDbArc
 50
270.0
 51
0.0
  0
LINE
  5
529
330
18
100
AcDbEntity
  8
1
  6
Continuous
100
AcDbLine
 10
319.4756449178863
 20
170.31322083052
 30
0.0
 11
320.4756449178863
 21
170.31322083052
 31
0.0
  0
LINE
  5
52A
330
18
100
AcDbEntity
  8
1
  6
Continuous
100
AcDbLine
 10
315.9756449178863
 20
168.31322083052
 30
0.0
 11
316.4756449178863
 21
168.31322083052
 31
0.0
  0
ARC
  5
52B
330
18
100
AcDbEntity
  8
1
  6
Continuous
100
AcDbCircle
 10
315.4756449178863
 20
170.86007183052
 30
0.0
 40
0.5
100
AcDbArc
 50
0.0
 51
84.37185699999965
  0
ARC
  5
52C
330
18
100
AcDbEntity
  8
1
  6
Continuous
100
AcDbCircle
 10
320.4756449178863
 20
169.31322083052
 30
0.0
 40
1.0
100
AcDbArc
 50
0.0
 51
90.0
  0
ARC
  5
52D
330
18
100
AcDbEntity
  8
1
  6
Continuous
100
AcDbCircle
 10
233.9237179178863
 20
118.4509378305198
 30
0.0
 40
106.748126
100
AcDbArc
 50
36.87889400000043
 51
40.87864901823505
  0
LINE
  5
52E
330
18
100
AcDbEntity
  8
1
  6
Continuous
100
AcDbLine
 10
319.4756449178863
 20
182.5132218305199
 30
0.0
 11
315.4506989178863
 21
182.5132218305199
 31
0.0
  0
LINE
  5
52F
330
18
100
AcDbEntity
  8
1
  6
Continuous
100
AcDbLine
 10
314.6178719178864
 20
188.3330668305198
 30
0.0
 11
314.6356989178863
 21
188.3132208305198
 31
0.0
  0
LINE
  5
530
330
18
100
AcDbEntity
  8
1
  6
Continuous
100
AcDbLine
 10
314.5999049178863
 20
188.3527908305199
 30
0.0
 11
314.6178719178864
 21
188.3330668305199
 31
0.0
  0
LINE
  5
531
330
18
100
AcDbEntity
  8
1
  6
Continuous
100
AcDbLine
 10
314.5817989178863
 20
188.3723918305199
 30
0.0
 11
314.5999049178862
 21
188.3527908305199
 31
0.0
  0
LINE
  5
532
330
18
100
AcDbEntity
  8
1
  6
Continuous
100
AcDbLine
 10
314.5635519178862
 20
188.3918648305199
 30
0.0
 11
314.5817989178863
 21
188.3723918305199
 31
0.0
  0
LINE
  5
533
330
18
100
AcDbEntity
  8
1
  6
Continuous
100
AcDbLine
 10
314.5451639178864
 20
188.4112088305199
 30
0.0
 11
314.5635519178863
 21
188.3918648305199
 31
0.0
  0
LINE
  5
534
330
18
100
AcDbEntity
  8
1
  6
Continuous
100
AcDbLine
 10
314.5266339178864
 20
188.4304188305199
 30
0.0
 11
314.5451639178864
 21
188.4112088305199
 31
0.0
  0
LINE
  5
535
330
18
100
AcDbEntity
  8
1
  6
Continuous
100
AcDbLine
 10
314.5079629178864
 20
188.4494938305199
 30
0.0
 11
314.5266339178864
 21
188.4304188305199
 31
0.0
  0
LINE
  5
536
330
18
100
AcDbEntity
  8
1
  6
Continuous
100
AcDbLine
 10
314.4891499178863
 20
188.4684298305199
 30
0.0
 11
314.5079629178864
 21
188.4494938305199
 31
0.0
  0
LINE
  5
537
330
18
100
AcDbEntity
  8
1
  6
Continuous
100
AcDbLine
 10
314.4701939178862
 20
188.4872248305198
 30
0.0
 11
314.4891499178863
 21
188.4684298305199
 31
0.0
  0
LINE
  5
538
330
18
100
AcDbEntity
  8
1
  6
Continuous
100
AcDbLine
 10
314.4510949178863
 20
188.5058738305199
 30
0.0
 11
314.4701939178863
 21
188.4872248305198
 31
0.0
  0
LINE
  5
539
330
18
100
AcDbEntity
  8
1
  6
Continuous
100
AcDbLine
 10
314.4318519178863
 20
188.5243768305199
 30
0.0
 11
314.4510949178863
 21
188.5058738305199
 31
0.0
  0
LINE
  5
53A
330
18
100
AcDbEntity
  8
1
  6
Continuous
100
AcDbLine
 10
314.4124649178863
 20
188.54272783052
 30
0.0
 11
314.4318519178863
 21
188.5243768305199
 31
0.0
  0
LINE
  5
53B
330
18
100
AcDbEntity
  8
1
  6
Continuous
100
AcDbLine
 10
314.3929339178864
 20
188.5609268305199
 30
0.0
 11
314.4124649178863
 21
188.5427278305201
 31
0.0
  0
LINE
  5
53C
330
18
100
AcDbEntity
  8
1
  6
Continuous
100
AcDbLine
 10
314.3732569178863
 20
188.5789688305198
 30
0.0
 11
314.3929339178861
 21
188.5609268305199
 31
0.0
  0
LINE
  5
53D
330
18
100
AcDbEntity
  8
1
  6
Continuous
100
AcDbLine
 10
314.3534349178863
 20
188.5968508305199
 30
0.0
 11
314.3732569178864
 21
188.5789688305199
 31
0.0
  0
LINE
  5
53E
330
18
100
AcDbEntity
  8
1
  6
Continuous
100
AcDbLine
 10
314.3334679178863
 20
188.61457083052
 30
0.0
 11
314.3534349178863
 21
188.5968508305199
 31
0.0
  0
LINE
  5
53F
330
18
100
AcDbEntity
  8
1
  6
Continuous
100
AcDbLine
 10
314.2803979178864
 20
188.6602748305199
 30
0.0
 11
314.3334679178863
 21
188.61457083052
 31
0.0
  0
LINE
  5
540
330
18
100
AcDbEntity
  8
1
  6
Continuous
100
AcDbLine
 10
314.2263599178862
 20
188.70485483052
 30
0.0
 11
314.2803979178864
 21
188.6602748305199
 31
0.0
  0
LINE
  5
541
330
18
100
AcDbEntity
  8
1
  6
Continuous
100
AcDbLine
 10
314.1713939178864
 20
188.7483218305199
 30
0.0
 11
314.2263599178864
 21
188.70485483052
 31
0.0
  0
LINE
  5
542
330
18
100
AcDbEntity
  8
1
  6
Continuous
100
AcDbLine
 10
314.1155389178864
 20
188.7906888305199
 30
0.0
 11
314.1713939178864
 21
188.7483218305199
 31
0.0
  0
LINE
  5
543
330
18
100
AcDbEntity
  8
1
  6
Continuous
100
AcDbLine
 10
314.0588339178863
 20
188.8319688305199
 30
0.0
 11
314.1155389178864
 21
188.7906888305199
 31
0.0
  0
LINE
  5
544
330
18
100
AcDbEntity
  8
1
  6
Continuous
100
AcDbLine
 10
314.0013189178862
 20
188.8721748305199
 30
0.0
 11
314.0588339178863
 21
188.8319688305199
 31
0.0
  0
LINE
  5
545
330
18
100
AcDbEntity
  8
1
  6
Continuous
100
AcDbLine
 10
313.9430339178864
 20
188.9113168305199
 30
0.0
 11
314.0013189178864
 21
188.8721748305199
 31
0.0
  0
LINE
  5
546
330
18
100
AcDbEntity
  8
1
  6
Continuous
100
AcDbLine
 10
313.8840159178863
 20
188.9494088305199
 30
0.0
 11
313.9430339178864
 21
188.9113168305199
 31
0.0
  0
LINE
  5
547
330
18
100
AcDbEntity
  8
1
  6
Continuous
100
AcDbLine
 10
313.8243069178863
 20
188.98646383052
 30
0.0
 11
313.8840159178863
 21
188.9494088305199
 31
0.0
  0
LINE
  5
548
330
18
100
AcDbEntity
  8
1
  6
Continuous
100
AcDbLine
 10
313.7639449178863
 20
189.0224928305199
 30
0.0
 11
313.8243069178864
 21
188.98646383052
 31
0.0
  0
LINE
  5
549
330
18
100
AcDbEntity
  8
1
  6
Continuous
100
AcDbLine
 10
313.7029689178863
 20
189.0575088305199
 30
0.0
 11
313.7639449178863
 21
189.0224928305199
 31
0.0
  0
LINE
  5
54A
330
18
100
AcDbEntity
  8
1
  6
Continuous
100
AcDbLine
 10
313.6414199178863
 20
189.0915238305199
 30
0.0
 11
313.7029689178863
 21
189.0575088305199
 31
0.0
  0
LINE
  5
54B
330
18
100
AcDbEntity
  8
1
  6
Continuous
100
AcDbLine
 10
313.5793359178864
 20
189.1245498305199
 30
0.0
 11
313.6414199178862
 21
189.0915238305199
 31
0.0
  0
LINE
  5
54C
330
18
100
AcDbEntity
  8
1
  6
Continuous
100
AcDbLine
 10
313.5167559178863
 20
189.1566008305199
 30
0.0
 11
313.5793359178864
 21
189.1245498305199
 31
0.0
  0
LINE
  5
54D
330
18
100
AcDbEntity
  8
1
  6
Continuous
100
AcDbLine
 10
313.4537209178863
 20
189.18768783052
 30
0.0
 11
313.5167559178863
 21
189.1566008305199
 31
0.0
  0
LINE
  5
54E
330
18
100
AcDbEntity
  8
1
  6
Continuous
100
AcDbLine
 10
313.3902689178863
 20
189.2178238305199
 30
0.0
 11
313.4537209178863
 21
189.18768783052
 31
0.0
  0
LINE
  5
54F
330
18
100
AcDbEntity
  8
1
  6
Continuous
100
AcDbLine
 10
313.3151349178863
 20
189.2520768305199
 30
0.0
 11
313.3902689178863
 21
189.2178238305199
 31
0.0
  0
LINE
  5
550
330
18
100
AcDbEntity
  8
1
  6
Continuous
100
AcDbLine
 10
313.2394999178864
 20
189.2850608305199
 30
0.0
 11
313.3151349178863
 21
189.2520768305199
 31
0.0
  0
LINE
  5
551
330
18
100
AcDbEntity
  8
1
  6
Continuous
100
AcDbLine
 10
313.1633829178864
 20
189.3168038305199
 30
0.0
 11
313.2394999178864
 21
189.2850608305199
 31
0.0
  0
LINE
  5
552
330
18
100
AcDbEntity
  8
1
  6
Continuous
100
AcDbLine
 10
313.0868049178864
 20
189.3473378305199
 30
0.0
 11
313.1633829178865
 21
189.3168038305199
 31
0.0
  0
LINE
  5
553
330
18
100
AcDbEntity
  8
1
  6
Continuous
100
AcDbLine
 10
313.0097859178864
 20
189.3766898305199
 30
0.0
 11
313.0868049178864
 21
189.3473378305199
 31
0.0
  0
LINE
  5
554
330
18
100
AcDbEntity
  8
1
  6
Continuous
100
AcDbLine
 10
312.9323469178864
 20
189.4048918305199
 30
0.0
 11
313.0097859178864
 21
189.3766898305199
 31
0.0
  0
LINE
  5
555
330
18
100
AcDbEntity
  8
1
  6
Continuous
100
AcDbLine
 10
312.8545089178864
 20
189.4319718305198
 30
0.0
 11
312.9323469178864
 21
189.4048918305199
 31
0.0
  0
LINE
  5
556
330
18
100
AcDbEntity
  8
1
  6
Continuous
100
AcDbLine
 10
312.7762899178863
 20
189.45796083052
 30
0.0
 11
312.8545089178864
 21
189.4319718305198
 31
0.0
  0
LINE
  5
557
330
18
100
AcDbEntity
  8
1
  6
Continuous
100
AcDbLine
 10
312.6977119178864
 20
189.4828878305198
 30
0.0
 11
312.7762899178863
 21
189.45796083052
 31
0.0
  0
LINE
  5
558
330
18
100
AcDbEntity
  8
1
  6
Continuous
100
AcDbLine
 10
312.6187949178863
 20
189.5067818305199
 30
0.0
 11
312.6977119178862
 21
189.4828878305198
 31
0.0
  0
LINE
  5
559
330
18
100
AcDbEntity
  8
1
  6
Continuous
100
AcDbLine
 10
312.5395599178864
 20
189.5296748305199
 30
0.0
 11
312.6187949178863
 21
189.5067818305199
 31
0.0
  0
LINE
  5
55A
330
18
100
AcDbEntity
  8
1
  6
Continuous
100
AcDbLine
 10
312.4600259178862
 20
189.5515938305199
 30
0.0
 11
312.5395599178864
 21
189.5296748305199
 31
0.0
  0
LINE
  5
55B
330
18
100
AcDbEntity
  8
1
  6
Continuous
100
AcDbLine
 10
312.3802139178861
 20
189.5725698305199
 30
0.0
 11
312.4600259178861
 21
189.5515938305198
 31
0.0
  0
LINE
  5
55C
330
18
100
AcDbEntity
  8
1
  6
Continuous
100
AcDbLine
 10
312.3001439178863
 20
189.5926328305199
 30
0.0
 11
312.3802139178863
 21
189.5725698305199
 31
0.0
  0
ARC
  5
55D
330
18
100
AcDbEntity
  8
1
  6
Continuous
100
AcDbCircle
 10
316.4748339178864
 20
186.8118168305199
 30
0.0
 40
3.001403999999998
100
AcDbArc
 50
358.8605440000002
 51
89.98452599999991
  0
ARC
  5
55E
330
18
100
AcDbEntity
  8
1
  6
Continuous
100
AcDbCircle
 10
322.5842789178863
 20
192.81322083052
 30
0.0
 40
3.0
100
AcDbArc
 50
270.0
 51
344.53399
  0
LINE
  5
55F
330
18
100
AcDbEntity
  8
1
  6
Continuous
100
AcDbLine
 10
335.4756449178863
 20
192.0132208305199
 30
0.0
 11
335.4756449178863
 21
194.8132208305199
 31
0.0
  0
LINE
  5
634
330
18
100
AcDbEntity
  8
4
  6
CENTER
100
AcDbLine
 10
156.1569960180763
 20
189.0132208305199
 30
0.0
 11
156.1569960180763
 21
197.8132208305199
 31
0.0
  0
LINE
  5
635
330
18
100
AcDbEntity
  8
4
  6
CENTER
100
AcDbLine
 10
208.1569960180763
 20
189.0132208305199
 30
0.0
 11
208.1569960180763
 21
197.8132208305199
 31
0.0
  0
LINE
  5
636
330
18
100
AcDbEntity
  8
4
  6
CENTER
100
AcDbLine
 10
326.4756429178863
 20
189.0132208305199
 30
0.0
 11
326.4756429178863
 21
197.8132208305199
 31
0.0
  0
LINE
  5
637
330
18
100
AcDbEntity
  8
4
  6
CENTER
100
AcDbLine
 10
274.4756429178863
 20
189.0132208305199
 30
0.0
 11
274.4756429178863
 21
197.8132208305199
 31
0.0
  0
LINE
  5
847
330
18
100
AcDbEntity
  8
1
  6
Continuous
100
AcDbLine
 10
28.83835111826646
 20
194.8132208305199
 30
0.0
 11
98.83835111826636
 21
194.8132208305199
 31
0.0
  0
LINE
  5
848
330
18
100
AcDbEntity
  8
1
  6
Continuous
100
AcDbLine
 10
28.83835111826646
 20
192.0132208305199
 30
0.0
 11
98.83835111826636
 21
192.0132208305199
 31
0.0
  0
LINE
  5
849
330
18
100
AcDbEntity
  8
1
  6
Continuous
100
AcDbLine
 10
98.83835111826636
 20
192.0132208305199
 30
0.0
 11
98.83835111826636
 21
194.8132208305199
 31
0.0
  0
LINE
  5
84D
330
18
100
AcDbEntity
  8
4
  6
CENTER
100
AcDbLine
 10
63.83835111826636
 20
200.2148609313048
 30
0.0
 11
63.83835111826636
 21
145.3346942265575
 31
0.0
  0
LINE
  5
84E
330
18
100
AcDbEntity
  8
1
  6
Continuous
100
AcDbLine
 10
47.83835111826635
 20
182.5132218305199
 30
0.0
 11
47.83835111826635
 21
156.31322083052
 31
0.0
  0
LINE
  5
84F
330
18
100
AcDbEntity
  8
1
  6
Continuous
100
AcDbLine
 10
44.83835111826645
 20
186.8715028305199
 30
0.0
 11
44.83835111826645
 21
156.31322083052
 31
0.0
  0
LINE
  5
850
330
18
100
AcDbEntity
  8
1
  6
Continuous
100
AcDbLine
 10
79.83835111826635
 20
182.5132218305199
 30
0.0
 11
79.83835111826635
 21
156.31322083052
 31
0.0
  0
LINE
  5
851
330
18
100
AcDbEntity
  8
1
  6
Continuous
100
AcDbLine
 10
82.83835111826636
 20
186.8715028305199
 30
0.0
 11
82.83835111826636
 21
156.31322083052
 31
0.0
  0
ARC
  5
853
330
18
100
AcDbEntity
  8
1
  6
Continuous
100
AcDbCircle
 10
63.83835111826636
 20
130.3132208305199
 30
0.0
 40
50.0
100
AcDbArc
 50
78.82083999999963
 51
101.1791600000004
  0
ARC
  5
854
330
18
100
AcDbEntity
  8
1
  6
Continuous
100
AcDbCircle
 10
63.83835111826636
 20
198.3132208305199
 30
0.0
 40
50.0
100
AcDbArc
 50
258.8208399999995
 51
281.1791600000004
  0
LINE
  5
855
330
18
100
AcDbEntity
  8
4
  6
CENTER
100
AcDbLine
 10
39.83835111826646
 20
164.31322083052
 30
0.0
 11
87.83835111826636
 21
164.31322083052
 31
0.0
  0
LINE
  5
856
330
18
100
AcDbEntity
  8
1
  6
Continuous
100
AcDbLine
 10
79.33835111826636
 20
170.8600708305199
 30
0.0
 11
79.33835111826636
 21
157.76637083052
 31
0.0
  0
LINE
  5
857
330
18
100
AcDbEntity
  8
1
  6
Continuous
100
AcDbLine
 10
85.83835111826635
 20
169.31322083052
 30
0.0
 11
85.83835111826635
 21
159.31322083052
 31
0.0
  0
LINE
  5
858
330
18
100
AcDbEntity
  8
1
  6
Continuous
100
AcDbLine
 10
74.33835111826636
 20
178.38348383052
 30
0.0
 11
74.33835111826636
 21
150.2429578305199
 31
0.0
  0
LINE
  5
859
330
18
100
AcDbEntity
  8
1
  6
Continuous
100
AcDbLine
 10
79.83835111826635
 20
156.31322083052
 30
0.0
 11
82.83835111826636
 21
156.31322083052
 31
0.0
  0
ARC
  5
85A
330
18
100
AcDbEntity
  8
1
  6
Continuous
100
AcDbCircle
 10
84.83835111826634
 20
159.31322083052
 30
0.0
 40
1.0
100
AcDbArc
 50
270.0
 51
0.000000000000007
  0
ARC
  5
85B
330
18
100
AcDbEntity
  8
1
  6
Continuous
100
AcDbCircle
 10
83.33835111826635
 20
158.81322083052
 30
0.0
 40
0.5
100
AcDbArc
 50
180.0
 51
270.0
  0
LINE
  5
85C
330
18
100
AcDbEntity
  8
1
  6
Continuous
100
AcDbLine
 10
83.33835111826635
 20
158.31322083052
 30
0.0
 11
84.83835111826634
 21
158.31322083052
 31
0.0
  0
ARC
  5
85D
330
18
100
AcDbEntity
  8
1
  6
Continuous
100
AcDbCircle
 10
73.33835111826636
 20
150.2429578305199
 30
0.0
 40
1.0
100
AcDbArc
 50
281.1791600000004
 51
0.000000000000007
  0
LINE
  5
85E
330
18
100
AcDbEntity
  8
1
  6
Continuous
100
AcDbLine
 10
74.33835111826647
 20
156.8204878305199
 30
0.0
 11
78.88738711826647
 21
157.2687808305199
 31
0.0
  0
ARC
  5
85F
330
18
100
AcDbEntity
  8
1
  6
Continuous
100
AcDbCircle
 10
78.83835111826636
 20
157.76637083052
 30
0.0
 40
0.5
100
AcDbArc
 50
275.6281430000003
 51
0.000000000000007
  0
ARC
  5
860
330
18
100
AcDbEntity
  8
1
  6
Continuous
100
AcDbCircle
 10
84.83835111826634
 20
169.31322083052
 30
0.0
 40
1.0
100
AcDbArc
 50
0.000000000000007
 51
90.0
  0
ARC
  5
861
330
18
100
AcDbEntity
  8
1
  6
Continuous
100
AcDbCircle
 10
83.33835111826635
 20
169.81322083052
 30
0.0
 40
0.5
100
AcDbArc
 50
90.0
 51
180.0
  0
LINE
  5
862
330
18
100
AcDbEntity
  8
1
  6
Continuous
100
AcDbLine
 10
84.83835111826634
 20
170.31322083052
 30
0.0
 11
83.33835111826635
 21
170.31322083052
 31
0.0
  0
LINE
  5
863
330
18
100
AcDbEntity
  8
1
  6
Continuous
100
AcDbLine
 10
79.83835111826635
 20
168.31322083052
 30
0.0
 11
79.33835111826636
 21
168.31322083052
 31
0.0
  0
LINE
  5
864
330
18
100
AcDbEntity
  8
1
  6
Continuous
100
AcDbLine
 10
79.33835111826636
 20
160.31322083052
 30
0.0
 11
79.83835111826635
 21
160.31322083052
 31
0.0
  0
ARC
  5
865
330
18
100
AcDbEntity
  8
1
  6
Continuous
100
AcDbCircle
 10
73.33835111826636
 20
178.38348383052
 30
0.0
 40
1.0
100
AcDbArc
 50
0.000000000000007
 51
78.82083999999963
  0
LINE
  5
866
330
18
100
AcDbEntity
  8
1
  6
Continuous
100
AcDbLine
 10
78.88738711826636
 20
171.3576608305199
 30
0.0
 11
74.33835111826636
 21
171.8059538305199
 31
0.0
  0
ARC
  5
867
330
18
100
AcDbEntity
  8
1
  6
Continuous
100
AcDbCircle
 10
78.83835111826636
 20
170.8600708305199
 30
0.0
 40
0.5
100
AcDbArc
 50
0.000000000000007
 51
84.37185699999968
  0
LINE
  5
868
330
18
100
AcDbEntity
  8
1
  6
Continuous
100
AcDbLine
 10
48.33835111826636
 20
170.86007183052
 30
0.0
 11
48.33835111826636
 21
157.76636983052
 31
0.0
  0
LINE
  5
869
330
18
100
AcDbEntity
  8
1
  6
Continuous
100
AcDbLine
 10
42.83835111826646
 20
169.31322083052
 30
0.0
 11
42.83835111826646
 21
159.31322083052
 31
0.0
  0
LINE
  5
86A
330
18
100
AcDbEntity
  8
1
  6
Continuous
100
AcDbLine
 10
53.33835111826636
 20
178.38348383052
 30
0.0
 11
53.33835111826636
 21
150.2429578305199
 31
0.0
  0
LINE
  5
86B
330
18
100
AcDbEntity
  8
1
  6
Continuous
100
AcDbLine
 10
48.78931511826635
 20
157.26877983052
 30
0.0
 11
53.33835111826636
 21
156.8204868305199
 31
0.0
  0
ARC
  5
86C
330
18
100
AcDbEntity
  8
1
  6
Continuous
100
AcDbCircle
 10
54.33835111826636
 20
150.2429578305199
 30
0.0
 40
1.0
100
AcDbArc
 50
180.0
 51
258.8208399999995
  0
ARC
  5
86D
330
18
100
AcDbEntity
  8
1
  6
Continuous
100
AcDbCircle
 10
43.83835111826646
 20
159.31322083052
 30
0.0
 40
1.0
100
AcDbArc
 50
180.0
 51
270.0
  0
LINE
  5
86E
330
18
100
AcDbEntity
  8
1
  6
Continuous
100
AcDbLine
 10
43.83835111826646
 20
158.31322083052
 30
0.0
 11
44.83835111826645
 21
158.31322083052
 31
0.0
  0
LINE
  5
86F
330
18
100
AcDbEntity
  8
1
  6
Continuous
100
AcDbLine
 10
44.83835111826645
 20
156.31322083052
 30
0.0
 11
47.83835111826635
 21
156.31322083052
 31
0.0
  0
ARC
  5
870
330
18
100
AcDbEntity
  8
1
  6
Continuous
100
AcDbCircle
 10
48.83835111826636
 20
157.76636983052
 30
0.0
 40
0.5
100
AcDbArc
 50
180.0
 51
264.3718569999995
  0
LINE
  5
871
330
18
100
AcDbEntity
  8
1
  6
Continuous
100
AcDbLine
 10
53.33835111826636
 20
171.8059548305198
 30
0.0
 11
48.78931511826635
 21
171.3576618305198
 31
0.0
  0
ARC
  5
872
330
18
100
AcDbEntity
  8
1
  6
Continuous
100
AcDbCircle
 10
54.33835111826636
 20
178.38348383052
 30
0.0
 40
1.0
100
AcDbArc
 50
101.1791600000004
 51
180.0
  0
ARC
  5
873
330
18
100
AcDbEntity
  8
1
  6
Continuous
100
AcDbCircle
 10
43.83835111826646
 20
169.31322083052
 30
0.0
 40
1.0
100
AcDbArc
 50
90.0
 51
180.0
  0
LINE
  5
874
330
18
100
AcDbEntity
  8
1
  6
Continuous
100
AcDbLine
 10
48.33835111826636
 20
168.31322083052
 30
0.0
 11
47.83835111826635
 21
168.31322083052
 31
0.0
  0
LINE
  5
875
330
18
100
AcDbEntity
  8
1
  6
Continuous
100
AcDbLine
 10
44.83835111826645
 20
170.31322083052
 30
0.0
 11
43.83835111826646
 21
170.31322083052
 31
0.0
  0
LINE
  5
876
330
18
100
AcDbEntity
  8
1
  6
Continuous
100
AcDbLine
 10
47.83835111826635
 20
160.31322083052
 30
0.0
 11
48.33835111826636
 21
160.31322083052
 31
0.0
  0
ARC
  5
877
330
18
100
AcDbEntity
  8
1
  6
Continuous
100
AcDbCircle
 10
48.83835111826636
 20
170.86007183052
 30
0.0
 40
0.5
100
AcDbArc
 50
95.62814300000031
 51
180.0
  0
LINE
  5
879
330
18
100
AcDbEntity
  8
1
  6
Continuous
100
AcDbLine
 10
56.83835111826636
 20
182.5132218305199
 30
0.0
 11
70.83835111826636
 21
182.5132218305199
 31
0.0
  0
LINE
  5
87A
330
18
100
AcDbEntity
  8
1
  6
Continuous
100
AcDbLine
 10
53.31019211826628
 20
185.5132218305199
 30
0.0
 11
74.36651011826632
 21
185.5132218305199
 31
0.0
  0
LINE
  5
87B
330
18
100
AcDbEntity
  8
1
  6
Continuous
100
AcDbLine
 10
41.72971711826629
 20
189.8132208305199
 30
0.0
 11
85.94698511826633
 21
189.8132208305199
 31
0.0
  0
LINE
  5
87C
330
18
100
AcDbEntity
  8
1
  6
Continuous
100
AcDbLine
 10
59.33835111826636
 20
186.8132208305199
 30
0.0
 11
68.33835111826636
 21
186.8132208305199
 31
0.0
  0
ARC
  5
87D
330
18
100
AcDbEntity
  8
1
  6
Continuous
100
AcDbCircle
 10
79.83754011826636
 20
186.8118168305199
 30
0.0
 40
3.001403999999998
100
AcDbArc
 50
358.8605440000002
 51
89.98452599999991
  0
ARC
  5
87E
330
18
100
AcDbEntity
  8
1
  6
Continuous
100
AcDbCircle
 10
-5.647585881733673
 20
116.0852848305199
 30
0.0
 40
110.514825
100
AcDbArc
 50
36.94708200000047
 51
40.81046099999972
  0
LINE
  5
87F
330
18
100
AcDbEntity
  8
1
  6
Continuous
100
AcDbLine
 10
78.81340511826635
 20
182.5132218305199
 30
0.0
 11
82.83835111826636
 21
182.5132218305199
 31
0.0
  0
ARC
  5
880
330
18
100
AcDbEntity
  8
1
  6
Continuous
100
AcDbCircle
 10
85.94698511826633
 20
192.81322083052
 30
0.0
 40
3.0
100
AcDbArc
 50
270.0
 51
344.53399
  0
LINE
  5
881
330
18
100
AcDbEntity
  8
4
  6
CENTER
100
AcDbLine
 10
89.83835311826629
 20
189.0132208305199
 30
0.0
 11
89.83835311826629
 21
197.8132208305199
 31
0.0
  0
LINE
  5
882
330
18
100
AcDbEntity
  8
1
  6
Continuous
100
AcDbLine
 10
74.20242711826631
 20
189.8017158305199
 30
0.0
 11
74.12330711826633
 21
189.8056828305199
 31
0.0
  0
LINE
  5
883
330
18
100
AcDbEntity
  8
1
  6
Continuous
100
AcDbLine
 10
74.86580211826634
 20
186.8132208305199
 30
0.0
 11
71.33835111826636
 21
186.8132208305199
 31
0.0
  0
LINE
  5
884
330
18
100
AcDbEntity
  8
1
  6
Continuous
100
AcDbLine
 10
76.34644711826627
 20
189.38782983052
 30
0.0
 11
76.27548911826625
 21
189.41312283052
 31
0.0
  0
LINE
  5
885
330
18
100
AcDbEntity
  8
1
  6
Continuous
100
AcDbLine
 10
76.27548911826636
 20
189.41312283052
 30
0.0
 11
76.20423911826634
 21
189.43748383052
 31
0.0
  0
LINE
  5
886
330
18
100
AcDbEntity
  8
1
  6
Continuous
100
AcDbLine
 10
76.20423911826634
 20
189.43748383052
 30
0.0
 11
76.12528411826635
 21
189.46332183052
 31
0.0
  0
LINE
  5
887
330
18
100
AcDbEntity
  8
1
  6
Continuous
100
AcDbLine
 10
76.12528411826628
 20
189.46332183052
 30
0.0
 11
76.0460301182663
 21
189.4880768305199
 31
0.0
  0
LINE
  5
888
330
18
100
AcDbEntity
  8
1
  6
Continuous
100
AcDbLine
 10
76.04603011826634
 20
189.4880768305199
 30
0.0
 11
75.96649011826639
 21
189.5117688305199
 31
0.0
  0
LINE
  5
889
330
18
100
AcDbEntity
  8
1
  6
Continuous
100
AcDbLine
 10
75.96649011826626
 20
189.5117688305199
 30
0.0
 11
75.88667711826635
 21
189.5344198305199
 31
0.0
  0
LINE
  5
88A
330
18
100
AcDbEntity
  8
1
  6
Continuous
100
AcDbLine
 10
75.88667711826627
 20
189.5344198305199
 30
0.0
 11
75.80660211826625
 21
189.5560508305199
 31
0.0
  0
LINE
  5
88B
330
18
100
AcDbEntity
  8
1
  6
Continuous
100
AcDbLine
 10
75.80660211826625
 20
189.5560508305199
 30
0.0
 11
75.72627911826623
 21
189.5766828305199
 31
0.0
  0
LINE
  5
88C
330
18
100
AcDbEntity
  8
1
  6
Continuous
100
AcDbLine
 10
75.72627911826635
 20
189.5766828305199
 30
0.0
 11
75.64572111826634
 21
189.5963358305199
 31
0.0
  0
LINE
  5
88D
330
18
100
AcDbEntity
  8
1
  6
Continuous
100
AcDbLine
 10
75.64572111826634
 20
189.5963358305199
 30
0.0
 11
75.56493911826622
 21
189.61503283052
 31
0.0
  0
LINE
  5
88E
330
18
100
AcDbEntity
  8
1
  6
Continuous
100
AcDbLine
 10
75.56493911826634
 20
189.61503283052
 30
0.0
 11
75.48394711826631
 21
189.6327938305199
 31
0.0
  0
LINE
  5
88F
330
18
100
AcDbEntity
  8
1
  6
Continuous
100
AcDbLine
 10
75.48394711826631
 20
189.6327938305199
 30
0.0
 11
75.40275811826626
 21
189.6496408305199
 31
0.0
  0
LINE
  5
890
330
18
100
AcDbEntity
  8
1
  6
Continuous
100
AcDbLine
 10
75.40275811826626
 20
189.6496408305199
 30
0.0
 11
75.32138311826634
 21
189.6655938305199
 31
0.0
  0
LINE
  5
891
330
18
100
AcDbEntity
  8
1
  6
Continuous
100
AcDbLine
 10
75.32138311826634
 20
189.6655938305199
 30
0.0
 11
75.23983511826627
 21
189.6806738305199
 31
0.0
  0
LINE
  5
892
330
18
100
AcDbEntity
  8
1
  6
Continuous
100
AcDbLine
 10
75.23983511826627
 20
189.6806738305199
 30
0.0
 11
75.1581271182663
 21
189.69490283052
 31
0.0
  0
LINE
  5
893
330
18
100
AcDbEntity
  8
1
  6
Continuous
100
AcDbLine
 10
75.1581271182663
 20
189.69490283052
 30
0.0
 11
75.07627211826627
 21
189.70830083052
 31
0.0
  0
LINE
  5
894
330
18
100
AcDbEntity
  8
1
  6
Continuous
100
AcDbLine
 10
75.07627211826639
 20
189.70830083052
 30
0.0
 11
74.99428211826637
 21
189.7208908305199
 31
0.0
  0
LINE
  5
895
330
18
100
AcDbEntity
  8
1
  6
Continuous
100
AcDbLine
 10
74.99428211826625
 20
189.7208908305199
 30
0.0
 11
74.91217011826631
 21
189.7326918305199
 31
0.0
  0
LINE
  5
896
330
18
100
AcDbEntity
  8
1
  6
Continuous
100
AcDbLine
 10
74.91217011826631
 20
189.7326918305199
 30
0.0
 11
74.83360811826628
 21
189.7432468305199
 31
0.0
  0
LINE
  5
897
330
18
100
AcDbEntity
  8
1
  6
Continuous
100
AcDbLine
 10
74.83360811826634
 20
189.7432468305199
 30
0.0
 11
74.75495411826637
 21
189.7530958305199
 31
0.0
  0
LINE
  5
898
330
18
100
AcDbEntity
  8
1
  6
Continuous
100
AcDbLine
 10
74.75495411826625
 20
189.7530958305199
 30
0.0
 11
74.67621611826626
 21
189.7622308305199
 31
0.0
  0
LINE
  5
899
330
18
100
AcDbEntity
  8
1
  6
Continuous
100
AcDbLine
 10
74.67621611826626
 20
189.7622308305199
 30
0.0
 11
74.59740011826625
 21
189.7706478305199
 31
0.0
  0
LINE
  5
89A
330
18
100
AcDbEntity
  8
1
  6
Continuous
100
AcDbLine
 10
74.59740011826636
 20
189.7706478305199
 30
0.0
 11
74.51851411826634
 21
189.7783378305199
 31
0.0
  0
LINE
  5
89B
330
18
100
AcDbEntity
  8
1
  6
Continuous
100
AcDbLine
 10
74.51851411826634
 20
189.7783378305199
 30
0.0
 11
74.43956611826641
 21
189.7852968305199
 31
0.0
  0
LINE
  5
89C
330
18
100
AcDbEntity
  8
1
  6
Continuous
100
AcDbLine
 10
74.43956611826627
 20
189.7852968305199
 30
0.0
 11
74.36056411826626
 21
189.7915168305199
 31
0.0
  0
LINE
  5
89D
330
18
100
AcDbEntity
  8
1
  6
Continuous
100
AcDbLine
 10
74.36056411826633
 20
189.7915168305199
 30
0.0
 11
74.28151511826637
 21
189.7969918305199
 31
0.0
  0
LINE
  5
89E
330
18
100
AcDbEntity
  8
1
  6
Continuous
100
AcDbLine
 10
74.28151511826627
 20
189.7969918305199
 30
0.0
 11
74.20242711826631
 21
189.8017158305199
 31
0.0
  0
ARC
  5
89F
330
18
100
AcDbEntity
  8
1
  6
Continuous
100
AcDbCircle
 10
29.80927211826633
 20
141.4871428305199
 30
0.0
 40
63.91044
100
AcDbArc
 50
39.93594500000019
 51
45.17087299999975
  0
LINE
  5
8A0
330
18
100
AcDbEntity
  8
1
  6
Continuous
100
AcDbLine
 10
76.62660911826634
 20
189.2768258305199
 30
0.0
 11
76.55719311826622
 21
189.30610383052
 31
0.0
  0
LINE
  5
8A1
330
18
100
AcDbEntity
  8
1
  6
Continuous
100
AcDbLine
 10
76.55719311826622
 20
189.30610383052
 30
0.0
 11
76.48733611826634
 21
189.3343458305199
 31
0.0
  0
LINE
  5
8A2
330
18
100
AcDbEntity
  8
1
  6
Continuous
100
AcDbLine
 10
76.48733611826634
 20
189.3343458305199
 30
0.0
 11
76.41707511826631
 21
189.36157983052
 31
0.0
  0
LINE
  5
8A3
330
18
100
AcDbEntity
  8
1
  6
Continuous
100
AcDbLine
 10
77.99840511826636
 20
188.3132208305199
 30
0.0
 11
77.95826311826647
 21
188.3557198305199
 31
0.0
  0
LINE
  5
8A4
330
18
100
AcDbEntity
  8
1
  6
Continuous
100
AcDbLine
 10
77.95826311826623
 20
188.3557198305199
 30
0.0
 11
77.91753311826636
 21
188.39771283052
 31
0.0
  0
LINE
  5
8A5
330
18
100
AcDbEntity
  8
1
  6
Continuous
100
AcDbLine
 10
77.91753311826636
 20
188.39771283052
 30
0.0
 11
77.87622111826625
 21
188.4391788305199
 31
0.0
  0
LINE
  5
8A6
330
18
100
AcDbEntity
  8
1
  6
Continuous
100
AcDbLine
 10
77.87622111826634
 20
188.4391788305199
 30
0.0
 11
77.83433111826649
 21
188.4800998305199
 31
0.0
  0
LINE
  5
8A7
330
18
100
AcDbEntity
  8
1
  6
Continuous
100
AcDbLine
 10
77.83433111826639
 20
188.4800998305199
 30
0.0
 11
77.79186911826639
 21
188.5204558305199
 31
0.0
  0
LINE
  5
8A8
330
18
100
AcDbEntity
  8
1
  6
Continuous
100
AcDbLine
 10
77.79186911826639
 20
188.5204558305199
 30
0.0
 11
77.74883711826634
 21
188.5602278305198
 31
0.0
  0
LINE
  5
8A9
330
18
100
AcDbEntity
  8
1
  6
Continuous
100
AcDbLine
 10
77.74883711826634
 20
188.5602278305198
 30
0.0
 11
77.70524311826637
 21
188.5993948305199
 31
0.0
  0
LINE
  5
8AA
330
18
100
AcDbEntity
  8
1
  6
Continuous
100
AcDbLine
 10
77.70524311826637
 20
188.5993948305199
 30
0.0
 11
77.66109011826632
 21
188.6379398305199
 31
0.0
  0
LINE
  5
8AB
330
18
100
AcDbEntity
  8
1
  6
Continuous
100
AcDbLine
 10
77.66109011826632
 20
188.6379398305199
 30
0.0
 11
77.61638311826636
 21
188.6758418305199
 31
0.0
  0
LINE
  5
8AC
330
18
100
AcDbEntity
  8
1
  6
Continuous
100
AcDbLine
 10
77.61638311826636
 20
188.6758418305199
 30
0.0
 11
77.57112811826636
 21
188.7130808305199
 31
0.0
  0
LINE
  5
8AD
330
18
100
AcDbEntity
  8
1
  6
Continuous
100
AcDbLine
 10
77.57112811826636
 20
188.7130808305199
 30
0.0
 11
77.52532811826632
 21
188.7496388305198
 31
0.0
  0
LINE
  5
8AE
330
18
100
AcDbEntity
  8
1
  6
Continuous
100
AcDbLine
 10
77.52532811826632
 20
188.7496388305198
 30
0.0
 11
77.47898911826627
 21
188.7854958305198
 31
0.0
  0
LINE
  5
8AF
330
18
100
AcDbEntity
  8
1
  6
Continuous
100
AcDbLine
 10
77.47898911826627
 20
188.7854958305198
 30
0.0
 11
77.43211511826633
 21
188.8206328305199
 31
0.0
  0
LINE
  5
8B0
330
18
100
AcDbEntity
  8
1
  6
Continuous
100
AcDbLine
 10
77.43211511826633
 20
188.8206328305199
 30
0.0
 11
77.38471111826632
 21
188.8550288305199
 31
0.0
  0
LINE
  5
8B1
330
18
100
AcDbEntity
  8
1
  6
Continuous
100
AcDbLine
 10
77.38471111826632
 20
188.8550288305198
 30
0.0
 11
77.33678311826634
 21
188.8886668305199
 31
0.0
  0
LINE
  5
8B2
330
18
100
AcDbEntity
  8
1
  6
Continuous
100
AcDbLine
 10
77.33678311826628
 20
188.8886668305199
 30
0.0
 11
77.28833511826633
 21
188.9215248305199
 31
0.0
  0
LINE
  5
8B3
330
18
100
AcDbEntity
  8
1
  6
Continuous
100
AcDbLine
 10
77.28833511826633
 20
188.9215248305199
 30
0.0
 11
77.22537311826636
 21
188.9625558305199
 31
0.0
  0
LINE
  5
8B4
330
18
100
AcDbEntity
  8
1
  6
Continuous
100
AcDbLine
 10
77.22537311826648
 20
188.9625558305199
 30
0.0
 11
77.16159811826634
 21
189.0022948305199
 31
0.0
  0
LINE
  5
8B5
330
18
100
AcDbEntity
  8
1
  6
Continuous
100
AcDbLine
 10
77.16159811826634
 20
189.0022948305199
 30
0.0
 11
77.09704911826634
 21
189.0407698305199
 31
0.0
  0
LINE
  5
8B6
330
18
100
AcDbEntity
  8
1
  6
Continuous
100
AcDbLine
 10
77.09704911826634
 20
189.04076983052
 30
0.0
 11
77.03176111826633
 21
189.0780058305199
 31
0.0
  0
LINE
  5
8B7
330
18
100
AcDbEntity
  8
1
  6
Continuous
100
AcDbLine
 10
77.03176111826633
 20
189.0780058305199
 30
0.0
 11
76.96577211826639
 21
189.1140278305199
 31
0.0
  0
LINE
  5
8B8
330
18
100
AcDbEntity
  8
1
  6
Continuous
100
AcDbLine
 10
76.9657721182665
 20
189.1140278305199
 30
0.0
 11
76.89911811826647
 21
189.14886083052
 31
0.0
  0
LINE
  5
8B9
330
18
100
AcDbEntity
  8
1
  6
Continuous
100
AcDbLine
 10
76.8991181182663
 20
189.14886083052
 30
0.0
 11
76.83183911826631
 21
189.1825318305199
 31
0.0
  0
LINE
  5
8BA
330
18
100
AcDbEntity
  8
1
  6
Continuous
100
AcDbLine
 10
76.83183911826631
 20
189.1825318305199
 30
0.0
 11
76.76396911826635
 21
189.2150658305199
 31
0.0
  0
LINE
  5
8BB
330
18
100
AcDbEntity
  8
1
  6
Continuous
100
AcDbLine
 10
76.76396911826627
 20
189.2150658305199
 30
0.0
 11
76.69554711826629
 21
189.2464888305199
 31
0.0
  0
LINE
  5
8BC
330
18
100
AcDbEntity
  8
1
  6
Continuous
100
AcDbLine
 10
76.69554711826634
 20
189.2464888305199
 30
0.0
 11
76.62660911826634
 21
189.2768258305199
 31
0.0
  0
ARC
  5
8BD
330
18
100
AcDbEntity
  8
1
  6
Continuous
100
AcDbCircle
 10
74.36651011826632
 20
188.5132218305199
 30
0.0
 40
3.0
100
AcDbArc
 50
269.9999990000001
 51
298.3671450000004
  0
LINE
  5
8BE
330
18
100
AcDbEntity
  8
1
  6
Continuous
100
AcDbLine
 10
76.41707511826631
 20
189.36157983052
 30
0.0
 11
76.34644711826627
 21
189.38782983052
 31
0.0
  0
LINE
  5
8BF
330
18
100
AcDbEntity
  8
1
  6
Continuous
100
AcDbLine
 10
74.12330711826633
 20
189.8056828305199
 30
0.0
 11
74.04416211826634
 21
189.8088858305198
 31
0.0
  0
LINE
  5
8C0
330
18
100
AcDbEntity
  8
1
  6
Continuous
100
AcDbLine
 10
74.04416211826617
 20
189.8088858305198
 30
0.0
 11
73.96500211826628
 21
189.8113188305199
 31
0.0
  0
LINE
  5
8C1
330
18
100
AcDbEntity
  8
1
  6
Continuous
100
AcDbLine
 10
73.96500211826628
 20
189.8113188305199
 30
0.0
 11
73.88583211826632
 21
189.8129748305199
 31
0.0
  0
LINE
  5
8C2
330
18
100
AcDbEntity
  8
1
  6
Continuous
100
AcDbLine
 10
73.88583211826636
 20
189.8129748305198
 30
0.0
 11
73.80666111826632
 21
189.81384783052
 31
0.0
  0
LINE
  5
8C3
330
18
100
AcDbEntity
  8
1
  6
Continuous
100
AcDbLine
 10
73.80666111826632
 20
189.81384783052
 30
0.0
 11
73.72749611826634
 21
189.8139328305199
 31
0.0
  0
LINE
  5
8C4
330
18
100
AcDbEntity
  8
1
  6
Continuous
100
AcDbLine
 10
73.7274961182663
 20
189.8139328305199
 30
0.0
 11
73.64834511826626
 21
189.8132208305199
 31
0.0
  0
LINE
  5
8C5
330
18
100
AcDbEntity
  8
1
  6
Continuous
100
AcDbLine
 10
71.33835111826636
 20
186.8132208305199
 30
0.0
 11
68.33835111826636
 21
186.8132208305199
 31
0.0
  0
ARC
  5
8C6
330
18
100
AcDbEntity
  8
1
  6
Continuous
100
AcDbCircle
 10
71.53835111826635
 20
185.2132218305199
 30
0.0
 40
0.3
100
AcDbArc
 50
0.000000000000007
 51
90.0
  0
LINE
  5
8C7
330
18
100
AcDbEntity
  8
1
  6
Continuous
100
AcDbLine
 10
71.83835111826636
 20
183.5132218305199
 30
0.0
 11
71.83835111826636
 21
185.2132218305199
 31
0.0
  0
ARC
  5
8C8
330
18
100
AcDbEntity
  8
1
  6
Continuous
100
AcDbCircle
 10
70.83835111826636
 20
183.5132218305199
 30
0.0
 40
1.0
100
AcDbArc
 50
270.0
 51
0.000000000000007
  0
LINE
  5
8C9
330
18
100
AcDbEntity
  8
1
  6
Continuous
100
AcDbLine
 10
71.33835111826636
 20
186.8132208305199
 30
0.0
 11
71.33835111826636
 21
189.8132208305199
 31
0.0
  0
LINE
  5
8CA
330
18
100
AcDbEntity
  8
1
  6
Continuous
100
AcDbLine
 10
50.9988611182664
 20
189.2520768305199
 30
0.0
 11
50.92372711826635
 21
189.2178238305199
 31
0.0
  0
ARC
  5
8CB
330
18
100
AcDbEntity
  8
1
  6
Continuous
100
AcDbCircle
 10
96.26302111826635
 20
142.9600668305199
 30
0.0
 40
61.734803
100
AcDbArc
 50
134.7368159999994
 51
140.1563670000003
  0
LINE
  5
8CC
330
18
100
AcDbEntity
  8
1
  6
Continuous
100
AcDbLine
 10
59.33835111826636
 20
186.8132208305199
 30
0.0
 11
56.33835111826636
 21
186.8132208305199
 31
0.0
  0
LINE
  5
8CD
330
18
100
AcDbEntity
  8
1
  6
Continuous
100
AcDbLine
 10
52.01385211826641
 20
189.5926328305199
 30
0.0
 11
51.93378211826644
 21
189.5725698305199
 31
0.0
  0
LINE
  5
8CE
330
18
100
AcDbEntity
  8
1
  6
Continuous
100
AcDbLine
 10
51.93378211826644
 20
189.5725698305199
 30
0.0
 11
51.85397011826649
 21
189.5515938305198
 31
0.0
  0
LINE
  5
8CF
330
18
100
AcDbEntity
  8
1
  6
Continuous
100
AcDbLine
 10
51.85397011826636
 20
189.5515938305199
 30
0.0
 11
51.77443611826628
 21
189.5296748305199
 31
0.0
  0
LINE
  5
8D0
330
18
100
AcDbEntity
  8
1
  6
Continuous
100
AcDbLine
 10
51.77443611826628
 20
189.5296748305199
 30
0.0
 11
51.69520111826636
 21
189.5067818305199
 31
0.0
  0
LINE
  5
8D1
330
18
100
AcDbEntity
  8
1
  6
Continuous
100
AcDbLine
 10
51.69520111826636
 20
189.5067818305199
 30
0.0
 11
51.61628411826632
 21
189.4828878305198
 31
0.0
  0
LINE
  5
8D2
330
18
100
AcDbEntity
  8
1
  6
Continuous
100
AcDbLine
 10
51.61628411826632
 20
189.4828878305198
 30
0.0
 11
51.53770611826621
 21
189.45796083052
 31
0.0
  0
LINE
  5
8D3
330
18
100
AcDbEntity
  8
1
  6
Continuous
100
AcDbLine
 10
51.53770611826621
 20
189.45796083052
 30
0.0
 11
51.45948711826632
 21
189.4319718305198
 31
0.0
  0
LINE
  5
8D4
330
18
100
AcDbEntity
  8
1
  6
Continuous
100
AcDbLine
 10
51.45948711826632
 20
189.4319718305198
 30
0.0
 11
51.38164911826629
 21
189.4048918305199
 31
0.0
  0
LINE
  5
8D5
330
18
100
AcDbEntity
  8
1
  6
Continuous
100
AcDbLine
 10
54.02835711826629
 20
189.8132208305199
 30
0.0
 11
53.91193611826635
 21
189.8154018305199
 31
0.0
  0
LINE
  5
8D6
330
18
100
AcDbEntity
  8
1
  6
Continuous
100
AcDbLine
 10
53.91193611826635
 20
189.8154018305199
 30
0.0
 11
53.79544811826632
 21
189.8156908305199
 31
0.0
  0
LINE
  5
8D7
330
18
100
AcDbEntity
  8
1
  6
Continuous
100
AcDbLine
 10
53.79544811826632
 20
189.8156908305199
 30
0.0
 11
53.67892111826631
 21
189.8141028305199
 31
0.0
  0
LINE
  5
8D8
330
18
100
AcDbEntity
  8
1
  6
Continuous
100
AcDbLine
 10
53.67892111826631
 20
189.8141028305199
 30
0.0
 11
53.56238911826633
 21
189.8106558305199
 31
0.0
  0
LINE
  5
8D9
330
18
100
AcDbEntity
  8
1
  6
Continuous
100
AcDbLine
 10
53.56238911826633
 20
189.8106558305199
 30
0.0
 11
53.44588011826637
 21
189.8053648305199
 31
0.0
  0
LINE
  5
8DA
330
18
100
AcDbEntity
  8
1
  6
Continuous
100
AcDbLine
 10
53.44588011826637
 20
189.8053648305198
 30
0.0
 11
53.32942711826627
 21
189.7982468305199
 31
0.0
  0
LINE
  5
8DB
330
18
100
AcDbEntity
  8
1
  6
Continuous
100
AcDbLine
 10
53.32942711826627
 20
189.7982468305199
 30
0.0
 11
53.21305911826629
 21
189.7893178305199
 31
0.0
  0
LINE
  5
8DC
330
18
100
AcDbEntity
  8
1
  6
Continuous
100
AcDbLine
 10
53.21305911826629
 20
189.7893178305199
 30
0.0
 11
53.09680711826628
 21
189.7785938305199
 31
0.0
  0
LINE
  5
8DD
330
18
100
AcDbEntity
  8
1
  6
Continuous
100
AcDbLine
 10
53.09680711826628
 20
189.7785938305199
 30
0.0
 11
52.98070311826633
 21
189.7660908305199
 31
0.0
  0
LINE
  5
8DE
330
18
100
AcDbEntity
  8
1
  6
Continuous
100
AcDbLine
 10
52.98070311826633
 20
189.7660908305199
 30
0.0
 11
52.86477711826626
 21
189.7518258305199
 31
0.0
  0
LINE
  5
8DF
330
18
100
AcDbEntity
  8
1
  6
Continuous
100
AcDbLine
 10
52.86477711826626
 20
189.7518258305199
 30
0.0
 11
52.74906011826637
 21
189.7358148305199
 31
0.0
  0
LINE
  5
8E0
330
18
100
AcDbEntity
  8
1
  6
Continuous
100
AcDbLine
 10
52.74906011826637
 20
189.7358148305199
 30
0.0
 11
52.63358211826631
 21
189.7180738305199
 31
0.0
  0
LINE
  5
8E1
330
18
100
AcDbEntity
  8
1
  6
Continuous
100
AcDbLine
 10
52.63358211826631
 20
189.7180738305199
 30
0.0
 11
52.51837511826636
 21
189.6986198305199
 31
0.0
  0
LINE
  5
8E2
330
18
100
AcDbEntity
  8
1
  6
Continuous
100
AcDbLine
 10
52.51837511826636
 20
189.6986198305199
 30
0.0
 11
52.40346911826634
 21
189.67746783052
 31
0.0
  0
LINE
  5
8E3
330
18
100
AcDbEntity
  8
1
  6
Continuous
100
AcDbLine
 10
52.40346911826634
 20
189.67746783052
 30
0.0
 11
52.28889511826627
 21
189.6546348305199
 31
0.0
  0
LINE
  5
8E4
330
18
100
AcDbEntity
  8
1
  6
Continuous
100
AcDbLine
 10
52.28889511826627
 20
189.6546348305199
 30
0.0
 11
52.17468411826621
 21
189.6301368305199
 31
0.0
  0
LINE
  5
8E5
330
18
100
AcDbEntity
  8
1
  6
Continuous
100
AcDbLine
 10
52.17468411826621
 20
189.6301368305199
 30
0.0
 11
52.09415911826636
 21
189.6118118305199
 31
0.0
  0
LINE
  5
8E6
330
18
100
AcDbEntity
  8
1
  6
Continuous
100
AcDbLine
 10
52.09415911826624
 20
189.6118118305199
 30
0.0
 11
52.0138521182663
 21
189.5926328305199
 31
0.0
  0
LINE
  5
8E7
330
18
100
AcDbEntity
  8
1
  6
Continuous
100
AcDbLine
 10
56.33835111826636
 20
186.8132208305199
 30
0.0
 11
52.81090011826631
 21
186.8132208305199
 31
0.0
  0
ARC
  5
8E8
330
18
100
AcDbEntity
  8
1
  6
Continuous
100
AcDbCircle
 10
56.13835111826642
 20
185.2132218305199
 30
0.0
 40
0.3
100
AcDbArc
 50
90.0
 51
180.0
  0
LINE
  5
8E9
330
18
100
AcDbEntity
  8
1
  6
Continuous
100
AcDbLine
 10
55.83835111826636
 20
185.2132218305199
 30
0.0
 11
55.83835111826636
 21
183.5132218305199
 31
0.0
  0
ARC
  5
8EA
330
18
100
AcDbEntity
  8
1
  6
Continuous
100
AcDbCircle
 10
56.83835111826636
 20
183.5132218305199
 30
0.0
 40
1.0
100
AcDbArc
 50
180.0
 51
270.0
  0
LINE
  5
8EB
330
18
100
AcDbEntity
  8
1
  6
Continuous
100
AcDbLine
 10
51.30421011826626
 20
189.3766898305199
 30
0.0
 11
51.22719111826633
 21
189.3473378305199
 31
0.0
  0
LINE
  5
8EC
330
18
100
AcDbEntity
  8
1
  6
Continuous
100
AcDbLine
 10
51.22719111826633
 20
189.3473378305199
 30
0.0
 11
51.15061311826615
 21
189.3168038305199
 31
0.0
  0
LINE
  5
8ED
330
18
100
AcDbEntity
  8
1
  6
Continuous
100
AcDbLine
 10
51.15061311826639
 20
189.3168038305199
 30
0.0
 11
51.07449611826632
 21
189.2850608305199
 31
0.0
  0
LINE
  5
8EE
330
18
100
AcDbEntity
  8
1
  6
Continuous
100
AcDbLine
 10
51.07449611826632
 20
189.2850608305199
 30
0.0
 11
50.99886111826627
 21
189.2520768305199
 31
0.0
  0
ARC
  5
8EF
330
18
100
AcDbEntity
  8
1
  6
Continuous
100
AcDbCircle
 10
53.31019211826628
 20
188.5132218305199
 30
0.0
 40
3.0
100
AcDbArc
 50
241.6514980000003
 51
270.0000009999997
  0
LINE
  5
8F0
330
18
100
AcDbEntity
  8
1
  6
Continuous
100
AcDbLine
 10
56.33835111826636
 20
186.8132208305199
 30
0.0
 11
56.33835111826636
 21
189.8132208305199
 31
0.0
  0
LINE
  5
8F1
330
18
100
AcDbEntity
  8
1
  6
Continuous
100
AcDbLine
 10
51.38164911826629
 20
189.4048918305199
 30
0.0
 11
51.30421011826626
 21
189.3766898305199
 31
0.0
  0
ARC
  5
8F2
330
18
100
AcDbEntity
  8
1
  6
Continuous
100
AcDbCircle
 10
41.72971711826629
 20
192.81322083052
 30
0.0
 40
3.0
100
AcDbArc
 50
195.46601
 51
270.0
  0
LINE
  5
8F3
330
18
100
AcDbEntity
  8
4
  6
CENTER
100
AcDbLine
 10
37.83835311826635
 20
189.0132208305199
 30
0.0
 11
37.83835311826635
 21
197.8132208305199
 31
0.0
  0
LINE
  5
8F4
330
18
100
AcDbEntity
  8
1
  6
Continuous
100
AcDbLine
 10
44.83835111826645
 20
182.5132218305199
 30
0.0
 11
48.86329711826636
 21
182.5132218305199
 31
0.0
  0
ARC
  5
8F5
330
18
100
AcDbEntity
  8
1
  6
Continuous
100
AcDbCircle
 10
130.3902781182663
 20
118.4509378305198
 30
0.0
 40
106.748126
100
AcDbArc
 50
139.1213509817649
 51
143.1211059999995
  0
LINE
  5
8F6
330
18
100
AcDbEntity
  8
1
  6
Continuous
100
AcDbLine
 10
50.92372711826635
 20
189.2178238305199
 30
0.0
 11
50.86027511826636
 21
189.18768783052
 31
0.0
  0
LINE
  5
8F7
330
18
100
AcDbEntity
  8
1
  6
Continuous
100
AcDbLine
 10
50.86027511826636
 20
189.18768783052
 30
0.0
 11
50.79724011826637
 21
189.1566008305199
 31
0.0
  0
LINE
  5
8F8
330
18
100
AcDbEntity
  8
1
  6
Continuous
100
AcDbLine
 10
50.79724011826623
 20
189.1566008305199
 30
0.0
 11
50.73466011826632
 21
189.1245498305199
 31
0.0
  0
LINE
  5
8F9
330
18
100
AcDbEntity
  8
1
  6
Continuous
100
AcDbLine
 10
50.73466011826632
 20
189.1245498305199
 30
0.0
 11
50.67257611826629
 21
189.0915238305199
 31
0.0
  0
LINE
  5
8FA
330
18
100
AcDbEntity
  8
1
  6
Continuous
100
AcDbLine
 10
50.67257611826629
 20
189.0915238305199
 30
0.0
 11
50.61102711826627
 21
189.0575088305199
 31
0.0
  0
LINE
  5
8FB
330
18
100
AcDbEntity
  8
1
  6
Continuous
100
AcDbLine
 10
50.61102711826627
 20
189.0575088305199
 30
0.0
 11
50.55005111826631
 21
189.0224928305199
 31
0.0
  0
LINE
  5
8FC
330
18
100
AcDbEntity
  8
1
  6
Continuous
100
AcDbLine
 10
50.55005111826631
 20
189.0224928305199
 30
0.0
 11
50.48968911826626
 21
188.98646383052
 31
0.0
  0
LINE
  5
8FD
330
18
100
AcDbEntity
  8
1
  6
Continuous
100
AcDbLine
 10
50.48968911826636
 20
188.98646383052
 30
0.0
 11
50.42998011826636
 21
188.9494088305199
 31
0.0
  0
LINE
  5
8FE
330
18
100
AcDbEntity
  8
1
  6
Continuous
100
AcDbLine
 10
50.42998011826636
 20
188.9494088305199
 30
0.0
 11
50.37096211826632
 21
188.9113168305199
 31
0.0
  0
LINE
  5
8FF
330
18
100
AcDbEntity
  8
1
  6
Continuous
100
AcDbLine
 10
50.37096211826632
 20
188.9113168305199
 30
0.0
 11
50.31267711826625
 21
188.8721748305199
 31
0.0
  0
LINE
  5
900
330
18
100
AcDbEntity
  8
1
  6
Continuous
100
AcDbLine
 10
50.31267711826638
 20
188.8721748305199
 30
0.0
 11
50.2551621182663
 21
188.8319688305199
 31
0.0
  0
LINE
  5
901
330
18
100
AcDbEntity
  8
1
  6
Continuous
100
AcDbLine
 10
50.2551621182663
 20
188.8319688305199
 30
0.0
 11
50.19845711826633
 21
188.7906888305199
 31
0.0
  0
LINE
  5
902
330
18
100
AcDbEntity
  8
1
  6
Continuous
100
AcDbLine
 10
50.19845711826633
 20
188.7906888305199
 30
0.0
 11
50.14260211826627
 21
188.7483218305199
 31
0.0
  0
LINE
  5
903
330
18
100
AcDbEntity
  8
1
  6
Continuous
100
AcDbLine
 10
50.14260211826627
 20
188.7483218305199
 30
0.0
 11
50.08763611826634
 21
188.70485483052
 31
0.0
  0
LINE
  5
904
330
18
100
AcDbEntity
  8
1
  6
Continuous
100
AcDbLine
 10
50.08763611826646
 20
188.70485483052
 30
0.0
 11
50.03359811826635
 21
188.6602748305199
 31
0.0
  0
LINE
  5
905
330
18
100
AcDbEntity
  8
1
  6
Continuous
100
AcDbLine
 10
50.03359811826635
 20
188.6602748305199
 30
0.0
 11
49.98052811826619
 21
188.61457083052
 31
0.0
  0
LINE
  5
906
330
18
100
AcDbEntity
  8
1
  6
Continuous
100
AcDbLine
 10
49.98052811826619
 20
188.61457083052
 30
0.0
 11
49.96056111826624
 21
188.5968508305199
 31
0.0
  0
LINE
  5
907
330
18
100
AcDbEntity
  8
1
  6
Continuous
100
AcDbLine
 10
49.96056111826624
 20
188.5968508305199
 30
0.0
 11
49.94073911826625
 21
188.5789688305199
 31
0.0
  0
LINE
  5
908
330
18
100
AcDbEntity
  8
1
  6
Continuous
100
AcDbLine
 10
49.94073911826638
 20
188.5789688305198
 30
0.0
 11
49.9210621182665
 21
188.5609268305199
 31
0.0
  0
LINE
  5
909
330
18
100
AcDbEntity
  8
1
  6
Continuous
100
AcDbLine
 10
49.92106211826627
 20
188.5609268305199
 30
0.0
 11
49.90153111826636
 21
188.5427278305201
 31
0.0
  0
LINE
  5
90A
330
18
100
AcDbEntity
  8
1
  6
Continuous
100
AcDbLine
 10
49.90153111826636
 20
188.54272783052
 30
0.0
 11
49.88214411826628
 21
188.5243768305199
 31
0.0
  0
LINE
  5
90B
330
18
100
AcDbEntity
  8
1
  6
Continuous
100
AcDbLine
 10
49.88214411826628
 20
188.5243768305199
 30
0.0
 11
49.86290111826632
 21
188.5058738305199
 31
0.0
  0
LINE
  5
90C
330
18
100
AcDbEntity
  8
1
  6
Continuous
100
AcDbLine
 10
49.86290111826632
 20
188.5058738305199
 30
0.0
 11
49.84380211826636
 21
188.4872248305198
 31
0.0
  0
LINE
  5
90D
330
18
100
AcDbEntity
  8
1
  6
Continuous
100
AcDbLine
 10
49.84380211826646
 20
188.4872248305198
 30
0.0
 11
49.82484611826635
 21
188.4684298305199
 31
0.0
  0
LINE
  5
90E
330
18
100
AcDbEntity
  8
1
  6
Continuous
100
AcDbLine
 10
49.82484611826635
 20
188.4684298305199
 30
0.0
 11
49.80603311826633
 21
188.4494938305199
 31
0.0
  0
LINE
  5
90F
330
18
100
AcDbEntity
  8
1
  6
Continuous
100
AcDbLine
 10
49.80603311826621
 20
188.4494938305199
 30
0.0
 11
49.7873621182664
 21
188.4304188305199
 31
0.0
  0
LINE
  5
910
330
18
100
AcDbEntity
  8
1
  6
Continuous
100
AcDbLine
 10
49.7873621182664
 20
188.4304188305199
 30
0.0
 11
49.76883211826635
 21
188.4112088305199
 31
0.0
  0
LINE
  5
911
330
18
100
AcDbEntity
  8
1
  6
Continuous
100
AcDbLine
 10
49.76883211826635
 20
188.4112088305199
 30
0.0
 11
49.75044411826628
 21
188.3918648305199
 31
0.0
  0
LINE
  5
912
330
18
100
AcDbEntity
  8
1
  6
Continuous
100
AcDbLine
 10
49.75044411826639
 20
188.3918648305199
 30
0.0
 11
49.73219711826641
 21
188.3723918305199
 31
0.0
  0
LINE
  5
913
330
18
100
AcDbEntity
  8
1
  6
Continuous
100
AcDbLine
 10
49.73219711826641
 20
188.3723918305199
 30
0.0
 11
49.71409111826641
 21
188.3527908305199
 31
0.0
  0
LINE
  5
914
330
18
100
AcDbEntity
  8
1
  6
Continuous
100
AcDbLine
 10
49.7140911182662
 20
188.3527908305199
 30
0.0
 11
49.6961241182662
 21
188.3330668305199
 31
0.0
  0
LINE
  5
915
330
18
100
AcDbEntity
  8
1
  6
Continuous
100
AcDbLine
 10
49.6961241182662
 20
188.3330668305198
 30
0.0
 11
49.67829711826628
 21
188.3132208305198
 31
0.0
  0
ARC
  5
916
330
18
100
AcDbEntity
  8
1
  6
Continuous
100
AcDbCircle
 10
47.83916211826634
 20
186.8118168305199
 30
0.0
 40
3.001403999999998
100
AcDbArc
 50
90.01547400000013
 51
181.1394559999998
  0
LINE
  5
917
330
18
100
AcDbEntity
  8
1
  6
Continuous
100
AcDbLine
 10
28.83835111826646
 20
192.0132208305199
 30
0.0
 11
28.83835111826646
 21
194.8132208305199
 31
0.0
  0
LINE
  5
A60
330
18
100
AcDbEntity
  8
1
  6
Continuous
100
AcDbLine
 10
453.7942938176961
 20
192.0132208305199
 30
0.0
 11
383.7942938176963
 21
192.0132208305199
 31
0.0
  0
LINE
  5
A61
330
18
100
AcDbEntity
  8
1
  6
Continuous
100
AcDbLine
 10
453.7942938176961
 20
194.8132208305199
 30
0.0
 11
383.7942938176963
 21
194.8132208305199
 31
0.0
  0
LINE
  5
A64
330
18
100
AcDbEntity
  8
1
  6
Continuous
100
AcDbLine
 10
453.7942938176961
 20
192.0132208305199
 30
0.0
 11
453.7942938176961
 21
194.8132208305199
 31
0.0
  0
LINE
  5
A68
330
18
100
AcDbEntity
  8
1
  6
Continuous
100
AcDbLine
 10
411.3790638176963
 20
161.31082283052
 30
0.0
 11
402.7942918176964
 21
182.5132218305199
 31
0.0
  0
LINE
  5
A69
330
18
100
AcDbEntity
  8
1
  6
Continuous
100
AcDbLine
 10
434.7942918176963
 20
182.5132218305199
 30
0.0
 11
426.2095198176963
 21
161.31082283052
 31
0.0
  0
LINE
  5
A6A
330
18
100
AcDbEntity
  8
4
  6
CENTER
100
AcDbLine
 10
418.7942918176963
 20
200.2148609313048
 30
0.0
 11
418.7942918176963
 21
145.3346942265575
 31
0.0
  0
LINE
  5
A6B
330
18
100
AcDbEntity
  8
4
  6
CENTER
100
AcDbLine
 10
397.7942918176963
 20
164.31322083052
 30
0.0
 11
439.7942918176964
 21
164.31322083052
 31
0.0
  0
ARC
  5
A6C
330
18
100
AcDbEntity
  8
1
  6
Continuous
100
AcDbCircle
 10
418.7942918176963
 20
164.31322083052
 30
0.0
 40
11.709202
100
AcDbArc
 50
155.1388839999997
 51
24.8611160000003
  0
ARC
  5
A6D
330
18
100
AcDbEntity
  8
1
  6
Continuous
100
AcDbCircle
 10
418.7942918176963
 20
164.31322083052
 30
0.0
 40
8.0
100
AcDbArc
 50
202.042839
 51
337.9571590000002
  0
CIRCLE
  5
A6E
330
18
100
AcDbEntity
  8
1
  6
Continuous
100
AcDbCircle
 10
418.7942918176963
 20
164.31322083052
 30
0.0
 40
6.0
  0
ARC
  5
A6F
330
18
100
AcDbEntity
  8
1
  6
Continuous
100
AcDbCircle
 10
418.7942918176963
 20
164.31322083052
 30
0.0
 40
16.0
100
AcDbArc
 50
142.0428410000004
 51
37.95715899999954
  0
LINE
  5
A70
330
18
100
AcDbEntity
  8
1
  6
Continuous
100
AcDbLine
 10
440.9029258176963
 20
189.8132208305199
 30
0.0
 11
396.6856588176963
 21
189.8132208305199
 31
0.0
  0
ARC
  5
A72
330
18
100
AcDbEntity
  8
1
  6
Continuous
100
AcDbCircle
 10
390.0264738176963
 20
142.6005808305198
 30
0.0
 40
59.831438
100
AcDbArc
 50
41.84246199999999
 51
47.64233000000017
  0
ARC
  5
A73
330
18
100
AcDbEntity
  8
1
  6
Continuous
100
AcDbCircle
 10
440.9029258176963
 20
192.81322083052
 30
0.0
 40
3.0
100
AcDbArc
 50
270.0
 51
344.53399
  0
LINE
  5
A74
330
18
100
AcDbEntity
  8
4
  6
CENTER
100
AcDbLine
 10
444.7942938176963
 20
189.0132208305199
 30
0.0
 11
444.7942938176963
 21
197.8132208305199
 31
0.0
  0
LINE
  5
A75
330
18
100
AcDbEntity
  8
1
  6
Continuous
100
AcDbLine
 10
434.7942918176963
 20
186.8132208305199
 30
0.0
 11
438.7942918176963
 21
186.8132208305199
 31
0.0
  0
LINE
  5
A76
330
18
100
AcDbEntity
  8
1
  6
Continuous
100
AcDbLine
 10
434.7942918176963
 20
182.5132218305199
 30
0.0
 11
434.5998088176964
 21
182.5132218305199
 31
0.0
  0
LINE
  5
A77
330
18
100
AcDbEntity
  8
1
  6
Continuous
100
AcDbLine
 10
438.7942918176963
 20
189.8132208305199
 30
0.0
 11
438.7942918176963
 21
186.8132208305199
 31
0.0
  0
LINE
  5
A78
330
18
100
AcDbEntity
  8
1
  6
Continuous
100
AcDbLine
 10
434.7942918176963
 20
182.5132218305199
 30
0.0
 11
434.7942918176963
 21
189.8132208305199
 31
0.0
  0
LINE
  5
A79
330
18
100
AcDbEntity
  8
1
  6
Continuous
100
AcDbLine
 10
429.0110948176963
 20
189.44347383052
 30
0.0
 11
429.0237478176964
 21
189.41376783052
 31
0.0
  0
LINE
  5
A7A
330
18
100
AcDbEntity
  8
1
  6
Continuous
100
AcDbLine
 10
428.9978108176963
 20
189.4727478305199
 30
0.0
 11
429.0110948176963
 21
189.44347383052
 31
0.0
  0
LINE
  5
A7B
330
18
100
AcDbEntity
  8
1
  6
Continuous
100
AcDbLine
 10
428.9838188176964
 20
189.50148183052
 30
0.0
 11
428.9978108176963
 21
189.4727478305199
 31
0.0
  0
LINE
  5
A7C
330
18
100
AcDbEntity
  8
1
  6
Continuous
100
AcDbLine
 10
428.9690398176961
 20
189.52957083052
 30
0.0
 11
428.9838188176964
 21
189.50148183052
 31
0.0
  0
LINE
  5
A7D
330
18
100
AcDbEntity
  8
1
  6
Continuous
100
AcDbLine
 10
428.9533948176963
 20
189.5569068305198
 30
0.0
 11
428.9690398176961
 21
189.52957083052
 31
0.0
  0
LINE
  5
A7E
330
18
100
AcDbEntity
  8
1
  6
Continuous
100
AcDbLine
 10
428.9368068176964
 20
189.5833818305199
 30
0.0
 11
428.9533948176964
 21
189.5569068305198
 31
0.0
  0
LINE
  5
A7F
330
18
100
AcDbEntity
  8
1
  6
Continuous
100
AcDbLine
 10
428.9191968176965
 20
189.6088908305199
 30
0.0
 11
428.9368068176964
 21
189.5833818305199
 31
0.0
  0
LINE
  5
A80
330
18
100
AcDbEntity
  8
1
  6
Continuous
100
AcDbLine
 10
428.9004868176961
 20
189.6333258305199
 30
0.0
 11
428.9191968176963
 21
189.6088908305199
 31
0.0
  0
LINE
  5
A81
330
18
100
AcDbEntity
  8
1
  6
Continuous
100
AcDbLine
 10
428.8805978176963
 20
189.6565798305199
 30
0.0
 11
428.9004868176961
 21
189.6333258305199
 31
0.0
  0
LINE
  5
A82
330
18
100
AcDbEntity
  8
1
  6
Continuous
100
AcDbLine
 10
428.8594508176965
 20
189.6785458305199
 30
0.0
 11
428.8805978176965
 21
189.6565798305199
 31
0.0
  0
LINE
  5
A83
330
18
100
AcDbEntity
  8
1
  6
Continuous
100
AcDbLine
 10
428.8369688176961
 20
189.6991168305199
 30
0.0
 11
428.8594508176963
 21
189.6785458305199
 31
0.0
  0
LINE
  5
A84
330
18
100
AcDbEntity
  8
1
  6
Continuous
100
AcDbLine
 10
428.8130738176962
 20
189.7181868305199
 30
0.0
 11
428.8369688176965
 21
189.6991168305198
 31
0.0
  0
LINE
  5
A85
330
18
100
AcDbEntity
  8
1
  6
Continuous
100
AcDbLine
 10
428.8015458176963
 20
189.7264588305199
 30
0.0
 11
428.8130738176961
 21
189.7181868305199
 31
0.0
  0
LINE
  5
A86
330
18
100
AcDbEntity
  8
1
  6
Continuous
100
AcDbLine
 10
428.7897198176962
 20
189.73439283052
 30
0.0
 11
428.8015458176963
 21
189.7264588305199
 31
0.0
  0
LINE
  5
A87
330
18
100
AcDbEntity
  8
1
  6
Continuous
100
AcDbLine
 10
428.7776158176964
 20
189.7419948305199
 30
0.0
 11
428.7897198176962
 21
189.7343928305198
 31
0.0
  0
LINE
  5
A88
330
18
100
AcDbEntity
  8
1
  6
Continuous
100
AcDbLine
 10
428.7652558176961
 20
189.7492718305198
 30
0.0
 11
428.7776158176963
 21
189.7419948305199
 31
0.0
  0
LINE
  5
A89
330
18
100
AcDbEntity
  8
1
  6
Continuous
100
AcDbLine
 10
428.7526588176963
 20
189.7562278305199
 30
0.0
 11
428.7652558176961
 21
189.7492718305199
 31
0.0
  0
LINE
  5
A8A
330
18
100
AcDbEntity
  8
1
  6
Continuous
100
AcDbLine
 10
428.7398448176964
 20
189.7628698305199
 30
0.0
 11
428.7526588176963
 21
189.7562278305199
 31
0.0
  0
LINE
  5
A8B
330
18
100
AcDbEntity
  8
1
  6
Continuous
100
AcDbLine
 10
428.7268358176963
 20
189.76920183052
 30
0.0
 11
428.7398448176964
 21
189.7628698305199
 31
0.0
  0
LINE
  5
A8C
330
18
100
AcDbEntity
  8
1
  6
Continuous
100
AcDbLine
 10
428.7136498176963
 20
189.7752308305199
 30
0.0
 11
428.7268358176963
 21
189.76920183052
 31
0.0
  0
LINE
  5
A8D
330
18
100
AcDbEntity
  8
1
  6
Continuous
100
AcDbLine
 10
428.7003098176962
 20
189.7809618305199
 30
0.0
 11
428.7136498176963
 21
189.7752308305199
 31
0.0
  0
LINE
  5
A8E
330
18
100
AcDbEntity
  8
1
  6
Continuous
100
AcDbLine
 10
428.6868338176963
 20
189.78640183052
 30
0.0
 11
428.7003098176962
 21
189.7809618305199
 31
0.0
  0
LINE
  5
A8F
330
18
100
AcDbEntity
  8
1
  6
Continuous
100
AcDbLine
 10
428.6732438176962
 20
189.7915538305198
 30
0.0
 11
428.6868338176963
 21
189.7864018305199
 31
0.0
  0
LINE
  5
A90
330
18
100
AcDbEntity
  8
1
  6
Continuous
100
AcDbLine
 10
428.6595598176964
 20
189.7964268305199
 30
0.0
 11
428.6732438176962
 21
189.7915538305199
 31
0.0
  0
LINE
  5
A91
330
18
100
AcDbEntity
  8
1
  6
Continuous
100
AcDbLine
 10
428.6458008176962
 20
189.8010238305199
 30
0.0
 11
428.6595598176964
 21
189.7964268305199
 31
0.0
  0
LINE
  5
A92
330
18
100
AcDbEntity
  8
1
  6
Continuous
100
AcDbLine
 10
428.6319898176961
 20
189.8053508305199
 30
0.0
 11
428.6458008176961
 21
189.8010238305199
 31
0.0
  0
LINE
  5
A93
330
18
100
AcDbEntity
  8
1
  6
Continuous
100
AcDbLine
 10
428.6181448176964
 20
189.8094148305199
 30
0.0
 11
428.6319898176962
 21
189.8053508305199
 31
0.0
  0
LINE
  5
A94
330
18
100
AcDbEntity
  8
1
  6
Continuous
100
AcDbLine
 10
428.6042868176964
 20
189.8132208305199
 30
0.0
 11
428.6181448176964
 21
189.8094148305198
 31
0.0
  0
LINE
  5
A95
330
18
100
AcDbEntity
  8
1
  6
Continuous
100
AcDbLine
 10
429.3164328176965
 20
188.2906538305199
 30
0.0
 11
429.3118338176963
 21
188.3132208305199
 31
0.0
  0
LINE
  5
A96
330
18
100
AcDbEntity
  8
1
  6
Continuous
100
AcDbLine
 10
429.3212828176963
 20
188.26812083052
 30
0.0
 11
429.3164328176965
 21
188.2906538305199
 31
0.0
  0
LINE
  5
A97
330
18
100
AcDbEntity
  8
1
  6
Continuous
100
AcDbLine
 10
429.3263878176961
 20
188.2456308305199
 30
0.0
 11
429.3212828176963
 21
188.2681208305199
 31
0.0
  0
LINE
  5
A98
330
18
100
AcDbEntity
  8
1
  6
Continuous
100
AcDbLine
 10
429.3317538176963
 20
188.2231898305199
 30
0.0
 11
429.3263878176965
 21
188.2456308305199
 31
0.0
  0
LINE
  5
A99
330
18
100
AcDbEntity
  8
1
  6
Continuous
100
AcDbLine
 10
429.3373838176961
 20
188.2008058305198
 30
0.0
 11
429.3317538176963
 21
188.2231898305199
 31
0.0
  0
LINE
  5
A9A
330
18
100
AcDbEntity
  8
1
  6
Continuous
100
AcDbLine
 10
429.3432838176963
 20
188.1784868305199
 30
0.0
 11
429.3373838176961
 21
188.2008058305198
 31
0.0
  0
LINE
  5
A9B
330
18
100
AcDbEntity
  8
1
  6
Continuous
100
AcDbLine
 10
429.3494568176964
 20
188.1562398305199
 30
0.0
 11
429.3432838176963
 21
188.1784868305199
 31
0.0
  0
LINE
  5
A9C
330
18
100
AcDbEntity
  8
1
  6
Continuous
100
AcDbLine
 10
429.3559068176961
 20
188.1340738305199
 30
0.0
 11
429.3494568176964
 21
188.1562398305199
 31
0.0
  0
LINE
  5
A9D
330
18
100
AcDbEntity
  8
1
  6
Continuous
100
AcDbLine
 10
429.3626398176964
 20
188.1119948305199
 30
0.0
 11
429.3559068176961
 21
188.1340738305198
 31
0.0
  0
LINE
  5
A9E
330
18
100
AcDbEntity
  8
1
  6
Continuous
100
AcDbLine
 10
429.3696588176965
 20
188.0900108305199
 30
0.0
 11
429.3626398176964
 21
188.1119948305199
 31
0.0
  0
LINE
  5
A9F
330
18
100
AcDbEntity
  8
1
  6
Continuous
100
AcDbLine
 10
429.3769688176963
 20
188.0681298305199
 30
0.0
 11
429.3696588176965
 21
188.0900108305199
 31
0.0
  0
LINE
  5
AA0
330
18
100
AcDbEntity
  8
1
  6
Continuous
100
AcDbLine
 10
429.3845748176964
 20
188.0463588305198
 30
0.0
 11
429.3769688176963
 21
188.0681298305199
 31
0.0
  0
LINE
  5
AA1
330
18
100
AcDbEntity
  8
1
  6
Continuous
100
AcDbLine
 10
429.3924808176963
 20
188.02470683052
 30
0.0
 11
429.3845748176964
 21
188.0463588305199
 31
0.0
  0
LINE
  5
AA2
330
18
100
AcDbEntity
  8
1
  6
Continuous
100
AcDbLine
 10
429.4006898176961
 20
188.0031788305199
 30
0.0
 11
429.3924808176963
 21
188.02470683052
 31
0.0
  0
LINE
  5
AA3
330
18
100
AcDbEntity
  8
1
  6
Continuous
100
AcDbLine
 10
429.4092078176965
 20
187.9817848305199
 30
0.0
 11
429.4006898176966
 21
188.0031788305199
 31
0.0
  0
LINE
  5
AA4
330
18
100
AcDbEntity
  8
1
  6
Continuous
100
AcDbLine
 10
429.4180388176963
 20
187.9605318305199
 30
0.0
 11
429.4092078176963
 21
187.9817848305199
 31
0.0
  0
LINE
  5
AA5
330
18
100
AcDbEntity
  8
1
  6
Continuous
100
AcDbLine
 10
429.4325268176963
 20
187.9274808305199
 30
0.0
 11
429.4180388176963
 21
187.9605318305199
 31
0.0
  0
LINE
  5
AA6
330
18
100
AcDbEntity
  8
1
  6
Continuous
100
AcDbLine
 10
429.4477608176961
 20
187.8947828305199
 30
0.0
 11
429.4325268176963
 21
187.9274808305199
 31
0.0
  0
LINE
  5
AA7
330
18
100
AcDbEntity
  8
1
  6
Continuous
100
AcDbLine
 10
429.4637038176964
 20
187.8624258305199
 30
0.0
 11
429.4477608176961
 21
187.8947828305199
 31
0.0
  0
LINE
  5
AA8
330
18
100
AcDbEntity
  8
1
  6
Continuous
100
AcDbLine
 10
429.4803198176962
 20
187.8303978305199
 30
0.0
 11
429.4637038176964
 21
187.8624258305199
 31
0.0
  0
LINE
  5
AA9
330
18
100
AcDbEntity
  8
1
  6
Continuous
100
AcDbLine
 10
429.4975738176963
 20
187.79868583052
 30
0.0
 11
429.4803198176961
 21
187.8303978305199
 31
0.0
  0
LINE
  5
AAA
330
18
100
AcDbEntity
  8
1
  6
Continuous
100
AcDbLine
 10
429.5154298176961
 20
187.7672788305199
 30
0.0
 11
429.4975738176963
 21
187.79868583052
 31
0.0
  0
LINE
  5
AAB
330
18
100
AcDbEntity
  8
1
  6
Continuous
100
AcDbLine
 10
429.5338508176961
 20
187.7361638305199
 30
0.0
 11
429.5154298176961
 21
187.7672788305199
 31
0.0
  0
LINE
  5
AAC
330
18
100
AcDbEntity
  8
1
  6
Continuous
100
AcDbLine
 10
429.5528028176961
 20
187.70532883052
 30
0.0
 11
429.5338508176961
 21
187.7361638305199
 31
0.0
  0
LINE
  5
AAD
330
18
100
AcDbEntity
  8
1
  6
Continuous
100
AcDbLine
 10
429.5722478176961
 20
187.6747628305199
 30
0.0
 11
429.5528028176961
 21
187.70532883052
 31
0.0
  0
LINE
  5
AAE
330
18
100
AcDbEntity
  8
1
  6
Continuous
100
AcDbLine
 10
429.5921518176961
 20
187.6444518305199
 30
0.0
 11
429.5722478176965
 21
187.6747628305199
 31
0.0
  0
LINE
  5
AAF
330
18
100
AcDbEntity
  8
1
  6
Continuous
100
AcDbLine
 10
429.6124768176961
 20
187.6143858305199
 30
0.0
 11
429.5921518176961
 21
187.6444518305199
 31
0.0
  0
LINE
  5
AB0
330
18
100
AcDbEntity
  8
1
  6
Continuous
100
AcDbLine
 10
429.6331888176964
 20
187.5845508305199
 30
0.0
 11
429.6124768176964
 21
187.6143858305199
 31
0.0
  0
LINE
  5
AB1
330
18
100
AcDbEntity
  8
1
  6
Continuous
100
AcDbLine
 10
429.6542518176964
 20
187.5549348305199
 30
0.0
 11
429.6331888176964
 21
187.5845508305199
 31
0.0
  0
LINE
  5
AB2
330
18
100
AcDbEntity
  8
1
  6
Continuous
100
AcDbLine
 10
429.6756288176964
 20
187.5255278305199
 30
0.0
 11
429.6542518176964
 21
187.5549348305199
 31
0.0
  0
LINE
  5
AB3
330
18
100
AcDbEntity
  8
1
  6
Continuous
100
AcDbLine
 10
429.6972838176962
 20
187.4963148305199
 30
0.0
 11
429.6756288176964
 21
187.5255278305199
 31
0.0
  0
LINE
  5
AB4
330
18
100
AcDbEntity
  8
1
  6
Continuous
100
AcDbLine
 10
429.7191818176964
 20
187.4672858305198
 30
0.0
 11
429.6972838176961
 21
187.49631483052
 31
0.0
  0
LINE
  5
AB5
330
18
100
AcDbEntity
  8
1
  6
Continuous
100
AcDbLine
 10
429.7537308176964
 20
187.4223938305199
 30
0.0
 11
429.7191818176964
 21
187.4672858305198
 31
0.0
  0
LINE
  5
AB6
330
18
100
AcDbEntity
  8
1
  6
Continuous
100
AcDbLine
 10
429.7887918176964
 20
187.3779388305199
 30
0.0
 11
429.7537308176963
 21
187.4223938305199
 31
0.0
  0
LINE
  5
AB7
330
18
100
AcDbEntity
  8
1
  6
Continuous
100
AcDbLine
 10
429.8243718176963
 20
187.33394183052
 30
0.0
 11
429.7887918176964
 21
187.3779388305201
 31
0.0
  0
LINE
  5
AB8
330
18
100
AcDbEntity
  8
1
  6
Continuous
100
AcDbLine
 10
429.8604818176963
 20
187.2904228305199
 30
0.0
 11
429.8243718176963
 21
187.3339418305199
 31
0.0
  0
LINE
  5
AB9
330
18
100
AcDbEntity
  8
1
  6
Continuous
100
AcDbLine
 10
429.8971288176963
 20
187.2474038305199
 30
0.0
 11
429.8604818176963
 21
187.2904228305199
 31
0.0
  0
LINE
  5
ABA
330
18
100
AcDbEntity
  8
1
  6
Continuous
100
AcDbLine
 10
429.9343228176963
 20
187.2049058305199
 30
0.0
 11
429.8971288176963
 21
187.2474038305199
 31
0.0
  0
LINE
  5
ABB
330
18
100
AcDbEntity
  8
1
  6
Continuous
100
AcDbLine
 10
429.9720728176961
 20
187.1629498305199
 30
0.0
 11
429.9343228176963
 21
187.2049058305199
 31
0.0
  0
LINE
  5
ABC
330
18
100
AcDbEntity
  8
1
  6
Continuous
100
AcDbLine
 10
430.0103878176964
 20
187.1215578305199
 30
0.0
 11
429.9720728176961
 21
187.1629498305199
 31
0.0
  0
LINE
  5
ABD
330
18
100
AcDbEntity
  8
1
  6
Continuous
100
AcDbLine
 10
430.0492758176964
 20
187.0807488305199
 30
0.0
 11
430.0103878176964
 21
187.1215578305199
 31
0.0
  0
LINE
  5
ABE
330
18
100
AcDbEntity
  8
1
  6
Continuous
100
AcDbLine
 10
430.0887468176963
 20
187.0405458305199
 30
0.0
 11
430.0492758176964
 21
187.0807488305199
 31
0.0
  0
LINE
  5
ABF
330
18
100
AcDbEntity
  8
1
  6
Continuous
100
AcDbLine
 10
430.1288088176963
 20
187.0009688305199
 30
0.0
 11
430.0887468176965
 21
187.0405458305199
 31
0.0
  0
LINE
  5
AC0
330
18
100
AcDbEntity
  8
1
  6
Continuous
100
AcDbLine
 10
430.1694708176965
 20
186.9620398305199
 30
0.0
 11
430.1288088176963
 21
187.0009688305199
 31
0.0
  0
LINE
  5
AC1
330
18
100
AcDbEntity
  8
1
  6
Continuous
100
AcDbLine
 10
430.2107428176963
 20
186.9237798305199
 30
0.0
 11
430.1694708176961
 21
186.9620398305199
 31
0.0
  0
LINE
  5
AC2
330
18
100
AcDbEntity
  8
1
  6
Continuous
100
AcDbLine
 10
430.2526328176964
 20
186.8862088305199
 30
0.0
 11
430.2107428176963
 21
186.9237798305199
 31
0.0
  0
LINE
  5
AC3
330
18
100
AcDbEntity
  8
1
  6
Continuous
100
AcDbLine
 10
430.2951498176962
 20
186.8493488305199
 30
0.0
 11
430.2526328176964
 21
186.8862088305199
 31
0.0
  0
LINE
  5
AC4
330
18
100
AcDbEntity
  8
1
  6
Continuous
100
AcDbLine
 10
430.3383028176963
 20
186.8132208305199
 30
0.0
 11
430.2951498176962
 21
186.8493488305199
 31
0.0
  0
LINE
  5
AC5
330
18
100
AcDbEntity
  8
1
  6
Continuous
100
AcDbLine
 10
429.3092368176965
 20
188.3309948305198
 30
0.0
 11
429.3118338176963
 21
188.3132208305198
 31
0.0
  0
LINE
  5
AC6
330
18
100
AcDbEntity
  8
1
  6
Continuous
100
AcDbLine
 10
429.3065728176964
 20
188.3487678305199
 30
0.0
 11
429.3092368176963
 21
188.3309948305198
 31
0.0
  0
LINE
  5
AC7
330
18
100
AcDbEntity
  8
1
  6
Continuous
100
AcDbLine
 10
429.3038458176964
 20
188.3665388305199
 30
0.0
 11
429.3065728176964
 21
188.3487678305199
 31
0.0
  0
LINE
  5
AC8
330
18
100
AcDbEntity
  8
1
  6
Continuous
100
AcDbLine
 10
429.3010538176964
 20
188.38430483052
 30
0.0
 11
429.3038458176964
 21
188.3665388305199
 31
0.0
  0
LINE
  5
AC9
330
18
100
AcDbEntity
  8
1
  6
Continuous
100
AcDbLine
 10
429.2981988176964
 20
188.4020638305198
 30
0.0
 11
429.3010538176964
 21
188.38430483052
 31
0.0
  0
LINE
  5
ACA
330
18
100
AcDbEntity
  8
1
  6
Continuous
100
AcDbLine
 10
429.2952808176961
 20
188.4198138305199
 30
0.0
 11
429.2981988176964
 21
188.4020638305198
 31
0.0
  0
LINE
  5
ACB
330
18
100
AcDbEntity
  8
1
  6
Continuous
100
AcDbLine
 10
429.2923008176963
 20
188.43755183052
 30
0.0
 11
429.2952808176965
 21
188.4198138305199
 31
0.0
  0
LINE
  5
ACC
330
18
100
AcDbEntity
  8
1
  6
Continuous
100
AcDbLine
 10
429.2892608176963
 20
188.4552768305199
 30
0.0
 11
429.2923008176963
 21
188.4375518305199
 31
0.0
  0
LINE
  5
ACD
330
18
100
AcDbEntity
  8
1
  6
Continuous
100
AcDbLine
 10
429.2861598176963
 20
188.4729858305199
 30
0.0
 11
429.2892608176963
 21
188.4552768305199
 31
0.0
  0
LINE
  5
ACE
330
18
100
AcDbEntity
  8
1
  6
Continuous
100
AcDbLine
 10
429.282998817696
 20
188.4906778305199
 30
0.0
 11
429.2861598176963
 21
188.4729858305199
 31
0.0
  0
LINE
  5
ACF
330
18
100
AcDbEntity
  8
1
  6
Continuous
100
AcDbLine
 10
429.2797788176963
 20
188.5083488305199
 30
0.0
 11
429.282998817696
 21
188.4906778305199
 31
0.0
  0
LINE
  5
AD0
330
18
100
AcDbEntity
  8
1
  6
Continuous
100
AcDbLine
 10
429.2765008176964
 20
188.5259968305199
 30
0.0
 11
429.2797788176963
 21
188.5083488305199
 31
0.0
  0
LINE
  5
AD1
330
18
100
AcDbEntity
  8
1
  6
Continuous
100
AcDbLine
 10
429.2731658176961
 20
188.5436218305199
 30
0.0
 11
429.2765008176964
 21
188.5259968305199
 31
0.0
  0
LINE
  5
AD2
330
18
100
AcDbEntity
  8
1
  6
Continuous
100
AcDbLine
 10
429.2697728176963
 20
188.5612188305199
 30
0.0
 11
429.2731658176965
 21
188.5436218305199
 31
0.0
  0
LINE
  5
AD3
330
18
100
AcDbEntity
  8
1
  6
Continuous
100
AcDbLine
 10
429.2663248176963
 20
188.5787868305199
 30
0.0
 11
429.2697728176963
 21
188.5612188305199
 31
0.0
  0
LINE
  5
AD4
330
18
100
AcDbEntity
  8
1
  6
Continuous
100
AcDbLine
 10
429.2628208176965
 20
188.5963238305199
 30
0.0
 11
429.2663248176963
 21
188.5787868305198
 31
0.0
  0
LINE
  5
AD5
330
18
100
AcDbEntity
  8
1
  6
Continuous
100
AcDbLine
 10
429.2537628176963
 20
188.6402968305199
 30
0.0
 11
429.2628208176963
 21
188.5963238305199
 31
0.0
  0
LINE
  5
AD6
330
18
100
AcDbEntity
  8
1
  6
Continuous
100
AcDbLine
 10
429.2443488176964
 20
188.6840848305199
 30
0.0
 11
429.2537628176963
 21
188.6402968305199
 31
0.0
  0
LINE
  5
AD7
330
18
100
AcDbEntity
  8
1
  6
Continuous
100
AcDbLine
 10
429.2345688176965
 20
188.7277148305199
 30
0.0
 11
429.2443488176964
 21
188.6840848305199
 31
0.0
  0
LINE
  5
AD8
330
18
100
AcDbEntity
  8
1
  6
Continuous
100
AcDbLine
 10
429.2244128176963
 20
188.7712148305199
 30
0.0
 11
429.2345688176963
 21
188.7277148305199
 31
0.0
  0
LINE
  5
AD9
330
18
100
AcDbEntity
  8
1
  6
Continuous
100
AcDbLine
 10
429.2138718176963
 20
188.8146108305199
 30
0.0
 11
429.2244128176963
 21
188.7712148305199
 31
0.0
  0
LINE
  5
ADA
330
18
100
AcDbEntity
  8
1
  6
Continuous
100
AcDbLine
 10
429.2029348176964
 20
188.8579288305199
 30
0.0
 11
429.2138718176963
 21
188.8146108305199
 31
0.0
  0
LINE
  5
ADB
330
18
100
AcDbEntity
  8
1
  6
Continuous
100
AcDbLine
 10
429.1915918176963
 20
188.9011968305198
 30
0.0
 11
429.2029348176964
 21
188.8579288305199
 31
0.0
  0
LINE
  5
ADC
330
18
100
AcDbEntity
  8
1
  6
Continuous
100
AcDbLine
 10
429.1798338176962
 20
188.94444083052
 30
0.0
 11
429.1915918176965
 21
188.9011968305198
 31
0.0
  0
LINE
  5
ADD
330
18
100
AcDbEntity
  8
1
  6
Continuous
100
AcDbLine
 10
429.1676508176963
 20
188.9876888305199
 30
0.0
 11
429.1798338176961
 21
188.94444083052
 31
0.0
  0
LINE
  5
ADE
330
18
100
AcDbEntity
  8
1
  6
Continuous
100
AcDbLine
 10
429.1550328176962
 20
189.0309668305199
 30
0.0
 11
429.1676508176963
 21
188.9876888305199
 31
0.0
  0
LINE
  5
ADF
330
18
100
AcDbEntity
  8
1
  6
Continuous
100
AcDbLine
 10
429.1419688176964
 20
189.0743008305199
 30
0.0
 11
429.1550328176962
 21
189.0309668305199
 31
0.0
  0
LINE
  5
AE0
330
18
100
AcDbEntity
  8
1
  6
Continuous
100
AcDbLine
 10
429.1284508176963
 20
189.1177188305198
 30
0.0
 11
429.1419688176964
 21
189.0743008305199
 31
0.0
  0
LINE
  5
AE1
330
18
100
AcDbEntity
  8
1
  6
Continuous
100
AcDbLine
 10
429.1144668176963
 20
189.16124783052
 30
0.0
 11
429.1284508176963
 21
189.1177188305198
 31
0.0
  0
LINE
  5
AE2
330
18
100
AcDbEntity
  8
1
  6
Continuous
100
AcDbLine
 10
429.1000078176963
 20
189.2049138305199
 30
0.0
 11
429.1144668176963
 21
189.16124783052
 31
0.0
  0
LINE
  5
AE3
330
18
100
AcDbEntity
  8
1
  6
Continuous
100
AcDbLine
 10
429.0850648176963
 20
189.2487438305199
 30
0.0
 11
429.1000078176963
 21
189.2049138305199
 31
0.0
  0
LINE
  5
AE4
330
18
100
AcDbEntity
  8
1
  6
Continuous
100
AcDbLine
 10
429.0696268176961
 20
189.2927638305199
 30
0.0
 11
429.0850648176963
 21
189.2487438305199
 31
0.0
  0
LINE
  5
AE5
330
18
100
AcDbEntity
  8
1
  6
Continuous
100
AcDbLine
 10
429.0587108176961
 20
189.3231278305199
 30
0.0
 11
429.0696268176961
 21
189.2927638305199
 31
0.0
  0
LINE
  5
AE6
330
18
100
AcDbEntity
  8
1
  6
Continuous
100
AcDbLine
 10
429.0474778176965
 20
189.3534878305199
 30
0.0
 11
429.0587108176962
 21
189.3231278305199
 31
0.0
  0
LINE
  5
AE7
330
18
100
AcDbEntity
  8
1
  6
Continuous
100
AcDbLine
 10
429.0358498176963
 20
189.3837368305199
 30
0.0
 11
429.0474778176963
 21
189.3534878305199
 31
0.0
  0
LINE
  5
AE8
330
18
100
AcDbEntity
  8
1
  6
Continuous
100
AcDbLine
 10
429.0237478176964
 20
189.4137678305199
 30
0.0
 11
429.0358498176963
 21
189.3837368305199
 31
0.0
  0
LINE
  5
AE9
330
18
100
AcDbEntity
  8
1
  6
Continuous
100
AcDbLine
 10
398.7942918176963
 20
186.8132208305199
 30
0.0
 11
402.7942918176964
 21
186.8132208305199
 31
0.0
  0
LINE
  5
AEA
330
18
100
AcDbEntity
  8
1
  6
Continuous
100
AcDbLine
 10
408.9574888176962
 20
189.8116708305199
 30
0.0
 11
408.9801838176962
 21
189.8131858305198
 31
0.0
  0
LINE
  5
AEB
330
18
100
AcDbEntity
  8
1
  6
Continuous
100
AcDbLine
 10
408.9352668176964
 20
189.8079658305199
 30
0.0
 11
408.9574888176962
 21
189.8116708305199
 31
0.0
  0
LINE
  5
AEC
330
18
100
AcDbEntity
  8
1
  6
Continuous
100
AcDbLine
 10
408.9135268176963
 20
189.8022098305198
 30
0.0
 11
408.9352668176964
 21
189.8079658305199
 31
0.0
  0
LINE
  5
AED
330
18
100
AcDbEntity
  8
1
  6
Continuous
100
AcDbLine
 10
408.8922758176964
 20
189.79454183052
 30
0.0
 11
408.9135268176963
 21
189.8022098305198
 31
0.0
  0
LINE
  5
AEE
330
18
100
AcDbEntity
  8
1
  6
Continuous
100
AcDbLine
 10
408.8715228176964
 20
189.7850998305199
 30
0.0
 11
408.8922758176964
 21
189.79454183052
 31
0.0
  0
LINE
  5
AEF
330
18
100
AcDbEntity
  8
1
  6
Continuous
100
AcDbLine
 10
408.8512758176963
 20
189.7740238305199
 30
0.0
 11
408.8715228176964
 21
189.7850998305199
 31
0.0
  0
LINE
  5
AF0
330
18
100
AcDbEntity
  8
1
  6
Continuous
100
AcDbLine
 10
408.8315428176962
 20
189.7614518305198
 30
0.0
 11
408.8512758176963
 21
189.7740238305198
 31
0.0
  0
LINE
  5
AF1
330
18
100
AcDbEntity
  8
1
  6
Continuous
100
AcDbLine
 10
408.8123328176963
 20
189.7475238305199
 30
0.0
 11
408.8315428176962
 21
189.7614518305199
 31
0.0
  0
LINE
  5
AF2
330
18
100
AcDbEntity
  8
1
  6
Continuous
100
AcDbLine
 10
408.7936528176961
 20
189.7323768305199
 30
0.0
 11
408.8123328176963
 21
189.7475238305199
 31
0.0
  0
LINE
  5
AF3
330
18
100
AcDbEntity
  8
1
  6
Continuous
100
AcDbLine
 10
408.7755108176962
 20
189.7161508305199
 30
0.0
 11
408.7936528176961
 21
189.7323768305199
 31
0.0
  0
LINE
  5
AF4
330
18
100
AcDbEntity
  8
1
  6
Continuous
100
AcDbLine
 10
408.7579168176961
 20
189.6989848305199
 30
0.0
 11
408.7755108176962
 21
189.7161508305199
 31
0.0
  0
LINE
  5
AF5
330
18
100
AcDbEntity
  8
1
  6
Continuous
100
AcDbLine
 10
408.7408768176961
 20
189.6810168305199
 30
0.0
 11
408.7579168176961
 21
189.6989848305199
 31
0.0
  0
LINE
  5
AF6
330
18
100
AcDbEntity
  8
1
  6
Continuous
100
AcDbLine
 10
408.7243998176964
 20
189.6623868305199
 30
0.0
 11
408.7408768176961
 21
189.6810168305199
 31
0.0
  0
LINE
  5
AF7
330
18
100
AcDbEntity
  8
1
  6
Continuous
100
AcDbLine
 10
408.7084948176963
 20
189.6432318305199
 30
0.0
 11
408.7243998176964
 21
189.6623868305199
 31
0.0
  0
LINE
  5
AF8
330
18
100
AcDbEntity
  8
1
  6
Continuous
100
AcDbLine
 10
408.6931688176965
 20
189.6236928305198
 30
0.0
 11
408.7084948176963
 21
189.6432318305199
 31
0.0
  0
LINE
  5
AF9
330
18
100
AcDbEntity
  8
1
  6
Continuous
100
AcDbLine
 10
408.6784298176961
 20
189.6039078305199
 30
0.0
 11
408.6931688176963
 21
189.6236928305199
 31
0.0
  0
LINE
  5
AFA
330
18
100
AcDbEntity
  8
1
  6
Continuous
100
AcDbLine
 10
408.6569528176965
 20
189.5733008305199
 30
0.0
 11
408.6784298176963
 21
189.6039078305199
 31
0.0
  0
LINE
  5
AFB
330
18
100
AcDbEntity
  8
1
  6
Continuous
100
AcDbLine
 10
408.6367978176961
 20
189.5424498305199
 30
0.0
 11
408.6569528176961
 21
189.5733008305199
 31
0.0
  0
LINE
  5
AFC
330
18
100
AcDbEntity
  8
1
  6
Continuous
100
AcDbLine
 10
408.6178828176961
 20
189.5113628305199
 30
0.0
 11
408.6367978176961
 21
189.5424498305199
 31
0.0
  0
LINE
  5
AFD
330
18
100
AcDbEntity
  8
1
  6
Continuous
100
AcDbLine
 10
408.6001248176962
 20
189.4800498305199
 30
0.0
 11
408.6178828176962
 21
189.5113628305199
 31
0.0
  0
LINE
  5
AFE
330
18
100
AcDbEntity
  8
1
  6
Continuous
100
AcDbLine
 10
408.5834448176963
 20
189.4485178305199
 30
0.0
 11
408.6001248176961
 21
189.4800498305199
 31
0.0
  0
LINE
  5
AFF
330
18
100
AcDbEntity
  8
1
  6
Continuous
100
AcDbLine
 10
408.5677598176962
 20
189.4167768305198
 30
0.0
 11
408.5834448176964
 21
189.4485178305199
 31
0.0
  0
LINE
  5
B00
330
18
100
AcDbEntity
  8
1
  6
Continuous
100
AcDbLine
 10
404.1863118176963
 20
183.8096208305199
 30
0.0
 11
404.0682748176963
 21
183.6845888305199
 31
0.0
  0
LINE
  5
B01
330
18
100
AcDbEntity
  8
1
  6
Continuous
100
AcDbLine
 10
404.3046728176963
 20
183.9343458305199
 30
0.0
 11
404.1863118176963
 21
183.8096208305199
 31
0.0
  0
LINE
  5
B02
330
18
100
AcDbEntity
  8
1
  6
Continuous
100
AcDbLine
 10
404.4233648176961
 20
184.0587538305199
 30
0.0
 11
404.3046728176963
 21
183.9343458305199
 31
0.0
  0
LINE
  5
B03
330
18
100
AcDbEntity
  8
1
  6
Continuous
100
AcDbLine
 10
404.5423988176962
 20
184.18283583052
 30
0.0
 11
404.4233648176961
 21
184.0587538305199
 31
0.0
  0
LINE
  5
B04
330
18
100
AcDbEntity
  8
1
  6
Continuous
100
AcDbLine
 10
404.6617818176961
 20
184.3065808305199
 30
0.0
 11
404.5423988176962
 21
184.18283583052
 31
0.0
  0
LINE
  5
B05
330
18
100
AcDbEntity
  8
1
  6
Continuous
100
AcDbLine
 10
404.7815208176963
 20
184.4299798305199
 30
0.0
 11
404.6617818176961
 21
184.3065808305199
 31
0.0
  0
LINE
  5
B06
330
18
100
AcDbEntity
  8
1
  6
Continuous
100
AcDbLine
 10
404.9016268176963
 20
184.5530228305199
 30
0.0
 11
404.7815208176963
 21
184.4299798305199
 31
0.0
  0
LINE
  5
B07
330
18
100
AcDbEntity
  8
1
  6
Continuous
100
AcDbLine
 10
405.0221068176965
 20
184.67569883052
 30
0.0
 11
404.9016268176963
 21
184.5530228305199
 31
0.0
  0
LINE
  5
B08
330
18
100
AcDbEntity
  8
1
  6
Continuous
100
AcDbLine
 10
405.1429688176963
 20
184.7979998305199
 30
0.0
 11
405.0221068176965
 21
184.67569883052
 31
0.0
  0
LINE
  5
B09
330
18
100
AcDbEntity
  8
1
  6
Continuous
100
AcDbLine
 10
405.2642218176963
 20
184.9199138305199
 30
0.0
 11
405.1429688176963
 21
184.7979998305199
 31
0.0
  0
LINE
  5
B0A
330
18
100
AcDbEntity
  8
1
  6
Continuous
100
AcDbLine
 10
405.3855618176966
 20
185.0411258305199
 30
0.0
 11
405.2642218176965
 21
184.9199138305199
 31
0.0
  0
LINE
  5
B0B
330
18
100
AcDbEntity
  8
1
  6
Continuous
100
AcDbLine
 10
405.5072958176963
 20
185.1619458305199
 30
0.0
 11
405.3855618176961
 21
185.0411258305199
 31
0.0
  0
LINE
  5
B0C
330
18
100
AcDbEntity
  8
1
  6
Continuous
100
AcDbLine
 10
405.6294168176963
 20
185.2823748305199
 30
0.0
 11
405.5072958176963
 21
185.1619458305199
 31
0.0
  0
LINE
  5
B0D
330
18
100
AcDbEntity
  8
1
  6
Continuous
100
AcDbLine
 10
405.7519218176962
 20
185.4024158305199
 30
0.0
 11
405.6294168176964
 21
185.2823748305199
 31
0.0
  0
LINE
  5
B0E
330
18
100
AcDbEntity
  8
1
  6
Continuous
100
AcDbLine
 10
405.8748058176964
 20
185.5220698305199
 30
0.0
 11
405.7519218176962
 21
185.4024158305199
 31
0.0
  0
LINE
  5
B0F
330
18
100
AcDbEntity
  8
1
  6
Continuous
100
AcDbLine
 10
402.9887758176963
 20
182.5132218305199
 30
0.0
 11
402.7942918176964
 21
182.5132218305199
 31
0.0
  0
LINE
  5
B10
330
18
100
AcDbEntity
  8
1
  6
Continuous
100
AcDbLine
 10
405.9980648176964
 20
185.6413388305199
 30
0.0
 11
405.8748058176964
 21
185.5220698305199
 31
0.0
  0
LINE
  5
B11
330
18
100
AcDbEntity
  8
1
  6
Continuous
100
AcDbLine
 10
406.2456898176963
 20
185.8787268305198
 30
0.0
 11
406.1216948176963
 21
185.7602238305198
 31
0.0
  0
LINE
  5
B12
330
18
100
AcDbEntity
  8
1
  6
Continuous
100
AcDbLine
 10
406.1216948176963
 20
185.7602238305198
 30
0.0
 11
405.9980648176963
 21
185.6413388305199
 31
0.0
  0
LINE
  5
B13
330
18
100
AcDbEntity
  8
1
  6
Continuous
100
AcDbLine
 10
406.3700468176961
 20
185.9968508305199
 30
0.0
 11
406.2456898176963
 21
185.8787268305198
 31
0.0
  0
LINE
  5
B14
330
18
100
AcDbEntity
  8
1
  6
Continuous
100
AcDbLine
 10
406.4947598176964
 20
186.1145958305199
 30
0.0
 11
406.3700468176962
 21
185.9968508305199
 31
0.0
  0
LINE
  5
B15
330
18
100
AcDbEntity
  8
1
  6
Continuous
100
AcDbLine
 10
406.6198258176963
 20
186.2319648305199
 30
0.0
 11
406.4947598176964
 21
186.1145958305199
 31
0.0
  0
LINE
  5
B16
330
18
100
AcDbEntity
  8
1
  6
Continuous
100
AcDbLine
 10
406.7452388176962
 20
186.3489578305199
 30
0.0
 11
406.6198258176963
 21
186.2319648305199
 31
0.0
  0
LINE
  5
B17
330
18
100
AcDbEntity
  8
1
  6
Continuous
100
AcDbLine
 10
406.8709958176963
 20
186.4655788305199
 30
0.0
 11
406.7452388176961
 21
186.3489578305199
 31
0.0
  0
LINE
  5
B18
330
18
100
AcDbEntity
  8
1
  6
Continuous
100
AcDbLine
 10
406.9970918176964
 20
186.5818288305199
 30
0.0
 11
406.8709958176963
 21
186.4655788305199
 31
0.0
  0
LINE
  5
B19
330
18
100
AcDbEntity
  8
1
  6
Continuous
100
AcDbLine
 10
407.1235218176964
 20
186.6977088305199
 30
0.0
 11
406.9970918176964
 21
186.5818288305199
 31
0.0
  0
LINE
  5
B1A
330
18
100
AcDbEntity
  8
1
  6
Continuous
100
AcDbLine
 10
407.2502818176962
 20
186.8132208305198
 30
0.0
 11
407.1235218176964
 21
186.6977088305199
 31
0.0
  0
LINE
  5
B1B
330
18
100
AcDbEntity
  8
1
  6
Continuous
100
AcDbLine
 10
408.5390478176964
 20
189.3526998305198
 30
0.0
 11
408.5529878176965
 21
189.3848348305199
 31
0.0
  0
LINE
  5
B1C
330
18
100
AcDbEntity
  8
1
  6
Continuous
100
AcDbLine
 10
408.5258578176961
 20
189.3203808305199
 30
0.0
 11
408.5390478176964
 21
189.3526998305198
 31
0.0
  0
LINE
  5
B1D
330
18
100
AcDbEntity
  8
1
  6
Continuous
100
AcDbLine
 10
408.5133368176963
 20
189.2878868305199
 30
0.0
 11
408.5258578176962
 21
189.3203808305198
 31
0.0
  0
LINE
  5
B1E
330
18
100
AcDbEntity
  8
1
  6
Continuous
100
AcDbLine
 10
408.5014028176964
 20
189.2552258305199
 30
0.0
 11
408.5133368176963
 21
189.2878868305199
 31
0.0
  0
LINE
  5
B1F
330
18
100
AcDbEntity
  8
1
  6
Continuous
100
AcDbLine
 10
408.4899738176961
 20
189.2224068305199
 30
0.0
 11
408.5014028176961
 21
189.2552258305199
 31
0.0
  0
LINE
  5
B20
330
18
100
AcDbEntity
  8
1
  6
Continuous
100
AcDbLine
 10
408.4789688176964
 20
189.1894388305199
 30
0.0
 11
408.4899738176963
 21
189.2224068305199
 31
0.0
  0
LINE
  5
B21
330
18
100
AcDbEntity
  8
1
  6
Continuous
100
AcDbLine
 10
408.4683068176962
 20
189.1563288305198
 30
0.0
 11
408.4789688176964
 21
189.1894388305199
 31
0.0
  0
LINE
  5
B22
330
18
100
AcDbEntity
  8
1
  6
Continuous
100
AcDbLine
 10
408.4579048176963
 20
189.12308683052
 30
0.0
 11
408.4683068176961
 21
189.1563288305198
 31
0.0
  0
LINE
  5
B23
330
18
100
AcDbEntity
  8
1
  6
Continuous
100
AcDbLine
 10
408.4476818176963
 20
189.0897208305198
 30
0.0
 11
408.4579048176963
 21
189.12308683052
 31
0.0
  0
LINE
  5
B24
330
18
100
AcDbEntity
  8
1
  6
Continuous
100
AcDbLine
 10
408.4334538176963
 20
189.0424528305199
 30
0.0
 11
408.4476818176963
 21
189.0897208305198
 31
0.0
  0
LINE
  5
B25
330
18
100
AcDbEntity
  8
1
  6
Continuous
100
AcDbLine
 10
408.4194678176963
 20
188.99496583052
 30
0.0
 11
408.4334538176963
 21
189.0424528305199
 31
0.0
  0
LINE
  5
B26
330
18
100
AcDbEntity
  8
1
  6
Continuous
100
AcDbLine
 10
408.4057748176964
 20
188.9472718305198
 30
0.0
 11
408.4194678176963
 21
188.99496583052
 31
0.0
  0
LINE
  5
B27
330
18
100
AcDbEntity
  8
1
  6
Continuous
100
AcDbLine
 10
408.3924238176964
 20
188.8993798305199
 30
0.0
 11
408.4057748176964
 21
188.9472718305198
 31
0.0
  0
LINE
  5
B28
330
18
100
AcDbEntity
  8
1
  6
Continuous
100
AcDbLine
 10
408.3794628176963
 20
188.8513018305198
 30
0.0
 11
408.3924238176964
 21
188.8993798305198
 31
0.0
  0
LINE
  5
B29
330
18
100
AcDbEntity
  8
1
  6
Continuous
100
AcDbLine
 10
408.3669418176963
 20
188.8030478305199
 30
0.0
 11
408.3794628176963
 21
188.8513018305199
 31
0.0
  0
LINE
  5
B2A
330
18
100
AcDbEntity
  8
1
  6
Continuous
100
AcDbLine
 10
408.3549098176963
 20
188.7546288305199
 30
0.0
 11
408.3669418176963
 21
188.8030478305199
 31
0.0
  0
LINE
  5
B2B
330
18
100
AcDbEntity
  8
1
  6
Continuous
100
AcDbLine
 10
408.3434168176963
 20
188.7060558305199
 30
0.0
 11
408.3549098176963
 21
188.7546288305199
 31
0.0
  0
LINE
  5
B2C
330
18
100
AcDbEntity
  8
1
  6
Continuous
100
AcDbLine
 10
408.3325108176961
 20
188.6573398305199
 30
0.0
 11
408.3434168176963
 21
188.7060558305199
 31
0.0
  0
LINE
  5
B2D
330
18
100
AcDbEntity
  8
1
  6
Continuous
100
AcDbLine
 10
408.3222408176963
 20
188.60849183052
 30
0.0
 11
408.3325108176961
 21
188.6573398305199
 31
0.0
  0
LINE
  5
B2E
330
18
100
AcDbEntity
  8
1
  6
Continuous
100
AcDbLine
 10
408.3126578176964
 20
188.5595208305199
 30
0.0
 11
408.3222408176963
 21
188.60849183052
 31
0.0
  0
LINE
  5
B2F
330
18
100
AcDbEntity
  8
1
  6
Continuous
100
AcDbLine
 10
408.3038088176962
 20
188.5104398305199
 30
0.0
 11
408.3126578176964
 21
188.5595208305199
 31
0.0
  0
LINE
  5
B30
330
18
100
AcDbEntity
  8
1
  6
Continuous
100
AcDbLine
 10
408.2957448176964
 20
188.46125883052
 30
0.0
 11
408.3038088176962
 21
188.5104398305199
 31
0.0
  0
LINE
  5
B31
330
18
100
AcDbEntity
  8
1
  6
Continuous
100
AcDbLine
 10
408.2885148176963
 20
188.41198783052
 30
0.0
 11
408.2957448176961
 21
188.46125883052
 31
0.0
  0
LINE
  5
B32
330
18
100
AcDbEntity
  8
1
  6
Continuous
100
AcDbLine
 10
408.2821668176961
 20
188.3626378305199
 30
0.0
 11
408.2885148176963
 21
188.41198783052
 31
0.0
  0
LINE
  5
B33
330
18
100
AcDbEntity
  8
1
  6
Continuous
100
AcDbLine
 10
408.2767508176964
 20
188.3132208305198
 30
0.0
 11
408.2821668176964
 21
188.3626378305199
 31
0.0
  0
LINE
  5
B34
330
18
100
AcDbEntity
  8
1
  6
Continuous
100
AcDbLine
 10
407.2659528176963
 20
186.8270378305199
 30
0.0
 11
407.2502818176961
 21
186.8132208305199
 31
0.0
  0
LINE
  5
B35
330
18
100
AcDbEntity
  8
1
  6
Continuous
100
AcDbLine
 10
407.2815368176962
 20
186.8409398305199
 30
0.0
 11
407.2659528176963
 21
186.8270378305199
 31
0.0
  0
LINE
  5
B36
330
18
100
AcDbEntity
  8
1
  6
Continuous
100
AcDbLine
 10
407.2970378176961
 20
186.8549228305199
 30
0.0
 11
407.2815368176962
 21
186.8409398305199
 31
0.0
  0
LINE
  5
B37
330
18
100
AcDbEntity
  8
1
  6
Continuous
100
AcDbLine
 10
407.3124608176962
 20
186.8689858305199
 30
0.0
 11
407.2970378176961
 21
186.8549228305199
 31
0.0
  0
LINE
  5
B38
330
18
100
AcDbEntity
  8
1
  6
Continuous
100
AcDbLine
 10
407.3278108176963
 20
186.8831258305199
 30
0.0
 11
407.3124608176961
 21
186.8689858305199
 31
0.0
  0
LINE
  5
B39
330
18
100
AcDbEntity
  8
1
  6
Continuous
100
AcDbLine
 10
407.3430918176963
 20
186.8973408305199
 30
0.0
 11
407.3278108176963
 21
186.8831258305199
 31
0.0
  0
LINE
  5
B3A
330
18
100
AcDbEntity
  8
1
  6
Continuous
100
AcDbLine
 10
407.3583088176961
 20
186.91162683052
 30
0.0
 11
407.3430918176963
 21
186.8973408305199
 31
0.0
  0
LINE
  5
B3B
330
18
100
AcDbEntity
  8
1
  6
Continuous
100
AcDbLine
 10
407.3734668176961
 20
186.9259828305199
 30
0.0
 11
407.3583088176961
 21
186.91162683052
 31
0.0
  0
LINE
  5
B3C
330
18
100
AcDbEntity
  8
1
  6
Continuous
100
AcDbLine
 10
407.3885708176963
 20
186.9404058305199
 30
0.0
 11
407.3734668176964
 21
186.9259828305199
 31
0.0
  0
LINE
  5
B3D
330
18
100
AcDbEntity
  8
1
  6
Continuous
100
AcDbLine
 10
407.4036248176962
 20
186.9548928305198
 30
0.0
 11
407.3885708176963
 21
186.9404058305199
 31
0.0
  0
LINE
  5
B3E
330
18
100
AcDbEntity
  8
1
  6
Continuous
100
AcDbLine
 10
407.4186328176963
 20
186.9694408305199
 30
0.0
 11
407.4036248176961
 21
186.9548928305198
 31
0.0
  0
LINE
  5
B3F
330
18
100
AcDbEntity
  8
1
  6
Continuous
100
AcDbLine
 10
407.4336008176961
 20
186.9840488305198
 30
0.0
 11
407.4186328176963
 21
186.9694408305199
 31
0.0
  0
LINE
  5
B40
330
18
100
AcDbEntity
  8
1
  6
Continuous
100
AcDbLine
 10
407.4485338176963
 20
186.9987128305199
 30
0.0
 11
407.4336008176961
 21
186.9840488305199
 31
0.0
  0
LINE
  5
B41
330
18
100
AcDbEntity
  8
1
  6
Continuous
100
AcDbLine
 10
407.4634348176964
 20
187.0134318305199
 30
0.0
 11
407.4485338176963
 21
186.9987128305199
 31
0.0
  0
LINE
  5
B42
330
18
100
AcDbEntity
  8
1
  6
Continuous
100
AcDbLine
 10
407.4783088176961
 20
187.0282018305199
 30
0.0
 11
407.4634348176961
 21
187.0134318305199
 31
0.0
  0
LINE
  5
B43
330
18
100
AcDbEntity
  8
1
  6
Continuous
100
AcDbLine
 10
407.4931618176964
 20
187.0430208305199
 30
0.0
 11
407.4783088176961
 21
187.0282018305199
 31
0.0
  0
LINE
  5
B44
330
18
100
AcDbEntity
  8
1
  6
Continuous
100
AcDbLine
 10
407.5389548176961
 20
187.0891428305199
 30
0.0
 11
407.4931618176963
 21
187.0430208305199
 31
0.0
  0
LINE
  5
B45
330
18
100
AcDbEntity
  8
1
  6
Continuous
100
AcDbLine
 10
407.5844628176961
 20
187.1357498305199
 30
0.0
 11
407.5389548176961
 21
187.0891428305199
 31
0.0
  0
LINE
  5
B46
330
18
100
AcDbEntity
  8
1
  6
Continuous
100
AcDbLine
 10
407.6295648176964
 20
187.1828848305199
 30
0.0
 11
407.5844628176962
 21
187.1357498305199
 31
0.0
  0
LINE
  5
B47
330
18
100
AcDbEntity
  8
1
  6
Continuous
100
AcDbLine
 10
407.674138817696
 20
187.2305868305199
 30
0.0
 11
407.6295648176961
 21
187.1828848305199
 31
0.0
  0
LINE
  5
B48
330
18
100
AcDbEntity
  8
1
  6
Continuous
100
AcDbLine
 10
407.7180638176963
 20
187.2788978305199
 30
0.0
 11
407.674138817696
 21
187.2305868305199
 31
0.0
  0
LINE
  5
B49
330
18
100
AcDbEntity
  8
1
  6
Continuous
100
AcDbLine
 10
407.7612188176963
 20
187.3278588305199
 30
0.0
 11
407.7180638176963
 21
187.2788978305199
 31
0.0
  0
LINE
  5
B4A
330
18
100
AcDbEntity
  8
1
  6
Continuous
100
AcDbLine
 10
407.8034828176964
 20
187.3775118305199
 30
0.0
 11
407.7612188176963
 21
187.3278588305199
 31
0.0
  0
LINE
  5
B4B
330
18
100
AcDbEntity
  8
1
  6
Continuous
100
AcDbLine
 10
407.8447328176961
 20
187.4278968305199
 30
0.0
 11
407.8034828176964
 21
187.3775118305199
 31
0.0
  0
LINE
  5
B4C
330
18
100
AcDbEntity
  8
1
  6
Continuous
100
AcDbLine
 10
407.8848488176963
 20
187.4790558305199
 30
0.0
 11
407.8447328176961
 21
187.4278968305199
 31
0.0
  0
LINE
  5
B4D
330
18
100
AcDbEntity
  8
1
  6
Continuous
100
AcDbLine
 10
407.9237088176965
 20
187.5310298305199
 30
0.0
 11
407.8848488176963
 21
187.4790558305199
 31
0.0
  0
LINE
  5
B4E
330
18
100
AcDbEntity
  8
1
  6
Continuous
100
AcDbLine
 10
407.9611928176963
 20
187.5838598305199
 30
0.0
 11
407.9237088176965
 21
187.5310298305199
 31
0.0
  0
LINE
  5
B4F
330
18
100
AcDbEntity
  8
1
  6
Continuous
100
AcDbLine
 10
407.9971768176963
 20
187.6375868305198
 30
0.0
 11
407.9611928176963
 21
187.5838598305199
 31
0.0
  0
LINE
  5
B50
330
18
100
AcDbEntity
  8
1
  6
Continuous
100
AcDbLine
 10
408.0315418176962
 20
187.6922518305199
 30
0.0
 11
407.9971768176963
 21
187.6375868305199
 31
0.0
  0
LINE
  5
B51
330
18
100
AcDbEntity
  8
1
  6
Continuous
100
AcDbLine
 10
408.0641658176961
 20
187.7478968305198
 30
0.0
 11
408.0315418176962
 21
187.6922518305199
 31
0.0
  0
LINE
  5
B52
330
18
100
AcDbEntity
  8
1
  6
Continuous
100
AcDbLine
 10
408.0949268176963
 20
187.8045618305199
 30
0.0
 11
408.0641658176961
 21
187.7478968305198
 31
0.0
  0
LINE
  5
B53
330
18
100
AcDbEntity
  8
1
  6
Continuous
100
AcDbLine
 10
408.1237038176963
 20
187.8622888305199
 30
0.0
 11
408.0949268176963
 21
187.8045618305199
 31
0.0
  0
LINE
  5
B54
330
18
100
AcDbEntity
  8
1
  6
Continuous
100
AcDbLine
 10
408.1362618176964
 20
187.8892438305199
 30
0.0
 11
408.1237038176963
 21
187.8622888305199
 31
0.0
  0
LINE
  5
B55
330
18
100
AcDbEntity
  8
1
  6
Continuous
100
AcDbLine
 10
408.1483818176963
 20
187.9164218305199
 30
0.0
 11
408.1362618176963
 21
187.8892438305199
 31
0.0
  0
LINE
  5
B56
330
18
100
AcDbEntity
  8
1
  6
Continuous
100
AcDbLine
 10
408.1600718176963
 20
187.9438078305199
 30
0.0
 11
408.1483818176963
 21
187.9164218305199
 31
0.0
  0
LINE
  5
B57
330
18
100
AcDbEntity
  8
1
  6
Continuous
100
AcDbLine
 10
408.1713398176963
 20
187.9713918305199
 30
0.0
 11
408.1600718176964
 21
187.9438078305199
 31
0.0
  0
LINE
  5
B58
330
18
100
AcDbEntity
  8
1
  6
Continuous
100
AcDbLine
 10
408.1821948176963
 20
187.9991588305199
 30
0.0
 11
408.1713398176963
 21
187.9713918305199
 31
0.0
  0
LINE
  5
B59
330
18
100
AcDbEntity
  8
1
  6
Continuous
100
AcDbLine
 10
408.1926458176963
 20
188.0270988305199
 30
0.0
 11
408.1821948176963
 21
187.9991588305199
 31
0.0
  0
LINE
  5
B5A
330
18
100
AcDbEntity
  8
1
  6
Continuous
100
AcDbLine
 10
408.2027008176964
 20
188.0551978305199
 30
0.0
 11
408.1926458176964
 21
188.0270988305199
 31
0.0
  0
LINE
  5
B5B
330
18
100
AcDbEntity
  8
1
  6
Continuous
100
AcDbLine
 10
408.2123668176961
 20
188.08344483052
 30
0.0
 11
408.2027008176963
 21
188.0551978305199
 31
0.0
  0
LINE
  5
B5C
330
18
100
AcDbEntity
  8
1
  6
Continuous
100
AcDbLine
 10
408.2216548176964
 20
188.11182483052
 30
0.0
 11
408.2123668176961
 21
188.08344483052
 31
0.0
  0
LINE
  5
B5D
330
18
100
AcDbEntity
  8
1
  6
Continuous
100
AcDbLine
 10
408.2305708176964
 20
188.1403288305199
 30
0.0
 11
408.2216548176964
 21
188.11182483052
 31
0.0
  0
LINE
  5
B5E
330
18
100
AcDbEntity
  8
1
  6
Continuous
100
AcDbLine
 10
408.2391248176961
 20
188.1689418305199
 30
0.0
 11
408.2305708176964
 21
188.1403288305199
 31
0.0
  0
LINE
  5
B5F
330
18
100
AcDbEntity
  8
1
  6
Continuous
100
AcDbLine
 10
408.2473248176963
 20
188.1976518305199
 30
0.0
 11
408.2391248176961
 21
188.1689418305199
 31
0.0
  0
LINE
  5
B60
330
18
100
AcDbEntity
  8
1
  6
Continuous
100
AcDbLine
 10
408.2551788176961
 20
188.2264478305199
 30
0.0
 11
408.2473248176963
 21
188.1976518305199
 31
0.0
  0
LINE
  5
B61
330
18
100
AcDbEntity
  8
1
  6
Continuous
100
AcDbLine
 10
408.2626948176963
 20
188.2553158305199
 30
0.0
 11
408.2551788176961
 21
188.2264478305199
 31
0.0
  0
LINE
  5
B62
330
18
100
AcDbEntity
  8
1
  6
Continuous
100
AcDbLine
 10
408.2698828176963
 20
188.2842448305199
 30
0.0
 11
408.2626948176963
 21
188.2553158305199
 31
0.0
  0
LINE
  5
B63
330
18
100
AcDbEntity
  8
1
  6
Continuous
100
AcDbLine
 10
408.2767508176963
 20
188.3132208305199
 30
0.0
 11
408.2698828176963
 21
188.2842448305199
 31
0.0
  0
LINE
  5
B64
330
18
100
AcDbEntity
  8
1
  6
Continuous
100
AcDbLine
 10
403.0122808176963
 20
182.5392648305198
 30
0.0
 11
402.9887758176965
 21
182.5132218305199
 31
0.0
  0
LINE
  5
B65
330
18
100
AcDbEntity
  8
1
  6
Continuous
100
AcDbLine
 10
403.0357978176962
 20
182.5652948305199
 30
0.0
 11
403.0122808176963
 21
182.5392648305199
 31
0.0
  0
LINE
  5
B66
330
18
100
AcDbEntity
  8
1
  6
Continuous
100
AcDbLine
 10
403.0593298176963
 20
182.5913128305199
 30
0.0
 11
403.0357978176962
 21
182.5652948305199
 31
0.0
  0
LINE
  5
B67
330
18
100
AcDbEntity
  8
1
  6
Continuous
100
AcDbLine
 10
403.0828748176961
 20
182.6173188305199
 30
0.0
 11
403.0593298176963
 21
182.5913128305199
 31
0.0
  0
LINE
  5
B68
330
18
100
AcDbEntity
  8
1
  6
Continuous
100
AcDbLine
 10
403.1064318176963
 20
182.6433128305199
 30
0.0
 11
403.0828748176961
 21
182.6173188305199
 31
0.0
  0
LINE
  5
B69
330
18
100
AcDbEntity
  8
1
  6
Continuous
100
AcDbLine
 10
403.1300028176961
 20
182.6692958305199
 30
0.0
 11
403.1064318176963
 21
182.6433128305199
 31
0.0
  0
LINE
  5
B6A
330
18
100
AcDbEntity
  8
1
  6
Continuous
100
AcDbLine
 10
403.1535868176963
 20
182.6952668305199
 30
0.0
 11
403.1300028176961
 21
182.6692958305199
 31
0.0
  0
LINE
  5
B6B
330
18
100
AcDbEntity
  8
1
  6
Continuous
100
AcDbLine
 10
403.1771828176961
 20
182.7212258305199
 30
0.0
 11
403.1535868176963
 21
182.6952668305199
 31
0.0
  0
LINE
  5
B6C
330
18
100
AcDbEntity
  8
1
  6
Continuous
100
AcDbLine
 10
403.2007918176963
 20
182.7471738305199
 30
0.0
 11
403.1771828176964
 21
182.7212258305199
 31
0.0
  0
LINE
  5
B6D
330
18
100
AcDbEntity
  8
1
  6
Continuous
100
AcDbLine
 10
403.224412817696
 20
182.7731108305199
 30
0.0
 11
403.2007918176963
 21
182.7471738305199
 31
0.0
  0
LINE
  5
B6E
330
18
100
AcDbEntity
  8
1
  6
Continuous
100
AcDbLine
 10
403.2480458176965
 20
182.7990378305198
 30
0.0
 11
403.2244128176962
 21
182.7731108305199
 31
0.0
  0
LINE
  5
B6F
330
18
100
AcDbEntity
  8
1
  6
Continuous
100
AcDbLine
 10
403.2716908176963
 20
182.8249528305199
 30
0.0
 11
403.2480458176961
 21
182.7990378305199
 31
0.0
  0
LINE
  5
B70
330
18
100
AcDbEntity
  8
1
  6
Continuous
100
AcDbLine
 10
403.2953468176961
 20
182.8508578305199
 30
0.0
 11
403.2716908176963
 21
182.8249528305199
 31
0.0
  0
LINE
  5
B71
330
18
100
AcDbEntity
  8
1
  6
Continuous
100
AcDbLine
 10
403.3190158176965
 20
182.8767518305198
 30
0.0
 11
403.2953468176962
 21
182.8508578305198
 31
0.0
  0
LINE
  5
B72
330
18
100
AcDbEntity
  8
1
  6
Continuous
100
AcDbLine
 10
403.3426948176964
 20
182.90263683052
 30
0.0
 11
403.3190158176965
 21
182.8767518305199
 31
0.0
  0
LINE
  5
B73
330
18
100
AcDbEntity
  8
1
  6
Continuous
100
AcDbLine
 10
403.3663858176963
 20
182.9285108305199
 30
0.0
 11
403.3426948176964
 21
182.90263683052
 31
0.0
  0
LINE
  5
B74
330
18
100
AcDbEntity
  8
1
  6
Continuous
100
AcDbLine
 10
403.4826558176964
 20
183.0551748305199
 30
0.0
 11
403.3663858176963
 21
182.9285108305199
 31
0.0
  0
LINE
  5
B75
330
18
100
AcDbEntity
  8
1
  6
Continuous
100
AcDbLine
 10
403.5991988176961
 20
183.1815918305198
 30
0.0
 11
403.4826558176964
 21
183.0551748305199
 31
0.0
  0
LINE
  5
B76
330
18
100
AcDbEntity
  8
1
  6
Continuous
100
AcDbLine
 10
403.7160238176964
 20
183.3077518305199
 30
0.0
 11
403.5991988176961
 21
183.1815918305198
 31
0.0
  0
LINE
  5
B77
330
18
100
AcDbEntity
  8
1
  6
Continuous
100
AcDbLine
 10
403.8331388176961
 20
183.4336448305199
 30
0.0
 11
403.7160238176964
 21
183.3077518305199
 31
0.0
  0
LINE
  5
B78
330
18
100
AcDbEntity
  8
1
  6
Continuous
100
AcDbLine
 10
403.9505538176964
 20
183.5592608305199
 30
0.0
 11
403.8331388176961
 21
183.4336448305199
 31
0.0
  0
LINE
  5
B79
330
18
100
AcDbEntity
  8
1
  6
Continuous
100
AcDbLine
 10
404.0682748176963
 20
183.6845888305199
 30
0.0
 11
403.9505538176964
 21
183.5592608305199
 31
0.0
  0
LINE
  5
B7A
330
18
100
AcDbEntity
  8
1
  6
Continuous
100
AcDbLine
 10
408.5529878176963
 20
189.3848348305199
 30
0.0
 11
408.5677598176961
 21
189.4167768305199
 31
0.0
  0
LINE
  5
B7B
330
18
100
AcDbEntity
  8
1
  6
Continuous
100
AcDbLine
 10
402.7942918176964
 20
182.5132218305199
 30
0.0
 11
402.7942918176964
 21
189.8132208305199
 31
0.0
  0
ARC
  5
B7C
330
18
100
AcDbEntity
  8
1
  6
Continuous
100
AcDbCircle
 10
396.6856588176963
 20
192.81322083052
 30
0.0
 40
3.0
100
AcDbArc
 50
195.46601
 51
270.0
  0
LINE
  5
B7D
330
18
100
AcDbEntity
  8
4
  6
CENTER
100
AcDbLine
 10
392.7942938176963
 20
189.0132208305199
 30
0.0
 11
392.7942938176963
 21
197.8132208305199
 31
0.0
  0
LINE
  5
B7E
330
18
100
AcDbEntity
  8
1
  6
Continuous
100
AcDbLine
 10
398.7942918176963
 20
189.8132208305199
 30
0.0
 11
398.7942918176963
 21
186.8132208305199
 31
0.0
  0
LINE
  5
B7F
330
18
100
AcDbEntity
  8
1
  6
Continuous
100
AcDbLine
 10
383.7942938176963
 20
192.0132208305199
 30
0.0
 11
383.7942938176963
 21
194.8132208305199
 31
0.0
  0
LINE
  5
C21
330
18
100
AcDbEntity
  8
1
  6
Continuous
100
AcDbLine
 10
217.1569960180763
 20
41.38644335768717
 30
0.0
 11
217.1569960180763
 21
95.38643935768721
 31
0.0
  0
LINE
  5
C22
330
18
100
AcDbEntity
  8
4
  6
CENTER
100
AcDbLine
 10
182.1569960180763
 20
108.3864393576871
 30
0.0
 11
182.1569960180763
 21
28.38643535768715
 31
0.0
  0
LINE
  5
C23
330
18
100
AcDbEntity
  8
1
  6
Continuous
100
AcDbLine
 10
147.1569960180763
 20
41.38644335768717
 30
0.0
 11
147.1569960180763
 21
95.38643935768721
 31
0.0
  0
CIRCLE
  5
C24
330
18
100
AcDbEntity
  8
1
  6
Continuous
100
AcDbCircle
 10
156.1569960180763
 20
94.38643935768721
 30
0.0
 40
4.4
  0
ARC
  5
C25
330
18
100
AcDbEntity
  8
1
  6
Continuous
100
AcDbCircle
 10
155.1569960180763
 20
95.38643935768721
 30
0.0
 40
8.0
100
AcDbArc
 50
90.00000899999962
 51
180.0000039999999
  0
LINE
  5
C26
330
18
100
AcDbEntity
  8
4
  6
CENTER
100
AcDbLine
 10
148.7569960180763
 20
94.38643935768721
 30
0.0
 11
163.5569960180764
 21
94.38643935768721
 31
0.0
  0
ARC
  5
C29
330
18
100
AcDbEntity
  8
1
  6
Continuous
100
AcDbCircle
 10
209.1569960180763
 20
95.38643935768721
 30
0.0
 40
8.0
100
AcDbArc
 50
359.9999990000002
 51
90.00000899999962
  0
LINE
  5
C2A
330
18
100
AcDbEntity
  8
4
  6
CENTER
100
AcDbLine
 10
215.5569960180763
 20
94.38643935768721
 30
0.0
 11
200.7569960180761
 21
94.38643935768721
 31
0.0
  0
LINE
  5
C2C
330
18
100
AcDbEntity
  8
1
  6
Continuous
100
AcDbLine
 10
155.1569960180763
 20
103.386439357687
 30
0.0
 11
209.1569960180763
 21
103.386439357687
 31
0.0
  0
LINE
  5
C2E
330
18
100
AcDbEntity
  8
4
  6
CENTER
100
AcDbLine
 10
156.1569960180763
 20
101.786439357687
 30
0.0
 11
156.1569960180763
 21
86.98643935768719
 31
0.0
  0
CIRCLE
  5
C2F
330
18
100
AcDbEntity
  8
1
  6
Continuous
100
AcDbCircle
 10
208.1569960180763
 20
94.38643935768721
 30
0.0
 40
4.4
  0
LINE
  5
C30
330
18
100
AcDbEntity
  8
4
  6
CENTER
100
AcDbLine
 10
208.1569960180763
 20
101.786439357687
 30
0.0
 11
208.1569960180763
 21
86.98643935768719
 31
0.0
  0
CIRCLE
  5
C31
330
18
100
AcDbEntity
  8
1
  6
Continuous
100
AcDbCircle
 10
156.1569960180763
 20
42.3864393576872
 30
0.0
 40
4.4
  0
ARC
  5
C32
330
18
100
AcDbEntity
  8
1
  6
Continuous
100
AcDbCircle
 10
155.1569960180763
 20
41.38644335768717
 30
0.0
 40
8.0
100
AcDbArc
 50
179.9999969999998
 51
269.9999960000009
  0
LINE
  5
C33
330
18
100
AcDbEntity
  8
4
  6
CENTER
100
AcDbLine
 10
148.7569960180763
 20
42.3864393576872
 30
0.0
 11
163.5569960180764
 21
42.3864393576872
 31
0.0
  0
LINE
  5
C34
330
18
100
AcDbEntity
  8
4
  6
CENTER
100
AcDbLine
 10
220.3170295422048
 20
68.38643935768721
 30
0.0
 11
142.1569960180763
 21
68.38643935768721
 31
0.0
  0
ARC
  5
C36
330
18
100
AcDbEntity
  8
1
  6
Continuous
100
AcDbCircle
 10
209.1569960180763
 20
41.38644335768717
 30
0.0
 40
8.0
100
AcDbArc
 50
269.9999990000001
 51
359.999996
  0
LINE
  5
C37
330
18
100
AcDbEntity
  8
4
  6
CENTER
100
AcDbLine
 10
215.5569960180763
 20
42.3864393576872
 30
0.0
 11
200.7569960180761
 21
42.3864393576872
 31
0.0
  0
LINE
  5
C39
330
18
100
AcDbEntity
  8
4
  6
CENTER
100
AcDbLine
 10
208.1569960180763
 20
34.98643935768729
 30
0.0
 11
208.1569960180763
 21
49.78643935768719
 31
0.0
  0
LINE
  5
C3A
330
18
100
AcDbEntity
  8
4
  6
CENTER
100
AcDbLine
 10
156.1569960180763
 20
34.98643935768729
 30
0.0
 11
156.1569960180763
 21
49.78643935768719
 31
0.0
  0
CIRCLE
  5
C3B
330
18
100
AcDbEntity
  8
1
  6
Continuous
100
AcDbCircle
 10
208.1569960180763
 20
42.3864393576872
 30
0.0
 40
4.4
  0
LINE
  5
C47
330
18
100
AcDbEntity
  8
1
  6
Continuous
100
AcDbLine
 10
155.1569960180763
 20
33.38644335768719
 30
0.0
 11
209.1569960180763
 21
33.38644335768719
 31
0.0
  0
LINE
  5
CEE
330
18
100
AcDbEntity
  8
1
  6
Continuous
100
AcDbLine
 10
166.1569980180764
 20
84.38643935768721
 30
0.0
 11
198.1569980180763
 21
84.38643935768721
 31
0.0
  0
LINE
  5
CEF
330
18
100
AcDbEntity
  8
1
  6
Continuous
100
AcDbLine
 10
166.1569980180764
 20
87.3864393576872
 30
0.0
 11
198.1569980180763
 21
87.3864393576872
 31
0.0
  0
ARC
  5
CF2
330
18
100
AcDbEntity
  8
1
  6
Continuous
100
AcDbCircle
 10
216.1569960180762
 20
68.38643935768721
 30
0.0
 40
50.0
100
AcDbArc
 50
168.8208399999996
 51
191.1791600000004
  0
ARC
  5
CF3
330
18
100
AcDbEntity
  8
1
  6
Continuous
100
AcDbCircle
 10
148.1569960180763
 20
68.38643935768721
 30
0.0
 40
50.0
100
AcDbArc
 50
348.8208399999994
 51
11.17916000000046
  0
LINE
  5
CF5
330
18
100
AcDbEntity
  8
1
  6
Continuous
100
AcDbLine
 10
175.6101450180763
 20
52.88643935768721
 30
0.0
 11
188.7038470180763
 21
52.88643935768721
 31
0.0
  0
LINE
  5
CF6
330
18
100
AcDbEntity
  8
1
  6
Continuous
100
AcDbLine
 10
177.1569960180763
 20
47.38643935768727
 30
0.0
 11
187.1569960180763
 21
47.38643935768727
 31
0.0
  0
LINE
  5
CF7
330
18
100
AcDbEntity
  8
1
  6
Continuous
100
AcDbLine
 10
168.0867330180763
 20
57.88643935768721
 30
0.0
 11
196.2272590180763
 21
57.88643935768721
 31
0.0
  0
ARC
  5
CF9
330
18
100
AcDbEntity
  8
1
  6
Continuous
100
AcDbCircle
 10
187.1569960180763
 20
48.38643935768725
 30
0.0
 40
1.0
100
AcDbArc
 50
270.0
 51
0.0
  0
LINE
  5
CFA
330
18
100
AcDbEntity
  8
1
  6
Continuous
100
AcDbLine
 10
188.1569960180763
 20
48.38643935768725
 30
0.0
 11
188.1569960180763
 21
49.38643935768727
 31
0.0
  0
ARC
  5
CFB
330
18
100
AcDbEntity
  8
1
  6
Continuous
100
AcDbCircle
 10
196.2272590180763
 20
58.88643935768721
 30
0.0
 40
1.0
100
AcDbArc
 50
270.0
 51
348.8208399999994
  0
LINE
  5
CFC
330
18
100
AcDbEntity
  8
1
  6
Continuous
100
AcDbLine
 10
189.2014370180763
 20
53.3374033576872
 30
0.0
 11
189.6497300180763
 21
57.88643935768721
 31
0.0
  0
ARC
  5
CFD
330
18
100
AcDbEntity
  8
1
  6
Continuous
100
AcDbCircle
 10
188.7038470180763
 20
53.38643935768721
 30
0.0
 40
0.5
100
AcDbArc
 50
270.0
 51
354.3718569999997
  0
ARC
  5
CFE
330
18
100
AcDbEntity
  8
1
  6
Continuous
100
AcDbCircle
 10
177.1569960180763
 20
48.38643935768725
 30
0.0
 40
1.0
100
AcDbArc
 50
180.0
 51
270.0
  0
LINE
  5
CFF
330
18
100
AcDbEntity
  8
1
  6
Continuous
100
AcDbLine
 10
176.1569960180763
 20
49.38643935768727
 30
0.0
 11
176.1569960180763
 21
48.38643935768725
 31
0.0
  0
LINE
  5
D00
330
18
100
AcDbEntity
  8
1
  6
Continuous
100
AcDbLine
 10
178.1569960180763
 20
52.88643935768721
 30
0.0
 11
178.1569960180763
 21
52.3864393576872
 31
0.0
  0
LINE
  5
D01
330
18
100
AcDbEntity
  8
1
  6
Continuous
100
AcDbLine
 10
186.1569960180763
 20
52.3864393576872
 30
0.0
 11
186.1569960180763
 21
52.88643935768721
 31
0.0
  0
LINE
  5
D02
330
18
100
AcDbEntity
  8
1
  6
Continuous
100
AcDbLine
 10
174.6642620180764
 20
57.88643935768721
 30
0.0
 11
175.1125550180763
 21
53.3374033576872
 31
0.0
  0
ARC
  5
D03
330
18
100
AcDbEntity
  8
1
  6
Continuous
100
AcDbCircle
 10
175.6101450180763
 20
53.38643935768721
 30
0.0
 40
0.5
100
AcDbArc
 50
185.6281430000003
 51
270.0
  0
ARC
  5
D04
330
18
100
AcDbEntity
  8
1
  6
Continuous
100
AcDbCircle
 10
168.0867330180763
 20
58.88643935768721
 30
0.0
 40
1.0
100
AcDbArc
 50
191.1791600000004
 51
270.0
  0
LINE
  5
D05
330
18
100
AcDbEntity
  8
1
  6
Continuous
100
AcDbLine
 10
175.6101460180763
 20
83.88643935768721
 30
0.0
 11
188.7038460180763
 21
83.88643935768721
 31
0.0
  0
LINE
  5
D06
330
18
100
AcDbEntity
  8
1
  6
Continuous
100
AcDbLine
 10
177.1569960180763
 20
90.38643935768721
 30
0.0
 11
187.1569960180763
 21
90.38643935768721
 31
0.0
  0
LINE
  5
D07
330
18
100
AcDbEntity
  8
1
  6
Continuous
100
AcDbLine
 10
168.0867330180763
 20
78.88643935768721
 30
0.0
 11
196.2272590180763
 21
78.88643935768721
 31
0.0
  0
LINE
  5
D08
330
18
100
AcDbEntity
  8
1
  6
Continuous
100
AcDbLine
 10
189.6497290180764
 20
78.88643935768731
 30
0.0
 11
189.2014360180764
 21
83.43547535768733
 31
0.0
  0
ARC
  5
D09
330
18
100
AcDbEntity
  8
1
  6
Continuous
100
AcDbCircle
 10
196.2272590180763
 20
77.88643935768721
 30
0.0
 40
1.0
100
AcDbArc
 50
11.17916000000046
 51
90.00000000000005
  0
LINE
  5
D0A
330
18
100
AcDbEntity
  8
1
  6
Continuous
100
AcDbLine
 10
188.1569960180763
 20
87.88643935768721
 30
0.0
 11
188.1569960180763
 21
89.38643935768721
 31
0.0
  0
ARC
  5
D0C
330
18
100
AcDbEntity
  8
1
  6
Continuous
100
AcDbCircle
 10
187.6569960180763
 20
87.88643935768721
 30
0.0
 40
0.5
100
AcDbArc
 50
270.0
 51
0.0
  0
ARC
  5
D0D
330
18
100
AcDbEntity
  8
1
  6
Continuous
100
AcDbCircle
 10
188.7038460180763
 20
83.3864393576872
 30
0.0
 40
0.5
100
AcDbArc
 50
5.628143000000338
 51
90.00000000000005
  0
ARC
  5
D0E
330
18
100
AcDbEntity
  8
1
  6
Continuous
100
AcDbCircle
 10
187.1569960180763
 20
89.38643935768721
 30
0.0
 40
1.0
100
AcDbArc
 50
0.0
 51
90.00000000000005
  0
LINE
  5
D0F
330
18
100
AcDbEntity
  8
1
  6
Continuous
100
AcDbLine
 10
175.1125560180763
 20
83.4354753576872
 30
0.0
 11
174.6642630180763
 21
78.88643935768721
 31
0.0
  0
ARC
  5
D10
330
18
100
AcDbEntity
  8
1
  6
Continuous
100
AcDbCircle
 10
168.0867330180763
 20
77.88643935768721
 30
0.0
 40
1.0
100
AcDbArc
 50
90.00000000000005
 51
168.8208399999996
  0
LINE
  5
D11
330
18
100
AcDbEntity
  8
1
  6
Continuous
100
AcDbLine
 10
176.1569960180763
 20
89.38643935768721
 30
0.0
 11
176.1569960180763
 21
87.88643935768721
 31
0.0
  0
ARC
  5
D12
330
18
100
AcDbEntity
  8
1
  6
Continuous
100
AcDbCircle
 10
176.6569960180763
 20
87.88643935768721
 30
0.0
 40
0.5
100
AcDbArc
 50
180.0
 51
270.0
  0
LINE
  5
D13
330
18
100
AcDbEntity
  8
1
  6
Continuous
100
AcDbLine
 10
178.1569960180763
 20
84.38643935768721
 30
0.0
 11
178.1569960180763
 21
83.88643935768721
 31
0.0
  0
LINE
  5
D14
330
18
100
AcDbEntity
  8
1
  6
Continuous
100
AcDbLine
 10
186.1569960180763
 20
83.88643935768721
 30
0.0
 11
186.1569960180763
 21
84.38643935768721
 31
0.0
  0
ARC
  5
D15
330
18
100
AcDbEntity
  8
1
  6
Continuous
100
AcDbCircle
 10
177.1569960180763
 20
89.38643935768721
 30
0.0
 40
1.0
100
AcDbArc
 50
90.00000000000005
 51
180.0
  0
ARC
  5
D16
330
18
100
AcDbEntity
  8
1
  6
Continuous
100
AcDbCircle
 10
175.6101460180763
 20
83.3864393576872
 30
0.0
 40
0.5
100
AcDbArc
 50
90.00000000000005
 51
174.3718569999995
  0
LINE
  5
E2E
330
18
100
AcDbEntity
  8
1
  6
Continuous
100
AcDbLine
 10
166.1569980180764
 20
87.3864393576872
 30
0.0
 11
166.1569980180764
 21
75.87229722201709
 31
0.0
  0
LINE
  5
E2F
330
18
100
AcDbEntity
  8
1
  6
Continuous
100
AcDbLine
 10
166.1569980180764
 20
49.38643935768721
 30
0.0
 11
198.1569980180763
 21
49.38643935768721
 31
0.0
  0
LINE
  5
E30
330
18
100
AcDbEntity
  8
1
  6
Continuous
100
AcDbLine
 10
166.1569980180764
 20
52.3864393576872
 30
0.0
 11
198.1569980180763
 21
52.3864393576872
 31
0.0
  0
CIRCLE
  5
E37
330
18
100
AcDbEntity
  8
1
  6
Continuous
100
AcDbCircle
 10
182.1569960180763
 20
68.38643935768721
 30
0.0
 40
25.00000145830989
  0
ARC
  5
E42
330
18
100
AcDbEntity
  8
1
  6
Continuous
100
AcDbCircle
 10
166.1569980180764
 20
73.03896388868373
 30
0.0
 40
2.833333333333377
100
AcDbArc
 50
90.0
 51
151.9275130641461
  0
ARC
  5
E43
330
18
100
AcDbEntity
  8
1
  6
Continuous
100
AcDbCircle
 10
174.9069980180761
 20
68.37229722201709
 30
0.0
 40
12.74999999999983
100
AcDbArc
 50
151.9275130641464
 51
208.0724869358534
  0
ARC
  5
E44
330
18
100
AcDbEntity
  8
1
  6
Continuous
100
AcDbCircle
 10
166.1569980180764
 20
63.70563055535047
 30
0.0
 40
2.833333333333377
100
AcDbArc
 50
208.0724869358535
 51
269.9999999999988
  0
LINE
  5
E45
330
18
100
AcDbEntity
  8
1
  6
Continuous
100
AcDbLine
 10
166.1569980180764
 20
60.87229722201709
 30
0.0
 11
166.1569980180764
 21
49.38643935768721
 31
0.0
  0
ARC
  5
E46
330
18
100
AcDbEntity
  8
1
  6
Continuous
100
AcDbCircle
 10
189.4069940180765
 20
68.37229722201709
 30
0.0
 40
12.74999999999983
100
AcDbArc
 50
331.9275130641466
 51
28.07248693585343
  0
ARC
  5
E47
330
18
100
AcDbEntity
  8
1
  6
Continuous
100
AcDbCircle
 10
198.1569940180763
 20
73.03896388868373
 30
0.0
 40
2.833333333333377
100
AcDbArc
 50
28.07248693585377
 51
90.0
  0
LINE
  5
E48
330
18
100
AcDbEntity
  8
1
  6
Continuous
100
AcDbLine
 10
198.1569940180761
 20
87.3864393576872
 30
0.0
 11
198.1569940180763
 21
75.87229722201709
 31
0.0
  0
ARC
  5
E49
330
18
100
AcDbEntity
  8
1
  6
Continuous
100
AcDbCircle
 10
198.1569940180763
 20
63.70563055535047
 30
0.0
 40
2.833333333333377
100
AcDbArc
 50
270.0000000000009
 51
331.9275130641463
  0
LINE
  5
E4A
330
18
100
AcDbEntity
  8
1
  6
Continuous
100
AcDbLine
 10
198.1569940180763
 20
60.87229722201709
 30
0.0
 11
198.1569940180763
 21
49.38643935768721
 31
0.0
  0
ARC
  5
162C
330
18
100
AcDbEntity
  8
1
  6
Continuous
100
AcDbCircle
 10
166.1569900180762
 20
68.38643935768721
 30
0.0
 40
1.5
100
AcDbArc
 50
89.14030196940606
 51
270.8596980305939
  0
ARC
  5
162D
330
18
100
AcDbEntity
  8
1
  6
Continuous
100
AcDbCircle
 10
198.1570010180764
 20
68.38643935768721
 30
0.0
 40
1.5
100
AcDbArc
 50
269.1403401536973
 51
90.85965984630272
  0
ENDSEC
  0
SECTION
  2
OBJECTS
  0
DICTIONARY
  5
C
330
0
100
AcDbDictionary
281
     1
  3
ACAD_CIP_PREVIOUS_PRODUCT_INFO
350
1801
  3
ACAD_COLOR
350
17E4
  3
ACAD_DETAILVIEWSTYLE
350
17FD
  3
ACAD_GROUP
350
D
  3
ACAD_LAYOUT
350
94
  3
ACAD_MATERIAL
350
17B2
  3
ACAD_MLEADERSTYLE
350
17F9
  3
ACAD_MLINESTYLE
350
1B
  3
ACAD_PLOTSETTINGS
350
95
  3
ACAD_PLOTSTYLENAME
350
17B0
  3
ACAD_SCALELIST
350
17E7
  3
ACAD_SECTIONVIEWSTYLE
350
17FB
  3
ACAD_TABLESTYLE
350
17E5
  3
ACAD_VISUALSTYLE
350
17CB
  3
ACDB_RECOMPOSE_DATA
350
181F
  3
AcDbVariableDictionary
350
1812
  3
CONTENTDICTIONARY
350
3D
  3
DWGPROPS
350
1820
  0
DICTIONARY
  5
1802
330
E
100
AcDbDictionary
280
     1
281
     1
  3
ADSK_XREC_LAYER_RECONCILED
360
1803
  0
DICTIONARY
  5
1804
330
4E
100
AcDbDictionary
280
     1
281
     1
  3
ADSK_XREC_LAYER_RECONCILED
360
1805
  0
DICTIONARY
  5
1806
330
4F
100
AcDbDictionary
280
     1
281
     1
  3
ADSK_XREC_LAYER_RECONCILED
360
1807
  0
DICTIONARY
  5
1808
330
50
100
AcDbDictionary
280
     1
281
     1
  3
ADSK_XREC_LAYER_RECONCILED
360
1809
  0
DICTIONARY
  5
180A
330
51
100
AcDbDictionary
280
     1
281
     1
  3
ADSK_XREC_LAYER_RECONCILED
360
180B
  0
DICTIONARY
  5
180C
330
52
100
AcDbDictionary
280
     1
281
     1
  3
ADSK_XREC_LAYER_RECONCILED
360
180D
  0
DICTIONARY
  5
180E
330
53
100
AcDbDictionary
280
     1
281
     1
  3
ADSK_XREC_LAYER_RECONCILED
360
180F
  0
DICTIONARY
  5
1810
330
54
100
AcDbDictionary
280
     1
281
     1
  3
ADSK_XREC_LAYER_RECONCILED
360
1811
  0
DICTIONARY
  5
1794
330
18
100
AcDbDictionary
281
     1
  3
ACAD_LAYOUTSELFREF
350
17AC
  0
DICTIONARY
  5
1792
330
15
100
AcDbDictionary
281
     1
  3
ACAD_LAYOUTSELFREF
350
17AB
  0
XRECORD
  5
1801
102
{ACAD_REACTORS
330
C
102
}
330
C
100
AcDbXrecord
280
     1
300
ACDLT
300
2014
300
ACDLT_F_S
  0
DICTIONARY
  5
17E4
102
{ACAD_REACTORS
330
C
102
}
330
C
100
AcDbDictionary
281
     1
  0
DICTIONARY
  5
17FD
102
{ACAD_REACTORS
330
C
102
}
330
C
100
AcDbDictionary
281
     1
  3
Imperial24
350
17FE
  0
DICTIONARY
  5
D
102
{ACAD_REACTORS
330
C
102
}
330
C
100
AcDbDictionary
281
     1
  0
DICTIONARY
  5
94
102
{ACAD_REACTORS
330
C
102
}
330
C
100
AcDbDictionary
281
     1
  3
Model
350
17FF
  3
レイアウト1
350
1800
  0
DICTIONARY
  5
17B2
102
{ACAD_REACTORS
330
C
102
}
330
C
100
AcDbDictionary
281
     1
  3
ByBlock
350
17BB
  3
ByLayer
350
17B3
  3
Global
350
17C3
  0
DICTIONARY
  5
17F9
102
{ACAD_REACTORS
330
C
102
}
330
C
100
AcDbDictionary
281
     1
  3
Standard
350
17FA
  0
DICTIONARY
  5
1B
102
{ACAD_REACTORS
330
C
102
}
330
C
100
AcDbDictionary
281
     1
  3
STANDARD
350
1C
  0
DICTIONARY
  5
95
102
{ACAD_REACTORS
330
C
102
}
330
C
100
AcDbDictionary
281
     1
  0
ACDBDICTIONARYWDFLT
  5
17B0
102
{ACAD_REACTORS
330
C
102
}
330
C
100
AcDbDictionary
281
     1
  3
Normal
350
17B1
100
AcDbDictionaryWithDefault
340
17B1
  0
DICTIONARY
  5
17E7
102
{ACAD_REACTORS
330
C
102
}
330
C
100
AcDbDictionary
281
     1
  3
A0
350
17E8
  3
A1
350
17E9
  3
A2
350
17EA
  3
A3
350
17EB
  3
A4
350
17EC
  3
A5
350
17ED
  3
A6
350
17EE
  3
A7
350
17EF
  3
A8
350
17F0
  3
A9
350
17F1
  3
B0
350
17F2
  3
B1
350
17F3
  3
B2
350
17F4
  3
B3
350
17F5
  3
B4
350
17F6
  3
B5
350
17F7
  3
B6
350
17F8
  0
DICTIONARY
  5
17FB
102
{ACAD_REACTORS
330
C
102
}
330
C
100
AcDbDictionary
281
     1
  3
Imperial24
350
17FC
  0
DICTIONARY
  5
17E5
102
{ACAD_REACTORS
330
C
102
}
330
C
100
AcDbDictionary
281
     1
  3
Standard
350
17E6
  0
DICTIONARY
  5
17CB
102
{ACAD_REACTORS
330
C
102
}
330
C
100
AcDbDictionary
281
     1
  3
2dWireframe
350
17D1
  3
Basic
350
17D0
  3
Brighten
350
17D7
  3
ColorChange
350
17DB
  3
Conceptual
350
17D4
  3
Dim
350
17D6
  3
EdgeColorOff
350
17E3
  3
Facepattern
350
17DA
  3
Flat
350
17CC
  3
FlatWithEdges
350
17CD
  3
Gouraud
350
17CE
  3
GouraudWithEdges
350
17CF
  3
Hidden
350
17D3
  3
JitterOff
350
17E1
  3
Linepattern
350
17D9
  3
OverhangOff
350
17E2
  3
Realistic
350
17D5
  3
Shaded
350
17E0
  3
Shaded with edges
350
17DF
  3
Shades of Gray
350
17DC
  3
Sketchy
350
17DD
  3
Thicken
350
17D8
  3
Wireframe
350
17D2
  3
X-Ray
350
17DE
  0
XRECORD
  5
181F
102
{ACAD_REACTORS
330
C
102
}
330
C
100
AcDbXrecord
280
     1
 90
        1
330
17E6
  0
DICTIONARY
  5
1812
102
{ACAD_REACTORS
330
C
102
}
330
C
100
AcDbDictionary
281
     1
  3
CANNOSCALE
350
1817
  3
CMLEADERSTYLE
350
1814
  3
CTABLESTYLE
350
1813
  3
CVIEWDETAILSTYLE
350
1815
  3
CVIEWSECTIONSTYLE
350
1816
  3
DIMASSOC
350
181A
  3
INDEXCTL
350
1819
  3
SORTENTS
350
1818
  3
XCLIPFRAME
350
181B
  0
DICTIONARY
  5
3D
102
{ACAD_REACTORS
330
C
102
}
330
C
100
AcDbDictionary
281
     1
  0
XRECORD
  5
1820
102
{ACAD_REACTORS
330
C
102
}
330
C
100
AcDbXrecord
280
     1
  1
DWGPROPS COOKIE
  2

  3

  4

  6

  7

  8
Yoshitsune
  9

300
=
301
=
302
=
303
=
304
=
305
=
306
=
307
=
308
=
309
=
 40
0.2092039236111111
 41
2452930.629301215
 42
2457192.690754907
  1

 90
        0
  0
XRECORD
  5
1803
102
{ACAD_REACTORS
330
1802
102
}
330
1802
100
AcDbXrecord
280
     1
290
     1
  0
XRECORD
  5
1805
102
{ACAD_REACTORS
330
1804
102
}
330
1804
100
AcDbXrecord
280
     1
290
     1
  0
XRECORD
  5
1807
102
{ACAD_REACTORS
330
1806
102
}
330
1806
100
AcDbXrecord
280
     1
290
     1
  0
XRECORD
  5
1809
102
{ACAD_REACTORS
330
1808
102
}
330
1808
100
AcDbXrecord
280
     1
290
     1
  0
XRECORD
  5
180B
102
{ACAD_REACTORS
330
180A
102
}
330
180A
100
AcDbXrecord
280
     1
290
     1
  0
XRECORD
  5
180D
102
{ACAD_REACTORS
330
180C
102
}
330
180C
100
AcDbXrecord
280
     1
290
     1
  0
XRECORD
  5
180F
102
{ACAD_REACTORS
330
180E
102
}
330
180E
100
AcDbXrecord
280
     1
290
     1
  0
XRECORD
  5
1811
102
{ACAD_REACTORS
330
1810
102
}
330
1810
100
AcDbXrecord
280
     1
290
     1
  0
XRECORD
  5
17AC
102
{ACAD_REACTORS
330
1794
102
}
330
1794
100
AcDbXrecord
280
     1
340
18
  0
XRECORD
  5
17AB
102
{ACAD_REACTORS
330
1792
102
}
330
1792
100
AcDbXrecord
280
     1
340
15
  0
ACDBDETAILVIEWSTYLE
  5
17FE
102
{ACAD_XDICTIONARY
360
1858
102
}
102
{ACAD_REACTORS
330
17FD
102
}
330
17FD
100
AcDbModelDocViewStyle
 70
     0
  3
Imperial24
290
     0
100
AcDbDetailViewStyle
 70
     0
 71
     0
 90
        3
 71
     1
340
F
 40
0.24
340
0
 40
0.24
300

 40
0.36
280
     3
 71
     2
340
14
 90
       25
 71
     3
340
F
 40
0.24
 90
        1
 40
0.75
 90
        1
300
%<\AcVar ViewType \f "%tc1">% %<\AcVar ViewDetailId>%\PSCALE %<\AcVar ViewScale \f "%sn">%
 71
     4
340
14
 90
       25
340
14
 90
       25
280
     0
  0
LAYOUT
  5
17FF
102
{ACAD_XDICTIONARY
360
185A
102
}
102
{ACAD_REACTORS
330
94
102
}
330
94
100
AcDbPlotSettings
  1

  2
Canon LBP9100C
  4

  6

 40
0.0
 41
0.0
 42
0.0
 43
0.0
 44
0.0
 45
0.0
 46
0.0
 47
0.0
 48
0.0
 49
0.0
140
0.0
141
0.0
142
1.0
143
1.0
 70
  1712
 72
     0
 73
     0
 74
     0
  7

 75
     0
147
1.0
148
0.0
149
0.0
100
AcDbLayout
  1
Model
 70
     1
 71
     0
 10
0.0
 20
0.0
 11
12.0
 21
9.0
 12
0.0
 22
0.0
 32
0.0
 14
0.0
 24
0.0
 34
0.0
 15
0.0
 25
0.0
 35
0.0
146
0.0
 13
0.0
 23
0.0
 33
0.0
 16
1.0
 26
0.0
 36
0.0
 17
0.0
 27
1.0
 37
0.0
 76
     0
330
18
331
17AA
  0
LAYOUT
  5
1800
102
{ACAD_XDICTIONARY
360
185C
102
}
102
{ACAD_REACTORS
330
94
102
}
330
94
100
AcDbPlotSettings
  1

  2
Canon LBP9100C
  4

  6

 40
0.0
 41
0.0
 42
0.0
 43
0.0
 44
0.0
 45
0.0
 46
0.0
 47
0.0
 48
0.0
 49
0.0
140
0.0
141
0.0
142
1.0
143
1.0
 70
   688
 72
     0
 73
     0
 74
     5
  7

 75
    16
147
1.0
148
0.0
149
0.0
100
AcDbLayout
  1
レイアウト1
 70
     1
 71
     1
 10
0.0
 20
0.0
 11
420.0
 21
297.0
 12
0.0
 22
0.0
 32
0.0
 14
1.000000000000000E+20
 24
1.000000000000000E+20
 34
1.000000000000000E+20
 15
-1.000000000000000E+20
 25
-1.000000000000000E+20
 35
-1.000000000000000E+20
146
0.0
 13
0.0
 23
0.0
 33
0.0
 16
1.0
 26
0.0
 36
0.0
 17
0.0
 27
1.0
 37
0.0
 76
     0
330
15
  0
MATERIAL
  5
17BB
102
{ACAD_XDICTIONARY
360
17BC
102
}
102
{ACAD_REACTORS
330
17B2
102
}
330
17B2
100
AcDbMaterial
  1
ByBlock
 72
     0
 43
0.0208333333333333
 43
0.0
 43
0.0
 43
0.0
 43
0.0
 43
0.0208333333333333
 43
0.0
 43
0.0
 43
0.0
 43
0.0
 43
1.0
 43
0.0
 43
0.0
 43
0.0
 43
0.0
 43
1.0
 77
     0
 47
0.0208333333333333
 47
0.0
 47
0.0
 47
0.0
 47
0.0
 47
0.0208333333333333
 47
0.0
 47
0.0
 47
0.0
 47
0.0
 47
1.0
 47
0.0
 47
0.0
 47
0.0
 47
0.0
 47
1.0
171
     0
 49
0.0208333333333333
 49
0.0
 49
0.0
 49
0.0
 49
0.0
 49
0.0208333333333333
 49
0.0
 49
0.0
 49
0.0
 49
0.0
 49
1.0
 49
0.0
 49
0.0
 49
0.0
 49
0.0
 49
1.0
175
     0
142
0.0208333333333333
142
0.0
142
0.0
142
0.0
142
0.0
142
0.0208333333333333
142
0.0
142
0.0
142
0.0
142
0.0
142
1.0
142
0.0
142
0.0
142
0.0
142
0.0
142
1.0
179
     0
144
0.0208333333333333
144
0.0
144
0.0
144
0.0
144
0.0
144
0.0208333333333333
144
0.0
144
0.0
144
0.0
144
0.0
144
1.0
144
0.0
144
0.0
144
0.0
144
0.0
144
1.0
147
0.0208333333333333
147
0.0
147
0.0
147
0.0
147
0.0
147
0.0208333333333333
147
0.0
147
0.0
147
0.0
147
0.0
147
1.0
147
0.0
147
0.0
147
0.0
147
0.0
147
1.0
  0
MATERIAL
  5
17B3
102
{ACAD_XDICTIONARY
360
17B4
102
}
102
{ACAD_REACTORS
330
17B2
102
}
330
17B2
100
AcDbMaterial
  1
ByLayer
 72
     0
 43
0.0208333333333333
 43
0.0
 43
0.0
 43
0.0
 43
0.0
 43
0.0208333333333333
 43
0.0
 43
0.0
 43
0.0
 43
0.0
 43
1.0
 43
0.0
 43
0.0
 43
0.0
 43
0.0
 43
1.0
 77
     0
 47
0.0208333333333333
 47
0.0
 47
0.0
 47
0.0
 47
0.0
 47
0.0208333333333333
 47
0.0
 47
0.0
 47
0.0
 47
0.0
 47
1.0
 47
0.0
 47
0.0
 47
0.0
 47
0.0
 47
1.0
171
     0
 49
0.0208333333333333
 49
0.0
 49
0.0
 49
0.0
 49
0.0
 49
0.0208333333333333
 49
0.0
 49
0.0
 49
0.0
 49
0.0
 49
1.0
 49
0.0
 49
0.0
 49
0.0
 49
0.0
 49
1.0
175
     0
142
0.0208333333333333
142
0.0
142
0.0
142
0.0
142
0.0
142
0.0208333333333333
142
0.0
142
0.0
142
0.0
142
0.0
142
1.0
142
0.0
142
0.0
142
0.0
142
0.0
142
1.0
179
     0
144
0.0208333333333333
144
0.0
144
0.0
144
0.0
144
0.0
144
0.0208333333333333
144
0.0
144
0.0
144
0.0
144
0.0
144
1.0
144
0.0
144
0.0
144
0.0
144
0.0
144
1.0
147
0.0208333333333333
147
0.0
147
0.0
147
0.0
147
0.0
147
0.0208333333333333
147
0.0
147
0.0
147
0.0
147
0.0
147
1.0
147
0.0
147
0.0
147
0.0
147
0.0
147
1.0
  0
MATERIAL
  5
17C3
102
{ACAD_XDICTIONARY
360
17C4
102
}
102
{ACAD_REACTORS
330
17B2
102
}
330
17B2
100
AcDbMaterial
  1
Global
 72
     0
 43
0.0208333333333333
 43
0.0
 43
0.0
 43
0.0
 43
0.0
 43
0.0208333333333333
 43
0.0
 43
0.0
 43
0.0
 43
0.0
 43
1.0
 43
0.0
 43
0.0
 43
0.0
 43
0.0
 43
1.0
 77
     0
 47
0.0208333333333333
 47
0.0
 47
0.0
 47
0.0
 47
0.0
 47
0.0208333333333333
 47
0.0
 47
0.0
 47
0.0
 47
0.0
 47
1.0
 47
0.0
 47
0.0
 47
0.0
 47
0.0
 47
1.0
171
     0
 49
0.0208333333333333
 49
0.0
 49
0.0
 49
0.0
 49
0.0
 49
0.0208333333333333
 49
0.0
 49
0.0
 49
0.0
 49
0.0
 49
1.0
 49
0.0
 49
0.0
 49
0.0
 49
0.0
 49
1.0
175
     0
142
0.0208333333333333
142
0.0
142
0.0
142
0.0
142
0.0
142
0.0208333333333333
142
0.0
142
0.0
142
0.0
142
0.0
142
1.0
142
0.0
142
0.0
142
0.0
142
0.0
142
1.0
179
     0
144
0.0208333333333333
144
0.0
144
0.0
144
0.0
144
0.0
144
0.0208333333333333
144
0.0
144
0.0
144
0.0
144
0.0
144
1.0
144
0.0
144
0.0
144
0.0
144
0.0
144
1.0
147
0.0208333333333333
147
0.0
147
0.0
147
0.0
147
0.0
147
0.0208333333333333
147
0.0
147
0.0
147
0.0
147
0.0
147
1.0
147
0.0
147
0.0
147
0.0
147
0.0
147
1.0
  0
MLEADERSTYLE
  5
17FA
102
{ACAD_REACTORS
330
17F9
102
}
330
17F9
100
AcDbMLeaderStyle
170
     2
171
     1
172
     0
 90
        2
 40
0.0
 41
0.0
173
     1
 91
-1056964608
340
12
 92
       -2
290
     1
 42
0.09
291
     1
 43
0.36
  3
Standard
 44
0.18
300

342
F
174
     1
178
     6
175
     1
176
     0
 93
-1056964608
 45
0.18
292
     0
297
     0
 46
0.18
 94
-1056964608
 47
1.0
 49
1.0
140
1.0
293
     1
141
0.0
294
     1
177
     0
142
1.0
295
     0
296
     0
143
0.125
1001
ACAD_MLEADERVER
1070
     2
  0
MLINESTYLE
  5
1C
102
{ACAD_REACTORS
330
1B
102
}
330
1B
100
AcDbMlineStyle
  2
STANDARD
 70
     0
  3

 62
   256
 51
90.0
 52
90.0
 71
     2
 49
0.5
 62
   256
  6
BYLAYER
 49
-0.5
 62
   256
  6
BYLAYER
  0
ACDBPLACEHOLDER
  5
17B1
102
{ACAD_REACTORS
330
17B0
102
}
330
17B0
  0
SCALE
  5
17E8
102
{ACAD_REACTORS
330
17E7
102
}
330
17E7
100
AcDbScale
 70
     0
300
1:1
140
1.0
141
1.0
290
     1
  0
SCALE
  5
17E9
102
{ACAD_REACTORS
330
17E7
102
}
330
17E7
100
AcDbScale
 70
     0
300
1/128" = 1'-0"
140
0.0078125
141
12.0
290
     0
  0
SCALE
  5
17EA
102
{ACAD_REACTORS
330
17E7
102
}
330
17E7
100
AcDbScale
 70
     0
300
1/64" = 1'-0"
140
0.015625
141
12.0
290
     0
  0
SCALE
  5
17EB
102
{ACAD_REACTORS
330
17E7
102
}
330
17E7
100
AcDbScale
 70
     0
300
1/32" = 1'-0"
140
0.03125
141
12.0
290
     0
  0
SCALE
  5
17EC
102
{ACAD_REACTORS
330
17E7
102
}
330
17E7
100
AcDbScale
 70
     0
300
1/16" = 1'-0"
140
0.0625
141
12.0
290
     0
  0
SCALE
  5
17ED
102
{ACAD_REACTORS
330
17E7
102
}
330
17E7
100
AcDbScale
 70
     0
300
3/32" = 1'-0"
140
0.09375
141
12.0
290
     0
  0
SCALE
  5
17EE
102
{ACAD_REACTORS
330
17E7
102
}
330
17E7
100
AcDbScale
 70
     0
300
1/8" = 1'-0"
140
0.125
141
12.0
290
     0
  0
SCALE
  5
17EF
102
{ACAD_REACTORS
330
17E7
102
}
330
17E7
100
AcDbScale
 70
     0
300
3/16" = 1'-0"
140
0.1875
141
12.0
290
     0
  0
SCALE
  5
17F0
102
{ACAD_REACTORS
330
17E7
102
}
330
17E7
100
AcDbScale
 70
     0
300
1/4" = 1'-0"
140
0.25
141
12.0
290
     0
  0
SCALE
  5
17F1
102
{ACAD_REACTORS
330
17E7
102
}
330
17E7
100
AcDbScale
 70
     0
300
3/8" = 1'-0"
140
0.375
141
12.0
290
     0
  0
SCALE
  5
17F2
102
{ACAD_REACTORS
330
17E7
102
}
330
17E7
100
AcDbScale
 70
     0
300
1/2" = 1'-0"
140
0.5
141
12.0
290
     0
  0
SCALE
  5
17F3
102
{ACAD_REACTORS
330
17E7
102
}
330
17E7
100
AcDbScale
 70
     0
300
3/4" = 1'-0"
140
0.75
141
12.0
290
     0
  0
SCALE
  5
17F4
102
{ACAD_REACTORS
330
17E7
102
}
330
17E7
100
AcDbScale
 70
     0
300
1" = 1'-0"
140
1.0
141
12.0
290
     0
  0
SCALE
  5
17F5
102
{ACAD_REACTORS
330
17E7
102
}
330
17E7
100
AcDbScale
 70
     0
300
1-1/2" = 1'-0"
140
1.5
141
12.0
290
     0
  0
SCALE
  5
17F6
102
{ACAD_REACTORS
330
17E7
102
}
330
17E7
100
AcDbScale
 70
     0
300
3" = 1'-0"
140
3.0
141
12.0
290
     0
  0
SCALE
  5
17F7
102
{ACAD_REACTORS
330
17E7
102
}
330
17E7
100
AcDbScale
 70
     0
300
6" = 1'-0"
140
6.0
141
12.0
290
     0
  0
SCALE
  5
17F8
102
{ACAD_REACTORS
330
17E7
102
}
330
17E7
100
AcDbScale
 70
     0
300
1'-0" = 1'-0"
140
12.0
141
12.0
290
     0
  0
ACDBSECTIONVIEWSTYLE
  5
17FC
102
{ACAD_XDICTIONARY
360
1856
102
}
102
{ACAD_REACTORS
330
17FB
102
}
330
17FB
100
AcDbModelDocViewStyle
 70
     0
  3
Imperial24
290
     0
100
AcDbSectionViewStyle
 70
     0
 71
     0
 90
       78
 71
     1
340
F
 40
0.24
340
0
340
0
 40
0.24
300
I, O, Q, S, X, Z
 40
0.48
 90
        3
 40
0.18
 90
        1
 71
     2
340
14
 90
       25
340
14
 90
       50
 40
0.24
 40
0.0
 40
0.24
 71
     3
340
F
 40
0.24
 90
        1
 40
0.75
 90
        1
300
%<\AcVar ViewType \f "%tc1">% %<\AcVar ViewSectionStartId>%-%<\AcVar ViewSectionEndId>%\PSCALE %<\AcVar ViewScale \f "%sn">%
 71
     4
300
ANSI31
 40
1.0
 90
        0
290
     0
290
     0
 90
        6
 40
0.0
 40
1.570796326794896
 40
0.2617993877991494
 40
1.308996938995747
 40
-0.2617993877991494
 40
1.832595714594046
  0
TABLESTYLE
  5
17E6
102
{ACAD_XDICTIONARY
360
181D
102
}
102
{ACAD_REACTORS
330
17E5
102
}
330
17E5
100
AcDbTableStyle
  3
Standard
 70
     0
 71
     0
 40
0.06
 41
0.06
280
     0
281
     0
  7
STANDARD
140
0.18
170
     2
 62
     0
 63
     7
283
     0
274
    -2
284
     1
 64
     0
275
    -2
285
     1
 65
     0
276
    -2
286
     1
 66
     0
277
    -2
287
     1
 67
     0
278
    -2
288
     1
 68
     0
279
    -2
289
     1
 69
     0
  7
STANDARD
140
0.25
170
     5
 62
     0
 63
     7
283
     0
274
    -2
284
     1
 64
     0
275
    -2
285
     1
 65
     0
276
    -2
286
     1
 66
     0
277
    -2
287
     1
 67
     0
278
    -2
288
     1
 68
     0
279
    -2
289
     1
 69
     0
  7
STANDARD
140
0.18
170
     5
 62
     0
 63
     7
283
     0
274
    -2
284
     1
 64
     0
275
    -2
285
     1
 65
     0
276
    -2
286
     1
 66
     0
277
    -2
287
     1
 67
     0
278
    -2
288
     1
 68
     0
279
    -2
289
     1
 69
     0
  0
VISUALSTYLE
  5
17D1
102
{ACAD_XDICTIONARY
360
182E
102
}
102
{ACAD_REACTORS
330
17CB
102
}
330
17CB
100
AcDbVisualStyle
  2
2dWireframe
 70
     4
 71
     0
 72
     2
 73
     0
 90
        0
 40
-0.6
 41
-30.0
 62
     5
 63
     7
 74
     1
 91
        4
 64
     7
 65
   257
 75
     1
175
     1
 42
1.0
 92
        0
 66
   257
 43
1.0
 76
     1
 77
     6
 78
     2
 67
     7
 79
     5
170
     0
171
     0
290
     0
174
     0
 93
        1
 44
0.0
173
     0
291
     0
 45
0.0
1001
ACAD
1000
AcDbSavedByObjectVersion
1070
     0
  0
VISUALSTYLE
  5
17D0
102
{ACAD_XDICTIONARY
360
182C
102
}
102
{ACAD_REACTORS
330
17CB
102
}
330
17CB
100
AcDbVisualStyle
  2
Basic
 70
     7
 71
     1
 72
     0
 73
     1
 90
        0
 40
-0.6
 41
-30.0
 62
     5
 63
     7
 74
     0
 91
        4
 64
     7
 65
   257
 75
     1
175
     1
 42
1.0
 92
        8
 66
     7
 43
1.0
 76
     1
 77
     6
 78
     2
 67
     7
 79
     5
170
     0
171
     0
290
     0
174
     0
 93
        1
 44
0.0
173
     0
291
     1
 45
0.0
1001
ACAD
1000
AcDbSavedByObjectVersion
1070
     0
  0
VISUALSTYLE
  5
17D7
102
{ACAD_XDICTIONARY
360
183A
102
}
102
{ACAD_REACTORS
330
17CB
102
}
330
17CB
100
AcDbVisualStyle
  2
Brighten
 70
    12
 71
     2
 72
     2
 73
     0
 90
        0
 40
-0.6
 41
-30.0
 62
     5
 63
     7
 74
     1
 91
        4
 64
     7
 65
   257
 75
     1
175
     1
 42
1.0
 92
        8
 66
     7
 43
1.0
 76
     1
 77
     6
 78
     2
 67
     7
 79
     5
170
     0
171
     0
290
     0
174
     0
 93
        1
 44
50.0
173
     0
291
     1
 45
0.0
1001
ACAD
1000
AcDbSavedByObjectVersion
1070
     0
  0
VISUALSTYLE
  5
17DB
102
{ACAD_XDICTIONARY
360
1842
102
}
102
{ACAD_REACTORS
330
17CB
102
}
330
17CB
100
AcDbVisualStyle
  2
ColorChange
 70
    16
 71
     2
 72
     2
 73
     3
 90
        0
 40
-0.6
 41
-30.0
 62
     5
 63
     8
 74
     1
 91
        4
 64
     7
 65
   257
 75
     1
175
     1
 42
1.0
 92
        8
 66
     8
 43
1.0
 76
     1
 77
     6
 78
     2
 67
     7
 79
     5
170
     0
171
     0
290
     0
174
     0
 93
        1
 44
0.0
173
     0
291
     1
 45
0.0
1001
ACAD
1000
AcDbSavedByObjectVersion
1070
     0
  0
VISUALSTYLE
  5
17D4
102
{ACAD_XDICTIONARY
360
1834
102
}
102
{ACAD_REACTORS
330
17CB
102
}
330
17CB
100
AcDbVisualStyle
  2
Conceptual
 70
     9
 71
     3
 72
     2
 73
     0
 90
        0
 40
-0.6
 41
-30.0
 62
     5
 63
     7
 74
     2
 91
        2
 64
     7
 65
   257
 75
     1
175
     1
 42
179.0
 92
        8
 66
     7
 43
1.0
 76
     1
 77
     6
 78
     2
 67
     7
 79
     3
170
     0
171
     0
290
     0
174
     0
 93
        1
 44
0.0
173
     0
291
     0
 45
0.0
1001
ACAD
1000
AcDbSavedByObjectVersion
1070
     0
  0
VISUALSTYLE
  5
17D6
102
{ACAD_XDICTIONARY
360
1838
102
}
102
{ACAD_REACTORS
330
17CB
102
}
330
17CB
100
AcDbVisualStyle
  2
Dim
 70
    11
 71
     2
 72
     2
 73
     0
 90
        0
 40
-0.6
 41
-30.0
 62
     5
 63
     7
 74
     1
 91
        4
 64
     7
 65
   257
 75
     1
175
     1
 42
1.0
 92
        8
 66
     7
 43
1.0
 76
     1
 77
     6
 78
     2
 67
     7
 79
     5
170
     0
171
     0
290
     0
174
     0
 93
        1
 44
-50.0
173
     0
291
     1
 45
0.0
1001
ACAD
1000
AcDbSavedByObjectVersion
1070
     0
  0
VISUALSTYLE
  5
17E3
102
{ACAD_XDICTIONARY
360
1852
102
}
102
{ACAD_REACTORS
330
17CB
102
}
330
17CB
100
AcDbVisualStyle
  2
EdgeColorOff
 70
    22
 71
     2
 72
     2
 73
     0
 90
        0
 40
-0.6
 41
-30.0
 62
     5
 63
     7
 74
     1
 91
        4
 64
     7
 65
   257
 75
     1
175
     1
 42
1.0
 92
        8
 66
     7
 43
1.0
 76
     1
 77
     6
 78
     2
 67
     7
 79
     5
170
     0
171
     0
290
     0
174
     0
 93
        1
 44
0.0
173
     0
291
     1
 45
0.0
1001
ACAD
1000
AcDbSavedByObjectVersion
1070
     0
  0
VISUALSTYLE
  5
17DA
102
{ACAD_XDICTIONARY
360
1840
102
}
102
{ACAD_REACTORS
330
17CB
102
}
330
17CB
100
AcDbVisualStyle
  2
Facepattern
 70
    15
 71
     2
 72
     2
 73
     0
 90
        0
 40
-0.6
 41
-30.0
 62
     5
 63
     7
 74
     1
 91
        4
 64
     7
 65
   257
 75
     1
175
     1
 42
1.0
 92
        8
 66
     7
 43
1.0
 76
     1
 77
     6
 78
     2
 67
     7
 79
     5
170
     0
171
     0
290
     0
174
     0
 93
        1
 44
0.0
173
     0
291
     1
 45
0.0
1001
ACAD
1000
AcDbSavedByObjectVersion
1070
     0
  0
VISUALSTYLE
  5
17CC
102
{ACAD_XDICTIONARY
360
1824
102
}
102
{ACAD_REACTORS
330
17CB
102
}
330
17CB
100
AcDbVisualStyle
  2
Flat
 70
     0
 71
     2
 72
     1
 73
     1
 90
        2
 40
-0.6
 41
30.0
 62
     5
 63
     7
 74
     0
 91
        0
 64
     7
 65
   257
 75
     1
175
     1
 42
1.0
 92
        8
 66
     7
 43
1.0
 76
     1
 77
     6
 78
     2
 67
     7
 79
     5
170
     0
171
     0
290
     0
174
     0
 93
       13
 44
0.0
173
     0
291
     1
 45
0.0
1001
ACAD
1000
AcDbSavedByObjectVersion
1070
     0
  0
VISUALSTYLE
  5
17CD
102
{ACAD_XDICTIONARY
360
1826
102
}
102
{ACAD_REACTORS
330
17CB
102
}
330
17CB
100
AcDbVisualStyle
  2
FlatWithEdges
 70
     1
 71
     2
 72
     1
 73
     1
 90
        2
 40
-0.6
 41
30.0
 62
     5
 63
     7
 74
     1
 91
        0
 64
     7
 65
   257
 75
     1
175
     1
 42
1.0
 92
        0
 66
   257
 43
1.0
 76
     1
 77
     6
 78
     2
 67
     7
 79
     5
170
     0
171
     0
290
     0
174
     0
 93
       13
 44
0.0
173
     0
291
     1
 45
0.0
1001
ACAD
1000
AcDbSavedByObjectVersion
1070
     0
  0
VISUALSTYLE
  5
17CE
102
{ACAD_XDICTIONARY
360
1828
102
}
102
{ACAD_REACTORS
330
17CB
102
}
330
17CB
100
AcDbVisualStyle
  2
Gouraud
 70
     2
 71
     2
 72
     2
 73
     1
 90
        2
 40
-0.6
 41
30.0
 62
     5
 63
     7
 74
     0
 91
        0
 64
     7
 65
   257
 75
     1
175
     1
 42
1.0
 92
        0
 66
     7
 43
1.0
 76
     1
 77
     6
 78
     2
 67
     7
 79
     5
170
     0
171
     0
290
     0
174
     0
 93
       13
 44
0.0
173
     0
291
     1
 45
0.0
1001
ACAD
1000
AcDbSavedByObjectVersion
1070
     0
  0
VISUALSTYLE
  5
17CF
102
{ACAD_XDICTIONARY
360
182A
102
}
102
{ACAD_REACTORS
330
17CB
102
}
330
17CB
100
AcDbVisualStyle
  2
GouraudWithEdges
 70
     3
 71
     2
 72
     2
 73
     1
 90
        2
 40
-0.6
 41
30.0
 62
     5
 63
     7
 74
     1
 91
        0
 64
     7
 65
   257
 75
     1
175
     1
 42
1.0
 92
        0
 66
   257
 43
1.0
 76
     1
 77
     6
 78
     2
 67
     7
 79
     5
170
     0
171
     0
290
     0
174
     0
 93
       13
 44
0.0
173
     0
291
     1
 45
0.0
1001
ACAD
1000
AcDbSavedByObjectVersion
1070
     0
  0
VISUALSTYLE
  5
17D3
102
{ACAD_XDICTIONARY
360
1832
102
}
102
{ACAD_REACTORS
330
17CB
102
}
330
17CB
100
AcDbVisualStyle
  2
Hidden
 70
     6
 71
     1
 72
     2
 73
     2
 90
        0
 40
-0.6
 41
-30.0
 62
     5
 63
     7
 74
     2
 91
        2
 64
     7
 65
   257
 75
     2
175
     1
 42
40.0
 92
        0
 66
   257
 43
1.0
 76
     1
 77
     6
 78
     2
 67
     7
 79
     3
170
     0
171
     0
290
     0
174
     0
 93
        1
 44
0.0
173
     0
291
     0
 45
0.0
1001
ACAD
1000
AcDbSavedByObjectVersion
1070
     0
  0
VISUALSTYLE
  5
17E1
102
{ACAD_XDICTIONARY
360
184E
102
}
102
{ACAD_REACTORS
330
17CB
102
}
330
17CB
100
AcDbVisualStyle
  2
JitterOff
 70
    20
 71
     2
 72
     2
 73
     0
 90
        0
 40
-0.6
 41
-30.0
 62
     5
 63
     7
 74
     1
 91
        4
 64
     7
 65
   257
 75
     1
175
     1
 42
1.0
 92
       10
 66
     7
 43
1.0
 76
     1
 77
     6
 78
     2
 67
     7
 79
     5
170
     0
171
     0
290
     0
174
     0
 93
        1
 44
0.0
173
     0
291
     1
 45
0.0
1001
ACAD
1000
AcDbSavedByObjectVersion
1070
     0
  0
VISUALSTYLE
  5
17D9
102
{ACAD_XDICTIONARY
360
183E
102
}
102
{ACAD_REACTORS
330
17CB
102
}
330
17CB
100
AcDbVisualStyle
  2
Linepattern
 70
    14
 71
     2
 72
     2
 73
     0
 90
        0
 40
-0.6
 41
-30.0
 62
     5
 63
     7
 74
     1
 91
        4
 64
     7
 65
   257
 75
     7
175
     7
 42
1.0
 92
        8
 66
     7
 43
1.0
 76
     1
 77
     6
 78
     2
 67
     7
 79
     5
170
     0
171
     0
290
     0
174
     0
 93
        1
 44
0.0
173
     0
291
     1
 45
0.0
1001
ACAD
1000
AcDbSavedByObjectVersion
1070
     0
  0
VISUALSTYLE
  5
17E2
102
{ACAD_XDICTIONARY
360
1850
102
}
102
{ACAD_REACTORS
330
17CB
102
}
330
17CB
100
AcDbVisualStyle
  2
OverhangOff
 70
    21
 71
     2
 72
     2
 73
     0
 90
        0
 40
-0.6
 41
-30.0
 62
     5
 63
     7
 74
     1
 91
        4
 64
     7
 65
   257
 75
     1
175
     1
 42
1.0
 92
        9
 66
     7
 43
1.0
 76
     1
 77
     6
 78
     2
 67
     7
 79
     5
170
     0
171
     0
290
     0
174
     0
 93
        1
 44
0.0
173
     0
291
     1
 45
0.0
1001
ACAD
1000
AcDbSavedByObjectVersion
1070
     0
  0
VISUALSTYLE
  5
17D5
102
{ACAD_XDICTIONARY
360
1836
102
}
102
{ACAD_REACTORS
330
17CB
102
}
330
17CB
100
AcDbVisualStyle
  2
Realistic
 70
     8
 71
     2
 72
     3
 73
     0
 90
        2
 40
-0.6
 41
30.0
 62
     5
 63
     7
 74
     0
 91
        0
 64
     7
 65
   257
 75
     1
175
     1
 42
1.0
 92
        8
 66
   257
 43
1.0
 76
     1
 77
     6
 78
     2
 67
     7
 79
     3
170
     0
171
     0
290
     0
174
     0
 93
       13
 44
0.0
173
     0
291
     0
 45
0.0
1001
ACAD
1000
AcDbSavedByObjectVersion
1070
     0
  0
VISUALSTYLE
  5
17E0
102
{ACAD_XDICTIONARY
360
184C
102
}
102
{ACAD_REACTORS
330
17CB
102
}
330
17CB
100
AcDbVisualStyle
  2
Shaded
 70
    27
 71
     2
 72
     2
 73
     1
 90
        2
 40
-0.6
 41
30.0
 62
     5
 63
     7
 74
     0
 91
        4
 64
     7
 65
   257
 75
     1
175
     1
 42
1.0
 92
        8
 66
   257
 43
1.0
 76
     1
 77
     6
 78
     2
 67
     8
 79
     3
170
     0
171
     0
290
     0
174
     0
 93
        5
 44
0.0
173
     0
291
     0
 45
0.0
1001
ACAD
1000
AcDbSavedByObjectVersion
1070
     0
  0
VISUALSTYLE
  5
17DF
102
{ACAD_XDICTIONARY
360
184A
102
}
102
{ACAD_REACTORS
330
17CB
102
}
330
17CB
100
AcDbVisualStyle
  2
Shaded with edges
 70
    26
 71
     2
 72
     2
 73
     1
 90
        2
 40
-0.6
 41
30.0
 62
     5
 63
     7
 74
     1
 91
       10
 64
     7
 65
   257
 75
     2
175
     1
 42
1.0
 92
        8
 66
   257
 43
1.0
 76
     1
 77
     6
 78
     2
 67
     7
 79
     3
170
     0
171
     0
290
     0
174
     0
 93
        5
 44
0.0
173
     0
291
     0
 45
0.0
1001
ACAD
1000
AcDbSavedByObjectVersion
1070
     0
  0
VISUALSTYLE
  5
17DC
102
{ACAD_XDICTIONARY
360
1844
102
}
102
{ACAD_REACTORS
330
17CB
102
}
330
17CB
100
AcDbVisualStyle
  2
Shades of Gray
 70
    23
 71
     2
 72
     2
 73
     3
 90
        0
 40
-0.6
 41
-30.0
 62
     5
 63
     7
 74
     2
 91
        2
 64
     7
 65
     7
 75
     1
175
     1
 42
40.0
 92
        8
 66
     7
 43
1.0
 76
     1
 77
     6
 78
     2
 67
     7
 79
     3
170
     0
171
     0
290
     0
174
     0
 93
        1
 44
0.0
173
     0
291
     0
 45
0.0
1001
ACAD
1000
AcDbSavedByObjectVersion
1070
     0
  0
VISUALSTYLE
  5
17DD
102
{ACAD_XDICTIONARY
360
1846
102
}
102
{ACAD_REACTORS
330
17CB
102
}
330
17CB
100
AcDbVisualStyle
  2
Sketchy
 70
    24
 71
     1
 72
     2
 73
     2
 90
        0
 40
-0.6
 41
-30.0
 62
     5
 63
     7
 74
     2
 91
        2
 64
     7
 65
     7
 75
     1
175
     1
 42
40.0
 92
       11
 66
     7
 43
1.0
 76
     1
 77
     6
 78
     2
 67
     7
 79
     6
170
     0
171
     0
290
     0
174
     0
 93
        1
 44
0.0
173
     0
291
     0
 45
0.0
1001
ACAD
1000
AcDbSavedByObjectVersion
1070
     0
  0
VISUALSTYLE
  5
17D8
102
{ACAD_XDICTIONARY
360
183C
102
}
102
{ACAD_REACTORS
330
17CB
102
}
330
17CB
100
AcDbVisualStyle
  2
Thicken
 70
    13
 71
     2
 72
     2
 73
     0
 90
        0
 40
-0.6
 41
-30.0
 62
     5
 63
     7
 74
     1
 91
        4
 64
     7
 65
   257
 75
     1
175
     1
 42
1.0
 92
       12
 66
     7
 43
1.0
 76
     1
 77
     6
 78
     2
 67
     7
 79
     5
170
     0
171
     0
290
     0
174
     0
 93
        1
 44
0.0
173
     0
291
     1
 45
0.0
1001
ACAD
1000
AcDbSavedByObjectVersion
1070
     0
  0
VISUALSTYLE
  5
17D2
102
{ACAD_XDICTIONARY
360
1830
102
}
102
{ACAD_REACTORS
330
17CB
102
}
330
17CB
100
AcDbVisualStyle
  2
Wireframe
 70
     5
 71
     0
 72
     2
 73
     0
 90
        0
 40
-0.6
 41
-30.0
 62
     5
 63
     7
 74
     1
 91
        4
 64
     7
 65
   257
 75
     1
175
     1
 42
1.0
 92
        0
 66
   257
 43
1.0
 76
     1
 77
     6
 78
     2
 67
     7
 79
     3
170
     0
171
     0
290
     0
174
     0
 93
        1
 44
0.0
173
     0
291
     0
 45
0.0
1001
ACAD
1000
AcDbSavedByObjectVersion
1070
     0
  0
VISUALSTYLE
  5
17DE
102
{ACAD_XDICTIONARY
360
1848
102
}
102
{ACAD_REACTORS
330
17CB
102
}
330
17CB
100
AcDbVisualStyle
  2
X-Ray
 70
    25
 71
     2
 72
     2
 73
     1
 90
        1
 40
0.5
 41
-30.0
 62
     5
 63
     7
 74
     1
 91
        0
 64
     7
 65
   257
 75
     1
175
     1
 42
1.0
 92
        8
 66
     7
 43
1.0
 76
     1
 77
     6
 78
     2
 67
     7
 79
     3
170
     0
171
     0
290
     0
174
     0
 93
       13
 44
0.0
173
     0
291
     0
 45
0.0
1001
ACAD
1000
AcDbSavedByObjectVersion
1070
     0
  0
DICTIONARYVAR
  5
1817
102
{ACAD_REACTORS
330
1812
102
}
330
1812
100
DictionaryVariables
280
     0
  1
1:1
  0
DICTIONARYVAR
  5
1814
102
{ACAD_REACTORS
330
1812
102
}
330
1812
100
DictionaryVariables
280
     0
  1
STANDARD
  0
DICTIONARYVAR
  5
1813
102
{ACAD_REACTORS
330
1812
102
}
330
1812
100
DictionaryVariables
280
     0
  1
STANDARD
  0
DICTIONARYVAR
  5
1815
102
{ACAD_REACTORS
330
1812
102
}
330
1812
100
DictionaryVariables
280
     0
  1
Imperial24
  0
DICTIONARYVAR
  5
1816
102
{ACAD_REACTORS
330
1812
102
}
330
1812
100
DictionaryVariables
280
     0
  1
Imperial24
  0
DICTIONARYVAR
  5
181A
102
{ACAD_REACTORS
330
1812
102
}
330
1812
100
DictionaryVariables
280
     0
  1
1
  0
DICTIONARYVAR
  5
1819
102
{ACAD_REACTORS
330
1812
102
}
330
1812
100
DictionaryVariables
280
     0
  1
0
  0
DICTIONARYVAR
  5
1818
102
{ACAD_REACTORS
330
1812
102
}
330
1812
100
DictionaryVariables
280
     0
  1
127
  0
DICTIONARYVAR
  5
181B
102
{ACAD_REACTORS
330
1812
102
}
330
1812
100
DictionaryVariables
280
     0
  1
2
  0
DICTIONARY
  5
1858
330
17FE
100
AcDbDictionary
280
     1
281
     1
  3
ACAD_XREC_ROUNDTRIP
360
1859
  0
DICTIONARY
  5
185A
330
17FF
100
AcDbDictionary
280
     1
281
     1
  3
ACAD_XREC_ROUNDTRIP
360
185B
  0
DICTIONARY
  5
185C
330
1800
100
AcDbDictionary
280
     1
281
     1
  3
ACAD_XREC_ROUNDTRIP
360
185D
  0
DICTIONARY
  5
17BC
330
17BB
100
AcDbDictionary
280
     1
281
     1
  3
ACAD_XREC_ROUNDTRIP
360
1822
  3
BUMPTILE
360
17BE
  3
DIFFUSETILE
360
17BD
  3
OPACITYTILE
360
17C1
  3
REFLECTIONTILE
360
17C0
  3
REFRACTIONTILE
360
17C2
  3
SPECULARTILE
360
17BF
  0
DICTIONARY
  5
17B4
330
17B3
100
AcDbDictionary
280
     1
281
     1
  3
ACAD_XREC_ROUNDTRIP
360
1821
  3
BUMPTILE
360
17B6
  3
DIFFUSETILE
360
17B5
  3
OPACITYTILE
360
17B9
  3
REFLECTIONTILE
360
17B8
  3
REFRACTIONTILE
360
17BA
  3
SPECULARTILE
360
17B7
  0
DICTIONARY
  5
17C4
330
17C3
100
AcDbDictionary
280
     1
281
     1
  3
ACAD_XREC_ROUNDTRIP
360
1823
  3
BUMPTILE
360
17C6
  3
DIFFUSETILE
360
17C5
  3
OPACITYTILE
360
17C9
  3
REFLECTIONTILE
360
17C8
  3
REFRACTIONTILE
360
17CA
  3
SPECULARTILE
360
17C7
  0
DICTIONARY
  5
1856
330
17FC
100
AcDbDictionary
280
     1
281
     1
  3
ACAD_XREC_ROUNDTRIP
360
1857
  0
DICTIONARY
  5
181D
330
17E6
100
AcDbDictionary
280
     1
281
     1
  3
ACAD_ROUNDTRIP_2008_TABLESTYLE_CELLSTYLEMAP
360
181E
  3
ACAD_XREC_ROUNDTRIP
360
1854
  0
DICTIONARY
  5
182E
330
17D1
100
AcDbDictionary
280
     1
281
     1
  3
ACAD_XREC_ROUNDTRIP
360
182F
  0
DICTIONARY
  5
182C
330
17D0
100
AcDbDictionary
280
     1
281
     1
  3
ACAD_XREC_ROUNDTRIP
360
182D
  0
DICTIONARY
  5
183A
330
17D7
100
AcDbDictionary
280
     1
281
     1
  3
ACAD_XREC_ROUNDTRIP
360
183B
  0
DICTIONARY
  5
1842
330
17DB
100
AcDbDictionary
280
     1
281
     1
  3
ACAD_XREC_ROUNDTRIP
360
1843
  0
DICTIONARY
  5
1834
330
17D4
100
AcDbDictionary
280
     1
281
     1
  3
ACAD_XREC_ROUNDTRIP
360
1835
  0
DICTIONARY
  5
1838
330
17D6
100
AcDbDictionary
280
     1
281
     1
  3
ACAD_XREC_ROUNDTRIP
360
1839
  0
DICTIONARY
  5
1852
330
17E3
100
AcDbDictionary
280
     1
281
     1
  3
ACAD_XREC_ROUNDTRIP
360
1853
  0
DICTIONARY
  5
1840
330
17DA
100
AcDbDictionary
280
     1
281
     1
  3
ACAD_XREC_ROUNDTRIP
360
1841
  0
DICTIONARY
  5
1824
330
17CC
100
AcDbDictionary
280
     1
281
     1
  3
ACAD_XREC_ROUNDTRIP
360
1825
  0
DICTIONARY
  5
1826
330
17CD
100
AcDbDictionary
280
     1
281
     1
  3
ACAD_XREC_ROUNDTRIP
360
1827
  0
DICTIONARY
  5
1828
330
17CE
100
AcDbDictionary
280
     1
281
     1
  3
ACAD_XREC_ROUNDTRIP
360
1829
  0
DICTIONARY
  5
182A
330
17CF
100
AcDbDictionary
280
     1
281
     1
  3
ACAD_XREC_ROUNDTRIP
360
182B
  0
DICTIONARY
  5
1832
330
17D3
100
AcDbDictionary
280
     1
281
     1
  3
ACAD_XREC_ROUNDTRIP
360
1833
  0
DICTIONARY
  5
184E
330
17E1
100
AcDbDictionary
280
     1
281
     1
  3
ACAD_XREC_ROUNDTRIP
360
184F
  0
DICTIONARY
  5
183E
330
17D9
100
AcDbDictionary
280
     1
281
     1
  3
ACAD_XREC_ROUNDTRIP
360
183F
  0
DICTIONARY
  5
1850
330
17E2
100
AcDbDictionary
280
     1
281
     1
  3
ACAD_XREC_ROUNDTRIP
360
1851
  0
DICTIONARY
  5
1836
330
17D5
100
AcDbDictionary
280
     1
281
     1
  3
ACAD_XREC_ROUNDTRIP
360
1837
  0
DICTIONARY
  5
184C
330
17E0
100
AcDbDictionary
280
     1
281
     1
  3
ACAD_XREC_ROUNDTRIP
360
184D
  0
DICTIONARY
  5
184A
330
17DF
100
AcDbDictionary
280
     1
281
     1
  3
ACAD_XREC_ROUNDTRIP
360
184B
  0
DICTIONARY
  5
1844
330
17DC
100
AcDbDictionary
280
     1
281
     1
  3
ACAD_XREC_ROUNDTRIP
360
1845
  0
DICTIONARY
  5
1846
330
17DD
100
AcDbDictionary
280
     1
281
     1
  3
ACAD_XREC_ROUNDTRIP
360
1847
  0
DICTIONARY
  5
183C
330
17D8
100
AcDbDictionary
280
     1
281
     1
  3
ACAD_XREC_ROUNDTRIP
360
183D
  0
DICTIONARY
  5
1830
330
17D2
100
AcDbDictionary
280
     1
281
     1
  3
ACAD_XREC_ROUNDTRIP
360
1831
  0
DICTIONARY
  5
1848
330
17DE
100
AcDbDictionary
280
     1
281
     1
  3
ACAD_XREC_ROUNDTRIP
360
1849
  0
XRECORD
  5
1859
102
{ACAD_REACTORS
330
1858
102
}
330
1858
100
AcDbXrecord
280
     1
102
DISPLAYNAME
  1
Imperial24
102
FLAGS
 90
        0
  0
XRECORD
  5
185B
102
{ACAD_REACTORS
330
185A
102
}
330
185A
100
AcDbXrecord
280
     1
102
SHADEPLOT
 70
     0
102
SHADEPLOTRESLEVEL
 70
     2
102
SHADEPLOTCUSTOMDPI
 70
   300
  0
XRECORD
  5
185D
102
{ACAD_REACTORS
330
185C
102
}
330
185C
100
AcDbXrecord
280
     1
102
SHADEPLOT
 70
     0
102
SHADEPLOTRESLEVEL
 70
     2
102
SHADEPLOTCUSTOMDPI
 70
   300
  0
XRECORD
  5
1822
102
{ACAD_REACTORS
330
17BC
102
}
330
17BC
100
AcDbXrecord
280
     1
102
MATERIAL
148
0.0
149
0.0
149
0.0
 93
        0
 94
      127
282
     0
 72
     0
 77
     0
171
     0
175
     0
179
     0
273
     0
  0
XRECORD
  5
17BE
102
{ACAD_REACTORS
330
17BC
102
}
330
17BC
100
AcDbXrecord
280
     1
270
     1
271
     1
  0
XRECORD
  5
17BD
102
{ACAD_REACTORS
330
17BC
102
}
330
17BC
100
AcDbXrecord
280
     1
270
     1
271
     1
  0
XRECORD
  5
17C1
102
{ACAD_REACTORS
330
17BC
102
}
330
17BC
100
AcDbXrecord
280
     1
270
     1
271
     1
  0
XRECORD
  5
17C0
102
{ACAD_REACTORS
330
17BC
102
}
330
17BC
100
AcDbXrecord
280
     1
270
     1
271
     1
  0
XRECORD
  5
17C2
102
{ACAD_REACTORS
330
17BC
102
}
330
17BC
100
AcDbXrecord
280
     1
270
     1
271
     1
  0
XRECORD
  5
17BF
102
{ACAD_REACTORS
330
17BC
102
}
330
17BC
100
AcDbXrecord
280
     1
270
     1
271
     1
  0
XRECORD
  5
1821
102
{ACAD_REACTORS
330
17B4
102
}
330
17B4
100
AcDbXrecord
280
     1
102
MATERIAL
148
0.0
149
0.0
149
0.0
 93
        0
 94
      127
282
     0
 72
     0
 77
     0
171
     0
175
     0
179
     0
273
     0
  0
XRECORD
  5
17B6
102
{ACAD_REACTORS
330
17B4
102
}
330
17B4
100
AcDbXrecord
280
     1
270
     1
271
     1
  0
XRECORD
  5
17B5
102
{ACAD_REACTORS
330
17B4
102
}
330
17B4
100
AcDbXrecord
280
     1
270
     1
271
     1
  0
XRECORD
  5
17B9
102
{ACAD_REACTORS
330
17B4
102
}
330
17B4
100
AcDbXrecord
280
     1
270
     1
271
     1
  0
XRECORD
  5
17B8
102
{ACAD_REACTORS
330
17B4
102
}
330
17B4
100
AcDbXrecord
280
     1
270
     1
271
     1
  0
XRECORD
  5
17BA
102
{ACAD_REACTORS
330
17B4
102
}
330
17B4
100
AcDbXrecord
280
     1
270
     1
271
     1
  0
XRECORD
  5
17B7
102
{ACAD_REACTORS
330
17B4
102
}
330
17B4
100
AcDbXrecord
280
     1
270
     1
271
     1
  0
XRECORD
  5
1823
102
{ACAD_REACTORS
330
17C4
102
}
330
17C4
100
AcDbXrecord
280
     1
102
MATERIAL
148
0.0
149
0.0
149
0.0
 93
        0
 94
      127
282
     0
 72
     0
 77
     0
171
     0
175
     0
179
     0
273
     0
  0
XRECORD
  5
17C6
102
{ACAD_REACTORS
330
17C4
102
}
330
17C4
100
AcDbXrecord
280
     1
270
     1
271
     1
  0
XRECORD
  5
17C5
102
{ACAD_REACTORS
330
17C4
102
}
330
17C4
100
AcDbXrecord
280
     1
270
     1
271
     1
  0
XRECORD
  5
17C9
102
{ACAD_REACTORS
330
17C4
102
}
330
17C4
100
AcDbXrecord
280
     1
270
     1
271
     1
  0
XRECORD
  5
17C8
102
{ACAD_REACTORS
330
17C4
102
}
330
17C4
100
AcDbXrecord
280
     1
270
     1
271
     1
  0
XRECORD
  5
17CA
102
{ACAD_REACTORS
330
17C4
102
}
330
17C4
100
AcDbXrecord
280
     1
270
     1
271
     1
  0
XRECORD
  5
17C7
102
{ACAD_REACTORS
330
17C4
102
}
330
17C4
100
AcDbXrecord
280
     1
270
     1
271
     1
  0
XRECORD
  5
1857
102
{ACAD_REACTORS
330
1856
102
}
330
1856
100
AcDbXrecord
280
     1
102
DISPLAYNAME
  1
Imperial24
102
FLAGS
 90
        0
  0
CELLSTYLEMAP
  5
181E
102
{ACAD_REACTORS
330
181D
102
}
330
181D
100
AcDbCellStyleMap
 90
        3
300
CELLSTYLE
  1
TABLEFORMAT_BEGIN
 90
        5
170
     1
 91
        0
 92
    32768
 62
   257
 93
        1
300
CONTENTFORMAT
  1
CONTENTFORMAT_BEGIN
 90
        0
 91
        0
 92
      512
 93
        0
300

 40
0.0
140
1.0
 94
        5
 62
     0
340
F
144
0.25
309
CONTENTFORMAT_END
171
     0
 94
        0
309
TABLEFORMAT_END
  1
CELLSTYLE_BEGIN
 90
        1
 91
        1
300
_TITLE
309
CELLSTYLE_END
300
CELLSTYLE
  1
TABLEFORMAT_BEGIN
 90
        5
170
     1
 91
        0
 92
        0
 62
   257
 93
        1
300
CONTENTFORMAT
  1
CONTENTFORMAT_BEGIN
 90
        0
 91
        0
 92
      512
 93
        0
300

 40
0.0
140
1.0
 94
        5
 62
     0
340
F
144
0.18
309
CONTENTFORMAT_END
171
     0
 94
        0
309
TABLEFORMAT_END
  1
CELLSTYLE_BEGIN
 90
        2
 91
        1
300
_HEADER
309
CELLSTYLE_END
300
CELLSTYLE
  1
TABLEFORMAT_BEGIN
 90
        5
170
     1
 91
        0
 92
        0
 62
   257
 93
        1
300
CONTENTFORMAT
  1
CONTENTFORMAT_BEGIN
 90
        0
 91
        0
 92
      512
 93
        0
300

 40
0.0
140
1.0
 94
        2
 62
     0
340
F
144
0.18
309
CONTENTFORMAT_END
171
     0
 94
        0
309
TABLEFORMAT_END
  1
CELLSTYLE_BEGIN
 90
        3
 91
        2
300
_DATA
309
CELLSTYLE_END
  0
XRECORD
  5
1854
102
{ACAD_REACTORS
330
181D
102
}
330
181D
100
AcDbXrecord
280
     1
102
ACAD_ROUNDTRIP_PRE2007_TABLESTYLE
 90
      512
 91
        0
  1

 92
      512
 93
        0
  2

 94
      512
 95
        0
  3

  0
XRECORD
  5
182F
102
{ACAD_REACTORS
330
182E
102
}
330
182E
100
AcDbXrecord
280
     1
102
RTVSPost2010Prop28
280
     1
102
RTVSPost2010PropOp28
 70
     1
102
RTVSPost2010Prop29
280
     1
102
RTVSPost2010PropOp29
 70
     1
102
RTVSPost2010Prop30
280
     0
102
RTVSPost2010PropOp30
 70
     1
102
RTVSPost2010Prop31
280
     0
102
RTVSPost2010PropOp31
 70
     1
102
RTVSPost2010Prop32
280
     0
102
RTVSPost2010PropOp32
 70
     1
102
RTVSPost2010Prop33
280
     0
102
RTVSPost2010PropOp33
 70
     1
102
RTVSPost2010Prop34
280
     0
102
RTVSPost2010PropOp34
 70
     1
102
RTVSPost2010Prop35
280
     0
102
RTVSPost2010PropOp35
 70
     1
102
RTVSPost2010Prop36
280
     0
102
RTVSPost2010PropOp36
 70
     1
102
RTVSPost2010Prop37
 90
       50
102
RTVSPost2010PropOp37
 70
     1
102
RTVSPost2010Prop38
140
0.0
102
RTVSPost2010PropOp38
 70
     1
102
RTVSPost2010Prop39
140
1.0
102
RTVSPost2010PropOp39
 70
     1
102
RTVSPost2010Prop40
 90
        0
102
RTVSPost2010PropOp40
 70
     1
102
RTVSPost2010Prop41ColorIndex
 90
       18
102
RTVSPost2010Prop41ColorRGB
 90
        0
102
RTVSPost2010PropOp41
 70
     1
102
RTVSPost2010Prop42
 90
       50
102
RTVSPost2010PropOp42
 70
     1
102
RTVSPost2010Prop43
 90
        3
102
RTVSPost2010PropOp43
 70
     1
102
RTVSPost2010Prop44ColorIndex
 90
        5
102
RTVSPost2010Prop44ColorRGB
 90
      255
102
RTVSPost2010PropOp44
 70
     1
102
RTVSPost2010Prop45
280
     0
102
RTVSPost2010PropOp45
 70
     1
102
RTVSPost2010Prop46
 90
       50
102
RTVSPost2010PropOp46
 70
     1
102
RTVSPost2010Prop47
 90
       50
102
RTVSPost2010PropOp47
 70
     1
102
RTVSPost2010Prop48
 90
       50
102
RTVSPost2010PropOp48
 70
     1
102
RTVSPost2010Prop49
280
     0
102
RTVSPost2010PropOp49
 70
     1
102
RTVSPost2010Prop50
 90
       50
102
RTVSPost2010PropOp50
 70
     1
102
RTVSPost2010Prop51ColorIndex
 90
      256
102
RTVSPost2010Prop51ColorRGB
 90
-16777216
102
RTVSPost2010PropOp51
 70
     0
102
RTVSPost2010Prop52
140
1.0
102
RTVSPost2010PropOp52
 70
     0
102
RTVSPost2010Prop53
 90
        2
102
RTVSPost2010PropOp53
 70
     1
102
RTVSPost2010Prop54
  1
strokes_ogs.tif
102
RTVSPost2010PropOp54
 70
     1
102
RTVSPost2010Prop55
280
     0
102
RTVSPost2010PropOp55
 70
     1
102
RTVSPost2010Prop56
140
1.0
102
RTVSPost2010PropOp56
 70
     1
102
RTVSPost2010Prop57
140
1.0
102
RTVSPost2010PropOp57
 70
     1
102
RTVSPropertyOp0
 70
     1
102
RTVSPropertyOp1
 70
     1
102
RTVSPropertyOp2
 70
     1
102
RTVSPropertyOp3
 70
     1
102
RTVSPropertyOp4
 70
     1
102
RTVSPropertyOp5
 70
     1
102
RTVSPropertyOp6
 70
     1
102
RTVSPropertyOp7
 70
     1
102
RTVSPropertyOp8
 70
     1
102
RTVSPropertyOp9
 70
     1
102
RTVSPropertyOp10
 70
     1
102
RTVSPropertyOp11
 70
     1
102
RTVSPropertyOp12
 70
     1
102
RTVSPropertyOp13
 70
     1
102
RTVSPropertyOp14
 70
     1
102
RTVSPropertyOp15
 70
     1
102
RTVSPropertyOp16
 70
     1
102
RTVSPropertyOp17
 70
     1
102
RTVSPropertyOp18
 70
     1
102
RTVSPropertyOp19
 70
     1
102
RTVSPropertyOp20
 70
     1
102
RTVSPropertyOp21
 70
     1
102
RTVSPropertyOp22
 70
     1
102
RTVSPropertyOp23
 70
     1
102
RTVSPropertyOp24
 70
     1
102
RTVSPropertyOp25
 70
     1
102
RTVSPropertyOp26
 70
     1
102
RTVSPropertyOp27
 70
     1
102
RTVSPropertyOp28
 70
     1
102
RTVSPropertyOp29
 70
     1
102
RTVSPropertyOp30
 70
     1
102
RTVSPropertyOp31
 70
     1
102
RTVSPropertyOp32
 70
     1
102
RTVSPropertyOp33
 70
     1
102
RTVSPropertyOp34
 70
     1
102
RTVSPropertyOp35
 70
     1
102
RTVSPropertyOp36
 70
     1
102
RTVSPropertyOp37
 70
     1
102
RTVSPropertyOp38
 70
     1
102
RTVSPropertyOp39
 70
     1
102
RTVSPropertyOp40
 70
     1
102
RTVSPropertyOp41
 70
     1
102
RTVSPropertyOp42
 70
     1
102
RTVSPropertyOp43
 70
     1
102
RTVSPropertyOp44
 70
     1
102
RTVSPropertyOp45
 70
     1
102
RTVSPropertyOp46
 70
     1
102
RTVSPropertyOp47
 70
     1
102
RTVSPropertyOp48
 70
     1
102
RTVSPropertyOp49
 70
     1
102
RTVSPropertyOp50
 70
     1
102
RTVSPropertyOp51
 70
     0
102
RTVSPropertyOp52
 70
     0
102
RTVSPropertyOp53
 70
     1
102
RTVSPropertyOp54
 70
     1
102
RTVSPropertyOp55
 70
     1
102
RTVSPropertyOp56
 70
     1
102
RTVSPropertyOp57
 70
     1
102
RTVSPropertyOp58
 70
     1
102
RTVSPropertyOp59
 70
     1
102
RTVSPropertyOp60
 70
     1
102
RTVSPropertyOp61
 70
     1
102
RTVSPropertyOp62
 70
     1
  0
XRECORD
  5
182D
102
{ACAD_REACTORS
330
182C
102
}
330
182C
100
AcDbXrecord
280
     1
102
RTVSPost2010Prop28
280
     0
102
RTVSPost2010PropOp28
 70
     1
102
RTVSPost2010Prop29
280
     1
102
RTVSPost2010PropOp29
 70
     1
102
RTVSPost2010Prop30
280
     1
102
RTVSPost2010PropOp30
 70
     1
102
RTVSPost2010Prop31
280
     0
102
RTVSPost2010PropOp31
 70
     1
102
RTVSPost2010Prop32
280
     0
102
RTVSPost2010PropOp32
 70
     1
102
RTVSPost2010Prop33
280
     0
102
RTVSPost2010PropOp33
 70
     1
102
RTVSPost2010Prop34
280
     0
102
RTVSPost2010PropOp34
 70
     1
102
RTVSPost2010Prop35
280
     0
102
RTVSPost2010PropOp35
 70
     1
102
RTVSPost2010Prop36
280
     0
102
RTVSPost2010PropOp36
 70
     1
102
RTVSPost2010Prop37
 90
       50
102
RTVSPost2010PropOp37
 70
     1
102
RTVSPost2010Prop38
140
0.0
102
RTVSPost2010PropOp38
 70
     1
102
RTVSPost2010Prop39
140
1.0
102
RTVSPost2010PropOp39
 70
     1
102
RTVSPost2010Prop40
 90
        0
102
RTVSPost2010PropOp40
 70
     1
102
RTVSPost2010Prop41ColorIndex
 90
       18
102
RTVSPost2010Prop41ColorRGB
 90
        0
102
RTVSPost2010PropOp41
 70
     1
102
RTVSPost2010Prop42
 90
       50
102
RTVSPost2010PropOp42
 70
     1
102
RTVSPost2010Prop43
 90
        3
102
RTVSPost2010PropOp43
 70
     1
102
RTVSPost2010Prop44ColorIndex
 90
        5
102
RTVSPost2010Prop44ColorRGB
 90
      255
102
RTVSPost2010PropOp44
 70
     1
102
RTVSPost2010Prop45
280
     0
102
RTVSPost2010PropOp45
 70
     1
102
RTVSPost2010Prop46
 90
       50
102
RTVSPost2010PropOp46
 70
     1
102
RTVSPost2010Prop47
 90
       50
102
RTVSPost2010PropOp47
 70
     1
102
RTVSPost2010Prop48
 90
       50
102
RTVSPost2010PropOp48
 70
     1
102
RTVSPost2010Prop49
280
     0
102
RTVSPost2010PropOp49
 70
     1
102
RTVSPost2010Prop50
 90
       50
102
RTVSPost2010PropOp50
 70
     1
102
RTVSPost2010Prop51ColorIndex
 90
      256
102
RTVSPost2010Prop51ColorRGB
 90
-16777216
102
RTVSPost2010PropOp51
 70
     0
102
RTVSPost2010Prop52
140
1.0
102
RTVSPost2010PropOp52
 70
     0
102
RTVSPost2010Prop53
 90
        2
102
RTVSPost2010PropOp53
 70
     1
102
RTVSPost2010Prop54
  1
strokes_ogs.tif
102
RTVSPost2010PropOp54
 70
     1
102
RTVSPost2010Prop55
280
     0
102
RTVSPost2010PropOp55
 70
     1
102
RTVSPost2010Prop56
140
1.0
102
RTVSPost2010PropOp56
 70
     1
102
RTVSPost2010Prop57
140
1.0
102
RTVSPost2010PropOp57
 70
     1
102
RTVSPropertyOp0
 70
     1
102
RTVSPropertyOp1
 70
     1
102
RTVSPropertyOp2
 70
     1
102
RTVSPropertyOp3
 70
     1
102
RTVSPropertyOp4
 70
     1
102
RTVSPropertyOp5
 70
     1
102
RTVSPropertyOp6
 70
     1
102
RTVSPropertyOp7
 70
     1
102
RTVSPropertyOp8
 70
     1
102
RTVSPropertyOp9
 70
     1
102
RTVSPropertyOp10
 70
     1
102
RTVSPropertyOp11
 70
     1
102
RTVSPropertyOp12
 70
     1
102
RTVSPropertyOp13
 70
     1
102
RTVSPropertyOp14
 70
     1
102
RTVSPropertyOp15
 70
     1
102
RTVSPropertyOp16
 70
     1
102
RTVSPropertyOp17
 70
     1
102
RTVSPropertyOp18
 70
     1
102
RTVSPropertyOp19
 70
     1
102
RTVSPropertyOp20
 70
     1
102
RTVSPropertyOp21
 70
     1
102
RTVSPropertyOp22
 70
     1
102
RTVSPropertyOp23
 70
     1
102
RTVSPropertyOp24
 70
     1
102
RTVSPropertyOp25
 70
     1
102
RTVSPropertyOp26
 70
     1
102
RTVSPropertyOp27
 70
     1
102
RTVSPropertyOp28
 70
     1
102
RTVSPropertyOp29
 70
     1
102
RTVSPropertyOp30
 70
     1
102
RTVSPropertyOp31
 70
     1
102
RTVSPropertyOp32
 70
     1
102
RTVSPropertyOp33
 70
     1
102
RTVSPropertyOp34
 70
     1
102
RTVSPropertyOp35
 70
     1
102
RTVSPropertyOp36
 70
     1
102
RTVSPropertyOp37
 70
     1
102
RTVSPropertyOp38
 70
     1
102
RTVSPropertyOp39
 70
     1
102
RTVSPropertyOp40
 70
     1
102
RTVSPropertyOp41
 70
     1
102
RTVSPropertyOp42
 70
     1
102
RTVSPropertyOp43
 70
     1
102
RTVSPropertyOp44
 70
     1
102
RTVSPropertyOp45
 70
     1
102
RTVSPropertyOp46
 70
     1
102
RTVSPropertyOp47
 70
     1
102
RTVSPropertyOp48
 70
     1
102
RTVSPropertyOp49
 70
     1
102
RTVSPropertyOp50
 70
     1
102
RTVSPropertyOp51
 70
     0
102
RTVSPropertyOp52
 70
     0
102
RTVSPropertyOp53
 70
     1
102
RTVSPropertyOp54
 70
     1
102
RTVSPropertyOp55
 70
     1
102
RTVSPropertyOp56
 70
     1
102
RTVSPropertyOp57
 70
     1
102
RTVSPropertyOp58
 70
     1
102
RTVSPropertyOp59
 70
     1
102
RTVSPropertyOp60
 70
     1
102
RTVSPropertyOp61
 70
     1
102
RTVSPropertyOp62
 70
     1
  0
XRECORD
  5
183B
102
{ACAD_REACTORS
330
183A
102
}
330
183A
100
AcDbXrecord
280
     1
102
RTVSPost2010Prop28
280
     0
102
RTVSPost2010PropOp28
 70
     1
102
RTVSPost2010Prop29
280
     1
102
RTVSPost2010PropOp29
 70
     1
102
RTVSPost2010Prop30
280
     1
102
RTVSPost2010PropOp30
 70
     1
102
RTVSPost2010Prop31
280
     0
102
RTVSPost2010PropOp31
 70
     1
102
RTVSPost2010Prop32
280
     0
102
RTVSPost2010PropOp32
 70
     1
102
RTVSPost2010Prop33
280
     0
102
RTVSPost2010PropOp33
 70
     1
102
RTVSPost2010Prop34
280
     0
102
RTVSPost2010PropOp34
 70
     1
102
RTVSPost2010Prop35
280
     0
102
RTVSPost2010PropOp35
 70
     1
102
RTVSPost2010Prop36
280
     0
102
RTVSPost2010PropOp36
 70
     1
102
RTVSPost2010Prop37
 90
       50
102
RTVSPost2010PropOp37
 70
     1
102
RTVSPost2010Prop38
140
0.0
102
RTVSPost2010PropOp38
 70
     1
102
RTVSPost2010Prop39
140
1.0
102
RTVSPost2010PropOp39
 70
     1
102
RTVSPost2010Prop40
 90
        0
102
RTVSPost2010PropOp40
 70
     1
102
RTVSPost2010Prop41ColorIndex
 90
       18
102
RTVSPost2010Prop41ColorRGB
 90
        0
102
RTVSPost2010PropOp41
 70
     1
102
RTVSPost2010Prop42
 90
       50
102
RTVSPost2010PropOp42
 70
     1
102
RTVSPost2010Prop43
 90
        3
102
RTVSPost2010PropOp43
 70
     1
102
RTVSPost2010Prop44ColorIndex
 90
        5
102
RTVSPost2010Prop44ColorRGB
 90
      255
102
RTVSPost2010PropOp44
 70
     1
102
RTVSPost2010Prop45
280
     0
102
RTVSPost2010PropOp45
 70
     1
102
RTVSPost2010Prop46
 90
       50
102
RTVSPost2010PropOp46
 70
     1
102
RTVSPost2010Prop47
 90
       50
102
RTVSPost2010PropOp47
 70
     1
102
RTVSPost2010Prop48
 90
       50
102
RTVSPost2010PropOp48
 70
     1
102
RTVSPost2010Prop49
280
     0
102
RTVSPost2010PropOp49
 70
     1
102
RTVSPost2010Prop50
 90
       50
102
RTVSPost2010PropOp50
 70
     1
102
RTVSPost2010Prop51ColorIndex
 90
      256
102
RTVSPost2010Prop51ColorRGB
 90
-16777216
102
RTVSPost2010PropOp51
 70
     0
102
RTVSPost2010Prop52
140
1.0
102
RTVSPost2010PropOp52
 70
     0
102
RTVSPost2010Prop53
 90
        2
102
RTVSPost2010PropOp53
 70
     1
102
RTVSPost2010Prop54
  1
strokes_ogs.tif
102
RTVSPost2010PropOp54
 70
     1
102
RTVSPost2010Prop55
280
     0
102
RTVSPost2010PropOp55
 70
     1
102
RTVSPost2010Prop56
140
1.0
102
RTVSPost2010PropOp56
 70
     1
102
RTVSPost2010Prop57
140
1.0
102
RTVSPost2010PropOp57
 70
     1
102
RTVSPropertyOp0
 70
     1
102
RTVSPropertyOp1
 70
     1
102
RTVSPropertyOp2
 70
     1
102
RTVSPropertyOp3
 70
     1
102
RTVSPropertyOp4
 70
     1
102
RTVSPropertyOp5
 70
     1
102
RTVSPropertyOp6
 70
     1
102
RTVSPropertyOp7
 70
     1
102
RTVSPropertyOp8
 70
     1
102
RTVSPropertyOp9
 70
     1
102
RTVSPropertyOp10
 70
     1
102
RTVSPropertyOp11
 70
     1
102
RTVSPropertyOp12
 70
     1
102
RTVSPropertyOp13
 70
     1
102
RTVSPropertyOp14
 70
     1
102
RTVSPropertyOp15
 70
     1
102
RTVSPropertyOp16
 70
     1
102
RTVSPropertyOp17
 70
     1
102
RTVSPropertyOp18
 70
     1
102
RTVSPropertyOp19
 70
     1
102
RTVSPropertyOp20
 70
     1
102
RTVSPropertyOp21
 70
     1
102
RTVSPropertyOp22
 70
     1
102
RTVSPropertyOp23
 70
     1
102
RTVSPropertyOp24
 70
     1
102
RTVSPropertyOp25
 70
     1
102
RTVSPropertyOp26
 70
     1
102
RTVSPropertyOp27
 70
     1
102
RTVSPropertyOp28
 70
     1
102
RTVSPropertyOp29
 70
     1
102
RTVSPropertyOp30
 70
     1
102
RTVSPropertyOp31
 70
     1
102
RTVSPropertyOp32
 70
     1
102
RTVSPropertyOp33
 70
     1
102
RTVSPropertyOp34
 70
     1
102
RTVSPropertyOp35
 70
     1
102
RTVSPropertyOp36
 70
     1
102
RTVSPropertyOp37
 70
     1
102
RTVSPropertyOp38
 70
     1
102
RTVSPropertyOp39
 70
     1
102
RTVSPropertyOp40
 70
     1
102
RTVSPropertyOp41
 70
     1
102
RTVSPropertyOp42
 70
     1
102
RTVSPropertyOp43
 70
     1
102
RTVSPropertyOp44
 70
     1
102
RTVSPropertyOp45
 70
     1
102
RTVSPropertyOp46
 70
     1
102
RTVSPropertyOp47
 70
     1
102
RTVSPropertyOp48
 70
     1
102
RTVSPropertyOp49
 70
     1
102
RTVSPropertyOp50
 70
     1
102
RTVSPropertyOp51
 70
     0
102
RTVSPropertyOp52
 70
     0
102
RTVSPropertyOp53
 70
     1
102
RTVSPropertyOp54
 70
     1
102
RTVSPropertyOp55
 70
     1
102
RTVSPropertyOp56
 70
     1
102
RTVSPropertyOp57
 70
     1
102
RTVSPropertyOp58
 70
     1
102
RTVSPropertyOp59
 70
     1
102
RTVSPropertyOp60
 70
     1
102
RTVSPropertyOp61
 70
     1
102
RTVSPropertyOp62
 70
     1
  0
XRECORD
  5
1843
102
{ACAD_REACTORS
330
1842
102
}
330
1842
100
AcDbXrecord
280
     1
102
RTVSPost2010Prop28
280
     0
102
RTVSPost2010PropOp28
 70
     1
102
RTVSPost2010Prop29
280
     1
102
RTVSPost2010PropOp29
 70
     1
102
RTVSPost2010Prop30
280
     1
102
RTVSPost2010PropOp30
 70
     1
102
RTVSPost2010Prop31
280
     0
102
RTVSPost2010PropOp31
 70
     1
102
RTVSPost2010Prop32
280
     0
102
RTVSPost2010PropOp32
 70
     1
102
RTVSPost2010Prop33
280
     0
102
RTVSPost2010PropOp33
 70
     1
102
RTVSPost2010Prop34
280
     0
102
RTVSPost2010PropOp34
 70
     1
102
RTVSPost2010Prop35
280
     0
102
RTVSPost2010PropOp35
 70
     1
102
RTVSPost2010Prop36
280
     0
102
RTVSPost2010PropOp36
 70
     1
102
RTVSPost2010Prop37
 90
       50
102
RTVSPost2010PropOp37
 70
     1
102
RTVSPost2010Prop38
140
0.0
102
RTVSPost2010PropOp38
 70
     1
102
RTVSPost2010Prop39
140
1.0
102
RTVSPost2010PropOp39
 70
     1
102
RTVSPost2010Prop40
 90
        0
102
RTVSPost2010PropOp40
 70
     1
102
RTVSPost2010Prop41ColorIndex
 90
       18
102
RTVSPost2010Prop41ColorRGB
 90
        0
102
RTVSPost2010PropOp41
 70
     1
102
RTVSPost2010Prop42
 90
       50
102
RTVSPost2010PropOp42
 70
     1
102
RTVSPost2010Prop43
 90
        3
102
RTVSPost2010PropOp43
 70
     1
102
RTVSPost2010Prop44ColorIndex
 90
        5
102
RTVSPost2010Prop44ColorRGB
 90
      255
102
RTVSPost2010PropOp44
 70
     1
102
RTVSPost2010Prop45
280
     0
102
RTVSPost2010PropOp45
 70
     1
102
RTVSPost2010Prop46
 90
       50
102
RTVSPost2010PropOp46
 70
     1
102
RTVSPost2010Prop47
 90
       50
102
RTVSPost2010PropOp47
 70
     1
102
RTVSPost2010Prop48
 90
       50
102
RTVSPost2010PropOp48
 70
     1
102
RTVSPost2010Prop49
280
     0
102
RTVSPost2010PropOp49
 70
     1
102
RTVSPost2010Prop50
 90
       50
102
RTVSPost2010PropOp50
 70
     1
102
RTVSPost2010Prop51ColorIndex
 90
      256
102
RTVSPost2010Prop51ColorRGB
 90
-16777216
102
RTVSPost2010PropOp51
 70
     0
102
RTVSPost2010Prop52
140
1.0
102
RTVSPost2010PropOp52
 70
     0
102
RTVSPost2010Prop53
 90
        2
102
RTVSPost2010PropOp53
 70
     1
102
RTVSPost2010Prop54
  1
strokes_ogs.tif
102
RTVSPost2010PropOp54
 70
     1
102
RTVSPost2010Prop55
280
     0
102
RTVSPost2010PropOp55
 70
     1
102
RTVSPost2010Prop56
140
1.0
102
RTVSPost2010PropOp56
 70
     1
102
RTVSPost2010Prop57
140
1.0
102
RTVSPost2010PropOp57
 70
     1
102
RTVSPropertyOp0
 70
     1
102
RTVSPropertyOp1
 70
     1
102
RTVSPropertyOp2
 70
     1
102
RTVSPropertyOp3
 70
     1
102
RTVSPropertyOp4
 70
     1
102
RTVSPropertyOp5
 70
     1
102
RTVSPropertyOp6
 70
     1
102
RTVSPropertyOp7
 70
     1
102
RTVSPropertyOp8
 70
     1
102
RTVSPropertyOp9
 70
     1
102
RTVSPropertyOp10
 70
     1
102
RTVSPropertyOp11
 70
     1
102
RTVSPropertyOp12
 70
     1
102
RTVSPropertyOp13
 70
     1
102
RTVSPropertyOp14
 70
     1
102
RTVSPropertyOp15
 70
     1
102
RTVSPropertyOp16
 70
     1
102
RTVSPropertyOp17
 70
     1
102
RTVSPropertyOp18
 70
     1
102
RTVSPropertyOp19
 70
     1
102
RTVSPropertyOp20
 70
     1
102
RTVSPropertyOp21
 70
     1
102
RTVSPropertyOp22
 70
     1
102
RTVSPropertyOp23
 70
     1
102
RTVSPropertyOp24
 70
     1
102
RTVSPropertyOp25
 70
     1
102
RTVSPropertyOp26
 70
     1
102
RTVSPropertyOp27
 70
     1
102
RTVSPropertyOp28
 70
     1
102
RTVSPropertyOp29
 70
     1
102
RTVSPropertyOp30
 70
     1
102
RTVSPropertyOp31
 70
     1
102
RTVSPropertyOp32
 70
     1
102
RTVSPropertyOp33
 70
     1
102
RTVSPropertyOp34
 70
     1
102
RTVSPropertyOp35
 70
     1
102
RTVSPropertyOp36
 70
     1
102
RTVSPropertyOp37
 70
     1
102
RTVSPropertyOp38
 70
     1
102
RTVSPropertyOp39
 70
     1
102
RTVSPropertyOp40
 70
     1
102
RTVSPropertyOp41
 70
     1
102
RTVSPropertyOp42
 70
     1
102
RTVSPropertyOp43
 70
     1
102
RTVSPropertyOp44
 70
     1
102
RTVSPropertyOp45
 70
     1
102
RTVSPropertyOp46
 70
     1
102
RTVSPropertyOp47
 70
     1
102
RTVSPropertyOp48
 70
     1
102
RTVSPropertyOp49
 70
     1
102
RTVSPropertyOp50
 70
     1
102
RTVSPropertyOp51
 70
     0
102
RTVSPropertyOp52
 70
     0
102
RTVSPropertyOp53
 70
     1
102
RTVSPropertyOp54
 70
     1
102
RTVSPropertyOp55
 70
     1
102
RTVSPropertyOp56
 70
     1
102
RTVSPropertyOp57
 70
     1
102
RTVSPropertyOp58
 70
     1
102
RTVSPropertyOp59
 70
     1
102
RTVSPropertyOp60
 70
     1
102
RTVSPropertyOp61
 70
     1
102
RTVSPropertyOp62
 70
     1
  0
XRECORD
  5
1835
102
{ACAD_REACTORS
330
1834
102
}
330
1834
100
AcDbXrecord
280
     1
102
RTVSPost2010Prop28
280
     0
102
RTVSPost2010PropOp28
 70
     1
102
RTVSPost2010Prop29
280
     1
102
RTVSPost2010PropOp29
 70
     1
102
RTVSPost2010Prop30
280
     1
102
RTVSPost2010PropOp30
 70
     1
102
RTVSPost2010Prop31
280
     0
102
RTVSPost2010PropOp31
 70
     1
102
RTVSPost2010Prop32
280
     0
102
RTVSPost2010PropOp32
 70
     1
102
RTVSPost2010Prop33
280
     0
102
RTVSPost2010PropOp33
 70
     1
102
RTVSPost2010Prop34
280
     0
102
RTVSPost2010PropOp34
 70
     1
102
RTVSPost2010Prop35
280
     0
102
RTVSPost2010PropOp35
 70
     1
102
RTVSPost2010Prop36
280
     0
102
RTVSPost2010PropOp36
 70
     1
102
RTVSPost2010Prop37
 90
       50
102
RTVSPost2010PropOp37
 70
     1
102
RTVSPost2010Prop38
140
0.0
102
RTVSPost2010PropOp38
 70
     1
102
RTVSPost2010Prop39
140
1.0
102
RTVSPost2010PropOp39
 70
     1
102
RTVSPost2010Prop40
 90
        0
102
RTVSPost2010PropOp40
 70
     1
102
RTVSPost2010Prop41ColorIndex
 90
       18
102
RTVSPost2010Prop41ColorRGB
 90
        0
102
RTVSPost2010PropOp41
 70
     1
102
RTVSPost2010Prop42
 90
       50
102
RTVSPost2010PropOp42
 70
     1
102
RTVSPost2010Prop43
 90
        3
102
RTVSPost2010PropOp43
 70
     1
102
RTVSPost2010Prop44ColorIndex
 90
        5
102
RTVSPost2010Prop44ColorRGB
 90
      255
102
RTVSPost2010PropOp44
 70
     1
102
RTVSPost2010Prop45
280
     0
102
RTVSPost2010PropOp45
 70
     1
102
RTVSPost2010Prop46
 90
       50
102
RTVSPost2010PropOp46
 70
     1
102
RTVSPost2010Prop47
 90
       50
102
RTVSPost2010PropOp47
 70
     1
102
RTVSPost2010Prop48
 90
       50
102
RTVSPost2010PropOp48
 70
     1
102
RTVSPost2010Prop49
280
     0
102
RTVSPost2010PropOp49
 70
     1
102
RTVSPost2010Prop50
 90
       50
102
RTVSPost2010PropOp50
 70
     1
102
RTVSPost2010Prop51ColorIndex
 90
      256
102
RTVSPost2010Prop51ColorRGB
 90
-16777216
102
RTVSPost2010PropOp51
 70
     0
102
RTVSPost2010Prop52
140
1.0
102
RTVSPost2010PropOp52
 70
     0
102
RTVSPost2010Prop53
 90
        2
102
RTVSPost2010PropOp53
 70
     1
102
RTVSPost2010Prop54
  1
strokes_ogs.tif
102
RTVSPost2010PropOp54
 70
     1
102
RTVSPost2010Prop55
280
     0
102
RTVSPost2010PropOp55
 70
     1
102
RTVSPost2010Prop56
140
1.0
102
RTVSPost2010PropOp56
 70
     1
102
RTVSPost2010Prop57
140
1.0
102
RTVSPost2010PropOp57
 70
     1
102
RTVSPropertyOp0
 70
     1
102
RTVSPropertyOp1
 70
     1
102
RTVSPropertyOp2
 70
     1
102
RTVSPropertyOp3
 70
     1
102
RTVSPropertyOp4
 70
     1
102
RTVSPropertyOp5
 70
     1
102
RTVSPropertyOp6
 70
     1
102
RTVSPropertyOp7
 70
     1
102
RTVSPropertyOp8
 70
     1
102
RTVSPropertyOp9
 70
     1
102
RTVSPropertyOp10
 70
     1
102
RTVSPropertyOp11
 70
     1
102
RTVSPropertyOp12
 70
     1
102
RTVSPropertyOp13
 70
     1
102
RTVSPropertyOp14
 70
     1
102
RTVSPropertyOp15
 70
     1
102
RTVSPropertyOp16
 70
     1
102
RTVSPropertyOp17
 70
     1
102
RTVSPropertyOp18
 70
     1
102
RTVSPropertyOp19
 70
     1
102
RTVSPropertyOp20
 70
     1
102
RTVSPropertyOp21
 70
     1
102
RTVSPropertyOp22
 70
     1
102
RTVSPropertyOp23
 70
     1
102
RTVSPropertyOp24
 70
     1
102
RTVSPropertyOp25
 70
     1
102
RTVSPropertyOp26
 70
     1
102
RTVSPropertyOp27
 70
     1
102
RTVSPropertyOp28
 70
     1
102
RTVSPropertyOp29
 70
     1
102
RTVSPropertyOp30
 70
     1
102
RTVSPropertyOp31
 70
     1
102
RTVSPropertyOp32
 70
     1
102
RTVSPropertyOp33
 70
     1
102
RTVSPropertyOp34
 70
     1
102
RTVSPropertyOp35
 70
     1
102
RTVSPropertyOp36
 70
     1
102
RTVSPropertyOp37
 70
     1
102
RTVSPropertyOp38
 70
     1
102
RTVSPropertyOp39
 70
     1
102
RTVSPropertyOp40
 70
     1
102
RTVSPropertyOp41
 70
     1
102
RTVSPropertyOp42
 70
     1
102
RTVSPropertyOp43
 70
     1
102
RTVSPropertyOp44
 70
     1
102
RTVSPropertyOp45
 70
     1
102
RTVSPropertyOp46
 70
     1
102
RTVSPropertyOp47
 70
     1
102
RTVSPropertyOp48
 70
     1
102
RTVSPropertyOp49
 70
     1
102
RTVSPropertyOp50
 70
     1
102
RTVSPropertyOp51
 70
     0
102
RTVSPropertyOp52
 70
     0
102
RTVSPropertyOp53
 70
     1
102
RTVSPropertyOp54
 70
     1
102
RTVSPropertyOp55
 70
     1
102
RTVSPropertyOp56
 70
     1
102
RTVSPropertyOp57
 70
     1
102
RTVSPropertyOp58
 70
     1
102
RTVSPropertyOp59
 70
     1
102
RTVSPropertyOp60
 70
     1
102
RTVSPropertyOp61
 70
     1
102
RTVSPropertyOp62
 70
     1
  0
XRECORD
  5
1839
102
{ACAD_REACTORS
330
1838
102
}
330
1838
100
AcDbXrecord
280
     1
102
RTVSPost2010Prop28
280
     0
102
RTVSPost2010PropOp28
 70
     1
102
RTVSPost2010Prop29
280
     1
102
RTVSPost2010PropOp29
 70
     1
102
RTVSPost2010Prop30
280
     1
102
RTVSPost2010PropOp30
 70
     1
102
RTVSPost2010Prop31
280
     0
102
RTVSPost2010PropOp31
 70
     1
102
RTVSPost2010Prop32
280
     0
102
RTVSPost2010PropOp32
 70
     1
102
RTVSPost2010Prop33
280
     0
102
RTVSPost2010PropOp33
 70
     1
102
RTVSPost2010Prop34
280
     0
102
RTVSPost2010PropOp34
 70
     1
102
RTVSPost2010Prop35
280
     0
102
RTVSPost2010PropOp35
 70
     1
102
RTVSPost2010Prop36
280
     0
102
RTVSPost2010PropOp36
 70
     1
102
RTVSPost2010Prop37
 90
       50
102
RTVSPost2010PropOp37
 70
     1
102
RTVSPost2010Prop38
140
0.0
102
RTVSPost2010PropOp38
 70
     1
102
RTVSPost2010Prop39
140
1.0
102
RTVSPost2010PropOp39
 70
     1
102
RTVSPost2010Prop40
 90
        0
102
RTVSPost2010PropOp40
 70
     1
102
RTVSPost2010Prop41ColorIndex
 90
       18
102
RTVSPost2010Prop41ColorRGB
 90
        0
102
RTVSPost2010PropOp41
 70
     1
102
RTVSPost2010Prop42
 90
       50
102
RTVSPost2010PropOp42
 70
     1
102
RTVSPost2010Prop43
 90
        3
102
RTVSPost2010PropOp43
 70
     1
102
RTVSPost2010Prop44ColorIndex
 90
        5
102
RTVSPost2010Prop44ColorRGB
 90
      255
102
RTVSPost2010PropOp44
 70
     1
102
RTVSPost2010Prop45
280
     0
102
RTVSPost2010PropOp45
 70
     1
102
RTVSPost2010Prop46
 90
       50
102
RTVSPost2010PropOp46
 70
     1
102
RTVSPost2010Prop47
 90
       50
102
RTVSPost2010PropOp47
 70
     1
102
RTVSPost2010Prop48
 90
       50
102
RTVSPost2010PropOp48
 70
     1
102
RTVSPost2010Prop49
280
     0
102
RTVSPost2010PropOp49
 70
     1
102
RTVSPost2010Prop50
 90
       50
102
RTVSPost2010PropOp50
 70
     1
102
RTVSPost2010Prop51ColorIndex
 90
      256
102
RTVSPost2010Prop51ColorRGB
 90
-16777216
102
RTVSPost2010PropOp51
 70
     0
102
RTVSPost2010Prop52
140
1.0
102
RTVSPost2010PropOp52
 70
     0
102
RTVSPost2010Prop53
 90
        2
102
RTVSPost2010PropOp53
 70
     1
102
RTVSPost2010Prop54
  1
strokes_ogs.tif
102
RTVSPost2010PropOp54
 70
     1
102
RTVSPost2010Prop55
280
     0
102
RTVSPost2010PropOp55
 70
     1
102
RTVSPost2010Prop56
140
1.0
102
RTVSPost2010PropOp56
 70
     1
102
RTVSPost2010Prop57
140
1.0
102
RTVSPost2010PropOp57
 70
     1
102
RTVSPropertyOp0
 70
     1
102
RTVSPropertyOp1
 70
     1
102
RTVSPropertyOp2
 70
     1
102
RTVSPropertyOp3
 70
     1
102
RTVSPropertyOp4
 70
     1
102
RTVSPropertyOp5
 70
     1
102
RTVSPropertyOp6
 70
     1
102
RTVSPropertyOp7
 70
     1
102
RTVSPropertyOp8
 70
     1
102
RTVSPropertyOp9
 70
     1
102
RTVSPropertyOp10
 70
     1
102
RTVSPropertyOp11
 70
     1
102
RTVSPropertyOp12
 70
     1
102
RTVSPropertyOp13
 70
     1
102
RTVSPropertyOp14
 70
     1
102
RTVSPropertyOp15
 70
     1
102
RTVSPropertyOp16
 70
     1
102
RTVSPropertyOp17
 70
     1
102
RTVSPropertyOp18
 70
     1
102
RTVSPropertyOp19
 70
     1
102
RTVSPropertyOp20
 70
     1
102
RTVSPropertyOp21
 70
     1
102
RTVSPropertyOp22
 70
     1
102
RTVSPropertyOp23
 70
     1
102
RTVSPropertyOp24
 70
     1
102
RTVSPropertyOp25
 70
     1
102
RTVSPropertyOp26
 70
     1
102
RTVSPropertyOp27
 70
     1
102
RTVSPropertyOp28
 70
     1
102
RTVSPropertyOp29
 70
     1
102
RTVSPropertyOp30
 70
     1
102
RTVSPropertyOp31
 70
     1
102
RTVSPropertyOp32
 70
     1
102
RTVSPropertyOp33
 70
     1
102
RTVSPropertyOp34
 70
     1
102
RTVSPropertyOp35
 70
     1
102
RTVSPropertyOp36
 70
     1
102
RTVSPropertyOp37
 70
     1
102
RTVSPropertyOp38
 70
     1
102
RTVSPropertyOp39
 70
     1
102
RTVSPropertyOp40
 70
     1
102
RTVSPropertyOp41
 70
     1
102
RTVSPropertyOp42
 70
     1
102
RTVSPropertyOp43
 70
     1
102
RTVSPropertyOp44
 70
     1
102
RTVSPropertyOp45
 70
     1
102
RTVSPropertyOp46
 70
     1
102
RTVSPropertyOp47
 70
     1
102
RTVSPropertyOp48
 70
     1
102
RTVSPropertyOp49
 70
     1
102
RTVSPropertyOp50
 70
     1
102
RTVSPropertyOp51
 70
     0
102
RTVSPropertyOp52
 70
     0
102
RTVSPropertyOp53
 70
     1
102
RTVSPropertyOp54
 70
     1
102
RTVSPropertyOp55
 70
     1
102
RTVSPropertyOp56
 70
     1
102
RTVSPropertyOp57
 70
     1
102
RTVSPropertyOp58
 70
     1
102
RTVSPropertyOp59
 70
     1
102
RTVSPropertyOp60
 70
     1
102
RTVSPropertyOp61
 70
     1
102
RTVSPropertyOp62
 70
     1
  0
XRECORD
  5
1853
102
{ACAD_REACTORS
330
1852
102
}
330
1852
100
AcDbXrecord
280
     1
102
RTVSPost2010Prop28
280
     0
102
RTVSPost2010PropOp28
 70
     1
102
RTVSPost2010Prop29
280
     1
102
RTVSPost2010PropOp29
 70
     1
102
RTVSPost2010Prop30
280
     1
102
RTVSPost2010PropOp30
 70
     1
102
RTVSPost2010Prop31
280
     0
102
RTVSPost2010PropOp31
 70
     1
102
RTVSPost2010Prop32
280
     0
102
RTVSPost2010PropOp32
 70
     1
102
RTVSPost2010Prop33
280
     0
102
RTVSPost2010PropOp33
 70
     1
102
RTVSPost2010Prop34
280
     0
102
RTVSPost2010PropOp34
 70
     1
102
RTVSPost2010Prop35
280
     0
102
RTVSPost2010PropOp35
 70
     1
102
RTVSPost2010Prop36
280
     0
102
RTVSPost2010PropOp36
 70
     1
102
RTVSPost2010Prop37
 90
       50
102
RTVSPost2010PropOp37
 70
     0
102
RTVSPost2010Prop38
140
0.0
102
RTVSPost2010PropOp38
 70
     0
102
RTVSPost2010Prop39
140
1.0
102
RTVSPost2010PropOp39
 70
     0
102
RTVSPost2010Prop40
 90
        0
102
RTVSPost2010PropOp40
 70
     0
102
RTVSPost2010Prop41ColorIndex
 90
       18
102
RTVSPost2010Prop41ColorRGB
 90
        0
102
RTVSPost2010PropOp41
 70
     0
102
RTVSPost2010Prop42
 90
       50
102
RTVSPost2010PropOp42
 70
     0
102
RTVSPost2010Prop43
 90
        3
102
RTVSPost2010PropOp43
 70
     0
102
RTVSPost2010Prop44ColorIndex
 90
        5
102
RTVSPost2010Prop44ColorRGB
 90
      255
102
RTVSPost2010PropOp44
 70
     0
102
RTVSPost2010Prop45
280
     0
102
RTVSPost2010PropOp45
 70
     1
102
RTVSPost2010Prop46
 90
       50
102
RTVSPost2010PropOp46
 70
     0
102
RTVSPost2010Prop47
 90
       50
102
RTVSPost2010PropOp47
 70
     0
102
RTVSPost2010Prop48
 90
       50
102
RTVSPost2010PropOp48
 70
     0
102
RTVSPost2010Prop49
280
     0
102
RTVSPost2010PropOp49
 70
     1
102
RTVSPost2010Prop50
 90
       50
102
RTVSPost2010PropOp50
 70
     0
102
RTVSPost2010Prop51ColorIndex
 90
      256
102
RTVSPost2010Prop51ColorRGB
 90
-16777216
102
RTVSPost2010PropOp51
 70
     0
102
RTVSPost2010Prop52
140
1.0
102
RTVSPost2010PropOp52
 70
     0
102
RTVSPost2010Prop53
 90
        2
102
RTVSPost2010PropOp53
 70
     0
102
RTVSPost2010Prop54
  1
strokes_ogs.tif
102
RTVSPost2010PropOp54
 70
     0
102
RTVSPost2010Prop55
280
     0
102
RTVSPost2010PropOp55
 70
     1
102
RTVSPost2010Prop56
140
1.0
102
RTVSPost2010PropOp56
 70
     0
102
RTVSPost2010Prop57
140
1.0
102
RTVSPost2010PropOp57
 70
     0
102
RTVSPropertyOp0
 70
     0
102
RTVSPropertyOp1
 70
     0
102
RTVSPropertyOp2
 70
     0
102
RTVSPropertyOp3
 70
     0
102
RTVSPropertyOp4
 70
     0
102
RTVSPropertyOp5
 70
     0
102
RTVSPropertyOp6
 70
     0
102
RTVSPropertyOp7
 70
     0
102
RTVSPropertyOp8
 70
     0
102
RTVSPropertyOp9
 70
     0
102
RTVSPropertyOp10
 70
     0
102
RTVSPropertyOp11
 70
     0
102
RTVSPropertyOp12
 70
     0
102
RTVSPropertyOp13
 70
     0
102
RTVSPropertyOp14
 70
     2
102
RTVSPropertyOp15
 70
     0
102
RTVSPropertyOp16
 70
     0
102
RTVSPropertyOp17
 70
     0
102
RTVSPropertyOp18
 70
     0
102
RTVSPropertyOp19
 70
     0
102
RTVSPropertyOp20
 70
     0
102
RTVSPropertyOp21
 70
     0
102
RTVSPropertyOp22
 70
     0
102
RTVSPropertyOp23
 70
     0
102
RTVSPropertyOp24
 70
     0
102
RTVSPropertyOp25
 70
     0
102
RTVSPropertyOp26
 70
     0
102
RTVSPropertyOp27
 70
     0
102
RTVSPropertyOp28
 70
     1
102
RTVSPropertyOp29
 70
     1
102
RTVSPropertyOp30
 70
     1
102
RTVSPropertyOp31
 70
     1
102
RTVSPropertyOp32
 70
     1
102
RTVSPropertyOp33
 70
     1
102
RTVSPropertyOp34
 70
     1
102
RTVSPropertyOp35
 70
     1
102
RTVSPropertyOp36
 70
     1
102
RTVSPropertyOp37
 70
     0
102
RTVSPropertyOp38
 70
     0
102
RTVSPropertyOp39
 70
     0
102
RTVSPropertyOp40
 70
     0
102
RTVSPropertyOp41
 70
     0
102
RTVSPropertyOp42
 70
     0
102
RTVSPropertyOp43
 70
     0
102
RTVSPropertyOp44
 70
     0
102
RTVSPropertyOp45
 70
     1
102
RTVSPropertyOp46
 70
     0
102
RTVSPropertyOp47
 70
     0
102
RTVSPropertyOp48
 70
     0
102
RTVSPropertyOp49
 70
     1
102
RTVSPropertyOp50
 70
     0
102
RTVSPropertyOp51
 70
     0
102
RTVSPropertyOp52
 70
     0
102
RTVSPropertyOp53
 70
     0
102
RTVSPropertyOp54
 70
     0
102
RTVSPropertyOp55
 70
     1
102
RTVSPropertyOp56
 70
     0
102
RTVSPropertyOp57
 70
     0
102
RTVSPropertyOp58
 70
     0
102
RTVSPropertyOp59
 70
     0
102
RTVSPropertyOp60
 70
     0
102
RTVSPropertyOp61
 70
     0
102
RTVSPropertyOp62
 70
     0
  0
XRECORD
  5
1841
102
{ACAD_REACTORS
330
1840
102
}
330
1840
100
AcDbXrecord
280
     1
102
RTVSPost2010Prop28
280
     0
102
RTVSPost2010PropOp28
 70
     1
102
RTVSPost2010Prop29
280
     1
102
RTVSPost2010PropOp29
 70
     1
102
RTVSPost2010Prop30
280
     1
102
RTVSPost2010PropOp30
 70
     1
102
RTVSPost2010Prop31
280
     0
102
RTVSPost2010PropOp31
 70
     1
102
RTVSPost2010Prop32
280
     0
102
RTVSPost2010PropOp32
 70
     1
102
RTVSPost2010Prop33
280
     0
102
RTVSPost2010PropOp33
 70
     1
102
RTVSPost2010Prop34
280
     0
102
RTVSPost2010PropOp34
 70
     1
102
RTVSPost2010Prop35
280
     0
102
RTVSPost2010PropOp35
 70
     1
102
RTVSPost2010Prop36
280
     0
102
RTVSPost2010PropOp36
 70
     1
102
RTVSPost2010Prop37
 90
       50
102
RTVSPost2010PropOp37
 70
     1
102
RTVSPost2010Prop38
140
0.0
102
RTVSPost2010PropOp38
 70
     1
102
RTVSPost2010Prop39
140
1.0
102
RTVSPost2010PropOp39
 70
     1
102
RTVSPost2010Prop40
 90
        0
102
RTVSPost2010PropOp40
 70
     1
102
RTVSPost2010Prop41ColorIndex
 90
       18
102
RTVSPost2010Prop41ColorRGB
 90
        0
102
RTVSPost2010PropOp41
 70
     1
102
RTVSPost2010Prop42
 90
       50
102
RTVSPost2010PropOp42
 70
     1
102
RTVSPost2010Prop43
 90
        3
102
RTVSPost2010PropOp43
 70
     1
102
RTVSPost2010Prop44ColorIndex
 90
        5
102
RTVSPost2010Prop44ColorRGB
 90
      255
102
RTVSPost2010PropOp44
 70
     1
102
RTVSPost2010Prop45
280
     0
102
RTVSPost2010PropOp45
 70
     1
102
RTVSPost2010Prop46
 90
       50
102
RTVSPost2010PropOp46
 70
     1
102
RTVSPost2010Prop47
 90
       50
102
RTVSPost2010PropOp47
 70
     1
102
RTVSPost2010Prop48
 90
       50
102
RTVSPost2010PropOp48
 70
     1
102
RTVSPost2010Prop49
280
     0
102
RTVSPost2010PropOp49
 70
     1
102
RTVSPost2010Prop50
 90
       50
102
RTVSPost2010PropOp50
 70
     1
102
RTVSPost2010Prop51ColorIndex
 90
      256
102
RTVSPost2010Prop51ColorRGB
 90
-16777216
102
RTVSPost2010PropOp51
 70
     0
102
RTVSPost2010Prop52
140
1.0
102
RTVSPost2010PropOp52
 70
     0
102
RTVSPost2010Prop53
 90
        2
102
RTVSPost2010PropOp53
 70
     1
102
RTVSPost2010Prop54
  1
strokes_ogs.tif
102
RTVSPost2010PropOp54
 70
     1
102
RTVSPost2010Prop55
280
     0
102
RTVSPost2010PropOp55
 70
     1
102
RTVSPost2010Prop56
140
1.0
102
RTVSPost2010PropOp56
 70
     1
102
RTVSPost2010Prop57
140
1.0
102
RTVSPost2010PropOp57
 70
     1
102
RTVSPropertyOp0
 70
     1
102
RTVSPropertyOp1
 70
     1
102
RTVSPropertyOp2
 70
     1
102
RTVSPropertyOp3
 70
     1
102
RTVSPropertyOp4
 70
     1
102
RTVSPropertyOp5
 70
     1
102
RTVSPropertyOp6
 70
     1
102
RTVSPropertyOp7
 70
     1
102
RTVSPropertyOp8
 70
     1
102
RTVSPropertyOp9
 70
     1
102
RTVSPropertyOp10
 70
     1
102
RTVSPropertyOp11
 70
     1
102
RTVSPropertyOp12
 70
     1
102
RTVSPropertyOp13
 70
     1
102
RTVSPropertyOp14
 70
     1
102
RTVSPropertyOp15
 70
     1
102
RTVSPropertyOp16
 70
     1
102
RTVSPropertyOp17
 70
     1
102
RTVSPropertyOp18
 70
     1
102
RTVSPropertyOp19
 70
     1
102
RTVSPropertyOp20
 70
     1
102
RTVSPropertyOp21
 70
     1
102
RTVSPropertyOp22
 70
     1
102
RTVSPropertyOp23
 70
     1
102
RTVSPropertyOp24
 70
     1
102
RTVSPropertyOp25
 70
     1
102
RTVSPropertyOp26
 70
     1
102
RTVSPropertyOp27
 70
     1
102
RTVSPropertyOp28
 70
     1
102
RTVSPropertyOp29
 70
     1
102
RTVSPropertyOp30
 70
     1
102
RTVSPropertyOp31
 70
     1
102
RTVSPropertyOp32
 70
     1
102
RTVSPropertyOp33
 70
     1
102
RTVSPropertyOp34
 70
     1
102
RTVSPropertyOp35
 70
     1
102
RTVSPropertyOp36
 70
     1
102
RTVSPropertyOp37
 70
     1
102
RTVSPropertyOp38
 70
     1
102
RTVSPropertyOp39
 70
     1
102
RTVSPropertyOp40
 70
     1
102
RTVSPropertyOp41
 70
     1
102
RTVSPropertyOp42
 70
     1
102
RTVSPropertyOp43
 70
     1
102
RTVSPropertyOp44
 70
     1
102
RTVSPropertyOp45
 70
     1
102
RTVSPropertyOp46
 70
     1
102
RTVSPropertyOp47
 70
     1
102
RTVSPropertyOp48
 70
     1
102
RTVSPropertyOp49
 70
     1
102
RTVSPropertyOp50
 70
     1
102
RTVSPropertyOp51
 70
     0
102
RTVSPropertyOp52
 70
     0
102
RTVSPropertyOp53
 70
     1
102
RTVSPropertyOp54
 70
     1
102
RTVSPropertyOp55
 70
     1
102
RTVSPropertyOp56
 70
     1
102
RTVSPropertyOp57
 70
     1
102
RTVSPropertyOp58
 70
     1
102
RTVSPropertyOp59
 70
     1
102
RTVSPropertyOp60
 70
     1
102
RTVSPropertyOp61
 70
     1
102
RTVSPropertyOp62
 70
     1
  0
XRECORD
  5
1825
102
{ACAD_REACTORS
330
1824
102
}
330
1824
100
AcDbXrecord
280
     1
102
RTVSPost2010Prop28
280
     0
102
RTVSPost2010PropOp28
 70
     1
102
RTVSPost2010Prop29
280
     1
102
RTVSPost2010PropOp29
 70
     1
102
RTVSPost2010Prop30
280
     1
102
RTVSPost2010PropOp30
 70
     1
102
RTVSPost2010Prop31
280
     0
102
RTVSPost2010PropOp31
 70
     1
102
RTVSPost2010Prop32
280
     0
102
RTVSPost2010PropOp32
 70
     1
102
RTVSPost2010Prop33
280
     0
102
RTVSPost2010PropOp33
 70
     1
102
RTVSPost2010Prop34
280
     0
102
RTVSPost2010PropOp34
 70
     1
102
RTVSPost2010Prop35
280
     0
102
RTVSPost2010PropOp35
 70
     1
102
RTVSPost2010Prop36
280
     0
102
RTVSPost2010PropOp36
 70
     1
102
RTVSPost2010Prop37
 90
       50
102
RTVSPost2010PropOp37
 70
     1
102
RTVSPost2010Prop38
140
0.0
102
RTVSPost2010PropOp38
 70
     1
102
RTVSPost2010Prop39
140
1.0
102
RTVSPost2010PropOp39
 70
     1
102
RTVSPost2010Prop40
 90
        0
102
RTVSPost2010PropOp40
 70
     1
102
RTVSPost2010Prop41ColorIndex
 90
       18
102
RTVSPost2010Prop41ColorRGB
 90
        0
102
RTVSPost2010PropOp41
 70
     1
102
RTVSPost2010Prop42
 90
       50
102
RTVSPost2010PropOp42
 70
     1
102
RTVSPost2010Prop43
 90
        3
102
RTVSPost2010PropOp43
 70
     1
102
RTVSPost2010Prop44ColorIndex
 90
        5
102
RTVSPost2010Prop44ColorRGB
 90
      255
102
RTVSPost2010PropOp44
 70
     1
102
RTVSPost2010Prop45
280
     0
102
RTVSPost2010PropOp45
 70
     1
102
RTVSPost2010Prop46
 90
       50
102
RTVSPost2010PropOp46
 70
     1
102
RTVSPost2010Prop47
 90
       50
102
RTVSPost2010PropOp47
 70
     1
102
RTVSPost2010Prop48
 90
       50
102
RTVSPost2010PropOp48
 70
     1
102
RTVSPost2010Prop49
280
     0
102
RTVSPost2010PropOp49
 70
     1
102
RTVSPost2010Prop50
 90
       50
102
RTVSPost2010PropOp50
 70
     1
102
RTVSPost2010Prop51ColorIndex
 90
      256
102
RTVSPost2010Prop51ColorRGB
 90
-16777216
102
RTVSPost2010PropOp51
 70
     0
102
RTVSPost2010Prop52
140
1.0
102
RTVSPost2010PropOp52
 70
     0
102
RTVSPost2010Prop53
 90
        2
102
RTVSPost2010PropOp53
 70
     1
102
RTVSPost2010Prop54
  1
strokes_ogs.tif
102
RTVSPost2010PropOp54
 70
     1
102
RTVSPost2010Prop55
280
     0
102
RTVSPost2010PropOp55
 70
     1
102
RTVSPost2010Prop56
140
1.0
102
RTVSPost2010PropOp56
 70
     1
102
RTVSPost2010Prop57
140
1.0
102
RTVSPost2010PropOp57
 70
     1
102
RTVSPropertyOp0
 70
     1
102
RTVSPropertyOp1
 70
     1
102
RTVSPropertyOp2
 70
     1
102
RTVSPropertyOp3
 70
     1
102
RTVSPropertyOp4
 70
     1
102
RTVSPropertyOp5
 70
     1
102
RTVSPropertyOp6
 70
     1
102
RTVSPropertyOp7
 70
     1
102
RTVSPropertyOp8
 70
     1
102
RTVSPropertyOp9
 70
     1
102
RTVSPropertyOp10
 70
     1
102
RTVSPropertyOp11
 70
     1
102
RTVSPropertyOp12
 70
     1
102
RTVSPropertyOp13
 70
     1
102
RTVSPropertyOp14
 70
     1
102
RTVSPropertyOp15
 70
     1
102
RTVSPropertyOp16
 70
     1
102
RTVSPropertyOp17
 70
     1
102
RTVSPropertyOp18
 70
     1
102
RTVSPropertyOp19
 70
     1
102
RTVSPropertyOp20
 70
     1
102
RTVSPropertyOp21
 70
     1
102
RTVSPropertyOp22
 70
     1
102
RTVSPropertyOp23
 70
     1
102
RTVSPropertyOp24
 70
     1
102
RTVSPropertyOp25
 70
     1
102
RTVSPropertyOp26
 70
     1
102
RTVSPropertyOp27
 70
     1
102
RTVSPropertyOp28
 70
     1
102
RTVSPropertyOp29
 70
     1
102
RTVSPropertyOp30
 70
     1
102
RTVSPropertyOp31
 70
     1
102
RTVSPropertyOp32
 70
     1
102
RTVSPropertyOp33
 70
     1
102
RTVSPropertyOp34
 70
     1
102
RTVSPropertyOp35
 70
     1
102
RTVSPropertyOp36
 70
     1
102
RTVSPropertyOp37
 70
     1
102
RTVSPropertyOp38
 70
     1
102
RTVSPropertyOp39
 70
     1
102
RTVSPropertyOp40
 70
     1
102
RTVSPropertyOp41
 70
     1
102
RTVSPropertyOp42
 70
     1
102
RTVSPropertyOp43
 70
     1
102
RTVSPropertyOp44
 70
     1
102
RTVSPropertyOp45
 70
     1
102
RTVSPropertyOp46
 70
     1
102
RTVSPropertyOp47
 70
     1
102
RTVSPropertyOp48
 70
     1
102
RTVSPropertyOp49
 70
     1
102
RTVSPropertyOp50
 70
     1
102
RTVSPropertyOp51
 70
     0
102
RTVSPropertyOp52
 70
     0
102
RTVSPropertyOp53
 70
     1
102
RTVSPropertyOp54
 70
     1
102
RTVSPropertyOp55
 70
     1
102
RTVSPropertyOp56
 70
     1
102
RTVSPropertyOp57
 70
     1
102
RTVSPropertyOp58
 70
     1
102
RTVSPropertyOp59
 70
     1
102
RTVSPropertyOp60
 70
     1
102
RTVSPropertyOp61
 70
     1
102
RTVSPropertyOp62
 70
     1
  0
XRECORD
  5
1827
102
{ACAD_REACTORS
330
1826
102
}
330
1826
100
AcDbXrecord
280
     1
102
RTVSPost2010Prop28
280
     0
102
RTVSPost2010PropOp28
 70
     1
102
RTVSPost2010Prop29
280
     1
102
RTVSPost2010PropOp29
 70
     1
102
RTVSPost2010Prop30
280
     1
102
RTVSPost2010PropOp30
 70
     1
102
RTVSPost2010Prop31
280
     0
102
RTVSPost2010PropOp31
 70
     1
102
RTVSPost2010Prop32
280
     0
102
RTVSPost2010PropOp32
 70
     1
102
RTVSPost2010Prop33
280
     0
102
RTVSPost2010PropOp33
 70
     1
102
RTVSPost2010Prop34
280
     0
102
RTVSPost2010PropOp34
 70
     1
102
RTVSPost2010Prop35
280
     0
102
RTVSPost2010PropOp35
 70
     1
102
RTVSPost2010Prop36
280
     0
102
RTVSPost2010PropOp36
 70
     1
102
RTVSPost2010Prop37
 90
       50
102
RTVSPost2010PropOp37
 70
     1
102
RTVSPost2010Prop38
140
0.0
102
RTVSPost2010PropOp38
 70
     1
102
RTVSPost2010Prop39
140
1.0
102
RTVSPost2010PropOp39
 70
     1
102
RTVSPost2010Prop40
 90
        0
102
RTVSPost2010PropOp40
 70
     1
102
RTVSPost2010Prop41ColorIndex
 90
       18
102
RTVSPost2010Prop41ColorRGB
 90
        0
102
RTVSPost2010PropOp41
 70
     1
102
RTVSPost2010Prop42
 90
       50
102
RTVSPost2010PropOp42
 70
     1
102
RTVSPost2010Prop43
 90
        3
102
RTVSPost2010PropOp43
 70
     1
102
RTVSPost2010Prop44ColorIndex
 90
        5
102
RTVSPost2010Prop44ColorRGB
 90
      255
102
RTVSPost2010PropOp44
 70
     1
102
RTVSPost2010Prop45
280
     0
102
RTVSPost2010PropOp45
 70
     1
102
RTVSPost2010Prop46
 90
       50
102
RTVSPost2010PropOp46
 70
     1
102
RTVSPost2010Prop47
 90
       50
102
RTVSPost2010PropOp47
 70
     1
102
RTVSPost2010Prop48
 90
       50
102
RTVSPost2010PropOp48
 70
     1
102
RTVSPost2010Prop49
280
     0
102
RTVSPost2010PropOp49
 70
     1
102
RTVSPost2010Prop50
 90
       50
102
RTVSPost2010PropOp50
 70
     1
102
RTVSPost2010Prop51ColorIndex
 90
      256
102
RTVSPost2010Prop51ColorRGB
 90
-16777216
102
RTVSPost2010PropOp51
 70
     0
102
RTVSPost2010Prop52
140
1.0
102
RTVSPost2010PropOp52
 70
     0
102
RTVSPost2010Prop53
 90
        2
102
RTVSPost2010PropOp53
 70
     1
102
RTVSPost2010Prop54
  1
strokes_ogs.tif
102
RTVSPost2010PropOp54
 70
     1
102
RTVSPost2010Prop55
280
     0
102
RTVSPost2010PropOp55
 70
     1
102
RTVSPost2010Prop56
140
1.0
102
RTVSPost2010PropOp56
 70
     1
102
RTVSPost2010Prop57
140
1.0
102
RTVSPost2010PropOp57
 70
     1
102
RTVSPropertyOp0
 70
     1
102
RTVSPropertyOp1
 70
     1
102
RTVSPropertyOp2
 70
     1
102
RTVSPropertyOp3
 70
     1
102
RTVSPropertyOp4
 70
     1
102
RTVSPropertyOp5
 70
     1
102
RTVSPropertyOp6
 70
     1
102
RTVSPropertyOp7
 70
     1
102
RTVSPropertyOp8
 70
     1
102
RTVSPropertyOp9
 70
     1
102
RTVSPropertyOp10
 70
     1
102
RTVSPropertyOp11
 70
     1
102
RTVSPropertyOp12
 70
     1
102
RTVSPropertyOp13
 70
     1
102
RTVSPropertyOp14
 70
     1
102
RTVSPropertyOp15
 70
     1
102
RTVSPropertyOp16
 70
     1
102
RTVSPropertyOp17
 70
     1
102
RTVSPropertyOp18
 70
     1
102
RTVSPropertyOp19
 70
     1
102
RTVSPropertyOp20
 70
     1
102
RTVSPropertyOp21
 70
     1
102
RTVSPropertyOp22
 70
     1
102
RTVSPropertyOp23
 70
     1
102
RTVSPropertyOp24
 70
     1
102
RTVSPropertyOp25
 70
     1
102
RTVSPropertyOp26
 70
     1
102
RTVSPropertyOp27
 70
     1
102
RTVSPropertyOp28
 70
     1
102
RTVSPropertyOp29
 70
     1
102
RTVSPropertyOp30
 70
     1
102
RTVSPropertyOp31
 70
     1
102
RTVSPropertyOp32
 70
     1
102
RTVSPropertyOp33
 70
     1
102
RTVSPropertyOp34
 70
     1
102
RTVSPropertyOp35
 70
     1
102
RTVSPropertyOp36
 70
     1
102
RTVSPropertyOp37
 70
     1
102
RTVSPropertyOp38
 70
     1
102
RTVSPropertyOp39
 70
     1
102
RTVSPropertyOp40
 70
     1
102
RTVSPropertyOp41
 70
     1
102
RTVSPropertyOp42
 70
     1
102
RTVSPropertyOp43
 70
     1
102
RTVSPropertyOp44
 70
     1
102
RTVSPropertyOp45
 70
     1
102
RTVSPropertyOp46
 70
     1
102
RTVSPropertyOp47
 70
     1
102
RTVSPropertyOp48
 70
     1
102
RTVSPropertyOp49
 70
     1
102
RTVSPropertyOp50
 70
     1
102
RTVSPropertyOp51
 70
     0
102
RTVSPropertyOp52
 70
     0
102
RTVSPropertyOp53
 70
     1
102
RTVSPropertyOp54
 70
     1
102
RTVSPropertyOp55
 70
     1
102
RTVSPropertyOp56
 70
     1
102
RTVSPropertyOp57
 70
     1
102
RTVSPropertyOp58
 70
     1
102
RTVSPropertyOp59
 70
     1
102
RTVSPropertyOp60
 70
     1
102
RTVSPropertyOp61
 70
     1
102
RTVSPropertyOp62
 70
     1
  0
XRECORD
  5
1829
102
{ACAD_REACTORS
330
1828
102
}
330
1828
100
AcDbXrecord
280
     1
102
RTVSPost2010Prop28
280
     0
102
RTVSPost2010PropOp28
 70
     1
102
RTVSPost2010Prop29
280
     1
102
RTVSPost2010PropOp29
 70
     1
102
RTVSPost2010Prop30
280
     1
102
RTVSPost2010PropOp30
 70
     1
102
RTVSPost2010Prop31
280
     0
102
RTVSPost2010PropOp31
 70
     1
102
RTVSPost2010Prop32
280
     0
102
RTVSPost2010PropOp32
 70
     1
102
RTVSPost2010Prop33
280
     0
102
RTVSPost2010PropOp33
 70
     1
102
RTVSPost2010Prop34
280
     0
102
RTVSPost2010PropOp34
 70
     1
102
RTVSPost2010Prop35
280
     0
102
RTVSPost2010PropOp35
 70
     1
102
RTVSPost2010Prop36
280
     0
102
RTVSPost2010PropOp36
 70
     1
102
RTVSPost2010Prop37
 90
       50
102
RTVSPost2010PropOp37
 70
     1
102
RTVSPost2010Prop38
140
0.0
102
RTVSPost2010PropOp38
 70
     1
102
RTVSPost2010Prop39
140
1.0
102
RTVSPost2010PropOp39
 70
     1
102
RTVSPost2010Prop40
 90
        0
102
RTVSPost2010PropOp40
 70
     1
102
RTVSPost2010Prop41ColorIndex
 90
       18
102
RTVSPost2010Prop41ColorRGB
 90
        0
102
RTVSPost2010PropOp41
 70
     1
102
RTVSPost2010Prop42
 90
       50
102
RTVSPost2010PropOp42
 70
     1
102
RTVSPost2010Prop43
 90
        3
102
RTVSPost2010PropOp43
 70
     1
102
RTVSPost2010Prop44ColorIndex
 90
        5
102
RTVSPost2010Prop44ColorRGB
 90
      255
102
RTVSPost2010PropOp44
 70
     1
102
RTVSPost2010Prop45
280
     0
102
RTVSPost2010PropOp45
 70
     1
102
RTVSPost2010Prop46
 90
       50
102
RTVSPost2010PropOp46
 70
     1
102
RTVSPost2010Prop47
 90
       50
102
RTVSPost2010PropOp47
 70
     1
102
RTVSPost2010Prop48
 90
       50
102
RTVSPost2010PropOp48
 70
     1
102
RTVSPost2010Prop49
280
     0
102
RTVSPost2010PropOp49
 70
     1
102
RTVSPost2010Prop50
 90
       50
102
RTVSPost2010PropOp50
 70
     1
102
RTVSPost2010Prop51ColorIndex
 90
      256
102
RTVSPost2010Prop51ColorRGB
 90
-16777216
102
RTVSPost2010PropOp51
 70
     0
102
RTVSPost2010Prop52
140
1.0
102
RTVSPost2010PropOp52
 70
     0
102
RTVSPost2010Prop53
 90
        2
102
RTVSPost2010PropOp53
 70
     1
102
RTVSPost2010Prop54
  1
strokes_ogs.tif
102
RTVSPost2010PropOp54
 70
     1
102
RTVSPost2010Prop55
280
     0
102
RTVSPost2010PropOp55
 70
     1
102
RTVSPost2010Prop56
140
1.0
102
RTVSPost2010PropOp56
 70
     1
102
RTVSPost2010Prop57
140
1.0
102
RTVSPost2010PropOp57
 70
     1
102
RTVSPropertyOp0
 70
     1
102
RTVSPropertyOp1
 70
     1
102
RTVSPropertyOp2
 70
     1
102
RTVSPropertyOp3
 70
     1
102
RTVSPropertyOp4
 70
     1
102
RTVSPropertyOp5
 70
     1
102
RTVSPropertyOp6
 70
     1
102
RTVSPropertyOp7
 70
     1
102
RTVSPropertyOp8
 70
     1
102
RTVSPropertyOp9
 70
     1
102
RTVSPropertyOp10
 70
     1
102
RTVSPropertyOp11
 70
     1
102
RTVSPropertyOp12
 70
     1
102
RTVSPropertyOp13
 70
     1
102
RTVSPropertyOp14
 70
     1
102
RTVSPropertyOp15
 70
     1
102
RTVSPropertyOp16
 70
     1
102
RTVSPropertyOp17
 70
     1
102
RTVSPropertyOp18
 70
     1
102
RTVSPropertyOp19
 70
     1
102
RTVSPropertyOp20
 70
     1
102
RTVSPropertyOp21
 70
     1
102
RTVSPropertyOp22
 70
     1
102
RTVSPropertyOp23
 70
     1
102
RTVSPropertyOp24
 70
     1
102
RTVSPropertyOp25
 70
     1
102
RTVSPropertyOp26
 70
     1
102
RTVSPropertyOp27
 70
     1
102
RTVSPropertyOp28
 70
     1
102
RTVSPropertyOp29
 70
     1
102
RTVSPropertyOp30
 70
     1
102
RTVSPropertyOp31
 70
     1
102
RTVSPropertyOp32
 70
     1
102
RTVSPropertyOp33
 70
     1
102
RTVSPropertyOp34
 70
     1
102
RTVSPropertyOp35
 70
     1
102
RTVSPropertyOp36
 70
     1
102
RTVSPropertyOp37
 70
     1
102
RTVSPropertyOp38
 70
     1
102
RTVSPropertyOp39
 70
     1
102
RTVSPropertyOp40
 70
     1
102
RTVSPropertyOp41
 70
     1
102
RTVSPropertyOp42
 70
     1
102
RTVSPropertyOp43
 70
     1
102
RTVSPropertyOp44
 70
     1
102
RTVSPropertyOp45
 70
     1
102
RTVSPropertyOp46
 70
     1
102
RTVSPropertyOp47
 70
     1
102
RTVSPropertyOp48
 70
     1
102
RTVSPropertyOp49
 70
     1
102
RTVSPropertyOp50
 70
     1
102
RTVSPropertyOp51
 70
     0
102
RTVSPropertyOp52
 70
     0
102
RTVSPropertyOp53
 70
     1
102
RTVSPropertyOp54
 70
     1
102
RTVSPropertyOp55
 70
     1
102
RTVSPropertyOp56
 70
     1
102
RTVSPropertyOp57
 70
     1
102
RTVSPropertyOp58
 70
     1
102
RTVSPropertyOp59
 70
     1
102
RTVSPropertyOp60
 70
     1
102
RTVSPropertyOp61
 70
     1
102
RTVSPropertyOp62
 70
     1
  0
XRECORD
  5
182B
102
{ACAD_REACTORS
330
182A
102
}
330
182A
100
AcDbXrecord
280
     1
102
RTVSPost2010Prop28
280
     0
102
RTVSPost2010PropOp28
 70
     1
102
RTVSPost2010Prop29
280
     1
102
RTVSPost2010PropOp29
 70
     1
102
RTVSPost2010Prop30
280
     1
102
RTVSPost2010PropOp30
 70
     1
102
RTVSPost2010Prop31
280
     0
102
RTVSPost2010PropOp31
 70
     1
102
RTVSPost2010Prop32
280
     0
102
RTVSPost2010PropOp32
 70
     1
102
RTVSPost2010Prop33
280
     0
102
RTVSPost2010PropOp33
 70
     1
102
RTVSPost2010Prop34
280
     0
102
RTVSPost2010PropOp34
 70
     1
102
RTVSPost2010Prop35
280
     0
102
RTVSPost2010PropOp35
 70
     1
102
RTVSPost2010Prop36
280
     0
102
RTVSPost2010PropOp36
 70
     1
102
RTVSPost2010Prop37
 90
       50
102
RTVSPost2010PropOp37
 70
     1
102
RTVSPost2010Prop38
140
0.0
102
RTVSPost2010PropOp38
 70
     1
102
RTVSPost2010Prop39
140
1.0
102
RTVSPost2010PropOp39
 70
     1
102
RTVSPost2010Prop40
 90
        0
102
RTVSPost2010PropOp40
 70
     1
102
RTVSPost2010Prop41ColorIndex
 90
       18
102
RTVSPost2010Prop41ColorRGB
 90
        0
102
RTVSPost2010PropOp41
 70
     1
102
RTVSPost2010Prop42
 90
       50
102
RTVSPost2010PropOp42
 70
     1
102
RTVSPost2010Prop43
 90
        3
102
RTVSPost2010PropOp43
 70
     1
102
RTVSPost2010Prop44ColorIndex
 90
        5
102
RTVSPost2010Prop44ColorRGB
 90
      255
102
RTVSPost2010PropOp44
 70
     1
102
RTVSPost2010Prop45
280
     0
102
RTVSPost2010PropOp45
 70
     1
102
RTVSPost2010Prop46
 90
       50
102
RTVSPost2010PropOp46
 70
     1
102
RTVSPost2010Prop47
 90
       50
102
RTVSPost2010PropOp47
 70
     1
102
RTVSPost2010Prop48
 90
       50
102
RTVSPost2010PropOp48
 70
     1
102
RTVSPost2010Prop49
280
     0
102
RTVSPost2010PropOp49
 70
     1
102
RTVSPost2010Prop50
 90
       50
102
RTVSPost2010PropOp50
 70
     1
102
RTVSPost2010Prop51ColorIndex
 90
      256
102
RTVSPost2010Prop51ColorRGB
 90
-16777216
102
RTVSPost2010PropOp51
 70
     0
102
RTVSPost2010Prop52
140
1.0
102
RTVSPost2010PropOp52
 70
     0
102
RTVSPost2010Prop53
 90
        2
102
RTVSPost2010PropOp53
 70
     1
102
RTVSPost2010Prop54
  1
strokes_ogs.tif
102
RTVSPost2010PropOp54
 70
     1
102
RTVSPost2010Prop55
280
     0
102
RTVSPost2010PropOp55
 70
     1
102
RTVSPost2010Prop56
140
1.0
102
RTVSPost2010PropOp56
 70
     1
102
RTVSPost2010Prop57
140
1.0
102
RTVSPost2010PropOp57
 70
     1
102
RTVSPropertyOp0
 70
     1
102
RTVSPropertyOp1
 70
     1
102
RTVSPropertyOp2
 70
     1
102
RTVSPropertyOp3
 70
     1
102
RTVSPropertyOp4
 70
     1
102
RTVSPropertyOp5
 70
     1
102
RTVSPropertyOp6
 70
     1
102
RTVSPropertyOp7
 70
     1
102
RTVSPropertyOp8
 70
     1
102
RTVSPropertyOp9
 70
     1
102
RTVSPropertyOp10
 70
     1
102
RTVSPropertyOp11
 70
     1
102
RTVSPropertyOp12
 70
     1
102
RTVSPropertyOp13
 70
     1
102
RTVSPropertyOp14
 70
     1
102
RTVSPropertyOp15
 70
     1
102
RTVSPropertyOp16
 70
     1
102
RTVSPropertyOp17
 70
     1
102
RTVSPropertyOp18
 70
     1
102
RTVSPropertyOp19
 70
     1
102
RTVSPropertyOp20
 70
     1
102
RTVSPropertyOp21
 70
     1
102
RTVSPropertyOp22
 70
     1
102
RTVSPropertyOp23
 70
     1
102
RTVSPropertyOp24
 70
     1
102
RTVSPropertyOp25
 70
     1
102
RTVSPropertyOp26
 70
     1
102
RTVSPropertyOp27
 70
     1
102
RTVSPropertyOp28
 70
     1
102
RTVSPropertyOp29
 70
     1
102
RTVSPropertyOp30
 70
     1
102
RTVSPropertyOp31
 70
     1
102
RTVSPropertyOp32
 70
     1
102
RTVSPropertyOp33
 70
     1
102
RTVSPropertyOp34
 70
     1
102
RTVSPropertyOp35
 70
     1
102
RTVSPropertyOp36
 70
     1
102
RTVSPropertyOp37
 70
     1
102
RTVSPropertyOp38
 70
     1
102
RTVSPropertyOp39
 70
     1
102
RTVSPropertyOp40
 70
     1
102
RTVSPropertyOp41
 70
     1
102
RTVSPropertyOp42
 70
     1
102
RTVSPropertyOp43
 70
     1
102
RTVSPropertyOp44
 70
     1
102
RTVSPropertyOp45
 70
     1
102
RTVSPropertyOp46
 70
     1
102
RTVSPropertyOp47
 70
     1
102
RTVSPropertyOp48
 70
     1
102
RTVSPropertyOp49
 70
     1
102
RTVSPropertyOp50
 70
     1
102
RTVSPropertyOp51
 70
     0
102
RTVSPropertyOp52
 70
     0
102
RTVSPropertyOp53
 70
     1
102
RTVSPropertyOp54
 70
     1
102
RTVSPropertyOp55
 70
     1
102
RTVSPropertyOp56
 70
     1
102
RTVSPropertyOp57
 70
     1
102
RTVSPropertyOp58
 70
     1
102
RTVSPropertyOp59
 70
     1
102
RTVSPropertyOp60
 70
     1
102
RTVSPropertyOp61
 70
     1
102
RTVSPropertyOp62
 70
     1
  0
XRECORD
  5
1833
102
{ACAD_REACTORS
330
1832
102
}
330
1832
100
AcDbXrecord
280
     1
102
RTVSPost2010Prop28
280
     0
102
RTVSPost2010PropOp28
 70
     1
102
RTVSPost2010Prop29
280
     1
102
RTVSPost2010PropOp29
 70
     1
102
RTVSPost2010Prop30
280
     1
102
RTVSPost2010PropOp30
 70
     1
102
RTVSPost2010Prop31
280
     0
102
RTVSPost2010PropOp31
 70
     1
102
RTVSPost2010Prop32
280
     0
102
RTVSPost2010PropOp32
 70
     1
102
RTVSPost2010Prop33
280
     0
102
RTVSPost2010PropOp33
 70
     1
102
RTVSPost2010Prop34
280
     0
102
RTVSPost2010PropOp34
 70
     1
102
RTVSPost2010Prop35
280
     0
102
RTVSPost2010PropOp35
 70
     1
102
RTVSPost2010Prop36
280
     0
102
RTVSPost2010PropOp36
 70
     1
102
RTVSPost2010Prop37
 90
       50
102
RTVSPost2010PropOp37
 70
     1
102
RTVSPost2010Prop38
140
0.0
102
RTVSPost2010PropOp38
 70
     1
102
RTVSPost2010Prop39
140
1.0
102
RTVSPost2010PropOp39
 70
     1
102
RTVSPost2010Prop40
 90
        0
102
RTVSPost2010PropOp40
 70
     1
102
RTVSPost2010Prop41ColorIndex
 90
       18
102
RTVSPost2010Prop41ColorRGB
 90
        0
102
RTVSPost2010PropOp41
 70
     1
102
RTVSPost2010Prop42
 90
       50
102
RTVSPost2010PropOp42
 70
     1
102
RTVSPost2010Prop43
 90
        3
102
RTVSPost2010PropOp43
 70
     1
102
RTVSPost2010Prop44ColorIndex
 90
        5
102
RTVSPost2010Prop44ColorRGB
 90
      255
102
RTVSPost2010PropOp44
 70
     1
102
RTVSPost2010Prop45
280
     0
102
RTVSPost2010PropOp45
 70
     1
102
RTVSPost2010Prop46
 90
       50
102
RTVSPost2010PropOp46
 70
     1
102
RTVSPost2010Prop47
 90
       50
102
RTVSPost2010PropOp47
 70
     1
102
RTVSPost2010Prop48
 90
       50
102
RTVSPost2010PropOp48
 70
     1
102
RTVSPost2010Prop49
280
     0
102
RTVSPost2010PropOp49
 70
     1
102
RTVSPost2010Prop50
 90
       50
102
RTVSPost2010PropOp50
 70
     1
102
RTVSPost2010Prop51ColorIndex
 90
      256
102
RTVSPost2010Prop51ColorRGB
 90
-16777216
102
RTVSPost2010PropOp51
 70
     0
102
RTVSPost2010Prop52
140
1.0
102
RTVSPost2010PropOp52
 70
     0
102
RTVSPost2010Prop53
 90
        2
102
RTVSPost2010PropOp53
 70
     1
102
RTVSPost2010Prop54
  1
strokes_ogs.tif
102
RTVSPost2010PropOp54
 70
     1
102
RTVSPost2010Prop55
280
     0
102
RTVSPost2010PropOp55
 70
     1
102
RTVSPost2010Prop56
140
1.0
102
RTVSPost2010PropOp56
 70
     1
102
RTVSPost2010Prop57
140
1.0
102
RTVSPost2010PropOp57
 70
     1
102
RTVSPropertyOp0
 70
     1
102
RTVSPropertyOp1
 70
     1
102
RTVSPropertyOp2
 70
     1
102
RTVSPropertyOp3
 70
     1
102
RTVSPropertyOp4
 70
     1
102
RTVSPropertyOp5
 70
     1
102
RTVSPropertyOp6
 70
     1
102
RTVSPropertyOp7
 70
     1
102
RTVSPropertyOp8
 70
     1
102
RTVSPropertyOp9
 70
     1
102
RTVSPropertyOp10
 70
     1
102
RTVSPropertyOp11
 70
     1
102
RTVSPropertyOp12
 70
     1
102
RTVSPropertyOp13
 70
     1
102
RTVSPropertyOp14
 70
     1
102
RTVSPropertyOp15
 70
     1
102
RTVSPropertyOp16
 70
     1
102
RTVSPropertyOp17
 70
     1
102
RTVSPropertyOp18
 70
     1
102
RTVSPropertyOp19
 70
     1
102
RTVSPropertyOp20
 70
     1
102
RTVSPropertyOp21
 70
     1
102
RTVSPropertyOp22
 70
     1
102
RTVSPropertyOp23
 70
     1
102
RTVSPropertyOp24
 70
     1
102
RTVSPropertyOp25
 70
     1
102
RTVSPropertyOp26
 70
     1
102
RTVSPropertyOp27
 70
     1
102
RTVSPropertyOp28
 70
     1
102
RTVSPropertyOp29
 70
     1
102
RTVSPropertyOp30
 70
     1
102
RTVSPropertyOp31
 70
     1
102
RTVSPropertyOp32
 70
     1
102
RTVSPropertyOp33
 70
     1
102
RTVSPropertyOp34
 70
     1
102
RTVSPropertyOp35
 70
     1
102
RTVSPropertyOp36
 70
     1
102
RTVSPropertyOp37
 70
     1
102
RTVSPropertyOp38
 70
     1
102
RTVSPropertyOp39
 70
     1
102
RTVSPropertyOp40
 70
     1
102
RTVSPropertyOp41
 70
     1
102
RTVSPropertyOp42
 70
     1
102
RTVSPropertyOp43
 70
     1
102
RTVSPropertyOp44
 70
     1
102
RTVSPropertyOp45
 70
     1
102
RTVSPropertyOp46
 70
     1
102
RTVSPropertyOp47
 70
     1
102
RTVSPropertyOp48
 70
     1
102
RTVSPropertyOp49
 70
     1
102
RTVSPropertyOp50
 70
     1
102
RTVSPropertyOp51
 70
     0
102
RTVSPropertyOp52
 70
     0
102
RTVSPropertyOp53
 70
     1
102
RTVSPropertyOp54
 70
     1
102
RTVSPropertyOp55
 70
     1
102
RTVSPropertyOp56
 70
     1
102
RTVSPropertyOp57
 70
     1
102
RTVSPropertyOp58
 70
     1
102
RTVSPropertyOp59
 70
     1
102
RTVSPropertyOp60
 70
     1
102
RTVSPropertyOp61
 70
     1
102
RTVSPropertyOp62
 70
     1
  0
XRECORD
  5
184F
102
{ACAD_REACTORS
330
184E
102
}
330
184E
100
AcDbXrecord
280
     1
102
RTVSPost2010Prop28
280
     0
102
RTVSPost2010PropOp28
 70
     1
102
RTVSPost2010Prop29
280
     1
102
RTVSPost2010PropOp29
 70
     1
102
RTVSPost2010Prop30
280
     1
102
RTVSPost2010PropOp30
 70
     1
102
RTVSPost2010Prop31
280
     0
102
RTVSPost2010PropOp31
 70
     1
102
RTVSPost2010Prop32
280
     0
102
RTVSPost2010PropOp32
 70
     1
102
RTVSPost2010Prop33
280
     0
102
RTVSPost2010PropOp33
 70
     1
102
RTVSPost2010Prop34
280
     0
102
RTVSPost2010PropOp34
 70
     1
102
RTVSPost2010Prop35
280
     0
102
RTVSPost2010PropOp35
 70
     1
102
RTVSPost2010Prop36
280
     0
102
RTVSPost2010PropOp36
 70
     1
102
RTVSPost2010Prop37
 90
       50
102
RTVSPost2010PropOp37
 70
     0
102
RTVSPost2010Prop38
140
0.0
102
RTVSPost2010PropOp38
 70
     0
102
RTVSPost2010Prop39
140
1.0
102
RTVSPost2010PropOp39
 70
     0
102
RTVSPost2010Prop40
 90
        0
102
RTVSPost2010PropOp40
 70
     0
102
RTVSPost2010Prop41ColorIndex
 90
       18
102
RTVSPost2010Prop41ColorRGB
 90
        0
102
RTVSPost2010PropOp41
 70
     0
102
RTVSPost2010Prop42
 90
       50
102
RTVSPost2010PropOp42
 70
     0
102
RTVSPost2010Prop43
 90
        3
102
RTVSPost2010PropOp43
 70
     0
102
RTVSPost2010Prop44ColorIndex
 90
        5
102
RTVSPost2010Prop44ColorRGB
 90
      255
102
RTVSPost2010PropOp44
 70
     0
102
RTVSPost2010Prop45
280
     0
102
RTVSPost2010PropOp45
 70
     1
102
RTVSPost2010Prop46
 90
       50
102
RTVSPost2010PropOp46
 70
     0
102
RTVSPost2010Prop47
 90
       50
102
RTVSPost2010PropOp47
 70
     0
102
RTVSPost2010Prop48
 90
       50
102
RTVSPost2010PropOp48
 70
     0
102
RTVSPost2010Prop49
280
     0
102
RTVSPost2010PropOp49
 70
     1
102
RTVSPost2010Prop50
 90
       50
102
RTVSPost2010PropOp50
 70
     0
102
RTVSPost2010Prop51ColorIndex
 90
      256
102
RTVSPost2010Prop51ColorRGB
 90
-16777216
102
RTVSPost2010PropOp51
 70
     0
102
RTVSPost2010Prop52
140
1.0
102
RTVSPost2010PropOp52
 70
     0
102
RTVSPost2010Prop53
 90
        2
102
RTVSPost2010PropOp53
 70
     0
102
RTVSPost2010Prop54
  1
strokes_ogs.tif
102
RTVSPost2010PropOp54
 70
     0
102
RTVSPost2010Prop55
280
     0
102
RTVSPost2010PropOp55
 70
     1
102
RTVSPost2010Prop56
140
1.0
102
RTVSPost2010PropOp56
 70
     0
102
RTVSPost2010Prop57
140
1.0
102
RTVSPost2010PropOp57
 70
     0
102
RTVSPropertyOp0
 70
     0
102
RTVSPropertyOp1
 70
     0
102
RTVSPropertyOp2
 70
     0
102
RTVSPropertyOp3
 70
     0
102
RTVSPropertyOp4
 70
     0
102
RTVSPropertyOp5
 70
     0
102
RTVSPropertyOp6
 70
     0
102
RTVSPropertyOp7
 70
     0
102
RTVSPropertyOp8
 70
     0
102
RTVSPropertyOp9
 70
     0
102
RTVSPropertyOp10
 70
     0
102
RTVSPropertyOp11
 70
     0
102
RTVSPropertyOp12
 70
     0
102
RTVSPropertyOp13
 70
     0
102
RTVSPropertyOp14
 70
     2
102
RTVSPropertyOp15
 70
     0
102
RTVSPropertyOp16
 70
     0
102
RTVSPropertyOp17
 70
     0
102
RTVSPropertyOp18
 70
     0
102
RTVSPropertyOp19
 70
     0
102
RTVSPropertyOp20
 70
     0
102
RTVSPropertyOp21
 70
     0
102
RTVSPropertyOp22
 70
     0
102
RTVSPropertyOp23
 70
     0
102
RTVSPropertyOp24
 70
     0
102
RTVSPropertyOp25
 70
     0
102
RTVSPropertyOp26
 70
     0
102
RTVSPropertyOp27
 70
     0
102
RTVSPropertyOp28
 70
     1
102
RTVSPropertyOp29
 70
     1
102
RTVSPropertyOp30
 70
     1
102
RTVSPropertyOp31
 70
     1
102
RTVSPropertyOp32
 70
     1
102
RTVSPropertyOp33
 70
     1
102
RTVSPropertyOp34
 70
     1
102
RTVSPropertyOp35
 70
     1
102
RTVSPropertyOp36
 70
     1
102
RTVSPropertyOp37
 70
     0
102
RTVSPropertyOp38
 70
     0
102
RTVSPropertyOp39
 70
     0
102
RTVSPropertyOp40
 70
     0
102
RTVSPropertyOp41
 70
     0
102
RTVSPropertyOp42
 70
     0
102
RTVSPropertyOp43
 70
     0
102
RTVSPropertyOp44
 70
     0
102
RTVSPropertyOp45
 70
     1
102
RTVSPropertyOp46
 70
     0
102
RTVSPropertyOp47
 70
     0
102
RTVSPropertyOp48
 70
     0
102
RTVSPropertyOp49
 70
     1
102
RTVSPropertyOp50
 70
     0
102
RTVSPropertyOp51
 70
     0
102
RTVSPropertyOp52
 70
     0
102
RTVSPropertyOp53
 70
     0
102
RTVSPropertyOp54
 70
     0
102
RTVSPropertyOp55
 70
     1
102
RTVSPropertyOp56
 70
     0
102
RTVSPropertyOp57
 70
     0
102
RTVSPropertyOp58
 70
     0
102
RTVSPropertyOp59
 70
     0
102
RTVSPropertyOp60
 70
     0
102
RTVSPropertyOp61
 70
     0
102
RTVSPropertyOp62
 70
     0
  0
XRECORD
  5
183F
102
{ACAD_REACTORS
330
183E
102
}
330
183E
100
AcDbXrecord
280
     1
102
RTVSPost2010Prop28
280
     0
102
RTVSPost2010PropOp28
 70
     1
102
RTVSPost2010Prop29
280
     1
102
RTVSPost2010PropOp29
 70
     1
102
RTVSPost2010Prop30
280
     1
102
RTVSPost2010PropOp30
 70
     1
102
RTVSPost2010Prop31
280
     0
102
RTVSPost2010PropOp31
 70
     1
102
RTVSPost2010Prop32
280
     0
102
RTVSPost2010PropOp32
 70
     1
102
RTVSPost2010Prop33
280
     0
102
RTVSPost2010PropOp33
 70
     1
102
RTVSPost2010Prop34
280
     0
102
RTVSPost2010PropOp34
 70
     1
102
RTVSPost2010Prop35
280
     0
102
RTVSPost2010PropOp35
 70
     1
102
RTVSPost2010Prop36
280
     0
102
RTVSPost2010PropOp36
 70
     1
102
RTVSPost2010Prop37
 90
       50
102
RTVSPost2010PropOp37
 70
     1
102
RTVSPost2010Prop38
140
0.0
102
RTVSPost2010PropOp38
 70
     1
102
RTVSPost2010Prop39
140
1.0
102
RTVSPost2010PropOp39
 70
     1
102
RTVSPost2010Prop40
 90
        0
102
RTVSPost2010PropOp40
 70
     1
102
RTVSPost2010Prop41ColorIndex
 90
       18
102
RTVSPost2010Prop41ColorRGB
 90
        0
102
RTVSPost2010PropOp41
 70
     1
102
RTVSPost2010Prop42
 90
       50
102
RTVSPost2010PropOp42
 70
     1
102
RTVSPost2010Prop43
 90
        3
102
RTVSPost2010PropOp43
 70
     1
102
RTVSPost2010Prop44ColorIndex
 90
        5
102
RTVSPost2010Prop44ColorRGB
 90
      255
102
RTVSPost2010PropOp44
 70
     1
102
RTVSPost2010Prop45
280
     0
102
RTVSPost2010PropOp45
 70
     1
102
RTVSPost2010Prop46
 90
       50
102
RTVSPost2010PropOp46
 70
     1
102
RTVSPost2010Prop47
 90
       50
102
RTVSPost2010PropOp47
 70
     1
102
RTVSPost2010Prop48
 90
       50
102
RTVSPost2010PropOp48
 70
     1
102
RTVSPost2010Prop49
280
     0
102
RTVSPost2010PropOp49
 70
     1
102
RTVSPost2010Prop50
 90
       50
102
RTVSPost2010PropOp50
 70
     1
102
RTVSPost2010Prop51ColorIndex
 90
      256
102
RTVSPost2010Prop51ColorRGB
 90
-16777216
102
RTVSPost2010PropOp51
 70
     0
102
RTVSPost2010Prop52
140
1.0
102
RTVSPost2010PropOp52
 70
     0
102
RTVSPost2010Prop53
 90
        2
102
RTVSPost2010PropOp53
 70
     1
102
RTVSPost2010Prop54
  1
strokes_ogs.tif
102
RTVSPost2010PropOp54
 70
     1
102
RTVSPost2010Prop55
280
     0
102
RTVSPost2010PropOp55
 70
     1
102
RTVSPost2010Prop56
140
1.0
102
RTVSPost2010PropOp56
 70
     1
102
RTVSPost2010Prop57
140
1.0
102
RTVSPost2010PropOp57
 70
     1
102
RTVSPropertyOp0
 70
     1
102
RTVSPropertyOp1
 70
     1
102
RTVSPropertyOp2
 70
     1
102
RTVSPropertyOp3
 70
     1
102
RTVSPropertyOp4
 70
     1
102
RTVSPropertyOp5
 70
     1
102
RTVSPropertyOp6
 70
     1
102
RTVSPropertyOp7
 70
     1
102
RTVSPropertyOp8
 70
     1
102
RTVSPropertyOp9
 70
     1
102
RTVSPropertyOp10
 70
     1
102
RTVSPropertyOp11
 70
     1
102
RTVSPropertyOp12
 70
     1
102
RTVSPropertyOp13
 70
     1
102
RTVSPropertyOp14
 70
     1
102
RTVSPropertyOp15
 70
     1
102
RTVSPropertyOp16
 70
     1
102
RTVSPropertyOp17
 70
     1
102
RTVSPropertyOp18
 70
     1
102
RTVSPropertyOp19
 70
     1
102
RTVSPropertyOp20
 70
     1
102
RTVSPropertyOp21
 70
     1
102
RTVSPropertyOp22
 70
     1
102
RTVSPropertyOp23
 70
     1
102
RTVSPropertyOp24
 70
     1
102
RTVSPropertyOp25
 70
     1
102
RTVSPropertyOp26
 70
     1
102
RTVSPropertyOp27
 70
     1
102
RTVSPropertyOp28
 70
     1
102
RTVSPropertyOp29
 70
     1
102
RTVSPropertyOp30
 70
     1
102
RTVSPropertyOp31
 70
     1
102
RTVSPropertyOp32
 70
     1
102
RTVSPropertyOp33
 70
     1
102
RTVSPropertyOp34
 70
     1
102
RTVSPropertyOp35
 70
     1
102
RTVSPropertyOp36
 70
     1
102
RTVSPropertyOp37
 70
     1
102
RTVSPropertyOp38
 70
     1
102
RTVSPropertyOp39
 70
     1
102
RTVSPropertyOp40
 70
     1
102
RTVSPropertyOp41
 70
     1
102
RTVSPropertyOp42
 70
     1
102
RTVSPropertyOp43
 70
     1
102
RTVSPropertyOp44
 70
     1
102
RTVSPropertyOp45
 70
     1
102
RTVSPropertyOp46
 70
     1
102
RTVSPropertyOp47
 70
     1
102
RTVSPropertyOp48
 70
     1
102
RTVSPropertyOp49
 70
     1
102
RTVSPropertyOp50
 70
     1
102
RTVSPropertyOp51
 70
     0
102
RTVSPropertyOp52
 70
     0
102
RTVSPropertyOp53
 70
     1
102
RTVSPropertyOp54
 70
     1
102
RTVSPropertyOp55
 70
     1
102
RTVSPropertyOp56
 70
     1
102
RTVSPropertyOp57
 70
     1
102
RTVSPropertyOp58
 70
     1
102
RTVSPropertyOp59
 70
     1
102
RTVSPropertyOp60
 70
     1
102
RTVSPropertyOp61
 70
     1
102
RTVSPropertyOp62
 70
     1
  0
XRECORD
  5
1851
102
{ACAD_REACTORS
330
1850
102
}
330
1850
100
AcDbXrecord
280
     1
102
RTVSPost2010Prop28
280
     0
102
RTVSPost2010PropOp28
 70
     1
102
RTVSPost2010Prop29
280
     1
102
RTVSPost2010PropOp29
 70
     1
102
RTVSPost2010Prop30
280
     1
102
RTVSPost2010PropOp30
 70
     1
102
RTVSPost2010Prop31
280
     0
102
RTVSPost2010PropOp31
 70
     1
102
RTVSPost2010Prop32
280
     0
102
RTVSPost2010PropOp32
 70
     1
102
RTVSPost2010Prop33
280
     0
102
RTVSPost2010PropOp33
 70
     1
102
RTVSPost2010Prop34
280
     0
102
RTVSPost2010PropOp34
 70
     1
102
RTVSPost2010Prop35
280
     0
102
RTVSPost2010PropOp35
 70
     1
102
RTVSPost2010Prop36
280
     0
102
RTVSPost2010PropOp36
 70
     1
102
RTVSPost2010Prop37
 90
       50
102
RTVSPost2010PropOp37
 70
     0
102
RTVSPost2010Prop38
140
0.0
102
RTVSPost2010PropOp38
 70
     0
102
RTVSPost2010Prop39
140
1.0
102
RTVSPost2010PropOp39
 70
     0
102
RTVSPost2010Prop40
 90
        0
102
RTVSPost2010PropOp40
 70
     0
102
RTVSPost2010Prop41ColorIndex
 90
       18
102
RTVSPost2010Prop41ColorRGB
 90
        0
102
RTVSPost2010PropOp41
 70
     0
102
RTVSPost2010Prop42
 90
       50
102
RTVSPost2010PropOp42
 70
     0
102
RTVSPost2010Prop43
 90
        3
102
RTVSPost2010PropOp43
 70
     0
102
RTVSPost2010Prop44ColorIndex
 90
        5
102
RTVSPost2010Prop44ColorRGB
 90
      255
102
RTVSPost2010PropOp44
 70
     0
102
RTVSPost2010Prop45
280
     0
102
RTVSPost2010PropOp45
 70
     1
102
RTVSPost2010Prop46
 90
       50
102
RTVSPost2010PropOp46
 70
     0
102
RTVSPost2010Prop47
 90
       50
102
RTVSPost2010PropOp47
 70
     0
102
RTVSPost2010Prop48
 90
       50
102
RTVSPost2010PropOp48
 70
     0
102
RTVSPost2010Prop49
280
     0
102
RTVSPost2010PropOp49
 70
     1
102
RTVSPost2010Prop50
 90
       50
102
RTVSPost2010PropOp50
 70
     0
102
RTVSPost2010Prop51ColorIndex
 90
      256
102
RTVSPost2010Prop51ColorRGB
 90
-16777216
102
RTVSPost2010PropOp51
 70
     0
102
RTVSPost2010Prop52
140
1.0
102
RTVSPost2010PropOp52
 70
     0
102
RTVSPost2010Prop53
 90
        2
102
RTVSPost2010PropOp53
 70
     0
102
RTVSPost2010Prop54
  1
strokes_ogs.tif
102
RTVSPost2010PropOp54
 70
     0
102
RTVSPost2010Prop55
280
     0
102
RTVSPost2010PropOp55
 70
     1
102
RTVSPost2010Prop56
140
1.0
102
RTVSPost2010PropOp56
 70
     0
102
RTVSPost2010Prop57
140
1.0
102
RTVSPost2010PropOp57
 70
     0
102
RTVSPropertyOp0
 70
     0
102
RTVSPropertyOp1
 70
     0
102
RTVSPropertyOp2
 70
     0
102
RTVSPropertyOp3
 70
     0
102
RTVSPropertyOp4
 70
     0
102
RTVSPropertyOp5
 70
     0
102
RTVSPropertyOp6
 70
     0
102
RTVSPropertyOp7
 70
     0
102
RTVSPropertyOp8
 70
     0
102
RTVSPropertyOp9
 70
     0
102
RTVSPropertyOp10
 70
     0
102
RTVSPropertyOp11
 70
     0
102
RTVSPropertyOp12
 70
     0
102
RTVSPropertyOp13
 70
     0
102
RTVSPropertyOp14
 70
     2
102
RTVSPropertyOp15
 70
     0
102
RTVSPropertyOp16
 70
     0
102
RTVSPropertyOp17
 70
     0
102
RTVSPropertyOp18
 70
     0
102
RTVSPropertyOp19
 70
     0
102
RTVSPropertyOp20
 70
     0
102
RTVSPropertyOp21
 70
     0
102
RTVSPropertyOp22
 70
     0
102
RTVSPropertyOp23
 70
     0
102
RTVSPropertyOp24
 70
     0
102
RTVSPropertyOp25
 70
     0
102
RTVSPropertyOp26
 70
     0
102
RTVSPropertyOp27
 70
     0
102
RTVSPropertyOp28
 70
     1
102
RTVSPropertyOp29
 70
     1
102
RTVSPropertyOp30
 70
     1
102
RTVSPropertyOp31
 70
     1
102
RTVSPropertyOp32
 70
     1
102
RTVSPropertyOp33
 70
     1
102
RTVSPropertyOp34
 70
     1
102
RTVSPropertyOp35
 70
     1
102
RTVSPropertyOp36
 70
     1
102
RTVSPropertyOp37
 70
     0
102
RTVSPropertyOp38
 70
     0
102
RTVSPropertyOp39
 70
     0
102
RTVSPropertyOp40
 70
     0
102
RTVSPropertyOp41
 70
     0
102
RTVSPropertyOp42
 70
     0
102
RTVSPropertyOp43
 70
     0
102
RTVSPropertyOp44
 70
     0
102
RTVSPropertyOp45
 70
     1
102
RTVSPropertyOp46
 70
     0
102
RTVSPropertyOp47
 70
     0
102
RTVSPropertyOp48
 70
     0
102
RTVSPropertyOp49
 70
     1
102
RTVSPropertyOp50
 70
     0
102
RTVSPropertyOp51
 70
     0
102
RTVSPropertyOp52
 70
     0
102
RTVSPropertyOp53
 70
     0
102
RTVSPropertyOp54
 70
     0
102
RTVSPropertyOp55
 70
     1
102
RTVSPropertyOp56
 70
     0
102
RTVSPropertyOp57
 70
     0
102
RTVSPropertyOp58
 70
     0
102
RTVSPropertyOp59
 70
     0
102
RTVSPropertyOp60
 70
     0
102
RTVSPropertyOp61
 70
     0
102
RTVSPropertyOp62
 70
     0
  0
XRECORD
  5
1837
102
{ACAD_REACTORS
330
1836
102
}
330
1836
100
AcDbXrecord
280
     1
102
RTVSPost2010Prop28
280
     0
102
RTVSPost2010PropOp28
 70
     1
102
RTVSPost2010Prop29
280
     1
102
RTVSPost2010PropOp29
 70
     1
102
RTVSPost2010Prop30
280
     1
102
RTVSPost2010PropOp30
 70
     1
102
RTVSPost2010Prop31
280
     0
102
RTVSPost2010PropOp31
 70
     1
102
RTVSPost2010Prop32
280
     0
102
RTVSPost2010PropOp32
 70
     1
102
RTVSPost2010Prop33
280
     0
102
RTVSPost2010PropOp33
 70
     1
102
RTVSPost2010Prop34
280
     0
102
RTVSPost2010PropOp34
 70
     1
102
RTVSPost2010Prop35
280
     0
102
RTVSPost2010PropOp35
 70
     1
102
RTVSPost2010Prop36
280
     0
102
RTVSPost2010PropOp36
 70
     1
102
RTVSPost2010Prop37
 90
       50
102
RTVSPost2010PropOp37
 70
     1
102
RTVSPost2010Prop38
140
0.0
102
RTVSPost2010PropOp38
 70
     1
102
RTVSPost2010Prop39
140
1.0
102
RTVSPost2010PropOp39
 70
     1
102
RTVSPost2010Prop40
 90
        0
102
RTVSPost2010PropOp40
 70
     1
102
RTVSPost2010Prop41ColorIndex
 90
       18
102
RTVSPost2010Prop41ColorRGB
 90
        0
102
RTVSPost2010PropOp41
 70
     1
102
RTVSPost2010Prop42
 90
       50
102
RTVSPost2010PropOp42
 70
     1
102
RTVSPost2010Prop43
 90
        3
102
RTVSPost2010PropOp43
 70
     1
102
RTVSPost2010Prop44ColorIndex
 90
        5
102
RTVSPost2010Prop44ColorRGB
 90
      255
102
RTVSPost2010PropOp44
 70
     1
102
RTVSPost2010Prop45
280
     0
102
RTVSPost2010PropOp45
 70
     1
102
RTVSPost2010Prop46
 90
       50
102
RTVSPost2010PropOp46
 70
     1
102
RTVSPost2010Prop47
 90
       50
102
RTVSPost2010PropOp47
 70
     1
102
RTVSPost2010Prop48
 90
       50
102
RTVSPost2010PropOp48
 70
     1
102
RTVSPost2010Prop49
280
     0
102
RTVSPost2010PropOp49
 70
     1
102
RTVSPost2010Prop50
 90
       50
102
RTVSPost2010PropOp50
 70
     1
102
RTVSPost2010Prop51ColorIndex
 90
      256
102
RTVSPost2010Prop51ColorRGB
 90
-16777216
102
RTVSPost2010PropOp51
 70
     0
102
RTVSPost2010Prop52
140
1.0
102
RTVSPost2010PropOp52
 70
     0
102
RTVSPost2010Prop53
 90
        2
102
RTVSPost2010PropOp53
 70
     1
102
RTVSPost2010Prop54
  1
strokes_ogs.tif
102
RTVSPost2010PropOp54
 70
     1
102
RTVSPost2010Prop55
280
     0
102
RTVSPost2010PropOp55
 70
     1
102
RTVSPost2010Prop56
140
1.0
102
RTVSPost2010PropOp56
 70
     1
102
RTVSPost2010Prop57
140
1.0
102
RTVSPost2010PropOp57
 70
     1
102
RTVSPropertyOp0
 70
     1
102
RTVSPropertyOp1
 70
     1
102
RTVSPropertyOp2
 70
     1
102
RTVSPropertyOp3
 70
     1
102
RTVSPropertyOp4
 70
     1
102
RTVSPropertyOp5
 70
     1
102
RTVSPropertyOp6
 70
     1
102
RTVSPropertyOp7
 70
     1
102
RTVSPropertyOp8
 70
     1
102
RTVSPropertyOp9
 70
     1
102
RTVSPropertyOp10
 70
     1
102
RTVSPropertyOp11
 70
     1
102
RTVSPropertyOp12
 70
     1
102
RTVSPropertyOp13
 70
     1
102
RTVSPropertyOp14
 70
     1
102
RTVSPropertyOp15
 70
     1
102
RTVSPropertyOp16
 70
     1
102
RTVSPropertyOp17
 70
     1
102
RTVSPropertyOp18
 70
     1
102
RTVSPropertyOp19
 70
     1
102
RTVSPropertyOp20
 70
     1
102
RTVSPropertyOp21
 70
     1
102
RTVSPropertyOp22
 70
     1
102
RTVSPropertyOp23
 70
     1
102
RTVSPropertyOp24
 70
     1
102
RTVSPropertyOp25
 70
     1
102
RTVSPropertyOp26
 70
     1
102
RTVSPropertyOp27
 70
     1
102
RTVSPropertyOp28
 70
     1
102
RTVSPropertyOp29
 70
     1
102
RTVSPropertyOp30
 70
     1
102
RTVSPropertyOp31
 70
     1
102
RTVSPropertyOp32
 70
     1
102
RTVSPropertyOp33
 70
     1
102
RTVSPropertyOp34
 70
     1
102
RTVSPropertyOp35
 70
     1
102
RTVSPropertyOp36
 70
     1
102
RTVSPropertyOp37
 70
     1
102
RTVSPropertyOp38
 70
     1
102
RTVSPropertyOp39
 70
     1
102
RTVSPropertyOp40
 70
     1
102
RTVSPropertyOp41
 70
     1
102
RTVSPropertyOp42
 70
     1
102
RTVSPropertyOp43
 70
     1
102
RTVSPropertyOp44
 70
     1
102
RTVSPropertyOp45
 70
     1
102
RTVSPropertyOp46
 70
     1
102
RTVSPropertyOp47
 70
     1
102
RTVSPropertyOp48
 70
     1
102
RTVSPropertyOp49
 70
     1
102
RTVSPropertyOp50
 70
     1
102
RTVSPropertyOp51
 70
     0
102
RTVSPropertyOp52
 70
     0
102
RTVSPropertyOp53
 70
     1
102
RTVSPropertyOp54
 70
     1
102
RTVSPropertyOp55
 70
     1
102
RTVSPropertyOp56
 70
     1
102
RTVSPropertyOp57
 70
     1
102
RTVSPropertyOp58
 70
     1
102
RTVSPropertyOp59
 70
     1
102
RTVSPropertyOp60
 70
     1
102
RTVSPropertyOp61
 70
     1
102
RTVSPropertyOp62
 70
     1
  0
XRECORD
  5
184D
102
{ACAD_REACTORS
330
184C
102
}
330
184C
100
AcDbXrecord
280
     1
102
RTVSPost2010Prop28
280
     0
102
RTVSPost2010PropOp28
 70
     1
102
RTVSPost2010Prop29
280
     1
102
RTVSPost2010PropOp29
 70
     1
102
RTVSPost2010Prop30
280
     1
102
RTVSPost2010PropOp30
 70
     1
102
RTVSPost2010Prop31
280
     0
102
RTVSPost2010PropOp31
 70
     1
102
RTVSPost2010Prop32
280
     0
102
RTVSPost2010PropOp32
 70
     1
102
RTVSPost2010Prop33
280
     0
102
RTVSPost2010PropOp33
 70
     1
102
RTVSPost2010Prop34
280
     0
102
RTVSPost2010PropOp34
 70
     1
102
RTVSPost2010Prop35
280
     0
102
RTVSPost2010PropOp35
 70
     1
102
RTVSPost2010Prop36
280
     0
102
RTVSPost2010PropOp36
 70
     1
102
RTVSPost2010Prop37
 90
       50
102
RTVSPost2010PropOp37
 70
     1
102
RTVSPost2010Prop38
140
0.0
102
RTVSPost2010PropOp38
 70
     1
102
RTVSPost2010Prop39
140
1.0
102
RTVSPost2010PropOp39
 70
     1
102
RTVSPost2010Prop40
 90
        0
102
RTVSPost2010PropOp40
 70
     1
102
RTVSPost2010Prop41ColorIndex
 90
       18
102
RTVSPost2010Prop41ColorRGB
 90
        0
102
RTVSPost2010PropOp41
 70
     1
102
RTVSPost2010Prop42
 90
       50
102
RTVSPost2010PropOp42
 70
     1
102
RTVSPost2010Prop43
 90
        3
102
RTVSPost2010PropOp43
 70
     1
102
RTVSPost2010Prop44ColorIndex
 90
        5
102
RTVSPost2010Prop44ColorRGB
 90
      255
102
RTVSPost2010PropOp44
 70
     1
102
RTVSPost2010Prop45
280
     0
102
RTVSPost2010PropOp45
 70
     1
102
RTVSPost2010Prop46
 90
       50
102
RTVSPost2010PropOp46
 70
     1
102
RTVSPost2010Prop47
 90
       50
102
RTVSPost2010PropOp47
 70
     1
102
RTVSPost2010Prop48
 90
       50
102
RTVSPost2010PropOp48
 70
     1
102
RTVSPost2010Prop49
280
     0
102
RTVSPost2010PropOp49
 70
     1
102
RTVSPost2010Prop50
 90
       50
102
RTVSPost2010PropOp50
 70
     1
102
RTVSPost2010Prop51ColorIndex
 90
      256
102
RTVSPost2010Prop51ColorRGB
 90
-16777216
102
RTVSPost2010PropOp51
 70
     0
102
RTVSPost2010Prop52
140
1.0
102
RTVSPost2010PropOp52
 70
     0
102
RTVSPost2010Prop53
 90
        2
102
RTVSPost2010PropOp53
 70
     1
102
RTVSPost2010Prop54
  1
strokes_ogs.tif
102
RTVSPost2010PropOp54
 70
     1
102
RTVSPost2010Prop55
280
     0
102
RTVSPost2010PropOp55
 70
     1
102
RTVSPost2010Prop56
140
1.0
102
RTVSPost2010PropOp56
 70
     1
102
RTVSPost2010Prop57
140
1.0
102
RTVSPost2010PropOp57
 70
     1
102
RTVSPropertyOp0
 70
     1
102
RTVSPropertyOp1
 70
     1
102
RTVSPropertyOp2
 70
     1
102
RTVSPropertyOp3
 70
     1
102
RTVSPropertyOp4
 70
     1
102
RTVSPropertyOp5
 70
     1
102
RTVSPropertyOp6
 70
     1
102
RTVSPropertyOp7
 70
     1
102
RTVSPropertyOp8
 70
     1
102
RTVSPropertyOp9
 70
     1
102
RTVSPropertyOp10
 70
     1
102
RTVSPropertyOp11
 70
     1
102
RTVSPropertyOp12
 70
     1
102
RTVSPropertyOp13
 70
     1
102
RTVSPropertyOp14
 70
     1
102
RTVSPropertyOp15
 70
     1
102
RTVSPropertyOp16
 70
     1
102
RTVSPropertyOp17
 70
     1
102
RTVSPropertyOp18
 70
     1
102
RTVSPropertyOp19
 70
     1
102
RTVSPropertyOp20
 70
     1
102
RTVSPropertyOp21
 70
     1
102
RTVSPropertyOp22
 70
     1
102
RTVSPropertyOp23
 70
     1
102
RTVSPropertyOp24
 70
     1
102
RTVSPropertyOp25
 70
     1
102
RTVSPropertyOp26
 70
     1
102
RTVSPropertyOp27
 70
     1
102
RTVSPropertyOp28
 70
     1
102
RTVSPropertyOp29
 70
     1
102
RTVSPropertyOp30
 70
     1
102
RTVSPropertyOp31
 70
     1
102
RTVSPropertyOp32
 70
     1
102
RTVSPropertyOp33
 70
     1
102
RTVSPropertyOp34
 70
     1
102
RTVSPropertyOp35
 70
     1
102
RTVSPropertyOp36
 70
     1
102
RTVSPropertyOp37
 70
     1
102
RTVSPropertyOp38
 70
     1
102
RTVSPropertyOp39
 70
     1
102
RTVSPropertyOp40
 70
     1
102
RTVSPropertyOp41
 70
     1
102
RTVSPropertyOp42
 70
     1
102
RTVSPropertyOp43
 70
     1
102
RTVSPropertyOp44
 70
     1
102
RTVSPropertyOp45
 70
     1
102
RTVSPropertyOp46
 70
     1
102
RTVSPropertyOp47
 70
     1
102
RTVSPropertyOp48
 70
     1
102
RTVSPropertyOp49
 70
     1
102
RTVSPropertyOp50
 70
     1
102
RTVSPropertyOp51
 70
     0
102
RTVSPropertyOp52
 70
     0
102
RTVSPropertyOp53
 70
     1
102
RTVSPropertyOp54
 70
     1
102
RTVSPropertyOp55
 70
     1
102
RTVSPropertyOp56
 70
     1
102
RTVSPropertyOp57
 70
     1
102
RTVSPropertyOp58
 70
     1
102
RTVSPropertyOp59
 70
     1
102
RTVSPropertyOp60
 70
     1
102
RTVSPropertyOp61
 70
     1
102
RTVSPropertyOp62
 70
     1
  0
XRECORD
  5
184B
102
{ACAD_REACTORS
330
184A
102
}
330
184A
100
AcDbXrecord
280
     1
102
RTVSPost2010Prop28
280
     0
102
RTVSPost2010PropOp28
 70
     1
102
RTVSPost2010Prop29
280
     1
102
RTVSPost2010PropOp29
 70
     1
102
RTVSPost2010Prop30
280
     1
102
RTVSPost2010PropOp30
 70
     1
102
RTVSPost2010Prop31
280
     0
102
RTVSPost2010PropOp31
 70
     1
102
RTVSPost2010Prop32
280
     0
102
RTVSPost2010PropOp32
 70
     1
102
RTVSPost2010Prop33
280
     0
102
RTVSPost2010PropOp33
 70
     1
102
RTVSPost2010Prop34
280
     0
102
RTVSPost2010PropOp34
 70
     1
102
RTVSPost2010Prop35
280
     0
102
RTVSPost2010PropOp35
 70
     1
102
RTVSPost2010Prop36
280
     0
102
RTVSPost2010PropOp36
 70
     1
102
RTVSPost2010Prop37
 90
       50
102
RTVSPost2010PropOp37
 70
     1
102
RTVSPost2010Prop38
140
0.0
102
RTVSPost2010PropOp38
 70
     1
102
RTVSPost2010Prop39
140
1.0
102
RTVSPost2010PropOp39
 70
     1
102
RTVSPost2010Prop40
 90
        0
102
RTVSPost2010PropOp40
 70
     1
102
RTVSPost2010Prop41ColorIndex
 90
       18
102
RTVSPost2010Prop41ColorRGB
 90
        0
102
RTVSPost2010PropOp41
 70
     1
102
RTVSPost2010Prop42
 90
       50
102
RTVSPost2010PropOp42
 70
     1
102
RTVSPost2010Prop43
 90
        3
102
RTVSPost2010PropOp43
 70
     1
102
RTVSPost2010Prop44ColorIndex
 90
        5
102
RTVSPost2010Prop44ColorRGB
 90
      255
102
RTVSPost2010PropOp44
 70
     1
102
RTVSPost2010Prop45
280
     0
102
RTVSPost2010PropOp45
 70
     1
102
RTVSPost2010Prop46
 90
       50
102
RTVSPost2010PropOp46
 70
     1
102
RTVSPost2010Prop47
 90
       50
102
RTVSPost2010PropOp47
 70
     1
102
RTVSPost2010Prop48
 90
       50
102
RTVSPost2010PropOp48
 70
     1
102
RTVSPost2010Prop49
280
     0
102
RTVSPost2010PropOp49
 70
     1
102
RTVSPost2010Prop50
 90
       50
102
RTVSPost2010PropOp50
 70
     1
102
RTVSPost2010Prop51ColorIndex
 90
      256
102
RTVSPost2010Prop51ColorRGB
 90
-16777216
102
RTVSPost2010PropOp51
 70
     0
102
RTVSPost2010Prop52
140
1.0
102
RTVSPost2010PropOp52
 70
     0
102
RTVSPost2010Prop53
 90
        2
102
RTVSPost2010PropOp53
 70
     1
102
RTVSPost2010Prop54
  1
strokes_ogs.tif
102
RTVSPost2010PropOp54
 70
     1
102
RTVSPost2010Prop55
280
     0
102
RTVSPost2010PropOp55
 70
     1
102
RTVSPost2010Prop56
140
1.0
102
RTVSPost2010PropOp56
 70
     1
102
RTVSPost2010Prop57
140
1.0
102
RTVSPost2010PropOp57
 70
     1
102
RTVSPropertyOp0
 70
     1
102
RTVSPropertyOp1
 70
     1
102
RTVSPropertyOp2
 70
     1
102
RTVSPropertyOp3
 70
     1
102
RTVSPropertyOp4
 70
     1
102
RTVSPropertyOp5
 70
     1
102
RTVSPropertyOp6
 70
     1
102
RTVSPropertyOp7
 70
     1
102
RTVSPropertyOp8
 70
     1
102
RTVSPropertyOp9
 70
     1
102
RTVSPropertyOp10
 70
     1
102
RTVSPropertyOp11
 70
     1
102
RTVSPropertyOp12
 70
     1
102
RTVSPropertyOp13
 70
     1
102
RTVSPropertyOp14
 70
     1
102
RTVSPropertyOp15
 70
     1
102
RTVSPropertyOp16
 70
     1
102
RTVSPropertyOp17
 70
     1
102
RTVSPropertyOp18
 70
     1
102
RTVSPropertyOp19
 70
     1
102
RTVSPropertyOp20
 70
     1
102
RTVSPropertyOp21
 70
     1
102
RTVSPropertyOp22
 70
     1
102
RTVSPropertyOp23
 70
     1
102
RTVSPropertyOp24
 70
     1
102
RTVSPropertyOp25
 70
     1
102
RTVSPropertyOp26
 70
     1
102
RTVSPropertyOp27
 70
     1
102
RTVSPropertyOp28
 70
     1
102
RTVSPropertyOp29
 70
     1
102
RTVSPropertyOp30
 70
     1
102
RTVSPropertyOp31
 70
     1
102
RTVSPropertyOp32
 70
     1
102
RTVSPropertyOp33
 70
     1
102
RTVSPropertyOp34
 70
     1
102
RTVSPropertyOp35
 70
     1
102
RTVSPropertyOp36
 70
     1
102
RTVSPropertyOp37
 70
     1
102
RTVSPropertyOp38
 70
     1
102
RTVSPropertyOp39
 70
     1
102
RTVSPropertyOp40
 70
     1
102
RTVSPropertyOp41
 70
     1
102
RTVSPropertyOp42
 70
     1
102
RTVSPropertyOp43
 70
     1
102
RTVSPropertyOp44
 70
     1
102
RTVSPropertyOp45
 70
     1
102
RTVSPropertyOp46
 70
     1
102
RTVSPropertyOp47
 70
     1
102
RTVSPropertyOp48
 70
     1
102
RTVSPropertyOp49
 70
     1
102
RTVSPropertyOp50
 70
     1
102
RTVSPropertyOp51
 70
     0
102
RTVSPropertyOp52
 70
     0
102
RTVSPropertyOp53
 70
     1
102
RTVSPropertyOp54
 70
     1
102
RTVSPropertyOp55
 70
     1
102
RTVSPropertyOp56
 70
     1
102
RTVSPropertyOp57
 70
     1
102
RTVSPropertyOp58
 70
     1
102
RTVSPropertyOp59
 70
     1
102
RTVSPropertyOp60
 70
     1
102
RTVSPropertyOp61
 70
     1
102
RTVSPropertyOp62
 70
     1
  0
XRECORD
  5
1845
102
{ACAD_REACTORS
330
1844
102
}
330
1844
100
AcDbXrecord
280
     1
102
RTVSPost2010Prop28
280
     0
102
RTVSPost2010PropOp28
 70
     1
102
RTVSPost2010Prop29
280
     1
102
RTVSPost2010PropOp29
 70
     1
102
RTVSPost2010Prop30
280
     1
102
RTVSPost2010PropOp30
 70
     1
102
RTVSPost2010Prop31
280
     0
102
RTVSPost2010PropOp31
 70
     1
102
RTVSPost2010Prop32
280
     0
102
RTVSPost2010PropOp32
 70
     1
102
RTVSPost2010Prop33
280
     0
102
RTVSPost2010PropOp33
 70
     1
102
RTVSPost2010Prop34
280
     0
102
RTVSPost2010PropOp34
 70
     1
102
RTVSPost2010Prop35
280
     0
102
RTVSPost2010PropOp35
 70
     1
102
RTVSPost2010Prop36
280
     0
102
RTVSPost2010PropOp36
 70
     1
102
RTVSPost2010Prop37
 90
       50
102
RTVSPost2010PropOp37
 70
     1
102
RTVSPost2010Prop38
140
0.0
102
RTVSPost2010PropOp38
 70
     1
102
RTVSPost2010Prop39
140
1.0
102
RTVSPost2010PropOp39
 70
     1
102
RTVSPost2010Prop40
 90
        0
102
RTVSPost2010PropOp40
 70
     1
102
RTVSPost2010Prop41ColorIndex
 90
       18
102
RTVSPost2010Prop41ColorRGB
 90
        0
102
RTVSPost2010PropOp41
 70
     1
102
RTVSPost2010Prop42
 90
       50
102
RTVSPost2010PropOp42
 70
     1
102
RTVSPost2010Prop43
 90
        3
102
RTVSPost2010PropOp43
 70
     1
102
RTVSPost2010Prop44ColorIndex
 90
        5
102
RTVSPost2010Prop44ColorRGB
 90
      255
102
RTVSPost2010PropOp44
 70
     1
102
RTVSPost2010Prop45
280
     0
102
RTVSPost2010PropOp45
 70
     1
102
RTVSPost2010Prop46
 90
       50
102
RTVSPost2010PropOp46
 70
     1
102
RTVSPost2010Prop47
 90
       50
102
RTVSPost2010PropOp47
 70
     1
102
RTVSPost2010Prop48
 90
       50
102
RTVSPost2010PropOp48
 70
     1
102
RTVSPost2010Prop49
280
     0
102
RTVSPost2010PropOp49
 70
     1
102
RTVSPost2010Prop50
 90
       50
102
RTVSPost2010PropOp50
 70
     1
102
RTVSPost2010Prop51ColorIndex
 90
      256
102
RTVSPost2010Prop51ColorRGB
 90
-16777216
102
RTVSPost2010PropOp51
 70
     0
102
RTVSPost2010Prop52
140
1.0
102
RTVSPost2010PropOp52
 70
     0
102
RTVSPost2010Prop53
 90
        2
102
RTVSPost2010PropOp53
 70
     1
102
RTVSPost2010Prop54
  1
strokes_ogs.tif
102
RTVSPost2010PropOp54
 70
     1
102
RTVSPost2010Prop55
280
     0
102
RTVSPost2010PropOp55
 70
     1
102
RTVSPost2010Prop56
140
1.0
102
RTVSPost2010PropOp56
 70
     1
102
RTVSPost2010Prop57
140
1.0
102
RTVSPost2010PropOp57
 70
     1
102
RTVSPropertyOp0
 70
     1
102
RTVSPropertyOp1
 70
     1
102
RTVSPropertyOp2
 70
     1
102
RTVSPropertyOp3
 70
     1
102
RTVSPropertyOp4
 70
     1
102
RTVSPropertyOp5
 70
     1
102
RTVSPropertyOp6
 70
     1
102
RTVSPropertyOp7
 70
     1
102
RTVSPropertyOp8
 70
     1
102
RTVSPropertyOp9
 70
     1
102
RTVSPropertyOp10
 70
     1
102
RTVSPropertyOp11
 70
     1
102
RTVSPropertyOp12
 70
     1
102
RTVSPropertyOp13
 70
     1
102
RTVSPropertyOp14
 70
     1
102
RTVSPropertyOp15
 70
     1
102
RTVSPropertyOp16
 70
     1
102
RTVSPropertyOp17
 70
     1
102
RTVSPropertyOp18
 70
     1
102
RTVSPropertyOp19
 70
     1
102
RTVSPropertyOp20
 70
     1
102
RTVSPropertyOp21
 70
     1
102
RTVSPropertyOp22
 70
     1
102
RTVSPropertyOp23
 70
     1
102
RTVSPropertyOp24
 70
     1
102
RTVSPropertyOp25
 70
     1
102
RTVSPropertyOp26
 70
     1
102
RTVSPropertyOp27
 70
     1
102
RTVSPropertyOp28
 70
     1
102
RTVSPropertyOp29
 70
     1
102
RTVSPropertyOp30
 70
     1
102
RTVSPropertyOp31
 70
     1
102
RTVSPropertyOp32
 70
     1
102
RTVSPropertyOp33
 70
     1
102
RTVSPropertyOp34
 70
     1
102
RTVSPropertyOp35
 70
     1
102
RTVSPropertyOp36
 70
     1
102
RTVSPropertyOp37
 70
     1
102
RTVSPropertyOp38
 70
     1
102
RTVSPropertyOp39
 70
     1
102
RTVSPropertyOp40
 70
     1
102
RTVSPropertyOp41
 70
     1
102
RTVSPropertyOp42
 70
     1
102
RTVSPropertyOp43
 70
     1
102
RTVSPropertyOp44
 70
     1
102
RTVSPropertyOp45
 70
     1
102
RTVSPropertyOp46
 70
     1
102
RTVSPropertyOp47
 70
     1
102
RTVSPropertyOp48
 70
     1
102
RTVSPropertyOp49
 70
     1
102
RTVSPropertyOp50
 70
     1
102
RTVSPropertyOp51
 70
     0
102
RTVSPropertyOp52
 70
     0
102
RTVSPropertyOp53
 70
     1
102
RTVSPropertyOp54
 70
     1
102
RTVSPropertyOp55
 70
     1
102
RTVSPropertyOp56
 70
     1
102
RTVSPropertyOp57
 70
     1
102
RTVSPropertyOp58
 70
     1
102
RTVSPropertyOp59
 70
     1
102
RTVSPropertyOp60
 70
     1
102
RTVSPropertyOp61
 70
     1
102
RTVSPropertyOp62
 70
     1
  0
XRECORD
  5
1847
102
{ACAD_REACTORS
330
1846
102
}
330
1846
100
AcDbXrecord
280
     1
102
RTVSPost2010Prop28
280
     0
102
RTVSPost2010PropOp28
 70
     1
102
RTVSPost2010Prop29
280
     1
102
RTVSPost2010PropOp29
 70
     1
102
RTVSPost2010Prop30
280
     1
102
RTVSPost2010PropOp30
 70
     1
102
RTVSPost2010Prop31
280
     0
102
RTVSPost2010PropOp31
 70
     1
102
RTVSPost2010Prop32
280
     0
102
RTVSPost2010PropOp32
 70
     1
102
RTVSPost2010Prop33
280
     0
102
RTVSPost2010PropOp33
 70
     1
102
RTVSPost2010Prop34
280
     0
102
RTVSPost2010PropOp34
 70
     1
102
RTVSPost2010Prop35
280
     0
102
RTVSPost2010PropOp35
 70
     1
102
RTVSPost2010Prop36
280
     0
102
RTVSPost2010PropOp36
 70
     1
102
RTVSPost2010Prop37
 90
       50
102
RTVSPost2010PropOp37
 70
     1
102
RTVSPost2010Prop38
140
0.0
102
RTVSPost2010PropOp38
 70
     1
102
RTVSPost2010Prop39
140
1.0
102
RTVSPost2010PropOp39
 70
     1
102
RTVSPost2010Prop40
 90
        0
102
RTVSPost2010PropOp40
 70
     1
102
RTVSPost2010Prop41ColorIndex
 90
       18
102
RTVSPost2010Prop41ColorRGB
 90
        0
102
RTVSPost2010PropOp41
 70
     1
102
RTVSPost2010Prop42
 90
       50
102
RTVSPost2010PropOp42
 70
     1
102
RTVSPost2010Prop43
 90
        3
102
RTVSPost2010PropOp43
 70
     1
102
RTVSPost2010Prop44ColorIndex
 90
        5
102
RTVSPost2010Prop44ColorRGB
 90
      255
102
RTVSPost2010PropOp44
 70
     1
102
RTVSPost2010Prop45
280
     0
102
RTVSPost2010PropOp45
 70
     1
102
RTVSPost2010Prop46
 90
       50
102
RTVSPost2010PropOp46
 70
     1
102
RTVSPost2010Prop47
 90
       50
102
RTVSPost2010PropOp47
 70
     1
102
RTVSPost2010Prop48
 90
       50
102
RTVSPost2010PropOp48
 70
     1
102
RTVSPost2010Prop49
280
     0
102
RTVSPost2010PropOp49
 70
     1
102
RTVSPost2010Prop50
 90
       50
102
RTVSPost2010PropOp50
 70
     1
102
RTVSPost2010Prop51ColorIndex
 90
      256
102
RTVSPost2010Prop51ColorRGB
 90
-16777216
102
RTVSPost2010PropOp51
 70
     0
102
RTVSPost2010Prop52
140
1.0
102
RTVSPost2010PropOp52
 70
     0
102
RTVSPost2010Prop53
 90
        2
102
RTVSPost2010PropOp53
 70
     1
102
RTVSPost2010Prop54
  1
strokes_ogs.tif
102
RTVSPost2010PropOp54
 70
     1
102
RTVSPost2010Prop55
280
     0
102
RTVSPost2010PropOp55
 70
     1
102
RTVSPost2010Prop56
140
1.0
102
RTVSPost2010PropOp56
 70
     1
102
RTVSPost2010Prop57
140
1.0
102
RTVSPost2010PropOp57
 70
     1
102
RTVSPropertyOp0
 70
     1
102
RTVSPropertyOp1
 70
     1
102
RTVSPropertyOp2
 70
     1
102
RTVSPropertyOp3
 70
     1
102
RTVSPropertyOp4
 70
     1
102
RTVSPropertyOp5
 70
     1
102
RTVSPropertyOp6
 70
     1
102
RTVSPropertyOp7
 70
     1
102
RTVSPropertyOp8
 70
     1
102
RTVSPropertyOp9
 70
     1
102
RTVSPropertyOp10
 70
     1
102
RTVSPropertyOp11
 70
     1
102
RTVSPropertyOp12
 70
     1
102
RTVSPropertyOp13
 70
     1
102
RTVSPropertyOp14
 70
     1
102
RTVSPropertyOp15
 70
     1
102
RTVSPropertyOp16
 70
     1
102
RTVSPropertyOp17
 70
     1
102
RTVSPropertyOp18
 70
     1
102
RTVSPropertyOp19
 70
     1
102
RTVSPropertyOp20
 70
     1
102
RTVSPropertyOp21
 70
     1
102
RTVSPropertyOp22
 70
     1
102
RTVSPropertyOp23
 70
     1
102
RTVSPropertyOp24
 70
     1
102
RTVSPropertyOp25
 70
     1
102
RTVSPropertyOp26
 70
     1
102
RTVSPropertyOp27
 70
     1
102
RTVSPropertyOp28
 70
     1
102
RTVSPropertyOp29
 70
     1
102
RTVSPropertyOp30
 70
     1
102
RTVSPropertyOp31
 70
     1
102
RTVSPropertyOp32
 70
     1
102
RTVSPropertyOp33
 70
     1
102
RTVSPropertyOp34
 70
     1
102
RTVSPropertyOp35
 70
     1
102
RTVSPropertyOp36
 70
     1
102
RTVSPropertyOp37
 70
     1
102
RTVSPropertyOp38
 70
     1
102
RTVSPropertyOp39
 70
     1
102
RTVSPropertyOp40
 70
     1
102
RTVSPropertyOp41
 70
     1
102
RTVSPropertyOp42
 70
     1
102
RTVSPropertyOp43
 70
     1
102
RTVSPropertyOp44
 70
     1
102
RTVSPropertyOp45
 70
     1
102
RTVSPropertyOp46
 70
     1
102
RTVSPropertyOp47
 70
     1
102
RTVSPropertyOp48
 70
     1
102
RTVSPropertyOp49
 70
     1
102
RTVSPropertyOp50
 70
     1
102
RTVSPropertyOp51
 70
     0
102
RTVSPropertyOp52
 70
     0
102
RTVSPropertyOp53
 70
     1
102
RTVSPropertyOp54
 70
     1
102
RTVSPropertyOp55
 70
     1
102
RTVSPropertyOp56
 70
     1
102
RTVSPropertyOp57
 70
     1
102
RTVSPropertyOp58
 70
     1
102
RTVSPropertyOp59
 70
     1
102
RTVSPropertyOp60
 70
     1
102
RTVSPropertyOp61
 70
     1
102
RTVSPropertyOp62
 70
     1
  0
XRECORD
  5
183D
102
{ACAD_REACTORS
330
183C
102
}
330
183C
100
AcDbXrecord
280
     1
102
RTVSPost2010Prop28
280
     0
102
RTVSPost2010PropOp28
 70
     1
102
RTVSPost2010Prop29
280
     1
102
RTVSPost2010PropOp29
 70
     1
102
RTVSPost2010Prop30
280
     1
102
RTVSPost2010PropOp30
 70
     1
102
RTVSPost2010Prop31
280
     0
102
RTVSPost2010PropOp31
 70
     1
102
RTVSPost2010Prop32
280
     0
102
RTVSPost2010PropOp32
 70
     1
102
RTVSPost2010Prop33
280
     0
102
RTVSPost2010PropOp33
 70
     1
102
RTVSPost2010Prop34
280
     0
102
RTVSPost2010PropOp34
 70
     1
102
RTVSPost2010Prop35
280
     0
102
RTVSPost2010PropOp35
 70
     1
102
RTVSPost2010Prop36
280
     0
102
RTVSPost2010PropOp36
 70
     1
102
RTVSPost2010Prop37
 90
       50
102
RTVSPost2010PropOp37
 70
     1
102
RTVSPost2010Prop38
140
0.0
102
RTVSPost2010PropOp38
 70
     1
102
RTVSPost2010Prop39
140
1.0
102
RTVSPost2010PropOp39
 70
     1
102
RTVSPost2010Prop40
 90
        0
102
RTVSPost2010PropOp40
 70
     1
102
RTVSPost2010Prop41ColorIndex
 90
       18
102
RTVSPost2010Prop41ColorRGB
 90
        0
102
RTVSPost2010PropOp41
 70
     1
102
RTVSPost2010Prop42
 90
       50
102
RTVSPost2010PropOp42
 70
     1
102
RTVSPost2010Prop43
 90
        3
102
RTVSPost2010PropOp43
 70
     1
102
RTVSPost2010Prop44ColorIndex
 90
        5
102
RTVSPost2010Prop44ColorRGB
 90
      255
102
RTVSPost2010PropOp44
 70
     1
102
RTVSPost2010Prop45
280
     0
102
RTVSPost2010PropOp45
 70
     1
102
RTVSPost2010Prop46
 90
       50
102
RTVSPost2010PropOp46
 70
     1
102
RTVSPost2010Prop47
 90
       50
102
RTVSPost2010PropOp47
 70
     1
102
RTVSPost2010Prop48
 90
       50
102
RTVSPost2010PropOp48
 70
     1
102
RTVSPost2010Prop49
280
     0
102
RTVSPost2010PropOp49
 70
     1
102
RTVSPost2010Prop50
 90
       50
102
RTVSPost2010PropOp50
 70
     1
102
RTVSPost2010Prop51ColorIndex
 90
      256
102
RTVSPost2010Prop51ColorRGB
 90
-16777216
102
RTVSPost2010PropOp51
 70
     0
102
RTVSPost2010Prop52
140
1.0
102
RTVSPost2010PropOp52
 70
     0
102
RTVSPost2010Prop53
 90
        2
102
RTVSPost2010PropOp53
 70
     1
102
RTVSPost2010Prop54
  1
strokes_ogs.tif
102
RTVSPost2010PropOp54
 70
     1
102
RTVSPost2010Prop55
280
     0
102
RTVSPost2010PropOp55
 70
     1
102
RTVSPost2010Prop56
140
1.0
102
RTVSPost2010PropOp56
 70
     1
102
RTVSPost2010Prop57
140
1.0
102
RTVSPost2010PropOp57
 70
     1
102
RTVSPropertyOp0
 70
     1
102
RTVSPropertyOp1
 70
     1
102
RTVSPropertyOp2
 70
     1
102
RTVSPropertyOp3
 70
     1
102
RTVSPropertyOp4
 70
     1
102
RTVSPropertyOp5
 70
     1
102
RTVSPropertyOp6
 70
     1
102
RTVSPropertyOp7
 70
     1
102
RTVSPropertyOp8
 70
     1
102
RTVSPropertyOp9
 70
     1
102
RTVSPropertyOp10
 70
     1
102
RTVSPropertyOp11
 70
     1
102
RTVSPropertyOp12
 70
     1
102
RTVSPropertyOp13
 70
     1
102
RTVSPropertyOp14
 70
     1
102
RTVSPropertyOp15
 70
     1
102
RTVSPropertyOp16
 70
     1
102
RTVSPropertyOp17
 70
     1
102
RTVSPropertyOp18
 70
     1
102
RTVSPropertyOp19
 70
     1
102
RTVSPropertyOp20
 70
     1
102
RTVSPropertyOp21
 70
     1
102
RTVSPropertyOp22
 70
     1
102
RTVSPropertyOp23
 70
     1
102
RTVSPropertyOp24
 70
     1
102
RTVSPropertyOp25
 70
     1
102
RTVSPropertyOp26
 70
     1
102
RTVSPropertyOp27
 70
     1
102
RTVSPropertyOp28
 70
     1
102
RTVSPropertyOp29
 70
     1
102
RTVSPropertyOp30
 70
     1
102
RTVSPropertyOp31
 70
     1
102
RTVSPropertyOp32
 70
     1
102
RTVSPropertyOp33
 70
     1
102
RTVSPropertyOp34
 70
     1
102
RTVSPropertyOp35
 70
     1
102
RTVSPropertyOp36
 70
     1
102
RTVSPropertyOp37
 70
     1
102
RTVSPropertyOp38
 70
     1
102
RTVSPropertyOp39
 70
     1
102
RTVSPropertyOp40
 70
     1
102
RTVSPropertyOp41
 70
     1
102
RTVSPropertyOp42
 70
     1
102
RTVSPropertyOp43
 70
     1
102
RTVSPropertyOp44
 70
     1
102
RTVSPropertyOp45
 70
     1
102
RTVSPropertyOp46
 70
     1
102
RTVSPropertyOp47
 70
     1
102
RTVSPropertyOp48
 70
     1
102
RTVSPropertyOp49
 70
     1
102
RTVSPropertyOp50
 70
     1
102
RTVSPropertyOp51
 70
     0
102
RTVSPropertyOp52
 70
     0
102
RTVSPropertyOp53
 70
     1
102
RTVSPropertyOp54
 70
     1
102
RTVSPropertyOp55
 70
     1
102
RTVSPropertyOp56
 70
     1
102
RTVSPropertyOp57
 70
     1
102
RTVSPropertyOp58
 70
     1
102
RTVSPropertyOp59
 70
     1
102
RTVSPropertyOp60
 70
     1
102
RTVSPropertyOp61
 70
     1
102
RTVSPropertyOp62
 70
     1
  0
XRECORD
  5
1831
102
{ACAD_REACTORS
330
1830
102
}
330
1830
100
AcDbXrecord
280
     1
102
RTVSPost2010Prop28
280
     0
102
RTVSPost2010PropOp28
 70
     1
102
RTVSPost2010Prop29
280
     1
102
RTVSPost2010PropOp29
 70
     1
102
RTVSPost2010Prop30
280
     1
102
RTVSPost2010PropOp30
 70
     1
102
RTVSPost2010Prop31
280
     0
102
RTVSPost2010PropOp31
 70
     1
102
RTVSPost2010Prop32
280
     0
102
RTVSPost2010PropOp32
 70
     1
102
RTVSPost2010Prop33
280
     0
102
RTVSPost2010PropOp33
 70
     1
102
RTVSPost2010Prop34
280
     0
102
RTVSPost2010PropOp34
 70
     1
102
RTVSPost2010Prop35
280
     0
102
RTVSPost2010PropOp35
 70
     1
102
RTVSPost2010Prop36
280
     0
102
RTVSPost2010PropOp36
 70
     1
102
RTVSPost2010Prop37
 90
       50
102
RTVSPost2010PropOp37
 70
     1
102
RTVSPost2010Prop38
140
0.0
102
RTVSPost2010PropOp38
 70
     1
102
RTVSPost2010Prop39
140
1.0
102
RTVSPost2010PropOp39
 70
     1
102
RTVSPost2010Prop40
 90
        0
102
RTVSPost2010PropOp40
 70
     1
102
RTVSPost2010Prop41ColorIndex
 90
       18
102
RTVSPost2010Prop41ColorRGB
 90
        0
102
RTVSPost2010PropOp41
 70
     1
102
RTVSPost2010Prop42
 90
       50
102
RTVSPost2010PropOp42
 70
     1
102
RTVSPost2010Prop43
 90
        3
102
RTVSPost2010PropOp43
 70
     1
102
RTVSPost2010Prop44ColorIndex
 90
        5
102
RTVSPost2010Prop44ColorRGB
 90
      255
102
RTVSPost2010PropOp44
 70
     1
102
RTVSPost2010Prop45
280
     0
102
RTVSPost2010PropOp45
 70
     1
102
RTVSPost2010Prop46
 90
       50
102
RTVSPost2010PropOp46
 70
     1
102
RTVSPost2010Prop47
 90
       50
102
RTVSPost2010PropOp47
 70
     1
102
RTVSPost2010Prop48
 90
       50
102
RTVSPost2010PropOp48
 70
     1
102
RTVSPost2010Prop49
280
     0
102
RTVSPost2010PropOp49
 70
     1
102
RTVSPost2010Prop50
 90
       50
102
RTVSPost2010PropOp50
 70
     1
102
RTVSPost2010Prop51ColorIndex
 90
      256
102
RTVSPost2010Prop51ColorRGB
 90
-16777216
102
RTVSPost2010PropOp51
 70
     0
102
RTVSPost2010Prop52
140
1.0
102
RTVSPost2010PropOp52
 70
     0
102
RTVSPost2010Prop53
 90
        2
102
RTVSPost2010PropOp53
 70
     1
102
RTVSPost2010Prop54
  1
strokes_ogs.tif
102
RTVSPost2010PropOp54
 70
     1
102
RTVSPost2010Prop55
280
     0
102
RTVSPost2010PropOp55
 70
     1
102
RTVSPost2010Prop56
140
1.0
102
RTVSPost2010PropOp56
 70
     1
102
RTVSPost2010Prop57
140
1.0
102
RTVSPost2010PropOp57
 70
     1
102
RTVSPropertyOp0
 70
     1
102
RTVSPropertyOp1
 70
     1
102
RTVSPropertyOp2
 70
     1
102
RTVSPropertyOp3
 70
     1
102
RTVSPropertyOp4
 70
     1
102
RTVSPropertyOp5
 70
     1
102
RTVSPropertyOp6
 70
     1
102
RTVSPropertyOp7
 70
     1
102
RTVSPropertyOp8
 70
     1
102
RTVSPropertyOp9
 70
     1
102
RTVSPropertyOp10
 70
     1
102
RTVSPropertyOp11
 70
     1
102
RTVSPropertyOp12
 70
     1
102
RTVSPropertyOp13
 70
     1
102
RTVSPropertyOp14
 70
     1
102
RTVSPropertyOp15
 70
     1
102
RTVSPropertyOp16
 70
     1
102
RTVSPropertyOp17
 70
     1
102
RTVSPropertyOp18
 70
     1
102
RTVSPropertyOp19
 70
     1
102
RTVSPropertyOp20
 70
     1
102
RTVSPropertyOp21
 70
     1
102
RTVSPropertyOp22
 70
     1
102
RTVSPropertyOp23
 70
     1
102
RTVSPropertyOp24
 70
     1
102
RTVSPropertyOp25
 70
     1
102
RTVSPropertyOp26
 70
     1
102
RTVSPropertyOp27
 70
     1
102
RTVSPropertyOp28
 70
     1
102
RTVSPropertyOp29
 70
     1
102
RTVSPropertyOp30
 70
     1
102
RTVSPropertyOp31
 70
     1
102
RTVSPropertyOp32
 70
     1
102
RTVSPropertyOp33
 70
     1
102
RTVSPropertyOp34
 70
     1
102
RTVSPropertyOp35
 70
     1
102
RTVSPropertyOp36
 70
     1
102
RTVSPropertyOp37
 70
     1
102
RTVSPropertyOp38
 70
     1
102
RTVSPropertyOp39
 70
     1
102
RTVSPropertyOp40
 70
     1
102
RTVSPropertyOp41
 70
     1
102
RTVSPropertyOp42
 70
     1
102
RTVSPropertyOp43
 70
     1
102
RTVSPropertyOp44
 70
     1
102
RTVSPropertyOp45
 70
     1
102
RTVSPropertyOp46
 70
     1
102
RTVSPropertyOp47
 70
     1
102
RTVSPropertyOp48
 70
     1
102
RTVSPropertyOp49
 70
     1
102
RTVSPropertyOp50
 70
     1
102
RTVSPropertyOp51
 70
     0
102
RTVSPropertyOp52
 70
     0
102
RTVSPropertyOp53
 70
     1
102
RTVSPropertyOp54
 70
     1
102
RTVSPropertyOp55
 70
     1
102
RTVSPropertyOp56
 70
     1
102
RTVSPropertyOp57
 70
     1
102
RTVSPropertyOp58
 70
     1
102
RTVSPropertyOp59
 70
     1
102
RTVSPropertyOp60
 70
     1
102
RTVSPropertyOp61
 70
     1
102
RTVSPropertyOp62
 70
     1
  0
XRECORD
  5
1849
102
{ACAD_REACTORS
330
1848
102
}
330
1848
100
AcDbXrecord
280
     1
102
RTVSPost2010Prop28
280
     0
102
RTVSPost2010PropOp28
 70
     1
102
RTVSPost2010Prop29
280
     1
102
RTVSPost2010PropOp29
 70
     1
102
RTVSPost2010Prop30
280
     1
102
RTVSPost2010PropOp30
 70
     1
102
RTVSPost2010Prop31
280
     0
102
RTVSPost2010PropOp31
 70
     1
102
RTVSPost2010Prop32
280
     0
102
RTVSPost2010PropOp32
 70
     1
102
RTVSPost2010Prop33
280
     0
102
RTVSPost2010PropOp33
 70
     1
102
RTVSPost2010Prop34
280
     0
102
RTVSPost2010PropOp34
 70
     1
102
RTVSPost2010Prop35
280
     0
102
RTVSPost2010PropOp35
 70
     1
102
RTVSPost2010Prop36
280
     0
102
RTVSPost2010PropOp36
 70
     1
102
RTVSPost2010Prop37
 90
       50
102
RTVSPost2010PropOp37
 70
     1
102
RTVSPost2010Prop38
140
0.0
102
RTVSPost2010PropOp38
 70
     1
102
RTVSPost2010Prop39
140
1.0
102
RTVSPost2010PropOp39
 70
     1
102
RTVSPost2010Prop40
 90
        0
102
RTVSPost2010PropOp40
 70
     1
102
RTVSPost2010Prop41ColorIndex
 90
       18
102
RTVSPost2010Prop41ColorRGB
 90
        0
102
RTVSPost2010PropOp41
 70
     1
102
RTVSPost2010Prop42
 90
       50
102
RTVSPost2010PropOp42
 70
     1
102
RTVSPost2010Prop43
 90
        3
102
RTVSPost2010PropOp43
 70
     1
102
RTVSPost2010Prop44ColorIndex
 90
        5
102
RTVSPost2010Prop44ColorRGB
 90
      255
102
RTVSPost2010PropOp44
 70
     1
102
RTVSPost2010Prop45
280
     0
102
RTVSPost2010PropOp45
 70
     1
102
RTVSPost2010Prop46
 90
       50
102
RTVSPost2010PropOp46
 70
     1
102
RTVSPost2010Prop47
 90
       50
102
RTVSPost2010PropOp47
 70
     1
102
RTVSPost2010Prop48
 90
       50
102
RTVSPost2010PropOp48
 70
     1
102
RTVSPost2010Prop49
280
     0
102
RTVSPost2010PropOp49
 70
     1
102
RTVSPost2010Prop50
 90
       50
102
RTVSPost2010PropOp50
 70
     1
102
RTVSPost2010Prop51ColorIndex
 90
      256
102
RTVSPost2010Prop51ColorRGB
 90
-16777216
102
RTVSPost2010PropOp51
 70
     0
102
RTVSPost2010Prop52
140
1.0
102
RTVSPost2010PropOp52
 70
     0
102
RTVSPost2010Prop53
 90
        2
102
RTVSPost2010PropOp53
 70
     1
102
RTVSPost2010Prop54
  1
strokes_ogs.tif
102
RTVSPost2010PropOp54
 70
     1
102
RTVSPost2010Prop55
280
     0
102
RTVSPost2010PropOp55
 70
     1
102
RTVSPost2010Prop56
140
1.0
102
RTVSPost2010PropOp56
 70
     1
102
RTVSPost2010Prop57
140
1.0
102
RTVSPost2010PropOp57
 70
     1
102
RTVSPropertyOp0
 70
     1
102
RTVSPropertyOp1
 70
     1
102
RTVSPropertyOp2
 70
     1
102
RTVSPropertyOp3
 70
     1
102
RTVSPropertyOp4
 70
     1
102
RTVSPropertyOp5
 70
     1
102
RTVSPropertyOp6
 70
     1
102
RTVSPropertyOp7
 70
     1
102
RTVSPropertyOp8
 70
     1
102
RTVSPropertyOp9
 70
     1
102
RTVSPropertyOp10
 70
     1
102
RTVSPropertyOp11
 70
     1
102
RTVSPropertyOp12
 70
     1
102
RTVSPropertyOp13
 70
     1
102
RTVSPropertyOp14
 70
     1
102
RTVSPropertyOp15
 70
     1
102
RTVSPropertyOp16
 70
     1
102
RTVSPropertyOp17
 70
     1
102
RTVSPropertyOp18
 70
     1
102
RTVSPropertyOp19
 70
     1
102
RTVSPropertyOp20
 70
     1
102
RTVSPropertyOp21
 70
     1
102
RTVSPropertyOp22
 70
     1
102
RTVSPropertyOp23
 70
     1
102
RTVSPropertyOp24
 70
     1
102
RTVSPropertyOp25
 70
     1
102
RTVSPropertyOp26
 70
     1
102
RTVSPropertyOp27
 70
     1
102
RTVSPropertyOp28
 70
     1
102
RTVSPropertyOp29
 70
     1
102
RTVSPropertyOp30
 70
     1
102
RTVSPropertyOp31
 70
     1
102
RTVSPropertyOp32
 70
     1
102
RTVSPropertyOp33
 70
     1
102
RTVSPropertyOp34
 70
     1
102
RTVSPropertyOp35
 70
     1
102
RTVSPropertyOp36
 70
     1
102
RTVSPropertyOp37
 70
     1
102
RTVSPropertyOp38
 70
     1
102
RTVSPropertyOp39
 70
     1
102
RTVSPropertyOp40
 70
     1
102
RTVSPropertyOp41
 70
     1
102
RTVSPropertyOp42
 70
     1
102
RTVSPropertyOp43
 70
     1
102
RTVSPropertyOp44
 70
     1
102
RTVSPropertyOp45
 70
     1
102
RTVSPropertyOp46
 70
     1
102
RTVSPropertyOp47
 70
     1
102
RTVSPropertyOp48
 70
     1
102
RTVSPropertyOp49
 70
     1
102
RTVSPropertyOp50
 70
     1
102
RTVSPropertyOp51
 70
     0
102
RTVSPropertyOp52
 70
     0
102
RTVSPropertyOp53
 70
     1
102
RTVSPropertyOp54
 70
     1
102
RTVSPropertyOp55
 70
     1
102
RTVSPropertyOp56
 70
     1
102
RTVSPropertyOp57
 70
     1
102
RTVSPropertyOp58
 70
     1
102
RTVSPropertyOp59
 70
     1
102
RTVSPropertyOp60
 70
     1
102
RTVSPropertyOp61
 70
     1
102
RTVSPropertyOp62
 70
     1
  0
ENDSEC
  0
EOF
