  0
SECTION
  2
HEADER
  9
$ACADVER
  1
AC1015
  9
$ACADMAINTVER
 70
    20
  9
$DWGCODEPAGE
  3
ANSI_932
  9
$INSBASE
 10
0.0
 20
0.0
 30
0.0
  9
$EXTMIN
 10
9.9999975266385
 20
10.0
 30
0.0
  9
$EXTMAX
 10
629.0994958302563
 20
457.2266348213828
 30
0.0
  9
$LIMMIN
 10
0.0000015376081137
 20
-0.0000001931532552
  9
$LIMMAX
 10
705.0000015376082
 20
486.0227270795738
  9
$ORTHOMODE
 70
     1
  9
$REGENMODE
 70
     1
  9
$FILLMODE
 70
     1
  9
$QTEXTMODE
 70
     0
  9
$MIRRTEXT
 70
     1
  9
$LTSCALE
 40
1.0
  9
$ATTMODE
 70
     1
  9
$TEXTSIZE
 40
2.5
  9
$TRACEWID
 40
1.0
  9
$TEXTSTYLE
  7
STANDARD
  9
$CLAYER
  8
0
  9
$CELTYPE
  6
BYLAYER
  9
$CECOLOR
 62
   256
  9
$CELTSCALE
 40
1.0
  9
$DISPSILH
 70
     0
  9
$DIMSCALE
 40
1.0
  9
$DIMASZ
 40
3.0
  9
$DIMEXO
 40
1.0
  9
$DIMDLI
 40
10.0
  9
$DIMRND
 40
0.0
  9
$DIMDLE
 40
0.0
  9
$DIMEXE
 40
1.0
  9
$DIMTP
 40
0.0
  9
$DIMTM
 40
0.0
  9
$DIMTXT
 40
3.2
  9
$DIMCEN
 40
0.0
  9
$DIMTSZ
 40
0.0
  9
$DIMTOL
 70
     0
  9
$DIMLIM
 70
     0
  9
$DIMTIH
 70
     0
  9
$DIMTOH
 70
     0
  9
$DIMSE1
 70
     0
  9
$DIMSE2
 70
     0
  9
$DIMTAD
 70
     3
  9
$DIMZIN
 70
     8
  9
$DIMBLK
  1

  9
$DIMASO
 70
     1
  9
$DIMSHO
 70
     1
  9
$DIMPOST
  1

  9
$DIMAPOST
  1

  9
$DIMALT
 70
     0
  9
$DIMALTD
 70
     2
  9
$DIMALTF
 40
25.4
  9
$DIMLFAC
 40
1.0
  9
$DIMTOFL
 70
     1
  9
$DIMTVP
 40
0.0
  9
$DIMTIX
 70
     0
  9
$DIMSOXD
 70
     0
  9
$DIMSAH
 70
     1
  9
$DIMBLK1
  1
OPEN
  9
$DIMBLK2
  1
OPEN
  9
$DIMSTYLE
  2
STANDARD
  9
$DIMCLRD
 70
     0
  9
$DIMCLRE
 70
     0
  9
$DIMCLRT
 70
     0
  9
$DIMTFAC
 40
1.0
  9
$DIMGAP
 40
1.0
  9
$DIMJUST
 70
     0
  9
$DIMSD1
 70
     0
  9
$DIMSD2
 70
     0
  9
$DIMTOLJ
 70
     1
  9
$DIMTZIN
 70
     0
  9
$DIMALTZ
 70
     0
  9
$DIMALTTZ
 70
     0
  9
$DIMUPT
 70
     0
  9
$DIMDEC
 70
     4
  9
$DIMTDEC
 70
     4
  9
$DIMALTU
 70
     2
  9
$DIMALTTD
 70
     2
  9
$DIMTXSTY
  7
STANDARD
  9
$DIMAUNIT
 70
     0
  9
$DIMADEC
 70
     0
  9
$DIMALTRND
 40
0.0
  9
$DIMAZIN
 70
     0
  9
$DIMDSEP
 70
    46
  9
$DIMATFIT
 70
     3
  9
$DIMFRAC
 70
     0
  9
$DIMLDRBLK
  1
OPEN
  9
$DIMLUNIT
 70
     2
  9
$DIMLWD
 70
    -2
  9
$DIMLWE
 70
    -2
  9
$DIMTMOVE
 70
     0
  9
$LUNITS
 70
     2
  9
$LUPREC
 70
     4
  9
$SKETCHINC
 40
1.0
  9
$FILLETRAD
 40
1.199999999999999
  9
$AUNITS
 70
     0
  9
$AUPREC
 70
     0
  9
$MENU
  1
.
  9
$ELEVATION
 40
0.0
  9
$PELEVATION
 40
0.0
  9
$THICKNESS
 40
0.0
  9
$LIMCHECK
 70
     0
  9
$CHAMFERA
 40
10.0
  9
$CHAMFERB
 40
10.0
  9
$CHAMFERC
 40
20.0
  9
$CHAMFERD
 40
0.0
  9
$SKPOLY
 70
     0
  9
$TDCREATE
 40
2454154.550453368
  9
$TDUCREATE
 40
2454154.175453368
  9
$TDUPDATE
 40
2457192.690773391
  9
$TDUUPDATE
 40
2457192.315773391
  9
$TDINDWG
 40
0.1655124074
  9
$TDUSRTIMER
 40
0.1655123843
  9
$USRTIMER
 70
     1
  9
$ANGBASE
 50
0.0
  9
$ANGDIR
 70
     0
  9
$PDMODE
 70
     0
  9
$PDSIZE
 40
0.0
  9
$PLINEWID
 40
0.0
  9
$SPLFRAME
 70
     0
  9
$SPLINETYPE
 70
     6
  9
$SPLINESEGS
 70
     8
  9
$HANDSEED
  5
3B48
  9
$SURFTAB1
 70
     6
  9
$SURFTAB2
 70
     6
  9
$SURFTYPE
 70
     6
  9
$SURFU
 70
     6
  9
$SURFV
 70
     6
  9
$UCSBASE
  2

  9
$UCSNAME
  2

  9
$UCSORG
 10
0.0
 20
0.0
 30
0.0
  9
$UCSXDIR
 10
1.0
 20
0.0
 30
0.0
  9
$UCSYDIR
 10
0.0
 20
1.0
 30
0.0
  9
$UCSORTHOREF
  2

  9
$UCSORTHOVIEW
 70
     0
  9
$UCSORGTOP
 10
0.0
 20
0.0
 30
0.0
  9
$UCSORGBOTTOM
 10
0.0
 20
0.0
 30
0.0
  9
$UCSORGLEFT
 10
0.0
 20
0.0
 30
0.0
  9
$UCSORGRIGHT
 10
0.0
 20
0.0
 30
0.0
  9
$UCSORGFRONT
 10
0.0
 20
0.0
 30
0.0
  9
$UCSORGBACK
 10
0.0
 20
0.0
 30
0.0
  9
$PUCSBASE
  2

  9
$PUCSNAME
  2

  9
$PUCSORG
 10
0.0
 20
0.0
 30
0.0
  9
$PUCSXDIR
 10
1.0
 20
0.0
 30
0.0
  9
$PUCSYDIR
 10
0.0
 20
1.0
 30
0.0
  9
$PUCSORTHOREF
  2

  9
$PUCSORTHOVIEW
 70
     0
  9
$PUCSORGTOP
 10
0.0
 20
0.0
 30
0.0
  9
$PUCSORGBOTTOM
 10
0.0
 20
0.0
 30
0.0
  9
$PUCSORGLEFT
 10
0.0
 20
0.0
 30
0.0
  9
$PUCSORGRIGHT
 10
0.0
 20
0.0
 30
0.0
  9
$PUCSORGFRONT
 10
0.0
 20
0.0
 30
0.0
  9
$PUCSORGBACK
 10
0.0
 20
0.0
 30
0.0
  9
$USERI1
 70
     0
  9
$USERI2
 70
     0
  9
$USERI3
 70
     0
  9
$USERI4
 70
     0
  9
$USERI5
 70
     0
  9
$USERR1
 40
0.0
  9
$USERR2
 40
0.0
  9
$USERR3
 40
0.0
  9
$USERR4
 40
0.0
  9
$USERR5
 40
0.0
  9
$WORLDVIEW
 70
     1
  9
$SHADEDGE
 70
     3
  9
$SHADEDIF
 70
    70
  9
$TILEMODE
 70
     1
  9
$MAXACTVP
 70
    48
  9
$PINSBASE
 10
0.0
 20
0.0
 30
0.0
  9
$PLIMCHECK
 70
     0
  9
$PEXTMIN
 10
1.000000000000000E+20
 20
1.000000000000000E+20
 30
1.000000000000000E+20
  9
$PEXTMAX
 10
-1.000000000000000E+20
 20
-1.000000000000000E+20
 30
-1.000000000000000E+20
  9
$PLIMMIN
 10
0.0
 20
0.0
  9
$PLIMMAX
 10
420.0
 20
297.0
  9
$UNITMODE
 70
     0
  9
$VISRETAIN
 70
     1
  9
$PLINEGEN
 70
     0
  9
$PSLTSCALE
 70
     1
  9
$TREEDEPTH
 70
  3020
  9
$CMLSTYLE
  2
STANDARD
  9
$CMLJUST
 70
     0
  9
$CMLSCALE
 40
20.0
  9
$PROXYGRAPHICS
 70
     1
  9
$MEASUREMENT
 70
     0
  9
$CELWEIGHT
370
    -1
  9
$ENDCAPS
280
     0
  9
$JOINSTYLE
280
     0
  9
$LWDISPLAY
290
     0
  9
$INSUNITS
 70
     0
  9
$HYPERLINKBASE
  1

  9
$STYLESHEET
  1

  9
$XEDIT
290
     1
  9
$CEPSNTYPE
380
     0
  9
$PSTYLEMODE
290
     1
  9
$FINGERPRINTGUID
  2
{CC95EFF2-9DAB-4A9A-B556-2E21168FE561}
  9
$VERSIONGUID
  2
{CD824D16-23C1-450F-B59B-150965EFA279}
  9
$EXTNAMES
290
     1
  9
$PSVPSCALE
 40
0.0
  9
$OLESTARTUP
290
     0
  0
ENDSEC
  0
SECTION
  2
CLASSES
  0
CLASS
  1
ACDBDICTIONARYWDFLT
  2
AcDbDictionaryWithDefault
  3
ObjectDBX Classes
 90
        0
280
     0
281
     0
  0
CLASS
  1
ACDBPLACEHOLDER
  2
AcDbPlaceHolder
  3
ObjectDBX Classes
 90
        0
280
     0
281
     0
  0
CLASS
  1
LAYOUT
  2
AcDbLayout
  3
ObjectDBX Classes
 90
        0
280
     0
281
     0
  0
CLASS
  1
DICTIONARYVAR
  2
AcDbDictionaryVar
  3
ObjectDBX Classes
 90
        0
280
     0
281
     0
  0
CLASS
  1
MATERIAL
  2
AcDbMaterial
  3
ObjectDBX Classes
 90
     1153
280
     0
281
     0
  0
CLASS
  1
VISUALSTYLE
  2
AcDbVisualStyle
  3
ObjectDBX Classes
 90
     4095
280
     0
281
     0
  0
CLASS
  1
TABLESTYLE
  2
AcDbTableStyle
  3
ObjectDBX Classes
 90
     4095
280
     0
281
     0
  0
CLASS
  1
SCALE
  2
AcDbScale
  3
ObjectDBX Classes
 90
     1153
280
     0
281
     0
  0
CLASS
  1
MLEADERSTYLE
  2
AcDbMLeaderStyle
  3
ACDB_MLEADERSTYLE_CLASS
 90
     4095
280
     0
281
     0
  0
CLASS
  1
ACDBSECTIONVIEWSTYLE
  2
AcDbSectionViewStyle
  3
ObjectDBX Classes
 90
     1025
280
     0
281
     0
  0
CLASS
  1
ACDBDETAILVIEWSTYLE
  2
AcDbDetailViewStyle
  3
ObjectDBX Classes
 90
     1025
280
     0
281
     0
  0
CLASS
  1
CELLSTYLEMAP
  2
AcDbCellStyleMap
  3
ObjectDBX Classes
 90
     1152
280
     0
281
     0
  0
ENDSEC
  0
SECTION
  2
TABLES
  0
TABLE
  2
VPORT
  5
8
330
0
100
AcDbSymbolTable
 70
     1
  0
VPORT
  5
3A92
330
8
100
AcDbSymbolTableRecord
100
AcDbViewportTableRecord
  2
*ACTIVE
 70
     0
 10
0.0
 20
0.0
 11
1.0
 21
1.0
 12
504.8127918201824
 22
233.6299749459788
 13
0.0
 23
0.0
 14
10.0
 24
10.0
 15
10.0
 25
10.0
 16
0.0
 26
0.0
 36
1.0
 17
0.0
 27
0.0
 37
0.0
 40
450.6673561878413
 41
2.35006605019815
 42
50.0
 43
0.0
 44
0.0
 50
0.0
 51
0.0
 71
     0
 72
   100
 73
     1
 74
     0
 75
     0
 76
     0
 77
     0
 78
     0
281
     0
 65
     1
110
0.0
120
0.0
130
0.0
111
1.0
121
0.0
131
0.0
112
0.0
122
1.0
132
0.0
 79
     0
146
0.0
1001
ACAD_NAV_VCDISPLAY
1070
     3
  0
ENDTAB
  0
TABLE
  2
LTYPE
  5
5
330
0
100
AcDbSymbolTable
 70
     4
  0
LTYPE
  5
12
330
5
100
AcDbSymbolTableRecord
100
AcDbLinetypeTableRecord
  2
BYBLOCK
 70
     0
  3

 72
    65
 73
     0
 40
0.0
  0
LTYPE
  5
13
330
5
100
AcDbSymbolTableRecord
100
AcDbLinetypeTableRecord
  2
BYLAYER
 70
     0
  3

 72
    65
 73
     0
 40
0.0
  0
LTYPE
  5
14
330
5
100
AcDbSymbolTableRecord
100
AcDbLinetypeTableRecord
  2
CONTINUOUS
 70
     0
  3
Solid line
 72
    65
 73
     0
 40
0.0
  0
LTYPE
  5
4B
330
5
100
AcDbSymbolTableRecord
100
AcDbLinetypeTableRecord
  2
DASHED
 70
     0
  3
Dashed __ __ __ __ __ __ __ __ __ __ __ __ __ _
 72
    65
 73
     2
 40
19.04999999999999
 49
12.7
 74
     0
 49
-6.349999999999998
 74
     0
  0
LTYPE
  5
4C
330
5
100
AcDbSymbolTableRecord
100
AcDbLinetypeTableRecord
  2
CENTER
 70
     0
  3
Center ____ _ ____ _ ____ _ ____ _ ____ _ ____
 72
    65
 73
     4
 40
50.8
 49
31.75
 74
     0
 49
-6.349999999999998
 74
     0
 49
6.349999999999998
 74
     0
 49
-6.349999999999998
 74
     0
  0
LTYPE
  5
4D
330
5
100
AcDbSymbolTableRecord
100
AcDbLinetypeTableRecord
  2
PHANTOM
 70
     0
  3
Phantom ______  __  __  ______  __  __  ______
 72
    65
 73
     6
 40
63.5
 49
31.75
 74
     0
 49
-6.349999999999998
 74
     0
 49
6.349999999999998
 74
     0
 49
-6.349999999999998
 74
     0
 49
6.349999999999998
 74
     0
 49
-6.349999999999998
 74
     0
  0
ENDTAB
  0
TABLE
  2
LAYER
  5
2
330
0
100
AcDbSymbolTable
 70
     8
  0
LAYER
  5
E
102
{ACAD_XDICTIONARY
360
3AEC
102
}
330
2
100
AcDbSymbolTableRecord
100
AcDbLayerTableRecord
  2
0
 70
     0
 62
     7
  6
CONTINUOUS
370
    -3
390
3A9B
  0
LAYER
  5
4E
102
{ACAD_XDICTIONARY
360
3AEE
102
}
330
2
100
AcDbSymbolTableRecord
100
AcDbLayerTableRecord
  2
4
 70
     0
 62
     1
  6
CENTER
370
    -3
390
3A9B
  0
LAYER
  5
4F
102
{ACAD_XDICTIONARY
360
3AF0
102
}
330
2
100
AcDbSymbolTableRecord
100
AcDbLayerTableRecord
  2
5
 70
     0
 62
     6
  6
PHANTOM
370
    -3
390
3A9B
  0
LAYER
  5
50
102
{ACAD_XDICTIONARY
360
3AF2
102
}
330
2
100
AcDbSymbolTableRecord
100
AcDbLayerTableRecord
  2
1
 70
     0
 62
     7
  6
CONTINUOUS
370
    -3
390
3A9B
  0
LAYER
  5
51
102
{ACAD_XDICTIONARY
360
3AF4
102
}
330
2
100
AcDbSymbolTableRecord
100
AcDbLayerTableRecord
  2
2
 70
     0
 62
     4
  6
CONTINUOUS
370
    -3
390
3A9B
  0
LAYER
  5
52
102
{ACAD_XDICTIONARY
360
3AF6
102
}
330
2
100
AcDbSymbolTableRecord
100
AcDbLayerTableRecord
  2
3
 70
     0
 62
     2
  6
DASHED
370
    -3
390
3A9B
  0
LAYER
  5
53
102
{ACAD_XDICTIONARY
360
3AF8
102
}
330
2
100
AcDbSymbolTableRecord
100
AcDbLayerTableRecord
  2
6
 70
     0
 62
     5
  6
CONTINUOUS
370
    -3
390
3A9B
  0
LAYER
  5
54
102
{ACAD_XDICTIONARY
360
3AFA
102
}
330
2
100
AcDbSymbolTableRecord
100
AcDbLayerTableRecord
  2
7
 70
     0
 62
     3
  6
CONTINUOUS
370
    -3
390
3A9B
  0
ENDTAB
  0
TABLE
  2
STYLE
  5
3
330
0
100
AcDbSymbolTable
 70
     1
  0
STYLE
  5
F
330
3
100
AcDbSymbolTableRecord
100
AcDbTextStyleTableRecord
  2
STANDARD
 70
     0
 40
0.0
 41
1.0
 50
0.0
 71
     0
 42
2.5
  3
simplex.shx
  4

  0
ENDTAB
  0
TABLE
  2
VIEW
  5
6
330
0
100
AcDbSymbolTable
 70
     0
  0
ENDTAB
  0
TABLE
  2
UCS
  5
7
330
0
100
AcDbSymbolTable
 70
     0
  0
ENDTAB
  0
TABLE
  2
APPID
  5
9
330
0
100
AcDbSymbolTable
 70
     5
  0
APPID
  5
10
330
9
100
AcDbSymbolTableRecord
100
AcDbRegAppTableRecord
  2
ACAD
 70
     0
  0
APPID
  5
3E
330
9
100
AcDbSymbolTableRecord
100
AcDbRegAppTableRecord
  2
CONTENTTABDATA
 70
     0
  0
APPID
  5
3F
330
9
100
AcDbSymbolTableRecord
100
AcDbRegAppTableRecord
  2
CONTENTCURRENTTAB
 70
     0
  0
APPID
  5
3B06
330
9
100
AcDbSymbolTableRecord
100
AcDbRegAppTableRecord
  2
ACAD_NAV_VCDISPLAY
 70
     0
  0
APPID
  5
3B3F
330
9
100
AcDbSymbolTableRecord
100
AcDbRegAppTableRecord
  2
ACAD_MLEADERVER
 70
     0
  0
ENDTAB
  0
TABLE
  2
DIMSTYLE
  5
A
330
0
100
AcDbSymbolTable
 70
     1
100
AcDbDimStyleTable
 71
     0
  0
DIMSTYLE
105
1D
330
A
100
AcDbSymbolTableRecord
100
AcDbDimStyleTableRecord
  2
STANDARD
 70
     0
 41
3.0
 42
1.0
 43
10.0
 44
1.0
 73
     0
 74
     0
 77
     3
 78
     8
140
3.2
141
0.0
147
1.0
172
     1
173
     1
340
F
341
2E
343
2E
344
2E
  0
ENDTAB
  0
TABLE
  2
BLOCK_RECORD
  5
1
330
0
100
AcDbSymbolTable
 70
     1
  0
BLOCK_RECORD
  5
18
102
{ACAD_XDICTIONARY
360
3A95
102
}
330
1
100
AcDbSymbolTableRecord
100
AcDbBlockTableRecord
  2
*MODEL_SPACE
340
3AE9
  0
BLOCK_RECORD
  5
15
102
{ACAD_XDICTIONARY
360
3A93
102
}
330
1
100
AcDbSymbolTableRecord
100
AcDbBlockTableRecord
  2
*PAPER_SPACE
340
3AEA
  0
BLOCK_RECORD
  5
2E
330
1
100
AcDbSymbolTableRecord
100
AcDbBlockTableRecord
  2
_OPEN
340
0
  0
ENDTAB
  0
ENDSEC
  0
SECTION
  2
BLOCKS
  0
BLOCK
  5
19
330
18
100
AcDbEntity
  8
0
100
AcDbBlockBegin
  2
*MODEL_SPACE
 70
     0
 10
0.0
 20
0.0
 30
0.0
  3
*MODEL_SPACE
  1

  0
ENDBLK
  5
1A
330
18
100
AcDbEntity
  8
0
100
AcDbBlockEnd
  0
BLOCK
  5
16
330
15
100
AcDbEntity
 67
     1
  8
0
100
AcDbBlockBegin
  2
*PAPER_SPACE
 70
     0
 10
0.0
 20
0.0
 30
0.0
  3
*PAPER_SPACE
  1

  0
ENDBLK
  5
17
330
15
100
AcDbEntity
 67
     1
  8
0
100
AcDbBlockEnd
  0
BLOCK
  5
2F
330
2E
100
AcDbEntity
  8
0
100
AcDbBlockBegin
  2
_OPEN
 70
     0
 10
0.0
 20
0.0
 30
0.0
  3
_OPEN
  1

  0
LINE
  5
30
330
2E
100
AcDbEntity
  8
0
  6
ByBlock
 62
     0
100
AcDbLine
 10
-1.0
 20
0.1666666666666666
 30
0.0
 11
0.0
 21
0.0
 31
0.0
  0
LINE
  5
31
330
2E
100
AcDbEntity
  8
0
  6
ByBlock
 62
     0
100
AcDbLine
 10
0.0
 20
0.0
 30
0.0
 11
-1.0
 21
-0.1666666666666666
 31
0.0
  0
LINE
  5
32
330
2E
100
AcDbEntity
  8
0
  6
ByBlock
 62
     0
100
AcDbLine
 10
0.0
 20
0.0
 30
0.0
 11
-1.0
 21
0.0
 31
0.0
  0
ENDBLK
  5
33
330
2E
100
AcDbEntity
  8
0
100
AcDbBlockEnd
  0
ENDSEC
  0
SECTION
  2
ENTITIES
  0
TEXT
  5
63
330
18
100
AcDbEntity
  8
4
  6
CENTER
 48
0.25
100
AcDbText
 10
23.97950852663849
 20
10.0
 30
0.0
 40
1.399999999999999
  1
4
100
AcDbText
  0
TEXT
  5
64
330
18
100
AcDbEntity
  8
7
  6
Continuous
 48
0.25
100
AcDbText
 10
9.999997526638502
 20
26.0000007607689
 30
0.0
 40
3.0
  1
CODE No.19268
100
AcDbText
  0
TEXT
  5
65
330
18
100
AcDbEntity
  8
7
  6
Continuous
 48
0.25
100
AcDbText
 10
9.999997526638502
 20
18.00000076076889
 30
0.0
 40
3.0
  1
TYPE No.TCA-50SUS-N75
100
AcDbText
  0
TEXT
  5
66
330
18
100
AcDbEntity
  8
1
  6
Continuous
 48
0.25
100
AcDbText
 10
9.999997526638502
 20
10.00000076076889
 30
0.0
 40
1.399999999999999
  1
LAYER
100
AcDbText
  0
TEXT
  5
67
330
18
100
AcDbEntity
  8
2
  6
Continuous
 48
0.25
100
AcDbText
 10
19.9795085266385
 20
10.0
 30
0.0
 40
1.399999999999999
  1
2
100
AcDbText
  0
TEXT
  5
68
330
18
100
AcDbEntity
  8
3
  6
DASHED
 48
0.25
100
AcDbText
 10
21.9795085266385
 20
10.0
 30
0.0
 40
1.399999999999999
  1
3
100
AcDbText
  0
TEXT
  5
69
330
18
100
AcDbEntity
  8
1
  6
Continuous
 48
0.25
100
AcDbText
 10
17.9795085266385
 20
10.0
 30
0.0
 40
1.399999999999999
  1
1
100
AcDbText
  0
TEXT
  5
6A
330
18
100
AcDbEntity
  8
5
  6
PHANTOM
 48
0.25
100
AcDbText
 10
25.9795085266385
 20
10.0
 30
0.0
 40
1.399999999999999
  1
5
100
AcDbText
  0
TEXT
  5
6B
330
18
100
AcDbEntity
  8
6
  6
Continuous
 48
0.25
100
AcDbText
 10
27.9795085266385
 20
10.0
 30
0.0
 40
1.399999999999999
  1
6
100
AcDbText
  0
TEXT
  5
6C
330
18
100
AcDbEntity
  8
7
  6
Continuous
 48
0.25
100
AcDbText
 10
29.9795085266385
 20
10.0
 30
0.0
 40
1.399999999999999
  1
7
100
AcDbText
  0
LINE
  5
1D14
330
18
100
AcDbEntity
  8
1
  6
Continuous
100
AcDbLine
 10
193.753084201873
 20
56.88278973032915
 30
0.0
 11
193.7530842018729
 21
62.18278973032911
 31
0.0
  0
ARC
  5
1D15
330
18
100
AcDbEntity
  8
1
  6
Continuous
100
AcDbCircle
 10
198.0030842018729
 20
65.97199202262945
 30
0.0
 40
8.785583093775763
100
AcDbArc
 50
241.0695841800873
 51
298.9304158199126
  0
LINE
  5
1D16
330
18
100
AcDbEntity
  8
1
  6
Continuous
100
AcDbLine
 10
210.7530842018732
 20
56.88278973032915
 30
0.0
 11
210.7530842018732
 21
62.18278973032911
 31
0.0
  0
ARC
  5
1D17
330
18
100
AcDbEntity
  8
1
  6
Continuous
100
AcDbCircle
 10
206.5030842018729
 20
65.97215888603827
 30
0.0
 40
8.785729134311964
100
AcDbArc
 50
241.0701105902613
 51
298.9298894097404
  0
LINE
  5
1D19
330
18
100
AcDbEntity
  8
1
  6
Continuous
100
AcDbLine
 10
202.2530842018732
 20
58.28278073032915
 30
0.0
 11
202.2530842018732
 21
62.18278973032889
 31
0.0
  0
LINE
  5
1D1A
330
18
100
AcDbEntity
  8
1
  6
Continuous
100
AcDbLine
 10
194.9530842018729
 20
55.68278973032914
 30
0.0
 11
209.5530842018732
 21
55.68278973032914
 31
0.0
  0
LINE
  5
1D1B
330
18
100
AcDbEntity
  8
1
  6
Continuous
100
AcDbLine
 10
210.7530842018732
 20
57.18277753032745
 30
0.0
 11
193.7530842018729
 21
57.18277753032745
 31
0.0
  0
LINE
  5
2AB2
330
18
100
AcDbEntity
  8
1
  6
Continuous
100
AcDbLine
 10
170.5310296926513
 20
390.2266348213839
 30
0.0
 11
184.2530791832678
 21
390.2266348213713
 31
0.0
  0
LINE
  5
2AB3
330
18
100
AcDbEntity
  8
1
  6
Continuous
100
AcDbLine
 10
170.53102816475
 20
430.2266348213827
 30
0.0
 11
184.253079183326
 21
430.2266348213713
 31
0.0
  0
ARC
  5
2AB4
330
18
100
AcDbEntity
  8
1
  6
Continuous
100
AcDbCircle
 10
170.53102816475
 20
425.2266348213827
 30
0.0
 40
5.0
100
AcDbArc
 50
90.0
 51
174.062227548395
  0
ARC
  5
2AB5
330
18
100
AcDbEntity
  8
1
  6
Continuous
100
AcDbCircle
 10
314.7530791833097
 20
410.2266348213829
 30
0.0
 40
150.0
100
AcDbArc
 50
174.062227548395
 51
185.9377899999996
  0
ARC
  5
2AB6
330
18
100
AcDbEntity
  8
1
  6
Continuous
100
AcDbCircle
 10
170.5310331833097
 20
395.2266348213827
 30
0.0
 40
5.0
100
AcDbArc
 50
185.9378099999981
 51
269.9999600000024
  0
LINE
  5
2ABB
330
18
100
AcDbEntity
  8
4
  6
CENTER
 48
0.5
100
AcDbLine
 10
15.07986085983611
 20
236.9547122758555
 30
0.0
 11
95.05811114308505
 21
236.9547122758555
 31
0.0
  0
LINE
  5
2ABD
330
18
100
AcDbEntity
  8
4
  6
CENTER
 48
0.5
100
AcDbLine
 10
245.7530791833096
 20
236.9547122758555
 30
0.0
 11
158.7530791833096
 21
236.9547122758555
 31
0.0
  0
ARC
  5
2ABE
330
18
100
AcDbEntity
  8
1
  6
Continuous
100
AcDbCircle
 10
59.07987085983632
 20
254.9547122758556
 30
0.0
 40
20.0
100
AcDbArc
 50
74.79527078419812
 51
87.32865525957221
  0
ARC
  5
2ABF
330
18
100
AcDbEntity
  8
1
  6
Continuous
100
AcDbCircle
 10
59.07987085983632
 20
254.9547122758556
 30
0.0
 40
20.0
100
AcDbArc
 50
0.0000399999991474
 51
28.95502437186067
  0
ARC
  5
2AC0
330
18
100
AcDbEntity
  8
1
  6
Continuous
100
AcDbCircle
 10
54.07987085983632
 20
254.9547122758556
 30
0.0
 40
20.0
100
AcDbArc
 50
151.0449756281407
 51
180.0
  0
ARC
  5
2AC1
330
18
100
AcDbEntity
  8
1
  6
Continuous
100
AcDbCircle
 10
54.07987085983632
 20
254.9547122758556
 30
0.0
 40
20.0
100
AcDbArc
 50
92.67671171259115
 51
105.2047292158018
  0
LINE
  5
2AC2
330
18
100
AcDbEntity
  8
4
  6
CENTER
 48
0.5
100
AcDbLine
 10
56.57987085983609
 20
193.4547122758553
 30
0.0
 11
56.57987085983609
 21
305.4547122758553
 31
0.0
  0
ARC
  5
2AC3
330
18
100
AcDbEntity
  8
1
  6
Continuous
100
AcDbCircle
 10
71.57987085983609
 20
268.676763294415
 30
0.0
 40
5.0
100
AcDbArc
 50
0.000000000000007
 51
84.06222754839332
  0
ARC
  5
2AC4
330
18
100
AcDbEntity
  8
1
  6
Continuous
100
AcDbCircle
 10
78.87987085983604
 20
245.5547124758556
 30
0.0
 40
0.2
100
AcDbArc
 50
0.000000000000007
 51
90.0
  0
ARC
  5
2AC5
330
18
100
AcDbEntity
  8
1
  6
Continuous
100
AcDbCircle
 10
34.27987085983613
 20
245.5547124758556
 30
0.0
 40
0.2
100
AcDbArc
 50
90.0
 51
180.0
  0
LINE
  5
2AC8
330
18
100
AcDbEntity
  8
1
  6
Continuous
100
AcDbLine
 10
78.07987085983609
 20
245.7547124758556
 30
0.0
 11
78.87987085983604
 21
245.7547124758556
 31
0.0
  0
LINE
  5
2AC9
330
18
100
AcDbEntity
  8
1
  6
Continuous
100
AcDbLine
 10
35.07987085983609
 20
245.7547124758556
 30
0.0
 11
34.27987085983613
 21
245.7547124758556
 31
0.0
  0
LINE
  5
2ACA
330
18
100
AcDbEntity
  8
1
  6
Continuous
100
AcDbLine
 10
76.57987085983609
 20
268.676763294415
 30
0.0
 11
76.57987085983609
 21
205.2326612572958
 31
0.0
  0
LINE
  5
2ACB
330
18
100
AcDbEntity
  8
1
  6
Continuous
100
AcDbLine
 10
36.57987085983609
 20
268.6767582758553
 30
0.0
 11
36.57987085983609
 21
205.2326662758554
 31
0.0
  0
LINE
  5
2ACC
330
18
100
AcDbEntity
  8
1
  6
Continuous
100
AcDbLine
 10
35.07987085983609
 20
256.9547122758556
 30
0.0
 11
35.07987085983609
 21
216.9547122758554
 31
0.0
  0
LINE
  5
2ACD
330
18
100
AcDbEntity
  8
1
  6
Continuous
100
AcDbLine
 10
77.25351585983617
 20
257.9395202758554
 30
0.0
 11
76.57987085983631
 21
258.0583022758555
 31
0.0
  0
LINE
  5
2ACE
330
18
100
AcDbEntity
  8
1
  6
Continuous
100
AcDbLine
 10
35.90621785983604
 20
257.9395182758554
 30
0.0
 11
36.57987085983609
 21
258.0583002758554
 31
0.0
  0
LINE
  5
2ACF
330
18
100
AcDbEntity
  8
1
  6
Continuous
100
AcDbLine
 10
78.07987085983609
 20
256.9547122758556
 30
0.0
 11
78.07987085983609
 21
216.9547122758554
 31
0.0
  0
ARC
  5
2AD0
330
18
100
AcDbEntity
  8
1
  6
Continuous
100
AcDbCircle
 10
56.57987085983609
 20
124.4547122758555
 30
0.0
 40
150.0
100
AcDbArc
 50
84.06222754839332
 51
95.93778999999946
  0
ARC
  5
2AD1
330
18
100
AcDbEntity
  8
1
  6
Continuous
100
AcDbCircle
 10
41.57987085983608
 20
268.6767582758553
 30
0.0
 40
5.0
100
AcDbArc
 50
95.93780999999792
 51
179.9999599999992
  0
ARC
  5
2AD2
330
18
100
AcDbEntity
  8
1
  6
Continuous
100
AcDbCircle
 10
77.07987085983609
 20
256.9547122758556
 30
0.0
 40
1.0
100
AcDbArc
 50
0.000000000000007
 51
80.0000000000014
  0
ARC
  5
2AD3
330
18
100
AcDbEntity
  8
1
  6
Continuous
100
AcDbCircle
 10
36.07987085983609
 20
256.9547122758556
 30
0.0
 40
1.0
100
AcDbArc
 50
99.99999999999859
 51
180.0000099999993
  0
ARC
  5
2AD4
330
18
100
AcDbEntity
  8
1
  6
Continuous
100
AcDbCircle
 10
71.57987085983609
 20
205.2326612572958
 30
0.0
 40
5.0
100
AcDbArc
 50
275.9377724516066
 51
0.000000000000007
  0
ARC
  5
2AD5
330
18
100
AcDbEntity
  8
1
  6
Continuous
100
AcDbCircle
 10
78.87987085983604
 20
228.3547120758553
 30
0.0
 40
0.2
100
AcDbArc
 50
270.0
 51
0.000000000000007
  0
ARC
  5
2AD6
330
18
100
AcDbEntity
  8
1
  6
Continuous
100
AcDbCircle
 10
34.27987085983613
 20
228.3547120758553
 30
0.0
 40
0.2
100
AcDbArc
 50
180.0
 51
270.0
  0
ARC
  5
2AD7
330
18
100
AcDbEntity
  8
1
  6
Continuous
100
AcDbCircle
 10
202.2530791833096
 20
236.9547122758555
 30
0.0
 40
15.0
100
AcDbArc
 50
99.71600797725814
 51
331.5139512955207
  0
ARC
  5
2AD8
330
18
100
AcDbEntity
  8
1
  6
Continuous
100
AcDbCircle
 10
202.2530791833096
 20
236.9547122758555
 30
0.0
 40
15.49999899999999
100
AcDbArc
 50
98.08578242972352
 51
334.1707484400026
  0
ARC
  5
2ADB
330
18
100
AcDbEntity
  8
1
  6
Continuous
100
AcDbCircle
 10
202.2530791833096
 20
236.9547122758555
 30
0.0
 40
37.5
100
AcDbArc
 50
94.89459576342197
 51
14.50467443737928
  0
ARC
  5
2ADC
330
18
100
AcDbEntity
  8
1
  6
Continuous
100
AcDbCircle
 10
202.2530791833096
 20
236.9547122758555
 30
0.0
 40
21.0
100
AcDbArc
 50
90.0
 51
352.424748658536
  0
ARC
  5
2ADD
330
18
100
AcDbEntity
  8
1
  6
Continuous
100
AcDbCircle
 10
202.2530791833096
 20
236.9547122758555
 30
0.0
 40
23.0
100
AcDbArc
 50
88.31044945998351
 51
356.590372107597
  0
LINE
  5
2AE0
330
18
100
AcDbEntity
  8
1
  6
Continuous
100
AcDbLine
 10
78.07987085983609
 20
228.1547120758554
 30
0.0
 11
78.87987085983604
 21
228.1547120758554
 31
0.0
  0
LINE
  5
2AE1
330
18
100
AcDbEntity
  8
1
  6
Continuous
100
AcDbLine
 10
35.07987085983609
 20
228.1547120758554
 30
0.0
 11
34.27987085983613
 21
228.1547120758554
 31
0.0
  0
LINE
  5
2AE5
330
18
100
AcDbEntity
  8
1
  6
Continuous
100
AcDbLine
 10
77.25351585983617
 20
215.9699042758553
 30
0.0
 11
76.57987085983609
 21
215.8511222758553
 31
0.0
  0
LINE
  5
2AE6
330
18
100
AcDbEntity
  8
1
  6
Continuous
100
AcDbLine
 10
35.90621785983604
 20
215.9699062758553
 30
0.0
 11
36.57987085983609
 21
215.8511242758553
 31
0.0
  0
ARC
  5
2AE8
330
18
100
AcDbEntity
  8
1
  6
Continuous
100
AcDbCircle
 10
56.57987085983609
 20
349.4547122758554
 30
0.0
 40
150.0
100
AcDbArc
 50
264.0622100000005
 51
275.9377724516066
  0
ARC
  5
2AE9
330
18
100
AcDbEntity
  8
1
  6
Continuous
100
AcDbCircle
 10
41.57987085983608
 20
205.2326662758554
 30
0.0
 40
5.0
100
AcDbArc
 50
180.000039999999
 51
264.062190000002
  0
ARC
  5
2AEA
330
18
100
AcDbEntity
  8
1
  6
Continuous
100
AcDbCircle
 10
77.07987085983609
 20
216.9547122758554
 30
0.0
 40
1.0
100
AcDbArc
 50
279.9999999999986
 51
0.000000000000007
  0
ARC
  5
2AEB
330
18
100
AcDbEntity
  8
1
  6
Continuous
100
AcDbCircle
 10
36.07987085983609
 20
216.9547122758554
 30
0.0
 40
1.0
100
AcDbArc
 50
179.9999899999989
 51
260.0000000000013
  0
LINE
  5
2AEC
330
18
100
AcDbEntity
  8
1
  6
Continuous
100
AcDbLine
 10
21.82986085983611
 20
241.9547070745863
 30
0.0
 11
23.57987085983609
 21
241.9547070745863
 31
0.0
  0
LINE
  5
2AED
330
18
100
AcDbEntity
  8
1
  6
Continuous
100
AcDbLine
 10
21.82986085983611
 20
231.9547070745863
 30
0.0
 11
23.57987085983609
 21
231.9547070745863
 31
0.0
  0
LINE
  5
2AF0
330
18
100
AcDbEntity
  8
1
  6
Continuous
100
AcDbLine
 10
21.07986085983611
 20
232.7047070745864
 30
0.0
 11
21.07986085983611
 21
241.2047070745864
 31
0.0
  0
LINE
  5
2AF1
330
18
100
AcDbEntity
  8
1
  6
Continuous
100
AcDbLine
 10
21.82986085983611
 20
241.9547070745863
 30
0.0
 11
21.82986085983611
 21
231.9547070745863
 31
0.0
  0
LINE
  5
2AF2
330
18
100
AcDbEntity
  8
1
  6
Continuous
100
AcDbLine
 10
21.82980085983581
 20
241.9547600745863
 30
0.0
 11
21.07980085983581
 21
241.2047600745863
 31
0.0
  0
LINE
  5
2AF3
330
18
100
AcDbEntity
  8
1
  6
Continuous
100
AcDbLine
 10
21.07986085983611
 20
232.7047110745862
 30
0.0
 11
21.82986085983611
 21
231.9547070745862
 31
0.0
  0
LINE
  5
2AF4
330
18
100
AcDbEntity
  8
1
  6
Continuous
100
AcDbLine
 10
23.57987085983609
 20
229.6547092758555
 30
0.0
 11
23.57987085983609
 21
244.2547112758554
 31
0.0
  0
LINE
  5
2AF5
330
18
100
AcDbEntity
  8
1
  6
Continuous
100
AcDbLine
 10
25.17986085983625
 20
228.4547122758555
 30
0.0
 11
25.17986085983625
 21
245.4547122758554
 31
0.0
  0
LINE
  5
2AF6
330
18
100
AcDbEntity
  8
1
  6
Continuous
100
AcDbLine
 10
26.49481661724645
 20
227.1397565184455
 30
0.0
 11
30.07987085983632
 21
227.1397565184455
 31
0.0
  0
LINE
  5
2AF7
330
18
100
AcDbEntity
  8
1
  6
Continuous
100
AcDbLine
 10
24.77987085983613
 20
245.4547122758554
 30
0.0
 11
25.17986085983625
 21
245.4547122758554
 31
0.0
  0
LINE
  5
2AF8
330
18
100
AcDbEntity
  8
1
  6
Continuous
100
AcDbLine
 10
24.77987085983613
 20
228.4547122758555
 30
0.0
 11
25.17986085983625
 21
228.4547122758555
 31
0.0
  0
LINE
  5
2AF9
330
18
100
AcDbEntity
  8
1
  6
Continuous
100
AcDbLine
 10
25.17986085983625
 20
228.4547122758555
 30
0.0
 11
26.49481661724621
 21
227.1397565184455
 31
0.0
  0
LINE
  5
2AFA
330
18
100
AcDbEntity
  8
1
  6
Continuous
100
AcDbLine
 10
26.17986085983602
 20
241.8621915184455
 30
0.0
 11
30.07987085983609
 21
241.8621915184455
 31
0.0
  0
LINE
  5
2AFB
330
18
100
AcDbEntity
  8
1
  6
Continuous
100
AcDbLine
 10
26.17986085983625
 20
232.0472330332654
 30
0.0
 11
30.07987085983632
 21
232.0472330332654
 31
0.0
  0
ARC
  5
2AFC
330
18
100
AcDbEntity
  8
1
  6
Continuous
100
AcDbCircle
 10
37.7215214078999
 20
236.9547090745864
 30
0.0
 40
12.54166054806418
100
AcDbArc
 50
156.9649307564615
 51
203.035037459681
  0
ARC
  5
2AFD
330
18
100
AcDbEntity
  8
1
  6
Continuous
100
AcDbCircle
 10
24.77987085983613
 20
244.2547112758554
 30
0.0
 40
1.199999999999999
100
AcDbArc
 50
90.00000299999769
 51
180.0
  0
ARC
  5
2AFE
330
18
100
AcDbEntity
  8
1
  6
Continuous
100
AcDbCircle
 10
24.77987085983613
 20
229.6547092758555
 30
0.0
 40
1.199999999999999
100
AcDbArc
 50
180.0000099999993
 51
270.0
  0
ARC
  5
2AFF
330
18
100
AcDbEntity
  8
1
  6
Continuous
100
AcDbCircle
 10
28.66067845085217
 20
229.5934947758555
 30
0.0
 40
3.48931044130072
100
AcDbArc
 50
135.3144185618504
 51
204.4162583753081
  0
LINE
  5
2B15
330
18
100
AcDbEntity
  8
1
  6
Continuous
100
AcDbLine
 10
25.17986085983625
 20
245.4547122758556
 30
0.0
 11
26.49481661724621
 21
246.7696680332656
 31
0.0
  0
LINE
  5
2B16
330
18
100
AcDbEntity
  8
1
  6
Continuous
100
AcDbLine
 10
26.49481661724621
 20
246.7696680332654
 30
0.0
 11
30.07987085983609
 21
246.7696680332654
 31
0.0
  0
ARC
  5
2B17
330
18
100
AcDbEntity
  8
1
  6
Continuous
100
AcDbCircle
 10
28.66067845085217
 20
244.3159297758554
 30
0.0
 40
3.48931044130072
100
AcDbArc
 50
155.5837416246904
 51
224.6855814381495
  0
LINE
  5
2B8B
330
18
100
AcDbEntity
  8
1
  6
Continuous
100
AcDbLine
 10
256.7530791833096
 20
451.2266348213826
 30
0.0
 11
193.7530791833094
 21
451.2266348213826
 31
0.0
  0
LINE
  5
2B8C
330
18
100
AcDbEntity
  8
4
  6
CENTER
 48
0.5
100
AcDbLine
 10
272.2530791833095
 20
410.2266348213825
 30
0.0
 11
158.7530791833096
 21
410.2266348213825
 31
0.0
  0
LINE
  5
2B8D
330
18
100
AcDbEntity
  8
4
  6
CENTER
 48
0.5
100
AcDbLine
 10
225.2530791833098
 20
457.2266348213828
 30
0.0
 11
225.2530791833098
 21
363.2266348213826
 31
0.0
  0
LINE
  5
2B8E
330
18
100
AcDbEntity
  8
1
  6
Continuous
100
AcDbLine
 10
184.2530791833094
 20
441.7266348213827
 30
0.0
 11
184.2530791833094
 21
378.7266348213826
 31
0.0
  0
LINE
  5
2B8F
330
18
100
AcDbEntity
  8
1
  6
Continuous
100
AcDbLine
 10
266.2530791833096
 20
441.7266348213827
 30
0.0
 11
266.2530791833096
 21
378.7266348213826
 31
0.0
  0
LINE
  5
2B90
330
18
100
AcDbEntity
  8
1
  6
Continuous
100
AcDbLine
 10
256.7530791833096
 20
369.2266348213825
 30
0.0
 11
193.7530791833094
 21
369.2266348213825
 31
0.0
  0
LINE
  5
2B91
330
18
100
AcDbEntity
  8
4
  6
CENTER
 48
0.2
100
AcDbLine
 10
256.7530791833096
 20
384.7266348213826
 30
0.0
 11
256.7530791833096
 21
372.7266348213825
 31
0.0
  0
LINE
  5
2B92
330
18
100
AcDbEntity
  8
4
  6
CENTER
 48
0.2
100
AcDbLine
 10
193.7530791833094
 20
384.7266348213826
 30
0.0
 11
193.7530791833094
 21
372.7266348213825
 31
0.0
  0
LINE
  5
2B93
330
18
100
AcDbEntity
  8
4
  6
CENTER
 48
0.2
100
AcDbLine
 10
193.7530791833094
 20
447.7266348213826
 30
0.0
 11
193.7530791833094
 21
435.7266348213826
 31
0.0
  0
LINE
  5
2B94
330
18
100
AcDbEntity
  8
4
  6
CENTER
 48
0.2
100
AcDbLine
 10
256.7530791833096
 20
447.7266348213826
 30
0.0
 11
256.7530791833096
 21
435.7266348213826
 31
0.0
  0
LINE
  5
2B95
330
18
100
AcDbEntity
  8
4
  6
CENTER
 48
0.2
100
AcDbLine
 10
262.7530791833098
 20
378.7266348213826
 30
0.0
 11
250.7530791833096
 21
378.7266348213826
 31
0.0
  0
LINE
  5
2B96
330
18
100
AcDbEntity
  8
4
  6
CENTER
 48
0.2
100
AcDbLine
 10
199.7530791833096
 20
378.7266348213826
 30
0.0
 11
187.7530791833094
 21
378.7266348213826
 31
0.0
  0
LINE
  5
2B97
330
18
100
AcDbEntity
  8
4
  6
CENTER
 48
0.2
100
AcDbLine
 10
199.7530791833096
 20
441.7266348213827
 30
0.0
 11
187.7530791833094
 21
441.7266348213827
 31
0.0
  0
LINE
  5
2B98
330
18
100
AcDbEntity
  8
4
  6
CENTER
 48
0.2
100
AcDbLine
 10
262.7530791833098
 20
441.7266348213827
 30
0.0
 11
250.7530791833096
 21
441.7266348213827
 31
0.0
  0
LINE
  5
2B9B
330
18
100
AcDbEntity
  8
1
  6
Continuous
100
AcDbLine
 10
259.2530871833099
 20
274.9547122758556
 30
0.0
 11
257.9154401833097
 21
281.8363292758556
 31
0.0
  0
LINE
  5
2B9C
330
18
100
AcDbEntity
  8
1
  6
Continuous
100
AcDbLine
 10
255.2530791833099
 20
285.4547122758556
 30
0.0
 11
255.2530791833099
 21
284.4547122758556
 31
0.0
  0
LINE
  5
2B9D
330
18
100
AcDbEntity
  8
1
  6
Continuous
100
AcDbLine
 10
255.2530641833095
 20
292.4547146758555
 30
0.0
 11
254.1967441833096
 21
288.8547142758556
 31
0.0
  0
ARC
  5
2B9E
330
18
100
AcDbEntity
  8
1
  6
Continuous
100
AcDbCircle
 10
256.7530791833096
 20
378.7266348213826
 30
0.0
 40
9.5
100
AcDbArc
 50
269.9999700000034
 51
0.0000200000003914
  0
ARC
  5
2B9F
330
18
100
AcDbEntity
  8
1
  6
Continuous
100
AcDbCircle
 10
193.7530791833094
 20
441.7266348213827
 30
0.0
 40
9.5
100
AcDbArc
 50
90.00001799999918
 51
180.0
  0
ARC
  5
2BA0
330
18
100
AcDbEntity
  8
1
  6
Continuous
100
AcDbCircle
 10
256.7530791833096
 20
441.7266348213827
 30
0.0
 40
9.5
100
AcDbArc
 50
0.0000400000007758
 51
90.00001799999918
  0
ARC
  5
2BA1
330
18
100
AcDbEntity
  8
1
  6
Continuous
100
AcDbCircle
 10
193.7530791833094
 20
378.7266348213826
 30
0.0
 40
9.5
100
AcDbArc
 50
180.0
 51
269.9999800000044
  0
CIRCLE
  5
2BA2
330
18
100
AcDbEntity
  8
1
  6
Continuous
100
AcDbCircle
 10
193.7530791833094
 20
378.7266348213826
 30
0.0
 40
4.400000099999996
  0
CIRCLE
  5
2BA3
330
18
100
AcDbEntity
  8
1
  6
Continuous
100
AcDbCircle
 10
193.7530791833094
 20
441.7266348213827
 30
0.0
 40
4.400000099999996
  0
CIRCLE
  5
2BA4
330
18
100
AcDbEntity
  8
1
  6
Continuous
100
AcDbCircle
 10
256.7530791833096
 20
378.7266348213826
 30
0.0
 40
4.400000099999996
  0
CIRCLE
  5
2BA5
330
18
100
AcDbEntity
  8
1
  6
Continuous
100
AcDbCircle
 10
256.7530791833096
 20
441.7266348213827
 30
0.0
 40
4.400000099999996
  0
CIRCLE
  5
2BA6
330
18
100
AcDbEntity
  8
1
  6
Continuous
100
AcDbCircle
 10
225.2530791833098
 20
410.2266348213825
 30
0.0
 40
12.0
  0
CIRCLE
  5
2BA7
330
18
100
AcDbEntity
  8
1
  6
Continuous
100
AcDbCircle
 10
225.2530791833098
 20
410.2266348213825
 30
0.0
 40
15.5
  0
CIRCLE
  5
2BA8
330
18
100
AcDbEntity
  8
1
  6
Continuous
100
AcDbCircle
 10
225.2530791833098
 20
410.2266348213825
 30
0.0
 40
29.0
  0
CIRCLE
  5
2BA9
330
18
100
AcDbEntity
  8
1
  6
Continuous
100
AcDbCircle
 10
225.2530791833098
 20
410.2266348213825
 30
0.0
 40
31.5
  0
ARC
  5
2BAA
330
18
100
AcDbEntity
  8
1
  6
Continuous
100
AcDbCircle
 10
249.2530791833099
 20
285.4547122758556
 30
0.0
 40
6.0
100
AcDbArc
 50
0.000000000000007
 51
34.51812000000098
  0
ARC
  5
2BAB
330
18
100
AcDbEntity
  8
1
  6
Continuous
100
AcDbCircle
 10
256.2530791833098
 20
284.4547122758556
 30
0.0
 40
1.0
100
AcDbArc
 50
179.9999799999995
 51
270.0000300000029
  0
ARC
  5
2BAC
330
18
100
AcDbEntity
  8
1
  6
Continuous
100
AcDbCircle
 10
255.9521761833098
 20
281.4547122758556
 30
0.0
 40
2.0
100
AcDbArc
 50
10.99994800000077
 51
89.99998200000083
  0
LINE
  5
2BAE
330
18
100
AcDbEntity
  8
1
  6
Continuous
100
AcDbLine
 10
97.5798708598363
 20
299.4547122758553
 30
0.0
 11
15.57987085983632
 21
299.4547122758553
 31
0.0
  0
LINE
  5
2BB0
330
18
100
AcDbEntity
  8
1
  6
Continuous
100
AcDbLine
 10
87.17769085983627
 20
283.4547122758554
 30
0.0
 11
25.98205485983613
 21
283.4547122758554
 31
0.0
  0
LINE
  5
2BB3
330
18
100
AcDbEntity
  8
1
  6
Continuous
100
AcDbLine
 10
86.57987085983631
 20
285.4547122758553
 30
0.0
 11
86.57987085983631
 21
284.4547122758553
 31
0.0
  0
LINE
  5
2BB4
330
18
100
AcDbEntity
  8
1
  6
Continuous
100
AcDbLine
 10
26.57987085983632
 20
285.4547122758553
 30
0.0
 11
26.57987085983632
 21
284.4547122758553
 31
0.0
  0
LINE
  5
2BB6
330
18
100
AcDbEntity
  8
1
  6
Continuous
100
AcDbLine
 10
85.52355085983618
 20
288.8547122758554
 30
0.0
 11
27.636190859836
 21
288.8547122758554
 31
0.0
  0
LINE
  5
2BB7
330
18
100
AcDbEntity
  8
1
  6
Continuous
100
AcDbLine
 10
86.5798808598363
 20
292.4547108758554
 30
0.0
 11
85.52356085983637
 21
288.8547112758553
 31
0.0
  0
LINE
  5
2BB8
330
18
100
AcDbEntity
  8
1
  6
Continuous
100
AcDbLine
 10
26.5798818598364
 20
292.4547165758556
 30
0.0
 11
27.63619885983644
 21
288.8547162758554
 31
0.0
  0
LINE
  5
2BBB
330
18
100
AcDbEntity
  8
1
  6
Continuous
100
AcDbLine
 10
34.07987085983632
 20
274.0216059522547
 30
0.0
 11
34.07987085983609
 21
224.9547122758555
 31
0.0
  0
LINE
  5
2BBC
330
18
100
AcDbEntity
  8
1
  6
Continuous
100
AcDbLine
 10
79.07987085983631
 20
273.9908682758553
 30
0.0
 11
79.07987085983609
 21
224.9547122758555
 31
0.0
  0
LINE
  5
2BBD
330
18
100
AcDbEntity
  8
1
  6
Continuous
100
AcDbLine
 10
83.0798708598361
 20
224.9547122758555
 30
0.0
 11
79.07987085983609
 21
224.9547122758555
 31
0.0
  0
LINE
  5
2BBE
330
18
100
AcDbEntity
  8
1
  6
Continuous
100
AcDbLine
 10
83.07987085983654
 20
279.4547122758554
 30
0.0
 11
83.07987085983631
 21
224.9547122758555
 31
0.0
  0
LINE
  5
2BBF
330
18
100
AcDbEntity
  8
1
  6
Continuous
100
AcDbLine
 10
30.07987085983654
 20
279.4547122758556
 30
0.0
 11
30.07987085983632
 21
224.9547122758555
 31
0.0
  0
LINE
  5
2BC0
330
18
100
AcDbEntity
  8
1
  6
Continuous
100
AcDbLine
 10
34.07987085983609
 20
224.9547122758555
 30
0.0
 11
30.07987085983609
 21
224.9547122758555
 31
0.0
  0
LINE
  5
2BC1
330
18
100
AcDbEntity
  8
1
  6
Continuous
100
AcDbLine
 10
88.57988085983629
 20
279.9825762758554
 30
0.0
 11
89.5645318160216
 21
241.0612613384086
 31
0.0
  0
LINE
  5
2BC2
330
18
100
AcDbEntity
  8
1
  6
Continuous
100
AcDbLine
 10
24.57987485983608
 20
279.9825762758556
 30
0.0
 11
23.68863892681975
 21
244.7539235236672
 31
0.0
  0
LINE
  5
2BC3
330
18
100
AcDbEntity
  8
1
  6
Continuous
100
AcDbLine
 10
184.2530791833098
 20
299.4547122758556
 30
0.0
 11
266.2530791833098
 21
299.4547122758556
 31
0.0
  0
LINE
  5
2BC5
330
18
100
AcDbEntity
  8
4
  6
CENTER
 48
0.5
100
AcDbLine
 10
225.2530791833095
 20
305.4547122758556
 30
0.0
 11
225.2530791833096
 21
270.3225431816
 31
0.0
  0
LINE
  5
2BC7
330
18
100
AcDbEntity
  8
1
  6
Continuous
100
AcDbLine
 10
192.2530791833098
 20
283.4547122758556
 30
0.0
 11
255.9521761833098
 21
283.4547122758556
 31
0.0
  0
LINE
  5
2BC8
330
18
100
AcDbEntity
  8
1
  6
Continuous
100
AcDbLine
 10
187.9334094833096
 20
274.9547122758556
 30
0.0
 11
196.3635721833096
 21
274.9547122758556
 31
0.0
  0
LINE
  5
2BCA
330
18
100
AcDbEntity
  8
1
  6
Continuous
100
AcDbLine
 10
214.3279391833098
 20
232.4842452758556
 30
0.0
 11
205.0247011833095
 21
280.3452662758555
 31
0.0
  0
LINE
  5
2BCB
330
18
100
AcDbEntity
  8
1
  6
Continuous
100
AcDbLine
 10
197.7319763690619
 20
275.9363394945111
 30
0.0
 11
196.4613629975575
 21
282.4730850572001
 31
0.0
  0
LINE
  5
2BCC
330
18
100
AcDbEntity
  8
1
  6
Continuous
100
AcDbLine
 10
187.2530786833095
 20
278.4547122758556
 30
0.0
 11
187.9334094833096
 21
274.9547102758556
 31
0.0
  0
LINE
  5
2BCD
330
18
100
AcDbEntity
  8
1
  6
Continuous
100
AcDbLine
 10
195.2530791833098
 20
285.4547122758556
 30
0.0
 11
195.2530791833098
 21
284.4547122758556
 31
0.0
  0
LINE
  5
2BCF
330
18
100
AcDbEntity
  8
1
  6
Continuous
100
AcDbLine
 10
196.3093951833096
 20
288.8547122758557
 30
0.0
 11
254.1967591833097
 21
288.8547122758557
 31
0.0
  0
LINE
  5
2BD0
330
18
100
AcDbEntity
  8
1
  6
Continuous
100
AcDbLine
 10
195.2530811833096
 20
292.4547127758555
 30
0.0
 11
196.3093971833098
 21
288.8547132758557
 31
0.0
  0
LINE
  5
2BD1
330
18
100
AcDbEntity
  8
1
  6
Continuous
100
AcDbLine
 10
84.4798728598362
 20
245.3098832758554
 30
0.0
 11
84.4798728598362
 21
228.5358732758555
 31
0.0
  0
LINE
  5
2BD2
330
18
100
AcDbEntity
  8
1
  6
Continuous
100
AcDbLine
 10
84.43629285983661
 20
228.2066122758556
 30
0.0
 11
83.07987085983631
 21
228.3252792758555
 31
0.0
  0
LINE
  5
2BD3
330
18
100
AcDbEntity
  8
1
  6
Continuous
100
AcDbLine
 10
84.43629285983616
 20
245.7028082758554
 30
0.0
 11
83.07987485983607
 21
245.5841372758553
 31
0.0
  0
ARC
  5
2BD4
330
18
100
AcDbEntity
  8
1
  6
Continuous
100
AcDbCircle
 10
32.57987085983632
 20
285.4547122758553
 30
0.0
 40
6.0
100
AcDbArc
 50
145.481879999999
 51
180.0
  0
ARC
  5
2BD5
330
18
100
AcDbEntity
  8
1
  6
Continuous
100
AcDbCircle
 10
87.5798708598363
 20
284.4547122758553
 30
0.0
 40
1.0
100
AcDbArc
 50
180.0
 51
228.1897799999989
  0
ARC
  5
2BD6
330
18
100
AcDbEntity
  8
1
  6
Continuous
100
AcDbCircle
 10
25.57987085983632
 20
284.4547122758553
 30
0.0
 40
1.0
100
AcDbArc
 50
311.810410000002
 51
0.0000200000003914
  0
ARC
  5
2BD7
330
18
100
AcDbEntity
  8
1
  6
Continuous
100
AcDbCircle
 10
80.57987085983631
 20
285.4547122758553
 30
0.0
 40
6.0
100
AcDbArc
 50
0.0000399999991474
 51
34.51809000000135
  0
ARC
  5
2BDA
330
18
100
AcDbEntity
  8
1
  6
Continuous
100
AcDbCircle
 10
83.5798708598363
 20
279.9825762758554
 30
0.0
 40
5.0
100
AcDbArc
 50
0.0000399999991474
 51
53.13007999999682
  0
ARC
  5
2BDB
330
18
100
AcDbEntity
  8
1
  6
Continuous
100
AcDbCircle
 10
29.57987085983631
 20
279.9825762758556
 30
0.0
 40
5.0
100
AcDbArc
 50
131.8103039999998
 51
180.0
  0
ARC
  5
2BDC
330
18
100
AcDbEntity
  8
1
  6
Continuous
100
AcDbCircle
 10
77.57987085983609
 20
240.4547122758556
 30
0.0
 40
12.0
100
AcDbArc
 50
314.6280500000004
 51
2.897293043028133
  0
ARC
  5
2BDD
330
18
100
AcDbEntity
  8
1
  6
Continuous
100
AcDbCircle
 10
202.2530791833098
 20
236.9547122758555
 30
0.0
 40
12.0
100
AcDbArc
 50
128.1445300000018
 51
291.7750299999996
  0
ARC
  5
2BDE
330
18
100
AcDbEntity
  8
1
  6
Continuous
100
AcDbCircle
 10
192.2530791833098
 20
278.4547122758556
 30
0.0
 40
5.0
100
AcDbArc
 50
89.99998200000083
 51
179.9999600000008
  0
ARC
  5
2BDF
330
18
100
AcDbEntity
  8
1
  6
Continuous
100
AcDbCircle
 10
181.2530791833098
 20
263.6941992758555
 30
0.0
 40
22.0
100
AcDbArc
 50
308.1445100000008
 51
19.19487000000042
  0
ARC
  5
2BE0
330
18
100
AcDbEntity
  8
1
  6
Continuous
100
AcDbCircle
 10
196.3635721833096
 20
268.9547122758556
 30
0.0
 40
6.0
100
AcDbArc
 50
19.19486899999969
 51
89.99998200000083
  0
ARC
  5
2BE1
330
18
100
AcDbEntity
  8
1
  6
Continuous
100
AcDbCircle
 10
169.9792521833098
 20
317.7470362758555
 30
0.0
 40
99.0
100
AcDbArc
 50
291.7750500000003
 51
334.3898500000002
  0
ARC
  5
2BE2
330
18
100
AcDbEntity
  8
1
  6
Continuous
100
AcDbCircle
 10
194.2530791833098
 20
284.4547122758556
 30
0.0
 40
1.0
100
AcDbArc
 50
270.0000200000019
 51
0.000000000000007
  0
ARC
  5
2BE3
330
18
100
AcDbEntity
  8
1
  6
Continuous
100
AcDbCircle
 10
201.2530791833099
 20
285.4547122758556
 30
0.0
 40
6.0
100
AcDbArc
 50
145.4819099999985
 51
179.9999600000008
  0
ARC
  5
2BE5
330
18
100
AcDbEntity
  8
1
  6
Continuous
100
AcDbCircle
 10
64.01033685983612
 20
236.9547122758555
 30
0.0
 40
22.56953
100
AcDbArc
 50
338.0486999999987
 51
21.9513080000005
  0
ARC
  5
2BE6
330
18
100
AcDbEntity
  8
1
  6
Continuous
100
AcDbCircle
 10
84.4798728598362
 20
245.2047122758556
 30
0.0
 40
0.5
100
AcDbArc
 50
21.9513080000005
 51
95.00000199999858
  0
ARC
  5
2BE7
330
18
100
AcDbEntity
  8
1
  6
Continuous
100
AcDbCircle
 10
84.4798728598362
 20
228.7047122758555
 30
0.0
 40
0.5
100
AcDbArc
 50
265.0000000000003
 51
338.0486899999998
  0
ARC
  5
2BE8
330
18
100
AcDbEntity
  8
1
  6
Continuous
100
AcDbCircle
 10
56.58239509683675
 20
3.127572434818375
 30
0.0
 40
271.827042422903
100
AcDbArc
 50
84.39442065376923
 51
95.5950977359112
  0
ARC
  5
2BE9
330
18
100
AcDbEntity
  8
1
  6
Continuous
100
AcDbCircle
 10
79.07987085983631
 20
279.4547122758554
 30
0.0
 40
4.0
100
AcDbArc
 50
359.999989999999
 51
89.99999700000229
  0
ARC
  5
2BEA
330
18
100
AcDbEntity
  8
1
  6
Continuous
100
AcDbCircle
 10
34.07987085983632
 20
279.4547122758556
 30
0.0
 40
4.0
100
AcDbArc
 50
89.99999700000229
 51
180.0
  0
LINE
  5
2C15
330
18
100
AcDbEntity
  8
2
  6
Continuous
100
AcDbLine
 10
21.07986085983611
 20
241.1427070744433
 30
0.0
 11
23.57987085983609
 21
241.1427070744433
 31
0.0
  0
LINE
  5
2C16
330
18
100
AcDbEntity
  8
2
  6
Continuous
100
AcDbLine
 10
21.07986085983611
 20
232.7667070744433
 30
0.0
 11
23.57987085983609
 21
232.7667070744433
 31
0.0
  0
LINE
  5
2C1B
330
18
100
AcDbEntity
  8
4
  6
CENTER
 48
0.5
100
AcDbLine
 10
202.2530791833096
 20
193.4547122758556
 30
0.0
 11
202.2530791833096
 21
280.4547122758556
 31
0.0
  0
LINE
  5
2C7F
330
18
100
AcDbEntity
  8
4
  6
CENTER
 48
0.2
100
AcDbLine
 10
193.7530791833095
 20
302.8487475758556
 30
0.0
 11
193.7530791833095
 21
292.6698611758558
 31
0.0
  0
LINE
  5
2C80
330
18
100
AcDbEntity
  8
4
  6
CENTER
 48
0.2
100
AcDbLine
 10
256.7530791833095
 20
302.8487475758556
 30
0.0
 11
256.7530791833095
 21
292.6698611758558
 31
0.0
  0
LINE
  5
2C81
330
18
100
AcDbEntity
  8
4
  6
CENTER
 48
0.2
100
AcDbLine
 10
25.07987085983609
 20
302.8487475758554
 30
0.0
 11
25.07987085983609
 21
292.6698611758557
 31
0.0
  0
LINE
  5
2C82
330
18
100
AcDbEntity
  8
4
  6
CENTER
 48
0.2
100
AcDbLine
 10
88.0798708598361
 20
302.8487475758554
 30
0.0
 11
88.0798708598361
 21
292.6698611758557
 31
0.0
  0
LINE
  5
2E2D
330
18
100
AcDbEntity
  8
4
  6
CENTER
 48
0.5
100
AcDbLine
 10
435.4262975067828
 20
236.9547122758555
 30
0.0
 11
355.448047223534
 21
236.9547122758555
 31
0.0
  0
LINE
  5
2E2F
330
18
100
AcDbEntity
  8
1
  6
Continuous
100
AcDbLine
 10
352.9262875067827
 20
299.4547122758553
 30
0.0
 11
434.9262875067826
 21
299.4547122758553
 31
0.0
  0
ARC
  5
2E34
330
18
100
AcDbEntity
  8
1
  6
Continuous
100
AcDbCircle
 10
386.4958215067828
 20
236.9547122758555
 30
0.0
 40
22.56953
100
AcDbArc
 50
192.9040096447031
 51
201.9513000000013
  0
ARC
  5
2E35
330
18
100
AcDbEntity
  8
1
  6
Continuous
100
AcDbCircle
 10
372.9262875067828
 20
240.4547122758556
 30
0.0
 40
12.0
100
AcDbArc
 50
157.9624566560264
 51
233.5764263576675
  0
LINE
  5
2E36
330
18
100
AcDbEntity
  8
1
  6
Continuous
100
AcDbLine
 10
366.0262855067828
 20
230.6200576276593
 30
0.0
 11
366.0262855067828
 21
228.5358732758555
 31
0.0
  0
LINE
  5
2E38
330
18
100
AcDbEntity
  8
1
  6
Continuous
100
AcDbLine
 10
367.4262875067827
 20
227.580319086272
 30
0.0
 11
367.4262875067827
 21
224.9547122758555
 31
0.0
  0
LINE
  5
2E39
330
18
100
AcDbEntity
  8
1
  6
Continuous
100
AcDbLine
 10
371.4262875067829
 20
254.9547122758555
 30
0.0
 11
371.4262875067829
 21
224.9547122758555
 31
0.0
  0
LINE
  5
2E3A
330
18
100
AcDbEntity
  8
1
  6
Continuous
100
AcDbLine
 10
416.4262875067828
 20
254.9547122758557
 30
0.0
 11
416.4262875067828
 21
224.9547122758555
 31
0.0
  0
ARC
  5
2E3B
330
18
100
AcDbEntity
  8
1
  6
Continuous
100
AcDbCircle
 10
412.784636958719
 20
236.9547090745864
 30
0.0
 40
12.54166054806418
100
AcDbArc
 50
336.9649625403189
 51
345.5597330849276
  0
LINE
  5
2E3C
330
18
100
AcDbEntity
  8
1
  6
Continuous
100
AcDbLine
 10
425.3262975067826
 20
228.4547122758555
 30
0.0
 11
425.3262975067826
 21
234.4680778290313
 31
0.0
  0
LINE
  5
2E3D
330
18
100
AcDbEntity
  8
1
  6
Continuous
100
AcDbLine
 10
426.926287506783
 20
229.6547092758555
 30
0.0
 11
426.926287506783
 21
244.2547112758554
 31
0.0
  0
LINE
  5
2E3E
330
18
100
AcDbEntity
  8
1
  6
Continuous
100
AcDbLine
 10
428.6762975067828
 20
241.9547070745863
 30
0.0
 11
428.6762975067828
 21
231.9547070745863
 31
0.0
  0
LINE
  5
2E3F
330
18
100
AcDbEntity
  8
1
  6
Continuous
100
AcDbLine
 10
429.4262975067828
 20
232.7047070745864
 30
0.0
 11
429.4262975067828
 21
241.2047070745864
 31
0.0
  0
LINE
  5
2E40
330
18
100
AcDbEntity
  8
1
  6
Continuous
100
AcDbLine
 10
372.4262875067828
 20
256.9547122758556
 30
0.0
 11
372.4262875067828
 21
216.9547122758554
 31
0.0
  0
LINE
  5
2E41
330
18
100
AcDbEntity
  8
1
  6
Continuous
100
AcDbLine
 10
415.4262875067828
 20
256.9547122758556
 30
0.0
 11
415.4262875067828
 21
216.9547122758554
 31
0.0
  0
LINE
  5
2E42
330
18
100
AcDbEntity
  8
1
  6
Continuous
100
AcDbLine
 10
413.9262875067828
 20
264.6371706413737
 30
0.0
 11
413.9262875067816
 21
205.2326627851969
 31
0.0
  0
LINE
  5
2E43
330
18
100
AcDbEntity
  8
1
  6
Continuous
100
AcDbLine
 10
373.9262875067828
 20
264.6371706413745
 30
0.0
 11
373.9262875067828
 21
205.2326612572958
 31
0.0
  0
LINE
  5
2E46
330
18
100
AcDbEntity
  8
4
  6
CENTER
 48
0.5
100
AcDbLine
 10
393.9262875067829
 20
193.4547122758553
 30
0.0
 11
393.9262875067829
 21
305.4547122758553
 31
0.0
  0
ARC
  5
2E4A
330
18
100
AcDbEntity
  8
1
  6
Continuous
100
AcDbCircle
 10
393.9262875067829
 20
349.4547122758554
 30
0.0
 40
150.0
100
AcDbArc
 50
264.0622275483933
 51
275.9377899999995
  0
ARC
  5
2E4B
330
18
100
AcDbEntity
  8
1
  6
Continuous
100
AcDbCircle
 10
414.4262875067828
 20
216.9547122758554
 30
0.0
 40
1.0
100
AcDbArc
 50
279.9999999999986
 51
0.0000100000010134
  0
ARC
  5
2E4D
330
18
100
AcDbEntity
  8
1
  6
Continuous
100
AcDbCircle
 10
408.9262875067828
 20
205.2326662758554
 30
0.0
 40
5.0
100
AcDbArc
 50
275.9378099999979
 51
359.9999600000008
  0
LINE
  5
2E4E
330
18
100
AcDbEntity
  8
1
  6
Continuous
100
AcDbLine
 10
414.599940506783
 20
215.9699062758553
 30
0.0
 11
413.9262875067828
 21
215.8511242758553
 31
0.0
  0
LINE
  5
2E4F
330
18
100
AcDbEntity
  8
1
  6
Continuous
100
AcDbLine
 10
425.3262975067826
 20
228.4547122758555
 30
0.0
 11
424.0113417493727
 21
227.1397565184455
 31
0.0
  0
LINE
  5
2E51
330
18
100
AcDbEntity
  8
1
  6
Continuous
100
AcDbLine
 10
416.4262875067828
 20
224.9547122758555
 30
0.0
 11
420.4262875067828
 21
224.9547122758555
 31
0.0
  0
LINE
  5
2E52
330
18
100
AcDbEntity
  8
1
  6
Continuous
100
AcDbLine
 10
424.0113417493724
 20
227.1397565184455
 30
0.0
 11
420.4262875067827
 21
227.1397565184455
 31
0.0
  0
LINE
  5
2E53
330
18
100
AcDbEntity
  8
2
  6
Continuous
100
AcDbLine
 10
429.4262975067828
 20
232.7667070744433
 30
0.0
 11
426.9262875067828
 21
232.7667070744433
 31
0.0
  0
LINE
  5
2E54
330
18
100
AcDbEntity
  8
1
  6
Continuous
100
AcDbLine
 10
428.6762975067828
 20
231.9547070745863
 30
0.0
 11
426.926287506783
 21
231.9547070745863
 31
0.0
  0
ARC
  5
2E55
330
18
100
AcDbEntity
  8
1
  6
Continuous
100
AcDbCircle
 10
421.8454799157668
 20
229.5934947758555
 30
0.0
 40
3.48931044130072
100
AcDbArc
 50
335.5837416246918
 51
44.68558143814952
  0
ARC
  5
2E56
330
18
100
AcDbEntity
  8
1
  6
Continuous
100
AcDbCircle
 10
425.7262875067828
 20
229.6547092758555
 30
0.0
 40
1.199999999999999
100
AcDbArc
 50
270.0
 51
359.9999900000006
  0
LINE
  5
2E57
330
18
100
AcDbEntity
  8
1
  6
Continuous
100
AcDbLine
 10
424.3262975067827
 20
232.0472330332654
 30
0.0
 11
423.4886640919031
 21
232.0472330332654
 31
0.0
  0
LINE
  5
2E58
330
18
100
AcDbEntity
  8
1
  6
Continuous
100
AcDbLine
 10
425.7262875067828
 20
228.4547122758555
 30
0.0
 11
425.3262975067826
 21
228.4547122758555
 31
0.0
  0
LINE
  5
2E59
330
18
100
AcDbEntity
  8
1
  6
Continuous
100
AcDbLine
 10
429.4262975067828
 20
232.7047110745862
 30
0.0
 11
428.6762975067828
 21
231.9547070745862
 31
0.0
  0
LINE
  5
2E5A
330
18
100
AcDbEntity
  8
1
  6
Continuous
100
AcDbLine
 10
415.4262875067828
 20
228.1547120758554
 30
0.0
 11
416.2262875067828
 21
228.1547120758554
 31
0.0
  0
ARC
  5
2E5C
330
18
100
AcDbEntity
  8
1
  6
Continuous
100
AcDbCircle
 10
416.2262875067828
 20
228.3547120758553
 30
0.0
 40
0.2
100
AcDbArc
 50
270.0
 51
0.000000000000007
  0
ARC
  5
2E5D
330
18
100
AcDbEntity
  8
1
  6
Continuous
100
AcDbCircle
 10
373.4262875067829
 20
216.9547122758554
 30
0.0
 40
1.0
100
AcDbArc
 50
180.0
 51
260.0000000000013
  0
ARC
  5
2E5F
330
18
100
AcDbEntity
  8
1
  6
Continuous
100
AcDbCircle
 10
378.9262875067828
 20
205.2326612572958
 30
0.0
 40
5.0
100
AcDbArc
 50
180.0
 51
264.0622275483933
  0
LINE
  5
2E60
330
18
100
AcDbEntity
  8
1
  6
Continuous
100
AcDbLine
 10
373.2526425067828
 20
215.9699042758553
 30
0.0
 11
373.9262875067828
 21
215.8511222758553
 31
0.0
  0
LINE
  5
2E62
330
18
100
AcDbEntity
  8
1
  6
Continuous
100
AcDbLine
 10
367.4262875067829
 20
224.9547122758555
 30
0.0
 11
371.4262875067829
 21
224.9547122758555
 31
0.0
  0
LINE
  5
2E63
330
18
100
AcDbEntity
  8
1
  6
Continuous
100
AcDbLine
 10
372.4262875067828
 20
228.1547120758554
 30
0.0
 11
371.626287506783
 21
228.1547120758554
 31
0.0
  0
ARC
  5
2E65
330
18
100
AcDbEntity
  8
1
  6
Continuous
100
AcDbCircle
 10
371.626287506783
 20
228.3547120758553
 30
0.0
 40
0.2
100
AcDbArc
 50
180.0
 51
270.0
  0
ARC
  5
2E66
330
18
100
AcDbEntity
  8
1
  6
Continuous
100
AcDbCircle
 10
366.0262855067828
 20
228.7047122758555
 30
0.0
 40
0.5
100
AcDbArc
 50
201.9513100000001
 51
274.9999999999997
  0
LINE
  5
2E67
330
18
100
AcDbEntity
  8
1
  6
Continuous
100
AcDbLine
 10
366.0698655067824
 20
228.2066122758556
 30
0.0
 11
367.4262875067827
 21
228.3252792758555
 31
0.0
  0
ARC
  5
2E6A
330
18
100
AcDbEntity
  8
1
  6
Continuous
100
AcDbCircle
 10
420.9262875067826
 20
279.9825762758556
 30
0.0
 40
5.0
100
AcDbArc
 50
0.000000000000007
 51
48.18969600000015
  0
ARC
  5
2E6B
330
18
100
AcDbEntity
  8
1
  6
Continuous
100
AcDbCircle
 10
366.9262875067827
 20
279.9825762758554
 30
0.0
 40
5.0
100
AcDbArc
 50
126.8699200000031
 51
179.9999600000008
  0
ARC
  5
2E6D
330
18
100
AcDbEntity
  8
1
  6
Continuous
100
AcDbCircle
 10
393.9262875067829
 20
124.4547122758555
 30
0.0
 40
150.0
100
AcDbArc
 50
87.04016778720861
 51
92.95983221279158
  0
LINE
  5
2E6E
330
18
100
AcDbEntity
  8
1
  6
Continuous
100
AcDbLine
 10
425.9262835067828
 20
279.9825762758556
 30
0.0
 11
426.9109288661011
 21
241.0616484244915
 31
0.0
  0
LINE
  5
2E70
330
18
100
AcDbEntity
  8
2
  6
Continuous
100
AcDbLine
 10
429.4262975067828
 20
241.1427070744433
 30
0.0
 11
426.9262875067828
 21
241.1427070744433
 31
0.0
  0
LINE
  5
2E71
330
18
100
AcDbEntity
  8
1
  6
Continuous
100
AcDbLine
 10
428.6762975067828
 20
241.9547070745863
 30
0.0
 11
426.926287506783
 21
241.9547070745863
 31
0.0
  0
ARC
  5
2E75
330
18
100
AcDbEntity
  8
1
  6
Continuous
100
AcDbCircle
 10
425.7262875067828
 20
244.2547112758554
 30
0.0
 40
1.199999999999999
100
AcDbArc
 50
0.000000000000007
 51
24.58295012092763
  0
LINE
  5
2E78
330
18
100
AcDbEntity
  8
1
  6
Continuous
100
AcDbLine
 10
428.6763575067832
 20
241.9547600745863
 30
0.0
 11
429.4263575067832
 21
241.2047600745863
 31
0.0
  0
LINE
  5
2E79
330
18
100
AcDbEntity
  8
1
  6
Continuous
100
AcDbLine
 10
415.4262875067828
 20
245.7547124758556
 30
0.0
 11
416.2262875067828
 21
245.7547124758556
 31
0.0
  0
ARC
  5
2E7A
330
18
100
AcDbEntity
  8
1
  6
Continuous
100
AcDbCircle
 10
416.2262875067828
 20
245.5547124758556
 30
0.0
 40
0.2
100
AcDbArc
 50
0.000000000000007
 51
90.0
  0
ARC
  5
2E7B
330
18
100
AcDbEntity
  8
1
  6
Continuous
100
AcDbCircle
 10
414.4262875067828
 20
256.9547122758556
 30
0.0
 40
1.0
100
AcDbArc
 50
359.9999900000006
 51
80.00000000000142
  0
LINE
  5
2E7C
330
18
100
AcDbEntity
  8
1
  6
Continuous
100
AcDbLine
 10
414.599940506783
 20
257.9395182758554
 30
0.0
 11
413.9262875067828
 21
258.0583002758554
 31
0.0
  0
ARC
  5
2E7E
330
18
100
AcDbEntity
  8
1
  6
Continuous
100
AcDbCircle
 10
396.4262875067827
 20
254.9547122758556
 30
0.0
 40
20.0
100
AcDbArc
 50
0.0000000000002443
 51
91.53799920212104
  0
ARC
  5
2E7F
330
18
100
AcDbEntity
  8
1
  6
Continuous
100
AcDbCircle
 10
391.4262875067827
 20
254.9547122758556
 30
0.0
 40
20.0
100
AcDbArc
 50
88.46507073606257
 51
180.0000000000002
  0
LINE
  5
2E80
330
18
100
AcDbEntity
  8
1
  6
Continuous
100
AcDbLine
 10
361.9262775067827
 20
279.9825762758554
 30
0.0
 11
360.9416265505974
 21
241.0612613384086
 31
0.0
  0
LINE
  5
2E82
330
18
100
AcDbEntity
  8
1
  6
Continuous
100
AcDbLine
 10
372.4262875067828
 20
245.7547124758556
 30
0.0
 11
371.626287506783
 21
245.7547124758556
 31
0.0
  0
ARC
  5
2E83
330
18
100
AcDbEntity
  8
1
  6
Continuous
100
AcDbCircle
 10
371.626287506783
 20
245.5547124758556
 30
0.0
 40
0.2
100
AcDbArc
 50
90.0
 51
180.0
  0
ARC
  5
2E86
330
18
100
AcDbEntity
  8
1
  6
Continuous
100
AcDbCircle
 10
373.4262875067829
 20
256.9547122758556
 30
0.0
 40
1.0
100
AcDbArc
 50
99.99999999999859
 51
180.0
  0
LINE
  5
2E87
330
18
100
AcDbEntity
  8
1
  6
Continuous
100
AcDbLine
 10
373.2526425067828
 20
257.9395202758554
 30
0.0
 11
373.9262875067827
 21
258.0583022758555
 31
0.0
  0
LINE
  5
2E89
330
18
100
AcDbEntity
  8
1
  6
Continuous
100
AcDbLine
 10
364.9826075067828
 20
288.8547122758554
 30
0.0
 11
422.8699675067829
 21
288.8547122758554
 31
0.0
  0
LINE
  5
2E8B
330
18
100
AcDbEntity
  8
1
  6
Continuous
100
AcDbLine
 10
363.3284675067827
 20
283.4547122758554
 30
0.0
 11
424.5241035067828
 21
283.4547122758554
 31
0.0
  0
LINE
  5
2E8D
330
18
100
AcDbEntity
  8
4
  6
CENTER
 48
0.2
100
AcDbLine
 10
425.4262875067828
 20
302.8487475758554
 30
0.0
 11
425.4262875067828
 21
292.6698611758557
 31
0.0
  0
LINE
  5
2E8E
330
18
100
AcDbEntity
  8
1
  6
Continuous
100
AcDbLine
 10
423.9262765067826
 20
292.4547165758556
 30
0.0
 11
422.8699595067825
 21
288.8547162758554
 31
0.0
  0
ARC
  5
2E8F
330
18
100
AcDbEntity
  8
1
  6
Continuous
100
AcDbCircle
 10
424.9262875067826
 20
284.4547122758553
 30
0.0
 40
1.0
100
AcDbArc
 50
179.9999799999995
 51
228.1895899999979
  0
ARC
  5
2E90
330
18
100
AcDbEntity
  8
1
  6
Continuous
100
AcDbCircle
 10
417.9262875067826
 20
285.4547122758553
 30
0.0
 40
6.0
100
AcDbArc
 50
0.000000000000007
 51
34.51812000000098
  0
LINE
  5
2E91
330
18
100
AcDbEntity
  8
1
  6
Continuous
100
AcDbLine
 10
423.9262875067827
 20
285.4547122758553
 30
0.0
 11
423.9262875067827
 21
284.4547122758553
 31
0.0
  0
LINE
  5
2E94
330
18
100
AcDbEntity
  8
4
  6
CENTER
 48
0.2
100
AcDbLine
 10
362.4262875067828
 20
302.8487475758554
 30
0.0
 11
362.4262875067828
 21
292.6698611758557
 31
0.0
  0
LINE
  5
2E95
330
18
100
AcDbEntity
  8
1
  6
Continuous
100
AcDbLine
 10
363.9262775067827
 20
292.4547108758554
 30
0.0
 11
364.9825975067826
 21
288.8547112758553
 31
0.0
  0
ARC
  5
2E96
330
18
100
AcDbEntity
  8
1
  6
Continuous
100
AcDbCircle
 10
369.9262875067827
 20
285.4547122758553
 30
0.0
 40
6.0
100
AcDbArc
 50
145.4819099999985
 51
179.9999600000008
  0
ARC
  5
2E97
330
18
100
AcDbEntity
  8
1
  6
Continuous
100
AcDbCircle
 10
362.9262875067827
 20
284.4547122758553
 30
0.0
 40
1.0
100
AcDbArc
 50
311.8102200000011
 51
0.000000000000007
  0
LINE
  5
2E98
330
18
100
AcDbEntity
  8
1
  6
Continuous
100
AcDbLine
 10
363.9262875067827
 20
285.4547122758553
 30
0.0
 11
363.9262875067827
 21
284.4547122758553
 31
0.0
  0
LINE
  5
30E1
330
18
100
AcDbEntity
  8
4
  6
CENTER
 48
0.5
100
AcDbLine
 10
585.5994958302562
 20
193.4547122758556
 30
0.0
 11
585.5994958302562
 21
280.4547122758556
 31
0.0
  0
ARC
  5
30E2
330
18
100
AcDbEntity
  8
1
  6
Continuous
100
AcDbCircle
 10
585.5994958302559
 20
236.9547122758555
 30
0.0
 40
12.0
100
AcDbArc
 50
248.2249700000003
 51
51.85546999999814
  0
LINE
  5
30E3
330
18
100
AcDbEntity
  8
1
  6
Continuous
100
AcDbLine
 10
573.5246358302561
 20
232.4842452758556
 30
0.0
 11
582.8278738302563
 21
280.3452662758555
 31
0.0
  0
LINE
  5
30E4
330
18
100
AcDbEntity
  8
1
  6
Continuous
100
AcDbLine
 10
577.0994958302559
 20
241.8621915184455
 30
0.0
 11
577.0994958302559
 21
232.0472330332656
 31
0.0
  0
CIRCLE
  5
30E5
330
18
100
AcDbEntity
  8
1
  6
Continuous
100
AcDbCircle
 10
585.5994958302559
 20
236.9547122758555
 30
0.0
 40
5.0
  0
CIRCLE
  5
30E6
330
18
100
AcDbEntity
  8
2
  6
Continuous
100
AcDbCircle
 10
585.5994958302559
 20
236.9547122758555
 30
0.0
 40
4.187999999999998
  0
ARC
  5
30E7
330
18
100
AcDbEntity
  8
1
  6
Continuous
100
AcDbCircle
 10
585.5994958302559
 20
236.9547122758555
 30
0.0
 40
6.0
100
AcDbArc
 50
138.5903699999986
 51
221.4096300000012
  0
LINE
  5
30E8
330
18
100
AcDbEntity
  8
1
  6
Continuous
100
AcDbLine
 10
594.0994958302559
 20
241.8621828916284
 30
0.0
 11
594.0994958302559
 21
232.0472330332656
 31
0.0
  0
CIRCLE
  5
30E9
330
18
100
AcDbEntity
  8
1
  6
Continuous
100
AcDbCircle
 10
585.5994958302559
 20
236.9547122758555
 30
0.0
 40
8.5
  0
CIRCLE
  5
30EA
330
18
100
AcDbEntity
  8
1
  6
Continuous
100
AcDbCircle
 10
585.5994958302559
 20
236.9547122758555
 30
0.0
 40
6.5
  0
ARC
  5
30EB
330
18
100
AcDbEntity
  8
1
  6
Continuous
100
AcDbCircle
 10
585.5994958302559
 20
236.9547122758555
 30
0.0
 40
6.0
100
AcDbArc
 50
318.5903800000012
 51
41.40962399999905
  0
ARC
  5
30EC
330
18
100
AcDbEntity
  8
1
  6
Continuous
100
AcDbCircle
 10
585.5994958302562
 20
236.9547122758555
 30
0.0
 40
23.0
100
AcDbArc
 50
183.4096278924029
 51
91.68955054001648
  0
ARC
  5
30ED
330
18
100
AcDbEntity
  8
1
  6
Continuous
100
AcDbCircle
 10
585.5994958302562
 20
236.9547122758555
 30
0.0
 40
21.0
100
AcDbArc
 50
187.5752513414639
 51
90.0
  0
CIRCLE
  5
30EF
330
18
100
AcDbEntity
  8
1
  6
Continuous
100
AcDbCircle
 10
585.5994958302562
 20
236.9547122758555
 30
0.0
 40
5.0
  0
ARC
  5
30F0
330
18
100
AcDbEntity
  8
1
  6
Continuous
100
AcDbCircle
 10
585.5994958302562
 20
236.9547122758555
 30
0.0
 40
15.49999899999999
100
AcDbArc
 50
205.8292515599973
 51
81.91421757027653
  0
ARC
  5
30F1
330
18
100
AcDbEntity
  8
1
  6
Continuous
100
AcDbCircle
 10
585.5994958302562
 20
236.9547122758555
 30
0.0
 40
15.0
100
AcDbArc
 50
208.4860487044793
 51
80.28399202274187
  0
ARC
  5
30F4
330
18
100
AcDbEntity
  8
1
  6
Continuous
100
AcDbCircle
 10
617.8733228302559
 20
317.7470362758555
 30
0.0
 40
99.0
100
AcDbArc
 50
205.6101499999997
 51
248.2249499999995
  0
ARC
  5
30F5
330
18
100
AcDbEntity
  8
1
  6
Continuous
100
AcDbCircle
 10
585.5994958302562
 20
236.9547122758555
 30
0.0
 40
37.5
100
AcDbArc
 50
165.4953255626207
 51
85.10540423657804
  0
LINE
  5
30F7
330
18
100
AcDbEntity
  8
1
  6
Continuous
100
AcDbLine
 10
577.0994958302557
 20
232.0472330332655
 30
0.0
 11
585.5994958302557
 21
227.1397565184455
 31
0.0
  0
LINE
  5
30F8
330
18
100
AcDbEntity
  8
4
  6
CENTER
 48
0.5
100
AcDbLine
 10
542.0994958302562
 20
236.9547122758555
 30
0.0
 11
629.0994958302563
 21
236.9547122758555
 31
0.0
  0
LINE
  5
30F9
330
18
100
AcDbEntity
  8
1
  6
Continuous
100
AcDbLine
 10
585.5994958302562
 20
227.1397565184455
 30
0.0
 11
594.0994958302562
 21
232.0472330332655
 31
0.0
  0
LINE
  5
30FA
330
18
100
AcDbEntity
  8
1
  6
Continuous
100
AcDbLine
 10
582.3494878302557
 20
233.1550372758556
 30
0.0
 11
581.4039848302559
 21
232.8952412758555
 31
0.0
  0
ARC
  5
30FB
330
18
100
AcDbEntity
  8
1
  6
Continuous
100
AcDbCircle
 10
581.3244938302561
 20
233.1845172758555
 30
0.0
 40
0.30000001
100
AcDbArc
 50
221.4096199999987
 51
285.3642399999976
  0
LINE
  5
30FC
330
18
100
AcDbEntity
  8
1
  6
Continuous
100
AcDbLine
 10
588.8494958302559
 20
233.1550452758557
 30
0.0
 11
589.7950138302562
 21
232.8952412758555
 31
0.0
  0
ARC
  5
30FD
330
18
100
AcDbEntity
  8
1
  6
Continuous
100
AcDbCircle
 10
589.8744978302561
 20
233.1845172758555
 30
0.0
 40
0.30000001
100
AcDbArc
 50
254.6357600000024
 51
318.5903800000012
  0
LINE
  5
30FF
330
18
100
AcDbEntity
  8
1
  6
Continuous
100
AcDbLine
 10
603.5994958302559
 20
299.4547122758556
 30
0.0
 11
521.5994958302559
 21
299.4547122758556
 31
0.0
  0
LINE
  5
3100
330
18
100
AcDbEntity
  8
1
  6
Continuous
100
AcDbLine
 10
528.5994878302559
 20
274.9547122758556
 30
0.0
 11
529.9371348302561
 21
281.8363292758556
 31
0.0
  0
ARC
  5
3101
330
18
100
AcDbEntity
  8
1
  6
Continuous
100
AcDbCircle
 10
595.5994958302559
 20
278.4547122758556
 30
0.0
 40
5.0
100
AcDbArc
 50
0.0000399999991474
 51
90.00001799999918
  0
LINE
  5
3102
330
18
100
AcDbEntity
  8
1
  6
Continuous
100
AcDbLine
 10
590.1205986445038
 20
275.9363394945111
 30
0.0
 11
591.3912120160082
 21
282.4730850572001
 31
0.0
  0
LINE
  5
3103
330
18
100
AcDbEntity
  8
4
  6
CENTER
 48
0.5
100
AcDbLine
 10
562.5994958302563
 20
305.4547122758556
 30
0.0
 11
562.5994958302563
 21
270.3225431816
 31
0.0
  0
LINE
  5
3104
330
18
100
AcDbEntity
  8
1
  6
Continuous
100
AcDbLine
 10
577.0994958302557
 20
241.8621915184455
 30
0.0
 11
585.5994963730952
 21
246.769668346674
 31
0.0
  0
ARC
  5
3105
330
18
100
AcDbEntity
  8
1
  6
Continuous
100
AcDbCircle
 10
606.5994958302559
 20
263.6941992758555
 30
0.0
 40
22.0
100
AcDbArc
 50
160.8051299999995
 51
231.8554899999991
  0
LINE
  5
3106
330
18
100
AcDbEntity
  8
1
  6
Continuous
100
AcDbLine
 10
585.5994963730953
 20
246.7696683466738
 30
0.0
 11
594.0994958302562
 21
241.8621828916282
 31
0.0
  0
LINE
  5
3107
330
18
100
AcDbEntity
  8
1
  6
Continuous
100
AcDbLine
 10
582.3494958302559
 20
240.7543792758556
 30
0.0
 11
581.4039848302561
 21
241.0141832758556
 31
0.0
  0
ARC
  5
3108
330
18
100
AcDbEntity
  8
1
  6
Continuous
100
AcDbCircle
 10
581.3244938302561
 20
240.7249072758555
 30
0.0
 40
0.30000001
100
AcDbArc
 50
74.63575799999734
 51
138.5903800000012
  0
LINE
  5
3109
330
18
100
AcDbEntity
  8
1
  6
Continuous
100
AcDbLine
 10
588.8494958302559
 20
240.7543792758556
 30
0.0
 11
589.7950068302559
 21
241.0141832758556
 31
0.0
  0
ARC
  5
310A
330
18
100
AcDbEntity
  8
1
  6
Continuous
100
AcDbCircle
 10
589.8744978302561
 20
240.7249072758555
 30
0.0
 40
0.30000001
100
AcDbArc
 50
41.4096170000004
 51
105.3642400000038
  0
LINE
  5
310B
330
18
100
AcDbEntity
  8
1
  6
Continuous
100
AcDbLine
 10
599.9191655302561
 20
274.9547122758556
 30
0.0
 11
591.4890028302561
 21
274.9547122758556
 31
0.0
  0
LINE
  5
310C
330
18
100
AcDbEntity
  8
1
  6
Continuous
100
AcDbLine
 10
600.5994963302562
 20
278.4547122758556
 30
0.0
 11
599.9191655302561
 21
274.9547102758556
 31
0.0
  0
ARC
  5
310D
330
18
100
AcDbEntity
  8
1
  6
Continuous
100
AcDbCircle
 10
591.4890028302561
 20
268.9547122758556
 30
0.0
 40
6.0
100
AcDbArc
 50
90.00001799999918
 51
160.8051310000003
  0
LINE
  5
310E
330
18
100
AcDbEntity
  8
1
  6
Continuous
100
AcDbLine
 10
591.5431798302561
 20
288.8547122758557
 30
0.0
 11
533.6558158302562
 21
288.8547122758557
 31
0.0
  0
LINE
  5
3110
330
18
100
AcDbEntity
  8
1
  6
Continuous
100
AcDbLine
 10
595.5994958302559
 20
283.4547122758556
 30
0.0
 11
531.9003988302561
 21
283.4547122758556
 31
0.0
  0
LINE
  5
3112
330
18
100
AcDbEntity
  8
4
  6
CENTER
 48
0.2
100
AcDbLine
 10
594.0994958302564
 20
302.8487475758556
 30
0.0
 11
594.0994958302564
 21
292.6698611758558
 31
0.0
  0
LINE
  5
3113
330
18
100
AcDbEntity
  8
1
  6
Continuous
100
AcDbLine
 10
592.5994938302562
 20
292.4547127758555
 30
0.0
 11
591.543177830256
 21
288.8547132758557
 31
0.0
  0
ARC
  5
3114
330
18
100
AcDbEntity
  8
1
  6
Continuous
100
AcDbCircle
 10
586.5994958302559
 20
285.4547122758556
 30
0.0
 40
6.0
100
AcDbArc
 50
0.0000399999991474
 51
34.51809000000135
  0
ARC
  5
3115
330
18
100
AcDbEntity
  8
1
  6
Continuous
100
AcDbCircle
 10
593.5994958302559
 20
284.4547122758556
 30
0.0
 40
1.0
100
AcDbArc
 50
180.0
 51
269.999979999998
  0
LINE
  5
3116
330
18
100
AcDbEntity
  8
1
  6
Continuous
100
AcDbLine
 10
592.5994958302559
 20
285.4547122758556
 30
0.0
 11
592.5994958302559
 21
284.4547122758556
 31
0.0
  0
LINE
  5
3119
330
18
100
AcDbEntity
  8
4
  6
CENTER
 48
0.2
100
AcDbLine
 10
531.0994958302564
 20
302.8487475758556
 30
0.0
 11
531.0994958302564
 21
292.6698611758558
 31
0.0
  0
LINE
  5
311A
330
18
100
AcDbEntity
  8
1
  6
Continuous
100
AcDbLine
 10
532.5995108302563
 20
292.4547146758555
 30
0.0
 11
533.6558308302564
 21
288.8547142758556
 31
0.0
  0
ARC
  5
311B
330
18
100
AcDbEntity
  8
1
  6
Continuous
100
AcDbCircle
 10
531.9003988302561
 20
281.4547122758556
 30
0.0
 40
2.0
100
AcDbArc
 50
90.00001799999918
 51
169.0000519999992
  0
ARC
  5
311C
330
18
100
AcDbEntity
  8
1
  6
Continuous
100
AcDbCircle
 10
531.5994958302559
 20
284.4547122758556
 30
0.0
 40
1.0
100
AcDbArc
 50
269.999969999997
 51
0.0000200000003914
  0
ARC
  5
311D
330
18
100
AcDbEntity
  8
1
  6
Continuous
100
AcDbCircle
 10
538.5994958302559
 20
285.4547122758556
 30
0.0
 40
6.0
100
AcDbArc
 50
145.481879999999
 51
180.0
  0
LINE
  5
311E
330
18
100
AcDbEntity
  8
1
  6
Continuous
100
AcDbLine
 10
532.5994958302559
 20
285.4547122758556
 30
0.0
 11
532.5994958302559
 21
284.4547122758556
 31
0.0
  0
CIRCLE
  5
31C8
330
18
100
AcDbEntity
  8
1
  6
Continuous
100
AcDbCircle
 10
202.2530791833096
 20
236.9547122758555
 30
0.0
 40
8.75
  0
LINE
  5
3243
330
18
100
AcDbEntity
  8
1
  6
Continuous
100
AcDbLine
 10
266.2530791833096
 20
57.18278973032806
 30
0.0
 11
266.2530791833096
 21
120.1827897303281
 31
0.0
  0
LINE
  5
3246
330
18
100
AcDbEntity
  8
1
  6
Continuous
100
AcDbLine
 10
184.2530791833094
 20
57.18278973032806
 30
0.0
 11
184.2530791833094
 21
67.18278973032828
 31
0.0
  0
LINE
  5
3247
330
18
100
AcDbEntity
  8
4
  6
CENTER
 48
0.5
100
AcDbLine
 10
225.2530791833098
 20
41.682789730328
 30
0.0
 11
225.2530791833098
 21
135.6827897303281
 31
0.0
  0
ARC
  5
3248
330
18
100
AcDbEntity
  8
1
  6
Continuous
100
AcDbCircle
 10
314.7530791833097
 20
88.68278973032785
 30
0.0
 40
150.0
100
AcDbArc
 50
174.0622100000003
 51
185.9377724516049
  0
ARC
  5
324D
330
18
100
AcDbEntity
  8
1
  6
Continuous
100
AcDbCircle
 10
256.7530791833096
 20
120.1827897303281
 30
0.0
 40
9.5
100
AcDbArc
 50
359.9999799999995
 51
90.00002999999653
  0
LINE
  5
324E
330
18
100
AcDbEntity
  8
4
  6
CENTER
 48
0.2
100
AcDbLine
 10
262.7530791833098
 20
120.1827897303281
 30
0.0
 11
250.7530791833096
 21
120.1827897303281
 31
0.0
  0
LINE
  5
3252
330
18
100
AcDbEntity
  8
1
  6
Continuous
100
AcDbLine
 10
256.7530791833096
 20
129.6827897303282
 30
0.0
 11
193.7530791833094
 21
129.6827897303282
 31
0.0
  0
ARC
  5
3253
330
18
100
AcDbEntity
  8
1
  6
Continuous
100
AcDbCircle
 10
193.7530791833094
 20
120.1827897303281
 30
0.0
 40
9.5
100
AcDbArc
 50
90.00001999999552
 51
180.0
  0
ARC
  5
3254
330
18
100
AcDbEntity
  8
1
  6
Continuous
100
AcDbCircle
 10
193.7530791833094
 20
120.1827897303281
 30
0.0
 40
4.400000099999996
100
AcDbArc
 50
333.4568107797783
 51
267.6261283695636
  0
LINE
  5
3255
330
18
100
AcDbEntity
  8
4
  6
CENTER
 48
0.2
100
AcDbLine
 10
193.7530791833094
 20
114.1827897303281
 30
0.0
 11
193.7530791833094
 21
126.1827897303282
 31
0.0
  0
LINE
  5
3256
330
18
100
AcDbEntity
  8
4
  6
CENTER
 48
0.2
100
AcDbLine
 10
199.7530791833096
 20
120.1827897303281
 30
0.0
 11
187.7530791833094
 21
120.1827897303281
 31
0.0
  0
LINE
  5
3257
330
18
100
AcDbEntity
  8
1
  6
Continuous
100
AcDbLine
 10
170.5310296926513
 20
108.6827897303268
 30
0.0
 11
233.9751251833049
 21
108.6827897303849
 31
0.0
  0
ARC
  5
3258
330
18
100
AcDbEntity
  8
1
  6
Continuous
100
AcDbCircle
 10
170.5310331833097
 20
103.6827897303281
 30
0.0
 40
5.0
100
AcDbArc
 50
90.00003999999753
 51
174.0621900000017
  0
LINE
  5
3259
330
18
100
AcDbEntity
  8
4
  6
CENTER
 48
0.2
100
AcDbLine
 10
256.7530791833096
 20
114.1827897303281
 30
0.0
 11
256.7530791833096
 21
126.1827897303282
 31
0.0
  0
CIRCLE
  5
325A
330
18
100
AcDbEntity
  8
1
  6
Continuous
100
AcDbCircle
 10
256.7530791833096
 20
120.1827897303281
 30
0.0
 40
4.400000099999996
  0
LINE
  5
325B
330
18
100
AcDbEntity
  8
4
  6
CENTER
 48
0.2
100
AcDbLine
 10
262.7530791833098
 20
57.18278973032806
 30
0.0
 11
250.7530791833096
 21
57.18278973032806
 31
0.0
  0
ARC
  5
325C
330
18
100
AcDbEntity
  8
1
  6
Continuous
100
AcDbCircle
 10
256.7530791833096
 20
57.18278973032806
 30
0.0
 40
9.5
100
AcDbArc
 50
269.9999820000007
 51
359.9999599999991
  0
LINE
  5
325D
330
18
100
AcDbEntity
  8
4
  6
CENTER
 48
0.5
100
AcDbLine
 10
272.2530791833095
 20
88.68278973032829
 30
0.0
 11
158.7530791833096
 21
88.68278973032824
 31
0.0
  0
ARC
  5
325E
330
18
100
AcDbEntity
  8
1
  6
Continuous
100
AcDbCircle
 10
193.7530791833094
 20
57.18278973032806
 30
0.0
 40
9.5
100
AcDbArc
 50
180.0
 51
269.9999820000007
  0
LINE
  5
325F
330
18
100
AcDbEntity
  8
1
  6
Continuous
100
AcDbLine
 10
256.7530791833096
 20
47.68278973032805
 30
0.0
 11
193.7530791833094
 21
47.68278973032805
 31
0.0
  0
ARC
  5
3260
330
18
100
AcDbEntity
  8
1
  6
Continuous
100
AcDbCircle
 10
170.53102816475
 20
73.68278973032807
 30
0.0
 40
5.0
100
AcDbArc
 50
185.9377724516049
 51
270.0
  0
LINE
  5
3262
330
18
100
AcDbEntity
  8
1
  6
Continuous
100
AcDbLine
 10
170.53102816475
 20
68.68278973032807
 30
0.0
 11
233.9751302018733
 21
68.68278973038063
 31
0.0
  0
ARC
  5
3263
330
18
100
AcDbEntity
  8
1
  6
Continuous
100
AcDbCircle
 10
193.7530791833094
 20
57.18278973032806
 30
0.0
 40
4.400000099999996
100
AcDbArc
 50
90.0
 51
322.6983197615248
  0
LINE
  5
3264
330
18
100
AcDbEntity
  8
4
  6
CENTER
 48
0.2
100
AcDbLine
 10
193.7530791833094
 20
51.18278973032808
 30
0.0
 11
193.7530791833094
 21
63.18278973032807
 31
0.0
  0
LINE
  5
3265
330
18
100
AcDbEntity
  8
4
  6
CENTER
 48
0.2
100
AcDbLine
 10
199.7530791833096
 20
57.18278973032806
 30
0.0
 11
187.7530791833094
 21
57.18278973032806
 31
0.0
  0
LINE
  5
3266
330
18
100
AcDbEntity
  8
4
  6
CENTER
 48
0.2
100
AcDbLine
 10
256.7530791833096
 20
51.18278973032808
 30
0.0
 11
256.7530791833096
 21
63.18278973032807
 31
0.0
  0
CIRCLE
  5
3267
330
18
100
AcDbEntity
  8
1
  6
Continuous
100
AcDbCircle
 10
256.7530791833096
 20
57.18278973032806
 30
0.0
 40
4.400000099999996
  0
ARC
  5
32F3
330
18
100
AcDbEntity
  8
1
  6
Continuous
100
AcDbCircle
 10
89.75307918330964
 20
88.68278973032785
 30
0.0
 40
150.0
100
AcDbArc
 50
354.062227548395
 51
5.937789999999678
  0
ARC
  5
32F4
330
18
100
AcDbEntity
  8
1
  6
Continuous
100
AcDbCircle
 10
233.9751302018691
 20
73.68278973032807
 30
0.0
 40
5.0
100
AcDbArc
 50
270.0
 51
354.062227548395
  0
ARC
  5
32F5
330
18
100
AcDbEntity
  8
1
  6
Continuous
100
AcDbCircle
 10
233.9751251833094
 20
103.6827897303281
 30
0.0
 40
5.0
100
AcDbArc
 50
5.937809999998282
 51
89.99996000000248
  0
LINE
  5
32F6
330
18
100
AcDbEntity
  8
1
  6
Continuous
100
AcDbLine
 10
184.2530791833093
 20
110.1827897303282
 30
0.0
 11
184.2530791833094
 21
120.1827897303281
 31
0.0
  0
LINE
  5
32FD
330
18
100
AcDbEntity
  8
1
  6
Continuous
100
AcDbLine
 10
206.5030843845787
 20
53.18277973032831
 30
0.0
 11
198.0030843845787
 21
53.18277973032831
 31
0.0
  0
LINE
  5
32FE
330
18
100
AcDbEntity
  8
1
  6
Continuous
100
AcDbLine
 10
197.2530843845787
 20
53.93277973032829
 30
0.0
 11
207.2530843845787
 21
53.93277973032829
 31
0.0
  0
LINE
  5
3302
330
18
100
AcDbEntity
  8
1
  6
Continuous
100
AcDbLine
 10
190.2530791833098
 20
66.18278973032852
 30
0.0
 11
214.9028723677324
 21
66.18278973032841
 31
0.0
  0
LINE
  5
3303
330
18
100
AcDbEntity
  8
1
  6
Continuous
100
AcDbLine
 10
190.2530791833098
 20
111.1827897303285
 30
0.0
 11
214.9028723677324
 21
111.1827897303284
 31
0.0
  0
LINE
  5
3305
330
18
100
AcDbEntity
  8
1
  6
Continuous
100
AcDbLine
 10
190.2530791833098
 20
62.18278973032872
 30
0.0
 11
214.9028723677324
 21
62.18278973032862
 31
0.0
  0
LINE
  5
3306
330
18
100
AcDbEntity
  8
1
  6
Continuous
100
AcDbLine
 10
193.8979081833096
 20
116.5827917303283
 30
0.0
 11
210.6719181833095
 21
116.5827917303283
 31
0.0
  0
ARC
  5
3308
330
18
100
AcDbEntity
  8
1
  6
Continuous
100
AcDbCircle
 10
202.2530791833096
 20
96.11325573032836
 30
0.0
 40
22.56953
100
AcDbArc
 50
68.04869999999867
 51
111.9513080000005
  0
LINE
  5
3310
330
18
100
AcDbEntity
  8
4
  6
CENTER
 48
0.5
100
AcDbLine
 10
202.2530842018732
 20
50.18277973038066
 30
0.0
 11
202.2530842018732
 21
124.1610300136296
 31
0.0
  0
ARC
  5
3313
330
18
100
AcDbEntity
  8
1
  6
Continuous
100
AcDbCircle
 10
222.2530791833097
 20
68.18278973032832
 30
0.0
 40
1.0
100
AcDbArc
 50
269.999989999999
 51
350.0000000000013
  0
LINE
  5
3315
330
18
100
AcDbEntity
  8
1
  6
Continuous
100
AcDbLine
 10
223.2378851833098
 20
68.00913673032822
 30
0.0
 11
223.3566671833098
 21
68.68278973032828
 31
0.0
  0
LINE
  5
3318
330
18
100
AcDbEntity
  8
1
  6
Continuous
100
AcDbLine
 10
206.5030803845788
 20
53.18277973032831
 30
0.0
 11
207.2530843845788
 21
53.93277973032829
 31
0.0
  0
LINE
  5
331A
330
18
100
AcDbEntity
  8
1
  6
Continuous
100
AcDbLine
 10
207.2530843845787
 20
53.93277973032829
 30
0.0
 11
207.2530843845787
 21
55.68278973032828
 31
0.0
  0
LINE
  5
331B
330
18
100
AcDbEntity
  8
2
  6
Continuous
100
AcDbLine
 10
206.4410843847217
 20
53.18277973032831
 30
0.0
 11
206.4410843847217
 21
55.68278973032828
 31
0.0
  0
LINE
  5
331C
330
18
100
AcDbEntity
  8
1
  6
Continuous
100
AcDbLine
 10
222.2530791833097
 20
67.18278973032828
 30
0.0
 11
182.2530791833095
 21
67.18278973032828
 31
0.0
  0
ARC
  5
3320
330
18
100
AcDbEntity
  8
1
  6
Continuous
100
AcDbCircle
 10
210.8530793833098
 20
66.38278973032837
 30
0.0
 40
0.2
100
AcDbArc
 50
270.0
 51
0.0
  0
LINE
  5
3322
330
18
100
AcDbEntity
  8
1
  6
Continuous
100
AcDbLine
 10
211.0530793833097
 20
67.18278973032828
 30
0.0
 11
211.0530793833097
 21
66.38278973032832
 31
0.0
  0
ARC
  5
3325
330
18
100
AcDbEntity
  8
1
  6
Continuous
100
AcDbCircle
 10
222.2530791833097
 20
109.1827897303283
 30
0.0
 40
1.0
100
AcDbArc
 50
9.999999999998603
 51
90.00000000000005
  0
LINE
  5
3327
330
18
100
AcDbEntity
  8
1
  6
Continuous
100
AcDbLine
 10
223.2378871833097
 20
109.3564347303283
 30
0.0
 11
223.3566691833098
 21
108.6827897303282
 31
0.0
  0
LINE
  5
3328
330
18
100
AcDbEntity
  8
1
  6
Continuous
100
AcDbLine
 10
222.2530791833097
 20
110.1827897303282
 30
0.0
 11
182.2530791833095
 21
110.1827897303282
 31
0.0
  0
LINE
  5
332A
330
18
100
AcDbEntity
  8
1
  6
Continuous
100
AcDbLine
 10
211.0011791833095
 20
116.5392117303288
 30
0.0
 11
210.8825121833096
 21
115.1827897303285
 31
0.0
  0
ARC
  5
332B
330
18
100
AcDbEntity
  8
1
  6
Continuous
100
AcDbCircle
 10
210.5030791833096
 20
116.5827917303284
 30
0.0
 40
0.5
100
AcDbArc
 50
355.0000000000002
 51
68.04868999999985
  0
LINE
  5
332E
330
18
100
AcDbEntity
  8
1
  6
Continuous
100
AcDbLine
 10
211.0530793833097
 20
110.1827897303282
 30
0.0
 11
211.0530793833097
 21
110.9827897303282
 31
0.0
  0
LINE
  5
3339
330
18
100
AcDbEntity
  8
1
  6
Continuous
100
AcDbLine
 10
197.2530313845787
 20
53.93271973032799
 30
0.0
 11
198.0030313845787
 21
53.182719730328
 31
0.0
  0
LINE
  5
333B
330
18
100
AcDbEntity
  8
1
  6
Continuous
100
AcDbLine
 10
197.2530843845787
 20
53.93277973032829
 30
0.0
 11
197.2530843845787
 21
55.68278973032828
 31
0.0
  0
LINE
  5
333C
330
18
100
AcDbEntity
  8
2
  6
Continuous
100
AcDbLine
 10
198.0650843847216
 20
53.18277973032831
 30
0.0
 11
198.0650843847216
 21
55.68278973032828
 31
0.0
  0
ARC
  5
333D
330
18
100
AcDbEntity
  8
1
  6
Continuous
100
AcDbCircle
 10
193.6530789833095
 20
66.38278973032837
 30
0.0
 40
0.2
100
AcDbArc
 50
180.0
 51
270.0
  0
LINE
  5
333E
330
18
100
AcDbEntity
  8
1
  6
Continuous
100
AcDbLine
 10
193.4530789833095
 20
67.18278973032828
 30
0.0
 11
193.4530789833095
 21
66.38278973032832
 31
0.0
  0
LINE
  5
3342
330
18
100
AcDbEntity
  8
1
  6
Continuous
100
AcDbLine
 10
181.2682731833096
 20
68.00913673032822
 30
0.0
 11
181.1494911833096
 21
68.68278973032828
 31
0.0
  0
ARC
  5
3343
330
18
100
AcDbEntity
  8
1
  6
Continuous
100
AcDbCircle
 10
182.2530791833095
 20
68.18278973032832
 30
0.0
 40
1.0
100
AcDbArc
 50
189.9999999999986
 51
270.0000099999993
  0
ARC
  5
3349
330
18
100
AcDbEntity
  8
1
  6
Continuous
100
AcDbCircle
 10
182.2530791833095
 20
109.1827897303283
 30
0.0
 40
1.0
100
AcDbArc
 50
90.00000000000005
 51
170.0000000000014
  0
LINE
  5
334A
330
18
100
AcDbEntity
  8
1
  6
Continuous
100
AcDbLine
 10
181.2682711833097
 20
109.3564347303283
 30
0.0
 11
181.1494891833095
 21
108.6827897303285
 31
0.0
  0
LINE
  5
334B
330
18
100
AcDbEntity
  8
1
  6
Continuous
100
AcDbLine
 10
193.5049831833096
 20
116.5392117303283
 30
0.0
 11
193.6236541833096
 21
115.1827937303282
 31
0.0
  0
ARC
  5
334C
330
18
100
AcDbEntity
  8
1
  6
Continuous
100
AcDbCircle
 10
194.0030791833095
 20
116.5827917303284
 30
0.0
 40
0.5
100
AcDbArc
 50
111.9513080000005
 51
185.0000019999985
  0
ARC
  5
334D
330
18
100
AcDbEntity
  8
1
  6
Continuous
100
AcDbCircle
 10
193.6530789833095
 20
110.9827897303282
 30
0.0
 40
0.2
100
AcDbArc
 50
90.00000000000005
 51
180.0
  0
LINE
  5
334E
330
18
100
AcDbEntity
  8
1
  6
Continuous
100
AcDbLine
 10
193.4530789833095
 20
110.1827897303282
 30
0.0
 11
193.4530789833095
 21
110.9827897303282
 31
0.0
  0
ARC
  5
33EB
330
18
100
AcDbEntity
  8
1
  6
Continuous
100
AcDbCircle
 10
210.8530793833097
 20
110.9827897303282
 30
0.0
 40
0.2
100
AcDbArc
 50
0.000000000000007
 51
89.99999999999998
  0
LINE
  5
33EC
330
18
100
AcDbEntity
  8
1
  6
Continuous
100
AcDbLine
 10
190.2530791833098
 20
115.1827897303285
 30
0.0
 11
214.9028723677324
 21
115.1827897303284
 31
0.0
  0
LINE
  5
33ED
330
18
100
AcDbEntity
  8
1
  6
Continuous
100
AcDbLine
 10
190.2530791833098
 20
115.1827897303285
 30
0.0
 11
190.2530791833098
 21
111.1827897303285
 31
0.0
  0
LINE
  5
33EE
330
18
100
AcDbEntity
  8
1
  6
Continuous
100
AcDbLine
 10
190.2530791833098
 20
62.18278973032872
 30
0.0
 11
190.2530791833098
 21
66.18278973032852
 31
0.0
  0
LINE
  5
3458
330
18
100
AcDbEntity
  8
1
  6
Continuous
100
AcDbLine
 10
387.9620148100148
 20
274.9475358947587
 30
0.0
 11
399.890560203551
 21
274.9475358947587
 31
0.0
  0
ARC
  5
3459
330
18
100
AcDbEntity
  8
1
  6
Continuous
100
AcDbCircle
 10
363.4262875067826
 20
227.580319086272
 30
0.0
 40
4.0
100
AcDbArc
 50
0.0
 51
53.57642635766779
  0
ARC
  5
345A
330
18
100
AcDbEntity
  8
1
  6
Continuous
100
AcDbCircle
 10
363.4262875067826
 20
227.580319086272
 30
0.0
 40
8.0
100
AcDbArc
 50
0.0
 51
53.57642635766779
  0
ARC
  5
345B
330
18
100
AcDbEntity
  8
1
  6
Continuous
100
AcDbCircle
 10
372.9262875067828
 20
240.4547122758556
 30
0.0
 40
8.0
100
AcDbArc
 50
158.7874293974524
 51
233.5764263576675
  0
LINE
  5
345C
330
18
100
AcDbEntity
  8
1
  6
Continuous
100
AcDbLine
 10
372.7813987283062
 20
262.1912945104633
 30
0.0
 11
365.4683319953923
 21
243.3493451696987
 31
0.0
  0
ARC
  5
345E
330
18
100
AcDbEntity
  8
1
  6
Continuous
100
AcDbCircle
 10
387.4262875067827
 20
254.9547122758556
 30
0.0
 40
20.0
100
AcDbArc
 50
88.46507073606257
 51
157.9624566560263
  0
LINE
  5
345F
330
18
100
AcDbEntity
  8
1
  6
Continuous
100
AcDbLine
 10
368.8875236526452
 20
262.4589933713721
 30
0.0
 11
361.8030291943004
 21
244.9572809331655
 31
0.0
  0
LINE
  5
3460
330
18
100
AcDbEntity
  8
1
  6
Continuous
100
AcDbLine
 10
418.9650513609207
 20
262.4589933713721
 30
0.0
 11
426.0495458192655
 21
244.9572809331655
 31
0.0
  0
ARC
  5
3461
330
18
100
AcDbEntity
  8
1
  6
Continuous
100
AcDbCircle
 10
414.9262875067828
 20
240.4547122758556
 30
0.0
 40
12.0
100
AcDbArc
 50
306.4235736423324
 51
22.03754334397359
  0
ARC
  5
3462
330
18
100
AcDbEntity
  8
1
  6
Continuous
100
AcDbCircle
 10
424.4262875067832
 20
227.580319086272
 30
0.0
 40
4.0
100
AcDbArc
 50
126.4235736423322
 51
180.0
  0
LINE
  5
3463
330
18
100
AcDbEntity
  8
1
  6
Continuous
100
AcDbLine
 10
420.4262875067831
 20
227.580319086272
 30
0.0
 11
420.4262875067831
 21
224.9547122758555
 31
0.0
  0
ARC
  5
3464
330
18
100
AcDbEntity
  8
1
  6
Continuous
100
AcDbCircle
 10
414.9262875067828
 20
240.4547122758556
 30
0.0
 40
8.0
100
AcDbArc
 50
306.4235736423324
 51
21.21257060254755
  0
LINE
  5
3465
330
18
100
AcDbEntity
  8
1
  6
Continuous
100
AcDbLine
 10
415.0711762852597
 20
262.1912945104633
 30
0.0
 11
422.3842430181735
 21
243.3493451696987
 31
0.0
  0
ARC
  5
3466
330
18
100
AcDbEntity
  8
1
  6
Continuous
100
AcDbCircle
 10
400.4262875067832
 20
254.9547122758556
 30
0.0
 40
20.0
100
AcDbArc
 50
22.03754334397369
 51
91.53492926393743
  0
ARC
  5
3467
330
18
100
AcDbEntity
  8
1
  6
Continuous
100
AcDbCircle
 10
424.4262875067832
 20
227.580319086272
 30
0.0
 40
8.0
100
AcDbArc
 50
126.4235736423322
 51
180.0
  0
ARC
  5
3470
330
18
100
AcDbEntity
  8
1
  6
Continuous
100
AcDbCircle
 10
226.9351819601816
 20
88.68278973032827
 30
0.0
 40
32.31791104197503
100
AcDbArc
 50
314.144890965369
 51
45.85510903463099
  0
ARC
  5
3471
330
18
100
AcDbEntity
  8
1
  6
Continuous
100
AcDbCircle
 10
225.2530791833098
 20
86.94971343765066
 30
0.0
 40
34.73307629267761
100
AcDbArc
 50
45.85510903463099
 51
90.0
  0
ARC
  5
3472
330
18
100
AcDbEntity
  8
1
  6
Continuous
100
AcDbCircle
 10
225.2530791833098
 20
90.41586602300586
 30
0.0
 40
34.73307629267761
100
AcDbArc
 50
270.0
 51
314.144890965369
  0
ARC
  5
3473
330
18
100
AcDbEntity
  8
1
  6
Continuous
100
AcDbCircle
 10
226.9351819601816
 20
88.68278973032827
 30
0.0
 40
28.31791104197503
100
AcDbArc
 50
314.144890965369
 51
45.85510903463099
  0
ARC
  5
3474
330
18
100
AcDbEntity
  8
1
  6
Continuous
100
AcDbCircle
 10
225.2530791833098
 20
90.41586602300586
 30
0.0
 40
30.73307629267761
100
AcDbArc
 50
270.0
 51
314.144890965369
  0
ARC
  5
3475
330
18
100
AcDbEntity
  8
1
  6
Continuous
100
AcDbCircle
 10
225.2530791833098
 20
86.94971343765066
 30
0.0
 40
30.73307629267761
100
AcDbArc
 50
45.85510903463099
 51
90.0
  0
ARC
  5
3477
330
18
100
AcDbEntity
  8
1
  6
Continuous
100
AcDbCircle
 10
214.9028723677324
 20
118.1827897303284
 30
0.0
 40
3.0
100
AcDbArc
 50
270.0
 51
317.5580029063457
  0
ARC
  5
3478
330
18
100
AcDbEntity
  8
1
  6
Continuous
100
AcDbCircle
 10
214.9028723677324
 20
118.1827897303284
 30
0.0
 40
7.0
100
AcDbArc
 50
269.9999999999995
 51
317.5580029063457
  0
ARC
  5
3479
330
18
100
AcDbEntity
  8
1
  6
Continuous
100
AcDbCircle
 10
225.2530791833098
 20
114.6827897303282
 30
0.0
 40
3.0
100
AcDbArc
 50
90.0
 51
137.5580029063457
  0
ARC
  5
347A
330
18
100
AcDbEntity
  8
1
  6
Continuous
100
AcDbCircle
 10
225.2530791833098
 20
114.6827897303282
 30
0.0
 40
7.0
100
AcDbArc
 50
90.0
 51
137.5580029063457
  0
LINE
  5
347B
330
18
100
AcDbEntity
  8
1
  6
Continuous
100
AcDbLine
 10
220.0873529740804
 20
119.4066941251355
 30
0.0
 11
217.1167550288307
 21
116.1582592754109
 31
0.0
  0
LINE
  5
347C
330
18
100
AcDbEntity
  8
1
  6
Continuous
100
AcDbLine
 10
223.0391965222115
 20
116.7073201852456
 30
0.0
 11
220.0685985769618
 21
113.458885335521
 31
0.0
  0
ARC
  5
347D
330
18
100
AcDbEntity
  8
1
  6
Continuous
100
AcDbCircle
 10
214.9028723677324
 20
59.18278973032812
 30
0.0
 40
3.0
100
AcDbArc
 50
42.44199709365421
 51
90.00000000000005
  0
LINE
  5
347E
330
18
100
AcDbEntity
  8
1
  6
Continuous
100
AcDbLine
 10
220.0873529740804
 20
57.95888533552092
 30
0.0
 11
217.1167550288307
 21
61.20732018524554
 31
0.0
  0
ARC
  5
347F
330
18
100
AcDbEntity
  8
1
  6
Continuous
100
AcDbCircle
 10
225.2530791833098
 20
62.68278973032825
 30
0.0
 40
7.0
100
AcDbArc
 50
222.4419970936541
 51
270.0
  0
ARC
  5
3480
330
18
100
AcDbEntity
  8
1
  6
Continuous
100
AcDbCircle
 10
225.2530791833098
 20
62.68278973032825
 30
0.0
 40
3.0
100
AcDbArc
 50
222.4419970936541
 51
270.0
  0
LINE
  5
3481
330
18
100
AcDbEntity
  8
1
  6
Continuous
100
AcDbLine
 10
223.0391965222115
 20
60.65825927541082
 30
0.0
 11
220.0685985769618
 21
63.90669412513543
 31
0.0
  0
ARC
  5
3482
330
18
100
AcDbEntity
  8
1
  6
Continuous
100
AcDbCircle
 10
214.9028723677324
 20
59.18278973032812
 30
0.0
 40
7.0
100
AcDbArc
 50
42.44199709365431
 51
90.00000000000047
  0
ARC
  5
3484
330
18
100
AcDbEntity
  8
1
  6
Continuous
100
AcDbCircle
 10
225.2530791833098
 20
88.68278973032827
 30
0.0
 40
26.80001381884681
100
AcDbArc
 50
262.3889884418853
 51
97.61101155811434
  0
ARC
  5
3485
330
18
100
AcDbEntity
  8
1
  6
Continuous
100
AcDbCircle
 10
225.2530791833098
 20
88.68278973032827
 30
0.0
 40
15.5
100
AcDbArc
 50
338.1777997234103
 51
21.82220027658998
  0
LINE
  5
39D6
330
18
100
AcDbEntity
  8
4
  6
CENTER
 48
0.5
100
AcDbLine
 10
202.2530842018732
 20
448.7266448213301
 30
0.0
 11
202.2530842018732
 21
374.7483945380811
 31
0.0
  0
ARC
  5
39FC
330
18
100
AcDbEntity
  8
1
  6
Continuous
100
AcDbCircle
 10
209.5530842018732
 20
56.88278973032915
 30
0.0
 40
1.199999999999999
100
AcDbArc
 50
270.0
 51
0.0
  0
ARC
  5
39FD
330
18
100
AcDbEntity
  8
1
  6
Continuous
100
AcDbCircle
 10
194.9530842018729
 20
56.88278973032915
 30
0.0
 40
1.199999999999999
100
AcDbArc
 50
180.0
 51
270.0
  0
LINE
  5
3A3F
330
18
100
AcDbEntity
  8
1
  6
Continuous
100
AcDbLine
 10
352.9262875067828
 20
296.4547122758554
 30
0.0
 11
434.9262875067828
 21
296.4547122758554
 31
0.0
  0
LINE
  5
3A40
330
18
100
AcDbEntity
  8
1
  6
Continuous
100
AcDbLine
 10
363.8252695512205
 20
292.4547122758553
 30
0.0
 11
424.0273054623452
 21
292.4547122758553
 31
0.0
  0
LINE
  5
3A41
330
18
100
AcDbEntity
  8
1
  6
Continuous
100
AcDbLine
 10
434.9262875067828
 20
299.4547122758553
 30
0.0
 11
434.9262875067828
 21
296.4547122758554
 31
0.0
  0
ARC
  5
3A42
330
18
100
AcDbEntity
  8
1
  6
Continuous
100
AcDbCircle
 10
424.0273054623452
 20
297.4547122758553
 30
0.0
 40
5.0
100
AcDbArc
 50
270.0
 51
348.463040967185
  0
ARC
  5
3A43
330
18
100
AcDbEntity
  8
1
  6
Continuous
100
AcDbCircle
 10
363.8252695512205
 20
297.4547122758553
 30
0.0
 40
5.0
100
AcDbArc
 50
191.5369590328149
 51
270.0
  0
LINE
  5
3A44
330
18
100
AcDbEntity
  8
1
  6
Continuous
100
AcDbLine
 10
352.9262875067828
 20
299.4547122758553
 30
0.0
 11
352.9262875067828
 21
296.4547122758554
 31
0.0
  0
LINE
  5
3A45
330
18
100
AcDbEntity
  8
1
  6
Continuous
100
AcDbLine
 10
521.5994958302563
 20
296.4547122758558
 30
0.0
 11
603.5994958302564
 21
296.4547122758558
 31
0.0
  0
LINE
  5
3A46
330
18
100
AcDbEntity
  8
1
  6
Continuous
100
AcDbLine
 10
532.498477874694
 20
292.4547122758556
 30
0.0
 11
592.7005137858187
 21
292.4547122758556
 31
0.0
  0
LINE
  5
3A47
330
18
100
AcDbEntity
  8
1
  6
Continuous
100
AcDbLine
 10
603.5994958302564
 20
299.4547122758556
 30
0.0
 11
603.5994958302564
 21
296.4547122758558
 31
0.0
  0
ARC
  5
3A48
330
18
100
AcDbEntity
  8
1
  6
Continuous
100
AcDbCircle
 10
592.7005137858187
 20
297.4547122758556
 30
0.0
 40
5.0
100
AcDbArc
 50
270.0
 51
348.463040967185
  0
ARC
  5
3A49
330
18
100
AcDbEntity
  8
1
  6
Continuous
100
AcDbCircle
 10
532.498477874694
 20
297.4547122758556
 30
0.0
 40
5.0
100
AcDbArc
 50
191.5369590328149
 51
270.0
  0
LINE
  5
3A4A
330
18
100
AcDbEntity
  8
1
  6
Continuous
100
AcDbLine
 10
521.5994958302563
 20
299.4547122758556
 30
0.0
 11
521.5994958302563
 21
296.4547122758558
 31
0.0
  0
LINE
  5
3A4B
330
18
100
AcDbEntity
  8
1
  6
Continuous
100
AcDbLine
 10
184.2530791833095
 20
296.4547122758558
 30
0.0
 11
266.2530791833095
 21
296.4547122758558
 31
0.0
  0
LINE
  5
3A4C
330
18
100
AcDbEntity
  8
1
  6
Continuous
100
AcDbLine
 10
195.1520612277471
 20
292.4547122758556
 30
0.0
 11
255.3540971388719
 21
292.4547122758556
 31
0.0
  0
LINE
  5
3A4D
330
18
100
AcDbEntity
  8
1
  6
Continuous
100
AcDbLine
 10
266.2530791833095
 20
299.4547122758556
 30
0.0
 11
266.2530791833095
 21
296.4547122758558
 31
0.0
  0
ARC
  5
3A4E
330
18
100
AcDbEntity
  8
1
  6
Continuous
100
AcDbCircle
 10
255.3540971388719
 20
297.4547122758556
 30
0.0
 40
5.0
100
AcDbArc
 50
270.0
 51
348.463040967185
  0
ARC
  5
3A4F
330
18
100
AcDbEntity
  8
1
  6
Continuous
100
AcDbCircle
 10
195.1520612277471
 20
297.4547122758556
 30
0.0
 40
5.0
100
AcDbArc
 50
191.5369590328149
 51
270.0
  0
LINE
  5
3A50
330
18
100
AcDbEntity
  8
1
  6
Continuous
100
AcDbLine
 10
184.2530791833095
 20
299.4547122758556
 30
0.0
 11
184.2530791833095
 21
296.4547122758558
 31
0.0
  0
LINE
  5
3A51
330
18
100
AcDbEntity
  8
1
  6
Continuous
100
AcDbLine
 10
15.57987085983609
 20
296.4547122758554
 30
0.0
 11
97.57987085983607
 21
296.4547122758554
 31
0.0
  0
LINE
  5
3A52
330
18
100
AcDbEntity
  8
1
  6
Continuous
100
AcDbLine
 10
26.47885290427371
 20
292.4547122758553
 30
0.0
 11
86.6808888153985
 21
292.4547122758553
 31
0.0
  0
LINE
  5
3A53
330
18
100
AcDbEntity
  8
1
  6
Continuous
100
AcDbLine
 10
97.57987085983607
 20
299.4547122758553
 30
0.0
 11
97.57987085983607
 21
296.4547122758554
 31
0.0
  0
ARC
  5
3A54
330
18
100
AcDbEntity
  8
1
  6
Continuous
100
AcDbCircle
 10
86.6808888153985
 20
297.4547122758553
 30
0.0
 40
5.0
100
AcDbArc
 50
270.0
 51
348.463040967185
  0
ARC
  5
3A55
330
18
100
AcDbEntity
  8
1
  6
Continuous
100
AcDbCircle
 10
26.47885290427371
 20
297.4547122758553
 30
0.0
 40
5.0
100
AcDbArc
 50
191.5369590328149
 51
270.0
  0
LINE
  5
3A56
330
18
100
AcDbEntity
  8
1
  6
Continuous
100
AcDbLine
 10
15.57987085983609
 20
299.4547122758553
 30
0.0
 11
15.57987085983609
 21
296.4547122758554
 31
0.0
  0
ENDSEC
  0
SECTION
  2
OBJECTS
  0
DICTIONARY
  5
C
330
0
100
AcDbDictionary
281
     1
  3
ACAD_CIP_PREVIOUS_PRODUCT_INFO
350
3AEB
  3
ACAD_COLOR
350
3ACE
  3
ACAD_DETAILVIEWSTYLE
350
3AE7
  3
ACAD_GROUP
350
D
  3
ACAD_LAYOUT
350
94
  3
ACAD_MATERIAL
350
3A9C
  3
ACAD_MLEADERSTYLE
350
3AE3
  3
ACAD_MLINESTYLE
350
1B
  3
ACAD_PLOTSETTINGS
350
95
  3
ACAD_PLOTSTYLENAME
350
3A9A
  3
ACAD_SCALELIST
350
3AD1
  3
ACAD_SECTIONVIEWSTYLE
350
3AE5
  3
ACAD_TABLESTYLE
350
3ACF
  3
ACAD_VISUALSTYLE
350
3AB5
  3
ACDB_RECOMPOSE_DATA
350
3B09
  3
AcDbVariableDictionary
350
3AFC
  3
CONTENTDICTIONARY
350
3D
  3
DWGPROPS
350
3B0A
  0
DICTIONARY
  5
3AEC
330
E
100
AcDbDictionary
280
     1
281
     1
  3
ADSK_XREC_LAYER_RECONCILED
360
3AED
  0
DICTIONARY
  5
3AEE
330
4E
100
AcDbDictionary
280
     1
281
     1
  3
ADSK_XREC_LAYER_RECONCILED
360
3AEF
  0
DICTIONARY
  5
3AF0
330
4F
100
AcDbDictionary
280
     1
281
     1
  3
ADSK_XREC_LAYER_RECONCILED
360
3AF1
  0
DICTIONARY
  5
3AF2
330
50
100
AcDbDictionary
280
     1
281
     1
  3
ADSK_XREC_LAYER_RECONCILED
360
3AF3
  0
DICTIONARY
  5
3AF4
330
51
100
AcDbDictionary
280
     1
281
     1
  3
ADSK_XREC_LAYER_RECONCILED
360
3AF5
  0
DICTIONARY
  5
3AF6
330
52
100
AcDbDictionary
280
     1
281
     1
  3
ADSK_XREC_LAYER_RECONCILED
360
3AF7
  0
DICTIONARY
  5
3AF8
330
53
100
AcDbDictionary
280
     1
281
     1
  3
ADSK_XREC_LAYER_RECONCILED
360
3AF9
  0
DICTIONARY
  5
3AFA
330
54
100
AcDbDictionary
280
     1
281
     1
  3
ADSK_XREC_LAYER_RECONCILED
360
3AFB
  0
DICTIONARY
  5
3A95
330
18
100
AcDbDictionary
281
     1
  3
ACAD_LAYOUTSELFREF
350
3A96
  0
DICTIONARY
  5
3A93
330
15
100
AcDbDictionary
281
     1
  3
ACAD_LAYOUTSELFREF
350
3A94
  0
XRECORD
  5
3AEB
102
{ACAD_REACTORS
330
C
102
}
330
C
100
AcDbXrecord
280
     1
300
ACDLT
300
2014
300
ACDLT_F_S
  0
DICTIONARY
  5
3ACE
102
{ACAD_REACTORS
330
C
102
}
330
C
100
AcDbDictionary
281
     1
  0
DICTIONARY
  5
3AE7
102
{ACAD_REACTORS
330
C
102
}
330
C
100
AcDbDictionary
281
     1
  3
Imperial24
350
3AE8
  0
DICTIONARY
  5
D
102
{ACAD_REACTORS
330
C
102
}
330
C
100
AcDbDictionary
281
     1
  0
DICTIONARY
  5
94
102
{ACAD_REACTORS
330
C
102
}
330
C
100
AcDbDictionary
281
     1
  3
Model
350
3AE9
  3
レイアウト1
350
3AEA
  0
DICTIONARY
  5
3A9C
102
{ACAD_REACTORS
330
C
102
}
330
C
100
AcDbDictionary
281
     1
  3
ByBlock
350
3AA5
  3
ByLayer
350
3A9D
  3
Global
350
3AAD
  0
DICTIONARY
  5
3AE3
102
{ACAD_REACTORS
330
C
102
}
330
C
100
AcDbDictionary
281
     1
  3
Standard
350
3AE4
  0
DICTIONARY
  5
1B
102
{ACAD_REACTORS
330
C
102
}
330
C
100
AcDbDictionary
281
     1
  3
STANDARD
350
1C
  0
DICTIONARY
  5
95
102
{ACAD_REACTORS
330
C
102
}
330
C
100
AcDbDictionary
281
     1
  0
ACDBDICTIONARYWDFLT
  5
3A9A
102
{ACAD_REACTORS
330
C
102
}
330
C
100
AcDbDictionary
281
     1
  3
Normal
350
3A9B
100
AcDbDictionaryWithDefault
340
3A9B
  0
DICTIONARY
  5
3AD1
102
{ACAD_REACTORS
330
C
102
}
330
C
100
AcDbDictionary
281
     1
  3
A0
350
3AD2
  3
A1
350
3AD3
  3
A2
350
3AD4
  3
A3
350
3AD5
  3
A4
350
3AD6
  3
A5
350
3AD7
  3
A6
350
3AD8
  3
A7
350
3AD9
  3
A8
350
3ADA
  3
A9
350
3ADB
  3
B0
350
3ADC
  3
B1
350
3ADD
  3
B2
350
3ADE
  3
B3
350
3ADF
  3
B4
350
3AE0
  3
B5
350
3AE1
  3
B6
350
3AE2
  0
DICTIONARY
  5
3AE5
102
{ACAD_REACTORS
330
C
102
}
330
C
100
AcDbDictionary
281
     1
  3
Imperial24
350
3AE6
  0
DICTIONARY
  5
3ACF
102
{ACAD_REACTORS
330
C
102
}
330
C
100
AcDbDictionary
281
     1
  3
Standard
350
3AD0
  0
DICTIONARY
  5
3AB5
102
{ACAD_REACTORS
330
C
102
}
330
C
100
AcDbDictionary
281
     1
  3
2dWireframe
350
3ABB
  3
Basic
350
3ABA
  3
Brighten
350
3AC1
  3
ColorChange
350
3AC5
  3
Conceptual
350
3ABE
  3
Dim
350
3AC0
  3
EdgeColorOff
350
3ACD
  3
Facepattern
350
3AC4
  3
Flat
350
3AB6
  3
FlatWithEdges
350
3AB7
  3
Gouraud
350
3AB8
  3
GouraudWithEdges
350
3AB9
  3
Hidden
350
3ABD
  3
JitterOff
350
3ACB
  3
Linepattern
350
3AC3
  3
OverhangOff
350
3ACC
  3
Realistic
350
3ABF
  3
Shaded
350
3ACA
  3
Shaded with edges
350
3AC9
  3
Shades of Gray
350
3AC6
  3
Sketchy
350
3AC7
  3
Thicken
350
3AC2
  3
Wireframe
350
3ABC
  3
X-Ray
350
3AC8
  0
XRECORD
  5
3B09
102
{ACAD_REACTORS
330
C
102
}
330
C
100
AcDbXrecord
280
     1
 90
        1
330
3AD0
  0
DICTIONARY
  5
3AFC
102
{ACAD_REACTORS
330
C
102
}
330
C
100
AcDbDictionary
281
     1
  3
CANNOSCALE
350
3B01
  3
CMLEADERSTYLE
350
3AFE
  3
CTABLESTYLE
350
3AFD
  3
CVIEWDETAILSTYLE
350
3AFF
  3
CVIEWSECTIONSTYLE
350
3B00
  3
DIMASSOC
350
3B04
  3
INDEXCTL
350
3B03
  3
SORTENTS
350
3B02
  3
XCLIPFRAME
350
3B05
  0
DICTIONARY
  5
3D
102
{ACAD_REACTORS
330
C
102
}
330
C
100
AcDbDictionary
281
     1
  0
XRECORD
  5
3B0A
102
{ACAD_REACTORS
330
C
102
}
330
C
100
AcDbXrecord
280
     1
  1
DWGPROPS COOKIE
  2

  3

  4

  6

  7

  8
Yoshitsune
  9

300
=
301
=
302
=
303
=
304
=
305
=
306
=
307
=
308
=
309
=
 40
0.165511724537037
 41
2454154.550453368
 42
2457192.690773391
  1

 90
        0
  0
XRECORD
  5
3AED
102
{ACAD_REACTORS
330
3AEC
102
}
330
3AEC
100
AcDbXrecord
280
     1
290
     1
  0
XRECORD
  5
3AEF
102
{ACAD_REACTORS
330
3AEE
102
}
330
3AEE
100
AcDbXrecord
280
     1
290
     1
  0
XRECORD
  5
3AF1
102
{ACAD_REACTORS
330
3AF0
102
}
330
3AF0
100
AcDbXrecord
280
     1
290
     1
  0
XRECORD
  5
3AF3
102
{ACAD_REACTORS
330
3AF2
102
}
330
3AF2
100
AcDbXrecord
280
     1
290
     1
  0
XRECORD
  5
3AF5
102
{ACAD_REACTORS
330
3AF4
102
}
330
3AF4
100
AcDbXrecord
280
     1
290
     1
  0
XRECORD
  5
3AF7
102
{ACAD_REACTORS
330
3AF6
102
}
330
3AF6
100
AcDbXrecord
280
     1
290
     1
  0
XRECORD
  5
3AF9
102
{ACAD_REACTORS
330
3AF8
102
}
330
3AF8
100
AcDbXrecord
280
     1
290
     1
  0
XRECORD
  5
3AFB
102
{ACAD_REACTORS
330
3AFA
102
}
330
3AFA
100
AcDbXrecord
280
     1
290
     1
  0
XRECORD
  5
3A96
102
{ACAD_REACTORS
330
3A95
102
}
330
3A95
100
AcDbXrecord
280
     1
340
18
  0
XRECORD
  5
3A94
102
{ACAD_REACTORS
330
3A93
102
}
330
3A93
100
AcDbXrecord
280
     1
340
15
  0
ACDBDETAILVIEWSTYLE
  5
3AE8
102
{ACAD_XDICTIONARY
360
3B42
102
}
102
{ACAD_REACTORS
330
3AE7
102
}
330
3AE7
100
AcDbModelDocViewStyle
 70
     0
  3
Imperial24
290
     0
100
AcDbDetailViewStyle
 70
     0
 71
     0
 90
        3
 71
     1
340
F
 40
0.24
340
0
 40
0.24
300

 40
0.36
280
     3
 71
     2
340
14
 90
       25
 71
     3
340
F
 40
0.24
 90
        1
 40
0.75
 90
        1
300
%<\AcVar ViewType \f "%tc1">% %<\AcVar ViewDetailId>%\PSCALE %<\AcVar ViewScale \f "%sn">%
 71
     4
340
14
 90
       25
340
14
 90
       25
280
     0
  0
LAYOUT
  5
3AE9
102
{ACAD_XDICTIONARY
360
3B44
102
}
102
{ACAD_REACTORS
330
94
102
}
330
94
100
AcDbPlotSettings
  1

  2
Canon LBP9100C
  4

  6

 40
0.0
 41
0.0
 42
0.0
 43
0.0
 44
0.0
 45
0.0
 46
0.0
 47
0.0
 48
0.0
 49
0.0
140
0.0
141
0.0
142
1.0
143
1.0
 70
  1712
 72
     0
 73
     0
 74
     0
  7

 75
     0
147
1.0
148
0.0
149
0.0
100
AcDbLayout
  1
Model
 70
     1
 71
     0
 10
0.0
 20
0.0
 11
12.0
 21
9.0
 12
0.0
 22
0.0
 32
0.0
 14
0.0
 24
0.0
 34
0.0
 15
0.0
 25
0.0
 35
0.0
146
0.0
 13
0.0
 23
0.0
 33
0.0
 16
1.0
 26
0.0
 36
0.0
 17
0.0
 27
1.0
 37
0.0
 76
     0
330
18
331
3A92
  0
LAYOUT
  5
3AEA
102
{ACAD_XDICTIONARY
360
3B46
102
}
102
{ACAD_REACTORS
330
94
102
}
330
94
100
AcDbPlotSettings
  1

  2
Canon LBP9100C
  4

  6

 40
0.0
 41
0.0
 42
0.0
 43
0.0
 44
0.0
 45
0.0
 46
0.0
 47
0.0
 48
0.0
 49
0.0
140
0.0
141
0.0
142
1.0
143
1.0
 70
   688
 72
     0
 73
     0
 74
     5
  7

 75
    16
147
1.0
148
0.0
149
0.0
100
AcDbLayout
  1
レイアウト1
 70
     1
 71
     1
 10
0.0
 20
0.0
 11
420.0
 21
297.0
 12
0.0
 22
0.0
 32
0.0
 14
1.000000000000000E+20
 24
1.000000000000000E+20
 34
1.000000000000000E+20
 15
-1.000000000000000E+20
 25
-1.000000000000000E+20
 35
-1.000000000000000E+20
146
0.0
 13
0.0
 23
0.0
 33
0.0
 16
1.0
 26
0.0
 36
0.0
 17
0.0
 27
1.0
 37
0.0
 76
     0
330
15
  0
MATERIAL
  5
3AA5
102
{ACAD_XDICTIONARY
360
3AA6
102
}
102
{ACAD_REACTORS
330
3A9C
102
}
330
3A9C
100
AcDbMaterial
  1
ByBlock
 72
     0
 43
0.0208333333333333
 43
0.0
 43
0.0
 43
0.0
 43
0.0
 43
0.0208333333333333
 43
0.0
 43
0.0
 43
0.0
 43
0.0
 43
1.0
 43
0.0
 43
0.0
 43
0.0
 43
0.0
 43
1.0
 77
     0
 47
0.0208333333333333
 47
0.0
 47
0.0
 47
0.0
 47
0.0
 47
0.0208333333333333
 47
0.0
 47
0.0
 47
0.0
 47
0.0
 47
1.0
 47
0.0
 47
0.0
 47
0.0
 47
0.0
 47
1.0
171
     0
 49
0.0208333333333333
 49
0.0
 49
0.0
 49
0.0
 49
0.0
 49
0.0208333333333333
 49
0.0
 49
0.0
 49
0.0
 49
0.0
 49
1.0
 49
0.0
 49
0.0
 49
0.0
 49
0.0
 49
1.0
175
     0
142
0.0208333333333333
142
0.0
142
0.0
142
0.0
142
0.0
142
0.0208333333333333
142
0.0
142
0.0
142
0.0
142
0.0
142
1.0
142
0.0
142
0.0
142
0.0
142
0.0
142
1.0
179
     0
144
0.0208333333333333
144
0.0
144
0.0
144
0.0
144
0.0
144
0.0208333333333333
144
0.0
144
0.0
144
0.0
144
0.0
144
1.0
144
0.0
144
0.0
144
0.0
144
0.0
144
1.0
147
0.0208333333333333
147
0.0
147
0.0
147
0.0
147
0.0
147
0.0208333333333333
147
0.0
147
0.0
147
0.0
147
0.0
147
1.0
147
0.0
147
0.0
147
0.0
147
0.0
147
1.0
  0
MATERIAL
  5
3A9D
102
{ACAD_XDICTIONARY
360
3A9E
102
}
102
{ACAD_REACTORS
330
3A9C
102
}
330
3A9C
100
AcDbMaterial
  1
ByLayer
 72
     0
 43
0.0208333333333333
 43
0.0
 43
0.0
 43
0.0
 43
0.0
 43
0.0208333333333333
 43
0.0
 43
0.0
 43
0.0
 43
0.0
 43
1.0
 43
0.0
 43
0.0
 43
0.0
 43
0.0
 43
1.0
 77
     0
 47
0.0208333333333333
 47
0.0
 47
0.0
 47
0.0
 47
0.0
 47
0.0208333333333333
 47
0.0
 47
0.0
 47
0.0
 47
0.0
 47
1.0
 47
0.0
 47
0.0
 47
0.0
 47
0.0
 47
1.0
171
     0
 49
0.0208333333333333
 49
0.0
 49
0.0
 49
0.0
 49
0.0
 49
0.0208333333333333
 49
0.0
 49
0.0
 49
0.0
 49
0.0
 49
1.0
 49
0.0
 49
0.0
 49
0.0
 49
0.0
 49
1.0
175
     0
142
0.0208333333333333
142
0.0
142
0.0
142
0.0
142
0.0
142
0.0208333333333333
142
0.0
142
0.0
142
0.0
142
0.0
142
1.0
142
0.0
142
0.0
142
0.0
142
0.0
142
1.0
179
     0
144
0.0208333333333333
144
0.0
144
0.0
144
0.0
144
0.0
144
0.0208333333333333
144
0.0
144
0.0
144
0.0
144
0.0
144
1.0
144
0.0
144
0.0
144
0.0
144
0.0
144
1.0
147
0.0208333333333333
147
0.0
147
0.0
147
0.0
147
0.0
147
0.0208333333333333
147
0.0
147
0.0
147
0.0
147
0.0
147
1.0
147
0.0
147
0.0
147
0.0
147
0.0
147
1.0
  0
MATERIAL
  5
3AAD
102
{ACAD_XDICTIONARY
360
3AAE
102
}
102
{ACAD_REACTORS
330
3A9C
102
}
330
3A9C
100
AcDbMaterial
  1
Global
 72
     0
 43
0.0208333333333333
 43
0.0
 43
0.0
 43
0.0
 43
0.0
 43
0.0208333333333333
 43
0.0
 43
0.0
 43
0.0
 43
0.0
 43
1.0
 43
0.0
 43
0.0
 43
0.0
 43
0.0
 43
1.0
 77
     0
 47
0.0208333333333333
 47
0.0
 47
0.0
 47
0.0
 47
0.0
 47
0.0208333333333333
 47
0.0
 47
0.0
 47
0.0
 47
0.0
 47
1.0
 47
0.0
 47
0.0
 47
0.0
 47
0.0
 47
1.0
171
     0
 49
0.0208333333333333
 49
0.0
 49
0.0
 49
0.0
 49
0.0
 49
0.0208333333333333
 49
0.0
 49
0.0
 49
0.0
 49
0.0
 49
1.0
 49
0.0
 49
0.0
 49
0.0
 49
0.0
 49
1.0
175
     0
142
0.0208333333333333
142
0.0
142
0.0
142
0.0
142
0.0
142
0.0208333333333333
142
0.0
142
0.0
142
0.0
142
0.0
142
1.0
142
0.0
142
0.0
142
0.0
142
0.0
142
1.0
179
     0
144
0.0208333333333333
144
0.0
144
0.0
144
0.0
144
0.0
144
0.0208333333333333
144
0.0
144
0.0
144
0.0
144
0.0
144
1.0
144
0.0
144
0.0
144
0.0
144
0.0
144
1.0
147
0.0208333333333333
147
0.0
147
0.0
147
0.0
147
0.0
147
0.0208333333333333
147
0.0
147
0.0
147
0.0
147
0.0
147
1.0
147
0.0
147
0.0
147
0.0
147
0.0
147
1.0
  0
MLEADERSTYLE
  5
3AE4
102
{ACAD_REACTORS
330
3AE3
102
}
330
3AE3
100
AcDbMLeaderStyle
170
     2
171
     1
172
     0
 90
        2
 40
0.0
 41
0.0
173
     1
 91
-1056964608
340
12
 92
       -2
290
     1
 42
0.09
291
     1
 43
0.36
  3
Standard
 44
0.18
300

342
F
174
     1
178
     6
175
     1
176
     0
 93
-1056964608
 45
0.18
292
     0
297
     0
 46
0.18
 94
-1056964608
 47
1.0
 49
1.0
140
1.0
293
     1
141
0.0
294
     1
177
     0
142
1.0
295
     0
296
     0
143
0.125
1001
ACAD_MLEADERVER
1070
     2
  0
MLINESTYLE
  5
1C
102
{ACAD_REACTORS
330
1B
102
}
330
1B
100
AcDbMlineStyle
  2
STANDARD
 70
     0
  3

 62
   256
 51
90.0
 52
90.0
 71
     2
 49
0.5
 62
   256
  6
BYLAYER
 49
-0.5
 62
   256
  6
BYLAYER
  0
ACDBPLACEHOLDER
  5
3A9B
102
{ACAD_REACTORS
330
3A9A
102
}
330
3A9A
  0
SCALE
  5
3AD2
102
{ACAD_REACTORS
330
3AD1
102
}
330
3AD1
100
AcDbScale
 70
     0
300
1:1
140
1.0
141
1.0
290
     1
  0
SCALE
  5
3AD3
102
{ACAD_REACTORS
330
3AD1
102
}
330
3AD1
100
AcDbScale
 70
     0
300
1/128" = 1'-0"
140
0.0078125
141
12.0
290
     0
  0
SCALE
  5
3AD4
102
{ACAD_REACTORS
330
3AD1
102
}
330
3AD1
100
AcDbScale
 70
     0
300
1/64" = 1'-0"
140
0.015625
141
12.0
290
     0
  0
SCALE
  5
3AD5
102
{ACAD_REACTORS
330
3AD1
102
}
330
3AD1
100
AcDbScale
 70
     0
300
1/32" = 1'-0"
140
0.03125
141
12.0
290
     0
  0
SCALE
  5
3AD6
102
{ACAD_REACTORS
330
3AD1
102
}
330
3AD1
100
AcDbScale
 70
     0
300
1/16" = 1'-0"
140
0.0625
141
12.0
290
     0
  0
SCALE
  5
3AD7
102
{ACAD_REACTORS
330
3AD1
102
}
330
3AD1
100
AcDbScale
 70
     0
300
3/32" = 1'-0"
140
0.09375
141
12.0
290
     0
  0
SCALE
  5
3AD8
102
{ACAD_REACTORS
330
3AD1
102
}
330
3AD1
100
AcDbScale
 70
     0
300
1/8" = 1'-0"
140
0.125
141
12.0
290
     0
  0
SCALE
  5
3AD9
102
{ACAD_REACTORS
330
3AD1
102
}
330
3AD1
100
AcDbScale
 70
     0
300
3/16" = 1'-0"
140
0.1875
141
12.0
290
     0
  0
SCALE
  5
3ADA
102
{ACAD_REACTORS
330
3AD1
102
}
330
3AD1
100
AcDbScale
 70
     0
300
1/4" = 1'-0"
140
0.25
141
12.0
290
     0
  0
SCALE
  5
3ADB
102
{ACAD_REACTORS
330
3AD1
102
}
330
3AD1
100
AcDbScale
 70
     0
300
3/8" = 1'-0"
140
0.375
141
12.0
290
     0
  0
SCALE
  5
3ADC
102
{ACAD_REACTORS
330
3AD1
102
}
330
3AD1
100
AcDbScale
 70
     0
300
1/2" = 1'-0"
140
0.5
141
12.0
290
     0
  0
SCALE
  5
3ADD
102
{ACAD_REACTORS
330
3AD1
102
}
330
3AD1
100
AcDbScale
 70
     0
300
3/4" = 1'-0"
140
0.75
141
12.0
290
     0
  0
SCALE
  5
3ADE
102
{ACAD_REACTORS
330
3AD1
102
}
330
3AD1
100
AcDbScale
 70
     0
300
1" = 1'-0"
140
1.0
141
12.0
290
     0
  0
SCALE
  5
3ADF
102
{ACAD_REACTORS
330
3AD1
102
}
330
3AD1
100
AcDbScale
 70
     0
300
1-1/2" = 1'-0"
140
1.5
141
12.0
290
     0
  0
SCALE
  5
3AE0
102
{ACAD_REACTORS
330
3AD1
102
}
330
3AD1
100
AcDbScale
 70
     0
300
3" = 1'-0"
140
3.0
141
12.0
290
     0
  0
SCALE
  5
3AE1
102
{ACAD_REACTORS
330
3AD1
102
}
330
3AD1
100
AcDbScale
 70
     0
300
6" = 1'-0"
140
6.0
141
12.0
290
     0
  0
SCALE
  5
3AE2
102
{ACAD_REACTORS
330
3AD1
102
}
330
3AD1
100
AcDbScale
 70
     0
300
1'-0" = 1'-0"
140
12.0
141
12.0
290
     0
  0
ACDBSECTIONVIEWSTYLE
  5
3AE6
102
{ACAD_XDICTIONARY
360
3B40
102
}
102
{ACAD_REACTORS
330
3AE5
102
}
330
3AE5
100
AcDbModelDocViewStyle
 70
     0
  3
Imperial24
290
     0
100
AcDbSectionViewStyle
 70
     0
 71
     0
 90
       78
 71
     1
340
F
 40
0.24
340
0
340
0
 40
0.24
300
I, O, Q, S, X, Z
 40
0.48
 90
        3
 40
0.18
 90
        1
 71
     2
340
14
 90
       25
340
14
 90
       50
 40
0.24
 40
0.0
 40
0.24
 71
     3
340
F
 40
0.24
 90
        1
 40
0.75
 90
        1
300
%<\AcVar ViewType \f "%tc1">% %<\AcVar ViewSectionStartId>%-%<\AcVar ViewSectionEndId>%\PSCALE %<\AcVar ViewScale \f "%sn">%
 71
     4
300
ANSI31
 40
1.0
 90
        0
290
     0
290
     0
 90
        6
 40
0.0
 40
1.570796326794896
 40
0.2617993877991494
 40
1.308996938995747
 40
-0.2617993877991494
 40
1.832595714594046
  0
TABLESTYLE
  5
3AD0
102
{ACAD_XDICTIONARY
360
3B07
102
}
102
{ACAD_REACTORS
330
3ACF
102
}
330
3ACF
100
AcDbTableStyle
  3
Standard
 70
     0
 71
     0
 40
0.06
 41
0.06
280
     0
281
     0
  7
STANDARD
140
0.18
170
     2
 62
     0
 63
     7
283
     0
274
    -2
284
     1
 64
     0
275
    -2
285
     1
 65
     0
276
    -2
286
     1
 66
     0
277
    -2
287
     1
 67
     0
278
    -2
288
     1
 68
     0
279
    -2
289
     1
 69
     0
  7
STANDARD
140
0.25
170
     5
 62
     0
 63
     7
283
     0
274
    -2
284
     1
 64
     0
275
    -2
285
     1
 65
     0
276
    -2
286
     1
 66
     0
277
    -2
287
     1
 67
     0
278
    -2
288
     1
 68
     0
279
    -2
289
     1
 69
     0
  7
STANDARD
140
0.18
170
     5
 62
     0
 63
     7
283
     0
274
    -2
284
     1
 64
     0
275
    -2
285
     1
 65
     0
276
    -2
286
     1
 66
     0
277
    -2
287
     1
 67
     0
278
    -2
288
     1
 68
     0
279
    -2
289
     1
 69
     0
  0
VISUALSTYLE
  5
3ABB
102
{ACAD_XDICTIONARY
360
3B18
102
}
102
{ACAD_REACTORS
330
3AB5
102
}
330
3AB5
100
AcDbVisualStyle
  2
2dWireframe
 70
     4
 71
     0
 72
     2
 73
     0
 90
        0
 40
-0.6
 41
-30.0
 62
     5
 63
     7
 74
     1
 91
        4
 64
     7
 65
   257
 75
     1
175
     1
 42
1.0
 92
        0
 66
   257
 43
1.0
 76
     1
 77
     6
 78
     2
 67
     7
 79
     5
170
     0
171
     0
290
     0
174
     0
 93
        1
 44
0.0
173
     0
291
     0
 45
0.0
1001
ACAD
1000
AcDbSavedByObjectVersion
1070
     0
  0
VISUALSTYLE
  5
3ABA
102
{ACAD_XDICTIONARY
360
3B16
102
}
102
{ACAD_REACTORS
330
3AB5
102
}
330
3AB5
100
AcDbVisualStyle
  2
Basic
 70
     7
 71
     1
 72
     0
 73
     1
 90
        0
 40
-0.6
 41
-30.0
 62
     5
 63
     7
 74
     0
 91
        4
 64
     7
 65
   257
 75
     1
175
     1
 42
1.0
 92
        8
 66
     7
 43
1.0
 76
     1
 77
     6
 78
     2
 67
     7
 79
     5
170
     0
171
     0
290
     0
174
     0
 93
        1
 44
0.0
173
     0
291
     1
 45
0.0
1001
ACAD
1000
AcDbSavedByObjectVersion
1070
     0
  0
VISUALSTYLE
  5
3AC1
102
{ACAD_XDICTIONARY
360
3B24
102
}
102
{ACAD_REACTORS
330
3AB5
102
}
330
3AB5
100
AcDbVisualStyle
  2
Brighten
 70
    12
 71
     2
 72
     2
 73
     0
 90
        0
 40
-0.6
 41
-30.0
 62
     5
 63
     7
 74
     1
 91
        4
 64
     7
 65
   257
 75
     1
175
     1
 42
1.0
 92
        8
 66
     7
 43
1.0
 76
     1
 77
     6
 78
     2
 67
     7
 79
     5
170
     0
171
     0
290
     0
174
     0
 93
        1
 44
50.0
173
     0
291
     1
 45
0.0
1001
ACAD
1000
AcDbSavedByObjectVersion
1070
     0
  0
VISUALSTYLE
  5
3AC5
102
{ACAD_XDICTIONARY
360
3B2C
102
}
102
{ACAD_REACTORS
330
3AB5
102
}
330
3AB5
100
AcDbVisualStyle
  2
ColorChange
 70
    16
 71
     2
 72
     2
 73
     3
 90
        0
 40
-0.6
 41
-30.0
 62
     5
 63
     8
 74
     1
 91
        4
 64
     7
 65
   257
 75
     1
175
     1
 42
1.0
 92
        8
 66
     8
 43
1.0
 76
     1
 77
     6
 78
     2
 67
     7
 79
     5
170
     0
171
     0
290
     0
174
     0
 93
        1
 44
0.0
173
     0
291
     1
 45
0.0
1001
ACAD
1000
AcDbSavedByObjectVersion
1070
     0
  0
VISUALSTYLE
  5
3ABE
102
{ACAD_XDICTIONARY
360
3B1E
102
}
102
{ACAD_REACTORS
330
3AB5
102
}
330
3AB5
100
AcDbVisualStyle
  2
Conceptual
 70
     9
 71
     3
 72
     2
 73
     0
 90
        0
 40
-0.6
 41
-30.0
 62
     5
 63
     7
 74
     2
 91
        2
 64
     7
 65
   257
 75
     1
175
     1
 42
179.0
 92
        8
 66
     7
 43
1.0
 76
     1
 77
     6
 78
     2
 67
     7
 79
     3
170
     0
171
     0
290
     0
174
     0
 93
        1
 44
0.0
173
     0
291
     0
 45
0.0
1001
ACAD
1000
AcDbSavedByObjectVersion
1070
     0
  0
VISUALSTYLE
  5
3AC0
102
{ACAD_XDICTIONARY
360
3B22
102
}
102
{ACAD_REACTORS
330
3AB5
102
}
330
3AB5
100
AcDbVisualStyle
  2
Dim
 70
    11
 71
     2
 72
     2
 73
     0
 90
        0
 40
-0.6
 41
-30.0
 62
     5
 63
     7
 74
     1
 91
        4
 64
     7
 65
   257
 75
     1
175
     1
 42
1.0
 92
        8
 66
     7
 43
1.0
 76
     1
 77
     6
 78
     2
 67
     7
 79
     5
170
     0
171
     0
290
     0
174
     0
 93
        1
 44
-50.0
173
     0
291
     1
 45
0.0
1001
ACAD
1000
AcDbSavedByObjectVersion
1070
     0
  0
VISUALSTYLE
  5
3ACD
102
{ACAD_XDICTIONARY
360
3B3C
102
}
102
{ACAD_REACTORS
330
3AB5
102
}
330
3AB5
100
AcDbVisualStyle
  2
EdgeColorOff
 70
    22
 71
     2
 72
     2
 73
     0
 90
        0
 40
-0.6
 41
-30.0
 62
     5
 63
     7
 74
     1
 91
        4
 64
     7
 65
   257
 75
     1
175
     1
 42
1.0
 92
        8
 66
     7
 43
1.0
 76
     1
 77
     6
 78
     2
 67
     7
 79
     5
170
     0
171
     0
290
     0
174
     0
 93
        1
 44
0.0
173
     0
291
     1
 45
0.0
1001
ACAD
1000
AcDbSavedByObjectVersion
1070
     0
  0
VISUALSTYLE
  5
3AC4
102
{ACAD_XDICTIONARY
360
3B2A
102
}
102
{ACAD_REACTORS
330
3AB5
102
}
330
3AB5
100
AcDbVisualStyle
  2
Facepattern
 70
    15
 71
     2
 72
     2
 73
     0
 90
        0
 40
-0.6
 41
-30.0
 62
     5
 63
     7
 74
     1
 91
        4
 64
     7
 65
   257
 75
     1
175
     1
 42
1.0
 92
        8
 66
     7
 43
1.0
 76
     1
 77
     6
 78
     2
 67
     7
 79
     5
170
     0
171
     0
290
     0
174
     0
 93
        1
 44
0.0
173
     0
291
     1
 45
0.0
1001
ACAD
1000
AcDbSavedByObjectVersion
1070
     0
  0
VISUALSTYLE
  5
3AB6
102
{ACAD_XDICTIONARY
360
3B0E
102
}
102
{ACAD_REACTORS
330
3AB5
102
}
330
3AB5
100
AcDbVisualStyle
  2
Flat
 70
     0
 71
     2
 72
     1
 73
     1
 90
        2
 40
-0.6
 41
30.0
 62
     5
 63
     7
 74
     0
 91
        0
 64
     7
 65
   257
 75
     1
175
     1
 42
1.0
 92
        8
 66
     7
 43
1.0
 76
     1
 77
     6
 78
     2
 67
     7
 79
     5
170
     0
171
     0
290
     0
174
     0
 93
       13
 44
0.0
173
     0
291
     1
 45
0.0
1001
ACAD
1000
AcDbSavedByObjectVersion
1070
     0
  0
VISUALSTYLE
  5
3AB7
102
{ACAD_XDICTIONARY
360
3B10
102
}
102
{ACAD_REACTORS
330
3AB5
102
}
330
3AB5
100
AcDbVisualStyle
  2
FlatWithEdges
 70
     1
 71
     2
 72
     1
 73
     1
 90
        2
 40
-0.6
 41
30.0
 62
     5
 63
     7
 74
     1
 91
        0
 64
     7
 65
   257
 75
     1
175
     1
 42
1.0
 92
        0
 66
   257
 43
1.0
 76
     1
 77
     6
 78
     2
 67
     7
 79
     5
170
     0
171
     0
290
     0
174
     0
 93
       13
 44
0.0
173
     0
291
     1
 45
0.0
1001
ACAD
1000
AcDbSavedByObjectVersion
1070
     0
  0
VISUALSTYLE
  5
3AB8
102
{ACAD_XDICTIONARY
360
3B12
102
}
102
{ACAD_REACTORS
330
3AB5
102
}
330
3AB5
100
AcDbVisualStyle
  2
Gouraud
 70
     2
 71
     2
 72
     2
 73
     1
 90
        2
 40
-0.6
 41
30.0
 62
     5
 63
     7
 74
     0
 91
        0
 64
     7
 65
   257
 75
     1
175
     1
 42
1.0
 92
        0
 66
     7
 43
1.0
 76
     1
 77
     6
 78
     2
 67
     7
 79
     5
170
     0
171
     0
290
     0
174
     0
 93
       13
 44
0.0
173
     0
291
     1
 45
0.0
1001
ACAD
1000
AcDbSavedByObjectVersion
1070
     0
  0
VISUALSTYLE
  5
3AB9
102
{ACAD_XDICTIONARY
360
3B14
102
}
102
{ACAD_REACTORS
330
3AB5
102
}
330
3AB5
100
AcDbVisualStyle
  2
GouraudWithEdges
 70
     3
 71
     2
 72
     2
 73
     1
 90
        2
 40
-0.6
 41
30.0
 62
     5
 63
     7
 74
     1
 91
        0
 64
     7
 65
   257
 75
     1
175
     1
 42
1.0
 92
        0
 66
   257
 43
1.0
 76
     1
 77
     6
 78
     2
 67
     7
 79
     5
170
     0
171
     0
290
     0
174
     0
 93
       13
 44
0.0
173
     0
291
     1
 45
0.0
1001
ACAD
1000
AcDbSavedByObjectVersion
1070
     0
  0
VISUALSTYLE
  5
3ABD
102
{ACAD_XDICTIONARY
360
3B1C
102
}
102
{ACAD_REACTORS
330
3AB5
102
}
330
3AB5
100
AcDbVisualStyle
  2
Hidden
 70
     6
 71
     1
 72
     2
 73
     2
 90
        0
 40
-0.6
 41
-30.0
 62
     5
 63
     7
 74
     2
 91
        2
 64
     7
 65
   257
 75
     2
175
     1
 42
40.0
 92
        0
 66
   257
 43
1.0
 76
     1
 77
     6
 78
     2
 67
     7
 79
     3
170
     0
171
     0
290
     0
174
     0
 93
        1
 44
0.0
173
     0
291
     0
 45
0.0
1001
ACAD
1000
AcDbSavedByObjectVersion
1070
     0
  0
VISUALSTYLE
  5
3ACB
102
{ACAD_XDICTIONARY
360
3B38
102
}
102
{ACAD_REACTORS
330
3AB5
102
}
330
3AB5
100
AcDbVisualStyle
  2
JitterOff
 70
    20
 71
     2
 72
     2
 73
     0
 90
        0
 40
-0.6
 41
-30.0
 62
     5
 63
     7
 74
     1
 91
        4
 64
     7
 65
   257
 75
     1
175
     1
 42
1.0
 92
       10
 66
     7
 43
1.0
 76
     1
 77
     6
 78
     2
 67
     7
 79
     5
170
     0
171
     0
290
     0
174
     0
 93
        1
 44
0.0
173
     0
291
     1
 45
0.0
1001
ACAD
1000
AcDbSavedByObjectVersion
1070
     0
  0
VISUALSTYLE
  5
3AC3
102
{ACAD_XDICTIONARY
360
3B28
102
}
102
{ACAD_REACTORS
330
3AB5
102
}
330
3AB5
100
AcDbVisualStyle
  2
Linepattern
 70
    14
 71
     2
 72
     2
 73
     0
 90
        0
 40
-0.6
 41
-30.0
 62
     5
 63
     7
 74
     1
 91
        4
 64
     7
 65
   257
 75
     7
175
     7
 42
1.0
 92
        8
 66
     7
 43
1.0
 76
     1
 77
     6
 78
     2
 67
     7
 79
     5
170
     0
171
     0
290
     0
174
     0
 93
        1
 44
0.0
173
     0
291
     1
 45
0.0
1001
ACAD
1000
AcDbSavedByObjectVersion
1070
     0
  0
VISUALSTYLE
  5
3ACC
102
{ACAD_XDICTIONARY
360
3B3A
102
}
102
{ACAD_REACTORS
330
3AB5
102
}
330
3AB5
100
AcDbVisualStyle
  2
OverhangOff
 70
    21
 71
     2
 72
     2
 73
     0
 90
        0
 40
-0.6
 41
-30.0
 62
     5
 63
     7
 74
     1
 91
        4
 64
     7
 65
   257
 75
     1
175
     1
 42
1.0
 92
        9
 66
     7
 43
1.0
 76
     1
 77
     6
 78
     2
 67
     7
 79
     5
170
     0
171
     0
290
     0
174
     0
 93
        1
 44
0.0
173
     0
291
     1
 45
0.0
1001
ACAD
1000
AcDbSavedByObjectVersion
1070
     0
  0
VISUALSTYLE
  5
3ABF
102
{ACAD_XDICTIONARY
360
3B20
102
}
102
{ACAD_REACTORS
330
3AB5
102
}
330
3AB5
100
AcDbVisualStyle
  2
Realistic
 70
     8
 71
     2
 72
     3
 73
     0
 90
        2
 40
-0.6
 41
30.0
 62
     5
 63
     7
 74
     0
 91
        0
 64
     7
 65
   257
 75
     1
175
     1
 42
1.0
 92
        8
 66
   257
 43
1.0
 76
     1
 77
     6
 78
     2
 67
     7
 79
     3
170
     0
171
     0
290
     0
174
     0
 93
       13
 44
0.0
173
     0
291
     0
 45
0.0
1001
ACAD
1000
AcDbSavedByObjectVersion
1070
     0
  0
VISUALSTYLE
  5
3ACA
102
{ACAD_XDICTIONARY
360
3B36
102
}
102
{ACAD_REACTORS
330
3AB5
102
}
330
3AB5
100
AcDbVisualStyle
  2
Shaded
 70
    27
 71
     2
 72
     2
 73
     1
 90
        2
 40
-0.6
 41
30.0
 62
     5
 63
     7
 74
     0
 91
        4
 64
     7
 65
   257
 75
     1
175
     1
 42
1.0
 92
        8
 66
   257
 43
1.0
 76
     1
 77
     6
 78
     2
 67
     8
 79
     3
170
     0
171
     0
290
     0
174
     0
 93
        5
 44
0.0
173
     0
291
     0
 45
0.0
1001
ACAD
1000
AcDbSavedByObjectVersion
1070
     0
  0
VISUALSTYLE
  5
3AC9
102
{ACAD_XDICTIONARY
360
3B34
102
}
102
{ACAD_REACTORS
330
3AB5
102
}
330
3AB5
100
AcDbVisualStyle
  2
Shaded with edges
 70
    26
 71
     2
 72
     2
 73
     1
 90
        2
 40
-0.6
 41
30.0
 62
     5
 63
     7
 74
     1
 91
       10
 64
     7
 65
   257
 75
     2
175
     1
 42
1.0
 92
        8
 66
   257
 43
1.0
 76
     1
 77
     6
 78
     2
 67
     7
 79
     3
170
     0
171
     0
290
     0
174
     0
 93
        5
 44
0.0
173
     0
291
     0
 45
0.0
1001
ACAD
1000
AcDbSavedByObjectVersion
1070
     0
  0
VISUALSTYLE
  5
3AC6
102
{ACAD_XDICTIONARY
360
3B2E
102
}
102
{ACAD_REACTORS
330
3AB5
102
}
330
3AB5
100
AcDbVisualStyle
  2
Shades of Gray
 70
    23
 71
     2
 72
     2
 73
     3
 90
        0
 40
-0.6
 41
-30.0
 62
     5
 63
     7
 74
     2
 91
        2
 64
     7
 65
     7
 75
     1
175
     1
 42
40.0
 92
        8
 66
     7
 43
1.0
 76
     1
 77
     6
 78
     2
 67
     7
 79
     3
170
     0
171
     0
290
     0
174
     0
 93
        1
 44
0.0
173
     0
291
     0
 45
0.0
1001
ACAD
1000
AcDbSavedByObjectVersion
1070
     0
  0
VISUALSTYLE
  5
3AC7
102
{ACAD_XDICTIONARY
360
3B30
102
}
102
{ACAD_REACTORS
330
3AB5
102
}
330
3AB5
100
AcDbVisualStyle
  2
Sketchy
 70
    24
 71
     1
 72
     2
 73
     2
 90
        0
 40
-0.6
 41
-30.0
 62
     5
 63
     7
 74
     2
 91
        2
 64
     7
 65
     7
 75
     1
175
     1
 42
40.0
 92
       11
 66
     7
 43
1.0
 76
     1
 77
     6
 78
     2
 67
     7
 79
     6
170
     0
171
     0
290
     0
174
     0
 93
        1
 44
0.0
173
     0
291
     0
 45
0.0
1001
ACAD
1000
AcDbSavedByObjectVersion
1070
     0
  0
VISUALSTYLE
  5
3AC2
102
{ACAD_XDICTIONARY
360
3B26
102
}
102
{ACAD_REACTORS
330
3AB5
102
}
330
3AB5
100
AcDbVisualStyle
  2
Thicken
 70
    13
 71
     2
 72
     2
 73
     0
 90
        0
 40
-0.6
 41
-30.0
 62
     5
 63
     7
 74
     1
 91
        4
 64
     7
 65
   257
 75
     1
175
     1
 42
1.0
 92
       12
 66
     7
 43
1.0
 76
     1
 77
     6
 78
     2
 67
     7
 79
     5
170
     0
171
     0
290
     0
174
     0
 93
        1
 44
0.0
173
     0
291
     1
 45
0.0
1001
ACAD
1000
AcDbSavedByObjectVersion
1070
     0
  0
VISUALSTYLE
  5
3ABC
102
{ACAD_XDICTIONARY
360
3B1A
102
}
102
{ACAD_REACTORS
330
3AB5
102
}
330
3AB5
100
AcDbVisualStyle
  2
Wireframe
 70
     5
 71
     0
 72
     2
 73
     0
 90
        0
 40
-0.6
 41
-30.0
 62
     5
 63
     7
 74
     1
 91
        4
 64
     7
 65
   257
 75
     1
175
     1
 42
1.0
 92
        0
 66
   257
 43
1.0
 76
     1
 77
     6
 78
     2
 67
     7
 79
     3
170
     0
171
     0
290
     0
174
     0
 93
        1
 44
0.0
173
     0
291
     0
 45
0.0
1001
ACAD
1000
AcDbSavedByObjectVersion
1070
     0
  0
VISUALSTYLE
  5
3AC8
102
{ACAD_XDICTIONARY
360
3B32
102
}
102
{ACAD_REACTORS
330
3AB5
102
}
330
3AB5
100
AcDbVisualStyle
  2
X-Ray
 70
    25
 71
     2
 72
     2
 73
     1
 90
        1
 40
0.5
 41
-30.0
 62
     5
 63
     7
 74
     1
 91
        0
 64
     7
 65
   257
 75
     1
175
     1
 42
1.0
 92
        8
 66
     7
 43
1.0
 76
     1
 77
     6
 78
     2
 67
     7
 79
     3
170
     0
171
     0
290
     0
174
     0
 93
       13
 44
0.0
173
     0
291
     0
 45
0.0
1001
ACAD
1000
AcDbSavedByObjectVersion
1070
     0
  0
DICTIONARYVAR
  5
3B01
102
{ACAD_REACTORS
330
3AFC
102
}
330
3AFC
100
DictionaryVariables
280
     0
  1
1:1
  0
DICTIONARYVAR
  5
3AFE
102
{ACAD_REACTORS
330
3AFC
102
}
330
3AFC
100
DictionaryVariables
280
     0
  1
STANDARD
  0
DICTIONARYVAR
  5
3AFD
102
{ACAD_REACTORS
330
3AFC
102
}
330
3AFC
100
DictionaryVariables
280
     0
  1
STANDARD
  0
DICTIONARYVAR
  5
3AFF
102
{ACAD_REACTORS
330
3AFC
102
}
330
3AFC
100
DictionaryVariables
280
     0
  1
Imperial24
  0
DICTIONARYVAR
  5
3B00
102
{ACAD_REACTORS
330
3AFC
102
}
330
3AFC
100
DictionaryVariables
280
     0
  1
Imperial24
  0
DICTIONARYVAR
  5
3B04
102
{ACAD_REACTORS
330
3AFC
102
}
330
3AFC
100
DictionaryVariables
280
     0
  1
1
  0
DICTIONARYVAR
  5
3B03
102
{ACAD_REACTORS
330
3AFC
102
}
330
3AFC
100
DictionaryVariables
280
     0
  1
0
  0
DICTIONARYVAR
  5
3B02
102
{ACAD_REACTORS
330
3AFC
102
}
330
3AFC
100
DictionaryVariables
280
     0
  1
127
  0
DICTIONARYVAR
  5
3B05
102
{ACAD_REACTORS
330
3AFC
102
}
330
3AFC
100
DictionaryVariables
280
     0
  1
2
  0
DICTIONARY
  5
3B42
330
3AE8
100
AcDbDictionary
280
     1
281
     1
  3
ACAD_XREC_ROUNDTRIP
360
3B43
  0
DICTIONARY
  5
3B44
330
3AE9
100
AcDbDictionary
280
     1
281
     1
  3
ACAD_XREC_ROUNDTRIP
360
3B45
  0
DICTIONARY
  5
3B46
330
3AEA
100
AcDbDictionary
280
     1
281
     1
  3
ACAD_XREC_ROUNDTRIP
360
3B47
  0
DICTIONARY
  5
3AA6
330
3AA5
100
AcDbDictionary
280
     1
281
     1
  3
ACAD_XREC_ROUNDTRIP
360
3B0C
  3
BUMPTILE
360
3AA8
  3
DIFFUSETILE
360
3AA7
  3
OPACITYTILE
360
3AAB
  3
REFLECTIONTILE
360
3AAA
  3
REFRACTIONTILE
360
3AAC
  3
SPECULARTILE
360
3AA9
  0
DICTIONARY
  5
3A9E
330
3A9D
100
AcDbDictionary
280
     1
281
     1
  3
ACAD_XREC_ROUNDTRIP
360
3B0B
  3
BUMPTILE
360
3AA0
  3
DIFFUSETILE
360
3A9F
  3
OPACITYTILE
360
3AA3
  3
REFLECTIONTILE
360
3AA2
  3
REFRACTIONTILE
360
3AA4
  3
SPECULARTILE
360
3AA1
  0
DICTIONARY
  5
3AAE
330
3AAD
100
AcDbDictionary
280
     1
281
     1
  3
ACAD_XREC_ROUNDTRIP
360
3B0D
  3
BUMPTILE
360
3AB0
  3
DIFFUSETILE
360
3AAF
  3
OPACITYTILE
360
3AB3
  3
REFLECTIONTILE
360
3AB2
  3
REFRACTIONTILE
360
3AB4
  3
SPECULARTILE
360
3AB1
  0
DICTIONARY
  5
3B40
330
3AE6
100
AcDbDictionary
280
     1
281
     1
  3
ACAD_XREC_ROUNDTRIP
360
3B41
  0
DICTIONARY
  5
3B07
330
3AD0
100
AcDbDictionary
280
     1
281
     1
  3
ACAD_ROUNDTRIP_2008_TABLESTYLE_CELLSTYLEMAP
360
3B08
  3
ACAD_XREC_ROUNDTRIP
360
3B3E
  0
DICTIONARY
  5
3B18
330
3ABB
100
AcDbDictionary
280
     1
281
     1
  3
ACAD_XREC_ROUNDTRIP
360
3B19
  0
DICTIONARY
  5
3B16
330
3ABA
100
AcDbDictionary
280
     1
281
     1
  3
ACAD_XREC_ROUNDTRIP
360
3B17
  0
DICTIONARY
  5
3B24
330
3AC1
100
AcDbDictionary
280
     1
281
     1
  3
ACAD_XREC_ROUNDTRIP
360
3B25
  0
DICTIONARY
  5
3B2C
330
3AC5
100
AcDbDictionary
280
     1
281
     1
  3
ACAD_XREC_ROUNDTRIP
360
3B2D
  0
DICTIONARY
  5
3B1E
330
3ABE
100
AcDbDictionary
280
     1
281
     1
  3
ACAD_XREC_ROUNDTRIP
360
3B1F
  0
DICTIONARY
  5
3B22
330
3AC0
100
AcDbDictionary
280
     1
281
     1
  3
ACAD_XREC_ROUNDTRIP
360
3B23
  0
DICTIONARY
  5
3B3C
330
3ACD
100
AcDbDictionary
280
     1
281
     1
  3
ACAD_XREC_ROUNDTRIP
360
3B3D
  0
DICTIONARY
  5
3B2A
330
3AC4
100
AcDbDictionary
280
     1
281
     1
  3
ACAD_XREC_ROUNDTRIP
360
3B2B
  0
DICTIONARY
  5
3B0E
330
3AB6
100
AcDbDictionary
280
     1
281
     1
  3
ACAD_XREC_ROUNDTRIP
360
3B0F
  0
DICTIONARY
  5
3B10
330
3AB7
100
AcDbDictionary
280
     1
281
     1
  3
ACAD_XREC_ROUNDTRIP
360
3B11
  0
DICTIONARY
  5
3B12
330
3AB8
100
AcDbDictionary
280
     1
281
     1
  3
ACAD_XREC_ROUNDTRIP
360
3B13
  0
DICTIONARY
  5
3B14
330
3AB9
100
AcDbDictionary
280
     1
281
     1
  3
ACAD_XREC_ROUNDTRIP
360
3B15
  0
DICTIONARY
  5
3B1C
330
3ABD
100
AcDbDictionary
280
     1
281
     1
  3
ACAD_XREC_ROUNDTRIP
360
3B1D
  0
DICTIONARY
  5
3B38
330
3ACB
100
AcDbDictionary
280
     1
281
     1
  3
ACAD_XREC_ROUNDTRIP
360
3B39
  0
DICTIONARY
  5
3B28
330
3AC3
100
AcDbDictionary
280
     1
281
     1
  3
ACAD_XREC_ROUNDTRIP
360
3B29
  0
DICTIONARY
  5
3B3A
330
3ACC
100
AcDbDictionary
280
     1
281
     1
  3
ACAD_XREC_ROUNDTRIP
360
3B3B
  0
DICTIONARY
  5
3B20
330
3ABF
100
AcDbDictionary
280
     1
281
     1
  3
ACAD_XREC_ROUNDTRIP
360
3B21
  0
DICTIONARY
  5
3B36
330
3ACA
100
AcDbDictionary
280
     1
281
     1
  3
ACAD_XREC_ROUNDTRIP
360
3B37
  0
DICTIONARY
  5
3B34
330
3AC9
100
AcDbDictionary
280
     1
281
     1
  3
ACAD_XREC_ROUNDTRIP
360
3B35
  0
DICTIONARY
  5
3B2E
330
3AC6
100
AcDbDictionary
280
     1
281
     1
  3
ACAD_XREC_ROUNDTRIP
360
3B2F
  0
DICTIONARY
  5
3B30
330
3AC7
100
AcDbDictionary
280
     1
281
     1
  3
ACAD_XREC_ROUNDTRIP
360
3B31
  0
DICTIONARY
  5
3B26
330
3AC2
100
AcDbDictionary
280
     1
281
     1
  3
ACAD_XREC_ROUNDTRIP
360
3B27
  0
DICTIONARY
  5
3B1A
330
3ABC
100
AcDbDictionary
280
     1
281
     1
  3
ACAD_XREC_ROUNDTRIP
360
3B1B
  0
DICTIONARY
  5
3B32
330
3AC8
100
AcDbDictionary
280
     1
281
     1
  3
ACAD_XREC_ROUNDTRIP
360
3B33
  0
XRECORD
  5
3B43
102
{ACAD_REACTORS
330
3B42
102
}
330
3B42
100
AcDbXrecord
280
     1
102
DISPLAYNAME
  1
Imperial24
102
FLAGS
 90
        0
  0
XRECORD
  5
3B45
102
{ACAD_REACTORS
330
3B44
102
}
330
3B44
100
AcDbXrecord
280
     1
102
SHADEPLOT
 70
     0
102
SHADEPLOTRESLEVEL
 70
     2
102
SHADEPLOTCUSTOMDPI
 70
   300
  0
XRECORD
  5
3B47
102
{ACAD_REACTORS
330
3B46
102
}
330
3B46
100
AcDbXrecord
280
     1
102
SHADEPLOT
 70
     0
102
SHADEPLOTRESLEVEL
 70
     2
102
SHADEPLOTCUSTOMDPI
 70
   300
  0
XRECORD
  5
3B0C
102
{ACAD_REACTORS
330
3AA6
102
}
330
3AA6
100
AcDbXrecord
280
     1
102
MATERIAL
148
0.0
149
0.0
149
0.0
 93
        0
 94
      127
282
     0
 72
     0
 77
     0
171
     0
175
     0
179
     0
273
     0
  0
XRECORD
  5
3AA8
102
{ACAD_REACTORS
330
3AA6
102
}
330
3AA6
100
AcDbXrecord
280
     1
270
     1
271
     1
  0
XRECORD
  5
3AA7
102
{ACAD_REACTORS
330
3AA6
102
}
330
3AA6
100
AcDbXrecord
280
     1
270
     1
271
     1
  0
XRECORD
  5
3AAB
102
{ACAD_REACTORS
330
3AA6
102
}
330
3AA6
100
AcDbXrecord
280
     1
270
     1
271
     1
  0
XRECORD
  5
3AAA
102
{ACAD_REACTORS
330
3AA6
102
}
330
3AA6
100
AcDbXrecord
280
     1
270
     1
271
     1
  0
XRECORD
  5
3AAC
102
{ACAD_REACTORS
330
3AA6
102
}
330
3AA6
100
AcDbXrecord
280
     1
270
     1
271
     1
  0
XRECORD
  5
3AA9
102
{ACAD_REACTORS
330
3AA6
102
}
330
3AA6
100
AcDbXrecord
280
     1
270
     1
271
     1
  0
XRECORD
  5
3B0B
102
{ACAD_REACTORS
330
3A9E
102
}
330
3A9E
100
AcDbXrecord
280
     1
102
MATERIAL
148
0.0
149
0.0
149
0.0
 93
        0
 94
      127
282
     0
 72
     0
 77
     0
171
     0
175
     0
179
     0
273
     0
  0
XRECORD
  5
3AA0
102
{ACAD_REACTORS
330
3A9E
102
}
330
3A9E
100
AcDbXrecord
280
     1
270
     1
271
     1
  0
XRECORD
  5
3A9F
102
{ACAD_REACTORS
330
3A9E
102
}
330
3A9E
100
AcDbXrecord
280
     1
270
     1
271
     1
  0
XRECORD
  5
3AA3
102
{ACAD_REACTORS
330
3A9E
102
}
330
3A9E
100
AcDbXrecord
280
     1
270
     1
271
     1
  0
XRECORD
  5
3AA2
102
{ACAD_REACTORS
330
3A9E
102
}
330
3A9E
100
AcDbXrecord
280
     1
270
     1
271
     1
  0
XRECORD
  5
3AA4
102
{ACAD_REACTORS
330
3A9E
102
}
330
3A9E
100
AcDbXrecord
280
     1
270
     1
271
     1
  0
XRECORD
  5
3AA1
102
{ACAD_REACTORS
330
3A9E
102
}
330
3A9E
100
AcDbXrecord
280
     1
270
     1
271
     1
  0
XRECORD
  5
3B0D
102
{ACAD_REACTORS
330
3AAE
102
}
330
3AAE
100
AcDbXrecord
280
     1
102
MATERIAL
148
0.0
149
0.0
149
0.0
 93
        0
 94
      127
282
     0
 72
     0
 77
     0
171
     0
175
     0
179
     0
273
     0
  0
XRECORD
  5
3AB0
102
{ACAD_REACTORS
330
3AAE
102
}
330
3AAE
100
AcDbXrecord
280
     1
270
     1
271
     1
  0
XRECORD
  5
3AAF
102
{ACAD_REACTORS
330
3AAE
102
}
330
3AAE
100
AcDbXrecord
280
     1
270
     1
271
     1
  0
XRECORD
  5
3AB3
102
{ACAD_REACTORS
330
3AAE
102
}
330
3AAE
100
AcDbXrecord
280
     1
270
     1
271
     1
  0
XRECORD
  5
3AB2
102
{ACAD_REACTORS
330
3AAE
102
}
330
3AAE
100
AcDbXrecord
280
     1
270
     1
271
     1
  0
XRECORD
  5
3AB4
102
{ACAD_REACTORS
330
3AAE
102
}
330
3AAE
100
AcDbXrecord
280
     1
270
     1
271
     1
  0
XRECORD
  5
3AB1
102
{ACAD_REACTORS
330
3AAE
102
}
330
3AAE
100
AcDbXrecord
280
     1
270
     1
271
     1
  0
XRECORD
  5
3B41
102
{ACAD_REACTORS
330
3B40
102
}
330
3B40
100
AcDbXrecord
280
     1
102
DISPLAYNAME
  1
Imperial24
102
FLAGS
 90
        0
  0
CELLSTYLEMAP
  5
3B08
102
{ACAD_REACTORS
330
3B07
102
}
330
3B07
100
AcDbCellStyleMap
 90
        3
300
CELLSTYLE
  1
TABLEFORMAT_BEGIN
 90
        5
170
     1
 91
        0
 92
    32768
 62
   257
 93
        1
300
CONTENTFORMAT
  1
CONTENTFORMAT_BEGIN
 90
        0
 91
        0
 92
      512
 93
        0
300

 40
0.0
140
1.0
 94
        5
 62
     0
340
F
144
0.25
309
CONTENTFORMAT_END
171
     0
 94
        0
309
TABLEFORMAT_END
  1
CELLSTYLE_BEGIN
 90
        1
 91
        1
300
_TITLE
309
CELLSTYLE_END
300
CELLSTYLE
  1
TABLEFORMAT_BEGIN
 90
        5
170
     1
 91
        0
 92
        0
 62
   257
 93
        1
300
CONTENTFORMAT
  1
CONTENTFORMAT_BEGIN
 90
        0
 91
        0
 92
      512
 93
        0
300

 40
0.0
140
1.0
 94
        5
 62
     0
340
F
144
0.18
309
CONTENTFORMAT_END
171
     0
 94
        0
309
TABLEFORMAT_END
  1
CELLSTYLE_BEGIN
 90
        2
 91
        1
300
_HEADER
309
CELLSTYLE_END
300
CELLSTYLE
  1
TABLEFORMAT_BEGIN
 90
        5
170
     1
 91
        0
 92
        0
 62
   257
 93
        1
300
CONTENTFORMAT
  1
CONTENTFORMAT_BEGIN
 90
        0
 91
        0
 92
      512
 93
        0
300

 40
0.0
140
1.0
 94
        2
 62
     0
340
F
144
0.18
309
CONTENTFORMAT_END
171
     0
 94
        0
309
TABLEFORMAT_END
  1
CELLSTYLE_BEGIN
 90
        3
 91
        2
300
_DATA
309
CELLSTYLE_END
  0
XRECORD
  5
3B3E
102
{ACAD_REACTORS
330
3B07
102
}
330
3B07
100
AcDbXrecord
280
     1
102
ACAD_ROUNDTRIP_PRE2007_TABLESTYLE
 90
      512
 91
        0
  1

 92
      512
 93
        0
  2

 94
      512
 95
        0
  3

  0
XRECORD
  5
3B19
102
{ACAD_REACTORS
330
3B18
102
}
330
3B18
100
AcDbXrecord
280
     1
102
RTVSPost2010Prop28
280
     1
102
RTVSPost2010PropOp28
 70
     1
102
RTVSPost2010Prop29
280
     1
102
RTVSPost2010PropOp29
 70
     1
102
RTVSPost2010Prop30
280
     0
102
RTVSPost2010PropOp30
 70
     1
102
RTVSPost2010Prop31
280
     0
102
RTVSPost2010PropOp31
 70
     1
102
RTVSPost2010Prop32
280
     0
102
RTVSPost2010PropOp32
 70
     1
102
RTVSPost2010Prop33
280
     0
102
RTVSPost2010PropOp33
 70
     1
102
RTVSPost2010Prop34
280
     0
102
RTVSPost2010PropOp34
 70
     1
102
RTVSPost2010Prop35
280
     0
102
RTVSPost2010PropOp35
 70
     1
102
RTVSPost2010Prop36
280
     0
102
RTVSPost2010PropOp36
 70
     1
102
RTVSPost2010Prop37
 90
       50
102
RTVSPost2010PropOp37
 70
     1
102
RTVSPost2010Prop38
140
0.0
102
RTVSPost2010PropOp38
 70
     1
102
RTVSPost2010Prop39
140
1.0
102
RTVSPost2010PropOp39
 70
     1
102
RTVSPost2010Prop40
 90
        0
102
RTVSPost2010PropOp40
 70
     1
102
RTVSPost2010Prop41ColorIndex
 90
       18
102
RTVSPost2010Prop41ColorRGB
 90
        0
102
RTVSPost2010PropOp41
 70
     1
102
RTVSPost2010Prop42
 90
       50
102
RTVSPost2010PropOp42
 70
     1
102
RTVSPost2010Prop43
 90
        3
102
RTVSPost2010PropOp43
 70
     1
102
RTVSPost2010Prop44ColorIndex
 90
        5
102
RTVSPost2010Prop44ColorRGB
 90
      255
102
RTVSPost2010PropOp44
 70
     1
102
RTVSPost2010Prop45
280
     0
102
RTVSPost2010PropOp45
 70
     1
102
RTVSPost2010Prop46
 90
       50
102
RTVSPost2010PropOp46
 70
     1
102
RTVSPost2010Prop47
 90
       50
102
RTVSPost2010PropOp47
 70
     1
102
RTVSPost2010Prop48
 90
       50
102
RTVSPost2010PropOp48
 70
     1
102
RTVSPost2010Prop49
280
     0
102
RTVSPost2010PropOp49
 70
     1
102
RTVSPost2010Prop50
 90
       50
102
RTVSPost2010PropOp50
 70
     1
102
RTVSPost2010Prop51ColorIndex
 90
      256
102
RTVSPost2010Prop51ColorRGB
 90
-16777216
102
RTVSPost2010PropOp51
 70
     0
102
RTVSPost2010Prop52
140
1.0
102
RTVSPost2010PropOp52
 70
     0
102
RTVSPost2010Prop53
 90
        2
102
RTVSPost2010PropOp53
 70
     1
102
RTVSPost2010Prop54
  1
strokes_ogs.tif
102
RTVSPost2010PropOp54
 70
     1
102
RTVSPost2010Prop55
280
     0
102
RTVSPost2010PropOp55
 70
     1
102
RTVSPost2010Prop56
140
1.0
102
RTVSPost2010PropOp56
 70
     1
102
RTVSPost2010Prop57
140
1.0
102
RTVSPost2010PropOp57
 70
     1
102
RTVSPropertyOp0
 70
     1
102
RTVSPropertyOp1
 70
     1
102
RTVSPropertyOp2
 70
     1
102
RTVSPropertyOp3
 70
     1
102
RTVSPropertyOp4
 70
     1
102
RTVSPropertyOp5
 70
     1
102
RTVSPropertyOp6
 70
     1
102
RTVSPropertyOp7
 70
     1
102
RTVSPropertyOp8
 70
     1
102
RTVSPropertyOp9
 70
     1
102
RTVSPropertyOp10
 70
     1
102
RTVSPropertyOp11
 70
     1
102
RTVSPropertyOp12
 70
     1
102
RTVSPropertyOp13
 70
     1
102
RTVSPropertyOp14
 70
     1
102
RTVSPropertyOp15
 70
     1
102
RTVSPropertyOp16
 70
     1
102
RTVSPropertyOp17
 70
     1
102
RTVSPropertyOp18
 70
     1
102
RTVSPropertyOp19
 70
     1
102
RTVSPropertyOp20
 70
     1
102
RTVSPropertyOp21
 70
     1
102
RTVSPropertyOp22
 70
     1
102
RTVSPropertyOp23
 70
     1
102
RTVSPropertyOp24
 70
     1
102
RTVSPropertyOp25
 70
     1
102
RTVSPropertyOp26
 70
     1
102
RTVSPropertyOp27
 70
     1
102
RTVSPropertyOp28
 70
     1
102
RTVSPropertyOp29
 70
     1
102
RTVSPropertyOp30
 70
     1
102
RTVSPropertyOp31
 70
     1
102
RTVSPropertyOp32
 70
     1
102
RTVSPropertyOp33
 70
     1
102
RTVSPropertyOp34
 70
     1
102
RTVSPropertyOp35
 70
     1
102
RTVSPropertyOp36
 70
     1
102
RTVSPropertyOp37
 70
     1
102
RTVSPropertyOp38
 70
     1
102
RTVSPropertyOp39
 70
     1
102
RTVSPropertyOp40
 70
     1
102
RTVSPropertyOp41
 70
     1
102
RTVSPropertyOp42
 70
     1
102
RTVSPropertyOp43
 70
     1
102
RTVSPropertyOp44
 70
     1
102
RTVSPropertyOp45
 70
     1
102
RTVSPropertyOp46
 70
     1
102
RTVSPropertyOp47
 70
     1
102
RTVSPropertyOp48
 70
     1
102
RTVSPropertyOp49
 70
     1
102
RTVSPropertyOp50
 70
     1
102
RTVSPropertyOp51
 70
     0
102
RTVSPropertyOp52
 70
     0
102
RTVSPropertyOp53
 70
     1
102
RTVSPropertyOp54
 70
     1
102
RTVSPropertyOp55
 70
     1
102
RTVSPropertyOp56
 70
     1
102
RTVSPropertyOp57
 70
     1
102
RTVSPropertyOp58
 70
     1
102
RTVSPropertyOp59
 70
     1
102
RTVSPropertyOp60
 70
     1
102
RTVSPropertyOp61
 70
     1
102
RTVSPropertyOp62
 70
     1
  0
XRECORD
  5
3B17
102
{ACAD_REACTORS
330
3B16
102
}
330
3B16
100
AcDbXrecord
280
     1
102
RTVSPost2010Prop28
280
     0
102
RTVSPost2010PropOp28
 70
     1
102
RTVSPost2010Prop29
280
     1
102
RTVSPost2010PropOp29
 70
     1
102
RTVSPost2010Prop30
280
     1
102
RTVSPost2010PropOp30
 70
     1
102
RTVSPost2010Prop31
280
     0
102
RTVSPost2010PropOp31
 70
     1
102
RTVSPost2010Prop32
280
     0
102
RTVSPost2010PropOp32
 70
     1
102
RTVSPost2010Prop33
280
     0
102
RTVSPost2010PropOp33
 70
     1
102
RTVSPost2010Prop34
280
     0
102
RTVSPost2010PropOp34
 70
     1
102
RTVSPost2010Prop35
280
     0
102
RTVSPost2010PropOp35
 70
     1
102
RTVSPost2010Prop36
280
     0
102
RTVSPost2010PropOp36
 70
     1
102
RTVSPost2010Prop37
 90
       50
102
RTVSPost2010PropOp37
 70
     1
102
RTVSPost2010Prop38
140
0.0
102
RTVSPost2010PropOp38
 70
     1
102
RTVSPost2010Prop39
140
1.0
102
RTVSPost2010PropOp39
 70
     1
102
RTVSPost2010Prop40
 90
        0
102
RTVSPost2010PropOp40
 70
     1
102
RTVSPost2010Prop41ColorIndex
 90
       18
102
RTVSPost2010Prop41ColorRGB
 90
        0
102
RTVSPost2010PropOp41
 70
     1
102
RTVSPost2010Prop42
 90
       50
102
RTVSPost2010PropOp42
 70
     1
102
RTVSPost2010Prop43
 90
        3
102
RTVSPost2010PropOp43
 70
     1
102
RTVSPost2010Prop44ColorIndex
 90
        5
102
RTVSPost2010Prop44ColorRGB
 90
      255
102
RTVSPost2010PropOp44
 70
     1
102
RTVSPost2010Prop45
280
     0
102
RTVSPost2010PropOp45
 70
     1
102
RTVSPost2010Prop46
 90
       50
102
RTVSPost2010PropOp46
 70
     1
102
RTVSPost2010Prop47
 90
       50
102
RTVSPost2010PropOp47
 70
     1
102
RTVSPost2010Prop48
 90
       50
102
RTVSPost2010PropOp48
 70
     1
102
RTVSPost2010Prop49
280
     0
102
RTVSPost2010PropOp49
 70
     1
102
RTVSPost2010Prop50
 90
       50
102
RTVSPost2010PropOp50
 70
     1
102
RTVSPost2010Prop51ColorIndex
 90
      256
102
RTVSPost2010Prop51ColorRGB
 90
-16777216
102
RTVSPost2010PropOp51
 70
     0
102
RTVSPost2010Prop52
140
1.0
102
RTVSPost2010PropOp52
 70
     0
102
RTVSPost2010Prop53
 90
        2
102
RTVSPost2010PropOp53
 70
     1
102
RTVSPost2010Prop54
  1
strokes_ogs.tif
102
RTVSPost2010PropOp54
 70
     1
102
RTVSPost2010Prop55
280
     0
102
RTVSPost2010PropOp55
 70
     1
102
RTVSPost2010Prop56
140
1.0
102
RTVSPost2010PropOp56
 70
     1
102
RTVSPost2010Prop57
140
1.0
102
RTVSPost2010PropOp57
 70
     1
102
RTVSPropertyOp0
 70
     1
102
RTVSPropertyOp1
 70
     1
102
RTVSPropertyOp2
 70
     1
102
RTVSPropertyOp3
 70
     1
102
RTVSPropertyOp4
 70
     1
102
RTVSPropertyOp5
 70
     1
102
RTVSPropertyOp6
 70
     1
102
RTVSPropertyOp7
 70
     1
102
RTVSPropertyOp8
 70
     1
102
RTVSPropertyOp9
 70
     1
102
RTVSPropertyOp10
 70
     1
102
RTVSPropertyOp11
 70
     1
102
RTVSPropertyOp12
 70
     1
102
RTVSPropertyOp13
 70
     1
102
RTVSPropertyOp14
 70
     1
102
RTVSPropertyOp15
 70
     1
102
RTVSPropertyOp16
 70
     1
102
RTVSPropertyOp17
 70
     1
102
RTVSPropertyOp18
 70
     1
102
RTVSPropertyOp19
 70
     1
102
RTVSPropertyOp20
 70
     1
102
RTVSPropertyOp21
 70
     1
102
RTVSPropertyOp22
 70
     1
102
RTVSPropertyOp23
 70
     1
102
RTVSPropertyOp24
 70
     1
102
RTVSPropertyOp25
 70
     1
102
RTVSPropertyOp26
 70
     1
102
RTVSPropertyOp27
 70
     1
102
RTVSPropertyOp28
 70
     1
102
RTVSPropertyOp29
 70
     1
102
RTVSPropertyOp30
 70
     1
102
RTVSPropertyOp31
 70
     1
102
RTVSPropertyOp32
 70
     1
102
RTVSPropertyOp33
 70
     1
102
RTVSPropertyOp34
 70
     1
102
RTVSPropertyOp35
 70
     1
102
RTVSPropertyOp36
 70
     1
102
RTVSPropertyOp37
 70
     1
102
RTVSPropertyOp38
 70
     1
102
RTVSPropertyOp39
 70
     1
102
RTVSPropertyOp40
 70
     1
102
RTVSPropertyOp41
 70
     1
102
RTVSPropertyOp42
 70
     1
102
RTVSPropertyOp43
 70
     1
102
RTVSPropertyOp44
 70
     1
102
RTVSPropertyOp45
 70
     1
102
RTVSPropertyOp46
 70
     1
102
RTVSPropertyOp47
 70
     1
102
RTVSPropertyOp48
 70
     1
102
RTVSPropertyOp49
 70
     1
102
RTVSPropertyOp50
 70
     1
102
RTVSPropertyOp51
 70
     0
102
RTVSPropertyOp52
 70
     0
102
RTVSPropertyOp53
 70
     1
102
RTVSPropertyOp54
 70
     1
102
RTVSPropertyOp55
 70
     1
102
RTVSPropertyOp56
 70
     1
102
RTVSPropertyOp57
 70
     1
102
RTVSPropertyOp58
 70
     1
102
RTVSPropertyOp59
 70
     1
102
RTVSPropertyOp60
 70
     1
102
RTVSPropertyOp61
 70
     1
102
RTVSPropertyOp62
 70
     1
  0
XRECORD
  5
3B25
102
{ACAD_REACTORS
330
3B24
102
}
330
3B24
100
AcDbXrecord
280
     1
102
RTVSPost2010Prop28
280
     0
102
RTVSPost2010PropOp28
 70
     1
102
RTVSPost2010Prop29
280
     1
102
RTVSPost2010PropOp29
 70
     1
102
RTVSPost2010Prop30
280
     1
102
RTVSPost2010PropOp30
 70
     1
102
RTVSPost2010Prop31
280
     0
102
RTVSPost2010PropOp31
 70
     1
102
RTVSPost2010Prop32
280
     0
102
RTVSPost2010PropOp32
 70
     1
102
RTVSPost2010Prop33
280
     0
102
RTVSPost2010PropOp33
 70
     1
102
RTVSPost2010Prop34
280
     0
102
RTVSPost2010PropOp34
 70
     1
102
RTVSPost2010Prop35
280
     0
102
RTVSPost2010PropOp35
 70
     1
102
RTVSPost2010Prop36
280
     0
102
RTVSPost2010PropOp36
 70
     1
102
RTVSPost2010Prop37
 90
       50
102
RTVSPost2010PropOp37
 70
     1
102
RTVSPost2010Prop38
140
0.0
102
RTVSPost2010PropOp38
 70
     1
102
RTVSPost2010Prop39
140
1.0
102
RTVSPost2010PropOp39
 70
     1
102
RTVSPost2010Prop40
 90
        0
102
RTVSPost2010PropOp40
 70
     1
102
RTVSPost2010Prop41ColorIndex
 90
       18
102
RTVSPost2010Prop41ColorRGB
 90
        0
102
RTVSPost2010PropOp41
 70
     1
102
RTVSPost2010Prop42
 90
       50
102
RTVSPost2010PropOp42
 70
     1
102
RTVSPost2010Prop43
 90
        3
102
RTVSPost2010PropOp43
 70
     1
102
RTVSPost2010Prop44ColorIndex
 90
        5
102
RTVSPost2010Prop44ColorRGB
 90
      255
102
RTVSPost2010PropOp44
 70
     1
102
RTVSPost2010Prop45
280
     0
102
RTVSPost2010PropOp45
 70
     1
102
RTVSPost2010Prop46
 90
       50
102
RTVSPost2010PropOp46
 70
     1
102
RTVSPost2010Prop47
 90
       50
102
RTVSPost2010PropOp47
 70
     1
102
RTVSPost2010Prop48
 90
       50
102
RTVSPost2010PropOp48
 70
     1
102
RTVSPost2010Prop49
280
     0
102
RTVSPost2010PropOp49
 70
     1
102
RTVSPost2010Prop50
 90
       50
102
RTVSPost2010PropOp50
 70
     1
102
RTVSPost2010Prop51ColorIndex
 90
      256
102
RTVSPost2010Prop51ColorRGB
 90
-16777216
102
RTVSPost2010PropOp51
 70
     0
102
RTVSPost2010Prop52
140
1.0
102
RTVSPost2010PropOp52
 70
     0
102
RTVSPost2010Prop53
 90
        2
102
RTVSPost2010PropOp53
 70
     1
102
RTVSPost2010Prop54
  1
strokes_ogs.tif
102
RTVSPost2010PropOp54
 70
     1
102
RTVSPost2010Prop55
280
     0
102
RTVSPost2010PropOp55
 70
     1
102
RTVSPost2010Prop56
140
1.0
102
RTVSPost2010PropOp56
 70
     1
102
RTVSPost2010Prop57
140
1.0
102
RTVSPost2010PropOp57
 70
     1
102
RTVSPropertyOp0
 70
     1
102
RTVSPropertyOp1
 70
     1
102
RTVSPropertyOp2
 70
     1
102
RTVSPropertyOp3
 70
     1
102
RTVSPropertyOp4
 70
     1
102
RTVSPropertyOp5
 70
     1
102
RTVSPropertyOp6
 70
     1
102
RTVSPropertyOp7
 70
     1
102
RTVSPropertyOp8
 70
     1
102
RTVSPropertyOp9
 70
     1
102
RTVSPropertyOp10
 70
     1
102
RTVSPropertyOp11
 70
     1
102
RTVSPropertyOp12
 70
     1
102
RTVSPropertyOp13
 70
     1
102
RTVSPropertyOp14
 70
     1
102
RTVSPropertyOp15
 70
     1
102
RTVSPropertyOp16
 70
     1
102
RTVSPropertyOp17
 70
     1
102
RTVSPropertyOp18
 70
     1
102
RTVSPropertyOp19
 70
     1
102
RTVSPropertyOp20
 70
     1
102
RTVSPropertyOp21
 70
     1
102
RTVSPropertyOp22
 70
     1
102
RTVSPropertyOp23
 70
     1
102
RTVSPropertyOp24
 70
     1
102
RTVSPropertyOp25
 70
     1
102
RTVSPropertyOp26
 70
     1
102
RTVSPropertyOp27
 70
     1
102
RTVSPropertyOp28
 70
     1
102
RTVSPropertyOp29
 70
     1
102
RTVSPropertyOp30
 70
     1
102
RTVSPropertyOp31
 70
     1
102
RTVSPropertyOp32
 70
     1
102
RTVSPropertyOp33
 70
     1
102
RTVSPropertyOp34
 70
     1
102
RTVSPropertyOp35
 70
     1
102
RTVSPropertyOp36
 70
     1
102
RTVSPropertyOp37
 70
     1
102
RTVSPropertyOp38
 70
     1
102
RTVSPropertyOp39
 70
     1
102
RTVSPropertyOp40
 70
     1
102
RTVSPropertyOp41
 70
     1
102
RTVSPropertyOp42
 70
     1
102
RTVSPropertyOp43
 70
     1
102
RTVSPropertyOp44
 70
     1
102
RTVSPropertyOp45
 70
     1
102
RTVSPropertyOp46
 70
     1
102
RTVSPropertyOp47
 70
     1
102
RTVSPropertyOp48
 70
     1
102
RTVSPropertyOp49
 70
     1
102
RTVSPropertyOp50
 70
     1
102
RTVSPropertyOp51
 70
     0
102
RTVSPropertyOp52
 70
     0
102
RTVSPropertyOp53
 70
     1
102
RTVSPropertyOp54
 70
     1
102
RTVSPropertyOp55
 70
     1
102
RTVSPropertyOp56
 70
     1
102
RTVSPropertyOp57
 70
     1
102
RTVSPropertyOp58
 70
     1
102
RTVSPropertyOp59
 70
     1
102
RTVSPropertyOp60
 70
     1
102
RTVSPropertyOp61
 70
     1
102
RTVSPropertyOp62
 70
     1
  0
XRECORD
  5
3B2D
102
{ACAD_REACTORS
330
3B2C
102
}
330
3B2C
100
AcDbXrecord
280
     1
102
RTVSPost2010Prop28
280
     0
102
RTVSPost2010PropOp28
 70
     1
102
RTVSPost2010Prop29
280
     1
102
RTVSPost2010PropOp29
 70
     1
102
RTVSPost2010Prop30
280
     1
102
RTVSPost2010PropOp30
 70
     1
102
RTVSPost2010Prop31
280
     0
102
RTVSPost2010PropOp31
 70
     1
102
RTVSPost2010Prop32
280
     0
102
RTVSPost2010PropOp32
 70
     1
102
RTVSPost2010Prop33
280
     0
102
RTVSPost2010PropOp33
 70
     1
102
RTVSPost2010Prop34
280
     0
102
RTVSPost2010PropOp34
 70
     1
102
RTVSPost2010Prop35
280
     0
102
RTVSPost2010PropOp35
 70
     1
102
RTVSPost2010Prop36
280
     0
102
RTVSPost2010PropOp36
 70
     1
102
RTVSPost2010Prop37
 90
       50
102
RTVSPost2010PropOp37
 70
     1
102
RTVSPost2010Prop38
140
0.0
102
RTVSPost2010PropOp38
 70
     1
102
RTVSPost2010Prop39
140
1.0
102
RTVSPost2010PropOp39
 70
     1
102
RTVSPost2010Prop40
 90
        0
102
RTVSPost2010PropOp40
 70
     1
102
RTVSPost2010Prop41ColorIndex
 90
       18
102
RTVSPost2010Prop41ColorRGB
 90
        0
102
RTVSPost2010PropOp41
 70
     1
102
RTVSPost2010Prop42
 90
       50
102
RTVSPost2010PropOp42
 70
     1
102
RTVSPost2010Prop43
 90
        3
102
RTVSPost2010PropOp43
 70
     1
102
RTVSPost2010Prop44ColorIndex
 90
        5
102
RTVSPost2010Prop44ColorRGB
 90
      255
102
RTVSPost2010PropOp44
 70
     1
102
RTVSPost2010Prop45
280
     0
102
RTVSPost2010PropOp45
 70
     1
102
RTVSPost2010Prop46
 90
       50
102
RTVSPost2010PropOp46
 70
     1
102
RTVSPost2010Prop47
 90
       50
102
RTVSPost2010PropOp47
 70
     1
102
RTVSPost2010Prop48
 90
       50
102
RTVSPost2010PropOp48
 70
     1
102
RTVSPost2010Prop49
280
     0
102
RTVSPost2010PropOp49
 70
     1
102
RTVSPost2010Prop50
 90
       50
102
RTVSPost2010PropOp50
 70
     1
102
RTVSPost2010Prop51ColorIndex
 90
      256
102
RTVSPost2010Prop51ColorRGB
 90
-16777216
102
RTVSPost2010PropOp51
 70
     0
102
RTVSPost2010Prop52
140
1.0
102
RTVSPost2010PropOp52
 70
     0
102
RTVSPost2010Prop53
 90
        2
102
RTVSPost2010PropOp53
 70
     1
102
RTVSPost2010Prop54
  1
strokes_ogs.tif
102
RTVSPost2010PropOp54
 70
     1
102
RTVSPost2010Prop55
280
     0
102
RTVSPost2010PropOp55
 70
     1
102
RTVSPost2010Prop56
140
1.0
102
RTVSPost2010PropOp56
 70
     1
102
RTVSPost2010Prop57
140
1.0
102
RTVSPost2010PropOp57
 70
     1
102
RTVSPropertyOp0
 70
     1
102
RTVSPropertyOp1
 70
     1
102
RTVSPropertyOp2
 70
     1
102
RTVSPropertyOp3
 70
     1
102
RTVSPropertyOp4
 70
     1
102
RTVSPropertyOp5
 70
     1
102
RTVSPropertyOp6
 70
     1
102
RTVSPropertyOp7
 70
     1
102
RTVSPropertyOp8
 70
     1
102
RTVSPropertyOp9
 70
     1
102
RTVSPropertyOp10
 70
     1
102
RTVSPropertyOp11
 70
     1
102
RTVSPropertyOp12
 70
     1
102
RTVSPropertyOp13
 70
     1
102
RTVSPropertyOp14
 70
     1
102
RTVSPropertyOp15
 70
     1
102
RTVSPropertyOp16
 70
     1
102
RTVSPropertyOp17
 70
     1
102
RTVSPropertyOp18
 70
     1
102
RTVSPropertyOp19
 70
     1
102
RTVSPropertyOp20
 70
     1
102
RTVSPropertyOp21
 70
     1
102
RTVSPropertyOp22
 70
     1
102
RTVSPropertyOp23
 70
     1
102
RTVSPropertyOp24
 70
     1
102
RTVSPropertyOp25
 70
     1
102
RTVSPropertyOp26
 70
     1
102
RTVSPropertyOp27
 70
     1
102
RTVSPropertyOp28
 70
     1
102
RTVSPropertyOp29
 70
     1
102
RTVSPropertyOp30
 70
     1
102
RTVSPropertyOp31
 70
     1
102
RTVSPropertyOp32
 70
     1
102
RTVSPropertyOp33
 70
     1
102
RTVSPropertyOp34
 70
     1
102
RTVSPropertyOp35
 70
     1
102
RTVSPropertyOp36
 70
     1
102
RTVSPropertyOp37
 70
     1
102
RTVSPropertyOp38
 70
     1
102
RTVSPropertyOp39
 70
     1
102
RTVSPropertyOp40
 70
     1
102
RTVSPropertyOp41
 70
     1
102
RTVSPropertyOp42
 70
     1
102
RTVSPropertyOp43
 70
     1
102
RTVSPropertyOp44
 70
     1
102
RTVSPropertyOp45
 70
     1
102
RTVSPropertyOp46
 70
     1
102
RTVSPropertyOp47
 70
     1
102
RTVSPropertyOp48
 70
     1
102
RTVSPropertyOp49
 70
     1
102
RTVSPropertyOp50
 70
     1
102
RTVSPropertyOp51
 70
     0
102
RTVSPropertyOp52
 70
     0
102
RTVSPropertyOp53
 70
     1
102
RTVSPropertyOp54
 70
     1
102
RTVSPropertyOp55
 70
     1
102
RTVSPropertyOp56
 70
     1
102
RTVSPropertyOp57
 70
     1
102
RTVSPropertyOp58
 70
     1
102
RTVSPropertyOp59
 70
     1
102
RTVSPropertyOp60
 70
     1
102
RTVSPropertyOp61
 70
     1
102
RTVSPropertyOp62
 70
     1
  0
XRECORD
  5
3B1F
102
{ACAD_REACTORS
330
3B1E
102
}
330
3B1E
100
AcDbXrecord
280
     1
102
RTVSPost2010Prop28
280
     0
102
RTVSPost2010PropOp28
 70
     1
102
RTVSPost2010Prop29
280
     1
102
RTVSPost2010PropOp29
 70
     1
102
RTVSPost2010Prop30
280
     1
102
RTVSPost2010PropOp30
 70
     1
102
RTVSPost2010Prop31
280
     0
102
RTVSPost2010PropOp31
 70
     1
102
RTVSPost2010Prop32
280
     0
102
RTVSPost2010PropOp32
 70
     1
102
RTVSPost2010Prop33
280
     0
102
RTVSPost2010PropOp33
 70
     1
102
RTVSPost2010Prop34
280
     0
102
RTVSPost2010PropOp34
 70
     1
102
RTVSPost2010Prop35
280
     0
102
RTVSPost2010PropOp35
 70
     1
102
RTVSPost2010Prop36
280
     0
102
RTVSPost2010PropOp36
 70
     1
102
RTVSPost2010Prop37
 90
       50
102
RTVSPost2010PropOp37
 70
     1
102
RTVSPost2010Prop38
140
0.0
102
RTVSPost2010PropOp38
 70
     1
102
RTVSPost2010Prop39
140
1.0
102
RTVSPost2010PropOp39
 70
     1
102
RTVSPost2010Prop40
 90
        0
102
RTVSPost2010PropOp40
 70
     1
102
RTVSPost2010Prop41ColorIndex
 90
       18
102
RTVSPost2010Prop41ColorRGB
 90
        0
102
RTVSPost2010PropOp41
 70
     1
102
RTVSPost2010Prop42
 90
       50
102
RTVSPost2010PropOp42
 70
     1
102
RTVSPost2010Prop43
 90
        3
102
RTVSPost2010PropOp43
 70
     1
102
RTVSPost2010Prop44ColorIndex
 90
        5
102
RTVSPost2010Prop44ColorRGB
 90
      255
102
RTVSPost2010PropOp44
 70
     1
102
RTVSPost2010Prop45
280
     0
102
RTVSPost2010PropOp45
 70
     1
102
RTVSPost2010Prop46
 90
       50
102
RTVSPost2010PropOp46
 70
     1
102
RTVSPost2010Prop47
 90
       50
102
RTVSPost2010PropOp47
 70
     1
102
RTVSPost2010Prop48
 90
       50
102
RTVSPost2010PropOp48
 70
     1
102
RTVSPost2010Prop49
280
     0
102
RTVSPost2010PropOp49
 70
     1
102
RTVSPost2010Prop50
 90
       50
102
RTVSPost2010PropOp50
 70
     1
102
RTVSPost2010Prop51ColorIndex
 90
      256
102
RTVSPost2010Prop51ColorRGB
 90
-16777216
102
RTVSPost2010PropOp51
 70
     0
102
RTVSPost2010Prop52
140
1.0
102
RTVSPost2010PropOp52
 70
     0
102
RTVSPost2010Prop53
 90
        2
102
RTVSPost2010PropOp53
 70
     1
102
RTVSPost2010Prop54
  1
strokes_ogs.tif
102
RTVSPost2010PropOp54
 70
     1
102
RTVSPost2010Prop55
280
     0
102
RTVSPost2010PropOp55
 70
     1
102
RTVSPost2010Prop56
140
1.0
102
RTVSPost2010PropOp56
 70
     1
102
RTVSPost2010Prop57
140
1.0
102
RTVSPost2010PropOp57
 70
     1
102
RTVSPropertyOp0
 70
     1
102
RTVSPropertyOp1
 70
     1
102
RTVSPropertyOp2
 70
     1
102
RTVSPropertyOp3
 70
     1
102
RTVSPropertyOp4
 70
     1
102
RTVSPropertyOp5
 70
     1
102
RTVSPropertyOp6
 70
     1
102
RTVSPropertyOp7
 70
     1
102
RTVSPropertyOp8
 70
     1
102
RTVSPropertyOp9
 70
     1
102
RTVSPropertyOp10
 70
     1
102
RTVSPropertyOp11
 70
     1
102
RTVSPropertyOp12
 70
     1
102
RTVSPropertyOp13
 70
     1
102
RTVSPropertyOp14
 70
     1
102
RTVSPropertyOp15
 70
     1
102
RTVSPropertyOp16
 70
     1
102
RTVSPropertyOp17
 70
     1
102
RTVSPropertyOp18
 70
     1
102
RTVSPropertyOp19
 70
     1
102
RTVSPropertyOp20
 70
     1
102
RTVSPropertyOp21
 70
     1
102
RTVSPropertyOp22
 70
     1
102
RTVSPropertyOp23
 70
     1
102
RTVSPropertyOp24
 70
     1
102
RTVSPropertyOp25
 70
     1
102
RTVSPropertyOp26
 70
     1
102
RTVSPropertyOp27
 70
     1
102
RTVSPropertyOp28
 70
     1
102
RTVSPropertyOp29
 70
     1
102
RTVSPropertyOp30
 70
     1
102
RTVSPropertyOp31
 70
     1
102
RTVSPropertyOp32
 70
     1
102
RTVSPropertyOp33
 70
     1
102
RTVSPropertyOp34
 70
     1
102
RTVSPropertyOp35
 70
     1
102
RTVSPropertyOp36
 70
     1
102
RTVSPropertyOp37
 70
     1
102
RTVSPropertyOp38
 70
     1
102
RTVSPropertyOp39
 70
     1
102
RTVSPropertyOp40
 70
     1
102
RTVSPropertyOp41
 70
     1
102
RTVSPropertyOp42
 70
     1
102
RTVSPropertyOp43
 70
     1
102
RTVSPropertyOp44
 70
     1
102
RTVSPropertyOp45
 70
     1
102
RTVSPropertyOp46
 70
     1
102
RTVSPropertyOp47
 70
     1
102
RTVSPropertyOp48
 70
     1
102
RTVSPropertyOp49
 70
     1
102
RTVSPropertyOp50
 70
     1
102
RTVSPropertyOp51
 70
     0
102
RTVSPropertyOp52
 70
     0
102
RTVSPropertyOp53
 70
     1
102
RTVSPropertyOp54
 70
     1
102
RTVSPropertyOp55
 70
     1
102
RTVSPropertyOp56
 70
     1
102
RTVSPropertyOp57
 70
     1
102
RTVSPropertyOp58
 70
     1
102
RTVSPropertyOp59
 70
     1
102
RTVSPropertyOp60
 70
     1
102
RTVSPropertyOp61
 70
     1
102
RTVSPropertyOp62
 70
     1
  0
XRECORD
  5
3B23
102
{ACAD_REACTORS
330
3B22
102
}
330
3B22
100
AcDbXrecord
280
     1
102
RTVSPost2010Prop28
280
     0
102
RTVSPost2010PropOp28
 70
     1
102
RTVSPost2010Prop29
280
     1
102
RTVSPost2010PropOp29
 70
     1
102
RTVSPost2010Prop30
280
     1
102
RTVSPost2010PropOp30
 70
     1
102
RTVSPost2010Prop31
280
     0
102
RTVSPost2010PropOp31
 70
     1
102
RTVSPost2010Prop32
280
     0
102
RTVSPost2010PropOp32
 70
     1
102
RTVSPost2010Prop33
280
     0
102
RTVSPost2010PropOp33
 70
     1
102
RTVSPost2010Prop34
280
     0
102
RTVSPost2010PropOp34
 70
     1
102
RTVSPost2010Prop35
280
     0
102
RTVSPost2010PropOp35
 70
     1
102
RTVSPost2010Prop36
280
     0
102
RTVSPost2010PropOp36
 70
     1
102
RTVSPost2010Prop37
 90
       50
102
RTVSPost2010PropOp37
 70
     1
102
RTVSPost2010Prop38
140
0.0
102
RTVSPost2010PropOp38
 70
     1
102
RTVSPost2010Prop39
140
1.0
102
RTVSPost2010PropOp39
 70
     1
102
RTVSPost2010Prop40
 90
        0
102
RTVSPost2010PropOp40
 70
     1
102
RTVSPost2010Prop41ColorIndex
 90
       18
102
RTVSPost2010Prop41ColorRGB
 90
        0
102
RTVSPost2010PropOp41
 70
     1
102
RTVSPost2010Prop42
 90
       50
102
RTVSPost2010PropOp42
 70
     1
102
RTVSPost2010Prop43
 90
        3
102
RTVSPost2010PropOp43
 70
     1
102
RTVSPost2010Prop44ColorIndex
 90
        5
102
RTVSPost2010Prop44ColorRGB
 90
      255
102
RTVSPost2010PropOp44
 70
     1
102
RTVSPost2010Prop45
280
     0
102
RTVSPost2010PropOp45
 70
     1
102
RTVSPost2010Prop46
 90
       50
102
RTVSPost2010PropOp46
 70
     1
102
RTVSPost2010Prop47
 90
       50
102
RTVSPost2010PropOp47
 70
     1
102
RTVSPost2010Prop48
 90
       50
102
RTVSPost2010PropOp48
 70
     1
102
RTVSPost2010Prop49
280
     0
102
RTVSPost2010PropOp49
 70
     1
102
RTVSPost2010Prop50
 90
       50
102
RTVSPost2010PropOp50
 70
     1
102
RTVSPost2010Prop51ColorIndex
 90
      256
102
RTVSPost2010Prop51ColorRGB
 90
-16777216
102
RTVSPost2010PropOp51
 70
     0
102
RTVSPost2010Prop52
140
1.0
102
RTVSPost2010PropOp52
 70
     0
102
RTVSPost2010Prop53
 90
        2
102
RTVSPost2010PropOp53
 70
     1
102
RTVSPost2010Prop54
  1
strokes_ogs.tif
102
RTVSPost2010PropOp54
 70
     1
102
RTVSPost2010Prop55
280
     0
102
RTVSPost2010PropOp55
 70
     1
102
RTVSPost2010Prop56
140
1.0
102
RTVSPost2010PropOp56
 70
     1
102
RTVSPost2010Prop57
140
1.0
102
RTVSPost2010PropOp57
 70
     1
102
RTVSPropertyOp0
 70
     1
102
RTVSPropertyOp1
 70
     1
102
RTVSPropertyOp2
 70
     1
102
RTVSPropertyOp3
 70
     1
102
RTVSPropertyOp4
 70
     1
102
RTVSPropertyOp5
 70
     1
102
RTVSPropertyOp6
 70
     1
102
RTVSPropertyOp7
 70
     1
102
RTVSPropertyOp8
 70
     1
102
RTVSPropertyOp9
 70
     1
102
RTVSPropertyOp10
 70
     1
102
RTVSPropertyOp11
 70
     1
102
RTVSPropertyOp12
 70
     1
102
RTVSPropertyOp13
 70
     1
102
RTVSPropertyOp14
 70
     1
102
RTVSPropertyOp15
 70
     1
102
RTVSPropertyOp16
 70
     1
102
RTVSPropertyOp17
 70
     1
102
RTVSPropertyOp18
 70
     1
102
RTVSPropertyOp19
 70
     1
102
RTVSPropertyOp20
 70
     1
102
RTVSPropertyOp21
 70
     1
102
RTVSPropertyOp22
 70
     1
102
RTVSPropertyOp23
 70
     1
102
RTVSPropertyOp24
 70
     1
102
RTVSPropertyOp25
 70
     1
102
RTVSPropertyOp26
 70
     1
102
RTVSPropertyOp27
 70
     1
102
RTVSPropertyOp28
 70
     1
102
RTVSPropertyOp29
 70
     1
102
RTVSPropertyOp30
 70
     1
102
RTVSPropertyOp31
 70
     1
102
RTVSPropertyOp32
 70
     1
102
RTVSPropertyOp33
 70
     1
102
RTVSPropertyOp34
 70
     1
102
RTVSPropertyOp35
 70
     1
102
RTVSPropertyOp36
 70
     1
102
RTVSPropertyOp37
 70
     1
102
RTVSPropertyOp38
 70
     1
102
RTVSPropertyOp39
 70
     1
102
RTVSPropertyOp40
 70
     1
102
RTVSPropertyOp41
 70
     1
102
RTVSPropertyOp42
 70
     1
102
RTVSPropertyOp43
 70
     1
102
RTVSPropertyOp44
 70
     1
102
RTVSPropertyOp45
 70
     1
102
RTVSPropertyOp46
 70
     1
102
RTVSPropertyOp47
 70
     1
102
RTVSPropertyOp48
 70
     1
102
RTVSPropertyOp49
 70
     1
102
RTVSPropertyOp50
 70
     1
102
RTVSPropertyOp51
 70
     0
102
RTVSPropertyOp52
 70
     0
102
RTVSPropertyOp53
 70
     1
102
RTVSPropertyOp54
 70
     1
102
RTVSPropertyOp55
 70
     1
102
RTVSPropertyOp56
 70
     1
102
RTVSPropertyOp57
 70
     1
102
RTVSPropertyOp58
 70
     1
102
RTVSPropertyOp59
 70
     1
102
RTVSPropertyOp60
 70
     1
102
RTVSPropertyOp61
 70
     1
102
RTVSPropertyOp62
 70
     1
  0
XRECORD
  5
3B3D
102
{ACAD_REACTORS
330
3B3C
102
}
330
3B3C
100
AcDbXrecord
280
     1
102
RTVSPost2010Prop28
280
     0
102
RTVSPost2010PropOp28
 70
     1
102
RTVSPost2010Prop29
280
     1
102
RTVSPost2010PropOp29
 70
     1
102
RTVSPost2010Prop30
280
     1
102
RTVSPost2010PropOp30
 70
     1
102
RTVSPost2010Prop31
280
     0
102
RTVSPost2010PropOp31
 70
     1
102
RTVSPost2010Prop32
280
     0
102
RTVSPost2010PropOp32
 70
     1
102
RTVSPost2010Prop33
280
     0
102
RTVSPost2010PropOp33
 70
     1
102
RTVSPost2010Prop34
280
     0
102
RTVSPost2010PropOp34
 70
     1
102
RTVSPost2010Prop35
280
     0
102
RTVSPost2010PropOp35
 70
     1
102
RTVSPost2010Prop36
280
     0
102
RTVSPost2010PropOp36
 70
     1
102
RTVSPost2010Prop37
 90
       50
102
RTVSPost2010PropOp37
 70
     0
102
RTVSPost2010Prop38
140
0.0
102
RTVSPost2010PropOp38
 70
     0
102
RTVSPost2010Prop39
140
1.0
102
RTVSPost2010PropOp39
 70
     0
102
RTVSPost2010Prop40
 90
        0
102
RTVSPost2010PropOp40
 70
     0
102
RTVSPost2010Prop41ColorIndex
 90
       18
102
RTVSPost2010Prop41ColorRGB
 90
        0
102
RTVSPost2010PropOp41
 70
     0
102
RTVSPost2010Prop42
 90
       50
102
RTVSPost2010PropOp42
 70
     0
102
RTVSPost2010Prop43
 90
        3
102
RTVSPost2010PropOp43
 70
     0
102
RTVSPost2010Prop44ColorIndex
 90
        5
102
RTVSPost2010Prop44ColorRGB
 90
      255
102
RTVSPost2010PropOp44
 70
     0
102
RTVSPost2010Prop45
280
     0
102
RTVSPost2010PropOp45
 70
     1
102
RTVSPost2010Prop46
 90
       50
102
RTVSPost2010PropOp46
 70
     0
102
RTVSPost2010Prop47
 90
       50
102
RTVSPost2010PropOp47
 70
     0
102
RTVSPost2010Prop48
 90
       50
102
RTVSPost2010PropOp48
 70
     0
102
RTVSPost2010Prop49
280
     0
102
RTVSPost2010PropOp49
 70
     1
102
RTVSPost2010Prop50
 90
       50
102
RTVSPost2010PropOp50
 70
     0
102
RTVSPost2010Prop51ColorIndex
 90
      256
102
RTVSPost2010Prop51ColorRGB
 90
-16777216
102
RTVSPost2010PropOp51
 70
     0
102
RTVSPost2010Prop52
140
1.0
102
RTVSPost2010PropOp52
 70
     0
102
RTVSPost2010Prop53
 90
        2
102
RTVSPost2010PropOp53
 70
     0
102
RTVSPost2010Prop54
  1
strokes_ogs.tif
102
RTVSPost2010PropOp54
 70
     0
102
RTVSPost2010Prop55
280
     0
102
RTVSPost2010PropOp55
 70
     1
102
RTVSPost2010Prop56
140
1.0
102
RTVSPost2010PropOp56
 70
     0
102
RTVSPost2010Prop57
140
1.0
102
RTVSPost2010PropOp57
 70
     0
102
RTVSPropertyOp0
 70
     0
102
RTVSPropertyOp1
 70
     0
102
RTVSPropertyOp2
 70
     0
102
RTVSPropertyOp3
 70
     0
102
RTVSPropertyOp4
 70
     0
102
RTVSPropertyOp5
 70
     0
102
RTVSPropertyOp6
 70
     0
102
RTVSPropertyOp7
 70
     0
102
RTVSPropertyOp8
 70
     0
102
RTVSPropertyOp9
 70
     0
102
RTVSPropertyOp10
 70
     0
102
RTVSPropertyOp11
 70
     0
102
RTVSPropertyOp12
 70
     0
102
RTVSPropertyOp13
 70
     0
102
RTVSPropertyOp14
 70
     2
102
RTVSPropertyOp15
 70
     0
102
RTVSPropertyOp16
 70
     0
102
RTVSPropertyOp17
 70
     0
102
RTVSPropertyOp18
 70
     0
102
RTVSPropertyOp19
 70
     0
102
RTVSPropertyOp20
 70
     0
102
RTVSPropertyOp21
 70
     0
102
RTVSPropertyOp22
 70
     0
102
RTVSPropertyOp23
 70
     0
102
RTVSPropertyOp24
 70
     0
102
RTVSPropertyOp25
 70
     0
102
RTVSPropertyOp26
 70
     0
102
RTVSPropertyOp27
 70
     0
102
RTVSPropertyOp28
 70
     1
102
RTVSPropertyOp29
 70
     1
102
RTVSPropertyOp30
 70
     1
102
RTVSPropertyOp31
 70
     1
102
RTVSPropertyOp32
 70
     1
102
RTVSPropertyOp33
 70
     1
102
RTVSPropertyOp34
 70
     1
102
RTVSPropertyOp35
 70
     1
102
RTVSPropertyOp36
 70
     1
102
RTVSPropertyOp37
 70
     0
102
RTVSPropertyOp38
 70
     0
102
RTVSPropertyOp39
 70
     0
102
RTVSPropertyOp40
 70
     0
102
RTVSPropertyOp41
 70
     0
102
RTVSPropertyOp42
 70
     0
102
RTVSPropertyOp43
 70
     0
102
RTVSPropertyOp44
 70
     0
102
RTVSPropertyOp45
 70
     1
102
RTVSPropertyOp46
 70
     0
102
RTVSPropertyOp47
 70
     0
102
RTVSPropertyOp48
 70
     0
102
RTVSPropertyOp49
 70
     1
102
RTVSPropertyOp50
 70
     0
102
RTVSPropertyOp51
 70
     0
102
RTVSPropertyOp52
 70
     0
102
RTVSPropertyOp53
 70
     0
102
RTVSPropertyOp54
 70
     0
102
RTVSPropertyOp55
 70
     1
102
RTVSPropertyOp56
 70
     0
102
RTVSPropertyOp57
 70
     0
102
RTVSPropertyOp58
 70
     0
102
RTVSPropertyOp59
 70
     0
102
RTVSPropertyOp60
 70
     0
102
RTVSPropertyOp61
 70
     0
102
RTVSPropertyOp62
 70
     0
  0
XRECORD
  5
3B2B
102
{ACAD_REACTORS
330
3B2A
102
}
330
3B2A
100
AcDbXrecord
280
     1
102
RTVSPost2010Prop28
280
     0
102
RTVSPost2010PropOp28
 70
     1
102
RTVSPost2010Prop29
280
     1
102
RTVSPost2010PropOp29
 70
     1
102
RTVSPost2010Prop30
280
     1
102
RTVSPost2010PropOp30
 70
     1
102
RTVSPost2010Prop31
280
     0
102
RTVSPost2010PropOp31
 70
     1
102
RTVSPost2010Prop32
280
     0
102
RTVSPost2010PropOp32
 70
     1
102
RTVSPost2010Prop33
280
     0
102
RTVSPost2010PropOp33
 70
     1
102
RTVSPost2010Prop34
280
     0
102
RTVSPost2010PropOp34
 70
     1
102
RTVSPost2010Prop35
280
     0
102
RTVSPost2010PropOp35
 70
     1
102
RTVSPost2010Prop36
280
     0
102
RTVSPost2010PropOp36
 70
     1
102
RTVSPost2010Prop37
 90
       50
102
RTVSPost2010PropOp37
 70
     1
102
RTVSPost2010Prop38
140
0.0
102
RTVSPost2010PropOp38
 70
     1
102
RTVSPost2010Prop39
140
1.0
102
RTVSPost2010PropOp39
 70
     1
102
RTVSPost2010Prop40
 90
        0
102
RTVSPost2010PropOp40
 70
     1
102
RTVSPost2010Prop41ColorIndex
 90
       18
102
RTVSPost2010Prop41ColorRGB
 90
        0
102
RTVSPost2010PropOp41
 70
     1
102
RTVSPost2010Prop42
 90
       50
102
RTVSPost2010PropOp42
 70
     1
102
RTVSPost2010Prop43
 90
        3
102
RTVSPost2010PropOp43
 70
     1
102
RTVSPost2010Prop44ColorIndex
 90
        5
102
RTVSPost2010Prop44ColorRGB
 90
      255
102
RTVSPost2010PropOp44
 70
     1
102
RTVSPost2010Prop45
280
     0
102
RTVSPost2010PropOp45
 70
     1
102
RTVSPost2010Prop46
 90
       50
102
RTVSPost2010PropOp46
 70
     1
102
RTVSPost2010Prop47
 90
       50
102
RTVSPost2010PropOp47
 70
     1
102
RTVSPost2010Prop48
 90
       50
102
RTVSPost2010PropOp48
 70
     1
102
RTVSPost2010Prop49
280
     0
102
RTVSPost2010PropOp49
 70
     1
102
RTVSPost2010Prop50
 90
       50
102
RTVSPost2010PropOp50
 70
     1
102
RTVSPost2010Prop51ColorIndex
 90
      256
102
RTVSPost2010Prop51ColorRGB
 90
-16777216
102
RTVSPost2010PropOp51
 70
     0
102
RTVSPost2010Prop52
140
1.0
102
RTVSPost2010PropOp52
 70
     0
102
RTVSPost2010Prop53
 90
        2
102
RTVSPost2010PropOp53
 70
     1
102
RTVSPost2010Prop54
  1
strokes_ogs.tif
102
RTVSPost2010PropOp54
 70
     1
102
RTVSPost2010Prop55
280
     0
102
RTVSPost2010PropOp55
 70
     1
102
RTVSPost2010Prop56
140
1.0
102
RTVSPost2010PropOp56
 70
     1
102
RTVSPost2010Prop57
140
1.0
102
RTVSPost2010PropOp57
 70
     1
102
RTVSPropertyOp0
 70
     1
102
RTVSPropertyOp1
 70
     1
102
RTVSPropertyOp2
 70
     1
102
RTVSPropertyOp3
 70
     1
102
RTVSPropertyOp4
 70
     1
102
RTVSPropertyOp5
 70
     1
102
RTVSPropertyOp6
 70
     1
102
RTVSPropertyOp7
 70
     1
102
RTVSPropertyOp8
 70
     1
102
RTVSPropertyOp9
 70
     1
102
RTVSPropertyOp10
 70
     1
102
RTVSPropertyOp11
 70
     1
102
RTVSPropertyOp12
 70
     1
102
RTVSPropertyOp13
 70
     1
102
RTVSPropertyOp14
 70
     1
102
RTVSPropertyOp15
 70
     1
102
RTVSPropertyOp16
 70
     1
102
RTVSPropertyOp17
 70
     1
102
RTVSPropertyOp18
 70
     1
102
RTVSPropertyOp19
 70
     1
102
RTVSPropertyOp20
 70
     1
102
RTVSPropertyOp21
 70
     1
102
RTVSPropertyOp22
 70
     1
102
RTVSPropertyOp23
 70
     1
102
RTVSPropertyOp24
 70
     1
102
RTVSPropertyOp25
 70
     1
102
RTVSPropertyOp26
 70
     1
102
RTVSPropertyOp27
 70
     1
102
RTVSPropertyOp28
 70
     1
102
RTVSPropertyOp29
 70
     1
102
RTVSPropertyOp30
 70
     1
102
RTVSPropertyOp31
 70
     1
102
RTVSPropertyOp32
 70
     1
102
RTVSPropertyOp33
 70
     1
102
RTVSPropertyOp34
 70
     1
102
RTVSPropertyOp35
 70
     1
102
RTVSPropertyOp36
 70
     1
102
RTVSPropertyOp37
 70
     1
102
RTVSPropertyOp38
 70
     1
102
RTVSPropertyOp39
 70
     1
102
RTVSPropertyOp40
 70
     1
102
RTVSPropertyOp41
 70
     1
102
RTVSPropertyOp42
 70
     1
102
RTVSPropertyOp43
 70
     1
102
RTVSPropertyOp44
 70
     1
102
RTVSPropertyOp45
 70
     1
102
RTVSPropertyOp46
 70
     1
102
RTVSPropertyOp47
 70
     1
102
RTVSPropertyOp48
 70
     1
102
RTVSPropertyOp49
 70
     1
102
RTVSPropertyOp50
 70
     1
102
RTVSPropertyOp51
 70
     0
102
RTVSPropertyOp52
 70
     0
102
RTVSPropertyOp53
 70
     1
102
RTVSPropertyOp54
 70
     1
102
RTVSPropertyOp55
 70
     1
102
RTVSPropertyOp56
 70
     1
102
RTVSPropertyOp57
 70
     1
102
RTVSPropertyOp58
 70
     1
102
RTVSPropertyOp59
 70
     1
102
RTVSPropertyOp60
 70
     1
102
RTVSPropertyOp61
 70
     1
102
RTVSPropertyOp62
 70
     1
  0
XRECORD
  5
3B0F
102
{ACAD_REACTORS
330
3B0E
102
}
330
3B0E
100
AcDbXrecord
280
     1
102
RTVSPost2010Prop28
280
     0
102
RTVSPost2010PropOp28
 70
     1
102
RTVSPost2010Prop29
280
     1
102
RTVSPost2010PropOp29
 70
     1
102
RTVSPost2010Prop30
280
     1
102
RTVSPost2010PropOp30
 70
     1
102
RTVSPost2010Prop31
280
     0
102
RTVSPost2010PropOp31
 70
     1
102
RTVSPost2010Prop32
280
     0
102
RTVSPost2010PropOp32
 70
     1
102
RTVSPost2010Prop33
280
     0
102
RTVSPost2010PropOp33
 70
     1
102
RTVSPost2010Prop34
280
     0
102
RTVSPost2010PropOp34
 70
     1
102
RTVSPost2010Prop35
280
     0
102
RTVSPost2010PropOp35
 70
     1
102
RTVSPost2010Prop36
280
     0
102
RTVSPost2010PropOp36
 70
     1
102
RTVSPost2010Prop37
 90
       50
102
RTVSPost2010PropOp37
 70
     1
102
RTVSPost2010Prop38
140
0.0
102
RTVSPost2010PropOp38
 70
     1
102
RTVSPost2010Prop39
140
1.0
102
RTVSPost2010PropOp39
 70
     1
102
RTVSPost2010Prop40
 90
        0
102
RTVSPost2010PropOp40
 70
     1
102
RTVSPost2010Prop41ColorIndex
 90
       18
102
RTVSPost2010Prop41ColorRGB
 90
        0
102
RTVSPost2010PropOp41
 70
     1
102
RTVSPost2010Prop42
 90
       50
102
RTVSPost2010PropOp42
 70
     1
102
RTVSPost2010Prop43
 90
        3
102
RTVSPost2010PropOp43
 70
     1
102
RTVSPost2010Prop44ColorIndex
 90
        5
102
RTVSPost2010Prop44ColorRGB
 90
      255
102
RTVSPost2010PropOp44
 70
     1
102
RTVSPost2010Prop45
280
     0
102
RTVSPost2010PropOp45
 70
     1
102
RTVSPost2010Prop46
 90
       50
102
RTVSPost2010PropOp46
 70
     1
102
RTVSPost2010Prop47
 90
       50
102
RTVSPost2010PropOp47
 70
     1
102
RTVSPost2010Prop48
 90
       50
102
RTVSPost2010PropOp48
 70
     1
102
RTVSPost2010Prop49
280
     0
102
RTVSPost2010PropOp49
 70
     1
102
RTVSPost2010Prop50
 90
       50
102
RTVSPost2010PropOp50
 70
     1
102
RTVSPost2010Prop51ColorIndex
 90
      256
102
RTVSPost2010Prop51ColorRGB
 90
-16777216
102
RTVSPost2010PropOp51
 70
     0
102
RTVSPost2010Prop52
140
1.0
102
RTVSPost2010PropOp52
 70
     0
102
RTVSPost2010Prop53
 90
        2
102
RTVSPost2010PropOp53
 70
     1
102
RTVSPost2010Prop54
  1
strokes_ogs.tif
102
RTVSPost2010PropOp54
 70
     1
102
RTVSPost2010Prop55
280
     0
102
RTVSPost2010PropOp55
 70
     1
102
RTVSPost2010Prop56
140
1.0
102
RTVSPost2010PropOp56
 70
     1
102
RTVSPost2010Prop57
140
1.0
102
RTVSPost2010PropOp57
 70
     1
102
RTVSPropertyOp0
 70
     1
102
RTVSPropertyOp1
 70
     1
102
RTVSPropertyOp2
 70
     1
102
RTVSPropertyOp3
 70
     1
102
RTVSPropertyOp4
 70
     1
102
RTVSPropertyOp5
 70
     1
102
RTVSPropertyOp6
 70
     1
102
RTVSPropertyOp7
 70
     1
102
RTVSPropertyOp8
 70
     1
102
RTVSPropertyOp9
 70
     1
102
RTVSPropertyOp10
 70
     1
102
RTVSPropertyOp11
 70
     1
102
RTVSPropertyOp12
 70
     1
102
RTVSPropertyOp13
 70
     1
102
RTVSPropertyOp14
 70
     1
102
RTVSPropertyOp15
 70
     1
102
RTVSPropertyOp16
 70
     1
102
RTVSPropertyOp17
 70
     1
102
RTVSPropertyOp18
 70
     1
102
RTVSPropertyOp19
 70
     1
102
RTVSPropertyOp20
 70
     1
102
RTVSPropertyOp21
 70
     1
102
RTVSPropertyOp22
 70
     1
102
RTVSPropertyOp23
 70
     1
102
RTVSPropertyOp24
 70
     1
102
RTVSPropertyOp25
 70
     1
102
RTVSPropertyOp26
 70
     1
102
RTVSPropertyOp27
 70
     1
102
RTVSPropertyOp28
 70
     1
102
RTVSPropertyOp29
 70
     1
102
RTVSPropertyOp30
 70
     1
102
RTVSPropertyOp31
 70
     1
102
RTVSPropertyOp32
 70
     1
102
RTVSPropertyOp33
 70
     1
102
RTVSPropertyOp34
 70
     1
102
RTVSPropertyOp35
 70
     1
102
RTVSPropertyOp36
 70
     1
102
RTVSPropertyOp37
 70
     1
102
RTVSPropertyOp38
 70
     1
102
RTVSPropertyOp39
 70
     1
102
RTVSPropertyOp40
 70
     1
102
RTVSPropertyOp41
 70
     1
102
RTVSPropertyOp42
 70
     1
102
RTVSPropertyOp43
 70
     1
102
RTVSPropertyOp44
 70
     1
102
RTVSPropertyOp45
 70
     1
102
RTVSPropertyOp46
 70
     1
102
RTVSPropertyOp47
 70
     1
102
RTVSPropertyOp48
 70
     1
102
RTVSPropertyOp49
 70
     1
102
RTVSPropertyOp50
 70
     1
102
RTVSPropertyOp51
 70
     0
102
RTVSPropertyOp52
 70
     0
102
RTVSPropertyOp53
 70
     1
102
RTVSPropertyOp54
 70
     1
102
RTVSPropertyOp55
 70
     1
102
RTVSPropertyOp56
 70
     1
102
RTVSPropertyOp57
 70
     1
102
RTVSPropertyOp58
 70
     1
102
RTVSPropertyOp59
 70
     1
102
RTVSPropertyOp60
 70
     1
102
RTVSPropertyOp61
 70
     1
102
RTVSPropertyOp62
 70
     1
  0
XRECORD
  5
3B11
102
{ACAD_REACTORS
330
3B10
102
}
330
3B10
100
AcDbXrecord
280
     1
102
RTVSPost2010Prop28
280
     0
102
RTVSPost2010PropOp28
 70
     1
102
RTVSPost2010Prop29
280
     1
102
RTVSPost2010PropOp29
 70
     1
102
RTVSPost2010Prop30
280
     1
102
RTVSPost2010PropOp30
 70
     1
102
RTVSPost2010Prop31
280
     0
102
RTVSPost2010PropOp31
 70
     1
102
RTVSPost2010Prop32
280
     0
102
RTVSPost2010PropOp32
 70
     1
102
RTVSPost2010Prop33
280
     0
102
RTVSPost2010PropOp33
 70
     1
102
RTVSPost2010Prop34
280
     0
102
RTVSPost2010PropOp34
 70
     1
102
RTVSPost2010Prop35
280
     0
102
RTVSPost2010PropOp35
 70
     1
102
RTVSPost2010Prop36
280
     0
102
RTVSPost2010PropOp36
 70
     1
102
RTVSPost2010Prop37
 90
       50
102
RTVSPost2010PropOp37
 70
     1
102
RTVSPost2010Prop38
140
0.0
102
RTVSPost2010PropOp38
 70
     1
102
RTVSPost2010Prop39
140
1.0
102
RTVSPost2010PropOp39
 70
     1
102
RTVSPost2010Prop40
 90
        0
102
RTVSPost2010PropOp40
 70
     1
102
RTVSPost2010Prop41ColorIndex
 90
       18
102
RTVSPost2010Prop41ColorRGB
 90
        0
102
RTVSPost2010PropOp41
 70
     1
102
RTVSPost2010Prop42
 90
       50
102
RTVSPost2010PropOp42
 70
     1
102
RTVSPost2010Prop43
 90
        3
102
RTVSPost2010PropOp43
 70
     1
102
RTVSPost2010Prop44ColorIndex
 90
        5
102
RTVSPost2010Prop44ColorRGB
 90
      255
102
RTVSPost2010PropOp44
 70
     1
102
RTVSPost2010Prop45
280
     0
102
RTVSPost2010PropOp45
 70
     1
102
RTVSPost2010Prop46
 90
       50
102
RTVSPost2010PropOp46
 70
     1
102
RTVSPost2010Prop47
 90
       50
102
RTVSPost2010PropOp47
 70
     1
102
RTVSPost2010Prop48
 90
       50
102
RTVSPost2010PropOp48
 70
     1
102
RTVSPost2010Prop49
280
     0
102
RTVSPost2010PropOp49
 70
     1
102
RTVSPost2010Prop50
 90
       50
102
RTVSPost2010PropOp50
 70
     1
102
RTVSPost2010Prop51ColorIndex
 90
      256
102
RTVSPost2010Prop51ColorRGB
 90
-16777216
102
RTVSPost2010PropOp51
 70
     0
102
RTVSPost2010Prop52
140
1.0
102
RTVSPost2010PropOp52
 70
     0
102
RTVSPost2010Prop53
 90
        2
102
RTVSPost2010PropOp53
 70
     1
102
RTVSPost2010Prop54
  1
strokes_ogs.tif
102
RTVSPost2010PropOp54
 70
     1
102
RTVSPost2010Prop55
280
     0
102
RTVSPost2010PropOp55
 70
     1
102
RTVSPost2010Prop56
140
1.0
102
RTVSPost2010PropOp56
 70
     1
102
RTVSPost2010Prop57
140
1.0
102
RTVSPost2010PropOp57
 70
     1
102
RTVSPropertyOp0
 70
     1
102
RTVSPropertyOp1
 70
     1
102
RTVSPropertyOp2
 70
     1
102
RTVSPropertyOp3
 70
     1
102
RTVSPropertyOp4
 70
     1
102
RTVSPropertyOp5
 70
     1
102
RTVSPropertyOp6
 70
     1
102
RTVSPropertyOp7
 70
     1
102
RTVSPropertyOp8
 70
     1
102
RTVSPropertyOp9
 70
     1
102
RTVSPropertyOp10
 70
     1
102
RTVSPropertyOp11
 70
     1
102
RTVSPropertyOp12
 70
     1
102
RTVSPropertyOp13
 70
     1
102
RTVSPropertyOp14
 70
     1
102
RTVSPropertyOp15
 70
     1
102
RTVSPropertyOp16
 70
     1
102
RTVSPropertyOp17
 70
     1
102
RTVSPropertyOp18
 70
     1
102
RTVSPropertyOp19
 70
     1
102
RTVSPropertyOp20
 70
     1
102
RTVSPropertyOp21
 70
     1
102
RTVSPropertyOp22
 70
     1
102
RTVSPropertyOp23
 70
     1
102
RTVSPropertyOp24
 70
     1
102
RTVSPropertyOp25
 70
     1
102
RTVSPropertyOp26
 70
     1
102
RTVSPropertyOp27
 70
     1
102
RTVSPropertyOp28
 70
     1
102
RTVSPropertyOp29
 70
     1
102
RTVSPropertyOp30
 70
     1
102
RTVSPropertyOp31
 70
     1
102
RTVSPropertyOp32
 70
     1
102
RTVSPropertyOp33
 70
     1
102
RTVSPropertyOp34
 70
     1
102
RTVSPropertyOp35
 70
     1
102
RTVSPropertyOp36
 70
     1
102
RTVSPropertyOp37
 70
     1
102
RTVSPropertyOp38
 70
     1
102
RTVSPropertyOp39
 70
     1
102
RTVSPropertyOp40
 70
     1
102
RTVSPropertyOp41
 70
     1
102
RTVSPropertyOp42
 70
     1
102
RTVSPropertyOp43
 70
     1
102
RTVSPropertyOp44
 70
     1
102
RTVSPropertyOp45
 70
     1
102
RTVSPropertyOp46
 70
     1
102
RTVSPropertyOp47
 70
     1
102
RTVSPropertyOp48
 70
     1
102
RTVSPropertyOp49
 70
     1
102
RTVSPropertyOp50
 70
     1
102
RTVSPropertyOp51
 70
     0
102
RTVSPropertyOp52
 70
     0
102
RTVSPropertyOp53
 70
     1
102
RTVSPropertyOp54
 70
     1
102
RTVSPropertyOp55
 70
     1
102
RTVSPropertyOp56
 70
     1
102
RTVSPropertyOp57
 70
     1
102
RTVSPropertyOp58
 70
     1
102
RTVSPropertyOp59
 70
     1
102
RTVSPropertyOp60
 70
     1
102
RTVSPropertyOp61
 70
     1
102
RTVSPropertyOp62
 70
     1
  0
XRECORD
  5
3B13
102
{ACAD_REACTORS
330
3B12
102
}
330
3B12
100
AcDbXrecord
280
     1
102
RTVSPost2010Prop28
280
     0
102
RTVSPost2010PropOp28
 70
     1
102
RTVSPost2010Prop29
280
     1
102
RTVSPost2010PropOp29
 70
     1
102
RTVSPost2010Prop30
280
     1
102
RTVSPost2010PropOp30
 70
     1
102
RTVSPost2010Prop31
280
     0
102
RTVSPost2010PropOp31
 70
     1
102
RTVSPost2010Prop32
280
     0
102
RTVSPost2010PropOp32
 70
     1
102
RTVSPost2010Prop33
280
     0
102
RTVSPost2010PropOp33
 70
     1
102
RTVSPost2010Prop34
280
     0
102
RTVSPost2010PropOp34
 70
     1
102
RTVSPost2010Prop35
280
     0
102
RTVSPost2010PropOp35
 70
     1
102
RTVSPost2010Prop36
280
     0
102
RTVSPost2010PropOp36
 70
     1
102
RTVSPost2010Prop37
 90
       50
102
RTVSPost2010PropOp37
 70
     1
102
RTVSPost2010Prop38
140
0.0
102
RTVSPost2010PropOp38
 70
     1
102
RTVSPost2010Prop39
140
1.0
102
RTVSPost2010PropOp39
 70
     1
102
RTVSPost2010Prop40
 90
        0
102
RTVSPost2010PropOp40
 70
     1
102
RTVSPost2010Prop41ColorIndex
 90
       18
102
RTVSPost2010Prop41ColorRGB
 90
        0
102
RTVSPost2010PropOp41
 70
     1
102
RTVSPost2010Prop42
 90
       50
102
RTVSPost2010PropOp42
 70
     1
102
RTVSPost2010Prop43
 90
        3
102
RTVSPost2010PropOp43
 70
     1
102
RTVSPost2010Prop44ColorIndex
 90
        5
102
RTVSPost2010Prop44ColorRGB
 90
      255
102
RTVSPost2010PropOp44
 70
     1
102
RTVSPost2010Prop45
280
     0
102
RTVSPost2010PropOp45
 70
     1
102
RTVSPost2010Prop46
 90
       50
102
RTVSPost2010PropOp46
 70
     1
102
RTVSPost2010Prop47
 90
       50
102
RTVSPost2010PropOp47
 70
     1
102
RTVSPost2010Prop48
 90
       50
102
RTVSPost2010PropOp48
 70
     1
102
RTVSPost2010Prop49
280
     0
102
RTVSPost2010PropOp49
 70
     1
102
RTVSPost2010Prop50
 90
       50
102
RTVSPost2010PropOp50
 70
     1
102
RTVSPost2010Prop51ColorIndex
 90
      256
102
RTVSPost2010Prop51ColorRGB
 90
-16777216
102
RTVSPost2010PropOp51
 70
     0
102
RTVSPost2010Prop52
140
1.0
102
RTVSPost2010PropOp52
 70
     0
102
RTVSPost2010Prop53
 90
        2
102
RTVSPost2010PropOp53
 70
     1
102
RTVSPost2010Prop54
  1
strokes_ogs.tif
102
RTVSPost2010PropOp54
 70
     1
102
RTVSPost2010Prop55
280
     0
102
RTVSPost2010PropOp55
 70
     1
102
RTVSPost2010Prop56
140
1.0
102
RTVSPost2010PropOp56
 70
     1
102
RTVSPost2010Prop57
140
1.0
102
RTVSPost2010PropOp57
 70
     1
102
RTVSPropertyOp0
 70
     1
102
RTVSPropertyOp1
 70
     1
102
RTVSPropertyOp2
 70
     1
102
RTVSPropertyOp3
 70
     1
102
RTVSPropertyOp4
 70
     1
102
RTVSPropertyOp5
 70
     1
102
RTVSPropertyOp6
 70
     1
102
RTVSPropertyOp7
 70
     1
102
RTVSPropertyOp8
 70
     1
102
RTVSPropertyOp9
 70
     1
102
RTVSPropertyOp10
 70
     1
102
RTVSPropertyOp11
 70
     1
102
RTVSPropertyOp12
 70
     1
102
RTVSPropertyOp13
 70
     1
102
RTVSPropertyOp14
 70
     1
102
RTVSPropertyOp15
 70
     1
102
RTVSPropertyOp16
 70
     1
102
RTVSPropertyOp17
 70
     1
102
RTVSPropertyOp18
 70
     1
102
RTVSPropertyOp19
 70
     1
102
RTVSPropertyOp20
 70
     1
102
RTVSPropertyOp21
 70
     1
102
RTVSPropertyOp22
 70
     1
102
RTVSPropertyOp23
 70
     1
102
RTVSPropertyOp24
 70
     1
102
RTVSPropertyOp25
 70
     1
102
RTVSPropertyOp26
 70
     1
102
RTVSPropertyOp27
 70
     1
102
RTVSPropertyOp28
 70
     1
102
RTVSPropertyOp29
 70
     1
102
RTVSPropertyOp30
 70
     1
102
RTVSPropertyOp31
 70
     1
102
RTVSPropertyOp32
 70
     1
102
RTVSPropertyOp33
 70
     1
102
RTVSPropertyOp34
 70
     1
102
RTVSPropertyOp35
 70
     1
102
RTVSPropertyOp36
 70
     1
102
RTVSPropertyOp37
 70
     1
102
RTVSPropertyOp38
 70
     1
102
RTVSPropertyOp39
 70
     1
102
RTVSPropertyOp40
 70
     1
102
RTVSPropertyOp41
 70
     1
102
RTVSPropertyOp42
 70
     1
102
RTVSPropertyOp43
 70
     1
102
RTVSPropertyOp44
 70
     1
102
RTVSPropertyOp45
 70
     1
102
RTVSPropertyOp46
 70
     1
102
RTVSPropertyOp47
 70
     1
102
RTVSPropertyOp48
 70
     1
102
RTVSPropertyOp49
 70
     1
102
RTVSPropertyOp50
 70
     1
102
RTVSPropertyOp51
 70
     0
102
RTVSPropertyOp52
 70
     0
102
RTVSPropertyOp53
 70
     1
102
RTVSPropertyOp54
 70
     1
102
RTVSPropertyOp55
 70
     1
102
RTVSPropertyOp56
 70
     1
102
RTVSPropertyOp57
 70
     1
102
RTVSPropertyOp58
 70
     1
102
RTVSPropertyOp59
 70
     1
102
RTVSPropertyOp60
 70
     1
102
RTVSPropertyOp61
 70
     1
102
RTVSPropertyOp62
 70
     1
  0
XRECORD
  5
3B15
102
{ACAD_REACTORS
330
3B14
102
}
330
3B14
100
AcDbXrecord
280
     1
102
RTVSPost2010Prop28
280
     0
102
RTVSPost2010PropOp28
 70
     1
102
RTVSPost2010Prop29
280
     1
102
RTVSPost2010PropOp29
 70
     1
102
RTVSPost2010Prop30
280
     1
102
RTVSPost2010PropOp30
 70
     1
102
RTVSPost2010Prop31
280
     0
102
RTVSPost2010PropOp31
 70
     1
102
RTVSPost2010Prop32
280
     0
102
RTVSPost2010PropOp32
 70
     1
102
RTVSPost2010Prop33
280
     0
102
RTVSPost2010PropOp33
 70
     1
102
RTVSPost2010Prop34
280
     0
102
RTVSPost2010PropOp34
 70
     1
102
RTVSPost2010Prop35
280
     0
102
RTVSPost2010PropOp35
 70
     1
102
RTVSPost2010Prop36
280
     0
102
RTVSPost2010PropOp36
 70
     1
102
RTVSPost2010Prop37
 90
       50
102
RTVSPost2010PropOp37
 70
     1
102
RTVSPost2010Prop38
140
0.0
102
RTVSPost2010PropOp38
 70
     1
102
RTVSPost2010Prop39
140
1.0
102
RTVSPost2010PropOp39
 70
     1
102
RTVSPost2010Prop40
 90
        0
102
RTVSPost2010PropOp40
 70
     1
102
RTVSPost2010Prop41ColorIndex
 90
       18
102
RTVSPost2010Prop41ColorRGB
 90
        0
102
RTVSPost2010PropOp41
 70
     1
102
RTVSPost2010Prop42
 90
       50
102
RTVSPost2010PropOp42
 70
     1
102
RTVSPost2010Prop43
 90
        3
102
RTVSPost2010PropOp43
 70
     1
102
RTVSPost2010Prop44ColorIndex
 90
        5
102
RTVSPost2010Prop44ColorRGB
 90
      255
102
RTVSPost2010PropOp44
 70
     1
102
RTVSPost2010Prop45
280
     0
102
RTVSPost2010PropOp45
 70
     1
102
RTVSPost2010Prop46
 90
       50
102
RTVSPost2010PropOp46
 70
     1
102
RTVSPost2010Prop47
 90
       50
102
RTVSPost2010PropOp47
 70
     1
102
RTVSPost2010Prop48
 90
       50
102
RTVSPost2010PropOp48
 70
     1
102
RTVSPost2010Prop49
280
     0
102
RTVSPost2010PropOp49
 70
     1
102
RTVSPost2010Prop50
 90
       50
102
RTVSPost2010PropOp50
 70
     1
102
RTVSPost2010Prop51ColorIndex
 90
      256
102
RTVSPost2010Prop51ColorRGB
 90
-16777216
102
RTVSPost2010PropOp51
 70
     0
102
RTVSPost2010Prop52
140
1.0
102
RTVSPost2010PropOp52
 70
     0
102
RTVSPost2010Prop53
 90
        2
102
RTVSPost2010PropOp53
 70
     1
102
RTVSPost2010Prop54
  1
strokes_ogs.tif
102
RTVSPost2010PropOp54
 70
     1
102
RTVSPost2010Prop55
280
     0
102
RTVSPost2010PropOp55
 70
     1
102
RTVSPost2010Prop56
140
1.0
102
RTVSPost2010PropOp56
 70
     1
102
RTVSPost2010Prop57
140
1.0
102
RTVSPost2010PropOp57
 70
     1
102
RTVSPropertyOp0
 70
     1
102
RTVSPropertyOp1
 70
     1
102
RTVSPropertyOp2
 70
     1
102
RTVSPropertyOp3
 70
     1
102
RTVSPropertyOp4
 70
     1
102
RTVSPropertyOp5
 70
     1
102
RTVSPropertyOp6
 70
     1
102
RTVSPropertyOp7
 70
     1
102
RTVSPropertyOp8
 70
     1
102
RTVSPropertyOp9
 70
     1
102
RTVSPropertyOp10
 70
     1
102
RTVSPropertyOp11
 70
     1
102
RTVSPropertyOp12
 70
     1
102
RTVSPropertyOp13
 70
     1
102
RTVSPropertyOp14
 70
     1
102
RTVSPropertyOp15
 70
     1
102
RTVSPropertyOp16
 70
     1
102
RTVSPropertyOp17
 70
     1
102
RTVSPropertyOp18
 70
     1
102
RTVSPropertyOp19
 70
     1
102
RTVSPropertyOp20
 70
     1
102
RTVSPropertyOp21
 70
     1
102
RTVSPropertyOp22
 70
     1
102
RTVSPropertyOp23
 70
     1
102
RTVSPropertyOp24
 70
     1
102
RTVSPropertyOp25
 70
     1
102
RTVSPropertyOp26
 70
     1
102
RTVSPropertyOp27
 70
     1
102
RTVSPropertyOp28
 70
     1
102
RTVSPropertyOp29
 70
     1
102
RTVSPropertyOp30
 70
     1
102
RTVSPropertyOp31
 70
     1
102
RTVSPropertyOp32
 70
     1
102
RTVSPropertyOp33
 70
     1
102
RTVSPropertyOp34
 70
     1
102
RTVSPropertyOp35
 70
     1
102
RTVSPropertyOp36
 70
     1
102
RTVSPropertyOp37
 70
     1
102
RTVSPropertyOp38
 70
     1
102
RTVSPropertyOp39
 70
     1
102
RTVSPropertyOp40
 70
     1
102
RTVSPropertyOp41
 70
     1
102
RTVSPropertyOp42
 70
     1
102
RTVSPropertyOp43
 70
     1
102
RTVSPropertyOp44
 70
     1
102
RTVSPropertyOp45
 70
     1
102
RTVSPropertyOp46
 70
     1
102
RTVSPropertyOp47
 70
     1
102
RTVSPropertyOp48
 70
     1
102
RTVSPropertyOp49
 70
     1
102
RTVSPropertyOp50
 70
     1
102
RTVSPropertyOp51
 70
     0
102
RTVSPropertyOp52
 70
     0
102
RTVSPropertyOp53
 70
     1
102
RTVSPropertyOp54
 70
     1
102
RTVSPropertyOp55
 70
     1
102
RTVSPropertyOp56
 70
     1
102
RTVSPropertyOp57
 70
     1
102
RTVSPropertyOp58
 70
     1
102
RTVSPropertyOp59
 70
     1
102
RTVSPropertyOp60
 70
     1
102
RTVSPropertyOp61
 70
     1
102
RTVSPropertyOp62
 70
     1
  0
XRECORD
  5
3B1D
102
{ACAD_REACTORS
330
3B1C
102
}
330
3B1C
100
AcDbXrecord
280
     1
102
RTVSPost2010Prop28
280
     0
102
RTVSPost2010PropOp28
 70
     1
102
RTVSPost2010Prop29
280
     1
102
RTVSPost2010PropOp29
 70
     1
102
RTVSPost2010Prop30
280
     1
102
RTVSPost2010PropOp30
 70
     1
102
RTVSPost2010Prop31
280
     0
102
RTVSPost2010PropOp31
 70
     1
102
RTVSPost2010Prop32
280
     0
102
RTVSPost2010PropOp32
 70
     1
102
RTVSPost2010Prop33
280
     0
102
RTVSPost2010PropOp33
 70
     1
102
RTVSPost2010Prop34
280
     0
102
RTVSPost2010PropOp34
 70
     1
102
RTVSPost2010Prop35
280
     0
102
RTVSPost2010PropOp35
 70
     1
102
RTVSPost2010Prop36
280
     0
102
RTVSPost2010PropOp36
 70
     1
102
RTVSPost2010Prop37
 90
       50
102
RTVSPost2010PropOp37
 70
     1
102
RTVSPost2010Prop38
140
0.0
102
RTVSPost2010PropOp38
 70
     1
102
RTVSPost2010Prop39
140
1.0
102
RTVSPost2010PropOp39
 70
     1
102
RTVSPost2010Prop40
 90
        0
102
RTVSPost2010PropOp40
 70
     1
102
RTVSPost2010Prop41ColorIndex
 90
       18
102
RTVSPost2010Prop41ColorRGB
 90
        0
102
RTVSPost2010PropOp41
 70
     1
102
RTVSPost2010Prop42
 90
       50
102
RTVSPost2010PropOp42
 70
     1
102
RTVSPost2010Prop43
 90
        3
102
RTVSPost2010PropOp43
 70
     1
102
RTVSPost2010Prop44ColorIndex
 90
        5
102
RTVSPost2010Prop44ColorRGB
 90
      255
102
RTVSPost2010PropOp44
 70
     1
102
RTVSPost2010Prop45
280
     0
102
RTVSPost2010PropOp45
 70
     1
102
RTVSPost2010Prop46
 90
       50
102
RTVSPost2010PropOp46
 70
     1
102
RTVSPost2010Prop47
 90
       50
102
RTVSPost2010PropOp47
 70
     1
102
RTVSPost2010Prop48
 90
       50
102
RTVSPost2010PropOp48
 70
     1
102
RTVSPost2010Prop49
280
     0
102
RTVSPost2010PropOp49
 70
     1
102
RTVSPost2010Prop50
 90
       50
102
RTVSPost2010PropOp50
 70
     1
102
RTVSPost2010Prop51ColorIndex
 90
      256
102
RTVSPost2010Prop51ColorRGB
 90
-16777216
102
RTVSPost2010PropOp51
 70
     0
102
RTVSPost2010Prop52
140
1.0
102
RTVSPost2010PropOp52
 70
     0
102
RTVSPost2010Prop53
 90
        2
102
RTVSPost2010PropOp53
 70
     1
102
RTVSPost2010Prop54
  1
strokes_ogs.tif
102
RTVSPost2010PropOp54
 70
     1
102
RTVSPost2010Prop55
280
     0
102
RTVSPost2010PropOp55
 70
     1
102
RTVSPost2010Prop56
140
1.0
102
RTVSPost2010PropOp56
 70
     1
102
RTVSPost2010Prop57
140
1.0
102
RTVSPost2010PropOp57
 70
     1
102
RTVSPropertyOp0
 70
     1
102
RTVSPropertyOp1
 70
     1
102
RTVSPropertyOp2
 70
     1
102
RTVSPropertyOp3
 70
     1
102
RTVSPropertyOp4
 70
     1
102
RTVSPropertyOp5
 70
     1
102
RTVSPropertyOp6
 70
     1
102
RTVSPropertyOp7
 70
     1
102
RTVSPropertyOp8
 70
     1
102
RTVSPropertyOp9
 70
     1
102
RTVSPropertyOp10
 70
     1
102
RTVSPropertyOp11
 70
     1
102
RTVSPropertyOp12
 70
     1
102
RTVSPropertyOp13
 70
     1
102
RTVSPropertyOp14
 70
     1
102
RTVSPropertyOp15
 70
     1
102
RTVSPropertyOp16
 70
     1
102
RTVSPropertyOp17
 70
     1
102
RTVSPropertyOp18
 70
     1
102
RTVSPropertyOp19
 70
     1
102
RTVSPropertyOp20
 70
     1
102
RTVSPropertyOp21
 70
     1
102
RTVSPropertyOp22
 70
     1
102
RTVSPropertyOp23
 70
     1
102
RTVSPropertyOp24
 70
     1
102
RTVSPropertyOp25
 70
     1
102
RTVSPropertyOp26
 70
     1
102
RTVSPropertyOp27
 70
     1
102
RTVSPropertyOp28
 70
     1
102
RTVSPropertyOp29
 70
     1
102
RTVSPropertyOp30
 70
     1
102
RTVSPropertyOp31
 70
     1
102
RTVSPropertyOp32
 70
     1
102
RTVSPropertyOp33
 70
     1
102
RTVSPropertyOp34
 70
     1
102
RTVSPropertyOp35
 70
     1
102
RTVSPropertyOp36
 70
     1
102
RTVSPropertyOp37
 70
     1
102
RTVSPropertyOp38
 70
     1
102
RTVSPropertyOp39
 70
     1
102
RTVSPropertyOp40
 70
     1
102
RTVSPropertyOp41
 70
     1
102
RTVSPropertyOp42
 70
     1
102
RTVSPropertyOp43
 70
     1
102
RTVSPropertyOp44
 70
     1
102
RTVSPropertyOp45
 70
     1
102
RTVSPropertyOp46
 70
     1
102
RTVSPropertyOp47
 70
     1
102
RTVSPropertyOp48
 70
     1
102
RTVSPropertyOp49
 70
     1
102
RTVSPropertyOp50
 70
     1
102
RTVSPropertyOp51
 70
     0
102
RTVSPropertyOp52
 70
     0
102
RTVSPropertyOp53
 70
     1
102
RTVSPropertyOp54
 70
     1
102
RTVSPropertyOp55
 70
     1
102
RTVSPropertyOp56
 70
     1
102
RTVSPropertyOp57
 70
     1
102
RTVSPropertyOp58
 70
     1
102
RTVSPropertyOp59
 70
     1
102
RTVSPropertyOp60
 70
     1
102
RTVSPropertyOp61
 70
     1
102
RTVSPropertyOp62
 70
     1
  0
XRECORD
  5
3B39
102
{ACAD_REACTORS
330
3B38
102
}
330
3B38
100
AcDbXrecord
280
     1
102
RTVSPost2010Prop28
280
     0
102
RTVSPost2010PropOp28
 70
     1
102
RTVSPost2010Prop29
280
     1
102
RTVSPost2010PropOp29
 70
     1
102
RTVSPost2010Prop30
280
     1
102
RTVSPost2010PropOp30
 70
     1
102
RTVSPost2010Prop31
280
     0
102
RTVSPost2010PropOp31
 70
     1
102
RTVSPost2010Prop32
280
     0
102
RTVSPost2010PropOp32
 70
     1
102
RTVSPost2010Prop33
280
     0
102
RTVSPost2010PropOp33
 70
     1
102
RTVSPost2010Prop34
280
     0
102
RTVSPost2010PropOp34
 70
     1
102
RTVSPost2010Prop35
280
     0
102
RTVSPost2010PropOp35
 70
     1
102
RTVSPost2010Prop36
280
     0
102
RTVSPost2010PropOp36
 70
     1
102
RTVSPost2010Prop37
 90
       50
102
RTVSPost2010PropOp37
 70
     0
102
RTVSPost2010Prop38
140
0.0
102
RTVSPost2010PropOp38
 70
     0
102
RTVSPost2010Prop39
140
1.0
102
RTVSPost2010PropOp39
 70
     0
102
RTVSPost2010Prop40
 90
        0
102
RTVSPost2010PropOp40
 70
     0
102
RTVSPost2010Prop41ColorIndex
 90
       18
102
RTVSPost2010Prop41ColorRGB
 90
        0
102
RTVSPost2010PropOp41
 70
     0
102
RTVSPost2010Prop42
 90
       50
102
RTVSPost2010PropOp42
 70
     0
102
RTVSPost2010Prop43
 90
        3
102
RTVSPost2010PropOp43
 70
     0
102
RTVSPost2010Prop44ColorIndex
 90
        5
102
RTVSPost2010Prop44ColorRGB
 90
      255
102
RTVSPost2010PropOp44
 70
     0
102
RTVSPost2010Prop45
280
     0
102
RTVSPost2010PropOp45
 70
     1
102
RTVSPost2010Prop46
 90
       50
102
RTVSPost2010PropOp46
 70
     0
102
RTVSPost2010Prop47
 90
       50
102
RTVSPost2010PropOp47
 70
     0
102
RTVSPost2010Prop48
 90
       50
102
RTVSPost2010PropOp48
 70
     0
102
RTVSPost2010Prop49
280
     0
102
RTVSPost2010PropOp49
 70
     1
102
RTVSPost2010Prop50
 90
       50
102
RTVSPost2010PropOp50
 70
     0
102
RTVSPost2010Prop51ColorIndex
 90
      256
102
RTVSPost2010Prop51ColorRGB
 90
-16777216
102
RTVSPost2010PropOp51
 70
     0
102
RTVSPost2010Prop52
140
1.0
102
RTVSPost2010PropOp52
 70
     0
102
RTVSPost2010Prop53
 90
        2
102
RTVSPost2010PropOp53
 70
     0
102
RTVSPost2010Prop54
  1
strokes_ogs.tif
102
RTVSPost2010PropOp54
 70
     0
102
RTVSPost2010Prop55
280
     0
102
RTVSPost2010PropOp55
 70
     1
102
RTVSPost2010Prop56
140
1.0
102
RTVSPost2010PropOp56
 70
     0
102
RTVSPost2010Prop57
140
1.0
102
RTVSPost2010PropOp57
 70
     0
102
RTVSPropertyOp0
 70
     0
102
RTVSPropertyOp1
 70
     0
102
RTVSPropertyOp2
 70
     0
102
RTVSPropertyOp3
 70
     0
102
RTVSPropertyOp4
 70
     0
102
RTVSPropertyOp5
 70
     0
102
RTVSPropertyOp6
 70
     0
102
RTVSPropertyOp7
 70
     0
102
RTVSPropertyOp8
 70
     0
102
RTVSPropertyOp9
 70
     0
102
RTVSPropertyOp10
 70
     0
102
RTVSPropertyOp11
 70
     0
102
RTVSPropertyOp12
 70
     0
102
RTVSPropertyOp13
 70
     0
102
RTVSPropertyOp14
 70
     2
102
RTVSPropertyOp15
 70
     0
102
RTVSPropertyOp16
 70
     0
102
RTVSPropertyOp17
 70
     0
102
RTVSPropertyOp18
 70
     0
102
RTVSPropertyOp19
 70
     0
102
RTVSPropertyOp20
 70
     0
102
RTVSPropertyOp21
 70
     0
102
RTVSPropertyOp22
 70
     0
102
RTVSPropertyOp23
 70
     0
102
RTVSPropertyOp24
 70
     0
102
RTVSPropertyOp25
 70
     0
102
RTVSPropertyOp26
 70
     0
102
RTVSPropertyOp27
 70
     0
102
RTVSPropertyOp28
 70
     1
102
RTVSPropertyOp29
 70
     1
102
RTVSPropertyOp30
 70
     1
102
RTVSPropertyOp31
 70
     1
102
RTVSPropertyOp32
 70
     1
102
RTVSPropertyOp33
 70
     1
102
RTVSPropertyOp34
 70
     1
102
RTVSPropertyOp35
 70
     1
102
RTVSPropertyOp36
 70
     1
102
RTVSPropertyOp37
 70
     0
102
RTVSPropertyOp38
 70
     0
102
RTVSPropertyOp39
 70
     0
102
RTVSPropertyOp40
 70
     0
102
RTVSPropertyOp41
 70
     0
102
RTVSPropertyOp42
 70
     0
102
RTVSPropertyOp43
 70
     0
102
RTVSPropertyOp44
 70
     0
102
RTVSPropertyOp45
 70
     1
102
RTVSPropertyOp46
 70
     0
102
RTVSPropertyOp47
 70
     0
102
RTVSPropertyOp48
 70
     0
102
RTVSPropertyOp49
 70
     1
102
RTVSPropertyOp50
 70
     0
102
RTVSPropertyOp51
 70
     0
102
RTVSPropertyOp52
 70
     0
102
RTVSPropertyOp53
 70
     0
102
RTVSPropertyOp54
 70
     0
102
RTVSPropertyOp55
 70
     1
102
RTVSPropertyOp56
 70
     0
102
RTVSPropertyOp57
 70
     0
102
RTVSPropertyOp58
 70
     0
102
RTVSPropertyOp59
 70
     0
102
RTVSPropertyOp60
 70
     0
102
RTVSPropertyOp61
 70
     0
102
RTVSPropertyOp62
 70
     0
  0
XRECORD
  5
3B29
102
{ACAD_REACTORS
330
3B28
102
}
330
3B28
100
AcDbXrecord
280
     1
102
RTVSPost2010Prop28
280
     0
102
RTVSPost2010PropOp28
 70
     1
102
RTVSPost2010Prop29
280
     1
102
RTVSPost2010PropOp29
 70
     1
102
RTVSPost2010Prop30
280
     1
102
RTVSPost2010PropOp30
 70
     1
102
RTVSPost2010Prop31
280
     0
102
RTVSPost2010PropOp31
 70
     1
102
RTVSPost2010Prop32
280
     0
102
RTVSPost2010PropOp32
 70
     1
102
RTVSPost2010Prop33
280
     0
102
RTVSPost2010PropOp33
 70
     1
102
RTVSPost2010Prop34
280
     0
102
RTVSPost2010PropOp34
 70
     1
102
RTVSPost2010Prop35
280
     0
102
RTVSPost2010PropOp35
 70
     1
102
RTVSPost2010Prop36
280
     0
102
RTVSPost2010PropOp36
 70
     1
102
RTVSPost2010Prop37
 90
       50
102
RTVSPost2010PropOp37
 70
     1
102
RTVSPost2010Prop38
140
0.0
102
RTVSPost2010PropOp38
 70
     1
102
RTVSPost2010Prop39
140
1.0
102
RTVSPost2010PropOp39
 70
     1
102
RTVSPost2010Prop40
 90
        0
102
RTVSPost2010PropOp40
 70
     1
102
RTVSPost2010Prop41ColorIndex
 90
       18
102
RTVSPost2010Prop41ColorRGB
 90
        0
102
RTVSPost2010PropOp41
 70
     1
102
RTVSPost2010Prop42
 90
       50
102
RTVSPost2010PropOp42
 70
     1
102
RTVSPost2010Prop43
 90
        3
102
RTVSPost2010PropOp43
 70
     1
102
RTVSPost2010Prop44ColorIndex
 90
        5
102
RTVSPost2010Prop44ColorRGB
 90
      255
102
RTVSPost2010PropOp44
 70
     1
102
RTVSPost2010Prop45
280
     0
102
RTVSPost2010PropOp45
 70
     1
102
RTVSPost2010Prop46
 90
       50
102
RTVSPost2010PropOp46
 70
     1
102
RTVSPost2010Prop47
 90
       50
102
RTVSPost2010PropOp47
 70
     1
102
RTVSPost2010Prop48
 90
       50
102
RTVSPost2010PropOp48
 70
     1
102
RTVSPost2010Prop49
280
     0
102
RTVSPost2010PropOp49
 70
     1
102
RTVSPost2010Prop50
 90
       50
102
RTVSPost2010PropOp50
 70
     1
102
RTVSPost2010Prop51ColorIndex
 90
      256
102
RTVSPost2010Prop51ColorRGB
 90
-16777216
102
RTVSPost2010PropOp51
 70
     0
102
RTVSPost2010Prop52
140
1.0
102
RTVSPost2010PropOp52
 70
     0
102
RTVSPost2010Prop53
 90
        2
102
RTVSPost2010PropOp53
 70
     1
102
RTVSPost2010Prop54
  1
strokes_ogs.tif
102
RTVSPost2010PropOp54
 70
     1
102
RTVSPost2010Prop55
280
     0
102
RTVSPost2010PropOp55
 70
     1
102
RTVSPost2010Prop56
140
1.0
102
RTVSPost2010PropOp56
 70
     1
102
RTVSPost2010Prop57
140
1.0
102
RTVSPost2010PropOp57
 70
     1
102
RTVSPropertyOp0
 70
     1
102
RTVSPropertyOp1
 70
     1
102
RTVSPropertyOp2
 70
     1
102
RTVSPropertyOp3
 70
     1
102
RTVSPropertyOp4
 70
     1
102
RTVSPropertyOp5
 70
     1
102
RTVSPropertyOp6
 70
     1
102
RTVSPropertyOp7
 70
     1
102
RTVSPropertyOp8
 70
     1
102
RTVSPropertyOp9
 70
     1
102
RTVSPropertyOp10
 70
     1
102
RTVSPropertyOp11
 70
     1
102
RTVSPropertyOp12
 70
     1
102
RTVSPropertyOp13
 70
     1
102
RTVSPropertyOp14
 70
     1
102
RTVSPropertyOp15
 70
     1
102
RTVSPropertyOp16
 70
     1
102
RTVSPropertyOp17
 70
     1
102
RTVSPropertyOp18
 70
     1
102
RTVSPropertyOp19
 70
     1
102
RTVSPropertyOp20
 70
     1
102
RTVSPropertyOp21
 70
     1
102
RTVSPropertyOp22
 70
     1
102
RTVSPropertyOp23
 70
     1
102
RTVSPropertyOp24
 70
     1
102
RTVSPropertyOp25
 70
     1
102
RTVSPropertyOp26
 70
     1
102
RTVSPropertyOp27
 70
     1
102
RTVSPropertyOp28
 70
     1
102
RTVSPropertyOp29
 70
     1
102
RTVSPropertyOp30
 70
     1
102
RTVSPropertyOp31
 70
     1
102
RTVSPropertyOp32
 70
     1
102
RTVSPropertyOp33
 70
     1
102
RTVSPropertyOp34
 70
     1
102
RTVSPropertyOp35
 70
     1
102
RTVSPropertyOp36
 70
     1
102
RTVSPropertyOp37
 70
     1
102
RTVSPropertyOp38
 70
     1
102
RTVSPropertyOp39
 70
     1
102
RTVSPropertyOp40
 70
     1
102
RTVSPropertyOp41
 70
     1
102
RTVSPropertyOp42
 70
     1
102
RTVSPropertyOp43
 70
     1
102
RTVSPropertyOp44
 70
     1
102
RTVSPropertyOp45
 70
     1
102
RTVSPropertyOp46
 70
     1
102
RTVSPropertyOp47
 70
     1
102
RTVSPropertyOp48
 70
     1
102
RTVSPropertyOp49
 70
     1
102
RTVSPropertyOp50
 70
     1
102
RTVSPropertyOp51
 70
     0
102
RTVSPropertyOp52
 70
     0
102
RTVSPropertyOp53
 70
     1
102
RTVSPropertyOp54
 70
     1
102
RTVSPropertyOp55
 70
     1
102
RTVSPropertyOp56
 70
     1
102
RTVSPropertyOp57
 70
     1
102
RTVSPropertyOp58
 70
     1
102
RTVSPropertyOp59
 70
     1
102
RTVSPropertyOp60
 70
     1
102
RTVSPropertyOp61
 70
     1
102
RTVSPropertyOp62
 70
     1
  0
XRECORD
  5
3B3B
102
{ACAD_REACTORS
330
3B3A
102
}
330
3B3A
100
AcDbXrecord
280
     1
102
RTVSPost2010Prop28
280
     0
102
RTVSPost2010PropOp28
 70
     1
102
RTVSPost2010Prop29
280
     1
102
RTVSPost2010PropOp29
 70
     1
102
RTVSPost2010Prop30
280
     1
102
RTVSPost2010PropOp30
 70
     1
102
RTVSPost2010Prop31
280
     0
102
RTVSPost2010PropOp31
 70
     1
102
RTVSPost2010Prop32
280
     0
102
RTVSPost2010PropOp32
 70
     1
102
RTVSPost2010Prop33
280
     0
102
RTVSPost2010PropOp33
 70
     1
102
RTVSPost2010Prop34
280
     0
102
RTVSPost2010PropOp34
 70
     1
102
RTVSPost2010Prop35
280
     0
102
RTVSPost2010PropOp35
 70
     1
102
RTVSPost2010Prop36
280
     0
102
RTVSPost2010PropOp36
 70
     1
102
RTVSPost2010Prop37
 90
       50
102
RTVSPost2010PropOp37
 70
     0
102
RTVSPost2010Prop38
140
0.0
102
RTVSPost2010PropOp38
 70
     0
102
RTVSPost2010Prop39
140
1.0
102
RTVSPost2010PropOp39
 70
     0
102
RTVSPost2010Prop40
 90
        0
102
RTVSPost2010PropOp40
 70
     0
102
RTVSPost2010Prop41ColorIndex
 90
       18
102
RTVSPost2010Prop41ColorRGB
 90
        0
102
RTVSPost2010PropOp41
 70
     0
102
RTVSPost2010Prop42
 90
       50
102
RTVSPost2010PropOp42
 70
     0
102
RTVSPost2010Prop43
 90
        3
102
RTVSPost2010PropOp43
 70
     0
102
RTVSPost2010Prop44ColorIndex
 90
        5
102
RTVSPost2010Prop44ColorRGB
 90
      255
102
RTVSPost2010PropOp44
 70
     0
102
RTVSPost2010Prop45
280
     0
102
RTVSPost2010PropOp45
 70
     1
102
RTVSPost2010Prop46
 90
       50
102
RTVSPost2010PropOp46
 70
     0
102
RTVSPost2010Prop47
 90
       50
102
RTVSPost2010PropOp47
 70
     0
102
RTVSPost2010Prop48
 90
       50
102
RTVSPost2010PropOp48
 70
     0
102
RTVSPost2010Prop49
280
     0
102
RTVSPost2010PropOp49
 70
     1
102
RTVSPost2010Prop50
 90
       50
102
RTVSPost2010PropOp50
 70
     0
102
RTVSPost2010Prop51ColorIndex
 90
      256
102
RTVSPost2010Prop51ColorRGB
 90
-16777216
102
RTVSPost2010PropOp51
 70
     0
102
RTVSPost2010Prop52
140
1.0
102
RTVSPost2010PropOp52
 70
     0
102
RTVSPost2010Prop53
 90
        2
102
RTVSPost2010PropOp53
 70
     0
102
RTVSPost2010Prop54
  1
strokes_ogs.tif
102
RTVSPost2010PropOp54
 70
     0
102
RTVSPost2010Prop55
280
     0
102
RTVSPost2010PropOp55
 70
     1
102
RTVSPost2010Prop56
140
1.0
102
RTVSPost2010PropOp56
 70
     0
102
RTVSPost2010Prop57
140
1.0
102
RTVSPost2010PropOp57
 70
     0
102
RTVSPropertyOp0
 70
     0
102
RTVSPropertyOp1
 70
     0
102
RTVSPropertyOp2
 70
     0
102
RTVSPropertyOp3
 70
     0
102
RTVSPropertyOp4
 70
     0
102
RTVSPropertyOp5
 70
     0
102
RTVSPropertyOp6
 70
     0
102
RTVSPropertyOp7
 70
     0
102
RTVSPropertyOp8
 70
     0
102
RTVSPropertyOp9
 70
     0
102
RTVSPropertyOp10
 70
     0
102
RTVSPropertyOp11
 70
     0
102
RTVSPropertyOp12
 70
     0
102
RTVSPropertyOp13
 70
     0
102
RTVSPropertyOp14
 70
     2
102
RTVSPropertyOp15
 70
     0
102
RTVSPropertyOp16
 70
     0
102
RTVSPropertyOp17
 70
     0
102
RTVSPropertyOp18
 70
     0
102
RTVSPropertyOp19
 70
     0
102
RTVSPropertyOp20
 70
     0
102
RTVSPropertyOp21
 70
     0
102
RTVSPropertyOp22
 70
     0
102
RTVSPropertyOp23
 70
     0
102
RTVSPropertyOp24
 70
     0
102
RTVSPropertyOp25
 70
     0
102
RTVSPropertyOp26
 70
     0
102
RTVSPropertyOp27
 70
     0
102
RTVSPropertyOp28
 70
     1
102
RTVSPropertyOp29
 70
     1
102
RTVSPropertyOp30
 70
     1
102
RTVSPropertyOp31
 70
     1
102
RTVSPropertyOp32
 70
     1
102
RTVSPropertyOp33
 70
     1
102
RTVSPropertyOp34
 70
     1
102
RTVSPropertyOp35
 70
     1
102
RTVSPropertyOp36
 70
     1
102
RTVSPropertyOp37
 70
     0
102
RTVSPropertyOp38
 70
     0
102
RTVSPropertyOp39
 70
     0
102
RTVSPropertyOp40
 70
     0
102
RTVSPropertyOp41
 70
     0
102
RTVSPropertyOp42
 70
     0
102
RTVSPropertyOp43
 70
     0
102
RTVSPropertyOp44
 70
     0
102
RTVSPropertyOp45
 70
     1
102
RTVSPropertyOp46
 70
     0
102
RTVSPropertyOp47
 70
     0
102
RTVSPropertyOp48
 70
     0
102
RTVSPropertyOp49
 70
     1
102
RTVSPropertyOp50
 70
     0
102
RTVSPropertyOp51
 70
     0
102
RTVSPropertyOp52
 70
     0
102
RTVSPropertyOp53
 70
     0
102
RTVSPropertyOp54
 70
     0
102
RTVSPropertyOp55
 70
     1
102
RTVSPropertyOp56
 70
     0
102
RTVSPropertyOp57
 70
     0
102
RTVSPropertyOp58
 70
     0
102
RTVSPropertyOp59
 70
     0
102
RTVSPropertyOp60
 70
     0
102
RTVSPropertyOp61
 70
     0
102
RTVSPropertyOp62
 70
     0
  0
XRECORD
  5
3B21
102
{ACAD_REACTORS
330
3B20
102
}
330
3B20
100
AcDbXrecord
280
     1
102
RTVSPost2010Prop28
280
     0
102
RTVSPost2010PropOp28
 70
     1
102
RTVSPost2010Prop29
280
     1
102
RTVSPost2010PropOp29
 70
     1
102
RTVSPost2010Prop30
280
     1
102
RTVSPost2010PropOp30
 70
     1
102
RTVSPost2010Prop31
280
     0
102
RTVSPost2010PropOp31
 70
     1
102
RTVSPost2010Prop32
280
     0
102
RTVSPost2010PropOp32
 70
     1
102
RTVSPost2010Prop33
280
     0
102
RTVSPost2010PropOp33
 70
     1
102
RTVSPost2010Prop34
280
     0
102
RTVSPost2010PropOp34
 70
     1
102
RTVSPost2010Prop35
280
     0
102
RTVSPost2010PropOp35
 70
     1
102
RTVSPost2010Prop36
280
     0
102
RTVSPost2010PropOp36
 70
     1
102
RTVSPost2010Prop37
 90
       50
102
RTVSPost2010PropOp37
 70
     1
102
RTVSPost2010Prop38
140
0.0
102
RTVSPost2010PropOp38
 70
     1
102
RTVSPost2010Prop39
140
1.0
102
RTVSPost2010PropOp39
 70
     1
102
RTVSPost2010Prop40
 90
        0
102
RTVSPost2010PropOp40
 70
     1
102
RTVSPost2010Prop41ColorIndex
 90
       18
102
RTVSPost2010Prop41ColorRGB
 90
        0
102
RTVSPost2010PropOp41
 70
     1
102
RTVSPost2010Prop42
 90
       50
102
RTVSPost2010PropOp42
 70
     1
102
RTVSPost2010Prop43
 90
        3
102
RTVSPost2010PropOp43
 70
     1
102
RTVSPost2010Prop44ColorIndex
 90
        5
102
RTVSPost2010Prop44ColorRGB
 90
      255
102
RTVSPost2010PropOp44
 70
     1
102
RTVSPost2010Prop45
280
     0
102
RTVSPost2010PropOp45
 70
     1
102
RTVSPost2010Prop46
 90
       50
102
RTVSPost2010PropOp46
 70
     1
102
RTVSPost2010Prop47
 90
       50
102
RTVSPost2010PropOp47
 70
     1
102
RTVSPost2010Prop48
 90
       50
102
RTVSPost2010PropOp48
 70
     1
102
RTVSPost2010Prop49
280
     0
102
RTVSPost2010PropOp49
 70
     1
102
RTVSPost2010Prop50
 90
       50
102
RTVSPost2010PropOp50
 70
     1
102
RTVSPost2010Prop51ColorIndex
 90
      256
102
RTVSPost2010Prop51ColorRGB
 90
-16777216
102
RTVSPost2010PropOp51
 70
     0
102
RTVSPost2010Prop52
140
1.0
102
RTVSPost2010PropOp52
 70
     0
102
RTVSPost2010Prop53
 90
        2
102
RTVSPost2010PropOp53
 70
     1
102
RTVSPost2010Prop54
  1
strokes_ogs.tif
102
RTVSPost2010PropOp54
 70
     1
102
RTVSPost2010Prop55
280
     0
102
RTVSPost2010PropOp55
 70
     1
102
RTVSPost2010Prop56
140
1.0
102
RTVSPost2010PropOp56
 70
     1
102
RTVSPost2010Prop57
140
1.0
102
RTVSPost2010PropOp57
 70
     1
102
RTVSPropertyOp0
 70
     1
102
RTVSPropertyOp1
 70
     1
102
RTVSPropertyOp2
 70
     1
102
RTVSPropertyOp3
 70
     1
102
RTVSPropertyOp4
 70
     1
102
RTVSPropertyOp5
 70
     1
102
RTVSPropertyOp6
 70
     1
102
RTVSPropertyOp7
 70
     1
102
RTVSPropertyOp8
 70
     1
102
RTVSPropertyOp9
 70
     1
102
RTVSPropertyOp10
 70
     1
102
RTVSPropertyOp11
 70
     1
102
RTVSPropertyOp12
 70
     1
102
RTVSPropertyOp13
 70
     1
102
RTVSPropertyOp14
 70
     1
102
RTVSPropertyOp15
 70
     1
102
RTVSPropertyOp16
 70
     1
102
RTVSPropertyOp17
 70
     1
102
RTVSPropertyOp18
 70
     1
102
RTVSPropertyOp19
 70
     1
102
RTVSPropertyOp20
 70
     1
102
RTVSPropertyOp21
 70
     1
102
RTVSPropertyOp22
 70
     1
102
RTVSPropertyOp23
 70
     1
102
RTVSPropertyOp24
 70
     1
102
RTVSPropertyOp25
 70
     1
102
RTVSPropertyOp26
 70
     1
102
RTVSPropertyOp27
 70
     1
102
RTVSPropertyOp28
 70
     1
102
RTVSPropertyOp29
 70
     1
102
RTVSPropertyOp30
 70
     1
102
RTVSPropertyOp31
 70
     1
102
RTVSPropertyOp32
 70
     1
102
RTVSPropertyOp33
 70
     1
102
RTVSPropertyOp34
 70
     1
102
RTVSPropertyOp35
 70
     1
102
RTVSPropertyOp36
 70
     1
102
RTVSPropertyOp37
 70
     1
102
RTVSPropertyOp38
 70
     1
102
RTVSPropertyOp39
 70
     1
102
RTVSPropertyOp40
 70
     1
102
RTVSPropertyOp41
 70
     1
102
RTVSPropertyOp42
 70
     1
102
RTVSPropertyOp43
 70
     1
102
RTVSPropertyOp44
 70
     1
102
RTVSPropertyOp45
 70
     1
102
RTVSPropertyOp46
 70
     1
102
RTVSPropertyOp47
 70
     1
102
RTVSPropertyOp48
 70
     1
102
RTVSPropertyOp49
 70
     1
102
RTVSPropertyOp50
 70
     1
102
RTVSPropertyOp51
 70
     0
102
RTVSPropertyOp52
 70
     0
102
RTVSPropertyOp53
 70
     1
102
RTVSPropertyOp54
 70
     1
102
RTVSPropertyOp55
 70
     1
102
RTVSPropertyOp56
 70
     1
102
RTVSPropertyOp57
 70
     1
102
RTVSPropertyOp58
 70
     1
102
RTVSPropertyOp59
 70
     1
102
RTVSPropertyOp60
 70
     1
102
RTVSPropertyOp61
 70
     1
102
RTVSPropertyOp62
 70
     1
  0
XRECORD
  5
3B37
102
{ACAD_REACTORS
330
3B36
102
}
330
3B36
100
AcDbXrecord
280
     1
102
RTVSPost2010Prop28
280
     0
102
RTVSPost2010PropOp28
 70
     1
102
RTVSPost2010Prop29
280
     1
102
RTVSPost2010PropOp29
 70
     1
102
RTVSPost2010Prop30
280
     1
102
RTVSPost2010PropOp30
 70
     1
102
RTVSPost2010Prop31
280
     0
102
RTVSPost2010PropOp31
 70
     1
102
RTVSPost2010Prop32
280
     0
102
RTVSPost2010PropOp32
 70
     1
102
RTVSPost2010Prop33
280
     0
102
RTVSPost2010PropOp33
 70
     1
102
RTVSPost2010Prop34
280
     0
102
RTVSPost2010PropOp34
 70
     1
102
RTVSPost2010Prop35
280
     0
102
RTVSPost2010PropOp35
 70
     1
102
RTVSPost2010Prop36
280
     0
102
RTVSPost2010PropOp36
 70
     1
102
RTVSPost2010Prop37
 90
       50
102
RTVSPost2010PropOp37
 70
     1
102
RTVSPost2010Prop38
140
0.0
102
RTVSPost2010PropOp38
 70
     1
102
RTVSPost2010Prop39
140
1.0
102
RTVSPost2010PropOp39
 70
     1
102
RTVSPost2010Prop40
 90
        0
102
RTVSPost2010PropOp40
 70
     1
102
RTVSPost2010Prop41ColorIndex
 90
       18
102
RTVSPost2010Prop41ColorRGB
 90
        0
102
RTVSPost2010PropOp41
 70
     1
102
RTVSPost2010Prop42
 90
       50
102
RTVSPost2010PropOp42
 70
     1
102
RTVSPost2010Prop43
 90
        3
102
RTVSPost2010PropOp43
 70
     1
102
RTVSPost2010Prop44ColorIndex
 90
        5
102
RTVSPost2010Prop44ColorRGB
 90
      255
102
RTVSPost2010PropOp44
 70
     1
102
RTVSPost2010Prop45
280
     0
102
RTVSPost2010PropOp45
 70
     1
102
RTVSPost2010Prop46
 90
       50
102
RTVSPost2010PropOp46
 70
     1
102
RTVSPost2010Prop47
 90
       50
102
RTVSPost2010PropOp47
 70
     1
102
RTVSPost2010Prop48
 90
       50
102
RTVSPost2010PropOp48
 70
     1
102
RTVSPost2010Prop49
280
     0
102
RTVSPost2010PropOp49
 70
     1
102
RTVSPost2010Prop50
 90
       50
102
RTVSPost2010PropOp50
 70
     1
102
RTVSPost2010Prop51ColorIndex
 90
      256
102
RTVSPost2010Prop51ColorRGB
 90
-16777216
102
RTVSPost2010PropOp51
 70
     0
102
RTVSPost2010Prop52
140
1.0
102
RTVSPost2010PropOp52
 70
     0
102
RTVSPost2010Prop53
 90
        2
102
RTVSPost2010PropOp53
 70
     1
102
RTVSPost2010Prop54
  1
strokes_ogs.tif
102
RTVSPost2010PropOp54
 70
     1
102
RTVSPost2010Prop55
280
     0
102
RTVSPost2010PropOp55
 70
     1
102
RTVSPost2010Prop56
140
1.0
102
RTVSPost2010PropOp56
 70
     1
102
RTVSPost2010Prop57
140
1.0
102
RTVSPost2010PropOp57
 70
     1
102
RTVSPropertyOp0
 70
     1
102
RTVSPropertyOp1
 70
     1
102
RTVSPropertyOp2
 70
     1
102
RTVSPropertyOp3
 70
     1
102
RTVSPropertyOp4
 70
     1
102
RTVSPropertyOp5
 70
     1
102
RTVSPropertyOp6
 70
     1
102
RTVSPropertyOp7
 70
     1
102
RTVSPropertyOp8
 70
     1
102
RTVSPropertyOp9
 70
     1
102
RTVSPropertyOp10
 70
     1
102
RTVSPropertyOp11
 70
     1
102
RTVSPropertyOp12
 70
     1
102
RTVSPropertyOp13
 70
     1
102
RTVSPropertyOp14
 70
     1
102
RTVSPropertyOp15
 70
     1
102
RTVSPropertyOp16
 70
     1
102
RTVSPropertyOp17
 70
     1
102
RTVSPropertyOp18
 70
     1
102
RTVSPropertyOp19
 70
     1
102
RTVSPropertyOp20
 70
     1
102
RTVSPropertyOp21
 70
     1
102
RTVSPropertyOp22
 70
     1
102
RTVSPropertyOp23
 70
     1
102
RTVSPropertyOp24
 70
     1
102
RTVSPropertyOp25
 70
     1
102
RTVSPropertyOp26
 70
     1
102
RTVSPropertyOp27
 70
     1
102
RTVSPropertyOp28
 70
     1
102
RTVSPropertyOp29
 70
     1
102
RTVSPropertyOp30
 70
     1
102
RTVSPropertyOp31
 70
     1
102
RTVSPropertyOp32
 70
     1
102
RTVSPropertyOp33
 70
     1
102
RTVSPropertyOp34
 70
     1
102
RTVSPropertyOp35
 70
     1
102
RTVSPropertyOp36
 70
     1
102
RTVSPropertyOp37
 70
     1
102
RTVSPropertyOp38
 70
     1
102
RTVSPropertyOp39
 70
     1
102
RTVSPropertyOp40
 70
     1
102
RTVSPropertyOp41
 70
     1
102
RTVSPropertyOp42
 70
     1
102
RTVSPropertyOp43
 70
     1
102
RTVSPropertyOp44
 70
     1
102
RTVSPropertyOp45
 70
     1
102
RTVSPropertyOp46
 70
     1
102
RTVSPropertyOp47
 70
     1
102
RTVSPropertyOp48
 70
     1
102
RTVSPropertyOp49
 70
     1
102
RTVSPropertyOp50
 70
     1
102
RTVSPropertyOp51
 70
     0
102
RTVSPropertyOp52
 70
     0
102
RTVSPropertyOp53
 70
     1
102
RTVSPropertyOp54
 70
     1
102
RTVSPropertyOp55
 70
     1
102
RTVSPropertyOp56
 70
     1
102
RTVSPropertyOp57
 70
     1
102
RTVSPropertyOp58
 70
     1
102
RTVSPropertyOp59
 70
     1
102
RTVSPropertyOp60
 70
     1
102
RTVSPropertyOp61
 70
     1
102
RTVSPropertyOp62
 70
     1
  0
XRECORD
  5
3B35
102
{ACAD_REACTORS
330
3B34
102
}
330
3B34
100
AcDbXrecord
280
     1
102
RTVSPost2010Prop28
280
     0
102
RTVSPost2010PropOp28
 70
     1
102
RTVSPost2010Prop29
280
     1
102
RTVSPost2010PropOp29
 70
     1
102
RTVSPost2010Prop30
280
     1
102
RTVSPost2010PropOp30
 70
     1
102
RTVSPost2010Prop31
280
     0
102
RTVSPost2010PropOp31
 70
     1
102
RTVSPost2010Prop32
280
     0
102
RTVSPost2010PropOp32
 70
     1
102
RTVSPost2010Prop33
280
     0
102
RTVSPost2010PropOp33
 70
     1
102
RTVSPost2010Prop34
280
     0
102
RTVSPost2010PropOp34
 70
     1
102
RTVSPost2010Prop35
280
     0
102
RTVSPost2010PropOp35
 70
     1
102
RTVSPost2010Prop36
280
     0
102
RTVSPost2010PropOp36
 70
     1
102
RTVSPost2010Prop37
 90
       50
102
RTVSPost2010PropOp37
 70
     1
102
RTVSPost2010Prop38
140
0.0
102
RTVSPost2010PropOp38
 70
     1
102
RTVSPost2010Prop39
140
1.0
102
RTVSPost2010PropOp39
 70
     1
102
RTVSPost2010Prop40
 90
        0
102
RTVSPost2010PropOp40
 70
     1
102
RTVSPost2010Prop41ColorIndex
 90
       18
102
RTVSPost2010Prop41ColorRGB
 90
        0
102
RTVSPost2010PropOp41
 70
     1
102
RTVSPost2010Prop42
 90
       50
102
RTVSPost2010PropOp42
 70
     1
102
RTVSPost2010Prop43
 90
        3
102
RTVSPost2010PropOp43
 70
     1
102
RTVSPost2010Prop44ColorIndex
 90
        5
102
RTVSPost2010Prop44ColorRGB
 90
      255
102
RTVSPost2010PropOp44
 70
     1
102
RTVSPost2010Prop45
280
     0
102
RTVSPost2010PropOp45
 70
     1
102
RTVSPost2010Prop46
 90
       50
102
RTVSPost2010PropOp46
 70
     1
102
RTVSPost2010Prop47
 90
       50
102
RTVSPost2010PropOp47
 70
     1
102
RTVSPost2010Prop48
 90
       50
102
RTVSPost2010PropOp48
 70
     1
102
RTVSPost2010Prop49
280
     0
102
RTVSPost2010PropOp49
 70
     1
102
RTVSPost2010Prop50
 90
       50
102
RTVSPost2010PropOp50
 70
     1
102
RTVSPost2010Prop51ColorIndex
 90
      256
102
RTVSPost2010Prop51ColorRGB
 90
-16777216
102
RTVSPost2010PropOp51
 70
     0
102
RTVSPost2010Prop52
140
1.0
102
RTVSPost2010PropOp52
 70
     0
102
RTVSPost2010Prop53
 90
        2
102
RTVSPost2010PropOp53
 70
     1
102
RTVSPost2010Prop54
  1
strokes_ogs.tif
102
RTVSPost2010PropOp54
 70
     1
102
RTVSPost2010Prop55
280
     0
102
RTVSPost2010PropOp55
 70
     1
102
RTVSPost2010Prop56
140
1.0
102
RTVSPost2010PropOp56
 70
     1
102
RTVSPost2010Prop57
140
1.0
102
RTVSPost2010PropOp57
 70
     1
102
RTVSPropertyOp0
 70
     1
102
RTVSPropertyOp1
 70
     1
102
RTVSPropertyOp2
 70
     1
102
RTVSPropertyOp3
 70
     1
102
RTVSPropertyOp4
 70
     1
102
RTVSPropertyOp5
 70
     1
102
RTVSPropertyOp6
 70
     1
102
RTVSPropertyOp7
 70
     1
102
RTVSPropertyOp8
 70
     1
102
RTVSPropertyOp9
 70
     1
102
RTVSPropertyOp10
 70
     1
102
RTVSPropertyOp11
 70
     1
102
RTVSPropertyOp12
 70
     1
102
RTVSPropertyOp13
 70
     1
102
RTVSPropertyOp14
 70
     1
102
RTVSPropertyOp15
 70
     1
102
RTVSPropertyOp16
 70
     1
102
RTVSPropertyOp17
 70
     1
102
RTVSPropertyOp18
 70
     1
102
RTVSPropertyOp19
 70
     1
102
RTVSPropertyOp20
 70
     1
102
RTVSPropertyOp21
 70
     1
102
RTVSPropertyOp22
 70
     1
102
RTVSPropertyOp23
 70
     1
102
RTVSPropertyOp24
 70
     1
102
RTVSPropertyOp25
 70
     1
102
RTVSPropertyOp26
 70
     1
102
RTVSPropertyOp27
 70
     1
102
RTVSPropertyOp28
 70
     1
102
RTVSPropertyOp29
 70
     1
102
RTVSPropertyOp30
 70
     1
102
RTVSPropertyOp31
 70
     1
102
RTVSPropertyOp32
 70
     1
102
RTVSPropertyOp33
 70
     1
102
RTVSPropertyOp34
 70
     1
102
RTVSPropertyOp35
 70
     1
102
RTVSPropertyOp36
 70
     1
102
RTVSPropertyOp37
 70
     1
102
RTVSPropertyOp38
 70
     1
102
RTVSPropertyOp39
 70
     1
102
RTVSPropertyOp40
 70
     1
102
RTVSPropertyOp41
 70
     1
102
RTVSPropertyOp42
 70
     1
102
RTVSPropertyOp43
 70
     1
102
RTVSPropertyOp44
 70
     1
102
RTVSPropertyOp45
 70
     1
102
RTVSPropertyOp46
 70
     1
102
RTVSPropertyOp47
 70
     1
102
RTVSPropertyOp48
 70
     1
102
RTVSPropertyOp49
 70
     1
102
RTVSPropertyOp50
 70
     1
102
RTVSPropertyOp51
 70
     0
102
RTVSPropertyOp52
 70
     0
102
RTVSPropertyOp53
 70
     1
102
RTVSPropertyOp54
 70
     1
102
RTVSPropertyOp55
 70
     1
102
RTVSPropertyOp56
 70
     1
102
RTVSPropertyOp57
 70
     1
102
RTVSPropertyOp58
 70
     1
102
RTVSPropertyOp59
 70
     1
102
RTVSPropertyOp60
 70
     1
102
RTVSPropertyOp61
 70
     1
102
RTVSPropertyOp62
 70
     1
  0
XRECORD
  5
3B2F
102
{ACAD_REACTORS
330
3B2E
102
}
330
3B2E
100
AcDbXrecord
280
     1
102
RTVSPost2010Prop28
280
     0
102
RTVSPost2010PropOp28
 70
     1
102
RTVSPost2010Prop29
280
     1
102
RTVSPost2010PropOp29
 70
     1
102
RTVSPost2010Prop30
280
     1
102
RTVSPost2010PropOp30
 70
     1
102
RTVSPost2010Prop31
280
     0
102
RTVSPost2010PropOp31
 70
     1
102
RTVSPost2010Prop32
280
     0
102
RTVSPost2010PropOp32
 70
     1
102
RTVSPost2010Prop33
280
     0
102
RTVSPost2010PropOp33
 70
     1
102
RTVSPost2010Prop34
280
     0
102
RTVSPost2010PropOp34
 70
     1
102
RTVSPost2010Prop35
280
     0
102
RTVSPost2010PropOp35
 70
     1
102
RTVSPost2010Prop36
280
     0
102
RTVSPost2010PropOp36
 70
     1
102
RTVSPost2010Prop37
 90
       50
102
RTVSPost2010PropOp37
 70
     1
102
RTVSPost2010Prop38
140
0.0
102
RTVSPost2010PropOp38
 70
     1
102
RTVSPost2010Prop39
140
1.0
102
RTVSPost2010PropOp39
 70
     1
102
RTVSPost2010Prop40
 90
        0
102
RTVSPost2010PropOp40
 70
     1
102
RTVSPost2010Prop41ColorIndex
 90
       18
102
RTVSPost2010Prop41ColorRGB
 90
        0
102
RTVSPost2010PropOp41
 70
     1
102
RTVSPost2010Prop42
 90
       50
102
RTVSPost2010PropOp42
 70
     1
102
RTVSPost2010Prop43
 90
        3
102
RTVSPost2010PropOp43
 70
     1
102
RTVSPost2010Prop44ColorIndex
 90
        5
102
RTVSPost2010Prop44ColorRGB
 90
      255
102
RTVSPost2010PropOp44
 70
     1
102
RTVSPost2010Prop45
280
     0
102
RTVSPost2010PropOp45
 70
     1
102
RTVSPost2010Prop46
 90
       50
102
RTVSPost2010PropOp46
 70
     1
102
RTVSPost2010Prop47
 90
       50
102
RTVSPost2010PropOp47
 70
     1
102
RTVSPost2010Prop48
 90
       50
102
RTVSPost2010PropOp48
 70
     1
102
RTVSPost2010Prop49
280
     0
102
RTVSPost2010PropOp49
 70
     1
102
RTVSPost2010Prop50
 90
       50
102
RTVSPost2010PropOp50
 70
     1
102
RTVSPost2010Prop51ColorIndex
 90
      256
102
RTVSPost2010Prop51ColorRGB
 90
-16777216
102
RTVSPost2010PropOp51
 70
     0
102
RTVSPost2010Prop52
140
1.0
102
RTVSPost2010PropOp52
 70
     0
102
RTVSPost2010Prop53
 90
        2
102
RTVSPost2010PropOp53
 70
     1
102
RTVSPost2010Prop54
  1
strokes_ogs.tif
102
RTVSPost2010PropOp54
 70
     1
102
RTVSPost2010Prop55
280
     0
102
RTVSPost2010PropOp55
 70
     1
102
RTVSPost2010Prop56
140
1.0
102
RTVSPost2010PropOp56
 70
     1
102
RTVSPost2010Prop57
140
1.0
102
RTVSPost2010PropOp57
 70
     1
102
RTVSPropertyOp0
 70
     1
102
RTVSPropertyOp1
 70
     1
102
RTVSPropertyOp2
 70
     1
102
RTVSPropertyOp3
 70
     1
102
RTVSPropertyOp4
 70
     1
102
RTVSPropertyOp5
 70
     1
102
RTVSPropertyOp6
 70
     1
102
RTVSPropertyOp7
 70
     1
102
RTVSPropertyOp8
 70
     1
102
RTVSPropertyOp9
 70
     1
102
RTVSPropertyOp10
 70
     1
102
RTVSPropertyOp11
 70
     1
102
RTVSPropertyOp12
 70
     1
102
RTVSPropertyOp13
 70
     1
102
RTVSPropertyOp14
 70
     1
102
RTVSPropertyOp15
 70
     1
102
RTVSPropertyOp16
 70
     1
102
RTVSPropertyOp17
 70
     1
102
RTVSPropertyOp18
 70
     1
102
RTVSPropertyOp19
 70
     1
102
RTVSPropertyOp20
 70
     1
102
RTVSPropertyOp21
 70
     1
102
RTVSPropertyOp22
 70
     1
102
RTVSPropertyOp23
 70
     1
102
RTVSPropertyOp24
 70
     1
102
RTVSPropertyOp25
 70
     1
102
RTVSPropertyOp26
 70
     1
102
RTVSPropertyOp27
 70
     1
102
RTVSPropertyOp28
 70
     1
102
RTVSPropertyOp29
 70
     1
102
RTVSPropertyOp30
 70
     1
102
RTVSPropertyOp31
 70
     1
102
RTVSPropertyOp32
 70
     1
102
RTVSPropertyOp33
 70
     1
102
RTVSPropertyOp34
 70
     1
102
RTVSPropertyOp35
 70
     1
102
RTVSPropertyOp36
 70
     1
102
RTVSPropertyOp37
 70
     1
102
RTVSPropertyOp38
 70
     1
102
RTVSPropertyOp39
 70
     1
102
RTVSPropertyOp40
 70
     1
102
RTVSPropertyOp41
 70
     1
102
RTVSPropertyOp42
 70
     1
102
RTVSPropertyOp43
 70
     1
102
RTVSPropertyOp44
 70
     1
102
RTVSPropertyOp45
 70
     1
102
RTVSPropertyOp46
 70
     1
102
RTVSPropertyOp47
 70
     1
102
RTVSPropertyOp48
 70
     1
102
RTVSPropertyOp49
 70
     1
102
RTVSPropertyOp50
 70
     1
102
RTVSPropertyOp51
 70
     0
102
RTVSPropertyOp52
 70
     0
102
RTVSPropertyOp53
 70
     1
102
RTVSPropertyOp54
 70
     1
102
RTVSPropertyOp55
 70
     1
102
RTVSPropertyOp56
 70
     1
102
RTVSPropertyOp57
 70
     1
102
RTVSPropertyOp58
 70
     1
102
RTVSPropertyOp59
 70
     1
102
RTVSPropertyOp60
 70
     1
102
RTVSPropertyOp61
 70
     1
102
RTVSPropertyOp62
 70
     1
  0
XRECORD
  5
3B31
102
{ACAD_REACTORS
330
3B30
102
}
330
3B30
100
AcDbXrecord
280
     1
102
RTVSPost2010Prop28
280
     0
102
RTVSPost2010PropOp28
 70
     1
102
RTVSPost2010Prop29
280
     1
102
RTVSPost2010PropOp29
 70
     1
102
RTVSPost2010Prop30
280
     1
102
RTVSPost2010PropOp30
 70
     1
102
RTVSPost2010Prop31
280
     0
102
RTVSPost2010PropOp31
 70
     1
102
RTVSPost2010Prop32
280
     0
102
RTVSPost2010PropOp32
 70
     1
102
RTVSPost2010Prop33
280
     0
102
RTVSPost2010PropOp33
 70
     1
102
RTVSPost2010Prop34
280
     0
102
RTVSPost2010PropOp34
 70
     1
102
RTVSPost2010Prop35
280
     0
102
RTVSPost2010PropOp35
 70
     1
102
RTVSPost2010Prop36
280
     0
102
RTVSPost2010PropOp36
 70
     1
102
RTVSPost2010Prop37
 90
       50
102
RTVSPost2010PropOp37
 70
     1
102
RTVSPost2010Prop38
140
0.0
102
RTVSPost2010PropOp38
 70
     1
102
RTVSPost2010Prop39
140
1.0
102
RTVSPost2010PropOp39
 70
     1
102
RTVSPost2010Prop40
 90
        0
102
RTVSPost2010PropOp40
 70
     1
102
RTVSPost2010Prop41ColorIndex
 90
       18
102
RTVSPost2010Prop41ColorRGB
 90
        0
102
RTVSPost2010PropOp41
 70
     1
102
RTVSPost2010Prop42
 90
       50
102
RTVSPost2010PropOp42
 70
     1
102
RTVSPost2010Prop43
 90
        3
102
RTVSPost2010PropOp43
 70
     1
102
RTVSPost2010Prop44ColorIndex
 90
        5
102
RTVSPost2010Prop44ColorRGB
 90
      255
102
RTVSPost2010PropOp44
 70
     1
102
RTVSPost2010Prop45
280
     0
102
RTVSPost2010PropOp45
 70
     1
102
RTVSPost2010Prop46
 90
       50
102
RTVSPost2010PropOp46
 70
     1
102
RTVSPost2010Prop47
 90
       50
102
RTVSPost2010PropOp47
 70
     1
102
RTVSPost2010Prop48
 90
       50
102
RTVSPost2010PropOp48
 70
     1
102
RTVSPost2010Prop49
280
     0
102
RTVSPost2010PropOp49
 70
     1
102
RTVSPost2010Prop50
 90
       50
102
RTVSPost2010PropOp50
 70
     1
102
RTVSPost2010Prop51ColorIndex
 90
      256
102
RTVSPost2010Prop51ColorRGB
 90
-16777216
102
RTVSPost2010PropOp51
 70
     0
102
RTVSPost2010Prop52
140
1.0
102
RTVSPost2010PropOp52
 70
     0
102
RTVSPost2010Prop53
 90
        2
102
RTVSPost2010PropOp53
 70
     1
102
RTVSPost2010Prop54
  1
strokes_ogs.tif
102
RTVSPost2010PropOp54
 70
     1
102
RTVSPost2010Prop55
280
     0
102
RTVSPost2010PropOp55
 70
     1
102
RTVSPost2010Prop56
140
1.0
102
RTVSPost2010PropOp56
 70
     1
102
RTVSPost2010Prop57
140
1.0
102
RTVSPost2010PropOp57
 70
     1
102
RTVSPropertyOp0
 70
     1
102
RTVSPropertyOp1
 70
     1
102
RTVSPropertyOp2
 70
     1
102
RTVSPropertyOp3
 70
     1
102
RTVSPropertyOp4
 70
     1
102
RTVSPropertyOp5
 70
     1
102
RTVSPropertyOp6
 70
     1
102
RTVSPropertyOp7
 70
     1
102
RTVSPropertyOp8
 70
     1
102
RTVSPropertyOp9
 70
     1
102
RTVSPropertyOp10
 70
     1
102
RTVSPropertyOp11
 70
     1
102
RTVSPropertyOp12
 70
     1
102
RTVSPropertyOp13
 70
     1
102
RTVSPropertyOp14
 70
     1
102
RTVSPropertyOp15
 70
     1
102
RTVSPropertyOp16
 70
     1
102
RTVSPropertyOp17
 70
     1
102
RTVSPropertyOp18
 70
     1
102
RTVSPropertyOp19
 70
     1
102
RTVSPropertyOp20
 70
     1
102
RTVSPropertyOp21
 70
     1
102
RTVSPropertyOp22
 70
     1
102
RTVSPropertyOp23
 70
     1
102
RTVSPropertyOp24
 70
     1
102
RTVSPropertyOp25
 70
     1
102
RTVSPropertyOp26
 70
     1
102
RTVSPropertyOp27
 70
     1
102
RTVSPropertyOp28
 70
     1
102
RTVSPropertyOp29
 70
     1
102
RTVSPropertyOp30
 70
     1
102
RTVSPropertyOp31
 70
     1
102
RTVSPropertyOp32
 70
     1
102
RTVSPropertyOp33
 70
     1
102
RTVSPropertyOp34
 70
     1
102
RTVSPropertyOp35
 70
     1
102
RTVSPropertyOp36
 70
     1
102
RTVSPropertyOp37
 70
     1
102
RTVSPropertyOp38
 70
     1
102
RTVSPropertyOp39
 70
     1
102
RTVSPropertyOp40
 70
     1
102
RTVSPropertyOp41
 70
     1
102
RTVSPropertyOp42
 70
     1
102
RTVSPropertyOp43
 70
     1
102
RTVSPropertyOp44
 70
     1
102
RTVSPropertyOp45
 70
     1
102
RTVSPropertyOp46
 70
     1
102
RTVSPropertyOp47
 70
     1
102
RTVSPropertyOp48
 70
     1
102
RTVSPropertyOp49
 70
     1
102
RTVSPropertyOp50
 70
     1
102
RTVSPropertyOp51
 70
     0
102
RTVSPropertyOp52
 70
     0
102
RTVSPropertyOp53
 70
     1
102
RTVSPropertyOp54
 70
     1
102
RTVSPropertyOp55
 70
     1
102
RTVSPropertyOp56
 70
     1
102
RTVSPropertyOp57
 70
     1
102
RTVSPropertyOp58
 70
     1
102
RTVSPropertyOp59
 70
     1
102
RTVSPropertyOp60
 70
     1
102
RTVSPropertyOp61
 70
     1
102
RTVSPropertyOp62
 70
     1
  0
XRECORD
  5
3B27
102
{ACAD_REACTORS
330
3B26
102
}
330
3B26
100
AcDbXrecord
280
     1
102
RTVSPost2010Prop28
280
     0
102
RTVSPost2010PropOp28
 70
     1
102
RTVSPost2010Prop29
280
     1
102
RTVSPost2010PropOp29
 70
     1
102
RTVSPost2010Prop30
280
     1
102
RTVSPost2010PropOp30
 70
     1
102
RTVSPost2010Prop31
280
     0
102
RTVSPost2010PropOp31
 70
     1
102
RTVSPost2010Prop32
280
     0
102
RTVSPost2010PropOp32
 70
     1
102
RTVSPost2010Prop33
280
     0
102
RTVSPost2010PropOp33
 70
     1
102
RTVSPost2010Prop34
280
     0
102
RTVSPost2010PropOp34
 70
     1
102
RTVSPost2010Prop35
280
     0
102
RTVSPost2010PropOp35
 70
     1
102
RTVSPost2010Prop36
280
     0
102
RTVSPost2010PropOp36
 70
     1
102
RTVSPost2010Prop37
 90
       50
102
RTVSPost2010PropOp37
 70
     1
102
RTVSPost2010Prop38
140
0.0
102
RTVSPost2010PropOp38
 70
     1
102
RTVSPost2010Prop39
140
1.0
102
RTVSPost2010PropOp39
 70
     1
102
RTVSPost2010Prop40
 90
        0
102
RTVSPost2010PropOp40
 70
     1
102
RTVSPost2010Prop41ColorIndex
 90
       18
102
RTVSPost2010Prop41ColorRGB
 90
        0
102
RTVSPost2010PropOp41
 70
     1
102
RTVSPost2010Prop42
 90
       50
102
RTVSPost2010PropOp42
 70
     1
102
RTVSPost2010Prop43
 90
        3
102
RTVSPost2010PropOp43
 70
     1
102
RTVSPost2010Prop44ColorIndex
 90
        5
102
RTVSPost2010Prop44ColorRGB
 90
      255
102
RTVSPost2010PropOp44
 70
     1
102
RTVSPost2010Prop45
280
     0
102
RTVSPost2010PropOp45
 70
     1
102
RTVSPost2010Prop46
 90
       50
102
RTVSPost2010PropOp46
 70
     1
102
RTVSPost2010Prop47
 90
       50
102
RTVSPost2010PropOp47
 70
     1
102
RTVSPost2010Prop48
 90
       50
102
RTVSPost2010PropOp48
 70
     1
102
RTVSPost2010Prop49
280
     0
102
RTVSPost2010PropOp49
 70
     1
102
RTVSPost2010Prop50
 90
       50
102
RTVSPost2010PropOp50
 70
     1
102
RTVSPost2010Prop51ColorIndex
 90
      256
102
RTVSPost2010Prop51ColorRGB
 90
-16777216
102
RTVSPost2010PropOp51
 70
     0
102
RTVSPost2010Prop52
140
1.0
102
RTVSPost2010PropOp52
 70
     0
102
RTVSPost2010Prop53
 90
        2
102
RTVSPost2010PropOp53
 70
     1
102
RTVSPost2010Prop54
  1
strokes_ogs.tif
102
RTVSPost2010PropOp54
 70
     1
102
RTVSPost2010Prop55
280
     0
102
RTVSPost2010PropOp55
 70
     1
102
RTVSPost2010Prop56
140
1.0
102
RTVSPost2010PropOp56
 70
     1
102
RTVSPost2010Prop57
140
1.0
102
RTVSPost2010PropOp57
 70
     1
102
RTVSPropertyOp0
 70
     1
102
RTVSPropertyOp1
 70
     1
102
RTVSPropertyOp2
 70
     1
102
RTVSPropertyOp3
 70
     1
102
RTVSPropertyOp4
 70
     1
102
RTVSPropertyOp5
 70
     1
102
RTVSPropertyOp6
 70
     1
102
RTVSPropertyOp7
 70
     1
102
RTVSPropertyOp8
 70
     1
102
RTVSPropertyOp9
 70
     1
102
RTVSPropertyOp10
 70
     1
102
RTVSPropertyOp11
 70
     1
102
RTVSPropertyOp12
 70
     1
102
RTVSPropertyOp13
 70
     1
102
RTVSPropertyOp14
 70
     1
102
RTVSPropertyOp15
 70
     1
102
RTVSPropertyOp16
 70
     1
102
RTVSPropertyOp17
 70
     1
102
RTVSPropertyOp18
 70
     1
102
RTVSPropertyOp19
 70
     1
102
RTVSPropertyOp20
 70
     1
102
RTVSPropertyOp21
 70
     1
102
RTVSPropertyOp22
 70
     1
102
RTVSPropertyOp23
 70
     1
102
RTVSPropertyOp24
 70
     1
102
RTVSPropertyOp25
 70
     1
102
RTVSPropertyOp26
 70
     1
102
RTVSPropertyOp27
 70
     1
102
RTVSPropertyOp28
 70
     1
102
RTVSPropertyOp29
 70
     1
102
RTVSPropertyOp30
 70
     1
102
RTVSPropertyOp31
 70
     1
102
RTVSPropertyOp32
 70
     1
102
RTVSPropertyOp33
 70
     1
102
RTVSPropertyOp34
 70
     1
102
RTVSPropertyOp35
 70
     1
102
RTVSPropertyOp36
 70
     1
102
RTVSPropertyOp37
 70
     1
102
RTVSPropertyOp38
 70
     1
102
RTVSPropertyOp39
 70
     1
102
RTVSPropertyOp40
 70
     1
102
RTVSPropertyOp41
 70
     1
102
RTVSPropertyOp42
 70
     1
102
RTVSPropertyOp43
 70
     1
102
RTVSPropertyOp44
 70
     1
102
RTVSPropertyOp45
 70
     1
102
RTVSPropertyOp46
 70
     1
102
RTVSPropertyOp47
 70
     1
102
RTVSPropertyOp48
 70
     1
102
RTVSPropertyOp49
 70
     1
102
RTVSPropertyOp50
 70
     1
102
RTVSPropertyOp51
 70
     0
102
RTVSPropertyOp52
 70
     0
102
RTVSPropertyOp53
 70
     1
102
RTVSPropertyOp54
 70
     1
102
RTVSPropertyOp55
 70
     1
102
RTVSPropertyOp56
 70
     1
102
RTVSPropertyOp57
 70
     1
102
RTVSPropertyOp58
 70
     1
102
RTVSPropertyOp59
 70
     1
102
RTVSPropertyOp60
 70
     1
102
RTVSPropertyOp61
 70
     1
102
RTVSPropertyOp62
 70
     1
  0
XRECORD
  5
3B1B
102
{ACAD_REACTORS
330
3B1A
102
}
330
3B1A
100
AcDbXrecord
280
     1
102
RTVSPost2010Prop28
280
     0
102
RTVSPost2010PropOp28
 70
     1
102
RTVSPost2010Prop29
280
     1
102
RTVSPost2010PropOp29
 70
     1
102
RTVSPost2010Prop30
280
     1
102
RTVSPost2010PropOp30
 70
     1
102
RTVSPost2010Prop31
280
     0
102
RTVSPost2010PropOp31
 70
     1
102
RTVSPost2010Prop32
280
     0
102
RTVSPost2010PropOp32
 70
     1
102
RTVSPost2010Prop33
280
     0
102
RTVSPost2010PropOp33
 70
     1
102
RTVSPost2010Prop34
280
     0
102
RTVSPost2010PropOp34
 70
     1
102
RTVSPost2010Prop35
280
     0
102
RTVSPost2010PropOp35
 70
     1
102
RTVSPost2010Prop36
280
     0
102
RTVSPost2010PropOp36
 70
     1
102
RTVSPost2010Prop37
 90
       50
102
RTVSPost2010PropOp37
 70
     1
102
RTVSPost2010Prop38
140
0.0
102
RTVSPost2010PropOp38
 70
     1
102
RTVSPost2010Prop39
140
1.0
102
RTVSPost2010PropOp39
 70
     1
102
RTVSPost2010Prop40
 90
        0
102
RTVSPost2010PropOp40
 70
     1
102
RTVSPost2010Prop41ColorIndex
 90
       18
102
RTVSPost2010Prop41ColorRGB
 90
        0
102
RTVSPost2010PropOp41
 70
     1
102
RTVSPost2010Prop42
 90
       50
102
RTVSPost2010PropOp42
 70
     1
102
RTVSPost2010Prop43
 90
        3
102
RTVSPost2010PropOp43
 70
     1
102
RTVSPost2010Prop44ColorIndex
 90
        5
102
RTVSPost2010Prop44ColorRGB
 90
      255
102
RTVSPost2010PropOp44
 70
     1
102
RTVSPost2010Prop45
280
     0
102
RTVSPost2010PropOp45
 70
     1
102
RTVSPost2010Prop46
 90
       50
102
RTVSPost2010PropOp46
 70
     1
102
RTVSPost2010Prop47
 90
       50
102
RTVSPost2010PropOp47
 70
     1
102
RTVSPost2010Prop48
 90
       50
102
RTVSPost2010PropOp48
 70
     1
102
RTVSPost2010Prop49
280
     0
102
RTVSPost2010PropOp49
 70
     1
102
RTVSPost2010Prop50
 90
       50
102
RTVSPost2010PropOp50
 70
     1
102
RTVSPost2010Prop51ColorIndex
 90
      256
102
RTVSPost2010Prop51ColorRGB
 90
-16777216
102
RTVSPost2010PropOp51
 70
     0
102
RTVSPost2010Prop52
140
1.0
102
RTVSPost2010PropOp52
 70
     0
102
RTVSPost2010Prop53
 90
        2
102
RTVSPost2010PropOp53
 70
     1
102
RTVSPost2010Prop54
  1
strokes_ogs.tif
102
RTVSPost2010PropOp54
 70
     1
102
RTVSPost2010Prop55
280
     0
102
RTVSPost2010PropOp55
 70
     1
102
RTVSPost2010Prop56
140
1.0
102
RTVSPost2010PropOp56
 70
     1
102
RTVSPost2010Prop57
140
1.0
102
RTVSPost2010PropOp57
 70
     1
102
RTVSPropertyOp0
 70
     1
102
RTVSPropertyOp1
 70
     1
102
RTVSPropertyOp2
 70
     1
102
RTVSPropertyOp3
 70
     1
102
RTVSPropertyOp4
 70
     1
102
RTVSPropertyOp5
 70
     1
102
RTVSPropertyOp6
 70
     1
102
RTVSPropertyOp7
 70
     1
102
RTVSPropertyOp8
 70
     1
102
RTVSPropertyOp9
 70
     1
102
RTVSPropertyOp10
 70
     1
102
RTVSPropertyOp11
 70
     1
102
RTVSPropertyOp12
 70
     1
102
RTVSPropertyOp13
 70
     1
102
RTVSPropertyOp14
 70
     1
102
RTVSPropertyOp15
 70
     1
102
RTVSPropertyOp16
 70
     1
102
RTVSPropertyOp17
 70
     1
102
RTVSPropertyOp18
 70
     1
102
RTVSPropertyOp19
 70
     1
102
RTVSPropertyOp20
 70
     1
102
RTVSPropertyOp21
 70
     1
102
RTVSPropertyOp22
 70
     1
102
RTVSPropertyOp23
 70
     1
102
RTVSPropertyOp24
 70
     1
102
RTVSPropertyOp25
 70
     1
102
RTVSPropertyOp26
 70
     1
102
RTVSPropertyOp27
 70
     1
102
RTVSPropertyOp28
 70
     1
102
RTVSPropertyOp29
 70
     1
102
RTVSPropertyOp30
 70
     1
102
RTVSPropertyOp31
 70
     1
102
RTVSPropertyOp32
 70
     1
102
RTVSPropertyOp33
 70
     1
102
RTVSPropertyOp34
 70
     1
102
RTVSPropertyOp35
 70
     1
102
RTVSPropertyOp36
 70
     1
102
RTVSPropertyOp37
 70
     1
102
RTVSPropertyOp38
 70
     1
102
RTVSPropertyOp39
 70
     1
102
RTVSPropertyOp40
 70
     1
102
RTVSPropertyOp41
 70
     1
102
RTVSPropertyOp42
 70
     1
102
RTVSPropertyOp43
 70
     1
102
RTVSPropertyOp44
 70
     1
102
RTVSPropertyOp45
 70
     1
102
RTVSPropertyOp46
 70
     1
102
RTVSPropertyOp47
 70
     1
102
RTVSPropertyOp48
 70
     1
102
RTVSPropertyOp49
 70
     1
102
RTVSPropertyOp50
 70
     1
102
RTVSPropertyOp51
 70
     0
102
RTVSPropertyOp52
 70
     0
102
RTVSPropertyOp53
 70
     1
102
RTVSPropertyOp54
 70
     1
102
RTVSPropertyOp55
 70
     1
102
RTVSPropertyOp56
 70
     1
102
RTVSPropertyOp57
 70
     1
102
RTVSPropertyOp58
 70
     1
102
RTVSPropertyOp59
 70
     1
102
RTVSPropertyOp60
 70
     1
102
RTVSPropertyOp61
 70
     1
102
RTVSPropertyOp62
 70
     1
  0
XRECORD
  5
3B33
102
{ACAD_REACTORS
330
3B32
102
}
330
3B32
100
AcDbXrecord
280
     1
102
RTVSPost2010Prop28
280
     0
102
RTVSPost2010PropOp28
 70
     1
102
RTVSPost2010Prop29
280
     1
102
RTVSPost2010PropOp29
 70
     1
102
RTVSPost2010Prop30
280
     1
102
RTVSPost2010PropOp30
 70
     1
102
RTVSPost2010Prop31
280
     0
102
RTVSPost2010PropOp31
 70
     1
102
RTVSPost2010Prop32
280
     0
102
RTVSPost2010PropOp32
 70
     1
102
RTVSPost2010Prop33
280
     0
102
RTVSPost2010PropOp33
 70
     1
102
RTVSPost2010Prop34
280
     0
102
RTVSPost2010PropOp34
 70
     1
102
RTVSPost2010Prop35
280
     0
102
RTVSPost2010PropOp35
 70
     1
102
RTVSPost2010Prop36
280
     0
102
RTVSPost2010PropOp36
 70
     1
102
RTVSPost2010Prop37
 90
       50
102
RTVSPost2010PropOp37
 70
     1
102
RTVSPost2010Prop38
140
0.0
102
RTVSPost2010PropOp38
 70
     1
102
RTVSPost2010Prop39
140
1.0
102
RTVSPost2010PropOp39
 70
     1
102
RTVSPost2010Prop40
 90
        0
102
RTVSPost2010PropOp40
 70
     1
102
RTVSPost2010Prop41ColorIndex
 90
       18
102
RTVSPost2010Prop41ColorRGB
 90
        0
102
RTVSPost2010PropOp41
 70
     1
102
RTVSPost2010Prop42
 90
       50
102
RTVSPost2010PropOp42
 70
     1
102
RTVSPost2010Prop43
 90
        3
102
RTVSPost2010PropOp43
 70
     1
102
RTVSPost2010Prop44ColorIndex
 90
        5
102
RTVSPost2010Prop44ColorRGB
 90
      255
102
RTVSPost2010PropOp44
 70
     1
102
RTVSPost2010Prop45
280
     0
102
RTVSPost2010PropOp45
 70
     1
102
RTVSPost2010Prop46
 90
       50
102
RTVSPost2010PropOp46
 70
     1
102
RTVSPost2010Prop47
 90
       50
102
RTVSPost2010PropOp47
 70
     1
102
RTVSPost2010Prop48
 90
       50
102
RTVSPost2010PropOp48
 70
     1
102
RTVSPost2010Prop49
280
     0
102
RTVSPost2010PropOp49
 70
     1
102
RTVSPost2010Prop50
 90
       50
102
RTVSPost2010PropOp50
 70
     1
102
RTVSPost2010Prop51ColorIndex
 90
      256
102
RTVSPost2010Prop51ColorRGB
 90
-16777216
102
RTVSPost2010PropOp51
 70
     0
102
RTVSPost2010Prop52
140
1.0
102
RTVSPost2010PropOp52
 70
     0
102
RTVSPost2010Prop53
 90
        2
102
RTVSPost2010PropOp53
 70
     1
102
RTVSPost2010Prop54
  1
strokes_ogs.tif
102
RTVSPost2010PropOp54
 70
     1
102
RTVSPost2010Prop55
280
     0
102
RTVSPost2010PropOp55
 70
     1
102
RTVSPost2010Prop56
140
1.0
102
RTVSPost2010PropOp56
 70
     1
102
RTVSPost2010Prop57
140
1.0
102
RTVSPost2010PropOp57
 70
     1
102
RTVSPropertyOp0
 70
     1
102
RTVSPropertyOp1
 70
     1
102
RTVSPropertyOp2
 70
     1
102
RTVSPropertyOp3
 70
     1
102
RTVSPropertyOp4
 70
     1
102
RTVSPropertyOp5
 70
     1
102
RTVSPropertyOp6
 70
     1
102
RTVSPropertyOp7
 70
     1
102
RTVSPropertyOp8
 70
     1
102
RTVSPropertyOp9
 70
     1
102
RTVSPropertyOp10
 70
     1
102
RTVSPropertyOp11
 70
     1
102
RTVSPropertyOp12
 70
     1
102
RTVSPropertyOp13
 70
     1
102
RTVSPropertyOp14
 70
     1
102
RTVSPropertyOp15
 70
     1
102
RTVSPropertyOp16
 70
     1
102
RTVSPropertyOp17
 70
     1
102
RTVSPropertyOp18
 70
     1
102
RTVSPropertyOp19
 70
     1
102
RTVSPropertyOp20
 70
     1
102
RTVSPropertyOp21
 70
     1
102
RTVSPropertyOp22
 70
     1
102
RTVSPropertyOp23
 70
     1
102
RTVSPropertyOp24
 70
     1
102
RTVSPropertyOp25
 70
     1
102
RTVSPropertyOp26
 70
     1
102
RTVSPropertyOp27
 70
     1
102
RTVSPropertyOp28
 70
     1
102
RTVSPropertyOp29
 70
     1
102
RTVSPropertyOp30
 70
     1
102
RTVSPropertyOp31
 70
     1
102
RTVSPropertyOp32
 70
     1
102
RTVSPropertyOp33
 70
     1
102
RTVSPropertyOp34
 70
     1
102
RTVSPropertyOp35
 70
     1
102
RTVSPropertyOp36
 70
     1
102
RTVSPropertyOp37
 70
     1
102
RTVSPropertyOp38
 70
     1
102
RTVSPropertyOp39
 70
     1
102
RTVSPropertyOp40
 70
     1
102
RTVSPropertyOp41
 70
     1
102
RTVSPropertyOp42
 70
     1
102
RTVSPropertyOp43
 70
     1
102
RTVSPropertyOp44
 70
     1
102
RTVSPropertyOp45
 70
     1
102
RTVSPropertyOp46
 70
     1
102
RTVSPropertyOp47
 70
     1
102
RTVSPropertyOp48
 70
     1
102
RTVSPropertyOp49
 70
     1
102
RTVSPropertyOp50
 70
     1
102
RTVSPropertyOp51
 70
     0
102
RTVSPropertyOp52
 70
     0
102
RTVSPropertyOp53
 70
     1
102
RTVSPropertyOp54
 70
     1
102
RTVSPropertyOp55
 70
     1
102
RTVSPropertyOp56
 70
     1
102
RTVSPropertyOp57
 70
     1
102
RTVSPropertyOp58
 70
     1
102
RTVSPropertyOp59
 70
     1
102
RTVSPropertyOp60
 70
     1
102
RTVSPropertyOp61
 70
     1
102
RTVSPropertyOp62
 70
     1
  0
ENDSEC
  0
EOF
