  0
SECTION
  2
HEADER
  9
$ACADVER
  1
AC1015
  9
$ACADMAINTVER
 70
    20
  9
$DWGCODEPAGE
  3
ANSI_932
  9
$INSBASE
 10
0.0
 20
0.0
 30
0.0
  9
$EXTMIN
 10
9.9999975266385
 20
10.0
 30
0.0
  9
$EXTMAX
 10
583.9200145770878
 20
454.5572801537322
 30
0.0
  9
$LIMMIN
 10
0.0000015376081137
 20
-0.0000001931532552
  9
$LIMMAX
 10
702.0000015376082
 20
483.9545452613919
  9
$ORTHOMODE
 70
     1
  9
$REGENMODE
 70
     1
  9
$FILLMODE
 70
     1
  9
$QTEXTMODE
 70
     0
  9
$MIRRTEXT
 70
     1
  9
$LTSCALE
 40
1.0
  9
$ATTMODE
 70
     1
  9
$TEXTSIZE
 40
2.5
  9
$TRACEWID
 40
1.0
  9
$TEXTSTYLE
  7
STANDARD
  9
$CLAYER
  8
0
  9
$CELTYPE
  6
BYLAYER
  9
$CECOLOR
 62
   256
  9
$CELTSCALE
 40
1.0
  9
$DISPSILH
 70
     0
  9
$DIMSCALE
 40
1.0
  9
$DIMASZ
 40
3.0
  9
$DIMEXO
 40
1.0
  9
$DIMDLI
 40
10.0
  9
$DIMRND
 40
0.0
  9
$DIMDLE
 40
0.0
  9
$DIMEXE
 40
1.0
  9
$DIMTP
 40
0.0
  9
$DIMTM
 40
0.0
  9
$DIMTXT
 40
3.2
  9
$DIMCEN
 40
0.0
  9
$DIMTSZ
 40
0.0
  9
$DIMTOL
 70
     0
  9
$DIMLIM
 70
     0
  9
$DIMTIH
 70
     0
  9
$DIMTOH
 70
     0
  9
$DIMSE1
 70
     0
  9
$DIMSE2
 70
     0
  9
$DIMTAD
 70
     3
  9
$DIMZIN
 70
     8
  9
$DIMBLK
  1

  9
$DIMASO
 70
     1
  9
$DIMSHO
 70
     1
  9
$DIMPOST
  1

  9
$DIMAPOST
  1

  9
$DIMALT
 70
     0
  9
$DIMALTD
 70
     2
  9
$DIMALTF
 40
25.4
  9
$DIMLFAC
 40
1.0
  9
$DIMTOFL
 70
     1
  9
$DIMTVP
 40
0.0
  9
$DIMTIX
 70
     0
  9
$DIMSOXD
 70
     0
  9
$DIMSAH
 70
     1
  9
$DIMBLK1
  1
OPEN
  9
$DIMBLK2
  1
OPEN
  9
$DIMSTYLE
  2
STANDARD
  9
$DIMCLRD
 70
     0
  9
$DIMCLRE
 70
     0
  9
$DIMCLRT
 70
     0
  9
$DIMTFAC
 40
1.0
  9
$DIMGAP
 40
1.0
  9
$DIMJUST
 70
     0
  9
$DIMSD1
 70
     0
  9
$DIMSD2
 70
     0
  9
$DIMTOLJ
 70
     1
  9
$DIMTZIN
 70
     0
  9
$DIMALTZ
 70
     0
  9
$DIMALTTZ
 70
     0
  9
$DIMUPT
 70
     0
  9
$DIMDEC
 70
     4
  9
$DIMTDEC
 70
     4
  9
$DIMALTU
 70
     2
  9
$DIMALTTD
 70
     2
  9
$DIMTXSTY
  7
STANDARD
  9
$DIMAUNIT
 70
     0
  9
$DIMADEC
 70
     0
  9
$DIMALTRND
 40
0.0
  9
$DIMAZIN
 70
     0
  9
$DIMDSEP
 70
    46
  9
$DIMATFIT
 70
     3
  9
$DIMFRAC
 70
     0
  9
$DIMLDRBLK
  1
OPEN
  9
$DIMLUNIT
 70
     2
  9
$DIMLWD
 70
    -2
  9
$DIMLWE
 70
    -2
  9
$DIMTMOVE
 70
     0
  9
$LUNITS
 70
     2
  9
$LUPREC
 70
     4
  9
$SKETCHINC
 40
1.0
  9
$FILLETRAD
 40
0.0
  9
$AUNITS
 70
     0
  9
$AUPREC
 70
     0
  9
$MENU
  1
.
  9
$ELEVATION
 40
0.0
  9
$PELEVATION
 40
0.0
  9
$THICKNESS
 40
0.0
  9
$LIMCHECK
 70
     0
  9
$CHAMFERA
 40
10.0
  9
$CHAMFERB
 40
10.0
  9
$CHAMFERC
 40
20.0
  9
$CHAMFERD
 40
0.0
  9
$SKPOLY
 70
     0
  9
$TDCREATE
 40
2454154.597648472
  9
$TDUCREATE
 40
2454154.222648472
  9
$TDUPDATE
 40
2457192.690813785
  9
$TDUUPDATE
 40
2457192.315813785
  9
$TDINDWG
 40
0.1335372454
  9
$TDUSRTIMER
 40
0.1335372222
  9
$USRTIMER
 70
     1
  9
$ANGBASE
 50
0.0
  9
$ANGDIR
 70
     0
  9
$PDMODE
 70
     0
  9
$PDSIZE
 40
0.0
  9
$PLINEWID
 40
0.0
  9
$SPLFRAME
 70
     0
  9
$SPLINETYPE
 70
     6
  9
$SPLINESEGS
 70
     8
  9
$HANDSEED
  5
275A
  9
$SURFTAB1
 70
     6
  9
$SURFTAB2
 70
     6
  9
$SURFTYPE
 70
     6
  9
$SURFU
 70
     6
  9
$SURFV
 70
     6
  9
$UCSBASE
  2

  9
$UCSNAME
  2

  9
$UCSORG
 10
0.0
 20
0.0
 30
0.0
  9
$UCSXDIR
 10
1.0
 20
0.0
 30
0.0
  9
$UCSYDIR
 10
0.0
 20
1.0
 30
0.0
  9
$UCSORTHOREF
  2

  9
$UCSORTHOVIEW
 70
     0
  9
$UCSORGTOP
 10
0.0
 20
0.0
 30
0.0
  9
$UCSORGBOTTOM
 10
0.0
 20
0.0
 30
0.0
  9
$UCSORGLEFT
 10
0.0
 20
0.0
 30
0.0
  9
$UCSORGRIGHT
 10
0.0
 20
0.0
 30
0.0
  9
$UCSORGFRONT
 10
0.0
 20
0.0
 30
0.0
  9
$UCSORGBACK
 10
0.0
 20
0.0
 30
0.0
  9
$PUCSBASE
  2

  9
$PUCSNAME
  2

  9
$PUCSORG
 10
0.0
 20
0.0
 30
0.0
  9
$PUCSXDIR
 10
1.0
 20
0.0
 30
0.0
  9
$PUCSYDIR
 10
0.0
 20
1.0
 30
0.0
  9
$PUCSORTHOREF
  2

  9
$PUCSORTHOVIEW
 70
     0
  9
$PUCSORGTOP
 10
0.0
 20
0.0
 30
0.0
  9
$PUCSORGBOTTOM
 10
0.0
 20
0.0
 30
0.0
  9
$PUCSORGLEFT
 10
0.0
 20
0.0
 30
0.0
  9
$PUCSORGRIGHT
 10
0.0
 20
0.0
 30
0.0
  9
$PUCSORGFRONT
 10
0.0
 20
0.0
 30
0.0
  9
$PUCSORGBACK
 10
0.0
 20
0.0
 30
0.0
  9
$USERI1
 70
     0
  9
$USERI2
 70
     0
  9
$USERI3
 70
     0
  9
$USERI4
 70
     0
  9
$USERI5
 70
     0
  9
$USERR1
 40
0.0
  9
$USERR2
 40
0.0
  9
$USERR3
 40
0.0
  9
$USERR4
 40
0.0
  9
$USERR5
 40
0.0
  9
$WORLDVIEW
 70
     1
  9
$SHADEDGE
 70
     3
  9
$SHADEDIF
 70
    70
  9
$TILEMODE
 70
     1
  9
$MAXACTVP
 70
    48
  9
$PINSBASE
 10
0.0
 20
0.0
 30
0.0
  9
$PLIMCHECK
 70
     0
  9
$PEXTMIN
 10
1.000000000000000E+20
 20
1.000000000000000E+20
 30
1.000000000000000E+20
  9
$PEXTMAX
 10
-1.000000000000000E+20
 20
-1.000000000000000E+20
 30
-1.000000000000000E+20
  9
$PLIMMIN
 10
0.0
 20
0.0
  9
$PLIMMAX
 10
420.0
 20
297.0
  9
$UNITMODE
 70
     0
  9
$VISRETAIN
 70
     1
  9
$PLINEGEN
 70
     0
  9
$PSLTSCALE
 70
     1
  9
$TREEDEPTH
 70
  3020
  9
$CMLSTYLE
  2
STANDARD
  9
$CMLJUST
 70
     0
  9
$CMLSCALE
 40
20.0
  9
$PROXYGRAPHICS
 70
     1
  9
$MEASUREMENT
 70
     0
  9
$CELWEIGHT
370
    -1
  9
$ENDCAPS
280
     0
  9
$JOINSTYLE
280
     0
  9
$LWDISPLAY
290
     0
  9
$INSUNITS
 70
     0
  9
$HYPERLINKBASE
  1

  9
$STYLESHEET
  1

  9
$XEDIT
290
     1
  9
$CEPSNTYPE
380
     0
  9
$PSTYLEMODE
290
     1
  9
$FINGERPRINTGUID
  2
{3263C9B8-4F53-4607-ABA1-33A0244000D8}
  9
$VERSIONGUID
  2
{A9159DE8-D7D8-4456-A109-556D1F1364EA}
  9
$EXTNAMES
290
     1
  9
$PSVPSCALE
 40
0.0
  9
$OLESTARTUP
290
     0
  0
ENDSEC
  0
SECTION
  2
CLASSES
  0
CLASS
  1
ACDBDICTIONARYWDFLT
  2
AcDbDictionaryWithDefault
  3
ObjectDBX Classes
 90
        0
280
     0
281
     0
  0
CLASS
  1
ACDBPLACEHOLDER
  2
AcDbPlaceHolder
  3
ObjectDBX Classes
 90
        0
280
     0
281
     0
  0
CLASS
  1
LAYOUT
  2
AcDbLayout
  3
ObjectDBX Classes
 90
        0
280
     0
281
     0
  0
CLASS
  1
DICTIONARYVAR
  2
AcDbDictionaryVar
  3
ObjectDBX Classes
 90
        0
280
     0
281
     0
  0
CLASS
  1
MATERIAL
  2
AcDbMaterial
  3
ObjectDBX Classes
 90
     1153
280
     0
281
     0
  0
CLASS
  1
VISUALSTYLE
  2
AcDbVisualStyle
  3
ObjectDBX Classes
 90
     4095
280
     0
281
     0
  0
CLASS
  1
TABLESTYLE
  2
AcDbTableStyle
  3
ObjectDBX Classes
 90
     4095
280
     0
281
     0
  0
CLASS
  1
SCALE
  2
AcDbScale
  3
ObjectDBX Classes
 90
     1153
280
     0
281
     0
  0
CLASS
  1
MLEADERSTYLE
  2
AcDbMLeaderStyle
  3
ACDB_MLEADERSTYLE_CLASS
 90
     4095
280
     0
281
     0
  0
CLASS
  1
ACDBSECTIONVIEWSTYLE
  2
AcDbSectionViewStyle
  3
ObjectDBX Classes
 90
     1025
280
     0
281
     0
  0
CLASS
  1
ACDBDETAILVIEWSTYLE
  2
AcDbDetailViewStyle
  3
ObjectDBX Classes
 90
     1025
280
     0
281
     0
  0
CLASS
  1
CELLSTYLEMAP
  2
AcDbCellStyleMap
  3
ObjectDBX Classes
 90
     1152
280
     0
281
     0
  0
ENDSEC
  0
SECTION
  2
TABLES
  0
TABLE
  2
VPORT
  5
8
330
0
100
AcDbSymbolTable
 70
     1
  0
VPORT
  5
26A4
330
8
100
AcDbSymbolTableRecord
100
AcDbViewportTableRecord
  2
*ACTIVE
 70
     0
 10
0.0
 20
0.0
 11
1.0
 21
1.0
 12
481.1076049850407
 22
232.2850382231612
 13
0.0
 23
0.0
 14
10.0
 24
10.0
 15
10.0
 25
10.0
 16
0.0
 26
0.0
 36
1.0
 17
0.0
 27
0.0
 37
0.0
 40
447.9683475052381
 41
2.35006605019815
 42
50.0
 43
0.0
 44
0.0
 50
0.0
 51
0.0
 71
     0
 72
   100
 73
     1
 74
     0
 75
     0
 76
     0
 77
     0
 78
     0
281
     0
 65
     1
110
0.0
120
0.0
130
0.0
111
1.0
121
0.0
131
0.0
112
0.0
122
1.0
132
0.0
 79
     0
146
0.0
1001
ACAD_NAV_VCDISPLAY
1070
     3
  0
ENDTAB
  0
TABLE
  2
LTYPE
  5
5
330
0
100
AcDbSymbolTable
 70
     4
  0
LTYPE
  5
12
330
5
100
AcDbSymbolTableRecord
100
AcDbLinetypeTableRecord
  2
BYBLOCK
 70
     0
  3

 72
    65
 73
     0
 40
0.0
  0
LTYPE
  5
13
330
5
100
AcDbSymbolTableRecord
100
AcDbLinetypeTableRecord
  2
BYLAYER
 70
     0
  3

 72
    65
 73
     0
 40
0.0
  0
LTYPE
  5
14
330
5
100
AcDbSymbolTableRecord
100
AcDbLinetypeTableRecord
  2
CONTINUOUS
 70
     0
  3
Solid line
 72
    65
 73
     0
 40
0.0
  0
LTYPE
  5
4B
330
5
100
AcDbSymbolTableRecord
100
AcDbLinetypeTableRecord
  2
DASHED
 70
     0
  3
Dashed __ __ __ __ __ __ __ __ __ __ __ __ __ _
 72
    65
 73
     2
 40
19.04999999999999
 49
12.7
 74
     0
 49
-6.349999999999998
 74
     0
  0
LTYPE
  5
4C
330
5
100
AcDbSymbolTableRecord
100
AcDbLinetypeTableRecord
  2
CENTER
 70
     0
  3
Center ____ _ ____ _ ____ _ ____ _ ____ _ ____
 72
    65
 73
     4
 40
50.8
 49
31.75
 74
     0
 49
-6.349999999999998
 74
     0
 49
6.349999999999998
 74
     0
 49
-6.349999999999998
 74
     0
  0
LTYPE
  5
4D
330
5
100
AcDbSymbolTableRecord
100
AcDbLinetypeTableRecord
  2
PHANTOM
 70
     0
  3
Phantom ______  __  __  ______  __  __  ______
 72
    65
 73
     6
 40
63.5
 49
31.75
 74
     0
 49
-6.349999999999998
 74
     0
 49
6.349999999999998
 74
     0
 49
-6.349999999999998
 74
     0
 49
6.349999999999998
 74
     0
 49
-6.349999999999998
 74
     0
  0
ENDTAB
  0
TABLE
  2
LAYER
  5
2
330
0
100
AcDbSymbolTable
 70
     8
  0
LAYER
  5
E
102
{ACAD_XDICTIONARY
360
26FE
102
}
330
2
100
AcDbSymbolTableRecord
100
AcDbLayerTableRecord
  2
0
 70
     0
 62
     7
  6
CONTINUOUS
370
    -3
390
26AD
  0
LAYER
  5
4E
102
{ACAD_XDICTIONARY
360
2700
102
}
330
2
100
AcDbSymbolTableRecord
100
AcDbLayerTableRecord
  2
4
 70
     0
 62
     1
  6
CENTER
370
    -3
390
26AD
  0
LAYER
  5
4F
102
{ACAD_XDICTIONARY
360
2702
102
}
330
2
100
AcDbSymbolTableRecord
100
AcDbLayerTableRecord
  2
5
 70
     0
 62
     6
  6
PHANTOM
370
    -3
390
26AD
  0
LAYER
  5
50
102
{ACAD_XDICTIONARY
360
2704
102
}
330
2
100
AcDbSymbolTableRecord
100
AcDbLayerTableRecord
  2
1
 70
     0
 62
     7
  6
CONTINUOUS
370
    -3
390
26AD
  0
LAYER
  5
51
102
{ACAD_XDICTIONARY
360
2706
102
}
330
2
100
AcDbSymbolTableRecord
100
AcDbLayerTableRecord
  2
2
 70
     0
 62
     4
  6
CONTINUOUS
370
    -3
390
26AD
  0
LAYER
  5
52
102
{ACAD_XDICTIONARY
360
2708
102
}
330
2
100
AcDbSymbolTableRecord
100
AcDbLayerTableRecord
  2
3
 70
     0
 62
     2
  6
DASHED
370
    -3
390
26AD
  0
LAYER
  5
53
102
{ACAD_XDICTIONARY
360
270A
102
}
330
2
100
AcDbSymbolTableRecord
100
AcDbLayerTableRecord
  2
6
 70
     0
 62
     5
  6
CONTINUOUS
370
    -3
390
26AD
  0
LAYER
  5
54
102
{ACAD_XDICTIONARY
360
270C
102
}
330
2
100
AcDbSymbolTableRecord
100
AcDbLayerTableRecord
  2
7
 70
     0
 62
     3
  6
CONTINUOUS
370
    -3
390
26AD
  0
ENDTAB
  0
TABLE
  2
STYLE
  5
3
330
0
100
AcDbSymbolTable
 70
     1
  0
STYLE
  5
F
330
3
100
AcDbSymbolTableRecord
100
AcDbTextStyleTableRecord
  2
STANDARD
 70
     0
 40
0.0
 41
1.0
 50
0.0
 71
     0
 42
2.5
  3
simplex.shx
  4

  0
ENDTAB
  0
TABLE
  2
VIEW
  5
6
330
0
100
AcDbSymbolTable
 70
     0
  0
ENDTAB
  0
TABLE
  2
UCS
  5
7
330
0
100
AcDbSymbolTable
 70
     0
  0
ENDTAB
  0
TABLE
  2
APPID
  5
9
330
0
100
AcDbSymbolTable
 70
     5
  0
APPID
  5
10
330
9
100
AcDbSymbolTableRecord
100
AcDbRegAppTableRecord
  2
ACAD
 70
     0
  0
APPID
  5
3E
330
9
100
AcDbSymbolTableRecord
100
AcDbRegAppTableRecord
  2
CONTENTTABDATA
 70
     0
  0
APPID
  5
3F
330
9
100
AcDbSymbolTableRecord
100
AcDbRegAppTableRecord
  2
CONTENTCURRENTTAB
 70
     0
  0
APPID
  5
2718
330
9
100
AcDbSymbolTableRecord
100
AcDbRegAppTableRecord
  2
ACAD_NAV_VCDISPLAY
 70
     0
  0
APPID
  5
2751
330
9
100
AcDbSymbolTableRecord
100
AcDbRegAppTableRecord
  2
ACAD_MLEADERVER
 70
     0
  0
ENDTAB
  0
TABLE
  2
DIMSTYLE
  5
A
330
0
100
AcDbSymbolTable
 70
     1
100
AcDbDimStyleTable
 71
     0
  0
DIMSTYLE
105
1D
330
A
100
AcDbSymbolTableRecord
100
AcDbDimStyleTableRecord
  2
STANDARD
 70
     0
 41
3.0
 42
1.0
 43
10.0
 44
1.0
 73
     0
 74
     0
 77
     3
 78
     8
140
3.2
141
0.0
147
1.0
172
     1
173
     1
340
F
341
2E
343
2E
344
2E
  0
ENDTAB
  0
TABLE
  2
BLOCK_RECORD
  5
1
330
0
100
AcDbSymbolTable
 70
     1
  0
BLOCK_RECORD
  5
18
102
{ACAD_XDICTIONARY
360
26A7
102
}
330
1
100
AcDbSymbolTableRecord
100
AcDbBlockTableRecord
  2
*MODEL_SPACE
340
26FB
  0
BLOCK_RECORD
  5
15
102
{ACAD_XDICTIONARY
360
26A5
102
}
330
1
100
AcDbSymbolTableRecord
100
AcDbBlockTableRecord
  2
*PAPER_SPACE
340
26FC
  0
BLOCK_RECORD
  5
2E
330
1
100
AcDbSymbolTableRecord
100
AcDbBlockTableRecord
  2
_OPEN
340
0
  0
ENDTAB
  0
ENDSEC
  0
SECTION
  2
BLOCKS
  0
BLOCK
  5
19
330
18
100
AcDbEntity
  8
0
100
AcDbBlockBegin
  2
*MODEL_SPACE
 70
     0
 10
0.0
 20
0.0
 30
0.0
  3
*MODEL_SPACE
  1

  0
ENDBLK
  5
1A
330
18
100
AcDbEntity
  8
0
100
AcDbBlockEnd
  0
BLOCK
  5
16
330
15
100
AcDbEntity
 67
     1
  8
0
100
AcDbBlockBegin
  2
*PAPER_SPACE
 70
     0
 10
0.0
 20
0.0
 30
0.0
  3
*PAPER_SPACE
  1

  0
ENDBLK
  5
17
330
15
100
AcDbEntity
 67
     1
  8
0
100
AcDbBlockEnd
  0
BLOCK
  5
2F
330
2E
100
AcDbEntity
  8
0
100
AcDbBlockBegin
  2
_OPEN
 70
     0
 10
0.0
 20
0.0
 30
0.0
  3
_OPEN
  1

  0
LINE
  5
30
330
2E
100
AcDbEntity
  8
0
  6
ByBlock
 62
     0
100
AcDbLine
 10
-1.0
 20
0.1666666666666666
 30
0.0
 11
0.0
 21
0.0
 31
0.0
  0
LINE
  5
31
330
2E
100
AcDbEntity
  8
0
  6
ByBlock
 62
     0
100
AcDbLine
 10
0.0
 20
0.0
 30
0.0
 11
-1.0
 21
-0.1666666666666666
 31
0.0
  0
LINE
  5
32
330
2E
100
AcDbEntity
  8
0
  6
ByBlock
 62
     0
100
AcDbLine
 10
0.0
 20
0.0
 30
0.0
 11
-1.0
 21
0.0
 31
0.0
  0
ENDBLK
  5
33
330
2E
100
AcDbEntity
  8
0
100
AcDbBlockEnd
  0
ENDSEC
  0
SECTION
  2
ENTITIES
  0
TEXT
  5
63
330
18
100
AcDbEntity
  8
4
  6
CENTER
 48
0.25
100
AcDbText
 10
23.97950852663849
 20
10.0
 30
0.0
 40
1.399999999999999
  1
4
100
AcDbText
  0
TEXT
  5
64
330
18
100
AcDbEntity
  8
7
  6
Continuous
 48
0.25
100
AcDbText
 10
9.999997526638502
 20
26.0000007607689
 30
0.0
 40
3.0
  1
CODE No.19275
100
AcDbText
  0
TEXT
  5
65
330
18
100
AcDbEntity
  8
7
  6
Continuous
 48
0.25
100
AcDbText
 10
9.999997526638502
 20
18.00000076076889
 30
0.0
 40
3.0
  1
TYPE No.TCA-50SUS-RU75
100
AcDbText
  0
TEXT
  5
66
330
18
100
AcDbEntity
  8
1
  6
Continuous
 48
0.25
100
AcDbText
 10
9.999997526638502
 20
10.00000076076889
 30
0.0
 40
1.399999999999999
  1
LAYER
100
AcDbText
  0
TEXT
  5
67
330
18
100
AcDbEntity
  8
2
  6
Continuous
 48
0.25
100
AcDbText
 10
19.9795085266385
 20
10.0
 30
0.0
 40
1.399999999999999
  1
2
100
AcDbText
  0
TEXT
  5
68
330
18
100
AcDbEntity
  8
3
  6
DASHED
 48
0.25
100
AcDbText
 10
21.9795085266385
 20
10.0
 30
0.0
 40
1.399999999999999
  1
3
100
AcDbText
  0
TEXT
  5
69
330
18
100
AcDbEntity
  8
1
  6
Continuous
 48
0.25
100
AcDbText
 10
17.9795085266385
 20
10.0
 30
0.0
 40
1.399999999999999
  1
1
100
AcDbText
  0
TEXT
  5
6A
330
18
100
AcDbEntity
  8
5
  6
PHANTOM
 48
0.25
100
AcDbText
 10
25.9795085266385
 20
10.0
 30
0.0
 40
1.399999999999999
  1
5
100
AcDbText
  0
TEXT
  5
6B
330
18
100
AcDbEntity
  8
6
  6
Continuous
 48
0.25
100
AcDbText
 10
27.9795085266385
 20
10.0
 30
0.0
 40
1.399999999999999
  1
6
100
AcDbText
  0
TEXT
  5
6C
330
18
100
AcDbEntity
  8
7
  6
Continuous
 48
0.25
100
AcDbText
 10
29.9795085266385
 20
10.0
 30
0.0
 40
1.399999999999999
  1
7
100
AcDbText
  0
LINE
  5
207
330
18
100
AcDbEntity
  8
4
  6
CENTER
 48
0.5
100
AcDbLine
 10
339.0944061336061
 20
232.6432782514759
 30
0.0
 11
415.0943991336061
 21
232.6432782514759
 31
0.0
  0
LINE
  5
208
330
18
100
AcDbEntity
  8
4
  6
CENTER
 48
0.5
100
AcDbLine
 10
379.8943800578772
 20
189.1432782514759
 30
0.0
 11
379.8943800578772
 21
301.1432782514759
 31
0.0
  0
LINE
  5
20A
330
18
100
AcDbEntity
  8
4
  6
CENTER
 48
0.5
100
AcDbLine
 10
219.3687455386665
 20
189.1432782514761
 30
0.0
 11
219.3687455386665
 21
301.1432782514758
 31
0.0
  0
LINE
  5
20B
330
18
100
AcDbEntity
  8
4
  6
CENTER
 48
0.5
100
AcDbLine
 10
175.8687455386665
 20
232.6432782514761
 30
0.0
 11
262.8687455386665
 21
232.6432782514761
 31
0.0
  0
CIRCLE
  5
222
330
18
100
AcDbEntity
  8
1
  6
Continuous
100
AcDbCircle
 10
219.3687455386665
 20
232.6432782514761
 30
0.0
 40
5.0
  0
LINE
  5
235
330
18
100
AcDbEntity
  8
1
  6
Continuous
100
AcDbLine
 10
223.6187415386664
 20
375.207286229461
 30
0.0
 11
224.3687455386664
 21
375.9572862294608
 31
0.0
  0
LINE
  5
236
330
18
100
AcDbEntity
  8
1
  6
Continuous
100
AcDbLine
 10
214.3686925386666
 20
375.957246229461
 30
0.0
 11
215.1186925386666
 21
375.207246229461
 31
0.0
  0
LINE
  5
237
330
18
100
AcDbEntity
  8
1
  6
Continuous
100
AcDbLine
 10
224.3687455386664
 20
375.957306229461
 30
0.0
 11
214.3687455386665
 21
375.957306229461
 31
0.0
  0
LINE
  5
238
330
18
100
AcDbEntity
  8
1
  6
Continuous
100
AcDbLine
 10
223.6187455386664
 20
375.207306229461
 30
0.0
 11
215.1187455386665
 21
375.207306229461
 31
0.0
  0
LINE
  5
23B
330
18
100
AcDbEntity
  8
1
  6
Continuous
100
AcDbLine
 10
224.3687455386664
 20
375.9573062294608
 30
0.0
 11
224.3687455386664
 21
377.8072831537318
 31
0.0
  0
LINE
  5
23C
330
18
100
AcDbEntity
  8
1
  6
Continuous
100
AcDbLine
 10
214.3687455386663
 20
375.9573062294608
 30
0.0
 11
214.3687455386663
 21
377.8072831537318
 31
0.0
  0
ARC
  5
251
330
18
100
AcDbEntity
  8
1
  6
Continuous
100
AcDbCircle
 10
219.3687455386665
 20
232.6432782514759
 30
0.0
 40
6.0
100
AcDbArc
 50
318.5903800000001
 51
41.40962399999903
  0
CIRCLE
  5
252
330
18
100
AcDbEntity
  8
1
  6
Continuous
100
AcDbCircle
 10
219.3687455386665
 20
232.6432782514759
 30
0.0
 40
6.5
  0
CIRCLE
  5
253
330
18
100
AcDbEntity
  8
1
  6
Continuous
100
AcDbCircle
 10
219.3687455386665
 20
232.6432782514759
 30
0.0
 40
8.5
  0
LINE
  5
254
330
18
100
AcDbEntity
  8
1
  6
Continuous
100
AcDbLine
 10
219.3687460815058
 20
242.4582343222943
 30
0.0
 11
227.8687455386666
 21
237.5507488672487
 31
0.0
  0
LINE
  5
255
330
18
100
AcDbEntity
  8
1
  6
Continuous
100
AcDbLine
 10
227.8687455386664
 20
237.5507488672487
 30
0.0
 11
227.8687455386664
 21
227.7357990088859
 31
0.0
  0
ARC
  5
256
330
18
100
AcDbEntity
  8
1
  6
Continuous
100
AcDbCircle
 10
223.6437475386666
 20
228.8730832514759
 30
0.0
 40
0.30000001
100
AcDbArc
 50
254.6357599999992
 51
318.5903800000001
  0
ARC
  5
257
330
18
100
AcDbEntity
  8
1
  6
Continuous
100
AcDbCircle
 10
215.0937435386664
 20
228.8730832514759
 30
0.0
 40
0.30000001
100
AcDbArc
 50
221.4096199999998
 51
285.3642400000007
  0
ARC
  5
259
330
18
100
AcDbEntity
  8
1
  6
Continuous
100
AcDbCircle
 10
219.3687455386665
 20
232.6432782514759
 30
0.0
 40
6.0
100
AcDbArc
 50
138.5903699999986
 51
221.4096300000012
  0
ARC
  5
25A
330
18
100
AcDbEntity
  8
1
  6
Continuous
100
AcDbCircle
 10
223.6437475386666
 20
236.4134732514759
 30
0.0
 40
0.30000001
100
AcDbArc
 50
41.409617000001
 51
105.3642400000007
  0
ARC
  5
25B
330
18
100
AcDbEntity
  8
1
  6
Continuous
100
AcDbCircle
 10
215.0937435386664
 20
236.4134732514759
 30
0.0
 40
0.30000001
100
AcDbArc
 50
74.63575800000047
 51
138.5903800000001
  0
CIRCLE
  5
25D
330
18
100
AcDbEntity
  8
1
  6
Continuous
100
AcDbCircle
 10
219.3687455386665
 20
232.6432782514759
 30
0.0
 40
5.0
  0
LINE
  5
25E
330
18
100
AcDbEntity
  8
1
  6
Continuous
100
AcDbLine
 10
216.1187375386664
 20
228.843603251476
 30
0.0
 11
215.1732345386665
 21
228.5838072514759
 31
0.0
  0
LINE
  5
25F
330
18
100
AcDbEntity
  8
1
  6
Continuous
100
AcDbLine
 10
222.6187455386664
 20
228.8436112514759
 30
0.0
 11
223.5642635386664
 21
228.5838072514759
 31
0.0
  0
LINE
  5
260
330
18
100
AcDbEntity
  8
1
  6
Continuous
100
AcDbLine
 10
216.1187455386666
 20
236.4429452514761
 30
0.0
 11
215.1732345386665
 21
236.7027492514761
 31
0.0
  0
LINE
  5
261
330
18
100
AcDbEntity
  8
1
  6
Continuous
100
AcDbLine
 10
222.6187455386664
 20
236.4429452514759
 30
0.0
 11
223.5642565386664
 21
236.7027492514761
 31
0.0
  0
LINE
  5
262
330
18
100
AcDbEntity
  8
1
  6
Continuous
100
AcDbLine
 10
210.8687455386664
 20
237.5507574940659
 30
0.0
 11
219.3687460815056
 21
242.4582343222943
 31
0.0
  0
LINE
  5
263
330
18
100
AcDbEntity
  8
1
  6
Continuous
100
AcDbLine
 10
210.8687455386666
 20
237.5507574940659
 30
0.0
 11
210.8687455386665
 21
227.7357990088861
 31
0.0
  0
LINE
  5
264
330
18
100
AcDbEntity
  8
1
  6
Continuous
100
AcDbLine
 10
210.8687455386663
 20
227.7357990088861
 30
0.0
 11
219.3687455386665
 21
222.8283224940661
 31
0.0
  0
LINE
  5
265
330
18
100
AcDbEntity
  8
1
  6
Continuous
100
AcDbLine
 10
219.3687455386664
 20
222.8283224940661
 30
0.0
 11
227.8687455386664
 21
227.7357990088861
 31
0.0
  0
ARC
  5
267
330
18
100
AcDbEntity
  8
1
  6
Continuous
100
AcDbCircle
 10
215.1187455386665
 20
388.0964854460324
 30
0.0
 40
8.785583093775763
100
AcDbArc
 50
241.0695841800873
 51
298.9304158199126
  0
LINE
  5
268
330
18
100
AcDbEntity
  8
1
  6
Continuous
100
AcDbLine
 10
210.8687455386665
 20
379.0072831537321
 30
0.0
 11
210.8687455386665
 21
384.3072831537322
 31
0.0
  0
LINE
  5
269
330
18
100
AcDbEntity
  8
1
  6
Continuous
100
AcDbLine
 10
219.3687455386665
 20
380.4072741537323
 30
0.0
 11
219.3687455386665
 21
384.3072831537322
 31
0.0
  0
LINE
  5
26B
330
18
100
AcDbEntity
  8
1
  6
Continuous
100
AcDbLine
 10
212.0687455386665
 20
377.8072831537321
 30
0.0
 11
226.6687455386664
 21
377.807283153732
 31
0.0
  0
ARC
  5
26E
330
18
100
AcDbEntity
  8
1
  6
Continuous
100
AcDbCircle
 10
223.6187455386664
 20
388.0966523094416
 30
0.0
 40
8.785729134311964
100
AcDbArc
 50
241.0701105902613
 51
298.9298894097387
  0
LINE
  5
26F
330
18
100
AcDbEntity
  8
1
  6
Continuous
100
AcDbLine
 10
227.8687455386664
 20
379.007283153732
 30
0.0
 11
227.8687455386664
 21
384.3072831537322
 31
0.0
  0
LINE
  5
270
330
18
100
AcDbEntity
  8
1
  6
Continuous
100
AcDbLine
 10
227.8687455386664
 20
379.3072709537306
 30
0.0
 11
210.8687455386665
 21
379.3072709537306
 31
0.0
  0
ARC
  5
272
330
18
100
AcDbEntity
  8
1
  6
Continuous
100
AcDbCircle
 10
211.1187455386665
 20
436.7072781537323
 30
0.0
 40
0.5
100
AcDbArc
 50
111.9512999999981
 51
185.0000100000004
  0
ARC
  5
273
330
18
100
AcDbEntity
  8
1
  6
Continuous
100
AcDbCircle
 10
227.6187455386664
 20
436.7072781537323
 30
0.0
 40
0.5
100
AcDbArc
 50
354.9999967000001
 51
68.04869000000046
  0
ARC
  5
274
330
18
100
AcDbEntity
  8
1
  6
Continuous
100
AcDbCircle
 10
219.3687455386665
 20
416.2377461537323
 30
0.0
 40
22.56953
100
AcDbArc
 50
68.04869000000046
 51
111.9512999999981
  0
LINE
  5
275
330
18
100
AcDbEntity
  8
1
  6
Continuous
100
AcDbLine
 10
228.1168435386666
 20
436.6636961537323
 30
0.0
 11
227.9981725386666
 21
435.3072771537322
 31
0.0
  0
LINE
  5
276
330
18
100
AcDbEntity
  8
1
  6
Continuous
100
AcDbLine
 10
210.6206485386664
 20
436.6636991537323
 30
0.0
 11
210.7393205386665
 21
435.3072771537322
 31
0.0
  0
LINE
  5
277
330
18
100
AcDbEntity
  8
1
  6
Continuous
100
AcDbLine
 10
227.7239165386666
 20
436.7072781537321
 30
0.0
 11
210.9499095386666
 21
436.7072781537321
 31
0.0
  0
LINE
  5
2F0
330
18
100
AcDbEntity
  8
4
  6
CENTER
 48
0.2
100
AcDbLine
 10
180.8687455386665
 20
441.3072801537323
 30
0.0
 11
194.8687455386665
 21
441.3072801537323
 31
0.0
  0
LINE
  5
2F1
330
18
100
AcDbEntity
  8
4
  6
CENTER
 48
0.2
100
AcDbLine
 10
243.8687455386664
 20
441.3072801537323
 30
0.0
 11
257.8687455386664
 21
441.3072801537323
 31
0.0
  0
LINE
  5
2F2
330
18
100
AcDbEntity
  8
4
  6
CENTER
 48
0.2
100
AcDbLine
 10
250.8687455386664
 20
448.3072801537322
 30
0.0
 11
250.8687455386664
 21
434.3072801537323
 31
0.0
  0
LINE
  5
2F3
330
18
100
AcDbEntity
  8
4
  6
CENTER
 48
0.2
100
AcDbLine
 10
187.8687455386665
 20
448.3072801537322
 30
0.0
 11
187.8687455386665
 21
434.3072801537323
 31
0.0
  0
LINE
  5
2F4
330
18
100
AcDbEntity
  8
1
  6
Continuous
100
AcDbLine
 10
245.8687455386664
 20
392.8072801537322
 30
0.0
 11
245.8687455386664
 21
426.8072801537321
 31
0.0
  0
LINE
  5
2F5
330
18
100
AcDbEntity
  8
1
  6
Continuous
100
AcDbLine
 10
192.8687455386665
 20
392.8072801537322
 30
0.0
 11
192.8687455386665
 21
426.8072801537321
 31
0.0
  0
LINE
  5
2F6
330
18
100
AcDbEntity
  8
1
  6
Continuous
100
AcDbLine
 10
197.8687455386665
 20
392.8072801537322
 30
0.0
 11
197.8687455386665
 21
426.8072801537321
 31
0.0
  0
LINE
  5
2F8
330
18
100
AcDbEntity
  8
4
  6
CENTER
 48
0.5
100
AcDbLine
 10
172.3687455386665
 20
409.8072801537322
 30
0.0
 11
266.3687455386664
 21
409.8072801537322
 31
0.0
  0
LINE
  5
2FA
330
18
100
AcDbEntity
  8
1
  6
Continuous
100
AcDbLine
 10
254.3687455386664
 20
452.7925601537323
 30
0.0
 11
254.3687455386664
 21
454.5572801537322
 31
0.0
  0
LINE
  5
2FC
330
18
100
AcDbEntity
  8
1
  6
Continuous
100
AcDbLine
 10
240.8687455386664
 20
392.8072801537322
 30
0.0
 11
240.8687455386664
 21
426.8072801537321
 31
0.0
  0
ARC
  5
300
330
18
100
AcDbEntity
  8
1
  6
Continuous
100
AcDbCircle
 10
195.3687455386665
 20
392.8072801537322
 30
0.0
 40
2.5
100
AcDbArc
 50
179.99996
 51
0.0000100179130762
  0
ARC
  5
301
330
18
100
AcDbEntity
  8
1
  6
Continuous
100
AcDbCircle
 10
195.3687455386665
 20
426.8072801537321
 30
0.0
 40
2.5
100
AcDbArc
 50
0.0
 51
179.99996
  0
CIRCLE
  5
302
330
18
100
AcDbEntity
  8
1
  6
Continuous
100
AcDbCircle
 10
187.8687455386665
 20
441.3072801537323
 30
0.0
 40
4.400000099999996
  0
CIRCLE
  5
303
330
18
100
AcDbEntity
  8
1
  6
Continuous
100
AcDbCircle
 10
250.8687455386664
 20
441.3072801537323
 30
0.0
 40
4.400000099999996
  0
ARC
  5
304
330
18
100
AcDbEntity
  8
1
  6
Continuous
100
AcDbCircle
 10
182.3687455386665
 20
452.7925601537323
 30
0.0
 40
2.0
100
AcDbArc
 50
289.4711899999995
 51
0.0
  0
ARC
  5
305
330
18
100
AcDbEntity
  8
1
  6
Continuous
100
AcDbCircle
 10
256.3687455386664
 20
452.7925601537323
 30
0.0
 40
2.0
100
AcDbArc
 50
179.99996
 51
250.5287700000018
  0
ARC
  5
308
330
18
100
AcDbEntity
  8
1
  6
Continuous
100
AcDbCircle
 10
253.3687455386664
 20
444.3072801537322
 30
0.0
 40
7.0
100
AcDbArc
 50
0.0
 51
70.52876599999907
  0
ARC
  5
309
330
18
100
AcDbEntity
  8
1
  6
Continuous
100
AcDbCircle
 10
185.3687455386665
 20
444.3072801537322
 30
0.0
 40
7.0
100
AcDbArc
 50
109.4711999999992
 51
179.99996
  0
ARC
  5
30A
330
18
100
AcDbEntity
  8
1
  6
Continuous
100
AcDbCircle
 10
243.3687455386664
 20
392.8072801537322
 30
0.0
 40
2.5
100
AcDbArc
 50
179.99996
 51
0.0000100179130762
  0
ARC
  5
30B
330
18
100
AcDbEntity
  8
1
  6
Continuous
100
AcDbCircle
 10
243.3687455386664
 20
426.8072801537321
 30
0.0
 40
2.5
100
AcDbArc
 50
0.0
 51
179.99996
  0
LINE
  5
31E
330
18
100
AcDbEntity
  8
1
  6
Continuous
100
AcDbLine
 10
178.3687455386664
 20
295.1432782514759
 30
0.0
 11
260.3687455386666
 21
295.1432782514759
 31
0.0
  0
LINE
  5
323
330
18
100
AcDbEntity
  8
1
  6
Continuous
100
AcDbLine
 10
230.3687455386664
 20
234.3166102514761
 30
0.0
 11
230.3687455386664
 21
292.8432751514759
 31
0.0
  0
LINE
  5
324
330
18
100
AcDbEntity
  8
1
  6
Continuous
100
AcDbLine
 10
208.3687455386663
 20
234.7166122514759
 30
0.0
 11
208.3687455386663
 21
292.4432813514757
 31
0.0
  0
LINE
  5
325
330
18
100
AcDbEntity
  8
1
  6
Continuous
100
AcDbLine
 10
187.1091405386666
 20
286.0171682514759
 30
0.0
 11
186.2577745386664
 21
286.3565782514759
 31
0.0
  0
LINE
  5
326
330
18
100
AcDbEntity
  8
1
  6
Continuous
100
AcDbLine
 10
251.6283585386666
 20
286.0171602514761
 30
0.0
 11
252.4797185386666
 21
286.3565702514761
 31
0.0
  0
LINE
  5
327
330
18
100
AcDbEntity
  8
1
  6
Continuous
100
AcDbLine
 10
247.2122365386664
 20
281.0259052514759
 30
0.0
 11
233.8751995386664
 21
230.3271462514761
 31
0.0
  0
LINE
  5
328
330
18
100
AcDbEntity
  8
1
  6
Continuous
100
AcDbLine
 10
191.5252655386664
 20
281.0259042514759
 30
0.0
 11
204.8623006086665
 21
230.3271392514759
 31
0.0
  0
LINE
  5
336
330
18
100
AcDbEntity
  8
1
  6
Continuous
100
AcDbLine
 10
260.3687455386664
 20
375.3072801537322
 30
0.0
 11
260.3687455386664
 21
444.3072801537322
 31
0.0
  0
LINE
  5
337
330
18
100
AcDbEntity
  8
1
  6
Continuous
100
AcDbLine
 10
178.3687455386665
 20
375.3072801537322
 30
0.0
 11
178.3687455386665
 21
444.3072801537322
 31
0.0
  0
LINE
  5
338
330
18
100
AcDbEntity
  8
4
  6
CENTER
 48
0.2
100
AcDbLine
 10
180.8687455386665
 20
378.3072801537322
 30
0.0
 11
194.8687455386665
 21
378.3072801537322
 31
0.0
  0
LINE
  5
339
330
18
100
AcDbEntity
  8
4
  6
CENTER
 48
0.2
100
AcDbLine
 10
187.8687455386665
 20
385.3072801537322
 30
0.0
 11
187.8687455386665
 21
371.3072801537322
 31
0.0
  0
LINE
  5
33A
330
18
100
AcDbEntity
  8
4
  6
CENTER
 48
0.2
100
AcDbLine
 10
243.8687455386664
 20
378.3072801537322
 30
0.0
 11
257.8687455386664
 21
378.3072801537322
 31
0.0
  0
LINE
  5
33B
330
18
100
AcDbEntity
  8
4
  6
CENTER
 48
0.2
100
AcDbLine
 10
250.8687455386664
 20
385.3072801537322
 30
0.0
 11
250.8687455386664
 21
371.3072801537322
 31
0.0
  0
LINE
  5
33C
330
18
100
AcDbEntity
  8
4
  6
CENTER
 48
0.5
100
AcDbLine
 10
219.3687455386665
 20
369.007306229461
 30
0.0
 11
219.3687455386665
 21
445.0072761537322
 31
0.0
  0
LINE
  5
33F
330
18
100
AcDbEntity
  8
1
  6
Continuous
100
AcDbLine
 10
184.3687455386664
 20
365.0572801537322
 30
0.0
 11
184.3687455386664
 21
366.821997153732
 31
0.0
  0
LINE
  5
340
330
18
100
AcDbEntity
  8
1
  6
Continuous
100
AcDbLine
 10
254.3687455386666
 20
365.0572801537322
 30
0.0
 11
254.3687455386666
 21
366.821997153732
 31
0.0
  0
ARC
  5
343
330
18
100
AcDbEntity
  8
1
  6
Continuous
100
AcDbCircle
 10
219.3687455386665
 20
234.1432782514759
 30
0.0
 40
15.0
100
AcDbArc
 50
194.7385599999997
 51
345.2614400000002
  0
ARC
  5
344
330
18
100
AcDbEntity
  8
1
  6
Continuous
100
AcDbCircle
 10
251.3687455386664
 20
289.1432782514759
 30
0.0
 40
3.0
100
AcDbArc
 50
291.7354799999987
 51
16.60147100000047
  0
ARC
  5
345
330
18
100
AcDbEntity
  8
1
  6
Continuous
100
AcDbCircle
 10
187.3687455386665
 20
289.1432782514759
 30
0.0
 40
3.0
100
AcDbArc
 50
163.3984799999997
 51
248.2644299999975
  0
ARC
  5
346
330
18
100
AcDbEntity
  8
1
  6
Continuous
100
AcDbCircle
 10
184.3687455386665
 20
279.1432782514759
 30
0.0
 40
7.400000099999996
100
AcDbArc
 50
14.73850999999966
 51
68.26444899999997
  0
ARC
  5
347
330
18
100
AcDbEntity
  8
1
  6
Continuous
100
AcDbCircle
 10
254.3687455386664
 20
279.1432782514759
 30
0.0
 40
7.400000099999996
100
AcDbArc
 50
111.7355400000008
 51
165.2614499999998
  0
ARC
  5
34A
330
18
100
AcDbEntity
  8
1
  6
Continuous
100
AcDbCircle
 10
258.0769515386666
 20
291.1432782514759
 30
0.0
 40
4.0
100
AcDbArc
 50
89.9999820000008
 51
196.6015900000001
  0
ARC
  5
34B
330
18
100
AcDbEntity
  8
1
  6
Continuous
100
AcDbCircle
 10
180.6605435386664
 20
291.1432782514759
 30
0.0
 40
4.0
100
AcDbArc
 50
343.3983700000008
 51
89.9999820000008
  0
CIRCLE
  5
356
330
18
100
AcDbEntity
  8
1
  6
Continuous
100
AcDbCircle
 10
187.8687455386665
 20
378.3072801537322
 30
0.0
 40
4.400000099999996
  0
CIRCLE
  5
357
330
18
100
AcDbEntity
  8
1
  6
Continuous
100
AcDbCircle
 10
250.8687455386664
 20
378.3072801537322
 30
0.0
 40
4.400000099999996
  0
ARC
  5
358
330
18
100
AcDbEntity
  8
1
  6
Continuous
100
AcDbCircle
 10
182.3687455386665
 20
366.8219971537323
 30
0.0
 40
2.0
100
AcDbArc
 50
0.0
 51
70.52874499999916
  0
ARC
  5
359
330
18
100
AcDbEntity
  8
1
  6
Continuous
100
AcDbCircle
 10
256.3687455386664
 20
366.8219971537323
 30
0.0
 40
2.0
100
AcDbArc
 50
109.4712200000001
 51
179.99996
  0
ARC
  5
35C
330
18
100
AcDbEntity
  8
1
  6
Continuous
100
AcDbCircle
 10
185.3687455386665
 20
375.3072801537322
 30
0.0
 40
7.0
100
AcDbArc
 50
179.99996
 51
250.5287700000018
  0
ARC
  5
35D
330
18
100
AcDbEntity
  8
1
  6
Continuous
100
AcDbCircle
 10
253.3687455386664
 20
375.3072801537322
 30
0.0
 40
7.0
100
AcDbArc
 50
289.4711800000005
 51
0.0
  0
ARC
  5
903
330
18
100
AcDbEntity
  8
1
  6
Continuous
100
AcDbCircle
 10
220.1930836896348
 20
409.8072801537322
 30
0.0
 40
6.425661849031713
100
AcDbArc
 50
312.954591511112
 51
47.04540848888796
  0
ARC
  5
904
330
18
100
AcDbEntity
  8
1
  6
Continuous
100
AcDbCircle
 10
219.3687455386665
 20
408.9218799175069
 30
0.0
 40
7.635400236225278
100
AcDbArc
 50
47.04540848888796
 51
132.954591511112
  0
ARC
  5
905
330
18
100
AcDbEntity
  8
1
  6
Continuous
100
AcDbCircle
 10
218.5444073876981
 20
409.8072801537322
 30
0.0
 40
6.425661849031713
100
AcDbArc
 50
132.954591511112
 51
227.0454084888879
  0
ARC
  5
906
330
18
100
AcDbEntity
  8
1
  6
Continuous
100
AcDbCircle
 10
219.3687455386665
 20
410.6926803899574
 30
0.0
 40
7.635400236225278
100
AcDbArc
 50
227.0454084888879
 51
312.954591511112
  0
LINE
  5
907
330
18
100
AcDbEntity
  8
2
  6
Continuous
100
AcDbLine
 10
223.5567455386664
 20
375.2073062294609
 30
0.0
 11
223.5567455386664
 21
377.807283153732
 31
0.0
  0
LINE
  5
908
330
18
100
AcDbEntity
  8
2
  6
Continuous
100
AcDbLine
 10
215.1807455386665
 20
375.2073062294609
 30
0.0
 11
215.1807455386665
 21
377.807283153732
 31
0.0
  0
CIRCLE
  5
909
330
18
100
AcDbEntity
  8
2
  6
Continuous
100
AcDbCircle
 10
219.3687455386665
 20
232.6432782514761
 30
0.0
 40
4.187999999999998
  0
ARC
  5
90C
330
18
100
AcDbEntity
  8
1
  6
Continuous
100
AcDbCircle
 10
226.6687455386664
 20
379.007283153732
 30
0.0
 40
1.199999999999999
100
AcDbArc
 50
269.9999999999997
 51
0.0
  0
ARC
  5
90D
330
18
100
AcDbEntity
  8
1
  6
Continuous
100
AcDbCircle
 10
212.0687455386665
 20
379.0072831537321
 30
0.0
 40
1.199999999999999
100
AcDbArc
 50
180.0
 51
270.0
  0
LINE
  5
90E
330
18
100
AcDbEntity
  8
4
  6
CENTER
 48
0.2
100
AcDbLine
 10
250.8687455386665
 20
287.9432782514758
 30
0.0
 11
250.8687455386665
 21
299.1432782514759
 31
0.0
  0
LINE
  5
90F
330
18
100
AcDbEntity
  8
4
  6
CENTER
 48
0.2
100
AcDbLine
 10
187.8687455386665
 20
287.9432782514758
 30
0.0
 11
187.8687455386665
 21
299.1432782514759
 31
0.0
  0
LINE
  5
C9D
330
18
100
AcDbEntity
  8
1
  6
Continuous
100
AcDbLine
 10
568.263494577088
 20
281.0259042514759
 30
0.0
 11
554.9264595070878
 21
230.3271392514759
 31
0.0
  0
LINE
  5
C9E
330
18
100
AcDbEntity
  8
1
  6
Continuous
100
AcDbLine
 10
551.420014577088
 20
234.7166122514759
 30
0.0
 11
551.420014577088
 21
292.4432813514757
 31
0.0
  0
LINE
  5
C9F
330
18
100
AcDbEntity
  8
1
  6
Continuous
100
AcDbLine
 10
529.420014577088
 20
234.3166102514761
 30
0.0
 11
529.420014577088
 21
292.8432751514759
 31
0.0
  0
LINE
  5
CA0
330
18
100
AcDbEntity
  8
1
  6
Continuous
100
AcDbLine
 10
512.5765235770878
 20
281.0259052514759
 30
0.0
 11
525.913560577088
 21
230.3271462514761
 31
0.0
  0
LINE
  5
CA1
330
18
100
AcDbEntity
  8
4
  6
CENTER
 48
0.5
100
AcDbLine
 10
540.4200145770878
 20
189.1432782514761
 30
0.0
 11
540.4200145770878
 21
301.1432782514758
 31
0.0
  0
LINE
  5
CA5
330
18
100
AcDbEntity
  8
4
  6
CENTER
 48
0.5
100
AcDbLine
 10
583.9200145770878
 20
232.6432782514761
 30
0.0
 11
496.9200145770878
 21
232.6432782514761
 31
0.0
  0
ARC
  5
CB4
330
18
100
AcDbEntity
  8
1
  6
Continuous
100
AcDbCircle
 10
540.4200145770878
 20
234.1432782514759
 30
0.0
 40
15.0
100
AcDbArc
 50
194.7385599999998
 51
345.2614400000002
  0
LINE
  5
CC2
330
18
100
AcDbEntity
  8
1
  6
Continuous
100
AcDbLine
 10
581.4200145770881
 20
295.1432782514759
 30
0.0
 11
499.4200145770878
 21
295.1432782514759
 31
0.0
  0
LINE
  5
CC3
330
18
100
AcDbEntity
  8
4
  6
CENTER
 48
0.2
100
AcDbLine
 10
571.9200145770878
 20
287.9432782514758
 30
0.0
 11
571.9200145770878
 21
299.1432782514759
 31
0.0
  0
ARC
  5
CC4
330
18
100
AcDbEntity
  8
1
  6
Continuous
100
AcDbCircle
 10
572.4200145770878
 20
289.1432782514759
 30
0.0
 40
3.0
100
AcDbArc
 50
291.7355700000025
 51
16.60152000000027
  0
ARC
  5
CC6
330
18
100
AcDbEntity
  8
1
  6
Continuous
100
AcDbCircle
 10
575.4200145770878
 20
279.1432782514759
 30
0.0
 40
7.400000099999996
100
AcDbArc
 50
111.735551
 51
165.2614900000003
  0
LINE
  5
CC7
330
18
100
AcDbEntity
  8
1
  6
Continuous
100
AcDbLine
 10
572.6796195770877
 20
286.0171682514759
 30
0.0
 11
573.5309855770879
 21
286.3565782514759
 31
0.0
  0
ARC
  5
CC8
330
18
100
AcDbEntity
  8
1
  6
Continuous
100
AcDbCircle
 10
579.1282165770878
 20
291.1432782514759
 30
0.0
 40
4.0
100
AcDbArc
 50
90.00001799999918
 51
196.6016299999991
  0
LINE
  5
CCC
330
18
100
AcDbEntity
  8
4
  6
CENTER
 48
0.2
100
AcDbLine
 10
508.9200145770878
 20
287.9432782514758
 30
0.0
 11
508.9200145770878
 21
299.1432782514759
 31
0.0
  0
ARC
  5
CCD
330
18
100
AcDbEntity
  8
1
  6
Continuous
100
AcDbCircle
 10
508.4200145770879
 20
289.1432782514759
 30
0.0
 40
3.0
100
AcDbArc
 50
163.3985289999995
 51
248.2645200000011
  0
LINE
  5
CCF
330
18
100
AcDbEntity
  8
1
  6
Continuous
100
AcDbLine
 10
508.1604015770878
 20
286.0171602514761
 30
0.0
 11
507.3090415770876
 21
286.3565702514761
 31
0.0
  0
ARC
  5
CD0
330
18
100
AcDbEntity
  8
1
  6
Continuous
100
AcDbCircle
 10
505.420014577088
 20
279.1432782514759
 30
0.0
 40
7.400000099999996
100
AcDbArc
 50
14.73855000000012
 51
68.26445999999911
  0
ARC
  5
CD2
330
18
100
AcDbEntity
  8
1
  6
Continuous
100
AcDbCircle
 10
501.7118085770877
 20
291.1432782514759
 30
0.0
 40
4.0
100
AcDbArc
 50
343.3984099999999
 51
90.00001799999918
  0
LINE
  5
D7C
330
18
100
AcDbEntity
  8
4
  6
CENTER
 48
0.2
100
AcDbLine
 10
250.8687455386664
 20
41.97927634921973
 30
0.0
 11
250.8687455386664
 21
55.97927634921973
 31
0.0
  0
LINE
  5
D7F
330
18
100
AcDbEntity
  8
1
  6
Continuous
100
AcDbLine
 10
260.3687455386664
 20
114.9792763492197
 30
0.0
 11
260.3687455386664
 21
45.97927634921972
 31
0.0
  0
LINE
  5
D81
330
18
100
AcDbEntity
  8
4
  6
CENTER
 48
0.2
100
AcDbLine
 10
187.8687455386665
 20
41.97927634921973
 30
0.0
 11
187.8687455386665
 21
55.97927634921973
 31
0.0
  0
CIRCLE
  5
D83
330
18
100
AcDbEntity
  8
1
  6
Continuous
100
AcDbCircle
 10
187.8687455386665
 20
48.97927634921972
 30
0.0
 40
4.400000099999996
  0
LINE
  5
D84
330
18
100
AcDbEntity
  8
1
  6
Continuous
100
AcDbLine
 10
178.3687455386665
 20
114.9792763492197
 30
0.0
 11
178.3687455386665
 21
45.97927634921972
 31
0.0
  0
LINE
  5
D85
330
18
100
AcDbEntity
  8
4
  6
CENTER
 48
0.5
100
AcDbLine
 10
219.3687455386665
 20
121.2792502734909
 30
0.0
 11
219.3687455386665
 21
45.27928034921973
 31
0.0
  0
CIRCLE
  5
D86
330
18
100
AcDbEntity
  8
1
  6
Continuous
100
AcDbCircle
 10
250.8687455386664
 20
48.97927634921972
 30
0.0
 40
4.400000099999996
  0
LINE
  5
D8A
330
18
100
AcDbEntity
  8
4
  6
CENTER
 48
0.5
100
AcDbLine
 10
172.3687455386665
 20
80.47927634921974
 30
0.0
 11
266.3687455386664
 21
80.47927634921974
 31
0.0
  0
LINE
  5
D8C
330
18
100
AcDbEntity
  8
4
  6
CENTER
 48
0.2
100
AcDbLine
 10
243.8687455386664
 20
111.9792763492197
 30
0.0
 11
257.8687455386664
 21
111.9792763492197
 31
0.0
  0
ARC
  5
D92
330
18
100
AcDbEntity
  8
1
  6
Continuous
100
AcDbCircle
 10
185.3687455386665
 20
114.9792763492197
 30
0.0
 40
7.0
100
AcDbArc
 50
109.4712299999981
 51
180.0000399999999
  0
ARC
  5
D94
330
18
100
AcDbEntity
  8
1
  6
Continuous
100
AcDbCircle
 10
182.3687455386665
 20
123.4645593492197
 30
0.0
 40
2.0
100
AcDbArc
 50
289.4712550000008
 51
0.0
  0
LINE
  5
D95
330
18
100
AcDbEntity
  8
1
  6
Continuous
100
AcDbLine
 10
184.3687455386664
 20
125.2292763492197
 30
0.0
 11
184.3687455386664
 21
123.4645593492199
 31
0.0
  0
LINE
  5
D96
330
18
100
AcDbEntity
  8
4
  6
CENTER
 48
0.2
100
AcDbLine
 10
187.8687455386665
 20
104.9792763492197
 30
0.0
 11
187.8687455386665
 21
118.9792763492197
 31
0.0
  0
CIRCLE
  5
D97
330
18
100
AcDbEntity
  8
1
  6
Continuous
100
AcDbCircle
 10
187.8687455386665
 20
111.9792763492197
 30
0.0
 40
4.400000099999996
  0
LINE
  5
D98
330
18
100
AcDbEntity
  8
4
  6
CENTER
 48
0.2
100
AcDbLine
 10
180.8687455386665
 20
111.9792763492197
 30
0.0
 11
194.8687455386665
 21
111.9792763492197
 31
0.0
  0
ARC
  5
D9B
330
18
100
AcDbEntity
  8
1
  6
Continuous
100
AcDbCircle
 10
223.6187455386664
 20
102.1899041935103
 30
0.0
 40
8.785729134311964
100
AcDbArc
 50
61.07011059026134
 51
118.9298894097386
  0
LINE
  5
D9C
330
18
100
AcDbEntity
  8
1
  6
Continuous
100
AcDbLine
 10
223.6187455386664
 20
115.0792502734909
 30
0.0
 11
215.1187455386665
 21
115.0792502734909
 31
0.0
  0
LINE
  5
D9E
330
18
100
AcDbEntity
  8
1
  6
Continuous
100
AcDbLine
 10
212.0687455386665
 20
112.4792733492198
 30
0.0
 11
226.6687455386664
 21
112.4792733492199
 31
0.0
  0
LINE
  5
D9F
330
18
100
AcDbEntity
  8
1
  6
Continuous
100
AcDbLine
 10
227.8687455386664
 20
110.9792855492213
 30
0.0
 11
210.8687455386665
 21
110.9792855492213
 31
0.0
  0
LINE
  5
DA0
330
18
100
AcDbEntity
  8
1
  6
Continuous
100
AcDbLine
 10
224.3687455386664
 20
114.3292502734909
 30
0.0
 11
214.3687455386665
 21
114.3292502734909
 31
0.0
  0
LINE
  5
DA1
330
18
100
AcDbEntity
  8
1
  6
Continuous
100
AcDbLine
 10
219.3687455386665
 20
109.8792823492196
 30
0.0
 11
219.3687455386665
 21
105.9792733492197
 31
0.0
  0
LINE
  5
DA2
330
18
100
AcDbEntity
  8
1
  6
Continuous
100
AcDbLine
 10
210.8687455386665
 20
111.2792733492198
 30
0.0
 11
210.8687455386665
 21
105.9792733492197
 31
0.0
  0
ARC
  5
DA5
330
18
100
AcDbEntity
  8
1
  6
Continuous
100
AcDbCircle
 10
212.0687455386665
 20
111.2792733492198
 30
0.0
 40
1.199999999999999
100
AcDbArc
 50
90.00000000000005
 51
180.0
  0
LINE
  5
DA6
330
18
100
AcDbEntity
  8
1
  6
Continuous
100
AcDbLine
 10
214.3687455386663
 20
114.3292502734911
 30
0.0
 11
214.3687455386663
 21
112.47927334922
 31
0.0
  0
LINE
  5
DA7
330
18
100
AcDbEntity
  8
2
  6
Continuous
100
AcDbLine
 10
215.1807455386665
 20
115.079250273491
 30
0.0
 11
215.1807455386665
 21
112.4792733492199
 31
0.0
  0
LINE
  5
DA8
330
18
100
AcDbEntity
  8
1
  6
Continuous
100
AcDbLine
 10
214.3686925386666
 20
114.3293102734909
 30
0.0
 11
215.1186925386666
 21
115.0793102734909
 31
0.0
  0
ARC
  5
DA9
330
18
100
AcDbEntity
  8
1
  6
Continuous
100
AcDbCircle
 10
215.1187455386665
 20
102.1900710569195
 30
0.0
 40
8.785583093775763
100
AcDbArc
 50
61.0695841800874
 51
118.9304158199126
  0
LINE
  5
DAA
330
18
100
AcDbEntity
  8
1
  6
Continuous
100
AcDbLine
 10
227.8687455386664
 20
111.2792733492199
 30
0.0
 11
227.8687455386664
 21
105.9792733492197
 31
0.0
  0
ARC
  5
DAC
330
18
100
AcDbEntity
  8
1
  6
Continuous
100
AcDbCircle
 10
226.6687455386664
 20
111.2792733492199
 30
0.0
 40
1.199999999999999
100
AcDbArc
 50
0.0
 51
90.00000000000021
  0
LINE
  5
DAD
330
18
100
AcDbEntity
  8
1
  6
Continuous
100
AcDbLine
 10
224.3687455386664
 20
114.3292502734911
 30
0.0
 11
224.3687455386664
 21
112.47927334922
 31
0.0
  0
LINE
  5
DAE
330
18
100
AcDbEntity
  8
2
  6
Continuous
100
AcDbLine
 10
223.5567455386664
 20
115.079250273491
 30
0.0
 11
223.5567455386664
 21
112.4792733492199
 31
0.0
  0
LINE
  5
DAF
330
18
100
AcDbEntity
  8
1
  6
Continuous
100
AcDbLine
 10
223.6187415386664
 20
115.0792702734909
 30
0.0
 11
224.3687455386664
 21
114.3292702734912
 31
0.0
  0
LINE
  5
DB6
330
18
100
AcDbEntity
  8
1
  6
Continuous
100
AcDbLine
 10
227.7239165386666
 20
53.57927834921993
 30
0.0
 11
210.9499095386666
 21
53.57927834921993
 31
0.0
  0
ARC
  5
DB7
330
18
100
AcDbEntity
  8
1
  6
Continuous
100
AcDbCircle
 10
219.3687455386665
 20
74.04881034921972
 30
0.0
 40
22.56953
100
AcDbArc
 50
248.0487000000018
 51
291.9513099999995
  0
LINE
  5
DBA
330
18
100
AcDbEntity
  8
1
  6
Continuous
100
AcDbLine
 10
210.6206485386664
 20
53.62285734921972
 30
0.0
 11
210.7393205386665
 21
54.97927934921968
 31
0.0
  0
ARC
  5
DBB
330
18
100
AcDbEntity
  8
1
  6
Continuous
100
AcDbCircle
 10
211.1187455386665
 20
53.5792783492197
 30
0.0
 40
0.5
100
AcDbArc
 50
174.9999899999995
 51
248.0487000000018
  0
LINE
  5
DBD
330
18
100
AcDbEntity
  8
1
  6
Continuous
100
AcDbLine
 10
228.1168435386666
 20
53.62286034921972
 30
0.0
 11
227.9981725386666
 21
54.97927934921968
 31
0.0
  0
ARC
  5
DBE
330
18
100
AcDbEntity
  8
1
  6
Continuous
100
AcDbCircle
 10
227.6187455386664
 20
53.5792783492197
 30
0.0
 40
0.5
100
AcDbArc
 50
291.9513099999995
 51
5.000003299999835
  0
ARC
  5
DC0
330
18
100
AcDbEntity
  8
1
  6
Continuous
100
AcDbCircle
 10
253.3687455386664
 20
114.9792763492197
 30
0.0
 40
7.0
100
AcDbArc
 50
0.0
 51
70.52881999999946
  0
ARC
  5
DC2
330
18
100
AcDbEntity
  8
1
  6
Continuous
100
AcDbCircle
 10
256.3687455386664
 20
123.4645593492197
 30
0.0
 40
2.0
100
AcDbArc
 50
180.0000399999999
 51
250.52878
  0
LINE
  5
DC3
330
18
100
AcDbEntity
  8
1
  6
Continuous
100
AcDbLine
 10
254.3687455386666
 20
125.2292763492197
 30
0.0
 11
254.3687455386666
 21
123.4645593492199
 31
0.0
  0
LINE
  5
DC4
330
18
100
AcDbEntity
  8
4
  6
CENTER
 48
0.2
100
AcDbLine
 10
250.8687455386664
 20
104.9792763492197
 30
0.0
 11
250.8687455386664
 21
118.9792763492197
 31
0.0
  0
CIRCLE
  5
DC5
330
18
100
AcDbEntity
  8
1
  6
Continuous
100
AcDbCircle
 10
250.8687455386664
 20
111.9792763492197
 30
0.0
 40
4.400000099999996
  0
LINE
  5
DC8
330
18
100
AcDbEntity
  8
4
  6
CENTER
 48
0.2
100
AcDbLine
 10
243.8687455386664
 20
48.97927634921972
 30
0.0
 11
257.8687455386664
 21
48.97927634921972
 31
0.0
  0
ARC
  5
DCB
330
18
100
AcDbEntity
  8
1
  6
Continuous
100
AcDbCircle
 10
182.3687455386665
 20
37.49399634921968
 30
0.0
 40
2.0
100
AcDbArc
 50
0.0
 51
70.52881000000049
  0
LINE
  5
DCC
330
18
100
AcDbEntity
  8
4
  6
CENTER
 48
0.2
100
AcDbLine
 10
180.8687455386665
 20
48.97927634921972
 30
0.0
 11
194.8687455386665
 21
48.97927634921972
 31
0.0
  0
ARC
  5
DCD
330
18
100
AcDbEntity
  8
1
  6
Continuous
100
AcDbCircle
 10
185.3687455386665
 20
45.97927634921972
 30
0.0
 40
7.0
100
AcDbArc
 50
180.0000399999999
 51
250.5288000000007
  0
LINE
  5
DCF
330
18
100
AcDbEntity
  8
1
  6
Continuous
100
AcDbLine
 10
184.3687455386665
 20
37.49399634921968
 30
0.0
 11
184.3687455386665
 21
35.72927634921967
 31
0.0
  0
ARC
  5
DD0
330
18
100
AcDbEntity
  8
1
  6
Continuous
100
AcDbCircle
 10
256.3687455386664
 20
37.49399634921968
 30
0.0
 40
2.0
100
AcDbArc
 50
109.4712299999981
 51
180.0000399999999
  0
ARC
  5
DD1
330
18
100
AcDbEntity
  8
1
  6
Continuous
100
AcDbCircle
 10
253.3687455386664
 20
45.97927634921972
 30
0.0
 40
7.0
100
AcDbArc
 50
289.4712340000008
 51
0.0
  0
LINE
  5
DD3
330
18
100
AcDbEntity
  8
1
  6
Continuous
100
AcDbLine
 10
254.3687455386664
 20
37.49399634921968
 30
0.0
 11
254.3687455386664
 21
35.72927634921967
 31
0.0
  0
CIRCLE
  5
E92
330
18
100
AcDbEntity
  8
1
  6
Continuous
100
AcDbCircle
 10
540.4200145770878
 20
232.6432782514761
 30
0.0
 40
8.750000000000197
  0
ARC
  5
15D2
330
18
100
AcDbEntity
  8
1
  6
Continuous
100
AcDbCircle
 10
540.4200145770881
 20
232.6432782514763
 30
0.0
 40
17.50000005000001
100
AcDbArc
 50
161.3894025485855
 51
18.61055266821746
  0
LINE
  5
15D3
330
18
100
AcDbEntity
  8
1
  6
Continuous
100
AcDbLine
 10
236.8687455386663
 20
60.47927634921972
 30
0.0
 11
236.8687455386663
 21
59.97927634921972
 31
0.0
  0
LINE
  5
15D4
330
18
100
AcDbEntity
  8
1
  6
Continuous
100
AcDbLine
 10
236.8687455386663
 20
100.9792763492197
 30
0.0
 11
236.8687455386663
 21
100.4792763492197
 31
0.0
  0
LINE
  5
15D5
330
18
100
AcDbEntity
  8
1
  6
Continuous
100
AcDbLine
 10
228.1687454886665
 20
58.97927634921972
 30
0.0
 11
228.1687454886665
 21
58.17927735969181
 31
0.0
  0
LINE
  5
15D6
330
18
100
AcDbEntity
  8
1
  6
Continuous
100
AcDbLine
 10
202.8687455386665
 20
58.97927634921972
 30
0.0
 11
235.8687455386665
 21
58.97927634921996
 31
0.0
  0
LINE
  5
15D7
330
18
100
AcDbEntity
  8
1
  6
Continuous
100
AcDbLine
 10
186.3700544481598
 20
60.47927634921972
 30
0.0
 11
252.3674366291729
 21
60.47927634921972
 31
0.0
  0
LINE
  5
15D8
330
18
100
AcDbEntity
  8
1
  6
Continuous
100
AcDbLine
 10
186.3700544481598
 20
100.4792763492197
 30
0.0
 11
252.3674366291729
 21
100.4792763492197
 31
0.0
  0
LINE
  5
15D9
330
18
100
AcDbEntity
  8
1
  6
Continuous
100
AcDbLine
 10
202.8687455386664
 20
101.9792763492199
 30
0.0
 11
235.8687455386663
 21
101.9792763492199
 31
0.0
  0
LINE
  5
15DA
330
18
100
AcDbEntity
  8
1
  6
Continuous
100
AcDbLine
 10
228.1687454886665
 20
102.7792753387481
 30
0.0
 11
228.1687454886665
 21
101.9792763492199
 31
0.0
  0
ARC
  5
15DB
330
18
100
AcDbEntity
  8
1
  6
Continuous
100
AcDbCircle
 10
202.8687455386664
 20
100.9792763492198
 30
0.0
 40
1.0
100
AcDbArc
 50
89.99999999999998
 51
180.0
  0
ARC
  5
15DC
330
18
100
AcDbEntity
  8
1
  6
Continuous
100
AcDbCircle
 10
202.8687455386663
 20
59.97927634921984
 30
0.0
 40
1.0
100
AcDbArc
 50
180.0
 51
270.0
  0
ARC
  5
15DD
330
18
100
AcDbEntity
  8
1
  6
Continuous
100
AcDbCircle
 10
235.8687455386663
 20
59.97927634921984
 30
0.0
 40
1.0
100
AcDbArc
 50
270.0
 51
0.0
  0
ARC
  5
15DE
330
18
100
AcDbEntity
  8
1
  6
Continuous
100
AcDbCircle
 10
235.8687455386664
 20
100.9792763492198
 30
0.0
 40
1.0
100
AcDbArc
 50
0.0
 51
89.99999999999998
  0
ARC
  5
15DF
330
18
100
AcDbEntity
  8
1
  6
Continuous
100
AcDbCircle
 10
540.4200145770881
 20
232.6432782514763
 30
0.0
 40
15.0
100
AcDbArc
 50
181.7867135826385
 51
358.2131651710079
  0
ARC
  5
15E0
330
18
100
AcDbEntity
  8
1
  6
Continuous
100
AcDbCircle
 10
557.907352516731
 20
240.0724782448631
 30
0.0
 40
1.5
100
AcDbArc
 50
239.656441653677
 51
285.0000000000015
  0
ARC
  5
15E1
330
18
100
AcDbEntity
  8
1
  6
Continuous
100
AcDbCircle
 10
564.2318874314727
 20
241.7671322677705
 30
0.0
 40
1.5
100
AcDbArc
 50
285.0000000000015
 51
20.96503706913861
  0
ARC
  5
15E2
330
18
100
AcDbEntity
  8
1
  6
Continuous
100
AcDbCircle
 10
560.2274403195105
 20
248.7030381219113
 30
0.0
 40
1.5
100
AcDbArc
 50
39.03496293086137
 51
92.78176331660738
  0
LINE
  5
15E3
330
18
100
AcDbEntity
  8
1
  6
Continuous
100
AcDbLine
 10
558.2955810843848
 20
238.6235895054296
 30
0.0
 11
564.6201159991265
 21
240.3182435283369
 31
0.0
  0
ARC
  5
15E4
330
18
100
AcDbEntity
  8
1
  6
Continuous
100
AcDbCircle
 10
540.4200145337868
 20
232.6432782764763
 30
0.0
 40
27.00000005000001
100
AcDbArc
 50
20.96503706913861
 51
39.03496293086137
  0
ARC
  5
15E5
330
18
100
AcDbEntity
  8
1
  6
Continuous
100
AcDbCircle
 10
559.2790934490756
 20
230.3334852124217
 30
0.0
 40
1.5
100
AcDbArc
 50
173.0173917535875
 51
254.9999999999993
  0
ARC
  5
15E6
330
18
100
AcDbEntity
  8
1
  6
Continuous
100
AcDbCircle
 10
559.2790934490756
 20
234.9530713905309
 30
0.0
 40
1.5
100
AcDbArc
 50
104.9999999999975
 51
186.9826082464124
  0
ARC
  5
15E7
330
18
100
AcDbEntity
  8
1
  6
Continuous
100
AcDbCircle
 10
565.6036283638171
 20
228.6388311895141
 30
0.0
 40
1.5
100
AcDbArc
 50
254.9999999999993
 51
350.96503706914
  0
ARC
  5
15E8
330
18
100
AcDbEntity
  8
1
  6
Continuous
100
AcDbCircle
 10
565.6036283638171
 20
236.6477254134384
 30
0.0
 40
1.5
100
AcDbArc
 50
9.034962930859952
 51
105.0000000000007
  0
LINE
  5
15E9
330
18
100
AcDbEntity
  8
1
  6
Continuous
100
AcDbLine
 10
558.8908648814218
 20
236.4019601299645
 30
0.0
 11
565.2153997961634
 21
238.0966141528719
 31
0.0
  0
LINE
  5
15EA
330
18
100
AcDbEntity
  8
1
  6
Continuous
100
AcDbLine
 10
558.8908648814221
 20
228.8845964729882
 30
0.0
 11
565.2153997961636
 21
227.1899424500806
 31
0.0
  0
ARC
  5
15EB
330
18
100
AcDbEntity
  8
1
  6
Continuous
100
AcDbCircle
 10
540.4200145270881
 20
232.6432783014764
 30
0.0
 40
27.00000005000001
100
AcDbArc
 50
350.96503706914
 51
9.034962930859952
  0
ARC
  5
15EC
330
18
100
AcDbEntity
  8
1
  6
Continuous
100
AcDbCircle
 10
555.5975594276765
 20
221.2133993728754
 30
0.0
 40
1.5
100
AcDbArc
 50
143.0173917535866
 51
225.0
  0
ARC
  5
15ED
330
18
100
AcDbEntity
  8
1
  6
Continuous
100
AcDbCircle
 10
557.907352516731
 20
225.2140783580894
 30
0.0
 40
1.5
100
AcDbArc
 50
74.99999999999841
 51
156.9826082464112
  0
ARC
  5
15EE
330
18
100
AcDbEntity
  8
1
  6
Continuous
100
AcDbCircle
 10
560.2274403195105
 20
216.5835184810414
 30
0.0
 40
1.5
100
AcDbArc
 50
225.0
 51
320.9650370691406
  0
ARC
  5
15EF
330
18
100
AcDbEntity
  8
1
  6
Continuous
100
AcDbCircle
 10
564.2318874314727
 20
223.5194243351821
 30
0.0
 40
1.5
100
AcDbArc
 50
339.0349629308614
 51
74.99999999999841
  0
LINE
  5
15F0
330
18
100
AcDbEntity
  8
1
  6
Continuous
100
AcDbLine
 10
558.295581084385
 20
226.6629670975232
 30
0.0
 11
564.6201159991265
 21
224.9683130746157
 31
0.0
  0
LINE
  5
15F1
330
18
100
AcDbEntity
  8
1
  6
Continuous
100
AcDbLine
 10
554.5368992558966
 20
220.1527392010957
 30
0.0
 11
559.1667801477306
 21
215.5228583092616
 31
0.0
  0
ARC
  5
15F2
330
18
100
AcDbEntity
  8
1
  6
Continuous
100
AcDbCircle
 10
540.4200145337868
 20
232.6432783264761
 30
0.0
 40
27.00000005000001
100
AcDbArc
 50
320.9650370691386
 51
339.0349629308614
  0
ARC
  5
15F3
330
18
100
AcDbEntity
  8
1
  6
Continuous
100
AcDbCircle
 10
547.8492145204747
 20
215.1559403618331
 30
0.0
 40
1.5
100
AcDbArc
 50
113.0173917535856
 51
195.0000000000015
  0
ARC
  5
15F4
330
18
100
AcDbEntity
  8
1
  6
Continuous
100
AcDbCircle
 10
551.8498935056888
 20
217.465733450888
 30
0.0
 40
1.5
100
AcDbArc
 50
45.0
 51
126.9826082464133
  0
ARC
  5
15F5
330
18
100
AcDbEntity
  8
1
  6
Continuous
100
AcDbCircle
 10
549.5438685433821
 20
208.8314054470917
 30
0.0
 40
1.5
100
AcDbArc
 50
195.0000000000015
 51
290.9650370691386
  0
ARC
  5
15F6
330
18
100
AcDbEntity
  8
1
  6
Continuous
100
AcDbCircle
 10
556.4797743975232
 20
212.8358525590537
 30
0.0
 40
1.5
100
AcDbArc
 50
309.0349629308613
 51
45.0
  0
LINE
  5
15F7
330
18
100
AcDbEntity
  8
1
  6
Continuous
100
AcDbLine
 10
552.9105536774689
 20
218.5263936226676
 30
0.0
 11
557.5404345693031
 21
213.8965127308335
 31
0.0
  0
LINE
  5
15F8
330
18
100
AcDbEntity
  8
1
  6
Continuous
100
AcDbLine
 10
546.4003257810411
 20
214.7677117941794
 30
0.0
 11
548.0949798039487
 21
208.4431768794378
 31
0.0
  0
ARC
  5
15F9
330
18
100
AcDbEntity
  8
1
  6
Continuous
100
AcDbCircle
 10
540.4200145520881
 20
232.6432783447775
 30
0.0
 40
27.00000005000001
100
AcDbArc
 50
290.9650370691386
 51
309.0349629308593
  0
ARC
  5
15FA
330
18
100
AcDbEntity
  8
1
  6
Continuous
100
AcDbCircle
 10
538.1102214880334
 20
213.7841994294887
 30
0.0
 40
1.5
100
AcDbArc
 50
83.01739175358759
 51
165.0000000000024
  0
ARC
  5
15FB
330
18
100
AcDbEntity
  8
1
  6
Continuous
100
AcDbCircle
 10
542.7298076661426
 20
213.7841994294887
 30
0.0
 40
1.5
100
AcDbArc
 50
14.9999999999976
 51
96.98260824641241
  0
ARC
  5
15FC
330
18
100
AcDbEntity
  8
1
  6
Continuous
100
AcDbCircle
 10
536.415567465126
 20
207.4596645147471
 30
0.0
 40
1.5
100
AcDbArc
 50
165.0000000000024
 51
260.96503706914
  0
ARC
  5
15FD
330
18
100
AcDbEntity
  8
1
  6
Continuous
100
AcDbCircle
 10
544.4244616890503
 20
207.4596645147471
 30
0.0
 40
1.5
100
AcDbArc
 50
279.0349629308599
 51
15.00000000000074
  0
LINE
  5
15FE
330
18
100
AcDbEntity
  8
1
  6
Continuous
100
AcDbLine
 10
544.1786964055761
 20
214.1724279971423
 30
0.0
 11
545.8733504284835
 21
207.8478930824009
 31
0.0
  0
LINE
  5
15FF
330
18
100
AcDbEntity
  8
1
  6
Continuous
100
AcDbLine
 10
536.6613327486
 20
214.1724279971423
 30
0.0
 11
534.9666787256925
 21
207.8478930824008
 31
0.0
  0
ARC
  5
1600
330
18
100
AcDbEntity
  8
1
  6
Continuous
100
AcDbCircle
 10
540.4200145770881
 20
232.6432783514762
 30
0.0
 40
27.00000005000001
100
AcDbArc
 50
260.9650370691368
 51
279.0349629308599
  0
ARC
  5
1601
330
18
100
AcDbEntity
  8
1
  6
Continuous
100
AcDbCircle
 10
528.9901356484871
 20
217.465733450888
 30
0.0
 40
1.5
100
AcDbArc
 50
53.01739175358664
 51
135.0
  0
ARC
  5
1602
330
18
100
AcDbEntity
  8
1
  6
Continuous
100
AcDbCircle
 10
532.9908146337011
 20
215.1559403618331
 30
0.0
 40
1.5
100
AcDbArc
 50
344.9999999999984
 51
66.98260824641429
  0
ARC
  5
1603
330
18
100
AcDbEntity
  8
1
  6
Continuous
100
AcDbCircle
 10
524.3602547566531
 20
212.8358525590537
 30
0.0
 40
1.5
100
AcDbArc
 50
135.0
 51
230.9650370691407
  0
ARC
  5
1604
330
18
100
AcDbEntity
  8
1
  6
Continuous
100
AcDbCircle
 10
531.2961606107939
 20
208.8314054470917
 30
0.0
 40
1.5
100
AcDbArc
 50
249.0349629308614
 51
344.9999999999984
  0
LINE
  5
1605
330
18
100
AcDbEntity
  8
1
  6
Continuous
100
AcDbLine
 10
534.4397033731349
 20
214.7677117941795
 30
0.0
 11
532.7450493502273
 21
208.4431768794378
 31
0.0
  0
LINE
  5
1606
330
18
100
AcDbEntity
  8
1
  6
Continuous
100
AcDbLine
 10
527.9294754767073
 20
218.5263936226678
 30
0.0
 11
523.2995945848731
 21
213.8965127308336
 31
0.0
  0
ARC
  5
1607
330
18
100
AcDbEntity
  8
1
  6
Continuous
100
AcDbCircle
 10
540.420014602088
 20
232.6432783447775
 30
0.0
 40
27.00000005000001
100
AcDbArc
 50
230.9650370691407
 51
249.0349629308614
  0
ARC
  5
1608
330
18
100
AcDbEntity
  8
1
  6
Continuous
100
AcDbCircle
 10
522.9326766374452
 20
225.2140783580894
 30
0.0
 40
1.5
100
AcDbArc
 50
23.01739175358871
 51
105.0000000000016
  0
ARC
  5
1609
330
18
100
AcDbEntity
  8
1
  6
Continuous
100
AcDbCircle
 10
525.2424697264997
 20
221.2133993728754
 30
0.0
 40
1.5
100
AcDbArc
 50
315.0
 51
36.98260824641335
  0
ARC
  5
160A
330
18
100
AcDbEntity
  8
1
  6
Continuous
100
AcDbCircle
 10
516.6081417227036
 20
223.5194243351819
 30
0.0
 40
1.5
100
AcDbArc
 50
105.0000000000016
 51
200.9650370691386
  0
ARC
  5
160B
330
18
100
AcDbEntity
  8
1
  6
Continuous
100
AcDbCircle
 10
520.6125888346656
 20
216.5835184810412
 30
0.0
 40
1.5
100
AcDbArc
 50
219.0349629308613
 51
315.0
  0
LINE
  5
160C
330
18
100
AcDbEntity
  8
1
  6
Continuous
100
AcDbLine
 10
526.3031298982793
 20
220.1527392010954
 30
0.0
 11
521.6732490064454
 21
215.5228583092613
 31
0.0
  0
LINE
  5
160D
330
18
100
AcDbEntity
  8
1
  6
Continuous
100
AcDbLine
 10
522.5444480697913
 20
226.662967097523
 30
0.0
 11
516.2199131550495
 21
224.9683130746156
 31
0.0
  0
ARC
  5
160E
330
18
100
AcDbEntity
  8
1
  6
Continuous
100
AcDbCircle
 10
540.4200146203894
 20
232.6432783264761
 30
0.0
 40
27.00000005000001
100
AcDbArc
 50
200.9650370691386
 51
219.0349629308613
  0
ARC
  5
160F
330
18
100
AcDbEntity
  8
1
  6
Continuous
100
AcDbCircle
 10
521.5609357051005
 20
234.9530713905309
 30
0.0
 40
1.5
100
AcDbArc
 50
353.0173917535877
 51
74.99999999999926
  0
ARC
  5
1610
330
18
100
AcDbEntity
  8
1
  6
Continuous
100
AcDbCircle
 10
521.5609357051005
 20
230.3334852124217
 30
0.0
 40
1.5
100
AcDbArc
 50
284.9999999999976
 51
6.982608246412401
  0
ARC
  5
1611
330
18
100
AcDbEntity
  8
1
  6
Continuous
100
AcDbCircle
 10
515.2364007903588
 20
236.6477254134384
 30
0.0
 40
1.5
100
AcDbArc
 50
74.99999999999926
 51
170.96503706914
  0
ARC
  5
1612
330
18
100
AcDbEntity
  8
1
  6
Continuous
100
AcDbCircle
 10
515.2364007903588
 20
228.6388311895141
 30
0.0
 40
1.5
100
AcDbArc
 50
189.0349629308599
 51
285.0000000000007
  0
LINE
  5
1613
330
18
100
AcDbEntity
  8
1
  6
Continuous
100
AcDbLine
 10
521.9491642727541
 20
228.8845964729879
 30
0.0
 11
515.6246293580124
 21
227.1899424500805
 31
0.0
  0
LINE
  5
1614
330
18
100
AcDbEntity
  8
1
  6
Continuous
100
AcDbLine
 10
521.9491642727541
 20
236.4019601299645
 30
0.0
 11
515.6246293580127
 21
238.0966141528719
 31
0.0
  0
ARC
  5
1615
330
18
100
AcDbEntity
  8
1
  6
Continuous
100
AcDbCircle
 10
540.420014627088
 20
232.6432783014764
 30
0.0
 40
27.00000005000001
100
AcDbArc
 50
170.96503706914
 51
189.0349629308599
  0
ARC
  5
1616
330
18
100
AcDbEntity
  8
1
  6
Continuous
100
AcDbCircle
 10
522.9326766374449
 20
240.0724782448631
 30
0.0
 40
1.5
100
AcDbArc
 50
254.9999999999983
 51
300.3438580209859
  0
ARC
  5
1617
330
18
100
AcDbEntity
  8
1
  6
Continuous
100
AcDbCircle
 10
520.6125888346656
 20
248.7030381219113
 30
0.0
 40
1.5
100
AcDbArc
 50
87.2179033922888
 51
140.9650370691406
  0
ARC
  5
1618
330
18
100
AcDbEntity
  8
1
  6
Continuous
100
AcDbCircle
 10
516.6081417227036
 20
241.7671322677705
 30
0.0
 40
1.5
100
AcDbArc
 50
159.0349629308613
 51
254.9999999999983
  0
LINE
  5
1619
330
18
100
AcDbEntity
  8
1
  6
Continuous
100
AcDbLine
 10
522.5444480697913
 20
238.6235895054296
 30
0.0
 11
516.2199131550495
 21
240.3182435283369
 31
0.0
  0
ARC
  5
161A
330
18
100
AcDbEntity
  8
1
  6
Continuous
100
AcDbCircle
 10
540.4200146203894
 20
232.6432782764763
 30
0.0
 40
27.00000005000001
100
AcDbArc
 50
140.9650370691386
 51
159.0349629308613
  0
ARC
  5
161B
330
18
100
AcDbEntity
  8
1
  6
Continuous
100
AcDbCircle
 10
540.4200145770881
 20
232.6432782514763
 30
0.0
 40
37.5
100
AcDbArc
 50
127.6820668284355
 51
52.31791802047464
  0
ARC
  5
161C
330
18
100
AcDbEntity
  8
1
  6
Continuous
100
AcDbCircle
 10
540.4200145770881
 20
232.6432783014764
 30
0.0
 40
30.0
100
AcDbArc
 50
133.9004690637011
 51
46.09951214412133
  0
ARC
  5
161D
330
18
100
AcDbEntity
  8
1
  6
Continuous
100
AcDbCircle
 10
186.3700544481598
 20
63.47927634921984
 30
0.0
 40
3.0
100
AcDbArc
 50
190.093656859226
 51
270.0
  0
ARC
  5
161E
330
18
100
AcDbEntity
  8
1
  6
Continuous
100
AcDbCircle
 10
186.3700544481598
 20
97.47927634921984
 30
0.0
 40
3.0
100
AcDbArc
 50
89.99999999999998
 51
169.9063431407739
  0
ARC
  5
161F
330
18
100
AcDbEntity
  8
1
  6
Continuous
100
AcDbCircle
 10
281.8687455386666
 20
80.47927634921981
 30
0.0
 40
100.0
100
AcDbArc
 50
169.9063431407739
 51
190.093656859226
  0
ARC
  5
1620
330
18
100
AcDbEntity
  8
1
  6
Continuous
100
AcDbCircle
 10
252.3674366291729
 20
63.47927634921979
 30
0.0
 40
3.0
100
AcDbArc
 50
270.0
 51
349.9063431407738
  0
ARC
  5
1621
330
18
100
AcDbEntity
  8
1
  6
Continuous
100
AcDbCircle
 10
252.3674366291729
 20
97.47927634921978
 30
0.0
 40
3.0
100
AcDbArc
 50
10.09365685922603
 51
89.99999999999998
  0
ARC
  5
1622
330
18
100
AcDbEntity
  8
1
  6
Continuous
100
AcDbCircle
 10
156.8687455386664
 20
80.47927634921984
 30
0.0
 40
100.0
100
AcDbArc
 50
349.9063431407738
 51
10.09365685922603
  0
ARC
  5
1623
330
18
100
AcDbEntity
  8
1
  6
Continuous
100
AcDbCircle
 10
227.9687454886666
 20
102.7792753492201
 30
0.0
 40
0.2
100
AcDbArc
 50
359.9999970000022
 51
89.99999999999998
  0
ARC
  5
1624
330
18
100
AcDbEntity
  8
1
  6
Continuous
100
AcDbCircle
 10
210.7687455886664
 20
102.7792753492201
 30
0.0
 40
0.2
100
AcDbArc
 50
89.99999999999998
 51
180.0
  0
LINE
  5
1625
330
18
100
AcDbEntity
  8
1
  6
Continuous
100
AcDbLine
 10
210.5687454886664
 20
101.9792763492199
 30
0.0
 11
210.5687454886664
 21
102.77927534922
 31
0.0
  0
ARC
  5
1626
330
18
100
AcDbEntity
  8
1
  6
Continuous
100
AcDbCircle
 10
227.9687454886665
 20
58.17927734922
 30
0.0
 40
0.2
100
AcDbArc
 50
270.0
 51
0.0000029999976837
  0
ARC
  5
1627
330
18
100
AcDbEntity
  8
1
  6
Continuous
100
AcDbCircle
 10
210.7687455886663
 20
58.17927734922
 30
0.0
 40
0.2
100
AcDbArc
 50
180.0
 51
270.0
  0
LINE
  5
1628
330
18
100
AcDbEntity
  8
1
  6
Continuous
100
AcDbLine
 10
210.5687454886664
 20
58.97927634921972
 30
0.0
 11
210.5687454886664
 21
58.1792773492199
 31
0.0
  0
LINE
  5
1629
330
18
100
AcDbEntity
  8
1
  6
Continuous
100
AcDbLine
 10
201.8687455386664
 20
60.47927634921972
 30
0.0
 11
201.8687455386664
 21
59.97927634921972
 31
0.0
  0
LINE
  5
162A
330
18
100
AcDbEntity
  8
1
  6
Continuous
100
AcDbLine
 10
201.8687455386664
 20
100.9792763492197
 30
0.0
 11
201.8687455386664
 21
100.4792763492197
 31
0.0
  0
ARC
  5
171C
330
18
100
AcDbEntity
  8
1
  6
Continuous
100
AcDbCircle
 10
219.368745538666
 20
232.6432782514764
 30
0.0
 40
37.5
100
AcDbArc
 50
127.6820668284355
 51
52.31791802047464
  0
ARC
  5
171D
330
18
100
AcDbEntity
  8
1
  6
Continuous
100
AcDbCircle
 10
219.368745538666
 20
232.6432783014764
 30
0.0
 40
30.0
100
AcDbArc
 50
133.9004690637011
 51
46.09951214412133
  0
ARC
  5
171E
330
18
100
AcDbEntity
  8
1
  6
Continuous
100
AcDbCircle
 10
219.368745538666
 20
232.6432782514764
 30
0.0
 40
15.0
100
AcDbArc
 50
181.7867135826385
 51
358.2131651710079
  0
ARC
  5
171F
330
18
100
AcDbEntity
  8
1
  6
Continuous
100
AcDbCircle
 10
219.368745538666
 20
232.6432782514764
 30
0.0
 40
17.50000005000001
100
AcDbArc
 50
161.3894025485855
 51
18.61055266821746
  0
ARC
  5
1720
330
18
100
AcDbEntity
  8
1
  6
Continuous
100
AcDbCircle
 10
199.5613197962436
 20
248.7030381219113
 30
0.0
 40
1.5
100
AcDbArc
 50
87.2179033922888
 51
140.9650370691406
  0
ARC
  5
1721
330
18
100
AcDbEntity
  8
1
  6
Continuous
100
AcDbCircle
 10
199.5613197962436
 20
216.5835184810413
 30
0.0
 40
1.5
100
AcDbArc
 50
219.0349629308613
 51
315.0
  0
LINE
  5
1722
330
18
100
AcDbEntity
  8
1
  6
Continuous
100
AcDbLine
 10
201.4931790313691
 20
226.6629670975231
 30
0.0
 11
195.1686441166273
 21
224.9683130746157
 31
0.0
  0
LINE
  5
1723
330
18
100
AcDbEntity
  8
1
  6
Continuous
100
AcDbLine
 10
200.897895234332
 20
228.884596472988
 30
0.0
 11
194.5733603195904
 21
227.1899424500805
 31
0.0
  0
LINE
  5
1724
330
18
100
AcDbEntity
  8
1
  6
Continuous
100
AcDbLine
 10
200.897895234332
 20
236.4019601299646
 30
0.0
 11
194.5733603195905
 21
238.096614152872
 31
0.0
  0
LINE
  5
1725
330
18
100
AcDbEntity
  8
1
  6
Continuous
100
AcDbLine
 10
201.4931790313691
 20
238.6235895054296
 30
0.0
 11
195.1686441166273
 21
240.3182435283369
 31
0.0
  0
ARC
  5
1726
330
18
100
AcDbEntity
  8
1
  6
Continuous
100
AcDbCircle
 10
219.3687455886658
 20
232.6432783014764
 30
0.0
 40
27.00000005000001
100
AcDbArc
 50
170.96503706914
 51
189.0349629308599
  0
ARC
  5
1727
330
18
100
AcDbEntity
  8
1
  6
Continuous
100
AcDbCircle
 10
219.3687455819672
 20
232.6432783264761
 30
0.0
 40
27.00000005000001
100
AcDbArc
 50
200.9650370691386
 51
219.0349629308613
  0
ARC
  5
1728
330
18
100
AcDbEntity
  8
1
  6
Continuous
100
AcDbCircle
 10
194.1851317519367
 20
228.6388311895142
 30
0.0
 40
1.5
100
AcDbArc
 50
189.0349629308599
 51
285.0000000000007
  0
ARC
  5
1729
330
18
100
AcDbEntity
  8
1
  6
Continuous
100
AcDbCircle
 10
195.5568726842814
 20
223.519424335182
 30
0.0
 40
1.5
100
AcDbArc
 50
105.0000000000016
 51
200.9650370691386
  0
ARC
  5
172A
330
18
100
AcDbEntity
  8
1
  6
Continuous
100
AcDbCircle
 10
195.5568726842814
 20
241.7671322677706
 30
0.0
 40
1.5
100
AcDbArc
 50
159.0349629308613
 51
254.9999999999983
  0
ARC
  5
172B
330
18
100
AcDbEntity
  8
1
  6
Continuous
100
AcDbCircle
 10
194.1851317519367
 20
236.6477254134384
 30
0.0
 40
1.5
100
AcDbArc
 50
74.99999999999926
 51
170.96503706914
  0
ARC
  5
172C
330
18
100
AcDbEntity
  8
1
  6
Continuous
100
AcDbCircle
 10
219.3687455819672
 20
232.6432782764764
 30
0.0
 40
27.00000005000001
100
AcDbArc
 50
140.9650370691386
 51
159.0349629308613
  0
ARC
  5
172D
330
18
100
AcDbEntity
  8
1
  6
Continuous
100
AcDbCircle
 10
200.5096666666783
 20
230.3334852124218
 30
0.0
 40
1.5
100
AcDbArc
 50
284.9999999999976
 51
6.982608246412401
  0
LINE
  5
172E
330
18
100
AcDbEntity
  8
1
  6
Continuous
100
AcDbLine
 10
205.2518608598573
 20
220.1527392010955
 30
0.0
 11
200.6219799680232
 21
215.5228583092614
 31
0.0
  0
ARC
  5
172F
330
18
100
AcDbEntity
  8
1
  6
Continuous
100
AcDbCircle
 10
201.881407599023
 20
225.2140783580895
 30
0.0
 40
1.5
100
AcDbArc
 50
23.01739175358871
 51
105.0000000000016
  0
ARC
  5
1730
330
18
100
AcDbEntity
  8
1
  6
Continuous
100
AcDbCircle
 10
201.8814075990229
 20
240.0724782448631
 30
0.0
 40
1.5
100
AcDbArc
 50
254.9999999999983
 51
300.3438580209859
  0
ARC
  5
1731
330
18
100
AcDbEntity
  8
1
  6
Continuous
100
AcDbCircle
 10
200.5096666666783
 20
234.953071390531
 30
0.0
 40
1.5
100
AcDbArc
 50
353.0173917535877
 51
74.99999999999926
  0
ARC
  5
1732
330
18
100
AcDbEntity
  8
1
  6
Continuous
100
AcDbCircle
 10
204.1912006880775
 20
221.2133993728755
 30
0.0
 40
1.5
100
AcDbArc
 50
315.0
 51
36.98260824641335
  0
ARC
  5
1733
330
18
100
AcDbEntity
  8
1
  6
Continuous
100
AcDbCircle
 10
207.938866610065
 20
217.4657334508881
 30
0.0
 40
1.5
100
AcDbArc
 50
53.01739175358664
 51
135.0
  0
LINE
  5
1734
330
18
100
AcDbEntity
  8
1
  6
Continuous
100
AcDbLine
 10
206.8782064382852
 20
218.5263936226679
 30
0.0
 11
202.2483255464511
 21
213.8965127308336
 31
0.0
  0
ARC
  5
1735
330
18
100
AcDbEntity
  8
1
  6
Continuous
100
AcDbCircle
 10
219.3687455136659
 20
232.6432783447776
 30
0.0
 40
27.00000005000001
100
AcDbArc
 50
290.9650370691386
 51
309.0349629308593
  0
LINE
  5
1736
330
18
100
AcDbEntity
  8
1
  6
Continuous
100
AcDbLine
 10
223.127427367154
 20
214.1724279971424
 30
0.0
 11
224.8220813900615
 21
207.847893082401
 31
0.0
  0
LINE
  5
1737
330
18
100
AcDbEntity
  8
1
  6
Continuous
100
AcDbLine
 10
215.6100637101778
 20
214.1724279971424
 30
0.0
 11
213.9154096872703
 21
207.8478930824009
 31
0.0
  0
ARC
  5
1738
330
18
100
AcDbEntity
  8
1
  6
Continuous
100
AcDbCircle
 10
219.3687455636658
 20
232.6432783447776
 30
0.0
 40
27.00000005000001
100
AcDbArc
 50
230.9650370691407
 51
249.0349629308614
  0
LINE
  5
1739
330
18
100
AcDbEntity
  8
1
  6
Continuous
100
AcDbLine
 10
225.3490567426191
 20
214.7677117941794
 30
0.0
 11
227.0437107655265
 21
208.4431768794379
 31
0.0
  0
LINE
  5
173A
330
18
100
AcDbEntity
  8
1
  6
Continuous
100
AcDbLine
 10
213.3884343347128
 20
214.7677117941796
 30
0.0
 11
211.6937803118052
 21
208.4431768794379
 31
0.0
  0
ARC
  5
173B
330
18
100
AcDbEntity
  8
1
  6
Continuous
100
AcDbCircle
 10
215.3642984267039
 20
207.4596645147472
 30
0.0
 40
1.5
100
AcDbArc
 50
165.0000000000024
 51
260.96503706914
  0
ARC
  5
173C
330
18
100
AcDbEntity
  8
1
  6
Continuous
100
AcDbCircle
 10
210.2448915723717
 20
208.8314054470918
 30
0.0
 40
1.5
100
AcDbArc
 50
249.0349629308614
 51
344.9999999999984
  0
ARC
  5
173D
330
18
100
AcDbEntity
  8
1
  6
Continuous
100
AcDbCircle
 10
219.368745538666
 20
232.6432783514762
 30
0.0
 40
27.00000005000001
100
AcDbArc
 50
260.9650370691368
 51
279.0349629308599
  0
ARC
  5
173E
330
18
100
AcDbEntity
  8
1
  6
Continuous
100
AcDbCircle
 10
228.49259950496
 20
208.8314054470918
 30
0.0
 40
1.5
100
AcDbArc
 50
195.0000000000015
 51
290.9650370691386
  0
ARC
  5
173F
330
18
100
AcDbEntity
  8
1
  6
Continuous
100
AcDbCircle
 10
223.3731926506281
 20
207.4596645147472
 30
0.0
 40
1.5
100
AcDbArc
 50
279.0349629308599
 51
15.00000000000074
  0
ARC
  5
1740
330
18
100
AcDbEntity
  8
1
  6
Continuous
100
AcDbCircle
 10
203.3089857182309
 20
212.8358525590538
 30
0.0
 40
1.5
100
AcDbArc
 50
135.0
 51
230.9650370691407
  0
ARC
  5
1741
330
18
100
AcDbEntity
  8
1
  6
Continuous
100
AcDbCircle
 10
211.939545595279
 20
215.1559403618332
 30
0.0
 40
1.5
100
AcDbArc
 50
344.9999999999984
 51
66.98260824641429
  0
ARC
  5
1742
330
18
100
AcDbEntity
  8
1
  6
Continuous
100
AcDbCircle
 10
221.6785386277205
 20
213.7841994294888
 30
0.0
 40
1.5
100
AcDbArc
 50
14.9999999999976
 51
96.98260824641241
  0
ARC
  5
1743
330
18
100
AcDbEntity
  8
1
  6
Continuous
100
AcDbCircle
 10
217.0589524496112
 20
213.7841994294888
 30
0.0
 40
1.5
100
AcDbArc
 50
83.01739175358759
 51
165.0000000000024
  0
ARC
  5
1744
330
18
100
AcDbEntity
  8
1
  6
Continuous
100
AcDbCircle
 10
226.7979454820525
 20
215.1559403618332
 30
0.0
 40
1.5
100
AcDbArc
 50
113.0173917535856
 51
195.0000000000015
  0
ARC
  5
1745
330
18
100
AcDbEntity
  8
1
  6
Continuous
100
AcDbCircle
 10
235.428505359101
 20
212.8358525590538
 30
0.0
 40
1.5
100
AcDbArc
 50
309.0349629308613
 51
45.0
  0
LINE
  5
1746
330
18
100
AcDbEntity
  8
1
  6
Continuous
100
AcDbLine
 10
231.8592846390467
 20
218.5263936226677
 30
0.0
 11
236.4891655308809
 21
213.8965127308336
 31
0.0
  0
ARC
  5
1747
330
18
100
AcDbEntity
  8
1
  6
Continuous
100
AcDbCircle
 10
230.7986244672667
 20
217.4657334508881
 30
0.0
 40
1.5
100
AcDbArc
 50
45.0
 51
126.9826082464133
  0
ARC
  5
1748
330
18
100
AcDbEntity
  8
1
  6
Continuous
100
AcDbCircle
 10
219.3687454953647
 20
232.6432783264761
 30
0.0
 40
27.00000005000001
100
AcDbArc
 50
320.9650370691386
 51
339.0349629308614
  0
LINE
  5
1749
330
18
100
AcDbEntity
  8
1
  6
Continuous
100
AcDbLine
 10
233.4856302174744
 20
220.1527392010957
 30
0.0
 11
238.1155111093084
 21
215.5228583092616
 31
0.0
  0
ARC
  5
174A
330
18
100
AcDbEntity
  8
1
  6
Continuous
100
AcDbCircle
 10
239.1761712810883
 20
216.5835184810414
 30
0.0
 40
1.5
100
AcDbArc
 50
225.0
 51
320.9650370691406
  0
ARC
  5
174B
330
18
100
AcDbEntity
  8
1
  6
Continuous
100
AcDbCircle
 10
234.5462903892543
 20
221.2133993728755
 30
0.0
 40
1.5
100
AcDbArc
 50
143.0173917535866
 51
225.0
  0
ARC
  5
174C
330
18
100
AcDbEntity
  8
1
  6
Continuous
100
AcDbCircle
 10
219.368745488666
 20
232.6432783014764
 30
0.0
 40
27.00000005000001
100
AcDbArc
 50
350.96503706914
 51
9.034962930859952
  0
ARC
  5
174D
330
18
100
AcDbEntity
  8
1
  6
Continuous
100
AcDbCircle
 10
244.5523593253951
 20
228.6388311895142
 30
0.0
 40
1.5
100
AcDbArc
 50
254.9999999999993
 51
350.96503706914
  0
LINE
  5
174E
330
18
100
AcDbEntity
  8
1
  6
Continuous
100
AcDbLine
 10
237.2443120459629
 20
226.6629670975232
 30
0.0
 11
243.5688469607043
 21
224.9683130746158
 31
0.0
  0
LINE
  5
174F
330
18
100
AcDbEntity
  8
1
  6
Continuous
100
AcDbLine
 10
237.8395958429999
 20
228.8845964729882
 30
0.0
 11
244.1641307577414
 21
227.1899424500807
 31
0.0
  0
ARC
  5
1750
330
18
100
AcDbEntity
  8
1
  6
Continuous
100
AcDbCircle
 10
243.1806183930506
 20
223.5194243351821
 30
0.0
 40
1.5
100
AcDbArc
 50
339.0349629308614
 51
74.99999999999841
  0
ARC
  5
1751
330
18
100
AcDbEntity
  8
1
  6
Continuous
100
AcDbCircle
 10
238.2278244106534
 20
230.3334852124218
 30
0.0
 40
1.5
100
AcDbArc
 50
173.0173917535875
 51
254.9999999999993
  0
ARC
  5
1752
330
18
100
AcDbEntity
  8
1
  6
Continuous
100
AcDbCircle
 10
236.8560834783088
 20
225.2140783580895
 30
0.0
 40
1.5
100
AcDbArc
 50
74.99999999999841
 51
156.9826082464112
  0
ARC
  5
1753
330
18
100
AcDbEntity
  8
1
  6
Continuous
100
AcDbCircle
 10
238.2278244106534
 20
234.953071390531
 30
0.0
 40
1.5
100
AcDbArc
 50
104.9999999999975
 51
186.9826082464124
  0
LINE
  5
1754
330
18
100
AcDbEntity
  8
1
  6
Continuous
100
AcDbLine
 10
237.8395958429996
 20
236.4019601299646
 30
0.0
 11
244.1641307577412
 21
238.096614152872
 31
0.0
  0
ARC
  5
1755
330
18
100
AcDbEntity
  8
1
  6
Continuous
100
AcDbCircle
 10
244.5523593253951
 20
236.6477254134384
 30
0.0
 40
1.5
100
AcDbArc
 50
9.034962930859952
 51
105.0000000000007
  0
ARC
  5
1756
330
18
100
AcDbEntity
  8
1
  6
Continuous
100
AcDbCircle
 10
243.1806183930506
 20
241.7671322677706
 30
0.0
 40
1.5
100
AcDbArc
 50
285.0000000000015
 51
20.96503706913861
  0
ARC
  5
1757
330
18
100
AcDbEntity
  8
1
  6
Continuous
100
AcDbCircle
 10
219.3687454953647
 20
232.6432782764764
 30
0.0
 40
27.00000005000001
100
AcDbArc
 50
20.96503706913861
 51
39.03496293086137
  0
ARC
  5
1758
330
18
100
AcDbEntity
  8
1
  6
Continuous
100
AcDbCircle
 10
239.1761712810883
 20
248.7030381219113
 30
0.0
 40
1.5
100
AcDbArc
 50
39.03496293086137
 51
92.78176331660738
  0
LINE
  5
1759
330
18
100
AcDbEntity
  8
1
  6
Continuous
100
AcDbLine
 10
237.2443120459627
 20
238.6235895054296
 30
0.0
 11
243.5688469607043
 21
240.3182435283369
 31
0.0
  0
ARC
  5
175A
330
18
100
AcDbEntity
  8
1
  6
Continuous
100
AcDbCircle
 10
236.8560834783088
 20
240.0724782448631
 30
0.0
 40
1.5
100
AcDbArc
 50
239.656441653677
 51
285.0000000000015
  0
LINE
  5
1779
330
18
100
AcDbEntity
  8
1
  6
Continuous
100
AcDbLine
 10
359.8943800578771
 20
199.6445871609693
 30
0.0
 11
359.8943800578771
 21
265.6419693419824
 31
0.0
  0
LINE
  5
177A
330
18
100
AcDbEntity
  8
1
  6
Continuous
100
AcDbLine
 10
399.8943800578771
 20
199.6445871609693
 30
0.0
 11
399.8943800578771
 21
265.6419693419824
 31
0.0
  0
ARC
  5
177B
330
18
100
AcDbEntity
  8
1
  6
Continuous
100
AcDbCircle
 10
379.8943800578772
 20
295.1432782514759
 30
0.0
 40
100.0
100
AcDbArc
 50
259.9063431407739
 51
280.0936568592259
  0
ARC
  5
177C
330
18
100
AcDbEntity
  8
1
  6
Continuous
100
AcDbCircle
 10
362.8943800578771
 20
199.6445871609693
 30
0.0
 40
3.0
100
AcDbArc
 50
180.0
 51
259.9063431407739
  0
ARC
  5
177D
330
18
100
AcDbEntity
  8
1
  6
Continuous
100
AcDbCircle
 10
396.8943800578772
 20
199.6445871609693
 30
0.0
 40
3.0
100
AcDbArc
 50
280.0936568592259
 51
0.0
  0
LINE
  5
177E
330
18
100
AcDbEntity
  8
1
  6
Continuous
100
AcDbLine
 10
358.3943800578769
 20
216.1432782514758
 30
0.0
 11
358.3943800578769
 21
249.1432782514757
 31
0.0
  0
LINE
  5
177F
330
18
100
AcDbEntity
  8
1
  6
Continuous
100
AcDbLine
 10
359.3943800578772
 20
215.1432782514759
 30
0.0
 11
359.8943800578771
 21
215.1432782514759
 31
0.0
  0
LINE
  5
1780
330
18
100
AcDbEntity
  8
1
  6
Continuous
100
AcDbLine
 10
358.3943800578769
 20
223.8432782014758
 30
0.0
 11
357.5943810578769
 21
223.8432782014758
 31
0.0
  0
ARC
  5
1781
330
18
100
AcDbEntity
  8
1
  6
Continuous
100
AcDbCircle
 10
357.5943810578769
 20
224.0432783014757
 30
0.0
 40
0.2
100
AcDbArc
 50
180.0
 51
270.0
  0
ARC
  5
1782
330
18
100
AcDbEntity
  8
1
  6
Continuous
100
AcDbCircle
 10
359.3943800578772
 20
216.1432782514758
 30
0.0
 40
1.0
100
AcDbArc
 50
180.0
 51
270.0
  0
ARC
  5
1783
330
18
100
AcDbEntity
  8
1
  6
Continuous
100
AcDbCircle
 10
357.5943810578769
 20
241.2432782014759
 30
0.0
 40
0.2
100
AcDbArc
 50
89.99999700000229
 51
180.0
  0
LINE
  5
1784
330
18
100
AcDbEntity
  8
1
  6
Continuous
100
AcDbLine
 10
357.5943810683487
 20
241.443278201476
 30
0.0
 11
358.3943800578769
 21
241.443278201476
 31
0.0
  0
ARC
  5
1785
330
18
100
AcDbEntity
  8
1
  6
Continuous
100
AcDbCircle
 10
359.3943800578772
 20
249.1432782514757
 30
0.0
 40
1.0
100
AcDbArc
 50
90.0
 51
180.0
  0
LINE
  5
1786
330
18
100
AcDbEntity
  8
1
  6
Continuous
100
AcDbLine
 10
359.3943800578772
 20
250.1432782514757
 30
0.0
 11
359.8943800578771
 21
250.1432782514757
 31
0.0
  0
LINE
  5
1787
330
18
100
AcDbEntity
  8
1
  6
Continuous
100
AcDbLine
 10
401.3943800578771
 20
216.1432782514759
 30
0.0
 11
401.3943800578768
 21
249.1432782514759
 31
0.0
  0
LINE
  5
1788
330
18
100
AcDbEntity
  8
1
  6
Continuous
100
AcDbLine
 10
401.3943800578771
 20
223.8432782014758
 30
0.0
 11
402.1943790578769
 21
223.8432782014758
 31
0.0
  0
ARC
  5
1789
330
18
100
AcDbEntity
  8
1
  6
Continuous
100
AcDbCircle
 10
400.3943800578771
 20
216.1432782514758
 30
0.0
 40
1.0
100
AcDbArc
 50
270.0
 51
0.0
  0
LINE
  5
178A
330
18
100
AcDbEntity
  8
1
  6
Continuous
100
AcDbLine
 10
399.8943800578771
 20
215.1432782514759
 30
0.0
 11
400.3943800578771
 21
215.1432782514759
 31
0.0
  0
ARC
  5
178B
330
18
100
AcDbEntity
  8
1
  6
Continuous
100
AcDbCircle
 10
402.1943790578769
 20
224.0432783014757
 30
0.0
 40
0.2
100
AcDbArc
 50
270.0
 51
0.0
  0
ARC
  5
178C
330
18
100
AcDbEntity
  8
1
  6
Continuous
100
AcDbCircle
 10
400.3943800578771
 20
249.1432782514757
 30
0.0
 40
1.0
100
AcDbArc
 50
0.0
 51
90.0
  0
LINE
  5
178D
330
18
100
AcDbEntity
  8
1
  6
Continuous
100
AcDbLine
 10
401.3943800578771
 20
241.443278201476
 30
0.0
 11
402.194379047405
 21
241.443278201476
 31
0.0
  0
LINE
  5
178E
330
18
100
AcDbEntity
  8
1
  6
Continuous
100
AcDbLine
 10
399.8943800578771
 20
250.1432782514757
 30
0.0
 11
400.3943800578771
 21
250.1432782514757
 31
0.0
  0
ARC
  5
178F
330
18
100
AcDbEntity
  8
1
  6
Continuous
100
AcDbCircle
 10
402.1943790578769
 20
241.2432782014759
 30
0.0
 40
0.2
100
AcDbArc
 50
0.0
 51
90.00000299999769
  0
ARC
  5
1790
330
18
100
AcDbEntity
  8
1
  6
Continuous
100
AcDbCircle
 10
379.8943800578772
 20
170.1432782514758
 30
0.0
 40
100.0
100
AcDbArc
 50
79.90634314077396
 51
100.093656859226
  0
ARC
  5
1791
330
18
100
AcDbEntity
  8
1
  6
Continuous
100
AcDbCircle
 10
362.8943800578771
 20
265.6419693419824
 30
0.0
 40
3.0
100
AcDbArc
 50
100.093656859226
 51
180.0
  0
ARC
  5
1792
330
18
100
AcDbEntity
  8
1
  6
Continuous
100
AcDbCircle
 10
396.8943800578772
 20
265.6419693419824
 30
0.0
 40
3.0
100
AcDbArc
 50
0.0
 51
79.90634314077396
  0
LINE
  5
1D16
330
18
100
AcDbEntity
  8
1
  6
Continuous
100
AcDbLine
 10
397.7296200578773
 20
288.9432782514759
 30
0.0
 11
362.059144057877
 21
288.9432782514759
 31
0.0
  0
LINE
  5
1D17
330
18
100
AcDbEntity
  8
1
  6
Continuous
100
AcDbLine
 10
420.6443800578773
 20
292.1432782514759
 30
0.0
 11
339.1443800578769
 21
292.1432782514759
 31
0.0
  0
LINE
  5
1D18
330
18
100
AcDbEntity
  8
1
  6
Continuous
100
AcDbLine
 10
420.6443800578773
 20
295.1432782514758
 30
0.0
 11
339.1443830578773
 21
295.1432782514758
 31
0.0
  0
ARC
  5
1D24
330
18
100
AcDbEntity
  8
1
  6
Continuous
100
AcDbCircle
 10
407.4721340578769
 20
282.8019352514758
 30
0.0
 40
69.5
100
AcDbArc
 50
184.0346840939958
 51
218.919309270672
  0
ARC
  5
1D25
330
18
100
AcDbEntity
  8
1
  6
Continuous
100
AcDbCircle
 10
407.4721340578769
 20
282.8019352514758
 30
0.0
 40
72.5
100
AcDbArc
 50
183.950359999999
 51
218.9193092706698
  0
LINE
  5
1D27
330
18
100
AcDbEntity
  8
1
  6
Continuous
100
AcDbLine
 10
357.3943800578772
 20
219.1432782514759
 30
0.0
 11
357.3943800578772
 21
292.1432782514759
 31
0.0
  0
ARC
  5
1D7C
330
18
100
AcDbEntity
  8
1
  6
Continuous
100
AcDbCircle
 10
210.4875958395423
 20
112.4792733492196
 30
0.0
 40
9.5
100
AcDbArc
 50
210.7213356988406
 51
270.0
  0
ARC
  5
1D7D
330
18
100
AcDbEntity
  8
1
  6
Continuous
100
AcDbCircle
 10
228.2498952377906
 20
112.4792733492196
 30
0.0
 40
9.5
100
AcDbArc
 50
270.0
 51
329.2786643011593
  0
ARC
  5
1D8A
330
18
100
AcDbEntity
  8
1
  6
Continuous
100
AcDbCircle
 10
187.8390305262085
 20
48.92927634922011
 30
0.0
 40
13.2
100
AcDbArc
 50
270.0
 51
329.2786643011593
  0
LINE
  5
1D8B
330
18
100
AcDbEntity
  8
1
  6
Continuous
100
AcDbLine
 10
202.320805918649
 20
53.33247854026893
 30
0.0
 11
196.6075842478582
 21
43.71847356744604
 31
0.0
  0
LINE
  5
1D8C
330
18
100
AcDbEntity
  8
1
  6
Continuous
100
AcDbLine
 10
204.8997922094574
 20
51.79988932204299
 30
0.0
 11
199.1865702057653
 21
42.18588378902597
 31
0.0
  0
ARC
  5
1D95
330
18
100
AcDbEntity
  8
1
  6
Continuous
100
AcDbCircle
 10
187.8390305262085
 20
48.92927634922011
 30
0.0
 40
10.2
100
AcDbArc
 50
270.0
 51
329.2786643011593
  0
LINE
  5
1D97
330
18
100
AcDbEntity
  8
1
  6
Continuous
100
AcDbLine
 10
187.8390305262085
 20
35.72927634922007
 30
0.0
 11
184.3687455386664
 21
35.72927634922007
 31
0.0
  0
LINE
  5
1D9D
330
18
100
AcDbEntity
  8
1
  6
Continuous
100
AcDbLine
 10
187.8390325386665
 20
38.72927634922007
 30
0.0
 11
183.9416650883927
 21
38.72927634922007
 31
0.0
  0
ARC
  5
1DA6
330
18
100
AcDbEntity
  8
1
  6
Continuous
100
AcDbCircle
 10
228.2498952377906
 20
48.47927934922006
 30
0.0
 40
9.5
100
AcDbArc
 50
30.72133569884064
 51
90.0
  0
ARC
  5
1DA7
330
18
100
AcDbEntity
  8
1
  6
Continuous
100
AcDbCircle
 10
228.2498952377906
 20
48.47927934922006
 30
0.0
 40
6.5
100
AcDbArc
 50
30.72133569884064
 51
90.0
  0
LINE
  5
1DA9
330
18
100
AcDbEntity
  8
1
  6
Continuous
100
AcDbLine
 10
228.2498952377906
 20
54.97927934922007
 30
0.0
 11
210.4875958395423
 21
54.97927934922007
 31
0.0
  0
LINE
  5
1DAA
330
18
100
AcDbEntity
  8
1
  6
Continuous
100
AcDbLine
 10
228.2498952377906
 20
57.97927934922006
 30
0.0
 11
210.4875958395423
 21
57.97927934922006
 31
0.0
  0
ARC
  5
1DAD
330
18
100
AcDbEntity
  8
1
  6
Continuous
100
AcDbCircle
 10
210.4875958395423
 20
48.47927934922006
 30
0.0
 40
6.5
100
AcDbArc
 50
90.0
 51
149.2786643011593
  0
ARC
  5
1DAE
330
18
100
AcDbEntity
  8
1
  6
Continuous
100
AcDbCircle
 10
210.4875958395423
 20
48.47927934922006
 30
0.0
 40
9.5
100
AcDbArc
 50
90.0
 51
149.2786643011593
  0
ARC
  5
1DB7
330
18
100
AcDbEntity
  8
1
  6
Continuous
100
AcDbCircle
 10
250.8984605511243
 20
48.92927634922011
 30
0.0
 40
13.2
100
AcDbArc
 50
210.7213356988406
 51
270.0
  0
ARC
  5
1DB8
330
18
100
AcDbEntity
  8
1
  6
Continuous
100
AcDbCircle
 10
250.8984605511243
 20
48.92927634922011
 30
0.0
 40
10.2
100
AcDbArc
 50
210.7213356988406
 51
270.0
  0
LINE
  5
1DBA
330
18
100
AcDbEntity
  8
1
  6
Continuous
100
AcDbLine
 10
250.8984605511243
 20
35.72927634922007
 30
0.0
 11
254.3687455386664
 21
35.72927634922007
 31
0.0
  0
LINE
  5
1DBE
330
18
100
AcDbEntity
  8
1
  6
Continuous
100
AcDbLine
 10
236.4166851586837
 20
53.33247854026893
 30
0.0
 11
242.1299068294746
 21
43.71847356744604
 31
0.0
  0
LINE
  5
1DBF
330
18
100
AcDbEntity
  8
1
  6
Continuous
100
AcDbLine
 10
233.8376988678754
 20
51.79988932204299
 30
0.0
 11
239.5509208715675
 21
42.18588378902597
 31
0.0
  0
LINE
  5
1DC1
330
18
100
AcDbEntity
  8
1
  6
Continuous
100
AcDbLine
 10
250.8984585386663
 20
38.72927634922007
 30
0.0
 11
254.7958259889402
 21
38.72927634922007
 31
0.0
  0
ARC
  5
1DCD
330
18
100
AcDbEntity
  8
1
  6
Continuous
100
AcDbCircle
 10
187.8390305262085
 20
112.0292763492195
 30
0.0
 40
13.2
100
AcDbArc
 50
30.72133569884064
 51
90.0
  0
LINE
  5
1DCE
330
18
100
AcDbEntity
  8
1
  6
Continuous
100
AcDbLine
 10
202.320805918649
 20
107.6260741581707
 30
0.0
 11
196.6075842478582
 21
117.2400791309936
 31
0.0
  0
LINE
  5
1DCF
330
18
100
AcDbEntity
  8
1
  6
Continuous
100
AcDbLine
 10
204.8997922094574
 20
109.1586633763967
 30
0.0
 11
199.1865702057653
 21
118.7726689094137
 31
0.0
  0
ARC
  5
1DD6
330
18
100
AcDbEntity
  8
1
  6
Continuous
100
AcDbCircle
 10
187.8390305262085
 20
112.0292763492195
 30
0.0
 40
10.2
100
AcDbArc
 50
30.72133569884064
 51
90.0
  0
LINE
  5
1DD7
330
18
100
AcDbEntity
  8
1
  6
Continuous
100
AcDbLine
 10
187.8390325386665
 20
122.2292763492196
 30
0.0
 11
183.9416650883927
 21
122.2292763492196
 31
0.0
  0
LINE
  5
1DD8
330
18
100
AcDbEntity
  8
1
  6
Continuous
100
AcDbLine
 10
187.8390305262085
 20
125.2292763492196
 30
0.0
 11
184.3687455386664
 21
125.2292763492196
 31
0.0
  0
ARC
  5
1DDA
330
18
100
AcDbEntity
  8
1
  6
Continuous
100
AcDbCircle
 10
228.2498952377906
 20
112.4792733492196
 30
0.0
 40
6.5
100
AcDbArc
 50
270.0
 51
329.2786643011593
  0
LINE
  5
1DDD
330
18
100
AcDbEntity
  8
1
  6
Continuous
100
AcDbLine
 10
228.2498952377906
 20
105.9792733492196
 30
0.0
 11
210.4875958395423
 21
105.9792733492196
 31
0.0
  0
LINE
  5
1DDE
330
18
100
AcDbEntity
  8
1
  6
Continuous
100
AcDbLine
 10
228.2498952377906
 20
102.9792733492196
 30
0.0
 11
210.4875958395423
 21
102.9792733492196
 31
0.0
  0
ARC
  5
1DE6
330
18
100
AcDbEntity
  8
1
  6
Continuous
100
AcDbCircle
 10
210.4875958395423
 20
112.4792733492196
 30
0.0
 40
6.5
100
AcDbArc
 50
210.7213356988406
 51
270.0
  0
ARC
  5
1DF3
330
18
100
AcDbEntity
  8
1
  6
Continuous
100
AcDbCircle
 10
250.8984605511243
 20
112.0292763492195
 30
0.0
 40
13.2
100
AcDbArc
 50
90.0
 51
149.2786643011593
  0
ARC
  5
1DF5
330
18
100
AcDbEntity
  8
1
  6
Continuous
100
AcDbCircle
 10
250.8984605511243
 20
112.0292763492195
 30
0.0
 40
10.2
100
AcDbArc
 50
90.0
 51
149.2786643011593
  0
LINE
  5
1DF8
330
18
100
AcDbEntity
  8
1
  6
Continuous
100
AcDbLine
 10
236.4166851586837
 20
107.6260741581707
 30
0.0
 11
242.1299068294746
 21
117.2400791309936
 31
0.0
  0
LINE
  5
1DF9
330
18
100
AcDbEntity
  8
1
  6
Continuous
100
AcDbLine
 10
233.8376988678754
 20
109.1586633763967
 30
0.0
 11
239.5509208715675
 21
118.7726689094137
 31
0.0
  0
LINE
  5
1DFB
330
18
100
AcDbEntity
  8
1
  6
Continuous
100
AcDbLine
 10
250.8984585386663
 20
122.2292763492196
 30
0.0
 11
254.7958259889402
 21
122.2292763492196
 31
0.0
  0
LINE
  5
1DFE
330
18
100
AcDbEntity
  8
1
  6
Continuous
100
AcDbLine
 10
250.8984605511243
 20
125.2292763492196
 30
0.0
 11
254.3687455386664
 21
125.2292763492196
 31
0.0
  0
ARC
  5
1E1D
330
18
100
AcDbEntity
  8
1
  6
Continuous
100
AcDbCircle
 10
339.394380057877
 20
227.8322216783136
 30
0.0
 40
15.0
100
AcDbArc
 50
0.0
 51
38.91930927066985
  0
ARC
  5
1E1E
330
18
100
AcDbEntity
  8
1
  6
Continuous
100
AcDbCircle
 10
339.3943800578771
 20
227.8322216783135
 30
0.0
 40
18.0
100
AcDbArc
 50
0.0
 51
38.91930927066985
  0
ARC
  5
1E20
330
18
100
AcDbEntity
  8
1
  6
Continuous
100
AcDbCircle
 10
362.0360336059412
 20
232.6432782514759
 30
0.0
 40
12.54166054806418
100
AcDbArc
 50
156.9649625403176
 51
203.0350692435372
  0
LINE
  5
1E21
330
18
100
AcDbEntity
  8
1
  6
Continuous
100
AcDbLine
 10
347.8943830578772
 20
225.3432760502068
 30
0.0
 11
347.8943830578772
 21
239.943278050207
 31
0.0
  0
LINE
  5
1E22
330
18
100
AcDbEntity
  8
1
  6
Continuous
100
AcDbLine
 10
349.4943730578771
 20
224.1432750502069
 30
0.0
 11
349.4943730578771
 21
239.27229903169
 31
0.0
  0
LINE
  5
1E23
330
18
100
AcDbEntity
  8
1
  6
Continuous
100
AcDbLine
 10
346.044406133606
 20
237.6432782514759
 30
0.0
 11
346.044406133606
 21
227.6432782514759
 31
0.0
  0
LINE
  5
1E24
330
18
100
AcDbEntity
  8
1
  6
Continuous
100
AcDbLine
 10
345.2944061336061
 20
236.8932782514759
 30
0.0
 11
345.2944061336061
 21
228.3932782514759
 31
0.0
  0
LINE
  5
1E27
330
18
100
AcDbEntity
  8
1
  6
Continuous
100
AcDbLine
 10
357.3943800578772
 20
219.1432782514759
 30
0.0
 11
354.3943800578769
 21
219.1432782514759
 31
0.0
  0
LINE
  5
1E28
330
18
100
AcDbEntity
  8
1
  6
Continuous
100
AcDbLine
 10
354.3943800578769
 20
219.1432782514759
 30
0.0
 11
354.3943800578769
 21
227.8322216783136
 31
0.0
  0
LINE
  5
1E29
330
18
100
AcDbEntity
  8
1
  6
Continuous
100
AcDbLine
 10
349.0943830578771
 20
224.1432750502069
 30
0.0
 11
349.4943730578771
 21
224.1432750502069
 31
0.0
  0
LINE
  5
1E2A
330
18
100
AcDbEntity
  8
2
  6
Continuous
100
AcDbLine
 10
347.8943830578772
 20
228.4552782514759
 30
0.0
 11
345.2944061336062
 21
228.4552782514759
 31
0.0
  0
ARC
  5
1E2B
330
18
100
AcDbEntity
  8
1
  6
Continuous
100
AcDbCircle
 10
349.0943830578771
 20
225.3432760502068
 30
0.0
 40
1.199999999999999
100
AcDbArc
 50
179.9999899999989
 51
269.9999970000023
  0
LINE
  5
1E2C
330
18
100
AcDbEntity
  8
1
  6
Continuous
100
AcDbLine
 10
346.0443461336057
 20
227.643225251476
 30
0.0
 11
345.2943461336056
 21
228.3932252514762
 31
0.0
  0
LINE
  5
1E2D
330
18
100
AcDbEntity
  8
1
  6
Continuous
100
AcDbLine
 10
346.044406133606
 20
227.6432782514759
 30
0.0
 11
347.8943830578772
 21
227.6432782514759
 31
0.0
  0
ARC
  5
1E2E
330
18
100
AcDbEntity
  8
1
  6
Continuous
100
AcDbCircle
 10
353.0047887758159
 20
225.2820575502068
 30
0.0
 40
3.51041571793872
100
AcDbArc
 50
135.6541372818185
 51
204.4706962779695
  0
LINE
  5
1E2F
330
18
100
AcDbEntity
  8
1
  6
Continuous
100
AcDbLine
 10
350.8093288152871
 20
222.828319292797
 30
0.0
 11
354.3943830578772
 21
222.828319292797
 31
0.0
  0
LINE
  5
1E30
330
18
100
AcDbEntity
  8
1
  6
Continuous
100
AcDbLine
 10
349.4943730578771
 20
224.1432750502069
 30
0.0
 11
350.8093288152867
 21
222.8283192927971
 31
0.0
  0
LINE
  5
1E31
330
18
100
AcDbEntity
  8
1
  6
Continuous
100
AcDbLine
 10
350.4943730578771
 20
227.735795807617
 30
0.0
 11
354.3943830578772
 21
227.735795807617
 31
0.0
  0
LINE
  5
1E37
330
18
100
AcDbEntity
  8
2
  6
Continuous
100
AcDbLine
 10
347.8943830578772
 20
236.8312782514759
 30
0.0
 11
345.2944061336062
 21
236.8312782514759
 31
0.0
  0
ARC
  5
1E38
330
18
100
AcDbEntity
  8
1
  6
Continuous
100
AcDbCircle
 10
349.0943830578771
 20
239.943278050207
 30
0.0
 40
1.199999999999999
100
AcDbArc
 50
129.5775378197125
 51
180.0
  0
LINE
  5
1E39
330
18
100
AcDbEntity
  8
1
  6
Continuous
100
AcDbLine
 10
345.2943861336061
 20
236.8932742514759
 30
0.0
 11
346.0443861336059
 21
237.6432782514759
 31
0.0
  0
LINE
  5
1E3A
330
18
100
AcDbEntity
  8
1
  6
Continuous
100
AcDbLine
 10
346.044406133606
 20
237.6432782514759
 30
0.0
 11
347.8943830578772
 21
237.6432782514759
 31
0.0
  0
ARC
  5
1E3B
330
18
100
AcDbEntity
  8
1
  6
Continuous
100
AcDbCircle
 10
353.0047887758159
 20
240.0044989527451
 30
0.0
 40
3.51041571793872
100
AcDbArc
 50
194.5460280372956
 51
224.3458627181814
  0
LINE
  5
1E3C
330
18
100
AcDbEntity
  8
1
  6
Continuous
100
AcDbLine
 10
350.4943730578771
 20
237.5507542927969
 30
0.0
 11
350.8277996382292
 21
237.5507542927969
 31
0.0
  0
LINE
  5
1E54
330
18
100
AcDbEntity
  8
1
  6
Continuous
100
AcDbLine
 10
233.8376988678754
 20
438.4866671809091
 30
0.0
 11
239.5509208715675
 21
448.1006727139261
 31
0.0
  0
LINE
  5
1E55
330
18
100
AcDbEntity
  8
1
  6
Continuous
100
AcDbLine
 10
204.8997922094574
 20
438.4866671809091
 30
0.0
 11
199.1865702057653
 21
448.1006727139261
 31
0.0
  0
LINE
  5
1E68
330
18
100
AcDbEntity
  8
1
  6
Continuous
100
AcDbLine
 10
178.3687455386666
 20
292.1432812514757
 30
0.0
 11
178.3687455386666
 21
295.1432782514759
 31
0.0
  0
ARC
  5
1E6B
330
18
100
AcDbEntity
  8
1
  6
Continuous
100
AcDbCircle
 10
181.3687455386673
 20
289.1432812514759
 30
0.0
 40
3.0
100
AcDbArc
 50
359.9999713521103
 51
90.0
  0
LINE
  5
1E6C
330
18
100
AcDbEntity
  8
1
  6
Continuous
100
AcDbLine
 10
181.3687455386673
 20
292.1432812514757
 30
0.0
 11
178.3687455386666
 21
292.1432812514757
 31
0.0
  0
LINE
  5
1E72
330
18
100
AcDbEntity
  8
1
  6
Continuous
100
AcDbLine
 10
260.3687455386664
 20
292.1432812514757
 30
0.0
 11
260.3687455386664
 21
295.1432782514759
 31
0.0
  0
ARC
  5
1E74
330
18
100
AcDbEntity
  8
1
  6
Continuous
100
AcDbCircle
 10
257.3687455386657
 20
289.1432812514759
 30
0.0
 40
3.0
100
AcDbArc
 50
90.0
 51
180.0000286478897
  0
LINE
  5
1E77
330
18
100
AcDbEntity
  8
1
  6
Continuous
100
AcDbLine
 10
257.3687455386657
 20
292.1432812514757
 30
0.0
 11
260.3687455386664
 21
292.1432812514757
 31
0.0
  0
ARC
  5
1E79
330
18
100
AcDbEntity
  8
1
  6
Continuous
100
AcDbCircle
 10
187.8390305262085
 20
378.2572801537325
 30
0.0
 40
13.2
100
AcDbArc
 50
270.0
 51
329.2786643011593
  0
LINE
  5
1E7A
330
18
100
AcDbEntity
  8
1
  6
Continuous
100
AcDbLine
 10
204.8997922094574
 20
381.1278931265555
 30
0.0
 11
199.1865702057653
 21
371.5138875935385
 31
0.0
  0
LINE
  5
1E82
330
18
100
AcDbEntity
  8
1
  6
Continuous
100
AcDbLine
 10
187.8390305262085
 20
365.0572801537325
 30
0.0
 11
184.3687455386664
 21
365.0572801537325
 31
0.0
  0
ARC
  5
1E89
330
18
100
AcDbEntity
  8
1
  6
Continuous
100
AcDbCircle
 10
228.2498952377906
 20
377.8072831537325
 30
0.0
 40
6.5
100
AcDbArc
 50
30.72133569884064
 51
90.0
  0
LINE
  5
1E9B
330
18
100
AcDbEntity
  8
1
  6
Continuous
100
AcDbLine
 10
228.2498952377906
 20
384.3072831537326
 30
0.0
 11
210.4875958395423
 21
384.3072831537326
 31
0.0
  0
ARC
  5
1E9C
330
18
100
AcDbEntity
  8
1
  6
Continuous
100
AcDbCircle
 10
210.4875958395423
 20
377.8072831537325
 30
0.0
 40
6.5
100
AcDbArc
 50
90.0
 51
149.2786643011593
  0
LINE
  5
1E9E
330
18
100
AcDbEntity
  8
1
  6
Continuous
100
AcDbLine
 10
233.8376988678754
 20
381.1278931265555
 30
0.0
 11
239.5509208715675
 21
371.5138875935385
 31
0.0
  0
ARC
  5
1EA1
330
18
100
AcDbEntity
  8
1
  6
Continuous
100
AcDbCircle
 10
250.8984605511243
 20
378.2572801537325
 30
0.0
 40
13.2
100
AcDbArc
 50
210.7213356988406
 51
270.0
  0
LINE
  5
1EA6
330
18
100
AcDbEntity
  8
1
  6
Continuous
100
AcDbLine
 10
250.8984585386666
 20
365.0572801537322
 30
0.0
 11
254.3687455386664
 21
365.0572801537322
 31
0.0
  0
ARC
  5
1EA9
330
18
100
AcDbEntity
  8
1
  6
Continuous
100
AcDbCircle
 10
228.2498952377906
 20
441.8072771537321
 30
0.0
 40
6.5
100
AcDbArc
 50
270.0
 51
329.2786643011593
  0
LINE
  5
1EAE
330
18
100
AcDbEntity
  8
1
  6
Continuous
100
AcDbLine
 10
228.2498952377906
 20
435.3072771537322
 30
0.0
 11
210.4875958395423
 21
435.3072771537322
 31
0.0
  0
ARC
  5
1EB1
330
18
100
AcDbEntity
  8
1
  6
Continuous
100
AcDbCircle
 10
210.4875958395423
 20
441.8072771537321
 30
0.0
 40
6.5
100
AcDbArc
 50
210.7213356988406
 51
270.0
  0
ARC
  5
1EB8
330
18
100
AcDbEntity
  8
1
  6
Continuous
100
AcDbCircle
 10
362.059144057877
 20
293.9432786514757
 30
0.0
 40
5.0
100
AcDbArc
 50
201.1001000000002
 51
269.9999800000012
  0
LINE
  5
1EB9
330
18
100
AcDbEntity
  8
4
  6
CENTER
 48
0.2
100
AcDbLine
 10
348.3943800578771
 20
287.9432782514759
 30
0.0
 11
348.3943800578771
 21
299.1432782514759
 31
0.0
  0
ARC
  5
1EBA
330
18
100
AcDbEntity
  8
1
  6
Continuous
100
AcDbCircle
 10
339.1443830578773
 20
291.1432782514759
 30
0.0
 40
4.0
100
AcDbArc
 50
90.00001799999918
 51
180.0
  0
LINE
  5
1EBB
330
18
100
AcDbEntity
  8
1
  6
Continuous
100
AcDbLine
 10
338.1443800578769
 20
277.9118917633792
 30
0.0
 11
338.1443800578769
 21
291.1432782514759
 31
0.0
  0
LINE
  5
1EBC
330
18
100
AcDbEntity
  8
1
  6
Continuous
100
AcDbLine
 10
335.1443790578768
 20
277.807260251476
 30
0.0
 11
335.1443790578768
 21
291.1432782514759
 31
0.0
  0
ARC
  5
1EBD
330
18
100
AcDbEntity
  8
1
  6
Continuous
100
AcDbCircle
 10
339.1443800578769
 20
291.1432782514759
 30
0.0
 40
1.0
100
AcDbArc
 50
90.0
 51
180.0
  0
ARC
  5
1EBE
330
18
100
AcDbEntity
  8
1
  6
Continuous
100
AcDbCircle
 10
187.8390305262085
 20
441.357280153732
 30
0.0
 40
13.2
100
AcDbArc
 50
30.72133569884064
 51
90.0
  0
LINE
  5
1EC4
330
18
100
AcDbEntity
  8
1
  6
Continuous
100
AcDbLine
 10
187.8390305262085
 20
454.557280153732
 30
0.0
 11
184.3687455386664
 21
454.557280153732
 31
0.0
  0
ARC
  5
1EC5
330
18
100
AcDbEntity
  8
1
  6
Continuous
100
AcDbCircle
 10
250.8984605511243
 20
441.357280153732
 30
0.0
 40
13.2
100
AcDbArc
 50
90.0
 51
149.2786643011593
  0
LINE
  5
1EC9
330
18
100
AcDbEntity
  8
1
  6
Continuous
100
AcDbLine
 10
250.8984605511243
 20
454.557280153732
 30
0.0
 11
254.3687455386664
 21
454.557280153732
 31
0.0
  0
ARC
  5
1ECA
330
18
100
AcDbEntity
  8
1
  6
Continuous
100
AcDbCircle
 10
352.3166260578773
 20
282.8019352514758
 30
0.0
 40
69.5
100
AcDbArc
 50
321.0806907293281
 51
355.9653159060033
  0
ARC
  5
1ED1
330
18
100
AcDbEntity
  8
1
  6
Continuous
100
AcDbCircle
 10
352.3166260578773
 20
282.8019352514758
 30
0.0
 40
72.5
100
AcDbArc
 50
321.0806907293301
 51
356.0496400000009
  0
LINE
  5
1ED2
330
18
100
AcDbEntity
  8
1
  6
Continuous
100
AcDbLine
 10
402.3943800578772
 20
219.1432782514759
 30
0.0
 11
402.3943800578772
 21
292.1432782514759
 31
0.0
  0
ARC
  5
1ED7
330
18
100
AcDbEntity
  8
1
  6
Continuous
100
AcDbCircle
 10
420.3943800578771
 20
227.8322216783135
 30
0.0
 40
18.0
100
AcDbArc
 50
141.0806907293301
 51
180.0
  0
ARC
  5
1ED8
330
18
100
AcDbEntity
  8
1
  6
Continuous
100
AcDbCircle
 10
420.3943800578771
 20
227.8322216783136
 30
0.0
 40
15.0
100
AcDbArc
 50
141.0806907293301
 51
180.0
  0
LINE
  5
1EDA
330
18
100
AcDbEntity
  8
1
  6
Continuous
100
AcDbLine
 10
406.7944041336057
 20
234.1599902312269
 30
0.0
 11
406.7944041336057
 21
224.2244392514759
 31
0.0
  0
ARC
  5
1EDB
330
18
100
AcDbEntity
  8
1
  6
Continuous
100
AcDbCircle
 10
386.3248691336061
 20
232.6432782514759
 30
0.0
 40
22.56953
100
AcDbArc
 50
338.0486999999987
 51
10.99003535050183
  0
LINE
  5
1EDF
330
18
100
AcDbEntity
  8
1
  6
Continuous
100
AcDbLine
 10
405.3943800578773
 20
219.1432782514759
 30
0.0
 11
402.3943800578772
 21
219.1432782514759
 31
0.0
  0
LINE
  5
1EE4
330
18
100
AcDbEntity
  8
1
  6
Continuous
100
AcDbLine
 10
405.3943800578773
 20
219.1432782514759
 30
0.0
 11
405.3943800578773
 21
227.8322216783136
 31
0.0
  0
LINE
  5
1EE5
330
18
100
AcDbEntity
  8
1
  6
Continuous
100
AcDbLine
 10
406.7508251336063
 20
223.8951782514762
 30
0.0
 11
405.3944031336061
 21
224.0138532514761
 31
0.0
  0
ARC
  5
1EE6
330
18
100
AcDbEntity
  8
1
  6
Continuous
100
AcDbCircle
 10
406.7944041336057
 20
224.3932782514759
 30
0.0
 40
0.5
100
AcDbArc
 50
265.0000000000003
 51
338.0486899999998
  0
LINE
  5
1EF6
330
18
100
AcDbEntity
  8
4
  6
CENTER
 48
0.2
100
AcDbLine
 10
411.3943800578772
 20
287.9432782514759
 30
0.0
 11
411.3943800578772
 21
299.1432782514759
 31
0.0
  0
ARC
  5
1EF7
330
18
100
AcDbEntity
  8
1
  6
Continuous
100
AcDbCircle
 10
397.7296200578773
 20
293.9432786514757
 30
0.0
 40
5.0
100
AcDbArc
 50
269.9999800000012
 51
338.8998299999999
  0
ARC
  5
1EF9
330
18
100
AcDbEntity
  8
1
  6
Continuous
100
AcDbCircle
 10
420.6443800578773
 20
291.1432782514759
 30
0.0
 40
4.0
100
AcDbArc
 50
0.0000400000007688
 51
90.00001799999918
  0
LINE
  5
1EFA
330
18
100
AcDbEntity
  8
1
  6
Continuous
100
AcDbLine
 10
421.6443800578773
 20
277.9118917633784
 30
0.0
 11
421.6443800578773
 21
291.1432782514759
 31
0.0
  0
LINE
  5
1EFB
330
18
100
AcDbEntity
  8
1
  6
Continuous
100
AcDbLine
 10
424.6443800578773
 20
277.8072572514759
 30
0.0
 11
424.6443800578773
 21
291.1432782514759
 31
0.0
  0
ARC
  5
1EFC
330
18
100
AcDbEntity
  8
1
  6
Continuous
100
AcDbCircle
 10
420.6443800578773
 20
291.1432782514759
 30
0.0
 40
1.0
100
AcDbArc
 50
0.0
 51
90.0
  0
LINE
  5
1EFE
330
18
100
AcDbEntity
  8
1
  6
Continuous
100
AcDbLine
 10
499.420014577088
 20
292.1432812514757
 30
0.0
 11
499.420014577088
 21
295.1432782514759
 31
0.0
  0
LINE
  5
1F03
330
18
100
AcDbEntity
  8
1
  6
Continuous
100
AcDbLine
 10
502.4200145770887
 20
292.1432812514757
 30
0.0
 11
499.420014577088
 21
292.1432812514757
 31
0.0
  0
ARC
  5
1F04
330
18
100
AcDbEntity
  8
1
  6
Continuous
100
AcDbCircle
 10
502.4200145770887
 20
289.1432812514759
 30
0.0
 40
3.0
100
AcDbArc
 50
359.9999713521103
 51
90.0
  0
ARC
  5
1F06
330
18
100
AcDbEntity
  8
1
  6
Continuous
100
AcDbCircle
 10
578.4200145770872
 20
289.1432812514759
 30
0.0
 40
3.0
100
AcDbArc
 50
90.0
 51
180.0000286478897
  0
LINE
  5
1F0C
330
18
100
AcDbEntity
  8
1
  6
Continuous
100
AcDbLine
 10
581.4200145770877
 20
292.1432812514757
 30
0.0
 11
581.4200145770877
 21
295.1432782514759
 31
0.0
  0
LINE
  5
1F0D
330
18
100
AcDbEntity
  8
1
  6
Continuous
100
AcDbLine
 10
578.4200145770872
 20
292.1432812514757
 30
0.0
 11
581.4200145770877
 21
292.1432812514757
 31
0.0
  0
LINE
  5
24A8
330
18
100
AcDbEntity
  8
1
  6
Continuous
100
AcDbLine
 10
41.00787101945575
 20
288.9432782514759
 30
0.0
 11
76.678347019456
 21
288.9432782514759
 31
0.0
  0
LINE
  5
24A9
330
18
100
AcDbEntity
  8
1
  6
Continuous
100
AcDbLine
 10
18.09311101945564
 20
292.1432782514759
 30
0.0
 11
99.5931110194561
 21
292.1432782514759
 31
0.0
  0
LINE
  5
24AA
330
18
100
AcDbEntity
  8
1
  6
Continuous
100
AcDbLine
 10
18.09311101945564
 20
295.1432782514758
 30
0.0
 11
99.59310801945576
 21
295.1432782514758
 31
0.0
  0
ARC
  5
24AB
330
18
100
AcDbEntity
  8
1
  6
Continuous
100
AcDbCircle
 10
58.84311101945588
 20
170.1432782514758
 30
0.0
 40
100.0
100
AcDbArc
 50
79.90634314077396
 51
100.093656859226
  0
ARC
  5
24AC
330
18
100
AcDbEntity
  8
1
  6
Continuous
100
AcDbCircle
 10
58.84311101945588
 20
295.1432782514759
 30
0.0
 40
100.0
100
AcDbArc
 50
259.9063431407739
 51
280.0936568592259
  0
LINE
  5
24B2
330
18
100
AcDbEntity
  8
4
  6
CENTER
 48
0.5
100
AcDbLine
 10
99.64308494372687
 20
232.6432782514759
 30
0.0
 11
23.64309194372691
 21
232.6432782514759
 31
0.0
  0
ARC
  5
24B3
330
18
100
AcDbEntity
  8
1
  6
Continuous
100
AcDbCircle
 10
31.26535701945607
 20
282.8019352514758
 30
0.0
 40
69.5
100
AcDbArc
 50
321.080690729328
 51
355.9653159060039
  0
ARC
  5
24B4
330
18
100
AcDbEntity
  8
1
  6
Continuous
100
AcDbCircle
 10
31.26535701945607
 20
282.8019352514758
 30
0.0
 40
72.5
100
AcDbArc
 50
321.0806907293301
 51
356.0496400000009
  0
LINE
  5
24B5
330
18
100
AcDbEntity
  8
1
  6
Continuous
100
AcDbLine
 10
81.34311101945588
 20
219.1432782514759
 30
0.0
 11
81.34311101945588
 21
292.1432782514759
 31
0.0
  0
LINE
  5
24B6
330
18
100
AcDbEntity
  8
4
  6
CENTER
 48
0.5
100
AcDbLine
 10
58.84311101945588
 20
189.1432782514759
 30
0.0
 11
58.84311101945582
 21
301.1432782514759
 31
0.0
  0
ARC
  5
24BA
330
18
100
AcDbEntity
  8
1
  6
Continuous
100
AcDbCircle
 10
99.34311101945588
 20
227.8322216783135
 30
0.0
 40
18.0
100
AcDbArc
 50
141.0806907293301
 51
180.0
  0
ARC
  5
24BB
330
18
100
AcDbEntity
  8
1
  6
Continuous
100
AcDbCircle
 10
99.34311101945601
 20
227.8322216783136
 30
0.0
 40
15.0
100
AcDbArc
 50
141.0806907293301
 51
180.0
  0
ARC
  5
24BC
330
18
100
AcDbEntity
  8
1
  6
Continuous
100
AcDbCircle
 10
76.70145747139196
 20
232.6432782514759
 30
0.0
 40
12.54166054806418
100
AcDbArc
 50
336.9649307564626
 51
23.03503745968233
  0
LINE
  5
24BD
330
18
100
AcDbEntity
  8
1
  6
Continuous
100
AcDbLine
 10
90.84310801945575
 20
225.3432760502068
 30
0.0
 11
90.84310801945575
 21
239.943278050207
 31
0.0
  0
LINE
  5
24BE
330
18
100
AcDbEntity
  8
1
  6
Continuous
100
AcDbLine
 10
89.24311801945595
 20
224.1432750502069
 30
0.0
 11
89.24311801945595
 21
239.27229903169
 31
0.0
  0
LINE
  5
24BF
330
18
100
AcDbEntity
  8
1
  6
Continuous
100
AcDbLine
 10
92.69308494372699
 20
237.6432782514759
 30
0.0
 11
92.69308494372699
 21
227.6432782514759
 31
0.0
  0
LINE
  5
24C0
330
18
100
AcDbEntity
  8
1
  6
Continuous
100
AcDbLine
 10
93.443084943727
 20
236.8932782514759
 30
0.0
 11
93.443084943727
 21
228.3932782514759
 31
0.0
  0
LINE
  5
24C1
330
18
100
AcDbEntity
  8
1
  6
Continuous
100
AcDbLine
 10
80.34311101945609
 20
216.1432782514758
 30
0.0
 11
80.34311101945609
 21
249.1432782514757
 31
0.0
  0
LINE
  5
24C2
330
18
100
AcDbEntity
  8
1
  6
Continuous
100
AcDbLine
 10
78.84311101945588
 20
199.6445871609693
 30
0.0
 11
78.84311101945588
 21
265.6419693419824
 31
0.0
  0
ARC
  5
24C3
330
18
100
AcDbEntity
  8
1
  6
Continuous
100
AcDbCircle
 10
75.84311101945587
 20
199.6445871609693
 30
0.0
 40
3.0
100
AcDbArc
 50
280.0936568592259
 51
0.000000000000007
  0
ARC
  5
24C4
330
18
100
AcDbEntity
  8
1
  6
Continuous
100
AcDbCircle
 10
85.73270230151711
 20
225.2820575502068
 30
0.0
 40
3.51041571793872
100
AcDbArc
 50
335.5293037220304
 51
44.34586271818147
  0
LINE
  5
24C5
330
18
100
AcDbEntity
  8
1
  6
Continuous
100
AcDbLine
 10
89.24311801945595
 20
224.1432750502069
 30
0.0
 11
87.92816226204633
 21
222.8283192927971
 31
0.0
  0
LINE
  5
24C6
330
18
100
AcDbEntity
  8
1
  6
Continuous
100
AcDbLine
 10
89.64310801945595
 20
224.1432750502069
 30
0.0
 11
89.24311801945595
 21
224.1432750502069
 31
0.0
  0
LINE
  5
24C7
330
18
100
AcDbEntity
  8
2
  6
Continuous
100
AcDbLine
 10
90.84310801945575
 20
228.4552782514759
 30
0.0
 11
93.44308494372677
 21
228.4552782514759
 31
0.0
  0
ARC
  5
24C8
330
18
100
AcDbEntity
  8
1
  6
Continuous
100
AcDbCircle
 10
89.64310801945595
 20
225.3432760502068
 30
0.0
 40
1.199999999999999
100
AcDbArc
 50
270.0000029999976
 51
0.0000100000010134
  0
LINE
  5
24C9
330
18
100
AcDbEntity
  8
1
  6
Continuous
100
AcDbLine
 10
92.6931449437273
 20
227.643225251476
 30
0.0
 11
93.4431449437273
 21
228.3932252514762
 31
0.0
  0
LINE
  5
24CA
330
18
100
AcDbEntity
  8
1
  6
Continuous
100
AcDbLine
 10
92.69308494372699
 20
227.6432782514759
 30
0.0
 11
90.84310801945575
 21
227.6432782514759
 31
0.0
  0
LINE
  5
24CB
330
18
100
AcDbEntity
  8
1
  6
Continuous
100
AcDbLine
 10
84.34311101945608
 20
219.1432782514759
 30
0.0
 11
84.34311101945608
 21
227.8322216783136
 31
0.0
  0
LINE
  5
24CC
330
18
100
AcDbEntity
  8
1
  6
Continuous
100
AcDbLine
 10
81.34311101945588
 20
219.1432782514759
 30
0.0
 11
84.34311101945608
 21
219.1432782514759
 31
0.0
  0
ARC
  5
24CD
330
18
100
AcDbEntity
  8
1
  6
Continuous
100
AcDbCircle
 10
79.34311101945588
 20
216.1432782514758
 30
0.0
 40
1.0
100
AcDbArc
 50
270.0
 51
0.000000000000007
  0
LINE
  5
24CE
330
18
100
AcDbEntity
  8
1
  6
Continuous
100
AcDbLine
 10
79.34311101945588
 20
215.1432782514759
 30
0.0
 11
78.84311101945588
 21
215.1432782514759
 31
0.0
  0
LINE
  5
24CF
330
18
100
AcDbEntity
  8
1
  6
Continuous
100
AcDbLine
 10
87.92816226204587
 20
222.828319292797
 30
0.0
 11
84.34310801945576
 21
222.828319292797
 31
0.0
  0
LINE
  5
24D0
330
18
100
AcDbEntity
  8
1
  6
Continuous
100
AcDbLine
 10
88.24311801945595
 20
227.735795807617
 30
0.0
 11
84.34310801945576
 21
227.735795807617
 31
0.0
  0
ARC
  5
24D1
330
18
100
AcDbEntity
  8
1
  6
Continuous
100
AcDbCircle
 10
81.14311001945617
 20
224.0432783014757
 30
0.0
 40
0.2
100
AcDbArc
 50
270.0
 51
0.000000000000007
  0
LINE
  5
24D2
330
18
100
AcDbEntity
  8
1
  6
Continuous
100
AcDbLine
 10
80.34311101945609
 20
223.8432782014758
 30
0.0
 11
81.14311001945617
 21
223.8432782014758
 31
0.0
  0
ARC
  5
24D3
330
18
100
AcDbEntity
  8
1
  6
Continuous
100
AcDbCircle
 10
85.73270230151711
 20
240.0044989527451
 30
0.0
 40
3.51041571793872
100
AcDbArc
 50
315.6541372818185
 51
345.4539719627043
  0
LINE
  5
24D4
330
18
100
AcDbEntity
  8
2
  6
Continuous
100
AcDbLine
 10
90.84310801945575
 20
236.8312782514759
 30
0.0
 11
93.44308494372677
 21
236.8312782514759
 31
0.0
  0
ARC
  5
24D5
330
18
100
AcDbEntity
  8
1
  6
Continuous
100
AcDbCircle
 10
89.64310801945595
 20
239.943278050207
 30
0.0
 40
1.199999999999999
100
AcDbArc
 50
0.000000000000007
 51
50.42246218028739
  0
LINE
  5
24D6
330
18
100
AcDbEntity
  8
1
  6
Continuous
100
AcDbLine
 10
93.44310494372697
 20
236.8932742514759
 30
0.0
 11
92.69310494372716
 21
237.6432782514759
 31
0.0
  0
LINE
  5
24D7
330
18
100
AcDbEntity
  8
1
  6
Continuous
100
AcDbLine
 10
92.69308494372699
 20
237.6432782514759
 30
0.0
 11
90.84310801945575
 21
237.6432782514759
 31
0.0
  0
LINE
  5
24D8
330
18
100
AcDbEntity
  8
1
  6
Continuous
100
AcDbLine
 10
88.24311801945595
 20
237.5507542927969
 30
0.0
 11
87.9096914391038
 21
237.5507542927969
 31
0.0
  0
LINE
  5
24D9
330
18
100
AcDbEntity
  8
1
  6
Continuous
100
AcDbLine
 10
79.34311101945588
 20
250.1432782514757
 30
0.0
 11
78.84311101945588
 21
250.1432782514757
 31
0.0
  0
ARC
  5
24DA
330
18
100
AcDbEntity
  8
1
  6
Continuous
100
AcDbCircle
 10
79.34311101945588
 20
249.1432782514757
 30
0.0
 40
1.0
100
AcDbArc
 50
0.000000000000007
 51
90.0
  0
LINE
  5
24DB
330
18
100
AcDbEntity
  8
1
  6
Continuous
100
AcDbLine
 10
81.14311000898425
 20
241.443278201476
 30
0.0
 11
80.34311101945609
 21
241.443278201476
 31
0.0
  0
ARC
  5
24DC
330
18
100
AcDbEntity
  8
1
  6
Continuous
100
AcDbCircle
 10
81.14311001945617
 20
241.2432782014759
 30
0.0
 40
0.2
100
AcDbArc
 50
0.000000000000007
 51
90.00000299999769
  0
ARC
  5
24DD
330
18
100
AcDbEntity
  8
1
  6
Continuous
100
AcDbCircle
 10
75.84311101945587
 20
265.6419693419824
 30
0.0
 40
3.0
100
AcDbArc
 50
0.000000000000007
 51
79.90634314077396
  0
ARC
  5
24DE
330
18
100
AcDbEntity
  8
1
  6
Continuous
100
AcDbCircle
 10
99.59310801945576
 20
291.1432782514759
 30
0.0
 40
4.0
100
AcDbArc
 50
0.000000000000007
 51
89.99998200000083
  0
LINE
  5
24DF
330
18
100
AcDbEntity
  8
4
  6
CENTER
 48
0.2
100
AcDbLine
 10
90.34311101945588
 20
287.9432782514759
 30
0.0
 11
90.34311101945588
 21
299.1432782514759
 31
0.0
  0
LINE
  5
24E0
330
18
100
AcDbEntity
  8
1
  6
Continuous
100
AcDbLine
 10
100.593111019456
 20
277.911891763379
 30
0.0
 11
100.593111019456
 21
291.1432782514759
 31
0.0
  0
LINE
  5
24E1
330
18
100
AcDbEntity
  8
1
  6
Continuous
100
AcDbLine
 10
103.5931120194562
 20
277.807260251476
 30
0.0
 11
103.5931120194562
 21
291.1432782514759
 31
0.0
  0
ARC
  5
24E2
330
18
100
AcDbEntity
  8
1
  6
Continuous
100
AcDbCircle
 10
99.5931110194561
 20
291.1432782514759
 30
0.0
 40
1.0
100
AcDbArc
 50
0.000000000000007
 51
90.0
  0
ARC
  5
24E3
330
18
100
AcDbEntity
  8
1
  6
Continuous
100
AcDbCircle
 10
76.678347019456
 20
293.9432786514757
 30
0.0
 40
5.0
100
AcDbArc
 50
270.0000199999987
 51
338.8998999999997
  0
LINE
  5
24E4
330
18
100
AcDbEntity
  8
1
  6
Continuous
100
AcDbLine
 10
36.34311101945587
 20
219.1432782514759
 30
0.0
 11
36.34311101945587
 21
292.1432782514759
 31
0.0
  0
ARC
  5
24E5
330
18
100
AcDbEntity
  8
1
  6
Continuous
100
AcDbCircle
 10
86.42086501945568
 20
282.8019352514758
 30
0.0
 40
69.5
100
AcDbArc
 50
184.0346840939962
 51
218.919309270672
  0
ARC
  5
24E6
330
18
100
AcDbEntity
  8
1
  6
Continuous
100
AcDbCircle
 10
86.42086501945568
 20
282.8019352514758
 30
0.0
 40
72.5
100
AcDbArc
 50
183.950359999999
 51
218.9193092706698
  0
ARC
  5
24E8
330
18
100
AcDbEntity
  8
1
  6
Continuous
100
AcDbCircle
 10
18.34311101945576
 20
227.8322216783136
 30
0.0
 40
15.0
100
AcDbArc
 50
0.000000000000007
 51
38.91930927066985
  0
LINE
  5
24E9
330
18
100
AcDbEntity
  8
1
  6
Continuous
100
AcDbLine
 10
31.94308694372722
 20
234.1599902312269
 30
0.0
 11
31.94308694372722
 21
224.2244392514759
 31
0.0
  0
ARC
  5
24EA
330
18
100
AcDbEntity
  8
1
  6
Continuous
100
AcDbCircle
 10
52.41262194372694
 20
232.6432782514759
 30
0.0
 40
22.56953
100
AcDbArc
 50
169.0099646494981
 51
201.9513000000013
  0
ARC
  5
24EB
330
18
100
AcDbEntity
  8
1
  6
Continuous
100
AcDbCircle
 10
18.34311101945587
 20
227.8322216783135
 30
0.0
 40
18.0
100
AcDbArc
 50
0.000000000000007
 51
38.91930927066985
  0
LINE
  5
24ED
330
18
100
AcDbEntity
  8
1
  6
Continuous
100
AcDbLine
 10
37.34311101945587
 20
216.1432782514759
 30
0.0
 11
37.34311101945611
 21
249.1432782514759
 31
0.0
  0
LINE
  5
24EE
330
18
100
AcDbEntity
  8
1
  6
Continuous
100
AcDbLine
 10
38.84311101945587
 20
199.6445871609693
 30
0.0
 11
38.84311101945587
 21
265.6419693419824
 31
0.0
  0
ARC
  5
24EF
330
18
100
AcDbEntity
  8
1
  6
Continuous
100
AcDbCircle
 10
41.84311101945588
 20
199.6445871609693
 30
0.0
 40
3.0
100
AcDbArc
 50
180.0
 51
259.9063431407739
  0
LINE
  5
24F0
330
18
100
AcDbEntity
  8
1
  6
Continuous
100
AcDbLine
 10
33.34311101945564
 20
219.1432782514759
 30
0.0
 11
33.34311101945564
 21
227.8322216783136
 31
0.0
  0
LINE
  5
24F1
330
18
100
AcDbEntity
  8
1
  6
Continuous
100
AcDbLine
 10
33.34311101945564
 20
219.1432782514759
 30
0.0
 11
36.34311101945587
 21
219.1432782514759
 31
0.0
  0
LINE
  5
24F2
330
18
100
AcDbEntity
  8
1
  6
Continuous
100
AcDbLine
 10
38.84311101945587
 20
215.1432782514759
 30
0.0
 11
38.34311101945587
 21
215.1432782514759
 31
0.0
  0
ARC
  5
24F3
330
18
100
AcDbEntity
  8
1
  6
Continuous
100
AcDbCircle
 10
38.34311101945587
 20
216.1432782514758
 30
0.0
 40
1.0
100
AcDbArc
 50
180.0
 51
270.0
  0
ARC
  5
24F4
330
18
100
AcDbEntity
  8
1
  6
Continuous
100
AcDbCircle
 10
36.54311201945603
 20
224.0432783014757
 30
0.0
 40
0.2
100
AcDbArc
 50
180.0
 51
270.0
  0
LINE
  5
24F5
330
18
100
AcDbEntity
  8
1
  6
Continuous
100
AcDbLine
 10
37.34311101945587
 20
223.8432782014758
 30
0.0
 11
36.54311201945603
 21
223.8432782014758
 31
0.0
  0
LINE
  5
24F6
330
18
100
AcDbEntity
  8
1
  6
Continuous
100
AcDbLine
 10
31.98666594372668
 20
223.8951782514762
 30
0.0
 11
33.34308794372697
 21
224.0138532514761
 31
0.0
  0
ARC
  5
24F7
330
18
100
AcDbEntity
  8
1
  6
Continuous
100
AcDbCircle
 10
31.94308694372722
 20
224.3932782514759
 30
0.0
 40
0.5
100
AcDbArc
 50
201.9513100000001
 51
274.9999999999997
  0
ARC
  5
24F8
330
18
100
AcDbEntity
  8
1
  6
Continuous
100
AcDbCircle
 10
36.54311201945603
 20
241.2432782014759
 30
0.0
 40
0.2
100
AcDbArc
 50
89.99999700000229
 51
180.0
  0
LINE
  5
24F9
330
18
100
AcDbEntity
  8
1
  6
Continuous
100
AcDbLine
 10
38.84311101945587
 20
250.1432782514757
 30
0.0
 11
38.34311101945587
 21
250.1432782514757
 31
0.0
  0
LINE
  5
24FA
330
18
100
AcDbEntity
  8
1
  6
Continuous
100
AcDbLine
 10
37.34311101945587
 20
241.443278201476
 30
0.0
 11
36.54311202992796
 21
241.443278201476
 31
0.0
  0
ARC
  5
24FB
330
18
100
AcDbEntity
  8
1
  6
Continuous
100
AcDbCircle
 10
38.34311101945587
 20
249.1432782514757
 30
0.0
 40
1.0
100
AcDbArc
 50
90.0
 51
180.0
  0
ARC
  5
24FC
330
18
100
AcDbEntity
  8
1
  6
Continuous
100
AcDbCircle
 10
41.84311101945588
 20
265.6419693419824
 30
0.0
 40
3.0
100
AcDbArc
 50
100.093656859226
 51
180.0
  0
ARC
  5
24FE
330
18
100
AcDbEntity
  8
1
  6
Continuous
100
AcDbCircle
 10
18.09311101945564
 20
291.1432782514759
 30
0.0
 40
4.0
100
AcDbArc
 50
89.99998200000083
 51
179.9999599999992
  0
LINE
  5
24FF
330
18
100
AcDbEntity
  8
4
  6
CENTER
 48
0.2
100
AcDbLine
 10
27.34311101945587
 20
287.9432782514759
 30
0.0
 11
27.34311101945587
 21
299.1432782514759
 31
0.0
  0
ARC
  5
2500
330
18
100
AcDbEntity
  8
1
  6
Continuous
100
AcDbCircle
 10
41.00787101945575
 20
293.9432786514757
 30
0.0
 40
5.0
100
AcDbArc
 50
201.1001700000001
 51
270.0000199999987
  0
LINE
  5
2501
330
18
100
AcDbEntity
  8
1
  6
Continuous
100
AcDbLine
 10
17.09311101945564
 20
277.9118917633788
 30
0.0
 11
17.09311101945564
 21
291.1432782514759
 31
0.0
  0
LINE
  5
2502
330
18
100
AcDbEntity
  8
1
  6
Continuous
100
AcDbLine
 10
14.09311101945564
 20
277.8072572514759
 30
0.0
 11
14.09311101945564
 21
291.1432782514759
 31
0.0
  0
ARC
  5
2503
330
18
100
AcDbEntity
  8
1
  6
Continuous
100
AcDbCircle
 10
18.09311101945564
 20
291.1432782514759
 30
0.0
 40
1.0
100
AcDbArc
 50
90.0
 51
180.0
  0
LINE
  5
266F
330
18
100
AcDbEntity
  8
1
  6
Continuous
100
AcDbLine
 10
184.3687455386665
 20
452.7925601537323
 30
0.0
 11
184.3687455386665
 21
454.5572801537322
 31
0.0
  0
ENDSEC
  0
SECTION
  2
OBJECTS
  0
DICTIONARY
  5
C
330
0
100
AcDbDictionary
281
     1
  3
ACAD_CIP_PREVIOUS_PRODUCT_INFO
350
26FD
  3
ACAD_COLOR
350
26E0
  3
ACAD_DETAILVIEWSTYLE
350
26F9
  3
ACAD_GROUP
350
D
  3
ACAD_LAYOUT
350
94
  3
ACAD_MATERIAL
350
26AE
  3
ACAD_MLEADERSTYLE
350
26F5
  3
ACAD_MLINESTYLE
350
1B
  3
ACAD_PLOTSETTINGS
350
95
  3
ACAD_PLOTSTYLENAME
350
26AC
  3
ACAD_SCALELIST
350
26E3
  3
ACAD_SECTIONVIEWSTYLE
350
26F7
  3
ACAD_TABLESTYLE
350
26E1
  3
ACAD_VISUALSTYLE
350
26C7
  3
ACDB_RECOMPOSE_DATA
350
271B
  3
AcDbVariableDictionary
350
270E
  3
CONTENTDICTIONARY
350
3D
  3
DWGPROPS
350
271C
  0
DICTIONARY
  5
26FE
330
E
100
AcDbDictionary
280
     1
281
     1
  3
ADSK_XREC_LAYER_RECONCILED
360
26FF
  0
DICTIONARY
  5
2700
330
4E
100
AcDbDictionary
280
     1
281
     1
  3
ADSK_XREC_LAYER_RECONCILED
360
2701
  0
DICTIONARY
  5
2702
330
4F
100
AcDbDictionary
280
     1
281
     1
  3
ADSK_XREC_LAYER_RECONCILED
360
2703
  0
DICTIONARY
  5
2704
330
50
100
AcDbDictionary
280
     1
281
     1
  3
ADSK_XREC_LAYER_RECONCILED
360
2705
  0
DICTIONARY
  5
2706
330
51
100
AcDbDictionary
280
     1
281
     1
  3
ADSK_XREC_LAYER_RECONCILED
360
2707
  0
DICTIONARY
  5
2708
330
52
100
AcDbDictionary
280
     1
281
     1
  3
ADSK_XREC_LAYER_RECONCILED
360
2709
  0
DICTIONARY
  5
270A
330
53
100
AcDbDictionary
280
     1
281
     1
  3
ADSK_XREC_LAYER_RECONCILED
360
270B
  0
DICTIONARY
  5
270C
330
54
100
AcDbDictionary
280
     1
281
     1
  3
ADSK_XREC_LAYER_RECONCILED
360
270D
  0
DICTIONARY
  5
26A7
330
18
100
AcDbDictionary
281
     1
  3
ACAD_LAYOUTSELFREF
350
26A8
  0
DICTIONARY
  5
26A5
330
15
100
AcDbDictionary
281
     1
  3
ACAD_LAYOUTSELFREF
350
26A6
  0
XRECORD
  5
26FD
102
{ACAD_REACTORS
330
C
102
}
330
C
100
AcDbXrecord
280
     1
300
ACDLT
300
2014
300
ACDLT_F_S
  0
DICTIONARY
  5
26E0
102
{ACAD_REACTORS
330
C
102
}
330
C
100
AcDbDictionary
281
     1
  0
DICTIONARY
  5
26F9
102
{ACAD_REACTORS
330
C
102
}
330
C
100
AcDbDictionary
281
     1
  3
Imperial24
350
26FA
  0
DICTIONARY
  5
D
102
{ACAD_REACTORS
330
C
102
}
330
C
100
AcDbDictionary
281
     1
  0
DICTIONARY
  5
94
102
{ACAD_REACTORS
330
C
102
}
330
C
100
AcDbDictionary
281
     1
  3
Model
350
26FB
  3
レイアウト1
350
26FC
  0
DICTIONARY
  5
26AE
102
{ACAD_REACTORS
330
C
102
}
330
C
100
AcDbDictionary
281
     1
  3
ByBlock
350
26B7
  3
ByLayer
350
26AF
  3
Global
350
26BF
  0
DICTIONARY
  5
26F5
102
{ACAD_REACTORS
330
C
102
}
330
C
100
AcDbDictionary
281
     1
  3
Standard
350
26F6
  0
DICTIONARY
  5
1B
102
{ACAD_REACTORS
330
C
102
}
330
C
100
AcDbDictionary
281
     1
  3
STANDARD
350
1C
  0
DICTIONARY
  5
95
102
{ACAD_REACTORS
330
C
102
}
330
C
100
AcDbDictionary
281
     1
  0
ACDBDICTIONARYWDFLT
  5
26AC
102
{ACAD_REACTORS
330
C
102
}
330
C
100
AcDbDictionary
281
     1
  3
Normal
350
26AD
100
AcDbDictionaryWithDefault
340
26AD
  0
DICTIONARY
  5
26E3
102
{ACAD_REACTORS
330
C
102
}
330
C
100
AcDbDictionary
281
     1
  3
A0
350
26E4
  3
A1
350
26E5
  3
A2
350
26E6
  3
A3
350
26E7
  3
A4
350
26E8
  3
A5
350
26E9
  3
A6
350
26EA
  3
A7
350
26EB
  3
A8
350
26EC
  3
A9
350
26ED
  3
B0
350
26EE
  3
B1
350
26EF
  3
B2
350
26F0
  3
B3
350
26F1
  3
B4
350
26F2
  3
B5
350
26F3
  3
B6
350
26F4
  0
DICTIONARY
  5
26F7
102
{ACAD_REACTORS
330
C
102
}
330
C
100
AcDbDictionary
281
     1
  3
Imperial24
350
26F8
  0
DICTIONARY
  5
26E1
102
{ACAD_REACTORS
330
C
102
}
330
C
100
AcDbDictionary
281
     1
  3
Standard
350
26E2
  0
DICTIONARY
  5
26C7
102
{ACAD_REACTORS
330
C
102
}
330
C
100
AcDbDictionary
281
     1
  3
2dWireframe
350
26CD
  3
Basic
350
26CC
  3
Brighten
350
26D3
  3
ColorChange
350
26D7
  3
Conceptual
350
26D0
  3
Dim
350
26D2
  3
EdgeColorOff
350
26DF
  3
Facepattern
350
26D6
  3
Flat
350
26C8
  3
FlatWithEdges
350
26C9
  3
Gouraud
350
26CA
  3
GouraudWithEdges
350
26CB
  3
Hidden
350
26CF
  3
JitterOff
350
26DD
  3
Linepattern
350
26D5
  3
OverhangOff
350
26DE
  3
Realistic
350
26D1
  3
Shaded
350
26DC
  3
Shaded with edges
350
26DB
  3
Shades of Gray
350
26D8
  3
Sketchy
350
26D9
  3
Thicken
350
26D4
  3
Wireframe
350
26CE
  3
X-Ray
350
26DA
  0
XRECORD
  5
271B
102
{ACAD_REACTORS
330
C
102
}
330
C
100
AcDbXrecord
280
     1
 90
        1
330
26E2
  0
DICTIONARY
  5
270E
102
{ACAD_REACTORS
330
C
102
}
330
C
100
AcDbDictionary
281
     1
  3
CANNOSCALE
350
2713
  3
CMLEADERSTYLE
350
2710
  3
CTABLESTYLE
350
270F
  3
CVIEWDETAILSTYLE
350
2711
  3
CVIEWSECTIONSTYLE
350
2712
  3
DIMASSOC
350
2716
  3
INDEXCTL
350
2715
  3
SORTENTS
350
2714
  3
XCLIPFRAME
350
2717
  0
DICTIONARY
  5
3D
102
{ACAD_REACTORS
330
C
102
}
330
C
100
AcDbDictionary
281
     1
  0
XRECORD
  5
271C
102
{ACAD_REACTORS
330
C
102
}
330
C
100
AcDbXrecord
280
     1
  1
DWGPROPS COOKIE
  2

  3

  4

  6

  7

  8
Yoshitsune
  9

300
=
301
=
302
=
303
=
304
=
305
=
306
=
307
=
308
=
309
=
 40
0.1335365625
 41
2454154.597648472
 42
2457192.690813785
  1

 90
        0
  0
XRECORD
  5
26FF
102
{ACAD_REACTORS
330
26FE
102
}
330
26FE
100
AcDbXrecord
280
     1
290
     1
  0
XRECORD
  5
2701
102
{ACAD_REACTORS
330
2700
102
}
330
2700
100
AcDbXrecord
280
     1
290
     1
  0
XRECORD
  5
2703
102
{ACAD_REACTORS
330
2702
102
}
330
2702
100
AcDbXrecord
280
     1
290
     1
  0
XRECORD
  5
2705
102
{ACAD_REACTORS
330
2704
102
}
330
2704
100
AcDbXrecord
280
     1
290
     1
  0
XRECORD
  5
2707
102
{ACAD_REACTORS
330
2706
102
}
330
2706
100
AcDbXrecord
280
     1
290
     1
  0
XRECORD
  5
2709
102
{ACAD_REACTORS
330
2708
102
}
330
2708
100
AcDbXrecord
280
     1
290
     1
  0
XRECORD
  5
270B
102
{ACAD_REACTORS
330
270A
102
}
330
270A
100
AcDbXrecord
280
     1
290
     1
  0
XRECORD
  5
270D
102
{ACAD_REACTORS
330
270C
102
}
330
270C
100
AcDbXrecord
280
     1
290
     1
  0
XRECORD
  5
26A8
102
{ACAD_REACTORS
330
26A7
102
}
330
26A7
100
AcDbXrecord
280
     1
340
18
  0
XRECORD
  5
26A6
102
{ACAD_REACTORS
330
26A5
102
}
330
26A5
100
AcDbXrecord
280
     1
340
15
  0
ACDBDETAILVIEWSTYLE
  5
26FA
102
{ACAD_XDICTIONARY
360
2754
102
}
102
{ACAD_REACTORS
330
26F9
102
}
330
26F9
100
AcDbModelDocViewStyle
 70
     0
  3
Imperial24
290
     0
100
AcDbDetailViewStyle
 70
     0
 71
     0
 90
        3
 71
     1
340
F
 40
0.24
340
0
 40
0.24
300

 40
0.36
280
     3
 71
     2
340
14
 90
       25
 71
     3
340
F
 40
0.24
 90
        1
 40
0.75
 90
        1
300
%<\AcVar ViewType \f "%tc1">% %<\AcVar ViewDetailId>%\PSCALE %<\AcVar ViewScale \f "%sn">%
 71
     4
340
14
 90
       25
340
14
 90
       25
280
     0
  0
LAYOUT
  5
26FB
102
{ACAD_XDICTIONARY
360
2756
102
}
102
{ACAD_REACTORS
330
94
102
}
330
94
100
AcDbPlotSettings
  1

  2
Canon LBP9100C
  4

  6

 40
0.0
 41
0.0
 42
0.0
 43
0.0
 44
0.0
 45
0.0
 46
0.0
 47
0.0
 48
0.0
 49
0.0
140
0.0
141
0.0
142
1.0
143
1.0
 70
  1712
 72
     0
 73
     0
 74
     0
  7

 75
     0
147
1.0
148
0.0
149
0.0
100
AcDbLayout
  1
Model
 70
     1
 71
     0
 10
0.0
 20
0.0
 11
12.0
 21
9.0
 12
0.0
 22
0.0
 32
0.0
 14
0.0
 24
0.0
 34
0.0
 15
0.0
 25
0.0
 35
0.0
146
0.0
 13
0.0
 23
0.0
 33
0.0
 16
1.0
 26
0.0
 36
0.0
 17
0.0
 27
1.0
 37
0.0
 76
     0
330
18
331
26A4
  0
LAYOUT
  5
26FC
102
{ACAD_XDICTIONARY
360
2758
102
}
102
{ACAD_REACTORS
330
94
102
}
330
94
100
AcDbPlotSettings
  1

  2
Canon LBP9100C
  4

  6

 40
0.0
 41
0.0
 42
0.0
 43
0.0
 44
0.0
 45
0.0
 46
0.0
 47
0.0
 48
0.0
 49
0.0
140
0.0
141
0.0
142
1.0
143
1.0
 70
   688
 72
     0
 73
     0
 74
     5
  7

 75
    16
147
1.0
148
0.0
149
0.0
100
AcDbLayout
  1
レイアウト1
 70
     1
 71
     1
 10
0.0
 20
0.0
 11
420.0
 21
297.0
 12
0.0
 22
0.0
 32
0.0
 14
1.000000000000000E+20
 24
1.000000000000000E+20
 34
1.000000000000000E+20
 15
-1.000000000000000E+20
 25
-1.000000000000000E+20
 35
-1.000000000000000E+20
146
0.0
 13
0.0
 23
0.0
 33
0.0
 16
1.0
 26
0.0
 36
0.0
 17
0.0
 27
1.0
 37
0.0
 76
     0
330
15
  0
MATERIAL
  5
26B7
102
{ACAD_XDICTIONARY
360
26B8
102
}
102
{ACAD_REACTORS
330
26AE
102
}
330
26AE
100
AcDbMaterial
  1
ByBlock
 72
     0
 43
0.0208333333333333
 43
0.0
 43
0.0
 43
0.0
 43
0.0
 43
0.0208333333333333
 43
0.0
 43
0.0
 43
0.0
 43
0.0
 43
1.0
 43
0.0
 43
0.0
 43
0.0
 43
0.0
 43
1.0
 77
     0
 47
0.0208333333333333
 47
0.0
 47
0.0
 47
0.0
 47
0.0
 47
0.0208333333333333
 47
0.0
 47
0.0
 47
0.0
 47
0.0
 47
1.0
 47
0.0
 47
0.0
 47
0.0
 47
0.0
 47
1.0
171
     0
 49
0.0208333333333333
 49
0.0
 49
0.0
 49
0.0
 49
0.0
 49
0.0208333333333333
 49
0.0
 49
0.0
 49
0.0
 49
0.0
 49
1.0
 49
0.0
 49
0.0
 49
0.0
 49
0.0
 49
1.0
175
     0
142
0.0208333333333333
142
0.0
142
0.0
142
0.0
142
0.0
142
0.0208333333333333
142
0.0
142
0.0
142
0.0
142
0.0
142
1.0
142
0.0
142
0.0
142
0.0
142
0.0
142
1.0
179
     0
144
0.0208333333333333
144
0.0
144
0.0
144
0.0
144
0.0
144
0.0208333333333333
144
0.0
144
0.0
144
0.0
144
0.0
144
1.0
144
0.0
144
0.0
144
0.0
144
0.0
144
1.0
147
0.0208333333333333
147
0.0
147
0.0
147
0.0
147
0.0
147
0.0208333333333333
147
0.0
147
0.0
147
0.0
147
0.0
147
1.0
147
0.0
147
0.0
147
0.0
147
0.0
147
1.0
  0
MATERIAL
  5
26AF
102
{ACAD_XDICTIONARY
360
26B0
102
}
102
{ACAD_REACTORS
330
26AE
102
}
330
26AE
100
AcDbMaterial
  1
ByLayer
 72
     0
 43
0.0208333333333333
 43
0.0
 43
0.0
 43
0.0
 43
0.0
 43
0.0208333333333333
 43
0.0
 43
0.0
 43
0.0
 43
0.0
 43
1.0
 43
0.0
 43
0.0
 43
0.0
 43
0.0
 43
1.0
 77
     0
 47
0.0208333333333333
 47
0.0
 47
0.0
 47
0.0
 47
0.0
 47
0.0208333333333333
 47
0.0
 47
0.0
 47
0.0
 47
0.0
 47
1.0
 47
0.0
 47
0.0
 47
0.0
 47
0.0
 47
1.0
171
     0
 49
0.0208333333333333
 49
0.0
 49
0.0
 49
0.0
 49
0.0
 49
0.0208333333333333
 49
0.0
 49
0.0
 49
0.0
 49
0.0
 49
1.0
 49
0.0
 49
0.0
 49
0.0
 49
0.0
 49
1.0
175
     0
142
0.0208333333333333
142
0.0
142
0.0
142
0.0
142
0.0
142
0.0208333333333333
142
0.0
142
0.0
142
0.0
142
0.0
142
1.0
142
0.0
142
0.0
142
0.0
142
0.0
142
1.0
179
     0
144
0.0208333333333333
144
0.0
144
0.0
144
0.0
144
0.0
144
0.0208333333333333
144
0.0
144
0.0
144
0.0
144
0.0
144
1.0
144
0.0
144
0.0
144
0.0
144
0.0
144
1.0
147
0.0208333333333333
147
0.0
147
0.0
147
0.0
147
0.0
147
0.0208333333333333
147
0.0
147
0.0
147
0.0
147
0.0
147
1.0
147
0.0
147
0.0
147
0.0
147
0.0
147
1.0
  0
MATERIAL
  5
26BF
102
{ACAD_XDICTIONARY
360
26C0
102
}
102
{ACAD_REACTORS
330
26AE
102
}
330
26AE
100
AcDbMaterial
  1
Global
 72
     0
 43
0.0208333333333333
 43
0.0
 43
0.0
 43
0.0
 43
0.0
 43
0.0208333333333333
 43
0.0
 43
0.0
 43
0.0
 43
0.0
 43
1.0
 43
0.0
 43
0.0
 43
0.0
 43
0.0
 43
1.0
 77
     0
 47
0.0208333333333333
 47
0.0
 47
0.0
 47
0.0
 47
0.0
 47
0.0208333333333333
 47
0.0
 47
0.0
 47
0.0
 47
0.0
 47
1.0
 47
0.0
 47
0.0
 47
0.0
 47
0.0
 47
1.0
171
     0
 49
0.0208333333333333
 49
0.0
 49
0.0
 49
0.0
 49
0.0
 49
0.0208333333333333
 49
0.0
 49
0.0
 49
0.0
 49
0.0
 49
1.0
 49
0.0
 49
0.0
 49
0.0
 49
0.0
 49
1.0
175
     0
142
0.0208333333333333
142
0.0
142
0.0
142
0.0
142
0.0
142
0.0208333333333333
142
0.0
142
0.0
142
0.0
142
0.0
142
1.0
142
0.0
142
0.0
142
0.0
142
0.0
142
1.0
179
     0
144
0.0208333333333333
144
0.0
144
0.0
144
0.0
144
0.0
144
0.0208333333333333
144
0.0
144
0.0
144
0.0
144
0.0
144
1.0
144
0.0
144
0.0
144
0.0
144
0.0
144
1.0
147
0.0208333333333333
147
0.0
147
0.0
147
0.0
147
0.0
147
0.0208333333333333
147
0.0
147
0.0
147
0.0
147
0.0
147
1.0
147
0.0
147
0.0
147
0.0
147
0.0
147
1.0
  0
MLEADERSTYLE
  5
26F6
102
{ACAD_REACTORS
330
26F5
102
}
330
26F5
100
AcDbMLeaderStyle
170
     2
171
     1
172
     0
 90
        2
 40
0.0
 41
0.0
173
     1
 91
-1056964608
340
12
 92
       -2
290
     1
 42
0.09
291
     1
 43
0.36
  3
Standard
 44
0.18
300

342
F
174
     1
178
     6
175
     1
176
     0
 93
-1056964608
 45
0.18
292
     0
297
     0
 46
0.18
 94
-1056964608
 47
1.0
 49
1.0
140
1.0
293
     1
141
0.0
294
     1
177
     0
142
1.0
295
     0
296
     0
143
0.125
1001
ACAD_MLEADERVER
1070
     2
  0
MLINESTYLE
  5
1C
102
{ACAD_REACTORS
330
1B
102
}
330
1B
100
AcDbMlineStyle
  2
STANDARD
 70
     0
  3

 62
   256
 51
90.0
 52
90.0
 71
     2
 49
0.5
 62
   256
  6
BYLAYER
 49
-0.5
 62
   256
  6
BYLAYER
  0
ACDBPLACEHOLDER
  5
26AD
102
{ACAD_REACTORS
330
26AC
102
}
330
26AC
  0
SCALE
  5
26E4
102
{ACAD_REACTORS
330
26E3
102
}
330
26E3
100
AcDbScale
 70
     0
300
1:1
140
1.0
141
1.0
290
     1
  0
SCALE
  5
26E5
102
{ACAD_REACTORS
330
26E3
102
}
330
26E3
100
AcDbScale
 70
     0
300
1/128" = 1'-0"
140
0.0078125
141
12.0
290
     0
  0
SCALE
  5
26E6
102
{ACAD_REACTORS
330
26E3
102
}
330
26E3
100
AcDbScale
 70
     0
300
1/64" = 1'-0"
140
0.015625
141
12.0
290
     0
  0
SCALE
  5
26E7
102
{ACAD_REACTORS
330
26E3
102
}
330
26E3
100
AcDbScale
 70
     0
300
1/32" = 1'-0"
140
0.03125
141
12.0
290
     0
  0
SCALE
  5
26E8
102
{ACAD_REACTORS
330
26E3
102
}
330
26E3
100
AcDbScale
 70
     0
300
1/16" = 1'-0"
140
0.0625
141
12.0
290
     0
  0
SCALE
  5
26E9
102
{ACAD_REACTORS
330
26E3
102
}
330
26E3
100
AcDbScale
 70
     0
300
3/32" = 1'-0"
140
0.09375
141
12.0
290
     0
  0
SCALE
  5
26EA
102
{ACAD_REACTORS
330
26E3
102
}
330
26E3
100
AcDbScale
 70
     0
300
1/8" = 1'-0"
140
0.125
141
12.0
290
     0
  0
SCALE
  5
26EB
102
{ACAD_REACTORS
330
26E3
102
}
330
26E3
100
AcDbScale
 70
     0
300
3/16" = 1'-0"
140
0.1875
141
12.0
290
     0
  0
SCALE
  5
26EC
102
{ACAD_REACTORS
330
26E3
102
}
330
26E3
100
AcDbScale
 70
     0
300
1/4" = 1'-0"
140
0.25
141
12.0
290
     0
  0
SCALE
  5
26ED
102
{ACAD_REACTORS
330
26E3
102
}
330
26E3
100
AcDbScale
 70
     0
300
3/8" = 1'-0"
140
0.375
141
12.0
290
     0
  0
SCALE
  5
26EE
102
{ACAD_REACTORS
330
26E3
102
}
330
26E3
100
AcDbScale
 70
     0
300
1/2" = 1'-0"
140
0.5
141
12.0
290
     0
  0
SCALE
  5
26EF
102
{ACAD_REACTORS
330
26E3
102
}
330
26E3
100
AcDbScale
 70
     0
300
3/4" = 1'-0"
140
0.75
141
12.0
290
     0
  0
SCALE
  5
26F0
102
{ACAD_REACTORS
330
26E3
102
}
330
26E3
100
AcDbScale
 70
     0
300
1" = 1'-0"
140
1.0
141
12.0
290
     0
  0
SCALE
  5
26F1
102
{ACAD_REACTORS
330
26E3
102
}
330
26E3
100
AcDbScale
 70
     0
300
1-1/2" = 1'-0"
140
1.5
141
12.0
290
     0
  0
SCALE
  5
26F2
102
{ACAD_REACTORS
330
26E3
102
}
330
26E3
100
AcDbScale
 70
     0
300
3" = 1'-0"
140
3.0
141
12.0
290
     0
  0
SCALE
  5
26F3
102
{ACAD_REACTORS
330
26E3
102
}
330
26E3
100
AcDbScale
 70
     0
300
6" = 1'-0"
140
6.0
141
12.0
290
     0
  0
SCALE
  5
26F4
102
{ACAD_REACTORS
330
26E3
102
}
330
26E3
100
AcDbScale
 70
     0
300
1'-0" = 1'-0"
140
12.0
141
12.0
290
     0
  0
ACDBSECTIONVIEWSTYLE
  5
26F8
102
{ACAD_XDICTIONARY
360
2752
102
}
102
{ACAD_REACTORS
330
26F7
102
}
330
26F7
100
AcDbModelDocViewStyle
 70
     0
  3
Imperial24
290
     0
100
AcDbSectionViewStyle
 70
     0
 71
     0
 90
       78
 71
     1
340
F
 40
0.24
340
0
340
0
 40
0.24
300
I, O, Q, S, X, Z
 40
0.48
 90
        3
 40
0.18
 90
        1
 71
     2
340
14
 90
       25
340
14
 90
       50
 40
0.24
 40
0.0
 40
0.24
 71
     3
340
F
 40
0.24
 90
        1
 40
0.75
 90
        1
300
%<\AcVar ViewType \f "%tc1">% %<\AcVar ViewSectionStartId>%-%<\AcVar ViewSectionEndId>%\PSCALE %<\AcVar ViewScale \f "%sn">%
 71
     4
300
ANSI31
 40
1.0
 90
        0
290
     0
290
     0
 90
        6
 40
0.0
 40
1.570796326794896
 40
0.2617993877991494
 40
1.308996938995747
 40
-0.2617993877991494
 40
1.832595714594046
  0
TABLESTYLE
  5
26E2
102
{ACAD_XDICTIONARY
360
2719
102
}
102
{ACAD_REACTORS
330
26E1
102
}
330
26E1
100
AcDbTableStyle
  3
Standard
 70
     0
 71
     0
 40
0.06
 41
0.06
280
     0
281
     0
  7
STANDARD
140
0.18
170
     2
 62
     0
 63
     7
283
     0
274
    -2
284
     1
 64
     0
275
    -2
285
     1
 65
     0
276
    -2
286
     1
 66
     0
277
    -2
287
     1
 67
     0
278
    -2
288
     1
 68
     0
279
    -2
289
     1
 69
     0
  7
STANDARD
140
0.25
170
     5
 62
     0
 63
     7
283
     0
274
    -2
284
     1
 64
     0
275
    -2
285
     1
 65
     0
276
    -2
286
     1
 66
     0
277
    -2
287
     1
 67
     0
278
    -2
288
     1
 68
     0
279
    -2
289
     1
 69
     0
  7
STANDARD
140
0.18
170
     5
 62
     0
 63
     7
283
     0
274
    -2
284
     1
 64
     0
275
    -2
285
     1
 65
     0
276
    -2
286
     1
 66
     0
277
    -2
287
     1
 67
     0
278
    -2
288
     1
 68
     0
279
    -2
289
     1
 69
     0
  0
VISUALSTYLE
  5
26CD
102
{ACAD_XDICTIONARY
360
272A
102
}
102
{ACAD_REACTORS
330
26C7
102
}
330
26C7
100
AcDbVisualStyle
  2
2dWireframe
 70
     4
 71
     0
 72
     2
 73
     0
 90
        0
 40
-0.6
 41
-30.0
 62
     5
 63
     7
 74
     1
 91
        4
 64
     7
 65
   257
 75
     1
175
     1
 42
1.0
 92
        0
 66
   257
 43
1.0
 76
     1
 77
     6
 78
     2
 67
     7
 79
     5
170
     0
171
     0
290
     0
174
     0
 93
        1
 44
0.0
173
     0
291
     0
 45
0.0
1001
ACAD
1000
AcDbSavedByObjectVersion
1070
     0
  0
VISUALSTYLE
  5
26CC
102
{ACAD_XDICTIONARY
360
2728
102
}
102
{ACAD_REACTORS
330
26C7
102
}
330
26C7
100
AcDbVisualStyle
  2
Basic
 70
     7
 71
     1
 72
     0
 73
     1
 90
        0
 40
-0.6
 41
-30.0
 62
     5
 63
     7
 74
     0
 91
        4
 64
     7
 65
   257
 75
     1
175
     1
 42
1.0
 92
        8
 66
     7
 43
1.0
 76
     1
 77
     6
 78
     2
 67
     7
 79
     5
170
     0
171
     0
290
     0
174
     0
 93
        1
 44
0.0
173
     0
291
     1
 45
0.0
1001
ACAD
1000
AcDbSavedByObjectVersion
1070
     0
  0
VISUALSTYLE
  5
26D3
102
{ACAD_XDICTIONARY
360
2736
102
}
102
{ACAD_REACTORS
330
26C7
102
}
330
26C7
100
AcDbVisualStyle
  2
Brighten
 70
    12
 71
     2
 72
     2
 73
     0
 90
        0
 40
-0.6
 41
-30.0
 62
     5
 63
     7
 74
     1
 91
        4
 64
     7
 65
   257
 75
     1
175
     1
 42
1.0
 92
        8
 66
     7
 43
1.0
 76
     1
 77
     6
 78
     2
 67
     7
 79
     5
170
     0
171
     0
290
     0
174
     0
 93
        1
 44
50.0
173
     0
291
     1
 45
0.0
1001
ACAD
1000
AcDbSavedByObjectVersion
1070
     0
  0
VISUALSTYLE
  5
26D7
102
{ACAD_XDICTIONARY
360
273E
102
}
102
{ACAD_REACTORS
330
26C7
102
}
330
26C7
100
AcDbVisualStyle
  2
ColorChange
 70
    16
 71
     2
 72
     2
 73
     3
 90
        0
 40
-0.6
 41
-30.0
 62
     5
 63
     8
 74
     1
 91
        4
 64
     7
 65
   257
 75
     1
175
     1
 42
1.0
 92
        8
 66
     8
 43
1.0
 76
     1
 77
     6
 78
     2
 67
     7
 79
     5
170
     0
171
     0
290
     0
174
     0
 93
        1
 44
0.0
173
     0
291
     1
 45
0.0
1001
ACAD
1000
AcDbSavedByObjectVersion
1070
     0
  0
VISUALSTYLE
  5
26D0
102
{ACAD_XDICTIONARY
360
2730
102
}
102
{ACAD_REACTORS
330
26C7
102
}
330
26C7
100
AcDbVisualStyle
  2
Conceptual
 70
     9
 71
     3
 72
     2
 73
     0
 90
        0
 40
-0.6
 41
-30.0
 62
     5
 63
     7
 74
     2
 91
        2
 64
     7
 65
   257
 75
     1
175
     1
 42
179.0
 92
        8
 66
     7
 43
1.0
 76
     1
 77
     6
 78
     2
 67
     7
 79
     3
170
     0
171
     0
290
     0
174
     0
 93
        1
 44
0.0
173
     0
291
     0
 45
0.0
1001
ACAD
1000
AcDbSavedByObjectVersion
1070
     0
  0
VISUALSTYLE
  5
26D2
102
{ACAD_XDICTIONARY
360
2734
102
}
102
{ACAD_REACTORS
330
26C7
102
}
330
26C7
100
AcDbVisualStyle
  2
Dim
 70
    11
 71
     2
 72
     2
 73
     0
 90
        0
 40
-0.6
 41
-30.0
 62
     5
 63
     7
 74
     1
 91
        4
 64
     7
 65
   257
 75
     1
175
     1
 42
1.0
 92
        8
 66
     7
 43
1.0
 76
     1
 77
     6
 78
     2
 67
     7
 79
     5
170
     0
171
     0
290
     0
174
     0
 93
        1
 44
-50.0
173
     0
291
     1
 45
0.0
1001
ACAD
1000
AcDbSavedByObjectVersion
1070
     0
  0
VISUALSTYLE
  5
26DF
102
{ACAD_XDICTIONARY
360
274E
102
}
102
{ACAD_REACTORS
330
26C7
102
}
330
26C7
100
AcDbVisualStyle
  2
EdgeColorOff
 70
    22
 71
     2
 72
     2
 73
     0
 90
        0
 40
-0.6
 41
-30.0
 62
     5
 63
     7
 74
     1
 91
        4
 64
     7
 65
   257
 75
     1
175
     1
 42
1.0
 92
        8
 66
     7
 43
1.0
 76
     1
 77
     6
 78
     2
 67
     7
 79
     5
170
     0
171
     0
290
     0
174
     0
 93
        1
 44
0.0
173
     0
291
     1
 45
0.0
1001
ACAD
1000
AcDbSavedByObjectVersion
1070
     0
  0
VISUALSTYLE
  5
26D6
102
{ACAD_XDICTIONARY
360
273C
102
}
102
{ACAD_REACTORS
330
26C7
102
}
330
26C7
100
AcDbVisualStyle
  2
Facepattern
 70
    15
 71
     2
 72
     2
 73
     0
 90
        0
 40
-0.6
 41
-30.0
 62
     5
 63
     7
 74
     1
 91
        4
 64
     7
 65
   257
 75
     1
175
     1
 42
1.0
 92
        8
 66
     7
 43
1.0
 76
     1
 77
     6
 78
     2
 67
     7
 79
     5
170
     0
171
     0
290
     0
174
     0
 93
        1
 44
0.0
173
     0
291
     1
 45
0.0
1001
ACAD
1000
AcDbSavedByObjectVersion
1070
     0
  0
VISUALSTYLE
  5
26C8
102
{ACAD_XDICTIONARY
360
2720
102
}
102
{ACAD_REACTORS
330
26C7
102
}
330
26C7
100
AcDbVisualStyle
  2
Flat
 70
     0
 71
     2
 72
     1
 73
     1
 90
        2
 40
-0.6
 41
30.0
 62
     5
 63
     7
 74
     0
 91
        0
 64
     7
 65
   257
 75
     1
175
     1
 42
1.0
 92
        8
 66
     7
 43
1.0
 76
     1
 77
     6
 78
     2
 67
     7
 79
     5
170
     0
171
     0
290
     0
174
     0
 93
       13
 44
0.0
173
     0
291
     1
 45
0.0
1001
ACAD
1000
AcDbSavedByObjectVersion
1070
     0
  0
VISUALSTYLE
  5
26C9
102
{ACAD_XDICTIONARY
360
2722
102
}
102
{ACAD_REACTORS
330
26C7
102
}
330
26C7
100
AcDbVisualStyle
  2
FlatWithEdges
 70
     1
 71
     2
 72
     1
 73
     1
 90
        2
 40
-0.6
 41
30.0
 62
     5
 63
     7
 74
     1
 91
        0
 64
     7
 65
   257
 75
     1
175
     1
 42
1.0
 92
        0
 66
   257
 43
1.0
 76
     1
 77
     6
 78
     2
 67
     7
 79
     5
170
     0
171
     0
290
     0
174
     0
 93
       13
 44
0.0
173
     0
291
     1
 45
0.0
1001
ACAD
1000
AcDbSavedByObjectVersion
1070
     0
  0
VISUALSTYLE
  5
26CA
102
{ACAD_XDICTIONARY
360
2724
102
}
102
{ACAD_REACTORS
330
26C7
102
}
330
26C7
100
AcDbVisualStyle
  2
Gouraud
 70
     2
 71
     2
 72
     2
 73
     1
 90
        2
 40
-0.6
 41
30.0
 62
     5
 63
     7
 74
     0
 91
        0
 64
     7
 65
   257
 75
     1
175
     1
 42
1.0
 92
        0
 66
     7
 43
1.0
 76
     1
 77
     6
 78
     2
 67
     7
 79
     5
170
     0
171
     0
290
     0
174
     0
 93
       13
 44
0.0
173
     0
291
     1
 45
0.0
1001
ACAD
1000
AcDbSavedByObjectVersion
1070
     0
  0
VISUALSTYLE
  5
26CB
102
{ACAD_XDICTIONARY
360
2726
102
}
102
{ACAD_REACTORS
330
26C7
102
}
330
26C7
100
AcDbVisualStyle
  2
GouraudWithEdges
 70
     3
 71
     2
 72
     2
 73
     1
 90
        2
 40
-0.6
 41
30.0
 62
     5
 63
     7
 74
     1
 91
        0
 64
     7
 65
   257
 75
     1
175
     1
 42
1.0
 92
        0
 66
   257
 43
1.0
 76
     1
 77
     6
 78
     2
 67
     7
 79
     5
170
     0
171
     0
290
     0
174
     0
 93
       13
 44
0.0
173
     0
291
     1
 45
0.0
1001
ACAD
1000
AcDbSavedByObjectVersion
1070
     0
  0
VISUALSTYLE
  5
26CF
102
{ACAD_XDICTIONARY
360
272E
102
}
102
{ACAD_REACTORS
330
26C7
102
}
330
26C7
100
AcDbVisualStyle
  2
Hidden
 70
     6
 71
     1
 72
     2
 73
     2
 90
        0
 40
-0.6
 41
-30.0
 62
     5
 63
     7
 74
     2
 91
        2
 64
     7
 65
   257
 75
     2
175
     1
 42
40.0
 92
        0
 66
   257
 43
1.0
 76
     1
 77
     6
 78
     2
 67
     7
 79
     3
170
     0
171
     0
290
     0
174
     0
 93
        1
 44
0.0
173
     0
291
     0
 45
0.0
1001
ACAD
1000
AcDbSavedByObjectVersion
1070
     0
  0
VISUALSTYLE
  5
26DD
102
{ACAD_XDICTIONARY
360
274A
102
}
102
{ACAD_REACTORS
330
26C7
102
}
330
26C7
100
AcDbVisualStyle
  2
JitterOff
 70
    20
 71
     2
 72
     2
 73
     0
 90
        0
 40
-0.6
 41
-30.0
 62
     5
 63
     7
 74
     1
 91
        4
 64
     7
 65
   257
 75
     1
175
     1
 42
1.0
 92
       10
 66
     7
 43
1.0
 76
     1
 77
     6
 78
     2
 67
     7
 79
     5
170
     0
171
     0
290
     0
174
     0
 93
        1
 44
0.0
173
     0
291
     1
 45
0.0
1001
ACAD
1000
AcDbSavedByObjectVersion
1070
     0
  0
VISUALSTYLE
  5
26D5
102
{ACAD_XDICTIONARY
360
273A
102
}
102
{ACAD_REACTORS
330
26C7
102
}
330
26C7
100
AcDbVisualStyle
  2
Linepattern
 70
    14
 71
     2
 72
     2
 73
     0
 90
        0
 40
-0.6
 41
-30.0
 62
     5
 63
     7
 74
     1
 91
        4
 64
     7
 65
   257
 75
     7
175
     7
 42
1.0
 92
        8
 66
     7
 43
1.0
 76
     1
 77
     6
 78
     2
 67
     7
 79
     5
170
     0
171
     0
290
     0
174
     0
 93
        1
 44
0.0
173
     0
291
     1
 45
0.0
1001
ACAD
1000
AcDbSavedByObjectVersion
1070
     0
  0
VISUALSTYLE
  5
26DE
102
{ACAD_XDICTIONARY
360
274C
102
}
102
{ACAD_REACTORS
330
26C7
102
}
330
26C7
100
AcDbVisualStyle
  2
OverhangOff
 70
    21
 71
     2
 72
     2
 73
     0
 90
        0
 40
-0.6
 41
-30.0
 62
     5
 63
     7
 74
     1
 91
        4
 64
     7
 65
   257
 75
     1
175
     1
 42
1.0
 92
        9
 66
     7
 43
1.0
 76
     1
 77
     6
 78
     2
 67
     7
 79
     5
170
     0
171
     0
290
     0
174
     0
 93
        1
 44
0.0
173
     0
291
     1
 45
0.0
1001
ACAD
1000
AcDbSavedByObjectVersion
1070
     0
  0
VISUALSTYLE
  5
26D1
102
{ACAD_XDICTIONARY
360
2732
102
}
102
{ACAD_REACTORS
330
26C7
102
}
330
26C7
100
AcDbVisualStyle
  2
Realistic
 70
     8
 71
     2
 72
     3
 73
     0
 90
        2
 40
-0.6
 41
30.0
 62
     5
 63
     7
 74
     0
 91
        0
 64
     7
 65
   257
 75
     1
175
     1
 42
1.0
 92
        8
 66
   257
 43
1.0
 76
     1
 77
     6
 78
     2
 67
     7
 79
     3
170
     0
171
     0
290
     0
174
     0
 93
       13
 44
0.0
173
     0
291
     0
 45
0.0
1001
ACAD
1000
AcDbSavedByObjectVersion
1070
     0
  0
VISUALSTYLE
  5
26DC
102
{ACAD_XDICTIONARY
360
2748
102
}
102
{ACAD_REACTORS
330
26C7
102
}
330
26C7
100
AcDbVisualStyle
  2
Shaded
 70
    27
 71
     2
 72
     2
 73
     1
 90
        2
 40
-0.6
 41
30.0
 62
     5
 63
     7
 74
     0
 91
        4
 64
     7
 65
   257
 75
     1
175
     1
 42
1.0
 92
        8
 66
   257
 43
1.0
 76
     1
 77
     6
 78
     2
 67
     8
 79
     3
170
     0
171
     0
290
     0
174
     0
 93
        5
 44
0.0
173
     0
291
     0
 45
0.0
1001
ACAD
1000
AcDbSavedByObjectVersion
1070
     0
  0
VISUALSTYLE
  5
26DB
102
{ACAD_XDICTIONARY
360
2746
102
}
102
{ACAD_REACTORS
330
26C7
102
}
330
26C7
100
AcDbVisualStyle
  2
Shaded with edges
 70
    26
 71
     2
 72
     2
 73
     1
 90
        2
 40
-0.6
 41
30.0
 62
     5
 63
     7
 74
     1
 91
       10
 64
     7
 65
   257
 75
     2
175
     1
 42
1.0
 92
        8
 66
   257
 43
1.0
 76
     1
 77
     6
 78
     2
 67
     7
 79
     3
170
     0
171
     0
290
     0
174
     0
 93
        5
 44
0.0
173
     0
291
     0
 45
0.0
1001
ACAD
1000
AcDbSavedByObjectVersion
1070
     0
  0
VISUALSTYLE
  5
26D8
102
{ACAD_XDICTIONARY
360
2740
102
}
102
{ACAD_REACTORS
330
26C7
102
}
330
26C7
100
AcDbVisualStyle
  2
Shades of Gray
 70
    23
 71
     2
 72
     2
 73
     3
 90
        0
 40
-0.6
 41
-30.0
 62
     5
 63
     7
 74
     2
 91
        2
 64
     7
 65
     7
 75
     1
175
     1
 42
40.0
 92
        8
 66
     7
 43
1.0
 76
     1
 77
     6
 78
     2
 67
     7
 79
     3
170
     0
171
     0
290
     0
174
     0
 93
        1
 44
0.0
173
     0
291
     0
 45
0.0
1001
ACAD
1000
AcDbSavedByObjectVersion
1070
     0
  0
VISUALSTYLE
  5
26D9
102
{ACAD_XDICTIONARY
360
2742
102
}
102
{ACAD_REACTORS
330
26C7
102
}
330
26C7
100
AcDbVisualStyle
  2
Sketchy
 70
    24
 71
     1
 72
     2
 73
     2
 90
        0
 40
-0.6
 41
-30.0
 62
     5
 63
     7
 74
     2
 91
        2
 64
     7
 65
     7
 75
     1
175
     1
 42
40.0
 92
       11
 66
     7
 43
1.0
 76
     1
 77
     6
 78
     2
 67
     7
 79
     6
170
     0
171
     0
290
     0
174
     0
 93
        1
 44
0.0
173
     0
291
     0
 45
0.0
1001
ACAD
1000
AcDbSavedByObjectVersion
1070
     0
  0
VISUALSTYLE
  5
26D4
102
{ACAD_XDICTIONARY
360
2738
102
}
102
{ACAD_REACTORS
330
26C7
102
}
330
26C7
100
AcDbVisualStyle
  2
Thicken
 70
    13
 71
     2
 72
     2
 73
     0
 90
        0
 40
-0.6
 41
-30.0
 62
     5
 63
     7
 74
     1
 91
        4
 64
     7
 65
   257
 75
     1
175
     1
 42
1.0
 92
       12
 66
     7
 43
1.0
 76
     1
 77
     6
 78
     2
 67
     7
 79
     5
170
     0
171
     0
290
     0
174
     0
 93
        1
 44
0.0
173
     0
291
     1
 45
0.0
1001
ACAD
1000
AcDbSavedByObjectVersion
1070
     0
  0
VISUALSTYLE
  5
26CE
102
{ACAD_XDICTIONARY
360
272C
102
}
102
{ACAD_REACTORS
330
26C7
102
}
330
26C7
100
AcDbVisualStyle
  2
Wireframe
 70
     5
 71
     0
 72
     2
 73
     0
 90
        0
 40
-0.6
 41
-30.0
 62
     5
 63
     7
 74
     1
 91
        4
 64
     7
 65
   257
 75
     1
175
     1
 42
1.0
 92
        0
 66
   257
 43
1.0
 76
     1
 77
     6
 78
     2
 67
     7
 79
     3
170
     0
171
     0
290
     0
174
     0
 93
        1
 44
0.0
173
     0
291
     0
 45
0.0
1001
ACAD
1000
AcDbSavedByObjectVersion
1070
     0
  0
VISUALSTYLE
  5
26DA
102
{ACAD_XDICTIONARY
360
2744
102
}
102
{ACAD_REACTORS
330
26C7
102
}
330
26C7
100
AcDbVisualStyle
  2
X-Ray
 70
    25
 71
     2
 72
     2
 73
     1
 90
        1
 40
0.5
 41
-30.0
 62
     5
 63
     7
 74
     1
 91
        0
 64
     7
 65
   257
 75
     1
175
     1
 42
1.0
 92
        8
 66
     7
 43
1.0
 76
     1
 77
     6
 78
     2
 67
     7
 79
     3
170
     0
171
     0
290
     0
174
     0
 93
       13
 44
0.0
173
     0
291
     0
 45
0.0
1001
ACAD
1000
AcDbSavedByObjectVersion
1070
     0
  0
DICTIONARYVAR
  5
2713
102
{ACAD_REACTORS
330
270E
102
}
330
270E
100
DictionaryVariables
280
     0
  1
1:1
  0
DICTIONARYVAR
  5
2710
102
{ACAD_REACTORS
330
270E
102
}
330
270E
100
DictionaryVariables
280
     0
  1
STANDARD
  0
DICTIONARYVAR
  5
270F
102
{ACAD_REACTORS
330
270E
102
}
330
270E
100
DictionaryVariables
280
     0
  1
STANDARD
  0
DICTIONARYVAR
  5
2711
102
{ACAD_REACTORS
330
270E
102
}
330
270E
100
DictionaryVariables
280
     0
  1
Imperial24
  0
DICTIONARYVAR
  5
2712
102
{ACAD_REACTORS
330
270E
102
}
330
270E
100
DictionaryVariables
280
     0
  1
Imperial24
  0
DICTIONARYVAR
  5
2716
102
{ACAD_REACTORS
330
270E
102
}
330
270E
100
DictionaryVariables
280
     0
  1
1
  0
DICTIONARYVAR
  5
2715
102
{ACAD_REACTORS
330
270E
102
}
330
270E
100
DictionaryVariables
280
     0
  1
0
  0
DICTIONARYVAR
  5
2714
102
{ACAD_REACTORS
330
270E
102
}
330
270E
100
DictionaryVariables
280
     0
  1
127
  0
DICTIONARYVAR
  5
2717
102
{ACAD_REACTORS
330
270E
102
}
330
270E
100
DictionaryVariables
280
     0
  1
2
  0
DICTIONARY
  5
2754
330
26FA
100
AcDbDictionary
280
     1
281
     1
  3
ACAD_XREC_ROUNDTRIP
360
2755
  0
DICTIONARY
  5
2756
330
26FB
100
AcDbDictionary
280
     1
281
     1
  3
ACAD_XREC_ROUNDTRIP
360
2757
  0
DICTIONARY
  5
2758
330
26FC
100
AcDbDictionary
280
     1
281
     1
  3
ACAD_XREC_ROUNDTRIP
360
2759
  0
DICTIONARY
  5
26B8
330
26B7
100
AcDbDictionary
280
     1
281
     1
  3
ACAD_XREC_ROUNDTRIP
360
271E
  3
BUMPTILE
360
26BA
  3
DIFFUSETILE
360
26B9
  3
OPACITYTILE
360
26BD
  3
REFLECTIONTILE
360
26BC
  3
REFRACTIONTILE
360
26BE
  3
SPECULARTILE
360
26BB
  0
DICTIONARY
  5
26B0
330
26AF
100
AcDbDictionary
280
     1
281
     1
  3
ACAD_XREC_ROUNDTRIP
360
271D
  3
BUMPTILE
360
26B2
  3
DIFFUSETILE
360
26B1
  3
OPACITYTILE
360
26B5
  3
REFLECTIONTILE
360
26B4
  3
REFRACTIONTILE
360
26B6
  3
SPECULARTILE
360
26B3
  0
DICTIONARY
  5
26C0
330
26BF
100
AcDbDictionary
280
     1
281
     1
  3
ACAD_XREC_ROUNDTRIP
360
271F
  3
BUMPTILE
360
26C2
  3
DIFFUSETILE
360
26C1
  3
OPACITYTILE
360
26C5
  3
REFLECTIONTILE
360
26C4
  3
REFRACTIONTILE
360
26C6
  3
SPECULARTILE
360
26C3
  0
DICTIONARY
  5
2752
330
26F8
100
AcDbDictionary
280
     1
281
     1
  3
ACAD_XREC_ROUNDTRIP
360
2753
  0
DICTIONARY
  5
2719
330
26E2
100
AcDbDictionary
280
     1
281
     1
  3
ACAD_ROUNDTRIP_2008_TABLESTYLE_CELLSTYLEMAP
360
271A
  3
ACAD_XREC_ROUNDTRIP
360
2750
  0
DICTIONARY
  5
272A
330
26CD
100
AcDbDictionary
280
     1
281
     1
  3
ACAD_XREC_ROUNDTRIP
360
272B
  0
DICTIONARY
  5
2728
330
26CC
100
AcDbDictionary
280
     1
281
     1
  3
ACAD_XREC_ROUNDTRIP
360
2729
  0
DICTIONARY
  5
2736
330
26D3
100
AcDbDictionary
280
     1
281
     1
  3
ACAD_XREC_ROUNDTRIP
360
2737
  0
DICTIONARY
  5
273E
330
26D7
100
AcDbDictionary
280
     1
281
     1
  3
ACAD_XREC_ROUNDTRIP
360
273F
  0
DICTIONARY
  5
2730
330
26D0
100
AcDbDictionary
280
     1
281
     1
  3
ACAD_XREC_ROUNDTRIP
360
2731
  0
DICTIONARY
  5
2734
330
26D2
100
AcDbDictionary
280
     1
281
     1
  3
ACAD_XREC_ROUNDTRIP
360
2735
  0
DICTIONARY
  5
274E
330
26DF
100
AcDbDictionary
280
     1
281
     1
  3
ACAD_XREC_ROUNDTRIP
360
274F
  0
DICTIONARY
  5
273C
330
26D6
100
AcDbDictionary
280
     1
281
     1
  3
ACAD_XREC_ROUNDTRIP
360
273D
  0
DICTIONARY
  5
2720
330
26C8
100
AcDbDictionary
280
     1
281
     1
  3
ACAD_XREC_ROUNDTRIP
360
2721
  0
DICTIONARY
  5
2722
330
26C9
100
AcDbDictionary
280
     1
281
     1
  3
ACAD_XREC_ROUNDTRIP
360
2723
  0
DICTIONARY
  5
2724
330
26CA
100
AcDbDictionary
280
     1
281
     1
  3
ACAD_XREC_ROUNDTRIP
360
2725
  0
DICTIONARY
  5
2726
330
26CB
100
AcDbDictionary
280
     1
281
     1
  3
ACAD_XREC_ROUNDTRIP
360
2727
  0
DICTIONARY
  5
272E
330
26CF
100
AcDbDictionary
280
     1
281
     1
  3
ACAD_XREC_ROUNDTRIP
360
272F
  0
DICTIONARY
  5
274A
330
26DD
100
AcDbDictionary
280
     1
281
     1
  3
ACAD_XREC_ROUNDTRIP
360
274B
  0
DICTIONARY
  5
273A
330
26D5
100
AcDbDictionary
280
     1
281
     1
  3
ACAD_XREC_ROUNDTRIP
360
273B
  0
DICTIONARY
  5
274C
330
26DE
100
AcDbDictionary
280
     1
281
     1
  3
ACAD_XREC_ROUNDTRIP
360
274D
  0
DICTIONARY
  5
2732
330
26D1
100
AcDbDictionary
280
     1
281
     1
  3
ACAD_XREC_ROUNDTRIP
360
2733
  0
DICTIONARY
  5
2748
330
26DC
100
AcDbDictionary
280
     1
281
     1
  3
ACAD_XREC_ROUNDTRIP
360
2749
  0
DICTIONARY
  5
2746
330
26DB
100
AcDbDictionary
280
     1
281
     1
  3
ACAD_XREC_ROUNDTRIP
360
2747
  0
DICTIONARY
  5
2740
330
26D8
100
AcDbDictionary
280
     1
281
     1
  3
ACAD_XREC_ROUNDTRIP
360
2741
  0
DICTIONARY
  5
2742
330
26D9
100
AcDbDictionary
280
     1
281
     1
  3
ACAD_XREC_ROUNDTRIP
360
2743
  0
DICTIONARY
  5
2738
330
26D4
100
AcDbDictionary
280
     1
281
     1
  3
ACAD_XREC_ROUNDTRIP
360
2739
  0
DICTIONARY
  5
272C
330
26CE
100
AcDbDictionary
280
     1
281
     1
  3
ACAD_XREC_ROUNDTRIP
360
272D
  0
DICTIONARY
  5
2744
330
26DA
100
AcDbDictionary
280
     1
281
     1
  3
ACAD_XREC_ROUNDTRIP
360
2745
  0
XRECORD
  5
2755
102
{ACAD_REACTORS
330
2754
102
}
330
2754
100
AcDbXrecord
280
     1
102
DISPLAYNAME
  1
Imperial24
102
FLAGS
 90
        0
  0
XRECORD
  5
2757
102
{ACAD_REACTORS
330
2756
102
}
330
2756
100
AcDbXrecord
280
     1
102
SHADEPLOT
 70
     0
102
SHADEPLOTRESLEVEL
 70
     2
102
SHADEPLOTCUSTOMDPI
 70
   300
  0
XRECORD
  5
2759
102
{ACAD_REACTORS
330
2758
102
}
330
2758
100
AcDbXrecord
280
     1
102
SHADEPLOT
 70
     0
102
SHADEPLOTRESLEVEL
 70
     2
102
SHADEPLOTCUSTOMDPI
 70
   300
  0
XRECORD
  5
271E
102
{ACAD_REACTORS
330
26B8
102
}
330
26B8
100
AcDbXrecord
280
     1
102
MATERIAL
148
0.0
149
0.0
149
0.0
 93
        0
 94
      127
282
     0
 72
     0
 77
     0
171
     0
175
     0
179
     0
273
     0
  0
XRECORD
  5
26BA
102
{ACAD_REACTORS
330
26B8
102
}
330
26B8
100
AcDbXrecord
280
     1
270
     1
271
     1
  0
XRECORD
  5
26B9
102
{ACAD_REACTORS
330
26B8
102
}
330
26B8
100
AcDbXrecord
280
     1
270
     1
271
     1
  0
XRECORD
  5
26BD
102
{ACAD_REACTORS
330
26B8
102
}
330
26B8
100
AcDbXrecord
280
     1
270
     1
271
     1
  0
XRECORD
  5
26BC
102
{ACAD_REACTORS
330
26B8
102
}
330
26B8
100
AcDbXrecord
280
     1
270
     1
271
     1
  0
XRECORD
  5
26BE
102
{ACAD_REACTORS
330
26B8
102
}
330
26B8
100
AcDbXrecord
280
     1
270
     1
271
     1
  0
XRECORD
  5
26BB
102
{ACAD_REACTORS
330
26B8
102
}
330
26B8
100
AcDbXrecord
280
     1
270
     1
271
     1
  0
XRECORD
  5
271D
102
{ACAD_REACTORS
330
26B0
102
}
330
26B0
100
AcDbXrecord
280
     1
102
MATERIAL
148
0.0
149
0.0
149
0.0
 93
        0
 94
      127
282
     0
 72
     0
 77
     0
171
     0
175
     0
179
     0
273
     0
  0
XRECORD
  5
26B2
102
{ACAD_REACTORS
330
26B0
102
}
330
26B0
100
AcDbXrecord
280
     1
270
     1
271
     1
  0
XRECORD
  5
26B1
102
{ACAD_REACTORS
330
26B0
102
}
330
26B0
100
AcDbXrecord
280
     1
270
     1
271
     1
  0
XRECORD
  5
26B5
102
{ACAD_REACTORS
330
26B0
102
}
330
26B0
100
AcDbXrecord
280
     1
270
     1
271
     1
  0
XRECORD
  5
26B4
102
{ACAD_REACTORS
330
26B0
102
}
330
26B0
100
AcDbXrecord
280
     1
270
     1
271
     1
  0
XRECORD
  5
26B6
102
{ACAD_REACTORS
330
26B0
102
}
330
26B0
100
AcDbXrecord
280
     1
270
     1
271
     1
  0
XRECORD
  5
26B3
102
{ACAD_REACTORS
330
26B0
102
}
330
26B0
100
AcDbXrecord
280
     1
270
     1
271
     1
  0
XRECORD
  5
271F
102
{ACAD_REACTORS
330
26C0
102
}
330
26C0
100
AcDbXrecord
280
     1
102
MATERIAL
148
0.0
149
0.0
149
0.0
 93
        0
 94
      127
282
     0
 72
     0
 77
     0
171
     0
175
     0
179
     0
273
     0
  0
XRECORD
  5
26C2
102
{ACAD_REACTORS
330
26C0
102
}
330
26C0
100
AcDbXrecord
280
     1
270
     1
271
     1
  0
XRECORD
  5
26C1
102
{ACAD_REACTORS
330
26C0
102
}
330
26C0
100
AcDbXrecord
280
     1
270
     1
271
     1
  0
XRECORD
  5
26C5
102
{ACAD_REACTORS
330
26C0
102
}
330
26C0
100
AcDbXrecord
280
     1
270
     1
271
     1
  0
XRECORD
  5
26C4
102
{ACAD_REACTORS
330
26C0
102
}
330
26C0
100
AcDbXrecord
280
     1
270
     1
271
     1
  0
XRECORD
  5
26C6
102
{ACAD_REACTORS
330
26C0
102
}
330
26C0
100
AcDbXrecord
280
     1
270
     1
271
     1
  0
XRECORD
  5
26C3
102
{ACAD_REACTORS
330
26C0
102
}
330
26C0
100
AcDbXrecord
280
     1
270
     1
271
     1
  0
XRECORD
  5
2753
102
{ACAD_REACTORS
330
2752
102
}
330
2752
100
AcDbXrecord
280
     1
102
DISPLAYNAME
  1
Imperial24
102
FLAGS
 90
        0
  0
CELLSTYLEMAP
  5
271A
102
{ACAD_REACTORS
330
2719
102
}
330
2719
100
AcDbCellStyleMap
 90
        3
300
CELLSTYLE
  1
TABLEFORMAT_BEGIN
 90
        5
170
     1
 91
        0
 92
    32768
 62
   257
 93
        1
300
CONTENTFORMAT
  1
CONTENTFORMAT_BEGIN
 90
        0
 91
        0
 92
      512
 93
        0
300

 40
0.0
140
1.0
 94
        5
 62
     0
340
F
144
0.25
309
CONTENTFORMAT_END
171
     0
 94
        0
309
TABLEFORMAT_END
  1
CELLSTYLE_BEGIN
 90
        1
 91
        1
300
_TITLE
309
CELLSTYLE_END
300
CELLSTYLE
  1
TABLEFORMAT_BEGIN
 90
        5
170
     1
 91
        0
 92
        0
 62
   257
 93
        1
300
CONTENTFORMAT
  1
CONTENTFORMAT_BEGIN
 90
        0
 91
        0
 92
      512
 93
        0
300

 40
0.0
140
1.0
 94
        5
 62
     0
340
F
144
0.18
309
CONTENTFORMAT_END
171
     0
 94
        0
309
TABLEFORMAT_END
  1
CELLSTYLE_BEGIN
 90
        2
 91
        1
300
_HEADER
309
CELLSTYLE_END
300
CELLSTYLE
  1
TABLEFORMAT_BEGIN
 90
        5
170
     1
 91
        0
 92
        0
 62
   257
 93
        1
300
CONTENTFORMAT
  1
CONTENTFORMAT_BEGIN
 90
        0
 91
        0
 92
      512
 93
        0
300

 40
0.0
140
1.0
 94
        2
 62
     0
340
F
144
0.18
309
CONTENTFORMAT_END
171
     0
 94
        0
309
TABLEFORMAT_END
  1
CELLSTYLE_BEGIN
 90
        3
 91
        2
300
_DATA
309
CELLSTYLE_END
  0
XRECORD
  5
2750
102
{ACAD_REACTORS
330
2719
102
}
330
2719
100
AcDbXrecord
280
     1
102
ACAD_ROUNDTRIP_PRE2007_TABLESTYLE
 90
      512
 91
        0
  1

 92
      512
 93
        0
  2

 94
      512
 95
        0
  3

  0
XRECORD
  5
272B
102
{ACAD_REACTORS
330
272A
102
}
330
272A
100
AcDbXrecord
280
     1
102
RTVSPost2010Prop28
280
     1
102
RTVSPost2010PropOp28
 70
     1
102
RTVSPost2010Prop29
280
     1
102
RTVSPost2010PropOp29
 70
     1
102
RTVSPost2010Prop30
280
     0
102
RTVSPost2010PropOp30
 70
     1
102
RTVSPost2010Prop31
280
     0
102
RTVSPost2010PropOp31
 70
     1
102
RTVSPost2010Prop32
280
     0
102
RTVSPost2010PropOp32
 70
     1
102
RTVSPost2010Prop33
280
     0
102
RTVSPost2010PropOp33
 70
     1
102
RTVSPost2010Prop34
280
     0
102
RTVSPost2010PropOp34
 70
     1
102
RTVSPost2010Prop35
280
     0
102
RTVSPost2010PropOp35
 70
     1
102
RTVSPost2010Prop36
280
     0
102
RTVSPost2010PropOp36
 70
     1
102
RTVSPost2010Prop37
 90
       50
102
RTVSPost2010PropOp37
 70
     1
102
RTVSPost2010Prop38
140
0.0
102
RTVSPost2010PropOp38
 70
     1
102
RTVSPost2010Prop39
140
1.0
102
RTVSPost2010PropOp39
 70
     1
102
RTVSPost2010Prop40
 90
        0
102
RTVSPost2010PropOp40
 70
     1
102
RTVSPost2010Prop41ColorIndex
 90
       18
102
RTVSPost2010Prop41ColorRGB
 90
        0
102
RTVSPost2010PropOp41
 70
     1
102
RTVSPost2010Prop42
 90
       50
102
RTVSPost2010PropOp42
 70
     1
102
RTVSPost2010Prop43
 90
        3
102
RTVSPost2010PropOp43
 70
     1
102
RTVSPost2010Prop44ColorIndex
 90
        5
102
RTVSPost2010Prop44ColorRGB
 90
      255
102
RTVSPost2010PropOp44
 70
     1
102
RTVSPost2010Prop45
280
     0
102
RTVSPost2010PropOp45
 70
     1
102
RTVSPost2010Prop46
 90
       50
102
RTVSPost2010PropOp46
 70
     1
102
RTVSPost2010Prop47
 90
       50
102
RTVSPost2010PropOp47
 70
     1
102
RTVSPost2010Prop48
 90
       50
102
RTVSPost2010PropOp48
 70
     1
102
RTVSPost2010Prop49
280
     0
102
RTVSPost2010PropOp49
 70
     1
102
RTVSPost2010Prop50
 90
       50
102
RTVSPost2010PropOp50
 70
     1
102
RTVSPost2010Prop51ColorIndex
 90
      256
102
RTVSPost2010Prop51ColorRGB
 90
-16777216
102
RTVSPost2010PropOp51
 70
     0
102
RTVSPost2010Prop52
140
1.0
102
RTVSPost2010PropOp52
 70
     0
102
RTVSPost2010Prop53
 90
        2
102
RTVSPost2010PropOp53
 70
     1
102
RTVSPost2010Prop54
  1
strokes_ogs.tif
102
RTVSPost2010PropOp54
 70
     1
102
RTVSPost2010Prop55
280
     0
102
RTVSPost2010PropOp55
 70
     1
102
RTVSPost2010Prop56
140
1.0
102
RTVSPost2010PropOp56
 70
     1
102
RTVSPost2010Prop57
140
1.0
102
RTVSPost2010PropOp57
 70
     1
102
RTVSPropertyOp0
 70
     1
102
RTVSPropertyOp1
 70
     1
102
RTVSPropertyOp2
 70
     1
102
RTVSPropertyOp3
 70
     1
102
RTVSPropertyOp4
 70
     1
102
RTVSPropertyOp5
 70
     1
102
RTVSPropertyOp6
 70
     1
102
RTVSPropertyOp7
 70
     1
102
RTVSPropertyOp8
 70
     1
102
RTVSPropertyOp9
 70
     1
102
RTVSPropertyOp10
 70
     1
102
RTVSPropertyOp11
 70
     1
102
RTVSPropertyOp12
 70
     1
102
RTVSPropertyOp13
 70
     1
102
RTVSPropertyOp14
 70
     1
102
RTVSPropertyOp15
 70
     1
102
RTVSPropertyOp16
 70
     1
102
RTVSPropertyOp17
 70
     1
102
RTVSPropertyOp18
 70
     1
102
RTVSPropertyOp19
 70
     1
102
RTVSPropertyOp20
 70
     1
102
RTVSPropertyOp21
 70
     1
102
RTVSPropertyOp22
 70
     1
102
RTVSPropertyOp23
 70
     1
102
RTVSPropertyOp24
 70
     1
102
RTVSPropertyOp25
 70
     1
102
RTVSPropertyOp26
 70
     1
102
RTVSPropertyOp27
 70
     1
102
RTVSPropertyOp28
 70
     1
102
RTVSPropertyOp29
 70
     1
102
RTVSPropertyOp30
 70
     1
102
RTVSPropertyOp31
 70
     1
102
RTVSPropertyOp32
 70
     1
102
RTVSPropertyOp33
 70
     1
102
RTVSPropertyOp34
 70
     1
102
RTVSPropertyOp35
 70
     1
102
RTVSPropertyOp36
 70
     1
102
RTVSPropertyOp37
 70
     1
102
RTVSPropertyOp38
 70
     1
102
RTVSPropertyOp39
 70
     1
102
RTVSPropertyOp40
 70
     1
102
RTVSPropertyOp41
 70
     1
102
RTVSPropertyOp42
 70
     1
102
RTVSPropertyOp43
 70
     1
102
RTVSPropertyOp44
 70
     1
102
RTVSPropertyOp45
 70
     1
102
RTVSPropertyOp46
 70
     1
102
RTVSPropertyOp47
 70
     1
102
RTVSPropertyOp48
 70
     1
102
RTVSPropertyOp49
 70
     1
102
RTVSPropertyOp50
 70
     1
102
RTVSPropertyOp51
 70
     0
102
RTVSPropertyOp52
 70
     0
102
RTVSPropertyOp53
 70
     1
102
RTVSPropertyOp54
 70
     1
102
RTVSPropertyOp55
 70
     1
102
RTVSPropertyOp56
 70
     1
102
RTVSPropertyOp57
 70
     1
102
RTVSPropertyOp58
 70
     1
102
RTVSPropertyOp59
 70
     1
102
RTVSPropertyOp60
 70
     1
102
RTVSPropertyOp61
 70
     1
102
RTVSPropertyOp62
 70
     1
  0
XRECORD
  5
2729
102
{ACAD_REACTORS
330
2728
102
}
330
2728
100
AcDbXrecord
280
     1
102
RTVSPost2010Prop28
280
     0
102
RTVSPost2010PropOp28
 70
     1
102
RTVSPost2010Prop29
280
     1
102
RTVSPost2010PropOp29
 70
     1
102
RTVSPost2010Prop30
280
     1
102
RTVSPost2010PropOp30
 70
     1
102
RTVSPost2010Prop31
280
     0
102
RTVSPost2010PropOp31
 70
     1
102
RTVSPost2010Prop32
280
     0
102
RTVSPost2010PropOp32
 70
     1
102
RTVSPost2010Prop33
280
     0
102
RTVSPost2010PropOp33
 70
     1
102
RTVSPost2010Prop34
280
     0
102
RTVSPost2010PropOp34
 70
     1
102
RTVSPost2010Prop35
280
     0
102
RTVSPost2010PropOp35
 70
     1
102
RTVSPost2010Prop36
280
     0
102
RTVSPost2010PropOp36
 70
     1
102
RTVSPost2010Prop37
 90
       50
102
RTVSPost2010PropOp37
 70
     1
102
RTVSPost2010Prop38
140
0.0
102
RTVSPost2010PropOp38
 70
     1
102
RTVSPost2010Prop39
140
1.0
102
RTVSPost2010PropOp39
 70
     1
102
RTVSPost2010Prop40
 90
        0
102
RTVSPost2010PropOp40
 70
     1
102
RTVSPost2010Prop41ColorIndex
 90
       18
102
RTVSPost2010Prop41ColorRGB
 90
        0
102
RTVSPost2010PropOp41
 70
     1
102
RTVSPost2010Prop42
 90
       50
102
RTVSPost2010PropOp42
 70
     1
102
RTVSPost2010Prop43
 90
        3
102
RTVSPost2010PropOp43
 70
     1
102
RTVSPost2010Prop44ColorIndex
 90
        5
102
RTVSPost2010Prop44ColorRGB
 90
      255
102
RTVSPost2010PropOp44
 70
     1
102
RTVSPost2010Prop45
280
     0
102
RTVSPost2010PropOp45
 70
     1
102
RTVSPost2010Prop46
 90
       50
102
RTVSPost2010PropOp46
 70
     1
102
RTVSPost2010Prop47
 90
       50
102
RTVSPost2010PropOp47
 70
     1
102
RTVSPost2010Prop48
 90
       50
102
RTVSPost2010PropOp48
 70
     1
102
RTVSPost2010Prop49
280
     0
102
RTVSPost2010PropOp49
 70
     1
102
RTVSPost2010Prop50
 90
       50
102
RTVSPost2010PropOp50
 70
     1
102
RTVSPost2010Prop51ColorIndex
 90
      256
102
RTVSPost2010Prop51ColorRGB
 90
-16777216
102
RTVSPost2010PropOp51
 70
     0
102
RTVSPost2010Prop52
140
1.0
102
RTVSPost2010PropOp52
 70
     0
102
RTVSPost2010Prop53
 90
        2
102
RTVSPost2010PropOp53
 70
     1
102
RTVSPost2010Prop54
  1
strokes_ogs.tif
102
RTVSPost2010PropOp54
 70
     1
102
RTVSPost2010Prop55
280
     0
102
RTVSPost2010PropOp55
 70
     1
102
RTVSPost2010Prop56
140
1.0
102
RTVSPost2010PropOp56
 70
     1
102
RTVSPost2010Prop57
140
1.0
102
RTVSPost2010PropOp57
 70
     1
102
RTVSPropertyOp0
 70
     1
102
RTVSPropertyOp1
 70
     1
102
RTVSPropertyOp2
 70
     1
102
RTVSPropertyOp3
 70
     1
102
RTVSPropertyOp4
 70
     1
102
RTVSPropertyOp5
 70
     1
102
RTVSPropertyOp6
 70
     1
102
RTVSPropertyOp7
 70
     1
102
RTVSPropertyOp8
 70
     1
102
RTVSPropertyOp9
 70
     1
102
RTVSPropertyOp10
 70
     1
102
RTVSPropertyOp11
 70
     1
102
RTVSPropertyOp12
 70
     1
102
RTVSPropertyOp13
 70
     1
102
RTVSPropertyOp14
 70
     1
102
RTVSPropertyOp15
 70
     1
102
RTVSPropertyOp16
 70
     1
102
RTVSPropertyOp17
 70
     1
102
RTVSPropertyOp18
 70
     1
102
RTVSPropertyOp19
 70
     1
102
RTVSPropertyOp20
 70
     1
102
RTVSPropertyOp21
 70
     1
102
RTVSPropertyOp22
 70
     1
102
RTVSPropertyOp23
 70
     1
102
RTVSPropertyOp24
 70
     1
102
RTVSPropertyOp25
 70
     1
102
RTVSPropertyOp26
 70
     1
102
RTVSPropertyOp27
 70
     1
102
RTVSPropertyOp28
 70
     1
102
RTVSPropertyOp29
 70
     1
102
RTVSPropertyOp30
 70
     1
102
RTVSPropertyOp31
 70
     1
102
RTVSPropertyOp32
 70
     1
102
RTVSPropertyOp33
 70
     1
102
RTVSPropertyOp34
 70
     1
102
RTVSPropertyOp35
 70
     1
102
RTVSPropertyOp36
 70
     1
102
RTVSPropertyOp37
 70
     1
102
RTVSPropertyOp38
 70
     1
102
RTVSPropertyOp39
 70
     1
102
RTVSPropertyOp40
 70
     1
102
RTVSPropertyOp41
 70
     1
102
RTVSPropertyOp42
 70
     1
102
RTVSPropertyOp43
 70
     1
102
RTVSPropertyOp44
 70
     1
102
RTVSPropertyOp45
 70
     1
102
RTVSPropertyOp46
 70
     1
102
RTVSPropertyOp47
 70
     1
102
RTVSPropertyOp48
 70
     1
102
RTVSPropertyOp49
 70
     1
102
RTVSPropertyOp50
 70
     1
102
RTVSPropertyOp51
 70
     0
102
RTVSPropertyOp52
 70
     0
102
RTVSPropertyOp53
 70
     1
102
RTVSPropertyOp54
 70
     1
102
RTVSPropertyOp55
 70
     1
102
RTVSPropertyOp56
 70
     1
102
RTVSPropertyOp57
 70
     1
102
RTVSPropertyOp58
 70
     1
102
RTVSPropertyOp59
 70
     1
102
RTVSPropertyOp60
 70
     1
102
RTVSPropertyOp61
 70
     1
102
RTVSPropertyOp62
 70
     1
  0
XRECORD
  5
2737
102
{ACAD_REACTORS
330
2736
102
}
330
2736
100
AcDbXrecord
280
     1
102
RTVSPost2010Prop28
280
     0
102
RTVSPost2010PropOp28
 70
     1
102
RTVSPost2010Prop29
280
     1
102
RTVSPost2010PropOp29
 70
     1
102
RTVSPost2010Prop30
280
     1
102
RTVSPost2010PropOp30
 70
     1
102
RTVSPost2010Prop31
280
     0
102
RTVSPost2010PropOp31
 70
     1
102
RTVSPost2010Prop32
280
     0
102
RTVSPost2010PropOp32
 70
     1
102
RTVSPost2010Prop33
280
     0
102
RTVSPost2010PropOp33
 70
     1
102
RTVSPost2010Prop34
280
     0
102
RTVSPost2010PropOp34
 70
     1
102
RTVSPost2010Prop35
280
     0
102
RTVSPost2010PropOp35
 70
     1
102
RTVSPost2010Prop36
280
     0
102
RTVSPost2010PropOp36
 70
     1
102
RTVSPost2010Prop37
 90
       50
102
RTVSPost2010PropOp37
 70
     1
102
RTVSPost2010Prop38
140
0.0
102
RTVSPost2010PropOp38
 70
     1
102
RTVSPost2010Prop39
140
1.0
102
RTVSPost2010PropOp39
 70
     1
102
RTVSPost2010Prop40
 90
        0
102
RTVSPost2010PropOp40
 70
     1
102
RTVSPost2010Prop41ColorIndex
 90
       18
102
RTVSPost2010Prop41ColorRGB
 90
        0
102
RTVSPost2010PropOp41
 70
     1
102
RTVSPost2010Prop42
 90
       50
102
RTVSPost2010PropOp42
 70
     1
102
RTVSPost2010Prop43
 90
        3
102
RTVSPost2010PropOp43
 70
     1
102
RTVSPost2010Prop44ColorIndex
 90
        5
102
RTVSPost2010Prop44ColorRGB
 90
      255
102
RTVSPost2010PropOp44
 70
     1
102
RTVSPost2010Prop45
280
     0
102
RTVSPost2010PropOp45
 70
     1
102
RTVSPost2010Prop46
 90
       50
102
RTVSPost2010PropOp46
 70
     1
102
RTVSPost2010Prop47
 90
       50
102
RTVSPost2010PropOp47
 70
     1
102
RTVSPost2010Prop48
 90
       50
102
RTVSPost2010PropOp48
 70
     1
102
RTVSPost2010Prop49
280
     0
102
RTVSPost2010PropOp49
 70
     1
102
RTVSPost2010Prop50
 90
       50
102
RTVSPost2010PropOp50
 70
     1
102
RTVSPost2010Prop51ColorIndex
 90
      256
102
RTVSPost2010Prop51ColorRGB
 90
-16777216
102
RTVSPost2010PropOp51
 70
     0
102
RTVSPost2010Prop52
140
1.0
102
RTVSPost2010PropOp52
 70
     0
102
RTVSPost2010Prop53
 90
        2
102
RTVSPost2010PropOp53
 70
     1
102
RTVSPost2010Prop54
  1
strokes_ogs.tif
102
RTVSPost2010PropOp54
 70
     1
102
RTVSPost2010Prop55
280
     0
102
RTVSPost2010PropOp55
 70
     1
102
RTVSPost2010Prop56
140
1.0
102
RTVSPost2010PropOp56
 70
     1
102
RTVSPost2010Prop57
140
1.0
102
RTVSPost2010PropOp57
 70
     1
102
RTVSPropertyOp0
 70
     1
102
RTVSPropertyOp1
 70
     1
102
RTVSPropertyOp2
 70
     1
102
RTVSPropertyOp3
 70
     1
102
RTVSPropertyOp4
 70
     1
102
RTVSPropertyOp5
 70
     1
102
RTVSPropertyOp6
 70
     1
102
RTVSPropertyOp7
 70
     1
102
RTVSPropertyOp8
 70
     1
102
RTVSPropertyOp9
 70
     1
102
RTVSPropertyOp10
 70
     1
102
RTVSPropertyOp11
 70
     1
102
RTVSPropertyOp12
 70
     1
102
RTVSPropertyOp13
 70
     1
102
RTVSPropertyOp14
 70
     1
102
RTVSPropertyOp15
 70
     1
102
RTVSPropertyOp16
 70
     1
102
RTVSPropertyOp17
 70
     1
102
RTVSPropertyOp18
 70
     1
102
RTVSPropertyOp19
 70
     1
102
RTVSPropertyOp20
 70
     1
102
RTVSPropertyOp21
 70
     1
102
RTVSPropertyOp22
 70
     1
102
RTVSPropertyOp23
 70
     1
102
RTVSPropertyOp24
 70
     1
102
RTVSPropertyOp25
 70
     1
102
RTVSPropertyOp26
 70
     1
102
RTVSPropertyOp27
 70
     1
102
RTVSPropertyOp28
 70
     1
102
RTVSPropertyOp29
 70
     1
102
RTVSPropertyOp30
 70
     1
102
RTVSPropertyOp31
 70
     1
102
RTVSPropertyOp32
 70
     1
102
RTVSPropertyOp33
 70
     1
102
RTVSPropertyOp34
 70
     1
102
RTVSPropertyOp35
 70
     1
102
RTVSPropertyOp36
 70
     1
102
RTVSPropertyOp37
 70
     1
102
RTVSPropertyOp38
 70
     1
102
RTVSPropertyOp39
 70
     1
102
RTVSPropertyOp40
 70
     1
102
RTVSPropertyOp41
 70
     1
102
RTVSPropertyOp42
 70
     1
102
RTVSPropertyOp43
 70
     1
102
RTVSPropertyOp44
 70
     1
102
RTVSPropertyOp45
 70
     1
102
RTVSPropertyOp46
 70
     1
102
RTVSPropertyOp47
 70
     1
102
RTVSPropertyOp48
 70
     1
102
RTVSPropertyOp49
 70
     1
102
RTVSPropertyOp50
 70
     1
102
RTVSPropertyOp51
 70
     0
102
RTVSPropertyOp52
 70
     0
102
RTVSPropertyOp53
 70
     1
102
RTVSPropertyOp54
 70
     1
102
RTVSPropertyOp55
 70
     1
102
RTVSPropertyOp56
 70
     1
102
RTVSPropertyOp57
 70
     1
102
RTVSPropertyOp58
 70
     1
102
RTVSPropertyOp59
 70
     1
102
RTVSPropertyOp60
 70
     1
102
RTVSPropertyOp61
 70
     1
102
RTVSPropertyOp62
 70
     1
  0
XRECORD
  5
273F
102
{ACAD_REACTORS
330
273E
102
}
330
273E
100
AcDbXrecord
280
     1
102
RTVSPost2010Prop28
280
     0
102
RTVSPost2010PropOp28
 70
     1
102
RTVSPost2010Prop29
280
     1
102
RTVSPost2010PropOp29
 70
     1
102
RTVSPost2010Prop30
280
     1
102
RTVSPost2010PropOp30
 70
     1
102
RTVSPost2010Prop31
280
     0
102
RTVSPost2010PropOp31
 70
     1
102
RTVSPost2010Prop32
280
     0
102
RTVSPost2010PropOp32
 70
     1
102
RTVSPost2010Prop33
280
     0
102
RTVSPost2010PropOp33
 70
     1
102
RTVSPost2010Prop34
280
     0
102
RTVSPost2010PropOp34
 70
     1
102
RTVSPost2010Prop35
280
     0
102
RTVSPost2010PropOp35
 70
     1
102
RTVSPost2010Prop36
280
     0
102
RTVSPost2010PropOp36
 70
     1
102
RTVSPost2010Prop37
 90
       50
102
RTVSPost2010PropOp37
 70
     1
102
RTVSPost2010Prop38
140
0.0
102
RTVSPost2010PropOp38
 70
     1
102
RTVSPost2010Prop39
140
1.0
102
RTVSPost2010PropOp39
 70
     1
102
RTVSPost2010Prop40
 90
        0
102
RTVSPost2010PropOp40
 70
     1
102
RTVSPost2010Prop41ColorIndex
 90
       18
102
RTVSPost2010Prop41ColorRGB
 90
        0
102
RTVSPost2010PropOp41
 70
     1
102
RTVSPost2010Prop42
 90
       50
102
RTVSPost2010PropOp42
 70
     1
102
RTVSPost2010Prop43
 90
        3
102
RTVSPost2010PropOp43
 70
     1
102
RTVSPost2010Prop44ColorIndex
 90
        5
102
RTVSPost2010Prop44ColorRGB
 90
      255
102
RTVSPost2010PropOp44
 70
     1
102
RTVSPost2010Prop45
280
     0
102
RTVSPost2010PropOp45
 70
     1
102
RTVSPost2010Prop46
 90
       50
102
RTVSPost2010PropOp46
 70
     1
102
RTVSPost2010Prop47
 90
       50
102
RTVSPost2010PropOp47
 70
     1
102
RTVSPost2010Prop48
 90
       50
102
RTVSPost2010PropOp48
 70
     1
102
RTVSPost2010Prop49
280
     0
102
RTVSPost2010PropOp49
 70
     1
102
RTVSPost2010Prop50
 90
       50
102
RTVSPost2010PropOp50
 70
     1
102
RTVSPost2010Prop51ColorIndex
 90
      256
102
RTVSPost2010Prop51ColorRGB
 90
-16777216
102
RTVSPost2010PropOp51
 70
     0
102
RTVSPost2010Prop52
140
1.0
102
RTVSPost2010PropOp52
 70
     0
102
RTVSPost2010Prop53
 90
        2
102
RTVSPost2010PropOp53
 70
     1
102
RTVSPost2010Prop54
  1
strokes_ogs.tif
102
RTVSPost2010PropOp54
 70
     1
102
RTVSPost2010Prop55
280
     0
102
RTVSPost2010PropOp55
 70
     1
102
RTVSPost2010Prop56
140
1.0
102
RTVSPost2010PropOp56
 70
     1
102
RTVSPost2010Prop57
140
1.0
102
RTVSPost2010PropOp57
 70
     1
102
RTVSPropertyOp0
 70
     1
102
RTVSPropertyOp1
 70
     1
102
RTVSPropertyOp2
 70
     1
102
RTVSPropertyOp3
 70
     1
102
RTVSPropertyOp4
 70
     1
102
RTVSPropertyOp5
 70
     1
102
RTVSPropertyOp6
 70
     1
102
RTVSPropertyOp7
 70
     1
102
RTVSPropertyOp8
 70
     1
102
RTVSPropertyOp9
 70
     1
102
RTVSPropertyOp10
 70
     1
102
RTVSPropertyOp11
 70
     1
102
RTVSPropertyOp12
 70
     1
102
RTVSPropertyOp13
 70
     1
102
RTVSPropertyOp14
 70
     1
102
RTVSPropertyOp15
 70
     1
102
RTVSPropertyOp16
 70
     1
102
RTVSPropertyOp17
 70
     1
102
RTVSPropertyOp18
 70
     1
102
RTVSPropertyOp19
 70
     1
102
RTVSPropertyOp20
 70
     1
102
RTVSPropertyOp21
 70
     1
102
RTVSPropertyOp22
 70
     1
102
RTVSPropertyOp23
 70
     1
102
RTVSPropertyOp24
 70
     1
102
RTVSPropertyOp25
 70
     1
102
RTVSPropertyOp26
 70
     1
102
RTVSPropertyOp27
 70
     1
102
RTVSPropertyOp28
 70
     1
102
RTVSPropertyOp29
 70
     1
102
RTVSPropertyOp30
 70
     1
102
RTVSPropertyOp31
 70
     1
102
RTVSPropertyOp32
 70
     1
102
RTVSPropertyOp33
 70
     1
102
RTVSPropertyOp34
 70
     1
102
RTVSPropertyOp35
 70
     1
102
RTVSPropertyOp36
 70
     1
102
RTVSPropertyOp37
 70
     1
102
RTVSPropertyOp38
 70
     1
102
RTVSPropertyOp39
 70
     1
102
RTVSPropertyOp40
 70
     1
102
RTVSPropertyOp41
 70
     1
102
RTVSPropertyOp42
 70
     1
102
RTVSPropertyOp43
 70
     1
102
RTVSPropertyOp44
 70
     1
102
RTVSPropertyOp45
 70
     1
102
RTVSPropertyOp46
 70
     1
102
RTVSPropertyOp47
 70
     1
102
RTVSPropertyOp48
 70
     1
102
RTVSPropertyOp49
 70
     1
102
RTVSPropertyOp50
 70
     1
102
RTVSPropertyOp51
 70
     0
102
RTVSPropertyOp52
 70
     0
102
RTVSPropertyOp53
 70
     1
102
RTVSPropertyOp54
 70
     1
102
RTVSPropertyOp55
 70
     1
102
RTVSPropertyOp56
 70
     1
102
RTVSPropertyOp57
 70
     1
102
RTVSPropertyOp58
 70
     1
102
RTVSPropertyOp59
 70
     1
102
RTVSPropertyOp60
 70
     1
102
RTVSPropertyOp61
 70
     1
102
RTVSPropertyOp62
 70
     1
  0
XRECORD
  5
2731
102
{ACAD_REACTORS
330
2730
102
}
330
2730
100
AcDbXrecord
280
     1
102
RTVSPost2010Prop28
280
     0
102
RTVSPost2010PropOp28
 70
     1
102
RTVSPost2010Prop29
280
     1
102
RTVSPost2010PropOp29
 70
     1
102
RTVSPost2010Prop30
280
     1
102
RTVSPost2010PropOp30
 70
     1
102
RTVSPost2010Prop31
280
     0
102
RTVSPost2010PropOp31
 70
     1
102
RTVSPost2010Prop32
280
     0
102
RTVSPost2010PropOp32
 70
     1
102
RTVSPost2010Prop33
280
     0
102
RTVSPost2010PropOp33
 70
     1
102
RTVSPost2010Prop34
280
     0
102
RTVSPost2010PropOp34
 70
     1
102
RTVSPost2010Prop35
280
     0
102
RTVSPost2010PropOp35
 70
     1
102
RTVSPost2010Prop36
280
     0
102
RTVSPost2010PropOp36
 70
     1
102
RTVSPost2010Prop37
 90
       50
102
RTVSPost2010PropOp37
 70
     1
102
RTVSPost2010Prop38
140
0.0
102
RTVSPost2010PropOp38
 70
     1
102
RTVSPost2010Prop39
140
1.0
102
RTVSPost2010PropOp39
 70
     1
102
RTVSPost2010Prop40
 90
        0
102
RTVSPost2010PropOp40
 70
     1
102
RTVSPost2010Prop41ColorIndex
 90
       18
102
RTVSPost2010Prop41ColorRGB
 90
        0
102
RTVSPost2010PropOp41
 70
     1
102
RTVSPost2010Prop42
 90
       50
102
RTVSPost2010PropOp42
 70
     1
102
RTVSPost2010Prop43
 90
        3
102
RTVSPost2010PropOp43
 70
     1
102
RTVSPost2010Prop44ColorIndex
 90
        5
102
RTVSPost2010Prop44ColorRGB
 90
      255
102
RTVSPost2010PropOp44
 70
     1
102
RTVSPost2010Prop45
280
     0
102
RTVSPost2010PropOp45
 70
     1
102
RTVSPost2010Prop46
 90
       50
102
RTVSPost2010PropOp46
 70
     1
102
RTVSPost2010Prop47
 90
       50
102
RTVSPost2010PropOp47
 70
     1
102
RTVSPost2010Prop48
 90
       50
102
RTVSPost2010PropOp48
 70
     1
102
RTVSPost2010Prop49
280
     0
102
RTVSPost2010PropOp49
 70
     1
102
RTVSPost2010Prop50
 90
       50
102
RTVSPost2010PropOp50
 70
     1
102
RTVSPost2010Prop51ColorIndex
 90
      256
102
RTVSPost2010Prop51ColorRGB
 90
-16777216
102
RTVSPost2010PropOp51
 70
     0
102
RTVSPost2010Prop52
140
1.0
102
RTVSPost2010PropOp52
 70
     0
102
RTVSPost2010Prop53
 90
        2
102
RTVSPost2010PropOp53
 70
     1
102
RTVSPost2010Prop54
  1
strokes_ogs.tif
102
RTVSPost2010PropOp54
 70
     1
102
RTVSPost2010Prop55
280
     0
102
RTVSPost2010PropOp55
 70
     1
102
RTVSPost2010Prop56
140
1.0
102
RTVSPost2010PropOp56
 70
     1
102
RTVSPost2010Prop57
140
1.0
102
RTVSPost2010PropOp57
 70
     1
102
RTVSPropertyOp0
 70
     1
102
RTVSPropertyOp1
 70
     1
102
RTVSPropertyOp2
 70
     1
102
RTVSPropertyOp3
 70
     1
102
RTVSPropertyOp4
 70
     1
102
RTVSPropertyOp5
 70
     1
102
RTVSPropertyOp6
 70
     1
102
RTVSPropertyOp7
 70
     1
102
RTVSPropertyOp8
 70
     1
102
RTVSPropertyOp9
 70
     1
102
RTVSPropertyOp10
 70
     1
102
RTVSPropertyOp11
 70
     1
102
RTVSPropertyOp12
 70
     1
102
RTVSPropertyOp13
 70
     1
102
RTVSPropertyOp14
 70
     1
102
RTVSPropertyOp15
 70
     1
102
RTVSPropertyOp16
 70
     1
102
RTVSPropertyOp17
 70
     1
102
RTVSPropertyOp18
 70
     1
102
RTVSPropertyOp19
 70
     1
102
RTVSPropertyOp20
 70
     1
102
RTVSPropertyOp21
 70
     1
102
RTVSPropertyOp22
 70
     1
102
RTVSPropertyOp23
 70
     1
102
RTVSPropertyOp24
 70
     1
102
RTVSPropertyOp25
 70
     1
102
RTVSPropertyOp26
 70
     1
102
RTVSPropertyOp27
 70
     1
102
RTVSPropertyOp28
 70
     1
102
RTVSPropertyOp29
 70
     1
102
RTVSPropertyOp30
 70
     1
102
RTVSPropertyOp31
 70
     1
102
RTVSPropertyOp32
 70
     1
102
RTVSPropertyOp33
 70
     1
102
RTVSPropertyOp34
 70
     1
102
RTVSPropertyOp35
 70
     1
102
RTVSPropertyOp36
 70
     1
102
RTVSPropertyOp37
 70
     1
102
RTVSPropertyOp38
 70
     1
102
RTVSPropertyOp39
 70
     1
102
RTVSPropertyOp40
 70
     1
102
RTVSPropertyOp41
 70
     1
102
RTVSPropertyOp42
 70
     1
102
RTVSPropertyOp43
 70
     1
102
RTVSPropertyOp44
 70
     1
102
RTVSPropertyOp45
 70
     1
102
RTVSPropertyOp46
 70
     1
102
RTVSPropertyOp47
 70
     1
102
RTVSPropertyOp48
 70
     1
102
RTVSPropertyOp49
 70
     1
102
RTVSPropertyOp50
 70
     1
102
RTVSPropertyOp51
 70
     0
102
RTVSPropertyOp52
 70
     0
102
RTVSPropertyOp53
 70
     1
102
RTVSPropertyOp54
 70
     1
102
RTVSPropertyOp55
 70
     1
102
RTVSPropertyOp56
 70
     1
102
RTVSPropertyOp57
 70
     1
102
RTVSPropertyOp58
 70
     1
102
RTVSPropertyOp59
 70
     1
102
RTVSPropertyOp60
 70
     1
102
RTVSPropertyOp61
 70
     1
102
RTVSPropertyOp62
 70
     1
  0
XRECORD
  5
2735
102
{ACAD_REACTORS
330
2734
102
}
330
2734
100
AcDbXrecord
280
     1
102
RTVSPost2010Prop28
280
     0
102
RTVSPost2010PropOp28
 70
     1
102
RTVSPost2010Prop29
280
     1
102
RTVSPost2010PropOp29
 70
     1
102
RTVSPost2010Prop30
280
     1
102
RTVSPost2010PropOp30
 70
     1
102
RTVSPost2010Prop31
280
     0
102
RTVSPost2010PropOp31
 70
     1
102
RTVSPost2010Prop32
280
     0
102
RTVSPost2010PropOp32
 70
     1
102
RTVSPost2010Prop33
280
     0
102
RTVSPost2010PropOp33
 70
     1
102
RTVSPost2010Prop34
280
     0
102
RTVSPost2010PropOp34
 70
     1
102
RTVSPost2010Prop35
280
     0
102
RTVSPost2010PropOp35
 70
     1
102
RTVSPost2010Prop36
280
     0
102
RTVSPost2010PropOp36
 70
     1
102
RTVSPost2010Prop37
 90
       50
102
RTVSPost2010PropOp37
 70
     1
102
RTVSPost2010Prop38
140
0.0
102
RTVSPost2010PropOp38
 70
     1
102
RTVSPost2010Prop39
140
1.0
102
RTVSPost2010PropOp39
 70
     1
102
RTVSPost2010Prop40
 90
        0
102
RTVSPost2010PropOp40
 70
     1
102
RTVSPost2010Prop41ColorIndex
 90
       18
102
RTVSPost2010Prop41ColorRGB
 90
        0
102
RTVSPost2010PropOp41
 70
     1
102
RTVSPost2010Prop42
 90
       50
102
RTVSPost2010PropOp42
 70
     1
102
RTVSPost2010Prop43
 90
        3
102
RTVSPost2010PropOp43
 70
     1
102
RTVSPost2010Prop44ColorIndex
 90
        5
102
RTVSPost2010Prop44ColorRGB
 90
      255
102
RTVSPost2010PropOp44
 70
     1
102
RTVSPost2010Prop45
280
     0
102
RTVSPost2010PropOp45
 70
     1
102
RTVSPost2010Prop46
 90
       50
102
RTVSPost2010PropOp46
 70
     1
102
RTVSPost2010Prop47
 90
       50
102
RTVSPost2010PropOp47
 70
     1
102
RTVSPost2010Prop48
 90
       50
102
RTVSPost2010PropOp48
 70
     1
102
RTVSPost2010Prop49
280
     0
102
RTVSPost2010PropOp49
 70
     1
102
RTVSPost2010Prop50
 90
       50
102
RTVSPost2010PropOp50
 70
     1
102
RTVSPost2010Prop51ColorIndex
 90
      256
102
RTVSPost2010Prop51ColorRGB
 90
-16777216
102
RTVSPost2010PropOp51
 70
     0
102
RTVSPost2010Prop52
140
1.0
102
RTVSPost2010PropOp52
 70
     0
102
RTVSPost2010Prop53
 90
        2
102
RTVSPost2010PropOp53
 70
     1
102
RTVSPost2010Prop54
  1
strokes_ogs.tif
102
RTVSPost2010PropOp54
 70
     1
102
RTVSPost2010Prop55
280
     0
102
RTVSPost2010PropOp55
 70
     1
102
RTVSPost2010Prop56
140
1.0
102
RTVSPost2010PropOp56
 70
     1
102
RTVSPost2010Prop57
140
1.0
102
RTVSPost2010PropOp57
 70
     1
102
RTVSPropertyOp0
 70
     1
102
RTVSPropertyOp1
 70
     1
102
RTVSPropertyOp2
 70
     1
102
RTVSPropertyOp3
 70
     1
102
RTVSPropertyOp4
 70
     1
102
RTVSPropertyOp5
 70
     1
102
RTVSPropertyOp6
 70
     1
102
RTVSPropertyOp7
 70
     1
102
RTVSPropertyOp8
 70
     1
102
RTVSPropertyOp9
 70
     1
102
RTVSPropertyOp10
 70
     1
102
RTVSPropertyOp11
 70
     1
102
RTVSPropertyOp12
 70
     1
102
RTVSPropertyOp13
 70
     1
102
RTVSPropertyOp14
 70
     1
102
RTVSPropertyOp15
 70
     1
102
RTVSPropertyOp16
 70
     1
102
RTVSPropertyOp17
 70
     1
102
RTVSPropertyOp18
 70
     1
102
RTVSPropertyOp19
 70
     1
102
RTVSPropertyOp20
 70
     1
102
RTVSPropertyOp21
 70
     1
102
RTVSPropertyOp22
 70
     1
102
RTVSPropertyOp23
 70
     1
102
RTVSPropertyOp24
 70
     1
102
RTVSPropertyOp25
 70
     1
102
RTVSPropertyOp26
 70
     1
102
RTVSPropertyOp27
 70
     1
102
RTVSPropertyOp28
 70
     1
102
RTVSPropertyOp29
 70
     1
102
RTVSPropertyOp30
 70
     1
102
RTVSPropertyOp31
 70
     1
102
RTVSPropertyOp32
 70
     1
102
RTVSPropertyOp33
 70
     1
102
RTVSPropertyOp34
 70
     1
102
RTVSPropertyOp35
 70
     1
102
RTVSPropertyOp36
 70
     1
102
RTVSPropertyOp37
 70
     1
102
RTVSPropertyOp38
 70
     1
102
RTVSPropertyOp39
 70
     1
102
RTVSPropertyOp40
 70
     1
102
RTVSPropertyOp41
 70
     1
102
RTVSPropertyOp42
 70
     1
102
RTVSPropertyOp43
 70
     1
102
RTVSPropertyOp44
 70
     1
102
RTVSPropertyOp45
 70
     1
102
RTVSPropertyOp46
 70
     1
102
RTVSPropertyOp47
 70
     1
102
RTVSPropertyOp48
 70
     1
102
RTVSPropertyOp49
 70
     1
102
RTVSPropertyOp50
 70
     1
102
RTVSPropertyOp51
 70
     0
102
RTVSPropertyOp52
 70
     0
102
RTVSPropertyOp53
 70
     1
102
RTVSPropertyOp54
 70
     1
102
RTVSPropertyOp55
 70
     1
102
RTVSPropertyOp56
 70
     1
102
RTVSPropertyOp57
 70
     1
102
RTVSPropertyOp58
 70
     1
102
RTVSPropertyOp59
 70
     1
102
RTVSPropertyOp60
 70
     1
102
RTVSPropertyOp61
 70
     1
102
RTVSPropertyOp62
 70
     1
  0
XRECORD
  5
274F
102
{ACAD_REACTORS
330
274E
102
}
330
274E
100
AcDbXrecord
280
     1
102
RTVSPost2010Prop28
280
     0
102
RTVSPost2010PropOp28
 70
     1
102
RTVSPost2010Prop29
280
     1
102
RTVSPost2010PropOp29
 70
     1
102
RTVSPost2010Prop30
280
     1
102
RTVSPost2010PropOp30
 70
     1
102
RTVSPost2010Prop31
280
     0
102
RTVSPost2010PropOp31
 70
     1
102
RTVSPost2010Prop32
280
     0
102
RTVSPost2010PropOp32
 70
     1
102
RTVSPost2010Prop33
280
     0
102
RTVSPost2010PropOp33
 70
     1
102
RTVSPost2010Prop34
280
     0
102
RTVSPost2010PropOp34
 70
     1
102
RTVSPost2010Prop35
280
     0
102
RTVSPost2010PropOp35
 70
     1
102
RTVSPost2010Prop36
280
     0
102
RTVSPost2010PropOp36
 70
     1
102
RTVSPost2010Prop37
 90
       50
102
RTVSPost2010PropOp37
 70
     0
102
RTVSPost2010Prop38
140
0.0
102
RTVSPost2010PropOp38
 70
     0
102
RTVSPost2010Prop39
140
1.0
102
RTVSPost2010PropOp39
 70
     0
102
RTVSPost2010Prop40
 90
        0
102
RTVSPost2010PropOp40
 70
     0
102
RTVSPost2010Prop41ColorIndex
 90
       18
102
RTVSPost2010Prop41ColorRGB
 90
        0
102
RTVSPost2010PropOp41
 70
     0
102
RTVSPost2010Prop42
 90
       50
102
RTVSPost2010PropOp42
 70
     0
102
RTVSPost2010Prop43
 90
        3
102
RTVSPost2010PropOp43
 70
     0
102
RTVSPost2010Prop44ColorIndex
 90
        5
102
RTVSPost2010Prop44ColorRGB
 90
      255
102
RTVSPost2010PropOp44
 70
     0
102
RTVSPost2010Prop45
280
     0
102
RTVSPost2010PropOp45
 70
     1
102
RTVSPost2010Prop46
 90
       50
102
RTVSPost2010PropOp46
 70
     0
102
RTVSPost2010Prop47
 90
       50
102
RTVSPost2010PropOp47
 70
     0
102
RTVSPost2010Prop48
 90
       50
102
RTVSPost2010PropOp48
 70
     0
102
RTVSPost2010Prop49
280
     0
102
RTVSPost2010PropOp49
 70
     1
102
RTVSPost2010Prop50
 90
       50
102
RTVSPost2010PropOp50
 70
     0
102
RTVSPost2010Prop51ColorIndex
 90
      256
102
RTVSPost2010Prop51ColorRGB
 90
-16777216
102
RTVSPost2010PropOp51
 70
     0
102
RTVSPost2010Prop52
140
1.0
102
RTVSPost2010PropOp52
 70
     0
102
RTVSPost2010Prop53
 90
        2
102
RTVSPost2010PropOp53
 70
     0
102
RTVSPost2010Prop54
  1
strokes_ogs.tif
102
RTVSPost2010PropOp54
 70
     0
102
RTVSPost2010Prop55
280
     0
102
RTVSPost2010PropOp55
 70
     1
102
RTVSPost2010Prop56
140
1.0
102
RTVSPost2010PropOp56
 70
     0
102
RTVSPost2010Prop57
140
1.0
102
RTVSPost2010PropOp57
 70
     0
102
RTVSPropertyOp0
 70
     0
102
RTVSPropertyOp1
 70
     0
102
RTVSPropertyOp2
 70
     0
102
RTVSPropertyOp3
 70
     0
102
RTVSPropertyOp4
 70
     0
102
RTVSPropertyOp5
 70
     0
102
RTVSPropertyOp6
 70
     0
102
RTVSPropertyOp7
 70
     0
102
RTVSPropertyOp8
 70
     0
102
RTVSPropertyOp9
 70
     0
102
RTVSPropertyOp10
 70
     0
102
RTVSPropertyOp11
 70
     0
102
RTVSPropertyOp12
 70
     0
102
RTVSPropertyOp13
 70
     0
102
RTVSPropertyOp14
 70
     2
102
RTVSPropertyOp15
 70
     0
102
RTVSPropertyOp16
 70
     0
102
RTVSPropertyOp17
 70
     0
102
RTVSPropertyOp18
 70
     0
102
RTVSPropertyOp19
 70
     0
102
RTVSPropertyOp20
 70
     0
102
RTVSPropertyOp21
 70
     0
102
RTVSPropertyOp22
 70
     0
102
RTVSPropertyOp23
 70
     0
102
RTVSPropertyOp24
 70
     0
102
RTVSPropertyOp25
 70
     0
102
RTVSPropertyOp26
 70
     0
102
RTVSPropertyOp27
 70
     0
102
RTVSPropertyOp28
 70
     1
102
RTVSPropertyOp29
 70
     1
102
RTVSPropertyOp30
 70
     1
102
RTVSPropertyOp31
 70
     1
102
RTVSPropertyOp32
 70
     1
102
RTVSPropertyOp33
 70
     1
102
RTVSPropertyOp34
 70
     1
102
RTVSPropertyOp35
 70
     1
102
RTVSPropertyOp36
 70
     1
102
RTVSPropertyOp37
 70
     0
102
RTVSPropertyOp38
 70
     0
102
RTVSPropertyOp39
 70
     0
102
RTVSPropertyOp40
 70
     0
102
RTVSPropertyOp41
 70
     0
102
RTVSPropertyOp42
 70
     0
102
RTVSPropertyOp43
 70
     0
102
RTVSPropertyOp44
 70
     0
102
RTVSPropertyOp45
 70
     1
102
RTVSPropertyOp46
 70
     0
102
RTVSPropertyOp47
 70
     0
102
RTVSPropertyOp48
 70
     0
102
RTVSPropertyOp49
 70
     1
102
RTVSPropertyOp50
 70
     0
102
RTVSPropertyOp51
 70
     0
102
RTVSPropertyOp52
 70
     0
102
RTVSPropertyOp53
 70
     0
102
RTVSPropertyOp54
 70
     0
102
RTVSPropertyOp55
 70
     1
102
RTVSPropertyOp56
 70
     0
102
RTVSPropertyOp57
 70
     0
102
RTVSPropertyOp58
 70
     0
102
RTVSPropertyOp59
 70
     0
102
RTVSPropertyOp60
 70
     0
102
RTVSPropertyOp61
 70
     0
102
RTVSPropertyOp62
 70
     0
  0
XRECORD
  5
273D
102
{ACAD_REACTORS
330
273C
102
}
330
273C
100
AcDbXrecord
280
     1
102
RTVSPost2010Prop28
280
     0
102
RTVSPost2010PropOp28
 70
     1
102
RTVSPost2010Prop29
280
     1
102
RTVSPost2010PropOp29
 70
     1
102
RTVSPost2010Prop30
280
     1
102
RTVSPost2010PropOp30
 70
     1
102
RTVSPost2010Prop31
280
     0
102
RTVSPost2010PropOp31
 70
     1
102
RTVSPost2010Prop32
280
     0
102
RTVSPost2010PropOp32
 70
     1
102
RTVSPost2010Prop33
280
     0
102
RTVSPost2010PropOp33
 70
     1
102
RTVSPost2010Prop34
280
     0
102
RTVSPost2010PropOp34
 70
     1
102
RTVSPost2010Prop35
280
     0
102
RTVSPost2010PropOp35
 70
     1
102
RTVSPost2010Prop36
280
     0
102
RTVSPost2010PropOp36
 70
     1
102
RTVSPost2010Prop37
 90
       50
102
RTVSPost2010PropOp37
 70
     1
102
RTVSPost2010Prop38
140
0.0
102
RTVSPost2010PropOp38
 70
     1
102
RTVSPost2010Prop39
140
1.0
102
RTVSPost2010PropOp39
 70
     1
102
RTVSPost2010Prop40
 90
        0
102
RTVSPost2010PropOp40
 70
     1
102
RTVSPost2010Prop41ColorIndex
 90
       18
102
RTVSPost2010Prop41ColorRGB
 90
        0
102
RTVSPost2010PropOp41
 70
     1
102
RTVSPost2010Prop42
 90
       50
102
RTVSPost2010PropOp42
 70
     1
102
RTVSPost2010Prop43
 90
        3
102
RTVSPost2010PropOp43
 70
     1
102
RTVSPost2010Prop44ColorIndex
 90
        5
102
RTVSPost2010Prop44ColorRGB
 90
      255
102
RTVSPost2010PropOp44
 70
     1
102
RTVSPost2010Prop45
280
     0
102
RTVSPost2010PropOp45
 70
     1
102
RTVSPost2010Prop46
 90
       50
102
RTVSPost2010PropOp46
 70
     1
102
RTVSPost2010Prop47
 90
       50
102
RTVSPost2010PropOp47
 70
     1
102
RTVSPost2010Prop48
 90
       50
102
RTVSPost2010PropOp48
 70
     1
102
RTVSPost2010Prop49
280
     0
102
RTVSPost2010PropOp49
 70
     1
102
RTVSPost2010Prop50
 90
       50
102
RTVSPost2010PropOp50
 70
     1
102
RTVSPost2010Prop51ColorIndex
 90
      256
102
RTVSPost2010Prop51ColorRGB
 90
-16777216
102
RTVSPost2010PropOp51
 70
     0
102
RTVSPost2010Prop52
140
1.0
102
RTVSPost2010PropOp52
 70
     0
102
RTVSPost2010Prop53
 90
        2
102
RTVSPost2010PropOp53
 70
     1
102
RTVSPost2010Prop54
  1
strokes_ogs.tif
102
RTVSPost2010PropOp54
 70
     1
102
RTVSPost2010Prop55
280
     0
102
RTVSPost2010PropOp55
 70
     1
102
RTVSPost2010Prop56
140
1.0
102
RTVSPost2010PropOp56
 70
     1
102
RTVSPost2010Prop57
140
1.0
102
RTVSPost2010PropOp57
 70
     1
102
RTVSPropertyOp0
 70
     1
102
RTVSPropertyOp1
 70
     1
102
RTVSPropertyOp2
 70
     1
102
RTVSPropertyOp3
 70
     1
102
RTVSPropertyOp4
 70
     1
102
RTVSPropertyOp5
 70
     1
102
RTVSPropertyOp6
 70
     1
102
RTVSPropertyOp7
 70
     1
102
RTVSPropertyOp8
 70
     1
102
RTVSPropertyOp9
 70
     1
102
RTVSPropertyOp10
 70
     1
102
RTVSPropertyOp11
 70
     1
102
RTVSPropertyOp12
 70
     1
102
RTVSPropertyOp13
 70
     1
102
RTVSPropertyOp14
 70
     1
102
RTVSPropertyOp15
 70
     1
102
RTVSPropertyOp16
 70
     1
102
RTVSPropertyOp17
 70
     1
102
RTVSPropertyOp18
 70
     1
102
RTVSPropertyOp19
 70
     1
102
RTVSPropertyOp20
 70
     1
102
RTVSPropertyOp21
 70
     1
102
RTVSPropertyOp22
 70
     1
102
RTVSPropertyOp23
 70
     1
102
RTVSPropertyOp24
 70
     1
102
RTVSPropertyOp25
 70
     1
102
RTVSPropertyOp26
 70
     1
102
RTVSPropertyOp27
 70
     1
102
RTVSPropertyOp28
 70
     1
102
RTVSPropertyOp29
 70
     1
102
RTVSPropertyOp30
 70
     1
102
RTVSPropertyOp31
 70
     1
102
RTVSPropertyOp32
 70
     1
102
RTVSPropertyOp33
 70
     1
102
RTVSPropertyOp34
 70
     1
102
RTVSPropertyOp35
 70
     1
102
RTVSPropertyOp36
 70
     1
102
RTVSPropertyOp37
 70
     1
102
RTVSPropertyOp38
 70
     1
102
RTVSPropertyOp39
 70
     1
102
RTVSPropertyOp40
 70
     1
102
RTVSPropertyOp41
 70
     1
102
RTVSPropertyOp42
 70
     1
102
RTVSPropertyOp43
 70
     1
102
RTVSPropertyOp44
 70
     1
102
RTVSPropertyOp45
 70
     1
102
RTVSPropertyOp46
 70
     1
102
RTVSPropertyOp47
 70
     1
102
RTVSPropertyOp48
 70
     1
102
RTVSPropertyOp49
 70
     1
102
RTVSPropertyOp50
 70
     1
102
RTVSPropertyOp51
 70
     0
102
RTVSPropertyOp52
 70
     0
102
RTVSPropertyOp53
 70
     1
102
RTVSPropertyOp54
 70
     1
102
RTVSPropertyOp55
 70
     1
102
RTVSPropertyOp56
 70
     1
102
RTVSPropertyOp57
 70
     1
102
RTVSPropertyOp58
 70
     1
102
RTVSPropertyOp59
 70
     1
102
RTVSPropertyOp60
 70
     1
102
RTVSPropertyOp61
 70
     1
102
RTVSPropertyOp62
 70
     1
  0
XRECORD
  5
2721
102
{ACAD_REACTORS
330
2720
102
}
330
2720
100
AcDbXrecord
280
     1
102
RTVSPost2010Prop28
280
     0
102
RTVSPost2010PropOp28
 70
     1
102
RTVSPost2010Prop29
280
     1
102
RTVSPost2010PropOp29
 70
     1
102
RTVSPost2010Prop30
280
     1
102
RTVSPost2010PropOp30
 70
     1
102
RTVSPost2010Prop31
280
     0
102
RTVSPost2010PropOp31
 70
     1
102
RTVSPost2010Prop32
280
     0
102
RTVSPost2010PropOp32
 70
     1
102
RTVSPost2010Prop33
280
     0
102
RTVSPost2010PropOp33
 70
     1
102
RTVSPost2010Prop34
280
     0
102
RTVSPost2010PropOp34
 70
     1
102
RTVSPost2010Prop35
280
     0
102
RTVSPost2010PropOp35
 70
     1
102
RTVSPost2010Prop36
280
     0
102
RTVSPost2010PropOp36
 70
     1
102
RTVSPost2010Prop37
 90
       50
102
RTVSPost2010PropOp37
 70
     1
102
RTVSPost2010Prop38
140
0.0
102
RTVSPost2010PropOp38
 70
     1
102
RTVSPost2010Prop39
140
1.0
102
RTVSPost2010PropOp39
 70
     1
102
RTVSPost2010Prop40
 90
        0
102
RTVSPost2010PropOp40
 70
     1
102
RTVSPost2010Prop41ColorIndex
 90
       18
102
RTVSPost2010Prop41ColorRGB
 90
        0
102
RTVSPost2010PropOp41
 70
     1
102
RTVSPost2010Prop42
 90
       50
102
RTVSPost2010PropOp42
 70
     1
102
RTVSPost2010Prop43
 90
        3
102
RTVSPost2010PropOp43
 70
     1
102
RTVSPost2010Prop44ColorIndex
 90
        5
102
RTVSPost2010Prop44ColorRGB
 90
      255
102
RTVSPost2010PropOp44
 70
     1
102
RTVSPost2010Prop45
280
     0
102
RTVSPost2010PropOp45
 70
     1
102
RTVSPost2010Prop46
 90
       50
102
RTVSPost2010PropOp46
 70
     1
102
RTVSPost2010Prop47
 90
       50
102
RTVSPost2010PropOp47
 70
     1
102
RTVSPost2010Prop48
 90
       50
102
RTVSPost2010PropOp48
 70
     1
102
RTVSPost2010Prop49
280
     0
102
RTVSPost2010PropOp49
 70
     1
102
RTVSPost2010Prop50
 90
       50
102
RTVSPost2010PropOp50
 70
     1
102
RTVSPost2010Prop51ColorIndex
 90
      256
102
RTVSPost2010Prop51ColorRGB
 90
-16777216
102
RTVSPost2010PropOp51
 70
     0
102
RTVSPost2010Prop52
140
1.0
102
RTVSPost2010PropOp52
 70
     0
102
RTVSPost2010Prop53
 90
        2
102
RTVSPost2010PropOp53
 70
     1
102
RTVSPost2010Prop54
  1
strokes_ogs.tif
102
RTVSPost2010PropOp54
 70
     1
102
RTVSPost2010Prop55
280
     0
102
RTVSPost2010PropOp55
 70
     1
102
RTVSPost2010Prop56
140
1.0
102
RTVSPost2010PropOp56
 70
     1
102
RTVSPost2010Prop57
140
1.0
102
RTVSPost2010PropOp57
 70
     1
102
RTVSPropertyOp0
 70
     1
102
RTVSPropertyOp1
 70
     1
102
RTVSPropertyOp2
 70
     1
102
RTVSPropertyOp3
 70
     1
102
RTVSPropertyOp4
 70
     1
102
RTVSPropertyOp5
 70
     1
102
RTVSPropertyOp6
 70
     1
102
RTVSPropertyOp7
 70
     1
102
RTVSPropertyOp8
 70
     1
102
RTVSPropertyOp9
 70
     1
102
RTVSPropertyOp10
 70
     1
102
RTVSPropertyOp11
 70
     1
102
RTVSPropertyOp12
 70
     1
102
RTVSPropertyOp13
 70
     1
102
RTVSPropertyOp14
 70
     1
102
RTVSPropertyOp15
 70
     1
102
RTVSPropertyOp16
 70
     1
102
RTVSPropertyOp17
 70
     1
102
RTVSPropertyOp18
 70
     1
102
RTVSPropertyOp19
 70
     1
102
RTVSPropertyOp20
 70
     1
102
RTVSPropertyOp21
 70
     1
102
RTVSPropertyOp22
 70
     1
102
RTVSPropertyOp23
 70
     1
102
RTVSPropertyOp24
 70
     1
102
RTVSPropertyOp25
 70
     1
102
RTVSPropertyOp26
 70
     1
102
RTVSPropertyOp27
 70
     1
102
RTVSPropertyOp28
 70
     1
102
RTVSPropertyOp29
 70
     1
102
RTVSPropertyOp30
 70
     1
102
RTVSPropertyOp31
 70
     1
102
RTVSPropertyOp32
 70
     1
102
RTVSPropertyOp33
 70
     1
102
RTVSPropertyOp34
 70
     1
102
RTVSPropertyOp35
 70
     1
102
RTVSPropertyOp36
 70
     1
102
RTVSPropertyOp37
 70
     1
102
RTVSPropertyOp38
 70
     1
102
RTVSPropertyOp39
 70
     1
102
RTVSPropertyOp40
 70
     1
102
RTVSPropertyOp41
 70
     1
102
RTVSPropertyOp42
 70
     1
102
RTVSPropertyOp43
 70
     1
102
RTVSPropertyOp44
 70
     1
102
RTVSPropertyOp45
 70
     1
102
RTVSPropertyOp46
 70
     1
102
RTVSPropertyOp47
 70
     1
102
RTVSPropertyOp48
 70
     1
102
RTVSPropertyOp49
 70
     1
102
RTVSPropertyOp50
 70
     1
102
RTVSPropertyOp51
 70
     0
102
RTVSPropertyOp52
 70
     0
102
RTVSPropertyOp53
 70
     1
102
RTVSPropertyOp54
 70
     1
102
RTVSPropertyOp55
 70
     1
102
RTVSPropertyOp56
 70
     1
102
RTVSPropertyOp57
 70
     1
102
RTVSPropertyOp58
 70
     1
102
RTVSPropertyOp59
 70
     1
102
RTVSPropertyOp60
 70
     1
102
RTVSPropertyOp61
 70
     1
102
RTVSPropertyOp62
 70
     1
  0
XRECORD
  5
2723
102
{ACAD_REACTORS
330
2722
102
}
330
2722
100
AcDbXrecord
280
     1
102
RTVSPost2010Prop28
280
     0
102
RTVSPost2010PropOp28
 70
     1
102
RTVSPost2010Prop29
280
     1
102
RTVSPost2010PropOp29
 70
     1
102
RTVSPost2010Prop30
280
     1
102
RTVSPost2010PropOp30
 70
     1
102
RTVSPost2010Prop31
280
     0
102
RTVSPost2010PropOp31
 70
     1
102
RTVSPost2010Prop32
280
     0
102
RTVSPost2010PropOp32
 70
     1
102
RTVSPost2010Prop33
280
     0
102
RTVSPost2010PropOp33
 70
     1
102
RTVSPost2010Prop34
280
     0
102
RTVSPost2010PropOp34
 70
     1
102
RTVSPost2010Prop35
280
     0
102
RTVSPost2010PropOp35
 70
     1
102
RTVSPost2010Prop36
280
     0
102
RTVSPost2010PropOp36
 70
     1
102
RTVSPost2010Prop37
 90
       50
102
RTVSPost2010PropOp37
 70
     1
102
RTVSPost2010Prop38
140
0.0
102
RTVSPost2010PropOp38
 70
     1
102
RTVSPost2010Prop39
140
1.0
102
RTVSPost2010PropOp39
 70
     1
102
RTVSPost2010Prop40
 90
        0
102
RTVSPost2010PropOp40
 70
     1
102
RTVSPost2010Prop41ColorIndex
 90
       18
102
RTVSPost2010Prop41ColorRGB
 90
        0
102
RTVSPost2010PropOp41
 70
     1
102
RTVSPost2010Prop42
 90
       50
102
RTVSPost2010PropOp42
 70
     1
102
RTVSPost2010Prop43
 90
        3
102
RTVSPost2010PropOp43
 70
     1
102
RTVSPost2010Prop44ColorIndex
 90
        5
102
RTVSPost2010Prop44ColorRGB
 90
      255
102
RTVSPost2010PropOp44
 70
     1
102
RTVSPost2010Prop45
280
     0
102
RTVSPost2010PropOp45
 70
     1
102
RTVSPost2010Prop46
 90
       50
102
RTVSPost2010PropOp46
 70
     1
102
RTVSPost2010Prop47
 90
       50
102
RTVSPost2010PropOp47
 70
     1
102
RTVSPost2010Prop48
 90
       50
102
RTVSPost2010PropOp48
 70
     1
102
RTVSPost2010Prop49
280
     0
102
RTVSPost2010PropOp49
 70
     1
102
RTVSPost2010Prop50
 90
       50
102
RTVSPost2010PropOp50
 70
     1
102
RTVSPost2010Prop51ColorIndex
 90
      256
102
RTVSPost2010Prop51ColorRGB
 90
-16777216
102
RTVSPost2010PropOp51
 70
     0
102
RTVSPost2010Prop52
140
1.0
102
RTVSPost2010PropOp52
 70
     0
102
RTVSPost2010Prop53
 90
        2
102
RTVSPost2010PropOp53
 70
     1
102
RTVSPost2010Prop54
  1
strokes_ogs.tif
102
RTVSPost2010PropOp54
 70
     1
102
RTVSPost2010Prop55
280
     0
102
RTVSPost2010PropOp55
 70
     1
102
RTVSPost2010Prop56
140
1.0
102
RTVSPost2010PropOp56
 70
     1
102
RTVSPost2010Prop57
140
1.0
102
RTVSPost2010PropOp57
 70
     1
102
RTVSPropertyOp0
 70
     1
102
RTVSPropertyOp1
 70
     1
102
RTVSPropertyOp2
 70
     1
102
RTVSPropertyOp3
 70
     1
102
RTVSPropertyOp4
 70
     1
102
RTVSPropertyOp5
 70
     1
102
RTVSPropertyOp6
 70
     1
102
RTVSPropertyOp7
 70
     1
102
RTVSPropertyOp8
 70
     1
102
RTVSPropertyOp9
 70
     1
102
RTVSPropertyOp10
 70
     1
102
RTVSPropertyOp11
 70
     1
102
RTVSPropertyOp12
 70
     1
102
RTVSPropertyOp13
 70
     1
102
RTVSPropertyOp14
 70
     1
102
RTVSPropertyOp15
 70
     1
102
RTVSPropertyOp16
 70
     1
102
RTVSPropertyOp17
 70
     1
102
RTVSPropertyOp18
 70
     1
102
RTVSPropertyOp19
 70
     1
102
RTVSPropertyOp20
 70
     1
102
RTVSPropertyOp21
 70
     1
102
RTVSPropertyOp22
 70
     1
102
RTVSPropertyOp23
 70
     1
102
RTVSPropertyOp24
 70
     1
102
RTVSPropertyOp25
 70
     1
102
RTVSPropertyOp26
 70
     1
102
RTVSPropertyOp27
 70
     1
102
RTVSPropertyOp28
 70
     1
102
RTVSPropertyOp29
 70
     1
102
RTVSPropertyOp30
 70
     1
102
RTVSPropertyOp31
 70
     1
102
RTVSPropertyOp32
 70
     1
102
RTVSPropertyOp33
 70
     1
102
RTVSPropertyOp34
 70
     1
102
RTVSPropertyOp35
 70
     1
102
RTVSPropertyOp36
 70
     1
102
RTVSPropertyOp37
 70
     1
102
RTVSPropertyOp38
 70
     1
102
RTVSPropertyOp39
 70
     1
102
RTVSPropertyOp40
 70
     1
102
RTVSPropertyOp41
 70
     1
102
RTVSPropertyOp42
 70
     1
102
RTVSPropertyOp43
 70
     1
102
RTVSPropertyOp44
 70
     1
102
RTVSPropertyOp45
 70
     1
102
RTVSPropertyOp46
 70
     1
102
RTVSPropertyOp47
 70
     1
102
RTVSPropertyOp48
 70
     1
102
RTVSPropertyOp49
 70
     1
102
RTVSPropertyOp50
 70
     1
102
RTVSPropertyOp51
 70
     0
102
RTVSPropertyOp52
 70
     0
102
RTVSPropertyOp53
 70
     1
102
RTVSPropertyOp54
 70
     1
102
RTVSPropertyOp55
 70
     1
102
RTVSPropertyOp56
 70
     1
102
RTVSPropertyOp57
 70
     1
102
RTVSPropertyOp58
 70
     1
102
RTVSPropertyOp59
 70
     1
102
RTVSPropertyOp60
 70
     1
102
RTVSPropertyOp61
 70
     1
102
RTVSPropertyOp62
 70
     1
  0
XRECORD
  5
2725
102
{ACAD_REACTORS
330
2724
102
}
330
2724
100
AcDbXrecord
280
     1
102
RTVSPost2010Prop28
280
     0
102
RTVSPost2010PropOp28
 70
     1
102
RTVSPost2010Prop29
280
     1
102
RTVSPost2010PropOp29
 70
     1
102
RTVSPost2010Prop30
280
     1
102
RTVSPost2010PropOp30
 70
     1
102
RTVSPost2010Prop31
280
     0
102
RTVSPost2010PropOp31
 70
     1
102
RTVSPost2010Prop32
280
     0
102
RTVSPost2010PropOp32
 70
     1
102
RTVSPost2010Prop33
280
     0
102
RTVSPost2010PropOp33
 70
     1
102
RTVSPost2010Prop34
280
     0
102
RTVSPost2010PropOp34
 70
     1
102
RTVSPost2010Prop35
280
     0
102
RTVSPost2010PropOp35
 70
     1
102
RTVSPost2010Prop36
280
     0
102
RTVSPost2010PropOp36
 70
     1
102
RTVSPost2010Prop37
 90
       50
102
RTVSPost2010PropOp37
 70
     1
102
RTVSPost2010Prop38
140
0.0
102
RTVSPost2010PropOp38
 70
     1
102
RTVSPost2010Prop39
140
1.0
102
RTVSPost2010PropOp39
 70
     1
102
RTVSPost2010Prop40
 90
        0
102
RTVSPost2010PropOp40
 70
     1
102
RTVSPost2010Prop41ColorIndex
 90
       18
102
RTVSPost2010Prop41ColorRGB
 90
        0
102
RTVSPost2010PropOp41
 70
     1
102
RTVSPost2010Prop42
 90
       50
102
RTVSPost2010PropOp42
 70
     1
102
RTVSPost2010Prop43
 90
        3
102
RTVSPost2010PropOp43
 70
     1
102
RTVSPost2010Prop44ColorIndex
 90
        5
102
RTVSPost2010Prop44ColorRGB
 90
      255
102
RTVSPost2010PropOp44
 70
     1
102
RTVSPost2010Prop45
280
     0
102
RTVSPost2010PropOp45
 70
     1
102
RTVSPost2010Prop46
 90
       50
102
RTVSPost2010PropOp46
 70
     1
102
RTVSPost2010Prop47
 90
       50
102
RTVSPost2010PropOp47
 70
     1
102
RTVSPost2010Prop48
 90
       50
102
RTVSPost2010PropOp48
 70
     1
102
RTVSPost2010Prop49
280
     0
102
RTVSPost2010PropOp49
 70
     1
102
RTVSPost2010Prop50
 90
       50
102
RTVSPost2010PropOp50
 70
     1
102
RTVSPost2010Prop51ColorIndex
 90
      256
102
RTVSPost2010Prop51ColorRGB
 90
-16777216
102
RTVSPost2010PropOp51
 70
     0
102
RTVSPost2010Prop52
140
1.0
102
RTVSPost2010PropOp52
 70
     0
102
RTVSPost2010Prop53
 90
        2
102
RTVSPost2010PropOp53
 70
     1
102
RTVSPost2010Prop54
  1
strokes_ogs.tif
102
RTVSPost2010PropOp54
 70
     1
102
RTVSPost2010Prop55
280
     0
102
RTVSPost2010PropOp55
 70
     1
102
RTVSPost2010Prop56
140
1.0
102
RTVSPost2010PropOp56
 70
     1
102
RTVSPost2010Prop57
140
1.0
102
RTVSPost2010PropOp57
 70
     1
102
RTVSPropertyOp0
 70
     1
102
RTVSPropertyOp1
 70
     1
102
RTVSPropertyOp2
 70
     1
102
RTVSPropertyOp3
 70
     1
102
RTVSPropertyOp4
 70
     1
102
RTVSPropertyOp5
 70
     1
102
RTVSPropertyOp6
 70
     1
102
RTVSPropertyOp7
 70
     1
102
RTVSPropertyOp8
 70
     1
102
RTVSPropertyOp9
 70
     1
102
RTVSPropertyOp10
 70
     1
102
RTVSPropertyOp11
 70
     1
102
RTVSPropertyOp12
 70
     1
102
RTVSPropertyOp13
 70
     1
102
RTVSPropertyOp14
 70
     1
102
RTVSPropertyOp15
 70
     1
102
RTVSPropertyOp16
 70
     1
102
RTVSPropertyOp17
 70
     1
102
RTVSPropertyOp18
 70
     1
102
RTVSPropertyOp19
 70
     1
102
RTVSPropertyOp20
 70
     1
102
RTVSPropertyOp21
 70
     1
102
RTVSPropertyOp22
 70
     1
102
RTVSPropertyOp23
 70
     1
102
RTVSPropertyOp24
 70
     1
102
RTVSPropertyOp25
 70
     1
102
RTVSPropertyOp26
 70
     1
102
RTVSPropertyOp27
 70
     1
102
RTVSPropertyOp28
 70
     1
102
RTVSPropertyOp29
 70
     1
102
RTVSPropertyOp30
 70
     1
102
RTVSPropertyOp31
 70
     1
102
RTVSPropertyOp32
 70
     1
102
RTVSPropertyOp33
 70
     1
102
RTVSPropertyOp34
 70
     1
102
RTVSPropertyOp35
 70
     1
102
RTVSPropertyOp36
 70
     1
102
RTVSPropertyOp37
 70
     1
102
RTVSPropertyOp38
 70
     1
102
RTVSPropertyOp39
 70
     1
102
RTVSPropertyOp40
 70
     1
102
RTVSPropertyOp41
 70
     1
102
RTVSPropertyOp42
 70
     1
102
RTVSPropertyOp43
 70
     1
102
RTVSPropertyOp44
 70
     1
102
RTVSPropertyOp45
 70
     1
102
RTVSPropertyOp46
 70
     1
102
RTVSPropertyOp47
 70
     1
102
RTVSPropertyOp48
 70
     1
102
RTVSPropertyOp49
 70
     1
102
RTVSPropertyOp50
 70
     1
102
RTVSPropertyOp51
 70
     0
102
RTVSPropertyOp52
 70
     0
102
RTVSPropertyOp53
 70
     1
102
RTVSPropertyOp54
 70
     1
102
RTVSPropertyOp55
 70
     1
102
RTVSPropertyOp56
 70
     1
102
RTVSPropertyOp57
 70
     1
102
RTVSPropertyOp58
 70
     1
102
RTVSPropertyOp59
 70
     1
102
RTVSPropertyOp60
 70
     1
102
RTVSPropertyOp61
 70
     1
102
RTVSPropertyOp62
 70
     1
  0
XRECORD
  5
2727
102
{ACAD_REACTORS
330
2726
102
}
330
2726
100
AcDbXrecord
280
     1
102
RTVSPost2010Prop28
280
     0
102
RTVSPost2010PropOp28
 70
     1
102
RTVSPost2010Prop29
280
     1
102
RTVSPost2010PropOp29
 70
     1
102
RTVSPost2010Prop30
280
     1
102
RTVSPost2010PropOp30
 70
     1
102
RTVSPost2010Prop31
280
     0
102
RTVSPost2010PropOp31
 70
     1
102
RTVSPost2010Prop32
280
     0
102
RTVSPost2010PropOp32
 70
     1
102
RTVSPost2010Prop33
280
     0
102
RTVSPost2010PropOp33
 70
     1
102
RTVSPost2010Prop34
280
     0
102
RTVSPost2010PropOp34
 70
     1
102
RTVSPost2010Prop35
280
     0
102
RTVSPost2010PropOp35
 70
     1
102
RTVSPost2010Prop36
280
     0
102
RTVSPost2010PropOp36
 70
     1
102
RTVSPost2010Prop37
 90
       50
102
RTVSPost2010PropOp37
 70
     1
102
RTVSPost2010Prop38
140
0.0
102
RTVSPost2010PropOp38
 70
     1
102
RTVSPost2010Prop39
140
1.0
102
RTVSPost2010PropOp39
 70
     1
102
RTVSPost2010Prop40
 90
        0
102
RTVSPost2010PropOp40
 70
     1
102
RTVSPost2010Prop41ColorIndex
 90
       18
102
RTVSPost2010Prop41ColorRGB
 90
        0
102
RTVSPost2010PropOp41
 70
     1
102
RTVSPost2010Prop42
 90
       50
102
RTVSPost2010PropOp42
 70
     1
102
RTVSPost2010Prop43
 90
        3
102
RTVSPost2010PropOp43
 70
     1
102
RTVSPost2010Prop44ColorIndex
 90
        5
102
RTVSPost2010Prop44ColorRGB
 90
      255
102
RTVSPost2010PropOp44
 70
     1
102
RTVSPost2010Prop45
280
     0
102
RTVSPost2010PropOp45
 70
     1
102
RTVSPost2010Prop46
 90
       50
102
RTVSPost2010PropOp46
 70
     1
102
RTVSPost2010Prop47
 90
       50
102
RTVSPost2010PropOp47
 70
     1
102
RTVSPost2010Prop48
 90
       50
102
RTVSPost2010PropOp48
 70
     1
102
RTVSPost2010Prop49
280
     0
102
RTVSPost2010PropOp49
 70
     1
102
RTVSPost2010Prop50
 90
       50
102
RTVSPost2010PropOp50
 70
     1
102
RTVSPost2010Prop51ColorIndex
 90
      256
102
RTVSPost2010Prop51ColorRGB
 90
-16777216
102
RTVSPost2010PropOp51
 70
     0
102
RTVSPost2010Prop52
140
1.0
102
RTVSPost2010PropOp52
 70
     0
102
RTVSPost2010Prop53
 90
        2
102
RTVSPost2010PropOp53
 70
     1
102
RTVSPost2010Prop54
  1
strokes_ogs.tif
102
RTVSPost2010PropOp54
 70
     1
102
RTVSPost2010Prop55
280
     0
102
RTVSPost2010PropOp55
 70
     1
102
RTVSPost2010Prop56
140
1.0
102
RTVSPost2010PropOp56
 70
     1
102
RTVSPost2010Prop57
140
1.0
102
RTVSPost2010PropOp57
 70
     1
102
RTVSPropertyOp0
 70
     1
102
RTVSPropertyOp1
 70
     1
102
RTVSPropertyOp2
 70
     1
102
RTVSPropertyOp3
 70
     1
102
RTVSPropertyOp4
 70
     1
102
RTVSPropertyOp5
 70
     1
102
RTVSPropertyOp6
 70
     1
102
RTVSPropertyOp7
 70
     1
102
RTVSPropertyOp8
 70
     1
102
RTVSPropertyOp9
 70
     1
102
RTVSPropertyOp10
 70
     1
102
RTVSPropertyOp11
 70
     1
102
RTVSPropertyOp12
 70
     1
102
RTVSPropertyOp13
 70
     1
102
RTVSPropertyOp14
 70
     1
102
RTVSPropertyOp15
 70
     1
102
RTVSPropertyOp16
 70
     1
102
RTVSPropertyOp17
 70
     1
102
RTVSPropertyOp18
 70
     1
102
RTVSPropertyOp19
 70
     1
102
RTVSPropertyOp20
 70
     1
102
RTVSPropertyOp21
 70
     1
102
RTVSPropertyOp22
 70
     1
102
RTVSPropertyOp23
 70
     1
102
RTVSPropertyOp24
 70
     1
102
RTVSPropertyOp25
 70
     1
102
RTVSPropertyOp26
 70
     1
102
RTVSPropertyOp27
 70
     1
102
RTVSPropertyOp28
 70
     1
102
RTVSPropertyOp29
 70
     1
102
RTVSPropertyOp30
 70
     1
102
RTVSPropertyOp31
 70
     1
102
RTVSPropertyOp32
 70
     1
102
RTVSPropertyOp33
 70
     1
102
RTVSPropertyOp34
 70
     1
102
RTVSPropertyOp35
 70
     1
102
RTVSPropertyOp36
 70
     1
102
RTVSPropertyOp37
 70
     1
102
RTVSPropertyOp38
 70
     1
102
RTVSPropertyOp39
 70
     1
102
RTVSPropertyOp40
 70
     1
102
RTVSPropertyOp41
 70
     1
102
RTVSPropertyOp42
 70
     1
102
RTVSPropertyOp43
 70
     1
102
RTVSPropertyOp44
 70
     1
102
RTVSPropertyOp45
 70
     1
102
RTVSPropertyOp46
 70
     1
102
RTVSPropertyOp47
 70
     1
102
RTVSPropertyOp48
 70
     1
102
RTVSPropertyOp49
 70
     1
102
RTVSPropertyOp50
 70
     1
102
RTVSPropertyOp51
 70
     0
102
RTVSPropertyOp52
 70
     0
102
RTVSPropertyOp53
 70
     1
102
RTVSPropertyOp54
 70
     1
102
RTVSPropertyOp55
 70
     1
102
RTVSPropertyOp56
 70
     1
102
RTVSPropertyOp57
 70
     1
102
RTVSPropertyOp58
 70
     1
102
RTVSPropertyOp59
 70
     1
102
RTVSPropertyOp60
 70
     1
102
RTVSPropertyOp61
 70
     1
102
RTVSPropertyOp62
 70
     1
  0
XRECORD
  5
272F
102
{ACAD_REACTORS
330
272E
102
}
330
272E
100
AcDbXrecord
280
     1
102
RTVSPost2010Prop28
280
     0
102
RTVSPost2010PropOp28
 70
     1
102
RTVSPost2010Prop29
280
     1
102
RTVSPost2010PropOp29
 70
     1
102
RTVSPost2010Prop30
280
     1
102
RTVSPost2010PropOp30
 70
     1
102
RTVSPost2010Prop31
280
     0
102
RTVSPost2010PropOp31
 70
     1
102
RTVSPost2010Prop32
280
     0
102
RTVSPost2010PropOp32
 70
     1
102
RTVSPost2010Prop33
280
     0
102
RTVSPost2010PropOp33
 70
     1
102
RTVSPost2010Prop34
280
     0
102
RTVSPost2010PropOp34
 70
     1
102
RTVSPost2010Prop35
280
     0
102
RTVSPost2010PropOp35
 70
     1
102
RTVSPost2010Prop36
280
     0
102
RTVSPost2010PropOp36
 70
     1
102
RTVSPost2010Prop37
 90
       50
102
RTVSPost2010PropOp37
 70
     1
102
RTVSPost2010Prop38
140
0.0
102
RTVSPost2010PropOp38
 70
     1
102
RTVSPost2010Prop39
140
1.0
102
RTVSPost2010PropOp39
 70
     1
102
RTVSPost2010Prop40
 90
        0
102
RTVSPost2010PropOp40
 70
     1
102
RTVSPost2010Prop41ColorIndex
 90
       18
102
RTVSPost2010Prop41ColorRGB
 90
        0
102
RTVSPost2010PropOp41
 70
     1
102
RTVSPost2010Prop42
 90
       50
102
RTVSPost2010PropOp42
 70
     1
102
RTVSPost2010Prop43
 90
        3
102
RTVSPost2010PropOp43
 70
     1
102
RTVSPost2010Prop44ColorIndex
 90
        5
102
RTVSPost2010Prop44ColorRGB
 90
      255
102
RTVSPost2010PropOp44
 70
     1
102
RTVSPost2010Prop45
280
     0
102
RTVSPost2010PropOp45
 70
     1
102
RTVSPost2010Prop46
 90
       50
102
RTVSPost2010PropOp46
 70
     1
102
RTVSPost2010Prop47
 90
       50
102
RTVSPost2010PropOp47
 70
     1
102
RTVSPost2010Prop48
 90
       50
102
RTVSPost2010PropOp48
 70
     1
102
RTVSPost2010Prop49
280
     0
102
RTVSPost2010PropOp49
 70
     1
102
RTVSPost2010Prop50
 90
       50
102
RTVSPost2010PropOp50
 70
     1
102
RTVSPost2010Prop51ColorIndex
 90
      256
102
RTVSPost2010Prop51ColorRGB
 90
-16777216
102
RTVSPost2010PropOp51
 70
     0
102
RTVSPost2010Prop52
140
1.0
102
RTVSPost2010PropOp52
 70
     0
102
RTVSPost2010Prop53
 90
        2
102
RTVSPost2010PropOp53
 70
     1
102
RTVSPost2010Prop54
  1
strokes_ogs.tif
102
RTVSPost2010PropOp54
 70
     1
102
RTVSPost2010Prop55
280
     0
102
RTVSPost2010PropOp55
 70
     1
102
RTVSPost2010Prop56
140
1.0
102
RTVSPost2010PropOp56
 70
     1
102
RTVSPost2010Prop57
140
1.0
102
RTVSPost2010PropOp57
 70
     1
102
RTVSPropertyOp0
 70
     1
102
RTVSPropertyOp1
 70
     1
102
RTVSPropertyOp2
 70
     1
102
RTVSPropertyOp3
 70
     1
102
RTVSPropertyOp4
 70
     1
102
RTVSPropertyOp5
 70
     1
102
RTVSPropertyOp6
 70
     1
102
RTVSPropertyOp7
 70
     1
102
RTVSPropertyOp8
 70
     1
102
RTVSPropertyOp9
 70
     1
102
RTVSPropertyOp10
 70
     1
102
RTVSPropertyOp11
 70
     1
102
RTVSPropertyOp12
 70
     1
102
RTVSPropertyOp13
 70
     1
102
RTVSPropertyOp14
 70
     1
102
RTVSPropertyOp15
 70
     1
102
RTVSPropertyOp16
 70
     1
102
RTVSPropertyOp17
 70
     1
102
RTVSPropertyOp18
 70
     1
102
RTVSPropertyOp19
 70
     1
102
RTVSPropertyOp20
 70
     1
102
RTVSPropertyOp21
 70
     1
102
RTVSPropertyOp22
 70
     1
102
RTVSPropertyOp23
 70
     1
102
RTVSPropertyOp24
 70
     1
102
RTVSPropertyOp25
 70
     1
102
RTVSPropertyOp26
 70
     1
102
RTVSPropertyOp27
 70
     1
102
RTVSPropertyOp28
 70
     1
102
RTVSPropertyOp29
 70
     1
102
RTVSPropertyOp30
 70
     1
102
RTVSPropertyOp31
 70
     1
102
RTVSPropertyOp32
 70
     1
102
RTVSPropertyOp33
 70
     1
102
RTVSPropertyOp34
 70
     1
102
RTVSPropertyOp35
 70
     1
102
RTVSPropertyOp36
 70
     1
102
RTVSPropertyOp37
 70
     1
102
RTVSPropertyOp38
 70
     1
102
RTVSPropertyOp39
 70
     1
102
RTVSPropertyOp40
 70
     1
102
RTVSPropertyOp41
 70
     1
102
RTVSPropertyOp42
 70
     1
102
RTVSPropertyOp43
 70
     1
102
RTVSPropertyOp44
 70
     1
102
RTVSPropertyOp45
 70
     1
102
RTVSPropertyOp46
 70
     1
102
RTVSPropertyOp47
 70
     1
102
RTVSPropertyOp48
 70
     1
102
RTVSPropertyOp49
 70
     1
102
RTVSPropertyOp50
 70
     1
102
RTVSPropertyOp51
 70
     0
102
RTVSPropertyOp52
 70
     0
102
RTVSPropertyOp53
 70
     1
102
RTVSPropertyOp54
 70
     1
102
RTVSPropertyOp55
 70
     1
102
RTVSPropertyOp56
 70
     1
102
RTVSPropertyOp57
 70
     1
102
RTVSPropertyOp58
 70
     1
102
RTVSPropertyOp59
 70
     1
102
RTVSPropertyOp60
 70
     1
102
RTVSPropertyOp61
 70
     1
102
RTVSPropertyOp62
 70
     1
  0
XRECORD
  5
274B
102
{ACAD_REACTORS
330
274A
102
}
330
274A
100
AcDbXrecord
280
     1
102
RTVSPost2010Prop28
280
     0
102
RTVSPost2010PropOp28
 70
     1
102
RTVSPost2010Prop29
280
     1
102
RTVSPost2010PropOp29
 70
     1
102
RTVSPost2010Prop30
280
     1
102
RTVSPost2010PropOp30
 70
     1
102
RTVSPost2010Prop31
280
     0
102
RTVSPost2010PropOp31
 70
     1
102
RTVSPost2010Prop32
280
     0
102
RTVSPost2010PropOp32
 70
     1
102
RTVSPost2010Prop33
280
     0
102
RTVSPost2010PropOp33
 70
     1
102
RTVSPost2010Prop34
280
     0
102
RTVSPost2010PropOp34
 70
     1
102
RTVSPost2010Prop35
280
     0
102
RTVSPost2010PropOp35
 70
     1
102
RTVSPost2010Prop36
280
     0
102
RTVSPost2010PropOp36
 70
     1
102
RTVSPost2010Prop37
 90
       50
102
RTVSPost2010PropOp37
 70
     0
102
RTVSPost2010Prop38
140
0.0
102
RTVSPost2010PropOp38
 70
     0
102
RTVSPost2010Prop39
140
1.0
102
RTVSPost2010PropOp39
 70
     0
102
RTVSPost2010Prop40
 90
        0
102
RTVSPost2010PropOp40
 70
     0
102
RTVSPost2010Prop41ColorIndex
 90
       18
102
RTVSPost2010Prop41ColorRGB
 90
        0
102
RTVSPost2010PropOp41
 70
     0
102
RTVSPost2010Prop42
 90
       50
102
RTVSPost2010PropOp42
 70
     0
102
RTVSPost2010Prop43
 90
        3
102
RTVSPost2010PropOp43
 70
     0
102
RTVSPost2010Prop44ColorIndex
 90
        5
102
RTVSPost2010Prop44ColorRGB
 90
      255
102
RTVSPost2010PropOp44
 70
     0
102
RTVSPost2010Prop45
280
     0
102
RTVSPost2010PropOp45
 70
     1
102
RTVSPost2010Prop46
 90
       50
102
RTVSPost2010PropOp46
 70
     0
102
RTVSPost2010Prop47
 90
       50
102
RTVSPost2010PropOp47
 70
     0
102
RTVSPost2010Prop48
 90
       50
102
RTVSPost2010PropOp48
 70
     0
102
RTVSPost2010Prop49
280
     0
102
RTVSPost2010PropOp49
 70
     1
102
RTVSPost2010Prop50
 90
       50
102
RTVSPost2010PropOp50
 70
     0
102
RTVSPost2010Prop51ColorIndex
 90
      256
102
RTVSPost2010Prop51ColorRGB
 90
-16777216
102
RTVSPost2010PropOp51
 70
     0
102
RTVSPost2010Prop52
140
1.0
102
RTVSPost2010PropOp52
 70
     0
102
RTVSPost2010Prop53
 90
        2
102
RTVSPost2010PropOp53
 70
     0
102
RTVSPost2010Prop54
  1
strokes_ogs.tif
102
RTVSPost2010PropOp54
 70
     0
102
RTVSPost2010Prop55
280
     0
102
RTVSPost2010PropOp55
 70
     1
102
RTVSPost2010Prop56
140
1.0
102
RTVSPost2010PropOp56
 70
     0
102
RTVSPost2010Prop57
140
1.0
102
RTVSPost2010PropOp57
 70
     0
102
RTVSPropertyOp0
 70
     0
102
RTVSPropertyOp1
 70
     0
102
RTVSPropertyOp2
 70
     0
102
RTVSPropertyOp3
 70
     0
102
RTVSPropertyOp4
 70
     0
102
RTVSPropertyOp5
 70
     0
102
RTVSPropertyOp6
 70
     0
102
RTVSPropertyOp7
 70
     0
102
RTVSPropertyOp8
 70
     0
102
RTVSPropertyOp9
 70
     0
102
RTVSPropertyOp10
 70
     0
102
RTVSPropertyOp11
 70
     0
102
RTVSPropertyOp12
 70
     0
102
RTVSPropertyOp13
 70
     0
102
RTVSPropertyOp14
 70
     2
102
RTVSPropertyOp15
 70
     0
102
RTVSPropertyOp16
 70
     0
102
RTVSPropertyOp17
 70
     0
102
RTVSPropertyOp18
 70
     0
102
RTVSPropertyOp19
 70
     0
102
RTVSPropertyOp20
 70
     0
102
RTVSPropertyOp21
 70
     0
102
RTVSPropertyOp22
 70
     0
102
RTVSPropertyOp23
 70
     0
102
RTVSPropertyOp24
 70
     0
102
RTVSPropertyOp25
 70
     0
102
RTVSPropertyOp26
 70
     0
102
RTVSPropertyOp27
 70
     0
102
RTVSPropertyOp28
 70
     1
102
RTVSPropertyOp29
 70
     1
102
RTVSPropertyOp30
 70
     1
102
RTVSPropertyOp31
 70
     1
102
RTVSPropertyOp32
 70
     1
102
RTVSPropertyOp33
 70
     1
102
RTVSPropertyOp34
 70
     1
102
RTVSPropertyOp35
 70
     1
102
RTVSPropertyOp36
 70
     1
102
RTVSPropertyOp37
 70
     0
102
RTVSPropertyOp38
 70
     0
102
RTVSPropertyOp39
 70
     0
102
RTVSPropertyOp40
 70
     0
102
RTVSPropertyOp41
 70
     0
102
RTVSPropertyOp42
 70
     0
102
RTVSPropertyOp43
 70
     0
102
RTVSPropertyOp44
 70
     0
102
RTVSPropertyOp45
 70
     1
102
RTVSPropertyOp46
 70
     0
102
RTVSPropertyOp47
 70
     0
102
RTVSPropertyOp48
 70
     0
102
RTVSPropertyOp49
 70
     1
102
RTVSPropertyOp50
 70
     0
102
RTVSPropertyOp51
 70
     0
102
RTVSPropertyOp52
 70
     0
102
RTVSPropertyOp53
 70
     0
102
RTVSPropertyOp54
 70
     0
102
RTVSPropertyOp55
 70
     1
102
RTVSPropertyOp56
 70
     0
102
RTVSPropertyOp57
 70
     0
102
RTVSPropertyOp58
 70
     0
102
RTVSPropertyOp59
 70
     0
102
RTVSPropertyOp60
 70
     0
102
RTVSPropertyOp61
 70
     0
102
RTVSPropertyOp62
 70
     0
  0
XRECORD
  5
273B
102
{ACAD_REACTORS
330
273A
102
}
330
273A
100
AcDbXrecord
280
     1
102
RTVSPost2010Prop28
280
     0
102
RTVSPost2010PropOp28
 70
     1
102
RTVSPost2010Prop29
280
     1
102
RTVSPost2010PropOp29
 70
     1
102
RTVSPost2010Prop30
280
     1
102
RTVSPost2010PropOp30
 70
     1
102
RTVSPost2010Prop31
280
     0
102
RTVSPost2010PropOp31
 70
     1
102
RTVSPost2010Prop32
280
     0
102
RTVSPost2010PropOp32
 70
     1
102
RTVSPost2010Prop33
280
     0
102
RTVSPost2010PropOp33
 70
     1
102
RTVSPost2010Prop34
280
     0
102
RTVSPost2010PropOp34
 70
     1
102
RTVSPost2010Prop35
280
     0
102
RTVSPost2010PropOp35
 70
     1
102
RTVSPost2010Prop36
280
     0
102
RTVSPost2010PropOp36
 70
     1
102
RTVSPost2010Prop37
 90
       50
102
RTVSPost2010PropOp37
 70
     1
102
RTVSPost2010Prop38
140
0.0
102
RTVSPost2010PropOp38
 70
     1
102
RTVSPost2010Prop39
140
1.0
102
RTVSPost2010PropOp39
 70
     1
102
RTVSPost2010Prop40
 90
        0
102
RTVSPost2010PropOp40
 70
     1
102
RTVSPost2010Prop41ColorIndex
 90
       18
102
RTVSPost2010Prop41ColorRGB
 90
        0
102
RTVSPost2010PropOp41
 70
     1
102
RTVSPost2010Prop42
 90
       50
102
RTVSPost2010PropOp42
 70
     1
102
RTVSPost2010Prop43
 90
        3
102
RTVSPost2010PropOp43
 70
     1
102
RTVSPost2010Prop44ColorIndex
 90
        5
102
RTVSPost2010Prop44ColorRGB
 90
      255
102
RTVSPost2010PropOp44
 70
     1
102
RTVSPost2010Prop45
280
     0
102
RTVSPost2010PropOp45
 70
     1
102
RTVSPost2010Prop46
 90
       50
102
RTVSPost2010PropOp46
 70
     1
102
RTVSPost2010Prop47
 90
       50
102
RTVSPost2010PropOp47
 70
     1
102
RTVSPost2010Prop48
 90
       50
102
RTVSPost2010PropOp48
 70
     1
102
RTVSPost2010Prop49
280
     0
102
RTVSPost2010PropOp49
 70
     1
102
RTVSPost2010Prop50
 90
       50
102
RTVSPost2010PropOp50
 70
     1
102
RTVSPost2010Prop51ColorIndex
 90
      256
102
RTVSPost2010Prop51ColorRGB
 90
-16777216
102
RTVSPost2010PropOp51
 70
     0
102
RTVSPost2010Prop52
140
1.0
102
RTVSPost2010PropOp52
 70
     0
102
RTVSPost2010Prop53
 90
        2
102
RTVSPost2010PropOp53
 70
     1
102
RTVSPost2010Prop54
  1
strokes_ogs.tif
102
RTVSPost2010PropOp54
 70
     1
102
RTVSPost2010Prop55
280
     0
102
RTVSPost2010PropOp55
 70
     1
102
RTVSPost2010Prop56
140
1.0
102
RTVSPost2010PropOp56
 70
     1
102
RTVSPost2010Prop57
140
1.0
102
RTVSPost2010PropOp57
 70
     1
102
RTVSPropertyOp0
 70
     1
102
RTVSPropertyOp1
 70
     1
102
RTVSPropertyOp2
 70
     1
102
RTVSPropertyOp3
 70
     1
102
RTVSPropertyOp4
 70
     1
102
RTVSPropertyOp5
 70
     1
102
RTVSPropertyOp6
 70
     1
102
RTVSPropertyOp7
 70
     1
102
RTVSPropertyOp8
 70
     1
102
RTVSPropertyOp9
 70
     1
102
RTVSPropertyOp10
 70
     1
102
RTVSPropertyOp11
 70
     1
102
RTVSPropertyOp12
 70
     1
102
RTVSPropertyOp13
 70
     1
102
RTVSPropertyOp14
 70
     1
102
RTVSPropertyOp15
 70
     1
102
RTVSPropertyOp16
 70
     1
102
RTVSPropertyOp17
 70
     1
102
RTVSPropertyOp18
 70
     1
102
RTVSPropertyOp19
 70
     1
102
RTVSPropertyOp20
 70
     1
102
RTVSPropertyOp21
 70
     1
102
RTVSPropertyOp22
 70
     1
102
RTVSPropertyOp23
 70
     1
102
RTVSPropertyOp24
 70
     1
102
RTVSPropertyOp25
 70
     1
102
RTVSPropertyOp26
 70
     1
102
RTVSPropertyOp27
 70
     1
102
RTVSPropertyOp28
 70
     1
102
RTVSPropertyOp29
 70
     1
102
RTVSPropertyOp30
 70
     1
102
RTVSPropertyOp31
 70
     1
102
RTVSPropertyOp32
 70
     1
102
RTVSPropertyOp33
 70
     1
102
RTVSPropertyOp34
 70
     1
102
RTVSPropertyOp35
 70
     1
102
RTVSPropertyOp36
 70
     1
102
RTVSPropertyOp37
 70
     1
102
RTVSPropertyOp38
 70
     1
102
RTVSPropertyOp39
 70
     1
102
RTVSPropertyOp40
 70
     1
102
RTVSPropertyOp41
 70
     1
102
RTVSPropertyOp42
 70
     1
102
RTVSPropertyOp43
 70
     1
102
RTVSPropertyOp44
 70
     1
102
RTVSPropertyOp45
 70
     1
102
RTVSPropertyOp46
 70
     1
102
RTVSPropertyOp47
 70
     1
102
RTVSPropertyOp48
 70
     1
102
RTVSPropertyOp49
 70
     1
102
RTVSPropertyOp50
 70
     1
102
RTVSPropertyOp51
 70
     0
102
RTVSPropertyOp52
 70
     0
102
RTVSPropertyOp53
 70
     1
102
RTVSPropertyOp54
 70
     1
102
RTVSPropertyOp55
 70
     1
102
RTVSPropertyOp56
 70
     1
102
RTVSPropertyOp57
 70
     1
102
RTVSPropertyOp58
 70
     1
102
RTVSPropertyOp59
 70
     1
102
RTVSPropertyOp60
 70
     1
102
RTVSPropertyOp61
 70
     1
102
RTVSPropertyOp62
 70
     1
  0
XRECORD
  5
274D
102
{ACAD_REACTORS
330
274C
102
}
330
274C
100
AcDbXrecord
280
     1
102
RTVSPost2010Prop28
280
     0
102
RTVSPost2010PropOp28
 70
     1
102
RTVSPost2010Prop29
280
     1
102
RTVSPost2010PropOp29
 70
     1
102
RTVSPost2010Prop30
280
     1
102
RTVSPost2010PropOp30
 70
     1
102
RTVSPost2010Prop31
280
     0
102
RTVSPost2010PropOp31
 70
     1
102
RTVSPost2010Prop32
280
     0
102
RTVSPost2010PropOp32
 70
     1
102
RTVSPost2010Prop33
280
     0
102
RTVSPost2010PropOp33
 70
     1
102
RTVSPost2010Prop34
280
     0
102
RTVSPost2010PropOp34
 70
     1
102
RTVSPost2010Prop35
280
     0
102
RTVSPost2010PropOp35
 70
     1
102
RTVSPost2010Prop36
280
     0
102
RTVSPost2010PropOp36
 70
     1
102
RTVSPost2010Prop37
 90
       50
102
RTVSPost2010PropOp37
 70
     0
102
RTVSPost2010Prop38
140
0.0
102
RTVSPost2010PropOp38
 70
     0
102
RTVSPost2010Prop39
140
1.0
102
RTVSPost2010PropOp39
 70
     0
102
RTVSPost2010Prop40
 90
        0
102
RTVSPost2010PropOp40
 70
     0
102
RTVSPost2010Prop41ColorIndex
 90
       18
102
RTVSPost2010Prop41ColorRGB
 90
        0
102
RTVSPost2010PropOp41
 70
     0
102
RTVSPost2010Prop42
 90
       50
102
RTVSPost2010PropOp42
 70
     0
102
RTVSPost2010Prop43
 90
        3
102
RTVSPost2010PropOp43
 70
     0
102
RTVSPost2010Prop44ColorIndex
 90
        5
102
RTVSPost2010Prop44ColorRGB
 90
      255
102
RTVSPost2010PropOp44
 70
     0
102
RTVSPost2010Prop45
280
     0
102
RTVSPost2010PropOp45
 70
     1
102
RTVSPost2010Prop46
 90
       50
102
RTVSPost2010PropOp46
 70
     0
102
RTVSPost2010Prop47
 90
       50
102
RTVSPost2010PropOp47
 70
     0
102
RTVSPost2010Prop48
 90
       50
102
RTVSPost2010PropOp48
 70
     0
102
RTVSPost2010Prop49
280
     0
102
RTVSPost2010PropOp49
 70
     1
102
RTVSPost2010Prop50
 90
       50
102
RTVSPost2010PropOp50
 70
     0
102
RTVSPost2010Prop51ColorIndex
 90
      256
102
RTVSPost2010Prop51ColorRGB
 90
-16777216
102
RTVSPost2010PropOp51
 70
     0
102
RTVSPost2010Prop52
140
1.0
102
RTVSPost2010PropOp52
 70
     0
102
RTVSPost2010Prop53
 90
        2
102
RTVSPost2010PropOp53
 70
     0
102
RTVSPost2010Prop54
  1
strokes_ogs.tif
102
RTVSPost2010PropOp54
 70
     0
102
RTVSPost2010Prop55
280
     0
102
RTVSPost2010PropOp55
 70
     1
102
RTVSPost2010Prop56
140
1.0
102
RTVSPost2010PropOp56
 70
     0
102
RTVSPost2010Prop57
140
1.0
102
RTVSPost2010PropOp57
 70
     0
102
RTVSPropertyOp0
 70
     0
102
RTVSPropertyOp1
 70
     0
102
RTVSPropertyOp2
 70
     0
102
RTVSPropertyOp3
 70
     0
102
RTVSPropertyOp4
 70
     0
102
RTVSPropertyOp5
 70
     0
102
RTVSPropertyOp6
 70
     0
102
RTVSPropertyOp7
 70
     0
102
RTVSPropertyOp8
 70
     0
102
RTVSPropertyOp9
 70
     0
102
RTVSPropertyOp10
 70
     0
102
RTVSPropertyOp11
 70
     0
102
RTVSPropertyOp12
 70
     0
102
RTVSPropertyOp13
 70
     0
102
RTVSPropertyOp14
 70
     2
102
RTVSPropertyOp15
 70
     0
102
RTVSPropertyOp16
 70
     0
102
RTVSPropertyOp17
 70
     0
102
RTVSPropertyOp18
 70
     0
102
RTVSPropertyOp19
 70
     0
102
RTVSPropertyOp20
 70
     0
102
RTVSPropertyOp21
 70
     0
102
RTVSPropertyOp22
 70
     0
102
RTVSPropertyOp23
 70
     0
102
RTVSPropertyOp24
 70
     0
102
RTVSPropertyOp25
 70
     0
102
RTVSPropertyOp26
 70
     0
102
RTVSPropertyOp27
 70
     0
102
RTVSPropertyOp28
 70
     1
102
RTVSPropertyOp29
 70
     1
102
RTVSPropertyOp30
 70
     1
102
RTVSPropertyOp31
 70
     1
102
RTVSPropertyOp32
 70
     1
102
RTVSPropertyOp33
 70
     1
102
RTVSPropertyOp34
 70
     1
102
RTVSPropertyOp35
 70
     1
102
RTVSPropertyOp36
 70
     1
102
RTVSPropertyOp37
 70
     0
102
RTVSPropertyOp38
 70
     0
102
RTVSPropertyOp39
 70
     0
102
RTVSPropertyOp40
 70
     0
102
RTVSPropertyOp41
 70
     0
102
RTVSPropertyOp42
 70
     0
102
RTVSPropertyOp43
 70
     0
102
RTVSPropertyOp44
 70
     0
102
RTVSPropertyOp45
 70
     1
102
RTVSPropertyOp46
 70
     0
102
RTVSPropertyOp47
 70
     0
102
RTVSPropertyOp48
 70
     0
102
RTVSPropertyOp49
 70
     1
102
RTVSPropertyOp50
 70
     0
102
RTVSPropertyOp51
 70
     0
102
RTVSPropertyOp52
 70
     0
102
RTVSPropertyOp53
 70
     0
102
RTVSPropertyOp54
 70
     0
102
RTVSPropertyOp55
 70
     1
102
RTVSPropertyOp56
 70
     0
102
RTVSPropertyOp57
 70
     0
102
RTVSPropertyOp58
 70
     0
102
RTVSPropertyOp59
 70
     0
102
RTVSPropertyOp60
 70
     0
102
RTVSPropertyOp61
 70
     0
102
RTVSPropertyOp62
 70
     0
  0
XRECORD
  5
2733
102
{ACAD_REACTORS
330
2732
102
}
330
2732
100
AcDbXrecord
280
     1
102
RTVSPost2010Prop28
280
     0
102
RTVSPost2010PropOp28
 70
     1
102
RTVSPost2010Prop29
280
     1
102
RTVSPost2010PropOp29
 70
     1
102
RTVSPost2010Prop30
280
     1
102
RTVSPost2010PropOp30
 70
     1
102
RTVSPost2010Prop31
280
     0
102
RTVSPost2010PropOp31
 70
     1
102
RTVSPost2010Prop32
280
     0
102
RTVSPost2010PropOp32
 70
     1
102
RTVSPost2010Prop33
280
     0
102
RTVSPost2010PropOp33
 70
     1
102
RTVSPost2010Prop34
280
     0
102
RTVSPost2010PropOp34
 70
     1
102
RTVSPost2010Prop35
280
     0
102
RTVSPost2010PropOp35
 70
     1
102
RTVSPost2010Prop36
280
     0
102
RTVSPost2010PropOp36
 70
     1
102
RTVSPost2010Prop37
 90
       50
102
RTVSPost2010PropOp37
 70
     1
102
RTVSPost2010Prop38
140
0.0
102
RTVSPost2010PropOp38
 70
     1
102
RTVSPost2010Prop39
140
1.0
102
RTVSPost2010PropOp39
 70
     1
102
RTVSPost2010Prop40
 90
        0
102
RTVSPost2010PropOp40
 70
     1
102
RTVSPost2010Prop41ColorIndex
 90
       18
102
RTVSPost2010Prop41ColorRGB
 90
        0
102
RTVSPost2010PropOp41
 70
     1
102
RTVSPost2010Prop42
 90
       50
102
RTVSPost2010PropOp42
 70
     1
102
RTVSPost2010Prop43
 90
        3
102
RTVSPost2010PropOp43
 70
     1
102
RTVSPost2010Prop44ColorIndex
 90
        5
102
RTVSPost2010Prop44ColorRGB
 90
      255
102
RTVSPost2010PropOp44
 70
     1
102
RTVSPost2010Prop45
280
     0
102
RTVSPost2010PropOp45
 70
     1
102
RTVSPost2010Prop46
 90
       50
102
RTVSPost2010PropOp46
 70
     1
102
RTVSPost2010Prop47
 90
       50
102
RTVSPost2010PropOp47
 70
     1
102
RTVSPost2010Prop48
 90
       50
102
RTVSPost2010PropOp48
 70
     1
102
RTVSPost2010Prop49
280
     0
102
RTVSPost2010PropOp49
 70
     1
102
RTVSPost2010Prop50
 90
       50
102
RTVSPost2010PropOp50
 70
     1
102
RTVSPost2010Prop51ColorIndex
 90
      256
102
RTVSPost2010Prop51ColorRGB
 90
-16777216
102
RTVSPost2010PropOp51
 70
     0
102
RTVSPost2010Prop52
140
1.0
102
RTVSPost2010PropOp52
 70
     0
102
RTVSPost2010Prop53
 90
        2
102
RTVSPost2010PropOp53
 70
     1
102
RTVSPost2010Prop54
  1
strokes_ogs.tif
102
RTVSPost2010PropOp54
 70
     1
102
RTVSPost2010Prop55
280
     0
102
RTVSPost2010PropOp55
 70
     1
102
RTVSPost2010Prop56
140
1.0
102
RTVSPost2010PropOp56
 70
     1
102
RTVSPost2010Prop57
140
1.0
102
RTVSPost2010PropOp57
 70
     1
102
RTVSPropertyOp0
 70
     1
102
RTVSPropertyOp1
 70
     1
102
RTVSPropertyOp2
 70
     1
102
RTVSPropertyOp3
 70
     1
102
RTVSPropertyOp4
 70
     1
102
RTVSPropertyOp5
 70
     1
102
RTVSPropertyOp6
 70
     1
102
RTVSPropertyOp7
 70
     1
102
RTVSPropertyOp8
 70
     1
102
RTVSPropertyOp9
 70
     1
102
RTVSPropertyOp10
 70
     1
102
RTVSPropertyOp11
 70
     1
102
RTVSPropertyOp12
 70
     1
102
RTVSPropertyOp13
 70
     1
102
RTVSPropertyOp14
 70
     1
102
RTVSPropertyOp15
 70
     1
102
RTVSPropertyOp16
 70
     1
102
RTVSPropertyOp17
 70
     1
102
RTVSPropertyOp18
 70
     1
102
RTVSPropertyOp19
 70
     1
102
RTVSPropertyOp20
 70
     1
102
RTVSPropertyOp21
 70
     1
102
RTVSPropertyOp22
 70
     1
102
RTVSPropertyOp23
 70
     1
102
RTVSPropertyOp24
 70
     1
102
RTVSPropertyOp25
 70
     1
102
RTVSPropertyOp26
 70
     1
102
RTVSPropertyOp27
 70
     1
102
RTVSPropertyOp28
 70
     1
102
RTVSPropertyOp29
 70
     1
102
RTVSPropertyOp30
 70
     1
102
RTVSPropertyOp31
 70
     1
102
RTVSPropertyOp32
 70
     1
102
RTVSPropertyOp33
 70
     1
102
RTVSPropertyOp34
 70
     1
102
RTVSPropertyOp35
 70
     1
102
RTVSPropertyOp36
 70
     1
102
RTVSPropertyOp37
 70
     1
102
RTVSPropertyOp38
 70
     1
102
RTVSPropertyOp39
 70
     1
102
RTVSPropertyOp40
 70
     1
102
RTVSPropertyOp41
 70
     1
102
RTVSPropertyOp42
 70
     1
102
RTVSPropertyOp43
 70
     1
102
RTVSPropertyOp44
 70
     1
102
RTVSPropertyOp45
 70
     1
102
RTVSPropertyOp46
 70
     1
102
RTVSPropertyOp47
 70
     1
102
RTVSPropertyOp48
 70
     1
102
RTVSPropertyOp49
 70
     1
102
RTVSPropertyOp50
 70
     1
102
RTVSPropertyOp51
 70
     0
102
RTVSPropertyOp52
 70
     0
102
RTVSPropertyOp53
 70
     1
102
RTVSPropertyOp54
 70
     1
102
RTVSPropertyOp55
 70
     1
102
RTVSPropertyOp56
 70
     1
102
RTVSPropertyOp57
 70
     1
102
RTVSPropertyOp58
 70
     1
102
RTVSPropertyOp59
 70
     1
102
RTVSPropertyOp60
 70
     1
102
RTVSPropertyOp61
 70
     1
102
RTVSPropertyOp62
 70
     1
  0
XRECORD
  5
2749
102
{ACAD_REACTORS
330
2748
102
}
330
2748
100
AcDbXrecord
280
     1
102
RTVSPost2010Prop28
280
     0
102
RTVSPost2010PropOp28
 70
     1
102
RTVSPost2010Prop29
280
     1
102
RTVSPost2010PropOp29
 70
     1
102
RTVSPost2010Prop30
280
     1
102
RTVSPost2010PropOp30
 70
     1
102
RTVSPost2010Prop31
280
     0
102
RTVSPost2010PropOp31
 70
     1
102
RTVSPost2010Prop32
280
     0
102
RTVSPost2010PropOp32
 70
     1
102
RTVSPost2010Prop33
280
     0
102
RTVSPost2010PropOp33
 70
     1
102
RTVSPost2010Prop34
280
     0
102
RTVSPost2010PropOp34
 70
     1
102
RTVSPost2010Prop35
280
     0
102
RTVSPost2010PropOp35
 70
     1
102
RTVSPost2010Prop36
280
     0
102
RTVSPost2010PropOp36
 70
     1
102
RTVSPost2010Prop37
 90
       50
102
RTVSPost2010PropOp37
 70
     1
102
RTVSPost2010Prop38
140
0.0
102
RTVSPost2010PropOp38
 70
     1
102
RTVSPost2010Prop39
140
1.0
102
RTVSPost2010PropOp39
 70
     1
102
RTVSPost2010Prop40
 90
        0
102
RTVSPost2010PropOp40
 70
     1
102
RTVSPost2010Prop41ColorIndex
 90
       18
102
RTVSPost2010Prop41ColorRGB
 90
        0
102
RTVSPost2010PropOp41
 70
     1
102
RTVSPost2010Prop42
 90
       50
102
RTVSPost2010PropOp42
 70
     1
102
RTVSPost2010Prop43
 90
        3
102
RTVSPost2010PropOp43
 70
     1
102
RTVSPost2010Prop44ColorIndex
 90
        5
102
RTVSPost2010Prop44ColorRGB
 90
      255
102
RTVSPost2010PropOp44
 70
     1
102
RTVSPost2010Prop45
280
     0
102
RTVSPost2010PropOp45
 70
     1
102
RTVSPost2010Prop46
 90
       50
102
RTVSPost2010PropOp46
 70
     1
102
RTVSPost2010Prop47
 90
       50
102
RTVSPost2010PropOp47
 70
     1
102
RTVSPost2010Prop48
 90
       50
102
RTVSPost2010PropOp48
 70
     1
102
RTVSPost2010Prop49
280
     0
102
RTVSPost2010PropOp49
 70
     1
102
RTVSPost2010Prop50
 90
       50
102
RTVSPost2010PropOp50
 70
     1
102
RTVSPost2010Prop51ColorIndex
 90
      256
102
RTVSPost2010Prop51ColorRGB
 90
-16777216
102
RTVSPost2010PropOp51
 70
     0
102
RTVSPost2010Prop52
140
1.0
102
RTVSPost2010PropOp52
 70
     0
102
RTVSPost2010Prop53
 90
        2
102
RTVSPost2010PropOp53
 70
     1
102
RTVSPost2010Prop54
  1
strokes_ogs.tif
102
RTVSPost2010PropOp54
 70
     1
102
RTVSPost2010Prop55
280
     0
102
RTVSPost2010PropOp55
 70
     1
102
RTVSPost2010Prop56
140
1.0
102
RTVSPost2010PropOp56
 70
     1
102
RTVSPost2010Prop57
140
1.0
102
RTVSPost2010PropOp57
 70
     1
102
RTVSPropertyOp0
 70
     1
102
RTVSPropertyOp1
 70
     1
102
RTVSPropertyOp2
 70
     1
102
RTVSPropertyOp3
 70
     1
102
RTVSPropertyOp4
 70
     1
102
RTVSPropertyOp5
 70
     1
102
RTVSPropertyOp6
 70
     1
102
RTVSPropertyOp7
 70
     1
102
RTVSPropertyOp8
 70
     1
102
RTVSPropertyOp9
 70
     1
102
RTVSPropertyOp10
 70
     1
102
RTVSPropertyOp11
 70
     1
102
RTVSPropertyOp12
 70
     1
102
RTVSPropertyOp13
 70
     1
102
RTVSPropertyOp14
 70
     1
102
RTVSPropertyOp15
 70
     1
102
RTVSPropertyOp16
 70
     1
102
RTVSPropertyOp17
 70
     1
102
RTVSPropertyOp18
 70
     1
102
RTVSPropertyOp19
 70
     1
102
RTVSPropertyOp20
 70
     1
102
RTVSPropertyOp21
 70
     1
102
RTVSPropertyOp22
 70
     1
102
RTVSPropertyOp23
 70
     1
102
RTVSPropertyOp24
 70
     1
102
RTVSPropertyOp25
 70
     1
102
RTVSPropertyOp26
 70
     1
102
RTVSPropertyOp27
 70
     1
102
RTVSPropertyOp28
 70
     1
102
RTVSPropertyOp29
 70
     1
102
RTVSPropertyOp30
 70
     1
102
RTVSPropertyOp31
 70
     1
102
RTVSPropertyOp32
 70
     1
102
RTVSPropertyOp33
 70
     1
102
RTVSPropertyOp34
 70
     1
102
RTVSPropertyOp35
 70
     1
102
RTVSPropertyOp36
 70
     1
102
RTVSPropertyOp37
 70
     1
102
RTVSPropertyOp38
 70
     1
102
RTVSPropertyOp39
 70
     1
102
RTVSPropertyOp40
 70
     1
102
RTVSPropertyOp41
 70
     1
102
RTVSPropertyOp42
 70
     1
102
RTVSPropertyOp43
 70
     1
102
RTVSPropertyOp44
 70
     1
102
RTVSPropertyOp45
 70
     1
102
RTVSPropertyOp46
 70
     1
102
RTVSPropertyOp47
 70
     1
102
RTVSPropertyOp48
 70
     1
102
RTVSPropertyOp49
 70
     1
102
RTVSPropertyOp50
 70
     1
102
RTVSPropertyOp51
 70
     0
102
RTVSPropertyOp52
 70
     0
102
RTVSPropertyOp53
 70
     1
102
RTVSPropertyOp54
 70
     1
102
RTVSPropertyOp55
 70
     1
102
RTVSPropertyOp56
 70
     1
102
RTVSPropertyOp57
 70
     1
102
RTVSPropertyOp58
 70
     1
102
RTVSPropertyOp59
 70
     1
102
RTVSPropertyOp60
 70
     1
102
RTVSPropertyOp61
 70
     1
102
RTVSPropertyOp62
 70
     1
  0
XRECORD
  5
2747
102
{ACAD_REACTORS
330
2746
102
}
330
2746
100
AcDbXrecord
280
     1
102
RTVSPost2010Prop28
280
     0
102
RTVSPost2010PropOp28
 70
     1
102
RTVSPost2010Prop29
280
     1
102
RTVSPost2010PropOp29
 70
     1
102
RTVSPost2010Prop30
280
     1
102
RTVSPost2010PropOp30
 70
     1
102
RTVSPost2010Prop31
280
     0
102
RTVSPost2010PropOp31
 70
     1
102
RTVSPost2010Prop32
280
     0
102
RTVSPost2010PropOp32
 70
     1
102
RTVSPost2010Prop33
280
     0
102
RTVSPost2010PropOp33
 70
     1
102
RTVSPost2010Prop34
280
     0
102
RTVSPost2010PropOp34
 70
     1
102
RTVSPost2010Prop35
280
     0
102
RTVSPost2010PropOp35
 70
     1
102
RTVSPost2010Prop36
280
     0
102
RTVSPost2010PropOp36
 70
     1
102
RTVSPost2010Prop37
 90
       50
102
RTVSPost2010PropOp37
 70
     1
102
RTVSPost2010Prop38
140
0.0
102
RTVSPost2010PropOp38
 70
     1
102
RTVSPost2010Prop39
140
1.0
102
RTVSPost2010PropOp39
 70
     1
102
RTVSPost2010Prop40
 90
        0
102
RTVSPost2010PropOp40
 70
     1
102
RTVSPost2010Prop41ColorIndex
 90
       18
102
RTVSPost2010Prop41ColorRGB
 90
        0
102
RTVSPost2010PropOp41
 70
     1
102
RTVSPost2010Prop42
 90
       50
102
RTVSPost2010PropOp42
 70
     1
102
RTVSPost2010Prop43
 90
        3
102
RTVSPost2010PropOp43
 70
     1
102
RTVSPost2010Prop44ColorIndex
 90
        5
102
RTVSPost2010Prop44ColorRGB
 90
      255
102
RTVSPost2010PropOp44
 70
     1
102
RTVSPost2010Prop45
280
     0
102
RTVSPost2010PropOp45
 70
     1
102
RTVSPost2010Prop46
 90
       50
102
RTVSPost2010PropOp46
 70
     1
102
RTVSPost2010Prop47
 90
       50
102
RTVSPost2010PropOp47
 70
     1
102
RTVSPost2010Prop48
 90
       50
102
RTVSPost2010PropOp48
 70
     1
102
RTVSPost2010Prop49
280
     0
102
RTVSPost2010PropOp49
 70
     1
102
RTVSPost2010Prop50
 90
       50
102
RTVSPost2010PropOp50
 70
     1
102
RTVSPost2010Prop51ColorIndex
 90
      256
102
RTVSPost2010Prop51ColorRGB
 90
-16777216
102
RTVSPost2010PropOp51
 70
     0
102
RTVSPost2010Prop52
140
1.0
102
RTVSPost2010PropOp52
 70
     0
102
RTVSPost2010Prop53
 90
        2
102
RTVSPost2010PropOp53
 70
     1
102
RTVSPost2010Prop54
  1
strokes_ogs.tif
102
RTVSPost2010PropOp54
 70
     1
102
RTVSPost2010Prop55
280
     0
102
RTVSPost2010PropOp55
 70
     1
102
RTVSPost2010Prop56
140
1.0
102
RTVSPost2010PropOp56
 70
     1
102
RTVSPost2010Prop57
140
1.0
102
RTVSPost2010PropOp57
 70
     1
102
RTVSPropertyOp0
 70
     1
102
RTVSPropertyOp1
 70
     1
102
RTVSPropertyOp2
 70
     1
102
RTVSPropertyOp3
 70
     1
102
RTVSPropertyOp4
 70
     1
102
RTVSPropertyOp5
 70
     1
102
RTVSPropertyOp6
 70
     1
102
RTVSPropertyOp7
 70
     1
102
RTVSPropertyOp8
 70
     1
102
RTVSPropertyOp9
 70
     1
102
RTVSPropertyOp10
 70
     1
102
RTVSPropertyOp11
 70
     1
102
RTVSPropertyOp12
 70
     1
102
RTVSPropertyOp13
 70
     1
102
RTVSPropertyOp14
 70
     1
102
RTVSPropertyOp15
 70
     1
102
RTVSPropertyOp16
 70
     1
102
RTVSPropertyOp17
 70
     1
102
RTVSPropertyOp18
 70
     1
102
RTVSPropertyOp19
 70
     1
102
RTVSPropertyOp20
 70
     1
102
RTVSPropertyOp21
 70
     1
102
RTVSPropertyOp22
 70
     1
102
RTVSPropertyOp23
 70
     1
102
RTVSPropertyOp24
 70
     1
102
RTVSPropertyOp25
 70
     1
102
RTVSPropertyOp26
 70
     1
102
RTVSPropertyOp27
 70
     1
102
RTVSPropertyOp28
 70
     1
102
RTVSPropertyOp29
 70
     1
102
RTVSPropertyOp30
 70
     1
102
RTVSPropertyOp31
 70
     1
102
RTVSPropertyOp32
 70
     1
102
RTVSPropertyOp33
 70
     1
102
RTVSPropertyOp34
 70
     1
102
RTVSPropertyOp35
 70
     1
102
RTVSPropertyOp36
 70
     1
102
RTVSPropertyOp37
 70
     1
102
RTVSPropertyOp38
 70
     1
102
RTVSPropertyOp39
 70
     1
102
RTVSPropertyOp40
 70
     1
102
RTVSPropertyOp41
 70
     1
102
RTVSPropertyOp42
 70
     1
102
RTVSPropertyOp43
 70
     1
102
RTVSPropertyOp44
 70
     1
102
RTVSPropertyOp45
 70
     1
102
RTVSPropertyOp46
 70
     1
102
RTVSPropertyOp47
 70
     1
102
RTVSPropertyOp48
 70
     1
102
RTVSPropertyOp49
 70
     1
102
RTVSPropertyOp50
 70
     1
102
RTVSPropertyOp51
 70
     0
102
RTVSPropertyOp52
 70
     0
102
RTVSPropertyOp53
 70
     1
102
RTVSPropertyOp54
 70
     1
102
RTVSPropertyOp55
 70
     1
102
RTVSPropertyOp56
 70
     1
102
RTVSPropertyOp57
 70
     1
102
RTVSPropertyOp58
 70
     1
102
RTVSPropertyOp59
 70
     1
102
RTVSPropertyOp60
 70
     1
102
RTVSPropertyOp61
 70
     1
102
RTVSPropertyOp62
 70
     1
  0
XRECORD
  5
2741
102
{ACAD_REACTORS
330
2740
102
}
330
2740
100
AcDbXrecord
280
     1
102
RTVSPost2010Prop28
280
     0
102
RTVSPost2010PropOp28
 70
     1
102
RTVSPost2010Prop29
280
     1
102
RTVSPost2010PropOp29
 70
     1
102
RTVSPost2010Prop30
280
     1
102
RTVSPost2010PropOp30
 70
     1
102
RTVSPost2010Prop31
280
     0
102
RTVSPost2010PropOp31
 70
     1
102
RTVSPost2010Prop32
280
     0
102
RTVSPost2010PropOp32
 70
     1
102
RTVSPost2010Prop33
280
     0
102
RTVSPost2010PropOp33
 70
     1
102
RTVSPost2010Prop34
280
     0
102
RTVSPost2010PropOp34
 70
     1
102
RTVSPost2010Prop35
280
     0
102
RTVSPost2010PropOp35
 70
     1
102
RTVSPost2010Prop36
280
     0
102
RTVSPost2010PropOp36
 70
     1
102
RTVSPost2010Prop37
 90
       50
102
RTVSPost2010PropOp37
 70
     1
102
RTVSPost2010Prop38
140
0.0
102
RTVSPost2010PropOp38
 70
     1
102
RTVSPost2010Prop39
140
1.0
102
RTVSPost2010PropOp39
 70
     1
102
RTVSPost2010Prop40
 90
        0
102
RTVSPost2010PropOp40
 70
     1
102
RTVSPost2010Prop41ColorIndex
 90
       18
102
RTVSPost2010Prop41ColorRGB
 90
        0
102
RTVSPost2010PropOp41
 70
     1
102
RTVSPost2010Prop42
 90
       50
102
RTVSPost2010PropOp42
 70
     1
102
RTVSPost2010Prop43
 90
        3
102
RTVSPost2010PropOp43
 70
     1
102
RTVSPost2010Prop44ColorIndex
 90
        5
102
RTVSPost2010Prop44ColorRGB
 90
      255
102
RTVSPost2010PropOp44
 70
     1
102
RTVSPost2010Prop45
280
     0
102
RTVSPost2010PropOp45
 70
     1
102
RTVSPost2010Prop46
 90
       50
102
RTVSPost2010PropOp46
 70
     1
102
RTVSPost2010Prop47
 90
       50
102
RTVSPost2010PropOp47
 70
     1
102
RTVSPost2010Prop48
 90
       50
102
RTVSPost2010PropOp48
 70
     1
102
RTVSPost2010Prop49
280
     0
102
RTVSPost2010PropOp49
 70
     1
102
RTVSPost2010Prop50
 90
       50
102
RTVSPost2010PropOp50
 70
     1
102
RTVSPost2010Prop51ColorIndex
 90
      256
102
RTVSPost2010Prop51ColorRGB
 90
-16777216
102
RTVSPost2010PropOp51
 70
     0
102
RTVSPost2010Prop52
140
1.0
102
RTVSPost2010PropOp52
 70
     0
102
RTVSPost2010Prop53
 90
        2
102
RTVSPost2010PropOp53
 70
     1
102
RTVSPost2010Prop54
  1
strokes_ogs.tif
102
RTVSPost2010PropOp54
 70
     1
102
RTVSPost2010Prop55
280
     0
102
RTVSPost2010PropOp55
 70
     1
102
RTVSPost2010Prop56
140
1.0
102
RTVSPost2010PropOp56
 70
     1
102
RTVSPost2010Prop57
140
1.0
102
RTVSPost2010PropOp57
 70
     1
102
RTVSPropertyOp0
 70
     1
102
RTVSPropertyOp1
 70
     1
102
RTVSPropertyOp2
 70
     1
102
RTVSPropertyOp3
 70
     1
102
RTVSPropertyOp4
 70
     1
102
RTVSPropertyOp5
 70
     1
102
RTVSPropertyOp6
 70
     1
102
RTVSPropertyOp7
 70
     1
102
RTVSPropertyOp8
 70
     1
102
RTVSPropertyOp9
 70
     1
102
RTVSPropertyOp10
 70
     1
102
RTVSPropertyOp11
 70
     1
102
RTVSPropertyOp12
 70
     1
102
RTVSPropertyOp13
 70
     1
102
RTVSPropertyOp14
 70
     1
102
RTVSPropertyOp15
 70
     1
102
RTVSPropertyOp16
 70
     1
102
RTVSPropertyOp17
 70
     1
102
RTVSPropertyOp18
 70
     1
102
RTVSPropertyOp19
 70
     1
102
RTVSPropertyOp20
 70
     1
102
RTVSPropertyOp21
 70
     1
102
RTVSPropertyOp22
 70
     1
102
RTVSPropertyOp23
 70
     1
102
RTVSPropertyOp24
 70
     1
102
RTVSPropertyOp25
 70
     1
102
RTVSPropertyOp26
 70
     1
102
RTVSPropertyOp27
 70
     1
102
RTVSPropertyOp28
 70
     1
102
RTVSPropertyOp29
 70
     1
102
RTVSPropertyOp30
 70
     1
102
RTVSPropertyOp31
 70
     1
102
RTVSPropertyOp32
 70
     1
102
RTVSPropertyOp33
 70
     1
102
RTVSPropertyOp34
 70
     1
102
RTVSPropertyOp35
 70
     1
102
RTVSPropertyOp36
 70
     1
102
RTVSPropertyOp37
 70
     1
102
RTVSPropertyOp38
 70
     1
102
RTVSPropertyOp39
 70
     1
102
RTVSPropertyOp40
 70
     1
102
RTVSPropertyOp41
 70
     1
102
RTVSPropertyOp42
 70
     1
102
RTVSPropertyOp43
 70
     1
102
RTVSPropertyOp44
 70
     1
102
RTVSPropertyOp45
 70
     1
102
RTVSPropertyOp46
 70
     1
102
RTVSPropertyOp47
 70
     1
102
RTVSPropertyOp48
 70
     1
102
RTVSPropertyOp49
 70
     1
102
RTVSPropertyOp50
 70
     1
102
RTVSPropertyOp51
 70
     0
102
RTVSPropertyOp52
 70
     0
102
RTVSPropertyOp53
 70
     1
102
RTVSPropertyOp54
 70
     1
102
RTVSPropertyOp55
 70
     1
102
RTVSPropertyOp56
 70
     1
102
RTVSPropertyOp57
 70
     1
102
RTVSPropertyOp58
 70
     1
102
RTVSPropertyOp59
 70
     1
102
RTVSPropertyOp60
 70
     1
102
RTVSPropertyOp61
 70
     1
102
RTVSPropertyOp62
 70
     1
  0
XRECORD
  5
2743
102
{ACAD_REACTORS
330
2742
102
}
330
2742
100
AcDbXrecord
280
     1
102
RTVSPost2010Prop28
280
     0
102
RTVSPost2010PropOp28
 70
     1
102
RTVSPost2010Prop29
280
     1
102
RTVSPost2010PropOp29
 70
     1
102
RTVSPost2010Prop30
280
     1
102
RTVSPost2010PropOp30
 70
     1
102
RTVSPost2010Prop31
280
     0
102
RTVSPost2010PropOp31
 70
     1
102
RTVSPost2010Prop32
280
     0
102
RTVSPost2010PropOp32
 70
     1
102
RTVSPost2010Prop33
280
     0
102
RTVSPost2010PropOp33
 70
     1
102
RTVSPost2010Prop34
280
     0
102
RTVSPost2010PropOp34
 70
     1
102
RTVSPost2010Prop35
280
     0
102
RTVSPost2010PropOp35
 70
     1
102
RTVSPost2010Prop36
280
     0
102
RTVSPost2010PropOp36
 70
     1
102
RTVSPost2010Prop37
 90
       50
102
RTVSPost2010PropOp37
 70
     1
102
RTVSPost2010Prop38
140
0.0
102
RTVSPost2010PropOp38
 70
     1
102
RTVSPost2010Prop39
140
1.0
102
RTVSPost2010PropOp39
 70
     1
102
RTVSPost2010Prop40
 90
        0
102
RTVSPost2010PropOp40
 70
     1
102
RTVSPost2010Prop41ColorIndex
 90
       18
102
RTVSPost2010Prop41ColorRGB
 90
        0
102
RTVSPost2010PropOp41
 70
     1
102
RTVSPost2010Prop42
 90
       50
102
RTVSPost2010PropOp42
 70
     1
102
RTVSPost2010Prop43
 90
        3
102
RTVSPost2010PropOp43
 70
     1
102
RTVSPost2010Prop44ColorIndex
 90
        5
102
RTVSPost2010Prop44ColorRGB
 90
      255
102
RTVSPost2010PropOp44
 70
     1
102
RTVSPost2010Prop45
280
     0
102
RTVSPost2010PropOp45
 70
     1
102
RTVSPost2010Prop46
 90
       50
102
RTVSPost2010PropOp46
 70
     1
102
RTVSPost2010Prop47
 90
       50
102
RTVSPost2010PropOp47
 70
     1
102
RTVSPost2010Prop48
 90
       50
102
RTVSPost2010PropOp48
 70
     1
102
RTVSPost2010Prop49
280
     0
102
RTVSPost2010PropOp49
 70
     1
102
RTVSPost2010Prop50
 90
       50
102
RTVSPost2010PropOp50
 70
     1
102
RTVSPost2010Prop51ColorIndex
 90
      256
102
RTVSPost2010Prop51ColorRGB
 90
-16777216
102
RTVSPost2010PropOp51
 70
     0
102
RTVSPost2010Prop52
140
1.0
102
RTVSPost2010PropOp52
 70
     0
102
RTVSPost2010Prop53
 90
        2
102
RTVSPost2010PropOp53
 70
     1
102
RTVSPost2010Prop54
  1
strokes_ogs.tif
102
RTVSPost2010PropOp54
 70
     1
102
RTVSPost2010Prop55
280
     0
102
RTVSPost2010PropOp55
 70
     1
102
RTVSPost2010Prop56
140
1.0
102
RTVSPost2010PropOp56
 70
     1
102
RTVSPost2010Prop57
140
1.0
102
RTVSPost2010PropOp57
 70
     1
102
RTVSPropertyOp0
 70
     1
102
RTVSPropertyOp1
 70
     1
102
RTVSPropertyOp2
 70
     1
102
RTVSPropertyOp3
 70
     1
102
RTVSPropertyOp4
 70
     1
102
RTVSPropertyOp5
 70
     1
102
RTVSPropertyOp6
 70
     1
102
RTVSPropertyOp7
 70
     1
102
RTVSPropertyOp8
 70
     1
102
RTVSPropertyOp9
 70
     1
102
RTVSPropertyOp10
 70
     1
102
RTVSPropertyOp11
 70
     1
102
RTVSPropertyOp12
 70
     1
102
RTVSPropertyOp13
 70
     1
102
RTVSPropertyOp14
 70
     1
102
RTVSPropertyOp15
 70
     1
102
RTVSPropertyOp16
 70
     1
102
RTVSPropertyOp17
 70
     1
102
RTVSPropertyOp18
 70
     1
102
RTVSPropertyOp19
 70
     1
102
RTVSPropertyOp20
 70
     1
102
RTVSPropertyOp21
 70
     1
102
RTVSPropertyOp22
 70
     1
102
RTVSPropertyOp23
 70
     1
102
RTVSPropertyOp24
 70
     1
102
RTVSPropertyOp25
 70
     1
102
RTVSPropertyOp26
 70
     1
102
RTVSPropertyOp27
 70
     1
102
RTVSPropertyOp28
 70
     1
102
RTVSPropertyOp29
 70
     1
102
RTVSPropertyOp30
 70
     1
102
RTVSPropertyOp31
 70
     1
102
RTVSPropertyOp32
 70
     1
102
RTVSPropertyOp33
 70
     1
102
RTVSPropertyOp34
 70
     1
102
RTVSPropertyOp35
 70
     1
102
RTVSPropertyOp36
 70
     1
102
RTVSPropertyOp37
 70
     1
102
RTVSPropertyOp38
 70
     1
102
RTVSPropertyOp39
 70
     1
102
RTVSPropertyOp40
 70
     1
102
RTVSPropertyOp41
 70
     1
102
RTVSPropertyOp42
 70
     1
102
RTVSPropertyOp43
 70
     1
102
RTVSPropertyOp44
 70
     1
102
RTVSPropertyOp45
 70
     1
102
RTVSPropertyOp46
 70
     1
102
RTVSPropertyOp47
 70
     1
102
RTVSPropertyOp48
 70
     1
102
RTVSPropertyOp49
 70
     1
102
RTVSPropertyOp50
 70
     1
102
RTVSPropertyOp51
 70
     0
102
RTVSPropertyOp52
 70
     0
102
RTVSPropertyOp53
 70
     1
102
RTVSPropertyOp54
 70
     1
102
RTVSPropertyOp55
 70
     1
102
RTVSPropertyOp56
 70
     1
102
RTVSPropertyOp57
 70
     1
102
RTVSPropertyOp58
 70
     1
102
RTVSPropertyOp59
 70
     1
102
RTVSPropertyOp60
 70
     1
102
RTVSPropertyOp61
 70
     1
102
RTVSPropertyOp62
 70
     1
  0
XRECORD
  5
2739
102
{ACAD_REACTORS
330
2738
102
}
330
2738
100
AcDbXrecord
280
     1
102
RTVSPost2010Prop28
280
     0
102
RTVSPost2010PropOp28
 70
     1
102
RTVSPost2010Prop29
280
     1
102
RTVSPost2010PropOp29
 70
     1
102
RTVSPost2010Prop30
280
     1
102
RTVSPost2010PropOp30
 70
     1
102
RTVSPost2010Prop31
280
     0
102
RTVSPost2010PropOp31
 70
     1
102
RTVSPost2010Prop32
280
     0
102
RTVSPost2010PropOp32
 70
     1
102
RTVSPost2010Prop33
280
     0
102
RTVSPost2010PropOp33
 70
     1
102
RTVSPost2010Prop34
280
     0
102
RTVSPost2010PropOp34
 70
     1
102
RTVSPost2010Prop35
280
     0
102
RTVSPost2010PropOp35
 70
     1
102
RTVSPost2010Prop36
280
     0
102
RTVSPost2010PropOp36
 70
     1
102
RTVSPost2010Prop37
 90
       50
102
RTVSPost2010PropOp37
 70
     1
102
RTVSPost2010Prop38
140
0.0
102
RTVSPost2010PropOp38
 70
     1
102
RTVSPost2010Prop39
140
1.0
102
RTVSPost2010PropOp39
 70
     1
102
RTVSPost2010Prop40
 90
        0
102
RTVSPost2010PropOp40
 70
     1
102
RTVSPost2010Prop41ColorIndex
 90
       18
102
RTVSPost2010Prop41ColorRGB
 90
        0
102
RTVSPost2010PropOp41
 70
     1
102
RTVSPost2010Prop42
 90
       50
102
RTVSPost2010PropOp42
 70
     1
102
RTVSPost2010Prop43
 90
        3
102
RTVSPost2010PropOp43
 70
     1
102
RTVSPost2010Prop44ColorIndex
 90
        5
102
RTVSPost2010Prop44ColorRGB
 90
      255
102
RTVSPost2010PropOp44
 70
     1
102
RTVSPost2010Prop45
280
     0
102
RTVSPost2010PropOp45
 70
     1
102
RTVSPost2010Prop46
 90
       50
102
RTVSPost2010PropOp46
 70
     1
102
RTVSPost2010Prop47
 90
       50
102
RTVSPost2010PropOp47
 70
     1
102
RTVSPost2010Prop48
 90
       50
102
RTVSPost2010PropOp48
 70
     1
102
RTVSPost2010Prop49
280
     0
102
RTVSPost2010PropOp49
 70
     1
102
RTVSPost2010Prop50
 90
       50
102
RTVSPost2010PropOp50
 70
     1
102
RTVSPost2010Prop51ColorIndex
 90
      256
102
RTVSPost2010Prop51ColorRGB
 90
-16777216
102
RTVSPost2010PropOp51
 70
     0
102
RTVSPost2010Prop52
140
1.0
102
RTVSPost2010PropOp52
 70
     0
102
RTVSPost2010Prop53
 90
        2
102
RTVSPost2010PropOp53
 70
     1
102
RTVSPost2010Prop54
  1
strokes_ogs.tif
102
RTVSPost2010PropOp54
 70
     1
102
RTVSPost2010Prop55
280
     0
102
RTVSPost2010PropOp55
 70
     1
102
RTVSPost2010Prop56
140
1.0
102
RTVSPost2010PropOp56
 70
     1
102
RTVSPost2010Prop57
140
1.0
102
RTVSPost2010PropOp57
 70
     1
102
RTVSPropertyOp0
 70
     1
102
RTVSPropertyOp1
 70
     1
102
RTVSPropertyOp2
 70
     1
102
RTVSPropertyOp3
 70
     1
102
RTVSPropertyOp4
 70
     1
102
RTVSPropertyOp5
 70
     1
102
RTVSPropertyOp6
 70
     1
102
RTVSPropertyOp7
 70
     1
102
RTVSPropertyOp8
 70
     1
102
RTVSPropertyOp9
 70
     1
102
RTVSPropertyOp10
 70
     1
102
RTVSPropertyOp11
 70
     1
102
RTVSPropertyOp12
 70
     1
102
RTVSPropertyOp13
 70
     1
102
RTVSPropertyOp14
 70
     1
102
RTVSPropertyOp15
 70
     1
102
RTVSPropertyOp16
 70
     1
102
RTVSPropertyOp17
 70
     1
102
RTVSPropertyOp18
 70
     1
102
RTVSPropertyOp19
 70
     1
102
RTVSPropertyOp20
 70
     1
102
RTVSPropertyOp21
 70
     1
102
RTVSPropertyOp22
 70
     1
102
RTVSPropertyOp23
 70
     1
102
RTVSPropertyOp24
 70
     1
102
RTVSPropertyOp25
 70
     1
102
RTVSPropertyOp26
 70
     1
102
RTVSPropertyOp27
 70
     1
102
RTVSPropertyOp28
 70
     1
102
RTVSPropertyOp29
 70
     1
102
RTVSPropertyOp30
 70
     1
102
RTVSPropertyOp31
 70
     1
102
RTVSPropertyOp32
 70
     1
102
RTVSPropertyOp33
 70
     1
102
RTVSPropertyOp34
 70
     1
102
RTVSPropertyOp35
 70
     1
102
RTVSPropertyOp36
 70
     1
102
RTVSPropertyOp37
 70
     1
102
RTVSPropertyOp38
 70
     1
102
RTVSPropertyOp39
 70
     1
102
RTVSPropertyOp40
 70
     1
102
RTVSPropertyOp41
 70
     1
102
RTVSPropertyOp42
 70
     1
102
RTVSPropertyOp43
 70
     1
102
RTVSPropertyOp44
 70
     1
102
RTVSPropertyOp45
 70
     1
102
RTVSPropertyOp46
 70
     1
102
RTVSPropertyOp47
 70
     1
102
RTVSPropertyOp48
 70
     1
102
RTVSPropertyOp49
 70
     1
102
RTVSPropertyOp50
 70
     1
102
RTVSPropertyOp51
 70
     0
102
RTVSPropertyOp52
 70
     0
102
RTVSPropertyOp53
 70
     1
102
RTVSPropertyOp54
 70
     1
102
RTVSPropertyOp55
 70
     1
102
RTVSPropertyOp56
 70
     1
102
RTVSPropertyOp57
 70
     1
102
RTVSPropertyOp58
 70
     1
102
RTVSPropertyOp59
 70
     1
102
RTVSPropertyOp60
 70
     1
102
RTVSPropertyOp61
 70
     1
102
RTVSPropertyOp62
 70
     1
  0
XRECORD
  5
272D
102
{ACAD_REACTORS
330
272C
102
}
330
272C
100
AcDbXrecord
280
     1
102
RTVSPost2010Prop28
280
     0
102
RTVSPost2010PropOp28
 70
     1
102
RTVSPost2010Prop29
280
     1
102
RTVSPost2010PropOp29
 70
     1
102
RTVSPost2010Prop30
280
     1
102
RTVSPost2010PropOp30
 70
     1
102
RTVSPost2010Prop31
280
     0
102
RTVSPost2010PropOp31
 70
     1
102
RTVSPost2010Prop32
280
     0
102
RTVSPost2010PropOp32
 70
     1
102
RTVSPost2010Prop33
280
     0
102
RTVSPost2010PropOp33
 70
     1
102
RTVSPost2010Prop34
280
     0
102
RTVSPost2010PropOp34
 70
     1
102
RTVSPost2010Prop35
280
     0
102
RTVSPost2010PropOp35
 70
     1
102
RTVSPost2010Prop36
280
     0
102
RTVSPost2010PropOp36
 70
     1
102
RTVSPost2010Prop37
 90
       50
102
RTVSPost2010PropOp37
 70
     1
102
RTVSPost2010Prop38
140
0.0
102
RTVSPost2010PropOp38
 70
     1
102
RTVSPost2010Prop39
140
1.0
102
RTVSPost2010PropOp39
 70
     1
102
RTVSPost2010Prop40
 90
        0
102
RTVSPost2010PropOp40
 70
     1
102
RTVSPost2010Prop41ColorIndex
 90
       18
102
RTVSPost2010Prop41ColorRGB
 90
        0
102
RTVSPost2010PropOp41
 70
     1
102
RTVSPost2010Prop42
 90
       50
102
RTVSPost2010PropOp42
 70
     1
102
RTVSPost2010Prop43
 90
        3
102
RTVSPost2010PropOp43
 70
     1
102
RTVSPost2010Prop44ColorIndex
 90
        5
102
RTVSPost2010Prop44ColorRGB
 90
      255
102
RTVSPost2010PropOp44
 70
     1
102
RTVSPost2010Prop45
280
     0
102
RTVSPost2010PropOp45
 70
     1
102
RTVSPost2010Prop46
 90
       50
102
RTVSPost2010PropOp46
 70
     1
102
RTVSPost2010Prop47
 90
       50
102
RTVSPost2010PropOp47
 70
     1
102
RTVSPost2010Prop48
 90
       50
102
RTVSPost2010PropOp48
 70
     1
102
RTVSPost2010Prop49
280
     0
102
RTVSPost2010PropOp49
 70
     1
102
RTVSPost2010Prop50
 90
       50
102
RTVSPost2010PropOp50
 70
     1
102
RTVSPost2010Prop51ColorIndex
 90
      256
102
RTVSPost2010Prop51ColorRGB
 90
-16777216
102
RTVSPost2010PropOp51
 70
     0
102
RTVSPost2010Prop52
140
1.0
102
RTVSPost2010PropOp52
 70
     0
102
RTVSPost2010Prop53
 90
        2
102
RTVSPost2010PropOp53
 70
     1
102
RTVSPost2010Prop54
  1
strokes_ogs.tif
102
RTVSPost2010PropOp54
 70
     1
102
RTVSPost2010Prop55
280
     0
102
RTVSPost2010PropOp55
 70
     1
102
RTVSPost2010Prop56
140
1.0
102
RTVSPost2010PropOp56
 70
     1
102
RTVSPost2010Prop57
140
1.0
102
RTVSPost2010PropOp57
 70
     1
102
RTVSPropertyOp0
 70
     1
102
RTVSPropertyOp1
 70
     1
102
RTVSPropertyOp2
 70
     1
102
RTVSPropertyOp3
 70
     1
102
RTVSPropertyOp4
 70
     1
102
RTVSPropertyOp5
 70
     1
102
RTVSPropertyOp6
 70
     1
102
RTVSPropertyOp7
 70
     1
102
RTVSPropertyOp8
 70
     1
102
RTVSPropertyOp9
 70
     1
102
RTVSPropertyOp10
 70
     1
102
RTVSPropertyOp11
 70
     1
102
RTVSPropertyOp12
 70
     1
102
RTVSPropertyOp13
 70
     1
102
RTVSPropertyOp14
 70
     1
102
RTVSPropertyOp15
 70
     1
102
RTVSPropertyOp16
 70
     1
102
RTVSPropertyOp17
 70
     1
102
RTVSPropertyOp18
 70
     1
102
RTVSPropertyOp19
 70
     1
102
RTVSPropertyOp20
 70
     1
102
RTVSPropertyOp21
 70
     1
102
RTVSPropertyOp22
 70
     1
102
RTVSPropertyOp23
 70
     1
102
RTVSPropertyOp24
 70
     1
102
RTVSPropertyOp25
 70
     1
102
RTVSPropertyOp26
 70
     1
102
RTVSPropertyOp27
 70
     1
102
RTVSPropertyOp28
 70
     1
102
RTVSPropertyOp29
 70
     1
102
RTVSPropertyOp30
 70
     1
102
RTVSPropertyOp31
 70
     1
102
RTVSPropertyOp32
 70
     1
102
RTVSPropertyOp33
 70
     1
102
RTVSPropertyOp34
 70
     1
102
RTVSPropertyOp35
 70
     1
102
RTVSPropertyOp36
 70
     1
102
RTVSPropertyOp37
 70
     1
102
RTVSPropertyOp38
 70
     1
102
RTVSPropertyOp39
 70
     1
102
RTVSPropertyOp40
 70
     1
102
RTVSPropertyOp41
 70
     1
102
RTVSPropertyOp42
 70
     1
102
RTVSPropertyOp43
 70
     1
102
RTVSPropertyOp44
 70
     1
102
RTVSPropertyOp45
 70
     1
102
RTVSPropertyOp46
 70
     1
102
RTVSPropertyOp47
 70
     1
102
RTVSPropertyOp48
 70
     1
102
RTVSPropertyOp49
 70
     1
102
RTVSPropertyOp50
 70
     1
102
RTVSPropertyOp51
 70
     0
102
RTVSPropertyOp52
 70
     0
102
RTVSPropertyOp53
 70
     1
102
RTVSPropertyOp54
 70
     1
102
RTVSPropertyOp55
 70
     1
102
RTVSPropertyOp56
 70
     1
102
RTVSPropertyOp57
 70
     1
102
RTVSPropertyOp58
 70
     1
102
RTVSPropertyOp59
 70
     1
102
RTVSPropertyOp60
 70
     1
102
RTVSPropertyOp61
 70
     1
102
RTVSPropertyOp62
 70
     1
  0
XRECORD
  5
2745
102
{ACAD_REACTORS
330
2744
102
}
330
2744
100
AcDbXrecord
280
     1
102
RTVSPost2010Prop28
280
     0
102
RTVSPost2010PropOp28
 70
     1
102
RTVSPost2010Prop29
280
     1
102
RTVSPost2010PropOp29
 70
     1
102
RTVSPost2010Prop30
280
     1
102
RTVSPost2010PropOp30
 70
     1
102
RTVSPost2010Prop31
280
     0
102
RTVSPost2010PropOp31
 70
     1
102
RTVSPost2010Prop32
280
     0
102
RTVSPost2010PropOp32
 70
     1
102
RTVSPost2010Prop33
280
     0
102
RTVSPost2010PropOp33
 70
     1
102
RTVSPost2010Prop34
280
     0
102
RTVSPost2010PropOp34
 70
     1
102
RTVSPost2010Prop35
280
     0
102
RTVSPost2010PropOp35
 70
     1
102
RTVSPost2010Prop36
280
     0
102
RTVSPost2010PropOp36
 70
     1
102
RTVSPost2010Prop37
 90
       50
102
RTVSPost2010PropOp37
 70
     1
102
RTVSPost2010Prop38
140
0.0
102
RTVSPost2010PropOp38
 70
     1
102
RTVSPost2010Prop39
140
1.0
102
RTVSPost2010PropOp39
 70
     1
102
RTVSPost2010Prop40
 90
        0
102
RTVSPost2010PropOp40
 70
     1
102
RTVSPost2010Prop41ColorIndex
 90
       18
102
RTVSPost2010Prop41ColorRGB
 90
        0
102
RTVSPost2010PropOp41
 70
     1
102
RTVSPost2010Prop42
 90
       50
102
RTVSPost2010PropOp42
 70
     1
102
RTVSPost2010Prop43
 90
        3
102
RTVSPost2010PropOp43
 70
     1
102
RTVSPost2010Prop44ColorIndex
 90
        5
102
RTVSPost2010Prop44ColorRGB
 90
      255
102
RTVSPost2010PropOp44
 70
     1
102
RTVSPost2010Prop45
280
     0
102
RTVSPost2010PropOp45
 70
     1
102
RTVSPost2010Prop46
 90
       50
102
RTVSPost2010PropOp46
 70
     1
102
RTVSPost2010Prop47
 90
       50
102
RTVSPost2010PropOp47
 70
     1
102
RTVSPost2010Prop48
 90
       50
102
RTVSPost2010PropOp48
 70
     1
102
RTVSPost2010Prop49
280
     0
102
RTVSPost2010PropOp49
 70
     1
102
RTVSPost2010Prop50
 90
       50
102
RTVSPost2010PropOp50
 70
     1
102
RTVSPost2010Prop51ColorIndex
 90
      256
102
RTVSPost2010Prop51ColorRGB
 90
-16777216
102
RTVSPost2010PropOp51
 70
     0
102
RTVSPost2010Prop52
140
1.0
102
RTVSPost2010PropOp52
 70
     0
102
RTVSPost2010Prop53
 90
        2
102
RTVSPost2010PropOp53
 70
     1
102
RTVSPost2010Prop54
  1
strokes_ogs.tif
102
RTVSPost2010PropOp54
 70
     1
102
RTVSPost2010Prop55
280
     0
102
RTVSPost2010PropOp55
 70
     1
102
RTVSPost2010Prop56
140
1.0
102
RTVSPost2010PropOp56
 70
     1
102
RTVSPost2010Prop57
140
1.0
102
RTVSPost2010PropOp57
 70
     1
102
RTVSPropertyOp0
 70
     1
102
RTVSPropertyOp1
 70
     1
102
RTVSPropertyOp2
 70
     1
102
RTVSPropertyOp3
 70
     1
102
RTVSPropertyOp4
 70
     1
102
RTVSPropertyOp5
 70
     1
102
RTVSPropertyOp6
 70
     1
102
RTVSPropertyOp7
 70
     1
102
RTVSPropertyOp8
 70
     1
102
RTVSPropertyOp9
 70
     1
102
RTVSPropertyOp10
 70
     1
102
RTVSPropertyOp11
 70
     1
102
RTVSPropertyOp12
 70
     1
102
RTVSPropertyOp13
 70
     1
102
RTVSPropertyOp14
 70
     1
102
RTVSPropertyOp15
 70
     1
102
RTVSPropertyOp16
 70
     1
102
RTVSPropertyOp17
 70
     1
102
RTVSPropertyOp18
 70
     1
102
RTVSPropertyOp19
 70
     1
102
RTVSPropertyOp20
 70
     1
102
RTVSPropertyOp21
 70
     1
102
RTVSPropertyOp22
 70
     1
102
RTVSPropertyOp23
 70
     1
102
RTVSPropertyOp24
 70
     1
102
RTVSPropertyOp25
 70
     1
102
RTVSPropertyOp26
 70
     1
102
RTVSPropertyOp27
 70
     1
102
RTVSPropertyOp28
 70
     1
102
RTVSPropertyOp29
 70
     1
102
RTVSPropertyOp30
 70
     1
102
RTVSPropertyOp31
 70
     1
102
RTVSPropertyOp32
 70
     1
102
RTVSPropertyOp33
 70
     1
102
RTVSPropertyOp34
 70
     1
102
RTVSPropertyOp35
 70
     1
102
RTVSPropertyOp36
 70
     1
102
RTVSPropertyOp37
 70
     1
102
RTVSPropertyOp38
 70
     1
102
RTVSPropertyOp39
 70
     1
102
RTVSPropertyOp40
 70
     1
102
RTVSPropertyOp41
 70
     1
102
RTVSPropertyOp42
 70
     1
102
RTVSPropertyOp43
 70
     1
102
RTVSPropertyOp44
 70
     1
102
RTVSPropertyOp45
 70
     1
102
RTVSPropertyOp46
 70
     1
102
RTVSPropertyOp47
 70
     1
102
RTVSPropertyOp48
 70
     1
102
RTVSPropertyOp49
 70
     1
102
RTVSPropertyOp50
 70
     1
102
RTVSPropertyOp51
 70
     0
102
RTVSPropertyOp52
 70
     0
102
RTVSPropertyOp53
 70
     1
102
RTVSPropertyOp54
 70
     1
102
RTVSPropertyOp55
 70
     1
102
RTVSPropertyOp56
 70
     1
102
RTVSPropertyOp57
 70
     1
102
RTVSPropertyOp58
 70
     1
102
RTVSPropertyOp59
 70
     1
102
RTVSPropertyOp60
 70
     1
102
RTVSPropertyOp61
 70
     1
102
RTVSPropertyOp62
 70
     1
  0
ENDSEC
  0
EOF
