  0
SECTION
  2
HEADER
  9
$ACADVER
  1
AC1015
  9
$ACADMAINTVER
 70
    20
  9
$DWGCODEPAGE
  3
ANSI_932
  9
$INSBASE
 10
0.0
 20
0.0
 30
0.0
  9
$EXTMIN
 10
9.9999975266385
 20
10.0
 30
0.0
  9
$EXTMAX
 10
626.4162428436558
 20
466.8774230445066
 30
0.0
  9
$LIMMIN
 10
0.0000015376081137
 20
-0.0000001931532552
  9
$LIMMAX
 10
705.0000015376082
 20
486.0227270795738
  9
$ORTHOMODE
 70
     1
  9
$REGENMODE
 70
     1
  9
$FILLMODE
 70
     1
  9
$QTEXTMODE
 70
     0
  9
$MIRRTEXT
 70
     1
  9
$LTSCALE
 40
1.0
  9
$ATTMODE
 70
     1
  9
$TEXTSIZE
 40
2.5
  9
$TRACEWID
 40
1.0
  9
$TEXTSTYLE
  7
STANDARD
  9
$CLAYER
  8
0
  9
$CELTYPE
  6
BYLAYER
  9
$CECOLOR
 62
   256
  9
$CELTSCALE
 40
1.0
  9
$DISPSILH
 70
     0
  9
$DIMSCALE
 40
1.0
  9
$DIMASZ
 40
3.0
  9
$DIMEXO
 40
1.0
  9
$DIMDLI
 40
10.0
  9
$DIMRND
 40
0.0
  9
$DIMDLE
 40
0.0
  9
$DIMEXE
 40
1.0
  9
$DIMTP
 40
0.0
  9
$DIMTM
 40
0.0
  9
$DIMTXT
 40
3.2
  9
$DIMCEN
 40
0.0
  9
$DIMTSZ
 40
0.0
  9
$DIMTOL
 70
     0
  9
$DIMLIM
 70
     0
  9
$DIMTIH
 70
     0
  9
$DIMTOH
 70
     0
  9
$DIMSE1
 70
     0
  9
$DIMSE2
 70
     0
  9
$DIMTAD
 70
     3
  9
$DIMZIN
 70
     8
  9
$DIMBLK
  1

  9
$DIMASO
 70
     1
  9
$DIMSHO
 70
     1
  9
$DIMPOST
  1

  9
$DIMAPOST
  1

  9
$DIMALT
 70
     0
  9
$DIMALTD
 70
     2
  9
$DIMALTF
 40
25.4
  9
$DIMLFAC
 40
1.0
  9
$DIMTOFL
 70
     1
  9
$DIMTVP
 40
0.0
  9
$DIMTIX
 70
     0
  9
$DIMSOXD
 70
     0
  9
$DIMSAH
 70
     1
  9
$DIMBLK1
  1
OPEN
  9
$DIMBLK2
  1
OPEN
  9
$DIMSTYLE
  2
STANDARD
  9
$DIMCLRD
 70
     0
  9
$DIMCLRE
 70
     0
  9
$DIMCLRT
 70
     0
  9
$DIMTFAC
 40
1.0
  9
$DIMGAP
 40
1.0
  9
$DIMJUST
 70
     0
  9
$DIMSD1
 70
     0
  9
$DIMSD2
 70
     0
  9
$DIMTOLJ
 70
     1
  9
$DIMTZIN
 70
     0
  9
$DIMALTZ
 70
     0
  9
$DIMALTTZ
 70
     0
  9
$DIMUPT
 70
     0
  9
$DIMDEC
 70
     4
  9
$DIMTDEC
 70
     4
  9
$DIMALTU
 70
     2
  9
$DIMALTTD
 70
     2
  9
$DIMTXSTY
  7
STANDARD
  9
$DIMAUNIT
 70
     0
  9
$DIMADEC
 70
     0
  9
$DIMALTRND
 40
0.0
  9
$DIMAZIN
 70
     0
  9
$DIMDSEP
 70
    46
  9
$DIMATFIT
 70
     3
  9
$DIMFRAC
 70
     0
  9
$DIMLDRBLK
  1
OPEN
  9
$DIMLUNIT
 70
     2
  9
$DIMLWD
 70
    -2
  9
$DIMLWE
 70
    -2
  9
$DIMTMOVE
 70
     0
  9
$LUNITS
 70
     2
  9
$LUPREC
 70
     4
  9
$SKETCHINC
 40
1.0
  9
$FILLETRAD
 40
1.199999999999999
  9
$AUNITS
 70
     0
  9
$AUPREC
 70
     0
  9
$MENU
  1
.
  9
$ELEVATION
 40
0.0
  9
$PELEVATION
 40
0.0
  9
$THICKNESS
 40
0.0
  9
$LIMCHECK
 70
     0
  9
$CHAMFERA
 40
10.0
  9
$CHAMFERB
 40
10.0
  9
$CHAMFERC
 40
20.0
  9
$CHAMFERD
 40
0.0
  9
$SKPOLY
 70
     0
  9
$TDCREATE
 40
2454154.550453368
  9
$TDUCREATE
 40
2454154.175453368
  9
$TDUPDATE
 40
2457192.690861007
  9
$TDUUPDATE
 40
2457192.315861007
  9
$TDINDWG
 40
0.1297309144
  9
$TDUSRTIMER
 40
0.1297308912
  9
$USRTIMER
 70
     1
  9
$ANGBASE
 50
0.0
  9
$ANGDIR
 70
     0
  9
$PDMODE
 70
     0
  9
$PDSIZE
 40
0.0
  9
$PLINEWID
 40
0.0
  9
$SPLFRAME
 70
     0
  9
$SPLINETYPE
 70
     6
  9
$SPLINESEGS
 70
     8
  9
$HANDSEED
  5
2E3A
  9
$SURFTAB1
 70
     6
  9
$SURFTAB2
 70
     6
  9
$SURFTYPE
 70
     6
  9
$SURFU
 70
     6
  9
$SURFV
 70
     6
  9
$UCSBASE
  2

  9
$UCSNAME
  2

  9
$UCSORG
 10
0.0
 20
0.0
 30
0.0
  9
$UCSXDIR
 10
1.0
 20
0.0
 30
0.0
  9
$UCSYDIR
 10
0.0
 20
1.0
 30
0.0
  9
$UCSORTHOREF
  2

  9
$UCSORTHOVIEW
 70
     0
  9
$UCSORGTOP
 10
0.0
 20
0.0
 30
0.0
  9
$UCSORGBOTTOM
 10
0.0
 20
0.0
 30
0.0
  9
$UCSORGLEFT
 10
0.0
 20
0.0
 30
0.0
  9
$UCSORGRIGHT
 10
0.0
 20
0.0
 30
0.0
  9
$UCSORGFRONT
 10
0.0
 20
0.0
 30
0.0
  9
$UCSORGBACK
 10
0.0
 20
0.0
 30
0.0
  9
$PUCSBASE
  2

  9
$PUCSNAME
  2

  9
$PUCSORG
 10
0.0
 20
0.0
 30
0.0
  9
$PUCSXDIR
 10
1.0
 20
0.0
 30
0.0
  9
$PUCSYDIR
 10
0.0
 20
1.0
 30
0.0
  9
$PUCSORTHOREF
  2

  9
$PUCSORTHOVIEW
 70
     0
  9
$PUCSORGTOP
 10
0.0
 20
0.0
 30
0.0
  9
$PUCSORGBOTTOM
 10
0.0
 20
0.0
 30
0.0
  9
$PUCSORGLEFT
 10
0.0
 20
0.0
 30
0.0
  9
$PUCSORGRIGHT
 10
0.0
 20
0.0
 30
0.0
  9
$PUCSORGFRONT
 10
0.0
 20
0.0
 30
0.0
  9
$PUCSORGBACK
 10
0.0
 20
0.0
 30
0.0
  9
$USERI1
 70
     0
  9
$USERI2
 70
     0
  9
$USERI3
 70
     0
  9
$USERI4
 70
     0
  9
$USERI5
 70
     0
  9
$USERR1
 40
0.0
  9
$USERR2
 40
0.0
  9
$USERR3
 40
0.0
  9
$USERR4
 40
0.0
  9
$USERR5
 40
0.0
  9
$WORLDVIEW
 70
     1
  9
$SHADEDGE
 70
     3
  9
$SHADEDIF
 70
    70
  9
$TILEMODE
 70
     1
  9
$MAXACTVP
 70
    48
  9
$PINSBASE
 10
0.0
 20
0.0
 30
0.0
  9
$PLIMCHECK
 70
     0
  9
$PEXTMIN
 10
1.000000000000000E+20
 20
1.000000000000000E+20
 30
1.000000000000000E+20
  9
$PEXTMAX
 10
-1.000000000000000E+20
 20
-1.000000000000000E+20
 30
-1.000000000000000E+20
  9
$PLIMMIN
 10
0.0
 20
0.0
  9
$PLIMMAX
 10
420.0
 20
297.0
  9
$UNITMODE
 70
     0
  9
$VISRETAIN
 70
     1
  9
$PLINEGEN
 70
     0
  9
$PSLTSCALE
 70
     1
  9
$TREEDEPTH
 70
  3020
  9
$CMLSTYLE
  2
STANDARD
  9
$CMLJUST
 70
     0
  9
$CMLSCALE
 40
20.0
  9
$PROXYGRAPHICS
 70
     1
  9
$MEASUREMENT
 70
     0
  9
$CELWEIGHT
370
    -1
  9
$ENDCAPS
280
     0
  9
$JOINSTYLE
280
     0
  9
$LWDISPLAY
290
     0
  9
$INSUNITS
 70
     0
  9
$HYPERLINKBASE
  1

  9
$STYLESHEET
  1

  9
$XEDIT
290
     1
  9
$CEPSNTYPE
380
     0
  9
$PSTYLEMODE
290
     1
  9
$FINGERPRINTGUID
  2
{5B425BFD-A3D3-4799-AFEB-280590715174}
  9
$VERSIONGUID
  2
{BFE490C2-F077-4B46-A372-361F523A2FE9}
  9
$EXTNAMES
290
     1
  9
$PSVPSCALE
 40
0.0
  9
$OLESTARTUP
290
     0
  0
ENDSEC
  0
SECTION
  2
CLASSES
  0
CLASS
  1
ACDBDICTIONARYWDFLT
  2
AcDbDictionaryWithDefault
  3
ObjectDBX Classes
 90
        0
280
     0
281
     0
  0
CLASS
  1
ACDBPLACEHOLDER
  2
AcDbPlaceHolder
  3
ObjectDBX Classes
 90
        0
280
     0
281
     0
  0
CLASS
  1
LAYOUT
  2
AcDbLayout
  3
ObjectDBX Classes
 90
        0
280
     0
281
     0
  0
CLASS
  1
DICTIONARYVAR
  2
AcDbDictionaryVar
  3
ObjectDBX Classes
 90
        0
280
     0
281
     0
  0
CLASS
  1
MATERIAL
  2
AcDbMaterial
  3
ObjectDBX Classes
 90
     1153
280
     0
281
     0
  0
CLASS
  1
VISUALSTYLE
  2
AcDbVisualStyle
  3
ObjectDBX Classes
 90
     4095
280
     0
281
     0
  0
CLASS
  1
TABLESTYLE
  2
AcDbTableStyle
  3
ObjectDBX Classes
 90
     4095
280
     0
281
     0
  0
CLASS
  1
SCALE
  2
AcDbScale
  3
ObjectDBX Classes
 90
     1153
280
     0
281
     0
  0
CLASS
  1
MLEADERSTYLE
  2
AcDbMLeaderStyle
  3
ACDB_MLEADERSTYLE_CLASS
 90
     4095
280
     0
281
     0
  0
CLASS
  1
ACDBSECTIONVIEWSTYLE
  2
AcDbSectionViewStyle
  3
ObjectDBX Classes
 90
     1025
280
     0
281
     0
  0
CLASS
  1
ACDBDETAILVIEWSTYLE
  2
AcDbDetailViewStyle
  3
ObjectDBX Classes
 90
     1025
280
     0
281
     0
  0
CLASS
  1
CELLSTYLEMAP
  2
AcDbCellStyleMap
  3
ObjectDBX Classes
 90
     1152
280
     0
281
     0
  0
ENDSEC
  0
SECTION
  2
TABLES
  0
TABLE
  2
VPORT
  5
8
330
0
100
AcDbSymbolTable
 70
     1
  0
VPORT
  5
2D84
330
8
100
AcDbSymbolTableRecord
100
AcDbViewportTableRecord
  2
*ACTIVE
 70
     0
 10
0.0
 20
0.0
 11
1.0
 21
1.0
 12
507.461390896956
 22
238.4504518303637
 13
0.0
 23
0.0
 14
10.0
 24
10.0
 15
10.0
 25
10.0
 16
0.0
 26
0.0
 36
1.0
 17
0.0
 27
0.0
 37
0.0
 40
460.3816251943965
 41
2.35006605019815
 42
50.0
 43
0.0
 44
0.0
 50
0.0
 51
0.0
 71
     0
 72
   100
 73
     1
 74
     0
 75
     0
 76
     0
 77
     0
 78
     0
281
     0
 65
     1
110
0.0
120
0.0
130
0.0
111
1.0
121
0.0
131
0.0
112
0.0
122
1.0
132
0.0
 79
     0
146
0.0
1001
ACAD_NAV_VCDISPLAY
1070
     3
  0
ENDTAB
  0
TABLE
  2
LTYPE
  5
5
330
0
100
AcDbSymbolTable
 70
     4
  0
LTYPE
  5
12
330
5
100
AcDbSymbolTableRecord
100
AcDbLinetypeTableRecord
  2
BYBLOCK
 70
     0
  3

 72
    65
 73
     0
 40
0.0
  0
LTYPE
  5
13
330
5
100
AcDbSymbolTableRecord
100
AcDbLinetypeTableRecord
  2
BYLAYER
 70
     0
  3

 72
    65
 73
     0
 40
0.0
  0
LTYPE
  5
14
330
5
100
AcDbSymbolTableRecord
100
AcDbLinetypeTableRecord
  2
CONTINUOUS
 70
     0
  3
Solid line
 72
    65
 73
     0
 40
0.0
  0
LTYPE
  5
4B
330
5
100
AcDbSymbolTableRecord
100
AcDbLinetypeTableRecord
  2
DASHED
 70
     0
  3
Dashed __ __ __ __ __ __ __ __ __ __ __ __ __ _
 72
    65
 73
     2
 40
19.04999999999999
 49
12.7
 74
     0
 49
-6.349999999999998
 74
     0
  0
LTYPE
  5
4C
330
5
100
AcDbSymbolTableRecord
100
AcDbLinetypeTableRecord
  2
CENTER
 70
     0
  3
Center ____ _ ____ _ ____ _ ____ _ ____ _ ____
 72
    65
 73
     4
 40
50.8
 49
31.75
 74
     0
 49
-6.349999999999998
 74
     0
 49
6.349999999999998
 74
     0
 49
-6.349999999999998
 74
     0
  0
LTYPE
  5
4D
330
5
100
AcDbSymbolTableRecord
100
AcDbLinetypeTableRecord
  2
PHANTOM
 70
     0
  3
Phantom ______  __  __  ______  __  __  ______
 72
    65
 73
     6
 40
63.5
 49
31.75
 74
     0
 49
-6.349999999999998
 74
     0
 49
6.349999999999998
 74
     0
 49
-6.349999999999998
 74
     0
 49
6.349999999999998
 74
     0
 49
-6.349999999999998
 74
     0
  0
ENDTAB
  0
TABLE
  2
LAYER
  5
2
330
0
100
AcDbSymbolTable
 70
     8
  0
LAYER
  5
E
102
{ACAD_XDICTIONARY
360
2DDE
102
}
330
2
100
AcDbSymbolTableRecord
100
AcDbLayerTableRecord
  2
0
 70
     0
 62
     7
  6
CONTINUOUS
370
    -3
390
2D8D
  0
LAYER
  5
4E
102
{ACAD_XDICTIONARY
360
2DE0
102
}
330
2
100
AcDbSymbolTableRecord
100
AcDbLayerTableRecord
  2
4
 70
     0
 62
     1
  6
CENTER
370
    -3
390
2D8D
  0
LAYER
  5
4F
102
{ACAD_XDICTIONARY
360
2DE2
102
}
330
2
100
AcDbSymbolTableRecord
100
AcDbLayerTableRecord
  2
5
 70
     0
 62
     6
  6
PHANTOM
370
    -3
390
2D8D
  0
LAYER
  5
50
102
{ACAD_XDICTIONARY
360
2DE4
102
}
330
2
100
AcDbSymbolTableRecord
100
AcDbLayerTableRecord
  2
1
 70
     0
 62
     7
  6
CONTINUOUS
370
    -3
390
2D8D
  0
LAYER
  5
51
102
{ACAD_XDICTIONARY
360
2DE6
102
}
330
2
100
AcDbSymbolTableRecord
100
AcDbLayerTableRecord
  2
2
 70
     0
 62
     4
  6
CONTINUOUS
370
    -3
390
2D8D
  0
LAYER
  5
52
102
{ACAD_XDICTIONARY
360
2DE8
102
}
330
2
100
AcDbSymbolTableRecord
100
AcDbLayerTableRecord
  2
3
 70
     0
 62
     2
  6
DASHED
370
    -3
390
2D8D
  0
LAYER
  5
53
102
{ACAD_XDICTIONARY
360
2DEA
102
}
330
2
100
AcDbSymbolTableRecord
100
AcDbLayerTableRecord
  2
6
 70
     0
 62
     5
  6
CONTINUOUS
370
    -3
390
2D8D
  0
LAYER
  5
54
102
{ACAD_XDICTIONARY
360
2DEC
102
}
330
2
100
AcDbSymbolTableRecord
100
AcDbLayerTableRecord
  2
7
 70
     0
 62
     3
  6
CONTINUOUS
370
    -3
390
2D8D
  0
ENDTAB
  0
TABLE
  2
STYLE
  5
3
330
0
100
AcDbSymbolTable
 70
     1
  0
STYLE
  5
F
330
3
100
AcDbSymbolTableRecord
100
AcDbTextStyleTableRecord
  2
STANDARD
 70
     0
 40
0.0
 41
1.0
 50
0.0
 71
     0
 42
2.5
  3
simplex.shx
  4

  0
ENDTAB
  0
TABLE
  2
VIEW
  5
6
330
0
100
AcDbSymbolTable
 70
     0
  0
ENDTAB
  0
TABLE
  2
UCS
  5
7
330
0
100
AcDbSymbolTable
 70
     0
  0
ENDTAB
  0
TABLE
  2
APPID
  5
9
330
0
100
AcDbSymbolTable
 70
     5
  0
APPID
  5
10
330
9
100
AcDbSymbolTableRecord
100
AcDbRegAppTableRecord
  2
ACAD
 70
     0
  0
APPID
  5
3E
330
9
100
AcDbSymbolTableRecord
100
AcDbRegAppTableRecord
  2
CONTENTTABDATA
 70
     0
  0
APPID
  5
3F
330
9
100
AcDbSymbolTableRecord
100
AcDbRegAppTableRecord
  2
CONTENTCURRENTTAB
 70
     0
  0
APPID
  5
2DF8
330
9
100
AcDbSymbolTableRecord
100
AcDbRegAppTableRecord
  2
ACAD_NAV_VCDISPLAY
 70
     0
  0
APPID
  5
2E31
330
9
100
AcDbSymbolTableRecord
100
AcDbRegAppTableRecord
  2
ACAD_MLEADERVER
 70
     0
  0
ENDTAB
  0
TABLE
  2
DIMSTYLE
  5
A
330
0
100
AcDbSymbolTable
 70
     1
100
AcDbDimStyleTable
 71
     0
  0
DIMSTYLE
105
1D
330
A
100
AcDbSymbolTableRecord
100
AcDbDimStyleTableRecord
  2
STANDARD
 70
     0
 41
3.0
 42
1.0
 43
10.0
 44
1.0
 73
     0
 74
     0
 77
     3
 78
     8
140
3.2
141
0.0
147
1.0
172
     1
173
     1
340
F
341
2E
343
2E
344
2E
  0
ENDTAB
  0
TABLE
  2
BLOCK_RECORD
  5
1
330
0
100
AcDbSymbolTable
 70
     1
  0
BLOCK_RECORD
  5
18
102
{ACAD_XDICTIONARY
360
2D87
102
}
330
1
100
AcDbSymbolTableRecord
100
AcDbBlockTableRecord
  2
*MODEL_SPACE
340
2DDB
  0
BLOCK_RECORD
  5
15
102
{ACAD_XDICTIONARY
360
2D85
102
}
330
1
100
AcDbSymbolTableRecord
100
AcDbBlockTableRecord
  2
*PAPER_SPACE
340
2DDC
  0
BLOCK_RECORD
  5
2E
330
1
100
AcDbSymbolTableRecord
100
AcDbBlockTableRecord
  2
_OPEN
340
0
  0
ENDTAB
  0
ENDSEC
  0
SECTION
  2
BLOCKS
  0
BLOCK
  5
19
330
18
100
AcDbEntity
  8
0
100
AcDbBlockBegin
  2
*MODEL_SPACE
 70
     0
 10
0.0
 20
0.0
 30
0.0
  3
*MODEL_SPACE
  1

  0
ENDBLK
  5
1A
330
18
100
AcDbEntity
  8
0
100
AcDbBlockEnd
  0
BLOCK
  5
16
330
15
100
AcDbEntity
 67
     1
  8
0
100
AcDbBlockBegin
  2
*PAPER_SPACE
 70
     0
 10
0.0
 20
0.0
 30
0.0
  3
*PAPER_SPACE
  1

  0
ENDBLK
  5
17
330
15
100
AcDbEntity
 67
     1
  8
0
100
AcDbBlockEnd
  0
BLOCK
  5
2F
330
2E
100
AcDbEntity
  8
0
100
AcDbBlockBegin
  2
_OPEN
 70
     0
 10
0.0
 20
0.0
 30
0.0
  3
_OPEN
  1

  0
LINE
  5
30
330
2E
100
AcDbEntity
  8
0
  6
ByBlock
 62
     0
100
AcDbLine
 10
-1.0
 20
0.1666666666666666
 30
0.0
 11
0.0
 21
0.0
 31
0.0
  0
LINE
  5
31
330
2E
100
AcDbEntity
  8
0
  6
ByBlock
 62
     0
100
AcDbLine
 10
0.0
 20
0.0
 30
0.0
 11
-1.0
 21
-0.1666666666666666
 31
0.0
  0
LINE
  5
32
330
2E
100
AcDbEntity
  8
0
  6
ByBlock
 62
     0
100
AcDbLine
 10
0.0
 20
0.0
 30
0.0
 11
-1.0
 21
0.0
 31
0.0
  0
ENDBLK
  5
33
330
2E
100
AcDbEntity
  8
0
100
AcDbBlockEnd
  0
ENDSEC
  0
SECTION
  2
ENTITIES
  0
TEXT
  5
63
330
18
100
AcDbEntity
  8
4
  6
CENTER
 48
0.25
100
AcDbText
 10
23.97950852663849
 20
10.0
 30
0.0
 40
1.399999999999999
  1
4
100
AcDbText
  0
TEXT
  5
64
330
18
100
AcDbEntity
  8
7
  6
Continuous
 48
0.25
100
AcDbText
 10
9.999997526638502
 20
26.0000007607689
 30
0.0
 40
3.0
  1
CODE No.19271
100
AcDbText
  0
TEXT
  5
65
330
18
100
AcDbEntity
  8
7
  6
Continuous
 48
0.25
100
AcDbText
 10
9.999997526638502
 20
18.00000076076889
 30
0.0
 40
3.0
  1
TYPE No.TCA-50SUS-U65
100
AcDbText
  0
TEXT
  5
66
330
18
100
AcDbEntity
  8
1
  6
Continuous
 48
0.25
100
AcDbText
 10
9.999997526638502
 20
10.00000076076889
 30
0.0
 40
1.399999999999999
  1
LAYER
100
AcDbText
  0
TEXT
  5
67
330
18
100
AcDbEntity
  8
2
  6
Continuous
 48
0.25
100
AcDbText
 10
19.9795085266385
 20
10.0
 30
0.0
 40
1.399999999999999
  1
2
100
AcDbText
  0
TEXT
  5
68
330
18
100
AcDbEntity
  8
3
  6
DASHED
 48
0.25
100
AcDbText
 10
21.9795085266385
 20
10.0
 30
0.0
 40
1.399999999999999
  1
3
100
AcDbText
  0
TEXT
  5
69
330
18
100
AcDbEntity
  8
1
  6
Continuous
 48
0.25
100
AcDbText
 10
17.9795085266385
 20
10.0
 30
0.0
 40
1.399999999999999
  1
1
100
AcDbText
  0
TEXT
  5
6A
330
18
100
AcDbEntity
  8
5
  6
PHANTOM
 48
0.25
100
AcDbText
 10
25.9795085266385
 20
10.0
 30
0.0
 40
1.399999999999999
  1
5
100
AcDbText
  0
TEXT
  5
6B
330
18
100
AcDbEntity
  8
6
  6
Continuous
 48
0.25
100
AcDbText
 10
27.9795085266385
 20
10.0
 30
0.0
 40
1.399999999999999
  1
6
100
AcDbText
  0
TEXT
  5
6C
330
18
100
AcDbEntity
  8
7
  6
Continuous
 48
0.25
100
AcDbText
 10
29.9795085266385
 20
10.0
 30
0.0
 40
1.399999999999999
  1
7
100
AcDbText
  0
LINE
  5
F33
330
18
100
AcDbEntity
  8
4
  6
CENTER
 48
0.5
100
AcDbLine
 10
20.03259994394182
 20
239.3034897484985
 30
0.0
 11
98.3843717029198
 21
239.3034897484984
 31
0.0
  0
ARC
  5
F34
330
18
100
AcDbEntity
  8
1
  6
Continuous
100
AcDbCircle
 10
57.53262641967079
 20
252.3034897484983
 30
0.0
 40
20.0
100
AcDbArc
 50
151.0449756281401
 51
180.0
  0
ARC
  5
F37
330
18
100
AcDbEntity
  8
1
  6
Continuous
100
AcDbCircle
 10
62.53262641967079
 20
252.3034897484983
 30
0.0
 40
20.0
100
AcDbArc
 50
0.0000400000007688
 51
28.95502437185981
  0
ARC
  5
F38
330
18
100
AcDbEntity
  8
1
  6
Continuous
100
AcDbCircle
 10
62.53262641967079
 20
252.3034897484983
 30
0.0
 40
20.0
100
AcDbArc
 50
73.33980332486962
 51
87.35162362982512
  0
ARC
  5
F39
330
18
100
AcDbEntity
  8
1
  6
Continuous
100
AcDbCircle
 10
57.53262641967079
 20
252.3034897484983
 30
0.0
 40
20.0
100
AcDbArc
 50
92.70643083955958
 51
106.6601966751303
  0
LINE
  5
F3B
330
18
100
AcDbEntity
  8
4
  6
CENTER
 48
0.5
100
AcDbLine
 10
549.4162428436557
 20
239.3034897484984
 30
0.0
 11
626.4162428436558
 21
239.3034897484984
 31
0.0
  0
LINE
  5
FCE
330
18
100
AcDbEntity
  8
4
  6
CENTER
 48
0.5
100
AcDbLine
 10
60.03262641967079
 20
302.8034897484983
 30
0.0
 11
60.03262641967079
 21
200.8034897484983
 31
0.0
  0
LINE
  5
FD9
330
18
100
AcDbEntity
  8
1
  6
Continuous
100
AcDbLine
 10
27.0326264196708
 20
232.0034867484985
 30
0.0
 11
27.0326264196708
 21
246.6034887484984
 31
0.0
  0
LINE
  5
FDA
330
18
100
AcDbEntity
  8
1
  6
Continuous
100
AcDbLine
 10
28.63261641967051
 20
230.8034897484984
 30
0.0
 11
28.63261641967051
 21
247.8034897484984
 31
0.0
  0
LINE
  5
FDB
330
18
100
AcDbEntity
  8
1
  6
Continuous
100
AcDbLine
 10
29.9475721770807
 20
229.4885339910881
 30
0.0
 11
33.53262641967058
 21
229.4885339910881
 31
0.0
  0
LINE
  5
FDC
330
18
100
AcDbEntity
  8
1
  6
Continuous
100
AcDbLine
 10
28.23262641967062
 20
247.8034897484984
 30
0.0
 11
28.63261641967051
 21
247.8034897484984
 31
0.0
  0
LINE
  5
FDD
330
18
100
AcDbEntity
  8
1
  6
Continuous
100
AcDbLine
 10
28.23262641967062
 20
230.8034897484984
 30
0.0
 11
28.63261641967051
 21
230.8034897484984
 31
0.0
  0
LINE
  5
FDE
330
18
100
AcDbEntity
  8
1
  6
Continuous
100
AcDbLine
 10
28.63261641967074
 20
230.8034897484984
 30
0.0
 11
29.9475721770807
 21
229.4885339910885
 31
0.0
  0
LINE
  5
FDF
330
18
100
AcDbEntity
  8
1
  6
Continuous
100
AcDbLine
 10
29.63261641967074
 20
244.2109689910885
 30
0.0
 11
33.5326264196708
 21
244.2109689910885
 31
0.0
  0
LINE
  5
FE0
330
18
100
AcDbEntity
  8
1
  6
Continuous
100
AcDbLine
 10
29.63261641967074
 20
234.3960105059084
 30
0.0
 11
33.5326264196708
 21
234.3960105059084
 31
0.0
  0
ARC
  5
FE1
330
18
100
AcDbEntity
  8
1
  6
Continuous
100
AcDbCircle
 10
41.1742769677346
 20
239.3034865472292
 30
0.0
 40
12.54166054806418
100
AcDbArc
 50
156.9649307564615
 51
203.035037459681
  0
ARC
  5
FE2
330
18
100
AcDbEntity
  8
1
  6
Continuous
100
AcDbCircle
 10
28.23262641967062
 20
246.6034887484984
 30
0.0
 40
1.199999999999999
100
AcDbArc
 50
90.00000299999769
 51
180.0
  0
ARC
  5
FE3
330
18
100
AcDbEntity
  8
1
  6
Continuous
100
AcDbCircle
 10
28.23262641967062
 20
232.0034867484985
 30
0.0
 40
1.199999999999999
100
AcDbArc
 50
180.0000100000009
 51
270.0
  0
ARC
  5
FE4
330
18
100
AcDbEntity
  8
1
  6
Continuous
100
AcDbCircle
 10
32.11343401068643
 20
231.9422722484985
 30
0.0
 40
3.48931044130072
100
AcDbArc
 50
135.3144185618493
 51
204.4162583753095
  0
ARC
  5
FE5
330
18
100
AcDbEntity
  8
1
  6
Continuous
100
AcDbCircle
 10
587.9162428436553
 20
239.3034897484984
 30
0.0
 40
6.0
100
AcDbArc
 50
318.5903800000012
 51
41.40962400000026
  0
CIRCLE
  5
FE6
330
18
100
AcDbEntity
  8
1
  6
Continuous
100
AcDbCircle
 10
587.9162428436553
 20
239.3034897484984
 30
0.0
 40
6.5
  0
CIRCLE
  5
FE7
330
18
100
AcDbEntity
  8
1
  6
Continuous
100
AcDbCircle
 10
587.9162428436553
 20
239.3034897484984
 30
0.0
 40
8.5
  0
LINE
  5
FE8
330
18
100
AcDbEntity
  8
1
  6
Continuous
100
AcDbLine
 10
587.9162433864949
 20
249.1184458193167
 30
0.0
 11
596.4162428436558
 21
244.2109603642712
 31
0.0
  0
LINE
  5
FE9
330
18
100
AcDbEntity
  8
1
  6
Continuous
100
AcDbLine
 10
596.4162428436553
 20
244.2109603642712
 30
0.0
 11
596.4162428436553
 21
234.3960105059084
 31
0.0
  0
ARC
  5
FEA
330
18
100
AcDbEntity
  8
1
  6
Continuous
100
AcDbCircle
 10
592.1912448436556
 20
235.5332947484985
 30
0.0
 40
0.30000001
100
AcDbArc
 50
254.6357600000028
 51
318.5903800000012
  0
ARC
  5
FEB
330
18
100
AcDbEntity
  8
1
  6
Continuous
100
AcDbCircle
 10
583.6412408436554
 20
235.5332947484985
 30
0.0
 40
0.30000001
100
AcDbArc
 50
221.4096199999987
 51
285.3642399999971
  0
ARC
  5
FED
330
18
100
AcDbEntity
  8
1
  6
Continuous
100
AcDbCircle
 10
587.9162428436553
 20
239.3034897484984
 30
0.0
 40
6.0
100
AcDbArc
 50
138.5903699999986
 51
221.4096300000012
  0
ARC
  5
FEE
330
18
100
AcDbEntity
  8
1
  6
Continuous
100
AcDbCircle
 10
592.1912448436556
 20
243.0736847484983
 30
0.0
 40
0.30000001
100
AcDbArc
 50
41.40961700000161
 51
105.3642400000034
  0
ARC
  5
FEF
330
18
100
AcDbEntity
  8
1
  6
Continuous
100
AcDbCircle
 10
583.6412408436554
 20
243.0736847484983
 30
0.0
 40
0.30000001
100
AcDbArc
 50
74.63575799999775
 51
138.5903800000012
  0
CIRCLE
  5
FF1
330
18
100
AcDbEntity
  8
1
  6
Continuous
100
AcDbCircle
 10
587.9162428436553
 20
239.3034897484984
 30
0.0
 40
5.0
  0
LINE
  5
FF2
330
18
100
AcDbEntity
  8
1
  6
Continuous
100
AcDbLine
 10
584.6662348436555
 20
235.5038147484985
 30
0.0
 11
583.7207318436551
 21
235.2440187484984
 31
0.0
  0
LINE
  5
FF3
330
18
100
AcDbEntity
  8
1
  6
Continuous
100
AcDbLine
 10
591.1662428436557
 20
235.5038227484986
 30
0.0
 11
592.1117608436555
 21
235.2440187484986
 31
0.0
  0
LINE
  5
FF4
330
18
100
AcDbEntity
  8
1
  6
Continuous
100
AcDbLine
 10
584.6662428436558
 20
243.1031567484986
 30
0.0
 11
583.7207318436554
 21
243.3629607484986
 31
0.0
  0
LINE
  5
FF5
330
18
100
AcDbEntity
  8
1
  6
Continuous
100
AcDbLine
 10
591.1662428436555
 20
243.1031567484984
 30
0.0
 11
592.1117538436552
 21
243.3629607484984
 31
0.0
  0
LINE
  5
FF6
330
18
100
AcDbEntity
  8
1
  6
Continuous
100
AcDbLine
 10
579.4162428436553
 20
244.2109689910885
 30
0.0
 11
587.9162433864949
 21
249.1184458193166
 31
0.0
  0
LINE
  5
FF7
330
18
100
AcDbEntity
  8
1
  6
Continuous
100
AcDbLine
 10
579.4162428436558
 20
244.2109689910885
 30
0.0
 11
579.4162428436553
 21
234.3960105059084
 31
0.0
  0
LINE
  5
FF8
330
18
100
AcDbEntity
  8
1
  6
Continuous
100
AcDbLine
 10
579.4162428436553
 20
234.3960105059084
 30
0.0
 11
587.9162428436553
 21
229.4885339910885
 31
0.0
  0
LINE
  5
FF9
330
18
100
AcDbEntity
  8
1
  6
Continuous
100
AcDbLine
 10
587.9162428436553
 20
229.4885339910885
 30
0.0
 11
596.4162428436553
 21
234.3960105059084
 31
0.0
  0
LINE
  5
FFA
330
18
100
AcDbEntity
  8
1
  6
Continuous
100
AcDbLine
 10
28.63261641967051
 20
247.8034897484982
 30
0.0
 11
29.9475721770807
 21
249.1184455059083
 31
0.0
  0
LINE
  5
FFB
330
18
100
AcDbEntity
  8
1
  6
Continuous
100
AcDbLine
 10
29.9475721770807
 20
249.1184455059084
 30
0.0
 11
33.5326264196708
 21
249.1184455059084
 31
0.0
  0
ARC
  5
FFC
330
18
100
AcDbEntity
  8
1
  6
Continuous
100
AcDbCircle
 10
32.11343401068643
 20
246.6647072484984
 30
0.0
 40
3.48931044130072
100
AcDbArc
 50
155.5837416246904
 51
224.6855814381506
  0
LINE
  5
FFF
330
18
100
AcDbEntity
  8
1
  6
Continuous
100
AcDbLine
 10
26.03258464394207
 20
243.5534747486418
 30
0.0
 11
26.78260184394207
 21
244.3034897486418
 31
0.0
  0
LINE
  5
1000
330
18
100
AcDbEntity
  8
1
  6
Continuous
100
AcDbLine
 10
26.78258564394174
 20
234.3034747486416
 30
0.0
 11
26.03258464394207
 21
235.0534747486416
 31
0.0
  0
LINE
  5
1001
330
18
100
AcDbEntity
  8
1
  6
Continuous
100
AcDbLine
 10
26.7825999439417
 20
244.3034897486416
 30
0.0
 11
26.7825999439417
 21
234.3034897486416
 31
0.0
  0
LINE
  5
1002
330
18
100
AcDbEntity
  8
1
  6
Continuous
100
AcDbLine
 10
26.0325999439417
 20
243.5534897486415
 30
0.0
 11
26.0325999439417
 21
235.0534897486415
 31
0.0
  0
LINE
  5
1005
330
18
100
AcDbEntity
  8
1
  6
Continuous
100
AcDbLine
 10
26.78259994394193
 20
244.3034897486416
 30
0.0
 11
27.0326264196708
 21
244.3034897486416
 31
0.0
  0
LINE
  5
1006
330
18
100
AcDbEntity
  8
1
  6
Continuous
100
AcDbLine
 10
26.7825999439417
 20
234.3034897486416
 30
0.0
 11
27.0326264196708
 21
234.3034897486416
 31
0.0
  0
LINE
  5
1007
330
18
100
AcDbEntity
  8
1
  6
Continuous
100
AcDbLine
 10
260.1604985609999
 20
460.8774230445066
 30
0.0
 11
197.1604985609999
 21
460.8774230445066
 31
0.0
  0
LINE
  5
1008
330
18
100
AcDbEntity
  8
4
  6
CENTER
 48
0.2
100
AcDbLine
 10
260.1604985609999
 20
458.3774230445066
 30
0.0
 11
260.1604985609999
 21
444.3774230445066
 31
0.0
  0
LINE
  5
1009
330
18
100
AcDbEntity
  8
4
  6
CENTER
 48
0.2
100
AcDbLine
 10
267.1604985609999
 20
451.3774230445066
 30
0.0
 11
253.1604985609999
 21
451.3774230445066
 31
0.0
  0
ARC
  5
100A
330
18
100
AcDbEntity
  8
1
  6
Continuous
100
AcDbCircle
 10
260.1604985609999
 20
451.3774230445066
 30
0.0
 40
9.5
100
AcDbArc
 50
0.0000400000007758
 51
90.00001799999918
  0
CIRCLE
  5
100B
330
18
100
AcDbEntity
  8
1
  6
Continuous
100
AcDbCircle
 10
260.1604985609999
 20
451.3774230445066
 30
0.0
 40
4.400000099999996
  0
LINE
  5
100C
330
18
100
AcDbEntity
  8
4
  6
CENTER
 48
0.2
100
AcDbLine
 10
197.1604985609999
 20
458.3774230445066
 30
0.0
 11
197.1604985609999
 21
444.3774230445066
 31
0.0
  0
LINE
  5
100D
330
18
100
AcDbEntity
  8
4
  6
CENTER
 48
0.2
100
AcDbLine
 10
204.1604985609999
 20
451.3774230445066
 30
0.0
 11
190.1604985609999
 21
451.3774230445066
 31
0.0
  0
ARC
  5
100E
330
18
100
AcDbEntity
  8
1
  6
Continuous
100
AcDbCircle
 10
197.1604985609999
 20
451.3774230445066
 30
0.0
 40
9.5
100
AcDbArc
 50
90.00001799999918
 51
180.0
  0
CIRCLE
  5
100F
330
18
100
AcDbEntity
  8
1
  6
Continuous
100
AcDbCircle
 10
197.1604985609999
 20
451.3774230445066
 30
0.0
 40
4.400000099999996
  0
LINE
  5
1010
330
18
100
AcDbEntity
  8
4
  6
CENTER
 48
0.5
100
AcDbLine
 10
275.6604985609999
 20
419.8774230445065
 30
0.0
 11
168.7168741759835
 21
419.8774230445065
 31
0.0
  0
LINE
  5
1011
330
18
100
AcDbEntity
  8
4
  6
CENTER
 48
0.5
100
AcDbLine
 10
228.6604985609999
 20
466.8774230445066
 30
0.0
 11
228.6604985609999
 21
372.8774230445067
 31
0.0
  0
LINE
  5
1012
330
18
100
AcDbEntity
  8
1
  6
Continuous
100
AcDbLine
 10
187.6604985609999
 20
451.3774230445066
 30
0.0
 11
187.6604985609999
 21
388.3774230445067
 31
0.0
  0
LINE
  5
1013
330
18
100
AcDbEntity
  8
1
  6
Continuous
100
AcDbLine
 10
269.6604985609999
 20
451.3774230445066
 30
0.0
 11
269.6604985609999
 21
388.3774230445067
 31
0.0
  0
LINE
  5
1014
330
18
100
AcDbEntity
  8
1
  6
Continuous
100
AcDbLine
 10
260.1604985609999
 20
378.8774230445067
 30
0.0
 11
197.1604985609999
 21
378.8774230445067
 31
0.0
  0
LINE
  5
1015
330
18
100
AcDbEntity
  8
4
  6
CENTER
 48
0.2
100
AcDbLine
 10
260.1604985609999
 20
395.3774230445067
 30
0.0
 11
260.1604985609999
 21
381.3774230445067
 31
0.0
  0
LINE
  5
1016
330
18
100
AcDbEntity
  8
4
  6
CENTER
 48
0.2
100
AcDbLine
 10
197.1604985609999
 20
395.3774230445067
 30
0.0
 11
197.1604985609999
 21
381.3774230445067
 31
0.0
  0
LINE
  5
1017
330
18
100
AcDbEntity
  8
4
  6
CENTER
 48
0.2
100
AcDbLine
 10
267.1604985609999
 20
388.3774230445067
 30
0.0
 11
253.1604985609999
 21
388.3774230445067
 31
0.0
  0
LINE
  5
1018
330
18
100
AcDbEntity
  8
4
  6
CENTER
 48
0.2
100
AcDbLine
 10
204.1604985609999
 20
388.3774230445067
 30
0.0
 11
190.1604985609999
 21
388.3774230445067
 31
0.0
  0
ARC
  5
1019
330
18
100
AcDbEntity
  8
1
  6
Continuous
100
AcDbCircle
 10
260.1604985609999
 20
388.3774230445067
 30
0.0
 40
9.5
100
AcDbArc
 50
269.9999700000034
 51
0.0000200000020199
  0
ARC
  5
101A
330
18
100
AcDbEntity
  8
1
  6
Continuous
100
AcDbCircle
 10
197.1604985609999
 20
388.3774230445067
 30
0.0
 40
9.5
100
AcDbArc
 50
180.0
 51
269.9999800000044
  0
CIRCLE
  5
101B
330
18
100
AcDbEntity
  8
1
  6
Continuous
100
AcDbCircle
 10
197.1604985609999
 20
388.3774230445067
 30
0.0
 40
4.400000099999996
  0
CIRCLE
  5
101C
330
18
100
AcDbEntity
  8
1
  6
Continuous
100
AcDbCircle
 10
260.1604985609999
 20
388.3774230445067
 30
0.0
 40
4.400000099999996
  0
CIRCLE
  5
101D
330
18
100
AcDbEntity
  8
1
  6
Continuous
100
AcDbCircle
 10
228.6604985609999
 20
419.8774230445065
 30
0.0
 40
12.0
  0
CIRCLE
  5
101E
330
18
100
AcDbEntity
  8
1
  6
Continuous
100
AcDbCircle
 10
228.6604985609999
 20
419.8774230445065
 30
0.0
 40
15.5
  0
CIRCLE
  5
101F
330
18
100
AcDbEntity
  8
1
  6
Continuous
100
AcDbCircle
 10
228.6604985609999
 20
419.8774230445065
 30
0.0
 40
29.0
  0
CIRCLE
  5
1020
330
18
100
AcDbEntity
  8
1
  6
Continuous
100
AcDbCircle
 10
228.6604985609999
 20
419.8774230445065
 30
0.0
 40
31.5
  0
LINE
  5
1023
330
18
100
AcDbEntity
  8
1
  6
Continuous
100
AcDbLine
 10
531.9162348436555
 20
272.3034897484983
 30
0.0
 11
533.2538818436554
 21
279.1851067484983
 31
0.0
  0
LINE
  5
1024
330
18
100
AcDbEntity
  8
1
  6
Continuous
100
AcDbLine
 10
535.9162428436555
 20
282.8034897484983
 30
0.0
 11
535.9162428436555
 21
281.8034897484983
 31
0.0
  0
LINE
  5
1025
330
18
100
AcDbEntity
  8
1
  6
Continuous
100
AcDbLine
 10
535.9162578436556
 20
289.8034921484986
 30
0.0
 11
536.9725778436555
 21
286.2034917484988
 31
0.0
  0
ARC
  5
1026
330
18
100
AcDbEntity
  8
1
  6
Continuous
100
AcDbCircle
 10
541.9162428436557
 20
282.8034897484983
 30
0.0
 40
6.0
100
AcDbArc
 50
145.4818799999976
 51
180.0
  0
ARC
  5
1027
330
18
100
AcDbEntity
  8
1
  6
Continuous
100
AcDbCircle
 10
534.9162428436557
 20
281.8034897484983
 30
0.0
 40
1.0
100
AcDbArc
 50
269.999969999997
 51
0.000019999998756
  0
ARC
  5
1028
330
18
100
AcDbEntity
  8
1
  6
Continuous
100
AcDbCircle
 10
535.2171458436554
 20
278.8034897484983
 30
0.0
 40
2.0
100
AcDbArc
 50
90.00001799999918
 51
169.0000519999992
  0
LINE
  5
102A
330
18
100
AcDbEntity
  8
1
  6
Continuous
100
AcDbLine
 10
101.0326264196708
 20
296.8034897484983
 30
0.0
 11
19.0326264196708
 21
296.8034897484983
 31
0.0
  0
LINE
  5
102C
330
18
100
AcDbEntity
  8
1
  6
Continuous
100
AcDbLine
 10
90.63044641967078
 20
280.8034897484983
 30
0.0
 11
29.43481041967084
 21
280.8034897484983
 31
0.0
  0
LINE
  5
102F
330
18
100
AcDbEntity
  8
1
  6
Continuous
100
AcDbLine
 10
90.03262641967081
 20
282.8034897484983
 30
0.0
 11
90.03262641967081
 21
281.8034897484983
 31
0.0
  0
LINE
  5
1030
330
18
100
AcDbEntity
  8
1
  6
Continuous
100
AcDbLine
 10
30.0326264196708
 20
282.8034897484983
 30
0.0
 11
30.0326264196708
 21
281.8034897484983
 31
0.0
  0
LINE
  5
1032
330
18
100
AcDbEntity
  8
1
  6
Continuous
100
AcDbLine
 10
88.97630641967067
 20
286.2034897484982
 30
0.0
 11
31.08894641967072
 21
286.2034897484984
 31
0.0
  0
LINE
  5
1033
330
18
100
AcDbEntity
  8
1
  6
Continuous
100
AcDbLine
 10
90.03263641967079
 20
289.8034883484985
 30
0.0
 11
88.97631641967064
 21
286.2034887484981
 31
0.0
  0
LINE
  5
1034
330
18
100
AcDbEntity
  8
1
  6
Continuous
100
AcDbLine
 10
30.03263741967089
 20
289.8034940484985
 30
0.0
 11
31.08895441967092
 21
286.2034937484984
 31
0.0
  0
LINE
  5
1035
330
18
100
AcDbEntity
  8
4
  6
CENTER
 48
0.2
100
AcDbLine
 10
28.53262641967058
 20
300.1975250484984
 30
0.0
 11
28.53262641967058
 21
290.0186386484985
 31
0.0
  0
LINE
  5
1036
330
18
100
AcDbEntity
  8
4
  6
CENTER
 48
0.2
100
AcDbLine
 10
91.53262641967069
 20
300.1975250484984
 30
0.0
 11
91.5326264196708
 21
290.0186386484985
 31
0.0
  0
LINE
  5
1037
330
18
100
AcDbEntity
  8
1
  6
Continuous
100
AcDbLine
 10
37.5326264196708
 20
271.3665796904558
 30
0.0
 11
37.53262641967058
 21
227.3034897484984
 31
0.0
  0
LINE
  5
1038
330
18
100
AcDbEntity
  8
1
  6
Continuous
100
AcDbLine
 10
82.53262641967081
 20
271.3396547484983
 30
0.0
 11
82.53262641967081
 21
227.3034897484984
 31
0.0
  0
LINE
  5
1039
330
18
100
AcDbEntity
  8
1
  6
Continuous
100
AcDbLine
 10
86.5326264196708
 20
227.3034897484984
 30
0.0
 11
82.53262641967081
 21
227.3034897484984
 31
0.0
  0
LINE
  5
103A
330
18
100
AcDbEntity
  8
1
  6
Continuous
100
AcDbLine
 10
86.5326264196708
 20
276.8034897484983
 30
0.0
 11
86.5326264196708
 21
227.3034897484984
 31
0.0
  0
LINE
  5
103B
330
18
100
AcDbEntity
  8
1
  6
Continuous
100
AcDbLine
 10
33.53262641967058
 20
276.8034897484983
 30
0.0
 11
33.53262641967058
 21
227.3034897484984
 31
0.0
  0
LINE
  5
103C
330
18
100
AcDbEntity
  8
1
  6
Continuous
100
AcDbLine
 10
37.5326264196708
 20
227.3034897484984
 30
0.0
 11
33.5326264196708
 21
227.3034897484984
 31
0.0
  0
LINE
  5
103D
330
18
100
AcDbEntity
  8
1
  6
Continuous
100
AcDbLine
 10
92.03263641967076
 20
277.3313537484982
 30
0.0
 11
92.89078375390614
 21
243.4102091461652
 31
0.0
  0
LINE
  5
103E
330
18
100
AcDbEntity
  8
1
  6
Continuous
100
AcDbLine
 10
28.0390274196709
 20
277.5842347484983
 30
0.0
 11
27.27350085284411
 21
247.324653186792
 31
0.0
  0
LINE
  5
103F
330
18
100
AcDbEntity
  8
1
  6
Continuous
100
AcDbLine
 10
606.9162428436555
 20
296.8034897484983
 30
0.0
 11
524.9162428436553
 21
296.8034897484983
 31
0.0
  0
LINE
  5
1041
330
18
100
AcDbEntity
  8
4
  6
CENTER
 48
0.5
100
AcDbLine
 10
565.9162428436554
 20
302.8034897484983
 30
0.0
 11
565.9162428436554
 21
270.7817817598445
 31
0.0
  0
LINE
  5
1043
330
18
100
AcDbEntity
  8
1
  6
Continuous
100
AcDbLine
 10
598.9162428436558
 20
280.8034897484983
 30
0.0
 11
535.2171458436554
 21
280.8034897484983
 31
0.0
  0
LINE
  5
1044
330
18
100
AcDbEntity
  8
1
  6
Continuous
100
AcDbLine
 10
603.2359125436554
 20
272.3034897484983
 30
0.0
 11
593.8115028436555
 21
272.3034897484983
 31
0.0
  0
LINE
  5
1046
330
18
100
AcDbEntity
  8
1
  6
Continuous
100
AcDbLine
 10
593.4373456579034
 20
273.285116967154
 30
0.0
 11
594.7079590294077
 21
279.8218625298434
 31
0.0
  0
LINE
  5
1047
330
18
100
AcDbEntity
  8
1
  6
Continuous
100
AcDbLine
 10
603.9162433436554
 20
275.8034897484987
 30
0.0
 11
603.2359125436554
 21
272.3034877484985
 31
0.0
  0
LINE
  5
1048
330
18
100
AcDbEntity
  8
1
  6
Continuous
100
AcDbLine
 10
595.9162428436553
 20
282.8034897484983
 30
0.0
 11
595.9162428436553
 21
281.8034897484983
 31
0.0
  0
LINE
  5
104A
330
18
100
AcDbEntity
  8
1
  6
Continuous
100
AcDbLine
 10
594.8599268436554
 20
286.2034897484982
 30
0.0
 11
536.9725628436555
 21
286.2034897484982
 31
0.0
  0
LINE
  5
104B
330
18
100
AcDbEntity
  8
1
  6
Continuous
100
AcDbLine
 10
595.9162408436558
 20
289.8034902484987
 30
0.0
 11
594.8599248436554
 21
286.2034907484988
 31
0.0
  0
LINE
  5
104C
330
18
100
AcDbEntity
  8
1
  6
Continuous
100
AcDbLine
 10
576.4747148436554
 20
233.1875157484985
 30
0.0
 11
585.1629928436555
 21
277.8848537484984
 31
0.0
  0
LINE
  5
104D
330
18
100
AcDbEntity
  8
1
  6
Continuous
100
AcDbLine
 10
87.93262841967068
 20
247.6586607484985
 30
0.0
 11
87.93262841967068
 21
230.8846507484984
 31
0.0
  0
LINE
  5
104E
330
18
100
AcDbEntity
  8
1
  6
Continuous
100
AcDbLine
 10
87.88904841967086
 20
230.5553967484984
 30
0.0
 11
86.53262641967058
 21
230.6740647484985
 31
0.0
  0
LINE
  5
104F
330
18
100
AcDbEntity
  8
1
  6
Continuous
100
AcDbLine
 10
87.88904841967086
 20
248.0515857484984
 30
0.0
 11
86.5326264196708
 21
247.9329147484985
 31
0.0
  0
ARC
  5
1050
330
18
100
AcDbEntity
  8
1
  6
Continuous
100
AcDbCircle
 10
36.0326264196708
 20
282.8034897484983
 30
0.0
 40
6.0
100
AcDbArc
 50
145.4818799999976
 51
180.0
  0
ARC
  5
1051
330
18
100
AcDbEntity
  8
1
  6
Continuous
100
AcDbCircle
 10
91.03262641967079
 20
281.8034897484983
 30
0.0
 40
1.0
100
AcDbArc
 50
180.0
 51
228.1897799999989
  0
ARC
  5
1052
330
18
100
AcDbEntity
  8
1
  6
Continuous
100
AcDbCircle
 10
29.0326264196708
 20
281.8034897484983
 30
0.0
 40
1.0
100
AcDbArc
 50
311.810410000001
 51
0.000019999998756
  0
ARC
  5
1053
330
18
100
AcDbEntity
  8
1
  6
Continuous
100
AcDbCircle
 10
84.0326264196708
 20
282.8034897484983
 30
0.0
 40
6.0
100
AcDbArc
 50
0.0000400000007688
 51
34.51809
  0
ARC
  5
1056
330
18
100
AcDbEntity
  8
1
  6
Continuous
100
AcDbCircle
 10
87.03262641967079
 20
277.3313537484984
 30
0.0
 40
5.0
100
AcDbArc
 50
0.0000400000007688
 51
53.13007999999782
  0
ARC
  5
1057
330
18
100
AcDbEntity
  8
1
  6
Continuous
100
AcDbCircle
 10
33.0326264196708
 20
277.3313537484984
 30
0.0
 40
5.0
100
AcDbArc
 50
131.8103039999987
 51
180.0
  0
ARC
  5
1058
330
18
100
AcDbEntity
  8
1
  6
Continuous
100
AcDbCircle
 10
80.90613141967081
 20
242.8034897484984
 30
0.0
 40
12.0
100
AcDbArc
 50
315.7360099999976
 51
2.898107374502569
  0
ARC
  5
1059
330
18
100
AcDbEntity
  8
1
  6
Continuous
100
AcDbCircle
 10
587.9162428436553
 20
239.3034897484984
 30
0.0
 40
12.0
100
AcDbArc
 50
250.6230053084288
 51
58.76704999999582
  0
ARC
  5
105A
330
18
100
AcDbEntity
  8
1
  6
Continuous
100
AcDbCircle
 10
598.9162428436554
 20
275.8034897484983
 30
0.0
 40
5.0
100
AcDbArc
 50
0.0000400000007688
 51
90.00001799999918
  0
ARC
  5
105B
330
18
100
AcDbEntity
  8
1
  6
Continuous
100
AcDbCircle
 10
596.9162428436553
 20
281.8034897484983
 30
0.0
 40
1.0
100
AcDbArc
 50
180.0
 51
269.999979999998
  0
ARC
  5
105C
330
18
100
AcDbEntity
  8
1
  6
Continuous
100
AcDbCircle
 10
589.9162428436555
 20
282.8034897484983
 30
0.0
 40
6.0
100
AcDbArc
 50
0.0000400000007688
 51
34.51809
  0
ARC
  5
105E
330
18
100
AcDbEntity
  8
1
  6
Continuous
100
AcDbCircle
 10
615.4131529436554
 20
317.6164527484984
 30
0.0
 40
95.0
100
AcDbArc
 50
208.4882599999986
 51
250.6492333778595
  0
ARC
  5
105F
330
18
100
AcDbEntity
  8
1
  6
Continuous
100
AcDbCircle
 10
601.9162428436555
 20
262.3902817484984
 30
0.0
 40
15.0
100
AcDbArc
 50
154.2273790000008
 51
238.7670700000019
  0
ARC
  5
1060
330
18
100
AcDbEntity
  8
1
  6
Continuous
100
AcDbCircle
 10
593.8115028436555
 20
266.3034897484983
 30
0.0
 40
6.0
100
AcDbArc
 50
90.00001799999918
 51
154.2273829999998
  0
ARC
  5
1061
330
18
100
AcDbEntity
  8
1
  6
Continuous
100
AcDbCircle
 10
67.46309241967082
 20
239.3034897484984
 30
0.0
 40
22.56953
100
AcDbArc
 50
338.0486999999987
 51
21.95130800000051
  0
ARC
  5
1062
330
18
100
AcDbEntity
  8
1
  6
Continuous
100
AcDbCircle
 10
87.93262841967068
 20
247.5534897484984
 30
0.0
 40
0.5
100
AcDbArc
 50
21.95130800000051
 51
95.00000199999858
  0
ARC
  5
1063
330
18
100
AcDbEntity
  8
1
  6
Continuous
100
AcDbCircle
 10
87.93262841967068
 20
231.0534897484984
 30
0.0
 40
0.5
100
AcDbArc
 50
265.0000000000003
 51
338.0486899999998
  0
ARC
  5
1064
330
18
100
AcDbEntity
  8
1
  6
Continuous
100
AcDbCircle
 10
60.05989580796529
 20
0.9816200374131652
 30
0.0
 40
271.32177257395
100
AcDbArc
 50
84.38919879922233
 51
95.61080120077766
  0
ARC
  5
1065
330
18
100
AcDbEntity
  8
1
  6
Continuous
100
AcDbCircle
 10
82.53262641967081
 20
276.8034897484983
 30
0.0
 40
4.0
100
AcDbArc
 50
359.999989999999
 51
89.99999700000229
  0
ARC
  5
1066
330
18
100
AcDbEntity
  8
1
  6
Continuous
100
AcDbCircle
 10
37.5326264196708
 20
276.8034897484983
 30
0.0
 40
4.0
100
AcDbArc
 50
89.99999700000229
 51
180.0
  0
LINE
  5
150F
330
18
100
AcDbEntity
  8
4
  6
CENTER
 48
0.5
100
AcDbLine
 10
587.9162428436558
 20
200.8034897484984
 30
0.0
 11
587.9162428436558
 21
277.8034897484984
 31
0.0
  0
LINE
  5
1512
330
18
100
AcDbEntity
  8
4
  6
CENTER
 48
0.2
100
AcDbLine
 10
597.4162428436555
 20
300.1975250484984
 30
0.0
 11
597.4162428436555
 21
290.0186386484985
 31
0.0
  0
LINE
  5
1513
330
18
100
AcDbEntity
  8
4
  6
CENTER
 48
0.2
100
AcDbLine
 10
534.4162428436553
 20
300.1975250484984
 30
0.0
 11
534.4162428436553
 21
290.0186386484985
 31
0.0
  0
CIRCLE
  5
1514
330
18
100
AcDbEntity
  8
2
  6
Continuous
100
AcDbCircle
 10
587.9162428436553
 20
239.3034897484984
 30
0.0
 40
4.187999999999998
  0
LINE
  5
1515
330
18
100
AcDbEntity
  8
2
  6
Continuous
100
AcDbLine
 10
26.0325999439417
 20
243.4914897484985
 30
0.0
 11
27.03262641967091
 21
243.4914897484985
 31
0.0
  0
LINE
  5
1516
330
18
100
AcDbEntity
  8
2
  6
Continuous
100
AcDbLine
 10
26.0325999439417
 20
235.1154897484986
 30
0.0
 11
27.03262641967091
 21
235.1154897484986
 31
0.0
  0
LINE
  5
1518
330
18
100
AcDbEntity
  8
4
  6
CENTER
 48
0.5
100
AcDbLine
 10
206.6604985609988
 20
200.8034897484984
 30
0.0
 11
206.6604985609988
 21
277.8034897484984
 31
0.0
  0
LINE
  5
1519
330
18
100
AcDbEntity
  8
1
  6
Continuous
100
AcDbLine
 10
218.1020265609991
 20
233.1875157484985
 30
0.0
 11
209.413748560999
 21
277.8848537484984
 31
0.0
  0
ARC
  5
151A
330
18
100
AcDbEntity
  8
1
  6
Continuous
100
AcDbCircle
 10
179.1635884609991
 20
317.6164527484984
 30
0.0
 40
95.0
100
AcDbArc
 50
289.3507666221405
 51
331.5117400000013
  0
ARC
  5
151C
330
18
100
AcDbEntity
  8
1
  6
Continuous
100
AcDbCircle
 10
206.660498560999
 20
239.3034897484984
 30
0.0
 40
12.0
100
AcDbArc
 50
121.2329500000041
 51
289.3769946915711
  0
LINE
  5
1523
330
18
100
AcDbEntity
  8
4
  6
CENTER
 48
0.5
100
AcDbLine
 10
245.1604985609987
 20
239.3034897484984
 30
0.0
 11
168.1604985609988
 21
239.3034897484984
 31
0.0
  0
LINE
  5
1535
330
18
100
AcDbEntity
  8
1
  6
Continuous
100
AcDbLine
 10
199.7168145609989
 20
286.2034897484982
 30
0.0
 11
257.6041785609989
 21
286.2034897484982
 31
0.0
  0
LINE
  5
1537
330
18
100
AcDbEntity
  8
1
  6
Continuous
100
AcDbLine
 10
195.6604985609988
 20
280.8034897484983
 30
0.0
 11
259.3595955609989
 21
280.8034897484983
 31
0.0
  0
LINE
  5
1539
330
18
100
AcDbEntity
  8
1
  6
Continuous
100
AcDbLine
 10
187.660498560999
 20
296.8034897484983
 30
0.0
 11
269.660498560999
 21
296.8034897484983
 31
0.0
  0
ARC
  5
153A
330
18
100
AcDbEntity
  8
1
  6
Continuous
100
AcDbCircle
 10
192.660498560999
 20
262.3902817484984
 30
0.0
 40
15.0
100
AcDbArc
 50
301.2329299999982
 51
25.7726209999992
  0
ARC
  5
153B
330
18
100
AcDbEntity
  8
1
  6
Continuous
100
AcDbCircle
 10
200.765238560999
 20
266.3034897484983
 30
0.0
 40
6.0
100
AcDbArc
 50
25.77261700000015
 51
89.99998200000083
  0
LINE
  5
153E
330
18
100
AcDbEntity
  8
1
  6
Continuous
100
AcDbLine
 10
258.6604835609987
 20
289.8034921484986
 30
0.0
 11
257.6041635609988
 21
286.2034917484988
 31
0.0
  0
LINE
  5
153F
330
18
100
AcDbEntity
  8
4
  6
CENTER
 48
0.5
100
AcDbLine
 10
228.660498560999
 20
302.8034897484983
 30
0.0
 11
228.660498560999
 21
270.7817817598445
 31
0.0
  0
LINE
  5
1540
330
18
100
AcDbEntity
  8
1
  6
Continuous
100
AcDbLine
 10
262.6605065609989
 20
272.3034897484983
 30
0.0
 11
261.3228595609989
 21
279.1851067484983
 31
0.0
  0
ARC
  5
1541
330
18
100
AcDbEntity
  8
1
  6
Continuous
100
AcDbCircle
 10
259.6604985609987
 20
281.8034897484983
 30
0.0
 40
1.0
100
AcDbArc
 50
179.9999800000012
 51
270.0000300000029
  0
ARC
  5
1542
330
18
100
AcDbEntity
  8
1
  6
Continuous
100
AcDbCircle
 10
252.6604985609988
 20
282.8034897484983
 30
0.0
 40
6.0
100
AcDbArc
 50
0.000000000000007
 51
34.51812000000231
  0
LINE
  5
1543
330
18
100
AcDbEntity
  8
1
  6
Continuous
100
AcDbLine
 10
258.660498560999
 20
282.8034897484983
 30
0.0
 11
258.660498560999
 21
281.8034897484983
 31
0.0
  0
ARC
  5
1544
330
18
100
AcDbEntity
  8
1
  6
Continuous
100
AcDbCircle
 10
259.3595955609989
 20
278.8034897484983
 30
0.0
 40
2.0
100
AcDbArc
 50
10.99994800000077
 51
89.99998200000083
  0
LINE
  5
1545
330
18
100
AcDbEntity
  8
4
  6
CENTER
 48
0.2
100
AcDbLine
 10
260.160498560999
 20
300.1975250484984
 30
0.0
 11
260.160498560999
 21
290.0186386484985
 31
0.0
  0
LINE
  5
1546
330
18
100
AcDbEntity
  8
1
  6
Continuous
100
AcDbLine
 10
198.6605005609987
 20
289.8034902484987
 30
0.0
 11
199.7168165609989
 21
286.2034907484988
 31
0.0
  0
ARC
  5
1548
330
18
100
AcDbEntity
  8
1
  6
Continuous
100
AcDbCircle
 10
195.660498560999
 20
275.8034897484983
 30
0.0
 40
5.0
100
AcDbArc
 50
89.99998200000083
 51
179.9999599999992
  0
LINE
  5
1549
330
18
100
AcDbEntity
  8
1
  6
Continuous
100
AcDbLine
 10
201.139395746751
 20
273.285116967154
 30
0.0
 11
199.8687823752468
 21
279.8218625298434
 31
0.0
  0
LINE
  5
154A
330
18
100
AcDbEntity
  8
1
  6
Continuous
100
AcDbLine
 10
191.3408288609989
 20
272.3034897484983
 30
0.0
 11
200.765238560999
 21
272.3034897484983
 31
0.0
  0
LINE
  5
154B
330
18
100
AcDbEntity
  8
1
  6
Continuous
100
AcDbLine
 10
190.660498060999
 20
275.8034897484987
 30
0.0
 11
191.3408288609989
 21
272.3034877484985
 31
0.0
  0
ARC
  5
154C
330
18
100
AcDbEntity
  8
1
  6
Continuous
100
AcDbCircle
 10
204.660498560999
 20
282.8034897484983
 30
0.0
 40
6.0
100
AcDbArc
 50
145.4819099999999
 51
179.9999599999992
  0
ARC
  5
154D
330
18
100
AcDbEntity
  8
1
  6
Continuous
100
AcDbCircle
 10
197.660498560999
 20
281.8034897484983
 30
0.0
 40
1.0
100
AcDbArc
 50
270.0000200000019
 51
0.000000000000007
  0
LINE
  5
154E
330
18
100
AcDbEntity
  8
1
  6
Continuous
100
AcDbLine
 10
198.660498560999
 20
282.8034897484983
 30
0.0
 11
198.660498560999
 21
281.8034897484983
 31
0.0
  0
LINE
  5
154F
330
18
100
AcDbEntity
  8
4
  6
CENTER
 48
0.2
100
AcDbLine
 10
197.160498560999
 20
300.1975250484984
 30
0.0
 11
197.160498560999
 21
290.0186386484985
 31
0.0
  0
CIRCLE
  5
1552
330
18
100
AcDbEntity
  8
1
  6
Continuous
100
AcDbCircle
 10
206.6604985609988
 20
239.3034897484984
 30
0.0
 40
8.75
  0
LINE
  5
176F
330
18
100
AcDbEntity
  8
1
  6
Continuous
100
AcDbLine
 10
368.3446907023273
 20
286.2034897484982
 30
0.0
 11
426.2320507023273
 21
286.2034897484984
 31
0.0
  0
LINE
  5
1771
330
18
100
AcDbEntity
  8
1
  6
Continuous
100
AcDbLine
 10
366.6905507023273
 20
280.8034897484983
 30
0.0
 11
427.8861867023272
 21
280.8034897484983
 31
0.0
  0
LINE
  5
1773
330
18
100
AcDbEntity
  8
1
  6
Continuous
100
AcDbLine
 10
356.2883707023272
 20
296.8034897484983
 30
0.0
 11
438.2883707023272
 21
296.8034897484983
 31
0.0
  0
LINE
  5
1774
330
18
100
AcDbEntity
  8
4
  6
CENTER
 48
0.5
100
AcDbLine
 10
437.2883971780563
 20
239.3034897484985
 30
0.0
 11
358.9366254190784
 21
239.3034897484984
 31
0.0
  0
LINE
  5
1776
330
18
100
AcDbEntity
  8
1
  6
Continuous
100
AcDbLine
 10
419.7883707023271
 20
227.3034897484984
 30
0.0
 11
423.7883707023271
 21
227.3034897484984
 31
0.0
  0
ARC
  5
177A
330
18
100
AcDbEntity
  8
1
  6
Continuous
100
AcDbCircle
 10
429.0883707023273
 20
246.6034887484984
 30
0.0
 40
1.199999999999999
100
AcDbArc
 50
0.000000000000007
 51
36.93918135259195
  0
LINE
  5
177C
330
18
100
AcDbEntity
  8
1
  6
Continuous
100
AcDbLine
 10
428.6883807023275
 20
230.8034897484984
 30
0.0
 11
428.6883807023275
 21
237.0421797859146
 31
0.0
  0
LINE
  5
177F
330
18
100
AcDbEntity
  8
1
  6
Continuous
100
AcDbLine
 10
430.2883707023272
 20
232.0034867484985
 30
0.0
 11
430.2883707023272
 21
246.6034887484984
 31
0.0
  0
LINE
  5
1780
330
18
100
AcDbEntity
  8
1
  6
Continuous
100
AcDbLine
 10
431.2883971780563
 20
243.5534897486415
 30
0.0
 11
431.2883971780563
 21
235.0534897486415
 31
0.0
  0
LINE
  5
1781
330
18
100
AcDbEntity
  8
1
  6
Continuous
100
AcDbLine
 10
430.5383971780563
 20
244.3034897486416
 30
0.0
 11
430.5383971780563
 21
234.3034897486416
 31
0.0
  0
ARC
  5
1782
330
18
100
AcDbEntity
  8
1
  6
Continuous
100
AcDbCircle
 10
416.1467201542634
 20
239.3034865472292
 30
0.0
 40
12.54166054806418
100
AcDbArc
 50
336.9649625403189
 51
347.0601226534246
  0
ARC
  5
1783
330
18
100
AcDbEntity
  8
1
  6
Continuous
100
AcDbCircle
 10
425.2075631113116
 20
231.9422722484985
 30
0.0
 40
3.48931044130072
100
AcDbArc
 50
335.5837416246903
 51
44.68558143815068
  0
LINE
  5
1784
330
18
100
AcDbEntity
  8
1
  6
Continuous
100
AcDbLine
 10
428.6883807023273
 20
230.8034897484984
 30
0.0
 11
427.3734249449173
 21
229.4885339910885
 31
0.0
  0
LINE
  5
1785
330
18
100
AcDbEntity
  8
2
  6
Continuous
100
AcDbLine
 10
431.2883971780563
 20
235.1154897484986
 30
0.0
 11
430.2883707023272
 21
235.1154897484986
 31
0.0
  0
LINE
  5
1786
330
18
100
AcDbEntity
  8
1
  6
Continuous
100
AcDbLine
 10
430.5383971780563
 20
234.3034897486416
 30
0.0
 11
430.2883707023272
 21
234.3034897486416
 31
0.0
  0
LINE
  5
1787
330
18
100
AcDbEntity
  8
1
  6
Continuous
100
AcDbLine
 10
430.5384114780563
 20
234.3034747486416
 30
0.0
 11
431.2884124780558
 21
235.0534747486416
 31
0.0
  0
ARC
  5
1788
330
18
100
AcDbEntity
  8
1
  6
Continuous
100
AcDbCircle
 10
429.0883707023273
 20
232.0034867484985
 30
0.0
 40
1.199999999999999
100
AcDbArc
 50
270.0
 51
359.999989999999
  0
LINE
  5
1789
330
18
100
AcDbEntity
  8
1
  6
Continuous
100
AcDbLine
 10
429.0883707023273
 20
230.8034897484984
 30
0.0
 11
428.6883807023275
 21
230.8034897484984
 31
0.0
  0
LINE
  5
178A
330
18
100
AcDbEntity
  8
1
  6
Continuous
100
AcDbLine
 10
427.6883807023273
 20
234.3960105059084
 30
0.0
 11
426.7242522874474
 21
234.3960105059084
 31
0.0
  0
LINE
  5
178B
330
18
100
AcDbEntity
  8
1
  6
Continuous
100
AcDbLine
 10
427.3734249449173
 20
229.4885339910881
 30
0.0
 11
423.7883707023273
 21
229.4885339910881
 31
0.0
  0
LINE
  5
178C
330
18
100
AcDbEntity
  8
2
  6
Continuous
100
AcDbLine
 10
431.2883971780563
 20
243.4914897484985
 30
0.0
 11
430.2883707023272
 21
243.4914897484985
 31
0.0
  0
LINE
  5
178D
330
18
100
AcDbEntity
  8
1
  6
Continuous
100
AcDbLine
 10
430.5383971780561
 20
244.3034897486416
 30
0.0
 11
430.2883707023272
 21
244.3034897486416
 31
0.0
  0
LINE
  5
178E
330
18
100
AcDbEntity
  8
1
  6
Continuous
100
AcDbLine
 10
431.2884124780558
 20
243.5534747486418
 30
0.0
 11
430.538395278056
 21
244.3034897486418
 31
0.0
  0
LINE
  5
1790
330
18
100
AcDbEntity
  8
1
  6
Continuous
100
AcDbLine
 10
427.2883597023271
 20
289.8034940484985
 30
0.0
 11
426.2320427023271
 21
286.2034937484984
 31
0.0
  0
ARC
  5
1796
330
18
100
AcDbEntity
  8
1
  6
Continuous
100
AcDbCircle
 10
424.2883707023271
 20
277.3313537484984
 30
0.0
 40
5.0
100
AcDbArc
 50
0.000000000000007
 51
48.18969600000123
  0
ARC
  5
1797
330
18
100
AcDbEntity
  8
1
  6
Continuous
100
AcDbCircle
 10
428.2883707023271
 20
281.8034897484983
 30
0.0
 40
1.0
100
AcDbArc
 50
179.9999800000012
 51
228.189589999999
  0
ARC
  5
1798
330
18
100
AcDbEntity
  8
1
  6
Continuous
100
AcDbCircle
 10
421.2883707023271
 20
282.8034897484983
 30
0.0
 40
6.0
100
AcDbArc
 50
0.000000000000007
 51
34.51812000000231
  0
LINE
  5
1799
330
18
100
AcDbEntity
  8
1
  6
Continuous
100
AcDbLine
 10
427.2883707023273
 20
282.8034897484983
 30
0.0
 11
427.2883707023273
 21
281.8034897484983
 31
0.0
  0
LINE
  5
179B
330
18
100
AcDbEntity
  8
4
  6
CENTER
 48
0.2
100
AcDbLine
 10
428.7883707023275
 20
300.1975250484984
 30
0.0
 11
428.7883707023275
 21
290.0186386484985
 31
0.0
  0
LINE
  5
179F
330
18
100
AcDbEntity
  8
1
  6
Continuous
100
AcDbLine
 10
365.2883607023273
 20
277.3313537484982
 30
0.0
 11
364.4302133680919
 21
243.4102091461652
 31
0.0
  0
LINE
  5
17A0
330
18
100
AcDbEntity
  8
1
  6
Continuous
100
AcDbLine
 10
370.7883707023272
 20
230.0234039109551
 30
0.0
 11
370.7883707023272
 21
227.3034897484984
 31
0.0
  0
LINE
  5
17A1
330
18
100
AcDbEntity
  8
1
  6
Continuous
100
AcDbLine
 10
374.7883707023274
 20
252.3034897484983
 30
0.0
 11
374.7883707023272
 21
227.3034897484984
 31
0.0
  0
LINE
  5
17A2
330
18
100
AcDbEntity
  8
1
  6
Continuous
100
AcDbLine
 10
419.7883707023273
 20
252.3034897484984
 30
0.0
 11
419.7883707023273
 21
227.3034897484984
 31
0.0
  0
ARC
  5
17A8
330
18
100
AcDbEntity
  8
1
  6
Continuous
100
AcDbCircle
 10
389.8579047023272
 20
239.3034897484984
 30
0.0
 40
22.56953
100
AcDbArc
 50
192.4756837326792
 51
201.9513000000013
  0
LINE
  5
17A9
330
18
100
AcDbEntity
  8
1
  6
Continuous
100
AcDbLine
 10
369.3883687023273
 20
233.0631424523425
 30
0.0
 11
369.3883687023273
 21
230.8846507484984
 31
0.0
  0
LINE
  5
17AB
330
18
100
AcDbEntity
  8
4
  6
CENTER
 48
0.5
100
AcDbLine
 10
397.2883707023272
 20
302.8034897484983
 30
0.0
 11
397.2883707023272
 21
200.8034897484983
 31
0.0
  0
LINE
  5
17B8
330
18
100
AcDbEntity
  8
1
  6
Continuous
100
AcDbLine
 10
370.7883707023272
 20
227.3034897484984
 30
0.0
 11
374.7883707023272
 21
227.3034897484984
 31
0.0
  0
ARC
  5
17BB
330
18
100
AcDbEntity
  8
1
  6
Continuous
100
AcDbCircle
 10
376.4148657023272
 20
242.8034897484984
 30
0.0
 40
12.0
100
AcDbArc
 50
152.8024966208347
 51
233.0114122805595
  0
ARC
  5
17BC
330
18
100
AcDbEntity
  8
1
  6
Continuous
100
AcDbCircle
 10
369.3883687023273
 20
231.0534897484984
 30
0.0
 40
0.5
100
AcDbArc
 50
201.9513100000001
 51
274.9999999999997
  0
LINE
  5
17BD
330
18
100
AcDbEntity
  8
1
  6
Continuous
100
AcDbLine
 10
369.4319487023272
 20
230.5553967484984
 30
0.0
 11
370.7358507375911
 21
230.6694699843503
 31
0.0
  0
LINE
  5
17BE
330
18
100
AcDbEntity
  8
1
  6
Continuous
100
AcDbLine
 10
367.2883607023273
 20
289.8034883484985
 30
0.0
 11
368.3446807023273
 21
286.2034887484981
 31
0.0
  0
ARC
  5
17C7
330
18
100
AcDbEntity
  8
1
  6
Continuous
100
AcDbCircle
 10
399.7883707023272
 20
252.3034897484983
 30
0.0
 40
20.0
100
AcDbArc
 50
0.000000000000285
 51
90.0
  0
ARC
  5
17C8
330
18
100
AcDbEntity
  8
1
  6
Continuous
100
AcDbCircle
 10
394.7883707023272
 20
252.3034897484983
 30
0.0
 40
20.0
100
AcDbArc
 50
90.0
 51
180.0
  0
ARC
  5
17D3
330
18
100
AcDbEntity
  8
1
  6
Continuous
100
AcDbCircle
 10
370.2883707023272
 20
277.3313537484984
 30
0.0
 40
5.0
100
AcDbArc
 50
126.8699200000021
 51
179.9999599999992
  0
ARC
  5
17D4
330
18
100
AcDbEntity
  8
1
  6
Continuous
100
AcDbCircle
 10
373.2883707023272
 20
282.8034897484983
 30
0.0
 40
6.0
100
AcDbArc
 50
145.4819099999999
 51
179.9999599999992
  0
ARC
  5
17D5
330
18
100
AcDbEntity
  8
1
  6
Continuous
100
AcDbCircle
 10
366.2883707023272
 20
281.8034897484983
 30
0.0
 40
1.0
100
AcDbArc
 50
311.8102200000011
 51
0.000000000000007
  0
LINE
  5
17D6
330
18
100
AcDbEntity
  8
1
  6
Continuous
100
AcDbLine
 10
367.2883707023272
 20
282.8034897484983
 30
0.0
 11
367.2883707023272
 21
281.8034897484983
 31
0.0
  0
LINE
  5
17D7
330
18
100
AcDbEntity
  8
4
  6
CENTER
 48
0.2
100
AcDbLine
 10
365.7883707023272
 20
300.1975250484984
 30
0.0
 11
365.7883707023272
 21
290.0186386484985
 31
0.0
  0
LINE
  5
1AE3
330
18
100
AcDbEntity
  8
1
  6
Continuous
100
AcDbLine
 10
390.2911402156619
 20
272.3034897484983
 30
0.0
 11
404.2856011889925
 21
272.3034897484983
 31
0.0
  0
ARC
  5
1AE7
330
18
100
AcDbEntity
  8
1
  6
Continuous
100
AcDbCircle
 10
366.7883707023272
 20
230.0234039109551
 30
0.0
 40
4.0
100
AcDbArc
 50
0.0
 51
53.01141228055775
  0
ARC
  5
1AE8
330
18
100
AcDbEntity
  8
1
  6
Continuous
100
AcDbCircle
 10
366.7883707023272
 20
230.0234039109551
 30
0.0
 40
8.0
100
AcDbArc
 50
0.0
 51
53.01141228055775
  0
ARC
  5
1AE9
330
18
100
AcDbEntity
  8
1
  6
Continuous
100
AcDbCircle
 10
376.4148657023272
 20
242.8034897484984
 30
0.0
 40
8.0
100
AcDbArc
 50
152.8024966208344
 51
233.0114122805595
  0
LINE
  5
1AEC
330
18
100
AcDbEntity
  8
1
  6
Continuous
100
AcDbLine
 10
369.2993753811434
 20
246.4599631162586
 30
0.0
 11
376.9996448993676
 21
261.4446731678989
 31
0.0
  0
LINE
  5
1AED
330
18
100
AcDbEntity
  8
1
  6
Continuous
100
AcDbLine
 10
365.7416302205515
 20
248.2881998001388
 30
0.0
 11
372.5024144127023
 21
261.4446731678989
 31
0.0
  0
ARC
  5
1AF0
330
18
100
AcDbEntity
  8
1
  6
Continuous
100
AcDbCircle
 10
390.2911402156619
 20
252.3034897484983
 30
0.0
 40
20.0
100
AcDbArc
 50
90.0
 51
152.8024966208347
  0
ARC
  5
1AF1
330
18
100
AcDbEntity
  8
1
  6
Continuous
100
AcDbCircle
 10
404.2856011889925
 20
252.3034897484983
 30
0.0
 40
20.0
100
AcDbArc
 50
27.19750337916529
 51
90.0
  0
LINE
  5
1AF2
330
18
100
AcDbEntity
  8
1
  6
Continuous
100
AcDbLine
 10
428.835111184103
 20
248.2881998001388
 30
0.0
 11
422.0743269919521
 21
261.4446731678989
 31
0.0
  0
ARC
  5
1AF3
330
18
100
AcDbEntity
  8
1
  6
Continuous
100
AcDbCircle
 10
418.1618757023271
 20
242.8034897484984
 30
0.0
 40
8.0
100
AcDbArc
 50
306.9885877194404
 51
27.19750337916557
  0
LINE
  5
1AF4
330
18
100
AcDbEntity
  8
1
  6
Continuous
100
AcDbLine
 10
425.2773660235111
 20
246.4599631162586
 30
0.0
 11
417.5770965052866
 21
261.4446731678989
 31
0.0
  0
LINE
  5
1AF5
330
18
100
AcDbEntity
  8
1
  6
Continuous
100
AcDbLine
 10
429.2883807023271
 20
277.3313537484982
 30
0.0
 11
430.1465280365626
 21
243.4102091461652
 31
0.0
  0
ARC
  5
1AF6
330
18
100
AcDbEntity
  8
1
  6
Continuous
100
AcDbCircle
 10
418.1618757023271
 20
242.8034897484984
 30
0.0
 40
12.0
100
AcDbArc
 50
306.9885877194404
 51
27.19750337916526
  0
ARC
  5
1AF7
330
18
100
AcDbEntity
  8
1
  6
Continuous
100
AcDbCircle
 10
427.7883707023272
 20
230.0234039109551
 30
0.0
 40
8.0
100
AcDbArc
 50
126.9885877194422
 51
180.0
  0
ARC
  5
1AF8
330
18
100
AcDbEntity
  8
1
  6
Continuous
100
AcDbCircle
 10
427.7883707023272
 20
230.0234039109551
 30
0.0
 40
4.0
100
AcDbArc
 50
126.9885877194422
 51
180.0
  0
LINE
  5
1AF9
330
18
100
AcDbEntity
  8
1
  6
Continuous
100
AcDbLine
 10
423.7883707023271
 20
230.0234039109551
 30
0.0
 11
423.7883707023271
 21
227.3034897484984
 31
0.0
  0
LINE
  5
1B07
330
18
100
AcDbEntity
  8
1
  6
Continuous
100
AcDbLine
 10
187.660498560999
 20
52.22955645248998
 30
0.0
 11
187.6604985609992
 21
63.72955645249
 31
0.0
  0
LINE
  5
1B08
330
18
100
AcDbEntity
  8
1
  6
Continuous
100
AcDbLine
 10
269.660498560999
 20
52.22955645248998
 30
0.0
 11
269.660498560999
 21
115.22955645249
 31
0.0
  0
LINE
  5
1B0A
330
18
100
AcDbEntity
  8
4
  6
CENTER
 48
0.5
100
AcDbLine
 10
228.660498560999
 20
36.72955645248999
 30
0.0
 11
228.660498560999
 21
130.7295564524899
 31
0.0
  0
ARC
  5
1B13
330
18
100
AcDbEntity
  8
1
  6
Continuous
100
AcDbCircle
 10
260.160498560999
 20
115.22955645249
 30
0.0
 40
9.5
100
AcDbArc
 50
359.9999799999979
 51
90.00002999999653
  0
LINE
  5
1B14
330
18
100
AcDbEntity
  8
4
  6
CENTER
 48
0.2
100
AcDbLine
 10
260.160498560999
 20
108.2295564524899
 30
0.0
 11
260.160498560999
 21
122.2295564524899
 31
0.0
  0
LINE
  5
1B15
330
18
100
AcDbEntity
  8
4
  6
CENTER
 48
0.2
100
AcDbLine
 10
197.160498560999
 20
108.2295564524899
 30
0.0
 11
197.160498560999
 21
122.2295564524899
 31
0.0
  0
LINE
  5
1B16
330
18
100
AcDbEntity
  8
1
  6
Continuous
100
AcDbLine
 10
260.160498560999
 20
124.7295564524899
 30
0.0
 11
197.160498560999
 21
124.7295564524899
 31
0.0
  0
ARC
  5
1B17
330
18
100
AcDbEntity
  8
1
  6
Continuous
100
AcDbCircle
 10
197.160498560999
 20
115.22955645249
 30
0.0
 40
4.400000099999996
100
AcDbArc
 50
329.4861243830046
 51
280.6277259592511
  0
ARC
  5
1B18
330
18
100
AcDbEntity
  8
1
  6
Continuous
100
AcDbCircle
 10
197.160498560999
 20
115.22955645249
 30
0.0
 40
9.5
100
AcDbArc
 50
90.00001999999552
 51
180.0
  0
LINE
  5
1B19
330
18
100
AcDbEntity
  8
4
  6
CENTER
 48
0.2
100
AcDbLine
 10
204.160498560999
 20
115.22955645249
 30
0.0
 11
190.160498560999
 21
115.22955645249
 31
0.0
  0
CIRCLE
  5
1B1A
330
18
100
AcDbEntity
  8
1
  6
Continuous
100
AcDbCircle
 10
260.160498560999
 20
115.22955645249
 30
0.0
 40
4.400000099999996
  0
LINE
  5
1B1B
330
18
100
AcDbEntity
  8
4
  6
CENTER
 48
0.2
100
AcDbLine
 10
267.160498560999
 20
115.22955645249
 30
0.0
 11
253.160498560999
 21
115.22955645249
 31
0.0
  0
LINE
  5
1B1F
330
18
100
AcDbEntity
  8
4
  6
CENTER
 48
0.5
100
AcDbLine
 10
275.660498560999
 20
83.72955645248998
 30
0.0
 11
168.7168741759825
 21
83.72955645248998
 31
0.0
  0
ARC
  5
1B21
330
18
100
AcDbEntity
  8
1
  6
Continuous
100
AcDbCircle
 10
260.160498560999
 20
52.22955645248998
 30
0.0
 40
9.5
100
AcDbArc
 50
269.9999820000007
 51
359.9999599999991
  0
ARC
  5
1B22
330
18
100
AcDbEntity
  8
1
  6
Continuous
100
AcDbCircle
 10
197.160498560999
 20
52.22955645248998
 30
0.0
 40
9.5
100
AcDbArc
 50
180.0
 51
269.9999820000007
  0
ARC
  5
1B23
330
18
100
AcDbEntity
  8
1
  6
Continuous
100
AcDbCircle
 10
197.160498560999
 20
52.22955645248998
 30
0.0
 40
4.400000099999996
100
AcDbArc
 50
76.86344151696019
 51
340.0677300000137
  0
LINE
  5
1B24
330
18
100
AcDbEntity
  8
4
  6
CENTER
 48
0.2
100
AcDbLine
 10
197.160498560999
 20
45.22955645248997
 30
0.0
 11
197.160498560999
 21
59.22955645248999
 31
0.0
  0
LINE
  5
1B26
330
18
100
AcDbEntity
  8
4
  6
CENTER
 48
0.2
100
AcDbLine
 10
204.160498560999
 20
52.22955645248998
 30
0.0
 11
190.160498560999
 21
52.22955645248998
 31
0.0
  0
LINE
  5
1B27
330
18
100
AcDbEntity
  8
4
  6
CENTER
 48
0.2
100
AcDbLine
 10
260.160498560999
 20
45.22955645248997
 30
0.0
 11
260.160498560999
 21
59.22955645248999
 31
0.0
  0
CIRCLE
  5
1B28
330
18
100
AcDbEntity
  8
1
  6
Continuous
100
AcDbCircle
 10
260.160498560999
 20
52.22955645248998
 30
0.0
 40
4.400000099999996
  0
LINE
  5
1B29
330
18
100
AcDbEntity
  8
4
  6
CENTER
 48
0.2
100
AcDbLine
 10
267.160498560999
 20
52.22955645248998
 30
0.0
 11
253.160498560999
 21
52.22955645248998
 31
0.0
  0
LINE
  5
1B2A
330
18
100
AcDbEntity
  8
1
  6
Continuous
100
AcDbLine
 10
260.160498560999
 20
42.72955645248997
 30
0.0
 11
197.160498560999
 21
42.72955645248997
 31
0.0
  0
LINE
  5
1BB6
330
18
100
AcDbEntity
  8
1
  6
Continuous
100
AcDbLine
 10
195.2168741759826
 20
61.22955645248985
 30
0.0
 11
218.4994737888632
 21
61.22955645248976
 31
0.0
  0
LINE
  5
1BB9
330
18
100
AcDbEntity
  8
1
  6
Continuous
100
AcDbLine
 10
198.3053275609984
 20
111.6295584524898
 30
0.0
 11
215.0793375609985
 21
111.6295584524898
 31
0.0
  0
ARC
  5
1BBA
330
18
100
AcDbEntity
  8
1
  6
Continuous
100
AcDbCircle
 10
206.6604985609985
 20
91.16002245248996
 30
0.0
 40
22.56953
100
AcDbArc
 50
68.04869999999867
 51
111.9513080000005
  0
LINE
  5
1BC0
330
18
100
AcDbEntity
  8
1
  6
Continuous
100
AcDbLine
 10
195.2168741759826
 20
106.2295564524899
 30
0.0
 11
218.4994737888632
 21
106.2295564524899
 31
0.0
  0
LINE
  5
1BC1
330
18
100
AcDbEntity
  8
1
  6
Continuous
100
AcDbLine
 10
195.2168741759826
 20
110.2295564524899
 30
0.0
 11
218.499473788863
 21
110.2295564524899
 31
0.0
  0
LINE
  5
1BC6
330
18
100
AcDbEntity
  8
1
  6
Continuous
100
AcDbLine
 10
195.2168741759826
 20
57.22955645248976
 30
0.0
 11
218.4994737888632
 21
57.22955645248976
 31
0.0
  0
LINE
  5
1BCD
330
18
100
AcDbEntity
  8
1
  6
Continuous
100
AcDbLine
 10
215.4085915609984
 20
111.58597845249
 30
0.0
 11
215.2899235609984
 21
110.2295564524897
 31
0.0
  0
LINE
  5
1BD7
330
18
100
AcDbEntity
  8
1
  6
Continuous
100
AcDbLine
 10
211.6605135608551
 20
50.4795156767609
 30
0.0
 11
210.9105135608551
 21
49.72951467676125
 31
0.0
  0
LINE
  5
1BDA
330
18
100
AcDbEntity
  8
1
  6
Continuous
100
AcDbLine
 10
201.6604985608553
 20
50.47952997676088
 30
0.0
 11
211.6604985608553
 21
50.47952997676088
 31
0.0
  0
LINE
  5
1BE1
330
18
100
AcDbEntity
  8
1
  6
Continuous
100
AcDbLine
 10
211.6604985608553
 20
50.47952997676088
 30
0.0
 11
211.6604985608553
 21
50.72955645248999
 31
0.0
  0
LINE
  5
1BE5
330
18
100
AcDbEntity
  8
1
  6
Continuous
100
AcDbLine
 10
202.4105135608549
 20
49.72951467676125
 30
0.0
 11
201.6604985608551
 21
50.47953187676124
 31
0.0
  0
LINE
  5
1BE6
330
18
100
AcDbEntity
  8
1
  6
Continuous
100
AcDbLine
 10
201.6604985608553
 20
50.47952997676111
 30
0.0
 11
201.6604985608553
 21
50.72955645248999
 31
0.0
  0
LINE
  5
1BE7
330
18
100
AcDbEntity
  8
2
  6
Continuous
100
AcDbLine
 10
202.4724985609982
 20
49.72952997676088
 30
0.0
 11
202.4724985609984
 21
50.7295564524901
 31
0.0
  0
LINE
  5
1BE8
330
18
100
AcDbEntity
  8
2
  6
Continuous
100
AcDbLine
 10
210.8484985609982
 20
49.72952997676088
 30
0.0
 11
210.8484985609982
 21
50.7295564524901
 31
0.0
  0
LINE
  5
1BE9
330
18
100
AcDbEntity
  8
1
  6
Continuous
100
AcDbLine
 10
202.4104985608553
 20
49.72952997676088
 30
0.0
 11
210.9104985608553
 21
49.72952997676088
 31
0.0
  0
ARC
  5
1BEF
330
18
100
AcDbEntity
  8
1
  6
Continuous
100
AcDbCircle
 10
214.9104985609985
 20
111.6295584524897
 30
0.0
 40
0.5
100
AcDbArc
 50
355.0000000000002
 51
68.04868999999985
  0
LINE
  5
1BF4
330
18
100
AcDbEntity
  8
1
  6
Continuous
100
AcDbLine
 10
197.9124025609983
 20
111.58597845249
 30
0.0
 11
198.0310735609984
 21
110.2295564524899
 31
0.0
  0
ARC
  5
1C13
330
18
100
AcDbEntity
  8
1
  6
Continuous
100
AcDbCircle
 10
198.4104985609985
 20
111.6295584524897
 30
0.0
 40
0.5
100
AcDbArc
 50
111.9513080000005
 51
185.0000019999985
  0
LINE
  5
1D14
330
18
100
AcDbEntity
  8
1
  6
Continuous
100
AcDbLine
 10
198.1604985609988
 20
51.92955645249021
 30
0.0
 11
198.1604985609988
 21
57.22955645249022
 31
0.0
  0
ARC
  5
1D15
330
18
100
AcDbEntity
  8
1
  6
Continuous
100
AcDbCircle
 10
202.4104985609988
 20
61.01875874479055
 30
0.0
 40
8.785583093775763
100
AcDbArc
 50
241.0695841800873
 51
298.9304158199126
  0
LINE
  5
1D16
330
18
100
AcDbEntity
  8
1
  6
Continuous
100
AcDbLine
 10
215.160498560999
 20
51.92955645249021
 30
0.0
 11
215.160498560999
 21
57.22955645249022
 31
0.0
  0
ARC
  5
1D17
330
18
100
AcDbEntity
  8
1
  6
Continuous
100
AcDbCircle
 10
210.9104985609988
 20
61.01892560819937
 30
0.0
 40
8.785729134311964
100
AcDbArc
 50
241.0701105902613
 51
298.9298894097404
  0
LINE
  5
1D19
330
18
100
AcDbEntity
  8
1
  6
Continuous
100
AcDbLine
 10
206.660498560999
 20
53.32954745249026
 30
0.0
 11
206.660498560999
 21
57.22955645248998
 31
0.0
  0
LINE
  5
1D1A
330
18
100
AcDbEntity
  8
1
  6
Continuous
100
AcDbLine
 10
199.3604985609988
 20
50.72955645249021
 30
0.0
 11
213.960498560999
 21
50.72955645249021
 31
0.0
  0
LINE
  5
1D1B
330
18
100
AcDbEntity
  8
1
  6
Continuous
100
AcDbLine
 10
215.160498560999
 20
52.22954425248854
 30
0.0
 11
198.1604985609988
 21
52.22954425248854
 31
0.0
  0
LINE
  5
1D28
330
18
100
AcDbEntity
  8
4
  6
CENTER
 48
0.5
100
AcDbLine
 10
206.660498560999
 20
45.72952997676089
 30
0.0
 11
206.660498560999
 21
117.7295524524899
 31
0.0
  0
LINE
  5
1D29
330
18
100
AcDbEntity
  8
1
  6
Continuous
100
AcDbLine
 10
187.6604985609992
 20
103.72955645249
 30
0.0
 11
187.660498560999
 21
115.22955645249
 31
0.0
  0
LINE
  5
1D2A
330
18
100
AcDbEntity
  8
1
  6
Continuous
100
AcDbLine
 10
195.2168741759826
 20
110.2295564524899
 30
0.0
 11
195.2168741759826
 21
106.2295564524899
 31
0.0
  0
LINE
  5
1D2B
330
18
100
AcDbEntity
  8
1
  6
Continuous
100
AcDbLine
 10
195.2168741759826
 20
57.22955645248976
 30
0.0
 11
195.2168741759826
 21
61.22955645248985
 31
0.0
  0
LINE
  5
1D85
330
18
100
AcDbEntity
  8
4
  6
CENTER
 48
0.5
100
AcDbLine
 10
206.660498560999
 20
457.8774495202358
 30
0.0
 11
206.660498560999
 21
385.8774270445067
 31
0.0
  0
ARC
  5
1E47
330
18
100
AcDbEntity
  8
1
  6
Continuous
100
AcDbCircle
 10
230.5518029513307
 20
83.72955645248998
 30
0.0
 40
32.10869766872224
100
AcDbArc
 50
314.034932875103
 51
45.96506712489691
  0
ARC
  5
1E48
330
18
100
AcDbEntity
  8
1
  6
Continuous
100
AcDbCircle
 10
228.660498560999
 20
81.7734415458022
 30
0.0
 40
34.82961990668781
100
AcDbArc
 50
45.96506712489691
 51
90.0
  0
ARC
  5
1E49
330
18
100
AcDbEntity
  8
1
  6
Continuous
100
AcDbCircle
 10
228.660498560999
 20
85.68567135917778
 30
0.0
 40
34.82961990668781
100
AcDbArc
 50
270.0
 51
314.034932875103
  0
ARC
  5
1E4B
330
18
100
AcDbEntity
  8
1
  6
Continuous
100
AcDbCircle
 10
228.660498560999
 20
81.7734415458022
 30
0.0
 40
30.82961990668781
100
AcDbArc
 50
45.96506712489691
 51
90.0
  0
ARC
  5
1E4C
330
18
100
AcDbEntity
  8
1
  6
Continuous
100
AcDbCircle
 10
230.5518029513307
 20
83.72955645248998
 30
0.0
 40
28.10869766872224
100
AcDbArc
 50
314.034932875103
 51
45.96506712489691
  0
ARC
  5
1E4D
330
18
100
AcDbEntity
  8
1
  6
Continuous
100
AcDbCircle
 10
228.660498560999
 20
85.68567135917778
 30
0.0
 40
30.82961990668781
100
AcDbArc
 50
270.0
 51
314.034932875103
  0
ARC
  5
1E51
330
18
100
AcDbEntity
  8
1
  6
Continuous
100
AcDbCircle
 10
228.660498560999
 20
109.60306145249
 30
0.0
 40
3.0
100
AcDbArc
 50
90.0
 51
138.3132451339128
  0
ARC
  5
1E52
330
18
100
AcDbEntity
  8
1
  6
Continuous
100
AcDbCircle
 10
228.660498560999
 20
109.60306145249
 30
0.0
 40
7.0
100
AcDbArc
 50
90.0
 51
138.313245133914
  0
ARC
  5
1E53
330
18
100
AcDbEntity
  8
1
  6
Continuous
100
AcDbCircle
 10
218.499473788863
 20
113.2295564524899
 30
0.0
 40
7.0
100
AcDbArc
 50
270.0
 51
318.3132451339132
  0
ARC
  5
1E54
330
18
100
AcDbEntity
  8
1
  6
Continuous
100
AcDbCircle
 10
218.499473788863
 20
113.2295564524899
 30
0.0
 40
3.0
100
AcDbArc
 50
270.0
 51
318.3132451339138
  0
LINE
  5
1E55
330
18
100
AcDbEntity
  8
1
  6
Continuous
100
AcDbLine
 10
220.7398496221558
 20
111.2343832455735
 30
0.0
 11
223.4329549499823
 21
114.2584656019618
 31
0.0
  0
LINE
  5
1E56
330
18
100
AcDbEntity
  8
1
  6
Continuous
100
AcDbLine
 10
226.4201227277062
 20
111.5982346594064
 30
0.0
 11
223.7270173998797
 21
108.5741523030181
 31
0.0
  0
ARC
  5
1E57
330
18
100
AcDbEntity
  8
1
  6
Continuous
100
AcDbCircle
 10
228.660498560999
 20
57.85605145248997
 30
0.0
 40
7.0
100
AcDbArc
 50
221.6867548660859
 51
270.0
  0
ARC
  5
1E58
330
18
100
AcDbEntity
  8
1
  6
Continuous
100
AcDbCircle
 10
218.499473788863
 20
54.22955645248999
 30
0.0
 40
7.0
100
AcDbArc
 50
41.68675486608677
 51
90.00000000000005
  0
LINE
  5
1E59
330
18
100
AcDbEntity
  8
1
  6
Continuous
100
AcDbLine
 10
220.7398496221558
 20
56.22472965940642
 30
0.0
 11
223.4329549499823
 21
53.20064730301817
 31
0.0
  0
ARC
  5
1E5A
330
18
100
AcDbEntity
  8
1
  6
Continuous
100
AcDbCircle
 10
218.499473788863
 20
54.22955645248999
 30
0.0
 40
3.0
100
AcDbArc
 50
41.68675486608615
 51
90.00000000000005
  0
ARC
  5
1E5B
330
18
100
AcDbEntity
  8
1
  6
Continuous
100
AcDbCircle
 10
228.660498560999
 20
57.85605145248997
 30
0.0
 40
3.0
100
AcDbArc
 50
221.6867548660871
 51
270.0
  0
LINE
  5
1E5C
330
18
100
AcDbEntity
  8
1
  6
Continuous
100
AcDbLine
 10
226.4201227277062
 20
55.86087824557353
 30
0.0
 11
223.7270173998797
 21
58.88496060196178
 31
0.0
  0
ARC
  5
2910
330
18
100
AcDbEntity
  8
1
  6
Continuous
100
AcDbCircle
 10
228.6604985610006
 20
83.72955645248998
 30
0.0
 40
26.8
100
AcDbArc
 50
262.7481179103281
 51
97.2518820896718
  0
ARC
  5
2911
330
18
100
AcDbEntity
  8
1
  6
Continuous
100
AcDbCircle
 10
228.6604985610006
 20
83.72955645248998
 30
0.0
 40
14.8
100
AcDbArc
 50
311.9432515291929
 51
48.05674847080698
  0
ARC
  5
2912
330
18
100
AcDbEntity
  8
1
  6
Continuous
100
AcDbCircle
 10
228.6604985610006
 20
83.72955645248998
 30
0.0
 40
13.8
100
AcDbArc
 50
316.7529800779107
 51
43.24701992208931
  0
ARC
  5
2A97
330
18
100
AcDbEntity
  8
1
  6
Continuous
100
AcDbCircle
 10
43.03262641967092
 20
267.3021808390052
 30
0.0
 40
3.0
100
AcDbArc
 50
100.0936568592292
 51
180.0
  0
ARC
  5
2A98
330
18
100
AcDbEntity
  8
1
  6
Continuous
100
AcDbCircle
 10
60.03262641967079
 20
171.8034897484987
 30
0.0
 40
100.0
100
AcDbArc
 50
79.90634314077396
 51
100.093656859226
  0
ARC
  5
2A99
330
18
100
AcDbEntity
  8
1
  6
Continuous
100
AcDbCircle
 10
77.0326264196708
 20
267.3021808390052
 30
0.0
 40
3.0
100
AcDbArc
 50
0.0
 51
79.90634314077715
  0
LINE
  5
2AA2
330
18
100
AcDbEntity
  8
1
  6
Continuous
100
AcDbLine
 10
40.03262641967079
 20
211.304798657992
 30
0.0
 11
40.03262641967079
 21
267.3021808390052
 31
0.0
  0
LINE
  5
2AA3
330
18
100
AcDbEntity
  8
1
  6
Continuous
100
AcDbLine
 10
80.03262641967081
 20
211.304798657992
 30
0.0
 11
80.03262641967081
 21
267.3021808390052
 31
0.0
  0
LINE
  5
2AA4
330
18
100
AcDbEntity
  8
1
  6
Continuous
100
AcDbLine
 10
80.03262641967081
 20
256.8034897484985
 30
0.0
 11
80.5326264196708
 21
256.8034897484985
 31
0.0
  0
LINE
  5
2AA5
330
18
100
AcDbEntity
  8
1
  6
Continuous
100
AcDbLine
 10
39.53262641967091
 20
256.8034897484985
 30
0.0
 11
40.03262641967079
 21
256.8034897484985
 31
0.0
  0
LINE
  5
2AA6
330
18
100
AcDbEntity
  8
1
  6
Continuous
100
AcDbLine
 10
38.53262641967114
 20
248.1034896984961
 30
0.0
 11
37.73262741967096
 21
248.1034896984961
 31
0.0
  0
LINE
  5
2AA7
330
18
100
AcDbEntity
  8
1
  6
Continuous
100
AcDbLine
 10
38.53262641967091
 20
222.8034897484986
 30
0.0
 11
38.53262641967091
 21
255.8034897484985
 31
0.0
  0
LINE
  5
2AA8
330
18
100
AcDbEntity
  8
1
  6
Continuous
100
AcDbLine
 10
81.5326264196708
 20
222.8034897484986
 30
0.0
 11
81.5326264196708
 21
255.8034897484985
 31
0.0
  0
ARC
  5
2AA9
330
18
100
AcDbEntity
  8
1
  6
Continuous
100
AcDbCircle
 10
80.5326264196708
 20
222.8034897484986
 30
0.0
 40
1.0
100
AcDbArc
 50
270.0
 51
0.0
  0
ARC
  5
2AAA
330
18
100
AcDbEntity
  8
1
  6
Continuous
100
AcDbCircle
 10
39.53262641967091
 20
222.8034897484986
 30
0.0
 40
1.0
100
AcDbArc
 50
180.0
 51
270.0
  0
ARC
  5
2AAB
330
18
100
AcDbEntity
  8
1
  6
Continuous
100
AcDbCircle
 10
39.53262641967091
 20
255.8034897484985
 30
0.0
 40
1.0
100
AcDbArc
 50
90.0
 51
180.0
  0
ARC
  5
2AAC
330
18
100
AcDbEntity
  8
1
  6
Continuous
100
AcDbCircle
 10
80.5326264196708
 20
255.8034897484985
 30
0.0
 40
1.0
100
AcDbArc
 50
0.0
 51
90.0
  0
ARC
  5
2AAD
330
18
100
AcDbEntity
  8
1
  6
Continuous
100
AcDbCircle
 10
37.73262741967096
 20
247.9034896984987
 30
0.0
 40
0.2
100
AcDbArc
 50
89.99999700000229
 51
180.0
  0
ARC
  5
2AAE
330
18
100
AcDbEntity
  8
1
  6
Continuous
100
AcDbCircle
 10
37.73262741967096
 20
230.7034897984987
 30
0.0
 40
0.2
100
AcDbArc
 50
180.0
 51
270.0
  0
LINE
  5
2AAF
330
18
100
AcDbEntity
  8
1
  6
Continuous
100
AcDbLine
 10
38.53262641967091
 20
230.5034896984987
 30
0.0
 11
37.73262741967096
 21
230.5034896984987
 31
0.0
  0
ARC
  5
2AB0
330
18
100
AcDbEntity
  8
1
  6
Continuous
100
AcDbCircle
 10
82.33262541967111
 20
247.9034896984987
 30
0.0
 40
0.2
100
AcDbArc
 50
0.0
 51
90.00000299999769
  0
ARC
  5
2AB1
330
18
100
AcDbEntity
  8
1
  6
Continuous
100
AcDbCircle
 10
82.33262541967111
 20
230.7034897984987
 30
0.0
 40
0.2
100
AcDbArc
 50
270.0
 51
0.0
  0
LINE
  5
2AB2
330
18
100
AcDbEntity
  8
1
  6
Continuous
100
AcDbLine
 10
81.5326264196708
 20
248.1034896984985
 30
0.0
 11
82.33262541967111
 21
248.1034896984985
 31
0.0
  0
LINE
  5
2AB3
330
18
100
AcDbEntity
  8
1
  6
Continuous
100
AcDbLine
 10
81.5326264196708
 20
230.5034896984987
 30
0.0
 11
82.33262541967111
 21
230.5034896984987
 31
0.0
  0
LINE
  5
2AB4
330
18
100
AcDbEntity
  8
1
  6
Continuous
100
AcDbLine
 10
80.03262641967081
 20
221.8034897484986
 30
0.0
 11
80.5326264196708
 21
221.8034897484986
 31
0.0
  0
ARC
  5
2AB5
330
18
100
AcDbEntity
  8
1
  6
Continuous
100
AcDbCircle
 10
77.0326264196708
 20
211.304798657992
 30
0.0
 40
3.0
100
AcDbArc
 50
280.0936568592228
 51
0.0
  0
ARC
  5
2AB6
330
18
100
AcDbEntity
  8
1
  6
Continuous
100
AcDbCircle
 10
43.03262641967092
 20
211.304798657992
 30
0.0
 40
3.0
100
AcDbArc
 50
180.0
 51
259.9063431407707
  0
ARC
  5
2AB7
330
18
100
AcDbEntity
  8
1
  6
Continuous
100
AcDbCircle
 10
60.03262641967079
 20
306.8034897484987
 30
0.0
 40
100.0
100
AcDbArc
 50
259.9063431407739
 51
280.0936568592259
  0
LINE
  5
2AB8
330
18
100
AcDbEntity
  8
1
  6
Continuous
100
AcDbLine
 10
39.53262641967091
 20
221.8034897484986
 30
0.0
 11
40.03262641967079
 21
221.8034897484986
 31
0.0
  0
ARC
  5
2AB9
330
18
100
AcDbEntity
  8
1
  6
Continuous
100
AcDbCircle
 10
206.6604985609988
 20
239.3034897484984
 30
0.0
 40
17.5
100
AcDbArc
 50
90.0
 51
340.3070170036899
  0
ARC
  5
2ABB
330
18
100
AcDbEntity
  8
1
  6
Continuous
100
AcDbCircle
 10
206.6604985609988
 20
239.3034897484984
 30
0.0
 40
12.8
100
AcDbArc
 50
106.2945622815843
 51
311.1968009169091
  0
ARC
  5
2ABC
330
18
100
AcDbEntity
  8
1
  6
Continuous
100
AcDbCircle
 10
190.2924724084664
 20
248.9516875009296
 30
0.0
 40
1.5
100
AcDbArc
 50
247.5000000000015
 51
329.4826082251765
  0
ARC
  5
2ABD
330
18
100
AcDbEntity
  8
1
  6
Continuous
100
AcDbCircle
 10
188.8939884287186
 20
249.5309585321027
 30
0.0
 40
1.5
100
AcDbArc
 50
150.0726881931438
 51
247.4999999999985
  0
ARC
  5
2ABE
330
18
100
AcDbEntity
  8
1
  6
Continuous
100
AcDbCircle
 10
197.0123008085673
 20
255.6715159010307
 30
0.0
 40
1.5
100
AcDbArc
 50
300.5173917748261
 51
22.50000000000277
  0
ARC
  5
2ABF
330
18
100
AcDbEntity
  8
1
  6
Continuous
100
AcDbCircle
 10
196.4330297773946
 20
257.0699998807782
 30
0.0
 40
1.5
100
AcDbArc
 50
22.50000000000277
 51
119.927311806856
  0
LINE
  5
2AC0
330
18
100
AcDbEntity
  8
1
  6
Continuous
100
AcDbLine
 10
198.3981201073341
 20
256.2455410495787
 30
0.0
 11
197.8188490761612
 21
257.6440250293261
 31
0.0
  0
LINE
  5
2AC1
330
18
100
AcDbEntity
  8
1
  6
Continuous
100
AcDbLine
 10
189.7184472599186
 20
247.5658682021628
 30
0.0
 11
188.3199632801712
 21
248.1451392333358
 31
0.0
  0
ARC
  5
2AC2
330
18
100
AcDbEntity
  8
1
  6
Continuous
100
AcDbCircle
 10
206.6604985609988
 20
239.3034897484984
 30
0.0
 40
22.0
100
AcDbArc
 50
119.927311806856
 51
150.0726881931438
  0
ARC
  5
2AC3
330
18
100
AcDbEntity
  8
1
  6
Continuous
100
AcDbCircle
 10
188.2642502169313
 20
234.551853518377
 30
0.0
 40
1.5
100
AcDbArc
 50
292.5000000000014
 51
14.48260822517475
  0
ARC
  5
2AC4
330
18
100
AcDbEntity
  8
1
  6
Continuous
100
AcDbCircle
 10
186.8657662371838
 20
233.9725824872042
 30
0.0
 40
1.5
100
AcDbArc
 50
195.0726881931433
 51
292.5000000000014
  0
ARC
  5
2AC5
330
18
100
AcDbEntity
  8
1
  6
Continuous
100
AcDbCircle
 10
188.2642502169313
 20
244.0551259786199
 30
0.0
 40
1.5
100
AcDbArc
 50
345.5173917748252
 51
67.50000000000451
  0
ARC
  5
2AC6
330
18
100
AcDbEntity
  8
1
  6
Continuous
100
AcDbCircle
 10
186.8657662371838
 20
244.6343970097927
 30
0.0
 40
1.5
100
AcDbArc
 50
67.50000000000152
 51
164.9273118068567
  0
LINE
  5
2AC7
330
18
100
AcDbEntity
  8
1
  6
Continuous
100
AcDbLine
 10
188.8382753654789
 20
245.4409452773869
 30
0.0
 11
187.4397913857313
 21
246.0202163085598
 31
0.0
  0
LINE
  5
2AC8
330
18
100
AcDbEntity
  8
1
  6
Continuous
100
AcDbLine
 10
188.8382753654789
 20
233.1660342196101
 30
0.0
 11
187.4397913857313
 21
232.5867631884373
 31
0.0
  0
ARC
  5
2AC9
330
18
100
AcDbEntity
  8
1
  6
Continuous
100
AcDbCircle
 10
206.6604985609985
 20
239.3034897484984
 30
0.0
 40
22.0
100
AcDbArc
 50
164.9273118068567
 51
195.0726881931433
  0
ARC
  5
2ACA
330
18
100
AcDbEntity
  8
1
  6
Continuous
100
AcDbCircle
 10
197.0123008085676
 20
222.9354635959663
 30
0.0
 40
1.5
100
AcDbArc
 50
337.5000000000015
 51
59.48260822517386
  0
ARC
  5
2ACB
330
18
100
AcDbEntity
  8
1
  6
Continuous
100
AcDbCircle
 10
196.4330297773946
 20
221.5369796162186
 30
0.0
 40
1.5
100
AcDbArc
 50
240.0726881931438
 51
337.4999999999985
  0
ARC
  5
2ACC
330
18
100
AcDbEntity
  8
1
  6
Continuous
100
AcDbCircle
 10
190.2924724084664
 20
229.6552919960672
 30
0.0
 40
1.5
100
AcDbArc
 50
30.51739177482617
 51
112.5000000000027
  0
ARC
  5
2ACD
330
18
100
AcDbEntity
  8
1
  6
Continuous
100
AcDbCircle
 10
188.8939884287186
 20
229.0760209648942
 30
0.0
 40
1.5
100
AcDbArc
 50
112.5000000000015
 51
209.9273118068561
  0
LINE
  5
2ACE
330
18
100
AcDbEntity
  8
1
  6
Continuous
100
AcDbLine
 10
189.7184472599186
 20
231.041111294834
 30
0.0
 11
188.3199632801712
 21
230.461840263661
 31
0.0
  0
LINE
  5
2ACF
330
18
100
AcDbEntity
  8
1
  6
Continuous
100
AcDbLine
 10
198.3981201073346
 20
222.3614384474185
 30
0.0
 11
197.8188490761615
 21
220.962954467671
 31
0.0
  0
ARC
  5
2AD0
330
18
100
AcDbEntity
  8
1
  6
Continuous
100
AcDbCircle
 10
206.6604985609988
 20
239.3034897484984
 30
0.0
 40
22.0
100
AcDbArc
 50
209.9273118068561
 51
240.0726881931438
  0
ARC
  5
2AD1
330
18
100
AcDbEntity
  8
1
  6
Continuous
100
AcDbCircle
 10
211.4121347911202
 20
220.9072414044312
 30
0.0
 40
1.5
100
AcDbArc
 50
22.50000000000153
 51
104.4826082251778
  0
ARC
  5
2AD2
330
18
100
AcDbEntity
  8
1
  6
Continuous
100
AcDbCircle
 10
211.991405822293
 20
219.5087574246838
 30
0.0
 40
1.5
100
AcDbArc
 50
285.0726881931432
 51
22.4999999999985
  0
ARC
  5
2AD3
330
18
100
AcDbEntity
  8
1
  6
Continuous
100
AcDbCircle
 10
201.9088623308771
 20
220.9072414044312
 30
0.0
 40
1.5
100
AcDbArc
 50
75.51739177482211
 51
157.5000000000045
  0
ARC
  5
2AD4
330
18
100
AcDbEntity
  8
1
  6
Continuous
100
AcDbCircle
 10
201.3295912997042
 20
219.5087574246838
 30
0.0
 40
1.5
100
AcDbArc
 50
157.5000000000015
 51
254.9273118068566
  0
LINE
  5
2AD5
330
18
100
AcDbEntity
  8
1
  6
Continuous
100
AcDbLine
 10
200.5230430321104
 20
221.4812665529787
 30
0.0
 11
199.9437720009376
 21
220.0827825732313
 31
0.0
  0
LINE
  5
2AD6
330
18
100
AcDbEntity
  8
1
  6
Continuous
100
AcDbLine
 10
212.797954089887
 20
221.481266552979
 30
0.0
 11
213.3772251210599
 21
220.0827825732313
 31
0.0
  0
ARC
  5
2AD7
330
18
100
AcDbEntity
  8
1
  6
Continuous
100
AcDbCircle
 10
206.6604985609985
 20
239.3034897484984
 30
0.0
 40
22.0
100
AcDbArc
 50
254.9273118068566
 51
285.0726881931432
  0
ARC
  5
2AD8
330
18
100
AcDbEntity
  8
1
  6
Continuous
100
AcDbCircle
 10
223.0285247135309
 20
229.6552919960672
 30
0.0
 40
1.5
100
AcDbArc
 50
67.50000000000152
 51
149.4826082251766
  0
ARC
  5
2AD9
330
18
100
AcDbEntity
  8
1
  6
Continuous
100
AcDbCircle
 10
224.4270086932786
 20
229.0760209648942
 30
0.0
 40
1.5
100
AcDbArc
 50
330.0726881931438
 51
67.49999999999849
  0
ARC
  5
2ADA
330
18
100
AcDbEntity
  8
1
  6
Continuous
100
AcDbCircle
 10
216.3086963134301
 20
222.9354635959663
 30
0.0
 40
1.5
100
AcDbArc
 50
120.5173917748261
 51
202.5000000000027
  0
ARC
  5
2ADB
330
18
100
AcDbEntity
  8
1
  6
Continuous
100
AcDbCircle
 10
216.887967344603
 20
221.5369796162186
 30
0.0
 40
1.5
100
AcDbArc
 50
202.5000000000027
 51
299.9273118068561
  0
LINE
  5
2ADC
330
18
100
AcDbEntity
  8
1
  6
Continuous
100
AcDbLine
 10
214.9228770146629
 20
222.3614384474185
 30
0.0
 11
215.5021480458359
 21
220.9629544676711
 31
0.0
  0
LINE
  5
2ADD
330
18
100
AcDbEntity
  8
1
  6
Continuous
100
AcDbLine
 10
223.6025498620788
 20
231.0411112948343
 30
0.0
 11
225.0010338418263
 21
230.4618402636612
 31
0.0
  0
ARC
  5
2ADE
330
18
100
AcDbEntity
  8
1
  6
Continuous
100
AcDbCircle
 10
206.6604985609988
 20
239.3034897484984
 30
0.0
 40
22.0
100
AcDbArc
 50
299.9273118068561
 51
330.0726881931438
  0
ARC
  5
2ADF
330
18
100
AcDbEntity
  8
1
  6
Continuous
100
AcDbCircle
 10
225.056746905066
 20
234.5518535183772
 30
0.0
 40
1.5
100
AcDbArc
 50
212.3117488400872
 51
247.5000000000044
  0
ARC
  5
2AE0
330
18
100
AcDbEntity
  8
1
  6
Continuous
100
AcDbCircle
 10
226.4552308848133
 20
233.9725824872042
 30
0.0
 40
1.5
100
AcDbArc
 50
247.5000000000015
 51
344.9273118068567
  0
LINE
  5
2AE1
330
18
100
AcDbEntity
  8
1
  6
Continuous
100
AcDbLine
 10
224.4827217565184
 20
233.1660342196103
 30
0.0
 11
225.8812057362657
 21
232.5867631884375
 31
0.0
  0
ARC
  5
2AE2
330
18
100
AcDbEntity
  8
1
  6
Continuous
100
AcDbCircle
 10
206.6604985609988
 20
239.3034897484984
 30
0.0
 40
22.0
100
AcDbArc
 50
344.9273118068567
 51
352.4521084202206
  0
ARC
  5
2AE3
330
18
100
AcDbEntity
  8
1
  6
Continuous
100
AcDbCircle
 10
201.9088623308771
 20
257.6997380925656
 30
0.0
 40
1.5
100
AcDbArc
 50
202.5000000000015
 51
284.4826082251779
  0
ARC
  5
2AE4
330
18
100
AcDbEntity
  8
1
  6
Continuous
100
AcDbCircle
 10
201.3295912997042
 20
259.0982220723132
 30
0.0
 40
1.5
100
AcDbArc
 50
105.0726881931433
 51
202.4999999999985
  0
LINE
  5
2AE5
330
18
100
AcDbEntity
  8
1
  6
Continuous
100
AcDbLine
 10
200.5230430321104
 20
257.1257129440181
 30
0.0
 11
199.9437720009374
 21
258.5241969237656
 31
0.0
  0
ARC
  5
2AE6
330
18
100
AcDbEntity
  8
1
  6
Continuous
100
AcDbCircle
 10
206.6604985609988
 20
239.3034897484984
 30
0.0
 40
22.0
100
AcDbArc
 50
87.50151934644586
 51
105.0726881931433
  0
ARC
  5
2AE7
330
18
100
AcDbEntity
  8
1
  6
Continuous
100
AcDbCircle
 10
206.6604985609988
 20
239.3034897484984
 30
0.0
 40
15.0
100
AcDbArc
 50
95.390994238009
 51
329.2197576477411
  0
ARC
  5
2AE8
330
18
100
AcDbEntity
  8
1
  6
Continuous
100
AcDbCircle
 10
206.6604985609988
 20
239.3034897484984
 30
0.0
 40
25.0
100
AcDbArc
 50
87.98398891502294
 51
357.9949952347161
  0
ARC
  5
2AE9
330
18
100
AcDbEntity
  8
1
  6
Continuous
100
AcDbCircle
 10
206.6604985609988
 20
239.3034897484984
 30
0.0
 40
32.5
100
AcDbArc
 50
95.59646310959005
 51
7.801888885192299
  0
ARC
  5
2BEA
330
18
100
AcDbEntity
  8
1
  6
Continuous
100
AcDbCircle
 10
587.9162428436553
 20
239.3034897484984
 30
0.0
 40
32.5
100
AcDbArc
 50
172.1981111148077
 51
84.40353689040994
  0
ARC
  5
2BEB
330
18
100
AcDbEntity
  8
1
  6
Continuous
100
AcDbCircle
 10
587.9162428436553
 20
239.3034897484984
 30
0.0
 40
25.0
100
AcDbArc
 50
182.0050047652839
 51
92.01601108497705
  0
ARC
  5
2BEC
330
18
100
AcDbEntity
  8
1
  6
Continuous
100
AcDbCircle
 10
587.9162428436553
 20
239.3034897484984
 30
0.0
 40
15.0
100
AcDbArc
 50
210.7802423522588
 51
84.60900576199099
  0
LINE
  5
2BED
330
18
100
AcDbEntity
  8
1
  6
Continuous
100
AcDbLine
 10
604.8582941447356
 20
247.5658682021628
 30
0.0
 11
606.256778124483
 21
248.1451392333358
 31
0.0
  0
ARC
  5
2BEE
330
18
100
AcDbEntity
  8
1
  6
Continuous
100
AcDbCircle
 10
604.2842689961879
 20
248.9516875009296
 30
0.0
 40
1.5
100
AcDbArc
 50
210.5173917748234
 51
292.4999999999985
  0
ARC
  5
2BEF
330
18
100
AcDbEntity
  8
1
  6
Continuous
100
AcDbCircle
 10
587.9162428436553
 20
239.3034897484984
 30
0.0
 40
12.8
100
AcDbArc
 50
228.8031990830908
 51
73.70543771841562
  0
ARC
  5
2BF0
330
18
100
AcDbEntity
  8
1
  6
Continuous
100
AcDbCircle
 10
587.9162428436553
 20
239.3034897484984
 30
0.0
 40
17.5
100
AcDbArc
 50
199.69298299631
 51
90.0
  0
ARC
  5
2BF1
330
18
100
AcDbEntity
  8
1
  6
Continuous
100
AcDbCircle
 10
587.9162428436553
 20
239.3034897484984
 30
0.0
 40
22.0
100
AcDbArc
 50
209.9273118068561
 51
240.0726881931438
  0
ARC
  5
2BF2
330
18
100
AcDbEntity
  8
1
  6
Continuous
100
AcDbCircle
 10
571.5482166911232
 20
229.6552919960672
 30
0.0
 40
1.5
100
AcDbArc
 50
30.51739177482336
 51
112.4999999999984
  0
ARC
  5
2BF3
330
18
100
AcDbEntity
  8
1
  6
Continuous
100
AcDbCircle
 10
587.9162428436553
 20
239.3034897484984
 30
0.0
 40
22.0
100
AcDbArc
 50
187.5478915797793
 51
195.0726881931433
  0
LINE
  5
2BF4
330
18
100
AcDbEntity
  8
1
  6
Continuous
100
AcDbLine
 10
570.0940196481357
 20
233.1660342196103
 30
0.0
 11
568.6955356683885
 21
232.5867631884375
 31
0.0
  0
ARC
  5
2BF5
330
18
100
AcDbEntity
  8
1
  6
Continuous
100
AcDbCircle
 10
568.1215105198408
 20
233.9725824872042
 30
0.0
 40
1.5
100
AcDbArc
 50
195.0726881931433
 51
292.4999999999985
  0
ARC
  5
2BF6
330
18
100
AcDbEntity
  8
1
  6
Continuous
100
AcDbCircle
 10
569.5199944995883
 20
234.5518535183772
 30
0.0
 40
1.5
100
AcDbArc
 50
292.4999999999954
 51
327.6882511599126
  0
LINE
  5
2BF7
330
18
100
AcDbEntity
  8
1
  6
Continuous
100
AcDbLine
 10
570.9741915425753
 20
231.0411112948343
 30
0.0
 11
569.5757075628279
 21
230.4618402636612
 31
0.0
  0
ARC
  5
2BF8
330
18
100
AcDbEntity
  8
1
  6
Continuous
100
AcDbCircle
 10
570.1497327113757
 20
229.0760209648942
 30
0.0
 40
1.5
100
AcDbArc
 50
112.5000000000015
 51
209.9273118068561
  0
ARC
  5
2BF9
330
18
100
AcDbEntity
  8
1
  6
Continuous
100
AcDbCircle
 10
587.9162428436553
 20
239.3034897484984
 30
0.0
 40
22.0
100
AcDbArc
 50
299.9273118068561
 51
330.0726881931438
  0
ARC
  5
2BFA
330
18
100
AcDbEntity
  8
1
  6
Continuous
100
AcDbCircle
 10
587.9162428436558
 20
239.3034897484984
 30
0.0
 40
22.0
100
AcDbArc
 50
254.9273118068566
 51
285.0726881931432
  0
LINE
  5
2BFB
330
18
100
AcDbEntity
  8
1
  6
Continuous
100
AcDbLine
 10
579.6538643899912
 20
222.3614384474185
 30
0.0
 11
579.0745933588183
 21
220.9629544676711
 31
0.0
  0
ARC
  5
2BFC
330
18
100
AcDbEntity
  8
1
  6
Continuous
100
AcDbCircle
 10
577.6887740600512
 20
221.5369796162186
 30
0.0
 40
1.5
100
AcDbArc
 50
240.0726881931438
 51
337.4999999999972
  0
ARC
  5
2BFD
330
18
100
AcDbEntity
  8
1
  6
Continuous
100
AcDbCircle
 10
578.2680450912241
 20
222.9354635959663
 30
0.0
 40
1.5
100
AcDbArc
 50
337.4999999999972
 51
59.48260822517383
  0
LINE
  5
2BFE
330
18
100
AcDbEntity
  8
1
  6
Continuous
100
AcDbLine
 10
581.7787873147672
 20
221.481266552979
 30
0.0
 11
581.1995162835943
 21
220.0827825732313
 31
0.0
  0
ARC
  5
2BFF
330
18
100
AcDbEntity
  8
1
  6
Continuous
100
AcDbCircle
 10
582.5853355823612
 20
219.5087574246838
 30
0.0
 40
1.5
100
AcDbArc
 50
157.5000000000015
 51
254.9273118068566
  0
ARC
  5
2C00
330
18
100
AcDbEntity
  8
1
  6
Continuous
100
AcDbCircle
 10
583.164606613534
 20
220.9072414044312
 30
0.0
 40
1.5
100
AcDbArc
 50
75.51739177482208
 51
157.4999999999984
  0
LINE
  5
2C01
330
18
100
AcDbEntity
  8
1
  6
Continuous
100
AcDbLine
 10
594.0536983725437
 20
221.4812665529787
 30
0.0
 11
594.6329694037166
 21
220.0827825732313
 31
0.0
  0
ARC
  5
2C02
330
18
100
AcDbEntity
  8
1
  6
Continuous
100
AcDbCircle
 10
593.24715010495
 20
219.5087574246838
 30
0.0
 40
1.5
100
AcDbArc
 50
285.0726881931432
 51
22.4999999999985
  0
ARC
  5
2C03
330
18
100
AcDbEntity
  8
1
  6
Continuous
100
AcDbCircle
 10
592.6678790737772
 20
220.9072414044312
 30
0.0
 40
1.5
100
AcDbArc
 50
22.49999999999549
 51
104.4826082251778
  0
LINE
  5
2C04
330
18
100
AcDbEntity
  8
1
  6
Continuous
100
AcDbLine
 10
596.1786212973196
 20
222.3614384474185
 30
0.0
 11
596.7578923284926
 21
220.962954467671
 31
0.0
  0
ARC
  5
2C05
330
18
100
AcDbEntity
  8
1
  6
Continuous
100
AcDbCircle
 10
598.1437116272595
 20
221.5369796162186
 30
0.0
 40
1.5
100
AcDbArc
 50
202.5000000000015
 51
299.9273118068561
  0
ARC
  5
2C06
330
18
100
AcDbEntity
  8
1
  6
Continuous
100
AcDbCircle
 10
597.5644405960866
 20
222.9354635959663
 30
0.0
 40
1.5
100
AcDbArc
 50
120.5173917748261
 51
202.4999999999984
  0
ARC
  5
2C07
330
18
100
AcDbEntity
  8
1
  6
Continuous
100
AcDbCircle
 10
587.9162428436558
 20
239.3034897484984
 30
0.0
 40
22.0
100
AcDbArc
 50
344.9273118068567
 51
15.07268819314328
  0
LINE
  5
2C08
330
18
100
AcDbEntity
  8
1
  6
Continuous
100
AcDbLine
 10
604.8582941447355
 20
231.041111294834
 30
0.0
 11
606.256778124483
 21
230.461840263661
 31
0.0
  0
ARC
  5
2C09
330
18
100
AcDbEntity
  8
1
  6
Continuous
100
AcDbCircle
 10
605.6827529759353
 20
229.0760209648942
 30
0.0
 40
1.5
100
AcDbArc
 50
330.0726881931438
 51
67.49999999999848
  0
ARC
  5
2C0A
330
18
100
AcDbEntity
  8
1
  6
Continuous
100
AcDbCircle
 10
604.2842689961879
 20
229.6552919960672
 30
0.0
 40
1.5
100
AcDbArc
 50
67.49999999999724
 51
149.4826082251738
  0
LINE
  5
2C0B
330
18
100
AcDbEntity
  8
1
  6
Continuous
100
AcDbLine
 10
605.7384660391752
 20
233.1660342196101
 30
0.0
 11
607.1369500189229
 21
232.5867631884373
 31
0.0
  0
ARC
  5
2C0C
330
18
100
AcDbEntity
  8
1
  6
Continuous
100
AcDbCircle
 10
607.7109751674704
 20
233.9725824872042
 30
0.0
 40
1.5
100
AcDbArc
 50
247.4999999999984
 51
344.9273118068567
  0
ARC
  5
2C0D
330
18
100
AcDbEntity
  8
1
  6
Continuous
100
AcDbCircle
 10
606.3124911877228
 20
234.551853518377
 30
0.0
 40
1.5
100
AcDbArc
 50
165.5173917748252
 51
247.4999999999984
  0
LINE
  5
2C0E
330
18
100
AcDbEntity
  8
1
  6
Continuous
100
AcDbLine
 10
605.7384660391752
 20
245.4409452773869
 30
0.0
 11
607.1369500189229
 21
246.0202163085598
 31
0.0
  0
ARC
  5
2C0F
330
18
100
AcDbEntity
  8
1
  6
Continuous
100
AcDbCircle
 10
607.7109751674704
 20
244.6343970097927
 30
0.0
 40
1.5
100
AcDbArc
 50
15.07268819314328
 51
112.4999999999984
  0
ARC
  5
2C10
330
18
100
AcDbEntity
  8
1
  6
Continuous
100
AcDbCircle
 10
606.3124911877228
 20
244.0551259786199
 30
0.0
 40
1.5
100
AcDbArc
 50
112.4999999999955
 51
194.4826082251747
  0
ARC
  5
2C11
330
18
100
AcDbEntity
  8
1
  6
Continuous
100
AcDbCircle
 10
587.9162428436553
 20
239.3034897484984
 30
0.0
 40
22.0
100
AcDbArc
 50
29.92731180685615
 51
60.07268819314386
  0
ARC
  5
2C12
330
18
100
AcDbEntity
  8
1
  6
Continuous
100
AcDbCircle
 10
593.24715010495
 20
259.0982220723132
 30
0.0
 40
1.5
100
AcDbArc
 50
337.5000000000014
 51
74.9273118068567
  0
ARC
  5
2C13
330
18
100
AcDbEntity
  8
1
  6
Continuous
100
AcDbCircle
 10
598.1437116272595
 20
257.0699998807782
 30
0.0
 40
1.5
100
AcDbArc
 50
60.07268819314386
 51
157.4999999999972
  0
LINE
  5
2C14
330
18
100
AcDbEntity
  8
1
  6
Continuous
100
AcDbLine
 10
594.0536983725437
 20
257.1257129440181
 30
0.0
 11
594.6329694037167
 21
258.5241969237656
 31
0.0
  0
ARC
  5
2C15
330
18
100
AcDbEntity
  8
1
  6
Continuous
100
AcDbCircle
 10
592.6678790737772
 20
257.6997380925656
 30
0.0
 40
1.5
100
AcDbArc
 50
255.5173917748221
 51
337.4999999999985
  0
LINE
  5
2C16
330
18
100
AcDbEntity
  8
1
  6
Continuous
100
AcDbLine
 10
596.1786212973199
 20
256.2455410495787
 30
0.0
 11
596.7578923284929
 21
257.6440250293261
 31
0.0
  0
ARC
  5
2C17
330
18
100
AcDbEntity
  8
1
  6
Continuous
100
AcDbCircle
 10
597.5644405960869
 20
255.6715159010307
 30
0.0
 40
1.5
100
AcDbArc
 50
157.4999999999972
 51
239.4826082251737
  0
ARC
  5
2C18
330
18
100
AcDbEntity
  8
1
  6
Continuous
100
AcDbCircle
 10
587.9162428436553
 20
239.3034897484984
 30
0.0
 40
22.0
100
AcDbArc
 50
74.9273118068567
 51
92.49848065355413
  0
ARC
  5
2C19
330
18
100
AcDbEntity
  8
1
  6
Continuous
100
AcDbCircle
 10
605.6827529759353
 20
249.5309585321027
 30
0.0
 40
1.5
100
AcDbArc
 50
292.5000000000014
 51
29.92731180685615
  0
LINE
  5
2C32
330
18
100
AcDbEntity
  8
1
  6
Continuous
100
AcDbLine
 10
178.6618074704925
 20
63.72955645249
 30
0.0
 11
234.6591896515058
 21
63.72955645249
 31
0.0
  0
LINE
  5
2C33
330
18
100
AcDbEntity
  8
1
  6
Continuous
100
AcDbLine
 10
190.1604985609991
 20
62.22955645248998
 30
0.0
 11
223.160498560999
 21
62.22955645248998
 31
0.0
  0
ARC
  5
2C34
330
18
100
AcDbEntity
  8
1
  6
Continuous
100
AcDbCircle
 10
215.2604985109991
 20
61.42955745248968
 30
0.0
 40
0.2
100
AcDbArc
 50
270.0
 51
0.0000029999976837
  0
LINE
  5
2C35
330
18
100
AcDbEntity
  8
1
  6
Continuous
100
AcDbLine
 10
178.6618074704925
 20
103.7295564524899
 30
0.0
 11
234.6591896515058
 21
103.7295564524899
 31
0.0
  0
LINE
  5
2C36
330
18
100
AcDbEntity
  8
1
  6
Continuous
100
AcDbLine
 10
190.1604985609991
 20
105.2295564524898
 30
0.0
 11
223.160498560999
 21
105.2295564524898
 31
0.0
  0
ARC
  5
2C37
330
18
100
AcDbEntity
  8
1
  6
Continuous
100
AcDbCircle
 10
215.2604985109991
 20
106.0295554524898
 30
0.0
 40
0.2
100
AcDbArc
 50
359.9999970000022
 51
89.99999999999998
  0
ARC
  5
2C38
330
18
100
AcDbEntity
  8
1
  6
Continuous
100
AcDbCircle
 10
274.1604985609991
 20
83.72955645248994
 30
0.0
 40
100.0
100
AcDbArc
 50
169.9063431407739
 51
190.093656859226
  0
ARC
  5
2C3A
330
18
100
AcDbEntity
  8
1
  6
Continuous
100
AcDbCircle
 10
178.6618074704925
 20
100.7295564524898
 30
0.0
 40
3.0
100
AcDbArc
 50
89.99999999999998
 51
169.9063431407706
  0
ARC
  5
2C3B
330
18
100
AcDbEntity
  8
1
  6
Continuous
100
AcDbCircle
 10
190.160498560999
 20
104.2295564524898
 30
0.0
 40
1.0
100
AcDbArc
 50
89.99999999999998
 51
180.0
  0
LINE
  5
2C3C
330
18
100
AcDbEntity
  8
1
  6
Continuous
100
AcDbLine
 10
189.1604985609991
 20
104.2295564524898
 30
0.0
 11
189.1604985609991
 21
103.7295564524899
 31
0.0
  0
ARC
  5
2C3D
330
18
100
AcDbEntity
  8
1
  6
Continuous
100
AcDbCircle
 10
198.0604986109992
 20
106.0295554524898
 30
0.0
 40
0.2
100
AcDbArc
 50
89.99999999999998
 51
180.0
  0
LINE
  5
2C3E
330
18
100
AcDbEntity
  8
1
  6
Continuous
100
AcDbLine
 10
197.8604985109992
 20
105.2295564524898
 30
0.0
 11
197.8604985109992
 21
106.0295554524898
 31
0.0
  0
ARC
  5
2C3F
330
18
100
AcDbEntity
  8
1
  6
Continuous
100
AcDbCircle
 10
178.6618074704925
 20
66.72955645249
 30
0.0
 40
3.0
100
AcDbArc
 50
190.0936568592228
 51
270.0
  0
LINE
  5
2C40
330
18
100
AcDbEntity
  8
1
  6
Continuous
100
AcDbLine
 10
189.1604985609991
 20
63.72955645249
 30
0.0
 11
189.1604985609991
 21
63.22955645248999
 31
0.0
  0
ARC
  5
2C41
330
18
100
AcDbEntity
  8
1
  6
Continuous
100
AcDbCircle
 10
190.160498560999
 20
63.22955645248999
 30
0.0
 40
1.0
100
AcDbArc
 50
180.0
 51
270.0
  0
ARC
  5
2C42
330
18
100
AcDbEntity
  8
1
  6
Continuous
100
AcDbCircle
 10
198.0604986109992
 20
61.42955745248968
 30
0.0
 40
0.2
100
AcDbArc
 50
180.0
 51
270.0
  0
LINE
  5
2C43
330
18
100
AcDbEntity
  8
1
  6
Continuous
100
AcDbLine
 10
197.8604985109992
 20
62.22955645248998
 30
0.0
 11
197.8604985109992
 21
61.42955745248968
 31
0.0
  0
ARC
  5
2C44
330
18
100
AcDbEntity
  8
1
  6
Continuous
100
AcDbCircle
 10
139.1604985609992
 20
83.72955645248998
 30
0.0
 40
100.0
100
AcDbArc
 50
349.9063431407738
 51
10.09365685922603
  0
ARC
  5
2C45
330
18
100
AcDbEntity
  8
1
  6
Continuous
100
AcDbCircle
 10
234.6591896515057
 20
100.7295564524898
 30
0.0
 40
3.0
100
AcDbArc
 50
10.09365685922922
 51
89.99999999999998
  0
ARC
  5
2C46
330
18
100
AcDbEntity
  8
1
  6
Continuous
100
AcDbCircle
 10
223.1604985609989
 20
104.2295564524898
 30
0.0
 40
1.0
100
AcDbArc
 50
0.0
 51
89.99999999999998
  0
LINE
  5
2C47
330
18
100
AcDbEntity
  8
1
  6
Continuous
100
AcDbLine
 10
215.4604985109966
 20
105.2295564524896
 30
0.0
 11
215.4604985109966
 21
106.0295554524898
 31
0.0
  0
LINE
  5
2C48
330
18
100
AcDbEntity
  8
1
  6
Continuous
100
AcDbLine
 10
224.160498560999
 20
104.2295564524898
 30
0.0
 11
224.160498560999
 21
103.7295564524899
 31
0.0
  0
ARC
  5
2C49
330
18
100
AcDbEntity
  8
1
  6
Continuous
100
AcDbCircle
 10
234.6591896515057
 20
66.72955645249
 30
0.0
 40
3.0
100
AcDbArc
 50
270.0
 51
349.9063431407772
  0
LINE
  5
2C4A
330
18
100
AcDbEntity
  8
1
  6
Continuous
100
AcDbLine
 10
215.460498510999
 20
62.22955645248998
 30
0.0
 11
215.460498510999
 21
61.42955745248968
 31
0.0
  0
LINE
  5
2C4B
330
18
100
AcDbEntity
  8
1
  6
Continuous
100
AcDbLine
 10
224.160498560999
 20
63.72955645249
 30
0.0
 11
224.160498560999
 21
63.22955645248999
 31
0.0
  0
ARC
  5
2C4C
330
18
100
AcDbEntity
  8
1
  6
Continuous
100
AcDbCircle
 10
223.1604985609989
 20
63.22955645248999
 30
0.0
 40
1.0
100
AcDbArc
 50
270.0
 51
0.0
  0
LINE
  5
2C4E
330
18
100
AcDbEntity
  8
1
  6
Continuous
100
AcDbLine
 10
178.6618074704925
 20
399.8774230445066
 30
0.0
 11
187.6604985609999
 21
399.8774230445066
 31
0.0
  0
ARC
  5
2C4F
330
18
100
AcDbEntity
  8
1
  6
Continuous
100
AcDbCircle
 10
274.1604985609991
 20
419.8774230445065
 30
0.0
 40
100.0
100
AcDbArc
 50
169.9063431407739
 51
190.093656859226
  0
ARC
  5
2C50
330
18
100
AcDbEntity
  8
1
  6
Continuous
100
AcDbCircle
 10
178.6618074704925
 20
402.8774230445065
 30
0.0
 40
3.0
100
AcDbArc
 50
190.0936568592228
 51
270.0
  0
LINE
  5
2C51
330
18
100
AcDbEntity
  8
1
  6
Continuous
100
AcDbLine
 10
178.6618074704925
 20
439.8774230445066
 30
0.0
 11
187.6604985609999
 21
439.8774230445066
 31
0.0
  0
ARC
  5
2C52
330
18
100
AcDbEntity
  8
1
  6
Continuous
100
AcDbCircle
 10
178.6618074704925
 20
436.8774230445065
 30
0.0
 40
3.0
100
AcDbArc
 50
89.99999999999998
 51
169.9063431407706
  0
LINE
  5
2CAD
330
18
100
AcDbEntity
  8
1
  6
Continuous
100
AcDbLine
 10
417.2883707023272
 20
211.304798657992
 30
0.0
 11
417.2883707023272
 21
261.9859481140168
 31
0.0
  0
LINE
  5
2CAE
330
18
100
AcDbEntity
  8
1
  6
Continuous
100
AcDbLine
 10
418.7883707023273
 20
222.8034897484986
 30
0.0
 11
418.7883707023273
 21
255.8034897484985
 31
0.0
  0
ARC
  5
2CAF
330
18
100
AcDbEntity
  8
1
  6
Continuous
100
AcDbCircle
 10
419.5883697023274
 20
247.9034896984987
 30
0.0
 40
0.2
100
AcDbArc
 50
0.0
 51
90.00000299999769
  0
LINE
  5
2CB0
330
18
100
AcDbEntity
  8
1
  6
Continuous
100
AcDbLine
 10
377.2883707023272
 20
211.304798657992
 30
0.0
 11
377.2883707023272
 21
261.9859481140168
 31
0.0
  0
LINE
  5
2CB1
330
18
100
AcDbEntity
  8
1
  6
Continuous
100
AcDbLine
 10
375.7883707023274
 20
222.8034897484986
 30
0.0
 11
375.7883707023274
 21
255.8034897484985
 31
0.0
  0
ARC
  5
2CB2
330
18
100
AcDbEntity
  8
1
  6
Continuous
100
AcDbCircle
 10
374.9883717023274
 20
247.9034896984987
 30
0.0
 40
0.2
100
AcDbArc
 50
89.99999700000229
 51
180.0
  0
ARC
  5
2CB3
330
18
100
AcDbEntity
  8
1
  6
Continuous
100
AcDbCircle
 10
397.2883707023272
 20
306.8034897484987
 30
0.0
 40
100.0
100
AcDbArc
 50
259.9063431407739
 51
280.0936568592259
  0
ARC
  5
2CB4
330
18
100
AcDbEntity
  8
1
  6
Continuous
100
AcDbCircle
 10
380.2883707023274
 20
211.304798657992
 30
0.0
 40
3.0
100
AcDbArc
 50
180.0
 51
259.9063431407707
  0
ARC
  5
2CB5
330
18
100
AcDbEntity
  8
1
  6
Continuous
100
AcDbCircle
 10
376.7883707023274
 20
222.8034897484986
 30
0.0
 40
1.0
100
AcDbArc
 50
180.0
 51
270.0
  0
LINE
  5
2CB6
330
18
100
AcDbEntity
  8
1
  6
Continuous
100
AcDbLine
 10
376.7883707023274
 20
221.8034897484986
 30
0.0
 11
377.2883707023272
 21
221.8034897484986
 31
0.0
  0
ARC
  5
2CB7
330
18
100
AcDbEntity
  8
1
  6
Continuous
100
AcDbCircle
 10
374.9883717023274
 20
230.7034897984987
 30
0.0
 40
0.2
100
AcDbArc
 50
180.0
 51
270.0
  0
LINE
  5
2CB8
330
18
100
AcDbEntity
  8
1
  6
Continuous
100
AcDbLine
 10
375.7883707023274
 20
230.5034896984987
 30
0.0
 11
374.9883717023274
 21
230.5034896984987
 31
0.0
  0
ARC
  5
2CB9
330
18
100
AcDbEntity
  8
1
  6
Continuous
100
AcDbCircle
 10
414.2883707023272
 20
211.304798657992
 30
0.0
 40
3.0
100
AcDbArc
 50
280.0936568592228
 51
0.0
  0
LINE
  5
2CBA
330
18
100
AcDbEntity
  8
1
  6
Continuous
100
AcDbLine
 10
417.2883707023272
 20
221.8034897484986
 30
0.0
 11
417.7883707023272
 21
221.8034897484986
 31
0.0
  0
ARC
  5
2CBB
330
18
100
AcDbEntity
  8
1
  6
Continuous
100
AcDbCircle
 10
417.7883707023272
 20
222.8034897484986
 30
0.0
 40
1.0
100
AcDbArc
 50
270.0
 51
0.0
  0
ARC
  5
2CBC
330
18
100
AcDbEntity
  8
1
  6
Continuous
100
AcDbCircle
 10
419.5883697023274
 20
230.7034897984987
 30
0.0
 40
0.2
100
AcDbArc
 50
270.0
 51
0.0
  0
LINE
  5
2CBD
330
18
100
AcDbEntity
  8
1
  6
Continuous
100
AcDbLine
 10
418.7883707023273
 20
230.5034896984987
 30
0.0
 11
419.5883697023274
 21
230.5034896984987
 31
0.0
  0
ARC
  5
2CBE
330
18
100
AcDbEntity
  8
1
  6
Continuous
100
AcDbCircle
 10
397.2883707023272
 20
171.8034897484987
 30
0.0
 40
100.0
100
AcDbArc
 50
85.27697513360271
 51
94.72302486639732
  0
ARC
  5
2CC0
330
18
100
AcDbEntity
  8
1
  6
Continuous
100
AcDbCircle
 10
376.7883707023274
 20
255.8034897484985
 30
0.0
 40
1.0
100
AcDbArc
 50
90.0
 51
180.0
  0
LINE
  5
2CC1
330
18
100
AcDbEntity
  8
1
  6
Continuous
100
AcDbLine
 10
375.7883707023276
 20
248.1034896984961
 30
0.0
 11
374.9883717023274
 21
248.1034896984961
 31
0.0
  0
LINE
  5
2CC2
330
18
100
AcDbEntity
  8
1
  6
Continuous
100
AcDbLine
 10
376.7883707023274
 20
256.8034897484985
 30
0.0
 11
377.2883707023272
 21
256.8034897484985
 31
0.0
  0
LINE
  5
2CC4
330
18
100
AcDbEntity
  8
1
  6
Continuous
100
AcDbLine
 10
418.7883707023273
 20
248.1034896984985
 30
0.0
 11
419.5883697023274
 21
248.1034896984985
 31
0.0
  0
LINE
  5
2CC5
330
18
100
AcDbEntity
  8
1
  6
Continuous
100
AcDbLine
 10
417.2883707023272
 20
256.8034897484985
 30
0.0
 11
417.7883707023272
 21
256.8034897484985
 31
0.0
  0
ARC
  5
2CC6
330
18
100
AcDbEntity
  8
1
  6
Continuous
100
AcDbCircle
 10
417.7883707023272
 20
255.8034897484985
 30
0.0
 40
1.0
100
AcDbArc
 50
0.0
 51
90.0
  0
ARC
  5
2D12
330
18
100
AcDbEntity
  8
1
  6
Continuous
100
AcDbCircle
 10
199.3604985609988
 20
51.92955645249021
 30
0.0
 40
1.199999999999999
100
AcDbArc
 50
180.0
 51
270.0
  0
ARC
  5
2D13
330
18
100
AcDbEntity
  8
1
  6
Continuous
100
AcDbCircle
 10
213.960498560999
 20
51.92955645249021
 30
0.0
 40
1.199999999999999
100
AcDbArc
 50
270.0
 51
0.0
  0
LINE
  5
2D2C
330
18
100
AcDbEntity
  8
1
  6
Continuous
100
AcDbLine
 10
367.1873527467648
 20
289.8034897484983
 30
0.0
 11
427.3893886578896
 21
289.8034897484983
 31
0.0
  0
LINE
  5
2D2D
330
18
100
AcDbEntity
  8
1
  6
Continuous
100
AcDbLine
 10
356.2883707023272
 20
293.8034897484985
 30
0.0
 11
438.2883707023272
 21
293.8034897484985
 31
0.0
  0
ARC
  5
2D2E
330
18
100
AcDbEntity
  8
1
  6
Continuous
100
AcDbCircle
 10
427.3893886578896
 20
294.8034897484983
 30
0.0
 40
5.0
100
AcDbArc
 50
270.0
 51
348.463040967185
  0
LINE
  5
2D2F
330
18
100
AcDbEntity
  8
1
  6
Continuous
100
AcDbLine
 10
438.2883707023272
 20
296.8034897484983
 30
0.0
 11
438.2883707023272
 21
293.8034897484985
 31
0.0
  0
LINE
  5
2D30
330
18
100
AcDbEntity
  8
1
  6
Continuous
100
AcDbLine
 10
356.2883707023272
 20
296.8034897484983
 30
0.0
 11
356.2883707023272
 21
293.8034897484985
 31
0.0
  0
ARC
  5
2D31
330
18
100
AcDbEntity
  8
1
  6
Continuous
100
AcDbCircle
 10
367.1873527467648
 20
294.8034897484983
 30
0.0
 40
5.0
100
AcDbArc
 50
191.5369590328149
 51
270.0
  0
LINE
  5
2D32
330
18
100
AcDbEntity
  8
1
  6
Continuous
100
AcDbLine
 10
535.8152248880931
 20
289.8034897484983
 30
0.0
 11
596.0172607992177
 21
289.8034897484983
 31
0.0
  0
LINE
  5
2D33
330
18
100
AcDbEntity
  8
1
  6
Continuous
100
AcDbLine
 10
524.9162428436553
 20
293.8034897484985
 30
0.0
 11
606.9162428436555
 21
293.8034897484985
 31
0.0
  0
ARC
  5
2D34
330
18
100
AcDbEntity
  8
1
  6
Continuous
100
AcDbCircle
 10
596.0172607992177
 20
294.8034897484983
 30
0.0
 40
5.0
100
AcDbArc
 50
270.0
 51
348.463040967185
  0
LINE
  5
2D35
330
18
100
AcDbEntity
  8
1
  6
Continuous
100
AcDbLine
 10
606.9162428436555
 20
296.8034897484983
 30
0.0
 11
606.9162428436555
 21
293.8034897484985
 31
0.0
  0
LINE
  5
2D36
330
18
100
AcDbEntity
  8
1
  6
Continuous
100
AcDbLine
 10
524.9162428436553
 20
296.8034897484983
 30
0.0
 11
524.9162428436553
 21
293.8034897484985
 31
0.0
  0
ARC
  5
2D37
330
18
100
AcDbEntity
  8
1
  6
Continuous
100
AcDbCircle
 10
535.8152248880931
 20
294.8034897484983
 30
0.0
 40
5.0
100
AcDbArc
 50
191.5369590328149
 51
270.0
  0
LINE
  5
2D38
330
18
100
AcDbEntity
  8
1
  6
Continuous
100
AcDbLine
 10
198.5594806054366
 20
289.8034897484983
 30
0.0
 11
258.7615165165614
 21
289.8034897484983
 31
0.0
  0
LINE
  5
2D39
330
18
100
AcDbEntity
  8
1
  6
Continuous
100
AcDbLine
 10
187.660498560999
 20
293.8034897484985
 30
0.0
 11
269.660498560999
 21
293.8034897484985
 31
0.0
  0
ARC
  5
2D3A
330
18
100
AcDbEntity
  8
1
  6
Continuous
100
AcDbCircle
 10
258.7615165165614
 20
294.8034897484983
 30
0.0
 40
5.0
100
AcDbArc
 50
270.0
 51
348.463040967185
  0
LINE
  5
2D3B
330
18
100
AcDbEntity
  8
1
  6
Continuous
100
AcDbLine
 10
269.660498560999
 20
296.8034897484983
 30
0.0
 11
269.660498560999
 21
293.8034897484985
 31
0.0
  0
LINE
  5
2D3C
330
18
100
AcDbEntity
  8
1
  6
Continuous
100
AcDbLine
 10
187.660498560999
 20
296.8034897484983
 30
0.0
 11
187.660498560999
 21
293.8034897484985
 31
0.0
  0
ARC
  5
2D3D
330
18
100
AcDbEntity
  8
1
  6
Continuous
100
AcDbCircle
 10
198.5594806054366
 20
294.8034897484983
 30
0.0
 40
5.0
100
AcDbArc
 50
191.5369590328149
 51
270.0
  0
LINE
  5
2D3E
330
18
100
AcDbEntity
  8
1
  6
Continuous
100
AcDbLine
 10
29.93160846410843
 20
289.8034897484983
 30
0.0
 11
90.13364437523321
 21
289.8034897484983
 31
0.0
  0
LINE
  5
2D3F
330
18
100
AcDbEntity
  8
1
  6
Continuous
100
AcDbLine
 10
19.0326264196708
 20
293.8034897484985
 30
0.0
 11
101.0326264196708
 21
293.8034897484985
 31
0.0
  0
ARC
  5
2D40
330
18
100
AcDbEntity
  8
1
  6
Continuous
100
AcDbCircle
 10
90.13364437523321
 20
294.8034897484983
 30
0.0
 40
5.0
100
AcDbArc
 50
270.0
 51
348.463040967185
  0
LINE
  5
2D41
330
18
100
AcDbEntity
  8
1
  6
Continuous
100
AcDbLine
 10
101.0326264196708
 20
296.8034897484983
 30
0.0
 11
101.0326264196708
 21
293.8034897484985
 31
0.0
  0
LINE
  5
2D42
330
18
100
AcDbEntity
  8
1
  6
Continuous
100
AcDbLine
 10
19.0326264196708
 20
296.8034897484983
 30
0.0
 11
19.0326264196708
 21
293.8034897484985
 31
0.0
  0
ARC
  5
2D43
330
18
100
AcDbEntity
  8
1
  6
Continuous
100
AcDbCircle
 10
29.93160846410843
 20
294.8034897484983
 30
0.0
 40
5.0
100
AcDbArc
 50
191.5369590328149
 51
270.0
  0
ENDSEC
  0
SECTION
  2
OBJECTS
  0
DICTIONARY
  5
C
330
0
100
AcDbDictionary
281
     1
  3
ACAD_CIP_PREVIOUS_PRODUCT_INFO
350
2DDD
  3
ACAD_COLOR
350
2DC0
  3
ACAD_DETAILVIEWSTYLE
350
2DD9
  3
ACAD_GROUP
350
D
  3
ACAD_LAYOUT
350
94
  3
ACAD_MATERIAL
350
2D8E
  3
ACAD_MLEADERSTYLE
350
2DD5
  3
ACAD_MLINESTYLE
350
1B
  3
ACAD_PLOTSETTINGS
350
95
  3
ACAD_PLOTSTYLENAME
350
2D8C
  3
ACAD_SCALELIST
350
2DC3
  3
ACAD_SECTIONVIEWSTYLE
350
2DD7
  3
ACAD_TABLESTYLE
350
2DC1
  3
ACAD_VISUALSTYLE
350
2DA7
  3
ACDB_RECOMPOSE_DATA
350
2DFB
  3
AcDbVariableDictionary
350
2DEE
  3
CONTENTDICTIONARY
350
3D
  3
DWGPROPS
350
2DFC
  0
DICTIONARY
  5
2DDE
330
E
100
AcDbDictionary
280
     1
281
     1
  3
ADSK_XREC_LAYER_RECONCILED
360
2DDF
  0
DICTIONARY
  5
2DE0
330
4E
100
AcDbDictionary
280
     1
281
     1
  3
ADSK_XREC_LAYER_RECONCILED
360
2DE1
  0
DICTIONARY
  5
2DE2
330
4F
100
AcDbDictionary
280
     1
281
     1
  3
ADSK_XREC_LAYER_RECONCILED
360
2DE3
  0
DICTIONARY
  5
2DE4
330
50
100
AcDbDictionary
280
     1
281
     1
  3
ADSK_XREC_LAYER_RECONCILED
360
2DE5
  0
DICTIONARY
  5
2DE6
330
51
100
AcDbDictionary
280
     1
281
     1
  3
ADSK_XREC_LAYER_RECONCILED
360
2DE7
  0
DICTIONARY
  5
2DE8
330
52
100
AcDbDictionary
280
     1
281
     1
  3
ADSK_XREC_LAYER_RECONCILED
360
2DE9
  0
DICTIONARY
  5
2DEA
330
53
100
AcDbDictionary
280
     1
281
     1
  3
ADSK_XREC_LAYER_RECONCILED
360
2DEB
  0
DICTIONARY
  5
2DEC
330
54
100
AcDbDictionary
280
     1
281
     1
  3
ADSK_XREC_LAYER_RECONCILED
360
2DED
  0
DICTIONARY
  5
2D87
330
18
100
AcDbDictionary
281
     1
  3
ACAD_LAYOUTSELFREF
350
2D88
  0
DICTIONARY
  5
2D85
330
15
100
AcDbDictionary
281
     1
  3
ACAD_LAYOUTSELFREF
350
2D86
  0
XRECORD
  5
2DDD
102
{ACAD_REACTORS
330
C
102
}
330
C
100
AcDbXrecord
280
     1
300
ACDLT
300
2014
300
ACDLT_F_S
  0
DICTIONARY
  5
2DC0
102
{ACAD_REACTORS
330
C
102
}
330
C
100
AcDbDictionary
281
     1
  0
DICTIONARY
  5
2DD9
102
{ACAD_REACTORS
330
C
102
}
330
C
100
AcDbDictionary
281
     1
  3
Imperial24
350
2DDA
  0
DICTIONARY
  5
D
102
{ACAD_REACTORS
330
C
102
}
330
C
100
AcDbDictionary
281
     1
  0
DICTIONARY
  5
94
102
{ACAD_REACTORS
330
C
102
}
330
C
100
AcDbDictionary
281
     1
  3
Model
350
2DDB
  3
レイアウト1
350
2DDC
  0
DICTIONARY
  5
2D8E
102
{ACAD_REACTORS
330
C
102
}
330
C
100
AcDbDictionary
281
     1
  3
ByBlock
350
2D97
  3
ByLayer
350
2D8F
  3
Global
350
2D9F
  0
DICTIONARY
  5
2DD5
102
{ACAD_REACTORS
330
C
102
}
330
C
100
AcDbDictionary
281
     1
  3
Standard
350
2DD6
  0
DICTIONARY
  5
1B
102
{ACAD_REACTORS
330
C
102
}
330
C
100
AcDbDictionary
281
     1
  3
STANDARD
350
1C
  0
DICTIONARY
  5
95
102
{ACAD_REACTORS
330
C
102
}
330
C
100
AcDbDictionary
281
     1
  0
ACDBDICTIONARYWDFLT
  5
2D8C
102
{ACAD_REACTORS
330
C
102
}
330
C
100
AcDbDictionary
281
     1
  3
Normal
350
2D8D
100
AcDbDictionaryWithDefault
340
2D8D
  0
DICTIONARY
  5
2DC3
102
{ACAD_REACTORS
330
C
102
}
330
C
100
AcDbDictionary
281
     1
  3
A0
350
2DC4
  3
A1
350
2DC5
  3
A2
350
2DC6
  3
A3
350
2DC7
  3
A4
350
2DC8
  3
A5
350
2DC9
  3
A6
350
2DCA
  3
A7
350
2DCB
  3
A8
350
2DCC
  3
A9
350
2DCD
  3
B0
350
2DCE
  3
B1
350
2DCF
  3
B2
350
2DD0
  3
B3
350
2DD1
  3
B4
350
2DD2
  3
B5
350
2DD3
  3
B6
350
2DD4
  0
DICTIONARY
  5
2DD7
102
{ACAD_REACTORS
330
C
102
}
330
C
100
AcDbDictionary
281
     1
  3
Imperial24
350
2DD8
  0
DICTIONARY
  5
2DC1
102
{ACAD_REACTORS
330
C
102
}
330
C
100
AcDbDictionary
281
     1
  3
Standard
350
2DC2
  0
DICTIONARY
  5
2DA7
102
{ACAD_REACTORS
330
C
102
}
330
C
100
AcDbDictionary
281
     1
  3
2dWireframe
350
2DAD
  3
Basic
350
2DAC
  3
Brighten
350
2DB3
  3
ColorChange
350
2DB7
  3
Conceptual
350
2DB0
  3
Dim
350
2DB2
  3
EdgeColorOff
350
2DBF
  3
Facepattern
350
2DB6
  3
Flat
350
2DA8
  3
FlatWithEdges
350
2DA9
  3
Gouraud
350
2DAA
  3
GouraudWithEdges
350
2DAB
  3
Hidden
350
2DAF
  3
JitterOff
350
2DBD
  3
Linepattern
350
2DB5
  3
OverhangOff
350
2DBE
  3
Realistic
350
2DB1
  3
Shaded
350
2DBC
  3
Shaded with edges
350
2DBB
  3
Shades of Gray
350
2DB8
  3
Sketchy
350
2DB9
  3
Thicken
350
2DB4
  3
Wireframe
350
2DAE
  3
X-Ray
350
2DBA
  0
XRECORD
  5
2DFB
102
{ACAD_REACTORS
330
C
102
}
330
C
100
AcDbXrecord
280
     1
 90
        1
330
2DC2
  0
DICTIONARY
  5
2DEE
102
{ACAD_REACTORS
330
C
102
}
330
C
100
AcDbDictionary
281
     1
  3
CANNOSCALE
350
2DF3
  3
CMLEADERSTYLE
350
2DF0
  3
CTABLESTYLE
350
2DEF
  3
CVIEWDETAILSTYLE
350
2DF1
  3
CVIEWSECTIONSTYLE
350
2DF2
  3
DIMASSOC
350
2DF6
  3
INDEXCTL
350
2DF5
  3
SORTENTS
350
2DF4
  3
XCLIPFRAME
350
2DF7
  0
DICTIONARY
  5
3D
102
{ACAD_REACTORS
330
C
102
}
330
C
100
AcDbDictionary
281
     1
  0
XRECORD
  5
2DFC
102
{ACAD_REACTORS
330
C
102
}
330
C
100
AcDbXrecord
280
     1
  1
DWGPROPS COOKIE
  2

  3

  4

  6

  7

  8
Yoshitsune
  9

300
=
301
=
302
=
303
=
304
=
305
=
306
=
307
=
308
=
309
=
 40
0.1297302314814815
 41
2454154.550453368
 42
2457192.690861007
  1

 90
        0
  0
XRECORD
  5
2DDF
102
{ACAD_REACTORS
330
2DDE
102
}
330
2DDE
100
AcDbXrecord
280
     1
290
     1
  0
XRECORD
  5
2DE1
102
{ACAD_REACTORS
330
2DE0
102
}
330
2DE0
100
AcDbXrecord
280
     1
290
     1
  0
XRECORD
  5
2DE3
102
{ACAD_REACTORS
330
2DE2
102
}
330
2DE2
100
AcDbXrecord
280
     1
290
     1
  0
XRECORD
  5
2DE5
102
{ACAD_REACTORS
330
2DE4
102
}
330
2DE4
100
AcDbXrecord
280
     1
290
     1
  0
XRECORD
  5
2DE7
102
{ACAD_REACTORS
330
2DE6
102
}
330
2DE6
100
AcDbXrecord
280
     1
290
     1
  0
XRECORD
  5
2DE9
102
{ACAD_REACTORS
330
2DE8
102
}
330
2DE8
100
AcDbXrecord
280
     1
290
     1
  0
XRECORD
  5
2DEB
102
{ACAD_REACTORS
330
2DEA
102
}
330
2DEA
100
AcDbXrecord
280
     1
290
     1
  0
XRECORD
  5
2DED
102
{ACAD_REACTORS
330
2DEC
102
}
330
2DEC
100
AcDbXrecord
280
     1
290
     1
  0
XRECORD
  5
2D88
102
{ACAD_REACTORS
330
2D87
102
}
330
2D87
100
AcDbXrecord
280
     1
340
18
  0
XRECORD
  5
2D86
102
{ACAD_REACTORS
330
2D85
102
}
330
2D85
100
AcDbXrecord
280
     1
340
15
  0
ACDBDETAILVIEWSTYLE
  5
2DDA
102
{ACAD_XDICTIONARY
360
2E34
102
}
102
{ACAD_REACTORS
330
2DD9
102
}
330
2DD9
100
AcDbModelDocViewStyle
 70
     0
  3
Imperial24
290
     0
100
AcDbDetailViewStyle
 70
     0
 71
     0
 90
        3
 71
     1
340
F
 40
0.24
340
0
 40
0.24
300

 40
0.36
280
     3
 71
     2
340
14
 90
       25
 71
     3
340
F
 40
0.24
 90
        1
 40
0.75
 90
        1
300
%<\AcVar ViewType \f "%tc1">% %<\AcVar ViewDetailId>%\PSCALE %<\AcVar ViewScale \f "%sn">%
 71
     4
340
14
 90
       25
340
14
 90
       25
280
     0
  0
LAYOUT
  5
2DDB
102
{ACAD_XDICTIONARY
360
2E36
102
}
102
{ACAD_REACTORS
330
94
102
}
330
94
100
AcDbPlotSettings
  1

  2
Canon LBP9100C
  4

  6

 40
0.0
 41
0.0
 42
0.0
 43
0.0
 44
0.0
 45
0.0
 46
0.0
 47
0.0
 48
0.0
 49
0.0
140
0.0
141
0.0
142
1.0
143
1.0
 70
  1712
 72
     0
 73
     0
 74
     0
  7

 75
     0
147
1.0
148
0.0
149
0.0
100
AcDbLayout
  1
Model
 70
     1
 71
     0
 10
0.0
 20
0.0
 11
12.0
 21
9.0
 12
0.0
 22
0.0
 32
0.0
 14
0.0
 24
0.0
 34
0.0
 15
0.0
 25
0.0
 35
0.0
146
0.0
 13
0.0
 23
0.0
 33
0.0
 16
1.0
 26
0.0
 36
0.0
 17
0.0
 27
1.0
 37
0.0
 76
     0
330
18
331
2D84
  0
LAYOUT
  5
2DDC
102
{ACAD_XDICTIONARY
360
2E38
102
}
102
{ACAD_REACTORS
330
94
102
}
330
94
100
AcDbPlotSettings
  1

  2
Canon LBP9100C
  4

  6

 40
0.0
 41
0.0
 42
0.0
 43
0.0
 44
0.0
 45
0.0
 46
0.0
 47
0.0
 48
0.0
 49
0.0
140
0.0
141
0.0
142
1.0
143
1.0
 70
   688
 72
     0
 73
     0
 74
     5
  7

 75
    16
147
1.0
148
0.0
149
0.0
100
AcDbLayout
  1
レイアウト1
 70
     1
 71
     1
 10
0.0
 20
0.0
 11
420.0
 21
297.0
 12
0.0
 22
0.0
 32
0.0
 14
1.000000000000000E+20
 24
1.000000000000000E+20
 34
1.000000000000000E+20
 15
-1.000000000000000E+20
 25
-1.000000000000000E+20
 35
-1.000000000000000E+20
146
0.0
 13
0.0
 23
0.0
 33
0.0
 16
1.0
 26
0.0
 36
0.0
 17
0.0
 27
1.0
 37
0.0
 76
     0
330
15
  0
MATERIAL
  5
2D97
102
{ACAD_XDICTIONARY
360
2D98
102
}
102
{ACAD_REACTORS
330
2D8E
102
}
330
2D8E
100
AcDbMaterial
  1
ByBlock
 72
     0
 43
0.0208333333333333
 43
0.0
 43
0.0
 43
0.0
 43
0.0
 43
0.0208333333333333
 43
0.0
 43
0.0
 43
0.0
 43
0.0
 43
1.0
 43
0.0
 43
0.0
 43
0.0
 43
0.0
 43
1.0
 77
     0
 47
0.0208333333333333
 47
0.0
 47
0.0
 47
0.0
 47
0.0
 47
0.0208333333333333
 47
0.0
 47
0.0
 47
0.0
 47
0.0
 47
1.0
 47
0.0
 47
0.0
 47
0.0
 47
0.0
 47
1.0
171
     0
 49
0.0208333333333333
 49
0.0
 49
0.0
 49
0.0
 49
0.0
 49
0.0208333333333333
 49
0.0
 49
0.0
 49
0.0
 49
0.0
 49
1.0
 49
0.0
 49
0.0
 49
0.0
 49
0.0
 49
1.0
175
     0
142
0.0208333333333333
142
0.0
142
0.0
142
0.0
142
0.0
142
0.0208333333333333
142
0.0
142
0.0
142
0.0
142
0.0
142
1.0
142
0.0
142
0.0
142
0.0
142
0.0
142
1.0
179
     0
144
0.0208333333333333
144
0.0
144
0.0
144
0.0
144
0.0
144
0.0208333333333333
144
0.0
144
0.0
144
0.0
144
0.0
144
1.0
144
0.0
144
0.0
144
0.0
144
0.0
144
1.0
147
0.0208333333333333
147
0.0
147
0.0
147
0.0
147
0.0
147
0.0208333333333333
147
0.0
147
0.0
147
0.0
147
0.0
147
1.0
147
0.0
147
0.0
147
0.0
147
0.0
147
1.0
  0
MATERIAL
  5
2D8F
102
{ACAD_XDICTIONARY
360
2D90
102
}
102
{ACAD_REACTORS
330
2D8E
102
}
330
2D8E
100
AcDbMaterial
  1
ByLayer
 72
     0
 43
0.0208333333333333
 43
0.0
 43
0.0
 43
0.0
 43
0.0
 43
0.0208333333333333
 43
0.0
 43
0.0
 43
0.0
 43
0.0
 43
1.0
 43
0.0
 43
0.0
 43
0.0
 43
0.0
 43
1.0
 77
     0
 47
0.0208333333333333
 47
0.0
 47
0.0
 47
0.0
 47
0.0
 47
0.0208333333333333
 47
0.0
 47
0.0
 47
0.0
 47
0.0
 47
1.0
 47
0.0
 47
0.0
 47
0.0
 47
0.0
 47
1.0
171
     0
 49
0.0208333333333333
 49
0.0
 49
0.0
 49
0.0
 49
0.0
 49
0.0208333333333333
 49
0.0
 49
0.0
 49
0.0
 49
0.0
 49
1.0
 49
0.0
 49
0.0
 49
0.0
 49
0.0
 49
1.0
175
     0
142
0.0208333333333333
142
0.0
142
0.0
142
0.0
142
0.0
142
0.0208333333333333
142
0.0
142
0.0
142
0.0
142
0.0
142
1.0
142
0.0
142
0.0
142
0.0
142
0.0
142
1.0
179
     0
144
0.0208333333333333
144
0.0
144
0.0
144
0.0
144
0.0
144
0.0208333333333333
144
0.0
144
0.0
144
0.0
144
0.0
144
1.0
144
0.0
144
0.0
144
0.0
144
0.0
144
1.0
147
0.0208333333333333
147
0.0
147
0.0
147
0.0
147
0.0
147
0.0208333333333333
147
0.0
147
0.0
147
0.0
147
0.0
147
1.0
147
0.0
147
0.0
147
0.0
147
0.0
147
1.0
  0
MATERIAL
  5
2D9F
102
{ACAD_XDICTIONARY
360
2DA0
102
}
102
{ACAD_REACTORS
330
2D8E
102
}
330
2D8E
100
AcDbMaterial
  1
Global
 72
     0
 43
0.0208333333333333
 43
0.0
 43
0.0
 43
0.0
 43
0.0
 43
0.0208333333333333
 43
0.0
 43
0.0
 43
0.0
 43
0.0
 43
1.0
 43
0.0
 43
0.0
 43
0.0
 43
0.0
 43
1.0
 77
     0
 47
0.0208333333333333
 47
0.0
 47
0.0
 47
0.0
 47
0.0
 47
0.0208333333333333
 47
0.0
 47
0.0
 47
0.0
 47
0.0
 47
1.0
 47
0.0
 47
0.0
 47
0.0
 47
0.0
 47
1.0
171
     0
 49
0.0208333333333333
 49
0.0
 49
0.0
 49
0.0
 49
0.0
 49
0.0208333333333333
 49
0.0
 49
0.0
 49
0.0
 49
0.0
 49
1.0
 49
0.0
 49
0.0
 49
0.0
 49
0.0
 49
1.0
175
     0
142
0.0208333333333333
142
0.0
142
0.0
142
0.0
142
0.0
142
0.0208333333333333
142
0.0
142
0.0
142
0.0
142
0.0
142
1.0
142
0.0
142
0.0
142
0.0
142
0.0
142
1.0
179
     0
144
0.0208333333333333
144
0.0
144
0.0
144
0.0
144
0.0
144
0.0208333333333333
144
0.0
144
0.0
144
0.0
144
0.0
144
1.0
144
0.0
144
0.0
144
0.0
144
0.0
144
1.0
147
0.0208333333333333
147
0.0
147
0.0
147
0.0
147
0.0
147
0.0208333333333333
147
0.0
147
0.0
147
0.0
147
0.0
147
1.0
147
0.0
147
0.0
147
0.0
147
0.0
147
1.0
  0
MLEADERSTYLE
  5
2DD6
102
{ACAD_REACTORS
330
2DD5
102
}
330
2DD5
100
AcDbMLeaderStyle
170
     2
171
     1
172
     0
 90
        2
 40
0.0
 41
0.0
173
     1
 91
-1056964608
340
12
 92
       -2
290
     1
 42
0.09
291
     1
 43
0.36
  3
Standard
 44
0.18
300

342
F
174
     1
178
     6
175
     1
176
     0
 93
-1056964608
 45
0.18
292
     0
297
     0
 46
0.18
 94
-1056964608
 47
1.0
 49
1.0
140
1.0
293
     1
141
0.0
294
     1
177
     0
142
1.0
295
     0
296
     0
143
0.125
1001
ACAD_MLEADERVER
1070
     2
  0
MLINESTYLE
  5
1C
102
{ACAD_REACTORS
330
1B
102
}
330
1B
100
AcDbMlineStyle
  2
STANDARD
 70
     0
  3

 62
   256
 51
90.0
 52
90.0
 71
     2
 49
0.5
 62
   256
  6
BYLAYER
 49
-0.5
 62
   256
  6
BYLAYER
  0
ACDBPLACEHOLDER
  5
2D8D
102
{ACAD_REACTORS
330
2D8C
102
}
330
2D8C
  0
SCALE
  5
2DC4
102
{ACAD_REACTORS
330
2DC3
102
}
330
2DC3
100
AcDbScale
 70
     0
300
1:1
140
1.0
141
1.0
290
     1
  0
SCALE
  5
2DC5
102
{ACAD_REACTORS
330
2DC3
102
}
330
2DC3
100
AcDbScale
 70
     0
300
1/128" = 1'-0"
140
0.0078125
141
12.0
290
     0
  0
SCALE
  5
2DC6
102
{ACAD_REACTORS
330
2DC3
102
}
330
2DC3
100
AcDbScale
 70
     0
300
1/64" = 1'-0"
140
0.015625
141
12.0
290
     0
  0
SCALE
  5
2DC7
102
{ACAD_REACTORS
330
2DC3
102
}
330
2DC3
100
AcDbScale
 70
     0
300
1/32" = 1'-0"
140
0.03125
141
12.0
290
     0
  0
SCALE
  5
2DC8
102
{ACAD_REACTORS
330
2DC3
102
}
330
2DC3
100
AcDbScale
 70
     0
300
1/16" = 1'-0"
140
0.0625
141
12.0
290
     0
  0
SCALE
  5
2DC9
102
{ACAD_REACTORS
330
2DC3
102
}
330
2DC3
100
AcDbScale
 70
     0
300
3/32" = 1'-0"
140
0.09375
141
12.0
290
     0
  0
SCALE
  5
2DCA
102
{ACAD_REACTORS
330
2DC3
102
}
330
2DC3
100
AcDbScale
 70
     0
300
1/8" = 1'-0"
140
0.125
141
12.0
290
     0
  0
SCALE
  5
2DCB
102
{ACAD_REACTORS
330
2DC3
102
}
330
2DC3
100
AcDbScale
 70
     0
300
3/16" = 1'-0"
140
0.1875
141
12.0
290
     0
  0
SCALE
  5
2DCC
102
{ACAD_REACTORS
330
2DC3
102
}
330
2DC3
100
AcDbScale
 70
     0
300
1/4" = 1'-0"
140
0.25
141
12.0
290
     0
  0
SCALE
  5
2DCD
102
{ACAD_REACTORS
330
2DC3
102
}
330
2DC3
100
AcDbScale
 70
     0
300
3/8" = 1'-0"
140
0.375
141
12.0
290
     0
  0
SCALE
  5
2DCE
102
{ACAD_REACTORS
330
2DC3
102
}
330
2DC3
100
AcDbScale
 70
     0
300
1/2" = 1'-0"
140
0.5
141
12.0
290
     0
  0
SCALE
  5
2DCF
102
{ACAD_REACTORS
330
2DC3
102
}
330
2DC3
100
AcDbScale
 70
     0
300
3/4" = 1'-0"
140
0.75
141
12.0
290
     0
  0
SCALE
  5
2DD0
102
{ACAD_REACTORS
330
2DC3
102
}
330
2DC3
100
AcDbScale
 70
     0
300
1" = 1'-0"
140
1.0
141
12.0
290
     0
  0
SCALE
  5
2DD1
102
{ACAD_REACTORS
330
2DC3
102
}
330
2DC3
100
AcDbScale
 70
     0
300
1-1/2" = 1'-0"
140
1.5
141
12.0
290
     0
  0
SCALE
  5
2DD2
102
{ACAD_REACTORS
330
2DC3
102
}
330
2DC3
100
AcDbScale
 70
     0
300
3" = 1'-0"
140
3.0
141
12.0
290
     0
  0
SCALE
  5
2DD3
102
{ACAD_REACTORS
330
2DC3
102
}
330
2DC3
100
AcDbScale
 70
     0
300
6" = 1'-0"
140
6.0
141
12.0
290
     0
  0
SCALE
  5
2DD4
102
{ACAD_REACTORS
330
2DC3
102
}
330
2DC3
100
AcDbScale
 70
     0
300
1'-0" = 1'-0"
140
12.0
141
12.0
290
     0
  0
ACDBSECTIONVIEWSTYLE
  5
2DD8
102
{ACAD_XDICTIONARY
360
2E32
102
}
102
{ACAD_REACTORS
330
2DD7
102
}
330
2DD7
100
AcDbModelDocViewStyle
 70
     0
  3
Imperial24
290
     0
100
AcDbSectionViewStyle
 70
     0
 71
     0
 90
       78
 71
     1
340
F
 40
0.24
340
0
340
0
 40
0.24
300
I, O, Q, S, X, Z
 40
0.48
 90
        3
 40
0.18
 90
        1
 71
     2
340
14
 90
       25
340
14
 90
       50
 40
0.24
 40
0.0
 40
0.24
 71
     3
340
F
 40
0.24
 90
        1
 40
0.75
 90
        1
300
%<\AcVar ViewType \f "%tc1">% %<\AcVar ViewSectionStartId>%-%<\AcVar ViewSectionEndId>%\PSCALE %<\AcVar ViewScale \f "%sn">%
 71
     4
300
ANSI31
 40
1.0
 90
        0
290
     0
290
     0
 90
        6
 40
0.0
 40
1.570796326794896
 40
0.2617993877991494
 40
1.308996938995747
 40
-0.2617993877991494
 40
1.832595714594046
  0
TABLESTYLE
  5
2DC2
102
{ACAD_XDICTIONARY
360
2DF9
102
}
102
{ACAD_REACTORS
330
2DC1
102
}
330
2DC1
100
AcDbTableStyle
  3
Standard
 70
     0
 71
     0
 40
0.06
 41
0.06
280
     0
281
     0
  7
STANDARD
140
0.18
170
     2
 62
     0
 63
     7
283
     0
274
    -2
284
     1
 64
     0
275
    -2
285
     1
 65
     0
276
    -2
286
     1
 66
     0
277
    -2
287
     1
 67
     0
278
    -2
288
     1
 68
     0
279
    -2
289
     1
 69
     0
  7
STANDARD
140
0.25
170
     5
 62
     0
 63
     7
283
     0
274
    -2
284
     1
 64
     0
275
    -2
285
     1
 65
     0
276
    -2
286
     1
 66
     0
277
    -2
287
     1
 67
     0
278
    -2
288
     1
 68
     0
279
    -2
289
     1
 69
     0
  7
STANDARD
140
0.18
170
     5
 62
     0
 63
     7
283
     0
274
    -2
284
     1
 64
     0
275
    -2
285
     1
 65
     0
276
    -2
286
     1
 66
     0
277
    -2
287
     1
 67
     0
278
    -2
288
     1
 68
     0
279
    -2
289
     1
 69
     0
  0
VISUALSTYLE
  5
2DAD
102
{ACAD_XDICTIONARY
360
2E0A
102
}
102
{ACAD_REACTORS
330
2DA7
102
}
330
2DA7
100
AcDbVisualStyle
  2
2dWireframe
 70
     4
 71
     0
 72
     2
 73
     0
 90
        0
 40
-0.6
 41
-30.0
 62
     5
 63
     7
 74
     1
 91
        4
 64
     7
 65
   257
 75
     1
175
     1
 42
1.0
 92
        0
 66
   257
 43
1.0
 76
     1
 77
     6
 78
     2
 67
     7
 79
     5
170
     0
171
     0
290
     0
174
     0
 93
        1
 44
0.0
173
     0
291
     0
 45
0.0
1001
ACAD
1000
AcDbSavedByObjectVersion
1070
     0
  0
VISUALSTYLE
  5
2DAC
102
{ACAD_XDICTIONARY
360
2E08
102
}
102
{ACAD_REACTORS
330
2DA7
102
}
330
2DA7
100
AcDbVisualStyle
  2
Basic
 70
     7
 71
     1
 72
     0
 73
     1
 90
        0
 40
-0.6
 41
-30.0
 62
     5
 63
     7
 74
     0
 91
        4
 64
     7
 65
   257
 75
     1
175
     1
 42
1.0
 92
        8
 66
     7
 43
1.0
 76
     1
 77
     6
 78
     2
 67
     7
 79
     5
170
     0
171
     0
290
     0
174
     0
 93
        1
 44
0.0
173
     0
291
     1
 45
0.0
1001
ACAD
1000
AcDbSavedByObjectVersion
1070
     0
  0
VISUALSTYLE
  5
2DB3
102
{ACAD_XDICTIONARY
360
2E16
102
}
102
{ACAD_REACTORS
330
2DA7
102
}
330
2DA7
100
AcDbVisualStyle
  2
Brighten
 70
    12
 71
     2
 72
     2
 73
     0
 90
        0
 40
-0.6
 41
-30.0
 62
     5
 63
     7
 74
     1
 91
        4
 64
     7
 65
   257
 75
     1
175
     1
 42
1.0
 92
        8
 66
     7
 43
1.0
 76
     1
 77
     6
 78
     2
 67
     7
 79
     5
170
     0
171
     0
290
     0
174
     0
 93
        1
 44
50.0
173
     0
291
     1
 45
0.0
1001
ACAD
1000
AcDbSavedByObjectVersion
1070
     0
  0
VISUALSTYLE
  5
2DB7
102
{ACAD_XDICTIONARY
360
2E1E
102
}
102
{ACAD_REACTORS
330
2DA7
102
}
330
2DA7
100
AcDbVisualStyle
  2
ColorChange
 70
    16
 71
     2
 72
     2
 73
     3
 90
        0
 40
-0.6
 41
-30.0
 62
     5
 63
     8
 74
     1
 91
        4
 64
     7
 65
   257
 75
     1
175
     1
 42
1.0
 92
        8
 66
     8
 43
1.0
 76
     1
 77
     6
 78
     2
 67
     7
 79
     5
170
     0
171
     0
290
     0
174
     0
 93
        1
 44
0.0
173
     0
291
     1
 45
0.0
1001
ACAD
1000
AcDbSavedByObjectVersion
1070
     0
  0
VISUALSTYLE
  5
2DB0
102
{ACAD_XDICTIONARY
360
2E10
102
}
102
{ACAD_REACTORS
330
2DA7
102
}
330
2DA7
100
AcDbVisualStyle
  2
Conceptual
 70
     9
 71
     3
 72
     2
 73
     0
 90
        0
 40
-0.6
 41
-30.0
 62
     5
 63
     7
 74
     2
 91
        2
 64
     7
 65
   257
 75
     1
175
     1
 42
179.0
 92
        8
 66
     7
 43
1.0
 76
     1
 77
     6
 78
     2
 67
     7
 79
     3
170
     0
171
     0
290
     0
174
     0
 93
        1
 44
0.0
173
     0
291
     0
 45
0.0
1001
ACAD
1000
AcDbSavedByObjectVersion
1070
     0
  0
VISUALSTYLE
  5
2DB2
102
{ACAD_XDICTIONARY
360
2E14
102
}
102
{ACAD_REACTORS
330
2DA7
102
}
330
2DA7
100
AcDbVisualStyle
  2
Dim
 70
    11
 71
     2
 72
     2
 73
     0
 90
        0
 40
-0.6
 41
-30.0
 62
     5
 63
     7
 74
     1
 91
        4
 64
     7
 65
   257
 75
     1
175
     1
 42
1.0
 92
        8
 66
     7
 43
1.0
 76
     1
 77
     6
 78
     2
 67
     7
 79
     5
170
     0
171
     0
290
     0
174
     0
 93
        1
 44
-50.0
173
     0
291
     1
 45
0.0
1001
ACAD
1000
AcDbSavedByObjectVersion
1070
     0
  0
VISUALSTYLE
  5
2DBF
102
{ACAD_XDICTIONARY
360
2E2E
102
}
102
{ACAD_REACTORS
330
2DA7
102
}
330
2DA7
100
AcDbVisualStyle
  2
EdgeColorOff
 70
    22
 71
     2
 72
     2
 73
     0
 90
        0
 40
-0.6
 41
-30.0
 62
     5
 63
     7
 74
     1
 91
        4
 64
     7
 65
   257
 75
     1
175
     1
 42
1.0
 92
        8
 66
     7
 43
1.0
 76
     1
 77
     6
 78
     2
 67
     7
 79
     5
170
     0
171
     0
290
     0
174
     0
 93
        1
 44
0.0
173
     0
291
     1
 45
0.0
1001
ACAD
1000
AcDbSavedByObjectVersion
1070
     0
  0
VISUALSTYLE
  5
2DB6
102
{ACAD_XDICTIONARY
360
2E1C
102
}
102
{ACAD_REACTORS
330
2DA7
102
}
330
2DA7
100
AcDbVisualStyle
  2
Facepattern
 70
    15
 71
     2
 72
     2
 73
     0
 90
        0
 40
-0.6
 41
-30.0
 62
     5
 63
     7
 74
     1
 91
        4
 64
     7
 65
   257
 75
     1
175
     1
 42
1.0
 92
        8
 66
     7
 43
1.0
 76
     1
 77
     6
 78
     2
 67
     7
 79
     5
170
     0
171
     0
290
     0
174
     0
 93
        1
 44
0.0
173
     0
291
     1
 45
0.0
1001
ACAD
1000
AcDbSavedByObjectVersion
1070
     0
  0
VISUALSTYLE
  5
2DA8
102
{ACAD_XDICTIONARY
360
2E00
102
}
102
{ACAD_REACTORS
330
2DA7
102
}
330
2DA7
100
AcDbVisualStyle
  2
Flat
 70
     0
 71
     2
 72
     1
 73
     1
 90
        2
 40
-0.6
 41
30.0
 62
     5
 63
     7
 74
     0
 91
        0
 64
     7
 65
   257
 75
     1
175
     1
 42
1.0
 92
        8
 66
     7
 43
1.0
 76
     1
 77
     6
 78
     2
 67
     7
 79
     5
170
     0
171
     0
290
     0
174
     0
 93
       13
 44
0.0
173
     0
291
     1
 45
0.0
1001
ACAD
1000
AcDbSavedByObjectVersion
1070
     0
  0
VISUALSTYLE
  5
2DA9
102
{ACAD_XDICTIONARY
360
2E02
102
}
102
{ACAD_REACTORS
330
2DA7
102
}
330
2DA7
100
AcDbVisualStyle
  2
FlatWithEdges
 70
     1
 71
     2
 72
     1
 73
     1
 90
        2
 40
-0.6
 41
30.0
 62
     5
 63
     7
 74
     1
 91
        0
 64
     7
 65
   257
 75
     1
175
     1
 42
1.0
 92
        0
 66
   257
 43
1.0
 76
     1
 77
     6
 78
     2
 67
     7
 79
     5
170
     0
171
     0
290
     0
174
     0
 93
       13
 44
0.0
173
     0
291
     1
 45
0.0
1001
ACAD
1000
AcDbSavedByObjectVersion
1070
     0
  0
VISUALSTYLE
  5
2DAA
102
{ACAD_XDICTIONARY
360
2E04
102
}
102
{ACAD_REACTORS
330
2DA7
102
}
330
2DA7
100
AcDbVisualStyle
  2
Gouraud
 70
     2
 71
     2
 72
     2
 73
     1
 90
        2
 40
-0.6
 41
30.0
 62
     5
 63
     7
 74
     0
 91
        0
 64
     7
 65
   257
 75
     1
175
     1
 42
1.0
 92
        0
 66
     7
 43
1.0
 76
     1
 77
     6
 78
     2
 67
     7
 79
     5
170
     0
171
     0
290
     0
174
     0
 93
       13
 44
0.0
173
     0
291
     1
 45
0.0
1001
ACAD
1000
AcDbSavedByObjectVersion
1070
     0
  0
VISUALSTYLE
  5
2DAB
102
{ACAD_XDICTIONARY
360
2E06
102
}
102
{ACAD_REACTORS
330
2DA7
102
}
330
2DA7
100
AcDbVisualStyle
  2
GouraudWithEdges
 70
     3
 71
     2
 72
     2
 73
     1
 90
        2
 40
-0.6
 41
30.0
 62
     5
 63
     7
 74
     1
 91
        0
 64
     7
 65
   257
 75
     1
175
     1
 42
1.0
 92
        0
 66
   257
 43
1.0
 76
     1
 77
     6
 78
     2
 67
     7
 79
     5
170
     0
171
     0
290
     0
174
     0
 93
       13
 44
0.0
173
     0
291
     1
 45
0.0
1001
ACAD
1000
AcDbSavedByObjectVersion
1070
     0
  0
VISUALSTYLE
  5
2DAF
102
{ACAD_XDICTIONARY
360
2E0E
102
}
102
{ACAD_REACTORS
330
2DA7
102
}
330
2DA7
100
AcDbVisualStyle
  2
Hidden
 70
     6
 71
     1
 72
     2
 73
     2
 90
        0
 40
-0.6
 41
-30.0
 62
     5
 63
     7
 74
     2
 91
        2
 64
     7
 65
   257
 75
     2
175
     1
 42
40.0
 92
        0
 66
   257
 43
1.0
 76
     1
 77
     6
 78
     2
 67
     7
 79
     3
170
     0
171
     0
290
     0
174
     0
 93
        1
 44
0.0
173
     0
291
     0
 45
0.0
1001
ACAD
1000
AcDbSavedByObjectVersion
1070
     0
  0
VISUALSTYLE
  5
2DBD
102
{ACAD_XDICTIONARY
360
2E2A
102
}
102
{ACAD_REACTORS
330
2DA7
102
}
330
2DA7
100
AcDbVisualStyle
  2
JitterOff
 70
    20
 71
     2
 72
     2
 73
     0
 90
        0
 40
-0.6
 41
-30.0
 62
     5
 63
     7
 74
     1
 91
        4
 64
     7
 65
   257
 75
     1
175
     1
 42
1.0
 92
       10
 66
     7
 43
1.0
 76
     1
 77
     6
 78
     2
 67
     7
 79
     5
170
     0
171
     0
290
     0
174
     0
 93
        1
 44
0.0
173
     0
291
     1
 45
0.0
1001
ACAD
1000
AcDbSavedByObjectVersion
1070
     0
  0
VISUALSTYLE
  5
2DB5
102
{ACAD_XDICTIONARY
360
2E1A
102
}
102
{ACAD_REACTORS
330
2DA7
102
}
330
2DA7
100
AcDbVisualStyle
  2
Linepattern
 70
    14
 71
     2
 72
     2
 73
     0
 90
        0
 40
-0.6
 41
-30.0
 62
     5
 63
     7
 74
     1
 91
        4
 64
     7
 65
   257
 75
     7
175
     7
 42
1.0
 92
        8
 66
     7
 43
1.0
 76
     1
 77
     6
 78
     2
 67
     7
 79
     5
170
     0
171
     0
290
     0
174
     0
 93
        1
 44
0.0
173
     0
291
     1
 45
0.0
1001
ACAD
1000
AcDbSavedByObjectVersion
1070
     0
  0
VISUALSTYLE
  5
2DBE
102
{ACAD_XDICTIONARY
360
2E2C
102
}
102
{ACAD_REACTORS
330
2DA7
102
}
330
2DA7
100
AcDbVisualStyle
  2
OverhangOff
 70
    21
 71
     2
 72
     2
 73
     0
 90
        0
 40
-0.6
 41
-30.0
 62
     5
 63
     7
 74
     1
 91
        4
 64
     7
 65
   257
 75
     1
175
     1
 42
1.0
 92
        9
 66
     7
 43
1.0
 76
     1
 77
     6
 78
     2
 67
     7
 79
     5
170
     0
171
     0
290
     0
174
     0
 93
        1
 44
0.0
173
     0
291
     1
 45
0.0
1001
ACAD
1000
AcDbSavedByObjectVersion
1070
     0
  0
VISUALSTYLE
  5
2DB1
102
{ACAD_XDICTIONARY
360
2E12
102
}
102
{ACAD_REACTORS
330
2DA7
102
}
330
2DA7
100
AcDbVisualStyle
  2
Realistic
 70
     8
 71
     2
 72
     3
 73
     0
 90
        2
 40
-0.6
 41
30.0
 62
     5
 63
     7
 74
     0
 91
        0
 64
     7
 65
   257
 75
     1
175
     1
 42
1.0
 92
        8
 66
   257
 43
1.0
 76
     1
 77
     6
 78
     2
 67
     7
 79
     3
170
     0
171
     0
290
     0
174
     0
 93
       13
 44
0.0
173
     0
291
     0
 45
0.0
1001
ACAD
1000
AcDbSavedByObjectVersion
1070
     0
  0
VISUALSTYLE
  5
2DBC
102
{ACAD_XDICTIONARY
360
2E28
102
}
102
{ACAD_REACTORS
330
2DA7
102
}
330
2DA7
100
AcDbVisualStyle
  2
Shaded
 70
    27
 71
     2
 72
     2
 73
     1
 90
        2
 40
-0.6
 41
30.0
 62
     5
 63
     7
 74
     0
 91
        4
 64
     7
 65
   257
 75
     1
175
     1
 42
1.0
 92
        8
 66
   257
 43
1.0
 76
     1
 77
     6
 78
     2
 67
     8
 79
     3
170
     0
171
     0
290
     0
174
     0
 93
        5
 44
0.0
173
     0
291
     0
 45
0.0
1001
ACAD
1000
AcDbSavedByObjectVersion
1070
     0
  0
VISUALSTYLE
  5
2DBB
102
{ACAD_XDICTIONARY
360
2E26
102
}
102
{ACAD_REACTORS
330
2DA7
102
}
330
2DA7
100
AcDbVisualStyle
  2
Shaded with edges
 70
    26
 71
     2
 72
     2
 73
     1
 90
        2
 40
-0.6
 41
30.0
 62
     5
 63
     7
 74
     1
 91
       10
 64
     7
 65
   257
 75
     2
175
     1
 42
1.0
 92
        8
 66
   257
 43
1.0
 76
     1
 77
     6
 78
     2
 67
     7
 79
     3
170
     0
171
     0
290
     0
174
     0
 93
        5
 44
0.0
173
     0
291
     0
 45
0.0
1001
ACAD
1000
AcDbSavedByObjectVersion
1070
     0
  0
VISUALSTYLE
  5
2DB8
102
{ACAD_XDICTIONARY
360
2E20
102
}
102
{ACAD_REACTORS
330
2DA7
102
}
330
2DA7
100
AcDbVisualStyle
  2
Shades of Gray
 70
    23
 71
     2
 72
     2
 73
     3
 90
        0
 40
-0.6
 41
-30.0
 62
     5
 63
     7
 74
     2
 91
        2
 64
     7
 65
     7
 75
     1
175
     1
 42
40.0
 92
        8
 66
     7
 43
1.0
 76
     1
 77
     6
 78
     2
 67
     7
 79
     3
170
     0
171
     0
290
     0
174
     0
 93
        1
 44
0.0
173
     0
291
     0
 45
0.0
1001
ACAD
1000
AcDbSavedByObjectVersion
1070
     0
  0
VISUALSTYLE
  5
2DB9
102
{ACAD_XDICTIONARY
360
2E22
102
}
102
{ACAD_REACTORS
330
2DA7
102
}
330
2DA7
100
AcDbVisualStyle
  2
Sketchy
 70
    24
 71
     1
 72
     2
 73
     2
 90
        0
 40
-0.6
 41
-30.0
 62
     5
 63
     7
 74
     2
 91
        2
 64
     7
 65
     7
 75
     1
175
     1
 42
40.0
 92
       11
 66
     7
 43
1.0
 76
     1
 77
     6
 78
     2
 67
     7
 79
     6
170
     0
171
     0
290
     0
174
     0
 93
        1
 44
0.0
173
     0
291
     0
 45
0.0
1001
ACAD
1000
AcDbSavedByObjectVersion
1070
     0
  0
VISUALSTYLE
  5
2DB4
102
{ACAD_XDICTIONARY
360
2E18
102
}
102
{ACAD_REACTORS
330
2DA7
102
}
330
2DA7
100
AcDbVisualStyle
  2
Thicken
 70
    13
 71
     2
 72
     2
 73
     0
 90
        0
 40
-0.6
 41
-30.0
 62
     5
 63
     7
 74
     1
 91
        4
 64
     7
 65
   257
 75
     1
175
     1
 42
1.0
 92
       12
 66
     7
 43
1.0
 76
     1
 77
     6
 78
     2
 67
     7
 79
     5
170
     0
171
     0
290
     0
174
     0
 93
        1
 44
0.0
173
     0
291
     1
 45
0.0
1001
ACAD
1000
AcDbSavedByObjectVersion
1070
     0
  0
VISUALSTYLE
  5
2DAE
102
{ACAD_XDICTIONARY
360
2E0C
102
}
102
{ACAD_REACTORS
330
2DA7
102
}
330
2DA7
100
AcDbVisualStyle
  2
Wireframe
 70
     5
 71
     0
 72
     2
 73
     0
 90
        0
 40
-0.6
 41
-30.0
 62
     5
 63
     7
 74
     1
 91
        4
 64
     7
 65
   257
 75
     1
175
     1
 42
1.0
 92
        0
 66
   257
 43
1.0
 76
     1
 77
     6
 78
     2
 67
     7
 79
     3
170
     0
171
     0
290
     0
174
     0
 93
        1
 44
0.0
173
     0
291
     0
 45
0.0
1001
ACAD
1000
AcDbSavedByObjectVersion
1070
     0
  0
VISUALSTYLE
  5
2DBA
102
{ACAD_XDICTIONARY
360
2E24
102
}
102
{ACAD_REACTORS
330
2DA7
102
}
330
2DA7
100
AcDbVisualStyle
  2
X-Ray
 70
    25
 71
     2
 72
     2
 73
     1
 90
        1
 40
0.5
 41
-30.0
 62
     5
 63
     7
 74
     1
 91
        0
 64
     7
 65
   257
 75
     1
175
     1
 42
1.0
 92
        8
 66
     7
 43
1.0
 76
     1
 77
     6
 78
     2
 67
     7
 79
     3
170
     0
171
     0
290
     0
174
     0
 93
       13
 44
0.0
173
     0
291
     0
 45
0.0
1001
ACAD
1000
AcDbSavedByObjectVersion
1070
     0
  0
DICTIONARYVAR
  5
2DF3
102
{ACAD_REACTORS
330
2DEE
102
}
330
2DEE
100
DictionaryVariables
280
     0
  1
1:1
  0
DICTIONARYVAR
  5
2DF0
102
{ACAD_REACTORS
330
2DEE
102
}
330
2DEE
100
DictionaryVariables
280
     0
  1
STANDARD
  0
DICTIONARYVAR
  5
2DEF
102
{ACAD_REACTORS
330
2DEE
102
}
330
2DEE
100
DictionaryVariables
280
     0
  1
STANDARD
  0
DICTIONARYVAR
  5
2DF1
102
{ACAD_REACTORS
330
2DEE
102
}
330
2DEE
100
DictionaryVariables
280
     0
  1
Imperial24
  0
DICTIONARYVAR
  5
2DF2
102
{ACAD_REACTORS
330
2DEE
102
}
330
2DEE
100
DictionaryVariables
280
     0
  1
Imperial24
  0
DICTIONARYVAR
  5
2DF6
102
{ACAD_REACTORS
330
2DEE
102
}
330
2DEE
100
DictionaryVariables
280
     0
  1
1
  0
DICTIONARYVAR
  5
2DF5
102
{ACAD_REACTORS
330
2DEE
102
}
330
2DEE
100
DictionaryVariables
280
     0
  1
0
  0
DICTIONARYVAR
  5
2DF4
102
{ACAD_REACTORS
330
2DEE
102
}
330
2DEE
100
DictionaryVariables
280
     0
  1
127
  0
DICTIONARYVAR
  5
2DF7
102
{ACAD_REACTORS
330
2DEE
102
}
330
2DEE
100
DictionaryVariables
280
     0
  1
2
  0
DICTIONARY
  5
2E34
330
2DDA
100
AcDbDictionary
280
     1
281
     1
  3
ACAD_XREC_ROUNDTRIP
360
2E35
  0
DICTIONARY
  5
2E36
330
2DDB
100
AcDbDictionary
280
     1
281
     1
  3
ACAD_XREC_ROUNDTRIP
360
2E37
  0
DICTIONARY
  5
2E38
330
2DDC
100
AcDbDictionary
280
     1
281
     1
  3
ACAD_XREC_ROUNDTRIP
360
2E39
  0
DICTIONARY
  5
2D98
330
2D97
100
AcDbDictionary
280
     1
281
     1
  3
ACAD_XREC_ROUNDTRIP
360
2DFE
  3
BUMPTILE
360
2D9A
  3
DIFFUSETILE
360
2D99
  3
OPACITYTILE
360
2D9D
  3
REFLECTIONTILE
360
2D9C
  3
REFRACTIONTILE
360
2D9E
  3
SPECULARTILE
360
2D9B
  0
DICTIONARY
  5
2D90
330
2D8F
100
AcDbDictionary
280
     1
281
     1
  3
ACAD_XREC_ROUNDTRIP
360
2DFD
  3
BUMPTILE
360
2D92
  3
DIFFUSETILE
360
2D91
  3
OPACITYTILE
360
2D95
  3
REFLECTIONTILE
360
2D94
  3
REFRACTIONTILE
360
2D96
  3
SPECULARTILE
360
2D93
  0
DICTIONARY
  5
2DA0
330
2D9F
100
AcDbDictionary
280
     1
281
     1
  3
ACAD_XREC_ROUNDTRIP
360
2DFF
  3
BUMPTILE
360
2DA2
  3
DIFFUSETILE
360
2DA1
  3
OPACITYTILE
360
2DA5
  3
REFLECTIONTILE
360
2DA4
  3
REFRACTIONTILE
360
2DA6
  3
SPECULARTILE
360
2DA3
  0
DICTIONARY
  5
2E32
330
2DD8
100
AcDbDictionary
280
     1
281
     1
  3
ACAD_XREC_ROUNDTRIP
360
2E33
  0
DICTIONARY
  5
2DF9
330
2DC2
100
AcDbDictionary
280
     1
281
     1
  3
ACAD_ROUNDTRIP_2008_TABLESTYLE_CELLSTYLEMAP
360
2DFA
  3
ACAD_XREC_ROUNDTRIP
360
2E30
  0
DICTIONARY
  5
2E0A
330
2DAD
100
AcDbDictionary
280
     1
281
     1
  3
ACAD_XREC_ROUNDTRIP
360
2E0B
  0
DICTIONARY
  5
2E08
330
2DAC
100
AcDbDictionary
280
     1
281
     1
  3
ACAD_XREC_ROUNDTRIP
360
2E09
  0
DICTIONARY
  5
2E16
330
2DB3
100
AcDbDictionary
280
     1
281
     1
  3
ACAD_XREC_ROUNDTRIP
360
2E17
  0
DICTIONARY
  5
2E1E
330
2DB7
100
AcDbDictionary
280
     1
281
     1
  3
ACAD_XREC_ROUNDTRIP
360
2E1F
  0
DICTIONARY
  5
2E10
330
2DB0
100
AcDbDictionary
280
     1
281
     1
  3
ACAD_XREC_ROUNDTRIP
360
2E11
  0
DICTIONARY
  5
2E14
330
2DB2
100
AcDbDictionary
280
     1
281
     1
  3
ACAD_XREC_ROUNDTRIP
360
2E15
  0
DICTIONARY
  5
2E2E
330
2DBF
100
AcDbDictionary
280
     1
281
     1
  3
ACAD_XREC_ROUNDTRIP
360
2E2F
  0
DICTIONARY
  5
2E1C
330
2DB6
100
AcDbDictionary
280
     1
281
     1
  3
ACAD_XREC_ROUNDTRIP
360
2E1D
  0
DICTIONARY
  5
2E00
330
2DA8
100
AcDbDictionary
280
     1
281
     1
  3
ACAD_XREC_ROUNDTRIP
360
2E01
  0
DICTIONARY
  5
2E02
330
2DA9
100
AcDbDictionary
280
     1
281
     1
  3
ACAD_XREC_ROUNDTRIP
360
2E03
  0
DICTIONARY
  5
2E04
330
2DAA
100
AcDbDictionary
280
     1
281
     1
  3
ACAD_XREC_ROUNDTRIP
360
2E05
  0
DICTIONARY
  5
2E06
330
2DAB
100
AcDbDictionary
280
     1
281
     1
  3
ACAD_XREC_ROUNDTRIP
360
2E07
  0
DICTIONARY
  5
2E0E
330
2DAF
100
AcDbDictionary
280
     1
281
     1
  3
ACAD_XREC_ROUNDTRIP
360
2E0F
  0
DICTIONARY
  5
2E2A
330
2DBD
100
AcDbDictionary
280
     1
281
     1
  3
ACAD_XREC_ROUNDTRIP
360
2E2B
  0
DICTIONARY
  5
2E1A
330
2DB5
100
AcDbDictionary
280
     1
281
     1
  3
ACAD_XREC_ROUNDTRIP
360
2E1B
  0
DICTIONARY
  5
2E2C
330
2DBE
100
AcDbDictionary
280
     1
281
     1
  3
ACAD_XREC_ROUNDTRIP
360
2E2D
  0
DICTIONARY
  5
2E12
330
2DB1
100
AcDbDictionary
280
     1
281
     1
  3
ACAD_XREC_ROUNDTRIP
360
2E13
  0
DICTIONARY
  5
2E28
330
2DBC
100
AcDbDictionary
280
     1
281
     1
  3
ACAD_XREC_ROUNDTRIP
360
2E29
  0
DICTIONARY
  5
2E26
330
2DBB
100
AcDbDictionary
280
     1
281
     1
  3
ACAD_XREC_ROUNDTRIP
360
2E27
  0
DICTIONARY
  5
2E20
330
2DB8
100
AcDbDictionary
280
     1
281
     1
  3
ACAD_XREC_ROUNDTRIP
360
2E21
  0
DICTIONARY
  5
2E22
330
2DB9
100
AcDbDictionary
280
     1
281
     1
  3
ACAD_XREC_ROUNDTRIP
360
2E23
  0
DICTIONARY
  5
2E18
330
2DB4
100
AcDbDictionary
280
     1
281
     1
  3
ACAD_XREC_ROUNDTRIP
360
2E19
  0
DICTIONARY
  5
2E0C
330
2DAE
100
AcDbDictionary
280
     1
281
     1
  3
ACAD_XREC_ROUNDTRIP
360
2E0D
  0
DICTIONARY
  5
2E24
330
2DBA
100
AcDbDictionary
280
     1
281
     1
  3
ACAD_XREC_ROUNDTRIP
360
2E25
  0
XRECORD
  5
2E35
102
{ACAD_REACTORS
330
2E34
102
}
330
2E34
100
AcDbXrecord
280
     1
102
DISPLAYNAME
  1
Imperial24
102
FLAGS
 90
        0
  0
XRECORD
  5
2E37
102
{ACAD_REACTORS
330
2E36
102
}
330
2E36
100
AcDbXrecord
280
     1
102
SHADEPLOT
 70
     0
102
SHADEPLOTRESLEVEL
 70
     2
102
SHADEPLOTCUSTOMDPI
 70
   300
  0
XRECORD
  5
2E39
102
{ACAD_REACTORS
330
2E38
102
}
330
2E38
100
AcDbXrecord
280
     1
102
SHADEPLOT
 70
     0
102
SHADEPLOTRESLEVEL
 70
     2
102
SHADEPLOTCUSTOMDPI
 70
   300
  0
XRECORD
  5
2DFE
102
{ACAD_REACTORS
330
2D98
102
}
330
2D98
100
AcDbXrecord
280
     1
102
MATERIAL
148
0.0
149
0.0
149
0.0
 93
        0
 94
      127
282
     0
 72
     0
 77
     0
171
     0
175
     0
179
     0
273
     0
  0
XRECORD
  5
2D9A
102
{ACAD_REACTORS
330
2D98
102
}
330
2D98
100
AcDbXrecord
280
     1
270
     1
271
     1
  0
XRECORD
  5
2D99
102
{ACAD_REACTORS
330
2D98
102
}
330
2D98
100
AcDbXrecord
280
     1
270
     1
271
     1
  0
XRECORD
  5
2D9D
102
{ACAD_REACTORS
330
2D98
102
}
330
2D98
100
AcDbXrecord
280
     1
270
     1
271
     1
  0
XRECORD
  5
2D9C
102
{ACAD_REACTORS
330
2D98
102
}
330
2D98
100
AcDbXrecord
280
     1
270
     1
271
     1
  0
XRECORD
  5
2D9E
102
{ACAD_REACTORS
330
2D98
102
}
330
2D98
100
AcDbXrecord
280
     1
270
     1
271
     1
  0
XRECORD
  5
2D9B
102
{ACAD_REACTORS
330
2D98
102
}
330
2D98
100
AcDbXrecord
280
     1
270
     1
271
     1
  0
XRECORD
  5
2DFD
102
{ACAD_REACTORS
330
2D90
102
}
330
2D90
100
AcDbXrecord
280
     1
102
MATERIAL
148
0.0
149
0.0
149
0.0
 93
        0
 94
      127
282
     0
 72
     0
 77
     0
171
     0
175
     0
179
     0
273
     0
  0
XRECORD
  5
2D92
102
{ACAD_REACTORS
330
2D90
102
}
330
2D90
100
AcDbXrecord
280
     1
270
     1
271
     1
  0
XRECORD
  5
2D91
102
{ACAD_REACTORS
330
2D90
102
}
330
2D90
100
AcDbXrecord
280
     1
270
     1
271
     1
  0
XRECORD
  5
2D95
102
{ACAD_REACTORS
330
2D90
102
}
330
2D90
100
AcDbXrecord
280
     1
270
     1
271
     1
  0
XRECORD
  5
2D94
102
{ACAD_REACTORS
330
2D90
102
}
330
2D90
100
AcDbXrecord
280
     1
270
     1
271
     1
  0
XRECORD
  5
2D96
102
{ACAD_REACTORS
330
2D90
102
}
330
2D90
100
AcDbXrecord
280
     1
270
     1
271
     1
  0
XRECORD
  5
2D93
102
{ACAD_REACTORS
330
2D90
102
}
330
2D90
100
AcDbXrecord
280
     1
270
     1
271
     1
  0
XRECORD
  5
2DFF
102
{ACAD_REACTORS
330
2DA0
102
}
330
2DA0
100
AcDbXrecord
280
     1
102
MATERIAL
148
0.0
149
0.0
149
0.0
 93
        0
 94
      127
282
     0
 72
     0
 77
     0
171
     0
175
     0
179
     0
273
     0
  0
XRECORD
  5
2DA2
102
{ACAD_REACTORS
330
2DA0
102
}
330
2DA0
100
AcDbXrecord
280
     1
270
     1
271
     1
  0
XRECORD
  5
2DA1
102
{ACAD_REACTORS
330
2DA0
102
}
330
2DA0
100
AcDbXrecord
280
     1
270
     1
271
     1
  0
XRECORD
  5
2DA5
102
{ACAD_REACTORS
330
2DA0
102
}
330
2DA0
100
AcDbXrecord
280
     1
270
     1
271
     1
  0
XRECORD
  5
2DA4
102
{ACAD_REACTORS
330
2DA0
102
}
330
2DA0
100
AcDbXrecord
280
     1
270
     1
271
     1
  0
XRECORD
  5
2DA6
102
{ACAD_REACTORS
330
2DA0
102
}
330
2DA0
100
AcDbXrecord
280
     1
270
     1
271
     1
  0
XRECORD
  5
2DA3
102
{ACAD_REACTORS
330
2DA0
102
}
330
2DA0
100
AcDbXrecord
280
     1
270
     1
271
     1
  0
XRECORD
  5
2E33
102
{ACAD_REACTORS
330
2E32
102
}
330
2E32
100
AcDbXrecord
280
     1
102
DISPLAYNAME
  1
Imperial24
102
FLAGS
 90
        0
  0
CELLSTYLEMAP
  5
2DFA
102
{ACAD_REACTORS
330
2DF9
102
}
330
2DF9
100
AcDbCellStyleMap
 90
        3
300
CELLSTYLE
  1
TABLEFORMAT_BEGIN
 90
        5
170
     1
 91
        0
 92
    32768
 62
   257
 93
        1
300
CONTENTFORMAT
  1
CONTENTFORMAT_BEGIN
 90
        0
 91
        0
 92
      512
 93
        0
300

 40
0.0
140
1.0
 94
        5
 62
     0
340
F
144
0.25
309
CONTENTFORMAT_END
171
     0
 94
        0
309
TABLEFORMAT_END
  1
CELLSTYLE_BEGIN
 90
        1
 91
        1
300
_TITLE
309
CELLSTYLE_END
300
CELLSTYLE
  1
TABLEFORMAT_BEGIN
 90
        5
170
     1
 91
        0
 92
        0
 62
   257
 93
        1
300
CONTENTFORMAT
  1
CONTENTFORMAT_BEGIN
 90
        0
 91
        0
 92
      512
 93
        0
300

 40
0.0
140
1.0
 94
        5
 62
     0
340
F
144
0.18
309
CONTENTFORMAT_END
171
     0
 94
        0
309
TABLEFORMAT_END
  1
CELLSTYLE_BEGIN
 90
        2
 91
        1
300
_HEADER
309
CELLSTYLE_END
300
CELLSTYLE
  1
TABLEFORMAT_BEGIN
 90
        5
170
     1
 91
        0
 92
        0
 62
   257
 93
        1
300
CONTENTFORMAT
  1
CONTENTFORMAT_BEGIN
 90
        0
 91
        0
 92
      512
 93
        0
300

 40
0.0
140
1.0
 94
        2
 62
     0
340
F
144
0.18
309
CONTENTFORMAT_END
171
     0
 94
        0
309
TABLEFORMAT_END
  1
CELLSTYLE_BEGIN
 90
        3
 91
        2
300
_DATA
309
CELLSTYLE_END
  0
XRECORD
  5
2E30
102
{ACAD_REACTORS
330
2DF9
102
}
330
2DF9
100
AcDbXrecord
280
     1
102
ACAD_ROUNDTRIP_PRE2007_TABLESTYLE
 90
      512
 91
        0
  1

 92
      512
 93
        0
  2

 94
      512
 95
        0
  3

  0
XRECORD
  5
2E0B
102
{ACAD_REACTORS
330
2E0A
102
}
330
2E0A
100
AcDbXrecord
280
     1
102
RTVSPost2010Prop28
280
     1
102
RTVSPost2010PropOp28
 70
     1
102
RTVSPost2010Prop29
280
     1
102
RTVSPost2010PropOp29
 70
     1
102
RTVSPost2010Prop30
280
     0
102
RTVSPost2010PropOp30
 70
     1
102
RTVSPost2010Prop31
280
     0
102
RTVSPost2010PropOp31
 70
     1
102
RTVSPost2010Prop32
280
     0
102
RTVSPost2010PropOp32
 70
     1
102
RTVSPost2010Prop33
280
     0
102
RTVSPost2010PropOp33
 70
     1
102
RTVSPost2010Prop34
280
     0
102
RTVSPost2010PropOp34
 70
     1
102
RTVSPost2010Prop35
280
     0
102
RTVSPost2010PropOp35
 70
     1
102
RTVSPost2010Prop36
280
     0
102
RTVSPost2010PropOp36
 70
     1
102
RTVSPost2010Prop37
 90
       50
102
RTVSPost2010PropOp37
 70
     1
102
RTVSPost2010Prop38
140
0.0
102
RTVSPost2010PropOp38
 70
     1
102
RTVSPost2010Prop39
140
1.0
102
RTVSPost2010PropOp39
 70
     1
102
RTVSPost2010Prop40
 90
        0
102
RTVSPost2010PropOp40
 70
     1
102
RTVSPost2010Prop41ColorIndex
 90
       18
102
RTVSPost2010Prop41ColorRGB
 90
        0
102
RTVSPost2010PropOp41
 70
     1
102
RTVSPost2010Prop42
 90
       50
102
RTVSPost2010PropOp42
 70
     1
102
RTVSPost2010Prop43
 90
        3
102
RTVSPost2010PropOp43
 70
     1
102
RTVSPost2010Prop44ColorIndex
 90
        5
102
RTVSPost2010Prop44ColorRGB
 90
      255
102
RTVSPost2010PropOp44
 70
     1
102
RTVSPost2010Prop45
280
     0
102
RTVSPost2010PropOp45
 70
     1
102
RTVSPost2010Prop46
 90
       50
102
RTVSPost2010PropOp46
 70
     1
102
RTVSPost2010Prop47
 90
       50
102
RTVSPost2010PropOp47
 70
     1
102
RTVSPost2010Prop48
 90
       50
102
RTVSPost2010PropOp48
 70
     1
102
RTVSPost2010Prop49
280
     0
102
RTVSPost2010PropOp49
 70
     1
102
RTVSPost2010Prop50
 90
       50
102
RTVSPost2010PropOp50
 70
     1
102
RTVSPost2010Prop51ColorIndex
 90
      256
102
RTVSPost2010Prop51ColorRGB
 90
-16777216
102
RTVSPost2010PropOp51
 70
     0
102
RTVSPost2010Prop52
140
1.0
102
RTVSPost2010PropOp52
 70
     0
102
RTVSPost2010Prop53
 90
        2
102
RTVSPost2010PropOp53
 70
     1
102
RTVSPost2010Prop54
  1
strokes_ogs.tif
102
RTVSPost2010PropOp54
 70
     1
102
RTVSPost2010Prop55
280
     0
102
RTVSPost2010PropOp55
 70
     1
102
RTVSPost2010Prop56
140
1.0
102
RTVSPost2010PropOp56
 70
     1
102
RTVSPost2010Prop57
140
1.0
102
RTVSPost2010PropOp57
 70
     1
102
RTVSPropertyOp0
 70
     1
102
RTVSPropertyOp1
 70
     1
102
RTVSPropertyOp2
 70
     1
102
RTVSPropertyOp3
 70
     1
102
RTVSPropertyOp4
 70
     1
102
RTVSPropertyOp5
 70
     1
102
RTVSPropertyOp6
 70
     1
102
RTVSPropertyOp7
 70
     1
102
RTVSPropertyOp8
 70
     1
102
RTVSPropertyOp9
 70
     1
102
RTVSPropertyOp10
 70
     1
102
RTVSPropertyOp11
 70
     1
102
RTVSPropertyOp12
 70
     1
102
RTVSPropertyOp13
 70
     1
102
RTVSPropertyOp14
 70
     1
102
RTVSPropertyOp15
 70
     1
102
RTVSPropertyOp16
 70
     1
102
RTVSPropertyOp17
 70
     1
102
RTVSPropertyOp18
 70
     1
102
RTVSPropertyOp19
 70
     1
102
RTVSPropertyOp20
 70
     1
102
RTVSPropertyOp21
 70
     1
102
RTVSPropertyOp22
 70
     1
102
RTVSPropertyOp23
 70
     1
102
RTVSPropertyOp24
 70
     1
102
RTVSPropertyOp25
 70
     1
102
RTVSPropertyOp26
 70
     1
102
RTVSPropertyOp27
 70
     1
102
RTVSPropertyOp28
 70
     1
102
RTVSPropertyOp29
 70
     1
102
RTVSPropertyOp30
 70
     1
102
RTVSPropertyOp31
 70
     1
102
RTVSPropertyOp32
 70
     1
102
RTVSPropertyOp33
 70
     1
102
RTVSPropertyOp34
 70
     1
102
RTVSPropertyOp35
 70
     1
102
RTVSPropertyOp36
 70
     1
102
RTVSPropertyOp37
 70
     1
102
RTVSPropertyOp38
 70
     1
102
RTVSPropertyOp39
 70
     1
102
RTVSPropertyOp40
 70
     1
102
RTVSPropertyOp41
 70
     1
102
RTVSPropertyOp42
 70
     1
102
RTVSPropertyOp43
 70
     1
102
RTVSPropertyOp44
 70
     1
102
RTVSPropertyOp45
 70
     1
102
RTVSPropertyOp46
 70
     1
102
RTVSPropertyOp47
 70
     1
102
RTVSPropertyOp48
 70
     1
102
RTVSPropertyOp49
 70
     1
102
RTVSPropertyOp50
 70
     1
102
RTVSPropertyOp51
 70
     0
102
RTVSPropertyOp52
 70
     0
102
RTVSPropertyOp53
 70
     1
102
RTVSPropertyOp54
 70
     1
102
RTVSPropertyOp55
 70
     1
102
RTVSPropertyOp56
 70
     1
102
RTVSPropertyOp57
 70
     1
102
RTVSPropertyOp58
 70
     1
102
RTVSPropertyOp59
 70
     1
102
RTVSPropertyOp60
 70
     1
102
RTVSPropertyOp61
 70
     1
102
RTVSPropertyOp62
 70
     1
  0
XRECORD
  5
2E09
102
{ACAD_REACTORS
330
2E08
102
}
330
2E08
100
AcDbXrecord
280
     1
102
RTVSPost2010Prop28
280
     0
102
RTVSPost2010PropOp28
 70
     1
102
RTVSPost2010Prop29
280
     1
102
RTVSPost2010PropOp29
 70
     1
102
RTVSPost2010Prop30
280
     1
102
RTVSPost2010PropOp30
 70
     1
102
RTVSPost2010Prop31
280
     0
102
RTVSPost2010PropOp31
 70
     1
102
RTVSPost2010Prop32
280
     0
102
RTVSPost2010PropOp32
 70
     1
102
RTVSPost2010Prop33
280
     0
102
RTVSPost2010PropOp33
 70
     1
102
RTVSPost2010Prop34
280
     0
102
RTVSPost2010PropOp34
 70
     1
102
RTVSPost2010Prop35
280
     0
102
RTVSPost2010PropOp35
 70
     1
102
RTVSPost2010Prop36
280
     0
102
RTVSPost2010PropOp36
 70
     1
102
RTVSPost2010Prop37
 90
       50
102
RTVSPost2010PropOp37
 70
     1
102
RTVSPost2010Prop38
140
0.0
102
RTVSPost2010PropOp38
 70
     1
102
RTVSPost2010Prop39
140
1.0
102
RTVSPost2010PropOp39
 70
     1
102
RTVSPost2010Prop40
 90
        0
102
RTVSPost2010PropOp40
 70
     1
102
RTVSPost2010Prop41ColorIndex
 90
       18
102
RTVSPost2010Prop41ColorRGB
 90
        0
102
RTVSPost2010PropOp41
 70
     1
102
RTVSPost2010Prop42
 90
       50
102
RTVSPost2010PropOp42
 70
     1
102
RTVSPost2010Prop43
 90
        3
102
RTVSPost2010PropOp43
 70
     1
102
RTVSPost2010Prop44ColorIndex
 90
        5
102
RTVSPost2010Prop44ColorRGB
 90
      255
102
RTVSPost2010PropOp44
 70
     1
102
RTVSPost2010Prop45
280
     0
102
RTVSPost2010PropOp45
 70
     1
102
RTVSPost2010Prop46
 90
       50
102
RTVSPost2010PropOp46
 70
     1
102
RTVSPost2010Prop47
 90
       50
102
RTVSPost2010PropOp47
 70
     1
102
RTVSPost2010Prop48
 90
       50
102
RTVSPost2010PropOp48
 70
     1
102
RTVSPost2010Prop49
280
     0
102
RTVSPost2010PropOp49
 70
     1
102
RTVSPost2010Prop50
 90
       50
102
RTVSPost2010PropOp50
 70
     1
102
RTVSPost2010Prop51ColorIndex
 90
      256
102
RTVSPost2010Prop51ColorRGB
 90
-16777216
102
RTVSPost2010PropOp51
 70
     0
102
RTVSPost2010Prop52
140
1.0
102
RTVSPost2010PropOp52
 70
     0
102
RTVSPost2010Prop53
 90
        2
102
RTVSPost2010PropOp53
 70
     1
102
RTVSPost2010Prop54
  1
strokes_ogs.tif
102
RTVSPost2010PropOp54
 70
     1
102
RTVSPost2010Prop55
280
     0
102
RTVSPost2010PropOp55
 70
     1
102
RTVSPost2010Prop56
140
1.0
102
RTVSPost2010PropOp56
 70
     1
102
RTVSPost2010Prop57
140
1.0
102
RTVSPost2010PropOp57
 70
     1
102
RTVSPropertyOp0
 70
     1
102
RTVSPropertyOp1
 70
     1
102
RTVSPropertyOp2
 70
     1
102
RTVSPropertyOp3
 70
     1
102
RTVSPropertyOp4
 70
     1
102
RTVSPropertyOp5
 70
     1
102
RTVSPropertyOp6
 70
     1
102
RTVSPropertyOp7
 70
     1
102
RTVSPropertyOp8
 70
     1
102
RTVSPropertyOp9
 70
     1
102
RTVSPropertyOp10
 70
     1
102
RTVSPropertyOp11
 70
     1
102
RTVSPropertyOp12
 70
     1
102
RTVSPropertyOp13
 70
     1
102
RTVSPropertyOp14
 70
     1
102
RTVSPropertyOp15
 70
     1
102
RTVSPropertyOp16
 70
     1
102
RTVSPropertyOp17
 70
     1
102
RTVSPropertyOp18
 70
     1
102
RTVSPropertyOp19
 70
     1
102
RTVSPropertyOp20
 70
     1
102
RTVSPropertyOp21
 70
     1
102
RTVSPropertyOp22
 70
     1
102
RTVSPropertyOp23
 70
     1
102
RTVSPropertyOp24
 70
     1
102
RTVSPropertyOp25
 70
     1
102
RTVSPropertyOp26
 70
     1
102
RTVSPropertyOp27
 70
     1
102
RTVSPropertyOp28
 70
     1
102
RTVSPropertyOp29
 70
     1
102
RTVSPropertyOp30
 70
     1
102
RTVSPropertyOp31
 70
     1
102
RTVSPropertyOp32
 70
     1
102
RTVSPropertyOp33
 70
     1
102
RTVSPropertyOp34
 70
     1
102
RTVSPropertyOp35
 70
     1
102
RTVSPropertyOp36
 70
     1
102
RTVSPropertyOp37
 70
     1
102
RTVSPropertyOp38
 70
     1
102
RTVSPropertyOp39
 70
     1
102
RTVSPropertyOp40
 70
     1
102
RTVSPropertyOp41
 70
     1
102
RTVSPropertyOp42
 70
     1
102
RTVSPropertyOp43
 70
     1
102
RTVSPropertyOp44
 70
     1
102
RTVSPropertyOp45
 70
     1
102
RTVSPropertyOp46
 70
     1
102
RTVSPropertyOp47
 70
     1
102
RTVSPropertyOp48
 70
     1
102
RTVSPropertyOp49
 70
     1
102
RTVSPropertyOp50
 70
     1
102
RTVSPropertyOp51
 70
     0
102
RTVSPropertyOp52
 70
     0
102
RTVSPropertyOp53
 70
     1
102
RTVSPropertyOp54
 70
     1
102
RTVSPropertyOp55
 70
     1
102
RTVSPropertyOp56
 70
     1
102
RTVSPropertyOp57
 70
     1
102
RTVSPropertyOp58
 70
     1
102
RTVSPropertyOp59
 70
     1
102
RTVSPropertyOp60
 70
     1
102
RTVSPropertyOp61
 70
     1
102
RTVSPropertyOp62
 70
     1
  0
XRECORD
  5
2E17
102
{ACAD_REACTORS
330
2E16
102
}
330
2E16
100
AcDbXrecord
280
     1
102
RTVSPost2010Prop28
280
     0
102
RTVSPost2010PropOp28
 70
     1
102
RTVSPost2010Prop29
280
     1
102
RTVSPost2010PropOp29
 70
     1
102
RTVSPost2010Prop30
280
     1
102
RTVSPost2010PropOp30
 70
     1
102
RTVSPost2010Prop31
280
     0
102
RTVSPost2010PropOp31
 70
     1
102
RTVSPost2010Prop32
280
     0
102
RTVSPost2010PropOp32
 70
     1
102
RTVSPost2010Prop33
280
     0
102
RTVSPost2010PropOp33
 70
     1
102
RTVSPost2010Prop34
280
     0
102
RTVSPost2010PropOp34
 70
     1
102
RTVSPost2010Prop35
280
     0
102
RTVSPost2010PropOp35
 70
     1
102
RTVSPost2010Prop36
280
     0
102
RTVSPost2010PropOp36
 70
     1
102
RTVSPost2010Prop37
 90
       50
102
RTVSPost2010PropOp37
 70
     1
102
RTVSPost2010Prop38
140
0.0
102
RTVSPost2010PropOp38
 70
     1
102
RTVSPost2010Prop39
140
1.0
102
RTVSPost2010PropOp39
 70
     1
102
RTVSPost2010Prop40
 90
        0
102
RTVSPost2010PropOp40
 70
     1
102
RTVSPost2010Prop41ColorIndex
 90
       18
102
RTVSPost2010Prop41ColorRGB
 90
        0
102
RTVSPost2010PropOp41
 70
     1
102
RTVSPost2010Prop42
 90
       50
102
RTVSPost2010PropOp42
 70
     1
102
RTVSPost2010Prop43
 90
        3
102
RTVSPost2010PropOp43
 70
     1
102
RTVSPost2010Prop44ColorIndex
 90
        5
102
RTVSPost2010Prop44ColorRGB
 90
      255
102
RTVSPost2010PropOp44
 70
     1
102
RTVSPost2010Prop45
280
     0
102
RTVSPost2010PropOp45
 70
     1
102
RTVSPost2010Prop46
 90
       50
102
RTVSPost2010PropOp46
 70
     1
102
RTVSPost2010Prop47
 90
       50
102
RTVSPost2010PropOp47
 70
     1
102
RTVSPost2010Prop48
 90
       50
102
RTVSPost2010PropOp48
 70
     1
102
RTVSPost2010Prop49
280
     0
102
RTVSPost2010PropOp49
 70
     1
102
RTVSPost2010Prop50
 90
       50
102
RTVSPost2010PropOp50
 70
     1
102
RTVSPost2010Prop51ColorIndex
 90
      256
102
RTVSPost2010Prop51ColorRGB
 90
-16777216
102
RTVSPost2010PropOp51
 70
     0
102
RTVSPost2010Prop52
140
1.0
102
RTVSPost2010PropOp52
 70
     0
102
RTVSPost2010Prop53
 90
        2
102
RTVSPost2010PropOp53
 70
     1
102
RTVSPost2010Prop54
  1
strokes_ogs.tif
102
RTVSPost2010PropOp54
 70
     1
102
RTVSPost2010Prop55
280
     0
102
RTVSPost2010PropOp55
 70
     1
102
RTVSPost2010Prop56
140
1.0
102
RTVSPost2010PropOp56
 70
     1
102
RTVSPost2010Prop57
140
1.0
102
RTVSPost2010PropOp57
 70
     1
102
RTVSPropertyOp0
 70
     1
102
RTVSPropertyOp1
 70
     1
102
RTVSPropertyOp2
 70
     1
102
RTVSPropertyOp3
 70
     1
102
RTVSPropertyOp4
 70
     1
102
RTVSPropertyOp5
 70
     1
102
RTVSPropertyOp6
 70
     1
102
RTVSPropertyOp7
 70
     1
102
RTVSPropertyOp8
 70
     1
102
RTVSPropertyOp9
 70
     1
102
RTVSPropertyOp10
 70
     1
102
RTVSPropertyOp11
 70
     1
102
RTVSPropertyOp12
 70
     1
102
RTVSPropertyOp13
 70
     1
102
RTVSPropertyOp14
 70
     1
102
RTVSPropertyOp15
 70
     1
102
RTVSPropertyOp16
 70
     1
102
RTVSPropertyOp17
 70
     1
102
RTVSPropertyOp18
 70
     1
102
RTVSPropertyOp19
 70
     1
102
RTVSPropertyOp20
 70
     1
102
RTVSPropertyOp21
 70
     1
102
RTVSPropertyOp22
 70
     1
102
RTVSPropertyOp23
 70
     1
102
RTVSPropertyOp24
 70
     1
102
RTVSPropertyOp25
 70
     1
102
RTVSPropertyOp26
 70
     1
102
RTVSPropertyOp27
 70
     1
102
RTVSPropertyOp28
 70
     1
102
RTVSPropertyOp29
 70
     1
102
RTVSPropertyOp30
 70
     1
102
RTVSPropertyOp31
 70
     1
102
RTVSPropertyOp32
 70
     1
102
RTVSPropertyOp33
 70
     1
102
RTVSPropertyOp34
 70
     1
102
RTVSPropertyOp35
 70
     1
102
RTVSPropertyOp36
 70
     1
102
RTVSPropertyOp37
 70
     1
102
RTVSPropertyOp38
 70
     1
102
RTVSPropertyOp39
 70
     1
102
RTVSPropertyOp40
 70
     1
102
RTVSPropertyOp41
 70
     1
102
RTVSPropertyOp42
 70
     1
102
RTVSPropertyOp43
 70
     1
102
RTVSPropertyOp44
 70
     1
102
RTVSPropertyOp45
 70
     1
102
RTVSPropertyOp46
 70
     1
102
RTVSPropertyOp47
 70
     1
102
RTVSPropertyOp48
 70
     1
102
RTVSPropertyOp49
 70
     1
102
RTVSPropertyOp50
 70
     1
102
RTVSPropertyOp51
 70
     0
102
RTVSPropertyOp52
 70
     0
102
RTVSPropertyOp53
 70
     1
102
RTVSPropertyOp54
 70
     1
102
RTVSPropertyOp55
 70
     1
102
RTVSPropertyOp56
 70
     1
102
RTVSPropertyOp57
 70
     1
102
RTVSPropertyOp58
 70
     1
102
RTVSPropertyOp59
 70
     1
102
RTVSPropertyOp60
 70
     1
102
RTVSPropertyOp61
 70
     1
102
RTVSPropertyOp62
 70
     1
  0
XRECORD
  5
2E1F
102
{ACAD_REACTORS
330
2E1E
102
}
330
2E1E
100
AcDbXrecord
280
     1
102
RTVSPost2010Prop28
280
     0
102
RTVSPost2010PropOp28
 70
     1
102
RTVSPost2010Prop29
280
     1
102
RTVSPost2010PropOp29
 70
     1
102
RTVSPost2010Prop30
280
     1
102
RTVSPost2010PropOp30
 70
     1
102
RTVSPost2010Prop31
280
     0
102
RTVSPost2010PropOp31
 70
     1
102
RTVSPost2010Prop32
280
     0
102
RTVSPost2010PropOp32
 70
     1
102
RTVSPost2010Prop33
280
     0
102
RTVSPost2010PropOp33
 70
     1
102
RTVSPost2010Prop34
280
     0
102
RTVSPost2010PropOp34
 70
     1
102
RTVSPost2010Prop35
280
     0
102
RTVSPost2010PropOp35
 70
     1
102
RTVSPost2010Prop36
280
     0
102
RTVSPost2010PropOp36
 70
     1
102
RTVSPost2010Prop37
 90
       50
102
RTVSPost2010PropOp37
 70
     1
102
RTVSPost2010Prop38
140
0.0
102
RTVSPost2010PropOp38
 70
     1
102
RTVSPost2010Prop39
140
1.0
102
RTVSPost2010PropOp39
 70
     1
102
RTVSPost2010Prop40
 90
        0
102
RTVSPost2010PropOp40
 70
     1
102
RTVSPost2010Prop41ColorIndex
 90
       18
102
RTVSPost2010Prop41ColorRGB
 90
        0
102
RTVSPost2010PropOp41
 70
     1
102
RTVSPost2010Prop42
 90
       50
102
RTVSPost2010PropOp42
 70
     1
102
RTVSPost2010Prop43
 90
        3
102
RTVSPost2010PropOp43
 70
     1
102
RTVSPost2010Prop44ColorIndex
 90
        5
102
RTVSPost2010Prop44ColorRGB
 90
      255
102
RTVSPost2010PropOp44
 70
     1
102
RTVSPost2010Prop45
280
     0
102
RTVSPost2010PropOp45
 70
     1
102
RTVSPost2010Prop46
 90
       50
102
RTVSPost2010PropOp46
 70
     1
102
RTVSPost2010Prop47
 90
       50
102
RTVSPost2010PropOp47
 70
     1
102
RTVSPost2010Prop48
 90
       50
102
RTVSPost2010PropOp48
 70
     1
102
RTVSPost2010Prop49
280
     0
102
RTVSPost2010PropOp49
 70
     1
102
RTVSPost2010Prop50
 90
       50
102
RTVSPost2010PropOp50
 70
     1
102
RTVSPost2010Prop51ColorIndex
 90
      256
102
RTVSPost2010Prop51ColorRGB
 90
-16777216
102
RTVSPost2010PropOp51
 70
     0
102
RTVSPost2010Prop52
140
1.0
102
RTVSPost2010PropOp52
 70
     0
102
RTVSPost2010Prop53
 90
        2
102
RTVSPost2010PropOp53
 70
     1
102
RTVSPost2010Prop54
  1
strokes_ogs.tif
102
RTVSPost2010PropOp54
 70
     1
102
RTVSPost2010Prop55
280
     0
102
RTVSPost2010PropOp55
 70
     1
102
RTVSPost2010Prop56
140
1.0
102
RTVSPost2010PropOp56
 70
     1
102
RTVSPost2010Prop57
140
1.0
102
RTVSPost2010PropOp57
 70
     1
102
RTVSPropertyOp0
 70
     1
102
RTVSPropertyOp1
 70
     1
102
RTVSPropertyOp2
 70
     1
102
RTVSPropertyOp3
 70
     1
102
RTVSPropertyOp4
 70
     1
102
RTVSPropertyOp5
 70
     1
102
RTVSPropertyOp6
 70
     1
102
RTVSPropertyOp7
 70
     1
102
RTVSPropertyOp8
 70
     1
102
RTVSPropertyOp9
 70
     1
102
RTVSPropertyOp10
 70
     1
102
RTVSPropertyOp11
 70
     1
102
RTVSPropertyOp12
 70
     1
102
RTVSPropertyOp13
 70
     1
102
RTVSPropertyOp14
 70
     1
102
RTVSPropertyOp15
 70
     1
102
RTVSPropertyOp16
 70
     1
102
RTVSPropertyOp17
 70
     1
102
RTVSPropertyOp18
 70
     1
102
RTVSPropertyOp19
 70
     1
102
RTVSPropertyOp20
 70
     1
102
RTVSPropertyOp21
 70
     1
102
RTVSPropertyOp22
 70
     1
102
RTVSPropertyOp23
 70
     1
102
RTVSPropertyOp24
 70
     1
102
RTVSPropertyOp25
 70
     1
102
RTVSPropertyOp26
 70
     1
102
RTVSPropertyOp27
 70
     1
102
RTVSPropertyOp28
 70
     1
102
RTVSPropertyOp29
 70
     1
102
RTVSPropertyOp30
 70
     1
102
RTVSPropertyOp31
 70
     1
102
RTVSPropertyOp32
 70
     1
102
RTVSPropertyOp33
 70
     1
102
RTVSPropertyOp34
 70
     1
102
RTVSPropertyOp35
 70
     1
102
RTVSPropertyOp36
 70
     1
102
RTVSPropertyOp37
 70
     1
102
RTVSPropertyOp38
 70
     1
102
RTVSPropertyOp39
 70
     1
102
RTVSPropertyOp40
 70
     1
102
RTVSPropertyOp41
 70
     1
102
RTVSPropertyOp42
 70
     1
102
RTVSPropertyOp43
 70
     1
102
RTVSPropertyOp44
 70
     1
102
RTVSPropertyOp45
 70
     1
102
RTVSPropertyOp46
 70
     1
102
RTVSPropertyOp47
 70
     1
102
RTVSPropertyOp48
 70
     1
102
RTVSPropertyOp49
 70
     1
102
RTVSPropertyOp50
 70
     1
102
RTVSPropertyOp51
 70
     0
102
RTVSPropertyOp52
 70
     0
102
RTVSPropertyOp53
 70
     1
102
RTVSPropertyOp54
 70
     1
102
RTVSPropertyOp55
 70
     1
102
RTVSPropertyOp56
 70
     1
102
RTVSPropertyOp57
 70
     1
102
RTVSPropertyOp58
 70
     1
102
RTVSPropertyOp59
 70
     1
102
RTVSPropertyOp60
 70
     1
102
RTVSPropertyOp61
 70
     1
102
RTVSPropertyOp62
 70
     1
  0
XRECORD
  5
2E11
102
{ACAD_REACTORS
330
2E10
102
}
330
2E10
100
AcDbXrecord
280
     1
102
RTVSPost2010Prop28
280
     0
102
RTVSPost2010PropOp28
 70
     1
102
RTVSPost2010Prop29
280
     1
102
RTVSPost2010PropOp29
 70
     1
102
RTVSPost2010Prop30
280
     1
102
RTVSPost2010PropOp30
 70
     1
102
RTVSPost2010Prop31
280
     0
102
RTVSPost2010PropOp31
 70
     1
102
RTVSPost2010Prop32
280
     0
102
RTVSPost2010PropOp32
 70
     1
102
RTVSPost2010Prop33
280
     0
102
RTVSPost2010PropOp33
 70
     1
102
RTVSPost2010Prop34
280
     0
102
RTVSPost2010PropOp34
 70
     1
102
RTVSPost2010Prop35
280
     0
102
RTVSPost2010PropOp35
 70
     1
102
RTVSPost2010Prop36
280
     0
102
RTVSPost2010PropOp36
 70
     1
102
RTVSPost2010Prop37
 90
       50
102
RTVSPost2010PropOp37
 70
     1
102
RTVSPost2010Prop38
140
0.0
102
RTVSPost2010PropOp38
 70
     1
102
RTVSPost2010Prop39
140
1.0
102
RTVSPost2010PropOp39
 70
     1
102
RTVSPost2010Prop40
 90
        0
102
RTVSPost2010PropOp40
 70
     1
102
RTVSPost2010Prop41ColorIndex
 90
       18
102
RTVSPost2010Prop41ColorRGB
 90
        0
102
RTVSPost2010PropOp41
 70
     1
102
RTVSPost2010Prop42
 90
       50
102
RTVSPost2010PropOp42
 70
     1
102
RTVSPost2010Prop43
 90
        3
102
RTVSPost2010PropOp43
 70
     1
102
RTVSPost2010Prop44ColorIndex
 90
        5
102
RTVSPost2010Prop44ColorRGB
 90
      255
102
RTVSPost2010PropOp44
 70
     1
102
RTVSPost2010Prop45
280
     0
102
RTVSPost2010PropOp45
 70
     1
102
RTVSPost2010Prop46
 90
       50
102
RTVSPost2010PropOp46
 70
     1
102
RTVSPost2010Prop47
 90
       50
102
RTVSPost2010PropOp47
 70
     1
102
RTVSPost2010Prop48
 90
       50
102
RTVSPost2010PropOp48
 70
     1
102
RTVSPost2010Prop49
280
     0
102
RTVSPost2010PropOp49
 70
     1
102
RTVSPost2010Prop50
 90
       50
102
RTVSPost2010PropOp50
 70
     1
102
RTVSPost2010Prop51ColorIndex
 90
      256
102
RTVSPost2010Prop51ColorRGB
 90
-16777216
102
RTVSPost2010PropOp51
 70
     0
102
RTVSPost2010Prop52
140
1.0
102
RTVSPost2010PropOp52
 70
     0
102
RTVSPost2010Prop53
 90
        2
102
RTVSPost2010PropOp53
 70
     1
102
RTVSPost2010Prop54
  1
strokes_ogs.tif
102
RTVSPost2010PropOp54
 70
     1
102
RTVSPost2010Prop55
280
     0
102
RTVSPost2010PropOp55
 70
     1
102
RTVSPost2010Prop56
140
1.0
102
RTVSPost2010PropOp56
 70
     1
102
RTVSPost2010Prop57
140
1.0
102
RTVSPost2010PropOp57
 70
     1
102
RTVSPropertyOp0
 70
     1
102
RTVSPropertyOp1
 70
     1
102
RTVSPropertyOp2
 70
     1
102
RTVSPropertyOp3
 70
     1
102
RTVSPropertyOp4
 70
     1
102
RTVSPropertyOp5
 70
     1
102
RTVSPropertyOp6
 70
     1
102
RTVSPropertyOp7
 70
     1
102
RTVSPropertyOp8
 70
     1
102
RTVSPropertyOp9
 70
     1
102
RTVSPropertyOp10
 70
     1
102
RTVSPropertyOp11
 70
     1
102
RTVSPropertyOp12
 70
     1
102
RTVSPropertyOp13
 70
     1
102
RTVSPropertyOp14
 70
     1
102
RTVSPropertyOp15
 70
     1
102
RTVSPropertyOp16
 70
     1
102
RTVSPropertyOp17
 70
     1
102
RTVSPropertyOp18
 70
     1
102
RTVSPropertyOp19
 70
     1
102
RTVSPropertyOp20
 70
     1
102
RTVSPropertyOp21
 70
     1
102
RTVSPropertyOp22
 70
     1
102
RTVSPropertyOp23
 70
     1
102
RTVSPropertyOp24
 70
     1
102
RTVSPropertyOp25
 70
     1
102
RTVSPropertyOp26
 70
     1
102
RTVSPropertyOp27
 70
     1
102
RTVSPropertyOp28
 70
     1
102
RTVSPropertyOp29
 70
     1
102
RTVSPropertyOp30
 70
     1
102
RTVSPropertyOp31
 70
     1
102
RTVSPropertyOp32
 70
     1
102
RTVSPropertyOp33
 70
     1
102
RTVSPropertyOp34
 70
     1
102
RTVSPropertyOp35
 70
     1
102
RTVSPropertyOp36
 70
     1
102
RTVSPropertyOp37
 70
     1
102
RTVSPropertyOp38
 70
     1
102
RTVSPropertyOp39
 70
     1
102
RTVSPropertyOp40
 70
     1
102
RTVSPropertyOp41
 70
     1
102
RTVSPropertyOp42
 70
     1
102
RTVSPropertyOp43
 70
     1
102
RTVSPropertyOp44
 70
     1
102
RTVSPropertyOp45
 70
     1
102
RTVSPropertyOp46
 70
     1
102
RTVSPropertyOp47
 70
     1
102
RTVSPropertyOp48
 70
     1
102
RTVSPropertyOp49
 70
     1
102
RTVSPropertyOp50
 70
     1
102
RTVSPropertyOp51
 70
     0
102
RTVSPropertyOp52
 70
     0
102
RTVSPropertyOp53
 70
     1
102
RTVSPropertyOp54
 70
     1
102
RTVSPropertyOp55
 70
     1
102
RTVSPropertyOp56
 70
     1
102
RTVSPropertyOp57
 70
     1
102
RTVSPropertyOp58
 70
     1
102
RTVSPropertyOp59
 70
     1
102
RTVSPropertyOp60
 70
     1
102
RTVSPropertyOp61
 70
     1
102
RTVSPropertyOp62
 70
     1
  0
XRECORD
  5
2E15
102
{ACAD_REACTORS
330
2E14
102
}
330
2E14
100
AcDbXrecord
280
     1
102
RTVSPost2010Prop28
280
     0
102
RTVSPost2010PropOp28
 70
     1
102
RTVSPost2010Prop29
280
     1
102
RTVSPost2010PropOp29
 70
     1
102
RTVSPost2010Prop30
280
     1
102
RTVSPost2010PropOp30
 70
     1
102
RTVSPost2010Prop31
280
     0
102
RTVSPost2010PropOp31
 70
     1
102
RTVSPost2010Prop32
280
     0
102
RTVSPost2010PropOp32
 70
     1
102
RTVSPost2010Prop33
280
     0
102
RTVSPost2010PropOp33
 70
     1
102
RTVSPost2010Prop34
280
     0
102
RTVSPost2010PropOp34
 70
     1
102
RTVSPost2010Prop35
280
     0
102
RTVSPost2010PropOp35
 70
     1
102
RTVSPost2010Prop36
280
     0
102
RTVSPost2010PropOp36
 70
     1
102
RTVSPost2010Prop37
 90
       50
102
RTVSPost2010PropOp37
 70
     1
102
RTVSPost2010Prop38
140
0.0
102
RTVSPost2010PropOp38
 70
     1
102
RTVSPost2010Prop39
140
1.0
102
RTVSPost2010PropOp39
 70
     1
102
RTVSPost2010Prop40
 90
        0
102
RTVSPost2010PropOp40
 70
     1
102
RTVSPost2010Prop41ColorIndex
 90
       18
102
RTVSPost2010Prop41ColorRGB
 90
        0
102
RTVSPost2010PropOp41
 70
     1
102
RTVSPost2010Prop42
 90
       50
102
RTVSPost2010PropOp42
 70
     1
102
RTVSPost2010Prop43
 90
        3
102
RTVSPost2010PropOp43
 70
     1
102
RTVSPost2010Prop44ColorIndex
 90
        5
102
RTVSPost2010Prop44ColorRGB
 90
      255
102
RTVSPost2010PropOp44
 70
     1
102
RTVSPost2010Prop45
280
     0
102
RTVSPost2010PropOp45
 70
     1
102
RTVSPost2010Prop46
 90
       50
102
RTVSPost2010PropOp46
 70
     1
102
RTVSPost2010Prop47
 90
       50
102
RTVSPost2010PropOp47
 70
     1
102
RTVSPost2010Prop48
 90
       50
102
RTVSPost2010PropOp48
 70
     1
102
RTVSPost2010Prop49
280
     0
102
RTVSPost2010PropOp49
 70
     1
102
RTVSPost2010Prop50
 90
       50
102
RTVSPost2010PropOp50
 70
     1
102
RTVSPost2010Prop51ColorIndex
 90
      256
102
RTVSPost2010Prop51ColorRGB
 90
-16777216
102
RTVSPost2010PropOp51
 70
     0
102
RTVSPost2010Prop52
140
1.0
102
RTVSPost2010PropOp52
 70
     0
102
RTVSPost2010Prop53
 90
        2
102
RTVSPost2010PropOp53
 70
     1
102
RTVSPost2010Prop54
  1
strokes_ogs.tif
102
RTVSPost2010PropOp54
 70
     1
102
RTVSPost2010Prop55
280
     0
102
RTVSPost2010PropOp55
 70
     1
102
RTVSPost2010Prop56
140
1.0
102
RTVSPost2010PropOp56
 70
     1
102
RTVSPost2010Prop57
140
1.0
102
RTVSPost2010PropOp57
 70
     1
102
RTVSPropertyOp0
 70
     1
102
RTVSPropertyOp1
 70
     1
102
RTVSPropertyOp2
 70
     1
102
RTVSPropertyOp3
 70
     1
102
RTVSPropertyOp4
 70
     1
102
RTVSPropertyOp5
 70
     1
102
RTVSPropertyOp6
 70
     1
102
RTVSPropertyOp7
 70
     1
102
RTVSPropertyOp8
 70
     1
102
RTVSPropertyOp9
 70
     1
102
RTVSPropertyOp10
 70
     1
102
RTVSPropertyOp11
 70
     1
102
RTVSPropertyOp12
 70
     1
102
RTVSPropertyOp13
 70
     1
102
RTVSPropertyOp14
 70
     1
102
RTVSPropertyOp15
 70
     1
102
RTVSPropertyOp16
 70
     1
102
RTVSPropertyOp17
 70
     1
102
RTVSPropertyOp18
 70
     1
102
RTVSPropertyOp19
 70
     1
102
RTVSPropertyOp20
 70
     1
102
RTVSPropertyOp21
 70
     1
102
RTVSPropertyOp22
 70
     1
102
RTVSPropertyOp23
 70
     1
102
RTVSPropertyOp24
 70
     1
102
RTVSPropertyOp25
 70
     1
102
RTVSPropertyOp26
 70
     1
102
RTVSPropertyOp27
 70
     1
102
RTVSPropertyOp28
 70
     1
102
RTVSPropertyOp29
 70
     1
102
RTVSPropertyOp30
 70
     1
102
RTVSPropertyOp31
 70
     1
102
RTVSPropertyOp32
 70
     1
102
RTVSPropertyOp33
 70
     1
102
RTVSPropertyOp34
 70
     1
102
RTVSPropertyOp35
 70
     1
102
RTVSPropertyOp36
 70
     1
102
RTVSPropertyOp37
 70
     1
102
RTVSPropertyOp38
 70
     1
102
RTVSPropertyOp39
 70
     1
102
RTVSPropertyOp40
 70
     1
102
RTVSPropertyOp41
 70
     1
102
RTVSPropertyOp42
 70
     1
102
RTVSPropertyOp43
 70
     1
102
RTVSPropertyOp44
 70
     1
102
RTVSPropertyOp45
 70
     1
102
RTVSPropertyOp46
 70
     1
102
RTVSPropertyOp47
 70
     1
102
RTVSPropertyOp48
 70
     1
102
RTVSPropertyOp49
 70
     1
102
RTVSPropertyOp50
 70
     1
102
RTVSPropertyOp51
 70
     0
102
RTVSPropertyOp52
 70
     0
102
RTVSPropertyOp53
 70
     1
102
RTVSPropertyOp54
 70
     1
102
RTVSPropertyOp55
 70
     1
102
RTVSPropertyOp56
 70
     1
102
RTVSPropertyOp57
 70
     1
102
RTVSPropertyOp58
 70
     1
102
RTVSPropertyOp59
 70
     1
102
RTVSPropertyOp60
 70
     1
102
RTVSPropertyOp61
 70
     1
102
RTVSPropertyOp62
 70
     1
  0
XRECORD
  5
2E2F
102
{ACAD_REACTORS
330
2E2E
102
}
330
2E2E
100
AcDbXrecord
280
     1
102
RTVSPost2010Prop28
280
     0
102
RTVSPost2010PropOp28
 70
     1
102
RTVSPost2010Prop29
280
     1
102
RTVSPost2010PropOp29
 70
     1
102
RTVSPost2010Prop30
280
     1
102
RTVSPost2010PropOp30
 70
     1
102
RTVSPost2010Prop31
280
     0
102
RTVSPost2010PropOp31
 70
     1
102
RTVSPost2010Prop32
280
     0
102
RTVSPost2010PropOp32
 70
     1
102
RTVSPost2010Prop33
280
     0
102
RTVSPost2010PropOp33
 70
     1
102
RTVSPost2010Prop34
280
     0
102
RTVSPost2010PropOp34
 70
     1
102
RTVSPost2010Prop35
280
     0
102
RTVSPost2010PropOp35
 70
     1
102
RTVSPost2010Prop36
280
     0
102
RTVSPost2010PropOp36
 70
     1
102
RTVSPost2010Prop37
 90
       50
102
RTVSPost2010PropOp37
 70
     0
102
RTVSPost2010Prop38
140
0.0
102
RTVSPost2010PropOp38
 70
     0
102
RTVSPost2010Prop39
140
1.0
102
RTVSPost2010PropOp39
 70
     0
102
RTVSPost2010Prop40
 90
        0
102
RTVSPost2010PropOp40
 70
     0
102
RTVSPost2010Prop41ColorIndex
 90
       18
102
RTVSPost2010Prop41ColorRGB
 90
        0
102
RTVSPost2010PropOp41
 70
     0
102
RTVSPost2010Prop42
 90
       50
102
RTVSPost2010PropOp42
 70
     0
102
RTVSPost2010Prop43
 90
        3
102
RTVSPost2010PropOp43
 70
     0
102
RTVSPost2010Prop44ColorIndex
 90
        5
102
RTVSPost2010Prop44ColorRGB
 90
      255
102
RTVSPost2010PropOp44
 70
     0
102
RTVSPost2010Prop45
280
     0
102
RTVSPost2010PropOp45
 70
     1
102
RTVSPost2010Prop46
 90
       50
102
RTVSPost2010PropOp46
 70
     0
102
RTVSPost2010Prop47
 90
       50
102
RTVSPost2010PropOp47
 70
     0
102
RTVSPost2010Prop48
 90
       50
102
RTVSPost2010PropOp48
 70
     0
102
RTVSPost2010Prop49
280
     0
102
RTVSPost2010PropOp49
 70
     1
102
RTVSPost2010Prop50
 90
       50
102
RTVSPost2010PropOp50
 70
     0
102
RTVSPost2010Prop51ColorIndex
 90
      256
102
RTVSPost2010Prop51ColorRGB
 90
-16777216
102
RTVSPost2010PropOp51
 70
     0
102
RTVSPost2010Prop52
140
1.0
102
RTVSPost2010PropOp52
 70
     0
102
RTVSPost2010Prop53
 90
        2
102
RTVSPost2010PropOp53
 70
     0
102
RTVSPost2010Prop54
  1
strokes_ogs.tif
102
RTVSPost2010PropOp54
 70
     0
102
RTVSPost2010Prop55
280
     0
102
RTVSPost2010PropOp55
 70
     1
102
RTVSPost2010Prop56
140
1.0
102
RTVSPost2010PropOp56
 70
     0
102
RTVSPost2010Prop57
140
1.0
102
RTVSPost2010PropOp57
 70
     0
102
RTVSPropertyOp0
 70
     0
102
RTVSPropertyOp1
 70
     0
102
RTVSPropertyOp2
 70
     0
102
RTVSPropertyOp3
 70
     0
102
RTVSPropertyOp4
 70
     0
102
RTVSPropertyOp5
 70
     0
102
RTVSPropertyOp6
 70
     0
102
RTVSPropertyOp7
 70
     0
102
RTVSPropertyOp8
 70
     0
102
RTVSPropertyOp9
 70
     0
102
RTVSPropertyOp10
 70
     0
102
RTVSPropertyOp11
 70
     0
102
RTVSPropertyOp12
 70
     0
102
RTVSPropertyOp13
 70
     0
102
RTVSPropertyOp14
 70
     2
102
RTVSPropertyOp15
 70
     0
102
RTVSPropertyOp16
 70
     0
102
RTVSPropertyOp17
 70
     0
102
RTVSPropertyOp18
 70
     0
102
RTVSPropertyOp19
 70
     0
102
RTVSPropertyOp20
 70
     0
102
RTVSPropertyOp21
 70
     0
102
RTVSPropertyOp22
 70
     0
102
RTVSPropertyOp23
 70
     0
102
RTVSPropertyOp24
 70
     0
102
RTVSPropertyOp25
 70
     0
102
RTVSPropertyOp26
 70
     0
102
RTVSPropertyOp27
 70
     0
102
RTVSPropertyOp28
 70
     1
102
RTVSPropertyOp29
 70
     1
102
RTVSPropertyOp30
 70
     1
102
RTVSPropertyOp31
 70
     1
102
RTVSPropertyOp32
 70
     1
102
RTVSPropertyOp33
 70
     1
102
RTVSPropertyOp34
 70
     1
102
RTVSPropertyOp35
 70
     1
102
RTVSPropertyOp36
 70
     1
102
RTVSPropertyOp37
 70
     0
102
RTVSPropertyOp38
 70
     0
102
RTVSPropertyOp39
 70
     0
102
RTVSPropertyOp40
 70
     0
102
RTVSPropertyOp41
 70
     0
102
RTVSPropertyOp42
 70
     0
102
RTVSPropertyOp43
 70
     0
102
RTVSPropertyOp44
 70
     0
102
RTVSPropertyOp45
 70
     1
102
RTVSPropertyOp46
 70
     0
102
RTVSPropertyOp47
 70
     0
102
RTVSPropertyOp48
 70
     0
102
RTVSPropertyOp49
 70
     1
102
RTVSPropertyOp50
 70
     0
102
RTVSPropertyOp51
 70
     0
102
RTVSPropertyOp52
 70
     0
102
RTVSPropertyOp53
 70
     0
102
RTVSPropertyOp54
 70
     0
102
RTVSPropertyOp55
 70
     1
102
RTVSPropertyOp56
 70
     0
102
RTVSPropertyOp57
 70
     0
102
RTVSPropertyOp58
 70
     0
102
RTVSPropertyOp59
 70
     0
102
RTVSPropertyOp60
 70
     0
102
RTVSPropertyOp61
 70
     0
102
RTVSPropertyOp62
 70
     0
  0
XRECORD
  5
2E1D
102
{ACAD_REACTORS
330
2E1C
102
}
330
2E1C
100
AcDbXrecord
280
     1
102
RTVSPost2010Prop28
280
     0
102
RTVSPost2010PropOp28
 70
     1
102
RTVSPost2010Prop29
280
     1
102
RTVSPost2010PropOp29
 70
     1
102
RTVSPost2010Prop30
280
     1
102
RTVSPost2010PropOp30
 70
     1
102
RTVSPost2010Prop31
280
     0
102
RTVSPost2010PropOp31
 70
     1
102
RTVSPost2010Prop32
280
     0
102
RTVSPost2010PropOp32
 70
     1
102
RTVSPost2010Prop33
280
     0
102
RTVSPost2010PropOp33
 70
     1
102
RTVSPost2010Prop34
280
     0
102
RTVSPost2010PropOp34
 70
     1
102
RTVSPost2010Prop35
280
     0
102
RTVSPost2010PropOp35
 70
     1
102
RTVSPost2010Prop36
280
     0
102
RTVSPost2010PropOp36
 70
     1
102
RTVSPost2010Prop37
 90
       50
102
RTVSPost2010PropOp37
 70
     1
102
RTVSPost2010Prop38
140
0.0
102
RTVSPost2010PropOp38
 70
     1
102
RTVSPost2010Prop39
140
1.0
102
RTVSPost2010PropOp39
 70
     1
102
RTVSPost2010Prop40
 90
        0
102
RTVSPost2010PropOp40
 70
     1
102
RTVSPost2010Prop41ColorIndex
 90
       18
102
RTVSPost2010Prop41ColorRGB
 90
        0
102
RTVSPost2010PropOp41
 70
     1
102
RTVSPost2010Prop42
 90
       50
102
RTVSPost2010PropOp42
 70
     1
102
RTVSPost2010Prop43
 90
        3
102
RTVSPost2010PropOp43
 70
     1
102
RTVSPost2010Prop44ColorIndex
 90
        5
102
RTVSPost2010Prop44ColorRGB
 90
      255
102
RTVSPost2010PropOp44
 70
     1
102
RTVSPost2010Prop45
280
     0
102
RTVSPost2010PropOp45
 70
     1
102
RTVSPost2010Prop46
 90
       50
102
RTVSPost2010PropOp46
 70
     1
102
RTVSPost2010Prop47
 90
       50
102
RTVSPost2010PropOp47
 70
     1
102
RTVSPost2010Prop48
 90
       50
102
RTVSPost2010PropOp48
 70
     1
102
RTVSPost2010Prop49
280
     0
102
RTVSPost2010PropOp49
 70
     1
102
RTVSPost2010Prop50
 90
       50
102
RTVSPost2010PropOp50
 70
     1
102
RTVSPost2010Prop51ColorIndex
 90
      256
102
RTVSPost2010Prop51ColorRGB
 90
-16777216
102
RTVSPost2010PropOp51
 70
     0
102
RTVSPost2010Prop52
140
1.0
102
RTVSPost2010PropOp52
 70
     0
102
RTVSPost2010Prop53
 90
        2
102
RTVSPost2010PropOp53
 70
     1
102
RTVSPost2010Prop54
  1
strokes_ogs.tif
102
RTVSPost2010PropOp54
 70
     1
102
RTVSPost2010Prop55
280
     0
102
RTVSPost2010PropOp55
 70
     1
102
RTVSPost2010Prop56
140
1.0
102
RTVSPost2010PropOp56
 70
     1
102
RTVSPost2010Prop57
140
1.0
102
RTVSPost2010PropOp57
 70
     1
102
RTVSPropertyOp0
 70
     1
102
RTVSPropertyOp1
 70
     1
102
RTVSPropertyOp2
 70
     1
102
RTVSPropertyOp3
 70
     1
102
RTVSPropertyOp4
 70
     1
102
RTVSPropertyOp5
 70
     1
102
RTVSPropertyOp6
 70
     1
102
RTVSPropertyOp7
 70
     1
102
RTVSPropertyOp8
 70
     1
102
RTVSPropertyOp9
 70
     1
102
RTVSPropertyOp10
 70
     1
102
RTVSPropertyOp11
 70
     1
102
RTVSPropertyOp12
 70
     1
102
RTVSPropertyOp13
 70
     1
102
RTVSPropertyOp14
 70
     1
102
RTVSPropertyOp15
 70
     1
102
RTVSPropertyOp16
 70
     1
102
RTVSPropertyOp17
 70
     1
102
RTVSPropertyOp18
 70
     1
102
RTVSPropertyOp19
 70
     1
102
RTVSPropertyOp20
 70
     1
102
RTVSPropertyOp21
 70
     1
102
RTVSPropertyOp22
 70
     1
102
RTVSPropertyOp23
 70
     1
102
RTVSPropertyOp24
 70
     1
102
RTVSPropertyOp25
 70
     1
102
RTVSPropertyOp26
 70
     1
102
RTVSPropertyOp27
 70
     1
102
RTVSPropertyOp28
 70
     1
102
RTVSPropertyOp29
 70
     1
102
RTVSPropertyOp30
 70
     1
102
RTVSPropertyOp31
 70
     1
102
RTVSPropertyOp32
 70
     1
102
RTVSPropertyOp33
 70
     1
102
RTVSPropertyOp34
 70
     1
102
RTVSPropertyOp35
 70
     1
102
RTVSPropertyOp36
 70
     1
102
RTVSPropertyOp37
 70
     1
102
RTVSPropertyOp38
 70
     1
102
RTVSPropertyOp39
 70
     1
102
RTVSPropertyOp40
 70
     1
102
RTVSPropertyOp41
 70
     1
102
RTVSPropertyOp42
 70
     1
102
RTVSPropertyOp43
 70
     1
102
RTVSPropertyOp44
 70
     1
102
RTVSPropertyOp45
 70
     1
102
RTVSPropertyOp46
 70
     1
102
RTVSPropertyOp47
 70
     1
102
RTVSPropertyOp48
 70
     1
102
RTVSPropertyOp49
 70
     1
102
RTVSPropertyOp50
 70
     1
102
RTVSPropertyOp51
 70
     0
102
RTVSPropertyOp52
 70
     0
102
RTVSPropertyOp53
 70
     1
102
RTVSPropertyOp54
 70
     1
102
RTVSPropertyOp55
 70
     1
102
RTVSPropertyOp56
 70
     1
102
RTVSPropertyOp57
 70
     1
102
RTVSPropertyOp58
 70
     1
102
RTVSPropertyOp59
 70
     1
102
RTVSPropertyOp60
 70
     1
102
RTVSPropertyOp61
 70
     1
102
RTVSPropertyOp62
 70
     1
  0
XRECORD
  5
2E01
102
{ACAD_REACTORS
330
2E00
102
}
330
2E00
100
AcDbXrecord
280
     1
102
RTVSPost2010Prop28
280
     0
102
RTVSPost2010PropOp28
 70
     1
102
RTVSPost2010Prop29
280
     1
102
RTVSPost2010PropOp29
 70
     1
102
RTVSPost2010Prop30
280
     1
102
RTVSPost2010PropOp30
 70
     1
102
RTVSPost2010Prop31
280
     0
102
RTVSPost2010PropOp31
 70
     1
102
RTVSPost2010Prop32
280
     0
102
RTVSPost2010PropOp32
 70
     1
102
RTVSPost2010Prop33
280
     0
102
RTVSPost2010PropOp33
 70
     1
102
RTVSPost2010Prop34
280
     0
102
RTVSPost2010PropOp34
 70
     1
102
RTVSPost2010Prop35
280
     0
102
RTVSPost2010PropOp35
 70
     1
102
RTVSPost2010Prop36
280
     0
102
RTVSPost2010PropOp36
 70
     1
102
RTVSPost2010Prop37
 90
       50
102
RTVSPost2010PropOp37
 70
     1
102
RTVSPost2010Prop38
140
0.0
102
RTVSPost2010PropOp38
 70
     1
102
RTVSPost2010Prop39
140
1.0
102
RTVSPost2010PropOp39
 70
     1
102
RTVSPost2010Prop40
 90
        0
102
RTVSPost2010PropOp40
 70
     1
102
RTVSPost2010Prop41ColorIndex
 90
       18
102
RTVSPost2010Prop41ColorRGB
 90
        0
102
RTVSPost2010PropOp41
 70
     1
102
RTVSPost2010Prop42
 90
       50
102
RTVSPost2010PropOp42
 70
     1
102
RTVSPost2010Prop43
 90
        3
102
RTVSPost2010PropOp43
 70
     1
102
RTVSPost2010Prop44ColorIndex
 90
        5
102
RTVSPost2010Prop44ColorRGB
 90
      255
102
RTVSPost2010PropOp44
 70
     1
102
RTVSPost2010Prop45
280
     0
102
RTVSPost2010PropOp45
 70
     1
102
RTVSPost2010Prop46
 90
       50
102
RTVSPost2010PropOp46
 70
     1
102
RTVSPost2010Prop47
 90
       50
102
RTVSPost2010PropOp47
 70
     1
102
RTVSPost2010Prop48
 90
       50
102
RTVSPost2010PropOp48
 70
     1
102
RTVSPost2010Prop49
280
     0
102
RTVSPost2010PropOp49
 70
     1
102
RTVSPost2010Prop50
 90
       50
102
RTVSPost2010PropOp50
 70
     1
102
RTVSPost2010Prop51ColorIndex
 90
      256
102
RTVSPost2010Prop51ColorRGB
 90
-16777216
102
RTVSPost2010PropOp51
 70
     0
102
RTVSPost2010Prop52
140
1.0
102
RTVSPost2010PropOp52
 70
     0
102
RTVSPost2010Prop53
 90
        2
102
RTVSPost2010PropOp53
 70
     1
102
RTVSPost2010Prop54
  1
strokes_ogs.tif
102
RTVSPost2010PropOp54
 70
     1
102
RTVSPost2010Prop55
280
     0
102
RTVSPost2010PropOp55
 70
     1
102
RTVSPost2010Prop56
140
1.0
102
RTVSPost2010PropOp56
 70
     1
102
RTVSPost2010Prop57
140
1.0
102
RTVSPost2010PropOp57
 70
     1
102
RTVSPropertyOp0
 70
     1
102
RTVSPropertyOp1
 70
     1
102
RTVSPropertyOp2
 70
     1
102
RTVSPropertyOp3
 70
     1
102
RTVSPropertyOp4
 70
     1
102
RTVSPropertyOp5
 70
     1
102
RTVSPropertyOp6
 70
     1
102
RTVSPropertyOp7
 70
     1
102
RTVSPropertyOp8
 70
     1
102
RTVSPropertyOp9
 70
     1
102
RTVSPropertyOp10
 70
     1
102
RTVSPropertyOp11
 70
     1
102
RTVSPropertyOp12
 70
     1
102
RTVSPropertyOp13
 70
     1
102
RTVSPropertyOp14
 70
     1
102
RTVSPropertyOp15
 70
     1
102
RTVSPropertyOp16
 70
     1
102
RTVSPropertyOp17
 70
     1
102
RTVSPropertyOp18
 70
     1
102
RTVSPropertyOp19
 70
     1
102
RTVSPropertyOp20
 70
     1
102
RTVSPropertyOp21
 70
     1
102
RTVSPropertyOp22
 70
     1
102
RTVSPropertyOp23
 70
     1
102
RTVSPropertyOp24
 70
     1
102
RTVSPropertyOp25
 70
     1
102
RTVSPropertyOp26
 70
     1
102
RTVSPropertyOp27
 70
     1
102
RTVSPropertyOp28
 70
     1
102
RTVSPropertyOp29
 70
     1
102
RTVSPropertyOp30
 70
     1
102
RTVSPropertyOp31
 70
     1
102
RTVSPropertyOp32
 70
     1
102
RTVSPropertyOp33
 70
     1
102
RTVSPropertyOp34
 70
     1
102
RTVSPropertyOp35
 70
     1
102
RTVSPropertyOp36
 70
     1
102
RTVSPropertyOp37
 70
     1
102
RTVSPropertyOp38
 70
     1
102
RTVSPropertyOp39
 70
     1
102
RTVSPropertyOp40
 70
     1
102
RTVSPropertyOp41
 70
     1
102
RTVSPropertyOp42
 70
     1
102
RTVSPropertyOp43
 70
     1
102
RTVSPropertyOp44
 70
     1
102
RTVSPropertyOp45
 70
     1
102
RTVSPropertyOp46
 70
     1
102
RTVSPropertyOp47
 70
     1
102
RTVSPropertyOp48
 70
     1
102
RTVSPropertyOp49
 70
     1
102
RTVSPropertyOp50
 70
     1
102
RTVSPropertyOp51
 70
     0
102
RTVSPropertyOp52
 70
     0
102
RTVSPropertyOp53
 70
     1
102
RTVSPropertyOp54
 70
     1
102
RTVSPropertyOp55
 70
     1
102
RTVSPropertyOp56
 70
     1
102
RTVSPropertyOp57
 70
     1
102
RTVSPropertyOp58
 70
     1
102
RTVSPropertyOp59
 70
     1
102
RTVSPropertyOp60
 70
     1
102
RTVSPropertyOp61
 70
     1
102
RTVSPropertyOp62
 70
     1
  0
XRECORD
  5
2E03
102
{ACAD_REACTORS
330
2E02
102
}
330
2E02
100
AcDbXrecord
280
     1
102
RTVSPost2010Prop28
280
     0
102
RTVSPost2010PropOp28
 70
     1
102
RTVSPost2010Prop29
280
     1
102
RTVSPost2010PropOp29
 70
     1
102
RTVSPost2010Prop30
280
     1
102
RTVSPost2010PropOp30
 70
     1
102
RTVSPost2010Prop31
280
     0
102
RTVSPost2010PropOp31
 70
     1
102
RTVSPost2010Prop32
280
     0
102
RTVSPost2010PropOp32
 70
     1
102
RTVSPost2010Prop33
280
     0
102
RTVSPost2010PropOp33
 70
     1
102
RTVSPost2010Prop34
280
     0
102
RTVSPost2010PropOp34
 70
     1
102
RTVSPost2010Prop35
280
     0
102
RTVSPost2010PropOp35
 70
     1
102
RTVSPost2010Prop36
280
     0
102
RTVSPost2010PropOp36
 70
     1
102
RTVSPost2010Prop37
 90
       50
102
RTVSPost2010PropOp37
 70
     1
102
RTVSPost2010Prop38
140
0.0
102
RTVSPost2010PropOp38
 70
     1
102
RTVSPost2010Prop39
140
1.0
102
RTVSPost2010PropOp39
 70
     1
102
RTVSPost2010Prop40
 90
        0
102
RTVSPost2010PropOp40
 70
     1
102
RTVSPost2010Prop41ColorIndex
 90
       18
102
RTVSPost2010Prop41ColorRGB
 90
        0
102
RTVSPost2010PropOp41
 70
     1
102
RTVSPost2010Prop42
 90
       50
102
RTVSPost2010PropOp42
 70
     1
102
RTVSPost2010Prop43
 90
        3
102
RTVSPost2010PropOp43
 70
     1
102
RTVSPost2010Prop44ColorIndex
 90
        5
102
RTVSPost2010Prop44ColorRGB
 90
      255
102
RTVSPost2010PropOp44
 70
     1
102
RTVSPost2010Prop45
280
     0
102
RTVSPost2010PropOp45
 70
     1
102
RTVSPost2010Prop46
 90
       50
102
RTVSPost2010PropOp46
 70
     1
102
RTVSPost2010Prop47
 90
       50
102
RTVSPost2010PropOp47
 70
     1
102
RTVSPost2010Prop48
 90
       50
102
RTVSPost2010PropOp48
 70
     1
102
RTVSPost2010Prop49
280
     0
102
RTVSPost2010PropOp49
 70
     1
102
RTVSPost2010Prop50
 90
       50
102
RTVSPost2010PropOp50
 70
     1
102
RTVSPost2010Prop51ColorIndex
 90
      256
102
RTVSPost2010Prop51ColorRGB
 90
-16777216
102
RTVSPost2010PropOp51
 70
     0
102
RTVSPost2010Prop52
140
1.0
102
RTVSPost2010PropOp52
 70
     0
102
RTVSPost2010Prop53
 90
        2
102
RTVSPost2010PropOp53
 70
     1
102
RTVSPost2010Prop54
  1
strokes_ogs.tif
102
RTVSPost2010PropOp54
 70
     1
102
RTVSPost2010Prop55
280
     0
102
RTVSPost2010PropOp55
 70
     1
102
RTVSPost2010Prop56
140
1.0
102
RTVSPost2010PropOp56
 70
     1
102
RTVSPost2010Prop57
140
1.0
102
RTVSPost2010PropOp57
 70
     1
102
RTVSPropertyOp0
 70
     1
102
RTVSPropertyOp1
 70
     1
102
RTVSPropertyOp2
 70
     1
102
RTVSPropertyOp3
 70
     1
102
RTVSPropertyOp4
 70
     1
102
RTVSPropertyOp5
 70
     1
102
RTVSPropertyOp6
 70
     1
102
RTVSPropertyOp7
 70
     1
102
RTVSPropertyOp8
 70
     1
102
RTVSPropertyOp9
 70
     1
102
RTVSPropertyOp10
 70
     1
102
RTVSPropertyOp11
 70
     1
102
RTVSPropertyOp12
 70
     1
102
RTVSPropertyOp13
 70
     1
102
RTVSPropertyOp14
 70
     1
102
RTVSPropertyOp15
 70
     1
102
RTVSPropertyOp16
 70
     1
102
RTVSPropertyOp17
 70
     1
102
RTVSPropertyOp18
 70
     1
102
RTVSPropertyOp19
 70
     1
102
RTVSPropertyOp20
 70
     1
102
RTVSPropertyOp21
 70
     1
102
RTVSPropertyOp22
 70
     1
102
RTVSPropertyOp23
 70
     1
102
RTVSPropertyOp24
 70
     1
102
RTVSPropertyOp25
 70
     1
102
RTVSPropertyOp26
 70
     1
102
RTVSPropertyOp27
 70
     1
102
RTVSPropertyOp28
 70
     1
102
RTVSPropertyOp29
 70
     1
102
RTVSPropertyOp30
 70
     1
102
RTVSPropertyOp31
 70
     1
102
RTVSPropertyOp32
 70
     1
102
RTVSPropertyOp33
 70
     1
102
RTVSPropertyOp34
 70
     1
102
RTVSPropertyOp35
 70
     1
102
RTVSPropertyOp36
 70
     1
102
RTVSPropertyOp37
 70
     1
102
RTVSPropertyOp38
 70
     1
102
RTVSPropertyOp39
 70
     1
102
RTVSPropertyOp40
 70
     1
102
RTVSPropertyOp41
 70
     1
102
RTVSPropertyOp42
 70
     1
102
RTVSPropertyOp43
 70
     1
102
RTVSPropertyOp44
 70
     1
102
RTVSPropertyOp45
 70
     1
102
RTVSPropertyOp46
 70
     1
102
RTVSPropertyOp47
 70
     1
102
RTVSPropertyOp48
 70
     1
102
RTVSPropertyOp49
 70
     1
102
RTVSPropertyOp50
 70
     1
102
RTVSPropertyOp51
 70
     0
102
RTVSPropertyOp52
 70
     0
102
RTVSPropertyOp53
 70
     1
102
RTVSPropertyOp54
 70
     1
102
RTVSPropertyOp55
 70
     1
102
RTVSPropertyOp56
 70
     1
102
RTVSPropertyOp57
 70
     1
102
RTVSPropertyOp58
 70
     1
102
RTVSPropertyOp59
 70
     1
102
RTVSPropertyOp60
 70
     1
102
RTVSPropertyOp61
 70
     1
102
RTVSPropertyOp62
 70
     1
  0
XRECORD
  5
2E05
102
{ACAD_REACTORS
330
2E04
102
}
330
2E04
100
AcDbXrecord
280
     1
102
RTVSPost2010Prop28
280
     0
102
RTVSPost2010PropOp28
 70
     1
102
RTVSPost2010Prop29
280
     1
102
RTVSPost2010PropOp29
 70
     1
102
RTVSPost2010Prop30
280
     1
102
RTVSPost2010PropOp30
 70
     1
102
RTVSPost2010Prop31
280
     0
102
RTVSPost2010PropOp31
 70
     1
102
RTVSPost2010Prop32
280
     0
102
RTVSPost2010PropOp32
 70
     1
102
RTVSPost2010Prop33
280
     0
102
RTVSPost2010PropOp33
 70
     1
102
RTVSPost2010Prop34
280
     0
102
RTVSPost2010PropOp34
 70
     1
102
RTVSPost2010Prop35
280
     0
102
RTVSPost2010PropOp35
 70
     1
102
RTVSPost2010Prop36
280
     0
102
RTVSPost2010PropOp36
 70
     1
102
RTVSPost2010Prop37
 90
       50
102
RTVSPost2010PropOp37
 70
     1
102
RTVSPost2010Prop38
140
0.0
102
RTVSPost2010PropOp38
 70
     1
102
RTVSPost2010Prop39
140
1.0
102
RTVSPost2010PropOp39
 70
     1
102
RTVSPost2010Prop40
 90
        0
102
RTVSPost2010PropOp40
 70
     1
102
RTVSPost2010Prop41ColorIndex
 90
       18
102
RTVSPost2010Prop41ColorRGB
 90
        0
102
RTVSPost2010PropOp41
 70
     1
102
RTVSPost2010Prop42
 90
       50
102
RTVSPost2010PropOp42
 70
     1
102
RTVSPost2010Prop43
 90
        3
102
RTVSPost2010PropOp43
 70
     1
102
RTVSPost2010Prop44ColorIndex
 90
        5
102
RTVSPost2010Prop44ColorRGB
 90
      255
102
RTVSPost2010PropOp44
 70
     1
102
RTVSPost2010Prop45
280
     0
102
RTVSPost2010PropOp45
 70
     1
102
RTVSPost2010Prop46
 90
       50
102
RTVSPost2010PropOp46
 70
     1
102
RTVSPost2010Prop47
 90
       50
102
RTVSPost2010PropOp47
 70
     1
102
RTVSPost2010Prop48
 90
       50
102
RTVSPost2010PropOp48
 70
     1
102
RTVSPost2010Prop49
280
     0
102
RTVSPost2010PropOp49
 70
     1
102
RTVSPost2010Prop50
 90
       50
102
RTVSPost2010PropOp50
 70
     1
102
RTVSPost2010Prop51ColorIndex
 90
      256
102
RTVSPost2010Prop51ColorRGB
 90
-16777216
102
RTVSPost2010PropOp51
 70
     0
102
RTVSPost2010Prop52
140
1.0
102
RTVSPost2010PropOp52
 70
     0
102
RTVSPost2010Prop53
 90
        2
102
RTVSPost2010PropOp53
 70
     1
102
RTVSPost2010Prop54
  1
strokes_ogs.tif
102
RTVSPost2010PropOp54
 70
     1
102
RTVSPost2010Prop55
280
     0
102
RTVSPost2010PropOp55
 70
     1
102
RTVSPost2010Prop56
140
1.0
102
RTVSPost2010PropOp56
 70
     1
102
RTVSPost2010Prop57
140
1.0
102
RTVSPost2010PropOp57
 70
     1
102
RTVSPropertyOp0
 70
     1
102
RTVSPropertyOp1
 70
     1
102
RTVSPropertyOp2
 70
     1
102
RTVSPropertyOp3
 70
     1
102
RTVSPropertyOp4
 70
     1
102
RTVSPropertyOp5
 70
     1
102
RTVSPropertyOp6
 70
     1
102
RTVSPropertyOp7
 70
     1
102
RTVSPropertyOp8
 70
     1
102
RTVSPropertyOp9
 70
     1
102
RTVSPropertyOp10
 70
     1
102
RTVSPropertyOp11
 70
     1
102
RTVSPropertyOp12
 70
     1
102
RTVSPropertyOp13
 70
     1
102
RTVSPropertyOp14
 70
     1
102
RTVSPropertyOp15
 70
     1
102
RTVSPropertyOp16
 70
     1
102
RTVSPropertyOp17
 70
     1
102
RTVSPropertyOp18
 70
     1
102
RTVSPropertyOp19
 70
     1
102
RTVSPropertyOp20
 70
     1
102
RTVSPropertyOp21
 70
     1
102
RTVSPropertyOp22
 70
     1
102
RTVSPropertyOp23
 70
     1
102
RTVSPropertyOp24
 70
     1
102
RTVSPropertyOp25
 70
     1
102
RTVSPropertyOp26
 70
     1
102
RTVSPropertyOp27
 70
     1
102
RTVSPropertyOp28
 70
     1
102
RTVSPropertyOp29
 70
     1
102
RTVSPropertyOp30
 70
     1
102
RTVSPropertyOp31
 70
     1
102
RTVSPropertyOp32
 70
     1
102
RTVSPropertyOp33
 70
     1
102
RTVSPropertyOp34
 70
     1
102
RTVSPropertyOp35
 70
     1
102
RTVSPropertyOp36
 70
     1
102
RTVSPropertyOp37
 70
     1
102
RTVSPropertyOp38
 70
     1
102
RTVSPropertyOp39
 70
     1
102
RTVSPropertyOp40
 70
     1
102
RTVSPropertyOp41
 70
     1
102
RTVSPropertyOp42
 70
     1
102
RTVSPropertyOp43
 70
     1
102
RTVSPropertyOp44
 70
     1
102
RTVSPropertyOp45
 70
     1
102
RTVSPropertyOp46
 70
     1
102
RTVSPropertyOp47
 70
     1
102
RTVSPropertyOp48
 70
     1
102
RTVSPropertyOp49
 70
     1
102
RTVSPropertyOp50
 70
     1
102
RTVSPropertyOp51
 70
     0
102
RTVSPropertyOp52
 70
     0
102
RTVSPropertyOp53
 70
     1
102
RTVSPropertyOp54
 70
     1
102
RTVSPropertyOp55
 70
     1
102
RTVSPropertyOp56
 70
     1
102
RTVSPropertyOp57
 70
     1
102
RTVSPropertyOp58
 70
     1
102
RTVSPropertyOp59
 70
     1
102
RTVSPropertyOp60
 70
     1
102
RTVSPropertyOp61
 70
     1
102
RTVSPropertyOp62
 70
     1
  0
XRECORD
  5
2E07
102
{ACAD_REACTORS
330
2E06
102
}
330
2E06
100
AcDbXrecord
280
     1
102
RTVSPost2010Prop28
280
     0
102
RTVSPost2010PropOp28
 70
     1
102
RTVSPost2010Prop29
280
     1
102
RTVSPost2010PropOp29
 70
     1
102
RTVSPost2010Prop30
280
     1
102
RTVSPost2010PropOp30
 70
     1
102
RTVSPost2010Prop31
280
     0
102
RTVSPost2010PropOp31
 70
     1
102
RTVSPost2010Prop32
280
     0
102
RTVSPost2010PropOp32
 70
     1
102
RTVSPost2010Prop33
280
     0
102
RTVSPost2010PropOp33
 70
     1
102
RTVSPost2010Prop34
280
     0
102
RTVSPost2010PropOp34
 70
     1
102
RTVSPost2010Prop35
280
     0
102
RTVSPost2010PropOp35
 70
     1
102
RTVSPost2010Prop36
280
     0
102
RTVSPost2010PropOp36
 70
     1
102
RTVSPost2010Prop37
 90
       50
102
RTVSPost2010PropOp37
 70
     1
102
RTVSPost2010Prop38
140
0.0
102
RTVSPost2010PropOp38
 70
     1
102
RTVSPost2010Prop39
140
1.0
102
RTVSPost2010PropOp39
 70
     1
102
RTVSPost2010Prop40
 90
        0
102
RTVSPost2010PropOp40
 70
     1
102
RTVSPost2010Prop41ColorIndex
 90
       18
102
RTVSPost2010Prop41ColorRGB
 90
        0
102
RTVSPost2010PropOp41
 70
     1
102
RTVSPost2010Prop42
 90
       50
102
RTVSPost2010PropOp42
 70
     1
102
RTVSPost2010Prop43
 90
        3
102
RTVSPost2010PropOp43
 70
     1
102
RTVSPost2010Prop44ColorIndex
 90
        5
102
RTVSPost2010Prop44ColorRGB
 90
      255
102
RTVSPost2010PropOp44
 70
     1
102
RTVSPost2010Prop45
280
     0
102
RTVSPost2010PropOp45
 70
     1
102
RTVSPost2010Prop46
 90
       50
102
RTVSPost2010PropOp46
 70
     1
102
RTVSPost2010Prop47
 90
       50
102
RTVSPost2010PropOp47
 70
     1
102
RTVSPost2010Prop48
 90
       50
102
RTVSPost2010PropOp48
 70
     1
102
RTVSPost2010Prop49
280
     0
102
RTVSPost2010PropOp49
 70
     1
102
RTVSPost2010Prop50
 90
       50
102
RTVSPost2010PropOp50
 70
     1
102
RTVSPost2010Prop51ColorIndex
 90
      256
102
RTVSPost2010Prop51ColorRGB
 90
-16777216
102
RTVSPost2010PropOp51
 70
     0
102
RTVSPost2010Prop52
140
1.0
102
RTVSPost2010PropOp52
 70
     0
102
RTVSPost2010Prop53
 90
        2
102
RTVSPost2010PropOp53
 70
     1
102
RTVSPost2010Prop54
  1
strokes_ogs.tif
102
RTVSPost2010PropOp54
 70
     1
102
RTVSPost2010Prop55
280
     0
102
RTVSPost2010PropOp55
 70
     1
102
RTVSPost2010Prop56
140
1.0
102
RTVSPost2010PropOp56
 70
     1
102
RTVSPost2010Prop57
140
1.0
102
RTVSPost2010PropOp57
 70
     1
102
RTVSPropertyOp0
 70
     1
102
RTVSPropertyOp1
 70
     1
102
RTVSPropertyOp2
 70
     1
102
RTVSPropertyOp3
 70
     1
102
RTVSPropertyOp4
 70
     1
102
RTVSPropertyOp5
 70
     1
102
RTVSPropertyOp6
 70
     1
102
RTVSPropertyOp7
 70
     1
102
RTVSPropertyOp8
 70
     1
102
RTVSPropertyOp9
 70
     1
102
RTVSPropertyOp10
 70
     1
102
RTVSPropertyOp11
 70
     1
102
RTVSPropertyOp12
 70
     1
102
RTVSPropertyOp13
 70
     1
102
RTVSPropertyOp14
 70
     1
102
RTVSPropertyOp15
 70
     1
102
RTVSPropertyOp16
 70
     1
102
RTVSPropertyOp17
 70
     1
102
RTVSPropertyOp18
 70
     1
102
RTVSPropertyOp19
 70
     1
102
RTVSPropertyOp20
 70
     1
102
RTVSPropertyOp21
 70
     1
102
RTVSPropertyOp22
 70
     1
102
RTVSPropertyOp23
 70
     1
102
RTVSPropertyOp24
 70
     1
102
RTVSPropertyOp25
 70
     1
102
RTVSPropertyOp26
 70
     1
102
RTVSPropertyOp27
 70
     1
102
RTVSPropertyOp28
 70
     1
102
RTVSPropertyOp29
 70
     1
102
RTVSPropertyOp30
 70
     1
102
RTVSPropertyOp31
 70
     1
102
RTVSPropertyOp32
 70
     1
102
RTVSPropertyOp33
 70
     1
102
RTVSPropertyOp34
 70
     1
102
RTVSPropertyOp35
 70
     1
102
RTVSPropertyOp36
 70
     1
102
RTVSPropertyOp37
 70
     1
102
RTVSPropertyOp38
 70
     1
102
RTVSPropertyOp39
 70
     1
102
RTVSPropertyOp40
 70
     1
102
RTVSPropertyOp41
 70
     1
102
RTVSPropertyOp42
 70
     1
102
RTVSPropertyOp43
 70
     1
102
RTVSPropertyOp44
 70
     1
102
RTVSPropertyOp45
 70
     1
102
RTVSPropertyOp46
 70
     1
102
RTVSPropertyOp47
 70
     1
102
RTVSPropertyOp48
 70
     1
102
RTVSPropertyOp49
 70
     1
102
RTVSPropertyOp50
 70
     1
102
RTVSPropertyOp51
 70
     0
102
RTVSPropertyOp52
 70
     0
102
RTVSPropertyOp53
 70
     1
102
RTVSPropertyOp54
 70
     1
102
RTVSPropertyOp55
 70
     1
102
RTVSPropertyOp56
 70
     1
102
RTVSPropertyOp57
 70
     1
102
RTVSPropertyOp58
 70
     1
102
RTVSPropertyOp59
 70
     1
102
RTVSPropertyOp60
 70
     1
102
RTVSPropertyOp61
 70
     1
102
RTVSPropertyOp62
 70
     1
  0
XRECORD
  5
2E0F
102
{ACAD_REACTORS
330
2E0E
102
}
330
2E0E
100
AcDbXrecord
280
     1
102
RTVSPost2010Prop28
280
     0
102
RTVSPost2010PropOp28
 70
     1
102
RTVSPost2010Prop29
280
     1
102
RTVSPost2010PropOp29
 70
     1
102
RTVSPost2010Prop30
280
     1
102
RTVSPost2010PropOp30
 70
     1
102
RTVSPost2010Prop31
280
     0
102
RTVSPost2010PropOp31
 70
     1
102
RTVSPost2010Prop32
280
     0
102
RTVSPost2010PropOp32
 70
     1
102
RTVSPost2010Prop33
280
     0
102
RTVSPost2010PropOp33
 70
     1
102
RTVSPost2010Prop34
280
     0
102
RTVSPost2010PropOp34
 70
     1
102
RTVSPost2010Prop35
280
     0
102
RTVSPost2010PropOp35
 70
     1
102
RTVSPost2010Prop36
280
     0
102
RTVSPost2010PropOp36
 70
     1
102
RTVSPost2010Prop37
 90
       50
102
RTVSPost2010PropOp37
 70
     1
102
RTVSPost2010Prop38
140
0.0
102
RTVSPost2010PropOp38
 70
     1
102
RTVSPost2010Prop39
140
1.0
102
RTVSPost2010PropOp39
 70
     1
102
RTVSPost2010Prop40
 90
        0
102
RTVSPost2010PropOp40
 70
     1
102
RTVSPost2010Prop41ColorIndex
 90
       18
102
RTVSPost2010Prop41ColorRGB
 90
        0
102
RTVSPost2010PropOp41
 70
     1
102
RTVSPost2010Prop42
 90
       50
102
RTVSPost2010PropOp42
 70
     1
102
RTVSPost2010Prop43
 90
        3
102
RTVSPost2010PropOp43
 70
     1
102
RTVSPost2010Prop44ColorIndex
 90
        5
102
RTVSPost2010Prop44ColorRGB
 90
      255
102
RTVSPost2010PropOp44
 70
     1
102
RTVSPost2010Prop45
280
     0
102
RTVSPost2010PropOp45
 70
     1
102
RTVSPost2010Prop46
 90
       50
102
RTVSPost2010PropOp46
 70
     1
102
RTVSPost2010Prop47
 90
       50
102
RTVSPost2010PropOp47
 70
     1
102
RTVSPost2010Prop48
 90
       50
102
RTVSPost2010PropOp48
 70
     1
102
RTVSPost2010Prop49
280
     0
102
RTVSPost2010PropOp49
 70
     1
102
RTVSPost2010Prop50
 90
       50
102
RTVSPost2010PropOp50
 70
     1
102
RTVSPost2010Prop51ColorIndex
 90
      256
102
RTVSPost2010Prop51ColorRGB
 90
-16777216
102
RTVSPost2010PropOp51
 70
     0
102
RTVSPost2010Prop52
140
1.0
102
RTVSPost2010PropOp52
 70
     0
102
RTVSPost2010Prop53
 90
        2
102
RTVSPost2010PropOp53
 70
     1
102
RTVSPost2010Prop54
  1
strokes_ogs.tif
102
RTVSPost2010PropOp54
 70
     1
102
RTVSPost2010Prop55
280
     0
102
RTVSPost2010PropOp55
 70
     1
102
RTVSPost2010Prop56
140
1.0
102
RTVSPost2010PropOp56
 70
     1
102
RTVSPost2010Prop57
140
1.0
102
RTVSPost2010PropOp57
 70
     1
102
RTVSPropertyOp0
 70
     1
102
RTVSPropertyOp1
 70
     1
102
RTVSPropertyOp2
 70
     1
102
RTVSPropertyOp3
 70
     1
102
RTVSPropertyOp4
 70
     1
102
RTVSPropertyOp5
 70
     1
102
RTVSPropertyOp6
 70
     1
102
RTVSPropertyOp7
 70
     1
102
RTVSPropertyOp8
 70
     1
102
RTVSPropertyOp9
 70
     1
102
RTVSPropertyOp10
 70
     1
102
RTVSPropertyOp11
 70
     1
102
RTVSPropertyOp12
 70
     1
102
RTVSPropertyOp13
 70
     1
102
RTVSPropertyOp14
 70
     1
102
RTVSPropertyOp15
 70
     1
102
RTVSPropertyOp16
 70
     1
102
RTVSPropertyOp17
 70
     1
102
RTVSPropertyOp18
 70
     1
102
RTVSPropertyOp19
 70
     1
102
RTVSPropertyOp20
 70
     1
102
RTVSPropertyOp21
 70
     1
102
RTVSPropertyOp22
 70
     1
102
RTVSPropertyOp23
 70
     1
102
RTVSPropertyOp24
 70
     1
102
RTVSPropertyOp25
 70
     1
102
RTVSPropertyOp26
 70
     1
102
RTVSPropertyOp27
 70
     1
102
RTVSPropertyOp28
 70
     1
102
RTVSPropertyOp29
 70
     1
102
RTVSPropertyOp30
 70
     1
102
RTVSPropertyOp31
 70
     1
102
RTVSPropertyOp32
 70
     1
102
RTVSPropertyOp33
 70
     1
102
RTVSPropertyOp34
 70
     1
102
RTVSPropertyOp35
 70
     1
102
RTVSPropertyOp36
 70
     1
102
RTVSPropertyOp37
 70
     1
102
RTVSPropertyOp38
 70
     1
102
RTVSPropertyOp39
 70
     1
102
RTVSPropertyOp40
 70
     1
102
RTVSPropertyOp41
 70
     1
102
RTVSPropertyOp42
 70
     1
102
RTVSPropertyOp43
 70
     1
102
RTVSPropertyOp44
 70
     1
102
RTVSPropertyOp45
 70
     1
102
RTVSPropertyOp46
 70
     1
102
RTVSPropertyOp47
 70
     1
102
RTVSPropertyOp48
 70
     1
102
RTVSPropertyOp49
 70
     1
102
RTVSPropertyOp50
 70
     1
102
RTVSPropertyOp51
 70
     0
102
RTVSPropertyOp52
 70
     0
102
RTVSPropertyOp53
 70
     1
102
RTVSPropertyOp54
 70
     1
102
RTVSPropertyOp55
 70
     1
102
RTVSPropertyOp56
 70
     1
102
RTVSPropertyOp57
 70
     1
102
RTVSPropertyOp58
 70
     1
102
RTVSPropertyOp59
 70
     1
102
RTVSPropertyOp60
 70
     1
102
RTVSPropertyOp61
 70
     1
102
RTVSPropertyOp62
 70
     1
  0
XRECORD
  5
2E2B
102
{ACAD_REACTORS
330
2E2A
102
}
330
2E2A
100
AcDbXrecord
280
     1
102
RTVSPost2010Prop28
280
     0
102
RTVSPost2010PropOp28
 70
     1
102
RTVSPost2010Prop29
280
     1
102
RTVSPost2010PropOp29
 70
     1
102
RTVSPost2010Prop30
280
     1
102
RTVSPost2010PropOp30
 70
     1
102
RTVSPost2010Prop31
280
     0
102
RTVSPost2010PropOp31
 70
     1
102
RTVSPost2010Prop32
280
     0
102
RTVSPost2010PropOp32
 70
     1
102
RTVSPost2010Prop33
280
     0
102
RTVSPost2010PropOp33
 70
     1
102
RTVSPost2010Prop34
280
     0
102
RTVSPost2010PropOp34
 70
     1
102
RTVSPost2010Prop35
280
     0
102
RTVSPost2010PropOp35
 70
     1
102
RTVSPost2010Prop36
280
     0
102
RTVSPost2010PropOp36
 70
     1
102
RTVSPost2010Prop37
 90
       50
102
RTVSPost2010PropOp37
 70
     0
102
RTVSPost2010Prop38
140
0.0
102
RTVSPost2010PropOp38
 70
     0
102
RTVSPost2010Prop39
140
1.0
102
RTVSPost2010PropOp39
 70
     0
102
RTVSPost2010Prop40
 90
        0
102
RTVSPost2010PropOp40
 70
     0
102
RTVSPost2010Prop41ColorIndex
 90
       18
102
RTVSPost2010Prop41ColorRGB
 90
        0
102
RTVSPost2010PropOp41
 70
     0
102
RTVSPost2010Prop42
 90
       50
102
RTVSPost2010PropOp42
 70
     0
102
RTVSPost2010Prop43
 90
        3
102
RTVSPost2010PropOp43
 70
     0
102
RTVSPost2010Prop44ColorIndex
 90
        5
102
RTVSPost2010Prop44ColorRGB
 90
      255
102
RTVSPost2010PropOp44
 70
     0
102
RTVSPost2010Prop45
280
     0
102
RTVSPost2010PropOp45
 70
     1
102
RTVSPost2010Prop46
 90
       50
102
RTVSPost2010PropOp46
 70
     0
102
RTVSPost2010Prop47
 90
       50
102
RTVSPost2010PropOp47
 70
     0
102
RTVSPost2010Prop48
 90
       50
102
RTVSPost2010PropOp48
 70
     0
102
RTVSPost2010Prop49
280
     0
102
RTVSPost2010PropOp49
 70
     1
102
RTVSPost2010Prop50
 90
       50
102
RTVSPost2010PropOp50
 70
     0
102
RTVSPost2010Prop51ColorIndex
 90
      256
102
RTVSPost2010Prop51ColorRGB
 90
-16777216
102
RTVSPost2010PropOp51
 70
     0
102
RTVSPost2010Prop52
140
1.0
102
RTVSPost2010PropOp52
 70
     0
102
RTVSPost2010Prop53
 90
        2
102
RTVSPost2010PropOp53
 70
     0
102
RTVSPost2010Prop54
  1
strokes_ogs.tif
102
RTVSPost2010PropOp54
 70
     0
102
RTVSPost2010Prop55
280
     0
102
RTVSPost2010PropOp55
 70
     1
102
RTVSPost2010Prop56
140
1.0
102
RTVSPost2010PropOp56
 70
     0
102
RTVSPost2010Prop57
140
1.0
102
RTVSPost2010PropOp57
 70
     0
102
RTVSPropertyOp0
 70
     0
102
RTVSPropertyOp1
 70
     0
102
RTVSPropertyOp2
 70
     0
102
RTVSPropertyOp3
 70
     0
102
RTVSPropertyOp4
 70
     0
102
RTVSPropertyOp5
 70
     0
102
RTVSPropertyOp6
 70
     0
102
RTVSPropertyOp7
 70
     0
102
RTVSPropertyOp8
 70
     0
102
RTVSPropertyOp9
 70
     0
102
RTVSPropertyOp10
 70
     0
102
RTVSPropertyOp11
 70
     0
102
RTVSPropertyOp12
 70
     0
102
RTVSPropertyOp13
 70
     0
102
RTVSPropertyOp14
 70
     2
102
RTVSPropertyOp15
 70
     0
102
RTVSPropertyOp16
 70
     0
102
RTVSPropertyOp17
 70
     0
102
RTVSPropertyOp18
 70
     0
102
RTVSPropertyOp19
 70
     0
102
RTVSPropertyOp20
 70
     0
102
RTVSPropertyOp21
 70
     0
102
RTVSPropertyOp22
 70
     0
102
RTVSPropertyOp23
 70
     0
102
RTVSPropertyOp24
 70
     0
102
RTVSPropertyOp25
 70
     0
102
RTVSPropertyOp26
 70
     0
102
RTVSPropertyOp27
 70
     0
102
RTVSPropertyOp28
 70
     1
102
RTVSPropertyOp29
 70
     1
102
RTVSPropertyOp30
 70
     1
102
RTVSPropertyOp31
 70
     1
102
RTVSPropertyOp32
 70
     1
102
RTVSPropertyOp33
 70
     1
102
RTVSPropertyOp34
 70
     1
102
RTVSPropertyOp35
 70
     1
102
RTVSPropertyOp36
 70
     1
102
RTVSPropertyOp37
 70
     0
102
RTVSPropertyOp38
 70
     0
102
RTVSPropertyOp39
 70
     0
102
RTVSPropertyOp40
 70
     0
102
RTVSPropertyOp41
 70
     0
102
RTVSPropertyOp42
 70
     0
102
RTVSPropertyOp43
 70
     0
102
RTVSPropertyOp44
 70
     0
102
RTVSPropertyOp45
 70
     1
102
RTVSPropertyOp46
 70
     0
102
RTVSPropertyOp47
 70
     0
102
RTVSPropertyOp48
 70
     0
102
RTVSPropertyOp49
 70
     1
102
RTVSPropertyOp50
 70
     0
102
RTVSPropertyOp51
 70
     0
102
RTVSPropertyOp52
 70
     0
102
RTVSPropertyOp53
 70
     0
102
RTVSPropertyOp54
 70
     0
102
RTVSPropertyOp55
 70
     1
102
RTVSPropertyOp56
 70
     0
102
RTVSPropertyOp57
 70
     0
102
RTVSPropertyOp58
 70
     0
102
RTVSPropertyOp59
 70
     0
102
RTVSPropertyOp60
 70
     0
102
RTVSPropertyOp61
 70
     0
102
RTVSPropertyOp62
 70
     0
  0
XRECORD
  5
2E1B
102
{ACAD_REACTORS
330
2E1A
102
}
330
2E1A
100
AcDbXrecord
280
     1
102
RTVSPost2010Prop28
280
     0
102
RTVSPost2010PropOp28
 70
     1
102
RTVSPost2010Prop29
280
     1
102
RTVSPost2010PropOp29
 70
     1
102
RTVSPost2010Prop30
280
     1
102
RTVSPost2010PropOp30
 70
     1
102
RTVSPost2010Prop31
280
     0
102
RTVSPost2010PropOp31
 70
     1
102
RTVSPost2010Prop32
280
     0
102
RTVSPost2010PropOp32
 70
     1
102
RTVSPost2010Prop33
280
     0
102
RTVSPost2010PropOp33
 70
     1
102
RTVSPost2010Prop34
280
     0
102
RTVSPost2010PropOp34
 70
     1
102
RTVSPost2010Prop35
280
     0
102
RTVSPost2010PropOp35
 70
     1
102
RTVSPost2010Prop36
280
     0
102
RTVSPost2010PropOp36
 70
     1
102
RTVSPost2010Prop37
 90
       50
102
RTVSPost2010PropOp37
 70
     1
102
RTVSPost2010Prop38
140
0.0
102
RTVSPost2010PropOp38
 70
     1
102
RTVSPost2010Prop39
140
1.0
102
RTVSPost2010PropOp39
 70
     1
102
RTVSPost2010Prop40
 90
        0
102
RTVSPost2010PropOp40
 70
     1
102
RTVSPost2010Prop41ColorIndex
 90
       18
102
RTVSPost2010Prop41ColorRGB
 90
        0
102
RTVSPost2010PropOp41
 70
     1
102
RTVSPost2010Prop42
 90
       50
102
RTVSPost2010PropOp42
 70
     1
102
RTVSPost2010Prop43
 90
        3
102
RTVSPost2010PropOp43
 70
     1
102
RTVSPost2010Prop44ColorIndex
 90
        5
102
RTVSPost2010Prop44ColorRGB
 90
      255
102
RTVSPost2010PropOp44
 70
     1
102
RTVSPost2010Prop45
280
     0
102
RTVSPost2010PropOp45
 70
     1
102
RTVSPost2010Prop46
 90
       50
102
RTVSPost2010PropOp46
 70
     1
102
RTVSPost2010Prop47
 90
       50
102
RTVSPost2010PropOp47
 70
     1
102
RTVSPost2010Prop48
 90
       50
102
RTVSPost2010PropOp48
 70
     1
102
RTVSPost2010Prop49
280
     0
102
RTVSPost2010PropOp49
 70
     1
102
RTVSPost2010Prop50
 90
       50
102
RTVSPost2010PropOp50
 70
     1
102
RTVSPost2010Prop51ColorIndex
 90
      256
102
RTVSPost2010Prop51ColorRGB
 90
-16777216
102
RTVSPost2010PropOp51
 70
     0
102
RTVSPost2010Prop52
140
1.0
102
RTVSPost2010PropOp52
 70
     0
102
RTVSPost2010Prop53
 90
        2
102
RTVSPost2010PropOp53
 70
     1
102
RTVSPost2010Prop54
  1
strokes_ogs.tif
102
RTVSPost2010PropOp54
 70
     1
102
RTVSPost2010Prop55
280
     0
102
RTVSPost2010PropOp55
 70
     1
102
RTVSPost2010Prop56
140
1.0
102
RTVSPost2010PropOp56
 70
     1
102
RTVSPost2010Prop57
140
1.0
102
RTVSPost2010PropOp57
 70
     1
102
RTVSPropertyOp0
 70
     1
102
RTVSPropertyOp1
 70
     1
102
RTVSPropertyOp2
 70
     1
102
RTVSPropertyOp3
 70
     1
102
RTVSPropertyOp4
 70
     1
102
RTVSPropertyOp5
 70
     1
102
RTVSPropertyOp6
 70
     1
102
RTVSPropertyOp7
 70
     1
102
RTVSPropertyOp8
 70
     1
102
RTVSPropertyOp9
 70
     1
102
RTVSPropertyOp10
 70
     1
102
RTVSPropertyOp11
 70
     1
102
RTVSPropertyOp12
 70
     1
102
RTVSPropertyOp13
 70
     1
102
RTVSPropertyOp14
 70
     1
102
RTVSPropertyOp15
 70
     1
102
RTVSPropertyOp16
 70
     1
102
RTVSPropertyOp17
 70
     1
102
RTVSPropertyOp18
 70
     1
102
RTVSPropertyOp19
 70
     1
102
RTVSPropertyOp20
 70
     1
102
RTVSPropertyOp21
 70
     1
102
RTVSPropertyOp22
 70
     1
102
RTVSPropertyOp23
 70
     1
102
RTVSPropertyOp24
 70
     1
102
RTVSPropertyOp25
 70
     1
102
RTVSPropertyOp26
 70
     1
102
RTVSPropertyOp27
 70
     1
102
RTVSPropertyOp28
 70
     1
102
RTVSPropertyOp29
 70
     1
102
RTVSPropertyOp30
 70
     1
102
RTVSPropertyOp31
 70
     1
102
RTVSPropertyOp32
 70
     1
102
RTVSPropertyOp33
 70
     1
102
RTVSPropertyOp34
 70
     1
102
RTVSPropertyOp35
 70
     1
102
RTVSPropertyOp36
 70
     1
102
RTVSPropertyOp37
 70
     1
102
RTVSPropertyOp38
 70
     1
102
RTVSPropertyOp39
 70
     1
102
RTVSPropertyOp40
 70
     1
102
RTVSPropertyOp41
 70
     1
102
RTVSPropertyOp42
 70
     1
102
RTVSPropertyOp43
 70
     1
102
RTVSPropertyOp44
 70
     1
102
RTVSPropertyOp45
 70
     1
102
RTVSPropertyOp46
 70
     1
102
RTVSPropertyOp47
 70
     1
102
RTVSPropertyOp48
 70
     1
102
RTVSPropertyOp49
 70
     1
102
RTVSPropertyOp50
 70
     1
102
RTVSPropertyOp51
 70
     0
102
RTVSPropertyOp52
 70
     0
102
RTVSPropertyOp53
 70
     1
102
RTVSPropertyOp54
 70
     1
102
RTVSPropertyOp55
 70
     1
102
RTVSPropertyOp56
 70
     1
102
RTVSPropertyOp57
 70
     1
102
RTVSPropertyOp58
 70
     1
102
RTVSPropertyOp59
 70
     1
102
RTVSPropertyOp60
 70
     1
102
RTVSPropertyOp61
 70
     1
102
RTVSPropertyOp62
 70
     1
  0
XRECORD
  5
2E2D
102
{ACAD_REACTORS
330
2E2C
102
}
330
2E2C
100
AcDbXrecord
280
     1
102
RTVSPost2010Prop28
280
     0
102
RTVSPost2010PropOp28
 70
     1
102
RTVSPost2010Prop29
280
     1
102
RTVSPost2010PropOp29
 70
     1
102
RTVSPost2010Prop30
280
     1
102
RTVSPost2010PropOp30
 70
     1
102
RTVSPost2010Prop31
280
     0
102
RTVSPost2010PropOp31
 70
     1
102
RTVSPost2010Prop32
280
     0
102
RTVSPost2010PropOp32
 70
     1
102
RTVSPost2010Prop33
280
     0
102
RTVSPost2010PropOp33
 70
     1
102
RTVSPost2010Prop34
280
     0
102
RTVSPost2010PropOp34
 70
     1
102
RTVSPost2010Prop35
280
     0
102
RTVSPost2010PropOp35
 70
     1
102
RTVSPost2010Prop36
280
     0
102
RTVSPost2010PropOp36
 70
     1
102
RTVSPost2010Prop37
 90
       50
102
RTVSPost2010PropOp37
 70
     0
102
RTVSPost2010Prop38
140
0.0
102
RTVSPost2010PropOp38
 70
     0
102
RTVSPost2010Prop39
140
1.0
102
RTVSPost2010PropOp39
 70
     0
102
RTVSPost2010Prop40
 90
        0
102
RTVSPost2010PropOp40
 70
     0
102
RTVSPost2010Prop41ColorIndex
 90
       18
102
RTVSPost2010Prop41ColorRGB
 90
        0
102
RTVSPost2010PropOp41
 70
     0
102
RTVSPost2010Prop42
 90
       50
102
RTVSPost2010PropOp42
 70
     0
102
RTVSPost2010Prop43
 90
        3
102
RTVSPost2010PropOp43
 70
     0
102
RTVSPost2010Prop44ColorIndex
 90
        5
102
RTVSPost2010Prop44ColorRGB
 90
      255
102
RTVSPost2010PropOp44
 70
     0
102
RTVSPost2010Prop45
280
     0
102
RTVSPost2010PropOp45
 70
     1
102
RTVSPost2010Prop46
 90
       50
102
RTVSPost2010PropOp46
 70
     0
102
RTVSPost2010Prop47
 90
       50
102
RTVSPost2010PropOp47
 70
     0
102
RTVSPost2010Prop48
 90
       50
102
RTVSPost2010PropOp48
 70
     0
102
RTVSPost2010Prop49
280
     0
102
RTVSPost2010PropOp49
 70
     1
102
RTVSPost2010Prop50
 90
       50
102
RTVSPost2010PropOp50
 70
     0
102
RTVSPost2010Prop51ColorIndex
 90
      256
102
RTVSPost2010Prop51ColorRGB
 90
-16777216
102
RTVSPost2010PropOp51
 70
     0
102
RTVSPost2010Prop52
140
1.0
102
RTVSPost2010PropOp52
 70
     0
102
RTVSPost2010Prop53
 90
        2
102
RTVSPost2010PropOp53
 70
     0
102
RTVSPost2010Prop54
  1
strokes_ogs.tif
102
RTVSPost2010PropOp54
 70
     0
102
RTVSPost2010Prop55
280
     0
102
RTVSPost2010PropOp55
 70
     1
102
RTVSPost2010Prop56
140
1.0
102
RTVSPost2010PropOp56
 70
     0
102
RTVSPost2010Prop57
140
1.0
102
RTVSPost2010PropOp57
 70
     0
102
RTVSPropertyOp0
 70
     0
102
RTVSPropertyOp1
 70
     0
102
RTVSPropertyOp2
 70
     0
102
RTVSPropertyOp3
 70
     0
102
RTVSPropertyOp4
 70
     0
102
RTVSPropertyOp5
 70
     0
102
RTVSPropertyOp6
 70
     0
102
RTVSPropertyOp7
 70
     0
102
RTVSPropertyOp8
 70
     0
102
RTVSPropertyOp9
 70
     0
102
RTVSPropertyOp10
 70
     0
102
RTVSPropertyOp11
 70
     0
102
RTVSPropertyOp12
 70
     0
102
RTVSPropertyOp13
 70
     0
102
RTVSPropertyOp14
 70
     2
102
RTVSPropertyOp15
 70
     0
102
RTVSPropertyOp16
 70
     0
102
RTVSPropertyOp17
 70
     0
102
RTVSPropertyOp18
 70
     0
102
RTVSPropertyOp19
 70
     0
102
RTVSPropertyOp20
 70
     0
102
RTVSPropertyOp21
 70
     0
102
RTVSPropertyOp22
 70
     0
102
RTVSPropertyOp23
 70
     0
102
RTVSPropertyOp24
 70
     0
102
RTVSPropertyOp25
 70
     0
102
RTVSPropertyOp26
 70
     0
102
RTVSPropertyOp27
 70
     0
102
RTVSPropertyOp28
 70
     1
102
RTVSPropertyOp29
 70
     1
102
RTVSPropertyOp30
 70
     1
102
RTVSPropertyOp31
 70
     1
102
RTVSPropertyOp32
 70
     1
102
RTVSPropertyOp33
 70
     1
102
RTVSPropertyOp34
 70
     1
102
RTVSPropertyOp35
 70
     1
102
RTVSPropertyOp36
 70
     1
102
RTVSPropertyOp37
 70
     0
102
RTVSPropertyOp38
 70
     0
102
RTVSPropertyOp39
 70
     0
102
RTVSPropertyOp40
 70
     0
102
RTVSPropertyOp41
 70
     0
102
RTVSPropertyOp42
 70
     0
102
RTVSPropertyOp43
 70
     0
102
RTVSPropertyOp44
 70
     0
102
RTVSPropertyOp45
 70
     1
102
RTVSPropertyOp46
 70
     0
102
RTVSPropertyOp47
 70
     0
102
RTVSPropertyOp48
 70
     0
102
RTVSPropertyOp49
 70
     1
102
RTVSPropertyOp50
 70
     0
102
RTVSPropertyOp51
 70
     0
102
RTVSPropertyOp52
 70
     0
102
RTVSPropertyOp53
 70
     0
102
RTVSPropertyOp54
 70
     0
102
RTVSPropertyOp55
 70
     1
102
RTVSPropertyOp56
 70
     0
102
RTVSPropertyOp57
 70
     0
102
RTVSPropertyOp58
 70
     0
102
RTVSPropertyOp59
 70
     0
102
RTVSPropertyOp60
 70
     0
102
RTVSPropertyOp61
 70
     0
102
RTVSPropertyOp62
 70
     0
  0
XRECORD
  5
2E13
102
{ACAD_REACTORS
330
2E12
102
}
330
2E12
100
AcDbXrecord
280
     1
102
RTVSPost2010Prop28
280
     0
102
RTVSPost2010PropOp28
 70
     1
102
RTVSPost2010Prop29
280
     1
102
RTVSPost2010PropOp29
 70
     1
102
RTVSPost2010Prop30
280
     1
102
RTVSPost2010PropOp30
 70
     1
102
RTVSPost2010Prop31
280
     0
102
RTVSPost2010PropOp31
 70
     1
102
RTVSPost2010Prop32
280
     0
102
RTVSPost2010PropOp32
 70
     1
102
RTVSPost2010Prop33
280
     0
102
RTVSPost2010PropOp33
 70
     1
102
RTVSPost2010Prop34
280
     0
102
RTVSPost2010PropOp34
 70
     1
102
RTVSPost2010Prop35
280
     0
102
RTVSPost2010PropOp35
 70
     1
102
RTVSPost2010Prop36
280
     0
102
RTVSPost2010PropOp36
 70
     1
102
RTVSPost2010Prop37
 90
       50
102
RTVSPost2010PropOp37
 70
     1
102
RTVSPost2010Prop38
140
0.0
102
RTVSPost2010PropOp38
 70
     1
102
RTVSPost2010Prop39
140
1.0
102
RTVSPost2010PropOp39
 70
     1
102
RTVSPost2010Prop40
 90
        0
102
RTVSPost2010PropOp40
 70
     1
102
RTVSPost2010Prop41ColorIndex
 90
       18
102
RTVSPost2010Prop41ColorRGB
 90
        0
102
RTVSPost2010PropOp41
 70
     1
102
RTVSPost2010Prop42
 90
       50
102
RTVSPost2010PropOp42
 70
     1
102
RTVSPost2010Prop43
 90
        3
102
RTVSPost2010PropOp43
 70
     1
102
RTVSPost2010Prop44ColorIndex
 90
        5
102
RTVSPost2010Prop44ColorRGB
 90
      255
102
RTVSPost2010PropOp44
 70
     1
102
RTVSPost2010Prop45
280
     0
102
RTVSPost2010PropOp45
 70
     1
102
RTVSPost2010Prop46
 90
       50
102
RTVSPost2010PropOp46
 70
     1
102
RTVSPost2010Prop47
 90
       50
102
RTVSPost2010PropOp47
 70
     1
102
RTVSPost2010Prop48
 90
       50
102
RTVSPost2010PropOp48
 70
     1
102
RTVSPost2010Prop49
280
     0
102
RTVSPost2010PropOp49
 70
     1
102
RTVSPost2010Prop50
 90
       50
102
RTVSPost2010PropOp50
 70
     1
102
RTVSPost2010Prop51ColorIndex
 90
      256
102
RTVSPost2010Prop51ColorRGB
 90
-16777216
102
RTVSPost2010PropOp51
 70
     0
102
RTVSPost2010Prop52
140
1.0
102
RTVSPost2010PropOp52
 70
     0
102
RTVSPost2010Prop53
 90
        2
102
RTVSPost2010PropOp53
 70
     1
102
RTVSPost2010Prop54
  1
strokes_ogs.tif
102
RTVSPost2010PropOp54
 70
     1
102
RTVSPost2010Prop55
280
     0
102
RTVSPost2010PropOp55
 70
     1
102
RTVSPost2010Prop56
140
1.0
102
RTVSPost2010PropOp56
 70
     1
102
RTVSPost2010Prop57
140
1.0
102
RTVSPost2010PropOp57
 70
     1
102
RTVSPropertyOp0
 70
     1
102
RTVSPropertyOp1
 70
     1
102
RTVSPropertyOp2
 70
     1
102
RTVSPropertyOp3
 70
     1
102
RTVSPropertyOp4
 70
     1
102
RTVSPropertyOp5
 70
     1
102
RTVSPropertyOp6
 70
     1
102
RTVSPropertyOp7
 70
     1
102
RTVSPropertyOp8
 70
     1
102
RTVSPropertyOp9
 70
     1
102
RTVSPropertyOp10
 70
     1
102
RTVSPropertyOp11
 70
     1
102
RTVSPropertyOp12
 70
     1
102
RTVSPropertyOp13
 70
     1
102
RTVSPropertyOp14
 70
     1
102
RTVSPropertyOp15
 70
     1
102
RTVSPropertyOp16
 70
     1
102
RTVSPropertyOp17
 70
     1
102
RTVSPropertyOp18
 70
     1
102
RTVSPropertyOp19
 70
     1
102
RTVSPropertyOp20
 70
     1
102
RTVSPropertyOp21
 70
     1
102
RTVSPropertyOp22
 70
     1
102
RTVSPropertyOp23
 70
     1
102
RTVSPropertyOp24
 70
     1
102
RTVSPropertyOp25
 70
     1
102
RTVSPropertyOp26
 70
     1
102
RTVSPropertyOp27
 70
     1
102
RTVSPropertyOp28
 70
     1
102
RTVSPropertyOp29
 70
     1
102
RTVSPropertyOp30
 70
     1
102
RTVSPropertyOp31
 70
     1
102
RTVSPropertyOp32
 70
     1
102
RTVSPropertyOp33
 70
     1
102
RTVSPropertyOp34
 70
     1
102
RTVSPropertyOp35
 70
     1
102
RTVSPropertyOp36
 70
     1
102
RTVSPropertyOp37
 70
     1
102
RTVSPropertyOp38
 70
     1
102
RTVSPropertyOp39
 70
     1
102
RTVSPropertyOp40
 70
     1
102
RTVSPropertyOp41
 70
     1
102
RTVSPropertyOp42
 70
     1
102
RTVSPropertyOp43
 70
     1
102
RTVSPropertyOp44
 70
     1
102
RTVSPropertyOp45
 70
     1
102
RTVSPropertyOp46
 70
     1
102
RTVSPropertyOp47
 70
     1
102
RTVSPropertyOp48
 70
     1
102
RTVSPropertyOp49
 70
     1
102
RTVSPropertyOp50
 70
     1
102
RTVSPropertyOp51
 70
     0
102
RTVSPropertyOp52
 70
     0
102
RTVSPropertyOp53
 70
     1
102
RTVSPropertyOp54
 70
     1
102
RTVSPropertyOp55
 70
     1
102
RTVSPropertyOp56
 70
     1
102
RTVSPropertyOp57
 70
     1
102
RTVSPropertyOp58
 70
     1
102
RTVSPropertyOp59
 70
     1
102
RTVSPropertyOp60
 70
     1
102
RTVSPropertyOp61
 70
     1
102
RTVSPropertyOp62
 70
     1
  0
XRECORD
  5
2E29
102
{ACAD_REACTORS
330
2E28
102
}
330
2E28
100
AcDbXrecord
280
     1
102
RTVSPost2010Prop28
280
     0
102
RTVSPost2010PropOp28
 70
     1
102
RTVSPost2010Prop29
280
     1
102
RTVSPost2010PropOp29
 70
     1
102
RTVSPost2010Prop30
280
     1
102
RTVSPost2010PropOp30
 70
     1
102
RTVSPost2010Prop31
280
     0
102
RTVSPost2010PropOp31
 70
     1
102
RTVSPost2010Prop32
280
     0
102
RTVSPost2010PropOp32
 70
     1
102
RTVSPost2010Prop33
280
     0
102
RTVSPost2010PropOp33
 70
     1
102
RTVSPost2010Prop34
280
     0
102
RTVSPost2010PropOp34
 70
     1
102
RTVSPost2010Prop35
280
     0
102
RTVSPost2010PropOp35
 70
     1
102
RTVSPost2010Prop36
280
     0
102
RTVSPost2010PropOp36
 70
     1
102
RTVSPost2010Prop37
 90
       50
102
RTVSPost2010PropOp37
 70
     1
102
RTVSPost2010Prop38
140
0.0
102
RTVSPost2010PropOp38
 70
     1
102
RTVSPost2010Prop39
140
1.0
102
RTVSPost2010PropOp39
 70
     1
102
RTVSPost2010Prop40
 90
        0
102
RTVSPost2010PropOp40
 70
     1
102
RTVSPost2010Prop41ColorIndex
 90
       18
102
RTVSPost2010Prop41ColorRGB
 90
        0
102
RTVSPost2010PropOp41
 70
     1
102
RTVSPost2010Prop42
 90
       50
102
RTVSPost2010PropOp42
 70
     1
102
RTVSPost2010Prop43
 90
        3
102
RTVSPost2010PropOp43
 70
     1
102
RTVSPost2010Prop44ColorIndex
 90
        5
102
RTVSPost2010Prop44ColorRGB
 90
      255
102
RTVSPost2010PropOp44
 70
     1
102
RTVSPost2010Prop45
280
     0
102
RTVSPost2010PropOp45
 70
     1
102
RTVSPost2010Prop46
 90
       50
102
RTVSPost2010PropOp46
 70
     1
102
RTVSPost2010Prop47
 90
       50
102
RTVSPost2010PropOp47
 70
     1
102
RTVSPost2010Prop48
 90
       50
102
RTVSPost2010PropOp48
 70
     1
102
RTVSPost2010Prop49
280
     0
102
RTVSPost2010PropOp49
 70
     1
102
RTVSPost2010Prop50
 90
       50
102
RTVSPost2010PropOp50
 70
     1
102
RTVSPost2010Prop51ColorIndex
 90
      256
102
RTVSPost2010Prop51ColorRGB
 90
-16777216
102
RTVSPost2010PropOp51
 70
     0
102
RTVSPost2010Prop52
140
1.0
102
RTVSPost2010PropOp52
 70
     0
102
RTVSPost2010Prop53
 90
        2
102
RTVSPost2010PropOp53
 70
     1
102
RTVSPost2010Prop54
  1
strokes_ogs.tif
102
RTVSPost2010PropOp54
 70
     1
102
RTVSPost2010Prop55
280
     0
102
RTVSPost2010PropOp55
 70
     1
102
RTVSPost2010Prop56
140
1.0
102
RTVSPost2010PropOp56
 70
     1
102
RTVSPost2010Prop57
140
1.0
102
RTVSPost2010PropOp57
 70
     1
102
RTVSPropertyOp0
 70
     1
102
RTVSPropertyOp1
 70
     1
102
RTVSPropertyOp2
 70
     1
102
RTVSPropertyOp3
 70
     1
102
RTVSPropertyOp4
 70
     1
102
RTVSPropertyOp5
 70
     1
102
RTVSPropertyOp6
 70
     1
102
RTVSPropertyOp7
 70
     1
102
RTVSPropertyOp8
 70
     1
102
RTVSPropertyOp9
 70
     1
102
RTVSPropertyOp10
 70
     1
102
RTVSPropertyOp11
 70
     1
102
RTVSPropertyOp12
 70
     1
102
RTVSPropertyOp13
 70
     1
102
RTVSPropertyOp14
 70
     1
102
RTVSPropertyOp15
 70
     1
102
RTVSPropertyOp16
 70
     1
102
RTVSPropertyOp17
 70
     1
102
RTVSPropertyOp18
 70
     1
102
RTVSPropertyOp19
 70
     1
102
RTVSPropertyOp20
 70
     1
102
RTVSPropertyOp21
 70
     1
102
RTVSPropertyOp22
 70
     1
102
RTVSPropertyOp23
 70
     1
102
RTVSPropertyOp24
 70
     1
102
RTVSPropertyOp25
 70
     1
102
RTVSPropertyOp26
 70
     1
102
RTVSPropertyOp27
 70
     1
102
RTVSPropertyOp28
 70
     1
102
RTVSPropertyOp29
 70
     1
102
RTVSPropertyOp30
 70
     1
102
RTVSPropertyOp31
 70
     1
102
RTVSPropertyOp32
 70
     1
102
RTVSPropertyOp33
 70
     1
102
RTVSPropertyOp34
 70
     1
102
RTVSPropertyOp35
 70
     1
102
RTVSPropertyOp36
 70
     1
102
RTVSPropertyOp37
 70
     1
102
RTVSPropertyOp38
 70
     1
102
RTVSPropertyOp39
 70
     1
102
RTVSPropertyOp40
 70
     1
102
RTVSPropertyOp41
 70
     1
102
RTVSPropertyOp42
 70
     1
102
RTVSPropertyOp43
 70
     1
102
RTVSPropertyOp44
 70
     1
102
RTVSPropertyOp45
 70
     1
102
RTVSPropertyOp46
 70
     1
102
RTVSPropertyOp47
 70
     1
102
RTVSPropertyOp48
 70
     1
102
RTVSPropertyOp49
 70
     1
102
RTVSPropertyOp50
 70
     1
102
RTVSPropertyOp51
 70
     0
102
RTVSPropertyOp52
 70
     0
102
RTVSPropertyOp53
 70
     1
102
RTVSPropertyOp54
 70
     1
102
RTVSPropertyOp55
 70
     1
102
RTVSPropertyOp56
 70
     1
102
RTVSPropertyOp57
 70
     1
102
RTVSPropertyOp58
 70
     1
102
RTVSPropertyOp59
 70
     1
102
RTVSPropertyOp60
 70
     1
102
RTVSPropertyOp61
 70
     1
102
RTVSPropertyOp62
 70
     1
  0
XRECORD
  5
2E27
102
{ACAD_REACTORS
330
2E26
102
}
330
2E26
100
AcDbXrecord
280
     1
102
RTVSPost2010Prop28
280
     0
102
RTVSPost2010PropOp28
 70
     1
102
RTVSPost2010Prop29
280
     1
102
RTVSPost2010PropOp29
 70
     1
102
RTVSPost2010Prop30
280
     1
102
RTVSPost2010PropOp30
 70
     1
102
RTVSPost2010Prop31
280
     0
102
RTVSPost2010PropOp31
 70
     1
102
RTVSPost2010Prop32
280
     0
102
RTVSPost2010PropOp32
 70
     1
102
RTVSPost2010Prop33
280
     0
102
RTVSPost2010PropOp33
 70
     1
102
RTVSPost2010Prop34
280
     0
102
RTVSPost2010PropOp34
 70
     1
102
RTVSPost2010Prop35
280
     0
102
RTVSPost2010PropOp35
 70
     1
102
RTVSPost2010Prop36
280
     0
102
RTVSPost2010PropOp36
 70
     1
102
RTVSPost2010Prop37
 90
       50
102
RTVSPost2010PropOp37
 70
     1
102
RTVSPost2010Prop38
140
0.0
102
RTVSPost2010PropOp38
 70
     1
102
RTVSPost2010Prop39
140
1.0
102
RTVSPost2010PropOp39
 70
     1
102
RTVSPost2010Prop40
 90
        0
102
RTVSPost2010PropOp40
 70
     1
102
RTVSPost2010Prop41ColorIndex
 90
       18
102
RTVSPost2010Prop41ColorRGB
 90
        0
102
RTVSPost2010PropOp41
 70
     1
102
RTVSPost2010Prop42
 90
       50
102
RTVSPost2010PropOp42
 70
     1
102
RTVSPost2010Prop43
 90
        3
102
RTVSPost2010PropOp43
 70
     1
102
RTVSPost2010Prop44ColorIndex
 90
        5
102
RTVSPost2010Prop44ColorRGB
 90
      255
102
RTVSPost2010PropOp44
 70
     1
102
RTVSPost2010Prop45
280
     0
102
RTVSPost2010PropOp45
 70
     1
102
RTVSPost2010Prop46
 90
       50
102
RTVSPost2010PropOp46
 70
     1
102
RTVSPost2010Prop47
 90
       50
102
RTVSPost2010PropOp47
 70
     1
102
RTVSPost2010Prop48
 90
       50
102
RTVSPost2010PropOp48
 70
     1
102
RTVSPost2010Prop49
280
     0
102
RTVSPost2010PropOp49
 70
     1
102
RTVSPost2010Prop50
 90
       50
102
RTVSPost2010PropOp50
 70
     1
102
RTVSPost2010Prop51ColorIndex
 90
      256
102
RTVSPost2010Prop51ColorRGB
 90
-16777216
102
RTVSPost2010PropOp51
 70
     0
102
RTVSPost2010Prop52
140
1.0
102
RTVSPost2010PropOp52
 70
     0
102
RTVSPost2010Prop53
 90
        2
102
RTVSPost2010PropOp53
 70
     1
102
RTVSPost2010Prop54
  1
strokes_ogs.tif
102
RTVSPost2010PropOp54
 70
     1
102
RTVSPost2010Prop55
280
     0
102
RTVSPost2010PropOp55
 70
     1
102
RTVSPost2010Prop56
140
1.0
102
RTVSPost2010PropOp56
 70
     1
102
RTVSPost2010Prop57
140
1.0
102
RTVSPost2010PropOp57
 70
     1
102
RTVSPropertyOp0
 70
     1
102
RTVSPropertyOp1
 70
     1
102
RTVSPropertyOp2
 70
     1
102
RTVSPropertyOp3
 70
     1
102
RTVSPropertyOp4
 70
     1
102
RTVSPropertyOp5
 70
     1
102
RTVSPropertyOp6
 70
     1
102
RTVSPropertyOp7
 70
     1
102
RTVSPropertyOp8
 70
     1
102
RTVSPropertyOp9
 70
     1
102
RTVSPropertyOp10
 70
     1
102
RTVSPropertyOp11
 70
     1
102
RTVSPropertyOp12
 70
     1
102
RTVSPropertyOp13
 70
     1
102
RTVSPropertyOp14
 70
     1
102
RTVSPropertyOp15
 70
     1
102
RTVSPropertyOp16
 70
     1
102
RTVSPropertyOp17
 70
     1
102
RTVSPropertyOp18
 70
     1
102
RTVSPropertyOp19
 70
     1
102
RTVSPropertyOp20
 70
     1
102
RTVSPropertyOp21
 70
     1
102
RTVSPropertyOp22
 70
     1
102
RTVSPropertyOp23
 70
     1
102
RTVSPropertyOp24
 70
     1
102
RTVSPropertyOp25
 70
     1
102
RTVSPropertyOp26
 70
     1
102
RTVSPropertyOp27
 70
     1
102
RTVSPropertyOp28
 70
     1
102
RTVSPropertyOp29
 70
     1
102
RTVSPropertyOp30
 70
     1
102
RTVSPropertyOp31
 70
     1
102
RTVSPropertyOp32
 70
     1
102
RTVSPropertyOp33
 70
     1
102
RTVSPropertyOp34
 70
     1
102
RTVSPropertyOp35
 70
     1
102
RTVSPropertyOp36
 70
     1
102
RTVSPropertyOp37
 70
     1
102
RTVSPropertyOp38
 70
     1
102
RTVSPropertyOp39
 70
     1
102
RTVSPropertyOp40
 70
     1
102
RTVSPropertyOp41
 70
     1
102
RTVSPropertyOp42
 70
     1
102
RTVSPropertyOp43
 70
     1
102
RTVSPropertyOp44
 70
     1
102
RTVSPropertyOp45
 70
     1
102
RTVSPropertyOp46
 70
     1
102
RTVSPropertyOp47
 70
     1
102
RTVSPropertyOp48
 70
     1
102
RTVSPropertyOp49
 70
     1
102
RTVSPropertyOp50
 70
     1
102
RTVSPropertyOp51
 70
     0
102
RTVSPropertyOp52
 70
     0
102
RTVSPropertyOp53
 70
     1
102
RTVSPropertyOp54
 70
     1
102
RTVSPropertyOp55
 70
     1
102
RTVSPropertyOp56
 70
     1
102
RTVSPropertyOp57
 70
     1
102
RTVSPropertyOp58
 70
     1
102
RTVSPropertyOp59
 70
     1
102
RTVSPropertyOp60
 70
     1
102
RTVSPropertyOp61
 70
     1
102
RTVSPropertyOp62
 70
     1
  0
XRECORD
  5
2E21
102
{ACAD_REACTORS
330
2E20
102
}
330
2E20
100
AcDbXrecord
280
     1
102
RTVSPost2010Prop28
280
     0
102
RTVSPost2010PropOp28
 70
     1
102
RTVSPost2010Prop29
280
     1
102
RTVSPost2010PropOp29
 70
     1
102
RTVSPost2010Prop30
280
     1
102
RTVSPost2010PropOp30
 70
     1
102
RTVSPost2010Prop31
280
     0
102
RTVSPost2010PropOp31
 70
     1
102
RTVSPost2010Prop32
280
     0
102
RTVSPost2010PropOp32
 70
     1
102
RTVSPost2010Prop33
280
     0
102
RTVSPost2010PropOp33
 70
     1
102
RTVSPost2010Prop34
280
     0
102
RTVSPost2010PropOp34
 70
     1
102
RTVSPost2010Prop35
280
     0
102
RTVSPost2010PropOp35
 70
     1
102
RTVSPost2010Prop36
280
     0
102
RTVSPost2010PropOp36
 70
     1
102
RTVSPost2010Prop37
 90
       50
102
RTVSPost2010PropOp37
 70
     1
102
RTVSPost2010Prop38
140
0.0
102
RTVSPost2010PropOp38
 70
     1
102
RTVSPost2010Prop39
140
1.0
102
RTVSPost2010PropOp39
 70
     1
102
RTVSPost2010Prop40
 90
        0
102
RTVSPost2010PropOp40
 70
     1
102
RTVSPost2010Prop41ColorIndex
 90
       18
102
RTVSPost2010Prop41ColorRGB
 90
        0
102
RTVSPost2010PropOp41
 70
     1
102
RTVSPost2010Prop42
 90
       50
102
RTVSPost2010PropOp42
 70
     1
102
RTVSPost2010Prop43
 90
        3
102
RTVSPost2010PropOp43
 70
     1
102
RTVSPost2010Prop44ColorIndex
 90
        5
102
RTVSPost2010Prop44ColorRGB
 90
      255
102
RTVSPost2010PropOp44
 70
     1
102
RTVSPost2010Prop45
280
     0
102
RTVSPost2010PropOp45
 70
     1
102
RTVSPost2010Prop46
 90
       50
102
RTVSPost2010PropOp46
 70
     1
102
RTVSPost2010Prop47
 90
       50
102
RTVSPost2010PropOp47
 70
     1
102
RTVSPost2010Prop48
 90
       50
102
RTVSPost2010PropOp48
 70
     1
102
RTVSPost2010Prop49
280
     0
102
RTVSPost2010PropOp49
 70
     1
102
RTVSPost2010Prop50
 90
       50
102
RTVSPost2010PropOp50
 70
     1
102
RTVSPost2010Prop51ColorIndex
 90
      256
102
RTVSPost2010Prop51ColorRGB
 90
-16777216
102
RTVSPost2010PropOp51
 70
     0
102
RTVSPost2010Prop52
140
1.0
102
RTVSPost2010PropOp52
 70
     0
102
RTVSPost2010Prop53
 90
        2
102
RTVSPost2010PropOp53
 70
     1
102
RTVSPost2010Prop54
  1
strokes_ogs.tif
102
RTVSPost2010PropOp54
 70
     1
102
RTVSPost2010Prop55
280
     0
102
RTVSPost2010PropOp55
 70
     1
102
RTVSPost2010Prop56
140
1.0
102
RTVSPost2010PropOp56
 70
     1
102
RTVSPost2010Prop57
140
1.0
102
RTVSPost2010PropOp57
 70
     1
102
RTVSPropertyOp0
 70
     1
102
RTVSPropertyOp1
 70
     1
102
RTVSPropertyOp2
 70
     1
102
RTVSPropertyOp3
 70
     1
102
RTVSPropertyOp4
 70
     1
102
RTVSPropertyOp5
 70
     1
102
RTVSPropertyOp6
 70
     1
102
RTVSPropertyOp7
 70
     1
102
RTVSPropertyOp8
 70
     1
102
RTVSPropertyOp9
 70
     1
102
RTVSPropertyOp10
 70
     1
102
RTVSPropertyOp11
 70
     1
102
RTVSPropertyOp12
 70
     1
102
RTVSPropertyOp13
 70
     1
102
RTVSPropertyOp14
 70
     1
102
RTVSPropertyOp15
 70
     1
102
RTVSPropertyOp16
 70
     1
102
RTVSPropertyOp17
 70
     1
102
RTVSPropertyOp18
 70
     1
102
RTVSPropertyOp19
 70
     1
102
RTVSPropertyOp20
 70
     1
102
RTVSPropertyOp21
 70
     1
102
RTVSPropertyOp22
 70
     1
102
RTVSPropertyOp23
 70
     1
102
RTVSPropertyOp24
 70
     1
102
RTVSPropertyOp25
 70
     1
102
RTVSPropertyOp26
 70
     1
102
RTVSPropertyOp27
 70
     1
102
RTVSPropertyOp28
 70
     1
102
RTVSPropertyOp29
 70
     1
102
RTVSPropertyOp30
 70
     1
102
RTVSPropertyOp31
 70
     1
102
RTVSPropertyOp32
 70
     1
102
RTVSPropertyOp33
 70
     1
102
RTVSPropertyOp34
 70
     1
102
RTVSPropertyOp35
 70
     1
102
RTVSPropertyOp36
 70
     1
102
RTVSPropertyOp37
 70
     1
102
RTVSPropertyOp38
 70
     1
102
RTVSPropertyOp39
 70
     1
102
RTVSPropertyOp40
 70
     1
102
RTVSPropertyOp41
 70
     1
102
RTVSPropertyOp42
 70
     1
102
RTVSPropertyOp43
 70
     1
102
RTVSPropertyOp44
 70
     1
102
RTVSPropertyOp45
 70
     1
102
RTVSPropertyOp46
 70
     1
102
RTVSPropertyOp47
 70
     1
102
RTVSPropertyOp48
 70
     1
102
RTVSPropertyOp49
 70
     1
102
RTVSPropertyOp50
 70
     1
102
RTVSPropertyOp51
 70
     0
102
RTVSPropertyOp52
 70
     0
102
RTVSPropertyOp53
 70
     1
102
RTVSPropertyOp54
 70
     1
102
RTVSPropertyOp55
 70
     1
102
RTVSPropertyOp56
 70
     1
102
RTVSPropertyOp57
 70
     1
102
RTVSPropertyOp58
 70
     1
102
RTVSPropertyOp59
 70
     1
102
RTVSPropertyOp60
 70
     1
102
RTVSPropertyOp61
 70
     1
102
RTVSPropertyOp62
 70
     1
  0
XRECORD
  5
2E23
102
{ACAD_REACTORS
330
2E22
102
}
330
2E22
100
AcDbXrecord
280
     1
102
RTVSPost2010Prop28
280
     0
102
RTVSPost2010PropOp28
 70
     1
102
RTVSPost2010Prop29
280
     1
102
RTVSPost2010PropOp29
 70
     1
102
RTVSPost2010Prop30
280
     1
102
RTVSPost2010PropOp30
 70
     1
102
RTVSPost2010Prop31
280
     0
102
RTVSPost2010PropOp31
 70
     1
102
RTVSPost2010Prop32
280
     0
102
RTVSPost2010PropOp32
 70
     1
102
RTVSPost2010Prop33
280
     0
102
RTVSPost2010PropOp33
 70
     1
102
RTVSPost2010Prop34
280
     0
102
RTVSPost2010PropOp34
 70
     1
102
RTVSPost2010Prop35
280
     0
102
RTVSPost2010PropOp35
 70
     1
102
RTVSPost2010Prop36
280
     0
102
RTVSPost2010PropOp36
 70
     1
102
RTVSPost2010Prop37
 90
       50
102
RTVSPost2010PropOp37
 70
     1
102
RTVSPost2010Prop38
140
0.0
102
RTVSPost2010PropOp38
 70
     1
102
RTVSPost2010Prop39
140
1.0
102
RTVSPost2010PropOp39
 70
     1
102
RTVSPost2010Prop40
 90
        0
102
RTVSPost2010PropOp40
 70
     1
102
RTVSPost2010Prop41ColorIndex
 90
       18
102
RTVSPost2010Prop41ColorRGB
 90
        0
102
RTVSPost2010PropOp41
 70
     1
102
RTVSPost2010Prop42
 90
       50
102
RTVSPost2010PropOp42
 70
     1
102
RTVSPost2010Prop43
 90
        3
102
RTVSPost2010PropOp43
 70
     1
102
RTVSPost2010Prop44ColorIndex
 90
        5
102
RTVSPost2010Prop44ColorRGB
 90
      255
102
RTVSPost2010PropOp44
 70
     1
102
RTVSPost2010Prop45
280
     0
102
RTVSPost2010PropOp45
 70
     1
102
RTVSPost2010Prop46
 90
       50
102
RTVSPost2010PropOp46
 70
     1
102
RTVSPost2010Prop47
 90
       50
102
RTVSPost2010PropOp47
 70
     1
102
RTVSPost2010Prop48
 90
       50
102
RTVSPost2010PropOp48
 70
     1
102
RTVSPost2010Prop49
280
     0
102
RTVSPost2010PropOp49
 70
     1
102
RTVSPost2010Prop50
 90
       50
102
RTVSPost2010PropOp50
 70
     1
102
RTVSPost2010Prop51ColorIndex
 90
      256
102
RTVSPost2010Prop51ColorRGB
 90
-16777216
102
RTVSPost2010PropOp51
 70
     0
102
RTVSPost2010Prop52
140
1.0
102
RTVSPost2010PropOp52
 70
     0
102
RTVSPost2010Prop53
 90
        2
102
RTVSPost2010PropOp53
 70
     1
102
RTVSPost2010Prop54
  1
strokes_ogs.tif
102
RTVSPost2010PropOp54
 70
     1
102
RTVSPost2010Prop55
280
     0
102
RTVSPost2010PropOp55
 70
     1
102
RTVSPost2010Prop56
140
1.0
102
RTVSPost2010PropOp56
 70
     1
102
RTVSPost2010Prop57
140
1.0
102
RTVSPost2010PropOp57
 70
     1
102
RTVSPropertyOp0
 70
     1
102
RTVSPropertyOp1
 70
     1
102
RTVSPropertyOp2
 70
     1
102
RTVSPropertyOp3
 70
     1
102
RTVSPropertyOp4
 70
     1
102
RTVSPropertyOp5
 70
     1
102
RTVSPropertyOp6
 70
     1
102
RTVSPropertyOp7
 70
     1
102
RTVSPropertyOp8
 70
     1
102
RTVSPropertyOp9
 70
     1
102
RTVSPropertyOp10
 70
     1
102
RTVSPropertyOp11
 70
     1
102
RTVSPropertyOp12
 70
     1
102
RTVSPropertyOp13
 70
     1
102
RTVSPropertyOp14
 70
     1
102
RTVSPropertyOp15
 70
     1
102
RTVSPropertyOp16
 70
     1
102
RTVSPropertyOp17
 70
     1
102
RTVSPropertyOp18
 70
     1
102
RTVSPropertyOp19
 70
     1
102
RTVSPropertyOp20
 70
     1
102
RTVSPropertyOp21
 70
     1
102
RTVSPropertyOp22
 70
     1
102
RTVSPropertyOp23
 70
     1
102
RTVSPropertyOp24
 70
     1
102
RTVSPropertyOp25
 70
     1
102
RTVSPropertyOp26
 70
     1
102
RTVSPropertyOp27
 70
     1
102
RTVSPropertyOp28
 70
     1
102
RTVSPropertyOp29
 70
     1
102
RTVSPropertyOp30
 70
     1
102
RTVSPropertyOp31
 70
     1
102
RTVSPropertyOp32
 70
     1
102
RTVSPropertyOp33
 70
     1
102
RTVSPropertyOp34
 70
     1
102
RTVSPropertyOp35
 70
     1
102
RTVSPropertyOp36
 70
     1
102
RTVSPropertyOp37
 70
     1
102
RTVSPropertyOp38
 70
     1
102
RTVSPropertyOp39
 70
     1
102
RTVSPropertyOp40
 70
     1
102
RTVSPropertyOp41
 70
     1
102
RTVSPropertyOp42
 70
     1
102
RTVSPropertyOp43
 70
     1
102
RTVSPropertyOp44
 70
     1
102
RTVSPropertyOp45
 70
     1
102
RTVSPropertyOp46
 70
     1
102
RTVSPropertyOp47
 70
     1
102
RTVSPropertyOp48
 70
     1
102
RTVSPropertyOp49
 70
     1
102
RTVSPropertyOp50
 70
     1
102
RTVSPropertyOp51
 70
     0
102
RTVSPropertyOp52
 70
     0
102
RTVSPropertyOp53
 70
     1
102
RTVSPropertyOp54
 70
     1
102
RTVSPropertyOp55
 70
     1
102
RTVSPropertyOp56
 70
     1
102
RTVSPropertyOp57
 70
     1
102
RTVSPropertyOp58
 70
     1
102
RTVSPropertyOp59
 70
     1
102
RTVSPropertyOp60
 70
     1
102
RTVSPropertyOp61
 70
     1
102
RTVSPropertyOp62
 70
     1
  0
XRECORD
  5
2E19
102
{ACAD_REACTORS
330
2E18
102
}
330
2E18
100
AcDbXrecord
280
     1
102
RTVSPost2010Prop28
280
     0
102
RTVSPost2010PropOp28
 70
     1
102
RTVSPost2010Prop29
280
     1
102
RTVSPost2010PropOp29
 70
     1
102
RTVSPost2010Prop30
280
     1
102
RTVSPost2010PropOp30
 70
     1
102
RTVSPost2010Prop31
280
     0
102
RTVSPost2010PropOp31
 70
     1
102
RTVSPost2010Prop32
280
     0
102
RTVSPost2010PropOp32
 70
     1
102
RTVSPost2010Prop33
280
     0
102
RTVSPost2010PropOp33
 70
     1
102
RTVSPost2010Prop34
280
     0
102
RTVSPost2010PropOp34
 70
     1
102
RTVSPost2010Prop35
280
     0
102
RTVSPost2010PropOp35
 70
     1
102
RTVSPost2010Prop36
280
     0
102
RTVSPost2010PropOp36
 70
     1
102
RTVSPost2010Prop37
 90
       50
102
RTVSPost2010PropOp37
 70
     1
102
RTVSPost2010Prop38
140
0.0
102
RTVSPost2010PropOp38
 70
     1
102
RTVSPost2010Prop39
140
1.0
102
RTVSPost2010PropOp39
 70
     1
102
RTVSPost2010Prop40
 90
        0
102
RTVSPost2010PropOp40
 70
     1
102
RTVSPost2010Prop41ColorIndex
 90
       18
102
RTVSPost2010Prop41ColorRGB
 90
        0
102
RTVSPost2010PropOp41
 70
     1
102
RTVSPost2010Prop42
 90
       50
102
RTVSPost2010PropOp42
 70
     1
102
RTVSPost2010Prop43
 90
        3
102
RTVSPost2010PropOp43
 70
     1
102
RTVSPost2010Prop44ColorIndex
 90
        5
102
RTVSPost2010Prop44ColorRGB
 90
      255
102
RTVSPost2010PropOp44
 70
     1
102
RTVSPost2010Prop45
280
     0
102
RTVSPost2010PropOp45
 70
     1
102
RTVSPost2010Prop46
 90
       50
102
RTVSPost2010PropOp46
 70
     1
102
RTVSPost2010Prop47
 90
       50
102
RTVSPost2010PropOp47
 70
     1
102
RTVSPost2010Prop48
 90
       50
102
RTVSPost2010PropOp48
 70
     1
102
RTVSPost2010Prop49
280
     0
102
RTVSPost2010PropOp49
 70
     1
102
RTVSPost2010Prop50
 90
       50
102
RTVSPost2010PropOp50
 70
     1
102
RTVSPost2010Prop51ColorIndex
 90
      256
102
RTVSPost2010Prop51ColorRGB
 90
-16777216
102
RTVSPost2010PropOp51
 70
     0
102
RTVSPost2010Prop52
140
1.0
102
RTVSPost2010PropOp52
 70
     0
102
RTVSPost2010Prop53
 90
        2
102
RTVSPost2010PropOp53
 70
     1
102
RTVSPost2010Prop54
  1
strokes_ogs.tif
102
RTVSPost2010PropOp54
 70
     1
102
RTVSPost2010Prop55
280
     0
102
RTVSPost2010PropOp55
 70
     1
102
RTVSPost2010Prop56
140
1.0
102
RTVSPost2010PropOp56
 70
     1
102
RTVSPost2010Prop57
140
1.0
102
RTVSPost2010PropOp57
 70
     1
102
RTVSPropertyOp0
 70
     1
102
RTVSPropertyOp1
 70
     1
102
RTVSPropertyOp2
 70
     1
102
RTVSPropertyOp3
 70
     1
102
RTVSPropertyOp4
 70
     1
102
RTVSPropertyOp5
 70
     1
102
RTVSPropertyOp6
 70
     1
102
RTVSPropertyOp7
 70
     1
102
RTVSPropertyOp8
 70
     1
102
RTVSPropertyOp9
 70
     1
102
RTVSPropertyOp10
 70
     1
102
RTVSPropertyOp11
 70
     1
102
RTVSPropertyOp12
 70
     1
102
RTVSPropertyOp13
 70
     1
102
RTVSPropertyOp14
 70
     1
102
RTVSPropertyOp15
 70
     1
102
RTVSPropertyOp16
 70
     1
102
RTVSPropertyOp17
 70
     1
102
RTVSPropertyOp18
 70
     1
102
RTVSPropertyOp19
 70
     1
102
RTVSPropertyOp20
 70
     1
102
RTVSPropertyOp21
 70
     1
102
RTVSPropertyOp22
 70
     1
102
RTVSPropertyOp23
 70
     1
102
RTVSPropertyOp24
 70
     1
102
RTVSPropertyOp25
 70
     1
102
RTVSPropertyOp26
 70
     1
102
RTVSPropertyOp27
 70
     1
102
RTVSPropertyOp28
 70
     1
102
RTVSPropertyOp29
 70
     1
102
RTVSPropertyOp30
 70
     1
102
RTVSPropertyOp31
 70
     1
102
RTVSPropertyOp32
 70
     1
102
RTVSPropertyOp33
 70
     1
102
RTVSPropertyOp34
 70
     1
102
RTVSPropertyOp35
 70
     1
102
RTVSPropertyOp36
 70
     1
102
RTVSPropertyOp37
 70
     1
102
RTVSPropertyOp38
 70
     1
102
RTVSPropertyOp39
 70
     1
102
RTVSPropertyOp40
 70
     1
102
RTVSPropertyOp41
 70
     1
102
RTVSPropertyOp42
 70
     1
102
RTVSPropertyOp43
 70
     1
102
RTVSPropertyOp44
 70
     1
102
RTVSPropertyOp45
 70
     1
102
RTVSPropertyOp46
 70
     1
102
RTVSPropertyOp47
 70
     1
102
RTVSPropertyOp48
 70
     1
102
RTVSPropertyOp49
 70
     1
102
RTVSPropertyOp50
 70
     1
102
RTVSPropertyOp51
 70
     0
102
RTVSPropertyOp52
 70
     0
102
RTVSPropertyOp53
 70
     1
102
RTVSPropertyOp54
 70
     1
102
RTVSPropertyOp55
 70
     1
102
RTVSPropertyOp56
 70
     1
102
RTVSPropertyOp57
 70
     1
102
RTVSPropertyOp58
 70
     1
102
RTVSPropertyOp59
 70
     1
102
RTVSPropertyOp60
 70
     1
102
RTVSPropertyOp61
 70
     1
102
RTVSPropertyOp62
 70
     1
  0
XRECORD
  5
2E0D
102
{ACAD_REACTORS
330
2E0C
102
}
330
2E0C
100
AcDbXrecord
280
     1
102
RTVSPost2010Prop28
280
     0
102
RTVSPost2010PropOp28
 70
     1
102
RTVSPost2010Prop29
280
     1
102
RTVSPost2010PropOp29
 70
     1
102
RTVSPost2010Prop30
280
     1
102
RTVSPost2010PropOp30
 70
     1
102
RTVSPost2010Prop31
280
     0
102
RTVSPost2010PropOp31
 70
     1
102
RTVSPost2010Prop32
280
     0
102
RTVSPost2010PropOp32
 70
     1
102
RTVSPost2010Prop33
280
     0
102
RTVSPost2010PropOp33
 70
     1
102
RTVSPost2010Prop34
280
     0
102
RTVSPost2010PropOp34
 70
     1
102
RTVSPost2010Prop35
280
     0
102
RTVSPost2010PropOp35
 70
     1
102
RTVSPost2010Prop36
280
     0
102
RTVSPost2010PropOp36
 70
     1
102
RTVSPost2010Prop37
 90
       50
102
RTVSPost2010PropOp37
 70
     1
102
RTVSPost2010Prop38
140
0.0
102
RTVSPost2010PropOp38
 70
     1
102
RTVSPost2010Prop39
140
1.0
102
RTVSPost2010PropOp39
 70
     1
102
RTVSPost2010Prop40
 90
        0
102
RTVSPost2010PropOp40
 70
     1
102
RTVSPost2010Prop41ColorIndex
 90
       18
102
RTVSPost2010Prop41ColorRGB
 90
        0
102
RTVSPost2010PropOp41
 70
     1
102
RTVSPost2010Prop42
 90
       50
102
RTVSPost2010PropOp42
 70
     1
102
RTVSPost2010Prop43
 90
        3
102
RTVSPost2010PropOp43
 70
     1
102
RTVSPost2010Prop44ColorIndex
 90
        5
102
RTVSPost2010Prop44ColorRGB
 90
      255
102
RTVSPost2010PropOp44
 70
     1
102
RTVSPost2010Prop45
280
     0
102
RTVSPost2010PropOp45
 70
     1
102
RTVSPost2010Prop46
 90
       50
102
RTVSPost2010PropOp46
 70
     1
102
RTVSPost2010Prop47
 90
       50
102
RTVSPost2010PropOp47
 70
     1
102
RTVSPost2010Prop48
 90
       50
102
RTVSPost2010PropOp48
 70
     1
102
RTVSPost2010Prop49
280
     0
102
RTVSPost2010PropOp49
 70
     1
102
RTVSPost2010Prop50
 90
       50
102
RTVSPost2010PropOp50
 70
     1
102
RTVSPost2010Prop51ColorIndex
 90
      256
102
RTVSPost2010Prop51ColorRGB
 90
-16777216
102
RTVSPost2010PropOp51
 70
     0
102
RTVSPost2010Prop52
140
1.0
102
RTVSPost2010PropOp52
 70
     0
102
RTVSPost2010Prop53
 90
        2
102
RTVSPost2010PropOp53
 70
     1
102
RTVSPost2010Prop54
  1
strokes_ogs.tif
102
RTVSPost2010PropOp54
 70
     1
102
RTVSPost2010Prop55
280
     0
102
RTVSPost2010PropOp55
 70
     1
102
RTVSPost2010Prop56
140
1.0
102
RTVSPost2010PropOp56
 70
     1
102
RTVSPost2010Prop57
140
1.0
102
RTVSPost2010PropOp57
 70
     1
102
RTVSPropertyOp0
 70
     1
102
RTVSPropertyOp1
 70
     1
102
RTVSPropertyOp2
 70
     1
102
RTVSPropertyOp3
 70
     1
102
RTVSPropertyOp4
 70
     1
102
RTVSPropertyOp5
 70
     1
102
RTVSPropertyOp6
 70
     1
102
RTVSPropertyOp7
 70
     1
102
RTVSPropertyOp8
 70
     1
102
RTVSPropertyOp9
 70
     1
102
RTVSPropertyOp10
 70
     1
102
RTVSPropertyOp11
 70
     1
102
RTVSPropertyOp12
 70
     1
102
RTVSPropertyOp13
 70
     1
102
RTVSPropertyOp14
 70
     1
102
RTVSPropertyOp15
 70
     1
102
RTVSPropertyOp16
 70
     1
102
RTVSPropertyOp17
 70
     1
102
RTVSPropertyOp18
 70
     1
102
RTVSPropertyOp19
 70
     1
102
RTVSPropertyOp20
 70
     1
102
RTVSPropertyOp21
 70
     1
102
RTVSPropertyOp22
 70
     1
102
RTVSPropertyOp23
 70
     1
102
RTVSPropertyOp24
 70
     1
102
RTVSPropertyOp25
 70
     1
102
RTVSPropertyOp26
 70
     1
102
RTVSPropertyOp27
 70
     1
102
RTVSPropertyOp28
 70
     1
102
RTVSPropertyOp29
 70
     1
102
RTVSPropertyOp30
 70
     1
102
RTVSPropertyOp31
 70
     1
102
RTVSPropertyOp32
 70
     1
102
RTVSPropertyOp33
 70
     1
102
RTVSPropertyOp34
 70
     1
102
RTVSPropertyOp35
 70
     1
102
RTVSPropertyOp36
 70
     1
102
RTVSPropertyOp37
 70
     1
102
RTVSPropertyOp38
 70
     1
102
RTVSPropertyOp39
 70
     1
102
RTVSPropertyOp40
 70
     1
102
RTVSPropertyOp41
 70
     1
102
RTVSPropertyOp42
 70
     1
102
RTVSPropertyOp43
 70
     1
102
RTVSPropertyOp44
 70
     1
102
RTVSPropertyOp45
 70
     1
102
RTVSPropertyOp46
 70
     1
102
RTVSPropertyOp47
 70
     1
102
RTVSPropertyOp48
 70
     1
102
RTVSPropertyOp49
 70
     1
102
RTVSPropertyOp50
 70
     1
102
RTVSPropertyOp51
 70
     0
102
RTVSPropertyOp52
 70
     0
102
RTVSPropertyOp53
 70
     1
102
RTVSPropertyOp54
 70
     1
102
RTVSPropertyOp55
 70
     1
102
RTVSPropertyOp56
 70
     1
102
RTVSPropertyOp57
 70
     1
102
RTVSPropertyOp58
 70
     1
102
RTVSPropertyOp59
 70
     1
102
RTVSPropertyOp60
 70
     1
102
RTVSPropertyOp61
 70
     1
102
RTVSPropertyOp62
 70
     1
  0
XRECORD
  5
2E25
102
{ACAD_REACTORS
330
2E24
102
}
330
2E24
100
AcDbXrecord
280
     1
102
RTVSPost2010Prop28
280
     0
102
RTVSPost2010PropOp28
 70
     1
102
RTVSPost2010Prop29
280
     1
102
RTVSPost2010PropOp29
 70
     1
102
RTVSPost2010Prop30
280
     1
102
RTVSPost2010PropOp30
 70
     1
102
RTVSPost2010Prop31
280
     0
102
RTVSPost2010PropOp31
 70
     1
102
RTVSPost2010Prop32
280
     0
102
RTVSPost2010PropOp32
 70
     1
102
RTVSPost2010Prop33
280
     0
102
RTVSPost2010PropOp33
 70
     1
102
RTVSPost2010Prop34
280
     0
102
RTVSPost2010PropOp34
 70
     1
102
RTVSPost2010Prop35
280
     0
102
RTVSPost2010PropOp35
 70
     1
102
RTVSPost2010Prop36
280
     0
102
RTVSPost2010PropOp36
 70
     1
102
RTVSPost2010Prop37
 90
       50
102
RTVSPost2010PropOp37
 70
     1
102
RTVSPost2010Prop38
140
0.0
102
RTVSPost2010PropOp38
 70
     1
102
RTVSPost2010Prop39
140
1.0
102
RTVSPost2010PropOp39
 70
     1
102
RTVSPost2010Prop40
 90
        0
102
RTVSPost2010PropOp40
 70
     1
102
RTVSPost2010Prop41ColorIndex
 90
       18
102
RTVSPost2010Prop41ColorRGB
 90
        0
102
RTVSPost2010PropOp41
 70
     1
102
RTVSPost2010Prop42
 90
       50
102
RTVSPost2010PropOp42
 70
     1
102
RTVSPost2010Prop43
 90
        3
102
RTVSPost2010PropOp43
 70
     1
102
RTVSPost2010Prop44ColorIndex
 90
        5
102
RTVSPost2010Prop44ColorRGB
 90
      255
102
RTVSPost2010PropOp44
 70
     1
102
RTVSPost2010Prop45
280
     0
102
RTVSPost2010PropOp45
 70
     1
102
RTVSPost2010Prop46
 90
       50
102
RTVSPost2010PropOp46
 70
     1
102
RTVSPost2010Prop47
 90
       50
102
RTVSPost2010PropOp47
 70
     1
102
RTVSPost2010Prop48
 90
       50
102
RTVSPost2010PropOp48
 70
     1
102
RTVSPost2010Prop49
280
     0
102
RTVSPost2010PropOp49
 70
     1
102
RTVSPost2010Prop50
 90
       50
102
RTVSPost2010PropOp50
 70
     1
102
RTVSPost2010Prop51ColorIndex
 90
      256
102
RTVSPost2010Prop51ColorRGB
 90
-16777216
102
RTVSPost2010PropOp51
 70
     0
102
RTVSPost2010Prop52
140
1.0
102
RTVSPost2010PropOp52
 70
     0
102
RTVSPost2010Prop53
 90
        2
102
RTVSPost2010PropOp53
 70
     1
102
RTVSPost2010Prop54
  1
strokes_ogs.tif
102
RTVSPost2010PropOp54
 70
     1
102
RTVSPost2010Prop55
280
     0
102
RTVSPost2010PropOp55
 70
     1
102
RTVSPost2010Prop56
140
1.0
102
RTVSPost2010PropOp56
 70
     1
102
RTVSPost2010Prop57
140
1.0
102
RTVSPost2010PropOp57
 70
     1
102
RTVSPropertyOp0
 70
     1
102
RTVSPropertyOp1
 70
     1
102
RTVSPropertyOp2
 70
     1
102
RTVSPropertyOp3
 70
     1
102
RTVSPropertyOp4
 70
     1
102
RTVSPropertyOp5
 70
     1
102
RTVSPropertyOp6
 70
     1
102
RTVSPropertyOp7
 70
     1
102
RTVSPropertyOp8
 70
     1
102
RTVSPropertyOp9
 70
     1
102
RTVSPropertyOp10
 70
     1
102
RTVSPropertyOp11
 70
     1
102
RTVSPropertyOp12
 70
     1
102
RTVSPropertyOp13
 70
     1
102
RTVSPropertyOp14
 70
     1
102
RTVSPropertyOp15
 70
     1
102
RTVSPropertyOp16
 70
     1
102
RTVSPropertyOp17
 70
     1
102
RTVSPropertyOp18
 70
     1
102
RTVSPropertyOp19
 70
     1
102
RTVSPropertyOp20
 70
     1
102
RTVSPropertyOp21
 70
     1
102
RTVSPropertyOp22
 70
     1
102
RTVSPropertyOp23
 70
     1
102
RTVSPropertyOp24
 70
     1
102
RTVSPropertyOp25
 70
     1
102
RTVSPropertyOp26
 70
     1
102
RTVSPropertyOp27
 70
     1
102
RTVSPropertyOp28
 70
     1
102
RTVSPropertyOp29
 70
     1
102
RTVSPropertyOp30
 70
     1
102
RTVSPropertyOp31
 70
     1
102
RTVSPropertyOp32
 70
     1
102
RTVSPropertyOp33
 70
     1
102
RTVSPropertyOp34
 70
     1
102
RTVSPropertyOp35
 70
     1
102
RTVSPropertyOp36
 70
     1
102
RTVSPropertyOp37
 70
     1
102
RTVSPropertyOp38
 70
     1
102
RTVSPropertyOp39
 70
     1
102
RTVSPropertyOp40
 70
     1
102
RTVSPropertyOp41
 70
     1
102
RTVSPropertyOp42
 70
     1
102
RTVSPropertyOp43
 70
     1
102
RTVSPropertyOp44
 70
     1
102
RTVSPropertyOp45
 70
     1
102
RTVSPropertyOp46
 70
     1
102
RTVSPropertyOp47
 70
     1
102
RTVSPropertyOp48
 70
     1
102
RTVSPropertyOp49
 70
     1
102
RTVSPropertyOp50
 70
     1
102
RTVSPropertyOp51
 70
     0
102
RTVSPropertyOp52
 70
     0
102
RTVSPropertyOp53
 70
     1
102
RTVSPropertyOp54
 70
     1
102
RTVSPropertyOp55
 70
     1
102
RTVSPropertyOp56
 70
     1
102
RTVSPropertyOp57
 70
     1
102
RTVSPropertyOp58
 70
     1
102
RTVSPropertyOp59
 70
     1
102
RTVSPropertyOp60
 70
     1
102
RTVSPropertyOp61
 70
     1
102
RTVSPropertyOp62
 70
     1
  0
ENDSEC
  0
EOF
