  0
SECTION
  2
HEADER
  9
$ACADVER
  1
AC1015
  9
$DWGCODEPAGE
  3
ANSI_932
  9
$LTSCALE
 40
20.0
  9
$FILLMODE
 70
     1
  9
$CLAYER
  8
0
  9
$PDMODE
 70
     0
  9
$SPLFRAME
 70
     0
  9
$SPLINETYPE
 70
     6
  9
$SPLINESEGS
 70
     8
  9
$DIMASZ
 40
2.000000
  9
$DIMEXE
 40
1.500000
  9
$DIMEXO
 40
0.800000
  9
$DIMTAD
 70
     1
  9
$DIMTIH
 70
     0
  9
$DIMTOH
 70
     0
  9
$DIMTVP
 40
0.500000
  9
$DIMTXT
 40
3.100000
  9
$EXTMIN
 10
0.000000
 20
0.000000
 30
0.000000
  9
$EXTMAX
 10
297.000000
 20
420.000000
 30
0.000000
  9
$MEASUREMENT
 70
  1
  9
$LIMMIN
 10
0.000000
 20
0.000000
  9
$LIMMAX
 10
297.000000
 20
420.000000
  9
$HANDSEED
  5
178
  9
$LWDISPLAY
290
     0
  9
$DIMBLK
  1
_OPEN
  9
$DIMDEC
 70
     2
  9
$DIMADEC
 70
     2
  9
$DIMAUNIT
 70
     0
  9
$DIMZIN
 70
     8
  9
$DIMAZIN
 70
     2
  9
$DIMTOFL
 70
     1
  0
ENDSEC
  0
SECTION
  2
CLASSES
  0
ENDSEC
  0
SECTION
  2
TABLES
  0
TABLE
  2
VPORT
  5
144
100
AcDbSymbolTable
 70
     1
  0
VPORT
  5
145
100
AcDbSymbolTableRecord
100
AcDbViewportTableRecord
  2
*ACTIVE
 70
     0
 12
161.749998
 22
164.000001
 40
292.000000
 41
1.039384
  0
ENDTAB
  0
TABLE
  2
LTYPE
  5
146
100
AcDbSymbolTable
 70
     3
  0
LTYPE
  5
147
100
AcDbSymbolTableRecord
100
AcDbLinetypeTableRecord
  2
BYBLOCK
 70
     0
  3

 72
    65
 73
     0
 40
0.0
  0
LTYPE
  5
148
100
AcDbSymbolTableRecord
100
AcDbLinetypeTableRecord
  2
BYLAYER
 70
     0
  3

 72
    65
 73
     0
 40
0.0
  0
LTYPE
  5
149
100
AcDbSymbolTableRecord
100
AcDbLinetypeTableRecord
  2
CONTINUOUS
 70
     0
  3
Solid line (NEC CAE2D for Win R17.0 : 2022.10.07)
 72
    65
 73
     0
 40
0.0
  0
LTYPE
  5
14A
100
AcDbSymbolTableRecord
100
AcDbLinetypeTableRecord
  2
DASHED
 70
     0
  3
__ __ __ __ __ __ __ __ __ __ __ __ __ _
 72
    65
 73
     2
 40
0.75
 49
0.5
 74
     0
 49
-0.25
 74
     0
  0
LTYPE
  5
14B
100
AcDbSymbolTableRecord
100
AcDbLinetypeTableRecord
  2
CENTER
 70
     0
  3
____ _ ____ _ ____ _ ____ _ ____ _ ____
 72
    65
 73
     4
 40
2.0
 49
1.25
 74
     0
 49
-0.25
 74
     0
 49
0.25
 74
     0
 49
-0.25
 74
     0
  0
ENDTAB
  0
TABLE
  2
LAYER
  5
14C
100
AcDbSymbolTable
 70
    13
  0
LAYER
  5
14D
100
AcDbSymbolTableRecord
100
AcDbLayerTableRecord
  2
0
 70
     0
 62
     7
  6
CONTINUOUS
370
    -3
390

  0
LAYER
  5
14E
100
AcDbSymbolTableRecord
100
AcDbLayerTableRecord
  2
A0
 70
     0
 62
     9
  6
CONTINUOUS
370
    -3
390

  0
LAYER
  5
14F
100
AcDbSymbolTableRecord
100
AcDbLayerTableRecord
  2
A1
 70
     0
 62
     1
  6
CONTINUOUS
370
    -3
390

  0
LAYER
  5
150
100
AcDbSymbolTableRecord
100
AcDbLayerTableRecord
  2
A2
 70
     0
 62
     8
  6
CONTINUOUS
370
    -3
390

  0
LAYER
  5
151
100
AcDbSymbolTableRecord
100
AcDbLayerTableRecord
  2
A3
 70
     0
 62
    12
  6
CONTINUOUS
370
    -3
390

  0
LAYER
  5
152
100
AcDbSymbolTableRecord
100
AcDbLayerTableRecord
  2
A4
 70
     0
 62
    10
  6
CONTINUOUS
370
    -3
390

  0
LAYER
  5
153
100
AcDbSymbolTableRecord
100
AcDbLayerTableRecord
  2
A7
 70
     0
 62
    12
  6
CONTINUOUS
370
    -3
390

  0
LAYER
  5
154
100
AcDbSymbolTableRecord
100
AcDbLayerTableRecord
  2
A10
 70
     0
 62
     6
  6
CONTINUOUS
370
    -3
390

  0
LAYER
  5
155
100
AcDbSymbolTableRecord
100
AcDbLayerTableRecord
  2
A20
 70
     0
 62
     1
  6
CONTINUOUS
370
    -3
390

  0
LAYER
  5
156
100
AcDbSymbolTableRecord
100
AcDbLayerTableRecord
  2
A30
 70
     0
 62
     1
  6
CONTINUOUS
370
    -3
390

  0
LAYER
  5
157
100
AcDbSymbolTableRecord
100
AcDbLayerTableRecord
  2
A40
 70
     0
 62
     9
  6
CONTINUOUS
370
    -3
390

  0
LAYER
  5
158
100
AcDbSymbolTableRecord
100
AcDbLayerTableRecord
  2
A50
 70
     0
 62
    12
  6
CONTINUOUS
370
    -3
390

  0
LAYER
  5
159
100
AcDbSymbolTableRecord
100
AcDbLayerTableRecord
  2
A1023
 70
     0
 62
    16
  6
CONTINUOUS
370
    -3
390

  0
ENDTAB
  0
TABLE
  2
STYLE
  5
15A
100
AcDbSymbolTable
 70
     4
  0
STYLE
  5
15B
100
AcDbSymbolTableRecord
100
AcDbTextStyleTableRecord
  2
STANDARD
 70
    64
 40
0.0
 41
1.0
 50
0.0
 71
     0
 42
3.000000000000000
  3
TXT
  4

  0
STYLE
  5
15C
100
AcDbSymbolTableRecord
100
AcDbTextStyleTableRecord
  2
ANKTATE
 70
    68
 40
0.0
 41
1.0
 50
0.0
 71
     0
 42
3.000000000000000
  3
TXT
  4

  0
STYLE
  5
15D
100
AcDbSymbolTableRecord
100
AcDbTextStyleTableRecord
  2
KNJYOKO
 70
    64
 40
0.0
 41
1.0
 50
0.0
 71
     0
 42
3.000000000000000
  3
TXT
  4
BIGFONT
  0
STYLE
  5
15E
100
AcDbSymbolTableRecord
100
AcDbTextStyleTableRecord
  2
KNJTATE
 70
    68
 40
0.0
 41
1.0
 50
0.0
 71
     0
 42
3.000000000000000
  3
TXT
  4
BIGFONT
  0
ENDTAB
  0
TABLE
  2
VIEW
  5
15F
100
AcDbSymbolTable
 70
     0
  0
ENDTAB
  0
TABLE
  2
UCS
  5
160
100
AcDbSymbolTable
 70
     0
  0
ENDTAB
  0
TABLE
  2
APPID
  5
161
100
AcDbSymbolTable
 70
     1
  0
APPID
  5
162
100
AcDbSymbolTableRecord
100
AcDbRegAppTableRecord
  2
ACAD
 70
     0
  0
ENDTAB
  0
TABLE
  2
DIMSTYLE
  5
163
100
AcDbSymbolTable
 70
     2
100
AcDbDimStyleTable
  0
DIMSTYLE
105
164
100
AcDbSymbolTableRecord
100
AcDbDimStyleTableRecord
  2
STANDARD
 70
     0
 41
2.000000
 44
1.500000
 42
0.800000
145
0.661290
140
3.100000
144
1.000000
146
0.645161
340
15B
  0
DIMSTYLE
105
165
100
AcDbSymbolTableRecord
100
AcDbDimStyleTableRecord
  2
A001
 70
     0
 41
2.000000
 44
1.500000
 42
0.800000
145
0.661290
140
3.100000
144
1.000000
146
0.645161
 77
     1
 73
     0
 74
     0
271
     2
179
     2
275
     0
 78
     8
 79
     2
172
     1
340
15B
  0
ENDTAB
  0
TABLE
  2
BLOCK_RECORD
  5
166
100
AcDbSymbolTable
 70
    12
  0
BLOCK_RECORD
  5
167
100
AcDbSymbolTableRecord
100
AcDbBlockTableRecord
  2
*MODEL_SPACE
  0
BLOCK_RECORD
  5
168
100
AcDbSymbolTableRecord
100
AcDbBlockTableRecord
  2
*PAPER_SPACE
  0
BLOCK_RECORD
  5
169
100
AcDbSymbolTableRecord
100
AcDbBlockTableRecord
  2
*PAPER_SPACE0
  0
BLOCK_RECORD
  5
1
100
AcDbSymbolTableRecord
100
AcDbBlockTableRecord
  2
_NONE
  0
BLOCK_RECORD
  5
4
100
AcDbSymbolTableRecord
100
AcDbBlockTableRecord
  2
_CLOSED
  0
BLOCK_RECORD
  5
B
100
AcDbSymbolTableRecord
100
AcDbBlockTableRecord
  2
_DOT
  0
BLOCK_RECORD
  5
13
100
AcDbSymbolTableRecord
100
AcDbBlockTableRecord
  2
_OPEN
  0
BLOCK_RECORD
  5
19
100
AcDbSymbolTableRecord
100
AcDbBlockTableRecord
  2
_ORIGIN
  0
BLOCK_RECORD
  5
1E
100
AcDbSymbolTableRecord
100
AcDbBlockTableRecord
  2
_OPEN30
  0
BLOCK_RECORD
  5
24
100
AcDbSymbolTableRecord
100
AcDbBlockTableRecord
  2
_BOXFILLED
  0
BLOCK_RECORD
  5
29
100
AcDbSymbolTableRecord
100
AcDbBlockTableRecord
  2
_BOXBLANK
  0
BLOCK_RECORD
  5
31
100
AcDbSymbolTableRecord
100
AcDbBlockTableRecord
  2
_OBLIQUE
  0
BLOCK_RECORD
  5
35
100
AcDbSymbolTableRecord
100
AcDbBlockTableRecord
  2
_OPEN90
  0
BLOCK_RECORD
  5
3B
100
AcDbSymbolTableRecord
100
AcDbBlockTableRecord
  2
_CLOSEDBLANK
  0
BLOCK_RECORD
  5
41
100
AcDbSymbolTableRecord
100
AcDbBlockTableRecord
  2
_DOTBLANK
  0
ENDTAB
  0
ENDSEC
  0
SECTION
  2
BLOCKS
  0
BLOCK
  5
16A
100
AcDbEntity
  8
0
100
AcDbBlockBegin
  2
*MODEL_SPACE
 70
     0
 10
0.0
 20
0.0
 30
0.0
  3
*MODEL_SPACE
  1

  0
ENDBLK
  5
16B
100
AcDbEntity
  8
0
100
AcDbBlockEnd
  0
BLOCK
  5
16C
100
AcDbEntity
  8
0
100
AcDbBlockBegin
  2
*PAPER_SPACE
 70
     0
 10
0.0
 20
0.0
 30
0.0
  3
*PAPER_SPACE
  1

  0
ENDBLK
  5
16D
100
AcDbEntity
  8
0
100
AcDbBlockEnd
  0
BLOCK
  5
16E
100
AcDbEntity
  8
0
100
AcDbBlockBegin
  2
*PAPER_SPACE0
 70
     0
 10
0.0
 20
0.0
 30
0.0
  3
*PAPER_SPACE0
  1

  0
ENDBLK
  5
16F
100
AcDbEntity
  8
0
100
AcDbBlockEnd
  0
BLOCK
  5
2
330
1
100
AcDbEntity
  8
0
100
AcDbBlockBegin
  2
_NONE
 70
     0
 10
0.0
 20
0.0
 30
0.0
  3
_NONE
  1

  0
ENDBLK
  5
3
330
1
100
AcDbEntity
  8
0
100
AcDbBlockEnd
  0
BLOCK
  5
5
330
4
100
AcDbEntity
  8
0
100
AcDbBlockBegin
  2
_CLOSED
 70
     0
 10
0.0
 20
0.0
 30
0.0
  3
_CLOSED
  1

  0
LINE
  5
6
330
4
100
AcDbEntity
  8
0
  6
BYBLOCK
 62
     0
370
    -2
100
AcDbLine
 10
-1.0
 20
0.166667
 30
0.0
 11
0.0
 21
0.0
 31
0.0
  0
LINE
  5
7
330
4
100
AcDbEntity
  8
0
  6
BYBLOCK
 62
     0
370
    -2
100
AcDbLine
 10
0.0
 20
0.0
 30
0.0
 11
-1.0
 21
-0.166667
 31
0.0
  0
LINE
  5
8
330
4
100
AcDbEntity
  8
0
  6
BYBLOCK
 62
     0
370
    -2
100
AcDbLine
 10
-1.0
 20
0.166667
 30
0.0
 11
-1.0
 21
-0.166667
 31
0.0
  0
LINE
  5
9
330
4
100
AcDbEntity
  8
0
  6
BYBLOCK
 62
     0
370
    -2
100
AcDbLine
 10
0.0
 20
0.0
 30
0.0
 11
-1.0
 21
0.0
 31
0.0
  0
ENDBLK
  5
A
330
4
100
AcDbEntity
  8
0
100
AcDbBlockEnd
  0
BLOCK
  5
C
330
B
100
AcDbEntity
  8
0
100
AcDbBlockBegin
  2
_DOT
 70
     0
 10
0.0
 20
0.0
 30
0.0
  3
_DOT
  1

  0
POLYLINE
  5
D
330
B
100
AcDbEntity
  8
0
  6
BYBLOCK
 62
     0
370
    -2
100
AcDb2dPolyline
 66
     1
 10
0.0
 20
0.0
 30
0.0
 70
     1
 40
0.5
 41
0.5
  0
VERTEX
  5
E
330
B
100
AcDbEntity
  8
0
  6
BYBLOCK
 62
     0
370
    -2
100
AcDbVertex
100
AcDb2dVertex
 10
-0.25
 20
0.0
 30
0.0
 42
1.0
  0
VERTEX
  5
F
330
B
100
AcDbEntity
  8
0
  6
BYBLOCK
 62
     0
370
    -2
100
AcDbVertex
100
AcDb2dVertex
 10
0.25
 20
0.0
 30
0.0
 42
1.0
  0
SEQEND
  5
10
330
B
100
AcDbEntity
  8
0
  6
BYBLOCK
 62
     0
370
    -2
  0
LINE
  5
11
330
B
100
AcDbEntity
  8
0
  6
BYBLOCK
 62
     0
370
    -2
100
AcDbLine
 10
-0.5
 20
0.0
 30
0.0
 11
-1.0
 21
0.0
 31
0.0
  0
ENDBLK
  5
12
330
B
100
AcDbEntity
  8
0
100
AcDbBlockEnd
  0
BLOCK
  5
14
330
13
100
AcDbEntity
  8
0
100
AcDbBlockBegin
  2
_OPEN
 70
     0
 10
0.0
 20
0.0
 30
0.0
  3
_OPEN
  1

  0
LINE
  5
15
330
13
100
AcDbEntity
  8
0
  6
BYBLOCK
 62
     0
370
    -2
100
AcDbLine
 10
-1.0
 20
0.166667
 30
0.0
 11
0.0
 21
0.0
 31
0.0
  0
LINE
  5
16
330
13
100
AcDbEntity
  8
0
  6
BYBLOCK
 62
     0
370
    -2
100
AcDbLine
 10
0.0
 20
0.0
 30
0.0
 11
-1.0
 21
-0.166667
 31
0.0
  0
LINE
  5
17
330
13
100
AcDbEntity
  8
0
  6
BYBLOCK
 62
     0
370
    -2
100
AcDbLine
 10
0.0
 20
0.0
 30
0.0
 11
-1.0
 21
0.0
 31
0.0
  0
ENDBLK
  5
18
330
13
100
AcDbEntity
  8
0
100
AcDbBlockEnd
  0
BLOCK
  5
1A
330
19
100
AcDbEntity
  8
0
100
AcDbBlockBegin
  2
_ORIGIN
 70
     0
 10
0.0
 20
0.0
 30
0.0
  3
_ORIGIN
  1

  0
CIRCLE
  5
1B
330
19
100
AcDbEntity
  8
0
  6
BYBLOCK
 62
     0
370
    -2
100
AcDbCircle
 10
0.0
 20
0.0
 30
0.0
 40
0.5
  0
LINE
  5
1C
330
19
100
AcDbEntity
  8
0
  6
BYBLOCK
 62
     0
370
    -2
100
AcDbLine
 10
0.0
 20
0.0
 30
0.0
 11
-1.0
 21
0.0
 31
0.0
  0
ENDBLK
  5
1D
330
19
100
AcDbEntity
  8
0
100
AcDbBlockEnd
  0
BLOCK
  5
1F
330
1E
100
AcDbEntity
  8
0
100
AcDbBlockBegin
  2
_OPEN30
 70
     0
 10
0.0
 20
0.0
 30
0.0
  3
_OPEN30
  1

  0
LINE
  5
20
330
1E
100
AcDbEntity
  8
0
  6
BYBLOCK
 62
     0
370
    -2
100
AcDbLine
 10
-1.0
 20
0.267949
 30
0.0
 11
0.0
 21
0.0
 31
0.0
  0
LINE
  5
21
330
1E
100
AcDbEntity
  8
0
  6
BYBLOCK
 62
     0
370
    -2
100
AcDbLine
 10
0.0
 20
0.0
 30
0.0
 11
-1.0
 21
-0.267949
 31
0.0
  0
LINE
  5
22
330
1E
100
AcDbEntity
  8
0
  6
BYBLOCK
 62
     0
370
    -2
100
AcDbLine
 10
0.0
 20
0.0
 30
0.0
 11
-1.0
 21
0.0
 31
0.0
  0
ENDBLK
  5
23
330
1E
100
AcDbEntity
  8
0
100
AcDbBlockEnd
  0
BLOCK
  5
25
330
24
100
AcDbEntity
  8
0
100
AcDbBlockBegin
  2
_BOXFILLED
 70
     0
 10
0.0
 20
0.0
 30
0.0
  3
_BOXFILLED
  1

  0
SOLID
  5
26
330
24
100
AcDbEntity
  8
0
  6
BYBLOCK
 62
     0
370
    -2
100
AcDbTrace
 10
-0.5
 20
0.5
 30
0.0
 11
0.5
 21
0.5
 31
0.0
 12
-0.5
 22
-0.5
 32
0.0
 13
0.5
 23
-0.5
 33
0.0
  0
LINE
  5
27
330
24
100
AcDbEntity
  8
0
  6
BYBLOCK
 62
     0
370
    -2
100
AcDbLine
 10
-0.5
 20
0.0
 30
0.0
 11
-1.0
 21
0.0
 31
0.0
  0
ENDBLK
  5
28
330
24
100
AcDbEntity
  8
0
100
AcDbBlockEnd
  0
BLOCK
  5
2A
330
29
100
AcDbEntity
  8
0
100
AcDbBlockBegin
  2
_BOXBLANK
 70
     0
 10
0.0
 20
0.0
 30
0.0
  3
_BOXBLANK
  1

  0
LINE
  5
2B
330
29
100
AcDbEntity
  8
0
  6
BYBLOCK
 62
     0
370
    -2
100
AcDbLine
 10
-0.5
 20
-0.5
 30
0.0
 11
0.5
 21
-0.5
 31
0.0
  0
LINE
  5
2C
330
29
100
AcDbEntity
  8
0
  6
BYBLOCK
 62
     0
370
    -2
100
AcDbLine
 10
0.5
 20
-0.5
 30
0.0
 11
0.5
 21
0.5
 31
0.0
  0
LINE
  5
2D
330
29
100
AcDbEntity
  8
0
  6
BYBLOCK
 62
     0
370
    -2
100
AcDbLine
 10
0.5
 20
0.5
 30
0.0
 11
-0.5
 21
0.5
 31
0.0
  0
LINE
  5
2E
330
29
100
AcDbEntity
  8
0
  6
BYBLOCK
 62
     0
370
    -2
100
AcDbLine
 10
-0.5
 20
0.5
 30
0.0
 11
-0.5
 21
-0.5
 31
0.0
  0
LINE
  5
2F
330
29
100
AcDbEntity
  8
0
  6
BYBLOCK
 62
     0
370
    -2
100
AcDbLine
 10
-0.5
 20
0.0
 30
0.0
 11
-1.0
 21
0.0
 31
0.0
  0
ENDBLK
  5
30
330
29
100
AcDbEntity
  8
0
100
AcDbBlockEnd
  0
BLOCK
  5
32
330
31
100
AcDbEntity
  8
0
100
AcDbBlockBegin
  2
_OBLIQUE
 70
     0
 10
0.0
 20
0.0
 30
0.0
  3
_OBLIQUE
  1

  0
LINE
  5
33
330
31
100
AcDbEntity
  8
0
  6
BYBLOCK
 62
     0
370
    -2
100
AcDbLine
 10
-0.5
 20
-0.5
 30
0.0
 11
0.5
 21
0.5
 31
0.0
  0
ENDBLK
  5
34
330
31
100
AcDbEntity
  8
0
100
AcDbBlockEnd
  0
BLOCK
  5
36
330
35
100
AcDbEntity
  8
0
100
AcDbBlockBegin
  2
_OPEN90
 70
     0
 10
0.0
 20
0.0
 30
0.0
  3
_OPEN90
  1

  0
LINE
  5
37
330
35
100
AcDbEntity
  8
0
  6
BYBLOCK
 62
     0
370
    -2
100
AcDbLine
 10
-0.5
 20
0.5
 30
0.0
 11
0.0
 21
0.0
 31
0.0
  0
LINE
  5
38
330
35
100
AcDbEntity
  8
0
  6
BYBLOCK
 62
     0
370
    -2
100
AcDbLine
 10
0.0
 20
0.0
 30
0.0
 11
-0.5
 21
-0.5
 31
0.0
  0
LINE
  5
39
330
35
100
AcDbEntity
  8
0
  6
BYBLOCK
 62
     0
370
    -2
100
AcDbLine
 10
0.0
 20
0.0
 30
0.0
 11
-1.0
 21
0.0
 31
0.0
  0
ENDBLK
  5
3A
330
35
100
AcDbEntity
  8
0
100
AcDbBlockEnd
  0
BLOCK
  5
3C
330
3B
100
AcDbEntity
  8
0
100
AcDbBlockBegin
  2
_CLOSEDBLANK
 70
     0
 10
0.0
 20
0.0
 30
0.0
  3
_CLOSEDBLANK
  1

  0
LINE
  5
3D
330
3B
100
AcDbEntity
  8
0
  6
BYBLOCK
 62
     0
370
    -2
100
AcDbLine
 10
-1.0
 20
0.1666666666666666
 30
0.0
 11
0.0
 21
0.0
 31
0.0
  0
LINE
  5
3E
330
3B
100
AcDbEntity
  8
0
  6
BYBLOCK
 62
     0
370
    -2
100
AcDbLine
 10
0.0
 20
0.0
 30
0.0
 11
-1.0
 21
-0.1666666666666666
 31
0.0
  0
LINE
  5
3F
330
3B
100
AcDbEntity
  8
0
  6
BYBLOCK
 62
     0
370
    -2
100
AcDbLine
 10
-1.0
 20
0.1666666666666666
 30
0.0
 11
-1.0
 21
-0.1666666666666666
 31
0.0
  0
ENDBLK
  5
40
330
3B
100
AcDbEntity
  8
0
100
AcDbBlockEnd
  0
BLOCK
  5
42
330
41
100
AcDbEntity
  8
0
100
AcDbBlockBegin
  2
_DOTBLANK
 70
     0
 10
0.0
 20
0.0
 30
0.0
  3
_DOTBLANK
  1

  0
CIRCLE
  5
43
330
41
100
AcDbEntity
  8
0
  6
BYBLOCK
 62
     0
370
    -2
100
AcDbCircle
 10
0.0
 20
0.0
 30
0.0
 40
0.5
  0
LINE
  5
44
330
41
100
AcDbEntity
  8
0
  6
BYBLOCK
 62
     0
370
    -2
100
AcDbLine
 10
-0.5
 20
0.0
 30
0.0
 11
-1.0
 21
0.0
 31
0.0
  0
ENDBLK
  5
45
330
41
100
AcDbEntity
  8
0
100
AcDbBlockEnd
  0
ENDSEC
  0
SECTION
  2
ENTITIES
  0
MTEXT
  5
46
100
AcDbEntity
  8
A7
  6
CONTINUOUS
 62
3
100
AcDbMText
 10
9.999997526638502
 20
18.00000076076889
 30
0.000000000000000
 40
3.000000000000000
 41
0.000000000000000
 44
0.6739999771118164
 71
     7
 72
     1
  1
{\H0.94x;{TYPE No.TCA-5402TS-MCB75}}
 11
1.000000000000000
 21
0.000000000000000
 31
0.000000000000000
  7
STANDARD
  0
POINT
  5
47
100
AcDbEntity
  8
A0
  6
CONTINUOUS
 62
3
100
AcDbPoint
 10
9.999997526638502
 20
18.00000076076889
 30
0.000000000000000
  0
CIRCLE
  5
48
100
AcDbEntity
  8
A1
  6
CONTINUOUS
 62
7
100
AcDbCircle
 10
221.4999961213755
 20
218.0000009999999
 30
0.000000000000000
 40
5.500000000000000
  0
LINE
  5
49
100
AcDbEntity
  8
A1
  6
CONTINUOUS
 62
7
100
AcDbLine
 10
221.4999961213755
 20
206.9999999999999
 30
0.000000000000000
 11
299.4999980213754
 21
206.9999999999999
 31
0.000000000000000
  0
ARC
  5
4A
100
AcDbEntity
  8
A1
  6
CONTINUOUS
 62
7
100
AcDbCircle
 10
221.4999961213755
 20
218.0000009999999
 30
0.000000000000000
 40
11.00000000000000
100
AcDbArc
 50
179.9999899999998
 51
270.0000000000000
  0
ARC
  5
4B
100
AcDbEntity
  8
A1
  6
CONTINUOUS
 62
7
100
AcDbCircle
 10
299.4999980213754
 20
218.0000009999999
 30
0.000000000000000
 40
11.00000000000000
100
AcDbArc
 50
270.0000000000000
 51
360.0000000000000
  0
CIRCLE
  5
4C
100
AcDbEntity
  8
A1
  6
CONTINUOUS
 62
7
100
AcDbCircle
 10
299.4999980213754
 20
218.0000009999999
 30
0.000000000000000
 40
5.500000000000000
  0
CIRCLE
  5
4D
100
AcDbEntity
  8
A1
  6
CONTINUOUS
 62
7
100
AcDbCircle
 10
260.4999980213754
 20
257.0000009999999
 30
0.000000000000000
 40
36.15634500000000
  0
CIRCLE
  5
4E
100
AcDbEntity
  8
A1
  6
CONTINUOUS
 62
7
100
AcDbCircle
 10
221.4999961213755
 20
296.0000009999999
 30
0.000000000000000
 40
5.500000000000000
  0
LINE
  5
4F
100
AcDbEntity
  8
A1
  6
CONTINUOUS
 62
7
100
AcDbLine
 10
210.4999970213754
 20
296.0000009999999
 30
0.000000000000000
 11
210.4999970213754
 21
218.0000009999999
 31
0.000000000000000
  0
ARC
  5
50
100
AcDbEntity
  8
A1
  6
CONTINUOUS
 62
7
100
AcDbCircle
 10
221.4999961213755
 20
296.0000009999999
 30
0.000000000000000
 40
11.00000000000000
100
AcDbArc
 50
90.00000299999770
 51
180.0000100000002
  0
CIRCLE
  5
51
100
AcDbEntity
  8
A1
  6
CONTINUOUS
 62
7
100
AcDbCircle
 10
260.4999980213754
 20
257.0000009999999
 30
0.000000000000000
 40
31.38954200000000
  0
LINE
  5
52
100
AcDbEntity
  8
A1
  6
CONTINUOUS
 62
7
100
AcDbLine
 10
310.4999980213754
 20
296.0000009999999
 30
0.000000000000000
 11
310.4999980213754
 21
218.0000009999999
 31
0.000000000000000
  0
CIRCLE
  5
53
100
AcDbEntity
  8
A1
  6
CONTINUOUS
 62
7
100
AcDbCircle
 10
260.4999980213754
 20
257.0000009999999
 30
0.000000000000000
 40
13.42712900000000
  0
CIRCLE
  5
54
100
AcDbEntity
  8
A1
  6
CONTINUOUS
 62
7
100
AcDbCircle
 10
260.4999980213754
 20
257.0000009999999
 30
0.000000000000000
 40
12.00000000000000
  0
ARC
  5
55
100
AcDbEntity
  8
A1
  6
CONTINUOUS
 62
7
100
AcDbCircle
 10
299.4999980213754
 20
296.0000009999999
 30
0.000000000000000
 40
11.00000000000000
100
AcDbArc
 50
0.000000000000000
 51
90.00000299999770
  0
CIRCLE
  5
56
100
AcDbEntity
  8
A1
  6
CONTINUOUS
 62
7
100
AcDbCircle
 10
299.4999980213754
 20
296.0000009999999
 30
0.000000000000000
 40
5.500000000000000
  0
LINE
  5
57
100
AcDbEntity
  8
A1
  6
CONTINUOUS
 62
7
100
AcDbLine
 10
221.4999961213755
 20
307.0000010000000
 30
0.000000000000000
 11
299.4999980213754
 21
307.0000010000000
 31
0.000000000000000
  0
LINE
  5
58
100
AcDbEntity
  8
A4
  6
CENTER
 62
1
100
AcDbLine
 10
223.4999980213752
 20
87.49999999999994
 30
0.000000000000000
 11
296.4999980213752
 21
87.49999999999994
 31
0.000000000000000
  0
LINE
  5
59
100
AcDbEntity
  8
A1
  6
CONTINUOUS
 62
7
100
AcDbLine
 10
228.9999980213752
 20
78.99999999999997
 30
0.000000000000000
 11
228.9999980213752
 21
87.49999999999994
 31
0.000000000000000
  0
LINE
  5
5A
100
AcDbEntity
  8
A1
  6
CONTINUOUS
 62
7
100
AcDbLine
 10
233.4999980213752
 20
83.25736199999994
 30
0.000000000000000
 11
233.4999980213752
 21
82.26010899999997
 31
0.000000000000000
  0
LINE
  5
5B
100
AcDbEntity
  8
A1
  6
CONTINUOUS
 62
7
100
AcDbLine
 10
229.4999980213752
 20
82.02558099999996
 30
0.000000000000000
 11
229.4999980213752
 21
83.72640999999996
 31
0.000000000000000
  0
LINE
  5
5C
100
AcDbEntity
  8
A1
  6
CONTINUOUS
 62
7
100
AcDbLine
 10
227.4000080213751
 20
80.19999699999995
 30
0.000000000000000
 11
227.4000080213751
 21
87.49999999999996
 31
0.000000000000000
  0
LINE
  5
5D
100
AcDbEntity
  8
A1
  6
CONTINUOUS
 62
7
100
AcDbLine
 10
229.4999980213753
 20
78.20000500000000
 30
0.000000000000000
 11
233.4999980213753
 21
78.00000000000000
 31
0.000000000000000
  0
LINE
  5
5E
100
AcDbEntity
  8
A1
  6
CONTINUOUS
 62
7
100
AcDbLine
 10
233.4999980213754
 20
77.99999999999993
 30
0.000000000000000
 11
229.4999980213754
 21
78.25198399999992
 31
0.000000000000000
  0
LINE
  5
5F
100
AcDbEntity
  8
A1
  6
CONTINUOUS
 62
7
100
AcDbLine
 10
229.4999980213753
 20
82.02558099999996
 30
0.000000000000000
 11
233.4999980213753
 21
82.26010899999996
 31
0.000000000000000
  0
LINE
  5
60
100
AcDbEntity
  8
A1
  6
CONTINUOUS
 62
7
100
AcDbLine
 10
229.4999980213752
 20
78.19999699999994
 30
0.000000000000000
 11
229.4999980213752
 21
78.25199099999998
 31
0.000000000000000
  0
LINE
  5
61
100
AcDbEntity
  8
A1
  6
CONTINUOUS
 62
7
100
AcDbLine
 10
229.5000080213753
 20
78.20000499999988
 30
0.000000000000000
 11
229.0000080213752
 21
78.99999999999993
 31
0.000000000000000
  0
LINE
  5
62
100
AcDbEntity
  8
A1
  6
CONTINUOUS
 62
7
100
AcDbLine
 10
228.6000080213752
 20
78.99999999999997
 30
0.000000000000000
 11
228.9999980213752
 21
78.99999999999997
 31
0.000000000000000
  0
ARC
  5
63
100
AcDbEntity
  8
A1
  6
CONTINUOUS
 62
7
100
AcDbCircle
 10
232.8100080213753
 20
80.13878599999995
 30
0.000000000000000
 40
3.810005900000000
100
AcDbArc
 50
150.3156200000011
 51
209.6843799999989
  0
ARC
  5
64
100
AcDbEntity
  8
A1
  6
CONTINUOUS
 62
7
100
AcDbCircle
 10
228.6000080213752
 20
80.19999699999994
 30
0.000000000000000
 40
1.199999999999999
100
AcDbArc
 50
180.0000099999994
 51
270.0000000000000
  0
LINE
  5
65
100
AcDbEntity
  8
A1
  6
CONTINUOUS
 62
7
100
AcDbLine
 10
233.9999980213752
 20
75.79999800000004
 30
0.000000000000000
 11
237.9999980213752
 21
75.79999800000004
 31
0.000000000000000
  0
LINE
  5
66
100
AcDbEntity
  8
A1
  6
CONTINUOUS
 62
7
100
AcDbLine
 10
233.9999980213753
 20
79.00000000000010
 30
0.000000000000000
 11
233.4999980213753
 21
78.00000000000010
 31
0.000000000000000
  0
ARC
  5
67
100
AcDbEntity
  8
A1
  6
CONTINUOUS
 62
7
100
AcDbCircle
 10
229.2128780213753
 20
80.13005099999995
 30
0.000000000000000
 40
4.787128000000000
100
AcDbArc
 50
333.5795800000004
 51
386.4204199999996
  0
LINE
  5
68
100
AcDbEntity
  8
A1
  6
CONTINUOUS
 62
7
100
AcDbLine
 10
228.5592827126457
 20
139.1427044865477
 30
0.000000000000000
 11
227.6134080213752
 21
95.48310099999998
 31
0.000000000000000
  0
ARC
  5
69
100
AcDbEntity
  8
A1
  6
CONTINUOUS
 62
7
100
AcDbCircle
 10
232.8100080213753
 20
94.86121399999996
 30
0.000000000000000
 40
3.810005900000000
100
AcDbArc
 50
150.3156200000011
 51
209.6843799999989
  0
ARC
  5
6A
100
AcDbEntity
  8
A1
  6
CONTINUOUS
 62
7
100
AcDbCircle
 10
229.2128780213753
 20
94.86994599999997
 30
0.000000000000000
 40
4.787128000000000
100
AcDbArc
 50
333.5795800000004
 51
386.4204199999996
  0
LINE
  5
6B
100
AcDbEntity
  8
A1
  6
CONTINUOUS
 62
7
100
AcDbLine
 10
228.9999980213752
 20
95.99999999999994
 30
0.000000000000000
 11
228.9999980213752
 21
87.49999999999994
 31
0.000000000000000
  0
LINE
  5
6C
100
AcDbEntity
  8
A1
  6
CONTINUOUS
 62
7
100
AcDbLine
 10
227.4000080213753
 20
94.79999899999996
 30
0.000000000000000
 11
227.4000080213753
 21
87.49999999999994
 31
0.000000000000000
  0
LINE
  5
6D
100
AcDbEntity
  8
A1
  6
CONTINUOUS
 62
7
100
AcDbLine
 10
229.4999980213753
 20
92.97441499999999
 30
0.000000000000000
 11
233.4999980213753
 21
92.73989100000000
 31
0.000000000000000
  0
LINE
  5
6E
100
AcDbEntity
  8
A1
  6
CONTINUOUS
 62
7
100
AcDbLine
 10
233.4999980213753
 20
91.74264099999998
 30
0.000000000000000
 11
229.4999980213753
 21
91.27359399999999
 31
0.000000000000000
  0
LINE
  5
6F
100
AcDbEntity
  8
A1
  6
CONTINUOUS
 62
7
100
AcDbLine
 10
233.4999980213751
 20
83.25736199999999
 30
0.000000000000000
 11
229.4999980213751
 21
83.72640999999999
 31
0.000000000000000
  0
ARC
  5
70
100
AcDbEntity
  8
A1
  6
CONTINUOUS
 62
7
100
AcDbCircle
 10
243.4899980213752
 20
87.49999999999994
 30
0.000000000000000
 40
14.49000000000000
100
AcDbArc
 50
164.9045800000004
 51
195.0954199999996
  0
LINE
  5
71
100
AcDbEntity
  8
A1
  6
CONTINUOUS
 62
7
100
AcDbLine
 10
226.4999980213752
 20
91.74999999999994
 30
0.000000000000000
 11
226.4999980213752
 21
83.24999999999994
 31
0.000000000000000
  0
LINE
  5
72
100
AcDbEntity
  8
A1
  6
CONTINUOUS
 62
7
100
AcDbLine
 10
227.2499980213752
 20
92.49999999999994
 30
0.000000000000000
 11
227.2499980213752
 21
82.49999999999997
 31
0.000000000000000
  0
LINE
  5
73
100
AcDbEntity
  8
A1
  6
CONTINUOUS
 62
7
100
AcDbLine
 10
227.2499980213752
 20
82.49999999999997
 30
0.000000000000000
 11
227.4000080213753
 21
82.49999999999997
 31
0.000000000000000
  0
LINE
  5
74
100
AcDbEntity
  8
A2
  6
CONTINUOUS
 62
4
100
AcDbLine
 10
226.4999980213752
 20
83.24999999999994
 30
0.000000000000000
 11
227.4000080213753
 21
83.24999999999994
 31
0.000000000000000
  0
LINE
  5
75
100
AcDbEntity
  8
A1
  6
CONTINUOUS
 62
7
100
AcDbLine
 10
227.2499880213753
 20
82.49999200000001
 30
0.000000000000000
 11
226.4999880213754
 21
83.24999199999996
 31
0.000000000000000
  0
LINE
  5
76
100
AcDbEntity
  8
A1
  6
CONTINUOUS
 62
7
100
AcDbLine
 10
227.2499980213752
 20
92.49999999999994
 30
0.000000000000000
 11
227.4000080213753
 21
92.49999999999994
 31
0.000000000000000
  0
LINE
  5
77
100
AcDbEntity
  8
A2
  6
CONTINUOUS
 62
4
100
AcDbLine
 10
226.4999980213752
 20
91.74999999999994
 30
0.000000000000000
 11
227.4000080213753
 21
91.74999999999994
 31
0.000000000000000
  0
LINE
  5
78
100
AcDbEntity
  8
A1
  6
CONTINUOUS
 62
7
100
AcDbLine
 10
226.4999880213753
 20
91.74999199999995
 30
0.000000000000000
 11
227.2499980213753
 21
92.50000399999992
 31
0.000000000000000
  0
LINE
  5
79
100
AcDbEntity
  8
A1
  6
CONTINUOUS
 62
7
100
AcDbLine
 10
229.4999980213752
 20
92.97441899999995
 30
0.000000000000000
 11
229.4999980213752
 21
91.27359399999997
 31
0.000000000000000
  0
ARC
  5
7A
100
AcDbEntity
  8
A1
  6
CONTINUOUS
 62
7
100
AcDbCircle
 10
215.7499980213752
 20
87.49999999999994
 30
0.000000000000000
 40
18.25000000000000
100
AcDbArc
 50
346.5572599999991
 51
373.4427390000008
  0
LINE
  5
7B
100
AcDbEntity
  8
A1
  6
CONTINUOUS
 62
7
100
AcDbLine
 10
233.4999980213752
 20
91.74264099999996
 30
0.000000000000000
 11
233.4999980213752
 21
92.73989499999993
 31
0.000000000000000
  0
LINE
  5
7C
100
AcDbEntity
  8
A1
  6
CONTINUOUS
 62
7
100
AcDbLine
 10
233.4999980213753
 20
97.00000000000001
 30
0.000000000000000
 11
229.4999980213753
 21
96.74801300000001
 31
0.000000000000000
  0
LINE
  5
7D
100
AcDbEntity
  8
A1
  6
CONTINUOUS
 62
7
100
AcDbLine
 10
229.4999980213752
 20
96.80000299999995
 30
0.000000000000000
 11
233.4999980213752
 21
96.99999999999994
 31
0.000000000000000
  0
LINE
  5
7E
100
AcDbEntity
  8
A1
  6
CONTINUOUS
 62
7
100
AcDbLine
 10
228.6000080213752
 20
95.99999999999994
 30
0.000000000000000
 11
228.9999980213752
 21
95.99999999999994
 31
0.000000000000000
  0
LINE
  5
7F
100
AcDbEntity
  8
A1
  6
CONTINUOUS
 62
7
100
AcDbLine
 10
229.4999980213753
 20
96.79999499999997
 30
0.000000000000000
 11
228.9999980213753
 21
95.99999599999995
 31
0.000000000000000
  0
LINE
  5
80
100
AcDbEntity
  8
A1
  6
CONTINUOUS
 62
7
100
AcDbLine
 10
229.4999980213752
 20
96.79999899999996
 30
0.000000000000000
 11
229.4999980213752
 21
96.74801299999996
 31
0.000000000000000
  0
ARC
  5
81
100
AcDbEntity
  8
A1
  6
CONTINUOUS
 62
7
100
AcDbCircle
 10
228.6000080213752
 20
94.79999899999996
 30
0.000000000000000
 40
1.199999999999999
100
AcDbArc
 50
90.00000299999932
 51
180.0000099999994
  0
LINE
  5
82
100
AcDbEntity
  8
A1
  6
CONTINUOUS
 62
7
100
AcDbLine
 10
234.0000080213752
 20
96.00000399999996
 30
0.000000000000000
 11
233.5000080213753
 21
97.00000399999992
 31
0.000000000000000
  0
LINE
  5
83
100
AcDbEntity
  8
A1
  6
CONTINUOUS
 62
7
100
AcDbLine
 10
290.9999980213752
 20
96.49999999999997
 30
0.000000000000000
 11
290.9999980213752
 21
78.49999999999994
 31
0.000000000000000
  0
LINE
  5
84
100
AcDbEntity
  8
A1
  6
CONTINUOUS
 62
7
100
AcDbLine
 10
291.9999980213752
 20
94.49999999999994
 30
0.000000000000000
 11
291.9999980213752
 21
80.49999999999994
 31
0.000000000000000
  0
LINE
  5
85
100
AcDbEntity
  8
A1
  6
CONTINUOUS
 62
7
100
AcDbLine
 10
286.9999980213752
 20
78.49999999999994
 30
0.000000000000000
 11
290.9999980213752
 21
78.49999999999994
 31
0.000000000000000
  0
LINE
  5
86
100
AcDbEntity
  8
A1
  6
CONTINUOUS
 62
7
100
AcDbLine
 10
282.9999980213752
 20
75.79999800000004
 30
0.000000000000000
 11
286.9999980213752
 21
75.79999800000004
 31
0.000000000000000
  0
LINE
  5
87
100
AcDbEntity
  8
A1
  6
CONTINUOUS
 62
7
100
AcDbLine
 10
290.9999980213752
 20
78.49999999999999
 30
0.000000000000000
 11
291.9999980213753
 21
80.50000000000004
 31
0.000000000000000
  0
LINE
  5
88
100
AcDbEntity
  8
A1
  6
CONTINUOUS
 62
7
100
AcDbLine
 10
292.4396662497519
 20
139.1450150124321
 30
0.000000000000000
 11
293.4999940213753
 21
90.99999999999994
 31
0.000000000000000
  0
LINE
  5
89
100
AcDbEntity
  8
A1
  6
CONTINUOUS
 62
7
100
AcDbLine
 10
286.9999980213752
 20
96.49999999999997
 30
0.000000000000000
 11
290.9999980213752
 21
96.49999999999997
 31
0.000000000000000
  0
ARC
  5
8A
100
AcDbEntity
  8
A1
  6
CONTINUOUS
 62
7
100
AcDbCircle
 10
281.4999980213752
 20
90.99999999999994
 30
0.000000000000000
 40
12.00000000000000
100
AcDbArc
 50
331.0449600000000
 51
360.0000000000000
  0
LINE
  5
8B
100
AcDbEntity
  8
A1
  6
CONTINUOUS
 62
7
100
AcDbLine
 10
292.0000020213753
 20
94.49999999999996
 30
0.000000000000000
 11
291.0000020213753
 21
96.50000400000000
 31
0.000000000000000
  0
LINE
  5
8C
100
AcDbEntity
  8
A1
  6
CONTINUOUS
 62
7
100
AcDbLine
 10
286.9999980213752
 20
137.6000000000001
 30
0.000000000000000
 11
286.9999980213752
 21
75.79999800000004
 31
0.000000000000000
  0
LINE
  5
8D
100
AcDbEntity
  8
A1
  6
CONTINUOUS
 62
7
100
AcDbLine
 10
282.9999980213752
 20
130.6455611213808
 30
0.000000000000000
 11
282.9999980213752
 21
75.79999800000004
 31
0.000000000000000
  0
LINE
  5
8E
100
AcDbEntity
  8
A1
  6
CONTINUOUS
 62
7
100
AcDbLine
 10
237.9999980213752
 20
130.6455611213806
 30
0.000000000000000
 11
237.9999980213752
 21
75.79999800000004
 31
0.000000000000000
  0
LINE
  5
8F
100
AcDbEntity
  8
A1
  6
CONTINUOUS
 62
7
100
AcDbLine
 10
233.9999980213752
 20
137.6000000000001
 30
0.000000000000000
 11
233.9999980213752
 21
75.79999800000004
 31
0.000000000000000
  0
LINE
  5
90
100
AcDbEntity
  8
A4
  6
CENTER
 62
1
100
AcDbLine
 10
99.99999802137529
 20
160.4431066740675
 30
0.000000000000000
 11
99.99999802137529
 21
128.7937333405693
 31
0.000000000000000
  0
LINE
  5
91
100
AcDbEntity
  8
A1
  6
CONTINUOUS
 62
7
100
AcDbLine
 10
127.2853004464716
 20
131.1464593586910
 30
0.000000000000000
 11
129.3172609061575
 21
141.6000000000001
 31
0.000000000000000
  0
LINE
  5
92
100
AcDbEntity
  8
A1
  6
CONTINUOUS
 62
7
100
AcDbLine
 10
129.3644203706223
 20
145.2779211740675
 30
0.000000000000000
 11
70.63557367212837
 21
145.2779211740675
 31
0.000000000000000
  0
LINE
  5
93
100
AcDbEntity
  8
A1
  6
CONTINUOUS
 62
7
100
AcDbLine
 10
114.4999980213753
 20
91.74264100000005
 30
0.000000000000000
 11
114.4999980213753
 21
83.25735900000004
 31
0.000000000000000
  0
LINE
  5
94
100
AcDbEntity
  8
A1
  6
CONTINUOUS
 62
7
100
AcDbLine
 10
131.4999980213753
 20
91.74264100000005
 30
0.000000000000000
 11
131.4999980213753
 21
83.25735900000004
 31
0.000000000000000
  0
LINE
  5
95
100
AcDbEntity
  8
A1
  6
CONTINUOUS
 62
7
100
AcDbLine
 10
115.0757660213753
 20
82.26010500000007
 30
0.000000000000000
 11
122.4242300213753
 21
78.01746700000007
 31
0.000000000000000
  0
LINE
  5
96
100
AcDbEntity
  8
A1
  6
CONTINUOUS
 62
7
100
AcDbLine
 10
123.5757660213754
 20
96.98253600000014
 30
0.000000000000000
 11
130.9242300213754
 21
92.73989900000015
 31
0.000000000000000
  0
LINE
  5
97
100
AcDbEntity
  8
A1
  6
CONTINUOUS
 62
7
100
AcDbLine
 10
115.0757580213753
 20
92.73989500000000
 30
0.000000000000000
 11
122.4242300213753
 21
96.98253599999997
 31
0.000000000000000
  0
LINE
  5
98
100
AcDbEntity
  8
A1
  6
CONTINUOUS
 62
7
100
AcDbLine
 10
123.5757580213753
 20
78.01746400000013
 30
0.000000000000000
 11
130.9242300213753
 21
82.26010500000012
 31
0.000000000000000
  0
LINE
  5
99
100
AcDbEntity
  8
A1
  6
CONTINUOUS
 62
7
100
AcDbLine
 10
126.2499980213753
 20
91.29967100000002
 30
0.000000000000000
 11
127.1955160213753
 21
91.55947499999999
 31
0.000000000000000
  0
LINE
  5
9A
100
AcDbEntity
  8
A1
  6
CONTINUOUS
 62
7
100
AcDbLine
 10
119.7499980213753
 20
91.29967100000002
 30
0.000000000000000
 11
118.8044870213753
 21
91.55947100000003
 31
0.000000000000000
  0
LINE
  5
9B
100
AcDbEntity
  8
A1
  6
CONTINUOUS
 62
7
100
AcDbLine
 10
126.2499980213752
 20
83.70032899999993
 30
0.000000000000000
 11
127.1955090213752
 21
83.44052899999990
 31
0.000000000000000
  0
LINE
  5
9C
100
AcDbEntity
  8
A1
  6
CONTINUOUS
 62
7
100
AcDbLine
 10
119.7499980213753
 20
83.70032899999998
 30
0.000000000000000
 11
118.8044800213753
 21
83.44052499999997
 31
0.000000000000000
  0
CIRCLE
  5
9D
100
AcDbEntity
  8
A1
  6
CONTINUOUS
 62
7
100
AcDbCircle
 10
122.9999980213753
 20
87.50000000000003
 30
0.000000000000000
 40
5.000000000000000
  0
CIRCLE
  5
9E
100
AcDbEntity
  8
A2
  6
CONTINUOUS
 62
4
100
AcDbCircle
 10
122.9999980213753
 20
87.50000000000003
 30
0.000000000000000
 40
4.250000000000000
  0
CIRCLE
  5
9F
100
AcDbEntity
  8
A1
  6
CONTINUOUS
 62
7
100
AcDbCircle
 10
122.9999980213753
 20
87.50000000000003
 30
0.000000000000000
 40
8.500000000000000
  0
ARC
  5
A0
100
AcDbEntity
  8
A1
  6
CONTINUOUS
 62
7
100
AcDbCircle
 10
122.9999980213753
 20
87.50000000000003
 30
0.000000000000000
 40
9.300000199999999
100
AcDbArc
 50
23.93892299999966
 51
36.06107700000063
  0
ARC
  5
A1
100
AcDbEntity
  8
A1
  6
CONTINUOUS
 62
7
100
AcDbCircle
 10
122.9999980213753
 20
87.50000000000003
 30
0.000000000000000
 40
9.500000000000000
100
AcDbArc
 50
26.52534999999958
 51
33.47465100000047
  0
ARC
  5
A2
100
AcDbEntity
  8
A1
  6
CONTINUOUS
 62
7
100
AcDbCircle
 10
123.0000001362966
 20
87.49999975458661
 30
0.000000000000000
 40
9.500000000000000
100
AcDbArc
 50
86.52534899999968
 51
93.47465000000074
  0
ARC
  5
A3
100
AcDbEntity
  8
A1
  6
CONTINUOUS
 62
7
100
AcDbCircle
 10
122.9999980213753
 20
87.50000000000003
 30
0.000000000000000
 40
9.500000000000000
100
AcDbArc
 50
146.5253599999998
 51
153.4746500000004
  0
ARC
  5
A4
100
AcDbEntity
  8
A1
  6
CONTINUOUS
 62
7
100
AcDbCircle
 10
122.9999980213753
 20
87.50000000000003
 30
0.000000000000000
 40
9.500000000000000
100
AcDbArc
 50
206.5253499999996
 51
213.4746400000002
  0
ARC
  5
A5
100
AcDbEntity
  8
A1
  6
CONTINUOUS
 62
7
100
AcDbCircle
 10
122.9999980213753
 20
87.50000000000003
 30
0.000000000000000
 40
9.500000000000000
100
AcDbArc
 50
266.5253499999992
 51
273.4746500000008
  0
ARC
  5
A6
100
AcDbEntity
  8
A1
  6
CONTINUOUS
 62
7
100
AcDbCircle
 10
122.9999980213753
 20
87.50000000000003
 30
0.000000000000000
 40
9.500000000000000
100
AcDbArc
 50
326.5253499999993
 51
333.4746500000004
  0
ARC
  5
A7
100
AcDbEntity
  8
A1
  6
CONTINUOUS
 62
7
100
AcDbCircle
 10
122.9999980213753
 20
87.50000000000003
 30
0.000000000000000
 40
9.300000199999999
100
AcDbArc
 50
323.9389199999994
 51
336.0610799999996
  0
ARC
  5
A8
100
AcDbEntity
  8
A1
  6
CONTINUOUS
 62
7
100
AcDbCircle
 10
123.0000001362966
 20
87.49999975458661
 30
0.000000000000000
 40
9.300000199999999
100
AcDbArc
 50
83.93892699999968
 51
96.06107800000056
  0
ARC
  5
A9
100
AcDbEntity
  8
A1
  6
CONTINUOUS
 62
7
100
AcDbCircle
 10
122.9999980213753
 20
87.50000000000003
 30
0.000000000000000
 40
9.300000199999999
100
AcDbArc
 50
143.9389300000001
 51
156.0610799999996
  0
ARC
  5
AA
100
AcDbEntity
  8
A1
  6
CONTINUOUS
 62
7
100
AcDbCircle
 10
122.9999980213753
 20
87.50000000000003
 30
0.000000000000000
 40
9.300000199999999
100
AcDbArc
 50
203.9389200000004
 51
216.0610699999999
  0
ARC
  5
AB
100
AcDbEntity
  8
A1
  6
CONTINUOUS
 62
7
100
AcDbCircle
 10
122.9999980213753
 20
87.50000000000003
 30
0.000000000000000
 40
9.300000199999999
100
AcDbArc
 50
263.9389200000005
 51
276.0610700000003
  0
CIRCLE
  5
AC
100
AcDbEntity
  8
A1
  6
CONTINUOUS
 62
7
100
AcDbCircle
 10
122.9999980213753
 20
87.50000000000003
 30
0.000000000000000
 40
6.500000000000000
  0
ARC
  5
AD
100
AcDbEntity
  8
A1
  6
CONTINUOUS
 62
7
100
AcDbCircle
 10
122.9999980213753
 20
87.50000000000003
 30
0.000000000000000
 40
6.000000000000000
100
AcDbArc
 50
318.5903800000003
 51
401.4096239999992
  0
ARC
  5
AE
100
AcDbEntity
  8
A1
  6
CONTINUOUS
 62
7
100
AcDbCircle
 10
118.7249960213753
 20
91.27019500000003
 30
0.000000000000000
 40
0.3000000100000000
100
AcDbArc
 50
74.63575800000046
 51
138.5903800000003
  0
ARC
  5
AF
100
AcDbEntity
  8
A1
  6
CONTINUOUS
 62
7
100
AcDbCircle
 10
127.2750000213754
 20
91.27019500000003
 30
0.000000000000000
 40
0.3000000100000000
100
AcDbArc
 50
41.40961700000026
 51
105.3642400000007
  0
ARC
  5
B0
100
AcDbEntity
  8
A1
  6
CONTINUOUS
 62
7
100
AcDbCircle
 10
122.9999980213753
 20
87.50000000000003
 30
0.000000000000000
 40
6.000000000000000
100
AcDbArc
 50
138.5903700000008
 51
221.4096299999992
  0
ARC
  5
B1
100
AcDbEntity
  8
A1
  6
CONTINUOUS
 62
7
100
AcDbCircle
 10
118.7249960213753
 20
83.72980500000006
 30
0.000000000000000
 40
0.3000000100000000
100
AcDbArc
 50
221.4096199999997
 51
285.3642400000008
  0
ARC
  5
B2
100
AcDbEntity
  8
A1
  6
CONTINUOUS
 62
7
100
AcDbCircle
 10
127.2750000213754
 20
83.72980500000006
 30
0.000000000000000
 40
0.3000000100000000
100
AcDbArc
 50
254.6357599999993
 51
318.5903800000003
  0
LINE
  5
B3
100
AcDbEntity
  8
A3
  6
DASHED
 62
2
100
AcDbLine
 10
144.5000000000000
 20
157.0000000000000
 30
0.000000000000000
 11
144.5000000000000
 21
153.7999992000000
 31
0.000000000000000
  0
LINE
  5
B4
100
AcDbEntity
  8
A4
  6
CENTER
 62
1
100
AcDbLine
 10
139.0000000000000
 20
158.6847661978460
 30
0.000000000000000
 11
139.0000000000000
 21
152.1152328021538
 31
0.000000000000000
  0
LINE
  5
B5
100
AcDbEntity
  8
A3
  6
DASHED
 62
2
100
AcDbLine
 10
133.5000000000000
 20
157.0000000000000
 30
0.000000000000000
 11
133.5000000000000
 21
153.7999992000000
 31
0.000000000000000
  0
LINE
  5
B6
100
AcDbEntity
  8
A3
  6
DASHED
 62
2
100
AcDbLine
 10
66.50000000000000
 20
157.0000000000000
 30
0.000000000000000
 11
66.50000000000000
 21
153.7999992000000
 31
0.000000000000000
  0
LINE
  5
B7
100
AcDbEntity
  8
A3
  6
DASHED
 62
2
100
AcDbLine
 10
55.50000000000000
 20
157.0000000000000
 30
0.000000000000000
 11
55.50000000000000
 21
153.7999992000000
 31
0.000000000000000
  0
LINE
  5
B8
100
AcDbEntity
  8
A4
  6
CENTER
 62
1
100
AcDbLine
 10
61.00000000000000
 20
158.6847661978460
 30
0.000000000000000
 11
61.00000000000000
 21
152.1152328021538
 31
0.000000000000000
  0
LINE
  5
B9
100
AcDbEntity
  8
A1
  6
CONTINUOUS
 62
7
100
AcDbLine
 10
149.9999999999999
 20
157.0000000000000
 30
0.000000000000000
 11
50.00000000000003
 21
157.0000000000000
 31
0.000000000000000
  0
LINE
  5
BA
100
AcDbEntity
  8
A1
  6
CONTINUOUS
 62
7
100
AcDbLine
 10
149.9999999999999
 20
157.0000000000000
 30
0.000000000000000
 11
149.9999999999999
 21
153.7999990000000
 31
0.000000000000000
  0
LINE
  5
BB
100
AcDbEntity
  8
A1
  6
CONTINUOUS
 62
7
100
AcDbLine
 10
61.13019899999990
 20
149.0211230000000
 30
0.000000000000000
 11
59.41375099999991
 21
152.6543220000000
 31
0.000000000000000
  0
LINE
  5
BC
100
AcDbEntity
  8
A1
  6
CONTINUOUS
 62
7
100
AcDbLine
 10
50.00000000000000
 20
157.0000000000000
 30
0.000000000000000
 11
50.00000000000000
 21
153.7999990000000
 31
0.000000000000000
  0
LINE
  5
BD
100
AcDbEntity
  8
A1
  6
CONTINUOUS
 62
7
100
AcDbLine
 10
138.8698009999999
 20
149.0211310000000
 30
0.000000000000000
 11
140.5862479999999
 21
152.6543279999999
 31
0.000000000000000
  0
LINE
  5
BE
100
AcDbEntity
  8
A1
  6
CONTINUOUS
 62
7
100
AcDbLine
 10
50.00000000000003
 20
153.7999990000000
 30
0.000000000000000
 11
149.9999999999999
 21
153.7999990000000
 31
0.000000000000000
  0
LINE
  5
BF
100
AcDbEntity
  8
A1
  6
CONTINUOUS
 62
7
100
AcDbLine
 10
65.45000300000011
 20
146.3500000000000
 30
0.000000000000000
 11
65.28500700000005
 21
146.3520770000000
 31
0.000000000000000
  0
LINE
  5
C0
100
AcDbEntity
  8
A1
  6
CONTINUOUS
 62
7
100
AcDbLine
 10
134.5499999999999
 20
146.3500029999999
 30
0.000000000000000
 11
134.7149919999999
 21
146.3520789999999
 31
0.000000000000000
  0
LINE
  5
C1
100
AcDbEntity
  8
A1
  6
CONTINUOUS
 62
7
100
AcDbLine
 10
129.9697221133014
 20
146.3500000000000
 30
0.000000000000000
 11
129.3581940992904
 21
145.2779211740675
 31
0.000000000000000
  0
LINE
  5
C2
100
AcDbEntity
  8
A1
  6
CONTINUOUS
 62
7
100
AcDbLine
 10
70.03027959607161
 20
146.3500000000000
 30
0.000000000000000
 11
70.64180775277676
 21
145.2779211740675
 31
0.000000000000000
  0
ARC
  5
C3
100
AcDbEntity
  8
A1
  6
CONTINUOUS
 62
7
100
AcDbCircle
 10
142.3945960000000
 20
151.7999990000000
 30
0.000000000000000
 40
2.000000000000000
100
AcDbArc
 50
89.99999700000065
 51
154.7123519999992
  0
ARC
  5
C4
100
AcDbEntity
  8
A1
  6
CONTINUOUS
 62
7
100
AcDbCircle
 10
57.60540000000003
 20
151.7999990000000
 30
0.000000000000000
 40
2.000000000000000
100
AcDbArc
 50
25.28764999999942
 51
89.99999700000065
  0
ARC
  5
C5
100
AcDbEntity
  8
A1
  6
CONTINUOUS
 62
7
100
AcDbCircle
 10
65.34365100000002
 20
151.0117070000000
 30
0.000000000000000
 40
4.660000000000000
100
AcDbArc
 50
205.2876469999996
 51
269.2789389999995
  0
ARC
  5
C6
100
AcDbEntity
  8
A1
  6
CONTINUOUS
 62
7
100
AcDbCircle
 10
134.6563450000000
 20
151.0117070000000
 30
0.000000000000000
 40
4.660000000000000
100
AcDbArc
 50
270.7210590000005
 51
334.7123500000005
  0
LINE
  5
C7
100
AcDbEntity
  8
A1
  6
CONTINUOUS
 62
7
100
AcDbLine
 10
134.5499990000000
 20
146.3500000000000
 30
0.000000000000000
 11
65.45000300000004
 21
146.3500000000000
 31
0.000000000000000
  0
LINE
  5
C8
100
AcDbEntity
  8
A1
  6
CONTINUOUS
 62
7
100
AcDbLine
 10
295.0499970213753
 20
146.3499999999999
 30
0.000000000000000
 11
225.9500010213753
 21
146.3499999999999
 31
0.000000000000000
  0
ARC
  5
C9
100
AcDbEntity
  8
A1
  6
CONTINUOUS
 62
7
100
AcDbCircle
 10
295.1563430213752
 20
151.0117069999999
 30
0.000000000000000
 40
4.660000000000000
100
AcDbArc
 50
270.7210590000005
 51
334.7123500000005
  0
ARC
  5
CA
100
AcDbEntity
  8
A1
  6
CONTINUOUS
 62
7
100
AcDbCircle
 10
225.8436490213753
 20
151.0117069999999
 30
0.000000000000000
 40
4.660000000000000
100
AcDbArc
 50
205.2876469999996
 51
269.2789389999995
  0
ARC
  5
CB
100
AcDbEntity
  8
A1
  6
CONTINUOUS
 62
7
100
AcDbCircle
 10
218.1053980213753
 20
151.7999989999999
 30
0.000000000000000
 40
2.000000000000000
100
AcDbArc
 50
25.28764999999942
 51
89.99999700000065
  0
ARC
  5
CC
100
AcDbEntity
  8
A1
  6
CONTINUOUS
 62
7
100
AcDbCircle
 10
302.8945940213752
 20
151.7999989999999
 30
0.000000000000000
 40
2.000000000000000
100
AcDbArc
 50
89.99999700000065
 51
154.7123519999992
  0
LINE
  5
CD
100
AcDbEntity
  8
A1
  6
CONTINUOUS
 62
7
100
AcDbLine
 10
230.5302776174468
 20
146.3499999999999
 30
0.000000000000000
 11
231.1418057741520
 21
145.2779211740674
 31
0.000000000000000
  0
LINE
  5
CE
100
AcDbEntity
  8
A1
  6
CONTINUOUS
 62
7
100
AcDbLine
 10
290.4697201346768
 20
146.3500000000000
 30
0.000000000000000
 11
289.8581921206658
 21
145.2779211740675
 31
0.000000000000000
  0
LINE
  5
CF
100
AcDbEntity
  8
A1
  6
CONTINUOUS
 62
7
100
AcDbLine
 10
295.0499980213752
 20
146.3500029999999
 30
0.000000000000000
 11
295.2149900213751
 21
146.3520789999999
 31
0.000000000000000
  0
LINE
  5
D0
100
AcDbEntity
  8
A1
  6
CONTINUOUS
 62
7
100
AcDbLine
 10
225.9500010213751
 20
146.3499999999998
 30
0.000000000000000
 11
225.7850050213751
 21
146.3520769999998
 31
0.000000000000000
  0
LINE
  5
D1
100
AcDbEntity
  8
A1
  6
CONTINUOUS
 62
7
100
AcDbLine
 10
210.4999980213751
 20
153.7999989999999
 30
0.000000000000000
 11
310.4999980213750
 21
153.7999989999999
 31
0.000000000000000
  0
LINE
  5
D2
100
AcDbEntity
  8
A1
  6
CONTINUOUS
 62
7
100
AcDbLine
 10
299.3697990213752
 20
149.0211309999999
 30
0.000000000000000
 11
301.0862460213753
 21
152.6543279999999
 31
0.000000000000000
  0
LINE
  5
D3
100
AcDbEntity
  8
A1
  6
CONTINUOUS
 62
7
100
AcDbLine
 10
210.4999980213752
 20
156.9999999999999
 30
0.000000000000000
 11
210.4999980213752
 21
153.7999989999999
 31
0.000000000000000
  0
LINE
  5
D4
100
AcDbEntity
  8
A1
  6
CONTINUOUS
 62
7
100
AcDbLine
 10
221.6301970213752
 20
149.0211229999999
 30
0.000000000000000
 11
219.9137490213753
 21
152.6543219999999
 31
0.000000000000000
  0
LINE
  5
D5
100
AcDbEntity
  8
A1
  6
CONTINUOUS
 62
7
100
AcDbLine
 10
310.4999980213752
 20
156.9999999999999
 30
0.000000000000000
 11
310.4999980213751
 21
153.7999989999999
 31
0.000000000000000
  0
LINE
  5
D6
100
AcDbEntity
  8
A1
  6
CONTINUOUS
 62
7
100
AcDbLine
 10
310.4999980213752
 20
156.9999999999999
 30
0.000000000000000
 11
210.4999980213752
 21
156.9999999999999
 31
0.000000000000000
  0
LINE
  5
D7
100
AcDbEntity
  8
A4
  6
CENTER
 62
1
100
AcDbLine
 10
221.4999980213751
 20
158.6847661978458
 30
0.000000000000000
 11
221.4999980213751
 21
152.1152328021537
 31
0.000000000000000
  0
LINE
  5
D8
100
AcDbEntity
  8
A3
  6
DASHED
 62
2
100
AcDbLine
 10
215.9999980213751
 20
156.9999999999999
 30
0.000000000000000
 11
215.9999980213751
 21
153.7999991999999
 31
0.000000000000000
  0
LINE
  5
D9
100
AcDbEntity
  8
A3
  6
DASHED
 62
2
100
AcDbLine
 10
226.9999980213751
 20
156.9999999999999
 30
0.000000000000000
 11
226.9999980213751
 21
153.7999991999999
 31
0.000000000000000
  0
LINE
  5
DA
100
AcDbEntity
  8
A3
  6
DASHED
 62
2
100
AcDbLine
 10
293.9999980213752
 20
156.9999999999999
 30
0.000000000000000
 11
293.9999980213752
 21
153.7999991999999
 31
0.000000000000000
  0
LINE
  5
DB
100
AcDbEntity
  8
A4
  6
CENTER
 62
1
100
AcDbLine
 10
299.4999980213751
 20
158.6847661978458
 30
0.000000000000000
 11
299.4999980213751
 21
152.1152328021537
 31
0.000000000000000
  0
LINE
  5
DC
100
AcDbEntity
  8
A3
  6
DASHED
 62
2
100
AcDbLine
 10
304.9999980213752
 20
156.9999999999999
 30
0.000000000000000
 11
304.9999980213752
 21
153.7999991999999
 31
0.000000000000000
  0
LINE
  5
DD
100
AcDbEntity
  8
A1
  6
CONTINUOUS
 62
7
100
AcDbLine
 10
289.8644223706223
 20
145.2779211740674
 30
0.000000000000000
 11
231.1355736721283
 21
145.2779211740674
 31
0.000000000000000
  0
LINE
  5
DE
100
AcDbEntity
  8
A1
  6
CONTINUOUS
 62
7
100
AcDbLine
 10
132.7999970213754
 20
141.6000000000001
 30
0.000000000000000
 11
68.49290739027367
 21
141.6000000000001
 31
0.000000000000000
  0
LINE
  5
DF
100
AcDbEntity
  8
A1
  6
CONTINUOUS
 62
7
100
AcDbLine
 10
64.87951902137530
 20
131.8401579999999
 30
0.000000000000000
 11
66.07027102137529
 21
138.5932540000000
 31
0.000000000000000
  0
LINE
  5
E0
100
AcDbEntity
  8
A1
  6
CONTINUOUS
 62
7
100
AcDbLine
 10
136.7392290213753
 20
136.9054080000001
 30
0.000000000000000
 11
136.0329680213753
 21
132.9000010000001
 31
0.000000000000000
  0
ARC
  5
E1
100
AcDbEntity
  8
A1
  6
CONTINUOUS
 62
7
100
AcDbCircle
 10
132.7999970213754
 20
137.6000000000001
 30
0.000000000000000
 40
4.000000000000000
100
AcDbArc
 50
349.9999970000000
 51
450.0000180000009
  0
ARC
  5
E2
100
AcDbEntity
  8
A1
  6
CONTINUOUS
 62
7
100
AcDbCircle
 10
70.00951202137531
 20
137.8986610000001
 30
0.000000000000000
 40
4.000000000000000
100
AcDbArc
 50
108.1537930000002
 51
170.0000050000002
  0
ARC
  5
E3
100
AcDbEntity
  8
A1
  6
CONTINUOUS
 62
7
100
AcDbCircle
 10
123.8999980213754
 20
142.8000010000000
 30
0.000000000000000
 40
6.000000000000000
100
AcDbArc
 50
2.292424999999691
 51
24.39259295820361
  0
ARC
  5
E4
100
AcDbEntity
  8
A1
  6
CONTINUOUS
 62
7
100
AcDbCircle
 10
76.09999602137532
 20
142.8000010000000
 30
0.000000000000000
 40
6.000000000000000
100
AcDbArc
 50
155.6074070417965
 51
174.2608289999995
  0
ARC
  5
E5
100
AcDbEntity
  8
A1
  6
CONTINUOUS
 62
7
100
AcDbCircle
 10
68.14009702137537
 20
143.6000000000000
 30
0.000000000000000
 40
2.000000000000000
100
AcDbArc
 50
288.1538390000007
 51
354.2608430000001
  0
ARC
  5
E6
100
AcDbEntity
  8
A1
  6
CONTINUOUS
 62
7
100
AcDbCircle
 10
131.3939950213753
 20
143.1000000000001
 30
0.000000000000000
 40
1.500000000000000
100
AcDbArc
 50
182.2924439999999
 51
269.9999820000008
  0
ARC
  5
E7
100
AcDbEntity
  8
A1
  6
CONTINUOUS
 62
7
100
AcDbCircle
 10
122.5999850213753
 20
87.79999800000004
 30
0.000000000000000
 40
12.00000000000000
100
AcDbArc
 50
253.3875949999997
 51
386.6027629999999
  0
ARC
  5
E8
100
AcDbEntity
  8
A1
  6
CONTINUOUS
 62
7
100
AcDbCircle
 10
144.9999860213753
 20
118.9999950000000
 30
0.000000000000000
 40
22.00000000000000
100
AcDbArc
 50
180.0000000000000
 51
206.6027629999998
  0
ARC
  5
E9
100
AcDbEntity
  8
A1
  6
CONTINUOUS
 62
7
100
AcDbCircle
 10
131.5457760213753
 20
126.8999970000000
 30
0.000000000000000
 40
6.000000000000000
100
AcDbArc
 50
89.99999999999999
 51
129.5176419999990
  0
LINE
  5
EA
100
AcDbEntity
  8
A1
  6
CONTINUOUS
 62
7
100
AcDbLine
 10
118.1153252091303
 20
130.8905540000000
 30
0.000000000000000
 11
109.1556120213753
 21
80.07751000000002
 31
0.000000000000000
  0
ARC
  5
EB
100
AcDbEntity
  8
A1
  6
CONTINUOUS
 62
7
100
AcDbCircle
 10
135.9999860213753
 20
121.4999960000001
 30
0.000000000000000
 40
13.00000000000000
100
AcDbArc
 50
129.5176400000000
 51
180.0000000000000
  0
LINE
  5
EC
100
AcDbEntity
  8
A1
  6
CONTINUOUS
 62
7
100
AcDbLine
 10
122.9999860213753
 20
121.4999960000001
 30
0.000000000000000
 11
122.9999860213753
 21
118.9999950000001
 31
0.000000000000000
  0
LINE
  5
ED
100
AcDbEntity
  8
A1
  6
CONTINUOUS
 62
7
100
AcDbLine
 10
131.5457760213753
 20
132.8999970000000
 30
0.000000000000000
 11
136.0329940213753
 21
132.8999970000000
 31
0.000000000000000
  0
LINE
  5
EE
100
AcDbEntity
  8
A1
  6
CONTINUOUS
 62
7
100
AcDbLine
 10
125.3290680213753
 20
109.1483470000001
 30
0.000000000000000
 11
133.3295760213753
 21
93.17362499999999
 31
0.000000000000000
  0
ARC
  5
EF
100
AcDbEntity
  8
A1
  6
CONTINUOUS
 62
7
100
AcDbCircle
 10
142.0409020213754
 20
152.9617260000000
 30
0.000000000000000
 40
80.00000000000000
100
AcDbArc
 50
195.3087050000000
 51
253.3875949999997
  0
ARC
  5
F0
100
AcDbEntity
  8
A1
  6
CONTINUOUS
 62
7
100
AcDbCircle
 10
260.4974737720734
 20
-137.6319949992823
 30
0.000000000000000
 40
271.8270451715293
100
AcDbArc
 50
84.40490231823981
 51
95.60557934312368
  0
ARC
  5
F1
100
AcDbEntity
  8
A1
  6
CONTINUOUS
 62
7
100
AcDbCircle
 10
260.4999980213752
 20
121.8401580000000
 30
0.000000000000000
 40
10.00000000000000
100
AcDbArc
 50
48.95783999999998
 51
131.0421649999996
  0
LINE
  5
F2
100
AcDbEntity
  8
A1
  6
CONTINUOUS
 62
7
100
AcDbLine
 10
282.9999980213752
 20
141.6000000000001
 30
0.000000000000000
 11
237.9999980213752
 21
141.6000000000001
 31
0.000000000000000
  0
LINE
  5
F3
100
AcDbEntity
  8
A1
  6
CONTINUOUS
 62
7
100
AcDbLine
 10
284.5321250213753
 20
141.6000000000001
 30
0.000000000000000
 11
290.2931840213752
 21
141.6000000000001
 31
0.000000000000000
  0
LINE
  5
F4
100
AcDbEntity
  8
A1
  6
CONTINUOUS
 62
7
100
AcDbLine
 10
236.6000880213753
 20
141.6000000000001
 30
0.000000000000000
 11
230.6085800213753
 21
141.6000000000001
 31
0.000000000000000
  0
ARC
  5
F5
100
AcDbEntity
  8
A1
  6
CONTINUOUS
 62
7
100
AcDbCircle
 10
236.5999960213753
 20
142.8000010000000
 30
0.000000000000000
 40
6.000000000000000
100
AcDbArc
 50
155.6074070417973
 51
174.2480848992729
  0
ARC
  5
F6
100
AcDbEntity
  8
A1
  6
CONTINUOUS
 62
7
100
AcDbCircle
 10
284.4000000213753
 20
142.8000010000000
 30
0.000000000000000
 40
6.000000000000000
100
AcDbArc
 50
5.739171000000383
 51
24.39259295820253
  0
ARC
  5
F7
100
AcDbEntity
  8
A1
  6
CONTINUOUS
 62
7
100
AcDbCircle
 10
292.3598990213753
 20
143.6000000000000
 30
0.000000000000000
 40
2.000000000000000
100
AcDbArc
 50
185.7391569999998
 51
229.2158999824466
  0
ARC
  5
F8
100
AcDbEntity
  8
A1
  6
CONTINUOUS
 62
7
100
AcDbCircle
 10
282.9999980213752
 20
137.6000000000001
 30
0.000000000000000
 40
4.000000000000000
100
AcDbArc
 50
0.000000000000000
 51
90.00000000000000
  0
ARC
  5
F9
100
AcDbEntity
  8
A1
  6
CONTINUOUS
 62
7
100
AcDbCircle
 10
228.6400970213753
 20
143.6000000000000
 30
0.000000000000000
 40
2.000000000000000
100
AcDbArc
 50
310.7712909477887
 51
354.2990904765541
  0
ARC
  5
FA
100
AcDbEntity
  8
A1
  6
CONTINUOUS
 62
7
100
AcDbCircle
 10
237.9999980213752
 20
137.6000000000001
 30
0.000000000000000
 40
4.000000000000000
100
AcDbArc
 50
89.99998199999916
 51
180.0000000000000
  0
ARC
  5
FB
100
AcDbEntity
  8
A1
  6
CONTINUOUS
 62
7
100
AcDbCircle
 10
232.5583443195932
 20
139.0560657894279
 30
0.000000000000000
 40
4.000000000000000
100
AcDbArc
 50
130.7712909477889
 51
178.7588950229218
  0
ARC
  5
FC
100
AcDbEntity
  8
A1
  6
CONTINUOUS
 62
7
100
AcDbCircle
 10
288.4406359771430
 20
139.0569418680678
 30
0.000000000000000
 40
4.000000000000000
100
AcDbArc
 50
1.261656822042607
 51
49.21589998244642
  0
LINE
  5
FD
100
AcDbEntity
  8
A4
  6
CENTER
 62
1
100
AcDbLine
 10
307.9999980213754
 20
296.0000009999999
 30
0.000000000000000
 11
290.9999980213754
 21
296.0000009999999
 31
0.000000000000000
  0
LINE
  5
FE
100
AcDbEntity
  8
A4
  6
CENTER
 62
1
100
AcDbLine
 10
299.4999980213754
 20
304.5000009999999
 30
0.000000000000000
 11
299.4999980213754
 21
287.5000009999999
 31
0.000000000000000
  0
LINE
  5
FF
100
AcDbEntity
  8
A4
  6
CENTER
 62
1
100
AcDbLine
 10
229.9999961213755
 20
296.0000009999999
 30
0.000000000000000
 11
212.9999961213755
 21
296.0000009999999
 31
0.000000000000000
  0
LINE
  5
100
100
AcDbEntity
  8
A4
  6
CENTER
 62
1
100
AcDbLine
 10
221.4999961213755
 20
304.5000009999999
 30
0.000000000000000
 11
221.4999961213755
 21
287.5000009999999
 31
0.000000000000000
  0
LINE
  5
101
100
AcDbEntity
  8
A4
  6
CENTER
 62
1
100
AcDbLine
 10
229.9999961213755
 20
218.0000009999999
 30
0.000000000000000
 11
212.9999961213755
 21
218.0000009999999
 31
0.000000000000000
  0
LINE
  5
102
100
AcDbEntity
  8
A4
  6
CENTER
 62
1
100
AcDbLine
 10
221.4999961213755
 20
226.5000009999999
 30
0.000000000000000
 11
221.4999961213755
 21
209.5000009999999
 31
0.000000000000000
  0
LINE
  5
103
100
AcDbEntity
  8
A4
  6
CENTER
 62
1
100
AcDbLine
 10
307.9999980213754
 20
218.0000009999999
 30
0.000000000000000
 11
290.9999980213754
 21
218.0000009999999
 31
0.000000000000000
  0
LINE
  5
104
100
AcDbEntity
  8
A4
  6
CENTER
 62
1
100
AcDbLine
 10
299.4999980213754
 20
226.5000009999999
 30
0.000000000000000
 11
299.4999980213754
 21
209.5000009999999
 31
0.000000000000000
  0
LINE
  5
105
100
AcDbEntity
  8
A4
  6
CENTER
 62
1
100
AcDbLine
 10
313.4999980213754
 20
257.0000009999999
 30
0.000000000000000
 11
207.4999970213754
 21
257.0000009999999
 31
0.000000000000000
  0
LINE
  5
106
100
AcDbEntity
  8
A4
  6
CENTER
 62
1
100
AcDbLine
 10
260.4999980213753
 20
310.0000010000001
 30
0.000000000000000
 11
260.4999980213753
 21
203.9999999999998
 31
0.000000000000000
  0
ARC
  5
107
100
AcDbEntity
  8
A1
  6
CONTINUOUS
 62
7
100
AcDbCircle
 10
122.9999980213752
 20
87.50000000000000
 30
0.000000000000000
 40
37.50000000000000
100
AcDbArc
 50
167.6614679446988
 51
449.2678932435451
  0
ARC
  5
108
100
AcDbEntity
  8
A1
  6
CONTINUOUS
 62
7
100
AcDbCircle
 10
122.9999980213752
 20
87.50000000000000
 30
0.000000000000000
 40
15.00000000000000
100
AcDbArc
 50
212.0881781004084
 51
424.8717565560208
  0
ARC
  5
109
100
AcDbEntity
  8
A1
  6
CONTINUOUS
 62
7
100
AcDbCircle
 10
122.9999980213752
 20
87.50000000000000
 30
0.000000000000000
 40
12.80000000000000
100
AcDbArc
 50
229.3004813811041
 51
409.6689730003306
  0
ARC
  5
10A
100
AcDbEntity
  8
A1
  6
CONTINUOUS
 62
7
100
AcDbCircle
 10
122.9999980213752
 20
87.50000000000000
 30
0.000000000000000
 40
22.00000000000000
100
AcDbArc
 50
188.7920188416749
 51
444.2332421318411
  0
ARC
  5
10B
100
AcDbEntity
  8
A1
  6
CONTINUOUS
 62
7
100
AcDbCircle
 10
122.9999980213752
 20
87.50000000000000
 30
0.000000000000000
 40
21.00000000000000
100
AcDbArc
 50
191.0353938060830
 51
442.4920336089332
  0
LINE
  5
10C
100
AcDbEntity
  8
A4
  6
CENTER
 62
1
100
AcDbLine
 10
163.4999980213752
 20
87.50000000000000
 30
0.000000000000000
 11
82.49999802137523
 21
87.50000000000000
 31
0.000000000000000
  0
LINE
  5
10D
100
AcDbEntity
  8
A1
  6
CONTINUOUS
 62
7
100
AcDbLine
 10
259.4999980213752
 20
96.29999999999998
 30
0.000000000000000
 11
260.2999980213752
 21
96.29999999999998
 31
0.000000000000000
  0
LINE
  5
10E
100
AcDbEntity
  8
A1
  6
CONTINUOUS
 62
7
100
AcDbLine
 10
260.4999980213752
 20
96.09999999999999
 30
0.000000000000000
 11
260.4999980213752
 21
78.90000000000001
 31
0.000000000000000
  0
LINE
  5
10F
100
AcDbEntity
  8
A1
  6
CONTINUOUS
 62
7
100
AcDbLine
 10
259.4999980213752
 20
78.70000000000002
 30
0.000000000000000
 11
260.2999980213752
 21
78.70000000000002
 31
0.000000000000000
  0
LINE
  5
110
100
AcDbEntity
  8
A1
  6
CONTINUOUS
 62
7
100
AcDbLine
 10
238.9999980213752
 20
78.70000000000002
 30
0.000000000000000
 11
238.1999980213752
 21
78.70000000000002
 31
0.000000000000000
  0
LINE
  5
111
100
AcDbEntity
  8
A1
  6
CONTINUOUS
 62
7
100
AcDbLine
 10
258.4999980213752
 20
109.5000000000000
 30
0.000000000000000
 11
259.4999980213752
 21
108.5000000000000
 31
0.000000000000000
  0
LINE
  5
112
100
AcDbEntity
  8
A1
  6
CONTINUOUS
 62
7
100
AcDbLine
 10
258.4999980213752
 20
65.50000000000010
 30
0.000000000000000
 11
259.4999980213752
 21
66.50000000000001
 31
0.000000000000000
  0
LINE
  5
113
100
AcDbEntity
  8
A1
  6
CONTINUOUS
 62
7
100
AcDbLine
 10
239.9999980213752
 20
65.50000000000007
 30
0.000000000000000
 11
238.9999980213752
 21
66.50000000000007
 31
0.000000000000000
  0
ARC
  5
114
100
AcDbEntity
  8
A1
  6
CONTINUOUS
 62
7
100
AcDbCircle
 10
260.2999980213752
 20
96.09999999999999
 30
0.000000000000000
 40
0.2000000000000000
100
AcDbArc
 50
0.000000000000000
 51
90.00000000000000
  0
ARC
  5
115
100
AcDbEntity
  8
A1
  6
CONTINUOUS
 62
7
100
AcDbCircle
 10
238.1999980213752
 20
96.09999999999999
 30
0.000000000000000
 40
0.2000000000000000
100
AcDbArc
 50
90.00000000000000
 51
180.0000000000000
  0
ARC
  5
116
100
AcDbEntity
  8
A1
  6
CONTINUOUS
 62
7
100
AcDbCircle
 10
260.2999980213752
 20
78.90000000000001
 30
0.000000000000000
 40
0.2000000000000000
100
AcDbArc
 50
270.0000000000000
 51
360.0000000000000
  0
ARC
  5
117
100
AcDbEntity
  8
A1
  6
CONTINUOUS
 62
7
100
AcDbCircle
 10
238.1999980213752
 20
78.90000000000001
 30
0.000000000000000
 40
0.2000000000000000
100
AcDbArc
 50
180.0000000000000
 51
270.0000000000000
  0
LINE
  5
118
100
AcDbEntity
  8
A1
  6
CONTINUOUS
 62
7
100
AcDbLine
 10
238.9999980213752
 20
96.29999999999987
 30
0.000000000000000
 11
238.1999980213751
 21
96.29999999999987
 31
0.000000000000000
  0
LINE
  5
119
100
AcDbEntity
  8
A1
  6
CONTINUOUS
 62
7
100
AcDbLine
 10
239.9999980213752
 20
109.5000000000000
 30
0.000000000000000
 11
238.9999980213752
 21
108.5000000000000
 31
0.000000000000000
  0
LINE
  5
11A
100
AcDbEntity
  8
A4
  6
CENTER
 62
1
100
AcDbLine
 10
249.2499980213753
 20
128.0000000000000
 30
0.000000000000000
 11
249.2499980213753
 21
46.99999999999994
 31
0.000000000000000
  0
ARC
  5
11B
100
AcDbEntity
  8
A1
  6
CONTINUOUS
 62
7
100
AcDbCircle
 10
249.2499980213753
 20
50.00000000000003
 30
0.000000000000000
 40
75.00000000000000
100
AcDbArc
 50
86.51918692492023
 51
93.48081307507975
  0
ARC
  5
11C
100
AcDbEntity
  8
A1
  6
CONTINUOUS
 62
7
100
AcDbCircle
 10
244.9999980213752
 20
119.8708630260139
 30
0.000000000000000
 40
5.000000000000000
100
AcDbArc
 50
93.48081307507962
 51
180.0000000000000
  0
ARC
  5
11D
100
AcDbEntity
  8
A1
  6
CONTINUOUS
 62
7
100
AcDbCircle
 10
253.4999980213752
 20
119.8708630260139
 30
0.000000000000000
 40
5.000000000000000
100
AcDbArc
 50
0.000000000000000
 51
86.51918692492022
  0
ARC
  5
11E
100
AcDbEntity
  8
A1
  6
CONTINUOUS
 62
7
100
AcDbCircle
 10
249.2499980213753
 20
125.0000000000000
 30
0.000000000000000
 40
75.00000000000000
100
AcDbArc
 50
266.5191869249202
 51
273.4808130750798
  0
ARC
  5
11F
100
AcDbEntity
  8
A1
  6
CONTINUOUS
 62
7
100
AcDbCircle
 10
244.9999980213752
 20
55.12913697398611
 30
0.000000000000000
 40
5.000000000000000
100
AcDbArc
 50
180.0000000000000
 51
266.5191869249206
  0
ARC
  5
120
100
AcDbEntity
  8
A1
  6
CONTINUOUS
 62
7
100
AcDbCircle
 10
253.4999980213752
 20
55.12913697398611
 30
0.000000000000000
 40
5.000000000000000
100
AcDbArc
 50
273.4808130750793
 51
360.0000000000000
  0
LINE
  5
121
100
AcDbEntity
  8
A1
  6
CONTINUOUS
 62
7
100
AcDbLine
 10
258.4999980213752
 20
55.12913697398611
 30
0.000000000000000
 11
258.4999980213752
 21
119.8708630260139
 31
0.000000000000000
  0
LINE
  5
122
100
AcDbEntity
  8
A1
  6
CONTINUOUS
 62
7
100
AcDbLine
 10
259.4999980213752
 20
66.49999999999997
 30
0.000000000000000
 11
259.4999980213752
 21
108.5000000000000
 31
0.000000000000000
  0
LINE
  5
123
100
AcDbEntity
  8
A1
  6
CONTINUOUS
 62
7
100
AcDbLine
 10
239.9999980213752
 20
55.12913697398611
 30
0.000000000000000
 11
239.9999980213752
 21
119.8708630260139
 31
0.000000000000000
  0
LINE
  5
124
100
AcDbEntity
  8
A1
  6
CONTINUOUS
 62
7
100
AcDbLine
 10
238.9999980213752
 20
66.49999999999997
 30
0.000000000000000
 11
238.9999980213752
 21
108.5000000000000
 31
0.000000000000000
  0
ARC
  5
125
100
AcDbEntity
  8
A1
  6
CONTINUOUS
 62
7
100
AcDbCircle
 10
285.4462895227716
 20
93.17954800000007
 30
0.000000000000000
 40
48.00000000000000
100
AcDbArc
 50
131.0421600000000
 51
138.4772969310873
  0
ARC
  5
126
100
AcDbEntity
  8
A1
  6
CONTINUOUS
 62
7
100
AcDbCircle
 10
285.4462895227716
 20
93.17954800000007
 30
0.000000000000000
 40
48.00000000000000
100
AcDbArc
 50
165.3822588460886
 51
171.3287180000000
  0
LINE
  5
127
100
AcDbEntity
  8
A1
  6
CONTINUOUS
 62
7
100
AcDbLine
 10
281.9999980213751
 20
96.29999999999998
 30
0.000000000000000
 11
282.7999980213751
 21
96.29999999999998
 31
0.000000000000000
  0
LINE
  5
128
100
AcDbEntity
  8
A1
  6
CONTINUOUS
 62
7
100
AcDbLine
 10
281.9999980213751
 20
78.70000000000002
 30
0.000000000000000
 11
282.7999980213751
 21
78.70000000000002
 31
0.000000000000000
  0
LINE
  5
129
100
AcDbEntity
  8
A1
  6
CONTINUOUS
 62
7
100
AcDbLine
 10
261.4999980213751
 20
78.70000000000002
 30
0.000000000000000
 11
260.6999980213751
 21
78.70000000000002
 31
0.000000000000000
  0
LINE
  5
12A
100
AcDbEntity
  8
A1
  6
CONTINUOUS
 62
7
100
AcDbLine
 10
280.9999980213751
 20
109.5000000000000
 30
0.000000000000000
 11
281.9999980213751
 21
108.5000000000000
 31
0.000000000000000
  0
LINE
  5
12B
100
AcDbEntity
  8
A1
  6
CONTINUOUS
 62
7
100
AcDbLine
 10
280.9999980213752
 20
65.50000000000010
 30
0.000000000000000
 11
281.9999980213751
 21
66.50000000000001
 31
0.000000000000000
  0
LINE
  5
12C
100
AcDbEntity
  8
A1
  6
CONTINUOUS
 62
7
100
AcDbLine
 10
262.4999980213752
 20
65.50000000000007
 30
0.000000000000000
 11
261.4999980213752
 21
66.50000000000007
 31
0.000000000000000
  0
ARC
  5
12D
100
AcDbEntity
  8
A1
  6
CONTINUOUS
 62
7
100
AcDbCircle
 10
282.7999980213751
 20
96.09999999999999
 30
0.000000000000000
 40
0.2000000000000000
100
AcDbArc
 50
0.000000000000000
 51
90.00000000000000
  0
ARC
  5
12E
100
AcDbEntity
  8
A1
  6
CONTINUOUS
 62
7
100
AcDbCircle
 10
260.6999980213751
 20
96.09999999999999
 30
0.000000000000000
 40
0.2000000000000000
100
AcDbArc
 50
90.00000000000000
 51
180.0000000000000
  0
ARC
  5
12F
100
AcDbEntity
  8
A1
  6
CONTINUOUS
 62
7
100
AcDbCircle
 10
282.7999980213751
 20
78.90000000000001
 30
0.000000000000000
 40
0.2000000000000000
100
AcDbArc
 50
270.0000000000000
 51
360.0000000000000
  0
ARC
  5
130
100
AcDbEntity
  8
A1
  6
CONTINUOUS
 62
7
100
AcDbCircle
 10
260.6999980213751
 20
78.90000000000001
 30
0.000000000000000
 40
0.2000000000000000
100
AcDbArc
 50
180.0000000000000
 51
270.0000000000000
  0
LINE
  5
131
100
AcDbEntity
  8
A1
  6
CONTINUOUS
 62
7
100
AcDbLine
 10
261.4999980213751
 20
96.29999999999987
 30
0.000000000000000
 11
260.6999980213749
 21
96.29999999999987
 31
0.000000000000000
  0
LINE
  5
132
100
AcDbEntity
  8
A1
  6
CONTINUOUS
 62
7
100
AcDbLine
 10
262.4999980213752
 20
109.5000000000000
 30
0.000000000000000
 11
261.4999980213752
 21
108.5000000000000
 31
0.000000000000000
  0
LINE
  5
133
100
AcDbEntity
  8
A4
  6
CENTER
 62
1
100
AcDbLine
 10
271.7499980213752
 20
128.0000000000000
 30
0.000000000000000
 11
271.7499980213752
 21
46.99999999999994
 31
0.000000000000000
  0
ARC
  5
134
100
AcDbEntity
  8
A1
  6
CONTINUOUS
 62
7
100
AcDbCircle
 10
271.7499980213752
 20
50.00000000000003
 30
0.000000000000000
 40
75.00000000000000
100
AcDbArc
 50
86.51918692492023
 51
93.48081307507975
  0
ARC
  5
135
100
AcDbEntity
  8
A1
  6
CONTINUOUS
 62
7
100
AcDbCircle
 10
267.4999980213751
 20
119.8708630260139
 30
0.000000000000000
 40
5.000000000000000
100
AcDbArc
 50
93.48081307507962
 51
180.0000000000000
  0
ARC
  5
136
100
AcDbEntity
  8
A1
  6
CONTINUOUS
 62
7
100
AcDbCircle
 10
275.9999980213751
 20
119.8708630260139
 30
0.000000000000000
 40
5.000000000000000
100
AcDbArc
 50
0.000000000000000
 51
86.51918692492022
  0
ARC
  5
137
100
AcDbEntity
  8
A1
  6
CONTINUOUS
 62
7
100
AcDbCircle
 10
271.7499980213752
 20
125.0000000000000
 30
0.000000000000000
 40
75.00000000000000
100
AcDbArc
 50
266.5191869249202
 51
273.4808130750798
  0
ARC
  5
138
100
AcDbEntity
  8
A1
  6
CONTINUOUS
 62
7
100
AcDbCircle
 10
267.4999980213751
 20
55.12913697398611
 30
0.000000000000000
 40
5.000000000000000
100
AcDbArc
 50
180.0000000000000
 51
266.5191869249206
  0
ARC
  5
139
100
AcDbEntity
  8
A1
  6
CONTINUOUS
 62
7
100
AcDbCircle
 10
275.9999980213751
 20
55.12913697398611
 30
0.000000000000000
 40
5.000000000000000
100
AcDbArc
 50
273.4808130750793
 51
360.0000000000000
  0
LINE
  5
13A
100
AcDbEntity
  8
A1
  6
CONTINUOUS
 62
7
100
AcDbLine
 10
280.9999980213751
 20
55.12913697398611
 30
0.000000000000000
 11
280.9999980213751
 21
119.8708630260139
 31
0.000000000000000
  0
LINE
  5
13B
100
AcDbEntity
  8
A1
  6
CONTINUOUS
 62
7
100
AcDbLine
 10
281.9999980213751
 20
66.49999999999997
 30
0.000000000000000
 11
281.9999980213751
 21
108.5000000000000
 31
0.000000000000000
  0
LINE
  5
13C
100
AcDbEntity
  8
A1
  6
CONTINUOUS
 62
7
100
AcDbLine
 10
262.4999980213751
 20
55.12913697398611
 30
0.000000000000000
 11
262.4999980213751
 21
119.8708630260139
 31
0.000000000000000
  0
LINE
  5
13D
100
AcDbEntity
  8
A1
  6
CONTINUOUS
 62
7
100
AcDbLine
 10
261.4999980213751
 20
66.49999999999997
 30
0.000000000000000
 11
261.4999980213751
 21
108.5000000000000
 31
0.000000000000000
  0
ARC
  5
13E
100
AcDbEntity
  8
A1
  6
CONTINUOUS
 62
7
100
AcDbCircle
 10
235.5486580213753
 20
93.17954800000007
 30
0.000000000000000
 40
48.00000000000000
100
AcDbArc
 50
8.671281999999929
 51
14.59384351121496
  0
ARC
  5
13F
100
AcDbEntity
  8
A1
  6
CONTINUOUS
 62
7
100
AcDbCircle
 10
235.5486580213753
 20
93.17954800000007
 30
0.000000000000000
 40
48.00000000000000
100
AcDbArc
 50
41.52267508691681
 51
48.95783999999997
  0
LINE
  5
140
100
AcDbEntity
  8
A4
  6
CENTER
 62
1
100
AcDbLine
 10
260.4999980213752
 20
78.90000000000001
 30
0.000000000000000
 11
260.4999980213752
 21
45.49999999999994
 31
0.000000000000000
  0
LINE
  5
141
100
AcDbEntity
  8
A4
  6
CENTER
 62
1
100
AcDbLine
 10
260.4999980213752
 20
160.4431066740674
 30
0.000000000000000
 11
260.4999980213752
 21
96.09999999999999
 31
0.000000000000000
  0
LINE
  5
142
100
AcDbEntity
  8
A4
  6
CENTER
 62
1
100
AcDbLine
 10
122.9999980213752
 20
118.9999950000001
 30
0.000000000000000
 11
122.9999980213752
 21
47.00000000000000
 31
0.000000000000000
  0
LINE
  5
143
100
AcDbEntity
  8
A4
  6
CENTER
 62
1
100
AcDbLine
 10
122.9999980213752
 20
128.0000000000000
 30
0.000000000000000
 11
122.9999980213752
 21
121.4999960000001
 31
0.000000000000000
  0
ENDSEC
  0
SECTION
  2
OBJECTS
  0
DICTIONARY
  5
170
100
AcDbDictionary
  3
ACAD_GROUP
350
171
  3
ACAD_LAYOUT
350
172
  3
ACAD_MLINESTYLE
350
173
  0
DICTIONARY
  5
171
102
{ACAD_REACTORS
330
170
102
}
330
170
100
AcDbDictionary
  0
DICTIONARY
  5
172
102
{ACAD_REACTORS
330
170
102
}
330
170
100
AcDbDictionary
  3
Model
350
174
  3
ﾚｲｱｳﾄ1
350
175
  3
ﾚｲｱｳﾄ2
350
176
  0
DICTIONARY
  5
173
102
{ACAD_REACTORS
330
170
102
}
330
170
100
AcDbDictionary
  3
STANDARD
350
177
  0
LAYOUT
  5
174
102
{ACAD_REACTORS
330
172
102
}
330
172
100
AcDbPlotSettings
 70
11952
  4
A3
 44
297.000000
 45
420.000000
 73
  1
 72
  1
100
AcDbLayout
  1
Model
 71
0
330
167
  0
LAYOUT
  5
175
102
{ACAD_REACTORS
330
172
102
}
330
172
100
AcDbPlotSettings
100
AcDbLayout
  1
ﾚｲｱｳﾄ1
 71
1
330
168
  0
LAYOUT
  5
176
102
{ACAD_REACTORS
330
172
102
}
330
172
100
AcDbPlotSettings
100
AcDbLayout
  1
ﾚｲｱｳﾄ2
 71
2
330
169
  0
MLINESTYLE
  5
177
102
{ACAD_REACTORS
330
173
102
}
330
173
100
AcDbMlineStyle
  2
STANDARD
 70
     0
  3

 62
   256
 51
90.00
 52
90.00
 71
     2
 49
0.50
 62
   256
  6
BYLAYER
 49
-0.50
 62
   256
  6
BYLAYER
  0
ENDSEC
  0
EOF
