  0
SECTION
  2
HEADER
  9
$ACADVER
  1
AC1015
  9
$DWGCODEPAGE
  3
ANSI_932
  9
$LTSCALE
 40
20.0
  9
$FILLMODE
 70
     1
  9
$CLAYER
  8
0
  9
$PDMODE
 70
     0
  9
$SPLFRAME
 70
     0
  9
$SPLINETYPE
 70
     6
  9
$SPLINESEGS
 70
     8
  9
$DIMASZ
 40
2.000000
  9
$DIMEXE
 40
1.500000
  9
$DIMEXO
 40
0.800000
  9
$DIMTAD
 70
     1
  9
$DIMTIH
 70
     0
  9
$DIMTOH
 70
     0
  9
$DIMTVP
 40
0.500000
  9
$DIMTXT
 40
3.100000
  9
$EXTMIN
 10
0.000000
 20
0.000000
 30
0.000000
  9
$EXTMAX
 10
297.000000
 20
420.000000
 30
0.000000
  9
$MEASUREMENT
 70
  1
  9
$LIMMIN
 10
0.000000
 20
0.000000
  9
$LIMMAX
 10
297.000000
 20
420.000000
  9
$HANDSEED
  5
18F
  9
$LWDISPLAY
290
     0
  9
$DIMBLK
  1
_OPEN
  9
$DIMDEC
 70
     2
  9
$DIMADEC
 70
     2
  9
$DIMAUNIT
 70
     0
  9
$DIMZIN
 70
     8
  9
$DIMAZIN
 70
     2
  9
$DIMTOFL
 70
     1
  0
ENDSEC
  0
SECTION
  2
CLASSES
  0
ENDSEC
  0
SECTION
  2
TABLES
  0
TABLE
  2
VPORT
  5
15D
100
AcDbSymbolTable
 70
     1
  0
VPORT
  5
15E
100
AcDbSymbolTableRecord
100
AcDbViewportTableRecord
  2
*ACTIVE
 70
     0
 12
126.532185
 22
152.250027
 40
268.500052
 41
0.868024
  0
ENDTAB
  0
TABLE
  2
LTYPE
  5
15F
100
AcDbSymbolTable
 70
     2
  0
LTYPE
  5
160
100
AcDbSymbolTableRecord
100
AcDbLinetypeTableRecord
  2
BYBLOCK
 70
     0
  3

 72
    65
 73
     0
 40
0.0
  0
LTYPE
  5
161
100
AcDbSymbolTableRecord
100
AcDbLinetypeTableRecord
  2
BYLAYER
 70
     0
  3

 72
    65
 73
     0
 40
0.0
  0
LTYPE
  5
162
100
AcDbSymbolTableRecord
100
AcDbLinetypeTableRecord
  2
CONTINUOUS
 70
     0
  3
Solid line (NEC CAE2D for Win R18.0 : 2024.04.25)
 72
    65
 73
     0
 40
0.0
  0
LTYPE
  5
163
100
AcDbSymbolTableRecord
100
AcDbLinetypeTableRecord
  2
CENTER
 70
     0
  3
____ _ ____ _ ____ _ ____ _ ____ _ ____
 72
    65
 73
     4
 40
2.0
 49
1.25
 74
     0
 49
-0.25
 74
     0
 49
0.25
 74
     0
 49
-0.25
 74
     0
  0
ENDTAB
  0
TABLE
  2
LAYER
  5
164
100
AcDbSymbolTable
 70
    12
  0
LAYER
  5
165
100
AcDbSymbolTableRecord
100
AcDbLayerTableRecord
  2
0
 70
     0
 62
     7
  6
CONTINUOUS
370
    -3
390

  0
LAYER
  5
166
100
AcDbSymbolTableRecord
100
AcDbLayerTableRecord
  2
A0
 70
     0
 62
     9
  6
CONTINUOUS
370
    -3
390

  0
LAYER
  5
167
100
AcDbSymbolTableRecord
100
AcDbLayerTableRecord
  2
A1
 70
     0
 62
     8
  6
CONTINUOUS
370
    -3
390

  0
LAYER
  5
168
100
AcDbSymbolTableRecord
100
AcDbLayerTableRecord
  2
A2
 70
     0
 62
    12
  6
CONTINUOUS
370
    -3
390

  0
LAYER
  5
169
100
AcDbSymbolTableRecord
100
AcDbLayerTableRecord
  2
A4
 70
     0
 62
    12
  6
CONTINUOUS
370
    -3
390

  0
LAYER
  5
16A
100
AcDbSymbolTableRecord
100
AcDbLayerTableRecord
  2
A8
 70
     0
 62
    10
  6
CONTINUOUS
370
    -3
390

  0
LAYER
  5
16B
100
AcDbSymbolTableRecord
100
AcDbLayerTableRecord
  2
A10
 70
     0
 62
     6
  6
CONTINUOUS
370
    -3
390

  0
LAYER
  5
16C
100
AcDbSymbolTableRecord
100
AcDbLayerTableRecord
  2
A20
 70
     0
 62
     1
  6
CONTINUOUS
370
    -3
390

  0
LAYER
  5
16D
100
AcDbSymbolTableRecord
100
AcDbLayerTableRecord
  2
A30
 70
     0
 62
     1
  6
CONTINUOUS
370
    -3
390

  0
LAYER
  5
16E
100
AcDbSymbolTableRecord
100
AcDbLayerTableRecord
  2
A40
 70
     0
 62
     9
  6
CONTINUOUS
370
    -3
390

  0
LAYER
  5
16F
100
AcDbSymbolTableRecord
100
AcDbLayerTableRecord
  2
A50
 70
     0
 62
    12
  6
CONTINUOUS
370
    -3
390

  0
LAYER
  5
170
100
AcDbSymbolTableRecord
100
AcDbLayerTableRecord
  2
A1023
 70
     0
 62
    16
  6
CONTINUOUS
370
    -3
390

  0
ENDTAB
  0
TABLE
  2
STYLE
  5
171
100
AcDbSymbolTable
 70
     4
  0
STYLE
  5
172
100
AcDbSymbolTableRecord
100
AcDbTextStyleTableRecord
  2
STANDARD
 70
    64
 40
0.0
 41
1.0
 50
0.0
 71
     0
 42
3.000000000000000
  3
TXT
  4

  0
STYLE
  5
173
100
AcDbSymbolTableRecord
100
AcDbTextStyleTableRecord
  2
ANKTATE
 70
    68
 40
0.0
 41
1.0
 50
0.0
 71
     0
 42
3.000000000000000
  3
TXT
  4

  0
STYLE
  5
174
100
AcDbSymbolTableRecord
100
AcDbTextStyleTableRecord
  2
KNJYOKO
 70
    64
 40
0.0
 41
1.0
 50
0.0
 71
     0
 42
3.000000000000000
  3
TXT
  4
BIGFONT
  0
STYLE
  5
175
100
AcDbSymbolTableRecord
100
AcDbTextStyleTableRecord
  2
KNJTATE
 70
    68
 40
0.0
 41
1.0
 50
0.0
 71
     0
 42
3.000000000000000
  3
TXT
  4
BIGFONT
  0
ENDTAB
  0
TABLE
  2
VIEW
  5
176
100
AcDbSymbolTable
 70
     0
  0
ENDTAB
  0
TABLE
  2
UCS
  5
177
100
AcDbSymbolTable
 70
     0
  0
ENDTAB
  0
TABLE
  2
APPID
  5
178
100
AcDbSymbolTable
 70
     1
  0
APPID
  5
179
100
AcDbSymbolTableRecord
100
AcDbRegAppTableRecord
  2
ACAD
 70
     0
  0
ENDTAB
  0
TABLE
  2
DIMSTYLE
  5
17A
100
AcDbSymbolTable
 70
     2
100
AcDbDimStyleTable
  0
DIMSTYLE
105
17B
100
AcDbSymbolTableRecord
100
AcDbDimStyleTableRecord
  2
STANDARD
 70
     0
 41
2.000000
 44
1.500000
 42
0.800000
145
0.661290
140
3.100000
144
1.000000
146
0.645161
340
172
  0
DIMSTYLE
105
17C
100
AcDbSymbolTableRecord
100
AcDbDimStyleTableRecord
  2
A001
 70
     0
 41
2.000000
 44
1.500000
 42
0.800000
145
0.661290
140
3.100000
144
1.000000
146
0.645161
 77
     1
 73
     0
 74
     0
271
     2
179
     2
275
     0
 78
     8
 79
     2
172
     1
340
172
  0
ENDTAB
  0
TABLE
  2
BLOCK_RECORD
  5
17D
100
AcDbSymbolTable
 70
    12
  0
BLOCK_RECORD
  5
17E
100
AcDbSymbolTableRecord
100
AcDbBlockTableRecord
  2
*MODEL_SPACE
  0
BLOCK_RECORD
  5
17F
100
AcDbSymbolTableRecord
100
AcDbBlockTableRecord
  2
*PAPER_SPACE
  0
BLOCK_RECORD
  5
180
100
AcDbSymbolTableRecord
100
AcDbBlockTableRecord
  2
*PAPER_SPACE0
  0
BLOCK_RECORD
  5
1
100
AcDbSymbolTableRecord
100
AcDbBlockTableRecord
  2
_NONE
  0
BLOCK_RECORD
  5
4
100
AcDbSymbolTableRecord
100
AcDbBlockTableRecord
  2
_CLOSED
  0
BLOCK_RECORD
  5
B
100
AcDbSymbolTableRecord
100
AcDbBlockTableRecord
  2
_DOT
  0
BLOCK_RECORD
  5
13
100
AcDbSymbolTableRecord
100
AcDbBlockTableRecord
  2
_OPEN
  0
BLOCK_RECORD
  5
19
100
AcDbSymbolTableRecord
100
AcDbBlockTableRecord
  2
_ORIGIN
  0
BLOCK_RECORD
  5
1E
100
AcDbSymbolTableRecord
100
AcDbBlockTableRecord
  2
_OPEN30
  0
BLOCK_RECORD
  5
24
100
AcDbSymbolTableRecord
100
AcDbBlockTableRecord
  2
_BOXFILLED
  0
BLOCK_RECORD
  5
29
100
AcDbSymbolTableRecord
100
AcDbBlockTableRecord
  2
_BOXBLANK
  0
BLOCK_RECORD
  5
31
100
AcDbSymbolTableRecord
100
AcDbBlockTableRecord
  2
_OBLIQUE
  0
BLOCK_RECORD
  5
35
100
AcDbSymbolTableRecord
100
AcDbBlockTableRecord
  2
_OPEN90
  0
BLOCK_RECORD
  5
3B
100
AcDbSymbolTableRecord
100
AcDbBlockTableRecord
  2
_CLOSEDBLANK
  0
BLOCK_RECORD
  5
41
100
AcDbSymbolTableRecord
100
AcDbBlockTableRecord
  2
_DOTBLANK
  0
ENDTAB
  0
ENDSEC
  0
SECTION
  2
BLOCKS
  0
BLOCK
  5
181
100
AcDbEntity
  8
0
100
AcDbBlockBegin
  2
*MODEL_SPACE
 70
     0
 10
0.0
 20
0.0
 30
0.0
  3
*MODEL_SPACE
  1

  0
ENDBLK
  5
182
100
AcDbEntity
  8
0
100
AcDbBlockEnd
  0
BLOCK
  5
183
100
AcDbEntity
  8
0
100
AcDbBlockBegin
  2
*PAPER_SPACE
 70
     0
 10
0.0
 20
0.0
 30
0.0
  3
*PAPER_SPACE
  1

  0
ENDBLK
  5
184
100
AcDbEntity
  8
0
100
AcDbBlockEnd
  0
BLOCK
  5
185
100
AcDbEntity
  8
0
100
AcDbBlockBegin
  2
*PAPER_SPACE0
 70
     0
 10
0.0
 20
0.0
 30
0.0
  3
*PAPER_SPACE0
  1

  0
ENDBLK
  5
186
100
AcDbEntity
  8
0
100
AcDbBlockEnd
  0
BLOCK
  5
2
330
1
100
AcDbEntity
  8
0
100
AcDbBlockBegin
  2
_NONE
 70
     0
 10
0.0
 20
0.0
 30
0.0
  3
_NONE
  1

  0
ENDBLK
  5
3
330
1
100
AcDbEntity
  8
0
100
AcDbBlockEnd
  0
BLOCK
  5
5
330
4
100
AcDbEntity
  8
0
100
AcDbBlockBegin
  2
_CLOSED
 70
     0
 10
0.0
 20
0.0
 30
0.0
  3
_CLOSED
  1

  0
LINE
  5
6
330
4
100
AcDbEntity
  8
0
  6
BYBLOCK
 62
     0
370
    -2
100
AcDbLine
 10
-1.0
 20
0.166667
 30
0.0
 11
0.0
 21
0.0
 31
0.0
  0
LINE
  5
7
330
4
100
AcDbEntity
  8
0
  6
BYBLOCK
 62
     0
370
    -2
100
AcDbLine
 10
0.0
 20
0.0
 30
0.0
 11
-1.0
 21
-0.166667
 31
0.0
  0
LINE
  5
8
330
4
100
AcDbEntity
  8
0
  6
BYBLOCK
 62
     0
370
    -2
100
AcDbLine
 10
-1.0
 20
0.166667
 30
0.0
 11
-1.0
 21
-0.166667
 31
0.0
  0
LINE
  5
9
330
4
100
AcDbEntity
  8
0
  6
BYBLOCK
 62
     0
370
    -2
100
AcDbLine
 10
0.0
 20
0.0
 30
0.0
 11
-1.0
 21
0.0
 31
0.0
  0
ENDBLK
  5
A
330
4
100
AcDbEntity
  8
0
100
AcDbBlockEnd
  0
BLOCK
  5
C
330
B
100
AcDbEntity
  8
0
100
AcDbBlockBegin
  2
_DOT
 70
     0
 10
0.0
 20
0.0
 30
0.0
  3
_DOT
  1

  0
POLYLINE
  5
D
330
B
100
AcDbEntity
  8
0
  6
BYBLOCK
 62
     0
370
    -2
100
AcDb2dPolyline
 66
     1
 10
0.0
 20
0.0
 30
0.0
 70
     1
 40
0.5
 41
0.5
  0
VERTEX
  5
E
330
B
100
AcDbEntity
  8
0
  6
BYBLOCK
 62
     0
370
    -2
100
AcDbVertex
100
AcDb2dVertex
 10
-0.25
 20
0.0
 30
0.0
 42
1.0
  0
VERTEX
  5
F
330
B
100
AcDbEntity
  8
0
  6
BYBLOCK
 62
     0
370
    -2
100
AcDbVertex
100
AcDb2dVertex
 10
0.25
 20
0.0
 30
0.0
 42
1.0
  0
SEQEND
  5
10
330
B
100
AcDbEntity
  8
0
  6
BYBLOCK
 62
     0
370
    -2
  0
LINE
  5
11
330
B
100
AcDbEntity
  8
0
  6
BYBLOCK
 62
     0
370
    -2
100
AcDbLine
 10
-0.5
 20
0.0
 30
0.0
 11
-1.0
 21
0.0
 31
0.0
  0
ENDBLK
  5
12
330
B
100
AcDbEntity
  8
0
100
AcDbBlockEnd
  0
BLOCK
  5
14
330
13
100
AcDbEntity
  8
0
100
AcDbBlockBegin
  2
_OPEN
 70
     0
 10
0.0
 20
0.0
 30
0.0
  3
_OPEN
  1

  0
LINE
  5
15
330
13
100
AcDbEntity
  8
0
  6
BYBLOCK
 62
     0
370
    -2
100
AcDbLine
 10
-1.0
 20
0.166667
 30
0.0
 11
0.0
 21
0.0
 31
0.0
  0
LINE
  5
16
330
13
100
AcDbEntity
  8
0
  6
BYBLOCK
 62
     0
370
    -2
100
AcDbLine
 10
0.0
 20
0.0
 30
0.0
 11
-1.0
 21
-0.166667
 31
0.0
  0
LINE
  5
17
330
13
100
AcDbEntity
  8
0
  6
BYBLOCK
 62
     0
370
    -2
100
AcDbLine
 10
0.0
 20
0.0
 30
0.0
 11
-1.0
 21
0.0
 31
0.0
  0
ENDBLK
  5
18
330
13
100
AcDbEntity
  8
0
100
AcDbBlockEnd
  0
BLOCK
  5
1A
330
19
100
AcDbEntity
  8
0
100
AcDbBlockBegin
  2
_ORIGIN
 70
     0
 10
0.0
 20
0.0
 30
0.0
  3
_ORIGIN
  1

  0
CIRCLE
  5
1B
330
19
100
AcDbEntity
  8
0
  6
BYBLOCK
 62
     0
370
    -2
100
AcDbCircle
 10
0.0
 20
0.0
 30
0.0
 40
0.5
  0
LINE
  5
1C
330
19
100
AcDbEntity
  8
0
  6
BYBLOCK
 62
     0
370
    -2
100
AcDbLine
 10
0.0
 20
0.0
 30
0.0
 11
-1.0
 21
0.0
 31
0.0
  0
ENDBLK
  5
1D
330
19
100
AcDbEntity
  8
0
100
AcDbBlockEnd
  0
BLOCK
  5
1F
330
1E
100
AcDbEntity
  8
0
100
AcDbBlockBegin
  2
_OPEN30
 70
     0
 10
0.0
 20
0.0
 30
0.0
  3
_OPEN30
  1

  0
LINE
  5
20
330
1E
100
AcDbEntity
  8
0
  6
BYBLOCK
 62
     0
370
    -2
100
AcDbLine
 10
-1.0
 20
0.267949
 30
0.0
 11
0.0
 21
0.0
 31
0.0
  0
LINE
  5
21
330
1E
100
AcDbEntity
  8
0
  6
BYBLOCK
 62
     0
370
    -2
100
AcDbLine
 10
0.0
 20
0.0
 30
0.0
 11
-1.0
 21
-0.267949
 31
0.0
  0
LINE
  5
22
330
1E
100
AcDbEntity
  8
0
  6
BYBLOCK
 62
     0
370
    -2
100
AcDbLine
 10
0.0
 20
0.0
 30
0.0
 11
-1.0
 21
0.0
 31
0.0
  0
ENDBLK
  5
23
330
1E
100
AcDbEntity
  8
0
100
AcDbBlockEnd
  0
BLOCK
  5
25
330
24
100
AcDbEntity
  8
0
100
AcDbBlockBegin
  2
_BOXFILLED
 70
     0
 10
0.0
 20
0.0
 30
0.0
  3
_BOXFILLED
  1

  0
SOLID
  5
26
330
24
100
AcDbEntity
  8
0
  6
BYBLOCK
 62
     0
370
    -2
100
AcDbTrace
 10
-0.5
 20
0.5
 30
0.0
 11
0.5
 21
0.5
 31
0.0
 12
-0.5
 22
-0.5
 32
0.0
 13
0.5
 23
-0.5
 33
0.0
  0
LINE
  5
27
330
24
100
AcDbEntity
  8
0
  6
BYBLOCK
 62
     0
370
    -2
100
AcDbLine
 10
-0.5
 20
0.0
 30
0.0
 11
-1.0
 21
0.0
 31
0.0
  0
ENDBLK
  5
28
330
24
100
AcDbEntity
  8
0
100
AcDbBlockEnd
  0
BLOCK
  5
2A
330
29
100
AcDbEntity
  8
0
100
AcDbBlockBegin
  2
_BOXBLANK
 70
     0
 10
0.0
 20
0.0
 30
0.0
  3
_BOXBLANK
  1

  0
LINE
  5
2B
330
29
100
AcDbEntity
  8
0
  6
BYBLOCK
 62
     0
370
    -2
100
AcDbLine
 10
-0.5
 20
-0.5
 30
0.0
 11
0.5
 21
-0.5
 31
0.0
  0
LINE
  5
2C
330
29
100
AcDbEntity
  8
0
  6
BYBLOCK
 62
     0
370
    -2
100
AcDbLine
 10
0.5
 20
-0.5
 30
0.0
 11
0.5
 21
0.5
 31
0.0
  0
LINE
  5
2D
330
29
100
AcDbEntity
  8
0
  6
BYBLOCK
 62
     0
370
    -2
100
AcDbLine
 10
0.5
 20
0.5
 30
0.0
 11
-0.5
 21
0.5
 31
0.0
  0
LINE
  5
2E
330
29
100
AcDbEntity
  8
0
  6
BYBLOCK
 62
     0
370
    -2
100
AcDbLine
 10
-0.5
 20
0.5
 30
0.0
 11
-0.5
 21
-0.5
 31
0.0
  0
LINE
  5
2F
330
29
100
AcDbEntity
  8
0
  6
BYBLOCK
 62
     0
370
    -2
100
AcDbLine
 10
-0.5
 20
0.0
 30
0.0
 11
-1.0
 21
0.0
 31
0.0
  0
ENDBLK
  5
30
330
29
100
AcDbEntity
  8
0
100
AcDbBlockEnd
  0
BLOCK
  5
32
330
31
100
AcDbEntity
  8
0
100
AcDbBlockBegin
  2
_OBLIQUE
 70
     0
 10
0.0
 20
0.0
 30
0.0
  3
_OBLIQUE
  1

  0
LINE
  5
33
330
31
100
AcDbEntity
  8
0
  6
BYBLOCK
 62
     0
370
    -2
100
AcDbLine
 10
-0.5
 20
-0.5
 30
0.0
 11
0.5
 21
0.5
 31
0.0
  0
ENDBLK
  5
34
330
31
100
AcDbEntity
  8
0
100
AcDbBlockEnd
  0
BLOCK
  5
36
330
35
100
AcDbEntity
  8
0
100
AcDbBlockBegin
  2
_OPEN90
 70
     0
 10
0.0
 20
0.0
 30
0.0
  3
_OPEN90
  1

  0
LINE
  5
37
330
35
100
AcDbEntity
  8
0
  6
BYBLOCK
 62
     0
370
    -2
100
AcDbLine
 10
-0.5
 20
0.5
 30
0.0
 11
0.0
 21
0.0
 31
0.0
  0
LINE
  5
38
330
35
100
AcDbEntity
  8
0
  6
BYBLOCK
 62
     0
370
    -2
100
AcDbLine
 10
0.0
 20
0.0
 30
0.0
 11
-0.5
 21
-0.5
 31
0.0
  0
LINE
  5
39
330
35
100
AcDbEntity
  8
0
  6
BYBLOCK
 62
     0
370
    -2
100
AcDbLine
 10
0.0
 20
0.0
 30
0.0
 11
-1.0
 21
0.0
 31
0.0
  0
ENDBLK
  5
3A
330
35
100
AcDbEntity
  8
0
100
AcDbBlockEnd
  0
BLOCK
  5
3C
330
3B
100
AcDbEntity
  8
0
100
AcDbBlockBegin
  2
_CLOSEDBLANK
 70
     0
 10
0.0
 20
0.0
 30
0.0
  3
_CLOSEDBLANK
  1

  0
LINE
  5
3D
330
3B
100
AcDbEntity
  8
0
  6
BYBLOCK
 62
     0
370
    -2
100
AcDbLine
 10
-1.0
 20
0.1666666666666666
 30
0.0
 11
0.0
 21
0.0
 31
0.0
  0
LINE
  5
3E
330
3B
100
AcDbEntity
  8
0
  6
BYBLOCK
 62
     0
370
    -2
100
AcDbLine
 10
0.0
 20
0.0
 30
0.0
 11
-1.0
 21
-0.1666666666666666
 31
0.0
  0
LINE
  5
3F
330
3B
100
AcDbEntity
  8
0
  6
BYBLOCK
 62
     0
370
    -2
100
AcDbLine
 10
-1.0
 20
0.1666666666666666
 30
0.0
 11
-1.0
 21
-0.1666666666666666
 31
0.0
  0
ENDBLK
  5
40
330
3B
100
AcDbEntity
  8
0
100
AcDbBlockEnd
  0
BLOCK
  5
42
330
41
100
AcDbEntity
  8
0
100
AcDbBlockBegin
  2
_DOTBLANK
 70
     0
 10
0.0
 20
0.0
 30
0.0
  3
_DOTBLANK
  1

  0
CIRCLE
  5
43
330
41
100
AcDbEntity
  8
0
  6
BYBLOCK
 62
     0
370
    -2
100
AcDbCircle
 10
0.0
 20
0.0
 30
0.0
 40
0.5
  0
LINE
  5
44
330
41
100
AcDbEntity
  8
0
  6
BYBLOCK
 62
     0
370
    -2
100
AcDbLine
 10
-0.5
 20
0.0
 30
0.0
 11
-1.0
 21
0.0
 31
0.0
  0
ENDBLK
  5
45
330
41
100
AcDbEntity
  8
0
100
AcDbBlockEnd
  0
ENDSEC
  0
SECTION
  2
ENTITIES
  0
MTEXT
  5
46
100
AcDbEntity
  8
A8
  6
CONTINUOUS
 62
3
100
AcDbMText
 10
9.999997526638502
 20
18.00000076076889
 30
0.000000000000000
 40
3.000000000000000
 41
0.000000000000000
 44
0.6739999771118164
 71
     7
 72
     1
  1
{\H0.94x;{TYPE No.TCA-540SA-BAU50}}
 11
1.000000000000000
 21
0.000000000000000
 31
0.000000000000000
  7
STANDARD
  0
POINT
  5
47
100
AcDbEntity
  8
A0
  6
CONTINUOUS
 62
3
100
AcDbPoint
 10
9.999997526638502
 20
18.00000076076889
 30
0.000000000000000
  0
POINT
  5
48
100
AcDbEntity
  8
A10
  6
CONTINUOUS
 62
3
100
AcDbPoint
 10
50.00000000000000
 20
50.00000000000000
 30
0.000000000000000
  0
ARC
  5
49
100
AcDbEntity
  8
A1
  6
CONTINUOUS
 62
7
100
AcDbCircle
 10
187.0001047197484
 20
74.99999999999997
 30
0.000000000000000
 40
25.00000000000000
100
AcDbArc
 50
96.89210099999970
 51
355.3281100000002
  0
ARC
  5
4A
100
AcDbEntity
  8
A1
  6
CONTINUOUS
 62
7
100
AcDbCircle
 10
179.0001047197484
 20
99.30000299999992
 30
0.000000000000000
 40
5.000000000000000
100
AcDbArc
 50
0.000000000000000
 51
90.00000300000094
  0
ARC
  5
4B
100
AcDbEntity
  8
A1
  6
CONTINUOUS
 62
7
100
AcDbCircle
 10
169.0001057197483
 20
95.12461099999993
 30
0.000000000000000
 40
15.00000000000000
100
AcDbArc
 50
311.8103100000012
 51
360.0000000000000
  0
ARC
  5
4C
100
AcDbEntity
  8
A1
  6
CONTINUOUS
 62
7
100
AcDbCircle
 10
169.2681339197484
 20
140.6473703000000
 30
0.000000000000000
 40
80.00000000000000
100
AcDbArc
 50
285.1154200000012
 51
334.6491600000001
  0
ARC
  5
4D
100
AcDbEntity
  8
A1
  6
CONTINUOUS
 62
7
100
AcDbCircle
 10
175.6061087197484
 20
114.5000040000000
 30
0.000000000000000
 40
1.500000000000000
100
AcDbArc
 50
270.0000199999987
 51
338.3307399999984
  0
ARC
  5
4E
100
AcDbEntity
  8
A1
  6
CONTINUOUS
 62
7
100
AcDbCircle
 10
236.9905907197485
 20
109.2986639999999
 30
0.000000000000000
 40
4.000000000000000
100
AcDbArc
 50
9.999994599999702
 51
70.43238754690715
  0
ARC
  5
4F
100
AcDbEntity
  8
A1
  6
CONTINUOUS
 62
7
100
AcDbCircle
 10
174.2001067197484
 20
109.0000040000000
 30
0.000000000000000
 40
4.000000000000000
100
AcDbArc
 50
89.99998200000083
 51
179.9999599999992
  0
LINE
  5
50
100
AcDbEntity
  8
A1
  6
CONTINUOUS
 62
7
100
AcDbLine
 10
184.0001047197484
 20
99.30000299999992
 30
0.000000000000000
 11
184.0001047197484
 21
95.12461099999993
 31
0.000000000000000
  0
LINE
  5
51
100
AcDbEntity
  8
A1
  6
CONTINUOUS
 62
7
100
AcDbLine
 10
241.5643747197487
 20
106.3945809999999
 30
0.000000000000000
 11
240.9298307197488
 21
109.9932559999999
 31
0.000000000000000
  0
LINE
  5
52
100
AcDbEntity
  8
A1
  6
CONTINUOUS
 62
7
100
AcDbLine
 10
170.2001064197484
 20
104.3000049999999
 30
0.000000000000000
 11
179.0001047197484
 21
104.3000049999999
 31
0.000000000000000
  0
LINE
  5
53
100
AcDbEntity
  8
A1
  6
CONTINUOUS
 62
7
100
AcDbLine
 10
170.2001064197484
 20
109.0000040000000
 30
0.000000000000000
 11
170.2001064197484
 21
104.3000049999999
 31
0.000000000000000
  0
LINE
  5
54
100
AcDbEntity
  8
A1
  6
CONTINUOUS
 62
7
100
AcDbLine
 10
174.2001067197484
 20
113.0000040000000
 30
0.000000000000000
 11
237.7051067197485
 21
113.0000040000000
 31
0.000000000000000
  0
LINE
  5
55
100
AcDbEntity
  8
A1
  6
CONTINUOUS
 62
7
100
AcDbLine
 10
189.9510137197487
 20
107.2805959999999
 30
0.000000000000000
 11
194.4708347197485
 21
81.64741899999997
 31
0.000000000000000
  0
LINE
  5
56
100
AcDbEntity
  8
A1
  6
CONTINUOUS
 62
7
100
AcDbLine
 10
237.0001047197484
 20
115.0000000000000
 30
0.000000000000000
 11
237.0001047197484
 21
114.9521455365228
 31
0.000000000000000
  0
LINE
  5
57
100
AcDbEntity
  8
A1
  6
CONTINUOUS
 62
7
100
AcDbLine
 10
177.0001047197484
 20
115.0000000000000
 30
0.000000000000000
 11
177.0001047197484
 21
113.9461330000000
 31
0.000000000000000
  0
CIRCLE
  5
58
100
AcDbEntity
  8
A1
  6
CONTINUOUS
 62
7
100
AcDbCircle
 10
187.0001047197484
 20
74.99999999999997
 30
0.000000000000000
 40
2.500000000000000
  0
CIRCLE
  5
59
100
AcDbEntity
  8
A1
  6
CONTINUOUS
 62
7
100
AcDbCircle
 10
187.0001047197484
 20
74.99999999999997
 30
0.000000000000000
 40
7.250000000000000
  0
CIRCLE
  5
5A
100
AcDbEntity
  8
A1
  6
CONTINUOUS
 62
7
100
AcDbCircle
 10
187.0001047197484
 20
74.99999999999997
 30
0.000000000000000
 40
9.000000000000000
  0
ARC
  5
5B
100
AcDbEntity
  8
A1
  6
CONTINUOUS
 62
7
100
AcDbCircle
 10
187.0001047197484
 20
74.99999999999997
 30
0.000000000000000
 40
10.00000000000000
100
AcDbArc
 50
338.3374700000005
 51
401.6625350000013
  0
ARC
  5
5C
100
AcDbEntity
  8
A1
  6
CONTINUOUS
 62
7
100
AcDbCircle
 10
187.0001047197484
 20
74.99999999999997
 30
0.000000000000000
 40
12.00000000000000
100
AcDbArc
 50
131.8103200000001
 51
285.1154300000017
  0
LINE
  5
5D
100
AcDbEntity
  8
A1
  6
CONTINUOUS
 62
7
100
AcDbLine
 10
196.2938477197485
 20
71.30860899999993
 30
0.000000000000000
 11
197.2806677197485
 21
65.71207400000000
 31
0.000000000000000
  0
ARC
  5
5E
100
AcDbEntity
  8
A1
  6
CONTINUOUS
 62
7
100
AcDbCircle
 10
108.0002589999999
 20
73.83619699999994
 30
0.000000000000000
 40
8.500000000000000
100
AcDbArc
 50
331.9238199999986
 51
360.8035662599987
  0
ARC
  5
5F
100
AcDbEntity
  8
A1
  6
CONTINUOUS
 62
7
100
AcDbCircle
 10
108.0002589999999
 20
73.83619699999994
 30
0.000000000000000
 40
8.500000000000000
100
AcDbArc
 50
287.1028199999999
 51
292.7937599999984
  0
ARC
  5
60
100
AcDbEntity
  8
A1
  6
CONTINUOUS
 62
7
100
AcDbCircle
 10
111.0000000000000
 20
109.5278639999999
 30
0.000000000000000
 40
5.000000000000000
100
AcDbArc
 50
0.8035629500007933
 51
48.18968510422131
  0
ARC
  5
61
100
AcDbEntity
  8
A1
  6
CONTINUOUS
 62
7
100
AcDbCircle
 10
86.50000000000000
 20
84.49999999999997
 30
0.000000000000000
 40
20.00000000000000
100
AcDbArc
 50
0.000000000000000
 51
28.95471453169790
  0
ARC
  5
62
100
AcDbEntity
  8
A1
  6
CONTINUOUS
 62
7
100
AcDbCircle
 10
57.00000000000000
 20
109.5278639999999
 30
0.000000000000000
 40
5.000000000000000
100
AcDbArc
 50
131.8103148957791
 51
179.1964299999997
  0
LINE
  5
63
100
AcDbEntity
  8
A1
  6
CONTINUOUS
 62
7
100
AcDbLine
 10
115.9995080000000
 20
109.5979860000000
 30
0.000000000000000
 11
116.4994240000001
 21
73.95540199999995
 31
0.000000000000000
  0
LINE
  5
64
100
AcDbEntity
  8
A1
  6
CONTINUOUS
 62
7
100
AcDbLine
 10
52.00049999999975
 20
109.5979859999999
 30
0.000000000000000
 11
51.63311950911950
 21
83.40547375926216
 31
0.000000000000000
  0
LINE
  5
65
100
AcDbEntity
  8
A1
  6
CONTINUOUS
 62
7
100
AcDbLine
 10
106.5000000000000
 20
62.99999999999997
 30
0.000000000000000
 11
110.5000000000000
 21
62.99999999999997
 31
0.000000000000000
  0
LINE
  5
66
100
AcDbEntity
  8
A1
  6
CONTINUOUS
 62
7
100
AcDbLine
 10
57.50000000000000
 20
62.99999999999997
 30
0.000000000000000
 11
61.50000000000000
 21
62.99999999999997
 31
0.000000000000000
  0
LINE
  5
67
100
AcDbEntity
  8
A1
  6
CONTINUOUS
 62
7
100
AcDbLine
 10
49.99997999999999
 20
79.24999600000010
 30
0.000000000000000
 11
50.74997999999997
 21
79.99999600000004
 31
0.000000000000000
  0
LINE
  5
68
100
AcDbEntity
  8
A1
  6
CONTINUOUS
 62
7
100
AcDbLine
 10
50.74997999999984
 20
69.99998499999987
 30
0.000000000000000
 11
49.99997999999986
 21
70.74998499999982
 31
0.000000000000000
  0
LINE
  5
69
100
AcDbEntity
  8
A1
  6
CONTINUOUS
 62
7
100
AcDbLine
 10
50.75000000000000
 20
79.99999999999997
 30
0.000000000000000
 11
50.75000000000000
 21
69.99999999999997
 31
0.000000000000000
  0
LINE
  5
6A
100
AcDbEntity
  8
A1
  6
CONTINUOUS
 62
7
100
AcDbLine
 10
50.00000000000000
 20
79.24999999999997
 30
0.000000000000000
 11
50.00000000000000
 21
70.74999999999997
 31
0.000000000000000
  0
LINE
  5
6B
100
AcDbEntity
  8
A2
  6
CONTINUOUS
 62
4
100
AcDbLine
 10
50.00000000000014
 20
70.74999999999994
 30
0.000000000000000
 11
50.90000000000023
 21
70.74999999999991
 31
0.000000000000000
  0
LINE
  5
6C
100
AcDbEntity
  8
A2
  6
CONTINUOUS
 62
4
100
AcDbLine
 10
50.00000000000003
 20
79.24999999999994
 30
0.000000000000000
 11
50.90000000000012
 21
79.24999999999993
 31
0.000000000000000
  0
LINE
  5
6D
100
AcDbEntity
  8
A1
  6
CONTINUOUS
 62
7
100
AcDbLine
 10
50.75000000000000
 20
79.99999999999997
 30
0.000000000000000
 11
50.90000000000009
 21
79.99999999999997
 31
0.000000000000000
  0
LINE
  5
6E
100
AcDbEntity
  8
A1
  6
CONTINUOUS
 62
7
100
AcDbLine
 10
50.75000000000000
 20
69.99999999999997
 30
0.000000000000000
 11
50.90000000000009
 21
69.99999999999997
 31
0.000000000000000
  0
LINE
  5
6F
100
AcDbEntity
  8
A1
  6
CONTINUOUS
 62
7
100
AcDbLine
 10
115.5000110000001
 20
82.00000400000003
 30
0.000000000000000
 11
114.5000110000000
 21
84.00000400000006
 31
0.000000000000000
  0
LINE
  5
70
100
AcDbEntity
  8
A1
  6
CONTINUOUS
 62
7
100
AcDbLine
 10
114.4999999999999
 20
66.00000000000004
 30
0.000000000000000
 11
115.4999999999999
 21
68.00000000000007
 31
0.000000000000000
  0
LINE
  5
71
100
AcDbEntity
  8
A1
  6
CONTINUOUS
 62
7
100
AcDbLine
 10
110.5000000000000
 20
83.99999999999997
 30
0.000000000000000
 11
114.5000000000000
 21
83.99999999999997
 31
0.000000000000000
  0
LINE
  5
72
100
AcDbEntity
  8
A1
  6
CONTINUOUS
 62
7
100
AcDbLine
 10
110.5000000000000
 20
65.99999999999997
 30
0.000000000000000
 11
114.5000000000000
 21
65.99999999999997
 31
0.000000000000000
  0
LINE
  5
73
100
AcDbEntity
  8
A1
  6
CONTINUOUS
 62
7
100
AcDbLine
 10
115.5000000000000
 20
81.99999999999997
 30
0.000000000000000
 11
115.5000000000000
 21
67.99999999999997
 31
0.000000000000000
  0
LINE
  5
74
100
AcDbEntity
  8
A1
  6
CONTINUOUS
 62
7
100
AcDbLine
 10
114.5000000000000
 20
83.99999999999997
 30
0.000000000000000
 11
114.5000000000000
 21
65.99999999999997
 31
0.000000000000000
  0
LINE
  5
75
100
AcDbEntity
  8
A4
  6
CENTER
 62
1
100
AcDbLine
 10
48.50000000000000
 20
74.99999999999997
 30
0.000000000000000
 11
117.9849202053699
 21
74.99999999999997
 31
0.000000000000000
  0
LINE
  5
76
100
AcDbEntity
  8
A1
  6
CONTINUOUS
 62
7
100
AcDbLine
 10
114.0000000000000
 20
114.9999999999999
 30
0.000000000000000
 11
114.0000000000000
 21
113.9999999549994
 31
0.000000000000000
  0
LINE
  5
77
100
AcDbEntity
  8
A1
  6
CONTINUOUS
 62
7
100
AcDbLine
 10
54.00000000000000
 20
114.9999999999999
 30
0.000000000000000
 11
54.00000000000000
 21
113.9999999549994
 31
0.000000000000000
  0
LINE
  5
78
100
AcDbEntity
  8
A1
  6
CONTINUOUS
 62
7
100
AcDbLine
 10
53.40218000000004
 20
112.9999999999999
 30
0.000000000000000
 11
114.5978160000000
 21
112.9999999999999
 31
0.000000000000000
  0
ARC
  5
79
100
AcDbEntity
  8
A1
  6
CONTINUOUS
 62
7
100
AcDbCircle
 10
312.0001747210467
 20
251.0000469456595
 30
0.000000000000000
 40
150.0000701871353
100
AcDbArc
 50
174.1030219906883
 51
185.8969324227320
  0
ARC
  5
7A
100
AcDbEntity
  8
A1
  6
CONTINUOUS
 62
7
100
AcDbCircle
 10
187.0001047197484
 20
74.99999999999997
 30
0.000000000000000
 40
12.50000000000000
100
AcDbArc
 50
119.8104500860764
 51
302.7904056950168
  0
ARC
  5
7B
100
AcDbEntity
  8
A1
  6
CONTINUOUS
 62
7
100
AcDbCircle
 10
81.50000000000000
 20
84.49999999999997
 30
0.000000000000000
 40
20.00000000000000
100
AcDbArc
 50
151.0446657910065
 51
179.9999599999992
  0
LINE
  5
7C
100
AcDbEntity
  8
A1
  6
CONTINUOUS
 62
7
100
AcDbLine
 10
175.0001039568092
 20
273.3479242146294
 30
0.000000000000000
 11
177.4662428172201
 21
273.3479242146294
 31
0.000000000000000
  0
LINE
  5
7D
100
AcDbEntity
  8
A1
  6
CONTINUOUS
 62
7
100
AcDbLine
 10
175.0001039568092
 20
277.5000002146294
 30
0.000000000000000
 11
187.2608056839376
 21
277.5000002146294
 31
0.000000000000000
  0
ARC
  5
7E
100
AcDbEntity
  8
A1
  6
CONTINUOUS
 62
7
100
AcDbCircle
 10
208.2001081984511
 20
251.0000002146295
 30
0.000000000000000
 40
38.00000276275856
100
AcDbArc
 50
138.5654051272898
 51
221.4345953579218
  0
ARC
  5
7F
100
AcDbEntity
  8
A1
  6
CONTINUOUS
 62
7
100
AcDbCircle
 10
182.7099106991814
 20
273.5000002146294
 30
0.000000000000000
 40
4.000000000000004
100
AcDbArc
 50
90.00000000000000
 51
138.5654051272898
  0
LINE
  5
80
100
AcDbEntity
  8
A1
  6
CONTINUOUS
 62
7
100
AcDbLine
 10
175.0001039568092
 20
224.4999997853892
 30
0.000000000000000
 11
187.2608056839376
 21
224.4999997853892
 31
0.000000000000000
  0
LINE
  5
81
100
AcDbEntity
  8
A1
  6
CONTINUOUS
 62
7
100
AcDbLine
 10
175.0001039568092
 20
228.6520757853893
 30
0.000000000000000
 11
177.4662431293391
 21
228.6520757853893
 31
0.000000000000000
  0
ARC
  5
82
100
AcDbEntity
  8
A1
  6
CONTINUOUS
 62
7
100
AcDbCircle
 10
182.7099106991814
 20
228.4999997853892
 30
0.000000000000000
 40
4.000000000000004
100
AcDbArc
 50
221.4345948727101
 51
270.0000000000000
  0
LINE
  5
83
100
AcDbEntity
  8
A1
  6
CONTINUOUS
 62
7
100
AcDbLine
 10
175.0001039568090
 20
277.5000002146294
 30
0.000000000000000
 11
175.0001039568090
 21
273.3479242146294
 31
0.000000000000000
  0
LINE
  5
84
100
AcDbEntity
  8
A1
  6
CONTINUOUS
 62
7
100
AcDbLine
 10
175.0001039568090
 20
228.6520757853893
 30
0.000000000000000
 11
175.0001039568090
 21
224.4999997853892
 31
0.000000000000000
  0
LINE
  5
85
100
AcDbEntity
  8
A4
  6
CENTER
 62
1
100
AcDbLine
 10
84.00005235987419
 20
174.5000000000091
 30
0.000000000000000
 11
84.00005235987419
 21
48.49999999999999
 31
0.000000000000000
  0
LINE
  5
86
100
AcDbEntity
  8
A1
  6
CONTINUOUS
 62
7
100
AcDbLine
 10
54.64186103039901
 20
117.6999603102242
 30
0.000000000000000
 11
113.3582436893491
 21
117.6999603102242
 31
0.000000000000000
  0
LINE
  5
87
100
AcDbEntity
  8
A1
  6
CONTINUOUS
 62
7
100
AcDbLine
 10
76.00010871973529
 20
173.0000000000090
 30
0.000000000000000
 11
74.00010471974815
 21
170.9999960000219
 31
0.000000000000000
  0
LINE
  5
88
100
AcDbEntity
  8
A2
  6
CONTINUOUS
 62
4
100
AcDbLine
 10
76.00010871973564
 20
173.0000000000091
 30
0.000000000000000
 11
76.00010871973574
 21
136.4641085433279
 31
0.000000000000000
  0
LINE
  5
89
100
AcDbEntity
  8
A2
  6
CONTINUOUS
 62
4
100
AcDbLine
 10
76.00010871973521
 20
136.4641085433278
 30
0.000000000000000
 11
74.00010471974805
 21
133.0000000000091
 31
0.000000000000000
  0
LINE
  5
8A
100
AcDbEntity
  8
A1
  6
CONTINUOUS
 62
7
100
AcDbLine
 10
74.00010471974838
 20
170.9999960000219
 30
0.000000000000000
 11
74.00010471974838
 21
133.0000000000092
 31
0.000000000000000
  0
LINE
  5
8B
100
AcDbEntity
  8
A1
  6
CONTINUOUS
 62
7
100
AcDbLine
 10
51.00010471974838
 20
118.5117450000092
 30
0.000000000000000
 11
117.0001047197484
 21
118.5117450000092
 31
0.000000000000000
  0
LINE
  5
8C
100
AcDbEntity
  8
A1
  6
CONTINUOUS
 62
7
100
AcDbLine
 10
51.00010471974838
 20
121.5117030000091
 30
0.000000000000000
 11
51.00010471974838
 21
118.5117450000092
 31
0.000000000000000
  0
LINE
  5
8D
100
AcDbEntity
  8
A1
  6
CONTINUOUS
 62
7
100
AcDbLine
 10
117.0001047197484
 20
121.5117030000091
 30
0.000000000000000
 11
117.0001047197484
 21
118.5117450000092
 31
0.000000000000000
  0
LINE
  5
8E
100
AcDbEntity
  8
A1
  6
CONTINUOUS
 62
7
100
AcDbLine
 10
59.85991471974830
 20
129.0000000000091
 30
0.000000000000000
 11
108.1403027197482
 21
129.0000000000091
 31
0.000000000000000
  0
LINE
  5
8F
100
AcDbEntity
  8
A1
  6
CONTINUOUS
 62
7
100
AcDbLine
 10
74.00010471974838
 20
136.4641085433280
 30
0.000000000000000
 11
94.00010471974838
 21
136.4641085433280
 31
0.000000000000000
  0
LINE
  5
90
100
AcDbEntity
  8
A1
  6
CONTINUOUS
 62
7
100
AcDbLine
 10
112.1423397197484
 20
126.6070880000091
 30
0.000000000000000
 11
115.7120377197483
 21
122.0826020000093
 31
0.000000000000000
  0
LINE
  5
91
100
AcDbEntity
  8
A1
  6
CONTINUOUS
 62
7
100
AcDbLine
 10
117.0001047197484
 20
121.5117030000091
 30
0.000000000000000
 11
51.00010471974838
 21
121.5117030000091
 31
0.000000000000000
  0
LINE
  5
92
100
AcDbEntity
  8
A2
  6
CONTINUOUS
 62
4
100
AcDbLine
 10
92.00010071976112
 20
173.0000000000091
 30
0.000000000000000
 11
92.00010071976112
 21
136.4641085433280
 31
0.000000000000000
  0
LINE
  5
93
100
AcDbEntity
  8
A1
  6
CONTINUOUS
 62
7
100
AcDbLine
 10
55.85787471974838
 20
126.6070880000091
 30
0.000000000000000
 11
52.28816471974839
 21
122.0826050000092
 31
0.000000000000000
  0
LINE
  5
94
100
AcDbEntity
  8
A1
  6
CONTINUOUS
 62
7
100
AcDbLine
 10
69.50010471974838
 20
133.0000000000092
 30
0.000000000000000
 11
98.50010471974838
 21
133.0000000000092
 31
0.000000000000000
  0
LINE
  5
95
100
AcDbEntity
  8
A1
  6
CONTINUOUS
 62
7
100
AcDbLine
 10
76.00010871973541
 20
173.0000000000091
 30
0.000000000000000
 11
92.00010071976112
 21
173.0000000000091
 31
0.000000000000000
  0
LINE
  5
96
100
AcDbEntity
  8
A1
  6
CONTINUOUS
 62
7
100
AcDbLine
 10
74.00010471974838
 20
170.9999960000219
 30
0.000000000000000
 11
94.00010471974838
 21
170.9999960000219
 31
0.000000000000000
  0
LINE
  5
97
100
AcDbEntity
  8
A1
  6
CONTINUOUS
 62
7
100
AcDbLine
 10
92.00010071976087
 20
173.0000000000090
 30
0.000000000000000
 11
94.00010471974799
 21
170.9999960000219
 31
0.000000000000000
  0
LINE
  5
98
100
AcDbEntity
  8
A1
  6
CONTINUOUS
 62
7
100
AcDbLine
 10
94.00010471974838
 20
170.9999960000219
 30
0.000000000000000
 11
94.00010471974838
 21
133.0000000000092
 31
0.000000000000000
  0
LINE
  5
99
100
AcDbEntity
  8
A2
  6
CONTINUOUS
 62
4
100
AcDbLine
 10
92.00010071976099
 20
136.4641085433280
 30
0.000000000000000
 11
94.00010471974821
 21
133.0000000000092
 31
0.000000000000000
  0
LINE
  5
9A
100
AcDbEntity
  8
A1
  6
CONTINUOUS
 62
7
100
AcDbLine
 10
84.00005235987419
 20
133.0000000000092
 30
0.000000000000000
 11
84.00005235987419
 21
129.0000000000092
 31
0.000000000000000
  0
LINE
  5
9B
100
AcDbEntity
  8
A1
  6
CONTINUOUS
 62
7
100
AcDbLine
 10
69.50010471974838
 20
133.0000000000092
 30
0.000000000000000
 11
69.50010471974838
 21
129.0000000000091
 31
0.000000000000000
  0
LINE
  5
9C
100
AcDbEntity
  8
A1
  6
CONTINUOUS
 62
7
100
AcDbLine
 10
98.50010471974838
 20
133.0000000000092
 30
0.000000000000000
 11
98.50010471974838
 21
129.0000000000091
 31
0.000000000000000
  0
ARC
  5
9D
100
AcDbEntity
  8
A1
  6
CONTINUOUS
 62
7
100
AcDbCircle
 10
116.8896467197483
 20
123.0117030000092
 30
0.000000000000000
 40
1.500000000000000
100
AcDbArc
 50
218.2725100000001
 51
270.0000000000000
  0
ARC
  5
9E
100
AcDbEntity
  8
A1
  6
CONTINUOUS
 62
7
100
AcDbCircle
 10
61.00010471974838
 20
122.5500030000092
 30
0.000000000000000
 40
6.550000200000000
100
AcDbArc
 50
100.0247599999996
 51
141.7274899999998
  0
ARC
  5
9F
100
AcDbEntity
  8
A1
  6
CONTINUOUS
 62
7
100
AcDbCircle
 10
51.11056471974825
 20
123.0117030000092
 30
0.000000000000000
 40
1.500000000000000
100
AcDbArc
 50
270.0000000000000
 51
321.7274899999998
  0
ARC
  5
A0
100
AcDbEntity
  8
A1
  6
CONTINUOUS
 62
7
100
AcDbCircle
 10
107.0001047197484
 20
122.5500030000092
 30
0.000000000000000
 40
6.550000200000000
100
AcDbArc
 50
38.27250400000008
 51
79.97523799999928
  0
ARC
  5
A1
100
AcDbEntity
  8
A1
  6
CONTINUOUS
 62
7
100
AcDbCircle
 10
60.00005235987419
 20
115.0000000000092
 30
0.000000000000000
 40
6.000000000000000
100
AcDbArc
 50
153.2567404579975
 51
180.0000000000000
  0
ARC
  5
A2
100
AcDbEntity
  8
A1
  6
CONTINUOUS
 62
7
100
AcDbCircle
 10
108.0000523598742
 20
115.0000000000092
 30
0.000000000000000
 40
6.000000000000000
100
AcDbArc
 50
0.000000000000000
 51
26.74325954200237
  0
LINE
  5
A3
100
AcDbEntity
  8
A1
  6
CONTINUOUS
 62
7
100
AcDbLine
 10
54.17880104151012
 20
118.5117450000093
 30
0.000000000000000
 11
54.64186235987419
 21
117.6999579795375
 31
0.000000000000000
  0
LINE
  5
A4
100
AcDbEntity
  8
A1
  6
CONTINUOUS
 62
7
100
AcDbLine
 10
113.8213036782381
 20
118.5117450000091
 30
0.000000000000000
 11
113.3582423598741
 21
117.6999579795375
 31
0.000000000000000
  0
ARC
  5
A5
100
AcDbEntity
  8
A1
  6
CONTINUOUS
 62
7
100
AcDbCircle
 10
115.0000000000000
 20
113.9999999549994
 30
0.000000000000000
 40
1.000000000000000
100
AcDbArc
 50
180.0000000000000
 51
228.1896851042216
  0
ARC
  5
A6
100
AcDbEntity
  8
A1
  6
CONTINUOUS
 62
7
100
AcDbCircle
 10
53.00000000000000
 20
113.9999999549994
 30
0.000000000000000
 40
1.000000000000000
100
AcDbArc
 50
311.8103148957790
 51
360.0000000000000
  0
LINE
  5
A7
100
AcDbEntity
  8
A1
  6
CONTINUOUS
 62
7
100
AcDbLine
 10
240.0001570796226
 20
121.5117030000092
 30
0.000000000000000
 11
240.0001570796226
 21
118.5117450000093
 31
0.000000000000000
  0
LINE
  5
A8
100
AcDbEntity
  8
A1
  6
CONTINUOUS
 62
7
100
AcDbLine
 10
235.1423920796227
 20
126.6070860000094
 30
0.000000000000000
 11
238.7120860796228
 21
122.0826000000094
 31
0.000000000000000
  0
LINE
  5
A9
100
AcDbEntity
  8
A1
  6
CONTINUOUS
 62
7
100
AcDbLine
 10
223.7433130796226
 20
133.0000000000093
 30
0.000000000000000
 11
223.7433130796226
 21
129.0000000000093
 31
0.000000000000000
  0
LINE
  5
AA
100
AcDbEntity
  8
A1
  6
CONTINUOUS
 62
7
100
AcDbLine
 10
215.3717390796228
 20
133.0000000000093
 30
0.000000000000000
 11
215.3717390796228
 21
129.0000000000093
 31
0.000000000000000
  0
ARC
  5
AB
100
AcDbEntity
  8
A1
  6
CONTINUOUS
 62
7
100
AcDbCircle
 10
239.8896990796227
 20
123.0117030000093
 30
0.000000000000000
 40
1.500000000000000
100
AcDbArc
 50
218.2725100000006
 51
270.0000000000000
  0
ARC
  5
AC
100
AcDbEntity
  8
A1
  6
CONTINUOUS
 62
7
100
AcDbCircle
 10
230.0001570796228
 20
122.5500030000092
 30
0.000000000000000
 40
6.550000200000000
100
AcDbArc
 50
38.27250400000008
 51
79.97523799999928
  0
LINE
  5
AD
100
AcDbEntity
  8
A1
  6
CONTINUOUS
 62
7
100
AcDbLine
 10
174.0001570796226
 20
118.5117450000093
 30
0.000000000000000
 11
240.0001570796226
 21
118.5117450000093
 31
0.000000000000000
  0
LINE
  5
AE
100
AcDbEntity
  8
A1
  6
CONTINUOUS
 62
7
100
AcDbLine
 10
174.0001570796226
 20
121.5117030000092
 30
0.000000000000000
 11
174.0001570796226
 21
118.5117450000093
 31
0.000000000000000
  0
LINE
  5
AF
100
AcDbEntity
  8
A1
  6
CONTINUOUS
 62
7
100
AcDbLine
 10
182.8599670796225
 20
129.0000000000093
 30
0.000000000000000
 11
231.1403550796226
 21
129.0000000000093
 31
0.000000000000000
  0
LINE
  5
B0
100
AcDbEntity
  8
A1
  6
CONTINUOUS
 62
7
100
AcDbLine
 10
240.0001570796226
 20
121.5117030000092
 30
0.000000000000000
 11
174.0001570796226
 21
121.5117030000092
 31
0.000000000000000
  0
LINE
  5
B1
100
AcDbEntity
  8
A1
  6
CONTINUOUS
 62
7
100
AcDbLine
 10
178.8579220796222
 20
126.6070860000092
 30
0.000000000000000
 11
175.2882260796220
 21
122.0826030000092
 31
0.000000000000000
  0
LINE
  5
B2
100
AcDbEntity
  8
A1
  6
CONTINUOUS
 62
7
100
AcDbLine
 10
190.2570010796226
 20
133.0000000000093
 30
0.000000000000000
 11
190.2570010796226
 21
129.0000000000093
 31
0.000000000000000
  0
LINE
  5
B3
100
AcDbEntity
  8
A1
  6
CONTINUOUS
 62
7
100
AcDbLine
 10
190.2570010796226
 20
133.0000000000093
 30
0.000000000000000
 11
223.7433130796226
 21
133.0000000000093
 31
0.000000000000000
  0
LINE
  5
B4
100
AcDbEntity
  8
A1
  6
CONTINUOUS
 62
7
100
AcDbLine
 10
198.6285790796226
 20
133.0000000000093
 30
0.000000000000000
 11
198.6285790796226
 21
129.0000000000093
 31
0.000000000000000
  0
ARC
  5
B5
100
AcDbEntity
  8
A1
  6
CONTINUOUS
 62
7
100
AcDbCircle
 10
184.0001570796226
 20
122.5500030000092
 30
0.000000000000000
 40
6.550000200000000
100
AcDbArc
 50
100.0247599999996
 51
141.7274899999993
  0
ARC
  5
B6
100
AcDbEntity
  8
A1
  6
CONTINUOUS
 62
7
100
AcDbCircle
 10
174.1106150796227
 20
123.0117030000093
 30
0.000000000000000
 40
1.500000000000000
100
AcDbArc
 50
270.0000000000000
 51
321.7274899999994
  0
LINE
  5
B7
100
AcDbEntity
  8
A2
  6
CONTINUOUS
 62
4
100
AcDbLine
 10
215.0001530796353
 20
136.4641085433281
 30
0.000000000000000
 11
217.0001570796227
 21
133.0000000000093
 31
0.000000000000000
  0
LINE
  5
B8
100
AcDbEntity
  8
A1
  6
CONTINUOUS
 62
7
100
AcDbLine
 10
217.0001570796226
 20
170.9999960000219
 30
0.000000000000000
 11
217.0001570796226
 21
133.0000000000093
 31
0.000000000000000
  0
LINE
  5
B9
100
AcDbEntity
  8
A1
  6
CONTINUOUS
 62
7
100
AcDbLine
 10
215.0001530796354
 20
173.0000000000094
 30
0.000000000000000
 11
217.0001570796229
 21
170.9999960000219
 31
0.000000000000000
  0
LINE
  5
BA
100
AcDbEntity
  8
A1
  6
CONTINUOUS
 62
7
100
AcDbLine
 10
197.0001570796226
 20
170.9999960000219
 30
0.000000000000000
 11
217.0001570796226
 21
170.9999960000219
 31
0.000000000000000
  0
LINE
  5
BB
100
AcDbEntity
  8
A1
  6
CONTINUOUS
 62
7
100
AcDbLine
 10
199.0001610796098
 20
173.0000000000093
 30
0.000000000000000
 11
215.0001530796353
 21
173.0000000000093
 31
0.000000000000000
  0
LINE
  5
BC
100
AcDbEntity
  8
A2
  6
CONTINUOUS
 62
4
100
AcDbLine
 10
215.0001530796353
 20
173.0000000000093
 30
0.000000000000000
 11
215.0001530796353
 21
136.4641085433280
 31
0.000000000000000
  0
LINE
  5
BD
100
AcDbEntity
  8
A1
  6
CONTINUOUS
 62
7
100
AcDbLine
 10
197.0001570796226
 20
136.4641085433280
 30
0.000000000000000
 11
217.0001570796226
 21
136.4641085433280
 31
0.000000000000000
  0
LINE
  5
BE
100
AcDbEntity
  8
A1
  6
CONTINUOUS
 62
7
100
AcDbLine
 10
197.0001570796226
 20
170.9999960000219
 30
0.000000000000000
 11
197.0001570796226
 21
133.0000000000093
 31
0.000000000000000
  0
LINE
  5
BF
100
AcDbEntity
  8
A2
  6
CONTINUOUS
 62
4
100
AcDbLine
 10
199.0001610796099
 20
136.4641085433281
 30
0.000000000000000
 11
197.0001570796227
 21
133.0000000000094
 31
0.000000000000000
  0
LINE
  5
C0
100
AcDbEntity
  8
A1
  6
CONTINUOUS
 62
7
100
AcDbLine
 10
199.0001610796100
 20
173.0000000000093
 30
0.000000000000000
 11
197.0001570796225
 21
170.9999960000218
 31
0.000000000000000
  0
LINE
  5
C1
100
AcDbEntity
  8
A2
  6
CONTINUOUS
 62
4
100
AcDbLine
 10
199.0001610796098
 20
173.0000000000093
 30
0.000000000000000
 11
199.0001610796098
 21
136.4641085433280
 31
0.000000000000000
  0
LINE
  5
C2
100
AcDbEntity
  8
A1
  6
CONTINUOUS
 62
7
100
AcDbLine
 10
177.6419133902732
 20
117.6999603102242
 30
0.000000000000000
 11
236.3582960492236
 21
117.6999603102242
 31
0.000000000000000
  0
ARC
  5
C3
100
AcDbEntity
  8
A1
  6
CONTINUOUS
 62
7
100
AcDbCircle
 10
183.0001047197484
 20
115.0000000000093
 30
0.000000000000000
 40
6.000000000000000
100
AcDbArc
 50
153.2567404579969
 51
180.0000000000000
  0
ARC
  5
C4
100
AcDbEntity
  8
A1
  6
CONTINUOUS
 62
7
100
AcDbCircle
 10
231.0001047197484
 20
115.0000000000093
 30
0.000000000000000
 40
6.000000000000000
100
AcDbArc
 50
0.000000000000000
 51
26.74325954200311
  0
LINE
  5
C5
100
AcDbEntity
  8
A1
  6
CONTINUOUS
 62
7
100
AcDbLine
 10
177.1788534013845
 20
118.5117450000092
 30
0.000000000000000
 11
177.6419147197485
 21
117.6999579795375
 31
0.000000000000000
  0
LINE
  5
C6
100
AcDbEntity
  8
A1
  6
CONTINUOUS
 62
7
100
AcDbLine
 10
236.8213560381122
 20
118.5117450000094
 30
0.000000000000000
 11
236.3582947197482
 21
117.6999579795377
 31
0.000000000000000
  0
LINE
  5
C7
100
AcDbEntity
  8
A4
  6
CENTER
 62
1
100
AcDbLine
 10
207.0001570796228
 20
174.5000000000093
 30
0.000000000000000
 11
207.0001570796228
 21
48.49999999999997
 31
0.000000000000000
  0
CIRCLE
  5
C8
100
AcDbEntity
  8
A2
  6
CONTINUOUS
 62
4
100
AcDbCircle
 10
207.0001047197484
 20
251.0000000000093
 30
0.000000000000000
 40
22.99999880000000
  0
CIRCLE
  5
C9
100
AcDbEntity
  8
A1
  6
CONTINUOUS
 62
7
100
AcDbCircle
 10
207.0001047197484
 20
251.0000000000093
 30
0.000000000000000
 40
33.00000000000000
  0
LINE
  5
CA
100
AcDbEntity
  8
A1
  6
CONTINUOUS
 62
7
100
AcDbLine
 10
215.3716872291493
 20
265.4999960000093
 30
0.000000000000000
 11
198.6285288291492
 21
265.4999960000093
 31
0.000000000000000
  0
LINE
  5
CB
100
AcDbEntity
  8
A1
  6
CONTINUOUS
 62
7
100
AcDbLine
 10
198.6285265197484
 20
265.5000000000094
 30
0.000000000000000
 11
190.2569487197484
 21
251.0000000000094
 31
0.000000000000000
  0
LINE
  5
CC
100
AcDbEntity
  8
A1
  6
CONTINUOUS
 62
7
100
AcDbLine
 10
190.2569467197486
 20
251.0000000000093
 30
0.000000000000000
 11
198.6285246197485
 21
236.4999960000094
 31
0.000000000000000
  0
LINE
  5
CD
100
AcDbEntity
  8
A1
  6
CONTINUOUS
 62
7
100
AcDbLine
 10
215.3716848197485
 20
236.4999960000094
 30
0.000000000000000
 11
223.7432627197487
 21
251.0000000000097
 31
0.000000000000000
  0
LINE
  5
CE
100
AcDbEntity
  8
A1
  6
CONTINUOUS
 62
7
100
AcDbLine
 10
223.7432627197485
 20
251.0000000000090
 30
0.000000000000000
 11
215.3716849197485
 21
265.5000000000092
 31
0.000000000000000
  0
CIRCLE
  5
CF
100
AcDbEntity
  8
A1
  6
CONTINUOUS
 62
7
100
AcDbCircle
 10
207.0001047197484
 20
251.0000000000093
 30
0.000000000000000
 40
10.00000000000000
  0
CIRCLE
  5
D0
100
AcDbEntity
  8
A2
  6
CONTINUOUS
 62
4
100
AcDbCircle
 10
207.0001047197484
 20
251.0000000000093
 30
0.000000000000000
 40
8.000000000000000
  0
ARC
  5
D1
100
AcDbEntity
  8
A1
  6
CONTINUOUS
 62
7
100
AcDbCircle
 10
172.3971617197301
 20
271.5001047197577
 30
0.000000000000000
 40
1.000000000000000
100
AcDbArc
 50
90.00004000000072
 51
164.9999499999999
  0
ARC
  5
D2
100
AcDbEntity
  8
A1
  6
CONTINUOUS
 62
7
100
AcDbCircle
 10
172.3971617197301
 20
230.5001047197576
 30
0.000000000000000
 40
1.000000000000000
100
AcDbArc
 50
195.0000400000007
 51
270.0000000000000
  0
ARC
  5
D3
100
AcDbEntity
  8
A1
  6
CONTINUOUS
 62
7
100
AcDbCircle
 10
170.1926327197302
 20
271.0001047197576
 30
0.000000000000000
 40
1.000000000000000
100
AcDbArc
 50
270.0000000000000
 51
344.9999850000007
  0
ARC
  5
D4
100
AcDbEntity
  8
A1
  6
CONTINUOUS
 62
7
100
AcDbCircle
 10
170.1926327197300
 20
231.0001047197576
 30
0.000000000000000
 40
1.000000000000000
100
AcDbArc
 50
15.00000999999869
 51
90.00001000000098
  0
LINE
  5
D5
100
AcDbEntity
  8
A1
  6
CONTINUOUS
 62
7
100
AcDbLine
 10
171.4312337197297
 20
230.2412847197574
 30
0.000000000000000
 11
171.1585597197297
 21
231.2589247197576
 31
0.000000000000000
  0
LINE
  5
D6
100
AcDbEntity
  8
A1
  6
CONTINUOUS
 62
7
100
AcDbLine
 10
171.4312337197297
 20
271.7589247197577
 30
0.000000000000000
 11
171.1585597197296
 21
270.7412847197576
 31
0.000000000000000
  0
LINE
  5
D7
100
AcDbEntity
  8
A1
  6
CONTINUOUS
 62
7
100
AcDbLine
 10
166.7726903116964
 20
232.0001047197578
 30
0.000000000000000
 11
175.2910793286469
 21
232.0001047197578
 31
0.000000000000000
  0
LINE
  5
D8
100
AcDbEntity
  8
A1
  6
CONTINUOUS
 62
7
100
AcDbLine
 10
166.7727022462350
 20
270.0001047197576
 30
0.000000000000000
 11
175.2912000007630
 21
270.0001047197575
 31
0.000000000000000
  0
LINE
  5
D9
100
AcDbEntity
  8
A1
  6
CONTINUOUS
 62
7
100
AcDbLine
 10
172.3971617197301
 20
272.5001047197576
 30
0.000000000000000
 11
176.8672864896066
 21
272.5001047197576
 31
0.000000000000000
  0
LINE
  5
DA
100
AcDbEntity
  8
A1
  6
CONTINUOUS
 62
7
100
AcDbLine
 10
172.3971617197301
 20
229.5001047197574
 30
0.000000000000000
 11
176.8671430709812
 21
229.5001047197575
 31
0.000000000000000
  0
ARC
  5
DB
100
AcDbEntity
  8
A1
  6
CONTINUOUS
 62
7
100
AcDbCircle
 10
166.7726903116964
 20
236.0001047197577
 30
0.000000000000000
 40
4.000000000000000
100
AcDbArc
 50
185.8969324227315
 51
270.0000000000004
  0
LINE
  5
DC
100
AcDbEntity
  8
A1
  6
CONTINUOUS
 62
7
100
AcDbLine
 10
191.2501007197484
 20
285.0000723598836
 30
0.000000000000000
 11
192.0001007197485
 21
284.2500723598834
 31
0.000000000000000
  0
LINE
  5
DD
100
AcDbEntity
  8
A1
  6
CONTINUOUS
 62
7
100
AcDbLine
 10
182.0000897197483
 20
284.2500723598837
 30
0.000000000000000
 11
182.7500897197484
 21
285.0000723598839
 31
0.000000000000000
  0
LINE
  5
DE
100
AcDbEntity
  8
A1
  6
CONTINUOUS
 62
7
100
AcDbLine
 10
192.0001047197484
 20
284.2500523598834
 30
0.000000000000000
 11
182.0001047197484
 21
284.2500523598834
 31
0.000000000000000
  0
LINE
  5
DF
100
AcDbEntity
  8
A1
  6
CONTINUOUS
 62
7
100
AcDbLine
 10
191.2501047197484
 20
285.0000523598835
 30
0.000000000000000
 11
182.7501047197484
 21
285.0000523598835
 31
0.000000000000000
  0
LINE
  5
E0
100
AcDbEntity
  8
A2
  6
CONTINUOUS
 62
4
100
AcDbLine
 10
182.7501047197484
 20
285.0000523598835
 30
0.000000000000000
 11
182.7501047197484
 21
284.1000523598834
 31
0.000000000000000
  0
LINE
  5
E1
100
AcDbEntity
  8
A2
  6
CONTINUOUS
 62
4
100
AcDbLine
 10
191.2501047197484
 20
285.0000523598835
 30
0.000000000000000
 11
191.2501047197484
 21
284.1000523598834
 31
0.000000000000000
  0
LINE
  5
E2
100
AcDbEntity
  8
A1
  6
CONTINUOUS
 62
7
100
AcDbLine
 10
192.0001047197484
 20
284.2500523598834
 30
0.000000000000000
 11
192.0001047197484
 21
284.1000523598834
 31
0.000000000000000
  0
LINE
  5
E3
100
AcDbEntity
  8
A1
  6
CONTINUOUS
 62
7
100
AcDbLine
 10
182.0001047197484
 20
284.2500523598834
 30
0.000000000000000
 11
182.0001047197484
 21
284.1000523598834
 31
0.000000000000000
  0
LINE
  5
E4
100
AcDbEntity
  8
A1
  6
CONTINUOUS
 62
7
100
AcDbLine
 10
194.0001087197482
 20
219.5000413598833
 30
0.000000000000000
 11
195.2397302987224
 21
220.1198521493704
 31
0.000000000000000
  0
LINE
  5
E5
100
AcDbEntity
  8
A1
  6
CONTINUOUS
 62
7
100
AcDbLine
 10
178.0001047197482
 20
220.5000523598836
 30
0.000000000000000
 11
180.0001047197481
 21
219.5000523598837
 31
0.000000000000000
  0
LINE
  5
E6
100
AcDbEntity
  8
A1
  6
CONTINUOUS
 62
7
100
AcDbLine
 10
178.0001047197484
 20
224.5000523598835
 30
0.000000000000000
 11
178.0001047197484
 21
220.5000523598835
 31
0.000000000000000
  0
LINE
  5
E7
100
AcDbEntity
  8
A1
  6
CONTINUOUS
 62
7
100
AcDbLine
 10
194.0001047197484
 20
219.5000523598835
 30
0.000000000000000
 11
180.0001047197484
 21
219.5000523598835
 31
0.000000000000000
  0
LINE
  5
E8
100
AcDbEntity
  8
A1
  6
CONTINUOUS
 62
7
100
AcDbLine
 10
194.2862094964266
 20
220.5000523598835
 30
0.000000000000000
 11
178.0001047197484
 21
220.5000523598835
 31
0.000000000000000
  0
ARC
  5
E9
100
AcDbEntity
  8
A1
  6
CONTINUOUS
 62
7
100
AcDbCircle
 10
81.50005235987419
 20
84.49999999999997
 30
0.000000000000000
 40
20.00000000000000
100
AcDbArc
 50
104.9966103161098
 51
135.1783537401985
  0
LINE
  5
EA
100
AcDbEntity
  8
A1
  6
CONTINUOUS
 62
7
100
AcDbLine
 10
110.5000523598742
 20
108.9999999999999
 30
0.000000000000000
 11
110.5000523598742
 21
62.99999999999997
 31
0.000000000000000
  0
LINE
  5
EB
100
AcDbEntity
  8
A1
  6
CONTINUOUS
 62
7
100
AcDbLine
 10
57.50005235987419
 20
108.9999999999999
 30
0.000000000000000
 11
57.50005235987419
 21
62.99999999999997
 31
0.000000000000000
  0
LINE
  5
EC
100
AcDbEntity
  8
A1
  6
CONTINUOUS
 62
7
100
AcDbLine
 10
61.50005235987419
 20
104.5279709407297
 30
0.000000000000000
 11
61.50005235987419
 21
62.99999999999997
 31
0.000000000000000
  0
LINE
  5
ED
100
AcDbEntity
  8
A1
  6
CONTINUOUS
 62
7
100
AcDbLine
 10
106.5000523598742
 20
104.5279709407298
 30
0.000000000000000
 11
106.5000523598742
 21
62.99999999999997
 31
0.000000000000000
  0
ARC
  5
EE
100
AcDbEntity
  8
A1
  6
CONTINUOUS
 62
7
100
AcDbCircle
 10
106.5000523598742
 20
108.9999999999999
 30
0.000000000000000
 40
4.000000000000000
100
AcDbArc
 50
0.000000000000000
 51
90.00000300000094
  0
ARC
  5
EF
100
AcDbEntity
  8
A1
  6
CONTINUOUS
 62
7
100
AcDbCircle
 10
84.00005235987419
 20
-325.4747914071602
 30
0.000000000000000
 40
430.5910189806748
100
AcDbArc
 50
86.47159787675611
 51
93.52840212324394
  0
ARC
  5
F0
100
AcDbEntity
  8
A1
  6
CONTINUOUS
 62
7
100
AcDbCircle
 10
61.50005235987419
 20
108.9999999999999
 30
0.000000000000000
 40
4.000000000000000
100
AcDbArc
 50
90.00000300000094
 51
180.0000100000002
  0
ARC
  5
F1
100
AcDbEntity
  8
A1
  6
CONTINUOUS
 62
7
100
AcDbCircle
 10
106.5000523598742
 20
108.9999999999999
 30
0.000000000000000
 40
4.000000000000000
100
AcDbArc
 50
0.000000000000000
 51
90.00000299999770
  0
ARC
  5
F2
100
AcDbEntity
  8
A1
  6
CONTINUOUS
 62
7
100
AcDbCircle
 10
61.50005235987419
 20
108.9999999999999
 30
0.000000000000000
 40
4.000000000000000
100
AcDbArc
 50
90.00000299999770
 51
180.0000000000000
  0
ARC
  5
F3
100
AcDbEntity
  8
A1
  6
CONTINUOUS
 62
7
100
AcDbCircle
 10
86.50005235987419
 20
84.49999999999997
 30
0.000000000000000
 40
20.00000000000000
100
AcDbArc
 50
44.82164625980145
 51
75.00338968389009
  0
ARC
  5
F4
100
AcDbEntity
  8
A1
  6
CONTINUOUS
 62
7
100
AcDbCircle
 10
84.00005235987419
 20
75.16766456950418
 30
0.000000000000000
 40
29.66139144157227
100
AcDbArc
 50
75.00338968389012
 51
104.9966103161098
  0
LINE
  5
F5
100
AcDbEntity
  8
A1
  6
CONTINUOUS
 62
7
100
AcDbLine
 10
52.50005519046999
 20
66.50004931465807
 30
0.000000000000000
 11
52.50005519046999
 21
75.00004931465807
 31
0.000000000000000
  0
LINE
  5
F6
100
AcDbEntity
  8
A1
  6
CONTINUOUS
 62
7
100
AcDbLine
 10
50.90006439047011
 20
67.70004931465800
 30
0.000000000000000
 11
50.90006439047011
 21
75.00004931465807
 31
0.000000000000000
  0
LINE
  5
F7
100
AcDbEntity
  8
A1
  6
CONTINUOUS
 62
7
100
AcDbLine
 10
57.51021583938392
 20
83.51021662476354
 30
0.000000000000000
 11
57.50005519047026
 21
66.50004931465813
 31
0.000000000000000
  0
LINE
  5
F8
100
AcDbEntity
  8
A1
  6
CONTINUOUS
 62
7
100
AcDbLine
 10
52.10006419046999
 20
66.50004931465807
 30
0.000000000000000
 11
52.50005519046999
 21
66.50004931465807
 31
0.000000000000000
  0
LINE
  5
F9
100
AcDbEntity
  8
A1
  6
CONTINUOUS
 62
7
100
AcDbLine
 10
57.00005519046999
 20
70.75740791465805
 30
0.000000000000000
 11
57.00005519046999
 21
69.76015731465802
 31
0.000000000000000
  0
LINE
  5
FA
100
AcDbEntity
  8
A1
  6
CONTINUOUS
 62
7
100
AcDbLine
 10
53.00005519046999
 20
69.52563331465805
 30
0.000000000000000
 11
53.00005519046999
 21
71.22645531465807
 31
0.000000000000000
  0
LINE
  5
FB
100
AcDbEntity
  8
A1
  6
CONTINUOUS
 62
7
100
AcDbLine
 10
57.51021583938400
 20
66.51021662476346
 30
0.000000000000000
 11
57.01021683938398
 21
65.51021662476349
 31
0.000000000000000
  0
LINE
  5
FC
100
AcDbEntity
  8
A1
  6
CONTINUOUS
 62
7
100
AcDbLine
 10
53.00005519046982
 20
65.70004931465796
 30
0.000000000000000
 11
52.50005559046974
 21
66.50004931465804
 31
0.000000000000000
  0
LINE
  5
FD
100
AcDbEntity
  8
A1
  6
CONTINUOUS
 62
7
100
AcDbLine
 10
57.00005519046987
 20
65.50004931465804
 30
0.000000000000000
 11
53.00005519047011
 21
65.75203731465800
 31
0.000000000000000
  0
LINE
  5
FE
100
AcDbEntity
  8
A1
  6
CONTINUOUS
 62
7
100
AcDbLine
 10
53.00005519047025
 20
65.70004731465804
 30
0.000000000000000
 11
57.00005419047021
 21
65.50004931465806
 31
0.000000000000000
  0
LINE
  5
FF
100
AcDbEntity
  8
A1
  6
CONTINUOUS
 62
7
100
AcDbLine
 10
57.00005419047008
 20
70.75740971465790
 30
0.000000000000000
 11
53.00005519047009
 21
71.22645731465791
 31
0.000000000000000
  0
LINE
  5
100
100
AcDbEntity
  8
A1
  6
CONTINUOUS
 62
7
100
AcDbLine
 10
53.00005479047013
 20
69.52563331465799
 30
0.000000000000000
 11
57.00005519047023
 21
69.76015731465792
 31
0.000000000000000
  0
LINE
  5
101
100
AcDbEntity
  8
A1
  6
CONTINUOUS
 62
7
100
AcDbLine
 10
53.00005519046999
 20
65.70004931465800
 30
0.000000000000000
 11
53.00005519046999
 21
65.75203731465805
 31
0.000000000000000
  0
LINE
  5
102
100
AcDbEntity
  8
A1
  6
CONTINUOUS
 62
7
100
AcDbLine
 10
50.90006439047011
 20
82.30004951465807
 30
0.000000000000000
 11
50.90006439047011
 21
75.00004931465807
 31
0.000000000000000
  0
LINE
  5
103
100
AcDbEntity
  8
A1
  6
CONTINUOUS
 62
7
100
AcDbLine
 10
52.50005519046999
 20
83.50004931465807
 30
0.000000000000000
 11
52.50005519046999
 21
75.00004931465807
 31
0.000000000000000
  0
LINE
  5
104
100
AcDbEntity
  8
A1
  6
CONTINUOUS
 62
7
100
AcDbLine
 10
57.00005519047017
 20
79.24268971465816
 30
0.000000000000000
 11
53.00005519047014
 21
78.77364131465806
 31
0.000000000000000
  0
LINE
  5
105
100
AcDbEntity
  8
A1
  6
CONTINUOUS
 62
7
100
AcDbLine
 10
53.00005519046996
 20
80.47446611465800
 30
0.000000000000000
 11
57.00005519046996
 21
80.23994231465801
 31
0.000000000000000
  0
LINE
  5
106
100
AcDbEntity
  8
A1
  6
CONTINUOUS
 62
7
100
AcDbLine
 10
53.00005519046999
 20
80.47446611465804
 30
0.000000000000000
 11
53.00005519046999
 21
78.77364131465797
 31
0.000000000000000
  0
LINE
  5
107
100
AcDbEntity
  8
A1
  6
CONTINUOUS
 62
7
100
AcDbLine
 10
52.10006419046999
 20
83.50004931465807
 30
0.000000000000000
 11
52.50005519046999
 21
83.50004931465807
 31
0.000000000000000
  0
ARC
  5
108
100
AcDbEntity
  8
A1
  6
CONTINUOUS
 62
7
100
AcDbCircle
 10
52.10006419046999
 20
67.70004931465800
 30
0.000000000000000
 40
1.200000039999999
100
AcDbArc
 50
180.0000030000009
 51
270.0000099999978
  0
ARC
  5
109
100
AcDbEntity
  8
A1
  6
CONTINUOUS
 62
7
100
AcDbCircle
 10
52.71292779047008
 20
67.63010331465804
 30
0.000000000000000
 40
4.787128000000000
100
AcDbArc
 50
333.5795799999945
 51
386.4204200000056
  0
ARC
  5
10A
100
AcDbEntity
  8
A1
  6
CONTINUOUS
 62
7
100
AcDbCircle
 10
56.31006139047008
 20
67.63883331465806
 30
0.000000000000000
 40
3.810005999999998
100
AcDbArc
 50
150.3156250000019
 51
209.6843800000049
  0
ARC
  5
10B
100
AcDbEntity
  8
A1
  6
CONTINUOUS
 62
7
100
AcDbCircle
 10
52.10006419046999
 20
82.30004951465807
 30
0.000000000000000
 40
1.200000039999999
100
AcDbArc
 50
90.00000000000000
 51
180.0000030000009
  0
ARC
  5
10C
100
AcDbEntity
  8
A1
  6
CONTINUOUS
 62
7
100
AcDbCircle
 10
66.99005519047000
 20
75.00004931465807
 30
0.000000000000000
 40
14.48999980000000
100
AcDbArc
 50
164.9045809999952
 51
195.0954200000000
  0
LINE
  5
10D
100
AcDbEntity
  8
A1
  6
CONTINUOUS
 62
7
100
AcDbLine
 10
57.00005519047001
 20
79.24268971465807
 30
0.000000000000000
 11
57.00005519047007
 21
80.23994231465809
 31
0.000000000000000
  0
ARC
  5
10E
100
AcDbEntity
  8
A1
  6
CONTINUOUS
 62
7
100
AcDbCircle
 10
39.25007315987841
 20
75.00005214525393
 30
0.000000000000000
 40
18.24998203059178
100
AcDbArc
 50
346.5572422592538
 51
373.4427453273006
  0
LINE
  5
10F
100
AcDbEntity
  8
A1
  6
CONTINUOUS
 62
7
100
AcDbLine
 10
57.51021583938398
 20
83.51021662476353
 30
0.000000000000000
 11
57.01021683938396
 21
84.51021662476350
 31
0.000000000000000
  0
LINE
  5
110
100
AcDbEntity
  8
A1
  6
CONTINUOUS
 62
7
100
AcDbLine
 10
53.00005519046992
 20
84.30004931465800
 30
0.000000000000000
 11
52.50005559046995
 21
83.50004931465811
 31
0.000000000000000
  0
LINE
  5
111
100
AcDbEntity
  8
A1
  6
CONTINUOUS
 62
7
100
AcDbLine
 10
57.00005519047004
 20
84.50004931465810
 30
0.000000000000000
 11
53.00005519047005
 21
84.24806131465809
 31
0.000000000000000
  0
LINE
  5
112
100
AcDbEntity
  8
A1
  6
CONTINUOUS
 62
7
100
AcDbLine
 10
53.00005519047009
 20
84.30005131465801
 30
0.000000000000000
 11
57.00005419047005
 21
84.50004931465803
 31
0.000000000000000
  0
LINE
  5
113
100
AcDbEntity
  8
A1
  6
CONTINUOUS
 62
7
100
AcDbLine
 10
53.00005519046999
 20
84.30004931465803
 30
0.000000000000000
 11
53.00005519046999
 21
84.24806131465803
 31
0.000000000000000
  0
ARC
  5
114
100
AcDbEntity
  8
A1
  6
CONTINUOUS
 62
7
100
AcDbCircle
 10
52.70276048036453
 20
82.35983366574439
 30
0.000000000000000
 40
4.787128000000000
100
AcDbArc
 50
333.5795799999947
 51
386.4204200000054
  0
ARC
  5
115
100
AcDbEntity
  8
A1
  6
CONTINUOUS
 62
7
100
AcDbCircle
 10
56.31006139047008
 20
82.36126531465808
 30
0.000000000000000
 40
3.810005999999998
100
AcDbArc
 50
150.3156199999953
 51
209.6843749999980
  0
LINE
  5
116
100
AcDbEntity
  8
A1
  6
CONTINUOUS
 62
7
100
AcDbLine
 10
179.7001047197484
 20
284.0999910146294
 30
0.000000000000000
 11
187.0001047197484
 21
284.0999910146294
 31
0.000000000000000
  0
LINE
  5
117
100
AcDbEntity
  8
A1
  6
CONTINUOUS
 62
7
100
AcDbLine
 10
178.5001047197484
 20
282.5000002146294
 30
0.000000000000000
 11
187.0001047197484
 21
282.5000002146294
 31
0.000000000000000
  0
LINE
  5
118
100
AcDbEntity
  8
A1
  6
CONTINUOUS
 62
7
100
AcDbLine
 10
178.5001047197484
 20
277.5000002146294
 30
0.000000000000000
 11
187.0001047197484
 21
277.5000002146294
 31
0.000000000000000
  0
LINE
  5
119
100
AcDbEntity
  8
A1
  6
CONTINUOUS
 62
7
100
AcDbLine
 10
178.5001047197484
 20
278.0000002146294
 30
0.000000000000000
 11
179.0758699197484
 21
278.0000002146294
 31
0.000000000000000
  0
LINE
  5
11A
100
AcDbEntity
  8
A1
  6
CONTINUOUS
 62
7
100
AcDbLine
 10
178.5001047197484
 20
282.0000002146294
 30
0.000000000000000
 11
179.4820773197484
 21
282.0000002146294
 31
0.000000000000000
  0
LINE
  5
11B
100
AcDbEntity
  8
A1
  6
CONTINUOUS
 62
7
100
AcDbLine
 10
178.5001047197484
 20
282.8999912146294
 30
0.000000000000000
 11
178.5001047197484
 21
277.5000002146294
 31
0.000000000000000
  0
LINE
  5
11C
100
AcDbEntity
  8
A1
  6
CONTINUOUS
 62
7
100
AcDbLine
 10
186.4243401197482
 20
278.0000002146294
 30
0.000000000000000
 11
187.0001047197484
 21
278.0000002146294
 31
0.000000000000000
  0
LINE
  5
11D
100
AcDbEntity
  8
A1
  6
CONTINUOUS
 62
7
100
AcDbLine
 10
186.0181321197483
 20
282.0000002146294
 30
0.000000000000000
 11
187.0001047197484
 21
282.0000002146294
 31
0.000000000000000
  0
LINE
  5
11E
100
AcDbEntity
  8
A1
  6
CONTINUOUS
 62
7
100
AcDbLine
 10
179.0758699197485
 20
278.0000002146291
 30
0.000000000000000
 11
179.4820773197485
 21
282.0000002146292
 31
0.000000000000000
  0
LINE
  5
11F
100
AcDbEntity
  8
A1
  6
CONTINUOUS
 62
7
100
AcDbLine
 10
186.0181321197484
 20
282.0000006146292
 30
0.000000000000000
 11
186.4243401197484
 21
278.0000002146291
 31
0.000000000000000
  0
LINE
  5
120
100
AcDbEntity
  8
A1
  6
CONTINUOUS
 62
7
100
AcDbLine
 10
187.9820773197484
 20
282.0000002146294
 30
0.000000000000000
 11
187.0001047197484
 21
282.0000002146294
 31
0.000000000000000
  0
LINE
  5
121
100
AcDbEntity
  8
A1
  6
CONTINUOUS
 62
7
100
AcDbLine
 10
187.5758693197481
 20
278.0000002146294
 30
0.000000000000000
 11
187.0001047197484
 21
278.0000002146294
 31
0.000000000000000
  0
LINE
  5
122
100
AcDbEntity
  8
A1
  6
CONTINUOUS
 62
7
100
AcDbLine
 10
194.5621772997856
 20
281.5662879901422
 30
0.000000000000000
 11
194.5181329197481
 21
282.0000006146294
 31
0.000000000000000
  0
LINE
  5
123
100
AcDbEntity
  8
A1
  6
CONTINUOUS
 62
7
100
AcDbLine
 10
187.9820773197484
 20
282.0000002146293
 30
0.000000000000000
 11
187.5758693197484
 21
278.0000002146294
 31
0.000000000000000
  0
LINE
  5
124
100
AcDbEntity
  8
A1
  6
CONTINUOUS
 62
7
100
AcDbLine
 10
194.3001039197484
 20
284.0999910146294
 30
0.000000000000000
 11
187.0001047197484
 21
284.0999910146294
 31
0.000000000000000
  0
LINE
  5
125
100
AcDbEntity
  8
A1
  6
CONTINUOUS
 62
7
100
AcDbLine
 10
187.3341445696533
 20
277.5000002146294
 30
0.000000000000000
 11
187.0001047197484
 21
277.5000002146294
 31
0.000000000000000
  0
LINE
  5
126
100
AcDbEntity
  8
A1
  6
CONTINUOUS
 62
7
100
AcDbLine
 10
195.5001047197484
 20
282.5000002146294
 30
0.000000000000000
 11
187.0001047197484
 21
282.5000002146294
 31
0.000000000000000
  0
LINE
  5
127
100
AcDbEntity
  8
A1
  6
CONTINUOUS
 62
7
100
AcDbLine
 10
195.5001047197484
 20
282.0000002146294
 30
0.000000000000000
 11
194.5181311197484
 21
282.0000002146294
 31
0.000000000000000
  0
LINE
  5
128
100
AcDbEntity
  8
A1
  6
CONTINUOUS
 62
7
100
AcDbLine
 10
195.5001047197484
 20
282.8999912146294
 30
0.000000000000000
 11
195.5001047197484
 21
281.9313756564525
 31
0.000000000000000
  0
ARC
  5
129
100
AcDbEntity
  8
A1
  6
CONTINUOUS
 62
7
100
AcDbCircle
 10
179.7001047197484
 20
282.8999912146294
 30
0.000000000000000
 40
1.200000039999999
100
AcDbArc
 50
90.00000300000094
 51
180.0000099999977
  0
ARC
  5
12A
100
AcDbEntity
  8
A1
  6
CONTINUOUS
 62
7
100
AcDbCircle
 10
182.7501047197484
 20
271.5699960146294
 30
0.000000000000000
 40
10.93000320000000
100
AcDbArc
 50
72.60269100000198
 51
107.3973099999955
  0
ARC
  5
12B
100
AcDbEntity
  8
A1
  6
CONTINUOUS
 62
7
100
AcDbCircle
 10
182.7501047197484
 20
291.2500036746295
 30
0.000000000000000
 40
13.75000280000000
100
AcDbArc
 50
254.5012700000048
 51
285.4987299999952
  0
ARC
  5
12C
100
AcDbEntity
  8
A1
  6
CONTINUOUS
 62
7
100
AcDbCircle
 10
191.2501047197484
 20
291.2500036746295
 30
0.000000000000000
 40
13.75000280000000
100
AcDbArc
 50
254.5012700000048
 51
255.9146431434930
  0
ARC
  5
12D
100
AcDbEntity
  8
A1
  6
CONTINUOUS
 62
7
100
AcDbCircle
 10
191.2501047197484
 20
271.5699960146294
 30
0.000000000000000
 40
10.93000320000000
100
AcDbArc
 50
72.60269100000198
 51
107.3973099999955
  0
ARC
  5
12E
100
AcDbEntity
  8
A1
  6
CONTINUOUS
 62
7
100
AcDbCircle
 10
194.3001039197484
 20
282.8999912146294
 30
0.000000000000000
 40
1.200000039999999
100
AcDbArc
 50
0.000000000000000
 51
90.00000300000094
  0
LINE
  5
12F
100
AcDbEntity
  8
A1
  6
CONTINUOUS
 62
7
100
AcDbLine
 10
198.6285255197486
 20
236.4999960000093
 30
0.000000000000000
 11
215.3716839197486
 21
236.4999960000093
 31
0.000000000000000
  0
ARC
  5
130
100
AcDbEntity
  8
A1
  6
CONTINUOUS
 62
7
100
AcDbCircle
 10
214.9684214811541
 20
257.8560083928854
 30
0.000000000000000
 40
24.22772896082646
100
AcDbArc
 50
24.88262672826274
 51
80.47591411924543
  0
ELLIPSE
  5
131
100
AcDbEntity
  8
A1
  6
CONTINUOUS
 62
7
100
AcDbEllipse
 10
211.0115709214740
 20
251.0000002146300
 30
0.000000000000000
 11
0.000000000000000
 21
30.99999999998060
 31
0.000000000000000
210
0.000000000000000
220
0.000000000000000
230
1.000000000000000
 40
0.9855742601100692
 41
4.575564236440214
 42
4.849213710703570
  0
ARC
  5
132
100
AcDbEntity
  8
A1
  6
CONTINUOUS
 62
7
100
AcDbCircle
 10
202.3590959630073
 20
249.2222772247972
 30
0.000000000000000
 40
39.38043281333296
100
AcDbArc
 50
8.772645168605784
 51
28.56142293143556
  0
ARC
  5
133
100
AcDbEntity
  8
A1
  6
CONTINUOUS
 62
7
100
AcDbCircle
 10
214.9684214811541
 20
244.1439916071333
 30
0.000000000000000
 40
24.22772896082646
100
AcDbArc
 50
279.5240858807546
 51
335.1173732717374
  0
ARC
  5
134
100
AcDbEntity
  8
A1
  6
CONTINUOUS
 62
7
100
AcDbCircle
 10
202.3590959630069
 20
252.7777227752215
 30
0.000000000000000
 40
39.38043281333304
100
AcDbArc
 50
331.4385770685644
 51
351.2273548313942
  0
ARC
  5
135
100
AcDbEntity
  8
A1
  6
CONTINUOUS
 62
7
100
AcDbCircle
 10
239.0001047197484
 20
114.9521455365228
 30
0.000000000000000
 40
2.000000000000000
100
AcDbArc
 50
180.0000000000004
 51
250.4323875469065
  0
LINE
  5
136
100
AcDbEntity
  8
A4
  6
CENTER
 62
1
100
AcDbLine
 10
160.5001047197484
 20
75.00000000000000
 30
0.000000000000000
 11
213.5001047197484
 21
74.99999999999997
 31
0.000000000000000
  0
LINE
  5
137
100
AcDbEntity
  8
A4
  6
CENTER
 62
1
100
AcDbLine
 10
187.0001047197484
 20
48.49999999999997
 30
0.000000000000000
 11
187.0001047197484
 21
101.5000000000000
 31
0.000000000000000
  0
LINE
  5
138
100
AcDbEntity
  8
A4
  6
CENTER
 62
1
100
AcDbLine
 10
207.0001047197484
 20
285.5000000000093
 30
0.000000000000000
 11
207.0001047197484
 21
216.5000000000093
 31
0.000000000000000
  0
LINE
  5
139
100
AcDbEntity
  8
A4
  6
CENTER
 62
1
100
AcDbLine
 10
160.5001045339114
 20
251.0000461264324
 30
0.000000000000000
 11
243.0643729848672
 21
251.0000010338566
 31
0.000000000000000
  0
LINE
  5
13A
100
AcDbEntity
  8
A4
  6
CENTER
 62
1
100
AcDbLine
 10
187.0001172477206
 20
218.0000523598835
 30
0.000000000000000
 11
187.0000956917822
 21
286.5000523598833
 31
0.000000000000000
  0
ARC
  5
13B
100
AcDbEntity
  8
A1
  6
CONTINUOUS
 62
7
100
AcDbCircle
 10
166.7726955339022
 20
266.0000976670802
 30
0.000000000000000
 40
4.000000000000000
100
AcDbArc
 50
90.00000000000000
 51
174.1030299999993
  0
LINE
  5
13C
100
AcDbEntity
  8
A1
  6
CONTINUOUS
 62
7
100
AcDbLine
 10
106.5000523598741
 20
82.29999999999995
 30
0.000000000000000
 11
106.0000523598741
 21
82.79999999999995
 31
0.000000000000000
  0
LINE
  5
13D
100
AcDbEntity
  8
A1
  6
CONTINUOUS
 62
7
100
AcDbLine
 10
106.0000523598741
 20
67.19999999999993
 30
0.000000000000000
 11
106.5000523598741
 21
67.69999999999993
 31
0.000000000000000
  0
LINE
  5
13E
100
AcDbEntity
  8
A1
  6
CONTINUOUS
 62
7
100
AcDbLine
 10
105.5000523605282
 20
67.19999999999996
 30
0.000000000000000
 11
106.0000523598742
 21
67.19999999999996
 31
0.000000000000000
  0
LINE
  5
13F
100
AcDbEntity
  8
A1
  6
CONTINUOUS
 62
7
100
AcDbLine
 10
106.0000523598742
 20
82.79999999999995
 30
0.000000000000000
 11
105.5000523605282
 21
82.79999999999995
 31
0.000000000000000
  0
LINE
  5
140
100
AcDbEntity
  8
A1
  6
CONTINUOUS
 62
7
100
AcDbLine
 10
106.0000523598742
 20
82.79999999999995
 30
0.000000000000000
 11
106.0000523598742
 21
67.19999999999996
 31
0.000000000000000
  0
LINE
  5
141
100
AcDbEntity
  8
A1
  6
CONTINUOUS
 62
7
100
AcDbLine
 10
61.50005235987410
 20
67.69999999999993
 30
0.000000000000000
 11
62.00005235987410
 21
67.19999999999993
 31
0.000000000000000
  0
LINE
  5
142
100
AcDbEntity
  8
A1
  6
CONTINUOUS
 62
7
100
AcDbLine
 10
62.00005235987415
 20
82.79999999999991
 30
0.000000000000000
 11
61.50005235987415
 21
82.29999999999991
 31
0.000000000000000
  0
LINE
  5
143
100
AcDbEntity
  8
A1
  6
CONTINUOUS
 62
7
100
AcDbLine
 10
62.00005235987419
 20
67.19999999999996
 30
0.000000000000000
 11
62.50005235922015
 21
67.19999999999996
 31
0.000000000000000
  0
LINE
  5
144
100
AcDbEntity
  8
A1
  6
CONTINUOUS
 62
7
100
AcDbLine
 10
62.50005235922015
 20
82.79999999999998
 30
0.000000000000000
 11
62.00005235987419
 21
82.79999999999998
 31
0.000000000000000
  0
LINE
  5
145
100
AcDbEntity
  8
A1
  6
CONTINUOUS
 62
7
100
AcDbLine
 10
62.00005235987419
 20
82.79999999999995
 30
0.000000000000000
 11
62.00005235987419
 21
67.19999999999996
 31
0.000000000000000
  0
LINE
  5
146
100
AcDbEntity
  8
A1
  6
CONTINUOUS
 62
7
100
AcDbLine
 10
62.50005235922015
 20
87.77220240339619
 30
0.000000000000000
 11
62.50005235922015
 21
62.22779759660375
 31
0.000000000000000
  0
ARC
  5
147
100
AcDbEntity
  8
A1
  6
CONTINUOUS
 62
7
100
AcDbCircle
 10
67.50005235922026
 20
62.22779759660372
 30
0.000000000000000
 40
5.000000000000117
100
AcDbArc
 50
179.9999999999997
 51
201.5651850356336
  0
ARC
  5
148
100
AcDbEntity
  8
A1
  6
CONTINUOUS
 62
7
100
AcDbCircle
 10
67.50005235922026
 20
87.77220240339622
 30
0.000000000000000
 40
5.000000000000083
100
AcDbArc
 50
158.4348149643663
 51
180.0000000000003
  0
LINE
  5
149
100
AcDbEntity
  8
A1
  6
CONTINUOUS
 62
7
100
AcDbLine
 10
105.5000523605282
 20
62.22779759660372
 30
0.000000000000000
 11
105.5000523605282
 21
87.77220240339622
 31
0.000000000000000
  0
ARC
  5
14A
100
AcDbEntity
  8
A1
  6
CONTINUOUS
 62
7
100
AcDbCircle
 10
100.5000523605282
 20
62.22779759660372
 30
0.000000000000000
 40
4.999999999999986
100
AcDbArc
 50
338.4348149643603
 51
360.0000000000002
  0
ARC
  5
14B
100
AcDbEntity
  8
A1
  6
CONTINUOUS
 62
7
100
AcDbCircle
 10
100.5000523605281
 20
87.77220240339622
 30
0.000000000000000
 40
5.000000000000060
100
AcDbArc
 50
359.9999999999999
 51
381.5651850356396
  0
ARC
  5
14C
100
AcDbEntity
  8
A1
  6
CONTINUOUS
 62
7
100
AcDbCircle
 10
64.71639113533206
 20
61.10887382427134
 30
0.000000000000000
 40
2.000000000000004
100
AcDbArc
 50
201.0656189037516
 51
235.0284661599011
  0
ARC
  5
14D
100
AcDbEntity
  8
A1
  6
CONTINUOUS
 62
7
100
AcDbCircle
 10
64.71639113533206
 20
88.89112617572860
 30
0.000000000000000
 40
2.000000000000002
100
AcDbArc
 50
124.9715338400989
 51
158.9343810962484
  0
ARC
  5
14E
100
AcDbEntity
  8
A1
  6
CONTINUOUS
 62
7
100
AcDbCircle
 10
103.2837135844163
 20
61.10887382427140
 30
0.000000000000000
 40
2.000000000000072
100
AcDbArc
 50
304.9715338400148
 51
338.9343810962330
  0
ARC
  5
14F
100
AcDbEntity
  8
A1
  6
CONTINUOUS
 62
7
100
AcDbCircle
 10
103.2837135844162
 20
88.89112617572854
 30
0.000000000000000
 40
2.000000000000092
100
AcDbArc
 50
21.06561890376717
 51
55.02846615998513
  0
ARC
  5
150
100
AcDbEntity
  8
A1
  6
CONTINUOUS
 62
7
100
AcDbCircle
 10
63.00005371392649
 20
58.64835436858837
 30
0.000000000000000
 40
1.000000000000008
100
AcDbArc
 50
0.09428777707662860
 51
55.24986866844553
  0
ARC
  5
151
100
AcDbEntity
  8
A1
  6
CONTINUOUS
 62
7
100
AcDbCircle
 10
63.00005371392649
 20
91.35164563141157
 30
0.000000000000000
 40
1.000000000000004
100
AcDbArc
 50
304.7501313315544
 51
359.9057122229235
  0
ARC
  5
152
100
AcDbEntity
  8
A1
  6
CONTINUOUS
 62
7
100
AcDbCircle
 10
105.0000510058219
 20
58.64835436858837
 30
0.000000000000000
 40
1.000000000000027
100
AcDbArc
 50
124.7501313317242
 51
179.9057122229232
  0
ARC
  5
153
100
AcDbEntity
  8
A1
  6
CONTINUOUS
 62
7
100
AcDbCircle
 10
105.0000510058219
 20
91.35164563141157
 30
0.000000000000000
 40
1.000000000000026
100
AcDbArc
 50
180.0942877770768
 51
235.2498686682758
  0
LINE
  5
154
100
AcDbEntity
  8
A1
  6
CONTINUOUS
 62
7
100
AcDbLine
 10
64.00005235987419
 20
95.49869109050655
 30
0.000000000000000
 11
64.00005235987419
 21
54.50130890949339
 31
0.000000000000000
  0
ARC
  5
155
100
AcDbEntity
  8
A1
  6
CONTINUOUS
 62
7
100
AcDbCircle
 10
67.00005235987419
 20
54.50130890949342
 30
0.000000000000000
 40
3.000000000000014
100
AcDbArc
 50
180.0000000000003
 51
259.9063431407745
  0
ARC
  5
156
100
AcDbEntity
  8
A1
  6
CONTINUOUS
 62
7
100
AcDbCircle
 10
67.00005235987419
 20
95.49869109050653
 30
0.000000000000000
 40
3.000000000000015
100
AcDbArc
 50
100.0936568592255
 51
179.9999999999997
  0
LINE
  5
157
100
AcDbEntity
  8
A1
  6
CONTINUOUS
 62
7
100
AcDbLine
 10
104.0000523598742
 20
95.49869109050655
 30
0.000000000000000
 11
104.0000523598742
 21
54.50130890949339
 31
0.000000000000000
  0
ARC
  5
158
100
AcDbEntity
  8
A1
  6
CONTINUOUS
 62
7
100
AcDbCircle
 10
101.0000523598742
 20
54.50130890949339
 30
0.000000000000000
 40
2.999999999999992
100
AcDbArc
 50
280.0936504196616
 51
360.0000000000001
  0
ARC
  5
159
100
AcDbEntity
  8
A1
  6
CONTINUOUS
 62
7
100
AcDbCircle
 10
101.0000523598742
 20
95.49869109050655
 30
0.000000000000000
 40
2.999999999999996
100
AcDbArc
 50
359.9999999999999
 51
439.9063495803384
  0
ARC
  5
15A
100
AcDbEntity
  8
A1
  6
CONTINUOUS
 62
7
100
AcDbCircle
 10
84.00005235987408
 20
2.842170943040401e-14
 30
0.000000000000000
 40
99.99999999999991
100
AcDbArc
 50
79.90634333396122
 51
100.0936568592256
  0
ARC
  5
15B
100
AcDbEntity
  8
A1
  6
CONTINUOUS
 62
7
100
AcDbCircle
 10
84.00005235987408
 20
149.9999999999999
 30
0.000000000000000
 40
99.99999999999993
100
AcDbArc
 50
259.9063431407744
 51
280.0936566660388
  0
ARC
  5
15C
100
AcDbEntity
  8
A1
  6
CONTINUOUS
 62
7
100
AcDbCircle
 10
187.0001047197483
 20
74.99999999999991
 30
0.000000000000000
 40
15.53000000001862
100
AcDbArc
 50
104.5056497655777
 51
328.5061274212381
  0
ENDSEC
  0
SECTION
  2
OBJECTS
  0
DICTIONARY
  5
187
100
AcDbDictionary
  3
ACAD_GROUP
350
188
  3
ACAD_LAYOUT
350
189
  3
ACAD_MLINESTYLE
350
18A
  0
DICTIONARY
  5
188
102
{ACAD_REACTORS
330
187
102
}
330
187
100
AcDbDictionary
  0
DICTIONARY
  5
189
102
{ACAD_REACTORS
330
187
102
}
330
187
100
AcDbDictionary
  3
Model
350
18B
  3
ﾚｲｱｳﾄ1
350
18C
  3
ﾚｲｱｳﾄ2
350
18D
  0
DICTIONARY
  5
18A
102
{ACAD_REACTORS
330
187
102
}
330
187
100
AcDbDictionary
  3
STANDARD
350
18E
  0
LAYOUT
  5
18B
102
{ACAD_REACTORS
330
189
102
}
330
189
100
AcDbPlotSettings
 70
11952
  4
A3
 44
297.000000
 45
420.000000
 73
  1
 72
  1
100
AcDbLayout
  1
Model
 71
0
330
17E
  0
LAYOUT
  5
18C
102
{ACAD_REACTORS
330
189
102
}
330
189
100
AcDbPlotSettings
100
AcDbLayout
  1
ﾚｲｱｳﾄ1
 71
1
330
17F
  0
LAYOUT
  5
18D
102
{ACAD_REACTORS
330
189
102
}
330
189
100
AcDbPlotSettings
100
AcDbLayout
  1
ﾚｲｱｳﾄ2
 71
2
330
180
  0
MLINESTYLE
  5
18E
102
{ACAD_REACTORS
330
18A
102
}
330
18A
100
AcDbMlineStyle
  2
STANDARD
 70
     0
  3

 62
   256
 51
90.00
 52
90.00
 71
     2
 49
0.50
 62
   256
  6
BYLAYER
 49
-0.50
 62
   256
  6
BYLAYER
  0
ENDSEC
  0
EOF
