  0
SECTION
  2
HEADER
  9
$ACADVER
  1
AC1015
  9
$DWGCODEPAGE
  3
ANSI_932
  9
$LTSCALE
 40
20.0
  9
$FILLMODE
 70
     1
  9
$CLAYER
  8
0
  9
$PDMODE
 70
     0
  9
$SPLFRAME
 70
     0
  9
$SPLINETYPE
 70
     6
  9
$SPLINESEGS
 70
     8
  9
$DIMASZ
 40
2.000000
  9
$DIMEXE
 40
1.500000
  9
$DIMEXO
 40
0.800000
  9
$DIMTAD
 70
     1
  9
$DIMTIH
 70
     0
  9
$DIMTOH
 70
     0
  9
$DIMTVP
 40
0.500000
  9
$DIMTXT
 40
3.100000
  9
$EXTMIN
 10
0.000000
 20
0.000000
 30
0.000000
  9
$EXTMAX
 10
297.000000
 20
420.000000
 30
0.000000
  9
$MEASUREMENT
 70
  1
  9
$LIMMIN
 10
0.000000
 20
0.000000
  9
$LIMMAX
 10
297.000000
 20
420.000000
  9
$HANDSEED
  5
1A7
  9
$LWDISPLAY
290
     0
  9
$DIMBLK
  1
_OPEN
  9
$DIMDEC
 70
     2
  9
$DIMADEC
 70
     2
  9
$DIMAUNIT
 70
     0
  9
$DIMZIN
 70
     8
  9
$DIMAZIN
 70
     2
  9
$DIMTOFL
 70
     1
  0
ENDSEC
  0
SECTION
  2
CLASSES
  0
ENDSEC
  0
SECTION
  2
TABLES
  0
TABLE
  2
VPORT
  5
175
100
AcDbSymbolTable
 70
     1
  0
VPORT
  5
176
100
AcDbSymbolTableRecord
100
AcDbViewportTableRecord
  2
*ACTIVE
 70
     0
 12
131.282156
 22
157.750031
 40
279.500061
 41
0.867851
  0
ENDTAB
  0
TABLE
  2
LTYPE
  5
177
100
AcDbSymbolTable
 70
     2
  0
LTYPE
  5
178
100
AcDbSymbolTableRecord
100
AcDbLinetypeTableRecord
  2
BYBLOCK
 70
     0
  3

 72
    65
 73
     0
 40
0.0
  0
LTYPE
  5
179
100
AcDbSymbolTableRecord
100
AcDbLinetypeTableRecord
  2
BYLAYER
 70
     0
  3

 72
    65
 73
     0
 40
0.0
  0
LTYPE
  5
17A
100
AcDbSymbolTableRecord
100
AcDbLinetypeTableRecord
  2
CONTINUOUS
 70
     0
  3
Solid line (NEC CAE2D for Win R18.0 : 2024.04.25)
 72
    65
 73
     0
 40
0.0
  0
LTYPE
  5
17B
100
AcDbSymbolTableRecord
100
AcDbLinetypeTableRecord
  2
CENTER
 70
     0
  3
____ _ ____ _ ____ _ ____ _ ____ _ ____
 72
    65
 73
     4
 40
2.0
 49
1.25
 74
     0
 49
-0.25
 74
     0
 49
0.25
 74
     0
 49
-0.25
 74
     0
  0
ENDTAB
  0
TABLE
  2
LAYER
  5
17C
100
AcDbSymbolTable
 70
    12
  0
LAYER
  5
17D
100
AcDbSymbolTableRecord
100
AcDbLayerTableRecord
  2
0
 70
     0
 62
     7
  6
CONTINUOUS
370
    -3
390

  0
LAYER
  5
17E
100
AcDbSymbolTableRecord
100
AcDbLayerTableRecord
  2
A0
 70
     0
 62
     9
  6
CONTINUOUS
370
    -3
390

  0
LAYER
  5
17F
100
AcDbSymbolTableRecord
100
AcDbLayerTableRecord
  2
A1
 70
     0
 62
     8
  6
CONTINUOUS
370
    -3
390

  0
LAYER
  5
180
100
AcDbSymbolTableRecord
100
AcDbLayerTableRecord
  2
A2
 70
     0
 62
    12
  6
CONTINUOUS
370
    -3
390

  0
LAYER
  5
181
100
AcDbSymbolTableRecord
100
AcDbLayerTableRecord
  2
A4
 70
     0
 62
    12
  6
CONTINUOUS
370
    -3
390

  0
LAYER
  5
182
100
AcDbSymbolTableRecord
100
AcDbLayerTableRecord
  2
A8
 70
     0
 62
    10
  6
CONTINUOUS
370
    -3
390

  0
LAYER
  5
183
100
AcDbSymbolTableRecord
100
AcDbLayerTableRecord
  2
A10
 70
     0
 62
     6
  6
CONTINUOUS
370
    -3
390

  0
LAYER
  5
184
100
AcDbSymbolTableRecord
100
AcDbLayerTableRecord
  2
A20
 70
     0
 62
     1
  6
CONTINUOUS
370
    -3
390

  0
LAYER
  5
185
100
AcDbSymbolTableRecord
100
AcDbLayerTableRecord
  2
A30
 70
     0
 62
     1
  6
CONTINUOUS
370
    -3
390

  0
LAYER
  5
186
100
AcDbSymbolTableRecord
100
AcDbLayerTableRecord
  2
A40
 70
     0
 62
     9
  6
CONTINUOUS
370
    -3
390

  0
LAYER
  5
187
100
AcDbSymbolTableRecord
100
AcDbLayerTableRecord
  2
A50
 70
     0
 62
    12
  6
CONTINUOUS
370
    -3
390

  0
LAYER
  5
188
100
AcDbSymbolTableRecord
100
AcDbLayerTableRecord
  2
A1023
 70
     0
 62
    16
  6
CONTINUOUS
370
    -3
390

  0
ENDTAB
  0
TABLE
  2
STYLE
  5
189
100
AcDbSymbolTable
 70
     4
  0
STYLE
  5
18A
100
AcDbSymbolTableRecord
100
AcDbTextStyleTableRecord
  2
STANDARD
 70
    64
 40
0.0
 41
1.0
 50
0.0
 71
     0
 42
3.000000000000000
  3
TXT
  4

  0
STYLE
  5
18B
100
AcDbSymbolTableRecord
100
AcDbTextStyleTableRecord
  2
ANKTATE
 70
    68
 40
0.0
 41
1.0
 50
0.0
 71
     0
 42
3.000000000000000
  3
TXT
  4

  0
STYLE
  5
18C
100
AcDbSymbolTableRecord
100
AcDbTextStyleTableRecord
  2
KNJYOKO
 70
    64
 40
0.0
 41
1.0
 50
0.0
 71
     0
 42
3.000000000000000
  3
TXT
  4
BIGFONT
  0
STYLE
  5
18D
100
AcDbSymbolTableRecord
100
AcDbTextStyleTableRecord
  2
KNJTATE
 70
    68
 40
0.0
 41
1.0
 50
0.0
 71
     0
 42
3.000000000000000
  3
TXT
  4
BIGFONT
  0
ENDTAB
  0
TABLE
  2
VIEW
  5
18E
100
AcDbSymbolTable
 70
     0
  0
ENDTAB
  0
TABLE
  2
UCS
  5
18F
100
AcDbSymbolTable
 70
     0
  0
ENDTAB
  0
TABLE
  2
APPID
  5
190
100
AcDbSymbolTable
 70
     1
  0
APPID
  5
191
100
AcDbSymbolTableRecord
100
AcDbRegAppTableRecord
  2
ACAD
 70
     0
  0
ENDTAB
  0
TABLE
  2
DIMSTYLE
  5
192
100
AcDbSymbolTable
 70
     2
100
AcDbDimStyleTable
  0
DIMSTYLE
105
193
100
AcDbSymbolTableRecord
100
AcDbDimStyleTableRecord
  2
STANDARD
 70
     0
 41
2.000000
 44
1.500000
 42
0.800000
145
0.661290
140
3.100000
144
1.000000
146
0.645161
340
18A
  0
DIMSTYLE
105
194
100
AcDbSymbolTableRecord
100
AcDbDimStyleTableRecord
  2
A001
 70
     0
 41
2.000000
 44
1.500000
 42
0.800000
145
0.661290
140
3.100000
144
1.000000
146
0.645161
 77
     1
 73
     0
 74
     0
271
     2
179
     2
275
     0
 78
     8
 79
     2
172
     1
340
18A
  0
ENDTAB
  0
TABLE
  2
BLOCK_RECORD
  5
195
100
AcDbSymbolTable
 70
    12
  0
BLOCK_RECORD
  5
196
100
AcDbSymbolTableRecord
100
AcDbBlockTableRecord
  2
*MODEL_SPACE
  0
BLOCK_RECORD
  5
197
100
AcDbSymbolTableRecord
100
AcDbBlockTableRecord
  2
*PAPER_SPACE
  0
BLOCK_RECORD
  5
198
100
AcDbSymbolTableRecord
100
AcDbBlockTableRecord
  2
*PAPER_SPACE0
  0
BLOCK_RECORD
  5
1
100
AcDbSymbolTableRecord
100
AcDbBlockTableRecord
  2
_NONE
  0
BLOCK_RECORD
  5
4
100
AcDbSymbolTableRecord
100
AcDbBlockTableRecord
  2
_CLOSED
  0
BLOCK_RECORD
  5
B
100
AcDbSymbolTableRecord
100
AcDbBlockTableRecord
  2
_DOT
  0
BLOCK_RECORD
  5
13
100
AcDbSymbolTableRecord
100
AcDbBlockTableRecord
  2
_OPEN
  0
BLOCK_RECORD
  5
19
100
AcDbSymbolTableRecord
100
AcDbBlockTableRecord
  2
_ORIGIN
  0
BLOCK_RECORD
  5
1E
100
AcDbSymbolTableRecord
100
AcDbBlockTableRecord
  2
_OPEN30
  0
BLOCK_RECORD
  5
24
100
AcDbSymbolTableRecord
100
AcDbBlockTableRecord
  2
_BOXFILLED
  0
BLOCK_RECORD
  5
29
100
AcDbSymbolTableRecord
100
AcDbBlockTableRecord
  2
_BOXBLANK
  0
BLOCK_RECORD
  5
31
100
AcDbSymbolTableRecord
100
AcDbBlockTableRecord
  2
_OBLIQUE
  0
BLOCK_RECORD
  5
35
100
AcDbSymbolTableRecord
100
AcDbBlockTableRecord
  2
_OPEN90
  0
BLOCK_RECORD
  5
3B
100
AcDbSymbolTableRecord
100
AcDbBlockTableRecord
  2
_CLOSEDBLANK
  0
BLOCK_RECORD
  5
41
100
AcDbSymbolTableRecord
100
AcDbBlockTableRecord
  2
_DOTBLANK
  0
ENDTAB
  0
ENDSEC
  0
SECTION
  2
BLOCKS
  0
BLOCK
  5
199
100
AcDbEntity
  8
0
100
AcDbBlockBegin
  2
*MODEL_SPACE
 70
     0
 10
0.0
 20
0.0
 30
0.0
  3
*MODEL_SPACE
  1

  0
ENDBLK
  5
19A
100
AcDbEntity
  8
0
100
AcDbBlockEnd
  0
BLOCK
  5
19B
100
AcDbEntity
  8
0
100
AcDbBlockBegin
  2
*PAPER_SPACE
 70
     0
 10
0.0
 20
0.0
 30
0.0
  3
*PAPER_SPACE
  1

  0
ENDBLK
  5
19C
100
AcDbEntity
  8
0
100
AcDbBlockEnd
  0
BLOCK
  5
19D
100
AcDbEntity
  8
0
100
AcDbBlockBegin
  2
*PAPER_SPACE0
 70
     0
 10
0.0
 20
0.0
 30
0.0
  3
*PAPER_SPACE0
  1

  0
ENDBLK
  5
19E
100
AcDbEntity
  8
0
100
AcDbBlockEnd
  0
BLOCK
  5
2
330
1
100
AcDbEntity
  8
0
100
AcDbBlockBegin
  2
_NONE
 70
     0
 10
0.0
 20
0.0
 30
0.0
  3
_NONE
  1

  0
ENDBLK
  5
3
330
1
100
AcDbEntity
  8
0
100
AcDbBlockEnd
  0
BLOCK
  5
5
330
4
100
AcDbEntity
  8
0
100
AcDbBlockBegin
  2
_CLOSED
 70
     0
 10
0.0
 20
0.0
 30
0.0
  3
_CLOSED
  1

  0
LINE
  5
6
330
4
100
AcDbEntity
  8
0
  6
BYBLOCK
 62
     0
370
    -2
100
AcDbLine
 10
-1.0
 20
0.166667
 30
0.0
 11
0.0
 21
0.0
 31
0.0
  0
LINE
  5
7
330
4
100
AcDbEntity
  8
0
  6
BYBLOCK
 62
     0
370
    -2
100
AcDbLine
 10
0.0
 20
0.0
 30
0.0
 11
-1.0
 21
-0.166667
 31
0.0
  0
LINE
  5
8
330
4
100
AcDbEntity
  8
0
  6
BYBLOCK
 62
     0
370
    -2
100
AcDbLine
 10
-1.0
 20
0.166667
 30
0.0
 11
-1.0
 21
-0.166667
 31
0.0
  0
LINE
  5
9
330
4
100
AcDbEntity
  8
0
  6
BYBLOCK
 62
     0
370
    -2
100
AcDbLine
 10
0.0
 20
0.0
 30
0.0
 11
-1.0
 21
0.0
 31
0.0
  0
ENDBLK
  5
A
330
4
100
AcDbEntity
  8
0
100
AcDbBlockEnd
  0
BLOCK
  5
C
330
B
100
AcDbEntity
  8
0
100
AcDbBlockBegin
  2
_DOT
 70
     0
 10
0.0
 20
0.0
 30
0.0
  3
_DOT
  1

  0
POLYLINE
  5
D
330
B
100
AcDbEntity
  8
0
  6
BYBLOCK
 62
     0
370
    -2
100
AcDb2dPolyline
 66
     1
 10
0.0
 20
0.0
 30
0.0
 70
     1
 40
0.5
 41
0.5
  0
VERTEX
  5
E
330
B
100
AcDbEntity
  8
0
  6
BYBLOCK
 62
     0
370
    -2
100
AcDbVertex
100
AcDb2dVertex
 10
-0.25
 20
0.0
 30
0.0
 42
1.0
  0
VERTEX
  5
F
330
B
100
AcDbEntity
  8
0
  6
BYBLOCK
 62
     0
370
    -2
100
AcDbVertex
100
AcDb2dVertex
 10
0.25
 20
0.0
 30
0.0
 42
1.0
  0
SEQEND
  5
10
330
B
100
AcDbEntity
  8
0
  6
BYBLOCK
 62
     0
370
    -2
  0
LINE
  5
11
330
B
100
AcDbEntity
  8
0
  6
BYBLOCK
 62
     0
370
    -2
100
AcDbLine
 10
-0.5
 20
0.0
 30
0.0
 11
-1.0
 21
0.0
 31
0.0
  0
ENDBLK
  5
12
330
B
100
AcDbEntity
  8
0
100
AcDbBlockEnd
  0
BLOCK
  5
14
330
13
100
AcDbEntity
  8
0
100
AcDbBlockBegin
  2
_OPEN
 70
     0
 10
0.0
 20
0.0
 30
0.0
  3
_OPEN
  1

  0
LINE
  5
15
330
13
100
AcDbEntity
  8
0
  6
BYBLOCK
 62
     0
370
    -2
100
AcDbLine
 10
-1.0
 20
0.166667
 30
0.0
 11
0.0
 21
0.0
 31
0.0
  0
LINE
  5
16
330
13
100
AcDbEntity
  8
0
  6
BYBLOCK
 62
     0
370
    -2
100
AcDbLine
 10
0.0
 20
0.0
 30
0.0
 11
-1.0
 21
-0.166667
 31
0.0
  0
LINE
  5
17
330
13
100
AcDbEntity
  8
0
  6
BYBLOCK
 62
     0
370
    -2
100
AcDbLine
 10
0.0
 20
0.0
 30
0.0
 11
-1.0
 21
0.0
 31
0.0
  0
ENDBLK
  5
18
330
13
100
AcDbEntity
  8
0
100
AcDbBlockEnd
  0
BLOCK
  5
1A
330
19
100
AcDbEntity
  8
0
100
AcDbBlockBegin
  2
_ORIGIN
 70
     0
 10
0.0
 20
0.0
 30
0.0
  3
_ORIGIN
  1

  0
CIRCLE
  5
1B
330
19
100
AcDbEntity
  8
0
  6
BYBLOCK
 62
     0
370
    -2
100
AcDbCircle
 10
0.0
 20
0.0
 30
0.0
 40
0.5
  0
LINE
  5
1C
330
19
100
AcDbEntity
  8
0
  6
BYBLOCK
 62
     0
370
    -2
100
AcDbLine
 10
0.0
 20
0.0
 30
0.0
 11
-1.0
 21
0.0
 31
0.0
  0
ENDBLK
  5
1D
330
19
100
AcDbEntity
  8
0
100
AcDbBlockEnd
  0
BLOCK
  5
1F
330
1E
100
AcDbEntity
  8
0
100
AcDbBlockBegin
  2
_OPEN30
 70
     0
 10
0.0
 20
0.0
 30
0.0
  3
_OPEN30
  1

  0
LINE
  5
20
330
1E
100
AcDbEntity
  8
0
  6
BYBLOCK
 62
     0
370
    -2
100
AcDbLine
 10
-1.0
 20
0.267949
 30
0.0
 11
0.0
 21
0.0
 31
0.0
  0
LINE
  5
21
330
1E
100
AcDbEntity
  8
0
  6
BYBLOCK
 62
     0
370
    -2
100
AcDbLine
 10
0.0
 20
0.0
 30
0.0
 11
-1.0
 21
-0.267949
 31
0.0
  0
LINE
  5
22
330
1E
100
AcDbEntity
  8
0
  6
BYBLOCK
 62
     0
370
    -2
100
AcDbLine
 10
0.0
 20
0.0
 30
0.0
 11
-1.0
 21
0.0
 31
0.0
  0
ENDBLK
  5
23
330
1E
100
AcDbEntity
  8
0
100
AcDbBlockEnd
  0
BLOCK
  5
25
330
24
100
AcDbEntity
  8
0
100
AcDbBlockBegin
  2
_BOXFILLED
 70
     0
 10
0.0
 20
0.0
 30
0.0
  3
_BOXFILLED
  1

  0
SOLID
  5
26
330
24
100
AcDbEntity
  8
0
  6
BYBLOCK
 62
     0
370
    -2
100
AcDbTrace
 10
-0.5
 20
0.5
 30
0.0
 11
0.5
 21
0.5
 31
0.0
 12
-0.5
 22
-0.5
 32
0.0
 13
0.5
 23
-0.5
 33
0.0
  0
LINE
  5
27
330
24
100
AcDbEntity
  8
0
  6
BYBLOCK
 62
     0
370
    -2
100
AcDbLine
 10
-0.5
 20
0.0
 30
0.0
 11
-1.0
 21
0.0
 31
0.0
  0
ENDBLK
  5
28
330
24
100
AcDbEntity
  8
0
100
AcDbBlockEnd
  0
BLOCK
  5
2A
330
29
100
AcDbEntity
  8
0
100
AcDbBlockBegin
  2
_BOXBLANK
 70
     0
 10
0.0
 20
0.0
 30
0.0
  3
_BOXBLANK
  1

  0
LINE
  5
2B
330
29
100
AcDbEntity
  8
0
  6
BYBLOCK
 62
     0
370
    -2
100
AcDbLine
 10
-0.5
 20
-0.5
 30
0.0
 11
0.5
 21
-0.5
 31
0.0
  0
LINE
  5
2C
330
29
100
AcDbEntity
  8
0
  6
BYBLOCK
 62
     0
370
    -2
100
AcDbLine
 10
0.5
 20
-0.5
 30
0.0
 11
0.5
 21
0.5
 31
0.0
  0
LINE
  5
2D
330
29
100
AcDbEntity
  8
0
  6
BYBLOCK
 62
     0
370
    -2
100
AcDbLine
 10
0.5
 20
0.5
 30
0.0
 11
-0.5
 21
0.5
 31
0.0
  0
LINE
  5
2E
330
29
100
AcDbEntity
  8
0
  6
BYBLOCK
 62
     0
370
    -2
100
AcDbLine
 10
-0.5
 20
0.5
 30
0.0
 11
-0.5
 21
-0.5
 31
0.0
  0
LINE
  5
2F
330
29
100
AcDbEntity
  8
0
  6
BYBLOCK
 62
     0
370
    -2
100
AcDbLine
 10
-0.5
 20
0.0
 30
0.0
 11
-1.0
 21
0.0
 31
0.0
  0
ENDBLK
  5
30
330
29
100
AcDbEntity
  8
0
100
AcDbBlockEnd
  0
BLOCK
  5
32
330
31
100
AcDbEntity
  8
0
100
AcDbBlockBegin
  2
_OBLIQUE
 70
     0
 10
0.0
 20
0.0
 30
0.0
  3
_OBLIQUE
  1

  0
LINE
  5
33
330
31
100
AcDbEntity
  8
0
  6
BYBLOCK
 62
     0
370
    -2
100
AcDbLine
 10
-0.5
 20
-0.5
 30
0.0
 11
0.5
 21
0.5
 31
0.0
  0
ENDBLK
  5
34
330
31
100
AcDbEntity
  8
0
100
AcDbBlockEnd
  0
BLOCK
  5
36
330
35
100
AcDbEntity
  8
0
100
AcDbBlockBegin
  2
_OPEN90
 70
     0
 10
0.0
 20
0.0
 30
0.0
  3
_OPEN90
  1

  0
LINE
  5
37
330
35
100
AcDbEntity
  8
0
  6
BYBLOCK
 62
     0
370
    -2
100
AcDbLine
 10
-0.5
 20
0.5
 30
0.0
 11
0.0
 21
0.0
 31
0.0
  0
LINE
  5
38
330
35
100
AcDbEntity
  8
0
  6
BYBLOCK
 62
     0
370
    -2
100
AcDbLine
 10
0.0
 20
0.0
 30
0.0
 11
-0.5
 21
-0.5
 31
0.0
  0
LINE
  5
39
330
35
100
AcDbEntity
  8
0
  6
BYBLOCK
 62
     0
370
    -2
100
AcDbLine
 10
0.0
 20
0.0
 30
0.0
 11
-1.0
 21
0.0
 31
0.0
  0
ENDBLK
  5
3A
330
35
100
AcDbEntity
  8
0
100
AcDbBlockEnd
  0
BLOCK
  5
3C
330
3B
100
AcDbEntity
  8
0
100
AcDbBlockBegin
  2
_CLOSEDBLANK
 70
     0
 10
0.0
 20
0.0
 30
0.0
  3
_CLOSEDBLANK
  1

  0
LINE
  5
3D
330
3B
100
AcDbEntity
  8
0
  6
BYBLOCK
 62
     0
370
    -2
100
AcDbLine
 10
-1.0
 20
0.1666666666666666
 30
0.0
 11
0.0
 21
0.0
 31
0.0
  0
LINE
  5
3E
330
3B
100
AcDbEntity
  8
0
  6
BYBLOCK
 62
     0
370
    -2
100
AcDbLine
 10
0.0
 20
0.0
 30
0.0
 11
-1.0
 21
-0.1666666666666666
 31
0.0
  0
LINE
  5
3F
330
3B
100
AcDbEntity
  8
0
  6
BYBLOCK
 62
     0
370
    -2
100
AcDbLine
 10
-1.0
 20
0.1666666666666666
 30
0.0
 11
-1.0
 21
-0.1666666666666666
 31
0.0
  0
ENDBLK
  5
40
330
3B
100
AcDbEntity
  8
0
100
AcDbBlockEnd
  0
BLOCK
  5
42
330
41
100
AcDbEntity
  8
0
100
AcDbBlockBegin
  2
_DOTBLANK
 70
     0
 10
0.0
 20
0.0
 30
0.0
  3
_DOTBLANK
  1

  0
CIRCLE
  5
43
330
41
100
AcDbEntity
  8
0
  6
BYBLOCK
 62
     0
370
    -2
100
AcDbCircle
 10
0.0
 20
0.0
 30
0.0
 40
0.5
  0
LINE
  5
44
330
41
100
AcDbEntity
  8
0
  6
BYBLOCK
 62
     0
370
    -2
100
AcDbLine
 10
-0.5
 20
0.0
 30
0.0
 11
-1.0
 21
0.0
 31
0.0
  0
ENDBLK
  5
45
330
41
100
AcDbEntity
  8
0
100
AcDbBlockEnd
  0
ENDSEC
  0
SECTION
  2
ENTITIES
  0
MTEXT
  5
46
100
AcDbEntity
  8
A8
  6
CONTINUOUS
 62
3
100
AcDbMText
 10
9.999997526638502
 20
18.00000076076889
 30
0.000000000000000
 40
3.000000000000000
 41
0.000000000000000
 44
0.6739999771118164
 71
     7
 72
     1
  1
{\H0.94x;{TYPE No.TCA-540SA-BAU65}}
 11
1.000000000000000
 21
0.000000000000000
 31
0.000000000000000
  7
STANDARD
  0
POINT
  5
47
100
AcDbEntity
  8
A0
  6
CONTINUOUS
 62
3
100
AcDbPoint
 10
9.999997526638502
 20
18.00000076076889
 30
0.000000000000000
  0
POINT
  5
48
100
AcDbEntity
  8
A10
  6
CONTINUOUS
 62
3
100
AcDbPoint
 10
50.00000000000000
 20
50.00000000000000
 30
0.000000000000000
  0
LINE
  5
49
100
AcDbEntity
  8
A1
  6
CONTINUOUS
 62
7
100
AcDbLine
 10
116.0001476943108
 20
120.5277360783232
 30
0.000000000000000
 11
116.8736506962130
 21
86.00000900139584
 31
0.000000000000000
  0
LINE
  5
4A
100
AcDbEntity
  8
A1
  6
CONTINUOUS
 62
7
100
AcDbLine
 10
52.00014770617466
 20
120.5281896189275
 30
0.000000000000000
 11
51.24404269621320
 21
90.64089200139581
 31
0.000000000000000
  0
LINE
  5
4B
100
AcDbEntity
  8
A1
  6
CONTINUOUS
 62
7
100
AcDbLine
 10
57.50014769621314
 20
70.50000900139582
 30
0.000000000000000
 11
61.50014769621314
 21
70.50000900139582
 31
0.000000000000000
  0
ARC
  5
4C
100
AcDbEntity
  8
A1
  6
CONTINUOUS
 62
7
100
AcDbCircle
 10
81.50014769621302
 20
95.50000900139582
 30
0.000000000000000
 40
20.00000000000000
100
AcDbArc
 50
151.0449800000000
 51
179.9999600000000
  0
ARC
  5
4D
100
AcDbEntity
  8
A1
  6
CONTINUOUS
 62
7
100
AcDbCircle
 10
104.8736526962132
 20
86.00000900139582
 30
0.000000000000000
 40
12.00000000000000
100
AcDbArc
 50
332.3182010000000
 51
360.0000000000000
  0
LINE
  5
4E
100
AcDbEntity
  8
A1
  6
CONTINUOUS
 62
7
100
AcDbLine
 10
106.5001476962131
 20
70.50000900139582
 30
0.000000000000000
 11
110.5001476962131
 21
70.50000900139582
 31
0.000000000000000
  0
ARC
  5
4F
100
AcDbEntity
  8
A1
  6
CONTINUOUS
 62
7
100
AcDbCircle
 10
86.50014769621302
 20
95.50000900139582
 30
0.000000000000000
 40
20.00000000000000
100
AcDbArc
 50
0.000000000000000
 51
28.95502299999998
  0
LINE
  5
50
100
AcDbEntity
  8
A1
  6
CONTINUOUS
 62
7
100
AcDbLine
 10
53.40233169621317
 20
124.0000090013958
 30
0.000000000000000
 11
114.5979636962131
 21
124.0000090013958
 31
0.000000000000000
  0
ARC
  5
51
100
AcDbEntity
  8
A1
  6
CONTINUOUS
 62
7
100
AcDbCircle
 10
57.00014769621314
 20
120.5278740013958
 30
0.000000000000000
 40
5.000000000000000
100
AcDbArc
 50
131.8103148957785
 51
179.9963832894956
  0
LINE
  5
52
100
AcDbEntity
  8
A1
  6
CONTINUOUS
 62
7
100
AcDbLine
 10
54.00014769621314
 20
126.0000090013958
 30
0.000000000000000
 11
54.00014769621314
 21
125.0000099563954
 31
0.000000000000000
  0
ARC
  5
53
100
AcDbEntity
  8
A1
  6
CONTINUOUS
 62
7
100
AcDbCircle
 10
111.0001476962131
 20
120.5278740013958
 30
0.000000000000000
 40
5.000000000000000
100
AcDbArc
 50
359.9984195180069
 51
408.1896851042214
  0
LINE
  5
54
100
AcDbEntity
  8
A1
  6
CONTINUOUS
 62
7
100
AcDbLine
 10
114.0001476962131
 20
126.0000090013958
 30
0.000000000000000
 11
114.0001476962131
 21
125.0000099563954
 31
0.000000000000000
  0
ARC
  5
55
100
AcDbEntity
  8
A1
  6
CONTINUOUS
 62
7
100
AcDbCircle
 10
183.5000429764578
 20
119.0000090013958
 30
0.000000000000000
 40
5.000000000000000
100
AcDbArc
 50
89.99998199999999
 51
179.9999600000000
  0
LINE
  5
56
100
AcDbEntity
  8
A1
  6
CONTINUOUS
 62
7
100
AcDbLine
 10
205.9415709764578
 20
76.38403500139577
 30
0.000000000000000
 11
197.2532929764577
 21
121.0813730013957
 31
0.000000000000000
  0
LINE
  5
57
100
AcDbEntity
  8
A1
  6
CONTINUOUS
 62
7
100
AcDbLine
 10
250.5000429764580
 20
115.5000090013959
 30
0.000000000000000
 11
249.1623929764579
 21
122.3816260013959
 31
0.000000000000000
  0
ARC
  5
58
100
AcDbEntity
  8
A1
  6
CONTINUOUS
 62
7
100
AcDbCircle
 10
194.5000429764578
 20
82.50000900139582
 30
0.000000000000000
 40
32.50000000000000
100
AcDbArc
 50
95.59646100000001
 51
367.8018890000001
  0
ARC
  5
59
100
AcDbEntity
  8
A1
  6
CONTINUOUS
 62
7
100
AcDbCircle
 10
167.0031329764580
 20
160.8129740013957
 30
0.000000000000000
 40
95.00000000000000
100
AcDbArc
 50
289.3469700000000
 51
331.5117399999998
  0
ARC
  5
5A
100
AcDbEntity
  8
A1
  6
CONTINUOUS
 62
7
100
AcDbCircle
 10
194.5000429764578
 20
82.50000900139582
 30
0.000000000000000
 40
12.00000000000000
100
AcDbArc
 50
121.2329500000000
 51
289.3469740897816
  0
ARC
  5
5B
100
AcDbEntity
  8
A1
  6
CONTINUOUS
 62
7
100
AcDbCircle
 10
188.6047789764578
 20
109.5000090013958
 30
0.000000000000000
 40
6.000000000000000
100
AcDbArc
 50
25.77261700000000
 51
89.99998199999999
  0
ARC
  5
5C
100
AcDbEntity
  8
A1
  6
CONTINUOUS
 62
7
100
AcDbCircle
 10
180.5000429764578
 20
105.5868010013958
 30
0.000000000000000
 40
15.00000000000000
100
AcDbArc
 50
301.2329299999998
 51
385.7726210000001
  0
LINE
  5
5D
100
AcDbEntity
  8
A1
  6
CONTINUOUS
 62
7
100
AcDbLine
 10
179.1803709764580
 20
115.5000090013958
 30
0.000000000000000
 11
188.6047789764578
 21
115.5000090013958
 31
0.000000000000000
  0
LINE
  5
5E
100
AcDbEntity
  8
A1
  6
CONTINUOUS
 62
7
100
AcDbLine
 10
178.5000429764577
 20
119.0000100013957
 30
0.000000000000000
 11
179.1803709764578
 21
115.5000090013958
 31
0.000000000000000
  0
LINE
  5
5F
100
AcDbEntity
  8
A1
  6
CONTINUOUS
 62
7
100
AcDbLine
 10
183.5000429764578
 20
124.0000090013958
 30
0.000000000000000
 11
247.1991429764576
 21
124.0000090013958
 31
0.000000000000000
  0
ARC
  5
60
100
AcDbEntity
  8
A1
  6
CONTINUOUS
 62
7
100
AcDbCircle
 10
185.5000429764578
 20
125.0000090013958
 30
0.000000000000000
 40
1.000000000000000
100
AcDbArc
 50
270.0000200000000
 51
360.0000000000000
  0
LINE
  5
61
100
AcDbEntity
  8
A1
  6
CONTINUOUS
 62
7
100
AcDbLine
 10
186.5000429764578
 20
126.0000090013958
 30
0.000000000000000
 11
186.5000429764578
 21
125.0000090013958
 31
0.000000000000000
  0
ARC
  5
62
100
AcDbEntity
  8
A1
  6
CONTINUOUS
 62
7
100
AcDbCircle
 10
247.1991429764576
 20
122.0000090013958
 30
0.000000000000000
 40
2.000000000000000
100
AcDbArc
 50
10.99994800000000
 51
71.02079290107375
  0
LINE
  5
63
100
AcDbEntity
  8
A1
  6
CONTINUOUS
 62
7
100
AcDbLine
 10
246.5000429764576
 20
126.0000090013958
 30
0.000000000000000
 11
246.5000429764576
 21
125.7825556554372
 31
0.000000000000000
  0
LINE
  5
64
100
AcDbEntity
  8
A1
  6
CONTINUOUS
 62
7
100
AcDbLine
 10
167.7779992204529
 20
282.0000090014323
 30
0.000000000000000
 11
183.9859525179582
 21
282.0000090014323
 31
0.000000000000000
  0
ARC
  5
65
100
AcDbEntity
  8
A1
  6
CONTINUOUS
 62
7
100
AcDbCircle
 10
167.7779992204529
 20
277.0000090014324
 30
0.000000000000000
 40
5.000000000000000
100
AcDbArc
 50
89.99998000000004
 51
174.0621860000000
  0
LINE
  5
66
100
AcDbEntity
  8
A1
  6
CONTINUOUS
 62
7
100
AcDbLine
 10
167.7779992204529
 20
242.0000090014324
 30
0.000000000000000
 11
183.9859527725938
 21
242.0000090014324
 31
0.000000000000000
  0
ARC
  5
67
100
AcDbEntity
  8
A1
  6
CONTINUOUS
 62
7
100
AcDbCircle
 10
167.7779992204529
 20
247.0000090014322
 30
0.000000000000000
 40
5.000000000000000
100
AcDbArc
 50
185.9377469999999
 51
269.9999519999999
  0
LINE
  5
68
100
AcDbEntity
  8
A1
  6
CONTINUOUS
 62
7
100
AcDbLine
 10
114.5001476962131
 20
91.50000900139575
 30
0.000000000000000
 11
115.5001476962131
 21
89.50000900139571
 31
0.000000000000000
  0
LINE
  5
69
100
AcDbEntity
  8
A1
  6
CONTINUOUS
 62
7
100
AcDbLine
 10
114.5001476962131
 20
91.50000900139582
 30
0.000000000000000
 11
114.5001476962131
 21
73.50000900139582
 31
0.000000000000000
  0
CIRCLE
  5
6A
100
AcDbEntity
  8
A1
  6
CONTINUOUS
 62
7
100
AcDbCircle
 10
194.5000429764578
 20
82.50000900139582
 30
0.000000000000000
 40
9.000000000000000
  0
CIRCLE
  5
6B
100
AcDbEntity
  8
A1
  6
CONTINUOUS
 62
7
100
AcDbCircle
 10
194.5000429764578
 20
82.50000900139582
 30
0.000000000000000
 40
2.500000000000000
  0
CIRCLE
  5
6C
100
AcDbEntity
  8
A1
  6
CONTINUOUS
 62
7
100
AcDbCircle
 10
194.5000429764578
 20
82.50000900139582
 30
0.000000000000000
 40
7.000000000000000
  0
LINE
  5
6D
100
AcDbEntity
  8
A1
  6
CONTINUOUS
 62
7
100
AcDbLine
 10
110.5001476962131
 20
73.50000900139582
 30
0.000000000000000
 11
114.5001476962131
 21
73.50000900139582
 31
0.000000000000000
  0
LINE
  5
6E
100
AcDbEntity
  8
A1
  6
CONTINUOUS
 62
7
100
AcDbLine
 10
115.5001476962131
 20
89.50000900139582
 30
0.000000000000000
 11
115.5001476962131
 21
75.50000900139582
 31
0.000000000000000
  0
LINE
  5
6F
100
AcDbEntity
  8
A1
  6
CONTINUOUS
 62
7
100
AcDbLine
 10
115.5001476962133
 20
75.50000900139590
 30
0.000000000000000
 11
114.5001476962133
 21
73.50000900139587
 31
0.000000000000000
  0
LINE
  5
70
100
AcDbEntity
  8
A1
  6
CONTINUOUS
 62
7
100
AcDbLine
 10
110.5001476962131
 20
91.50000900139582
 30
0.000000000000000
 11
114.5001476962131
 21
91.50000900139582
 31
0.000000000000000
  0
LINE
  5
71
100
AcDbEntity
  8
A1
  6
CONTINUOUS
 62
7
100
AcDbLine
 10
182.5000452204527
 20
284.3479332160525
 30
0.000000000000000
 11
185.4942950886524
 21
284.3479332160525
 31
0.000000000000000
  0
LINE
  5
72
100
AcDbEntity
  8
A1
  6
CONTINUOUS
 62
7
100
AcDbLine
 10
182.5000452204527
 20
288.5000092160526
 30
0.000000000000000
 11
196.7607461846421
 21
288.5000092160527
 31
0.000000000000000
  0
LINE
  5
73
100
AcDbEntity
  8
A1
  6
CONTINUOUS
 62
7
100
AcDbLine
 10
182.5000452204527
 20
235.5000087868125
 30
0.000000000000000
 11
196.7607461846420
 21
235.5000087868123
 31
0.000000000000000
  0
LINE
  5
74
100
AcDbEntity
  8
A1
  6
CONTINUOUS
 62
7
100
AcDbLine
 10
182.5000452204527
 20
239.6520847868122
 30
0.000000000000000
 11
185.4942953865071
 21
239.6520847868124
 31
0.000000000000000
  0
LINE
  5
75
100
AcDbEntity
  8
A1
  6
CONTINUOUS
 62
7
100
AcDbLine
 10
182.5000452204527
 20
288.5000092160525
 30
0.000000000000000
 11
182.5000452204527
 21
284.3479332160525
 31
0.000000000000000
  0
LINE
  5
76
100
AcDbEntity
  8
A1
  6
CONTINUOUS
 62
7
100
AcDbLine
 10
182.5000452204527
 20
239.6520847868122
 30
0.000000000000000
 11
182.5000452204527
 21
235.5000087868125
 31
0.000000000000000
  0
CIRCLE
  5
77
100
AcDbEntity
  8
A2
  6
CONTINUOUS
 62
4
100
AcDbCircle
 10
216.5000452204527
 20
262.0000090014324
 30
0.000000000000000
 40
22.99999880000000
  0
CIRCLE
  5
78
100
AcDbEntity
  8
A1
  6
CONTINUOUS
 62
7
100
AcDbCircle
 10
216.5000452204527
 20
262.0000090014324
 30
0.000000000000000
 40
33.00000000000000
  0
LINE
  5
79
100
AcDbEntity
  8
A1
  6
CONTINUOUS
 62
7
100
AcDbLine
 10
224.8716277298537
 20
276.5000050014324
 30
0.000000000000000
 11
208.1284693298536
 21
276.5000050014324
 31
0.000000000000000
  0
LINE
  5
7A
100
AcDbEntity
  8
A1
  6
CONTINUOUS
 62
7
100
AcDbLine
 10
208.1284670204529
 20
276.5000090014324
 30
0.000000000000000
 11
199.7568892204530
 21
262.0000090014325
 31
0.000000000000000
  0
LINE
  5
7B
100
AcDbEntity
  8
A1
  6
CONTINUOUS
 62
7
100
AcDbLine
 10
199.7568872204527
 20
262.0000090014325
 30
0.000000000000000
 11
208.1284651204529
 21
247.5000050014324
 31
0.000000000000000
  0
LINE
  5
7C
100
AcDbEntity
  8
A1
  6
CONTINUOUS
 62
7
100
AcDbLine
 10
224.8716253204528
 20
247.5000050014324
 30
0.000000000000000
 11
233.2432032204529
 21
262.0000090014323
 31
0.000000000000000
  0
LINE
  5
7D
100
AcDbEntity
  8
A1
  6
CONTINUOUS
 62
7
100
AcDbLine
 10
233.2432032204529
 20
262.0000090014325
 30
0.000000000000000
 11
224.8716254204528
 21
276.5000090014324
 31
0.000000000000000
  0
CIRCLE
  5
7E
100
AcDbEntity
  8
A1
  6
CONTINUOUS
 62
7
100
AcDbCircle
 10
216.5000452204527
 20
262.0000090014324
 30
0.000000000000000
 40
10.00000000000000
  0
CIRCLE
  5
7F
100
AcDbEntity
  8
A2
  6
CONTINUOUS
 62
4
100
AcDbCircle
 10
216.5000452204527
 20
262.0000090014324
 30
0.000000000000000
 40
8.000000000000000
  0
LINE
  5
80
100
AcDbEntity
  8
A1
  6
CONTINUOUS
 62
7
100
AcDbLine
 10
203.5000492204525
 20
230.5000503613065
 30
0.000000000000000
 11
204.7396707994267
 21
231.1198611507936
 31
0.000000000000000
  0
LINE
  5
81
100
AcDbEntity
  8
A1
  6
CONTINUOUS
 62
7
100
AcDbLine
 10
187.5000452204529
 20
231.5000613613067
 30
0.000000000000000
 11
189.5000452204528
 21
230.5000613613067
 31
0.000000000000000
  0
LINE
  5
82
100
AcDbEntity
  8
A1
  6
CONTINUOUS
 62
7
100
AcDbLine
 10
187.5000452204527
 20
235.5000613613066
 30
0.000000000000000
 11
187.5000452204527
 21
231.5000613613066
 31
0.000000000000000
  0
LINE
  5
83
100
AcDbEntity
  8
A1
  6
CONTINUOUS
 62
7
100
AcDbLine
 10
203.5000452204527
 20
230.5000613613066
 30
0.000000000000000
 11
189.5000452204527
 21
230.5000613613066
 31
0.000000000000000
  0
LINE
  5
84
100
AcDbEntity
  8
A1
  6
CONTINUOUS
 62
7
100
AcDbLine
 10
203.7861499971308
 20
231.5000613613066
 30
0.000000000000000
 11
187.5000452204527
 21
231.5000613613066
 31
0.000000000000000
  0
ARC
  5
85
100
AcDbEntity
  8
A1
  6
CONTINUOUS
 62
7
100
AcDbCircle
 10
217.7000486991552
 20
262.0000092160525
 30
0.000000000000000
 40
39.20000347870136
100
AcDbArc
 50
140.2673643368821
 51
219.7325262024268
  0
ARC
  5
86
100
AcDbEntity
  8
A1
  6
CONTINUOUS
 62
7
100
AcDbCircle
 10
190.6299503324190
 20
239.5000087868123
 30
0.000000000000000
 40
4.000000000000000
100
AcDbArc
 50
219.7325262024264
 51
270.0000000000000
  0
ARC
  5
87
100
AcDbEntity
  8
A1
  6
CONTINUOUS
 62
7
100
AcDbCircle
 10
177.3971022204840
 20
282.5001058672061
 30
0.000000000000000
 40
1.000000000000000
100
AcDbArc
 50
89.99997999999960
 51
164.9998900000005
  0
LINE
  5
88
100
AcDbEntity
  8
A1
  6
CONTINUOUS
 62
7
100
AcDbLine
 10
176.4311742204837
 20
282.7589258672061
 30
0.000000000000000
 11
176.2278512204836
 21
282.0001058672060
 31
0.000000000000000
  0
ARC
  5
89
100
AcDbEntity
  8
A1
  6
CONTINUOUS
 62
7
100
AcDbCircle
 10
177.3971022204840
 20
241.5001058672060
 30
0.000000000000000
 40
1.000000000000000
100
AcDbArc
 50
194.9999800000006
 51
269.9999499999998
  0
LINE
  5
8A
100
AcDbEntity
  8
A1
  6
CONTINUOUS
 62
7
100
AcDbLine
 10
176.4311742204839
 20
241.2412858672060
 30
0.000000000000000
 11
176.2278512204837
 21
242.0001058672059
 31
0.000000000000000
  0
LINE
  5
8B
100
AcDbEntity
  8
A1
  6
CONTINUOUS
 62
7
100
AcDbLine
 10
177.3970053546737
 20
283.5000011474821
 30
0.000000000000000
 11
184.9221503577629
 21
283.5000011474821
 31
0.000000000000000
  0
LINE
  5
8C
100
AcDbEntity
  8
A1
  6
CONTINUOUS
 62
7
100
AcDbLine
 10
177.3970053546737
 20
240.5000011474820
 30
0.000000000000000
 11
184.9221609425962
 21
240.5000011474820
 31
0.000000000000000
  0
ARC
  5
8D
100
AcDbEntity
  8
A1
  6
CONTINUOUS
 62
7
100
AcDbCircle
 10
183.6105009764579
 20
134.0117120014323
 30
0.000000000000000
 40
1.500000000000000
100
AcDbArc
 50
270.0000000000000
 51
321.7274899999990
  0
ARC
  5
8E
100
AcDbEntity
  8
A1
  6
CONTINUOUS
 62
7
100
AcDbCircle
 10
193.5000429764578
 20
133.5500120014323
 30
0.000000000000000
 40
6.550000200000000
100
AcDbArc
 50
100.0247599999997
 51
141.7274899999990
  0
ARC
  5
8F
100
AcDbEntity
  8
A1
  6
CONTINUOUS
 62
7
100
AcDbCircle
 10
192.5000429764578
 20
126.0000090014323
 30
0.000000000000000
 40
6.000000000000000
100
AcDbArc
 50
153.2567404580001
 51
179.9999599999992
  0
LINE
  5
90
100
AcDbEntity
  8
A1
  6
CONTINUOUS
 62
7
100
AcDbLine
 10
208.1284649764578
 20
144.0000090014323
 30
0.000000000000000
 11
208.1284649764578
 21
140.0000090014323
 31
0.000000000000000
  0
LINE
  5
91
100
AcDbEntity
  8
A1
  6
CONTINUOUS
 62
7
100
AcDbLine
 10
199.7568869764578
 20
144.0000090014323
 30
0.000000000000000
 11
233.2431989764578
 21
144.0000090014323
 31
0.000000000000000
  0
LINE
  5
92
100
AcDbEntity
  8
A1
  6
CONTINUOUS
 62
7
100
AcDbLine
 10
199.7568869764578
 20
144.0000090014323
 30
0.000000000000000
 11
199.7568869764578
 21
140.0000090014323
 31
0.000000000000000
  0
LINE
  5
93
100
AcDbEntity
  8
A1
  6
CONTINUOUS
 62
7
100
AcDbLine
 10
188.3578079764579
 20
137.6070950014323
 30
0.000000000000000
 11
184.7881119764579
 21
133.0826120014323
 31
0.000000000000000
  0
LINE
  5
94
100
AcDbEntity
  8
A1
  6
CONTINUOUS
 62
7
100
AcDbLine
 10
249.5000429764578
 20
132.5117120014324
 30
0.000000000000000
 11
183.5000429764580
 21
132.5117120014325
 31
0.000000000000000
  0
LINE
  5
95
100
AcDbEntity
  8
A1
  6
CONTINUOUS
 62
7
100
AcDbLine
 10
192.3598529764580
 20
140.0000090014323
 30
0.000000000000000
 11
240.6402409764579
 21
140.0000090014323
 31
0.000000000000000
  0
LINE
  5
96
100
AcDbEntity
  8
A1
  6
CONTINUOUS
 62
7
100
AcDbLine
 10
183.5000429764578
 20
132.5117120014324
 30
0.000000000000000
 11
183.5000429764578
 21
129.5117540014325
 31
0.000000000000000
  0
LINE
  5
97
100
AcDbEntity
  8
A1
  6
CONTINUOUS
 62
7
100
AcDbLine
 10
183.5000429764578
 20
129.5117540014325
 30
0.000000000000000
 11
249.5000429764578
 21
129.5117540014325
 31
0.000000000000000
  0
ARC
  5
98
100
AcDbEntity
  8
A1
  6
CONTINUOUS
 62
7
100
AcDbCircle
 10
239.5000429764578
 20
133.5500120014323
 30
0.000000000000000
 40
6.550000200000000
100
AcDbArc
 50
38.27250400000008
 51
79.97523799999928
  0
ARC
  5
99
100
AcDbEntity
  8
A1
  6
CONTINUOUS
 62
7
100
AcDbCircle
 10
249.3895849764579
 20
134.0117120014323
 30
0.000000000000000
 40
1.500000000000000
100
AcDbArc
 50
218.2725100000010
 51
270.0000000000000
  0
ARC
  5
9A
100
AcDbEntity
  8
A1
  6
CONTINUOUS
 62
7
100
AcDbCircle
 10
240.5000429764576
 20
126.0000090014323
 30
0.000000000000000
 40
6.000000000000000
100
AcDbArc
 50
0.000000000000000
 51
26.74324531281202
  0
LINE
  5
9B
100
AcDbEntity
  8
A1
  6
CONTINUOUS
 62
7
100
AcDbLine
 10
224.8716249764578
 20
144.0000090014323
 30
0.000000000000000
 11
224.8716249764578
 21
140.0000090014323
 31
0.000000000000000
  0
LINE
  5
9C
100
AcDbEntity
  8
A1
  6
CONTINUOUS
 62
7
100
AcDbLine
 10
233.2431989764578
 20
144.0000090014323
 30
0.000000000000000
 11
233.2431989764578
 21
140.0000090014323
 31
0.000000000000000
  0
LINE
  5
9D
100
AcDbEntity
  8
A1
  6
CONTINUOUS
 62
7
100
AcDbLine
 10
244.6422779764581
 20
137.6070950014325
 30
0.000000000000000
 11
248.2119719764581
 21
133.0826090014325
 31
0.000000000000000
  0
LINE
  5
9E
100
AcDbEntity
  8
A1
  6
CONTINUOUS
 62
7
100
AcDbLine
 10
249.5000429764578
 20
132.5117120014323
 30
0.000000000000000
 11
249.5000429764578
 21
129.5117540014325
 31
0.000000000000000
  0
LINE
  5
9F
100
AcDbEntity
  8
A1
  6
CONTINUOUS
 62
7
100
AcDbLine
 10
208.5000469764452
 20
184.0000090014326
 30
0.000000000000000
 11
206.5000429764580
 21
182.0000050014453
 31
0.000000000000000
  0
LINE
  5
A0
100
AcDbEntity
  8
A2
  6
CONTINUOUS
 62
4
100
AcDbLine
 10
208.5000469764451
 20
184.0000090014324
 30
0.000000000000000
 11
208.5000469764451
 21
147.4641175447512
 31
0.000000000000000
  0
LINE
  5
A1
100
AcDbEntity
  8
A2
  6
CONTINUOUS
 62
4
100
AcDbLine
 10
208.5000469764452
 20
147.4641175447512
 30
0.000000000000000
 11
206.5000429764580
 21
144.0000090014322
 31
0.000000000000000
  0
LINE
  5
A2
100
AcDbEntity
  8
A1
  6
CONTINUOUS
 62
7
100
AcDbLine
 10
206.5000429764578
 20
182.0000050014451
 30
0.000000000000000
 11
206.5000429764578
 21
144.0000090014323
 31
0.000000000000000
  0
LINE
  5
A3
100
AcDbEntity
  8
A1
  6
CONTINUOUS
 62
7
100
AcDbLine
 10
206.5000429764578
 20
147.4641175447512
 30
0.000000000000000
 11
226.5000429764578
 21
147.4641175447512
 31
0.000000000000000
  0
LINE
  5
A4
100
AcDbEntity
  8
A2
  6
CONTINUOUS
 62
4
100
AcDbLine
 10
224.5000389764708
 20
184.0000090014325
 30
0.000000000000000
 11
224.5000389764706
 21
147.4641175447512
 31
0.000000000000000
  0
LINE
  5
A5
100
AcDbEntity
  8
A1
  6
CONTINUOUS
 62
7
100
AcDbLine
 10
208.5000469764451
 20
184.0000090014324
 30
0.000000000000000
 11
224.5000389764706
 21
184.0000090014324
 31
0.000000000000000
  0
LINE
  5
A6
100
AcDbEntity
  8
A1
  6
CONTINUOUS
 62
7
100
AcDbLine
 10
206.5000429764578
 20
182.0000050014451
 30
0.000000000000000
 11
226.5000429764578
 21
182.0000050014451
 31
0.000000000000000
  0
LINE
  5
A7
100
AcDbEntity
  8
A1
  6
CONTINUOUS
 62
7
100
AcDbLine
 10
224.5000389764707
 20
184.0000090014323
 30
0.000000000000000
 11
226.5000429764578
 21
182.0000050014451
 31
0.000000000000000
  0
LINE
  5
A8
100
AcDbEntity
  8
A1
  6
CONTINUOUS
 62
7
100
AcDbLine
 10
226.5000429764578
 20
182.0000050014451
 30
0.000000000000000
 11
226.5000429764578
 21
144.0000090014323
 31
0.000000000000000
  0
LINE
  5
A9
100
AcDbEntity
  8
A2
  6
CONTINUOUS
 62
4
100
AcDbLine
 10
224.5000389764708
 20
147.4641175447512
 30
0.000000000000000
 11
226.5000429764579
 21
144.0000090014324
 31
0.000000000000000
  0
LINE
  5
AA
100
AcDbEntity
  8
A1
  6
CONTINUOUS
 62
7
100
AcDbLine
 10
187.1418529764579
 20
128.6999679809607
 30
0.000000000000000
 11
245.8582349764577
 21
128.6999679809607
 31
0.000000000000000
  0
LINE
  5
AB
100
AcDbEntity
  8
A1
  6
CONTINUOUS
 62
7
100
AcDbLine
 10
246.3212850598639
 20
129.5117540014324
 30
0.000000000000000
 11
245.8582349764579
 21
128.6999739809607
 31
0.000000000000000
  0
LINE
  5
AC
100
AcDbEntity
  8
A1
  6
CONTINUOUS
 62
7
100
AcDbLine
 10
186.6787916580937
 20
129.5117540014325
 30
0.000000000000000
 11
187.1418529764578
 21
128.6999669809607
 31
0.000000000000000
  0
ARC
  5
AD
100
AcDbEntity
  8
A1
  6
CONTINUOUS
 62
7
100
AcDbCircle
 10
107.0000429764577
 20
133.5500120014323
 30
0.000000000000000
 40
6.550000200000000
100
AcDbArc
 50
38.27250400000008
 51
79.97523799999928
  0
ARC
  5
AE
100
AcDbEntity
  8
A1
  6
CONTINUOUS
 62
7
100
AcDbCircle
 10
51.11050297645787
 20
134.0117120014323
 30
0.000000000000000
 40
1.500000000000000
100
AcDbArc
 50
270.0000000000000
 51
321.7274899999998
  0
ARC
  5
AF
100
AcDbEntity
  8
A1
  6
CONTINUOUS
 62
7
100
AcDbCircle
 10
61.00004297645788
 20
133.5500120014323
 30
0.000000000000000
 40
6.550000200000000
100
AcDbArc
 50
100.0247599999996
 51
141.7274899999998
  0
ARC
  5
B0
100
AcDbEntity
  8
A1
  6
CONTINUOUS
 62
7
100
AcDbCircle
 10
116.8895849764578
 20
134.0117120014323
 30
0.000000000000000
 40
1.500000000000000
100
AcDbArc
 50
218.2725100000001
 51
270.0000000000000
  0
ARC
  5
B1
100
AcDbEntity
  8
A1
  6
CONTINUOUS
 62
7
100
AcDbCircle
 10
60.00004297645783
 20
126.0000090014323
 30
0.000000000000000
 40
6.000000000000000
100
AcDbArc
 50
153.2567404579975
 51
180.3036500000002
  0
ARC
  5
B2
100
AcDbEntity
  8
A1
  6
CONTINUOUS
 62
7
100
AcDbCircle
 10
108.0000429764577
 20
126.0000090014323
 30
0.000000000000000
 40
6.000000000000000
100
AcDbArc
 50
0.000000000000000
 51
26.74324531281202
  0
LINE
  5
B3
100
AcDbEntity
  8
A1
  6
CONTINUOUS
 62
7
100
AcDbLine
 10
98.50004297645782
 20
144.0000090014323
 30
0.000000000000000
 11
98.50004297645782
 21
140.0000090014323
 31
0.000000000000000
  0
LINE
  5
B4
100
AcDbEntity
  8
A1
  6
CONTINUOUS
 62
7
100
AcDbLine
 10
69.50004297645788
 20
144.0000090014323
 30
0.000000000000000
 11
69.50004297645788
 21
140.0000090014323
 31
0.000000000000000
  0
LINE
  5
B5
100
AcDbEntity
  8
A2
  6
CONTINUOUS
 62
4
100
AcDbLine
 10
92.00003897647063
 20
147.4641175447512
 30
0.000000000000000
 11
94.00004297645783
 21
144.0000090014323
 31
0.000000000000000
  0
LINE
  5
B6
100
AcDbEntity
  8
A1
  6
CONTINUOUS
 62
7
100
AcDbLine
 10
94.00004297645782
 20
182.0000050014451
 30
0.000000000000000
 11
94.00004297645782
 21
144.0000090014323
 31
0.000000000000000
  0
LINE
  5
B7
100
AcDbEntity
  8
A1
  6
CONTINUOUS
 62
7
100
AcDbLine
 10
92.00003897647059
 20
184.0000090014323
 30
0.000000000000000
 11
94.00004297645776
 21
182.0000050014450
 31
0.000000000000000
  0
LINE
  5
B8
100
AcDbEntity
  8
A1
  6
CONTINUOUS
 62
7
100
AcDbLine
 10
74.00004297645782
 20
182.0000050014451
 30
0.000000000000000
 11
94.00004297645782
 21
182.0000050014451
 31
0.000000000000000
  0
LINE
  5
B9
100
AcDbEntity
  8
A1
  6
CONTINUOUS
 62
7
100
AcDbLine
 10
76.00004697644508
 20
184.0000090014323
 30
0.000000000000000
 11
92.00003897647068
 21
184.0000090014323
 31
0.000000000000000
  0
LINE
  5
BA
100
AcDbEntity
  8
A1
  6
CONTINUOUS
 62
7
100
AcDbLine
 10
69.50004297645788
 20
144.0000090014323
 30
0.000000000000000
 11
98.50004297645782
 21
144.0000090014323
 31
0.000000000000000
  0
LINE
  5
BB
100
AcDbEntity
  8
A1
  6
CONTINUOUS
 62
7
100
AcDbLine
 10
55.85781297645782
 20
137.6070970014323
 30
0.000000000000000
 11
52.28810297645790
 21
133.0826140014324
 31
0.000000000000000
  0
LINE
  5
BC
100
AcDbEntity
  8
A2
  6
CONTINUOUS
 62
4
100
AcDbLine
 10
92.00003897647068
 20
184.0000090014323
 30
0.000000000000000
 11
92.00003897647068
 21
147.4641175447512
 31
0.000000000000000
  0
LINE
  5
BD
100
AcDbEntity
  8
A1
  6
CONTINUOUS
 62
7
100
AcDbLine
 10
117.0000429764578
 20
132.5117120014323
 30
0.000000000000000
 11
51.00004297645783
 21
132.5117120014323
 31
0.000000000000000
  0
LINE
  5
BE
100
AcDbEntity
  8
A1
  6
CONTINUOUS
 62
7
100
AcDbLine
 10
112.1422779764580
 20
137.6070970014324
 30
0.000000000000000
 11
115.7119759764579
 21
133.0826110014324
 31
0.000000000000000
  0
LINE
  5
BF
100
AcDbEntity
  8
A1
  6
CONTINUOUS
 62
7
100
AcDbLine
 10
74.00004297645782
 20
147.4641175447512
 30
0.000000000000000
 11
94.00004297645782
 21
147.4641175447512
 31
0.000000000000000
  0
LINE
  5
C0
100
AcDbEntity
  8
A1
  6
CONTINUOUS
 62
7
100
AcDbLine
 10
59.85985297645787
 20
140.0000090014323
 30
0.000000000000000
 11
108.1402409764578
 21
140.0000090014323
 31
0.000000000000000
  0
LINE
  5
C1
100
AcDbEntity
  8
A1
  6
CONTINUOUS
 62
7
100
AcDbLine
 10
117.0000429764578
 20
132.5117120014323
 30
0.000000000000000
 11
117.0000429764578
 21
129.5117540014323
 31
0.000000000000000
  0
LINE
  5
C2
100
AcDbEntity
  8
A1
  6
CONTINUOUS
 62
7
100
AcDbLine
 10
51.00004297645783
 20
132.5117120014323
 30
0.000000000000000
 11
51.00004297645783
 21
129.5117540014323
 31
0.000000000000000
  0
LINE
  5
C3
100
AcDbEntity
  8
A1
  6
CONTINUOUS
 62
7
100
AcDbLine
 10
51.00004297645783
 20
129.5117540014323
 30
0.000000000000000
 11
117.0000429764578
 21
129.5117540014323
 31
0.000000000000000
  0
LINE
  5
C4
100
AcDbEntity
  8
A1
  6
CONTINUOUS
 62
7
100
AcDbLine
 10
74.00004297645782
 20
182.0000050014451
 30
0.000000000000000
 11
74.00004297645782
 21
144.0000090014323
 31
0.000000000000000
  0
LINE
  5
C5
100
AcDbEntity
  8
A2
  6
CONTINUOUS
 62
4
100
AcDbLine
 10
76.00004697644516
 20
147.4641175447511
 30
0.000000000000000
 11
74.00004297645806
 21
144.0000090014324
 31
0.000000000000000
  0
LINE
  5
C6
100
AcDbEntity
  8
A2
  6
CONTINUOUS
 62
4
100
AcDbLine
 10
76.00004697644508
 20
184.0000090014323
 30
0.000000000000000
 11
76.00004697644508
 21
147.4641175447512
 31
0.000000000000000
  0
LINE
  5
C7
100
AcDbEntity
  8
A1
  6
CONTINUOUS
 62
7
100
AcDbLine
 10
76.00004697644522
 20
184.0000090014324
 30
0.000000000000000
 11
74.00004297645796
 21
182.0000050014451
 31
0.000000000000000
  0
LINE
  5
C8
100
AcDbEntity
  8
A1
  6
CONTINUOUS
 62
7
100
AcDbLine
 10
54.64185297645790
 20
128.6999679809607
 30
0.000000000000000
 11
113.3582349764579
 21
128.6999679809607
 31
0.000000000000000
  0
LINE
  5
C9
100
AcDbEntity
  8
A1
  6
CONTINUOUS
 62
7
100
AcDbLine
 10
113.8212850598637
 20
129.5117540014325
 30
0.000000000000000
 11
113.3582349764578
 21
128.6999739809608
 31
0.000000000000000
  0
LINE
  5
CA
100
AcDbEntity
  8
A1
  6
CONTINUOUS
 62
7
100
AcDbLine
 10
54.17879165809359
 20
129.5117540014322
 30
0.000000000000000
 11
54.64185297645768
 21
128.6999669809606
 31
0.000000000000000
  0
ARC
  5
CB
100
AcDbEntity
  8
A1
  6
CONTINUOUS
 62
7
100
AcDbCircle
 10
115.0001476962131
 20
125.0000099563954
 30
0.000000000000000
 40
1.000000000000000
100
AcDbArc
 50
180.0000000000000
 51
228.1896851042222
  0
ARC
  5
CC
100
AcDbEntity
  8
A1
  6
CONTINUOUS
 62
7
100
AcDbCircle
 10
53.00014769621314
 20
125.0000099563954
 30
0.000000000000000
 40
1.000000000000000
100
AcDbArc
 50
311.8103148957785
 51
360.0000000000000
  0
LINE
  5
CD
100
AcDbEntity
  8
A1
  6
CONTINUOUS
 62
7
100
AcDbLine
 10
84.00004297645782
 20
144.0000090014323
 30
0.000000000000000
 11
84.00004297645782
 21
140.0000090014323
 31
0.000000000000000
  0
LINE
  5
CE
100
AcDbEntity
  8
A1
  6
CONTINUOUS
 62
7
100
AcDbLine
 10
49.99997061658388
 20
86.75000500139582
 30
0.000000000000000
 11
50.74997061658384
 21
87.50000500139579
 31
0.000000000000000
  0
LINE
  5
CF
100
AcDbEntity
  8
A1
  6
CONTINUOUS
 62
7
100
AcDbLine
 10
50.74997061658370
 20
77.49999400139578
 30
0.000000000000000
 11
49.99997061658374
 21
78.24999400139575
 31
0.000000000000000
  0
LINE
  5
D0
100
AcDbEntity
  8
A1
  6
CONTINUOUS
 62
7
100
AcDbLine
 10
50.74999061658375
 20
87.50000900139577
 30
0.000000000000000
 11
50.74999061658375
 21
77.50000900139582
 31
0.000000000000000
  0
LINE
  5
D1
100
AcDbEntity
  8
A1
  6
CONTINUOUS
 62
7
100
AcDbLine
 10
49.99999061658375
 20
86.75000900139582
 30
0.000000000000000
 11
49.99999061658375
 21
78.25000900139582
 31
0.000000000000000
  0
LINE
  5
D2
100
AcDbEntity
  8
A2
  6
CONTINUOUS
 62
4
100
AcDbLine
 10
49.99999061658377
 20
78.25000900139588
 30
0.000000000000000
 11
50.89999061658380
 21
78.25000900139587
 31
0.000000000000000
  0
LINE
  5
D3
100
AcDbEntity
  8
A2
  6
CONTINUOUS
 62
4
100
AcDbLine
 10
49.99999061658377
 20
86.75000900139581
 30
0.000000000000000
 11
50.89999061658385
 21
86.75000900139578
 31
0.000000000000000
  0
LINE
  5
D4
100
AcDbEntity
  8
A1
  6
CONTINUOUS
 62
7
100
AcDbLine
 10
50.74999061658375
 20
87.50000900139577
 30
0.000000000000000
 11
50.89999061658379
 21
87.50000900139577
 31
0.000000000000000
  0
LINE
  5
D5
100
AcDbEntity
  8
A1
  6
CONTINUOUS
 62
7
100
AcDbLine
 10
50.74999061658375
 20
77.50000900139582
 30
0.000000000000000
 11
50.89999061658379
 21
77.50000900139582
 31
0.000000000000000
  0
LINE
  5
D6
100
AcDbEntity
  8
A1
  6
CONTINUOUS
 62
7
100
AcDbLine
 10
57.51020645596725
 20
91.01022562615940
 30
0.000000000000000
 11
57.50004580705357
 21
74.00005831605395
 31
0.000000000000000
  0
LINE
  5
D7
100
AcDbEntity
  8
A1
  6
CONTINUOUS
 62
7
100
AcDbLine
 10
52.10005480705380
 20
74.00005831605392
 30
0.000000000000000
 11
52.50004580705374
 21
74.00005831605392
 31
0.000000000000000
  0
LINE
  5
D8
100
AcDbEntity
  8
A1
  6
CONTINUOUS
 62
7
100
AcDbLine
 10
57.00004580705380
 20
78.25741691605396
 30
0.000000000000000
 11
57.00004580705380
 21
77.26016631605387
 31
0.000000000000000
  0
LINE
  5
D9
100
AcDbEntity
  8
A1
  6
CONTINUOUS
 62
7
100
AcDbLine
 10
53.00004580705380
 20
77.02564231605390
 30
0.000000000000000
 11
53.00004580705380
 21
78.72646431605392
 31
0.000000000000000
  0
LINE
  5
DA
100
AcDbEntity
  8
A1
  6
CONTINUOUS
 62
7
100
AcDbLine
 10
57.51020645596740
 20
74.01022562615924
 30
0.000000000000000
 11
57.01020745596738
 21
73.01022562615927
 31
0.000000000000000
  0
LINE
  5
DB
100
AcDbEntity
  8
A1
  6
CONTINUOUS
 62
7
100
AcDbLine
 10
53.00004580705372
 20
73.20005831605397
 30
0.000000000000000
 11
52.50004620705367
 21
74.00005831605399
 31
0.000000000000000
  0
LINE
  5
DC
100
AcDbEntity
  8
A1
  6
CONTINUOUS
 62
7
100
AcDbLine
 10
57.00004580705387
 20
73.00005831605398
 30
0.000000000000000
 11
53.00004580705377
 21
73.25204631605398
 31
0.000000000000000
  0
LINE
  5
DD
100
AcDbEntity
  8
A1
  6
CONTINUOUS
 62
7
100
AcDbLine
 10
53.00004580705385
 20
73.20005631605390
 30
0.000000000000000
 11
57.00004480705392
 21
73.00005831605391
 31
0.000000000000000
  0
LINE
  5
DE
100
AcDbEntity
  8
A1
  6
CONTINUOUS
 62
7
100
AcDbLine
 10
57.00004480705383
 20
78.25741871605393
 30
0.000000000000000
 11
53.00004580705384
 21
78.72646631605394
 31
0.000000000000000
  0
LINE
  5
DF
100
AcDbEntity
  8
A1
  6
CONTINUOUS
 62
7
100
AcDbLine
 10
53.00004540705397
 20
77.02564231605400
 30
0.000000000000000
 11
57.00004580705397
 21
77.26016631605394
 31
0.000000000000000
  0
LINE
  5
E0
100
AcDbEntity
  8
A1
  6
CONTINUOUS
 62
7
100
AcDbLine
 10
53.00004580705380
 20
73.20005831605391
 30
0.000000000000000
 11
53.00004580705380
 21
73.25204631605391
 31
0.000000000000000
  0
LINE
  5
E1
100
AcDbEntity
  8
A1
  6
CONTINUOUS
 62
7
100
AcDbLine
 10
50.90005500705374
 20
89.80005851605392
 30
0.000000000000000
 11
50.90005500705374
 21
75.19929936953139
 31
0.000000000000000
  0
LINE
  5
E2
100
AcDbEntity
  8
A1
  6
CONTINUOUS
 62
7
100
AcDbLine
 10
52.50004580705366
 20
91.00005831605394
 30
0.000000000000000
 11
52.50004580705365
 21
74.00005831605394
 31
0.000000000000000
  0
LINE
  5
E3
100
AcDbEntity
  8
A1
  6
CONTINUOUS
 62
7
100
AcDbLine
 10
57.00004580705381
 20
86.74269871605401
 30
0.000000000000000
 11
53.00004580705390
 21
86.27365031605390
 31
0.000000000000000
  0
LINE
  5
E4
100
AcDbEntity
  8
A1
  6
CONTINUOUS
 62
7
100
AcDbLine
 10
53.00004580705370
 20
87.97447511605394
 30
0.000000000000000
 11
57.00004580705370
 21
87.73995131605393
 31
0.000000000000000
  0
LINE
  5
E5
100
AcDbEntity
  8
A1
  6
CONTINUOUS
 62
7
100
AcDbLine
 10
53.00004580705380
 20
87.97447511605390
 30
0.000000000000000
 11
53.00004580705380
 21
86.27365031605382
 31
0.000000000000000
  0
LINE
  5
E6
100
AcDbEntity
  8
A1
  6
CONTINUOUS
 62
7
100
AcDbLine
 10
52.10005480705380
 20
91.00005831605392
 30
0.000000000000000
 11
52.50004580705374
 21
91.00005831605392
 31
0.000000000000000
  0
ARC
  5
E7
100
AcDbEntity
  8
A1
  6
CONTINUOUS
 62
7
100
AcDbCircle
 10
52.10005480705380
 20
75.20005831605391
 30
0.000000000000000
 40
1.200000039999999
100
AcDbArc
 50
180.0000030000009
 51
270.0000099999978
  0
ARC
  5
E8
100
AcDbEntity
  8
A1
  6
CONTINUOUS
 62
7
100
AcDbCircle
 10
52.71291840705371
 20
75.13011231605395
 30
0.000000000000000
 40
4.787128000000000
100
AcDbArc
 50
333.5795799999947
 51
386.4204200000054
  0
ARC
  5
E9
100
AcDbEntity
  8
A1
  6
CONTINUOUS
 62
7
100
AcDbCircle
 10
56.31005200705372
 20
75.13884231605391
 30
0.000000000000000
 40
3.810005999999998
100
AcDbArc
 50
150.3156250000020
 51
209.6843800000054
  0
ARC
  5
EA
100
AcDbEntity
  8
A1
  6
CONTINUOUS
 62
7
100
AcDbCircle
 10
52.10005480705380
 20
89.80005851605392
 30
0.000000000000000
 40
1.200000039999999
100
AcDbArc
 50
90.00000000000000
 51
180.0000030000009
  0
ARC
  5
EB
100
AcDbEntity
  8
A1
  6
CONTINUOUS
 62
7
100
AcDbCircle
 10
66.99004580705375
 20
82.50005831605392
 30
0.000000000000000
 40
14.48999980000000
100
AcDbArc
 50
164.9045809999948
 51
195.0954199999996
  0
LINE
  5
EC
100
AcDbEntity
  8
A1
  6
CONTINUOUS
 62
7
100
AcDbLine
 10
57.00004580705374
 20
86.74269871605399
 30
0.000000000000000
 11
57.00004580705379
 21
87.73995131605396
 31
0.000000000000000
  0
ARC
  5
ED
100
AcDbEntity
  8
A1
  6
CONTINUOUS
 62
7
100
AcDbCircle
 10
39.25006377646205
 20
82.50006114664984
 30
0.000000000000000
 40
18.24998203059178
100
AcDbArc
 50
346.5572422592535
 51
373.4427453273010
  0
LINE
  5
EE
100
AcDbEntity
  8
A1
  6
CONTINUOUS
 62
7
100
AcDbLine
 10
57.51020645596748
 20
91.01022562615948
 30
0.000000000000000
 11
57.01020745596746
 21
92.01022562615947
 31
0.000000000000000
  0
LINE
  5
EF
100
AcDbEntity
  8
A1
  6
CONTINUOUS
 62
7
100
AcDbLine
 10
53.00004580705387
 20
91.80005831605406
 30
0.000000000000000
 11
52.50004620705378
 21
91.00005831605399
 31
0.000000000000000
  0
LINE
  5
F0
100
AcDbEntity
  8
A1
  6
CONTINUOUS
 62
7
100
AcDbLine
 10
57.00004580705382
 20
92.00005831605391
 30
0.000000000000000
 11
53.00004580705384
 21
91.74807031605393
 31
0.000000000000000
  0
LINE
  5
F1
100
AcDbEntity
  8
A1
  6
CONTINUOUS
 62
7
100
AcDbLine
 10
53.00004580705376
 20
91.80006031605404
 30
0.000000000000000
 11
57.00004480705373
 21
92.00005831605402
 31
0.000000000000000
  0
LINE
  5
F2
100
AcDbEntity
  8
A1
  6
CONTINUOUS
 62
7
100
AcDbLine
 10
53.00004580705380
 20
91.80005831605393
 30
0.000000000000000
 11
53.00004580705380
 21
91.74807031605394
 31
0.000000000000000
  0
ARC
  5
F3
100
AcDbEntity
  8
A1
  6
CONTINUOUS
 62
7
100
AcDbCircle
 10
52.70275109694828
 20
89.85984266714030
 30
0.000000000000000
 40
4.787128000000000
100
AcDbArc
 50
333.5795799999947
 51
386.4204200000054
  0
ARC
  5
F4
100
AcDbEntity
  8
A1
  6
CONTINUOUS
 62
7
100
AcDbCircle
 10
56.31005200705372
 20
89.86127431605399
 30
0.000000000000000
 40
3.810005999999998
100
AcDbArc
 50
150.3156199999956
 51
209.6843749999980
  0
LINE
  5
F5
100
AcDbEntity
  8
A1
  6
CONTINUOUS
 62
7
100
AcDbLine
 10
200.7500412204527
 20
296.0000813613065
 30
0.000000000000000
 11
201.5000412204527
 21
295.2500813613063
 31
0.000000000000000
  0
LINE
  5
F6
100
AcDbEntity
  8
A1
  6
CONTINUOUS
 62
7
100
AcDbLine
 10
191.5000302204526
 20
295.2500813613061
 30
0.000000000000000
 11
192.2500302204527
 21
296.0000813613063
 31
0.000000000000000
  0
LINE
  5
F7
100
AcDbEntity
  8
A1
  6
CONTINUOUS
 62
7
100
AcDbLine
 10
201.5000452204527
 20
295.2500613613065
 30
0.000000000000000
 11
191.5000452204527
 21
295.2500613613065
 31
0.000000000000000
  0
LINE
  5
F8
100
AcDbEntity
  8
A1
  6
CONTINUOUS
 62
7
100
AcDbLine
 10
200.7500452204527
 20
296.0000613613065
 30
0.000000000000000
 11
192.2500452204527
 21
296.0000613613065
 31
0.000000000000000
  0
LINE
  5
F9
100
AcDbEntity
  8
A2
  6
CONTINUOUS
 62
4
100
AcDbLine
 10
192.2500452204527
 20
296.0000613613065
 30
0.000000000000000
 11
192.2500452204527
 21
295.1000613613066
 31
0.000000000000000
  0
LINE
  5
FA
100
AcDbEntity
  8
A2
  6
CONTINUOUS
 62
4
100
AcDbLine
 10
200.7500452204527
 20
296.0000613613065
 30
0.000000000000000
 11
200.7500452204527
 21
295.1000613613066
 31
0.000000000000000
  0
LINE
  5
FB
100
AcDbEntity
  8
A1
  6
CONTINUOUS
 62
7
100
AcDbLine
 10
201.5000452204527
 20
295.2500613613065
 30
0.000000000000000
 11
201.5000452204527
 21
295.1000613613066
 31
0.000000000000000
  0
LINE
  5
FC
100
AcDbEntity
  8
A1
  6
CONTINUOUS
 62
7
100
AcDbLine
 10
191.5000452204527
 20
295.2500613613065
 30
0.000000000000000
 11
191.5000452204527
 21
295.1000613613066
 31
0.000000000000000
  0
LINE
  5
FD
100
AcDbEntity
  8
A1
  6
CONTINUOUS
 62
7
100
AcDbLine
 10
189.2000452204528
 20
295.1000000160525
 30
0.000000000000000
 11
203.8008033670752
 21
295.1000000160525
 31
0.000000000000000
  0
LINE
  5
FE
100
AcDbEntity
  8
A1
  6
CONTINUOUS
 62
7
100
AcDbLine
 10
188.0000452204527
 20
293.5000092160525
 30
0.000000000000000
 11
205.0000452204527
 21
293.5000092160525
 31
0.000000000000000
  0
LINE
  5
FF
100
AcDbEntity
  8
A1
  6
CONTINUOUS
 62
7
100
AcDbLine
 10
188.0000452204527
 20
288.5000092160525
 30
0.000000000000000
 11
196.8340850703574
 21
288.5000092160525
 31
0.000000000000000
  0
LINE
  5
100
100
AcDbEntity
  8
A1
  6
CONTINUOUS
 62
7
100
AcDbLine
 10
188.0000452204527
 20
289.0000092160525
 30
0.000000000000000
 11
188.5758104204527
 21
289.0000092160525
 31
0.000000000000000
  0
LINE
  5
101
100
AcDbEntity
  8
A1
  6
CONTINUOUS
 62
7
100
AcDbLine
 10
188.0000452204527
 20
293.0000092160525
 30
0.000000000000000
 11
188.9820178204528
 21
293.0000092160525
 31
0.000000000000000
  0
LINE
  5
102
100
AcDbEntity
  8
A1
  6
CONTINUOUS
 62
7
100
AcDbLine
 10
188.0000452204527
 20
293.9000002160525
 30
0.000000000000000
 11
188.0000452204527
 21
288.5000092160525
 31
0.000000000000000
  0
LINE
  5
103
100
AcDbEntity
  8
A1
  6
CONTINUOUS
 62
7
100
AcDbLine
 10
195.9242806204528
 20
289.0000092160525
 30
0.000000000000000
 11
196.5000452204527
 21
289.0000092160525
 31
0.000000000000000
  0
LINE
  5
104
100
AcDbEntity
  8
A1
  6
CONTINUOUS
 62
7
100
AcDbLine
 10
195.5180726204527
 20
293.0000092160525
 30
0.000000000000000
 11
196.5000452204527
 21
293.0000092160525
 31
0.000000000000000
  0
LINE
  5
105
100
AcDbEntity
  8
A1
  6
CONTINUOUS
 62
7
100
AcDbLine
 10
188.5758104204528
 20
289.0000092160525
 30
0.000000000000000
 11
188.9820178204528
 21
293.0000092160526
 31
0.000000000000000
  0
LINE
  5
106
100
AcDbEntity
  8
A1
  6
CONTINUOUS
 62
7
100
AcDbLine
 10
195.5180726204528
 20
293.0000096160525
 30
0.000000000000000
 11
195.9242806204528
 21
289.0000092160525
 31
0.000000000000000
  0
LINE
  5
107
100
AcDbEntity
  8
A1
  6
CONTINUOUS
 62
7
100
AcDbLine
 10
197.4820178204528
 20
293.0000092160525
 30
0.000000000000000
 11
196.5000452204527
 21
293.0000092160525
 31
0.000000000000000
  0
LINE
  5
108
100
AcDbEntity
  8
A1
  6
CONTINUOUS
 62
7
100
AcDbLine
 10
197.0758098204527
 20
289.0000092160525
 30
0.000000000000000
 11
196.5000452204527
 21
289.0000092160525
 31
0.000000000000000
  0
LINE
  5
109
100
AcDbEntity
  8
A1
  6
CONTINUOUS
 62
7
100
AcDbLine
 10
204.0621178004902
 20
292.5662969915654
 30
0.000000000000000
 11
204.0180734204527
 21
293.0000096160525
 31
0.000000000000000
  0
LINE
  5
10A
100
AcDbEntity
  8
A1
  6
CONTINUOUS
 62
7
100
AcDbLine
 10
197.4820178204526
 20
293.0000092160526
 30
0.000000000000000
 11
197.0758098204526
 21
289.0000092160525
 31
0.000000000000000
  0
LINE
  5
10B
100
AcDbEntity
  8
A1
  6
CONTINUOUS
 62
7
100
AcDbLine
 10
205.0000452204527
 20
293.0000092160525
 30
0.000000000000000
 11
204.0180716204528
 21
293.0000092160525
 31
0.000000000000000
  0
LINE
  5
10C
100
AcDbEntity
  8
A1
  6
CONTINUOUS
 62
7
100
AcDbLine
 10
205.0000452204527
 20
293.9000002160525
 30
0.000000000000000
 11
205.0000452204527
 21
292.9313846578755
 31
0.000000000000000
  0
ARC
  5
10D
100
AcDbEntity
  8
A1
  6
CONTINUOUS
 62
7
100
AcDbCircle
 10
189.2000452204528
 20
293.9000002160525
 30
0.000000000000000
 40
1.200000039999999
100
AcDbArc
 50
90.00000300000094
 51
180.0000099999977
  0
ARC
  5
10E
100
AcDbEntity
  8
A1
  6
CONTINUOUS
 62
7
100
AcDbCircle
 10
192.2500452204527
 20
282.5700050160525
 30
0.000000000000000
 40
10.93000320000000
100
AcDbArc
 50
72.60269100000198
 51
107.3973099999949
  0
ARC
  5
10F
100
AcDbEntity
  8
A1
  6
CONTINUOUS
 62
7
100
AcDbCircle
 10
192.2500452204527
 20
302.2500126760525
 30
0.000000000000000
 40
13.75000280000000
100
AcDbArc
 50
254.5012700000043
 51
285.4987299999956
  0
ARC
  5
110
100
AcDbEntity
  8
A1
  6
CONTINUOUS
 62
7
100
AcDbCircle
 10
200.7500452204527
 20
302.2500126760525
 30
0.000000000000000
 40
13.75000280000000
100
AcDbArc
 50
254.5012700000043
 51
255.9146431434917
  0
ARC
  5
111
100
AcDbEntity
  8
A1
  6
CONTINUOUS
 62
7
100
AcDbCircle
 10
200.7500452204527
 20
282.5700050160525
 30
0.000000000000000
 40
10.93000320000000
100
AcDbArc
 50
72.60269100000198
 51
107.3973099999949
  0
ARC
  5
112
100
AcDbEntity
  8
A1
  6
CONTINUOUS
 62
7
100
AcDbCircle
 10
203.8000444204527
 20
293.9000002160525
 30
0.000000000000000
 40
1.200000039999999
100
AcDbArc
 50
0.000000000000000
 51
90.00000300000094
  0
LINE
  5
113
100
AcDbEntity
  8
A1
  6
CONTINUOUS
 62
7
100
AcDbLine
 10
208.1284660204527
 20
247.5000050014324
 30
0.000000000000000
 11
224.8716244204528
 21
247.5000050014324
 31
0.000000000000000
  0
ARC
  5
114
100
AcDbEntity
  8
A1
  6
CONTINUOUS
 62
7
100
AcDbCircle
 10
224.4683619818585
 20
268.8560173943085
 30
0.000000000000000
 40
24.22772896082646
100
AcDbArc
 50
24.88262672826274
 51
80.47591411924543
  0
ELLIPSE
  5
115
100
AcDbEntity
  8
A1
  6
CONTINUOUS
 62
7
100
AcDbEllipse
 10
220.5115114221784
 20
262.0000092160531
 30
0.000000000000000
 11
0.000000000000000
 21
30.99999999998060
 31
0.000000000000000
210
0.000000000000000
220
0.000000000000000
230
1.000000000000000
 40
0.9855742601100692
 41
4.575564236440214
 42
4.849213710703570
  0
ARC
  5
116
100
AcDbEntity
  8
A1
  6
CONTINUOUS
 62
7
100
AcDbCircle
 10
211.8590364637115
 20
260.2222862262203
 30
0.000000000000000
 40
39.38043281333296
100
AcDbArc
 50
8.772645168605784
 51
28.56142293143556
  0
ARC
  5
117
100
AcDbEntity
  8
A1
  6
CONTINUOUS
 62
7
100
AcDbCircle
 10
224.4683619818585
 20
255.1440006085564
 30
0.000000000000000
 40
24.22772896082646
100
AcDbArc
 50
279.5240858807546
 51
335.1173732717374
  0
ARC
  5
118
100
AcDbEntity
  8
A1
  6
CONTINUOUS
 62
7
100
AcDbCircle
 10
211.8590364637115
 20
263.7777317766445
 30
0.000000000000000
 40
39.38043281333304
100
AcDbArc
 50
331.4385770685644
 51
351.2273548313942
  0
ARC
  5
119
100
AcDbEntity
  8
A1
  6
CONTINUOUS
 62
7
100
AcDbCircle
 10
248.5000429764576
 20
125.7825556554372
 30
0.000000000000000
 40
2.000000000000000
100
AcDbArc
 50
180.0000000000004
 51
251.0207929010722
  0
ARC
  5
11A
100
AcDbEntity
  8
A1
  6
CONTINUOUS
 62
7
100
AcDbCircle
 10
81.50004297645782
 20
95.50000900139582
 30
0.000000000000000
 40
20.00000000000000
100
AcDbArc
 50
93.09692355522041
 51
106.6603504708286
  0
LINE
  5
11B
100
AcDbEntity
  8
A1
  6
CONTINUOUS
 62
7
100
AcDbLine
 10
57.50004297645783
 20
120.0000104013940
 30
0.000000000000000
 11
57.50004297645783
 21
70.50000900139582
 31
0.000000000000000
  0
LINE
  5
11C
100
AcDbEntity
  8
A1
  6
CONTINUOUS
 62
7
100
AcDbLine
 10
110.5000429764578
 20
120.0000104013939
 30
0.000000000000000
 11
110.5000429764578
 21
70.50000900139582
 31
0.000000000000000
  0
ARC
  5
11D
100
AcDbEntity
  8
A1
  6
CONTINUOUS
 62
7
100
AcDbCircle
 10
86.50004297645782
 20
95.50000900139582
 30
0.000000000000000
 40
20.00000000000000
100
AcDbArc
 50
73.33982781304847
 51
86.90307644477960
  0
ARC
  5
11E
100
AcDbEntity
  8
A1
  6
CONTINUOUS
 62
7
100
AcDbCircle
 10
106.5000429765713
 20
120.0000104013939
 30
0.000000000000000
 40
4.000000000000000
100
AcDbArc
 50
0.000000000000000
 51
90.00000300000094
  0
ARC
  5
11F
100
AcDbEntity
  8
A1
  6
CONTINUOUS
 62
7
100
AcDbCircle
 10
61.50004297657140
 20
120.0000104013939
 30
0.000000000000000
 40
4.000000000000000
100
AcDbArc
 50
90.00000300000094
 51
180.0000000000000
  0
ARC
  5
120
100
AcDbEntity
  8
A1
  6
CONTINUOUS
 62
7
100
AcDbCircle
 10
84.00004297648670
 20
-180.9270238249372
 30
0.000000000000000
 40
297.6091997741710
100
AcDbArc
 50
84.89144910446730
 51
95.10855089553269
  0
ARC
  5
121
100
AcDbEntity
  8
A1
  6
CONTINUOUS
 62
7
100
AcDbCircle
 10
84.00004297645782
 20
49.29288617398107
 30
0.000000000000000
 40
66.27470367260922
100
AcDbArc
 50
86.90307644477957
 51
93.09692355522041
  0
ARC
  5
122
100
AcDbEntity
  8
A1
  6
CONTINUOUS
 62
7
100
AcDbCircle
 10
190.6299503324190
 20
284.5000092160525
 30
0.000000000000000
 40
4.000000000000000
100
AcDbArc
 50
90.00000000000006
 51
140.2674737975744
  0
LINE
  5
123
100
AcDbEntity
  8
A4
  6
CENTER
 62
1
100
AcDbLine
 10
84.00014657421920
 20
48.50000451749093
 30
0.000000000000000
 11
84.00004409845528
 21
185.5000090014324
 31
0.000000000000000
  0
LINE
  5
124
100
AcDbEntity
  8
A4
  6
CENTER
 62
1
100
AcDbLine
 10
48.49999061658382
 20
82.49999970069877
 30
0.000000000000000
 11
117.9120574856434
 21
82.50000892325828
 31
0.000000000000000
  0
LINE
  5
125
100
AcDbEntity
  8
A4
  6
CENTER
 62
1
100
AcDbLine
 10
228.5000429764578
 20
82.50000900139582
 30
0.000000000000000
 11
159.0000429764578
 21
82.50000900139582
 31
0.000000000000000
  0
LINE
  5
126
100
AcDbEntity
  8
A4
  6
CENTER
 62
1
100
AcDbLine
 10
194.5000429764578
 20
48.50000900139583
 30
0.000000000000000
 11
194.5000429764578
 21
116.5000090013958
 31
0.000000000000000
  0
LINE
  5
127
100
AcDbEntity
  8
A4
  6
CENTER
 62
1
100
AcDbLine
 10
216.5001465742036
 20
48.50002545743490
 30
0.000000000000000
 11
216.5000440984552
 21
185.5000090014325
 31
0.000000000000000
  0
LINE
  5
128
100
AcDbEntity
  8
A4
  6
CENTER
 62
1
100
AcDbLine
 10
216.5000452204527
 20
296.5000090014324
 30
0.000000000000000
 11
216.5000452204527
 21
227.5000090014324
 31
0.000000000000000
  0
LINE
  5
129
100
AcDbEntity
  8
A4
  6
CENTER
 62
1
100
AcDbLine
 10
196.5000577484249
 20
229.0000613613065
 30
0.000000000000000
 11
196.5000361924867
 21
297.5000613613064
 31
0.000000000000000
  0
LINE
  5
12A
100
AcDbEntity
  8
A4
  6
CENTER
 62
1
100
AcDbLine
 10
160.5000452204527
 20
262.0000090014324
 30
0.000000000000000
 11
252.5643134855714
 21
262.0000090014324
 31
0.000000000000000
  0
LINE
  5
12B
100
AcDbEntity
  8
A1
  6
CONTINUOUS
 62
7
100
AcDbLine
 10
104.0001476962131
 20
54.50131363640805
 30
0.000000000000000
 11
104.0001476962131
 21
110.4986951985674
 31
0.000000000000000
  0
LINE
  5
12C
100
AcDbEntity
  8
A1
  6
CONTINUOUS
 62
7
100
AcDbLine
 10
64.00014769621313
 20
54.50131363640748
 30
0.000000000000000
 11
64.00014769621313
 21
110.4986951985679
 31
0.000000000000000
  0
ARC
  5
12D
100
AcDbEntity
  8
A1
  6
CONTINUOUS
 62
7
100
AcDbCircle
 10
312.0000452204528
 20
262.0000090014324
 30
0.000000000000000
 40
150.0000000000000
100
AcDbArc
 50
174.0622070000001
 51
185.9377199999999
  0
ARC
  5
12E
100
AcDbEntity
  8
A1
  6
CONTINUOUS
 62
7
100
AcDbCircle
 10
84.00012114227863
 20
15.00000431748749
 30
0.000000000000000
 40
100.0000000000002
100
AcDbArc
 50
79.90634305957256
 51
100.0936578283520
  0
ARC
  5
12F
100
AcDbEntity
  8
A1
  6
CONTINUOUS
 62
7
100
AcDbCircle
 10
67.00012139227871
 20
110.4986951985679
 30
0.000000000000000
 40
3.000000250000010
100
AcDbArc
 50
100.0936931631965
 51
180.0000000000113
  0
ARC
  5
130
100
AcDbEntity
  8
A1
  6
CONTINUOUS
 62
7
100
AcDbCircle
 10
101.0001208922788
 20
110.4986951985674
 30
0.000000000000000
 40
3.000000249999999
100
AcDbArc
 50
359.9999999999998
 51
439.9063364342896
  0
ARC
  5
131
100
AcDbEntity
  8
A1
  6
CONTINUOUS
 62
7
100
AcDbCircle
 10
67.00012139227871
 20
54.50131363640748
 30
0.000000000000000
 40
3.000000250000010
100
AcDbArc
 50
179.9999999999887
 51
259.9063068368035
  0
ARC
  5
132
100
AcDbEntity
  8
A1
  6
CONTINUOUS
 62
7
100
AcDbCircle
 10
84.00012114227863
 20
150.0000045174879
 30
0.000000000000000
 40
100.0000000000002
100
AcDbArc
 50
259.9063421716480
 51
280.0936569404274
  0
ARC
  5
133
100
AcDbEntity
  8
A1
  6
CONTINUOUS
 62
7
100
AcDbCircle
 10
101.0001208922788
 20
54.50131363640805
 30
0.000000000000000
 40
3.000000249999988
100
AcDbArc
 50
280.0936635657101
 51
360.0000000000003
  0
ARC
  5
134
100
AcDbEntity
  8
A1
  6
CONTINUOUS
 62
7
100
AcDbCircle
 10
104.5001211422786
 20
66.00000441748767
 30
0.000000000000000
 40
1.000000000000004
100
AcDbArc
 50
270.0000000000002
 51
359.9999999999998
  0
LINE
  5
135
100
AcDbEntity
  8
A1
  6
CONTINUOUS
 62
7
100
AcDbLine
 10
104.0001211422786
 20
65.00000441748767
 30
0.000000000000000
 11
104.5001211422786
 21
65.00000441748767
 31
0.000000000000000
  0
LINE
  5
136
100
AcDbEntity
  8
A1
  6
CONTINUOUS
 62
7
100
AcDbLine
 10
106.5001211422786
 20
91.30000471748770
 30
0.000000000000000
 11
105.5001211422786
 21
91.30000471748770
 31
0.000000000000000
  0
LINE
  5
137
100
AcDbEntity
  8
A1
  6
CONTINUOUS
 62
7
100
AcDbLine
 10
105.5001211422786
 20
73.70000411748768
 30
0.000000000000000
 11
106.5001211422786
 21
73.70000411748768
 31
0.000000000000000
  0
ARC
  5
138
100
AcDbEntity
  8
A1
  6
CONTINUOUS
 62
7
100
AcDbCircle
 10
104.5001211422786
 20
99.00000441748767
 30
0.000000000000000
 40
1.000000000000004
100
AcDbArc
 50
2.036000000000000e-13
 51
89.99999999999982
  0
LINE
  5
139
100
AcDbEntity
  8
A1
  6
CONTINUOUS
 62
7
100
AcDbLine
 10
104.5001211422786
 20
100.0000044174877
 30
0.000000000000000
 11
104.0001211422786
 21
100.0000044174877
 31
0.000000000000000
  0
LINE
  5
13A
100
AcDbEntity
  8
A1
  6
CONTINUOUS
 62
7
100
AcDbLine
 10
64.00012114227863
 20
100.0000044174877
 30
0.000000000000000
 11
63.50012114227864
 21
100.0000044174877
 31
0.000000000000000
  0
ARC
  5
13B
100
AcDbEntity
  8
A1
  6
CONTINUOUS
 62
7
100
AcDbCircle
 10
63.50012114227864
 20
99.00000441748767
 30
0.000000000000000
 40
1.000000000000004
100
AcDbArc
 50
90.00000000000040
 51
179.9999999999998
  0
LINE
  5
13C
100
AcDbEntity
  8
A1
  6
CONTINUOUS
 62
7
100
AcDbLine
 10
62.50012114227864
 20
99.00000441748767
 30
0.000000000000000
 11
62.50012114227864
 21
66.00000441748767
 31
0.000000000000000
  0
LINE
  5
13D
100
AcDbEntity
  8
A1
  6
CONTINUOUS
 62
7
100
AcDbLine
 10
62.50012114227864
 20
91.30000471748770
 30
0.000000000000000
 11
61.50012114227864
 21
91.30000471748770
 31
0.000000000000000
  0
LINE
  5
13E
100
AcDbEntity
  8
A1
  6
CONTINUOUS
 62
7
100
AcDbLine
 10
61.50012114227864
 20
73.70000411748768
 30
0.000000000000000
 11
62.50012114227864
 21
73.70000411748768
 31
0.000000000000000
  0
ARC
  5
13F
100
AcDbEntity
  8
A1
  6
CONTINUOUS
 62
7
100
AcDbCircle
 10
63.50012114227864
 20
66.00000441748767
 30
0.000000000000000
 40
1.000000000000004
100
AcDbArc
 50
180.0000000000002
 51
269.9999999999996
  0
LINE
  5
140
100
AcDbEntity
  8
A1
  6
CONTINUOUS
 62
7
100
AcDbLine
 10
63.50012114227864
 20
65.00000441748767
 30
0.000000000000000
 11
64.00012114227863
 21
65.00000441748767
 31
0.000000000000000
  0
ARC
  5
141
100
AcDbEntity
  8
A1
  6
CONTINUOUS
 62
7
100
AcDbCircle
 10
184.7846213198280
 20
98.82822312094635
 30
0.000000000000000
 40
1.499999800000008
100
AcDbArc
 50
300.7529934778420
 51
379.5485512157511
  0
ARC
  5
142
100
AcDbEntity
  8
A1
  6
CONTINUOUS
 62
7
100
AcDbCircle
 10
178.1718287687216
 20
92.21543101831577
 30
0.000000000000000
 40
1.500000110014980
100
AcDbArc
 50
250.4514502887846
 51
329.2470021969740
  0
ARC
  5
143
100
AcDbEntity
  8
A1
  6
CONTINUOUS
 62
7
100
AcDbCircle
 10
176.0844111952477
 20
77.82405880069223
 30
0.000000000000000
 40
1.500000110014979
100
AcDbArc
 50
295.4514502887848
 51
374.2470021969740
  0
LINE
  5
144
100
AcDbEntity
  8
A1
  6
CONTINUOUS
 62
7
100
AcDbLine
 10
175.3502654824493
 20
75.81343047670030
 30
0.000000000000000
 11
176.7290304444532
 21
76.46963406908155
 31
0.000000000000000
  0
ARC
  5
145
100
AcDbEntity
  8
A1
  6
CONTINUOUS
 62
7
100
AcDbCircle
 10
174.7056463160885
 20
77.16785512590016
 30
0.000000000000000
 40
1.500000000000000
100
AcDbArc
 50
195.0762964686536
 51
295.4514487842483
  0
ARC
  5
146
100
AcDbEntity
  8
A1
  6
CONTINUOUS
 62
7
100
AcDbCircle
 10
194.5000429764578
 20
82.50000900139582
 30
0.000000000000000
 40
22.00000009999997
100
AcDbArc
 50
164.9237037705743
 51
195.0762964686536
  0
ARC
  5
147
100
AcDbEntity
  8
A1
  6
CONTINUOUS
 62
7
100
AcDbCircle
 10
174.7056463160885
 20
87.83216287689149
 30
0.000000000000000
 40
1.499999999999996
100
AcDbArc
 50
64.54855121575144
 51
164.9237070400226
  0
LINE
  5
148
100
AcDbEntity
  8
A1
  6
CONTINUOUS
 62
7
100
AcDbLine
 10
176.7290305927797
 20
88.53038386311614
 30
0.000000000000000
 11
175.3502654824493
 21
89.18658752609127
 31
0.000000000000000
  0
ARC
  5
149
100
AcDbEntity
  8
A1
  6
CONTINUOUS
 62
7
100
AcDbCircle
 10
176.0844115123681
 20
87.17595939450632
 30
0.000000000000000
 40
1.499999800000003
100
AcDbArc
 50
345.7529934778419
 51
424.5485512157510
  0
LINE
  5
14A
100
AcDbEntity
  8
A1
  6
CONTINUOUS
 62
7
100
AcDbLine
 10
176.2309804344824
 20
91.31282150787409
 30
0.000000000000000
 11
177.6699204987895
 21
90.80189346359052
 31
0.000000000000000
  0
ARC
  5
14B
100
AcDbEntity
  8
A1
  6
CONTINUOUS
 62
7
100
AcDbCircle
 10
176.7328887047211
 20
92.72635894574614
 30
0.000000000000000
 40
1.500000000000005
100
AcDbArc
 50
150.0762964686538
 51
250.4514487842484
  0
ARC
  5
14C
100
AcDbEntity
  8
A1
  6
CONTINUOUS
 62
7
100
AcDbCircle
 10
194.5000429764578
 20
82.50000900139568
 30
0.000000000000000
 40
22.00000010000018
100
AcDbArc
 50
119.9237037705744
 51
150.0762964686534
  0
ARC
  5
14D
100
AcDbEntity
  8
A1
  6
CONTINUOUS
 62
7
100
AcDbCircle
 10
184.2736930321074
 20
100.2671632731324
 30
0.000000000000000
 40
1.499999999999994
100
AcDbArc
 50
19.54855121575117
 51
119.9237070400228
  0
LINE
  5
14E
100
AcDbEntity
  8
A1
  6
CONTINUOUS
 62
7
100
AcDbLine
 10
186.1981585692284
 20
99.33013132426403
 30
0.000000000000000
 11
185.6872304699795
 21
100.7690715433711
 31
0.000000000000000
  0
ARC
  5
14F
100
AcDbEntity
  8
A1
  6
CONTINUOUS
 62
7
100
AcDbCircle
 10
189.8240926933432
 20
100.9156406997613
 30
0.000000000000000
 40
1.500000000000003
100
AcDbArc
 50
205.4514487842488
 51
284.2470060267941
  0
LINE
  5
150
100
AcDbEntity
  8
A1
  6
CONTINUOUS
 62
7
100
AcDbLine
 10
187.8134644517621
 20
101.6497864954041
 30
0.000000000000000
 11
188.4696680441433
 21
100.2710215334003
 31
0.000000000000000
  0
ARC
  5
151
100
AcDbEntity
  8
A1
  6
CONTINUOUS
 62
7
100
AcDbCircle
 10
189.1678891009620
 20
102.2944056617650
 30
0.000000000000000
 40
1.500000000000000
100
AcDbArc
 50
105.0762964686536
 51
205.4514487842483
  0
ARC
  5
152
100
AcDbEntity
  8
A1
  6
CONTINUOUS
 62
7
100
AcDbCircle
 10
194.5000429764578
 20
82.50000900139588
 30
0.000000000000000
 40
22.00000009999996
100
AcDbArc
 50
87.50151933855108
 51
105.0762964686536
  0
ARC
  5
153
100
AcDbEntity
  8
A1
  6
CONTINUOUS
 62
7
100
AcDbCircle
 10
214.2944396368269
 20
77.16785512590016
 30
0.000000000000000
 40
1.499999999999995
100
AcDbArc
 50
244.5485512157514
 51
344.9237070400227
  0
LINE
  5
154
100
AcDbEntity
  8
A1
  6
CONTINUOUS
 62
7
100
AcDbLine
 10
212.2710553601356
 20
76.46963413967536
 30
0.000000000000000
 11
213.6498204704660
 21
75.81343047670022
 31
0.000000000000000
  0
ARC
  5
155
100
AcDbEntity
  8
A1
  6
CONTINUOUS
 62
7
100
AcDbCircle
 10
212.9156744405473
 20
77.82405860828533
 30
0.000000000000000
 40
1.499999800000003
100
AcDbArc
 50
214.5253567750693
 51
244.5485512157511
  0
ARC
  5
156
100
AcDbEntity
  8
A1
  6
CONTINUOUS
 62
7
100
AcDbCircle
 10
210.8282571841938
 20
72.78458698447588
 30
0.000000000000000
 40
1.500000110014980
100
AcDbArc
 50
70.45145028878459
 51
149.2470021969739
  0
LINE
  5
157
100
AcDbEntity
  8
A1
  6
CONTINUOUS
 62
7
100
AcDbLine
 10
212.7691055184330
 20
73.68719649491760
 30
0.000000000000000
 11
211.3301654541261
 21
74.19812453920115
 31
0.000000000000000
  0
ARC
  5
158
100
AcDbEntity
  8
A1
  6
CONTINUOUS
 62
7
100
AcDbCircle
 10
212.2671972481943
 20
72.27365905704551
 30
0.000000000000000
 40
1.500000000000005
100
AcDbArc
 50
330.0762964686539
 51
430.4514487842485
  0
ARC
  5
159
100
AcDbEntity
  8
A1
  6
CONTINUOUS
 62
7
100
AcDbCircle
 10
194.5000429764576
 20
82.50000900139594
 30
0.000000000000000
 40
22.00000010000011
100
AcDbArc
 50
299.9237037705744
 51
330.0762964686535
  0
ARC
  5
15A
100
AcDbEntity
  8
A1
  6
CONTINUOUS
 62
7
100
AcDbCircle
 10
204.7263929208080
 20
64.73285472965929
 30
0.000000000000000
 40
1.500000000000001
100
AcDbArc
 50
199.5485512157515
 51
299.9237070400225
  0
LINE
  5
15B
100
AcDbEntity
  8
A1
  6
CONTINUOUS
 62
7
100
AcDbLine
 10
202.8019273836871
 20
65.66988667852759
 30
0.000000000000000
 11
203.3128554829360
 21
64.23094645942048
 31
0.000000000000000
  0
ARC
  5
15C
100
AcDbEntity
  8
A1
  6
CONTINUOUS
 62
7
100
AcDbCircle
 10
204.2154646330876
 20
66.17179488184533
 30
0.000000000000000
 40
1.499999800000007
100
AcDbArc
 50
120.7529934778422
 51
199.5485512157511
  0
ARC
  5
15D
100
AcDbEntity
  8
A1
  6
CONTINUOUS
 62
7
100
AcDbCircle
 10
199.1759931771613
 20
64.08437722018590
 30
0.000000000000000
 40
1.500000110014969
100
AcDbArc
 50
25.45145028878440
 51
104.2470021969743
  0
LINE
  5
15E
100
AcDbEntity
  8
A1
  6
CONTINUOUS
 62
7
100
AcDbLine
 10
201.1866215011532
 20
63.35023150738752
 30
0.000000000000000
 11
200.5304179087719
 21
64.72899646939136
 31
0.000000000000000
  0
ARC
  5
15F
100
AcDbEntity
  8
A1
  6
CONTINUOUS
 62
7
100
AcDbCircle
 10
199.8321968519534
 20
62.70561234102662
 30
0.000000000000000
 40
1.500000000000000
100
AcDbArc
 50
285.0762964686536
 51
385.4514487842484
  0
ARC
  5
160
100
AcDbEntity
  8
A1
  6
CONTINUOUS
 62
7
100
AcDbCircle
 10
194.5000429764578
 20
82.50000900139580
 30
0.000000000000000
 40
22.00000009999996
100
AcDbArc
 50
254.9237037705743
 51
285.0762964686536
  0
ARC
  5
161
100
AcDbEntity
  8
A1
  6
CONTINUOUS
 62
7
100
AcDbCircle
 10
189.1678891009620
 20
62.70561234102662
 30
0.000000000000000
 40
1.499999999999995
100
AcDbArc
 50
154.5485512157514
 51
254.9237070400227
  0
LINE
  5
162
100
AcDbEntity
  8
A1
  6
CONTINUOUS
 62
7
100
AcDbLine
 10
188.4696681147372
 20
64.72899661771785
 30
0.000000000000000
 11
187.8134644517621
 21
63.35023150738756
 31
0.000000000000000
  0
ARC
  5
163
100
AcDbEntity
  8
A1
  6
CONTINUOUS
 62
7
100
AcDbCircle
 10
189.8240925833473
 20
64.08437753730615
 30
0.000000000000000
 40
1.499999800000004
100
AcDbArc
 50
75.75299347784191
 51
154.5485512157510
  0
ARC
  5
164
100
AcDbEntity
  8
A1
  6
CONTINUOUS
 62
7
100
AcDbCircle
 10
184.7846209595378
 20
66.17179479365970
 30
0.000000000000000
 40
1.500000110014974
100
AcDbArc
 50
340.4514502887845
 51
419.2470021969741
  0
LINE
  5
165
100
AcDbEntity
  8
A1
  6
CONTINUOUS
 62
7
100
AcDbLine
 10
185.6872304699794
 20
64.23094645942055
 30
0.000000000000000
 11
186.1981585142630
 21
65.66988652372754
 31
0.000000000000000
  0
ARC
  5
166
100
AcDbEntity
  8
A1
  6
CONTINUOUS
 62
7
100
AcDbCircle
 10
184.2736930321074
 20
64.73285472965929
 30
0.000000000000000
 40
1.500000000000006
100
AcDbArc
 50
240.0762964686538
 51
340.4514487842484
  0
ARC
  5
167
100
AcDbEntity
  8
A1
  6
CONTINUOUS
 62
7
100
AcDbCircle
 10
194.5000429764578
 20
82.50000900139591
 30
0.000000000000000
 40
22.00000010000011
100
AcDbArc
 50
209.9237037705744
 51
240.0762964686536
  0
ARC
  5
168
100
AcDbEntity
  8
A1
  6
CONTINUOUS
 62
7
100
AcDbCircle
 10
176.7328887047211
 20
72.27365905704551
 30
0.000000000000000
 40
1.499999999999994
100
AcDbArc
 50
109.5485512157512
 51
209.9237070400228
  0
LINE
  5
169
100
AcDbEntity
  8
A1
  6
CONTINUOUS
 62
7
100
AcDbLine
 10
177.6699206535896
 20
74.19812459416637
 30
0.000000000000000
 11
176.2309804344824
 21
73.68719649491750
 31
0.000000000000000
  0
ARC
  5
16A
100
AcDbEntity
  8
A1
  6
CONTINUOUS
 62
7
100
AcDbCircle
 10
178.1718288569074
 20
72.78458734476601
 30
0.000000000000000
 40
1.499999800000009
100
AcDbArc
 50
30.75299347784205
 51
109.5485512157511
  0
ARC
  5
16B
100
AcDbEntity
  8
A1
  6
CONTINUOUS
 62
7
100
AcDbCircle
 10
194.5000429764578
 20
82.50000900139582
 30
0.000000000000000
 40
14.90242509220329
100
AcDbArc
 50
95.69061465474991
 51
328.6619932367042
  0
ARC
  5
16C
100
AcDbEntity
  8
A1
  6
CONTINUOUS
 62
7
100
AcDbCircle
 10
194.5000429764578
 20
82.50000900139582
 30
0.000000000000000
 40
15.00000000000000
100
AcDbArc
 50
95.39099423801025
 51
329.2197697034117
  0
ARC
  5
16D
100
AcDbEntity
  8
A1
  6
CONTINUOUS
 62
7
100
AcDbCircle
 10
194.5000429764578
 20
82.50000900139582
 30
0.000000000000000
 40
15.50000000000000
100
AcDbArc
 50
94.00426204677663
 51
331.8886600291420
  0
ARC
  5
16E
100
AcDbEntity
  8
A1
  6
CONTINUOUS
 62
7
100
AcDbCircle
 10
194.5000429764578
 20
82.50000900139582
 30
0.000000000000000
 40
17.50000000000000
100
AcDbArc
 50
90.25964922694831
 51
340.3070253338555
  0
ARC
  5
16F
100
AcDbEntity
  8
A1
  6
CONTINUOUS
 62
7
100
AcDbCircle
 10
194.5000429764578
 20
82.50000900139582
 30
0.000000000000000
 40
22.00000009999997
100
AcDbArc
 50
344.9237037705743
 51
352.4521141701982
  0
ARC
  5
170
100
AcDbEntity
  8
A1
  6
CONTINUOUS
 62
7
100
AcDbCircle
 10
194.5000429764578
 20
82.50000900139582
 30
0.000000000000000
 40
24.99999970000000
100
AcDbArc
 50
87.98398880262464
 51
357.9949992833934
  0
ARC
  5
171
100
AcDbEntity
  8
A1
  6
CONTINUOUS
 62
7
100
AcDbCircle
 10
194.5000429764578
 20
82.50000900139582
 30
0.000000000000000
 40
25.10000024999999
100
AcDbArc
 50
88.02209576728997
 51
358.1581178311499
  0
LINE
  5
172
100
AcDbEntity
  8
A1
  6
CONTINUOUS
 62
7
100
AcDbLine
 10
61.50004297645783
 20
70.50000900139582
 30
0.000000000000000
 11
61.50004297645783
 21
115.8304289714855
 31
0.000000000000000
  0
LINE
  5
173
100
AcDbEntity
  8
A1
  6
CONTINUOUS
 62
7
100
AcDbLine
 10
105.5001211422786
 20
66.00000441748767
 30
0.000000000000000
 11
105.5001211422786
 21
99.00000441748767
 31
0.000000000000000
  0
LINE
  5
174
100
AcDbEntity
  8
A1
  6
CONTINUOUS
 62
7
100
AcDbLine
 10
106.5000429764578
 20
70.50000900139582
 30
0.000000000000000
 11
106.5000429764578
 21
115.8304289714899
 31
0.000000000000000
  0
ENDSEC
  0
SECTION
  2
OBJECTS
  0
DICTIONARY
  5
19F
100
AcDbDictionary
  3
ACAD_GROUP
350
1A0
  3
ACAD_LAYOUT
350
1A1
  3
ACAD_MLINESTYLE
350
1A2
  0
DICTIONARY
  5
1A0
102
{ACAD_REACTORS
330
19F
102
}
330
19F
100
AcDbDictionary
  0
DICTIONARY
  5
1A1
102
{ACAD_REACTORS
330
19F
102
}
330
19F
100
AcDbDictionary
  3
Model
350
1A3
  3
ﾚｲｱｳﾄ1
350
1A4
  3
ﾚｲｱｳﾄ2
350
1A5
  0
DICTIONARY
  5
1A2
102
{ACAD_REACTORS
330
19F
102
}
330
19F
100
AcDbDictionary
  3
STANDARD
350
1A6
  0
LAYOUT
  5
1A3
102
{ACAD_REACTORS
330
1A1
102
}
330
1A1
100
AcDbPlotSettings
 70
11952
  4
A3
 44
297.000000
 45
420.000000
 73
  1
 72
  1
100
AcDbLayout
  1
Model
 71
0
330
196
  0
LAYOUT
  5
1A4
102
{ACAD_REACTORS
330
1A1
102
}
330
1A1
100
AcDbPlotSettings
100
AcDbLayout
  1
ﾚｲｱｳﾄ1
 71
1
330
197
  0
LAYOUT
  5
1A5
102
{ACAD_REACTORS
330
1A1
102
}
330
1A1
100
AcDbPlotSettings
100
AcDbLayout
  1
ﾚｲｱｳﾄ2
 71
2
330
198
  0
MLINESTYLE
  5
1A6
102
{ACAD_REACTORS
330
1A2
102
}
330
1A2
100
AcDbMlineStyle
  2
STANDARD
 70
     0
  3

 62
   256
 51
90.00
 52
90.00
 71
     2
 49
0.50
 62
   256
  6
BYLAYER
 49
-0.50
 62
   256
  6
BYLAYER
  0
ENDSEC
  0
EOF
