  0
SECTION
  2
HEADER
  9
$ACADVER
  1
AC1015
  9
$DWGCODEPAGE
  3
ANSI_932
  9
$LTSCALE
 40
20.0
  9
$FILLMODE
 70
     1
  9
$CLAYER
  8
0
  9
$PDMODE
 70
     0
  9
$SPLFRAME
 70
     0
  9
$SPLINETYPE
 70
     6
  9
$SPLINESEGS
 70
     8
  9
$DIMASZ
 40
2.000000
  9
$DIMEXE
 40
1.500000
  9
$DIMEXO
 40
0.800000
  9
$DIMTAD
 70
     1
  9
$DIMTIH
 70
     0
  9
$DIMTOH
 70
     0
  9
$DIMTVP
 40
0.500000
  9
$DIMTXT
 40
3.100000
  9
$EXTMIN
 10
0.000000
 20
0.000000
 30
0.000000
  9
$EXTMAX
 10
297.000000
 20
420.000000
 30
0.000000
  9
$MEASUREMENT
 70
  1
  9
$LIMMIN
 10
0.000000
 20
0.000000
  9
$LIMMAX
 10
297.000000
 20
420.000000
  9
$HANDSEED
  5
1AA
  9
$LWDISPLAY
290
     0
  9
$DIMBLK
  1
_OPEN
  9
$DIMDEC
 70
     2
  9
$DIMADEC
 70
     2
  9
$DIMAUNIT
 70
     0
  9
$DIMZIN
 70
     8
  9
$DIMAZIN
 70
     2
  9
$DIMTOFL
 70
     1
  0
ENDSEC
  0
SECTION
  2
CLASSES
  0
ENDSEC
  0
SECTION
  2
TABLES
  0
TABLE
  2
VPORT
  5
178
100
AcDbSymbolTable
 70
     1
  0
VPORT
  5
179
100
AcDbSymbolTableRecord
100
AcDbViewportTableRecord
  2
*ACTIVE
 70
     0
 12
134.250024
 22
162.750033
 40
289.500064
 41
0.858377
  0
ENDTAB
  0
TABLE
  2
LTYPE
  5
17A
100
AcDbSymbolTable
 70
     2
  0
LTYPE
  5
17B
100
AcDbSymbolTableRecord
100
AcDbLinetypeTableRecord
  2
BYBLOCK
 70
     0
  3

 72
    65
 73
     0
 40
0.0
  0
LTYPE
  5
17C
100
AcDbSymbolTableRecord
100
AcDbLinetypeTableRecord
  2
BYLAYER
 70
     0
  3

 72
    65
 73
     0
 40
0.0
  0
LTYPE
  5
17D
100
AcDbSymbolTableRecord
100
AcDbLinetypeTableRecord
  2
CONTINUOUS
 70
     0
  3
Solid line (NEC CAE2D for Win R18.0 : 2024.04.25)
 72
    65
 73
     0
 40
0.0
  0
LTYPE
  5
17E
100
AcDbSymbolTableRecord
100
AcDbLinetypeTableRecord
  2
CENTER
 70
     0
  3
____ _ ____ _ ____ _ ____ _ ____ _ ____
 72
    65
 73
     4
 40
2.0
 49
1.25
 74
     0
 49
-0.25
 74
     0
 49
0.25
 74
     0
 49
-0.25
 74
     0
  0
ENDTAB
  0
TABLE
  2
LAYER
  5
17F
100
AcDbSymbolTable
 70
    12
  0
LAYER
  5
180
100
AcDbSymbolTableRecord
100
AcDbLayerTableRecord
  2
0
 70
     0
 62
     7
  6
CONTINUOUS
370
    -3
390

  0
LAYER
  5
181
100
AcDbSymbolTableRecord
100
AcDbLayerTableRecord
  2
A0
 70
     0
 62
     9
  6
CONTINUOUS
370
    -3
390

  0
LAYER
  5
182
100
AcDbSymbolTableRecord
100
AcDbLayerTableRecord
  2
A1
 70
     0
 62
     8
  6
CONTINUOUS
370
    -3
390

  0
LAYER
  5
183
100
AcDbSymbolTableRecord
100
AcDbLayerTableRecord
  2
A2
 70
     0
 62
    12
  6
CONTINUOUS
370
    -3
390

  0
LAYER
  5
184
100
AcDbSymbolTableRecord
100
AcDbLayerTableRecord
  2
A4
 70
     0
 62
    12
  6
CONTINUOUS
370
    -3
390

  0
LAYER
  5
185
100
AcDbSymbolTableRecord
100
AcDbLayerTableRecord
  2
A8
 70
     0
 62
    10
  6
CONTINUOUS
370
    -3
390

  0
LAYER
  5
186
100
AcDbSymbolTableRecord
100
AcDbLayerTableRecord
  2
A10
 70
     0
 62
     6
  6
CONTINUOUS
370
    -3
390

  0
LAYER
  5
187
100
AcDbSymbolTableRecord
100
AcDbLayerTableRecord
  2
A20
 70
     0
 62
     1
  6
CONTINUOUS
370
    -3
390

  0
LAYER
  5
188
100
AcDbSymbolTableRecord
100
AcDbLayerTableRecord
  2
A30
 70
     0
 62
     1
  6
CONTINUOUS
370
    -3
390

  0
LAYER
  5
189
100
AcDbSymbolTableRecord
100
AcDbLayerTableRecord
  2
A40
 70
     0
 62
     9
  6
CONTINUOUS
370
    -3
390

  0
LAYER
  5
18A
100
AcDbSymbolTableRecord
100
AcDbLayerTableRecord
  2
A50
 70
     0
 62
    12
  6
CONTINUOUS
370
    -3
390

  0
LAYER
  5
18B
100
AcDbSymbolTableRecord
100
AcDbLayerTableRecord
  2
A1023
 70
     0
 62
    16
  6
CONTINUOUS
370
    -3
390

  0
ENDTAB
  0
TABLE
  2
STYLE
  5
18C
100
AcDbSymbolTable
 70
     4
  0
STYLE
  5
18D
100
AcDbSymbolTableRecord
100
AcDbTextStyleTableRecord
  2
STANDARD
 70
    64
 40
0.0
 41
1.0
 50
0.0
 71
     0
 42
3.000000000000000
  3
TXT
  4

  0
STYLE
  5
18E
100
AcDbSymbolTableRecord
100
AcDbTextStyleTableRecord
  2
ANKTATE
 70
    68
 40
0.0
 41
1.0
 50
0.0
 71
     0
 42
3.000000000000000
  3
TXT
  4

  0
STYLE
  5
18F
100
AcDbSymbolTableRecord
100
AcDbTextStyleTableRecord
  2
KNJYOKO
 70
    64
 40
0.0
 41
1.0
 50
0.0
 71
     0
 42
3.000000000000000
  3
TXT
  4
BIGFONT
  0
STYLE
  5
190
100
AcDbSymbolTableRecord
100
AcDbTextStyleTableRecord
  2
KNJTATE
 70
    68
 40
0.0
 41
1.0
 50
0.0
 71
     0
 42
3.000000000000000
  3
TXT
  4
BIGFONT
  0
ENDTAB
  0
TABLE
  2
VIEW
  5
191
100
AcDbSymbolTable
 70
     0
  0
ENDTAB
  0
TABLE
  2
UCS
  5
192
100
AcDbSymbolTable
 70
     0
  0
ENDTAB
  0
TABLE
  2
APPID
  5
193
100
AcDbSymbolTable
 70
     1
  0
APPID
  5
194
100
AcDbSymbolTableRecord
100
AcDbRegAppTableRecord
  2
ACAD
 70
     0
  0
ENDTAB
  0
TABLE
  2
DIMSTYLE
  5
195
100
AcDbSymbolTable
 70
     2
100
AcDbDimStyleTable
  0
DIMSTYLE
105
196
100
AcDbSymbolTableRecord
100
AcDbDimStyleTableRecord
  2
STANDARD
 70
     0
 41
2.000000
 44
1.500000
 42
0.800000
145
0.661290
140
3.100000
144
1.000000
146
0.645161
340
18D
  0
DIMSTYLE
105
197
100
AcDbSymbolTableRecord
100
AcDbDimStyleTableRecord
  2
A001
 70
     0
 41
2.000000
 44
1.500000
 42
0.800000
145
0.661290
140
3.100000
144
1.000000
146
0.645161
 77
     1
 73
     0
 74
     0
271
     2
179
     2
275
     0
 78
     8
 79
     2
172
     1
340
18D
  0
ENDTAB
  0
TABLE
  2
BLOCK_RECORD
  5
198
100
AcDbSymbolTable
 70
    12
  0
BLOCK_RECORD
  5
199
100
AcDbSymbolTableRecord
100
AcDbBlockTableRecord
  2
*MODEL_SPACE
  0
BLOCK_RECORD
  5
19A
100
AcDbSymbolTableRecord
100
AcDbBlockTableRecord
  2
*PAPER_SPACE
  0
BLOCK_RECORD
  5
19B
100
AcDbSymbolTableRecord
100
AcDbBlockTableRecord
  2
*PAPER_SPACE0
  0
BLOCK_RECORD
  5
1
100
AcDbSymbolTableRecord
100
AcDbBlockTableRecord
  2
_NONE
  0
BLOCK_RECORD
  5
4
100
AcDbSymbolTableRecord
100
AcDbBlockTableRecord
  2
_CLOSED
  0
BLOCK_RECORD
  5
B
100
AcDbSymbolTableRecord
100
AcDbBlockTableRecord
  2
_DOT
  0
BLOCK_RECORD
  5
13
100
AcDbSymbolTableRecord
100
AcDbBlockTableRecord
  2
_OPEN
  0
BLOCK_RECORD
  5
19
100
AcDbSymbolTableRecord
100
AcDbBlockTableRecord
  2
_ORIGIN
  0
BLOCK_RECORD
  5
1E
100
AcDbSymbolTableRecord
100
AcDbBlockTableRecord
  2
_OPEN30
  0
BLOCK_RECORD
  5
24
100
AcDbSymbolTableRecord
100
AcDbBlockTableRecord
  2
_BOXFILLED
  0
BLOCK_RECORD
  5
29
100
AcDbSymbolTableRecord
100
AcDbBlockTableRecord
  2
_BOXBLANK
  0
BLOCK_RECORD
  5
31
100
AcDbSymbolTableRecord
100
AcDbBlockTableRecord
  2
_OBLIQUE
  0
BLOCK_RECORD
  5
35
100
AcDbSymbolTableRecord
100
AcDbBlockTableRecord
  2
_OPEN90
  0
BLOCK_RECORD
  5
3B
100
AcDbSymbolTableRecord
100
AcDbBlockTableRecord
  2
_CLOSEDBLANK
  0
BLOCK_RECORD
  5
41
100
AcDbSymbolTableRecord
100
AcDbBlockTableRecord
  2
_DOTBLANK
  0
ENDTAB
  0
ENDSEC
  0
SECTION
  2
BLOCKS
  0
BLOCK
  5
19C
100
AcDbEntity
  8
0
100
AcDbBlockBegin
  2
*MODEL_SPACE
 70
     0
 10
0.0
 20
0.0
 30
0.0
  3
*MODEL_SPACE
  1

  0
ENDBLK
  5
19D
100
AcDbEntity
  8
0
100
AcDbBlockEnd
  0
BLOCK
  5
19E
100
AcDbEntity
  8
0
100
AcDbBlockBegin
  2
*PAPER_SPACE
 70
     0
 10
0.0
 20
0.0
 30
0.0
  3
*PAPER_SPACE
  1

  0
ENDBLK
  5
19F
100
AcDbEntity
  8
0
100
AcDbBlockEnd
  0
BLOCK
  5
1A0
100
AcDbEntity
  8
0
100
AcDbBlockBegin
  2
*PAPER_SPACE0
 70
     0
 10
0.0
 20
0.0
 30
0.0
  3
*PAPER_SPACE0
  1

  0
ENDBLK
  5
1A1
100
AcDbEntity
  8
0
100
AcDbBlockEnd
  0
BLOCK
  5
2
330
1
100
AcDbEntity
  8
0
100
AcDbBlockBegin
  2
_NONE
 70
     0
 10
0.0
 20
0.0
 30
0.0
  3
_NONE
  1

  0
ENDBLK
  5
3
330
1
100
AcDbEntity
  8
0
100
AcDbBlockEnd
  0
BLOCK
  5
5
330
4
100
AcDbEntity
  8
0
100
AcDbBlockBegin
  2
_CLOSED
 70
     0
 10
0.0
 20
0.0
 30
0.0
  3
_CLOSED
  1

  0
LINE
  5
6
330
4
100
AcDbEntity
  8
0
  6
BYBLOCK
 62
     0
370
    -2
100
AcDbLine
 10
-1.0
 20
0.166667
 30
0.0
 11
0.0
 21
0.0
 31
0.0
  0
LINE
  5
7
330
4
100
AcDbEntity
  8
0
  6
BYBLOCK
 62
     0
370
    -2
100
AcDbLine
 10
0.0
 20
0.0
 30
0.0
 11
-1.0
 21
-0.166667
 31
0.0
  0
LINE
  5
8
330
4
100
AcDbEntity
  8
0
  6
BYBLOCK
 62
     0
370
    -2
100
AcDbLine
 10
-1.0
 20
0.166667
 30
0.0
 11
-1.0
 21
-0.166667
 31
0.0
  0
LINE
  5
9
330
4
100
AcDbEntity
  8
0
  6
BYBLOCK
 62
     0
370
    -2
100
AcDbLine
 10
0.0
 20
0.0
 30
0.0
 11
-1.0
 21
0.0
 31
0.0
  0
ENDBLK
  5
A
330
4
100
AcDbEntity
  8
0
100
AcDbBlockEnd
  0
BLOCK
  5
C
330
B
100
AcDbEntity
  8
0
100
AcDbBlockBegin
  2
_DOT
 70
     0
 10
0.0
 20
0.0
 30
0.0
  3
_DOT
  1

  0
POLYLINE
  5
D
330
B
100
AcDbEntity
  8
0
  6
BYBLOCK
 62
     0
370
    -2
100
AcDb2dPolyline
 66
     1
 10
0.0
 20
0.0
 30
0.0
 70
     1
 40
0.5
 41
0.5
  0
VERTEX
  5
E
330
B
100
AcDbEntity
  8
0
  6
BYBLOCK
 62
     0
370
    -2
100
AcDbVertex
100
AcDb2dVertex
 10
-0.25
 20
0.0
 30
0.0
 42
1.0
  0
VERTEX
  5
F
330
B
100
AcDbEntity
  8
0
  6
BYBLOCK
 62
     0
370
    -2
100
AcDbVertex
100
AcDb2dVertex
 10
0.25
 20
0.0
 30
0.0
 42
1.0
  0
SEQEND
  5
10
330
B
100
AcDbEntity
  8
0
  6
BYBLOCK
 62
     0
370
    -2
  0
LINE
  5
11
330
B
100
AcDbEntity
  8
0
  6
BYBLOCK
 62
     0
370
    -2
100
AcDbLine
 10
-0.5
 20
0.0
 30
0.0
 11
-1.0
 21
0.0
 31
0.0
  0
ENDBLK
  5
12
330
B
100
AcDbEntity
  8
0
100
AcDbBlockEnd
  0
BLOCK
  5
14
330
13
100
AcDbEntity
  8
0
100
AcDbBlockBegin
  2
_OPEN
 70
     0
 10
0.0
 20
0.0
 30
0.0
  3
_OPEN
  1

  0
LINE
  5
15
330
13
100
AcDbEntity
  8
0
  6
BYBLOCK
 62
     0
370
    -2
100
AcDbLine
 10
-1.0
 20
0.166667
 30
0.0
 11
0.0
 21
0.0
 31
0.0
  0
LINE
  5
16
330
13
100
AcDbEntity
  8
0
  6
BYBLOCK
 62
     0
370
    -2
100
AcDbLine
 10
0.0
 20
0.0
 30
0.0
 11
-1.0
 21
-0.166667
 31
0.0
  0
LINE
  5
17
330
13
100
AcDbEntity
  8
0
  6
BYBLOCK
 62
     0
370
    -2
100
AcDbLine
 10
0.0
 20
0.0
 30
0.0
 11
-1.0
 21
0.0
 31
0.0
  0
ENDBLK
  5
18
330
13
100
AcDbEntity
  8
0
100
AcDbBlockEnd
  0
BLOCK
  5
1A
330
19
100
AcDbEntity
  8
0
100
AcDbBlockBegin
  2
_ORIGIN
 70
     0
 10
0.0
 20
0.0
 30
0.0
  3
_ORIGIN
  1

  0
CIRCLE
  5
1B
330
19
100
AcDbEntity
  8
0
  6
BYBLOCK
 62
     0
370
    -2
100
AcDbCircle
 10
0.0
 20
0.0
 30
0.0
 40
0.5
  0
LINE
  5
1C
330
19
100
AcDbEntity
  8
0
  6
BYBLOCK
 62
     0
370
    -2
100
AcDbLine
 10
0.0
 20
0.0
 30
0.0
 11
-1.0
 21
0.0
 31
0.0
  0
ENDBLK
  5
1D
330
19
100
AcDbEntity
  8
0
100
AcDbBlockEnd
  0
BLOCK
  5
1F
330
1E
100
AcDbEntity
  8
0
100
AcDbBlockBegin
  2
_OPEN30
 70
     0
 10
0.0
 20
0.0
 30
0.0
  3
_OPEN30
  1

  0
LINE
  5
20
330
1E
100
AcDbEntity
  8
0
  6
BYBLOCK
 62
     0
370
    -2
100
AcDbLine
 10
-1.0
 20
0.267949
 30
0.0
 11
0.0
 21
0.0
 31
0.0
  0
LINE
  5
21
330
1E
100
AcDbEntity
  8
0
  6
BYBLOCK
 62
     0
370
    -2
100
AcDbLine
 10
0.0
 20
0.0
 30
0.0
 11
-1.0
 21
-0.267949
 31
0.0
  0
LINE
  5
22
330
1E
100
AcDbEntity
  8
0
  6
BYBLOCK
 62
     0
370
    -2
100
AcDbLine
 10
0.0
 20
0.0
 30
0.0
 11
-1.0
 21
0.0
 31
0.0
  0
ENDBLK
  5
23
330
1E
100
AcDbEntity
  8
0
100
AcDbBlockEnd
  0
BLOCK
  5
25
330
24
100
AcDbEntity
  8
0
100
AcDbBlockBegin
  2
_BOXFILLED
 70
     0
 10
0.0
 20
0.0
 30
0.0
  3
_BOXFILLED
  1

  0
SOLID
  5
26
330
24
100
AcDbEntity
  8
0
  6
BYBLOCK
 62
     0
370
    -2
100
AcDbTrace
 10
-0.5
 20
0.5
 30
0.0
 11
0.5
 21
0.5
 31
0.0
 12
-0.5
 22
-0.5
 32
0.0
 13
0.5
 23
-0.5
 33
0.0
  0
LINE
  5
27
330
24
100
AcDbEntity
  8
0
  6
BYBLOCK
 62
     0
370
    -2
100
AcDbLine
 10
-0.5
 20
0.0
 30
0.0
 11
-1.0
 21
0.0
 31
0.0
  0
ENDBLK
  5
28
330
24
100
AcDbEntity
  8
0
100
AcDbBlockEnd
  0
BLOCK
  5
2A
330
29
100
AcDbEntity
  8
0
100
AcDbBlockBegin
  2
_BOXBLANK
 70
     0
 10
0.0
 20
0.0
 30
0.0
  3
_BOXBLANK
  1

  0
LINE
  5
2B
330
29
100
AcDbEntity
  8
0
  6
BYBLOCK
 62
     0
370
    -2
100
AcDbLine
 10
-0.5
 20
-0.5
 30
0.0
 11
0.5
 21
-0.5
 31
0.0
  0
LINE
  5
2C
330
29
100
AcDbEntity
  8
0
  6
BYBLOCK
 62
     0
370
    -2
100
AcDbLine
 10
0.5
 20
-0.5
 30
0.0
 11
0.5
 21
0.5
 31
0.0
  0
LINE
  5
2D
330
29
100
AcDbEntity
  8
0
  6
BYBLOCK
 62
     0
370
    -2
100
AcDbLine
 10
0.5
 20
0.5
 30
0.0
 11
-0.5
 21
0.5
 31
0.0
  0
LINE
  5
2E
330
29
100
AcDbEntity
  8
0
  6
BYBLOCK
 62
     0
370
    -2
100
AcDbLine
 10
-0.5
 20
0.5
 30
0.0
 11
-0.5
 21
-0.5
 31
0.0
  0
LINE
  5
2F
330
29
100
AcDbEntity
  8
0
  6
BYBLOCK
 62
     0
370
    -2
100
AcDbLine
 10
-0.5
 20
0.0
 30
0.0
 11
-1.0
 21
0.0
 31
0.0
  0
ENDBLK
  5
30
330
29
100
AcDbEntity
  8
0
100
AcDbBlockEnd
  0
BLOCK
  5
32
330
31
100
AcDbEntity
  8
0
100
AcDbBlockBegin
  2
_OBLIQUE
 70
     0
 10
0.0
 20
0.0
 30
0.0
  3
_OBLIQUE
  1

  0
LINE
  5
33
330
31
100
AcDbEntity
  8
0
  6
BYBLOCK
 62
     0
370
    -2
100
AcDbLine
 10
-0.5
 20
-0.5
 30
0.0
 11
0.5
 21
0.5
 31
0.0
  0
ENDBLK
  5
34
330
31
100
AcDbEntity
  8
0
100
AcDbBlockEnd
  0
BLOCK
  5
36
330
35
100
AcDbEntity
  8
0
100
AcDbBlockBegin
  2
_OPEN90
 70
     0
 10
0.0
 20
0.0
 30
0.0
  3
_OPEN90
  1

  0
LINE
  5
37
330
35
100
AcDbEntity
  8
0
  6
BYBLOCK
 62
     0
370
    -2
100
AcDbLine
 10
-0.5
 20
0.5
 30
0.0
 11
0.0
 21
0.0
 31
0.0
  0
LINE
  5
38
330
35
100
AcDbEntity
  8
0
  6
BYBLOCK
 62
     0
370
    -2
100
AcDbLine
 10
0.0
 20
0.0
 30
0.0
 11
-0.5
 21
-0.5
 31
0.0
  0
LINE
  5
39
330
35
100
AcDbEntity
  8
0
  6
BYBLOCK
 62
     0
370
    -2
100
AcDbLine
 10
0.0
 20
0.0
 30
0.0
 11
-1.0
 21
0.0
 31
0.0
  0
ENDBLK
  5
3A
330
35
100
AcDbEntity
  8
0
100
AcDbBlockEnd
  0
BLOCK
  5
3C
330
3B
100
AcDbEntity
  8
0
100
AcDbBlockBegin
  2
_CLOSEDBLANK
 70
     0
 10
0.0
 20
0.0
 30
0.0
  3
_CLOSEDBLANK
  1

  0
LINE
  5
3D
330
3B
100
AcDbEntity
  8
0
  6
BYBLOCK
 62
     0
370
    -2
100
AcDbLine
 10
-1.0
 20
0.1666666666666666
 30
0.0
 11
0.0
 21
0.0
 31
0.0
  0
LINE
  5
3E
330
3B
100
AcDbEntity
  8
0
  6
BYBLOCK
 62
     0
370
    -2
100
AcDbLine
 10
0.0
 20
0.0
 30
0.0
 11
-1.0
 21
-0.1666666666666666
 31
0.0
  0
LINE
  5
3F
330
3B
100
AcDbEntity
  8
0
  6
BYBLOCK
 62
     0
370
    -2
100
AcDbLine
 10
-1.0
 20
0.1666666666666666
 30
0.0
 11
-1.0
 21
-0.1666666666666666
 31
0.0
  0
ENDBLK
  5
40
330
3B
100
AcDbEntity
  8
0
100
AcDbBlockEnd
  0
BLOCK
  5
42
330
41
100
AcDbEntity
  8
0
100
AcDbBlockBegin
  2
_DOTBLANK
 70
     0
 10
0.0
 20
0.0
 30
0.0
  3
_DOTBLANK
  1

  0
CIRCLE
  5
43
330
41
100
AcDbEntity
  8
0
  6
BYBLOCK
 62
     0
370
    -2
100
AcDbCircle
 10
0.0
 20
0.0
 30
0.0
 40
0.5
  0
LINE
  5
44
330
41
100
AcDbEntity
  8
0
  6
BYBLOCK
 62
     0
370
    -2
100
AcDbLine
 10
-0.5
 20
0.0
 30
0.0
 11
-1.0
 21
0.0
 31
0.0
  0
ENDBLK
  5
45
330
41
100
AcDbEntity
  8
0
100
AcDbBlockEnd
  0
ENDSEC
  0
SECTION
  2
ENTITIES
  0
MTEXT
  5
46
100
AcDbEntity
  8
A8
  6
CONTINUOUS
 62
3
100
AcDbMText
 10
9.999997526638502
 20
18.00000076076889
 30
0.000000000000000
 40
3.000000000000000
 41
0.000000000000000
 44
0.6739999771118164
 71
     7
 72
     1
  1
{\H0.94x;{TYPE No.TCA-540SA-BAU75}}
 11
1.000000000000000
 21
0.000000000000000
 31
0.000000000000000
  7
STANDARD
  0
POINT
  5
47
100
AcDbEntity
  8
A0
  6
CONTINUOUS
 62
3
100
AcDbPoint
 10
9.999997526638502
 20
18.00000076076889
 30
0.000000000000000
  0
POINT
  5
48
100
AcDbEntity
  8
A10
  6
CONTINUOUS
 62
3
100
AcDbPoint
 10
50.00000000000000
 20
50.00000000000000
 30
0.000000000000000
  0
LINE
  5
49
100
AcDbEntity
  8
A1
  6
CONTINUOUS
 62
7
100
AcDbLine
 10
116.0000478928990
 20
130.5278759755190
 30
0.000000000000000
 11
117.0000478928990
 21
91.00001197551882
 31
0.000000000000000
  0
LINE
  5
4A
100
AcDbEntity
  8
A1
  6
CONTINUOUS
 62
7
100
AcDbLine
 10
52.00004989289891
 20
130.5278759755188
 30
0.000000000000000
 11
51.11346389289895
 21
95.48312797551884
 31
0.000000000000000
  0
LINE
  5
4B
100
AcDbEntity
  8
A1
  6
CONTINUOUS
 62
7
100
AcDbLine
 10
57.50004989289886
 20
75.50001197551882
 30
0.000000000000000
 11
61.50004989289886
 21
75.50001197551882
 31
0.000000000000000
  0
ARC
  5
4C
100
AcDbEntity
  8
A1
  6
CONTINUOUS
 62
7
100
AcDbCircle
 10
81.50004989289886
 20
105.5000119755187
 30
0.000000000000000
 40
20.00000000000000
100
AcDbArc
 50
151.0449800000000
 51
179.9999600000000
  0
LINE
  5
4D
100
AcDbEntity
  8
A1
  6
CONTINUOUS
 62
7
100
AcDbLine
 10
106.5000498928989
 20
75.50001197551882
 30
0.000000000000000
 11
110.5000498928989
 21
75.50001197551882
 31
0.000000000000000
  0
ARC
  5
4E
100
AcDbEntity
  8
A1
  6
CONTINUOUS
 62
7
100
AcDbCircle
 10
105.0000498928989
 20
91.00001197551882
 30
0.000000000000000
 40
12.00000000000000
100
AcDbArc
 50
331.0449759999998
 51
360.0000000000000
  0
ARC
  5
4F
100
AcDbEntity
  8
A1
  6
CONTINUOUS
 62
7
100
AcDbCircle
 10
86.50004989289886
 20
105.5000119755187
 30
0.000000000000000
 40
20.00000000000000
100
AcDbArc
 50
0.000000000000000
 51
28.95502299999998
  0
LINE
  5
50
100
AcDbEntity
  8
A1
  6
CONTINUOUS
 62
7
100
AcDbLine
 10
53.40223389289883
 20
134.0000119755186
 30
0.000000000000000
 11
114.5978658928988
 21
134.0000119755186
 31
0.000000000000000
  0
ARC
  5
51
100
AcDbEntity
  8
A1
  6
CONTINUOUS
 62
7
100
AcDbCircle
 10
57.00004989289886
 20
130.5278759755188
 30
0.000000000000000
 40
5.000000000000000
100
AcDbArc
 50
131.8089732690389
 51
179.9999600000000
  0
LINE
  5
52
100
AcDbEntity
  8
A1
  6
CONTINUOUS
 62
7
100
AcDbLine
 10
54.00004989289886
 20
136.0000119755187
 30
0.000000000000000
 11
54.00004989289886
 21
135.0000119755187
 31
0.000000000000000
  0
ARC
  5
53
100
AcDbEntity
  8
A1
  6
CONTINUOUS
 62
7
100
AcDbCircle
 10
115.0000498928989
 20
135.0000119755187
 30
0.000000000000000
 40
1.000000000000000
100
AcDbArc
 50
179.9999799999999
 51
228.1895899999999
  0
ARC
  5
54
100
AcDbEntity
  8
A1
  6
CONTINUOUS
 62
7
100
AcDbCircle
 10
111.0000498928989
 20
130.5278759755188
 30
0.000000000000000
 40
5.000000000000000
100
AcDbArc
 50
0.000000000000000
 51
48.18969600000000
  0
LINE
  5
55
100
AcDbEntity
  8
A1
  6
CONTINUOUS
 62
7
100
AcDbLine
 10
114.0000498928989
 20
136.0000119755187
 30
0.000000000000000
 11
114.0000498928989
 21
135.0000119755187
 31
0.000000000000000
  0
ARC
  5
56
100
AcDbEntity
  8
A1
  6
CONTINUOUS
 62
7
100
AcDbCircle
 10
199.5000498928989
 20
87.50001197551876
 30
0.000000000000000
 40
37.50000000000000
100
AcDbArc
 50
94.89459800000000
 51
374.5046820000000
  0
ARC
  5
57
100
AcDbEntity
  8
A1
  6
CONTINUOUS
 62
7
100
AcDbCircle
 10
167.2262228928989
 20
168.2923359755187
 30
0.000000000000000
 40
99.00000000000000
100
AcDbArc
 50
291.7750500000001
 51
334.3898500000000
  0
ARC
  5
58
100
AcDbEntity
  8
A1
  6
CONTINUOUS
 62
7
100
AcDbCircle
 10
178.5000498928989
 20
114.2394979755188
 30
0.000000000000000
 40
22.00000000000000
100
AcDbArc
 50
308.1445100000001
 51
379.1948700000000
  0
LINE
  5
59
100
AcDbEntity
  8
A1
  6
CONTINUOUS
 62
7
100
AcDbLine
 10
211.5749098928989
 20
83.02954197551890
 30
0.000000000000000
 11
202.2716718928988
 21
130.8905669755187
 31
0.000000000000000
  0
ARC
  5
5A
100
AcDbEntity
  8
A1
  6
CONTINUOUS
 62
7
100
AcDbCircle
 10
199.5000498928989
 20
87.50001197551876
 30
0.000000000000000
 40
12.00000000000000
100
AcDbArc
 50
128.1445300000000
 51
291.7750299999997
  0
LINE
  5
5B
100
AcDbEntity
  8
A1
  6
CONTINUOUS
 62
7
100
AcDbLine
 10
189.5000498928987
 20
134.0000119755186
 30
0.000000000000000
 11
253.1991498928989
 21
134.0000119755186
 31
0.000000000000000
  0
ARC
  5
5C
100
AcDbEntity
  8
A1
  6
CONTINUOUS
 62
7
100
AcDbCircle
 10
193.6105388928989
 20
119.5000119755188
 30
0.000000000000000
 40
6.000000000000000
100
AcDbArc
 50
19.19486900000000
 51
89.99998199999999
  0
ARC
  5
5D
100
AcDbEntity
  8
A1
  6
CONTINUOUS
 62
7
100
AcDbCircle
 10
189.5000498928987
 20
129.0000119755186
 30
0.000000000000000
 40
5.000000000000000
100
AcDbArc
 50
89.99998199999999
 51
179.9999600000000
  0
LINE
  5
5E
100
AcDbEntity
  8
A1
  6
CONTINUOUS
 62
7
100
AcDbLine
 10
185.1803778928988
 20
125.5000119755187
 30
0.000000000000000
 11
193.6105388928989
 21
125.5000119755187
 31
0.000000000000000
  0
LINE
  5
5F
100
AcDbEntity
  8
A1
  6
CONTINUOUS
 62
7
100
AcDbLine
 10
184.5000498928989
 20
129.0000129755188
 30
0.000000000000000
 11
185.1803858928988
 21
125.5000109755187
 31
0.000000000000000
  0
ARC
  5
60
100
AcDbEntity
  8
A1
  6
CONTINUOUS
 62
7
100
AcDbCircle
 10
191.5000498928989
 20
135.0000119755187
 30
0.000000000000000
 40
1.000000000000000
100
AcDbArc
 50
270.0000200000000
 51
360.0000000000000
  0
LINE
  5
61
100
AcDbEntity
  8
A1
  6
CONTINUOUS
 62
7
100
AcDbLine
 10
192.5000498928989
 20
136.0000119755187
 30
0.000000000000000
 11
192.5000498928989
 21
135.0000119755187
 31
0.000000000000000
  0
ARC
  5
62
100
AcDbEntity
  8
A1
  6
CONTINUOUS
 62
7
100
AcDbCircle
 10
253.1991498928989
 20
132.0000119755186
 30
0.000000000000000
 40
2.000000000000000
100
AcDbArc
 50
10.99994800000000
 51
84.24355393319622
  0
LINE
  5
63
100
AcDbEntity
  8
A1
  6
CONTINUOUS
 62
7
100
AcDbLine
 10
252.5000498928989
 20
136.0000119755187
 30
0.000000000000000
 11
252.5000498928989
 21
134.9848836963803
 31
0.000000000000000
  0
LINE
  5
64
100
AcDbEntity
  8
A1
  6
CONTINUOUS
 62
7
100
AcDbLine
 10
256.5000498928988
 20
125.5000099755187
 30
0.000000000000000
 11
255.1623998928988
 21
132.3816269755188
 31
0.000000000000000
  0
LINE
  5
65
100
AcDbEntity
  8
A1
  6
CONTINUOUS
 62
7
100
AcDbLine
 10
167.7780038928988
 20
292.0000119755188
 30
0.000000000000000
 11
189.9859571904032
 21
292.0000119755188
 31
0.000000000000000
  0
ARC
  5
66
100
AcDbEntity
  8
A1
  6
CONTINUOUS
 62
7
100
AcDbCircle
 10
167.7780038928988
 20
287.0000119755187
 30
0.000000000000000
 40
5.000000000000000
100
AcDbArc
 50
89.99998000000004
 51
174.0621899999998
  0
LINE
  5
67
100
AcDbEntity
  8
A1
  6
CONTINUOUS
 62
7
100
AcDbLine
 10
167.7780038928988
 20
252.0000119755187
 30
0.000000000000000
 11
189.9859574450385
 21
252.0000119755187
 31
0.000000000000000
  0
ARC
  5
68
100
AcDbEntity
  8
A1
  6
CONTINUOUS
 62
7
100
AcDbCircle
 10
167.7780038928988
 20
257.0000119755188
 30
0.000000000000000
 40
5.000000000000000
100
AcDbArc
 50
185.9377499999999
 51
269.9999500000000
  0
LINE
  5
69
100
AcDbEntity
  8
A1
  6
CONTINUOUS
 62
7
100
AcDbLine
 10
114.5000498928987
 20
96.50001197551873
 30
0.000000000000000
 11
115.5000498928987
 21
94.50001197551882
 31
0.000000000000000
  0
LINE
  5
6A
100
AcDbEntity
  8
A1
  6
CONTINUOUS
 62
7
100
AcDbLine
 10
114.5000498928989
 20
96.50001197551876
 30
0.000000000000000
 11
114.5000498928989
 21
78.50001197551876
 31
0.000000000000000
  0
CIRCLE
  5
6B
100
AcDbEntity
  8
A1
  6
CONTINUOUS
 62
7
100
AcDbCircle
 10
199.5000498928989
 20
87.50001197551876
 30
0.000000000000000
 40
9.000000000000000
  0
CIRCLE
  5
6C
100
AcDbEntity
  8
A1
  6
CONTINUOUS
 62
7
100
AcDbCircle
 10
199.5000498928989
 20
87.50001197551876
 30
0.000000000000000
 40
2.500000000000000
  0
CIRCLE
  5
6D
100
AcDbEntity
  8
A1
  6
CONTINUOUS
 62
7
100
AcDbCircle
 10
199.5000498928989
 20
87.50001197551876
 30
0.000000000000000
 40
7.000000000000000
  0
LINE
  5
6E
100
AcDbEntity
  8
A1
  6
CONTINUOUS
 62
7
100
AcDbLine
 10
110.5000498928989
 20
78.50001197551876
 30
0.000000000000000
 11
114.5000498928989
 21
78.50001197551876
 31
0.000000000000000
  0
LINE
  5
6F
100
AcDbEntity
  8
A1
  6
CONTINUOUS
 62
7
100
AcDbLine
 10
115.5000498928989
 20
94.50001197551882
 30
0.000000000000000
 11
115.5000498928989
 21
80.50001197551882
 31
0.000000000000000
  0
LINE
  5
70
100
AcDbEntity
  8
A1
  6
CONTINUOUS
 62
7
100
AcDbLine
 10
115.5000498928989
 20
80.50001197551885
 30
0.000000000000000
 11
114.5000498928989
 21
78.50001197551890
 31
0.000000000000000
  0
LINE
  5
71
100
AcDbEntity
  8
A1
  6
CONTINUOUS
 62
7
100
AcDbLine
 10
110.5000498928989
 20
96.50001197551876
 30
0.000000000000000
 11
114.5000498928989
 21
96.50001197551876
 31
0.000000000000000
  0
LINE
  5
72
100
AcDbEntity
  8
A1
  6
CONTINUOUS
 62
7
100
AcDbLine
 10
187.5000498928989
 20
294.3479361901387
 30
0.000000000000000
 11
191.4942997610969
 21
294.3479361901387
 31
0.000000000000000
  0
LINE
  5
73
100
AcDbEntity
  8
A1
  6
CONTINUOUS
 62
7
100
AcDbLine
 10
187.5000498928989
 20
298.5000121901388
 30
0.000000000000000
 11
202.8340897428035
 21
298.5000121901388
 31
0.000000000000000
  0
LINE
  5
74
100
AcDbEntity
  8
A1
  6
CONTINUOUS
 62
7
100
AcDbLine
 10
187.5000498928989
 20
245.5000117608986
 30
0.000000000000000
 11
202.7607508570881
 21
245.5000117608986
 31
0.000000000000000
  0
LINE
  5
75
100
AcDbEntity
  8
A1
  6
CONTINUOUS
 62
7
100
AcDbLine
 10
187.5000498928989
 20
249.6520877608987
 30
0.000000000000000
 11
191.4943000589514
 21
249.6520877608987
 31
0.000000000000000
  0
LINE
  5
76
100
AcDbEntity
  8
A1
  6
CONTINUOUS
 62
7
100
AcDbLine
 10
187.5000498928989
 20
298.5000121901388
 30
0.000000000000000
 11
187.5000498928989
 21
294.3479361901387
 31
0.000000000000000
  0
LINE
  5
77
100
AcDbEntity
  8
A1
  6
CONTINUOUS
 62
7
100
AcDbLine
 10
187.5000498928989
 20
249.6520877608987
 30
0.000000000000000
 11
187.5000498928989
 21
245.5000117608986
 31
0.000000000000000
  0
CIRCLE
  5
78
100
AcDbEntity
  8
A2
  6
CONTINUOUS
 62
4
100
AcDbCircle
 10
222.5000498928989
 20
272.0000119755187
 30
0.000000000000000
 40
22.99999880000000
  0
CIRCLE
  5
79
100
AcDbEntity
  8
A1
  6
CONTINUOUS
 62
7
100
AcDbCircle
 10
222.5000498928989
 20
272.0000119755187
 30
0.000000000000000
 40
33.00000000000000
  0
LINE
  5
7A
100
AcDbEntity
  8
A1
  6
CONTINUOUS
 62
7
100
AcDbLine
 10
230.8716324022997
 20
286.5000079755187
 30
0.000000000000000
 11
214.1284740022997
 21
286.5000079755187
 31
0.000000000000000
  0
LINE
  5
7B
100
AcDbEntity
  8
A1
  6
CONTINUOUS
 62
7
100
AcDbLine
 10
214.1284716928990
 20
286.5000119755188
 30
0.000000000000000
 11
205.7568938928990
 21
272.0000119755188
 31
0.000000000000000
  0
LINE
  5
7C
100
AcDbEntity
  8
A1
  6
CONTINUOUS
 62
7
100
AcDbLine
 10
205.7568918928989
 20
272.0000119755187
 30
0.000000000000000
 11
214.1284697928990
 21
257.5000079755186
 31
0.000000000000000
  0
LINE
  5
7D
100
AcDbEntity
  8
A1
  6
CONTINUOUS
 62
7
100
AcDbLine
 10
230.8716299928987
 20
257.5000079755184
 30
0.000000000000000
 11
239.2432078928988
 21
272.0000119755186
 31
0.000000000000000
  0
LINE
  5
7E
100
AcDbEntity
  8
A1
  6
CONTINUOUS
 62
7
100
AcDbLine
 10
239.2432078928991
 20
272.0000119755188
 30
0.000000000000000
 11
230.8716300928990
 21
286.5000119755188
 31
0.000000000000000
  0
CIRCLE
  5
7F
100
AcDbEntity
  8
A1
  6
CONTINUOUS
 62
7
100
AcDbCircle
 10
222.5000498928989
 20
272.0000119755187
 30
0.000000000000000
 40
10.00000000000000
  0
CIRCLE
  5
80
100
AcDbEntity
  8
A2
  6
CONTINUOUS
 62
4
100
AcDbCircle
 10
222.5000498928989
 20
272.0000119755187
 30
0.000000000000000
 40
8.000000000000000
  0
LINE
  5
81
100
AcDbEntity
  8
A1
  6
CONTINUOUS
 62
7
100
AcDbLine
 10
209.5000538928987
 20
240.5000533353929
 30
0.000000000000000
 11
210.7396754718729
 21
241.1198641248799
 31
0.000000000000000
  0
LINE
  5
82
100
AcDbEntity
  8
A1
  6
CONTINUOUS
 62
7
100
AcDbLine
 10
193.5000498928987
 20
241.5000643353931
 30
0.000000000000000
 11
195.5000498928987
 21
240.5000643353930
 31
0.000000000000000
  0
LINE
  5
83
100
AcDbEntity
  8
A1
  6
CONTINUOUS
 62
7
100
AcDbLine
 10
193.5000498928987
 20
245.5000643353929
 30
0.000000000000000
 11
193.5000498928987
 21
241.5000643353929
 31
0.000000000000000
  0
LINE
  5
84
100
AcDbEntity
  8
A1
  6
CONTINUOUS
 62
7
100
AcDbLine
 10
209.5000498928987
 20
240.5000643353929
 30
0.000000000000000
 11
195.5000498928987
 21
240.5000643353929
 31
0.000000000000000
  0
LINE
  5
85
100
AcDbEntity
  8
A1
  6
CONTINUOUS
 62
7
100
AcDbLine
 10
209.7861546695769
 20
241.5000643353929
 30
0.000000000000000
 11
193.5000498928987
 21
241.5000643353929
 31
0.000000000000000
  0
ARC
  5
86
100
AcDbEntity
  8
A1
  6
CONTINUOUS
 62
7
100
AcDbCircle
 10
223.7000533716014
 20
272.0000121901388
 30
0.000000000000000
 40
39.20000347870257
100
AcDbArc
 50
140.2673643368839
 51
219.7325262024250
  0
ARC
  5
87
100
AcDbEntity
  8
A1
  6
CONTINUOUS
 62
7
100
AcDbCircle
 10
196.6299979900265
 20
294.5000643353927
 30
0.000000000000000
 40
4.000000000000000
100
AcDbArc
 50
90.00000000000000
 51
140.2673643368837
  0
ARC
  5
88
100
AcDbEntity
  8
A1
  6
CONTINUOUS
 62
7
100
AcDbCircle
 10
196.6299550048635
 20
249.5000117608986
 30
0.000000000000000
 40
4.000000000000000
100
AcDbArc
 50
219.7325262024250
 51
270.0000000000000
  0
LINE
  5
89
100
AcDbEntity
  8
A1
  6
CONTINUOUS
 62
7
100
AcDbLine
 10
182.3970021731438
 20
293.5000119755551
 30
0.000000000000000
 11
190.9221601818709
 21
293.5000119755551
 31
0.000000000000000
  0
ARC
  5
8A
100
AcDbEntity
  8
A1
  6
CONTINUOUS
 62
7
100
AcDbCircle
 10
182.3970021731438
 20
292.5000119755551
 30
0.000000000000000
 40
1.000000000000000
100
AcDbArc
 50
89.99997999999960
 51
164.9998900000006
  0
LINE
  5
8B
100
AcDbEntity
  8
A1
  6
CONTINUOUS
 62
7
100
AcDbLine
 10
181.4310711731438
 20
292.7588319755552
 30
0.000000000000000
 11
181.2277471731438
 21
292.0000119755551
 31
0.000000000000000
  0
LINE
  5
8C
100
AcDbEntity
  8
A1
  6
CONTINUOUS
 62
7
100
AcDbLine
 10
182.3970021731438
 20
250.5000119755551
 30
0.000000000000000
 11
190.9221604633746
 21
250.5000119755551
 31
0.000000000000000
  0
ARC
  5
8D
100
AcDbEntity
  8
A1
  6
CONTINUOUS
 62
7
100
AcDbCircle
 10
182.3970021731438
 20
251.5000119755551
 30
0.000000000000000
 40
1.000000000000000
100
AcDbArc
 50
194.9999800000009
 51
269.9999499999997
  0
LINE
  5
8E
100
AcDbEntity
  8
A1
  6
CONTINUOUS
 62
7
100
AcDbLine
 10
206.7500458928987
 20
306.0000843353930
 30
0.000000000000000
 11
207.5000458928987
 21
305.2500843353927
 31
0.000000000000000
  0
LINE
  5
8F
100
AcDbEntity
  8
A1
  6
CONTINUOUS
 62
7
100
AcDbLine
 10
197.5000348928986
 20
305.2500843353926
 30
0.000000000000000
 11
198.2500348928986
 21
306.0000843353928
 31
0.000000000000000
  0
LINE
  5
90
100
AcDbEntity
  8
A1
  6
CONTINUOUS
 62
7
100
AcDbLine
 10
207.5000498928987
 20
305.2500643353928
 30
0.000000000000000
 11
197.5000498928987
 21
305.2500643353928
 31
0.000000000000000
  0
LINE
  5
91
100
AcDbEntity
  8
A1
  6
CONTINUOUS
 62
7
100
AcDbLine
 10
206.7500498928987
 20
306.0000643353928
 30
0.000000000000000
 11
198.2500498928987
 21
306.0000643353928
 31
0.000000000000000
  0
LINE
  5
92
100
AcDbEntity
  8
A10
  6
CONTINUOUS
 62
2
100
AcDbLine
 10
198.2500498928987
 20
306.0000643353928
 30
0.000000000000000
 11
198.2500498928987
 21
305.1000643353929
 31
0.000000000000000
  0
LINE
  5
93
100
AcDbEntity
  8
A10
  6
CONTINUOUS
 62
2
100
AcDbLine
 10
206.7500498928987
 20
306.0000643353928
 30
0.000000000000000
 11
206.7500498928987
 21
305.1000643353929
 31
0.000000000000000
  0
LINE
  5
94
100
AcDbEntity
  8
A1
  6
CONTINUOUS
 62
7
100
AcDbLine
 10
207.5000498928987
 20
305.2500643353928
 30
0.000000000000000
 11
207.5000498928987
 21
305.1000643353929
 31
0.000000000000000
  0
LINE
  5
95
100
AcDbEntity
  8
A1
  6
CONTINUOUS
 62
7
100
AcDbLine
 10
197.5000498928987
 20
305.2500643353928
 30
0.000000000000000
 11
197.5000498928987
 21
305.1000643353929
 31
0.000000000000000
  0
LINE
  5
96
100
AcDbEntity
  8
A1
  6
CONTINUOUS
 62
7
100
AcDbLine
 10
195.2000498928988
 20
305.1000029901388
 30
0.000000000000000
 11
209.8008080395213
 21
305.1000029901388
 31
0.000000000000000
  0
LINE
  5
97
100
AcDbEntity
  8
A1
  6
CONTINUOUS
 62
7
100
AcDbLine
 10
194.0000498928987
 20
303.5000121901388
 30
0.000000000000000
 11
211.0000498928987
 21
303.5000121901388
 31
0.000000000000000
  0
LINE
  5
98
100
AcDbEntity
  8
A1
  6
CONTINUOUS
 62
7
100
AcDbLine
 10
194.0000498928987
 20
298.5000121901388
 30
0.000000000000000
 11
202.5000498928987
 21
298.5000121901388
 31
0.000000000000000
  0
LINE
  5
99
100
AcDbEntity
  8
A1
  6
CONTINUOUS
 62
7
100
AcDbLine
 10
194.0000498928987
 20
299.0000121901388
 30
0.000000000000000
 11
194.5758150928987
 21
299.0000121901388
 31
0.000000000000000
  0
LINE
  5
9A
100
AcDbEntity
  8
A1
  6
CONTINUOUS
 62
7
100
AcDbLine
 10
194.0000498928987
 20
303.0000121901388
 30
0.000000000000000
 11
194.9820224928987
 21
303.0000121901388
 31
0.000000000000000
  0
LINE
  5
9B
100
AcDbEntity
  8
A1
  6
CONTINUOUS
 62
7
100
AcDbLine
 10
194.0000498928987
 20
303.9000031901388
 30
0.000000000000000
 11
194.0000498928987
 21
298.5000121901388
 31
0.000000000000000
  0
LINE
  5
9C
100
AcDbEntity
  8
A1
  6
CONTINUOUS
 62
7
100
AcDbLine
 10
201.9242852928987
 20
299.0000121901388
 30
0.000000000000000
 11
202.5000498928987
 21
299.0000121901388
 31
0.000000000000000
  0
LINE
  5
9D
100
AcDbEntity
  8
A1
  6
CONTINUOUS
 62
7
100
AcDbLine
 10
201.5180772928988
 20
303.0000121901388
 30
0.000000000000000
 11
202.5000498928987
 21
303.0000121901388
 31
0.000000000000000
  0
LINE
  5
9E
100
AcDbEntity
  8
A1
  6
CONTINUOUS
 62
7
100
AcDbLine
 10
194.5758150928987
 20
299.0000121901389
 30
0.000000000000000
 11
194.9820224928986
 21
303.0000121901389
 31
0.000000000000000
  0
LINE
  5
9F
100
AcDbEntity
  8
A1
  6
CONTINUOUS
 62
7
100
AcDbLine
 10
201.5180772928989
 20
303.0000125901387
 30
0.000000000000000
 11
201.9242852928989
 21
299.0000121901388
 31
0.000000000000000
  0
LINE
  5
A0
100
AcDbEntity
  8
A1
  6
CONTINUOUS
 62
7
100
AcDbLine
 10
203.4820224928987
 20
303.0000121901388
 30
0.000000000000000
 11
202.5000498928987
 21
303.0000121901388
 31
0.000000000000000
  0
LINE
  5
A1
100
AcDbEntity
  8
A1
  6
CONTINUOUS
 62
7
100
AcDbLine
 10
203.0758144928988
 20
299.0000121901388
 30
0.000000000000000
 11
202.5000498928987
 21
299.0000121901388
 31
0.000000000000000
  0
LINE
  5
A2
100
AcDbEntity
  8
A1
  6
CONTINUOUS
 62
7
100
AcDbLine
 10
210.0621224729363
 20
302.5662999656519
 30
0.000000000000000
 11
210.0180780928987
 21
303.0000125901389
 31
0.000000000000000
  0
LINE
  5
A3
100
AcDbEntity
  8
A1
  6
CONTINUOUS
 62
7
100
AcDbLine
 10
203.4820224928987
 20
303.0000121901389
 30
0.000000000000000
 11
203.0758144928988
 21
299.0000121901389
 31
0.000000000000000
  0
LINE
  5
A4
100
AcDbEntity
  8
A1
  6
CONTINUOUS
 62
7
100
AcDbLine
 10
202.8340897428035
 20
298.5000121901388
 30
0.000000000000000
 11
202.5000498928987
 21
298.5000121901388
 31
0.000000000000000
  0
LINE
  5
A5
100
AcDbEntity
  8
A1
  6
CONTINUOUS
 62
7
100
AcDbLine
 10
211.0000498928987
 20
303.0000121901388
 30
0.000000000000000
 11
210.0180762928989
 21
303.0000121901388
 31
0.000000000000000
  0
LINE
  5
A6
100
AcDbEntity
  8
A1
  6
CONTINUOUS
 62
7
100
AcDbLine
 10
211.0000498928987
 20
303.9000031901388
 30
0.000000000000000
 11
211.0000498928987
 21
302.9313876319618
 31
0.000000000000000
  0
ARC
  5
A7
100
AcDbEntity
  8
A1
  6
CONTINUOUS
 62
7
100
AcDbCircle
 10
195.2000498928988
 20
303.9000031901388
 30
0.000000000000000
 40
1.200000039999999
100
AcDbArc
 50
90.00000300000094
 51
180.0000099999977
  0
ARC
  5
A8
100
AcDbEntity
  8
A1
  6
CONTINUOUS
 62
7
100
AcDbCircle
 10
198.2500498928987
 20
292.5700079901388
 30
0.000000000000000
 40
10.93000320000000
100
AcDbArc
 50
72.60269100000198
 51
107.3973099999949
  0
ARC
  5
A9
100
AcDbEntity
  8
A1
  6
CONTINUOUS
 62
7
100
AcDbCircle
 10
198.2500498928987
 20
312.2500156501388
 30
0.000000000000000
 40
13.75000280000000
100
AcDbArc
 50
254.5012700000043
 51
285.4987299999956
  0
ARC
  5
AA
100
AcDbEntity
  8
A1
  6
CONTINUOUS
 62
7
100
AcDbCircle
 10
206.7500498928987
 20
312.2500156501388
 30
0.000000000000000
 40
13.75000280000000
100
AcDbArc
 50
254.5012700000043
 51
255.9146431434917
  0
ARC
  5
AB
100
AcDbEntity
  8
A1
  6
CONTINUOUS
 62
7
100
AcDbCircle
 10
206.7500498928987
 20
292.5700079901388
 30
0.000000000000000
 40
10.93000320000000
100
AcDbArc
 50
72.60269100000198
 51
107.3973099999949
  0
ARC
  5
AC
100
AcDbEntity
  8
A1
  6
CONTINUOUS
 62
7
100
AcDbCircle
 10
209.8000490928987
 20
303.9000031901388
 30
0.000000000000000
 40
1.200000039999999
100
AcDbArc
 50
0.000000000000000
 51
90.00000300000094
  0
LINE
  5
AD
100
AcDbEntity
  8
A1
  6
CONTINUOUS
 62
7
100
AcDbLine
 10
181.4310711731436
 20
251.2411919754825
 30
0.000000000000000
 11
181.2277471731437
 21
252.0000119754823
 31
0.000000000000000
  0
ARC
  5
AE
100
AcDbEntity
  8
A1
  6
CONTINUOUS
 62
7
100
AcDbCircle
 10
107.0000498928987
 20
143.5500149755186
 30
0.000000000000000
 40
6.550000200000000
100
AcDbArc
 50
38.27250400000008
 51
79.97523799999931
  0
ARC
  5
AF
100
AcDbEntity
  8
A1
  6
CONTINUOUS
 62
7
100
AcDbCircle
 10
51.11050989289885
 20
144.0117149755187
 30
0.000000000000000
 40
1.500000000000000
100
AcDbArc
 50
270.0000000000000
 51
321.7274899999998
  0
ARC
  5
B0
100
AcDbEntity
  8
A1
  6
CONTINUOUS
 62
7
100
AcDbCircle
 10
61.00004989289886
 20
143.5500149755186
 30
0.000000000000000
 40
6.550000200000000
100
AcDbArc
 50
100.0247599999996
 51
141.7274899999998
  0
ARC
  5
B1
100
AcDbEntity
  8
A1
  6
CONTINUOUS
 62
7
100
AcDbCircle
 10
116.8895918928989
 20
144.0117149755187
 30
0.000000000000000
 40
1.500000000000000
100
AcDbArc
 50
218.2725100000002
 51
270.0000000000000
  0
ARC
  5
B2
100
AcDbEntity
  8
A1
  6
CONTINUOUS
 62
7
100
AcDbCircle
 10
60.00004989289886
 20
136.0000119755187
 30
0.000000000000000
 40
6.000000000000000
100
AcDbArc
 50
153.2567404579975
 51
180.3036500000002
  0
ARC
  5
B3
100
AcDbEntity
  8
A1
  6
CONTINUOUS
 62
7
100
AcDbCircle
 10
108.0000498928987
 20
136.0000119755187
 30
0.000000000000000
 40
6.000000000000000
100
AcDbArc
 50
0.000000000000000
 51
26.74324531281193
  0
LINE
  5
B4
100
AcDbEntity
  8
A1
  6
CONTINUOUS
 62
7
100
AcDbLine
 10
98.50004989289886
 20
154.0000119755187
 30
0.000000000000000
 11
98.50004989289886
 21
150.0000119755187
 31
0.000000000000000
  0
LINE
  5
B5
100
AcDbEntity
  8
A1
  6
CONTINUOUS
 62
7
100
AcDbLine
 10
69.50004989289886
 20
154.0000119755187
 30
0.000000000000000
 11
69.50004989289886
 21
150.0000119755187
 31
0.000000000000000
  0
LINE
  5
B6
100
AcDbEntity
  8
A2
  6
CONTINUOUS
 62
4
100
AcDbLine
 10
92.00004589291166
 20
157.4641205188375
 30
0.000000000000000
 11
94.00004989289886
 21
154.0000119755187
 31
0.000000000000000
  0
LINE
  5
B7
100
AcDbEntity
  8
A1
  6
CONTINUOUS
 62
7
100
AcDbLine
 10
94.00004989289886
 20
192.0000079755313
 30
0.000000000000000
 11
94.00004989289886
 21
154.0000119755187
 31
0.000000000000000
  0
LINE
  5
B8
100
AcDbEntity
  8
A1
  6
CONTINUOUS
 62
7
100
AcDbLine
 10
92.00004589291180
 20
194.0000119755186
 30
0.000000000000000
 11
94.00004989289900
 21
192.0000079755312
 31
0.000000000000000
  0
LINE
  5
B9
100
AcDbEntity
  8
A1
  6
CONTINUOUS
 62
7
100
AcDbLine
 10
74.00004989289886
 20
192.0000079755313
 30
0.000000000000000
 11
94.00004989289886
 21
192.0000079755313
 31
0.000000000000000
  0
LINE
  5
BA
100
AcDbEntity
  8
A1
  6
CONTINUOUS
 62
7
100
AcDbLine
 10
76.00005389288606
 20
194.0000119755187
 30
0.000000000000000
 11
92.00004589291166
 21
194.0000119755187
 31
0.000000000000000
  0
LINE
  5
BB
100
AcDbEntity
  8
A1
  6
CONTINUOUS
 62
7
100
AcDbLine
 10
69.50004989289886
 20
154.0000119755187
 30
0.000000000000000
 11
98.50004989289886
 21
154.0000119755187
 31
0.000000000000000
  0
LINE
  5
BC
100
AcDbEntity
  8
A1
  6
CONTINUOUS
 62
7
100
AcDbLine
 10
55.85781989289882
 20
147.6070999755185
 30
0.000000000000000
 11
52.28810989289884
 21
143.0826169755186
 31
0.000000000000000
  0
LINE
  5
BD
100
AcDbEntity
  8
A2
  6
CONTINUOUS
 62
4
100
AcDbLine
 10
92.00004589291166
 20
194.0000119755187
 30
0.000000000000000
 11
92.00004589291166
 21
157.4641205188375
 31
0.000000000000000
  0
LINE
  5
BE
100
AcDbEntity
  8
A1
  6
CONTINUOUS
 62
7
100
AcDbLine
 10
117.0000498928989
 20
142.5117149755187
 30
0.000000000000000
 11
51.00004989289886
 21
142.5117149755187
 31
0.000000000000000
  0
LINE
  5
BF
100
AcDbEntity
  8
A1
  6
CONTINUOUS
 62
7
100
AcDbLine
 10
112.1422848928990
 20
147.6070999755187
 30
0.000000000000000
 11
115.7119828928990
 21
143.0826139755187
 31
0.000000000000000
  0
LINE
  5
C0
100
AcDbEntity
  8
A1
  6
CONTINUOUS
 62
7
100
AcDbLine
 10
74.00004989289886
 20
157.4641205188375
 30
0.000000000000000
 11
94.00004989289886
 21
157.4641205188375
 31
0.000000000000000
  0
LINE
  5
C1
100
AcDbEntity
  8
A1
  6
CONTINUOUS
 62
7
100
AcDbLine
 10
59.85985989289884
 20
150.0000119755187
 30
0.000000000000000
 11
108.1402478928987
 21
150.0000119755187
 31
0.000000000000000
  0
LINE
  5
C2
100
AcDbEntity
  8
A1
  6
CONTINUOUS
 62
7
100
AcDbLine
 10
117.0000498928989
 20
142.5117149755187
 30
0.000000000000000
 11
117.0000498928989
 21
139.5117569755187
 31
0.000000000000000
  0
LINE
  5
C3
100
AcDbEntity
  8
A1
  6
CONTINUOUS
 62
7
100
AcDbLine
 10
51.00004989289886
 20
142.5117149755187
 30
0.000000000000000
 11
51.00004989289886
 21
139.5117569755187
 31
0.000000000000000
  0
LINE
  5
C4
100
AcDbEntity
  8
A1
  6
CONTINUOUS
 62
7
100
AcDbLine
 10
51.00004989289886
 20
139.5117569755187
 30
0.000000000000000
 11
117.0000498928989
 21
139.5117569755187
 31
0.000000000000000
  0
LINE
  5
C5
100
AcDbEntity
  8
A1
  6
CONTINUOUS
 62
7
100
AcDbLine
 10
74.00004989289886
 20
192.0000079755313
 30
0.000000000000000
 11
74.00004989289886
 21
154.0000119755187
 31
0.000000000000000
  0
LINE
  5
C6
100
AcDbEntity
  8
A2
  6
CONTINUOUS
 62
4
100
AcDbLine
 10
76.00005389288597
 20
157.4641205188375
 30
0.000000000000000
 11
74.00004989289877
 21
154.0000119755187
 31
0.000000000000000
  0
LINE
  5
C7
100
AcDbEntity
  8
A2
  6
CONTINUOUS
 62
4
100
AcDbLine
 10
76.00005389288606
 20
194.0000119755187
 30
0.000000000000000
 11
76.00005389288606
 21
157.4641205188375
 31
0.000000000000000
  0
LINE
  5
C8
100
AcDbEntity
  8
A1
  6
CONTINUOUS
 62
7
100
AcDbLine
 10
76.00005389288621
 20
194.0000119755186
 30
0.000000000000000
 11
74.00004989289901
 21
192.0000079755312
 31
0.000000000000000
  0
LINE
  5
C9
100
AcDbEntity
  8
A1
  6
CONTINUOUS
 62
7
100
AcDbLine
 10
54.64185989289888
 20
138.6999709550471
 30
0.000000000000000
 11
113.3582418928988
 21
138.6999709550471
 31
0.000000000000000
  0
LINE
  5
CA
100
AcDbEntity
  8
A1
  6
CONTINUOUS
 62
7
100
AcDbLine
 10
113.8212919763047
 20
139.5117569755188
 30
0.000000000000000
 11
113.3582418928987
 21
138.6999769550471
 31
0.000000000000000
  0
LINE
  5
CB
100
AcDbEntity
  8
A1
  6
CONTINUOUS
 62
7
100
AcDbLine
 10
54.17879857453486
 20
139.5117569755188
 30
0.000000000000000
 11
54.64185989289894
 21
138.6999699550472
 31
0.000000000000000
  0
LINE
  5
CC
100
AcDbEntity
  8
A1
  6
CONTINUOUS
 62
7
100
AcDbLine
 10
84.00004989289886
 20
154.0000119755187
 30
0.000000000000000
 11
84.00004989289886
 21
150.0000119755187
 31
0.000000000000000
  0
LINE
  5
CD
100
AcDbEntity
  8
A1
  6
CONTINUOUS
 62
7
100
AcDbLine
 10
54.00015461265417
 20
136.0000119754822
 30
0.000000000000000
 11
54.00015461265417
 21
135.0001055925081
 31
0.000000000000000
  0
LINE
  5
CE
100
AcDbEntity
  8
A1
  6
CONTINUOUS
 62
7
100
AcDbLine
 10
114.0001546126542
 20
136.0000119754822
 30
0.000000000000000
 11
114.0001546126542
 21
135.0000129304817
 31
0.000000000000000
  0
ARC
  5
CF
100
AcDbEntity
  8
A1
  6
CONTINUOUS
 62
7
100
AcDbCircle
 10
189.6105078928989
 20
144.0117149755187
 30
0.000000000000000
 40
1.500000000000000
100
AcDbArc
 50
270.0000000000000
 51
321.7274899999980
  0
ARC
  5
D0
100
AcDbEntity
  8
A1
  6
CONTINUOUS
 62
7
100
AcDbCircle
 10
199.5000498928989
 20
143.5500149755186
 30
0.000000000000000
 40
6.550000200000000
100
AcDbArc
 50
100.0247599999996
 51
141.7274899999981
  0
ARC
  5
D1
100
AcDbEntity
  8
A1
  6
CONTINUOUS
 62
7
100
AcDbCircle
 10
198.5000498928989
 20
136.0000119755187
 30
0.000000000000000
 40
6.000000000000000
100
AcDbArc
 50
153.2567404579998
 51
179.9999599999992
  0
LINE
  5
D2
100
AcDbEntity
  8
A1
  6
CONTINUOUS
 62
7
100
AcDbLine
 10
214.1284718928989
 20
154.0000119755187
 30
0.000000000000000
 11
214.1284718928989
 21
150.0000119755187
 31
0.000000000000000
  0
LINE
  5
D3
100
AcDbEntity
  8
A1
  6
CONTINUOUS
 62
7
100
AcDbLine
 10
205.7568938928989
 20
154.0000119755187
 30
0.000000000000000
 11
239.2432058928987
 21
154.0000119755187
 31
0.000000000000000
  0
LINE
  5
D4
100
AcDbEntity
  8
A1
  6
CONTINUOUS
 62
7
100
AcDbLine
 10
205.7568938928989
 20
154.0000119755187
 30
0.000000000000000
 11
205.7568938928989
 21
150.0000119755187
 31
0.000000000000000
  0
LINE
  5
D5
100
AcDbEntity
  8
A1
  6
CONTINUOUS
 62
7
100
AcDbLine
 10
194.3578148928989
 20
147.6070979755186
 30
0.000000000000000
 11
190.7881188928989
 21
143.0826149755186
 31
0.000000000000000
  0
LINE
  5
D6
100
AcDbEntity
  8
A1
  6
CONTINUOUS
 62
7
100
AcDbLine
 10
255.5000498928988
 20
142.5117149755188
 30
0.000000000000000
 11
189.5000498928988
 21
142.5117149755189
 31
0.000000000000000
  0
LINE
  5
D7
100
AcDbEntity
  8
A1
  6
CONTINUOUS
 62
7
100
AcDbLine
 10
198.3598598928988
 20
150.0000119755187
 30
0.000000000000000
 11
246.6402478928989
 21
150.0000119755187
 31
0.000000000000000
  0
LINE
  5
D8
100
AcDbEntity
  8
A1
  6
CONTINUOUS
 62
7
100
AcDbLine
 10
189.5000498928989
 20
142.5117149755188
 30
0.000000000000000
 11
189.5000498928989
 21
139.5117569755187
 31
0.000000000000000
  0
LINE
  5
D9
100
AcDbEntity
  8
A1
  6
CONTINUOUS
 62
7
100
AcDbLine
 10
189.5000498928989
 20
139.5117569755187
 30
0.000000000000000
 11
255.5000498928987
 21
139.5117569755187
 31
0.000000000000000
  0
ARC
  5
DA
100
AcDbEntity
  8
A1
  6
CONTINUOUS
 62
7
100
AcDbCircle
 10
245.5000498928989
 20
143.5500149755186
 30
0.000000000000000
 40
6.550000200000000
100
AcDbArc
 50
38.27250400000008
 51
79.97523799999928
  0
ARC
  5
DB
100
AcDbEntity
  8
A1
  6
CONTINUOUS
 62
7
100
AcDbCircle
 10
255.3895918928989
 20
144.0117149755187
 30
0.000000000000000
 40
1.500000000000000
100
AcDbArc
 50
218.2725100000019
 51
270.0000000000000
  0
ARC
  5
DC
100
AcDbEntity
  8
A1
  6
CONTINUOUS
 62
7
100
AcDbCircle
 10
246.5000498928986
 20
136.0000119755187
 30
0.000000000000000
 40
6.000000000000000
100
AcDbArc
 50
0.000000000000000
 51
26.74324531281202
  0
LINE
  5
DD
100
AcDbEntity
  8
A1
  6
CONTINUOUS
 62
7
100
AcDbLine
 10
230.8716318928987
 20
154.0000119755187
 30
0.000000000000000
 11
230.8716318928987
 21
150.0000119755187
 31
0.000000000000000
  0
LINE
  5
DE
100
AcDbEntity
  8
A1
  6
CONTINUOUS
 62
7
100
AcDbLine
 10
239.2432058928987
 20
154.0000119755187
 30
0.000000000000000
 11
239.2432058928987
 21
150.0000119755187
 31
0.000000000000000
  0
LINE
  5
DF
100
AcDbEntity
  8
A1
  6
CONTINUOUS
 62
7
100
AcDbLine
 10
250.6422848928989
 20
147.6070979755187
 30
0.000000000000000
 11
254.2119788928988
 21
143.0826119755188
 31
0.000000000000000
  0
LINE
  5
E0
100
AcDbEntity
  8
A1
  6
CONTINUOUS
 62
7
100
AcDbLine
 10
255.5000498928987
 20
142.5117149755187
 30
0.000000000000000
 11
255.5000498928987
 21
139.5117569755187
 31
0.000000000000000
  0
LINE
  5
E1
100
AcDbEntity
  8
A1
  6
CONTINUOUS
 62
7
100
AcDbLine
 10
214.5000538928860
 20
194.0000119755187
 30
0.000000000000000
 11
212.5000498928989
 21
192.0000079755316
 31
0.000000000000000
  0
LINE
  5
E2
100
AcDbEntity
  8
A2
  6
CONTINUOUS
 62
4
100
AcDbLine
 10
214.5000538928861
 20
194.0000119755187
 30
0.000000000000000
 11
214.5000538928861
 21
157.4641205188376
 31
0.000000000000000
  0
LINE
  5
E3
100
AcDbEntity
  8
A2
  6
CONTINUOUS
 62
4
100
AcDbLine
 10
214.5000538928861
 20
157.4641205188377
 30
0.000000000000000
 11
212.5000498928989
 21
154.0000119755188
 31
0.000000000000000
  0
LINE
  5
E4
100
AcDbEntity
  8
A1
  6
CONTINUOUS
 62
7
100
AcDbLine
 10
212.5000498928989
 20
192.0000079755315
 30
0.000000000000000
 11
212.5000498928989
 21
154.0000119755187
 31
0.000000000000000
  0
LINE
  5
E5
100
AcDbEntity
  8
A1
  6
CONTINUOUS
 62
7
100
AcDbLine
 10
212.5000498928989
 20
157.4641205188376
 30
0.000000000000000
 11
232.5000498928989
 21
157.4641205188376
 31
0.000000000000000
  0
LINE
  5
E6
100
AcDbEntity
  8
A2
  6
CONTINUOUS
 62
4
100
AcDbLine
 10
230.5000458929117
 20
194.0000119755187
 30
0.000000000000000
 11
230.5000458929114
 21
157.4641205188376
 31
0.000000000000000
  0
LINE
  5
E7
100
AcDbEntity
  8
A1
  6
CONTINUOUS
 62
7
100
AcDbLine
 10
214.5000538928861
 20
194.0000119755187
 30
0.000000000000000
 11
230.5000458929118
 21
194.0000119755187
 31
0.000000000000000
  0
LINE
  5
E8
100
AcDbEntity
  8
A1
  6
CONTINUOUS
 62
7
100
AcDbLine
 10
212.5000498928989
 20
192.0000079755315
 30
0.000000000000000
 11
232.5000498928989
 21
192.0000079755315
 31
0.000000000000000
  0
LINE
  5
E9
100
AcDbEntity
  8
A1
  6
CONTINUOUS
 62
7
100
AcDbLine
 10
230.5000458929119
 20
194.0000119755188
 30
0.000000000000000
 11
232.5000498928989
 21
192.0000079755316
 31
0.000000000000000
  0
LINE
  5
EA
100
AcDbEntity
  8
A1
  6
CONTINUOUS
 62
7
100
AcDbLine
 10
232.5000498928989
 20
192.0000079755315
 30
0.000000000000000
 11
232.5000498928989
 21
154.0000119755187
 31
0.000000000000000
  0
LINE
  5
EB
100
AcDbEntity
  8
A2
  6
CONTINUOUS
 62
4
100
AcDbLine
 10
230.5000458929118
 20
157.4641205188375
 30
0.000000000000000
 11
232.5000498928988
 21
154.0000119755186
 31
0.000000000000000
  0
LINE
  5
EC
100
AcDbEntity
  8
A1
  6
CONTINUOUS
 62
7
100
AcDbLine
 10
193.1418598928989
 20
138.6999709550471
 30
0.000000000000000
 11
251.8582418928988
 21
138.6999709550471
 31
0.000000000000000
  0
LINE
  5
ED
100
AcDbEntity
  8
A1
  6
CONTINUOUS
 62
7
100
AcDbLine
 10
252.3212919763048
 20
139.5117569755189
 30
0.000000000000000
 11
251.8582418928988
 21
138.6999769550473
 31
0.000000000000000
  0
LINE
  5
EE
100
AcDbEntity
  8
A1
  6
CONTINUOUS
 62
7
100
AcDbLine
 10
192.6787985745347
 20
139.5117569755187
 30
0.000000000000000
 11
193.1418598928989
 21
138.6999699550470
 31
0.000000000000000
  0
ARC
  5
EF
100
AcDbEntity
  8
A1
  6
CONTINUOUS
 62
7
100
AcDbCircle
 10
53.00015461265417
 20
135.0001055925081
 30
0.000000000000000
 40
1.000000000000000
100
AcDbArc
 50
311.8089732690393
 51
360.0000000000000
  0
LINE
  5
F0
100
AcDbEntity
  8
A1
  6
CONTINUOUS
 62
7
100
AcDbLine
 10
49.99997753302466
 20
91.75000797551883
 30
0.000000000000000
 11
50.74997753302469
 21
92.50000797551888
 31
0.000000000000000
  0
LINE
  5
F1
100
AcDbEntity
  8
A1
  6
CONTINUOUS
 62
7
100
AcDbLine
 10
50.74997753302475
 20
82.49999697551870
 30
0.000000000000000
 11
49.99997753302475
 21
83.24999697551871
 31
0.000000000000000
  0
LINE
  5
F2
100
AcDbEntity
  8
A1
  6
CONTINUOUS
 62
7
100
AcDbLine
 10
50.74999753302478
 20
92.50001197551876
 30
0.000000000000000
 11
50.74999753302478
 21
82.50001197551876
 31
0.000000000000000
  0
LINE
  5
F3
100
AcDbEntity
  8
A1
  6
CONTINUOUS
 62
7
100
AcDbLine
 10
49.99999753302478
 20
91.75001197551876
 30
0.000000000000000
 11
49.99999753302478
 21
83.25001197551876
 31
0.000000000000000
  0
LINE
  5
F4
100
AcDbEntity
  8
A2
  6
CONTINUOUS
 62
4
100
AcDbLine
 10
49.99999753302475
 20
83.25001197551877
 30
0.000000000000000
 11
50.89999753302473
 21
83.25001197551875
 31
0.000000000000000
  0
LINE
  5
F5
100
AcDbEntity
  8
A2
  6
CONTINUOUS
 62
4
100
AcDbLine
 10
49.99999753302480
 20
91.75001197551877
 30
0.000000000000000
 11
50.89999753302477
 21
91.75001197551875
 31
0.000000000000000
  0
LINE
  5
F6
100
AcDbEntity
  8
A1
  6
CONTINUOUS
 62
7
100
AcDbLine
 10
50.74999753302478
 20
92.50001197551876
 30
0.000000000000000
 11
50.89999753302476
 21
92.50001197551876
 31
0.000000000000000
  0
LINE
  5
F7
100
AcDbEntity
  8
A1
  6
CONTINUOUS
 62
7
100
AcDbLine
 10
50.74999753302478
 20
82.50001197551876
 30
0.000000000000000
 11
50.89999753302476
 21
82.50001197551876
 31
0.000000000000000
  0
LINE
  5
F8
100
AcDbEntity
  8
A1
  6
CONTINUOUS
 62
7
100
AcDbLine
 10
57.51021337240845
 20
96.01022860028228
 30
0.000000000000000
 11
57.50005272349478
 21
79.00006129017687
 31
0.000000000000000
  0
LINE
  5
F9
100
AcDbEntity
  8
A1
  6
CONTINUOUS
 62
7
100
AcDbLine
 10
52.10006172349478
 20
79.00006129017692
 30
0.000000000000000
 11
52.50005272349472
 21
79.00006129017692
 31
0.000000000000000
  0
LINE
  5
FA
100
AcDbEntity
  8
A1
  6
CONTINUOUS
 62
7
100
AcDbLine
 10
57.00005272349478
 20
83.25741989017695
 30
0.000000000000000
 11
57.00005272349478
 21
82.26016929017680
 31
0.000000000000000
  0
LINE
  5
FB
100
AcDbEntity
  8
A1
  6
CONTINUOUS
 62
7
100
AcDbLine
 10
53.00005272349478
 20
82.02564529017690
 30
0.000000000000000
 11
53.00005272349478
 21
83.72646729017691
 31
0.000000000000000
  0
LINE
  5
FC
100
AcDbEntity
  8
A1
  6
CONTINUOUS
 62
7
100
AcDbLine
 10
57.51021337240837
 20
79.01022860028230
 30
0.000000000000000
 11
57.01021437240836
 21
78.01022860028232
 31
0.000000000000000
  0
LINE
  5
FD
100
AcDbEntity
  8
A1
  6
CONTINUOUS
 62
7
100
AcDbLine
 10
53.00005272349496
 20
78.20006129017690
 30
0.000000000000000
 11
52.50005312349494
 21
79.00006129017696
 31
0.000000000000000
  0
LINE
  5
FE
100
AcDbEntity
  8
A1
  6
CONTINUOUS
 62
7
100
AcDbLine
 10
57.00005272349493
 20
78.00006129017690
 30
0.000000000000000
 11
53.00005272349484
 21
78.25204929017690
 31
0.000000000000000
  0
LINE
  5
FF
100
AcDbEntity
  8
A1
  6
CONTINUOUS
 62
7
100
AcDbLine
 10
53.00005272349483
 20
78.20005929017694
 30
0.000000000000000
 11
57.00005172349479
 21
78.00006129017693
 31
0.000000000000000
  0
LINE
  5
100
100
AcDbEntity
  8
A1
  6
CONTINUOUS
 62
7
100
AcDbLine
 10
57.00005172349469
 20
83.25742169017681
 30
0.000000000000000
 11
53.00005272349469
 21
83.72646929017681
 31
0.000000000000000
  0
LINE
  5
101
100
AcDbEntity
  8
A1
  6
CONTINUOUS
 62
7
100
AcDbLine
 10
53.00005232349478
 20
82.02564529017684
 30
0.000000000000000
 11
57.00005272349477
 21
82.26016929017679
 31
0.000000000000000
  0
LINE
  5
102
100
AcDbEntity
  8
A1
  6
CONTINUOUS
 62
7
100
AcDbLine
 10
53.00005272349478
 20
78.20006129017690
 30
0.000000000000000
 11
53.00005272349478
 21
78.25204929017690
 31
0.000000000000000
  0
LINE
  5
103
100
AcDbEntity
  8
A1
  6
CONTINUOUS
 62
7
100
AcDbLine
 10
50.90006192349472
 20
94.80006149017692
 30
0.000000000000000
 11
50.90006192349472
 21
80.19930234365438
 31
0.000000000000000
  0
LINE
  5
104
100
AcDbEntity
  8
A1
  6
CONTINUOUS
 62
7
100
AcDbLine
 10
52.50005272349472
 20
96.00006129017686
 30
0.000000000000000
 11
52.50005272349472
 21
79.00006129017692
 31
0.000000000000000
  0
LINE
  5
105
100
AcDbEntity
  8
A1
  6
CONTINUOUS
 62
7
100
AcDbLine
 10
57.00005272349480
 20
91.74270169017704
 30
0.000000000000000
 11
53.00005272349481
 21
91.27365329017691
 31
0.000000000000000
  0
LINE
  5
106
100
AcDbEntity
  8
A1
  6
CONTINUOUS
 62
7
100
AcDbLine
 10
53.00005272349475
 20
92.97447809017687
 30
0.000000000000000
 11
57.00005272349475
 21
92.73995429017685
 31
0.000000000000000
  0
LINE
  5
107
100
AcDbEntity
  8
A1
  6
CONTINUOUS
 62
7
100
AcDbLine
 10
53.00005272349478
 20
92.97447809017689
 30
0.000000000000000
 11
53.00005272349478
 21
91.27365329017681
 31
0.000000000000000
  0
LINE
  5
108
100
AcDbEntity
  8
A1
  6
CONTINUOUS
 62
7
100
AcDbLine
 10
52.10006172349478
 20
96.00006129017686
 30
0.000000000000000
 11
52.50005272349472
 21
96.00006129017686
 31
0.000000000000000
  0
ARC
  5
109
100
AcDbEntity
  8
A1
  6
CONTINUOUS
 62
7
100
AcDbCircle
 10
52.10006172349478
 20
80.20006129017690
 30
0.000000000000000
 40
1.200000039999999
100
AcDbArc
 50
180.0000030000009
 51
270.0000099999978
  0
ARC
  5
10A
100
AcDbEntity
  8
A1
  6
CONTINUOUS
 62
7
100
AcDbCircle
 10
52.71292532349474
 20
80.13011529017689
 30
0.000000000000000
 40
4.787128000000000
100
AcDbArc
 50
333.5795799999947
 51
386.4204200000054
  0
ARC
  5
10B
100
AcDbEntity
  8
A1
  6
CONTINUOUS
 62
7
100
AcDbCircle
 10
56.31005892349475
 20
80.13884529017690
 30
0.000000000000000
 40
3.810005999999998
100
AcDbArc
 50
150.3156250000020
 51
209.6843800000054
  0
ARC
  5
10C
100
AcDbEntity
  8
A1
  6
CONTINUOUS
 62
7
100
AcDbCircle
 10
52.10006172349478
 20
94.80006149017692
 30
0.000000000000000
 40
1.200000039999999
100
AcDbArc
 50
90.00000000000000
 51
180.0000030000009
  0
ARC
  5
10D
100
AcDbEntity
  8
A1
  6
CONTINUOUS
 62
7
100
AcDbCircle
 10
66.99005272349473
 20
87.50006129017692
 30
0.000000000000000
 40
14.48999980000000
100
AcDbArc
 50
164.9045809999948
 51
195.0954199999996
  0
LINE
  5
10E
100
AcDbEntity
  8
A1
  6
CONTINUOUS
 62
7
100
AcDbLine
 10
57.00005272349478
 20
91.74270169017694
 30
0.000000000000000
 11
57.00005272349478
 21
92.73995429017685
 31
0.000000000000000
  0
ARC
  5
10F
100
AcDbEntity
  8
A1
  6
CONTINUOUS
 62
7
100
AcDbCircle
 10
39.25007069290308
 20
87.50006412077283
 30
0.000000000000000
 40
18.24998203059178
100
AcDbArc
 50
346.5572422592535
 51
373.4427453273010
  0
LINE
  5
110
100
AcDbEntity
  8
A1
  6
CONTINUOUS
 62
7
100
AcDbLine
 10
57.51021337240854
 20
96.01022860028243
 30
0.000000000000000
 11
57.01021437240853
 21
97.01022860028242
 31
0.000000000000000
  0
LINE
  5
111
100
AcDbEntity
  8
A1
  6
CONTINUOUS
 62
7
100
AcDbLine
 10
53.00005272349473
 20
96.80006129017676
 30
0.000000000000000
 11
52.50005312349475
 21
96.00006129017676
 31
0.000000000000000
  0
LINE
  5
112
100
AcDbEntity
  8
A1
  6
CONTINUOUS
 62
7
100
AcDbLine
 10
57.00005272349470
 20
97.00006129017697
 30
0.000000000000000
 11
53.00005272349473
 21
96.74807329017698
 31
0.000000000000000
  0
LINE
  5
113
100
AcDbEntity
  8
A1
  6
CONTINUOUS
 62
7
100
AcDbLine
 10
53.00005272349487
 20
96.80006329017696
 30
0.000000000000000
 11
57.00005172349483
 21
97.00006129017696
 31
0.000000000000000
  0
LINE
  5
114
100
AcDbEntity
  8
A1
  6
CONTINUOUS
 62
7
100
AcDbLine
 10
53.00005272349478
 20
96.80006129017693
 30
0.000000000000000
 11
53.00005272349478
 21
96.74807329017693
 31
0.000000000000000
  0
ARC
  5
115
100
AcDbEntity
  8
A1
  6
CONTINUOUS
 62
7
100
AcDbCircle
 10
52.70275801338931
 20
94.85984564126323
 30
0.000000000000000
 40
4.787128000000000
100
AcDbArc
 50
333.5795799999947
 51
386.4204200000054
  0
ARC
  5
116
100
AcDbEntity
  8
A1
  6
CONTINUOUS
 62
7
100
AcDbCircle
 10
56.31005892349475
 20
94.86127729017693
 30
0.000000000000000
 40
3.810005999999998
100
AcDbArc
 50
150.3156199999956
 51
209.6843749999980
  0
LINE
  5
117
100
AcDbEntity
  8
A1
  6
CONTINUOUS
 62
7
100
AcDbLine
 10
214.1284706928988
 20
257.5000079755187
 30
0.000000000000000
 11
230.8716290928989
 21
257.5000079755187
 31
0.000000000000000
  0
ARC
  5
118
100
AcDbEntity
  8
A1
  6
CONTINUOUS
 62
7
100
AcDbCircle
 10
230.4683666543046
 20
278.8560203683948
 30
0.000000000000000
 40
24.22772896082646
100
AcDbArc
 50
24.88262672826274
 51
80.47591411924543
  0
ELLIPSE
  5
119
100
AcDbEntity
  8
A1
  6
CONTINUOUS
 62
7
100
AcDbEllipse
 10
226.5115160946244
 20
272.0000121901394
 30
0.000000000000000
 11
0.000000000000000
 21
30.99999999998060
 31
0.000000000000000
210
0.000000000000000
220
0.000000000000000
230
1.000000000000000
 40
0.9855742601100692
 41
4.575564236440214
 42
4.849213710703571
  0
ARC
  5
11A
100
AcDbEntity
  8
A1
  6
CONTINUOUS
 62
7
100
AcDbCircle
 10
217.8590411361576
 20
270.2222892003066
 30
0.000000000000000
 40
39.38043281333296
100
AcDbArc
 50
8.772645168605784
 51
28.56142293143556
  0
ARC
  5
11B
100
AcDbEntity
  8
A1
  6
CONTINUOUS
 62
7
100
AcDbCircle
 10
230.4683666543046
 20
265.1440035826426
 30
0.000000000000000
 40
24.22772896082646
100
AcDbArc
 50
279.5240858807546
 51
335.1173732717374
  0
ARC
  5
11C
100
AcDbEntity
  8
A1
  6
CONTINUOUS
 62
7
100
AcDbCircle
 10
217.8590411361574
 20
273.7777347507308
 30
0.000000000000000
 40
39.38043281333304
100
AcDbArc
 50
331.4385770685644
 51
351.2273548313942
  0
ARC
  5
11D
100
AcDbEntity
  8
A1
  6
CONTINUOUS
 62
7
100
AcDbCircle
 10
253.5000498928989
 20
134.9848836963803
 30
0.000000000000000
 40
1.000000000000000
100
AcDbArc
 50
180.0000000000000
 51
264.2435539331963
  0
LINE
  5
11E
100
AcDbEntity
  8
A1
  6
CONTINUOUS
 62
7
100
AcDbLine
 10
110.5000498928989
 20
130.0000119755187
 30
0.000000000000000
 11
110.5000498928989
 21
75.50001197551882
 31
0.000000000000000
  0
LINE
  5
11F
100
AcDbEntity
  8
A1
  6
CONTINUOUS
 62
7
100
AcDbLine
 10
57.50004989289886
 20
130.0000119755187
 30
0.000000000000000
 11
57.50004989289886
 21
75.50001197551882
 31
0.000000000000000
  0
ARC
  5
120
100
AcDbEntity
  8
A1
  6
CONTINUOUS
 62
7
100
AcDbCircle
 10
86.50004989289886
 20
105.5000119755187
 30
0.000000000000000
 40
20.00000000000000
100
AcDbArc
 50
73.94799551682188
 51
86.03410870473402
  0
ARC
  5
121
100
AcDbEntity
  8
A1
  6
CONTINUOUS
 62
7
100
AcDbCircle
 10
81.50004989289886
 20
105.5000119755187
 30
0.000000000000000
 40
20.00000000000000
100
AcDbArc
 50
93.96589129526512
 51
106.0520044831781
  0
ARC
  5
122
100
AcDbEntity
  8
A1
  6
CONTINUOUS
 62
7
100
AcDbCircle
 10
106.5000498928989
 20
130.0000119755187
 30
0.000000000000000
 40
4.000000000000000
100
AcDbArc
 50
0.000000000000000
 51
90.00000300000094
  0
ARC
  5
123
100
AcDbEntity
  8
A1
  6
CONTINUOUS
 62
7
100
AcDbCircle
 10
84.00004989289886
 20
-144.9759938750008
 30
0.000000000000000
 40
271.7710796623700
100
AcDbArc
 50
84.40428116838913
 51
95.59571883161087
  0
ARC
  5
124
100
AcDbEntity
  8
A1
  6
CONTINUOUS
 62
7
100
AcDbCircle
 10
61.50004989289886
 20
130.0000119755187
 30
0.000000000000000
 40
4.000000000000000
100
AcDbArc
 50
90.00000300000094
 51
180.0000000000000
  0
ARC
  5
125
100
AcDbEntity
  8
A1
  6
CONTINUOUS
 62
7
100
AcDbCircle
 10
84.00004989289886
 20
69.43986653157501
 30
0.000000000000000
 40
56.14670233144888
100
AcDbArc
 50
86.03410870473492
 51
93.96589129526510
  0
LINE
  5
126
100
AcDbEntity
  8
A1
  6
CONTINUOUS
 62
7
100
AcDbLine
 10
64.00004989289886
 20
54.69020096943535
 30
0.000000000000000
 11
64.00004989289886
 21
120.3098078347644
 31
0.000000000000000
  0
LINE
  5
127
100
AcDbEntity
  8
A1
  6
CONTINUOUS
 62
7
100
AcDbLine
 10
104.0000498928989
 20
54.69020096943535
 30
0.000000000000000
 11
104.0000498928989
 21
120.3098078347644
 31
0.000000000000000
  0
LINE
  5
128
100
AcDbEntity
  8
A4
  6
CENTER
 62
1
100
AcDbLine
 10
84.00004989289886
 20
195.5000119755187
 30
0.000000000000000
 11
84.00004989289886
 21
48.50000451748448
 31
0.000000000000000
  0
LINE
  5
129
100
AcDbEntity
  8
A4
  6
CENTER
 62
1
100
AcDbLine
 10
238.5000498928989
 20
87.50001197551876
 30
0.000000000000000
 11
160.5000498928989
 21
87.50001197551876
 31
0.000000000000000
  0
LINE
  5
12A
100
AcDbEntity
  8
A4
  6
CENTER
 62
1
100
AcDbLine
 10
222.5000498928989
 20
306.5000119755187
 30
0.000000000000000
 11
222.5000498928989
 21
237.5000119755187
 31
0.000000000000000
  0
LINE
  5
12B
100
AcDbEntity
  8
A4
  6
CENTER
 62
1
100
AcDbLine
 10
202.5000624208707
 20
239.0000643353929
 30
0.000000000000000
 11
202.5000408649327
 21
307.5000643353928
 31
0.000000000000000
  0
LINE
  5
12C
100
AcDbEntity
  8
A4
  6
CENTER
 62
1
100
AcDbLine
 10
48.49999753302484
 20
87.50000267482201
 30
0.000000000000000
 11
118.0384546868407
 21
87.50001191418798
 31
0.000000000000000
  0
LINE
  5
12D
100
AcDbEntity
  8
A4
  6
CENTER
 62
1
100
AcDbLine
 10
160.5000498928989
 20
272.0000119755187
 30
0.000000000000000
 11
258.5000498928989
 21
272.0000119755187
 31
0.000000000000000
  0
LINE
  5
12E
100
AcDbEntity
  8
A4
  6
CENTER
 62
1
100
AcDbLine
 10
222.5000498928989
 20
195.5000119755187
 30
0.000000000000000
 11
222.5000498928989
 21
48.50001197551876
 31
0.000000000000000
  0
LINE
  5
12F
100
AcDbEntity
  8
A4
  6
CENTER
 62
1
100
AcDbLine
 10
199.5000498928989
 20
48.50001197551876
 30
0.000000000000000
 11
199.5000498928989
 21
126.5000119755188
 31
0.000000000000000
  0
LINE
  5
130
100
AcDbEntity
  8
A1
  6
CONTINUOUS
 62
7
100
AcDbLine
 10
61.50004989289886
 20
77.34615790209989
 30
0.000000000000000
 11
62.50004989289886
 21
77.34615790209989
 31
0.000000000000000
  0
LINE
  5
131
100
AcDbEntity
  8
A1
  6
CONTINUOUS
 62
7
100
AcDbLine
 10
62.50004989289886
 20
97.65385090209986
 30
0.000000000000000
 11
61.50004989289886
 21
97.65385090209986
 31
0.000000000000000
  0
LINE
  5
132
100
AcDbEntity
  8
A1
  6
CONTINUOUS
 62
7
100
AcDbLine
 10
105.5000498928989
 20
77.34615790209989
 30
0.000000000000000
 11
106.5000498928989
 21
77.34615790209989
 31
0.000000000000000
  0
LINE
  5
133
100
AcDbEntity
  8
A1
  6
CONTINUOUS
 62
7
100
AcDbLine
 10
106.5000498928989
 20
97.65385090209986
 30
0.000000000000000
 11
105.5000498928989
 21
97.65385090209986
 31
0.000000000000000
  0
LINE
  5
134
100
AcDbEntity
  8
A1
  6
CONTINUOUS
 62
7
100
AcDbLine
 10
62.50004989289886
 20
106.5384659405614
 30
0.000000000000000
 11
62.50004989289886
 21
68.46154286363833
 31
0.000000000000000
  0
ARC
  5
135
100
AcDbEntity
  8
A1
  6
CONTINUOUS
 62
7
100
AcDbCircle
 10
63.65389604674505
 20
68.46154286363833
 30
0.000000000000000
 40
1.153846153846157
100
AcDbArc
 50
180.0000000000000
 51
269.9999999999993
  0
ARC
  5
136
100
AcDbEntity
  8
A1
  6
CONTINUOUS
 62
7
100
AcDbCircle
 10
63.65389604674505
 20
106.5384659405614
 30
0.000000000000000
 40
1.153846153846157
100
AcDbArc
 50
90.00000000000072
 51
180.0000000000000
  0
LINE
  5
137
100
AcDbEntity
  8
A1
  6
CONTINUOUS
 62
7
100
AcDbLine
 10
105.5000498928989
 20
106.5384659405614
 30
0.000000000000000
 11
105.5000498928989
 21
68.46154286363833
 31
0.000000000000000
  0
ARC
  5
138
100
AcDbEntity
  8
A1
  6
CONTINUOUS
 62
7
100
AcDbCircle
 10
104.3462037390527
 20
68.46154286363833
 30
0.000000000000000
 40
1.153846153846146
100
AcDbArc
 50
269.9999999999993
 51
360.0000000000009
  0
ARC
  5
139
100
AcDbEntity
  8
A1
  6
CONTINUOUS
 62
7
100
AcDbCircle
 10
104.3462037390527
 20
106.5384659405614
 30
0.000000000000000
 40
1.153846153846153
100
AcDbArc
 50
359.9999999999995
 51
450.0000000000005
  0
LINE
  5
13A
100
AcDbEntity
  8
A1
  6
CONTINUOUS
 62
7
100
AcDbLine
 10
104.0000498928989
 20
67.30769670979220
 30
0.000000000000000
 11
104.3462037390527
 21
67.30769670979220
 31
0.000000000000000
  0
LINE
  5
13B
100
AcDbEntity
  8
A1
  6
CONTINUOUS
 62
7
100
AcDbLine
 10
63.65389604674505
 20
67.30769670979220
 30
0.000000000000000
 11
64.00004989289886
 21
67.30769670979220
 31
0.000000000000000
  0
LINE
  5
13C
100
AcDbEntity
  8
A1
  6
CONTINUOUS
 62
7
100
AcDbLine
 10
64.00004989289886
 20
107.6923120944076
 30
0.000000000000000
 11
63.65389604674505
 21
107.6923120944076
 31
0.000000000000000
  0
LINE
  5
13D
100
AcDbEntity
  8
A1
  6
CONTINUOUS
 62
7
100
AcDbLine
 10
104.3462037390527
 20
107.6923120944076
 30
0.000000000000000
 11
104.0000498928989
 21
107.6923120944076
 31
0.000000000000000
  0
ARC
  5
13E
100
AcDbEntity
  8
A1
  6
CONTINUOUS
 62
7
100
AcDbCircle
 10
100.5385111428988
 20
54.69020096943535
 30
0.000000000000000
 40
3.461538750000025
100
AcDbArc
 50
278.4975036958471
 51
359.9999999999998
  0
ARC
  5
13F
100
AcDbEntity
  8
A1
  6
CONTINUOUS
 62
7
100
AcDbCircle
 10
100.5385111428988
 20
120.3098078347644
 30
0.000000000000000
 40
3.461538750000013
100
AcDbArc
 50
359.9999999999998
 51
441.5024963041531
  0
ARC
  5
140
100
AcDbEntity
  8
A1
  6
CONTINUOUS
 62
7
100
AcDbCircle
 10
67.46158864289890
 20
54.69020096943535
 30
0.000000000000000
 40
3.461538749999999
100
AcDbArc
 50
179.9999999999998
 51
261.5024963041533
  0
ARC
  5
141
100
AcDbEntity
  8
A1
  6
CONTINUOUS
 62
7
100
AcDbCircle
 10
67.46158864289890
 20
120.3098078347644
 30
0.000000000000000
 40
3.461538750000008
100
AcDbArc
 50
98.49750369584685
 51
180.0000000000001
  0
ARC
  5
142
100
AcDbEntity
  8
A1
  6
CONTINUOUS
 62
7
100
AcDbCircle
 10
84.00004989289886
 20
9.615388902098033
 30
0.000000000000000
 40
115.3846153846172
100
AcDbArc
 50
81.50249630415341
 51
98.49750369584662
  0
ARC
  5
143
100
AcDbEntity
  8
A1
  6
CONTINUOUS
 62
7
100
AcDbCircle
 10
84.00004989289886
 20
165.3846199021017
 30
0.000000000000000
 40
115.3846153846172
100
AcDbArc
 50
261.5024963041534
 51
278.4975036958466
  0
ARC
  5
144
100
AcDbEntity
  8
A1
  6
CONTINUOUS
 62
7
100
AcDbCircle
 10
178.0535853712973
 20
82.95353347416653
 30
0.000000000000000
 40
1.730769355396421
100
AcDbArc
 50
292.4150563402811
 51
371.9690431963653
  0
LINE
  5
145
100
AcDbEntity
  8
A1
  6
CONTINUOUS
 62
7
100
AcDbLine
 10
177.0886014991444
 20
80.68327558708448
 30
0.000000000000000
 11
178.7135507767290
 21
81.35353090378963
 31
0.000000000000000
  0
ARC
  5
146
100
AcDbEntity
  8
A1
  6
CONTINUOUS
 62
7
100
AcDbCircle
 10
176.4286361829144
 20
82.28327805944224
 30
0.000000000000000
 40
1.730769230769227
100
AcDbArc
 50
192.7410365096108
 51
292.4150548477407
  0
ARC
  5
147
100
AcDbEntity
  8
A1
  6
CONTINUOUS
 62
7
100
AcDbCircle
 10
199.5000498928991
 20
87.50001197551876
 30
0.000000000000000
 40
25.38461550000026
100
AcDbArc
 50
166.6036527574734
 51
192.7410365096108
  0
ARC
  5
148
100
AcDbEntity
  8
A1
  6
CONTINUOUS
 62
7
100
AcDbCircle
 10
176.2653192371609
 20
93.03374027912662
 30
0.000000000000000
 40
1.499999999999998
100
AcDbArc
 50
67.58494515225964
 51
166.6036527574733
  0
LINE
  5
149
100
AcDbEntity
  8
A1
  6
CONTINUOUS
 62
7
100
AcDbLine
 10
178.7135509543273
 20
93.64649297399257
 30
0.000000000000000
 11
176.8372891778940
 21
94.42040908850315
 31
0.000000000000000
  0
ARC
  5
14A
100
AcDbEntity
  8
A1
  6
CONTINUOUS
 62
7
100
AcDbCircle
 10
178.0535857260922
 20
92.04649071496866
 30
0.000000000000000
 40
1.730769000000005
100
AcDbArc
 50
348.0309525148523
 51
427.5849451522596
  0
ARC
  5
14B
100
AcDbEntity
  8
A1
  6
CONTINUOUS
 62
7
100
AcDbCircle
 10
181.1202636183727
 20
99.45010669239488
 30
0.000000000000000
 40
1.730769355396425
100
AcDbArc
 50
247.4150563402814
 51
326.9690431963652
  0
LINE
  5
14C
100
AcDbEntity
  8
A1
  6
CONTINUOUS
 62
7
100
AcDbLine
 10
178.8326022316400
 20
98.52713858513177
 30
0.000000000000000
 11
180.4555569644728
 21
97.85206801143610
 31
0.000000000000000
  0
ARC
  5
14D
100
AcDbEntity
  8
A1
  6
CONTINUOUS
 62
7
100
AcDbCircle
 10
179.4973088793050
 20
100.1251771337055
 30
0.000000000000000
 40
1.730769230769234
100
AcDbArc
 50
147.7410365096109
 51
247.4150548477406
  0
ARC
  5
14E
100
AcDbEntity
  8
A1
  6
CONTINUOUS
 62
7
100
AcDbCircle
 10
199.5000498928992
 20
87.50001197551845
 30
0.000000000000000
 40
25.38461550000041
100
AcDbArc
 50
121.6036527574735
 51
147.7410365096107
  0
ARC
  5
14F
100
AcDbEntity
  8
A1
  6
CONTINUOUS
 62
7
100
AcDbCircle
 10
186.9835510959086
 20
107.8423843899591
 30
0.000000000000000
 40
1.499999999999995
100
AcDbArc
 50
22.58494515225933
 51
121.6036527574734
  0
LINE
  5
150
100
AcDbEntity
  8
A1
  6
CONTINUOUS
 62
7
100
AcDbLine
 10
189.1479939307631
 20
106.5445047265651
 30
0.000000000000000
 11
188.3685178380059
 21
108.4184634846022
 31
0.000000000000000
  0
ARC
  5
151
100
AcDbEntity
  8
A1
  6
CONTINUOUS
 62
7
100
AcDbCircle
 10
187.5499555952611
 20
105.8797981675275
 30
0.000000000000000
 40
1.730769000000006
100
AcDbArc
 50
303.0309525148523
 51
382.5849451522596
  0
ARC
  5
152
100
AcDbEntity
  8
A1
  6
CONTINUOUS
 62
7
100
AcDbCircle
 10
194.9535712935274
 20
108.9464764079186
 30
0.000000000000000
 40
1.730769230769240
100
AcDbArc
 50
202.4150548477406
 51
281.9690523415790
  0
LINE
  5
153
100
AcDbEntity
  8
A1
  6
CONTINUOUS
 62
7
100
AcDbLine
 10
192.6833135044646
 20
109.9114603692730
 30
0.000000000000000
 11
193.3535688211698
 21
108.2865110916884
 31
0.000000000000000
  0
ARC
  5
154
100
AcDbEntity
  8
A1
  6
CONTINUOUS
 62
7
100
AcDbCircle
 10
194.2833159768223
 20
110.5714256855032
 30
0.000000000000000
 40
1.730769230769231
100
AcDbArc
 50
102.7410365096109
 51
202.4150548477406
  0
ARC
  5
155
100
AcDbEntity
  8
A1
  6
CONTINUOUS
 62
7
100
AcDbCircle
 10
199.5000498928986
 20
87.50001197551876
 30
0.000000000000000
 40
25.38461550000027
100
AcDbArc
 50
346.6036527574734
 51
360.7092036493190
  0
ARC
  5
156
100
AcDbEntity
  8
A1
  6
CONTINUOUS
 62
7
100
AcDbCircle
 10
222.7347805486368
 20
81.96628367191090
 30
0.000000000000000
 40
1.499999999999998
100
AcDbArc
 50
247.5849451522597
 51
346.6036527574733
  0
LINE
  5
157
100
AcDbEntity
  8
A1
  6
CONTINUOUS
 62
7
100
AcDbLine
 10
220.2865488314709
 20
81.35353097704477
 30
0.000000000000000
 11
222.1628106079042
 21
80.57961486253420
 31
0.000000000000000
  0
ARC
  5
158
100
AcDbEntity
  8
A1
  6
CONTINUOUS
 62
7
100
AcDbCircle
 10
220.9465140597055
 20
82.95353323606886
 30
0.000000000000000
 40
1.730769000000006
100
AcDbArc
 50
168.0309525148523
 51
247.5849451522596
  0
ARC
  5
159
100
AcDbEntity
  8
A1
  6
CONTINUOUS
 62
7
100
AcDbCircle
 10
217.8798361674250
 20
75.54991725864261
 30
0.000000000000000
 40
1.730769355396422
100
AcDbArc
 50
67.41505634028151
 51
146.9690431963652
  0
LINE
  5
15A
100
AcDbEntity
  8
A1
  6
CONTINUOUS
 62
7
100
AcDbLine
 10
220.1674975541579
 20
76.47288536590561
 30
0.000000000000000
 11
218.5445428213251
 21
77.14795593960133
 31
0.000000000000000
  0
ARC
  5
15B
100
AcDbEntity
  8
A1
  6
CONTINUOUS
 62
7
100
AcDbCircle
 10
219.5027909064927
 20
74.87484681733201
 30
0.000000000000000
 40
1.730769230769231
100
AcDbArc
 50
327.7410365096108
 51
427.4150548477406
  0
ARC
  5
15C
100
AcDbEntity
  8
A1
  6
CONTINUOUS
 62
7
100
AcDbCircle
 10
199.5000498928985
 20
87.50001197551910
 30
0.000000000000000
 40
25.38461550000046
100
AcDbArc
 50
301.6036527574735
 51
327.7410365096107
  0
ARC
  5
15D
100
AcDbEntity
  8
A1
  6
CONTINUOUS
 62
7
100
AcDbCircle
 10
212.0165486898891
 20
67.15763956107844
 30
0.000000000000000
 40
1.499999999999990
100
AcDbArc
 50
202.5849451522594
 51
301.6036527574736
  0
LINE
  5
15E
100
AcDbEntity
  8
A1
  6
CONTINUOUS
 62
7
100
AcDbLine
 10
209.8521058550349
 20
68.45551922447250
 30
0.000000000000000
 11
210.6315819477920
 21
66.58156046643536
 31
0.000000000000000
  0
ARC
  5
15F
100
AcDbEntity
  8
A1
  6
CONTINUOUS
 62
7
100
AcDbCircle
 10
211.4501441905366
 20
69.12022578350999
 30
0.000000000000000
 40
1.730769000000009
100
AcDbArc
 50
123.0309525148524
 51
202.5849451522595
  0
ARC
  5
160
100
AcDbEntity
  8
A1
  6
CONTINUOUS
 62
7
100
AcDbCircle
 10
204.0465283942511
 20
66.05354745391725
 30
0.000000000000000
 40
1.730769355396419
100
AcDbArc
 50
22.41505634028117
 51
101.9690431963653
  0
LINE
  5
161
100
AcDbEntity
  8
A1
  6
CONTINUOUS
 62
7
100
AcDbLine
 10
206.3167862813332
 20
65.08856358176448
 30
0.000000000000000
 11
205.6465309646280
 21
66.71351285934905
 31
0.000000000000000
  0
ARC
  5
162
100
AcDbEntity
  8
A1
  6
CONTINUOUS
 62
7
100
AcDbCircle
 10
204.7167838089754
 20
64.42859826553428
 30
0.000000000000000
 40
1.730769230769227
100
AcDbArc
 50
282.7410365096108
 51
382.4150548477407
  0
ARC
  5
163
100
AcDbEntity
  8
A1
  6
CONTINUOUS
 62
7
100
AcDbCircle
 10
199.5000498928989
 20
87.50001197551904
 30
0.000000000000000
 40
25.38461550000027
100
AcDbArc
 50
256.6036527574735
 51
282.7410365096108
  0
ARC
  5
164
100
AcDbEntity
  8
A1
  6
CONTINUOUS
 62
7
100
AcDbCircle
 10
193.9663215892910
 20
64.26528131978080
 30
0.000000000000000
 40
1.499999999999998
100
AcDbArc
 50
157.5849451522596
 51
256.6036527574732
  0
LINE
  5
165
100
AcDbEntity
  8
A1
  6
CONTINUOUS
 62
7
100
AcDbLine
 10
193.3535688944250
 20
66.71351303694695
 30
0.000000000000000
 11
192.5796527799144
 21
64.83725126051360
 31
0.000000000000000
  0
ARC
  5
166
100
AcDbEntity
  8
A1
  6
CONTINUOUS
 62
7
100
AcDbCircle
 10
194.9535711534490
 20
66.05354780871212
 30
0.000000000000000
 40
1.730769000000005
100
AcDbArc
 50
78.03095251485234
 51
157.5849451522596
  0
ARC
  5
167
100
AcDbEntity
  8
A1
  6
CONTINUOUS
 62
7
100
AcDbCircle
 10
187.5499551760227
 20
69.12022570099259
 30
0.000000000000000
 40
1.730769355396424
100
AcDbArc
 50
337.4150563402815
 51
416.9690431963652
  0
LINE
  5
168
100
AcDbEntity
  8
A1
  6
CONTINUOUS
 62
7
100
AcDbLine
 10
188.4729232832856
 20
66.83256431425991
 30
0.000000000000000
 11
189.1479938569813
 21
68.45551904709275
 31
0.000000000000000
  0
ARC
  5
169
100
AcDbEntity
  8
A1
  6
CONTINUOUS
 62
7
100
AcDbCircle
 10
186.8748847347121
 20
67.49727096192487
 30
0.000000000000000
 40
1.730769230769226
100
AcDbArc
 50
237.7410365096107
 51
337.4150548477409
  0
ARC
  5
16A
100
AcDbEntity
  8
A1
  6
CONTINUOUS
 62
7
100
AcDbCircle
 10
199.5000498928991
 20
87.50001197551899
 30
0.000000000000000
 40
25.38461550000033
100
AcDbArc
 50
211.6036527574734
 51
237.7410365096107
  0
ARC
  5
16B
100
AcDbEntity
  8
A1
  6
CONTINUOUS
 62
7
100
AcDbCircle
 10
179.1576774784585
 20
74.98351317852854
 30
0.000000000000000
 40
1.500000000000001
100
AcDbArc
 50
112.5849451522597
 51
211.6036527574731
  0
LINE
  5
16C
100
AcDbEntity
  8
A1
  6
CONTINUOUS
 62
7
100
AcDbLine
 10
180.4555571418527
 20
77.14795601338284
 30
0.000000000000000
 11
178.5815983838157
 21
76.36847992062576
 31
0.000000000000000
  0
ARC
  5
16D
100
AcDbEntity
  8
A1
  6
CONTINUOUS
 62
7
100
AcDbCircle
 10
181.1202637008901
 20
75.54991767788098
 30
0.000000000000000
 40
1.730769000000006
100
AcDbArc
 50
33.03095251485227
 51
112.5849451522596
  0
LINE
  5
16E
100
AcDbEntity
  8
A1
  6
CONTINUOUS
 62
7
100
AcDbLine
 10
61.50004989289886
 20
75.50001197551882
 30
0.000000000000000
 11
61.50004989289886
 21
125.8620938099669
 31
0.000000000000000
  0
LINE
  5
16F
100
AcDbEntity
  8
A1
  6
CONTINUOUS
 62
7
100
AcDbLine
 10
106.5000498928989
 20
75.50001197551882
 30
0.000000000000000
 11
106.5000498928989
 21
125.8620938099670
 31
0.000000000000000
  0
ARC
  5
170
100
AcDbEntity
  8
A1
  6
CONTINUOUS
 62
7
100
AcDbCircle
 10
199.5000498928989
 20
87.50001197551848
 30
0.000000000000000
 40
25.38461550000026
100
AcDbArc
 50
90.00000000000000
 51
102.7410365096108
  0
ARC
  5
171
100
AcDbEntity
  8
A1
  6
CONTINUOUS
 62
7
100
AcDbCircle
 10
199.5000498928989
 20
87.50001197551876
 30
0.000000000000000
 40
20.19230769230770
100
AcDbArc
 50
89.99091710245585
 51
350.4948843894130
  0
ARC
  5
172
100
AcDbEntity
  8
A1
  6
CONTINUOUS
 62
7
100
AcDbCircle
 10
199.5000498928989
 20
87.50001197551876
 30
0.000000000000000
 40
28.96153875000000
100
AcDbArc
 50
90.00000000000000
 51
365.7252713994141
  0
ARC
  5
173
100
AcDbEntity
  8
A1
  6
CONTINUOUS
 62
7
100
AcDbCircle
 10
199.5000498928989
 20
87.50001197551876
 30
0.000000000000000
 40
28.84615349999999
100
AcDbArc
 50
90.00000000000000
 51
365.5800554557301
  0
ARC
  5
174
100
AcDbEntity
  8
A1
  6
CONTINUOUS
 62
7
100
AcDbCircle
 10
199.5000498928989
 20
87.50001197551876
 30
0.000000000000000
 40
17.14857984328279
100
AcDbArc
 50
94.08571130392632
 51
341.2733034374285
  0
ARC
  5
175
100
AcDbEntity
  8
A1
  6
CONTINUOUS
 62
7
100
AcDbCircle
 10
199.5000498928989
 20
87.50001197551876
 30
0.000000000000000
 40
17.30769230769232
100
AcDbArc
 50
93.78426885523346
 51
341.8578383828801
  0
ARC
  5
176
100
AcDbEntity
  8
A1
  6
CONTINUOUS
 62
7
100
AcDbCircle
 10
199.5000498928989
 20
87.50001197551876
 30
0.000000000000000
 40
17.88461538461539
100
AcDbArc
 50
92.78834860871760
 51
343.8626212790413
  0
ARC
  5
177
100
AcDbEntity
  8
A1
  6
CONTINUOUS
 62
7
100
AcDbCircle
 10
312.0000498928989
 20
272.0000119755187
 30
0.000000000000000
 40
150.0000000000000
100
AcDbArc
 50
174.0622100000000
 51
185.9377200000000
  0
ENDSEC
  0
SECTION
  2
OBJECTS
  0
DICTIONARY
  5
1A2
100
AcDbDictionary
  3
ACAD_GROUP
350
1A3
  3
ACAD_LAYOUT
350
1A4
  3
ACAD_MLINESTYLE
350
1A5
  0
DICTIONARY
  5
1A3
102
{ACAD_REACTORS
330
1A2
102
}
330
1A2
100
AcDbDictionary
  0
DICTIONARY
  5
1A4
102
{ACAD_REACTORS
330
1A2
102
}
330
1A2
100
AcDbDictionary
  3
Model
350
1A6
  3
ﾚｲｱｳﾄ1
350
1A7
  3
ﾚｲｱｳﾄ2
350
1A8
  0
DICTIONARY
  5
1A5
102
{ACAD_REACTORS
330
1A2
102
}
330
1A2
100
AcDbDictionary
  3
STANDARD
350
1A9
  0
LAYOUT
  5
1A6
102
{ACAD_REACTORS
330
1A4
102
}
330
1A4
100
AcDbPlotSettings
 70
11952
  4
A3
 44
297.000000
 45
420.000000
 73
  1
 72
  1
100
AcDbLayout
  1
Model
 71
0
330
199
  0
LAYOUT
  5
1A7
102
{ACAD_REACTORS
330
1A4
102
}
330
1A4
100
AcDbPlotSettings
100
AcDbLayout
  1
ﾚｲｱｳﾄ1
 71
1
330
19A
  0
LAYOUT
  5
1A8
102
{ACAD_REACTORS
330
1A4
102
}
330
1A4
100
AcDbPlotSettings
100
AcDbLayout
  1
ﾚｲｱｳﾄ2
 71
2
330
19B
  0
MLINESTYLE
  5
1A9
102
{ACAD_REACTORS
330
1A5
102
}
330
1A5
100
AcDbMlineStyle
  2
STANDARD
 70
     0
  3

 62
   256
 51
90.00
 52
90.00
 71
     2
 49
0.50
 62
   256
  6
BYLAYER
 49
-0.50
 62
   256
  6
BYLAYER
  0
ENDSEC
  0
EOF
