  0
SECTION
  2
HEADER
  9
$ACADVER
  1
AC1015
  9
$DWGCODEPAGE
  3
ANSI_932
  9
$LTSCALE
 40
20.0
  9
$FILLMODE
 70
     1
  9
$CLAYER
  8
0
  9
$PDMODE
 70
     0
  9
$SPLFRAME
 70
     0
  9
$SPLINETYPE
 70
     6
  9
$SPLINESEGS
 70
     8
  9
$DIMASZ
 40
2.000000
  9
$DIMEXE
 40
1.500000
  9
$DIMEXO
 40
0.800000
  9
$DIMTAD
 70
     1
  9
$DIMTIH
 70
     0
  9
$DIMTOH
 70
     0
  9
$DIMTVP
 40
0.500000
  9
$DIMTXT
 40
3.100000
  9
$EXTMIN
 10
0.000000
 20
0.000000
 30
0.000000
  9
$EXTMAX
 10
297.000000
 20
420.000000
 30
0.000000
  9
$MEASUREMENT
 70
  1
  9
$LIMMIN
 10
0.000000
 20
0.000000
  9
$LIMMAX
 10
297.000000
 20
420.000000
  9
$HANDSEED
  5
17E
  9
$LWDISPLAY
290
     0
  9
$DIMBLK
  1
_OPEN
  9
$DIMDEC
 70
     2
  9
$DIMADEC
 70
     2
  9
$DIMAUNIT
 70
     0
  9
$DIMZIN
 70
     8
  9
$DIMAZIN
 70
     2
  9
$DIMTOFL
 70
     1
  0
ENDSEC
  0
SECTION
  2
CLASSES
  0
ENDSEC
  0
SECTION
  2
TABLES
  0
TABLE
  2
VPORT
  5
14C
100
AcDbSymbolTable
 70
     1
  0
VPORT
  5
14D
100
AcDbSymbolTableRecord
100
AcDbViewportTableRecord
  2
*ACTIVE
 70
     0
 12
134.250022
 22
163.500037
 40
291.000072
 41
0.853952
  0
ENDTAB
  0
TABLE
  2
LTYPE
  5
14E
100
AcDbSymbolTable
 70
     2
  0
LTYPE
  5
14F
100
AcDbSymbolTableRecord
100
AcDbLinetypeTableRecord
  2
BYBLOCK
 70
     0
  3

 72
    65
 73
     0
 40
0.0
  0
LTYPE
  5
150
100
AcDbSymbolTableRecord
100
AcDbLinetypeTableRecord
  2
BYLAYER
 70
     0
  3

 72
    65
 73
     0
 40
0.0
  0
LTYPE
  5
151
100
AcDbSymbolTableRecord
100
AcDbLinetypeTableRecord
  2
CONTINUOUS
 70
     0
  3
Solid line (NEC CAE2D for Win R18.0 : 2024.04.25)
 72
    65
 73
     0
 40
0.0
  0
LTYPE
  5
152
100
AcDbSymbolTableRecord
100
AcDbLinetypeTableRecord
  2
CENTER
 70
     0
  3
____ _ ____ _ ____ _ ____ _ ____ _ ____
 72
    65
 73
     4
 40
2.0
 49
1.25
 74
     0
 49
-0.25
 74
     0
 49
0.25
 74
     0
 49
-0.25
 74
     0
  0
ENDTAB
  0
TABLE
  2
LAYER
  5
153
100
AcDbSymbolTable
 70
    12
  0
LAYER
  5
154
100
AcDbSymbolTableRecord
100
AcDbLayerTableRecord
  2
0
 70
     0
 62
     7
  6
CONTINUOUS
370
    -3
390

  0
LAYER
  5
155
100
AcDbSymbolTableRecord
100
AcDbLayerTableRecord
  2
A0
 70
     0
 62
     9
  6
CONTINUOUS
370
    -3
390

  0
LAYER
  5
156
100
AcDbSymbolTableRecord
100
AcDbLayerTableRecord
  2
A1
 70
     0
 62
     8
  6
CONTINUOUS
370
    -3
390

  0
LAYER
  5
157
100
AcDbSymbolTableRecord
100
AcDbLayerTableRecord
  2
A2
 70
     0
 62
    12
  6
CONTINUOUS
370
    -3
390

  0
LAYER
  5
158
100
AcDbSymbolTableRecord
100
AcDbLayerTableRecord
  2
A4
 70
     0
 62
    12
  6
CONTINUOUS
370
    -3
390

  0
LAYER
  5
159
100
AcDbSymbolTableRecord
100
AcDbLayerTableRecord
  2
A8
 70
     0
 62
    10
  6
CONTINUOUS
370
    -3
390

  0
LAYER
  5
15A
100
AcDbSymbolTableRecord
100
AcDbLayerTableRecord
  2
A10
 70
     0
 62
     6
  6
CONTINUOUS
370
    -3
390

  0
LAYER
  5
15B
100
AcDbSymbolTableRecord
100
AcDbLayerTableRecord
  2
A20
 70
     0
 62
     1
  6
CONTINUOUS
370
    -3
390

  0
LAYER
  5
15C
100
AcDbSymbolTableRecord
100
AcDbLayerTableRecord
  2
A30
 70
     0
 62
     1
  6
CONTINUOUS
370
    -3
390

  0
LAYER
  5
15D
100
AcDbSymbolTableRecord
100
AcDbLayerTableRecord
  2
A40
 70
     0
 62
     9
  6
CONTINUOUS
370
    -3
390

  0
LAYER
  5
15E
100
AcDbSymbolTableRecord
100
AcDbLayerTableRecord
  2
A50
 70
     0
 62
    12
  6
CONTINUOUS
370
    -3
390

  0
LAYER
  5
15F
100
AcDbSymbolTableRecord
100
AcDbLayerTableRecord
  2
A1023
 70
     0
 62
    16
  6
CONTINUOUS
370
    -3
390

  0
ENDTAB
  0
TABLE
  2
STYLE
  5
160
100
AcDbSymbolTable
 70
     4
  0
STYLE
  5
161
100
AcDbSymbolTableRecord
100
AcDbTextStyleTableRecord
  2
STANDARD
 70
    64
 40
0.0
 41
1.0
 50
0.0
 71
     0
 42
3.000000000000000
  3
TXT
  4

  0
STYLE
  5
162
100
AcDbSymbolTableRecord
100
AcDbTextStyleTableRecord
  2
ANKTATE
 70
    68
 40
0.0
 41
1.0
 50
0.0
 71
     0
 42
3.000000000000000
  3
TXT
  4

  0
STYLE
  5
163
100
AcDbSymbolTableRecord
100
AcDbTextStyleTableRecord
  2
KNJYOKO
 70
    64
 40
0.0
 41
1.0
 50
0.0
 71
     0
 42
3.000000000000000
  3
TXT
  4
BIGFONT
  0
STYLE
  5
164
100
AcDbSymbolTableRecord
100
AcDbTextStyleTableRecord
  2
KNJTATE
 70
    68
 40
0.0
 41
1.0
 50
0.0
 71
     0
 42
3.000000000000000
  3
TXT
  4
BIGFONT
  0
ENDTAB
  0
TABLE
  2
VIEW
  5
165
100
AcDbSymbolTable
 70
     0
  0
ENDTAB
  0
TABLE
  2
UCS
  5
166
100
AcDbSymbolTable
 70
     0
  0
ENDTAB
  0
TABLE
  2
APPID
  5
167
100
AcDbSymbolTable
 70
     1
  0
APPID
  5
168
100
AcDbSymbolTableRecord
100
AcDbRegAppTableRecord
  2
ACAD
 70
     0
  0
ENDTAB
  0
TABLE
  2
DIMSTYLE
  5
169
100
AcDbSymbolTable
 70
     2
100
AcDbDimStyleTable
  0
DIMSTYLE
105
16A
100
AcDbSymbolTableRecord
100
AcDbDimStyleTableRecord
  2
STANDARD
 70
     0
 41
2.000000
 44
1.500000
 42
0.800000
145
0.661290
140
3.100000
144
1.000000
146
0.645161
340
161
  0
DIMSTYLE
105
16B
100
AcDbSymbolTableRecord
100
AcDbDimStyleTableRecord
  2
A001
 70
     0
 41
2.000000
 44
1.500000
 42
0.800000
145
0.661290
140
3.100000
144
1.000000
146
0.645161
 77
     1
 73
     0
 74
     0
271
     2
179
     2
275
     0
 78
     8
 79
     2
172
     1
340
161
  0
ENDTAB
  0
TABLE
  2
BLOCK_RECORD
  5
16C
100
AcDbSymbolTable
 70
    12
  0
BLOCK_RECORD
  5
16D
100
AcDbSymbolTableRecord
100
AcDbBlockTableRecord
  2
*MODEL_SPACE
  0
BLOCK_RECORD
  5
16E
100
AcDbSymbolTableRecord
100
AcDbBlockTableRecord
  2
*PAPER_SPACE
  0
BLOCK_RECORD
  5
16F
100
AcDbSymbolTableRecord
100
AcDbBlockTableRecord
  2
*PAPER_SPACE0
  0
BLOCK_RECORD
  5
1
100
AcDbSymbolTableRecord
100
AcDbBlockTableRecord
  2
_NONE
  0
BLOCK_RECORD
  5
4
100
AcDbSymbolTableRecord
100
AcDbBlockTableRecord
  2
_CLOSED
  0
BLOCK_RECORD
  5
B
100
AcDbSymbolTableRecord
100
AcDbBlockTableRecord
  2
_DOT
  0
BLOCK_RECORD
  5
13
100
AcDbSymbolTableRecord
100
AcDbBlockTableRecord
  2
_OPEN
  0
BLOCK_RECORD
  5
19
100
AcDbSymbolTableRecord
100
AcDbBlockTableRecord
  2
_ORIGIN
  0
BLOCK_RECORD
  5
1E
100
AcDbSymbolTableRecord
100
AcDbBlockTableRecord
  2
_OPEN30
  0
BLOCK_RECORD
  5
24
100
AcDbSymbolTableRecord
100
AcDbBlockTableRecord
  2
_BOXFILLED
  0
BLOCK_RECORD
  5
29
100
AcDbSymbolTableRecord
100
AcDbBlockTableRecord
  2
_BOXBLANK
  0
BLOCK_RECORD
  5
31
100
AcDbSymbolTableRecord
100
AcDbBlockTableRecord
  2
_OBLIQUE
  0
BLOCK_RECORD
  5
35
100
AcDbSymbolTableRecord
100
AcDbBlockTableRecord
  2
_OPEN90
  0
BLOCK_RECORD
  5
3B
100
AcDbSymbolTableRecord
100
AcDbBlockTableRecord
  2
_CLOSEDBLANK
  0
BLOCK_RECORD
  5
41
100
AcDbSymbolTableRecord
100
AcDbBlockTableRecord
  2
_DOTBLANK
  0
ENDTAB
  0
ENDSEC
  0
SECTION
  2
BLOCKS
  0
BLOCK
  5
170
100
AcDbEntity
  8
0
100
AcDbBlockBegin
  2
*MODEL_SPACE
 70
     0
 10
0.0
 20
0.0
 30
0.0
  3
*MODEL_SPACE
  1

  0
ENDBLK
  5
171
100
AcDbEntity
  8
0
100
AcDbBlockEnd
  0
BLOCK
  5
172
100
AcDbEntity
  8
0
100
AcDbBlockBegin
  2
*PAPER_SPACE
 70
     0
 10
0.0
 20
0.0
 30
0.0
  3
*PAPER_SPACE
  1

  0
ENDBLK
  5
173
100
AcDbEntity
  8
0
100
AcDbBlockEnd
  0
BLOCK
  5
174
100
AcDbEntity
  8
0
100
AcDbBlockBegin
  2
*PAPER_SPACE0
 70
     0
 10
0.0
 20
0.0
 30
0.0
  3
*PAPER_SPACE0
  1

  0
ENDBLK
  5
175
100
AcDbEntity
  8
0
100
AcDbBlockEnd
  0
BLOCK
  5
2
330
1
100
AcDbEntity
  8
0
100
AcDbBlockBegin
  2
_NONE
 70
     0
 10
0.0
 20
0.0
 30
0.0
  3
_NONE
  1

  0
ENDBLK
  5
3
330
1
100
AcDbEntity
  8
0
100
AcDbBlockEnd
  0
BLOCK
  5
5
330
4
100
AcDbEntity
  8
0
100
AcDbBlockBegin
  2
_CLOSED
 70
     0
 10
0.0
 20
0.0
 30
0.0
  3
_CLOSED
  1

  0
LINE
  5
6
330
4
100
AcDbEntity
  8
0
  6
BYBLOCK
 62
     0
370
    -2
100
AcDbLine
 10
-1.0
 20
0.166667
 30
0.0
 11
0.0
 21
0.0
 31
0.0
  0
LINE
  5
7
330
4
100
AcDbEntity
  8
0
  6
BYBLOCK
 62
     0
370
    -2
100
AcDbLine
 10
0.0
 20
0.0
 30
0.0
 11
-1.0
 21
-0.166667
 31
0.0
  0
LINE
  5
8
330
4
100
AcDbEntity
  8
0
  6
BYBLOCK
 62
     0
370
    -2
100
AcDbLine
 10
-1.0
 20
0.166667
 30
0.0
 11
-1.0
 21
-0.166667
 31
0.0
  0
LINE
  5
9
330
4
100
AcDbEntity
  8
0
  6
BYBLOCK
 62
     0
370
    -2
100
AcDbLine
 10
0.0
 20
0.0
 30
0.0
 11
-1.0
 21
0.0
 31
0.0
  0
ENDBLK
  5
A
330
4
100
AcDbEntity
  8
0
100
AcDbBlockEnd
  0
BLOCK
  5
C
330
B
100
AcDbEntity
  8
0
100
AcDbBlockBegin
  2
_DOT
 70
     0
 10
0.0
 20
0.0
 30
0.0
  3
_DOT
  1

  0
POLYLINE
  5
D
330
B
100
AcDbEntity
  8
0
  6
BYBLOCK
 62
     0
370
    -2
100
AcDb2dPolyline
 66
     1
 10
0.0
 20
0.0
 30
0.0
 70
     1
 40
0.5
 41
0.5
  0
VERTEX
  5
E
330
B
100
AcDbEntity
  8
0
  6
BYBLOCK
 62
     0
370
    -2
100
AcDbVertex
100
AcDb2dVertex
 10
-0.25
 20
0.0
 30
0.0
 42
1.0
  0
VERTEX
  5
F
330
B
100
AcDbEntity
  8
0
  6
BYBLOCK
 62
     0
370
    -2
100
AcDbVertex
100
AcDb2dVertex
 10
0.25
 20
0.0
 30
0.0
 42
1.0
  0
SEQEND
  5
10
330
B
100
AcDbEntity
  8
0
  6
BYBLOCK
 62
     0
370
    -2
  0
LINE
  5
11
330
B
100
AcDbEntity
  8
0
  6
BYBLOCK
 62
     0
370
    -2
100
AcDbLine
 10
-0.5
 20
0.0
 30
0.0
 11
-1.0
 21
0.0
 31
0.0
  0
ENDBLK
  5
12
330
B
100
AcDbEntity
  8
0
100
AcDbBlockEnd
  0
BLOCK
  5
14
330
13
100
AcDbEntity
  8
0
100
AcDbBlockBegin
  2
_OPEN
 70
     0
 10
0.0
 20
0.0
 30
0.0
  3
_OPEN
  1

  0
LINE
  5
15
330
13
100
AcDbEntity
  8
0
  6
BYBLOCK
 62
     0
370
    -2
100
AcDbLine
 10
-1.0
 20
0.166667
 30
0.0
 11
0.0
 21
0.0
 31
0.0
  0
LINE
  5
16
330
13
100
AcDbEntity
  8
0
  6
BYBLOCK
 62
     0
370
    -2
100
AcDbLine
 10
0.0
 20
0.0
 30
0.0
 11
-1.0
 21
-0.166667
 31
0.0
  0
LINE
  5
17
330
13
100
AcDbEntity
  8
0
  6
BYBLOCK
 62
     0
370
    -2
100
AcDbLine
 10
0.0
 20
0.0
 30
0.0
 11
-1.0
 21
0.0
 31
0.0
  0
ENDBLK
  5
18
330
13
100
AcDbEntity
  8
0
100
AcDbBlockEnd
  0
BLOCK
  5
1A
330
19
100
AcDbEntity
  8
0
100
AcDbBlockBegin
  2
_ORIGIN
 70
     0
 10
0.0
 20
0.0
 30
0.0
  3
_ORIGIN
  1

  0
CIRCLE
  5
1B
330
19
100
AcDbEntity
  8
0
  6
BYBLOCK
 62
     0
370
    -2
100
AcDbCircle
 10
0.0
 20
0.0
 30
0.0
 40
0.5
  0
LINE
  5
1C
330
19
100
AcDbEntity
  8
0
  6
BYBLOCK
 62
     0
370
    -2
100
AcDbLine
 10
0.0
 20
0.0
 30
0.0
 11
-1.0
 21
0.0
 31
0.0
  0
ENDBLK
  5
1D
330
19
100
AcDbEntity
  8
0
100
AcDbBlockEnd
  0
BLOCK
  5
1F
330
1E
100
AcDbEntity
  8
0
100
AcDbBlockBegin
  2
_OPEN30
 70
     0
 10
0.0
 20
0.0
 30
0.0
  3
_OPEN30
  1

  0
LINE
  5
20
330
1E
100
AcDbEntity
  8
0
  6
BYBLOCK
 62
     0
370
    -2
100
AcDbLine
 10
-1.0
 20
0.267949
 30
0.0
 11
0.0
 21
0.0
 31
0.0
  0
LINE
  5
21
330
1E
100
AcDbEntity
  8
0
  6
BYBLOCK
 62
     0
370
    -2
100
AcDbLine
 10
0.0
 20
0.0
 30
0.0
 11
-1.0
 21
-0.267949
 31
0.0
  0
LINE
  5
22
330
1E
100
AcDbEntity
  8
0
  6
BYBLOCK
 62
     0
370
    -2
100
AcDbLine
 10
0.0
 20
0.0
 30
0.0
 11
-1.0
 21
0.0
 31
0.0
  0
ENDBLK
  5
23
330
1E
100
AcDbEntity
  8
0
100
AcDbBlockEnd
  0
BLOCK
  5
25
330
24
100
AcDbEntity
  8
0
100
AcDbBlockBegin
  2
_BOXFILLED
 70
     0
 10
0.0
 20
0.0
 30
0.0
  3
_BOXFILLED
  1

  0
SOLID
  5
26
330
24
100
AcDbEntity
  8
0
  6
BYBLOCK
 62
     0
370
    -2
100
AcDbTrace
 10
-0.5
 20
0.5
 30
0.0
 11
0.5
 21
0.5
 31
0.0
 12
-0.5
 22
-0.5
 32
0.0
 13
0.5
 23
-0.5
 33
0.0
  0
LINE
  5
27
330
24
100
AcDbEntity
  8
0
  6
BYBLOCK
 62
     0
370
    -2
100
AcDbLine
 10
-0.5
 20
0.0
 30
0.0
 11
-1.0
 21
0.0
 31
0.0
  0
ENDBLK
  5
28
330
24
100
AcDbEntity
  8
0
100
AcDbBlockEnd
  0
BLOCK
  5
2A
330
29
100
AcDbEntity
  8
0
100
AcDbBlockBegin
  2
_BOXBLANK
 70
     0
 10
0.0
 20
0.0
 30
0.0
  3
_BOXBLANK
  1

  0
LINE
  5
2B
330
29
100
AcDbEntity
  8
0
  6
BYBLOCK
 62
     0
370
    -2
100
AcDbLine
 10
-0.5
 20
-0.5
 30
0.0
 11
0.5
 21
-0.5
 31
0.0
  0
LINE
  5
2C
330
29
100
AcDbEntity
  8
0
  6
BYBLOCK
 62
     0
370
    -2
100
AcDbLine
 10
0.5
 20
-0.5
 30
0.0
 11
0.5
 21
0.5
 31
0.0
  0
LINE
  5
2D
330
29
100
AcDbEntity
  8
0
  6
BYBLOCK
 62
     0
370
    -2
100
AcDbLine
 10
0.5
 20
0.5
 30
0.0
 11
-0.5
 21
0.5
 31
0.0
  0
LINE
  5
2E
330
29
100
AcDbEntity
  8
0
  6
BYBLOCK
 62
     0
370
    -2
100
AcDbLine
 10
-0.5
 20
0.5
 30
0.0
 11
-0.5
 21
-0.5
 31
0.0
  0
LINE
  5
2F
330
29
100
AcDbEntity
  8
0
  6
BYBLOCK
 62
     0
370
    -2
100
AcDbLine
 10
-0.5
 20
0.0
 30
0.0
 11
-1.0
 21
0.0
 31
0.0
  0
ENDBLK
  5
30
330
29
100
AcDbEntity
  8
0
100
AcDbBlockEnd
  0
BLOCK
  5
32
330
31
100
AcDbEntity
  8
0
100
AcDbBlockBegin
  2
_OBLIQUE
 70
     0
 10
0.0
 20
0.0
 30
0.0
  3
_OBLIQUE
  1

  0
LINE
  5
33
330
31
100
AcDbEntity
  8
0
  6
BYBLOCK
 62
     0
370
    -2
100
AcDbLine
 10
-0.5
 20
-0.5
 30
0.0
 11
0.5
 21
0.5
 31
0.0
  0
ENDBLK
  5
34
330
31
100
AcDbEntity
  8
0
100
AcDbBlockEnd
  0
BLOCK
  5
36
330
35
100
AcDbEntity
  8
0
100
AcDbBlockBegin
  2
_OPEN90
 70
     0
 10
0.0
 20
0.0
 30
0.0
  3
_OPEN90
  1

  0
LINE
  5
37
330
35
100
AcDbEntity
  8
0
  6
BYBLOCK
 62
     0
370
    -2
100
AcDbLine
 10
-0.5
 20
0.5
 30
0.0
 11
0.0
 21
0.0
 31
0.0
  0
LINE
  5
38
330
35
100
AcDbEntity
  8
0
  6
BYBLOCK
 62
     0
370
    -2
100
AcDbLine
 10
0.0
 20
0.0
 30
0.0
 11
-0.5
 21
-0.5
 31
0.0
  0
LINE
  5
39
330
35
100
AcDbEntity
  8
0
  6
BYBLOCK
 62
     0
370
    -2
100
AcDbLine
 10
0.0
 20
0.0
 30
0.0
 11
-1.0
 21
0.0
 31
0.0
  0
ENDBLK
  5
3A
330
35
100
AcDbEntity
  8
0
100
AcDbBlockEnd
  0
BLOCK
  5
3C
330
3B
100
AcDbEntity
  8
0
100
AcDbBlockBegin
  2
_CLOSEDBLANK
 70
     0
 10
0.0
 20
0.0
 30
0.0
  3
_CLOSEDBLANK
  1

  0
LINE
  5
3D
330
3B
100
AcDbEntity
  8
0
  6
BYBLOCK
 62
     0
370
    -2
100
AcDbLine
 10
-1.0
 20
0.1666666666666666
 30
0.0
 11
0.0
 21
0.0
 31
0.0
  0
LINE
  5
3E
330
3B
100
AcDbEntity
  8
0
  6
BYBLOCK
 62
     0
370
    -2
100
AcDbLine
 10
0.0
 20
0.0
 30
0.0
 11
-1.0
 21
-0.1666666666666666
 31
0.0
  0
LINE
  5
3F
330
3B
100
AcDbEntity
  8
0
  6
BYBLOCK
 62
     0
370
    -2
100
AcDbLine
 10
-1.0
 20
0.1666666666666666
 30
0.0
 11
-1.0
 21
-0.1666666666666666
 31
0.0
  0
ENDBLK
  5
40
330
3B
100
AcDbEntity
  8
0
100
AcDbBlockEnd
  0
BLOCK
  5
42
330
41
100
AcDbEntity
  8
0
100
AcDbBlockBegin
  2
_DOTBLANK
 70
     0
 10
0.0
 20
0.0
 30
0.0
  3
_DOTBLANK
  1

  0
CIRCLE
  5
43
330
41
100
AcDbEntity
  8
0
  6
BYBLOCK
 62
     0
370
    -2
100
AcDbCircle
 10
0.0
 20
0.0
 30
0.0
 40
0.5
  0
LINE
  5
44
330
41
100
AcDbEntity
  8
0
  6
BYBLOCK
 62
     0
370
    -2
100
AcDbLine
 10
-0.5
 20
0.0
 30
0.0
 11
-1.0
 21
0.0
 31
0.0
  0
ENDBLK
  5
45
330
41
100
AcDbEntity
  8
0
100
AcDbBlockEnd
  0
ENDSEC
  0
SECTION
  2
ENTITIES
  0
MTEXT
  5
46
100
AcDbEntity
  8
A8
  6
CONTINUOUS
 62
3
100
AcDbMText
 10
9.999997526638502
 20
18.00000076076889
 30
0.000000000000000
 40
3.000000000000000
 41
0.000000000000000
 44
0.6739999771118164
 71
     7
 72
     1
  1
{\H0.94x;{TYPE No.TCA-540SA-NRB75}}
 11
1.000000000000000
 21
0.000000000000000
 31
0.000000000000000
  7
STANDARD
  0
POINT
  5
47
100
AcDbEntity
  8
A0
  6
CONTINUOUS
 62
3
100
AcDbPoint
 10
9.999997526638502
 20
18.00000076076889
 30
0.000000000000000
  0
POINT
  5
48
100
AcDbEntity
  8
A10
  6
CONTINUOUS
 62
3
100
AcDbPoint
 10
50.00000000000000
 20
50.00000000000000
 30
0.000000000000000
  0
ARC
  5
49
100
AcDbEntity
  8
A1
  6
CONTINUOUS
 62
7
100
AcDbCircle
 10
69.00004737286093
 20
119.2220450000001
 30
0.000000000000000
 40
5.000000000000000
100
AcDbArc
 50
95.93781400000000
 51
180.0000200000000
  0
ARC
  5
4A
100
AcDbEntity
  8
A1
  6
CONTINUOUS
 62
7
100
AcDbCircle
 10
99.00004737286093
 20
119.2220450000001
 30
0.000000000000000
 40
5.000000000000000
100
AcDbArc
 50
4.800000000000000e-05
 51
84.06225300000000
  0
LINE
  5
4B
100
AcDbEntity
  8
A1
  6
CONTINUOUS
 62
7
100
AcDbLine
 10
116.0000453728611
 20
130.5278640000002
 30
0.000000000000000
 11
117.0000453728611
 21
91.00000000000009
 31
0.000000000000000
  0
LINE
  5
4C
100
AcDbEntity
  8
A1
  6
CONTINUOUS
 62
7
100
AcDbLine
 10
52.00004737286103
 20
130.5278640000000
 30
0.000000000000000
 11
51.11346137286107
 21
95.48311600000009
 31
0.000000000000000
  0
LINE
  5
4D
100
AcDbEntity
  8
A1
  6
CONTINUOUS
 62
7
100
AcDbLine
 10
61.50004737286093
 20
79.70000100000009
 30
0.000000000000000
 11
62.50004737286093
 21
79.70000100000009
 31
0.000000000000000
  0
LINE
  5
4E
100
AcDbEntity
  8
A1
  6
CONTINUOUS
 62
7
100
AcDbLine
 10
57.50004737286093
 20
75.50000000000010
 30
0.000000000000000
 11
61.50004737286093
 21
75.50000000000010
 31
0.000000000000000
  0
ARC
  5
4F
100
AcDbEntity
  8
A1
  6
CONTINUOUS
 62
7
100
AcDbCircle
 10
69.00004737286093
 20
55.77795400000009
 30
0.000000000000000
 40
5.000000000000000
100
AcDbArc
 50
179.9999799999999
 51
264.0621899999999
  0
ARC
  5
50
100
AcDbEntity
  8
A1
  6
CONTINUOUS
 62
7
100
AcDbCircle
 10
63.50004737286093
 20
70.39705700000009
 30
0.000000000000000
 40
1.000000000000000
100
AcDbArc
 50
179.9999799999999
 51
254.9998899999999
  0
LINE
  5
51
100
AcDbEntity
  8
A1
  6
CONTINUOUS
 62
7
100
AcDbLine
 10
63.24122737286089
 20
69.43112600000013
 30
0.000000000000000
 11
64.00004737286093
 21
69.22780200000011
 31
0.000000000000000
  0
ARC
  5
52
100
AcDbEntity
  8
A1
  6
CONTINUOUS
 62
7
100
AcDbCircle
 10
81.50004737286093
 20
105.5000000000000
 30
0.000000000000000
 40
20.00000000000000
100
AcDbArc
 50
151.0449800000000
 51
179.9999600000000
  0
LINE
  5
53
100
AcDbEntity
  8
A1
  6
CONTINUOUS
 62
7
100
AcDbLine
 10
61.50004737286093
 20
95.29999900000011
 30
0.000000000000000
 11
62.50004737286093
 21
95.29999900000011
 31
0.000000000000000
  0
ARC
  5
54
100
AcDbEntity
  8
A1
  6
CONTINUOUS
 62
7
100
AcDbCircle
 10
63.50004737286093
 20
104.6029450000001
 30
0.000000000000000
 40
1.000000000000000
100
AcDbArc
 50
105.0001100000000
 51
180.0000200000000
  0
LINE
  5
55
100
AcDbEntity
  8
A1
  6
CONTINUOUS
 62
7
100
AcDbLine
 10
63.24122737286099
 20
105.5688700000000
 30
0.000000000000000
 11
64.00004737286100
 21
105.7721960000000
 31
0.000000000000000
  0
ARC
  5
56
100
AcDbEntity
  8
A1
  6
CONTINUOUS
 62
7
100
AcDbCircle
 10
99.00004737286093
 20
55.77795400000009
 30
0.000000000000000
 40
5.000000000000000
100
AcDbArc
 50
275.9377499999998
 51
359.9999500000001
  0
ARC
  5
57
100
AcDbEntity
  8
A1
  6
CONTINUOUS
 62
7
100
AcDbCircle
 10
104.5000473728609
 20
70.39705700000009
 30
0.000000000000000
 40
1.000000000000000
100
AcDbArc
 50
284.9999799999998
 51
359.9999500000001
  0
LINE
  5
58
100
AcDbEntity
  8
A1
  6
CONTINUOUS
 62
7
100
AcDbLine
 10
104.7588673728608
 20
69.43113300000010
 30
0.000000000000000
 11
104.0000473728609
 21
69.22780600000011
 31
0.000000000000000
  0
LINE
  5
59
100
AcDbEntity
  8
A1
  6
CONTINUOUS
 62
7
100
AcDbLine
 10
106.5000473728609
 20
75.50000000000010
 30
0.000000000000000
 11
110.5000473728609
 21
75.50000000000010
 31
0.000000000000000
  0
LINE
  5
5A
100
AcDbEntity
  8
A1
  6
CONTINUOUS
 62
7
100
AcDbLine
 10
106.5000473728609
 20
79.70000100000009
 30
0.000000000000000
 11
105.5000473728609
 21
79.70000100000009
 31
0.000000000000000
  0
ARC
  5
5B
100
AcDbEntity
  8
A1
  6
CONTINUOUS
 62
7
100
AcDbCircle
 10
105.0000473728609
 20
91.00000000000010
 30
0.000000000000000
 40
12.00000000000000
100
AcDbArc
 50
331.0449759999998
 51
360.0000000000000
  0
LINE
  5
5C
100
AcDbEntity
  8
A1
  6
CONTINUOUS
 62
7
100
AcDbLine
 10
106.5000473728609
 20
95.29999900000011
 30
0.000000000000000
 11
105.5000473728609
 21
95.29999900000011
 31
0.000000000000000
  0
ARC
  5
5D
100
AcDbEntity
  8
A1
  6
CONTINUOUS
 62
7
100
AcDbCircle
 10
86.50004737286093
 20
105.5000000000000
 30
0.000000000000000
 40
20.00000000000000
100
AcDbArc
 50
0.000000000000000
 51
28.95502299999998
  0
ARC
  5
5E
100
AcDbEntity
  8
A1
  6
CONTINUOUS
 62
7
100
AcDbCircle
 10
104.5000473728609
 20
104.6029430000001
 30
0.000000000000000
 40
1.000000000000000
100
AcDbArc
 50
5.500000000000000e-05
 51
75.00001899999999
  0
LINE
  5
5F
100
AcDbEntity
  8
A1
  6
CONTINUOUS
 62
7
100
AcDbLine
 10
104.7588673728609
 20
105.5688699999999
 30
0.000000000000000
 11
104.0000513728610
 21
105.7721949999999
 31
0.000000000000000
  0
LINE
  5
60
100
AcDbEntity
  8
A1
  6
CONTINUOUS
 62
7
100
AcDbLine
 10
53.40223137286091
 20
133.9999999999999
 30
0.000000000000000
 11
114.5978633728609
 21
133.9999999999999
 31
0.000000000000000
  0
ARC
  5
61
100
AcDbEntity
  8
A1
  6
CONTINUOUS
 62
7
100
AcDbCircle
 10
57.00004737286093
 20
130.5278640000001
 30
0.000000000000000
 40
5.000000000000000
100
AcDbArc
 50
131.8089732690389
 51
179.9999600000000
  0
LINE
  5
62
100
AcDbEntity
  8
A1
  6
CONTINUOUS
 62
7
100
AcDbLine
 10
54.00004737286093
 20
136.0000000000000
 30
0.000000000000000
 11
54.00004737286093
 21
135.0000000000000
 31
0.000000000000000
  0
ARC
  5
63
100
AcDbEntity
  8
A1
  6
CONTINUOUS
 62
7
100
AcDbCircle
 10
115.0000473728609
 20
135.0000000000000
 30
0.000000000000000
 40
1.000000000000000
100
AcDbArc
 50
179.9999799999999
 51
228.1895899999999
  0
ARC
  5
64
100
AcDbEntity
  8
A1
  6
CONTINUOUS
 62
7
100
AcDbCircle
 10
111.0000473728609
 20
130.5278640000001
 30
0.000000000000000
 40
5.000000000000000
100
AcDbArc
 50
0.000000000000000
 51
48.18969600000000
  0
LINE
  5
65
100
AcDbEntity
  8
A1
  6
CONTINUOUS
 62
7
100
AcDbLine
 10
114.0000473728609
 20
136.0000000000000
 30
0.000000000000000
 11
114.0000473728609
 21
135.0000000000000
 31
0.000000000000000
  0
ARC
  5
66
100
AcDbEntity
  8
A1
  6
CONTINUOUS
 62
7
100
AcDbCircle
 10
199.5000473728609
 20
87.50000000000004
 30
0.000000000000000
 40
37.50000000000000
100
AcDbArc
 50
94.89459800000000
 51
374.5046820000000
  0
ARC
  5
67
100
AcDbEntity
  8
A1
  6
CONTINUOUS
 62
7
100
AcDbCircle
 10
167.2262203728610
 20
168.2923240000000
 30
0.000000000000000
 40
99.00000000000000
100
AcDbArc
 50
291.7750500000001
 51
334.3898500000000
  0
ARC
  5
68
100
AcDbEntity
  8
A1
  6
CONTINUOUS
 62
7
100
AcDbCircle
 10
178.5000473728609
 20
114.2394860000001
 30
0.000000000000000
 40
22.00000000000000
100
AcDbArc
 50
308.1445100000001
 51
379.1948700000000
  0
LINE
  5
69
100
AcDbEntity
  8
A1
  6
CONTINUOUS
 62
7
100
AcDbLine
 10
211.5749073728610
 20
83.02953000000016
 30
0.000000000000000
 11
202.2716693728609
 21
130.8905550000001
 31
0.000000000000000
  0
ARC
  5
6A
100
AcDbEntity
  8
A1
  6
CONTINUOUS
 62
7
100
AcDbCircle
 10
199.5000473728609
 20
87.50000000000004
 30
0.000000000000000
 40
18.50000000000000
100
AcDbArc
 50
91.87470500000001
 51
345.8263000000000
  0
ARC
  5
6B
100
AcDbEntity
  8
A1
  6
CONTINUOUS
 62
7
100
AcDbCircle
 10
199.5000473728609
 20
87.50000000000004
 30
0.000000000000000
 40
17.10000000000000
100
AcDbArc
 50
94.18022900000000
 51
341.0918899999999
  0
ARC
  5
6C
100
AcDbEntity
  8
A1
  6
CONTINUOUS
 62
7
100
AcDbCircle
 10
199.5000473728609
 20
87.50000000000004
 30
0.000000000000000
 40
22.12000100000000
100
AcDbArc
 50
88.68331299999998
 51
354.8527000000000
  0
ARC
  5
6D
100
AcDbEntity
  8
A1
  6
CONTINUOUS
 62
7
100
AcDbCircle
 10
199.5000473728609
 20
87.50000000000004
 30
0.000000000000000
 40
12.75000000000000
100
AcDbArc
 50
112.4222600000000
 51
312.8979600000000
  0
ARC
  5
6E
100
AcDbEntity
  8
A1
  6
CONTINUOUS
 62
7
100
AcDbCircle
 10
199.5000473728609
 20
87.50000000000004
 30
0.000000000000000
 40
12.00000000000000
100
AcDbArc
 50
128.1445300000000
 51
291.7750299999997
  0
LINE
  5
6F
100
AcDbEntity
  8
A1
  6
CONTINUOUS
 62
7
100
AcDbLine
 10
189.5000473728608
 20
133.9999999999999
 30
0.000000000000000
 11
253.1991473728610
 21
133.9999999999999
 31
0.000000000000000
  0
ARC
  5
70
100
AcDbEntity
  8
A1
  6
CONTINUOUS
 62
7
100
AcDbCircle
 10
193.6105363728610
 20
119.5000000000001
 30
0.000000000000000
 40
6.000000000000000
100
AcDbArc
 50
19.19486900000000
 51
89.99998199999999
  0
ARC
  5
71
100
AcDbEntity
  8
A1
  6
CONTINUOUS
 62
7
100
AcDbCircle
 10
189.5000473728608
 20
128.9999999999999
 30
0.000000000000000
 40
5.000000000000000
100
AcDbArc
 50
89.99998199999999
 51
179.9999600000000
  0
LINE
  5
72
100
AcDbEntity
  8
A1
  6
CONTINUOUS
 62
7
100
AcDbLine
 10
185.1803753728609
 20
125.5000000000000
 30
0.000000000000000
 11
193.6105363728610
 21
125.5000000000000
 31
0.000000000000000
  0
LINE
  5
73
100
AcDbEntity
  8
A1
  6
CONTINUOUS
 62
7
100
AcDbLine
 10
184.5000473728611
 20
129.0000010000001
 30
0.000000000000000
 11
185.1803833728610
 21
125.4999990000000
 31
0.000000000000000
  0
ARC
  5
74
100
AcDbEntity
  8
A1
  6
CONTINUOUS
 62
7
100
AcDbCircle
 10
191.5000473728609
 20
135.0000000000000
 30
0.000000000000000
 40
1.000000000000000
100
AcDbArc
 50
270.0000200000000
 51
360.0000000000000
  0
LINE
  5
75
100
AcDbEntity
  8
A1
  6
CONTINUOUS
 62
7
100
AcDbLine
 10
192.5000473728609
 20
136.0000000000000
 30
0.000000000000000
 11
192.5000473728609
 21
135.0000000000000
 31
0.000000000000000
  0
ARC
  5
76
100
AcDbEntity
  8
A1
  6
CONTINUOUS
 62
7
100
AcDbCircle
 10
253.1991473728610
 20
131.9999999999999
 30
0.000000000000000
 40
2.000000000000000
100
AcDbArc
 50
10.99994800000000
 51
84.24355393319622
  0
LINE
  5
77
100
AcDbEntity
  8
A1
  6
CONTINUOUS
 62
7
100
AcDbLine
 10
252.5000473728609
 20
136.0000000000000
 30
0.000000000000000
 11
252.5000473728609
 21
134.9848717208616
 31
0.000000000000000
  0
LINE
  5
78
100
AcDbEntity
  8
A1
  6
CONTINUOUS
 62
7
100
AcDbLine
 10
256.5000473728608
 20
125.4999980000000
 30
0.000000000000000
 11
255.1623973728609
 21
132.3816150000000
 31
0.000000000000000
  0
ARC
  5
79
100
AcDbEntity
  8
A1
  6
CONTINUOUS
 62
7
100
AcDbCircle
 10
312.0000473728609
 20
272.0000000000000
 30
0.000000000000000
 40
150.0000000000000
100
AcDbArc
 50
174.0622100000000
 51
179.9999600000000
  0
LINE
  5
7A
100
AcDbEntity
  8
A1
  6
CONTINUOUS
 62
7
100
AcDbLine
 10
167.7780013728608
 20
292.0000000000001
 30
0.000000000000000
 11
189.9859546703653
 21
292.0000000000001
 31
0.000000000000000
  0
ARC
  5
7B
100
AcDbEntity
  8
A1
  6
CONTINUOUS
 62
7
100
AcDbCircle
 10
167.7780013728608
 20
287.0000000000000
 30
0.000000000000000
 40
5.000000000000000
100
AcDbArc
 50
89.99998000000004
 51
174.0621899999998
  0
LINE
  5
7C
100
AcDbEntity
  8
A1
  6
CONTINUOUS
 62
7
100
AcDbLine
 10
167.7780013728608
 20
252.0000000000000
 30
0.000000000000000
 11
189.9859549250006
 21
252.0000000000000
 31
0.000000000000000
  0
ARC
  5
7D
100
AcDbEntity
  8
A1
  6
CONTINUOUS
 62
7
100
AcDbCircle
 10
167.7780013728608
 20
257.0000000000001
 30
0.000000000000000
 40
5.000000000000000
100
AcDbArc
 50
185.9377499999999
 51
269.9999500000000
  0
ARC
  5
7E
100
AcDbEntity
  8
A1
  6
CONTINUOUS
 62
7
100
AcDbCircle
 10
312.0000473728609
 20
272.0000000000000
 30
0.000000000000000
 40
150.0000000000000
100
AcDbArc
 50
179.9999600000000
 51
185.9377200000000
  0
LINE
  5
7F
100
AcDbEntity
  8
A1
  6
CONTINUOUS
 62
7
100
AcDbLine
 10
114.5000473728608
 20
96.49999999999997
 30
0.000000000000000
 11
115.5000473728608
 21
94.50000000000003
 31
0.000000000000000
  0
LINE
  5
80
100
AcDbEntity
  8
A1
  6
CONTINUOUS
 62
7
100
AcDbLine
 10
114.5000473728609
 20
96.50000000000004
 30
0.000000000000000
 11
114.5000473728609
 21
78.50000000000004
 31
0.000000000000000
  0
CIRCLE
  5
81
100
AcDbEntity
  8
A1
  6
CONTINUOUS
 62
7
100
AcDbCircle
 10
199.5000473728609
 20
87.50000000000004
 30
0.000000000000000
 40
9.000000000000000
  0
CIRCLE
  5
82
100
AcDbEntity
  8
A1
  6
CONTINUOUS
 62
7
100
AcDbCircle
 10
199.5000473728609
 20
87.50000000000004
 30
0.000000000000000
 40
2.500000000000000
  0
CIRCLE
  5
83
100
AcDbEntity
  8
A1
  6
CONTINUOUS
 62
7
100
AcDbCircle
 10
199.5000473728609
 20
87.50000000000004
 30
0.000000000000000
 40
7.000000000000000
  0
LINE
  5
84
100
AcDbEntity
  8
A1
  6
CONTINUOUS
 62
7
100
AcDbLine
 10
110.5000473728609
 20
78.50000000000004
 30
0.000000000000000
 11
114.5000473728609
 21
78.50000000000004
 31
0.000000000000000
  0
LINE
  5
85
100
AcDbEntity
  8
A1
  6
CONTINUOUS
 62
7
100
AcDbLine
 10
115.5000473728609
 20
94.50000000000010
 30
0.000000000000000
 11
115.5000473728609
 21
80.50000000000010
 31
0.000000000000000
  0
LINE
  5
86
100
AcDbEntity
  8
A1
  6
CONTINUOUS
 62
7
100
AcDbLine
 10
115.5000473728610
 20
80.50000000000010
 30
0.000000000000000
 11
114.5000473728611
 21
78.50000000000017
 31
0.000000000000000
  0
LINE
  5
87
100
AcDbEntity
  8
A1
  6
CONTINUOUS
 62
7
100
AcDbLine
 10
110.5000473728609
 20
96.50000000000004
 30
0.000000000000000
 11
114.5000473728609
 21
96.50000000000004
 31
0.000000000000000
  0
LINE
  5
88
100
AcDbEntity
  8
A1
  6
CONTINUOUS
 62
7
100
AcDbLine
 10
187.5000473728609
 20
294.3479242146200
 30
0.000000000000000
 11
191.4942972410590
 21
294.3479242146200
 31
0.000000000000000
  0
LINE
  5
89
100
AcDbEntity
  8
A1
  6
CONTINUOUS
 62
7
100
AcDbLine
 10
187.5000473728609
 20
298.5000002146201
 30
0.000000000000000
 11
202.8340872227656
 21
298.5000002146201
 31
0.000000000000000
  0
LINE
  5
8A
100
AcDbEntity
  8
A1
  6
CONTINUOUS
 62
7
100
AcDbLine
 10
187.5000473728609
 20
245.4999997853799
 30
0.000000000000000
 11
202.7607483370502
 21
245.4999997853799
 31
0.000000000000000
  0
LINE
  5
8B
100
AcDbEntity
  8
A1
  6
CONTINUOUS
 62
7
100
AcDbLine
 10
187.5000473728609
 20
249.6520757853800
 30
0.000000000000000
 11
191.4942975389135
 21
249.6520757853800
 31
0.000000000000000
  0
LINE
  5
8C
100
AcDbEntity
  8
A1
  6
CONTINUOUS
 62
7
100
AcDbLine
 10
187.5000473728609
 20
298.5000002146201
 30
0.000000000000000
 11
187.5000473728609
 21
294.3479242146200
 31
0.000000000000000
  0
LINE
  5
8D
100
AcDbEntity
  8
A1
  6
CONTINUOUS
 62
7
100
AcDbLine
 10
187.5000473728609
 20
249.6520757853800
 30
0.000000000000000
 11
187.5000473728609
 21
245.4999997853799
 31
0.000000000000000
  0
CIRCLE
  5
8E
100
AcDbEntity
  8
A2
  6
CONTINUOUS
 62
4
100
AcDbCircle
 10
222.5000473728609
 20
272.0000000000000
 30
0.000000000000000
 40
22.99999880000000
  0
CIRCLE
  5
8F
100
AcDbEntity
  8
A1
  6
CONTINUOUS
 62
7
100
AcDbCircle
 10
222.5000473728609
 20
272.0000000000000
 30
0.000000000000000
 40
33.00000000000000
  0
LINE
  5
90
100
AcDbEntity
  8
A1
  6
CONTINUOUS
 62
7
100
AcDbLine
 10
230.8716298822617
 20
286.4999960000000
 30
0.000000000000000
 11
214.1284714822618
 21
286.4999960000000
 31
0.000000000000000
  0
LINE
  5
91
100
AcDbEntity
  8
A1
  6
CONTINUOUS
 62
7
100
AcDbLine
 10
214.1284691728611
 20
286.5000000000000
 30
0.000000000000000
 11
205.7568913728611
 21
272.0000000000000
 31
0.000000000000000
  0
LINE
  5
92
100
AcDbEntity
  8
A1
  6
CONTINUOUS
 62
7
100
AcDbLine
 10
205.7568893728609
 20
272.0000000000000
 30
0.000000000000000
 11
214.1284672728610
 21
257.4999959999999
 31
0.000000000000000
  0
LINE
  5
93
100
AcDbEntity
  8
A1
  6
CONTINUOUS
 62
7
100
AcDbLine
 10
230.8716274728609
 20
257.4999960000000
 30
0.000000000000000
 11
239.2432053728610
 21
272.0000000000001
 31
0.000000000000000
  0
LINE
  5
94
100
AcDbEntity
  8
A1
  6
CONTINUOUS
 62
7
100
AcDbLine
 10
239.2432053728612
 20
272.0000000000001
 30
0.000000000000000
 11
230.8716275728610
 21
286.5000000000000
 31
0.000000000000000
  0
CIRCLE
  5
95
100
AcDbEntity
  8
A1
  6
CONTINUOUS
 62
7
100
AcDbCircle
 10
222.5000473728609
 20
272.0000000000000
 30
0.000000000000000
 40
10.00000000000000
  0
CIRCLE
  5
96
100
AcDbEntity
  8
A2
  6
CONTINUOUS
 62
4
100
AcDbCircle
 10
222.5000473728609
 20
272.0000000000000
 30
0.000000000000000
 40
8.000000000000000
  0
LINE
  5
97
100
AcDbEntity
  8
A1
  6
CONTINUOUS
 62
7
100
AcDbLine
 10
209.5000513728608
 20
240.5000413598742
 30
0.000000000000000
 11
210.7396729518350
 21
241.1198521493612
 31
0.000000000000000
  0
LINE
  5
98
100
AcDbEntity
  8
A1
  6
CONTINUOUS
 62
7
100
AcDbLine
 10
193.5000473728607
 20
241.5000523598742
 30
0.000000000000000
 11
195.5000473728607
 21
240.5000523598742
 31
0.000000000000000
  0
LINE
  5
99
100
AcDbEntity
  8
A1
  6
CONTINUOUS
 62
7
100
AcDbLine
 10
193.5000473728608
 20
245.5000523598742
 30
0.000000000000000
 11
193.5000473728608
 21
241.5000523598742
 31
0.000000000000000
  0
LINE
  5
9A
100
AcDbEntity
  8
A1
  6
CONTINUOUS
 62
7
100
AcDbLine
 10
209.5000473728608
 20
240.5000523598742
 30
0.000000000000000
 11
195.5000473728608
 21
240.5000523598742
 31
0.000000000000000
  0
LINE
  5
9B
100
AcDbEntity
  8
A1
  6
CONTINUOUS
 62
7
100
AcDbLine
 10
209.7861521495390
 20
241.5000523598742
 30
0.000000000000000
 11
193.5000473728608
 21
241.5000523598742
 31
0.000000000000000
  0
ARC
  5
9C
100
AcDbEntity
  8
A1
  6
CONTINUOUS
 62
7
100
AcDbCircle
 10
223.7000508515635
 20
272.0000002146201
 30
0.000000000000000
 40
39.20000347870257
100
AcDbArc
 50
140.2673643368839
 51
219.7325262024250
  0
ARC
  5
9D
100
AcDbEntity
  8
A1
  6
CONTINUOUS
 62
7
100
AcDbCircle
 10
196.6299954699886
 20
294.5000523598740
 30
0.000000000000000
 40
4.000000000000000
100
AcDbArc
 50
90.00000000000000
 51
140.2673643368837
  0
ARC
  5
9E
100
AcDbEntity
  8
A1
  6
CONTINUOUS
 62
7
100
AcDbCircle
 10
196.6299524848255
 20
249.4999997853799
 30
0.000000000000000
 40
4.000000000000000
100
AcDbArc
 50
219.7325262024250
 51
270.0000000000000
  0
LINE
  5
9F
100
AcDbEntity
  8
A1
  6
CONTINUOUS
 62
7
100
AcDbLine
 10
182.3969996531059
 20
293.5000000000364
 30
0.000000000000000
 11
190.9221576618330
 21
293.5000000000364
 31
0.000000000000000
  0
ARC
  5
A0
100
AcDbEntity
  8
A1
  6
CONTINUOUS
 62
7
100
AcDbCircle
 10
182.3969996531059
 20
292.5000000000364
 30
0.000000000000000
 40
1.000000000000000
100
AcDbArc
 50
89.99997999999960
 51
164.9998900000006
  0
LINE
  5
A1
100
AcDbEntity
  8
A1
  6
CONTINUOUS
 62
7
100
AcDbLine
 10
181.4310686531059
 20
292.7588200000365
 30
0.000000000000000
 11
181.2277446531059
 21
292.0000000000364
 31
0.000000000000000
  0
LINE
  5
A2
100
AcDbEntity
  8
A1
  6
CONTINUOUS
 62
7
100
AcDbLine
 10
182.3969996531059
 20
250.5000000000364
 30
0.000000000000000
 11
190.9221579433367
 21
250.5000000000364
 31
0.000000000000000
  0
ARC
  5
A3
100
AcDbEntity
  8
A1
  6
CONTINUOUS
 62
7
100
AcDbCircle
 10
182.3969996531059
 20
251.5000000000364
 30
0.000000000000000
 40
1.000000000000000
100
AcDbArc
 50
194.9999800000009
 51
269.9999499999997
  0
LINE
  5
A4
100
AcDbEntity
  8
A1
  6
CONTINUOUS
 62
7
100
AcDbLine
 10
206.7500433728608
 20
306.0000723598743
 30
0.000000000000000
 11
207.5000433728609
 21
305.2500723598740
 31
0.000000000000000
  0
LINE
  5
A5
100
AcDbEntity
  8
A1
  6
CONTINUOUS
 62
7
100
AcDbLine
 10
197.5000323728607
 20
305.2500723598739
 30
0.000000000000000
 11
198.2500323728607
 21
306.0000723598741
 31
0.000000000000000
  0
LINE
  5
A6
100
AcDbEntity
  8
A1
  6
CONTINUOUS
 62
7
100
AcDbLine
 10
207.5000473728608
 20
305.2500523598741
 30
0.000000000000000
 11
197.5000473728608
 21
305.2500523598741
 31
0.000000000000000
  0
LINE
  5
A7
100
AcDbEntity
  8
A1
  6
CONTINUOUS
 62
7
100
AcDbLine
 10
206.7500473728608
 20
306.0000523598741
 30
0.000000000000000
 11
198.2500473728608
 21
306.0000523598741
 31
0.000000000000000
  0
LINE
  5
A8
100
AcDbEntity
  8
A2
  6
CONTINUOUS
 62
4
100
AcDbLine
 10
198.2500473728608
 20
306.0000523598741
 30
0.000000000000000
 11
198.2500473728608
 21
305.1000523598742
 31
0.000000000000000
  0
LINE
  5
A9
100
AcDbEntity
  8
A2
  6
CONTINUOUS
 62
4
100
AcDbLine
 10
206.7500473728608
 20
306.0000523598741
 30
0.000000000000000
 11
206.7500473728608
 21
305.1000523598742
 31
0.000000000000000
  0
LINE
  5
AA
100
AcDbEntity
  8
A1
  6
CONTINUOUS
 62
7
100
AcDbLine
 10
207.5000473728608
 20
305.2500523598741
 30
0.000000000000000
 11
207.5000473728608
 21
305.1000523598742
 31
0.000000000000000
  0
LINE
  5
AB
100
AcDbEntity
  8
A1
  6
CONTINUOUS
 62
7
100
AcDbLine
 10
197.5000473728608
 20
305.2500523598741
 30
0.000000000000000
 11
197.5000473728608
 21
305.1000523598742
 31
0.000000000000000
  0
LINE
  5
AC
100
AcDbEntity
  8
A1
  6
CONTINUOUS
 62
7
100
AcDbLine
 10
195.2000473728609
 20
305.0999910146201
 30
0.000000000000000
 11
209.8008055194834
 21
305.0999910146201
 31
0.000000000000000
  0
LINE
  5
AD
100
AcDbEntity
  8
A1
  6
CONTINUOUS
 62
7
100
AcDbLine
 10
194.0000473728608
 20
303.5000002146201
 30
0.000000000000000
 11
211.0000473728608
 21
303.5000002146201
 31
0.000000000000000
  0
LINE
  5
AE
100
AcDbEntity
  8
A1
  6
CONTINUOUS
 62
7
100
AcDbLine
 10
194.0000473728608
 20
298.5000002146201
 30
0.000000000000000
 11
202.5000473728608
 21
298.5000002146201
 31
0.000000000000000
  0
LINE
  5
AF
100
AcDbEntity
  8
A1
  6
CONTINUOUS
 62
7
100
AcDbLine
 10
194.0000473728608
 20
299.0000002146201
 30
0.000000000000000
 11
194.5758125728608
 21
299.0000002146201
 31
0.000000000000000
  0
LINE
  5
B0
100
AcDbEntity
  8
A1
  6
CONTINUOUS
 62
7
100
AcDbLine
 10
194.0000473728608
 20
303.0000002146201
 30
0.000000000000000
 11
194.9820199728608
 21
303.0000002146201
 31
0.000000000000000
  0
LINE
  5
B1
100
AcDbEntity
  8
A1
  6
CONTINUOUS
 62
7
100
AcDbLine
 10
194.0000473728608
 20
303.8999912146201
 30
0.000000000000000
 11
194.0000473728608
 21
298.5000002146201
 31
0.000000000000000
  0
LINE
  5
B2
100
AcDbEntity
  8
A1
  6
CONTINUOUS
 62
7
100
AcDbLine
 10
201.9242827728607
 20
299.0000002146201
 30
0.000000000000000
 11
202.5000473728608
 21
299.0000002146201
 31
0.000000000000000
  0
LINE
  5
B3
100
AcDbEntity
  8
A1
  6
CONTINUOUS
 62
7
100
AcDbLine
 10
201.5180747728609
 20
303.0000002146201
 30
0.000000000000000
 11
202.5000473728608
 21
303.0000002146201
 31
0.000000000000000
  0
LINE
  5
B4
100
AcDbEntity
  8
A1
  6
CONTINUOUS
 62
7
100
AcDbLine
 10
194.5758125728608
 20
299.0000002146202
 30
0.000000000000000
 11
194.9820199728607
 21
303.0000002146202
 31
0.000000000000000
  0
LINE
  5
B5
100
AcDbEntity
  8
A1
  6
CONTINUOUS
 62
7
100
AcDbLine
 10
201.5180747728610
 20
303.0000006146201
 30
0.000000000000000
 11
201.9242827728610
 21
299.0000002146201
 31
0.000000000000000
  0
LINE
  5
B6
100
AcDbEntity
  8
A1
  6
CONTINUOUS
 62
7
100
AcDbLine
 10
203.4820199728608
 20
303.0000002146201
 30
0.000000000000000
 11
202.5000473728608
 21
303.0000002146201
 31
0.000000000000000
  0
LINE
  5
B7
100
AcDbEntity
  8
A1
  6
CONTINUOUS
 62
7
100
AcDbLine
 10
203.0758119728609
 20
299.0000002146201
 30
0.000000000000000
 11
202.5000473728608
 21
299.0000002146201
 31
0.000000000000000
  0
LINE
  5
B8
100
AcDbEntity
  8
A1
  6
CONTINUOUS
 62
7
100
AcDbLine
 10
210.0621199528983
 20
302.5662879901332
 30
0.000000000000000
 11
210.0180755728608
 21
303.0000006146202
 31
0.000000000000000
  0
LINE
  5
B9
100
AcDbEntity
  8
A1
  6
CONTINUOUS
 62
7
100
AcDbLine
 10
203.4820199728607
 20
303.0000002146202
 30
0.000000000000000
 11
203.0758119728609
 21
299.0000002146202
 31
0.000000000000000
  0
LINE
  5
BA
100
AcDbEntity
  8
A1
  6
CONTINUOUS
 62
7
100
AcDbLine
 10
202.8340872227656
 20
298.5000002146201
 30
0.000000000000000
 11
202.5000473728608
 21
298.5000002146201
 31
0.000000000000000
  0
LINE
  5
BB
100
AcDbEntity
  8
A1
  6
CONTINUOUS
 62
7
100
AcDbLine
 10
211.0000473728608
 20
303.0000002146201
 30
0.000000000000000
 11
210.0180737728610
 21
303.0000002146201
 31
0.000000000000000
  0
LINE
  5
BC
100
AcDbEntity
  8
A1
  6
CONTINUOUS
 62
7
100
AcDbLine
 10
211.0000473728608
 20
303.8999912146201
 30
0.000000000000000
 11
211.0000473728608
 21
302.9313756564431
 31
0.000000000000000
  0
ARC
  5
BD
100
AcDbEntity
  8
A1
  6
CONTINUOUS
 62
7
100
AcDbCircle
 10
195.2000473728609
 20
303.8999912146201
 30
0.000000000000000
 40
1.200000039999999
100
AcDbArc
 50
90.00000300000094
 51
180.0000099999977
  0
ARC
  5
BE
100
AcDbEntity
  8
A1
  6
CONTINUOUS
 62
7
100
AcDbCircle
 10
198.2500473728608
 20
292.5699960146201
 30
0.000000000000000
 40
10.93000320000000
100
AcDbArc
 50
72.60269100000198
 51
107.3973099999949
  0
ARC
  5
BF
100
AcDbEntity
  8
A1
  6
CONTINUOUS
 62
7
100
AcDbCircle
 10
198.2500473728608
 20
312.2500036746201
 30
0.000000000000000
 40
13.75000280000000
100
AcDbArc
 50
254.5012700000043
 51
285.4987299999956
  0
ARC
  5
C0
100
AcDbEntity
  8
A1
  6
CONTINUOUS
 62
7
100
AcDbCircle
 10
206.7500473728608
 20
312.2500036746201
 30
0.000000000000000
 40
13.75000280000000
100
AcDbArc
 50
254.5012700000043
 51
255.9146431434917
  0
ARC
  5
C1
100
AcDbEntity
  8
A1
  6
CONTINUOUS
 62
7
100
AcDbCircle
 10
206.7500473728608
 20
292.5699960146201
 30
0.000000000000000
 40
10.93000320000000
100
AcDbArc
 50
72.60269100000198
 51
107.3973099999949
  0
ARC
  5
C2
100
AcDbEntity
  8
A1
  6
CONTINUOUS
 62
7
100
AcDbCircle
 10
209.8000465728608
 20
303.8999912146201
 30
0.000000000000000
 40
1.200000039999999
100
AcDbArc
 50
0.000000000000000
 51
90.00000300000094
  0
LINE
  5
C3
100
AcDbEntity
  8
A1
  6
CONTINUOUS
 62
7
100
AcDbLine
 10
181.4310686531057
 20
251.2411799999638
 30
0.000000000000000
 11
181.2277446531058
 21
251.9999999999636
 31
0.000000000000000
  0
ARC
  5
C4
100
AcDbEntity
  8
A1
  6
CONTINUOUS
 62
7
100
AcDbCircle
 10
107.0000473728608
 20
143.5500029999999
 30
0.000000000000000
 40
6.550000200000000
100
AcDbArc
 50
38.27250400000008
 51
79.97523799999931
  0
ARC
  5
C5
100
AcDbEntity
  8
A1
  6
CONTINUOUS
 62
7
100
AcDbCircle
 10
51.11050737286092
 20
144.0117030000000
 30
0.000000000000000
 40
1.500000000000000
100
AcDbArc
 50
270.0000000000000
 51
321.7274899999998
  0
ARC
  5
C6
100
AcDbEntity
  8
A1
  6
CONTINUOUS
 62
7
100
AcDbCircle
 10
61.00004737286093
 20
143.5500029999999
 30
0.000000000000000
 40
6.550000200000000
100
AcDbArc
 50
100.0247599999996
 51
141.7274899999998
  0
ARC
  5
C7
100
AcDbEntity
  8
A1
  6
CONTINUOUS
 62
7
100
AcDbCircle
 10
116.8895893728609
 20
144.0117030000000
 30
0.000000000000000
 40
1.500000000000000
100
AcDbArc
 50
218.2725100000002
 51
270.0000000000000
  0
ARC
  5
C8
100
AcDbEntity
  8
A1
  6
CONTINUOUS
 62
7
100
AcDbCircle
 10
60.00004737286093
 20
136.0000000000000
 30
0.000000000000000
 40
6.000000000000000
100
AcDbArc
 50
153.2567404579975
 51
180.3036500000002
  0
ARC
  5
C9
100
AcDbEntity
  8
A1
  6
CONTINUOUS
 62
7
100
AcDbCircle
 10
108.0000473728608
 20
136.0000000000000
 30
0.000000000000000
 40
6.000000000000000
100
AcDbArc
 50
0.000000000000000
 51
26.74324531281193
  0
LINE
  5
CA
100
AcDbEntity
  8
A1
  6
CONTINUOUS
 62
7
100
AcDbLine
 10
98.50004737286093
 20
154.0000000000000
 30
0.000000000000000
 11
98.50004737286093
 21
150.0000000000000
 31
0.000000000000000
  0
LINE
  5
CB
100
AcDbEntity
  8
A1
  6
CONTINUOUS
 62
7
100
AcDbLine
 10
69.50004737286093
 20
154.0000000000000
 30
0.000000000000000
 11
69.50004737286093
 21
150.0000000000000
 31
0.000000000000000
  0
LINE
  5
CC
100
AcDbEntity
  8
A2
  6
CONTINUOUS
 62
4
100
AcDbLine
 10
92.00004337287369
 20
157.4641085433188
 30
0.000000000000000
 11
94.00004737286089
 21
153.9999999999999
 31
0.000000000000000
  0
LINE
  5
CD
100
AcDbEntity
  8
A1
  6
CONTINUOUS
 62
7
100
AcDbLine
 10
94.00004737286093
 20
191.9999960000126
 30
0.000000000000000
 11
94.00004737286093
 21
154.0000000000000
 31
0.000000000000000
  0
LINE
  5
CE
100
AcDbEntity
  8
A1
  6
CONTINUOUS
 62
7
100
AcDbLine
 10
92.00004337287385
 20
193.9999999999999
 30
0.000000000000000
 11
94.00004737286105
 21
191.9999960000125
 31
0.000000000000000
  0
LINE
  5
CF
100
AcDbEntity
  8
A1
  6
CONTINUOUS
 62
7
100
AcDbLine
 10
74.00004737286093
 20
191.9999960000126
 30
0.000000000000000
 11
94.00004737286093
 21
191.9999960000126
 31
0.000000000000000
  0
LINE
  5
D0
100
AcDbEntity
  8
A1
  6
CONTINUOUS
 62
7
100
AcDbLine
 10
76.00005137284813
 20
194.0000000000000
 30
0.000000000000000
 11
92.00004337287373
 21
194.0000000000000
 31
0.000000000000000
  0
LINE
  5
D1
100
AcDbEntity
  8
A1
  6
CONTINUOUS
 62
7
100
AcDbLine
 10
69.50004737286093
 20
154.0000000000000
 30
0.000000000000000
 11
98.50004737286093
 21
154.0000000000000
 31
0.000000000000000
  0
LINE
  5
D2
100
AcDbEntity
  8
A1
  6
CONTINUOUS
 62
7
100
AcDbLine
 10
55.85781737286083
 20
147.6070879999998
 30
0.000000000000000
 11
52.28810737286083
 21
143.0826049999999
 31
0.000000000000000
  0
LINE
  5
D3
100
AcDbEntity
  8
A2
  6
CONTINUOUS
 62
4
100
AcDbLine
 10
92.00004337287373
 20
194.0000000000000
 30
0.000000000000000
 11
92.00004337287373
 21
157.4641085433188
 31
0.000000000000000
  0
LINE
  5
D4
100
AcDbEntity
  8
A1
  6
CONTINUOUS
 62
7
100
AcDbLine
 10
117.0000473728609
 20
142.5117030000000
 30
0.000000000000000
 11
51.00004737286093
 21
142.5117030000000
 31
0.000000000000000
  0
LINE
  5
D5
100
AcDbEntity
  8
A1
  6
CONTINUOUS
 62
7
100
AcDbLine
 10
112.1422823728611
 20
147.6070880000000
 30
0.000000000000000
 11
115.7119803728611
 21
143.0826020000000
 31
0.000000000000000
  0
LINE
  5
D6
100
AcDbEntity
  8
A1
  6
CONTINUOUS
 62
7
100
AcDbLine
 10
74.00004737286093
 20
157.4641085433188
 30
0.000000000000000
 11
94.00004737286093
 21
157.4641085433188
 31
0.000000000000000
  0
LINE
  5
D7
100
AcDbEntity
  8
A1
  6
CONTINUOUS
 62
7
100
AcDbLine
 10
59.85985737286092
 20
150.0000000000000
 30
0.000000000000000
 11
108.1402453728608
 21
150.0000000000000
 31
0.000000000000000
  0
LINE
  5
D8
100
AcDbEntity
  8
A1
  6
CONTINUOUS
 62
7
100
AcDbLine
 10
117.0000473728609
 20
142.5117030000000
 30
0.000000000000000
 11
117.0000473728609
 21
139.5117450000000
 31
0.000000000000000
  0
LINE
  5
D9
100
AcDbEntity
  8
A1
  6
CONTINUOUS
 62
7
100
AcDbLine
 10
51.00004737286093
 20
142.5117030000000
 30
0.000000000000000
 11
51.00004737286093
 21
139.5117450000000
 31
0.000000000000000
  0
LINE
  5
DA
100
AcDbEntity
  8
A1
  6
CONTINUOUS
 62
7
100
AcDbLine
 10
51.00004737286093
 20
139.5117450000000
 30
0.000000000000000
 11
117.0000473728609
 21
139.5117450000000
 31
0.000000000000000
  0
LINE
  5
DB
100
AcDbEntity
  8
A1
  6
CONTINUOUS
 62
7
100
AcDbLine
 10
74.00004737286093
 20
191.9999960000126
 30
0.000000000000000
 11
74.00004737286093
 21
154.0000000000000
 31
0.000000000000000
  0
LINE
  5
DC
100
AcDbEntity
  8
A2
  6
CONTINUOUS
 62
4
100
AcDbLine
 10
76.00005137284805
 20
157.4641085433188
 30
0.000000000000000
 11
74.00004737286085
 21
154.0000000000000
 31
0.000000000000000
  0
LINE
  5
DD
100
AcDbEntity
  8
A2
  6
CONTINUOUS
 62
4
100
AcDbLine
 10
76.00005137284813
 20
194.0000000000000
 30
0.000000000000000
 11
76.00005137284813
 21
157.4641085433188
 31
0.000000000000000
  0
LINE
  5
DE
100
AcDbEntity
  8
A1
  6
CONTINUOUS
 62
7
100
AcDbLine
 10
76.00005137284823
 20
193.9999999999998
 30
0.000000000000000
 11
74.00004737286103
 21
191.9999960000124
 31
0.000000000000000
  0
LINE
  5
DF
100
AcDbEntity
  8
A1
  6
CONTINUOUS
 62
7
100
AcDbLine
 10
54.64185737286095
 20
138.6999589795284
 30
0.000000000000000
 11
113.3582393728609
 21
138.6999589795284
 31
0.000000000000000
  0
LINE
  5
E0
100
AcDbEntity
  8
A1
  6
CONTINUOUS
 62
7
100
AcDbLine
 10
113.8212894562667
 20
139.5117450000000
 30
0.000000000000000
 11
113.3582393728607
 21
138.6999649795283
 31
0.000000000000000
  0
LINE
  5
E1
100
AcDbEntity
  8
A1
  6
CONTINUOUS
 62
7
100
AcDbLine
 10
54.17879605449690
 20
139.5117450000000
 30
0.000000000000000
 11
54.64185737286099
 21
138.6999579795284
 31
0.000000000000000
  0
LINE
  5
E2
100
AcDbEntity
  8
A1
  6
CONTINUOUS
 62
7
100
AcDbLine
 10
84.00004737286093
 20
154.0000000000000
 30
0.000000000000000
 11
84.00004737286093
 21
150.0000000000000
 31
0.000000000000000
  0
LINE
  5
E3
100
AcDbEntity
  8
A1
  6
CONTINUOUS
 62
7
100
AcDbLine
 10
54.00015209261625
 20
135.9999999999635
 30
0.000000000000000
 11
54.00015209261625
 21
135.0000936169894
 31
0.000000000000000
  0
LINE
  5
E4
100
AcDbEntity
  8
A1
  6
CONTINUOUS
 62
7
100
AcDbLine
 10
114.0001520926162
 20
135.9999999999635
 30
0.000000000000000
 11
114.0001520926162
 21
135.0000009549630
 31
0.000000000000000
  0
ARC
  5
E5
100
AcDbEntity
  8
A1
  6
CONTINUOUS
 62
7
100
AcDbCircle
 10
189.6105053728609
 20
144.0117030000000
 30
0.000000000000000
 40
1.500000000000000
100
AcDbArc
 50
270.0000000000000
 51
321.7274899999980
  0
ARC
  5
E6
100
AcDbEntity
  8
A1
  6
CONTINUOUS
 62
7
100
AcDbCircle
 10
199.5000473728609
 20
143.5500029999999
 30
0.000000000000000
 40
6.550000200000000
100
AcDbArc
 50
100.0247599999996
 51
141.7274899999981
  0
ARC
  5
E7
100
AcDbEntity
  8
A1
  6
CONTINUOUS
 62
7
100
AcDbCircle
 10
198.5000473728609
 20
136.0000000000000
 30
0.000000000000000
 40
6.000000000000000
100
AcDbArc
 50
153.2567404579998
 51
179.9999599999992
  0
LINE
  5
E8
100
AcDbEntity
  8
A1
  6
CONTINUOUS
 62
7
100
AcDbLine
 10
214.1284693728609
 20
154.0000000000000
 30
0.000000000000000
 11
214.1284693728609
 21
150.0000000000000
 31
0.000000000000000
  0
LINE
  5
E9
100
AcDbEntity
  8
A1
  6
CONTINUOUS
 62
7
100
AcDbLine
 10
205.7568913728609
 20
154.0000000000000
 30
0.000000000000000
 11
239.2432033728608
 21
154.0000000000000
 31
0.000000000000000
  0
LINE
  5
EA
100
AcDbEntity
  8
A1
  6
CONTINUOUS
 62
7
100
AcDbLine
 10
205.7568913728609
 20
154.0000000000000
 30
0.000000000000000
 11
205.7568913728609
 21
150.0000000000000
 31
0.000000000000000
  0
LINE
  5
EB
100
AcDbEntity
  8
A1
  6
CONTINUOUS
 62
7
100
AcDbLine
 10
194.3578123728609
 20
147.6070859999999
 30
0.000000000000000
 11
190.7881163728609
 21
143.0826029999999
 31
0.000000000000000
  0
LINE
  5
EC
100
AcDbEntity
  8
A1
  6
CONTINUOUS
 62
7
100
AcDbLine
 10
255.5000473728609
 20
142.5117030000001
 30
0.000000000000000
 11
189.5000473728609
 21
142.5117030000002
 31
0.000000000000000
  0
LINE
  5
ED
100
AcDbEntity
  8
A1
  6
CONTINUOUS
 62
7
100
AcDbLine
 10
198.3598573728609
 20
150.0000000000000
 30
0.000000000000000
 11
246.6402453728610
 21
150.0000000000000
 31
0.000000000000000
  0
LINE
  5
EE
100
AcDbEntity
  8
A1
  6
CONTINUOUS
 62
7
100
AcDbLine
 10
189.5000473728609
 20
142.5117030000001
 30
0.000000000000000
 11
189.5000473728609
 21
139.5117450000000
 31
0.000000000000000
  0
LINE
  5
EF
100
AcDbEntity
  8
A1
  6
CONTINUOUS
 62
7
100
AcDbLine
 10
189.5000473728609
 20
139.5117450000000
 30
0.000000000000000
 11
255.5000473728608
 21
139.5117450000000
 31
0.000000000000000
  0
ARC
  5
F0
100
AcDbEntity
  8
A1
  6
CONTINUOUS
 62
7
100
AcDbCircle
 10
245.5000473728609
 20
143.5500029999999
 30
0.000000000000000
 40
6.550000200000000
100
AcDbArc
 50
38.27250400000008
 51
79.97523799999928
  0
ARC
  5
F1
100
AcDbEntity
  8
A1
  6
CONTINUOUS
 62
7
100
AcDbCircle
 10
255.3895893728609
 20
144.0117030000000
 30
0.000000000000000
 40
1.500000000000000
100
AcDbArc
 50
218.2725100000019
 51
270.0000000000000
  0
ARC
  5
F2
100
AcDbEntity
  8
A1
  6
CONTINUOUS
 62
7
100
AcDbCircle
 10
246.5000473728607
 20
136.0000000000000
 30
0.000000000000000
 40
6.000000000000000
100
AcDbArc
 50
0.000000000000000
 51
26.74324531281202
  0
LINE
  5
F3
100
AcDbEntity
  8
A1
  6
CONTINUOUS
 62
7
100
AcDbLine
 10
230.8716293728608
 20
154.0000000000000
 30
0.000000000000000
 11
230.8716293728608
 21
150.0000000000000
 31
0.000000000000000
  0
LINE
  5
F4
100
AcDbEntity
  8
A1
  6
CONTINUOUS
 62
7
100
AcDbLine
 10
239.2432033728608
 20
154.0000000000000
 30
0.000000000000000
 11
239.2432033728608
 21
150.0000000000000
 31
0.000000000000000
  0
LINE
  5
F5
100
AcDbEntity
  8
A1
  6
CONTINUOUS
 62
7
100
AcDbLine
 10
250.6422823728609
 20
147.6070859999999
 30
0.000000000000000
 11
254.2119763728608
 21
143.0826000000000
 31
0.000000000000000
  0
LINE
  5
F6
100
AcDbEntity
  8
A1
  6
CONTINUOUS
 62
7
100
AcDbLine
 10
255.5000473728608
 20
142.5117030000000
 30
0.000000000000000
 11
255.5000473728608
 21
139.5117450000000
 31
0.000000000000000
  0
LINE
  5
F7
100
AcDbEntity
  8
A1
  6
CONTINUOUS
 62
7
100
AcDbLine
 10
214.5000513728480
 20
193.9999999999999
 30
0.000000000000000
 11
212.5000473728609
 21
191.9999960000128
 31
0.000000000000000
  0
LINE
  5
F8
100
AcDbEntity
  8
A2
  6
CONTINUOUS
 62
4
100
AcDbLine
 10
214.5000513728482
 20
194.0000000000000
 30
0.000000000000000
 11
214.5000513728482
 21
157.4641085433189
 31
0.000000000000000
  0
LINE
  5
F9
100
AcDbEntity
  8
A2
  6
CONTINUOUS
 62
4
100
AcDbLine
 10
214.5000513728482
 20
157.4641085433190
 30
0.000000000000000
 11
212.5000473728609
 21
154.0000000000000
 31
0.000000000000000
  0
LINE
  5
FA
100
AcDbEntity
  8
A1
  6
CONTINUOUS
 62
7
100
AcDbLine
 10
212.5000473728609
 20
191.9999960000128
 30
0.000000000000000
 11
212.5000473728609
 21
154.0000000000000
 31
0.000000000000000
  0
LINE
  5
FB
100
AcDbEntity
  8
A1
  6
CONTINUOUS
 62
7
100
AcDbLine
 10
212.5000473728609
 20
157.4641085433189
 30
0.000000000000000
 11
232.5000473728609
 21
157.4641085433189
 31
0.000000000000000
  0
LINE
  5
FC
100
AcDbEntity
  8
A2
  6
CONTINUOUS
 62
4
100
AcDbLine
 10
230.5000433728737
 20
194.0000000000001
 30
0.000000000000000
 11
230.5000433728735
 21
157.4641085433190
 31
0.000000000000000
  0
LINE
  5
FD
100
AcDbEntity
  8
A1
  6
CONTINUOUS
 62
7
100
AcDbLine
 10
214.5000513728482
 20
194.0000000000000
 30
0.000000000000000
 11
230.5000433728739
 21
194.0000000000000
 31
0.000000000000000
  0
LINE
  5
FE
100
AcDbEntity
  8
A1
  6
CONTINUOUS
 62
7
100
AcDbLine
 10
212.5000473728609
 20
191.9999960000128
 30
0.000000000000000
 11
232.5000473728609
 21
191.9999960000128
 31
0.000000000000000
  0
LINE
  5
FF
100
AcDbEntity
  8
A1
  6
CONTINUOUS
 62
7
100
AcDbLine
 10
230.5000433728738
 20
194.0000000000000
 30
0.000000000000000
 11
232.5000473728609
 21
191.9999960000129
 31
0.000000000000000
  0
LINE
  5
100
100
AcDbEntity
  8
A1
  6
CONTINUOUS
 62
7
100
AcDbLine
 10
232.5000473728609
 20
191.9999960000128
 30
0.000000000000000
 11
232.5000473728609
 21
154.0000000000000
 31
0.000000000000000
  0
LINE
  5
101
100
AcDbEntity
  8
A2
  6
CONTINUOUS
 62
4
100
AcDbLine
 10
230.5000433728738
 20
157.4641085433188
 30
0.000000000000000
 11
232.5000473728609
 21
153.9999999999999
 31
0.000000000000000
  0
LINE
  5
102
100
AcDbEntity
  8
A1
  6
CONTINUOUS
 62
7
100
AcDbLine
 10
193.1418573728610
 20
138.6999589795284
 30
0.000000000000000
 11
251.8582393728609
 21
138.6999589795284
 31
0.000000000000000
  0
LINE
  5
103
100
AcDbEntity
  8
A1
  6
CONTINUOUS
 62
7
100
AcDbLine
 10
252.3212894562670
 20
139.5117450000001
 30
0.000000000000000
 11
251.8582393728610
 21
138.6999649795285
 31
0.000000000000000
  0
LINE
  5
104
100
AcDbEntity
  8
A1
  6
CONTINUOUS
 62
7
100
AcDbLine
 10
192.6787960544967
 20
139.5117450000000
 30
0.000000000000000
 11
193.1418573728609
 21
138.6999579795284
 31
0.000000000000000
  0
ARC
  5
105
100
AcDbEntity
  8
A1
  6
CONTINUOUS
 62
7
100
AcDbCircle
 10
53.00015209261625
 20
135.0000936169894
 30
0.000000000000000
 40
1.000000000000000
100
AcDbArc
 50
311.8089732690393
 51
360.0000000000000
  0
LINE
  5
106
100
AcDbEntity
  8
A1
  6
CONTINUOUS
 62
7
100
AcDbLine
 10
49.99997501298674
 20
91.74999600000017
 30
0.000000000000000
 11
50.74997501298678
 21
92.49999600000022
 31
0.000000000000000
  0
LINE
  5
107
100
AcDbEntity
  8
A1
  6
CONTINUOUS
 62
7
100
AcDbLine
 10
50.74997501298684
 20
82.49998499999997
 30
0.000000000000000
 11
49.99997501298683
 21
83.24998499999998
 31
0.000000000000000
  0
LINE
  5
108
100
AcDbEntity
  8
A1
  6
CONTINUOUS
 62
7
100
AcDbLine
 10
50.74999501298686
 20
92.50000000000004
 30
0.000000000000000
 11
50.74999501298686
 21
82.50000000000004
 31
0.000000000000000
  0
LINE
  5
109
100
AcDbEntity
  8
A1
  6
CONTINUOUS
 62
7
100
AcDbLine
 10
49.99999501298686
 20
91.75000000000004
 30
0.000000000000000
 11
49.99999501298686
 21
83.25000000000004
 31
0.000000000000000
  0
LINE
  5
10A
100
AcDbEntity
  8
A2
  6
CONTINUOUS
 62
4
100
AcDbLine
 10
49.99999501298687
 20
83.25000000000004
 30
0.000000000000000
 11
50.89999501298685
 21
83.25000000000001
 31
0.000000000000000
  0
LINE
  5
10B
100
AcDbEntity
  8
A2
  6
CONTINUOUS
 62
4
100
AcDbLine
 10
49.99999501298691
 20
91.75000000000004
 30
0.000000000000000
 11
50.89999501298689
 21
91.75000000000001
 31
0.000000000000000
  0
LINE
  5
10C
100
AcDbEntity
  8
A1
  6
CONTINUOUS
 62
7
100
AcDbLine
 10
50.74999501298686
 20
92.50000000000004
 30
0.000000000000000
 11
50.89999501298684
 21
92.50000000000004
 31
0.000000000000000
  0
LINE
  5
10D
100
AcDbEntity
  8
A1
  6
CONTINUOUS
 62
7
100
AcDbLine
 10
50.74999501298686
 20
82.50000000000004
 30
0.000000000000000
 11
50.89999501298684
 21
82.50000000000004
 31
0.000000000000000
  0
LINE
  5
10E
100
AcDbEntity
  8
A1
  6
CONTINUOUS
 62
7
100
AcDbLine
 10
57.51021085237054
 20
96.01021662476357
 30
0.000000000000000
 11
57.50005020345687
 21
79.00004931465818
 31
0.000000000000000
  0
LINE
  5
10F
100
AcDbEntity
  8
A1
  6
CONTINUOUS
 62
7
100
AcDbLine
 10
52.10005920345685
 20
79.00004931465820
 30
0.000000000000000
 11
52.50005020345679
 21
79.00004931465820
 31
0.000000000000000
  0
LINE
  5
110
100
AcDbEntity
  8
A1
  6
CONTINUOUS
 62
7
100
AcDbLine
 10
57.00005020345685
 20
83.25740791465823
 30
0.000000000000000
 11
57.00005020345685
 21
82.26015731465809
 31
0.000000000000000
  0
LINE
  5
111
100
AcDbEntity
  8
A1
  6
CONTINUOUS
 62
7
100
AcDbLine
 10
53.00005020345685
 20
82.02563331465818
 30
0.000000000000000
 11
53.00005020345685
 21
83.72645531465820
 31
0.000000000000000
  0
LINE
  5
112
100
AcDbEntity
  8
A1
  6
CONTINUOUS
 62
7
100
AcDbLine
 10
57.51021085237041
 20
79.01021662476359
 30
0.000000000000000
 11
57.01021185237040
 21
78.01021662476360
 31
0.000000000000000
  0
LINE
  5
113
100
AcDbEntity
  8
A1
  6
CONTINUOUS
 62
7
100
AcDbLine
 10
53.00005020345697
 20
78.20004931465814
 30
0.000000000000000
 11
52.50005060345694
 21
79.00004931465818
 31
0.000000000000000
  0
LINE
  5
114
100
AcDbEntity
  8
A1
  6
CONTINUOUS
 62
7
100
AcDbLine
 10
57.00005020345699
 20
78.00004931465817
 30
0.000000000000000
 11
53.00005020345690
 21
78.25203731465817
 31
0.000000000000000
  0
LINE
  5
115
100
AcDbEntity
  8
A1
  6
CONTINUOUS
 62
7
100
AcDbLine
 10
53.00005020345689
 20
78.20004731465818
 30
0.000000000000000
 11
57.00004920345685
 21
78.00004931465818
 31
0.000000000000000
  0
LINE
  5
116
100
AcDbEntity
  8
A1
  6
CONTINUOUS
 62
7
100
AcDbLine
 10
57.00004920345671
 20
83.25740971465810
 30
0.000000000000000
 11
53.00005020345672
 21
83.72645731465809
 31
0.000000000000000
  0
LINE
  5
117
100
AcDbEntity
  8
A1
  6
CONTINUOUS
 62
7
100
AcDbLine
 10
53.00004980345687
 20
82.02563331465812
 30
0.000000000000000
 11
57.00005020345687
 21
82.26015731465806
 31
0.000000000000000
  0
LINE
  5
118
100
AcDbEntity
  8
A1
  6
CONTINUOUS
 62
7
100
AcDbLine
 10
53.00005020345685
 20
78.20004931465819
 30
0.000000000000000
 11
53.00005020345685
 21
78.25203731465818
 31
0.000000000000000
  0
LINE
  5
119
100
AcDbEntity
  8
A1
  6
CONTINUOUS
 62
7
100
AcDbLine
 10
50.90005940345679
 20
94.80004951465820
 30
0.000000000000000
 11
50.90005940345679
 21
80.19929036813566
 31
0.000000000000000
  0
LINE
  5
11A
100
AcDbEntity
  8
A1
  6
CONTINUOUS
 62
7
100
AcDbLine
 10
52.50005020345679
 20
96.00004931465814
 30
0.000000000000000
 11
52.50005020345679
 21
79.00004931465820
 31
0.000000000000000
  0
LINE
  5
11B
100
AcDbEntity
  8
A1
  6
CONTINUOUS
 62
7
100
AcDbLine
 10
57.00005020345690
 20
91.74268971465830
 30
0.000000000000000
 11
53.00005020345688
 21
91.27364131465816
 31
0.000000000000000
  0
LINE
  5
11C
100
AcDbEntity
  8
A1
  6
CONTINUOUS
 62
7
100
AcDbLine
 10
53.00005020345681
 20
92.97446611465816
 30
0.000000000000000
 11
57.00005020345681
 21
92.73994231465814
 31
0.000000000000000
  0
LINE
  5
11D
100
AcDbEntity
  8
A1
  6
CONTINUOUS
 62
7
100
AcDbLine
 10
53.00005020345685
 20
92.97446611465817
 30
0.000000000000000
 11
53.00005020345685
 21
91.27364131465809
 31
0.000000000000000
  0
LINE
  5
11E
100
AcDbEntity
  8
A1
  6
CONTINUOUS
 62
7
100
AcDbLine
 10
52.10005920345685
 20
96.00004931465814
 30
0.000000000000000
 11
52.50005020345679
 21
96.00004931465814
 31
0.000000000000000
  0
ARC
  5
11F
100
AcDbEntity
  8
A1
  6
CONTINUOUS
 62
7
100
AcDbCircle
 10
52.10005920345685
 20
80.20004931465819
 30
0.000000000000000
 40
1.200000039999999
100
AcDbArc
 50
180.0000030000009
 51
270.0000099999978
  0
ARC
  5
120
100
AcDbEntity
  8
A1
  6
CONTINUOUS
 62
7
100
AcDbCircle
 10
52.71292280345682
 20
80.13010331465817
 30
0.000000000000000
 40
4.787128000000000
100
AcDbArc
 50
333.5795799999947
 51
386.4204200000054
  0
ARC
  5
121
100
AcDbEntity
  8
A1
  6
CONTINUOUS
 62
7
100
AcDbCircle
 10
56.31005640345683
 20
80.13883331465819
 30
0.000000000000000
 40
3.810005999999998
100
AcDbArc
 50
150.3156250000020
 51
209.6843800000054
  0
ARC
  5
122
100
AcDbEntity
  8
A1
  6
CONTINUOUS
 62
7
100
AcDbCircle
 10
52.10005920345685
 20
94.80004951465820
 30
0.000000000000000
 40
1.200000039999999
100
AcDbArc
 50
90.00000000000000
 51
180.0000030000009
  0
ARC
  5
123
100
AcDbEntity
  8
A1
  6
CONTINUOUS
 62
7
100
AcDbCircle
 10
66.99005020345680
 20
87.50004931465820
 30
0.000000000000000
 40
14.48999980000000
100
AcDbArc
 50
164.9045809999948
 51
195.0954199999996
  0
LINE
  5
124
100
AcDbEntity
  8
A1
  6
CONTINUOUS
 62
7
100
AcDbLine
 10
57.00005020345685
 20
91.74268971465823
 30
0.000000000000000
 11
57.00005020345685
 21
92.73994231465814
 31
0.000000000000000
  0
ARC
  5
125
100
AcDbEntity
  8
A1
  6
CONTINUOUS
 62
7
100
AcDbCircle
 10
39.25006817286516
 20
87.50005214525412
 30
0.000000000000000
 40
18.24998203059178
100
AcDbArc
 50
346.5572422592535
 51
373.4427453273010
  0
LINE
  5
126
100
AcDbEntity
  8
A1
  6
CONTINUOUS
 62
7
100
AcDbLine
 10
57.51021085237061
 20
96.01021662476370
 30
0.000000000000000
 11
57.01021185237060
 21
97.01021662476367
 31
0.000000000000000
  0
LINE
  5
127
100
AcDbEntity
  8
A1
  6
CONTINUOUS
 62
7
100
AcDbLine
 10
53.00005020345684
 20
96.80004931465812
 30
0.000000000000000
 11
52.50005060345686
 21
96.00004931465811
 31
0.000000000000000
  0
LINE
  5
128
100
AcDbEntity
  8
A1
  6
CONTINUOUS
 62
7
100
AcDbLine
 10
57.00005020345683
 20
97.00004931465827
 30
0.000000000000000
 11
53.00005020345684
 21
96.74806131465827
 31
0.000000000000000
  0
LINE
  5
129
100
AcDbEntity
  8
A1
  6
CONTINUOUS
 62
7
100
AcDbLine
 10
53.00005020345692
 20
96.80005131465821
 30
0.000000000000000
 11
57.00004920345688
 21
97.00004931465820
 31
0.000000000000000
  0
LINE
  5
12A
100
AcDbEntity
  8
A1
  6
CONTINUOUS
 62
7
100
AcDbLine
 10
53.00005020345685
 20
96.80004931465821
 30
0.000000000000000
 11
53.00005020345685
 21
96.74806131465822
 31
0.000000000000000
  0
ARC
  5
12B
100
AcDbEntity
  8
A1
  6
CONTINUOUS
 62
7
100
AcDbCircle
 10
52.70275549335139
 20
94.85983366574452
 30
0.000000000000000
 40
4.787128000000000
100
AcDbArc
 50
333.5795799999947
 51
386.4204200000054
  0
ARC
  5
12C
100
AcDbEntity
  8
A1
  6
CONTINUOUS
 62
7
100
AcDbCircle
 10
56.31005640345683
 20
94.86126531465821
 30
0.000000000000000
 40
3.810005999999998
100
AcDbArc
 50
150.3156199999956
 51
209.6843749999980
  0
LINE
  5
12D
100
AcDbEntity
  8
A1
  6
CONTINUOUS
 62
7
100
AcDbLine
 10
214.1284681728609
 20
257.4999960000000
 30
0.000000000000000
 11
230.8716265728610
 21
257.4999960000000
 31
0.000000000000000
  0
ARC
  5
12E
100
AcDbEntity
  8
A1
  6
CONTINUOUS
 62
7
100
AcDbCircle
 10
230.4683641342667
 20
278.8560083928761
 30
0.000000000000000
 40
24.22772896082646
100
AcDbArc
 50
24.88262672826274
 51
80.47591411924543
  0
ELLIPSE
  5
12F
100
AcDbEntity
  8
A1
  6
CONTINUOUS
 62
7
100
AcDbEllipse
 10
226.5115135745864
 20
272.0000002146207
 30
0.000000000000000
 11
0.000000000000000
 21
30.99999999998060
 31
0.000000000000000
210
0.000000000000000
220
0.000000000000000
230
1.000000000000000
 40
0.9855742601100692
 41
4.575564236440214
 42
4.849213710703571
  0
ARC
  5
130
100
AcDbEntity
  8
A1
  6
CONTINUOUS
 62
7
100
AcDbCircle
 10
217.8590386161197
 20
270.2222772247879
 30
0.000000000000000
 40
39.38043281333296
100
AcDbArc
 50
8.772645168605784
 51
28.56142293143556
  0
ARC
  5
131
100
AcDbEntity
  8
A1
  6
CONTINUOUS
 62
7
100
AcDbCircle
 10
230.4683641342667
 20
265.1439916071239
 30
0.000000000000000
 40
24.22772896082646
100
AcDbArc
 50
279.5240858807546
 51
335.1173732717374
  0
ARC
  5
132
100
AcDbEntity
  8
A1
  6
CONTINUOUS
 62
7
100
AcDbCircle
 10
217.8590386161194
 20
273.7777227752121
 30
0.000000000000000
 40
39.38043281333304
100
AcDbArc
 50
331.4385770685644
 51
351.2273548313942
  0
ARC
  5
133
100
AcDbEntity
  8
A1
  6
CONTINUOUS
 62
7
100
AcDbCircle
 10
253.5000473728609
 20
134.9848717208616
 30
0.000000000000000
 40
1.000000000000000
100
AcDbArc
 50
180.0000000000000
 51
264.2435539331963
  0
LINE
  5
134
100
AcDbEntity
  8
A1
  6
CONTINUOUS
 62
7
100
AcDbLine
 10
110.5000473728609
 20
130.0000000000000
 30
0.000000000000000
 11
110.5000473728609
 21
75.50000000000010
 31
0.000000000000000
  0
LINE
  5
135
100
AcDbEntity
  8
A1
  6
CONTINUOUS
 62
7
100
AcDbLine
 10
57.50004737286093
 20
130.0000000000000
 30
0.000000000000000
 11
57.50004737286093
 21
75.50000000000010
 31
0.000000000000000
  0
LINE
  5
136
100
AcDbEntity
  8
A1
  6
CONTINUOUS
 62
7
100
AcDbLine
 10
61.50004737286093
 20
125.8620818344482
 30
0.000000000000000
 11
61.50004737286093
 21
75.50000000000010
 31
0.000000000000000
  0
LINE
  5
137
100
AcDbEntity
  8
A1
  6
CONTINUOUS
 62
7
100
AcDbLine
 10
106.5000473728609
 20
125.8620818344483
 30
0.000000000000000
 11
106.5000473728609
 21
75.50000000000010
 31
0.000000000000000
  0
ARC
  5
138
100
AcDbEntity
  8
A1
  6
CONTINUOUS
 62
7
100
AcDbCircle
 10
86.50004737286093
 20
105.5000000000000
 30
0.000000000000000
 40
20.00000000000000
100
AcDbArc
 50
74.79527099999996
 51
86.03410870473402
  0
ARC
  5
139
100
AcDbEntity
  8
A1
  6
CONTINUOUS
 62
7
100
AcDbCircle
 10
81.50004737286093
 20
105.5000000000000
 30
0.000000000000000
 40
20.00000000000000
100
AcDbArc
 50
93.96589129526510
 51
105.2047299999997
  0
ARC
  5
13A
100
AcDbEntity
  8
A1
  6
CONTINUOUS
 62
7
100
AcDbCircle
 10
106.5000473728609
 20
130.0000000000000
 30
0.000000000000000
 40
4.000000000000000
100
AcDbArc
 50
0.000000000000000
 51
90.00000300000094
  0
ARC
  5
13B
100
AcDbEntity
  8
A1
  6
CONTINUOUS
 62
7
100
AcDbCircle
 10
84.00004737286093
 20
-144.9760058505195
 30
0.000000000000000
 40
271.7710796623700
100
AcDbArc
 50
84.40428116838913
 51
95.59571883161087
  0
ARC
  5
13C
100
AcDbEntity
  8
A1
  6
CONTINUOUS
 62
7
100
AcDbCircle
 10
61.50004737286093
 20
130.0000000000000
 30
0.000000000000000
 40
4.000000000000000
100
AcDbArc
 50
90.00000300000094
 51
180.0000000000000
  0
ARC
  5
13D
100
AcDbEntity
  8
A1
  6
CONTINUOUS
 62
7
100
AcDbCircle
 10
84.00004737286093
 20
69.43985455605629
 30
0.000000000000000
 40
56.14670233144888
100
AcDbArc
 50
86.03410870473492
 51
93.96589129526510
  0
ARC
  5
13E
100
AcDbEntity
  8
A1
  6
CONTINUOUS
 62
7
100
AcDbCircle
 10
84.00004737286093
 20
200.0000000000000
 30
0.000000000000000
 40
150.0000000000000
100
AcDbArc
 50
264.0622099999999
 51
275.9377200000000
  0
ARC
  5
13F
100
AcDbEntity
  8
A1
  6
CONTINUOUS
 62
7
100
AcDbCircle
 10
84.00004737286093
 20
-24.99999999999991
 30
0.000000000000000
 40
150.0000000000000
100
AcDbArc
 50
84.06228000000002
 51
95.93779299999998
  0
LINE
  5
140
100
AcDbEntity
  8
A1
  6
CONTINUOUS
 62
7
100
AcDbLine
 10
64.00004737286093
 20
55.77795400000009
 30
0.000000000000000
 11
64.00004737286093
 21
119.2220450000001
 31
0.000000000000000
  0
LINE
  5
141
100
AcDbEntity
  8
A1
  6
CONTINUOUS
 62
7
100
AcDbLine
 10
62.50004737286093
 20
70.39705700000009
 30
0.000000000000000
 11
62.50004737286093
 21
104.6029450000001
 31
0.000000000000000
  0
LINE
  5
142
100
AcDbEntity
  8
A1
  6
CONTINUOUS
 62
7
100
AcDbLine
 10
104.0000473728609
 20
55.77795400000009
 30
0.000000000000000
 11
104.0000473728609
 21
119.2220450000001
 31
0.000000000000000
  0
LINE
  5
143
100
AcDbEntity
  8
A1
  6
CONTINUOUS
 62
7
100
AcDbLine
 10
105.5000473728609
 20
70.39705700000009
 30
0.000000000000000
 11
105.5000473728609
 21
104.6029430000001
 31
0.000000000000000
  0
LINE
  5
144
100
AcDbEntity
  8
A4
  6
CENTER
 62
1
100
AcDbLine
 10
84.00004737286093
 20
197.0000000000000
 30
0.000000000000000
 11
84.00004737286093
 21
46.99999999999998
 31
0.000000000000000
  0
LINE
  5
145
100
AcDbEntity
  8
A4
  6
CENTER
 62
1
100
AcDbLine
 10
240.0000473728609
 20
87.50000000000004
 30
0.000000000000000
 11
159.0000473728609
 21
87.50000000000004
 31
0.000000000000000
  0
LINE
  5
146
100
AcDbEntity
  8
A4
  6
CENTER
 62
1
100
AcDbLine
 10
222.5000473728609
 20
308.0000000000000
 30
0.000000000000000
 11
222.5000473728609
 21
236.0000000000000
 31
0.000000000000000
  0
LINE
  5
147
100
AcDbEntity
  8
A4
  6
CENTER
 62
1
100
AcDbLine
 10
202.5000603728607
 20
237.5000523598742
 30
0.000000000000000
 11
202.5000378728608
 21
309.0000723598742
 31
0.000000000000000
  0
LINE
  5
148
100
AcDbEntity
  8
A4
  6
CENTER
 62
1
100
AcDbLine
 10
46.99997501298699
 20
87.49999050000010
 30
0.000000000000000
 11
118.5000473728611
 21
87.49999999999999
 31
0.000000000000000
  0
LINE
  5
149
100
AcDbEntity
  8
A4
  6
CENTER
 62
1
100
AcDbLine
 10
159.0000473728609
 20
272.0000000000000
 30
0.000000000000000
 11
258.5000473728609
 21
272.0000000000000
 31
0.000000000000000
  0
LINE
  5
14A
100
AcDbEntity
  8
A4
  6
CENTER
 62
1
100
AcDbLine
 10
222.5000473728609
 20
197.0000000000002
 30
0.000000000000000
 11
222.5000473728609
 21
47.00000000000021
 31
0.000000000000000
  0
LINE
  5
14B
100
AcDbEntity
  8
A4
  6
CENTER
 62
1
100
AcDbLine
 10
199.5000473728609
 20
47.00000000000002
 30
0.000000000000000
 11
199.5000473728610
 21
128.0000000000001
 31
0.000000000000000
  0
ENDSEC
  0
SECTION
  2
OBJECTS
  0
DICTIONARY
  5
176
100
AcDbDictionary
  3
ACAD_GROUP
350
177
  3
ACAD_LAYOUT
350
178
  3
ACAD_MLINESTYLE
350
179
  0
DICTIONARY
  5
177
102
{ACAD_REACTORS
330
176
102
}
330
176
100
AcDbDictionary
  0
DICTIONARY
  5
178
102
{ACAD_REACTORS
330
176
102
}
330
176
100
AcDbDictionary
  3
Model
350
17A
  3
ﾚｲｱｳﾄ1
350
17B
  3
ﾚｲｱｳﾄ2
350
17C
  0
DICTIONARY
  5
179
102
{ACAD_REACTORS
330
176
102
}
330
176
100
AcDbDictionary
  3
STANDARD
350
17D
  0
LAYOUT
  5
17A
102
{ACAD_REACTORS
330
178
102
}
330
178
100
AcDbPlotSettings
 70
11952
  4
A3
 44
297.000000
 45
420.000000
 73
  1
 72
  1
100
AcDbLayout
  1
Model
 71
0
330
16D
  0
LAYOUT
  5
17B
102
{ACAD_REACTORS
330
178
102
}
330
178
100
AcDbPlotSettings
100
AcDbLayout
  1
ﾚｲｱｳﾄ1
 71
1
330
16E
  0
LAYOUT
  5
17C
102
{ACAD_REACTORS
330
178
102
}
330
178
100
AcDbPlotSettings
100
AcDbLayout
  1
ﾚｲｱｳﾄ2
 71
2
330
16F
  0
MLINESTYLE
  5
17D
102
{ACAD_REACTORS
330
179
102
}
330
179
100
AcDbMlineStyle
  2
STANDARD
 70
     0
  3

 62
   256
 51
90.00
 52
90.00
 71
     2
 49
0.50
 62
   256
  6
BYLAYER
 49
-0.50
 62
   256
  6
BYLAYER
  0
ENDSEC
  0
EOF
