  0
SECTION
  2
HEADER
  9
$ACADVER
  1
AC1015
  9
$ACADMAINTVER
 70
    20
  9
$DWGCODEPAGE
  3
ANSI_932
  9
$INSBASE
 10
0.0
 20
0.0
 30
0.0
  9
$EXTMIN
 10
9.9999975266385
 20
10.0
 30
0.0
  9
$EXTMAX
 10
638.6652374517516
 20
441.914323920334
 30
0.0
  9
$LIMMIN
 10
0.0000015376081137
 20
-0.0000001931532552
  9
$LIMMAX
 10
692.0000015376082
 20
477.0606058674526
  9
$ORTHOMODE
 70
     1
  9
$REGENMODE
 70
     1
  9
$FILLMODE
 70
     1
  9
$QTEXTMODE
 70
     0
  9
$MIRRTEXT
 70
     1
  9
$LTSCALE
 40
0.5
  9
$ATTMODE
 70
     1
  9
$TEXTSIZE
 40
2.5
  9
$TRACEWID
 40
1.0
  9
$TEXTSTYLE
  7
STANDARD
  9
$CLAYER
  8
0
  9
$CELTYPE
  6
BYLAYER
  9
$CECOLOR
 62
   256
  9
$CELTSCALE
 40
1.0
  9
$DISPSILH
 70
     0
  9
$DIMSCALE
 40
1.0
  9
$DIMASZ
 40
3.0
  9
$DIMEXO
 40
1.0
  9
$DIMDLI
 40
10.0
  9
$DIMRND
 40
0.0
  9
$DIMDLE
 40
0.0
  9
$DIMEXE
 40
1.0
  9
$DIMTP
 40
0.0
  9
$DIMTM
 40
0.0
  9
$DIMTXT
 40
3.2
  9
$DIMCEN
 40
0.0
  9
$DIMTSZ
 40
0.0
  9
$DIMTOL
 70
     0
  9
$DIMLIM
 70
     0
  9
$DIMTIH
 70
     0
  9
$DIMTOH
 70
     0
  9
$DIMSE1
 70
     0
  9
$DIMSE2
 70
     0
  9
$DIMTAD
 70
     3
  9
$DIMZIN
 70
     8
  9
$DIMBLK
  1

  9
$DIMASO
 70
     1
  9
$DIMSHO
 70
     1
  9
$DIMPOST
  1

  9
$DIMAPOST
  1

  9
$DIMALT
 70
     0
  9
$DIMALTD
 70
     2
  9
$DIMALTF
 40
25.4
  9
$DIMLFAC
 40
1.0
  9
$DIMTOFL
 70
     1
  9
$DIMTVP
 40
0.0
  9
$DIMTIX
 70
     0
  9
$DIMSOXD
 70
     0
  9
$DIMSAH
 70
     1
  9
$DIMBLK1
  1
OPEN
  9
$DIMBLK2
  1
OPEN
  9
$DIMSTYLE
  2
STANDARD
  9
$DIMCLRD
 70
     0
  9
$DIMCLRE
 70
     0
  9
$DIMCLRT
 70
     0
  9
$DIMTFAC
 40
1.0
  9
$DIMGAP
 40
1.0
  9
$DIMJUST
 70
     0
  9
$DIMSD1
 70
     0
  9
$DIMSD2
 70
     0
  9
$DIMTOLJ
 70
     1
  9
$DIMTZIN
 70
     0
  9
$DIMALTZ
 70
     0
  9
$DIMALTTZ
 70
     0
  9
$DIMUPT
 70
     0
  9
$DIMDEC
 70
     4
  9
$DIMTDEC
 70
     4
  9
$DIMALTU
 70
     2
  9
$DIMALTTD
 70
     2
  9
$DIMTXSTY
  7
STANDARD
  9
$DIMAUNIT
 70
     0
  9
$DIMADEC
 70
     0
  9
$DIMALTRND
 40
0.0
  9
$DIMAZIN
 70
     0
  9
$DIMDSEP
 70
    46
  9
$DIMATFIT
 70
     3
  9
$DIMFRAC
 70
     0
  9
$DIMLDRBLK
  1
OPEN
  9
$DIMLUNIT
 70
     2
  9
$DIMLWD
 70
    -2
  9
$DIMLWE
 70
    -2
  9
$DIMTMOVE
 70
     0
  9
$LUNITS
 70
     2
  9
$LUPREC
 70
     4
  9
$SKETCHINC
 40
1.0
  9
$FILLETRAD
 40
10.0
  9
$AUNITS
 70
     0
  9
$AUPREC
 70
     0
  9
$MENU
  1
.
  9
$ELEVATION
 40
0.0
  9
$PELEVATION
 40
0.0
  9
$THICKNESS
 40
0.0
  9
$LIMCHECK
 70
     0
  9
$CHAMFERA
 40
10.0
  9
$CHAMFERB
 40
10.0
  9
$CHAMFERC
 40
20.0
  9
$CHAMFERD
 40
0.0
  9
$SKPOLY
 70
     0
  9
$TDCREATE
 40
2452929.381745324
  9
$TDUCREATE
 40
2452929.006745324
  9
$TDUPDATE
 40
2457192.690898958
  9
$TDUUPDATE
 40
2457192.315898958
  9
$TDINDWG
 40
0.1574235069
  9
$TDUSRTIMER
 40
0.1574234954
  9
$USRTIMER
 70
     1
  9
$ANGBASE
 50
0.0
  9
$ANGDIR
 70
     0
  9
$PDMODE
 70
     0
  9
$PDSIZE
 40
0.0
  9
$PLINEWID
 40
0.0
  9
$SPLFRAME
 70
     0
  9
$SPLINETYPE
 70
     6
  9
$SPLINESEGS
 70
     8
  9
$HANDSEED
  5
1AE2
  9
$SURFTAB1
 70
     6
  9
$SURFTAB2
 70
     6
  9
$SURFTYPE
 70
     6
  9
$SURFU
 70
     6
  9
$SURFV
 70
     6
  9
$UCSBASE
  2

  9
$UCSNAME
  2

  9
$UCSORG
 10
0.0
 20
0.0
 30
0.0
  9
$UCSXDIR
 10
1.0
 20
0.0
 30
0.0
  9
$UCSYDIR
 10
0.0
 20
1.0
 30
0.0
  9
$UCSORTHOREF
  2

  9
$UCSORTHOVIEW
 70
     0
  9
$UCSORGTOP
 10
0.0
 20
0.0
 30
0.0
  9
$UCSORGBOTTOM
 10
0.0
 20
0.0
 30
0.0
  9
$UCSORGLEFT
 10
0.0
 20
0.0
 30
0.0
  9
$UCSORGRIGHT
 10
0.0
 20
0.0
 30
0.0
  9
$UCSORGFRONT
 10
0.0
 20
0.0
 30
0.0
  9
$UCSORGBACK
 10
0.0
 20
0.0
 30
0.0
  9
$PUCSBASE
  2

  9
$PUCSNAME
  2

  9
$PUCSORG
 10
0.0
 20
0.0
 30
0.0
  9
$PUCSXDIR
 10
1.0
 20
0.0
 30
0.0
  9
$PUCSYDIR
 10
0.0
 20
1.0
 30
0.0
  9
$PUCSORTHOREF
  2

  9
$PUCSORTHOVIEW
 70
     0
  9
$PUCSORGTOP
 10
0.0
 20
0.0
 30
0.0
  9
$PUCSORGBOTTOM
 10
0.0
 20
0.0
 30
0.0
  9
$PUCSORGLEFT
 10
0.0
 20
0.0
 30
0.0
  9
$PUCSORGRIGHT
 10
0.0
 20
0.0
 30
0.0
  9
$PUCSORGFRONT
 10
0.0
 20
0.0
 30
0.0
  9
$PUCSORGBACK
 10
0.0
 20
0.0
 30
0.0
  9
$USERI1
 70
     0
  9
$USERI2
 70
     0
  9
$USERI3
 70
     0
  9
$USERI4
 70
     0
  9
$USERI5
 70
     0
  9
$USERR1
 40
0.0
  9
$USERR2
 40
0.0
  9
$USERR3
 40
0.0
  9
$USERR4
 40
0.0
  9
$USERR5
 40
0.0
  9
$WORLDVIEW
 70
     1
  9
$SHADEDGE
 70
     3
  9
$SHADEDIF
 70
    70
  9
$TILEMODE
 70
     1
  9
$MAXACTVP
 70
    48
  9
$PINSBASE
 10
0.0
 20
0.0
 30
0.0
  9
$PLIMCHECK
 70
     0
  9
$PEXTMIN
 10
1.000000000000000E+20
 20
1.000000000000000E+20
 30
1.000000000000000E+20
  9
$PEXTMAX
 10
-1.000000000000000E+20
 20
-1.000000000000000E+20
 30
-1.000000000000000E+20
  9
$PLIMMIN
 10
0.0
 20
0.0
  9
$PLIMMAX
 10
420.0
 20
297.0
  9
$UNITMODE
 70
     0
  9
$VISRETAIN
 70
     1
  9
$PLINEGEN
 70
     0
  9
$PSLTSCALE
 70
     1
  9
$TREEDEPTH
 70
  3020
  9
$CMLSTYLE
  2
STANDARD
  9
$CMLJUST
 70
     0
  9
$CMLSCALE
 40
20.0
  9
$PROXYGRAPHICS
 70
     1
  9
$MEASUREMENT
 70
     0
  9
$CELWEIGHT
370
    -1
  9
$ENDCAPS
280
     0
  9
$JOINSTYLE
280
     0
  9
$LWDISPLAY
290
     0
  9
$INSUNITS
 70
     0
  9
$HYPERLINKBASE
  1

  9
$STYLESHEET
  1

  9
$XEDIT
290
     1
  9
$CEPSNTYPE
380
     0
  9
$PSTYLEMODE
290
     1
  9
$FINGERPRINTGUID
  2
{D0F9D771-C8E0-42CF-84B4-068E588B8ED3}
  9
$VERSIONGUID
  2
{43E2332D-C172-497B-A27E-7F7FC1CC4E03}
  9
$EXTNAMES
290
     1
  9
$PSVPSCALE
 40
0.0
  9
$OLESTARTUP
290
     0
  0
ENDSEC
  0
SECTION
  2
CLASSES
  0
CLASS
  1
ACDBDICTIONARYWDFLT
  2
AcDbDictionaryWithDefault
  3
ObjectDBX Classes
 90
        0
280
     0
281
     0
  0
CLASS
  1
ACDBPLACEHOLDER
  2
AcDbPlaceHolder
  3
ObjectDBX Classes
 90
        0
280
     0
281
     0
  0
CLASS
  1
LAYOUT
  2
AcDbLayout
  3
ObjectDBX Classes
 90
        0
280
     0
281
     0
  0
CLASS
  1
DICTIONARYVAR
  2
AcDbDictionaryVar
  3
ObjectDBX Classes
 90
        0
280
     0
281
     0
  0
CLASS
  1
MATERIAL
  2
AcDbMaterial
  3
ObjectDBX Classes
 90
     1153
280
     0
281
     0
  0
CLASS
  1
VISUALSTYLE
  2
AcDbVisualStyle
  3
ObjectDBX Classes
 90
     4095
280
     0
281
     0
  0
CLASS
  1
TABLESTYLE
  2
AcDbTableStyle
  3
ObjectDBX Classes
 90
     4095
280
     0
281
     0
  0
CLASS
  1
SCALE
  2
AcDbScale
  3
ObjectDBX Classes
 90
     1153
280
     0
281
     0
  0
CLASS
  1
MLEADERSTYLE
  2
AcDbMLeaderStyle
  3
ACDB_MLEADERSTYLE_CLASS
 90
     4095
280
     0
281
     0
  0
CLASS
  1
ACDBSECTIONVIEWSTYLE
  2
AcDbSectionViewStyle
  3
ObjectDBX Classes
 90
     1025
280
     0
281
     0
  0
CLASS
  1
ACDBDETAILVIEWSTYLE
  2
AcDbDetailViewStyle
  3
ObjectDBX Classes
 90
     1025
280
     0
281
     0
  0
CLASS
  1
CELLSTYLEMAP
  2
AcDbCellStyleMap
  3
ObjectDBX Classes
 90
     1152
280
     0
281
     0
  0
ENDSEC
  0
SECTION
  2
TABLES
  0
TABLE
  2
VPORT
  5
8
330
0
100
AcDbSymbolTable
 70
     1
  0
VPORT
  5
1A2E
330
8
100
AcDbSymbolTableRecord
100
AcDbViewportTableRecord
  2
*ACTIVE
 70
     0
 10
0.0
 20
0.0
 11
1.0
 21
1.0
 12
490.5735531207602
 22
225.955197167969
 13
0.0
 23
0.0
 14
10.0
 24
10.0
 15
10.0
 25
10.0
 16
0.0
 26
0.0
 36
1.0
 17
0.0
 27
0.0
 37
0.0
 40
435.3311548692048
 41
2.35006605019815
 42
50.0
 43
0.0
 44
0.0
 50
0.0
 51
0.0
 71
     0
 72
   100
 73
     1
 74
     0
 75
     0
 76
     0
 77
     0
 78
     0
281
     0
 65
     1
110
0.0
120
0.0
130
0.0
111
1.0
121
0.0
131
0.0
112
0.0
122
1.0
132
0.0
 79
     0
146
0.0
1001
ACAD_NAV_VCDISPLAY
1070
     3
  0
ENDTAB
  0
TABLE
  2
LTYPE
  5
5
330
0
100
AcDbSymbolTable
 70
     4
  0
LTYPE
  5
12
330
5
100
AcDbSymbolTableRecord
100
AcDbLinetypeTableRecord
  2
BYBLOCK
 70
     0
  3

 72
    65
 73
     0
 40
0.0
  0
LTYPE
  5
13
330
5
100
AcDbSymbolTableRecord
100
AcDbLinetypeTableRecord
  2
BYLAYER
 70
     0
  3

 72
    65
 73
     0
 40
0.0
  0
LTYPE
  5
14
330
5
100
AcDbSymbolTableRecord
100
AcDbLinetypeTableRecord
  2
CONTINUOUS
 70
     0
  3
Solid line
 72
    65
 73
     0
 40
0.0
  0
LTYPE
  5
4B
330
5
100
AcDbSymbolTableRecord
100
AcDbLinetypeTableRecord
  2
DASHED
 70
     0
  3
Dashed __ __ __ __ __ __ __ __ __ __ __ __ __ _
 72
    65
 73
     2
 40
19.04999999999998
 49
12.7
 74
     0
 49
-6.349999999999997
 74
     0
  0
LTYPE
  5
4C
330
5
100
AcDbSymbolTableRecord
100
AcDbLinetypeTableRecord
  2
CENTER
 70
     0
  3
Center ____ _ ____ _ ____ _ ____ _ ____ _ ____
 72
    65
 73
     4
 40
50.8
 49
31.75
 74
     0
 49
-6.349999999999997
 74
     0
 49
6.349999999999997
 74
     0
 49
-6.349999999999997
 74
     0
  0
LTYPE
  5
4D
330
5
100
AcDbSymbolTableRecord
100
AcDbLinetypeTableRecord
  2
PHANTOM
 70
     0
  3
Phantom ______  __  __  ______  __  __  ______
 72
    65
 73
     6
 40
63.5
 49
31.75
 74
     0
 49
-6.349999999999997
 74
     0
 49
6.349999999999997
 74
     0
 49
-6.349999999999997
 74
     0
 49
6.349999999999997
 74
     0
 49
-6.349999999999997
 74
     0
  0
ENDTAB
  0
TABLE
  2
LAYER
  5
2
330
0
100
AcDbSymbolTable
 70
     8
  0
LAYER
  5
E
102
{ACAD_XDICTIONARY
360
1A86
102
}
330
2
100
AcDbSymbolTableRecord
100
AcDbLayerTableRecord
  2
0
 70
     0
 62
     7
  6
CONTINUOUS
370
    -3
390
1A35
  0
LAYER
  5
4E
102
{ACAD_XDICTIONARY
360
1A88
102
}
330
2
100
AcDbSymbolTableRecord
100
AcDbLayerTableRecord
  2
4
 70
     0
 62
     1
  6
CENTER
370
    -3
390
1A35
  0
LAYER
  5
4F
102
{ACAD_XDICTIONARY
360
1A8A
102
}
330
2
100
AcDbSymbolTableRecord
100
AcDbLayerTableRecord
  2
5
 70
     0
 62
     6
  6
PHANTOM
370
    -3
390
1A35
  0
LAYER
  5
50
102
{ACAD_XDICTIONARY
360
1A8C
102
}
330
2
100
AcDbSymbolTableRecord
100
AcDbLayerTableRecord
  2
1
 70
     0
 62
     7
  6
CONTINUOUS
370
    -3
390
1A35
  0
LAYER
  5
51
102
{ACAD_XDICTIONARY
360
1A8E
102
}
330
2
100
AcDbSymbolTableRecord
100
AcDbLayerTableRecord
  2
2
 70
     0
 62
     4
  6
CONTINUOUS
370
    -3
390
1A35
  0
LAYER
  5
52
102
{ACAD_XDICTIONARY
360
1A90
102
}
330
2
100
AcDbSymbolTableRecord
100
AcDbLayerTableRecord
  2
3
 70
     0
 62
     2
  6
DASHED
370
    -3
390
1A35
  0
LAYER
  5
53
102
{ACAD_XDICTIONARY
360
1A92
102
}
330
2
100
AcDbSymbolTableRecord
100
AcDbLayerTableRecord
  2
6
 70
     0
 62
     5
  6
CONTINUOUS
370
    -3
390
1A35
  0
LAYER
  5
54
102
{ACAD_XDICTIONARY
360
1A94
102
}
330
2
100
AcDbSymbolTableRecord
100
AcDbLayerTableRecord
  2
7
 70
     0
 62
     3
  6
CONTINUOUS
370
    -3
390
1A35
  0
ENDTAB
  0
TABLE
  2
STYLE
  5
3
330
0
100
AcDbSymbolTable
 70
     1
  0
STYLE
  5
F
330
3
100
AcDbSymbolTableRecord
100
AcDbTextStyleTableRecord
  2
STANDARD
 70
     0
 40
0.0
 41
1.0
 50
0.0
 71
     0
 42
2.5
  3
simplex.shx
  4

  0
ENDTAB
  0
TABLE
  2
VIEW
  5
6
330
0
100
AcDbSymbolTable
 70
     0
  0
ENDTAB
  0
TABLE
  2
UCS
  5
7
330
0
100
AcDbSymbolTable
 70
     0
  0
ENDTAB
  0
TABLE
  2
APPID
  5
9
330
0
100
AcDbSymbolTable
 70
     5
  0
APPID
  5
10
330
9
100
AcDbSymbolTableRecord
100
AcDbRegAppTableRecord
  2
ACAD
 70
     0
  0
APPID
  5
3E
330
9
100
AcDbSymbolTableRecord
100
AcDbRegAppTableRecord
  2
CONTENTTABDATA
 70
     0
  0
APPID
  5
3F
330
9
100
AcDbSymbolTableRecord
100
AcDbRegAppTableRecord
  2
CONTENTCURRENTTAB
 70
     0
  0
APPID
  5
1AA0
330
9
100
AcDbSymbolTableRecord
100
AcDbRegAppTableRecord
  2
ACAD_NAV_VCDISPLAY
 70
     0
  0
APPID
  5
1AD9
330
9
100
AcDbSymbolTableRecord
100
AcDbRegAppTableRecord
  2
ACAD_MLEADERVER
 70
     0
  0
ENDTAB
  0
TABLE
  2
DIMSTYLE
  5
A
330
0
100
AcDbSymbolTable
 70
     1
100
AcDbDimStyleTable
 71
     0
  0
DIMSTYLE
105
1D
330
A
100
AcDbSymbolTableRecord
100
AcDbDimStyleTableRecord
  2
STANDARD
 70
     0
 41
3.0
 42
1.0
 43
10.0
 44
1.0
 73
     0
 74
     0
 77
     3
 78
     8
140
3.2
141
0.0
147
1.0
172
     1
173
     1
340
F
341
2E
343
2E
344
2E
  0
ENDTAB
  0
TABLE
  2
BLOCK_RECORD
  5
1
330
0
100
AcDbSymbolTable
 70
     1
  0
BLOCK_RECORD
  5
18
102
{ACAD_XDICTIONARY
360
1A1B
102
}
330
1
100
AcDbSymbolTableRecord
100
AcDbBlockTableRecord
  2
*MODEL_SPACE
340
1A83
  0
BLOCK_RECORD
  5
15
102
{ACAD_XDICTIONARY
360
1A19
102
}
330
1
100
AcDbSymbolTableRecord
100
AcDbBlockTableRecord
  2
*PAPER_SPACE
340
1A84
  0
BLOCK_RECORD
  5
2E
330
1
100
AcDbSymbolTableRecord
100
AcDbBlockTableRecord
  2
_OPEN
340
0
  0
ENDTAB
  0
ENDSEC
  0
SECTION
  2
BLOCKS
  0
BLOCK
  5
19
330
18
100
AcDbEntity
  8
0
100
AcDbBlockBegin
  2
*MODEL_SPACE
 70
     0
 10
0.0
 20
0.0
 30
0.0
  3
*MODEL_SPACE
  1

  0
ENDBLK
  5
1A
330
18
100
AcDbEntity
  8
0
100
AcDbBlockEnd
  0
BLOCK
  5
16
330
15
100
AcDbEntity
 67
     1
  8
0
100
AcDbBlockBegin
  2
*PAPER_SPACE
 70
     0
 10
0.0
 20
0.0
 30
0.0
  3
*PAPER_SPACE
  1

  0
ENDBLK
  5
17
330
15
100
AcDbEntity
 67
     1
  8
0
100
AcDbBlockEnd
  0
BLOCK
  5
2F
330
2E
100
AcDbEntity
  8
0
100
AcDbBlockBegin
  2
_OPEN
 70
     0
 10
0.0
 20
0.0
 30
0.0
  3
_OPEN
  1

  0
LINE
  5
30
330
2E
100
AcDbEntity
  8
0
  6
ByBlock
 62
     0
100
AcDbLine
 10
-1.0
 20
0.1666666666666666
 30
0.0
 11
0.0
 21
0.0
 31
0.0
  0
LINE
  5
31
330
2E
100
AcDbEntity
  8
0
  6
ByBlock
 62
     0
100
AcDbLine
 10
0.0
 20
0.0
 30
0.0
 11
-1.0
 21
-0.1666666666666666
 31
0.0
  0
LINE
  5
32
330
2E
100
AcDbEntity
  8
0
  6
ByBlock
 62
     0
100
AcDbLine
 10
0.0
 20
0.0
 30
0.0
 11
-1.0
 21
0.0
 31
0.0
  0
ENDBLK
  5
33
330
2E
100
AcDbEntity
  8
0
100
AcDbBlockEnd
  0
ENDSEC
  0
SECTION
  2
ENTITIES
  0
TEXT
  5
63
330
18
100
AcDbEntity
  8
4
  6
CENTER
 48
0.25
100
AcDbText
 10
23.97950852663849
 20
10.0
 30
0.0
 40
1.399999999999999
  1
4
100
AcDbText
  0
TEXT
  5
64
330
18
100
AcDbEntity
  8
7
  6
Continuous
 48
0.25
100
AcDbText
 10
9.999997526638502
 20
26.0000007607689
 30
0.0
 40
3.0
  1
CODE No.9486
100
AcDbText
  0
TEXT
  5
65
330
18
100
AcDbEntity
  8
7
  6
Continuous
 48
0.25
100
AcDbText
 10
9.999997526638502
 20
18.00000076076889
 30
0.0
 40
3.0
  1
TYPE No.TCA-540SR-BAU65
100
AcDbText
  0
TEXT
  5
66
330
18
100
AcDbEntity
  8
1
  6
Continuous
 48
0.25
100
AcDbText
 10
9.999997526638502
 20
10.00000076076889
 30
0.0
 40
1.399999999999999
  1
LAYER
100
AcDbText
  0
TEXT
  5
67
330
18
100
AcDbEntity
  8
2
  6
Continuous
 48
0.25
100
AcDbText
 10
19.9795085266385
 20
10.0
 30
0.0
 40
1.399999999999999
  1
2
100
AcDbText
  0
TEXT
  5
68
330
18
100
AcDbEntity
  8
3
  6
DASHED
 48
0.25
100
AcDbText
 10
21.97950852663849
 20
10.0
 30
0.0
 40
1.399999999999999
  1
3
100
AcDbText
  0
TEXT
  5
69
330
18
100
AcDbEntity
  8
1
  6
Continuous
 48
0.25
100
AcDbText
 10
17.9795085266385
 20
10.0
 30
0.0
 40
1.399999999999999
  1
1
100
AcDbText
  0
TEXT
  5
6A
330
18
100
AcDbEntity
  8
5
  6
PHANTOM
 48
0.25
100
AcDbText
 10
25.97950852663849
 20
10.0
 30
0.0
 40
1.399999999999999
  1
5
100
AcDbText
  0
TEXT
  5
6B
330
18
100
AcDbEntity
  8
6
  6
Continuous
 48
0.25
100
AcDbText
 10
27.97950852663849
 20
10.0
 30
0.0
 40
1.399999999999999
  1
6
100
AcDbText
  0
TEXT
  5
6C
330
18
100
AcDbEntity
  8
7
  6
Continuous
 48
0.25
100
AcDbText
 10
29.9795085266385
 20
10.0
 30
0.0
 40
1.399999999999999
  1
7
100
AcDbText
  0
LINE
  5
C13
330
18
100
AcDbEntity
  8
1
  6
Continuous
100
AcDbLine
 10
117.4487404573415
 20
221.7236664469214
 30
0.0
 11
118.2487434573415
 21
221.7236664469214
 31
0.0
  0
LINE
  5
C14
330
18
100
AcDbEntity
  8
1
  6
Continuous
100
AcDbLine
 10
117.4487404573415
 20
231.7236664469214
 30
0.0
 11
118.2487434573415
 21
231.7236664469214
 31
0.0
  0
ARC
  5
C15
330
18
100
AcDbEntity
  8
1
  6
Continuous
100
AcDbCircle
 10
136.4487404573414
 20
222.2236664469213
 30
0.0
 40
18.200001
100
AcDbArc
 50
141.3272400000006
 51
179.9999599999992
  0
ARC
  5
C16
330
18
100
AcDbEntity
  8
1
  6
Continuous
100
AcDbCircle
 10
113.5839794573413
 20
282.8236664469213
 30
0.0
 40
5.0
100
AcDbArc
 50
270.0000200000018
 51
338.8998999999997
  0
LINE
  5
C17
330
18
100
AcDbEntity
  8
4
  6
CENTER
100
AcDbLine
 10
55.00532345734153
 20
226.7236664469214
 30
0.0
 11
132.9316624573415
 21
226.7236664469214
 31
0.0
  0
LINE
  5
C18
330
18
100
AcDbEntity
  8
1
  6
Continuous
100
AcDbLine
 10
54.99874345734157
 20
281.0236664469213
 30
0.0
 11
136.4987444573414
 21
281.0236664469213
 31
0.0
  0
LINE
  5
C19
330
18
100
AcDbEntity
  8
1
  6
Continuous
100
AcDbLine
 10
54.99874345734157
 20
284.2236664469215
 30
0.0
 11
136.4987444573414
 21
284.2236664469215
 31
0.0
  0
ARC
  5
C1C
330
18
100
AcDbEntity
  8
1
  6
Continuous
100
AcDbCircle
 10
110.7487434573415
 20
200.0016204469212
 30
0.0
 40
5.0
100
AcDbArc
 50
275.9377999999985
 51
0.0
  0
ARC
  5
C1D
330
18
100
AcDbEntity
  8
1
  6
Continuous
100
AcDbCircle
 10
80.74874345734157
 20
200.0016204469212
 30
0.0
 40
5.0
100
AcDbArc
 50
179.9999799999978
 51
264.062190000002
  0
LINE
  5
C1E
330
18
100
AcDbEntity
  8
4
  6
CENTER
100
AcDbLine
 10
95.74874345734157
 20
189.8111564469212
 30
0.0
 11
95.74874345734157
 21
292.1551048469213
 31
0.0
  0
ARC
  5
C1F
330
18
100
AcDbEntity
  8
1
  6
Continuous
100
AcDbCircle
 10
95.74874345734157
 20
344.2236664469214
 30
0.0
 40
150.0
100
AcDbArc
 50
264.0622100000002
 51
275.9377700000019
  0
ARC
  5
C21
330
18
100
AcDbEntity
  8
1
  6
Continuous
100
AcDbCircle
 10
123.3799073956485
 20
276.9734385758999
 30
0.0
 40
72.55961252117265
100
AcDbArc
 50
184.0191915255664
 51
218.7124913156364
  0
ARC
  5
C22
330
18
100
AcDbEntity
  8
1
  6
Continuous
100
AcDbCircle
 10
123.3800286549677
 20
276.973726961187
 30
0.0
 40
69.35989670011455
100
AcDbArc
 50
184.112731734796
 51
218.7190056819385
  0
ARC
  5
C23
330
18
100
AcDbEntity
  8
1
  6
Continuous
100
AcDbCircle
 10
54.99874345734157
 20
280.2236664469214
 30
0.0
 40
4.0
100
AcDbArc
 50
89.99998200000083
 51
179.9999599999992
  0
LINE
  5
C24
330
18
100
AcDbEntity
  8
1
  6
Continuous
100
AcDbLine
 10
50.99874345734157
 20
271.8876484469212
 30
0.0
 11
50.99874345734157
 21
280.2236664469214
 31
0.0
  0
LINE
  5
C25
330
18
100
AcDbEntity
  8
1
  6
Continuous
100
AcDbLine
 10
117.4487404573415
 20
244.7236664469214
 30
0.0
 11
117.4487404573415
 21
208.7236664469214
 31
0.0
  0
LINE
  5
C26
330
18
100
AcDbEntity
  8
1
  6
Continuous
100
AcDbLine
 10
115.7487434573414
 20
253.4457124469212
 30
0.0
 11
115.7487434573414
 21
200.0016204469212
 31
0.0
  0
LINE
  5
C27
330
18
100
AcDbEntity
  8
1
  6
Continuous
100
AcDbLine
 10
75.74874345734156
 20
253.4457124469212
 30
0.0
 11
75.74874345734156
 21
200.0016204469212
 31
0.0
  0
LINE
  5
C28
330
18
100
AcDbEntity
  8
1
  6
Continuous
100
AcDbLine
 10
74.04874345734151
 20
244.7236664469214
 30
0.0
 11
74.04874345734151
 21
208.7236664469214
 31
0.0
  0
LINE
  5
C29
330
18
100
AcDbEntity
  8
1
  6
Continuous
100
AcDbLine
 10
73.24874345734156
 20
213.2236664469214
 30
0.0
 11
73.24874345734156
 21
281.0236664469213
 31
0.0
  0
ARC
  5
C2A
330
18
100
AcDbEntity
  8
1
  6
Continuous
100
AcDbCircle
 10
65.26162345734157
 20
219.3537174469212
 30
0.0
 40
4.787128
100
AcDbArc
 50
333.5795799999981
 51
26.42042000000174
  0
LINE
  5
C2B
330
18
100
AcDbEntity
  8
1
  6
Continuous
100
AcDbLine
 10
65.54874345734153
 20
221.2492474469212
 30
0.0
 11
65.54874345734153
 21
222.9500764469212
 31
0.0
  0
LINE
  5
C2C
330
18
100
AcDbEntity
  8
1
  6
Continuous
100
AcDbLine
 10
65.54874345734174
 20
221.2492474469212
 30
0.0
 11
69.54875345734172
 21
221.4837754469213
 31
0.0
  0
LINE
  5
C2D
330
18
100
AcDbEntity
  8
1
  6
Continuous
100
AcDbLine
 10
65.04874345734151
 20
218.2236664469214
 30
0.0
 11
65.04874345734151
 21
226.7236664469214
 31
0.0
  0
LINE
  5
C2E
330
18
100
AcDbEntity
  8
1
  6
Continuous
100
AcDbLine
 10
63.44875345734156
 20
219.4236634469211
 30
0.0
 11
63.44875345734156
 21
226.7236664469214
 31
0.0
  0
LINE
  5
C2F
330
18
100
AcDbEntity
  8
1
  6
Continuous
100
AcDbLine
 10
70.04874345734151
 20
213.2236664469214
 30
0.0
 11
70.04874345734151
 21
222.2236664469213
 31
0.0
  0
LINE
  5
C30
330
18
100
AcDbEntity
  8
1
  6
Continuous
100
AcDbLine
 10
69.54874345734151
 20
217.2236584469215
 30
0.0
 11
65.54874345734153
 21
217.4756504469212
 31
0.0
  0
LINE
  5
C31
330
18
100
AcDbEntity
  8
1
  6
Continuous
100
AcDbLine
 10
65.54874345734153
 20
217.4236714469211
 30
0.0
 11
69.54874345734151
 21
217.2236664469211
 31
0.0
  0
ARC
  5
C32
330
18
100
AcDbEntity
  8
1
  6
Continuous
100
AcDbCircle
 10
68.85875345734143
 20
219.3624524469211
 30
0.0
 40
3.8100059
100
AcDbArc
 50
150.3156199999998
 51
209.6843800000002
  0
ARC
  5
C33
330
18
100
AcDbEntity
  8
1
  6
Continuous
100
AcDbCircle
 10
64.64875345734163
 20
219.4236634469211
 30
0.0
 40
1.199999999999999
100
AcDbArc
 50
180.0000100000009
 51
270.0
  0
LINE
  5
C34
330
18
100
AcDbEntity
  8
1
  6
Continuous
100
AcDbLine
 10
64.64875345734163
 20
218.2236664469214
 30
0.0
 11
65.04874345734151
 21
218.2236664469214
 31
0.0
  0
LINE
  5
C35
330
18
100
AcDbEntity
  8
1
  6
Continuous
100
AcDbLine
 10
65.54874345734174
 20
217.4236634469215
 30
0.0
 11
65.04874345734174
 21
218.2236664469214
 31
0.0
  0
LINE
  5
C36
330
18
100
AcDbEntity
  8
1
  6
Continuous
100
AcDbLine
 10
65.54874345734153
 20
217.4236634469213
 30
0.0
 11
65.54874345734153
 21
217.4756574469212
 31
0.0
  0
LINE
  5
C37
330
18
100
AcDbEntity
  8
1
  6
Continuous
100
AcDbLine
 10
74.04874345734151
 20
208.7236664469214
 30
0.0
 11
75.74874345734156
 21
208.7236664469214
 31
0.0
  0
LINE
  5
C38
330
18
100
AcDbEntity
  8
1
  6
Continuous
100
AcDbLine
 10
70.04874345734151
 20
218.2236744469212
 30
0.0
 11
69.54874345734151
 21
217.2236744469214
 31
0.0
  0
LINE
  5
C39
330
18
100
AcDbEntity
  8
1
  6
Continuous
100
AcDbLine
 10
70.04874345734151
 20
213.2236664469214
 30
0.0
 11
73.24874345734156
 21
213.2236664469214
 31
0.0
  0
ARC
  5
C3A
330
18
100
AcDbEntity
  8
1
  6
Continuous
100
AcDbCircle
 10
55.04874345734151
 20
222.2236664469213
 30
0.0
 40
15.0
100
AcDbArc
 50
0.0
 51
38.65799600000055
  0
LINE
  5
C3B
330
18
100
AcDbEntity
  8
1
  6
Continuous
100
AcDbLine
 10
69.54874345734151
 20
222.4810284469213
 30
0.0
 11
65.54874345734153
 21
222.9500764469212
 31
0.0
  0
ARC
  5
C3C
330
18
100
AcDbEntity
  8
1
  6
Continuous
100
AcDbCircle
 10
68.85875345734143
 20
234.0848804469211
 30
0.0
 40
3.8100059
100
AcDbArc
 50
184.1483199999993
 51
209.6843800000002
  0
LINE
  5
C3D
330
18
100
AcDbEntity
  8
1
  6
Continuous
100
AcDbLine
 10
63.44875345734156
 20
234.0236654469213
 30
0.0
 11
63.44875345734156
 21
226.7236664469214
 31
0.0
  0
LINE
  5
C3E
330
18
100
AcDbEntity
  8
1
  6
Continuous
100
AcDbLine
 10
65.04874345734151
 20
233.822787446921
 30
0.0
 11
65.04874345734151
 21
226.7236664469214
 31
0.0
  0
ARC
  5
C3F
330
18
100
AcDbEntity
  8
1
  6
Continuous
100
AcDbCircle
 10
79.53874345734153
 20
226.7236664469214
 30
0.0
 40
14.49
100
AcDbArc
 50
164.9045800000001
 51
195.0954199999998
  0
LINE
  5
C40
330
18
100
AcDbEntity
  8
1
  6
Continuous
100
AcDbLine
 10
67.41329345734175
 20
230.7158994469215
 30
0.0
 11
65.54874345734174
 21
230.4972604469214
 31
0.0
  0
LINE
  5
C41
330
18
100
AcDbEntity
  8
1
  6
Continuous
100
AcDbLine
 10
65.54874345734153
 20
232.1980814469212
 30
0.0
 11
66.31925345734156
 21
232.1529074469212
 31
0.0
  0
LINE
  5
C42
330
18
100
AcDbEntity
  8
1
  6
Continuous
100
AcDbLine
 10
65.54874345734153
 20
232.1980854469212
 30
0.0
 11
65.54874345734153
 21
230.4972604469214
 31
0.0
  0
LINE
  5
C43
330
18
100
AcDbEntity
  8
1
  6
Continuous
100
AcDbLine
 10
60.94872345734143
 20
230.9736664469212
 30
0.0
 11
61.69872345734143
 21
231.7236704469212
 31
0.0
  0
LINE
  5
C44
330
18
100
AcDbEntity
  8
1
  6
Continuous
100
AcDbLine
 10
61.6986934573415
 20
221.7236134469215
 30
0.0
 11
60.94869345734172
 21
222.4736134469212
 31
0.0
  0
LINE
  5
C45
330
18
100
AcDbEntity
  8
1
  6
Continuous
100
AcDbLine
 10
61.69874345734161
 20
231.7236664469214
 30
0.0
 11
61.69874345734161
 21
221.7236664469214
 31
0.0
  0
LINE
  5
C46
330
18
100
AcDbEntity
  8
1
  6
Continuous
100
AcDbLine
 10
60.94874345734162
 20
230.9736664469214
 30
0.0
 11
60.94874345734162
 21
222.4736664469214
 31
0.0
  0
LINE
  5
C47
330
18
100
AcDbEntity
  8
2
  6
Continuous
100
AcDbLine
 10
60.94874345734162
 20
222.4736664469214
 30
0.0
 11
63.44875345734156
 21
222.4736664469214
 31
0.0
  0
LINE
  5
C48
330
18
100
AcDbEntity
  8
2
  6
Continuous
100
AcDbLine
 10
60.94874345734162
 20
230.9736664469214
 30
0.0
 11
63.44875345734156
 21
230.9736664469214
 31
0.0
  0
LINE
  5
C49
330
18
100
AcDbEntity
  8
1
  6
Continuous
100
AcDbLine
 10
61.69874345734161
 20
231.7236664469214
 30
0.0
 11
63.44875345734156
 21
231.7236664469214
 31
0.0
  0
LINE
  5
C4A
330
18
100
AcDbEntity
  8
1
  6
Continuous
100
AcDbLine
 10
61.69874345734161
 20
221.7236664469214
 30
0.0
 11
63.44875345734156
 21
221.7236664469214
 31
0.0
  0
ARC
  5
C4B
330
18
100
AcDbEntity
  8
1
  6
Continuous
100
AcDbCircle
 10
64.64875345734163
 20
234.0236654469213
 30
0.0
 40
1.199999999999999
100
AcDbArc
 50
115.8870699999982
 51
180.0000100000009
  0
ARC
  5
C4C
330
18
100
AcDbEntity
  8
1
  6
Continuous
100
AcDbCircle
 10
55.04874345734151
 20
222.2236664469213
 30
0.0
 40
18.200001
100
AcDbArc
 50
0.0
 51
38.67275999999924
  0
LINE
  5
C4D
330
18
100
AcDbEntity
  8
1
  6
Continuous
100
AcDbLine
 10
73.24874345734156
 20
221.7236664469214
 30
0.0
 11
74.04874345734151
 21
221.7236664469214
 31
0.0
  0
LINE
  5
C4E
330
18
100
AcDbEntity
  8
1
  6
Continuous
100
AcDbLine
 10
73.24874345734156
 20
231.7236664469214
 30
0.0
 11
74.04874345734151
 21
231.7236664469214
 31
0.0
  0
ARC
  5
C4F
330
18
100
AcDbEntity
  8
1
  6
Continuous
100
AcDbCircle
 10
51.79874345734153
 20
226.7236664469214
 30
0.0
 40
18.25
100
AcDbArc
 50
346.5572599999986
 51
352.5676399999992
  0
LINE
  5
C50
330
18
100
AcDbEntity
  8
1
  6
Continuous
100
AcDbLine
 10
69.54874345734151
 20
222.4810284469213
 30
0.0
 11
69.54874345734151
 21
221.4837754469213
 31
0.0
  0
LINE
  5
C51
330
18
100
AcDbEntity
  8
1
  6
Continuous
100
AcDbLine
 10
115.7487434573414
 20
208.7236664469214
 30
0.0
 11
117.4487404573415
 21
208.7236664469214
 31
0.0
  0
ARC
  5
C52
330
18
100
AcDbEntity
  8
1
  6
Continuous
100
AcDbCircle
 10
95.74874345734157
 20
109.2236664469212
 30
0.0
 40
150.0
100
AcDbArc
 50
84.06222500000202
 51
95.93779299999741
  0
LINE
  5
C53
330
18
100
AcDbEntity
  8
1
  6
Continuous
100
AcDbLine
 10
77.91350345734144
 20
277.8236664469214
 30
0.0
 11
113.5839794573413
 21
277.8236664469214
 31
0.0
  0
ARC
  5
C54
330
18
100
AcDbEntity
  8
1
  6
Continuous
100
AcDbCircle
 10
80.74874345734157
 20
253.4457124469212
 30
0.0
 40
5.0
100
AcDbArc
 50
95.93781400000173
 51
179.9999599999992
  0
LINE
  5
C55
330
18
100
AcDbEntity
  8
1
  6
Continuous
100
AcDbLine
 10
74.04874345734151
 20
244.7236664469214
 30
0.0
 11
75.74874345734156
 21
244.7236664469214
 31
0.0
  0
LINE
  5
C56
330
18
100
AcDbEntity
  8
4
  6
CENTER
100
AcDbLine
 10
64.24874345734156
 20
275.5700049923039
 30
0.0
 11
64.24874345734156
 21
290.1551048469213
 31
0.0
  0
LINE
  5
C57
330
18
100
AcDbEntity
  8
1
  6
Continuous
100
AcDbLine
 10
54.19874345734161
 20
271.9818374469212
 30
0.0
 11
54.19874345734161
 21
280.2236664469214
 31
0.0
  0
ARC
  5
C58
330
18
100
AcDbEntity
  8
1
  6
Continuous
100
AcDbCircle
 10
54.99874345734157
 20
280.2236664469214
 30
0.0
 40
0.8000000099999999
100
AcDbArc
 50
89.99998200000083
 51
179.9999599999992
  0
ARC
  5
C59
330
18
100
AcDbEntity
  8
1
  6
Continuous
100
AcDbCircle
 10
77.91350345734144
 20
282.8236664469213
 30
0.0
 40
5.0
100
AcDbArc
 50
201.10017
 51
270.0000200000018
  0
ARC
  5
C5A
330
18
100
AcDbEntity
  8
1
  6
Continuous
100
AcDbCircle
 10
110.7487434573415
 20
253.4457124469212
 30
0.0
 40
5.0
100
AcDbArc
 50
0.0
 51
84.0622049999976
  0
LINE
  5
C5B
330
18
100
AcDbEntity
  8
1
  6
Continuous
100
AcDbLine
 10
115.7487434573414
 20
244.7236664469214
 30
0.0
 11
117.4487404573415
 21
244.7236664469214
 31
0.0
  0
ARC
  5
C5C
330
18
100
AcDbEntity
  8
1
  6
Continuous
100
AcDbCircle
 10
68.1174622623315
 20
276.9737269383806
 30
0.0
 40
69.35989669586909
100
AcDbArc
 50
321.2809843400477
 51
355.88726828384
  0
ARC
  5
C5D
330
18
100
AcDbEntity
  8
1
  6
Continuous
100
AcDbCircle
 10
68.11758353492348
 20
276.9734385206195
 30
0.0
 40
72.55961248623774
100
AcDbArc
 50
321.2874987187958
 51
355.9808185088758
  0
LINE
  5
C5E
330
18
100
AcDbEntity
  8
1
  6
Continuous
100
AcDbLine
 10
118.2487434573415
 20
213.2236664469214
 30
0.0
 11
118.2487434573415
 21
281.0236664469213
 31
0.0
  0
LINE
  5
C60
330
18
100
AcDbEntity
  8
1
  6
Continuous
100
AcDbLine
 10
125.4487404573415
 20
232.4217064469212
 30
0.0
 11
125.4487404573415
 21
217.7236664469214
 31
0.0
  0
LINE
  5
C61
330
18
100
AcDbEntity
  8
1
  6
Continuous
100
AcDbLine
 10
126.4487404573415
 20
233.822787446921
 30
0.0
 11
126.4487404573415
 21
219.7236664469214
 31
0.0
  0
LINE
  5
C62
330
18
100
AcDbEntity
  8
1
  6
Continuous
100
AcDbLine
 10
121.4487404573415
 20
213.2236664469214
 30
0.0
 11
121.4487404573415
 21
222.2236664469213
 31
0.0
  0
LINE
  5
C63
330
18
100
AcDbEntity
  8
1
  6
Continuous
100
AcDbLine
 10
125.4487404573415
 20
217.7236584469212
 30
0.0
 11
126.4487404573415
 21
219.7236584469214
 31
0.0
  0
LINE
  5
C64
330
18
100
AcDbEntity
  8
1
  6
Continuous
100
AcDbLine
 10
121.4487404573415
 20
217.7236664469214
 30
0.0
 11
125.4487404573415
 21
217.7236664469214
 31
0.0
  0
LINE
  5
C65
330
18
100
AcDbEntity
  8
1
  6
Continuous
100
AcDbLine
 10
118.2487434573415
 20
213.2236664469214
 30
0.0
 11
121.4487404573415
 21
213.2236664469214
 31
0.0
  0
ARC
  5
C66
330
18
100
AcDbEntity
  8
1
  6
Continuous
100
AcDbCircle
 10
136.4487404573414
 20
222.2236664469213
 30
0.0
 40
15.0
100
AcDbArc
 50
141.3420099999995
 51
179.9999599999992
  0
LINE
  5
C68
330
18
100
AcDbEntity
  8
4
  6
CENTER
100
AcDbLine
 10
127.2487434573415
 20
275.5700049923039
 30
0.0
 11
127.2487434573415
 21
290.1551048469213
 31
0.0
  0
LINE
  5
C69
330
18
100
AcDbEntity
  8
1
  6
Continuous
100
AcDbLine
 10
137.2987434573414
 20
271.9818374469212
 30
0.0
 11
137.2987434573414
 21
280.2236664469214
 31
0.0
  0
LINE
  5
C6A
330
18
100
AcDbEntity
  8
1
  6
Continuous
100
AcDbLine
 10
140.4987444573414
 20
271.8876484469212
 30
0.0
 11
140.4987444573414
 21
280.2236664469214
 31
0.0
  0
ARC
  5
C6B
330
18
100
AcDbEntity
  8
1
  6
Continuous
100
AcDbCircle
 10
136.4987444573414
 20
280.2236664469214
 30
0.0
 40
0.8000000099999999
100
AcDbArc
 50
0.0
 51
89.99998200000083
  0
ARC
  5
C6C
330
18
100
AcDbEntity
  8
1
  6
Continuous
100
AcDbCircle
 10
136.4987444573414
 20
280.2236664469214
 30
0.0
 40
4.0
100
AcDbArc
 50
0.0
 51
89.99998200000083
  0
ARC
  5
C70
330
18
100
AcDbEntity
  8
1
  6
Continuous
100
AcDbCircle
 10
262.6764631221448
 20
226.7236664469214
 30
0.0
 40
32.5
100
AcDbArc
 50
132.9151000000019
 51
47.08490299999872
  0
LINE
  5
C71
330
18
100
AcDbEntity
  8
4
  6
CENTER
100
AcDbLine
 10
262.6764631221448
 20
190.3008464469213
 30
0.0
 11
262.6764631221448
 21
293.2059662469213
 31
0.0
  0
ARC
  5
C72
330
18
100
AcDbEntity
  8
1
  6
Continuous
100
AcDbCircle
 10
262.6764631221448
 20
226.7236664469214
 30
0.0
 40
16.5
100
AcDbArc
 50
168.3443797123954
 51
11.65561253185199
  0
ARC
  5
C73
330
18
100
AcDbEntity
  8
1
  6
Continuous
100
AcDbCircle
 10
262.6764631221448
 20
226.7236664469214
 30
0.0
 40
18.5
100
AcDbArc
 50
256.1268999999986
 51
283.8730700000009
  0
ARC
  5
C74
330
18
100
AcDbEntity
  8
1
  6
Continuous
100
AcDbCircle
 10
262.6764631221448
 20
226.7236664469214
 30
0.0
 40
23.0
100
AcDbArc
 50
255.5209000000018
 51
284.4790399999986
  0
ARC
  5
C75
330
18
100
AcDbEntity
  8
1
  6
Continuous
100
AcDbCircle
 10
262.6764631221448
 20
226.7236664469214
 30
0.0
 40
25.0
100
AcDbArc
 50
141.9361347786485
 51
38.06386395642584
  0
CIRCLE
  5
C77
330
18
100
AcDbEntity
  8
1
  6
Continuous
100
AcDbCircle
 10
262.6764631221448
 20
226.7236664469214
 30
0.0
 40
7.400000099999997
  0
CIRCLE
  5
C78
330
18
100
AcDbEntity
  8
1
  6
Continuous
100
AcDbCircle
 10
262.6764631221448
 20
226.7236664469214
 30
0.0
 40
9.0
  0
CIRCLE
  5
C79
330
18
100
AcDbEntity
  8
1
  6
Continuous
100
AcDbCircle
 10
262.6764631221448
 20
226.7236664469214
 30
0.0
 40
2.5
  0
ARC
  5
C7A
330
18
100
AcDbEntity
  8
1
  6
Continuous
100
AcDbCircle
 10
262.6764631221448
 20
228.2236664469214
 30
0.0
 40
15.0
100
AcDbArc
 50
196.2601799999989
 51
343.7398099999985
  0
LINE
  5
C7B
330
18
100
AcDbEntity
  8
1
  6
Continuous
100
AcDbLine
 10
221.6764631221448
 20
284.2236664469215
 30
0.0
 11
303.6764631221444
 21
284.2236664469215
 31
0.0
  0
LINE
  5
C7C
330
18
100
AcDbEntity
  8
4
  6
CENTER
100
AcDbLine
 10
220.5431281221448
 20
226.7236664469214
 30
0.0
 11
304.0097991221448
 21
226.7236664469214
 31
0.0
  0
LINE
  5
C7D
330
18
100
AcDbEntity
  8
1
  6
Continuous
100
AcDbLine
 10
248.276462522145
 20
224.0236694469214
 30
0.0
 11
234.7804627221449
 21
270.2956654469214
 31
0.0
  0
LINE
  5
C7E
330
18
100
AcDbEntity
  8
1
  6
Continuous
100
AcDbLine
 10
251.6764631221449
 20
229.0854984469212
 30
0.0
 11
251.6764631221449
 21
281.5236694469211
 31
0.0
  0
ARC
  5
C7F
330
18
100
AcDbEntity
  8
1
  6
Continuous
100
AcDbCircle
 10
243.2598751221448
 20
221.9282419869214
 30
0.0
 40
1.5
100
AcDbArc
 50
292.4999599999998
 51
13.87305699999942
  0
ARC
  5
C80
330
18
100
AcDbEntity
  8
1
  6
Continuous
100
AcDbCircle
 10
262.6764631221448
 20
226.7236664469214
 30
0.0
 40
23.0
100
AcDbArc
 50
165.5208900000018
 51
194.4790400000018
  0
ARC
  5
C81
330
18
100
AcDbEntity
  8
1
  6
Continuous
100
AcDbCircle
 10
262.6764631221448
 20
226.7236664469214
 30
0.0
 40
18.5
100
AcDbArc
 50
211.1268999999993
 51
238.8730699999991
  0
ARC
  5
C82
330
18
100
AcDbEntity
  8
1
  6
Continuous
100
AcDbCircle
 10
262.6764631221448
 20
226.7236664469214
 30
0.0
 40
23.0
100
AcDbArc
 50
210.5208999999987
 51
239.4790399999989
  0
ARC
  5
C83
330
18
100
AcDbEntity
  8
1
  6
Continuous
100
AcDbCircle
 10
244.1554141221446
 20
215.8048403469215
 30
0.0
 40
1.5
100
AcDbArc
 50
112.4999499999972
 51
210.5209599999994
  0
ARC
  5
C84
330
18
100
AcDbEntity
  8
1
  6
Continuous
100
AcDbCircle
 10
245.5559721221447
 20
216.3849661469213
 30
0.0
 40
1.5
100
AcDbArc
 50
31.12691400000054
 51
112.4999499999972
  0
ARC
  5
C85
330
18
100
AcDbEntity
  8
1
  6
Continuous
100
AcDbCircle
 10
241.8593171221448
 20
221.3481137969214
 30
0.0
 40
1.5
100
AcDbArc
 50
194.4790300000003
 51
292.4998900000012
  0
LINE
  5
C86
330
18
100
AcDbEntity
  8
1
  6
Continuous
100
AcDbLine
 10
243.5814011221448
 20
217.1906588469214
 30
0.0
 11
244.9819551221446
 21
217.7707860469211
 31
0.0
  0
LINE
  5
C87
330
18
100
AcDbEntity
  8
1
  6
Continuous
100
AcDbLine
 10
242.4333451221448
 20
219.9622849469215
 30
0.0
 11
243.8339031221449
 21
220.5424142469214
 31
0.0
  0
ARC
  5
C88
330
18
100
AcDbEntity
  8
1
  6
Continuous
100
AcDbCircle
 10
252.3377371221449
 20
209.6031884469214
 30
0.0
 40
1.5
100
AcDbArc
 50
337.4999599999989
 51
58.87305500000175
  0
ARC
  5
C89
330
18
100
AcDbEntity
  8
1
  6
Continuous
100
AcDbCircle
 10
251.7576051221448
 20
208.2026324469214
 30
0.0
 40
1.5
100
AcDbArc
 50
239.4790199999995
 51
337.4998900000016
  0
LINE
  5
C8A
330
18
100
AcDbEntity
  8
1
  6
Continuous
100
AcDbLine
 10
253.1434431221448
 20
207.6285984469214
 30
0.0
 11
253.7235751221448
 21
209.0291564469211
 31
0.0
  0
ARC
  5
C8B
330
18
100
AcDbEntity
  8
1
  6
Continuous
100
AcDbCircle
 10
257.3008791221448
 20
205.9065294469214
 30
0.0
 40
1.5
100
AcDbArc
 50
157.499949999999
 51
255.5209600000013
  0
ARC
  5
C8C
330
18
100
AcDbEntity
  8
1
  6
Continuous
100
AcDbCircle
 10
257.8810111221447
 20
207.3070864469213
 30
0.0
 40
1.5
100
AcDbArc
 50
76.12691200000161
 51
157.499949999999
  0
LINE
  5
C8D
330
18
100
AcDbEntity
  8
1
  6
Continuous
100
AcDbLine
 10
255.9150911221447
 20
206.4805524469214
 30
0.0
 11
256.4952191221448
 21
207.8811064469212
 31
0.0
  0
ARC
  5
C8E
330
18
100
AcDbEntity
  8
1
  6
Continuous
100
AcDbCircle
 10
241.8593281221448
 20
232.0992494469214
 30
0.0
 40
1.5
100
AcDbArc
 50
67.49995200000025
 51
165.5209699999996
  0
ARC
  5
C8F
330
18
100
AcDbEntity
  8
1
  6
Continuous
100
AcDbCircle
 10
243.2598831221448
 20
231.5191157469214
 30
0.0
 40
1.5
100
AcDbArc
 50
346.1269200000011
 51
67.49995200000025
  0
LINE
  5
C90
330
18
100
AcDbEntity
  8
1
  6
Continuous
100
AcDbLine
 10
242.4333561221448
 20
233.4850664469214
 30
0.0
 11
243.8339071221448
 21
232.9049374469215
 31
0.0
  0
ARC
  5
C91
330
18
100
AcDbEntity
  8
1
  6
Continuous
100
AcDbCircle
 10
262.6764631221448
 20
226.7236664469214
 30
0.0
 40
18.5
100
AcDbArc
 50
166.1268900000017
 51
193.8730599999986
  0
ARC
  5
C92
330
18
100
AcDbEntity
  8
1
  6
Continuous
100
AcDbCircle
 10
244.1554291221448
 20
237.6425204469214
 30
0.0
 40
1.5
100
AcDbArc
 50
149.4790200000011
 51
247.4998799999998
  0
ARC
  5
C93
330
18
100
AcDbEntity
  8
1
  6
Continuous
100
AcDbCircle
 10
262.6764631221448
 20
226.7236664469214
 30
0.0
 40
23.0
100
AcDbArc
 50
145.5996183475505
 51
149.4790499999997
  0
LINE
  5
C94
330
18
100
AcDbEntity
  8
1
  6
Continuous
100
AcDbLine
 10
243.5814011221448
 20
236.2566974469213
 30
0.0
 11
244.8633744070007
 21
235.7256850035307
 31
0.0
  0
ARC
  5
C95
330
18
100
AcDbEntity
  8
1
  6
Continuous
100
AcDbCircle
 10
227.6764631221448
 20
268.2236664469214
 30
0.0
 40
7.400000099999997
100
AcDbArc
 50
16.26021100000101
 51
68.26444899999997
  0
ARC
  5
C96
330
18
100
AcDbEntity
  8
1
  6
Continuous
100
AcDbCircle
 10
223.9682611221449
 20
280.2236664469214
 30
0.0
 40
4.0
100
AcDbArc
 50
343.3983699999996
 51
89.99998200000083
  0
ARC
  5
C97
330
18
100
AcDbEntity
  8
1
  6
Continuous
100
AcDbCircle
 10
224.6797971221448
 20
278.0236694469213
 30
0.0
 40
3.0
100
AcDbArc
 50
1.91016489999953
 51
89.99998200000083
  0
ARC
  5
C98
330
18
100
AcDbEntity
  8
1
  6
Continuous
100
AcDbCircle
 10
230.6764631221449
 20
278.2236664469214
 30
0.0
 40
3.0
100
AcDbArc
 50
163.398479999999
 51
248.2644300000004
  0
LINE
  5
C99
330
18
100
AcDbEntity
  8
1
  6
Continuous
100
AcDbLine
 10
230.4168581221447
 20
275.0975564469213
 30
0.0
 11
229.5654931221446
 21
275.4369674469212
 31
0.0
  0
LINE
  5
C9A
330
18
100
AcDbEntity
  8
1
  6
Continuous
100
AcDbLine
 10
221.6764631221448
 20
281.0236694469212
 30
0.0
 11
224.6797971221448
 21
281.0236694469212
 31
0.0
  0
LINE
  5
C9B
330
18
100
AcDbEntity
  8
1
  6
Continuous
100
AcDbLine
 10
221.6764631221448
 20
281.0236694469212
 30
0.0
 11
221.6764631221448
 21
284.2236664469215
 31
0.0
  0
LINE
  5
C9C
330
18
100
AcDbEntity
  8
4
  6
CENTER
100
AcDbLine
 10
231.1764631221449
 20
290.1551048469213
 30
0.0
 11
231.1764631221449
 21
275.5700049923039
 31
0.0
  0
LINE
  5
C9D
330
18
100
AcDbEntity
  8
1
  6
Continuous
100
AcDbLine
 10
277.0764651221447
 20
224.0236694469214
 30
0.0
 11
290.5724631221449
 21
270.2956674469214
 31
0.0
  0
LINE
  5
C9E
330
18
100
AcDbEntity
  8
1
  6
Continuous
100
AcDbLine
 10
273.6764631221448
 20
228.8813664469211
 30
0.0
 11
273.6764631221448
 21
281.9236634469211
 31
0.0
  0
ARC
  5
C9F
330
18
100
AcDbEntity
  8
1
  6
Continuous
100
AcDbCircle
 10
262.6764631221448
 20
226.7236664469214
 30
0.0
 40
23.0
100
AcDbArc
 50
345.5208900000018
 51
14.47903800000029
  0
ARC
  5
CA0
330
18
100
AcDbEntity
  8
1
  6
Continuous
100
AcDbCircle
 10
282.0930431221447
 20
221.9282133769211
 30
0.0
 40
1.5
100
AcDbArc
 50
166.1268900000017
 51
247.4999399999991
  0
ARC
  5
CA1
330
18
100
AcDbEntity
  8
1
  6
Continuous
100
AcDbCircle
 10
279.7969461221447
 20
216.3849413469214
 30
0.0
 40
1.5
100
AcDbArc
 50
67.49995200000025
 51
148.8730399999997
  0
ARC
  5
CA2
330
18
100
AcDbEntity
  8
1
  6
Continuous
100
AcDbCircle
 10
262.6764631221448
 20
226.7236664469214
 30
0.0
 40
23.0
100
AcDbArc
 50
300.5208999999986
 51
329.4790400000006
  0
ARC
  5
CA3
330
18
100
AcDbEntity
  8
1
  6
Continuous
100
AcDbCircle
 10
273.0151621221448
 20
209.6031734469212
 30
0.0
 40
1.5
100
AcDbArc
 50
121.1269000000011
 51
202.4999500000015
  0
LINE
  5
CA4
330
18
100
AcDbEntity
  8
1
  6
Continuous
100
AcDbLine
 10
272.2095211221449
 20
207.6286164469214
 30
0.0
 11
271.6293931221447
 21
209.0291714469215
 31
0.0
  0
ARC
  5
CA5
330
18
100
AcDbEntity
  8
1
  6
Continuous
100
AcDbCircle
 10
267.4718881221447
 20
207.3070764469214
 30
0.0
 40
1.5
100
AcDbArc
 50
22.49995499999793
 51
103.8730499999984
  0
ARC
  5
CA6
330
18
100
AcDbEntity
  8
1
  6
Continuous
100
AcDbCircle
 10
268.0520121221448
 20
205.9065184469214
 30
0.0
 40
1.5
100
AcDbArc
 50
284.4790100000005
 51
22.49988600000093
  0
LINE
  5
CA7
330
18
100
AcDbEntity
  8
1
  6
Continuous
100
AcDbLine
 10
269.4378691221448
 20
206.4805514469215
 30
0.0
 11
268.8577411221448
 21
207.8811084469212
 31
0.0
  0
ARC
  5
CA8
330
18
100
AcDbEntity
  8
1
  6
Continuous
100
AcDbCircle
 10
273.5952861221448
 20
208.2026154469215
 30
0.0
 40
1.5
100
AcDbArc
 50
202.4999599999998
 51
300.5209600000009
  0
ARC
  5
CA9
330
18
100
AcDbEntity
  8
1
  6
Continuous
100
AcDbCircle
 10
262.6764631221448
 20
226.7236664469214
 30
0.0
 40
18.5
100
AcDbArc
 50
301.1269000000011
 51
328.8730699999977
  0
ARC
  5
CAA
330
18
100
AcDbEntity
  8
1
  6
Continuous
100
AcDbCircle
 10
283.4936021221447
 20
221.3480785069215
 30
0.0
 40
1.5
100
AcDbArc
 50
247.4999599999989
 51
345.5209599999982
  0
ARC
  5
CAB
330
18
100
AcDbEntity
  8
1
  6
Continuous
100
AcDbCircle
 10
281.1974971221447
 20
215.8048060469214
 30
0.0
 40
1.5
100
AcDbArc
 50
329.4790099999981
 51
67.49988399999871
  0
LINE
  5
CAC
330
18
100
AcDbEntity
  8
1
  6
Continuous
100
AcDbLine
 10
282.9195971221447
 20
219.9623116469213
 30
0.0
 11
281.5190461221448
 21
220.5424403469214
 31
0.0
  0
LINE
  5
CAD
330
18
100
AcDbEntity
  8
1
  6
Continuous
100
AcDbLine
 10
281.7715481221447
 20
217.1906550469214
 30
0.0
 11
280.3709821221448
 21
217.7707889469214
 31
0.0
  0
ARC
  5
CAE
330
18
100
AcDbEntity
  8
1
  6
Continuous
100
AcDbCircle
 10
282.0930581221448
 20
231.5190928469214
 30
0.0
 40
1.5
100
AcDbArc
 50
112.4999499999972
 51
193.8730300000004
  0
ARC
  5
CAF
330
18
100
AcDbEntity
  8
1
  6
Continuous
100
AcDbCircle
 10
283.4936171221447
 20
232.0992134469214
 30
0.0
 40
1.5
100
AcDbArc
 50
14.47901099999828
 51
112.4998800000024
  0
LINE
  5
CB0
330
18
100
AcDbEntity
  8
1
  6
Continuous
100
AcDbLine
 10
282.9195891221447
 20
233.4850574469214
 30
0.0
 11
281.5190381221448
 21
232.9049304469215
 31
0.0
  0
ARC
  5
CB1
330
18
100
AcDbEntity
  8
1
  6
Continuous
100
AcDbCircle
 10
262.6764631221448
 20
226.7236664469214
 30
0.0
 40
18.5
100
AcDbArc
 50
346.1268999999994
 51
13.87306399999958
  0
ARC
  5
CB2
330
18
100
AcDbEntity
  8
1
  6
Continuous
100
AcDbCircle
 10
281.1975201221447
 20
237.6424914469214
 30
0.0
 40
1.5
100
AcDbArc
 50
292.4999599999998
 51
30.52095999999942
  0
ARC
  5
CB3
330
18
100
AcDbEntity
  8
1
  6
Continuous
100
AcDbCircle
 10
262.6764631221448
 20
226.7236664469214
 30
0.0
 40
23.0
100
AcDbArc
 50
30.52089199999993
 51
34.40037982304227
  0
LINE
  5
CB4
330
18
100
AcDbEntity
  8
1
  6
Continuous
100
AcDbLine
 10
281.7715331221447
 20
236.2566964469214
 30
0.0
 11
280.4895523498057
 21
235.7256840272544
 31
0.0
  0
ARC
  5
CB5
330
18
100
AcDbEntity
  8
1
  6
Continuous
100
AcDbCircle
 10
301.3846691221447
 20
280.2236664469214
 30
0.0
 40
4.0
100
AcDbArc
 50
89.99998200000083
 51
196.6015899999996
  0
ARC
  5
CB6
330
18
100
AcDbEntity
  8
1
  6
Continuous
100
AcDbCircle
 10
294.6764631221444
 20
278.2236664469214
 30
0.0
 40
3.0
100
AcDbArc
 50
291.7354800000022
 51
16.60147100000032
  0
LINE
  5
CB7
330
18
100
AcDbEntity
  8
4
  6
CENTER
100
AcDbLine
 10
294.1764631221444
 20
290.1551048469213
 30
0.0
 11
294.1764631221444
 21
275.5700049923039
 31
0.0
  0
ARC
  5
CB8
330
18
100
AcDbEntity
  8
1
  6
Continuous
100
AcDbCircle
 10
297.6764631221444
 20
268.2236664469214
 30
0.0
 40
7.400000099999997
100
AcDbArc
 50
111.7355400000012
 51
163.7398099999985
  0
LINE
  5
CB9
330
18
100
AcDbEntity
  8
1
  6
Continuous
100
AcDbLine
 10
294.9360761221448
 20
275.0975484469214
 30
0.0
 11
295.7874361221446
 21
275.4369594469214
 31
0.0
  0
ARC
  5
CBA
330
18
100
AcDbEntity
  8
1
  6
Continuous
100
AcDbCircle
 10
300.6731291221448
 20
278.0236694469213
 30
0.0
 40
3.0
100
AcDbArc
 50
89.99998200000083
 51
178.0898099999999
  0
LINE
  5
CBB
330
18
100
AcDbEntity
  8
1
  6
Continuous
100
AcDbLine
 10
300.6731291221448
 20
281.0236694469212
 30
0.0
 11
303.6764631221444
 21
281.0236694469212
 31
0.0
  0
LINE
  5
CBC
330
18
100
AcDbEntity
  8
1
  6
Continuous
100
AcDbLine
 10
303.6764631221444
 20
281.0236694469212
 30
0.0
 11
303.6764631221444
 21
284.2236664469215
 31
0.0
  0
ARC
  5
CC0
330
18
100
AcDbEntity
  8
1
  6
Continuous
100
AcDbCircle
 10
253.6764631221449
 20
364.9643239203341
 30
0.0
 40
6.5
100
AcDbArc
 50
89.99998200000083
 51
149.2786499999996
  0
ARC
  5
CC1
330
18
100
AcDbEntity
  8
1
  6
Continuous
100
AcDbCircle
 10
271.6764631221448
 20
364.9643239203341
 30
0.0
 40
6.5
100
AcDbArc
 50
30.72132300000252
 51
89.99998200000083
  0
LINE
  5
CC2
330
18
100
AcDbEntity
  8
1
  6
Continuous
100
AcDbLine
 10
253.6764631221449
 20
371.4643239203343
 30
0.0
 11
253.6764641221449
 21
367.4643239203343
 31
0.0
  0
LINE
  5
CC3
330
18
100
AcDbEntity
  8
1
  6
Continuous
100
AcDbLine
 10
271.6764631221448
 20
371.4643239203341
 30
0.0
 11
271.6764631221448
 21
367.4643239203341
 31
0.0
  0
LINE
  5
CC4
330
18
100
AcDbEntity
  8
4
  6
CENTER
100
AcDbLine
 10
262.6764631221448
 20
361.7376529203343
 30
0.0
 11
262.6764631221448
 21
434.4276609203343
 31
0.0
  0
LINE
  5
CC5
330
18
100
AcDbEntity
  8
4
  6
CENTER
100
AcDbLine
 10
294.1764631221444
 20
371.6643209203341
 30
0.0
 11
294.1764631221444
 21
359.6643209203341
 31
0.0
  0
LINE
  5
CC6
330
18
100
AcDbEntity
  8
4
  6
CENTER
100
AcDbLine
 10
231.1764631221449
 20
371.6643209203341
 30
0.0
 11
231.1764631221449
 21
359.6643209203341
 31
0.0
  0
LINE
  5
CC7
330
18
100
AcDbEntity
  8
1
  6
Continuous
100
AcDbLine
 10
221.6764631221448
 20
362.6643209203341
 30
0.0
 11
221.6764631221448
 21
431.6643209203343
 31
0.0
  0
LINE
  5
CC8
330
18
100
AcDbEntity
  8
1
  6
Continuous
100
AcDbLine
 10
303.6764631221444
 20
362.6643209203341
 30
0.0
 11
303.6764631221444
 21
431.6643209203343
 31
0.0
  0
LINE
  5
CCB
330
18
100
AcDbEntity
  8
1
  6
Continuous
100
AcDbLine
 10
271.6764631221448
 20
367.4643239203341
 30
0.0
 11
253.6764641221448
 21
367.4643239203341
 31
0.0
  0
LINE
  5
CCC
330
18
100
AcDbEntity
  8
1
  6
Continuous
100
AcDbLine
 10
269.6764651221446
 20
366.4643239203341
 30
0.0
 11
255.6764661221448
 21
366.4643239203341
 31
0.0
  0
CIRCLE
  5
CCD
330
18
100
AcDbEntity
  8
1
  6
Continuous
100
AcDbCircle
 10
231.1764631221449
 20
365.6643209203341
 30
0.0
 40
4.400000099999997
  0
LINE
  5
CCE
330
18
100
AcDbEntity
  8
1
  6
Continuous
100
AcDbLine
 10
227.6764631221448
 20
352.4143209203341
 30
0.0
 11
231.1467551221447
 21
352.4143209203341
 31
0.0
  0
LINE
  5
CCF
330
18
100
AcDbEntity
  8
4
  6
CENTER
100
AcDbLine
 10
225.1764631221448
 20
365.6643209203341
 30
0.0
 11
237.1764631221449
 21
365.6643209203341
 31
0.0
  0
ARC
  5
CD0
330
18
100
AcDbEntity
  8
1
  6
Continuous
100
AcDbCircle
 10
228.6764631221449
 20
362.6643209203341
 30
0.0
 40
7.0
100
AcDbArc
 50
179.9999599999992
 51
250.5287699999982
  0
ARC
  5
CD1
330
18
100
AcDbEntity
  8
1
  6
Continuous
100
AcDbCircle
 10
225.6764631221448
 20
354.1790379203341
 30
0.0
 40
2.0
100
AcDbArc
 50
0.0
 51
70.52874499999941
  0
LINE
  5
CD2
330
18
100
AcDbEntity
  8
1
  6
Continuous
100
AcDbLine
 10
227.6764631221448
 20
352.4143209203341
 30
0.0
 11
227.6764631221448
 21
354.1790379203341
 31
0.0
  0
LINE
  5
CD3
330
18
100
AcDbEntity
  8
1
  6
Continuous
100
AcDbLine
 10
242.4942943721446
 20
358.8709269203343
 30
0.0
 11
248.0886631221447
 21
368.2849299203341
 31
0.0
  0
ARC
  5
CD4
330
18
100
AcDbEntity
  8
1
  6
Continuous
100
AcDbCircle
 10
231.1467551221447
 20
365.6143219203343
 30
0.0
 40
13.2
100
AcDbArc
 50
270.0
 51
329.2786599999997
  0
LINE
  5
CD5
330
18
100
AcDbEntity
  8
1
  6
Continuous
100
AcDbLine
 10
253.6764611221447
 20
367.4643239203341
 30
0.0
 11
255.6764621221446
 21
366.4643239203341
 31
0.0
  0
CIRCLE
  5
CD6
330
18
100
AcDbEntity
  8
1
  6
Continuous
100
AcDbCircle
 10
294.1764631221444
 20
365.6643209203341
 30
0.0
 40
4.400000099999997
  0
LINE
  5
CD7
330
18
100
AcDbEntity
  8
1
  6
Continuous
100
AcDbLine
 10
294.2061761221448
 20
352.4143209203341
 30
0.0
 11
297.6764631221444
 21
352.4143209203341
 31
0.0
  0
LINE
  5
CD8
330
18
100
AcDbEntity
  8
4
  6
CENTER
100
AcDbLine
 10
288.1764631221448
 20
365.6643209203341
 30
0.0
 11
300.1764631221444
 21
365.6643209203341
 31
0.0
  0
LINE
  5
CD9
330
18
100
AcDbEntity
  8
1
  6
Continuous
100
AcDbLine
 10
277.2642661221448
 20
368.2849339203341
 30
0.0
 11
282.8586381221448
 21
358.8709269203343
 31
0.0
  0
LINE
  5
CDA
330
18
100
AcDbEntity
  8
1
  6
Continuous
100
AcDbLine
 10
269.6764731221449
 20
366.4643129203343
 30
0.0
 11
271.6764731221445
 21
367.4643129203342
 31
0.0
  0
ARC
  5
CDB
330
18
100
AcDbEntity
  8
1
  6
Continuous
100
AcDbCircle
 10
294.2061761221448
 20
365.6143219203343
 30
0.0
 40
13.2
100
AcDbArc
 50
210.72134
 51
270.0
  0
ARC
  5
CDC
330
18
100
AcDbEntity
  8
1
  6
Continuous
100
AcDbCircle
 10
296.6764631221444
 20
362.6643209203341
 30
0.0
 40
7.0
100
AcDbArc
 50
289.4711800000005
 51
0.0
  0
ARC
  5
CDD
330
18
100
AcDbEntity
  8
1
  6
Continuous
100
AcDbCircle
 10
299.6764631221444
 20
354.1790379203341
 30
0.0
 40
2.0
100
AcDbArc
 50
109.4712199999995
 51
179.9999599999992
  0
LINE
  5
CDE
330
18
100
AcDbEntity
  8
1
  6
Continuous
100
AcDbLine
 10
297.6764631221444
 20
352.4143209203341
 30
0.0
 11
297.6764631221444
 21
354.1790379203341
 31
0.0
  0
ARC
  5
CDF
330
18
100
AcDbEntity
  8
1
  6
Continuous
100
AcDbCircle
 10
266.9264631221448
 20
436.614320920334
 30
0.0
 40
13.75000299999999
100
AcDbArc
 50
254.5012699999976
 51
285.4987300000022
  0
CIRCLE
  5
CE0
330
18
100
AcDbEntity
  8
1
  6
Continuous
100
AcDbCircle
 10
262.6764631221448
 20
397.1643209203341
 30
0.0
 40
7.0
  0
LINE
  5
CE1
330
18
100
AcDbEntity
  8
1
  6
Continuous
100
AcDbLine
 10
271.1764631221448
 20
427.8643179203343
 30
0.0
 11
262.6764631221448
 21
427.8643179203343
 31
0.0
  0
LINE
  5
CE2
330
18
100
AcDbEntity
  8
1
  6
Continuous
100
AcDbLine
 10
263.6584351221449
 20
427.3643179203343
 30
0.0
 11
262.6764631221448
 21
427.3643179203343
 31
0.0
  0
LINE
  5
CE3
330
18
100
AcDbEntity
  8
1
  6
Continuous
100
AcDbLine
 10
263.6584351221445
 20
427.364317920334
 30
0.0
 11
263.2522291221445
 21
423.3643179203339
 31
0.0
  0
LINE
  5
CE4
330
18
100
AcDbEntity
  8
1
  6
Continuous
100
AcDbLine
 10
269.9764621221447
 20
429.464308920334
 30
0.0
 11
262.6764631221448
 21
429.464308920334
 31
0.0
  0
LINE
  5
CE5
330
18
100
AcDbEntity
  8
1
  6
Continuous
100
AcDbLine
 10
267.6764631221448
 20
431.2143239203341
 30
0.0
 11
257.6764641221448
 21
431.2143239203341
 31
0.0
  0
LINE
  5
CE6
330
18
100
AcDbEntity
  8
1
  6
Continuous
100
AcDbLine
 10
266.9264631221448
 20
431.964323920334
 30
0.0
 11
258.4264641221448
 21
431.964323920334
 31
0.0
  0
LINE
  5
CE7
330
18
100
AcDbEntity
  8
1
  6
Continuous
100
AcDbLine
 10
253.6764631221449
 20
422.8643179203343
 30
0.0
 11
271.6764631221448
 21
422.8643179203343
 31
0.0
  0
LINE
  5
CE8
330
18
100
AcDbEntity
  8
4
  6
CENTER
100
AcDbLine
 10
217.6764631221448
 20
397.1643209203341
 30
0.0
 11
307.6764631221444
 21
397.1643209203341
 31
0.0
  0
LINE
  5
CE9
330
18
100
AcDbEntity
  8
1
  6
Continuous
100
AcDbLine
 10
253.6764631221449
 20
371.4643239203341
 30
0.0
 11
271.6764631221448
 21
371.4643239203341
 31
0.0
  0
LINE
  5
CEA
330
18
100
AcDbEntity
  8
1
  6
Continuous
100
AcDbLine
 10
241.1764631221449
 20
380.1643209203341
 30
0.0
 11
241.1764631221449
 21
414.1643209203341
 31
0.0
  0
LINE
  5
CEB
330
18
100
AcDbEntity
  8
1
  6
Continuous
100
AcDbLine
 10
236.1764631221448
 20
380.1643209203341
 30
0.0
 11
236.1764631221448
 21
414.1643209203341
 31
0.0
  0
ARC
  5
CEC
330
18
100
AcDbEntity
  8
1
  6
Continuous
100
AcDbCircle
 10
238.6764631221449
 20
380.1643209203341
 30
0.0
 40
2.5
100
AcDbArc
 50
179.9999599999992
 51
0.0000100179138904
  0
ARC
  5
CED
330
18
100
AcDbEntity
  8
1
  6
Continuous
100
AcDbCircle
 10
238.6764631221449
 20
414.1643209203341
 30
0.0
 40
2.5
100
AcDbArc
 50
0.0
 51
179.9999599999992
  0
CIRCLE
  5
CEE
330
18
100
AcDbEntity
  8
1
  6
Continuous
100
AcDbCircle
 10
231.1764631221449
 20
428.6643209203344
 30
0.0
 40
4.400000099999997
  0
LINE
  5
CEF
330
18
100
AcDbEntity
  8
1
  6
Continuous
100
AcDbLine
 10
227.6764631221448
 20
441.9143209203343
 30
0.0
 11
231.1467601221447
 21
441.9143209203343
 31
0.0
  0
LINE
  5
CF0
330
18
100
AcDbEntity
  8
4
  6
CENTER
100
AcDbLine
 10
225.1764631221448
 20
428.6643209203344
 30
0.0
 11
237.1764631221449
 21
428.6643209203344
 31
0.0
  0
LINE
  5
CF1
330
18
100
AcDbEntity
  8
1
  6
Continuous
100
AcDbLine
 10
227.6764631221448
 20
440.1496009203341
 30
0.0
 11
227.6764631221448
 21
441.9143209203343
 31
0.0
  0
ARC
  5
CF2
330
18
100
AcDbEntity
  8
1
  6
Continuous
100
AcDbCircle
 10
228.6764631221449
 20
431.6643209203343
 30
0.0
 40
7.0
100
AcDbArc
 50
109.4711999999995
 51
179.9999599999992
  0
ARC
  5
CF3
330
18
100
AcDbEntity
  8
1
  6
Continuous
100
AcDbCircle
 10
225.6764631221448
 20
440.1496009203341
 30
0.0
 40
2.0
100
AcDbArc
 50
289.4711899999995
 51
0.0
  0
ARC
  5
CF4
330
18
100
AcDbEntity
  8
1
  6
Continuous
100
AcDbCircle
 10
231.1467601221447
 20
428.7143239203341
 30
0.0
 40
13.2
100
AcDbArc
 50
30.72134099999991
 51
90.00000299999769
  0
LINE
  5
CF5
330
18
100
AcDbEntity
  8
1
  6
Continuous
100
AcDbLine
 10
248.0886616221445
 20
426.0437229203343
 30
0.0
 11
242.4942989321445
 21
435.4577209203344
 31
0.0
  0
LINE
  5
CF6
330
18
100
AcDbEntity
  8
4
  6
CENTER
100
AcDbLine
 10
231.1764631221449
 20
434.6643209203342
 30
0.0
 11
231.1764631221449
 21
422.6643209203341
 31
0.0
  0
ARC
  5
CF7
330
18
100
AcDbEntity
  8
1
  6
Continuous
100
AcDbCircle
 10
255.3764631221447
 20
428.264311920334
 30
0.0
 40
1.199999999999999
100
AcDbArc
 50
90.00000899999959
 51
180.0000100000009
  0
ARC
  5
CF8
330
18
100
AcDbEntity
  8
1
  6
Continuous
100
AcDbCircle
 10
258.4264631221448
 20
416.9343179203342
 30
0.0
 40
10.93000299999999
100
AcDbArc
 50
72.602691000002
 51
107.3973099999985
  0
ARC
  5
CF9
330
18
100
AcDbEntity
  8
1
  6
Continuous
100
AcDbCircle
 10
258.4264631221448
 20
436.614320920334
 30
0.0
 40
13.75000299999999
100
AcDbArc
 50
254.5012699999976
 51
285.4987300000022
  0
LINE
  5
CFA
330
18
100
AcDbEntity
  8
1
  6
Continuous
100
AcDbLine
 10
254.1764631221449
 20
427.8643179203343
 30
0.0
 11
262.6764631221448
 21
427.8643179203343
 31
0.0
  0
ARC
  5
CFB
330
18
100
AcDbEntity
  8
1
  6
Continuous
100
AcDbCircle
 10
253.6764631221449
 20
429.3643179203343
 30
0.0
 40
6.5
100
AcDbArc
 50
210.7213500000002
 51
269.9999600000024
  0
LINE
  5
CFC
330
18
100
AcDbEntity
  8
1
  6
Continuous
100
AcDbLine
 10
254.1764631221449
 20
428.264311920334
 30
0.0
 11
254.1764631221449
 21
422.8643179203343
 31
0.0
  0
LINE
  5
CFD
330
18
100
AcDbEntity
  8
1
  6
Continuous
100
AcDbLine
 10
254.1764631221449
 20
427.3643179203343
 30
0.0
 11
255.1584361221448
 21
427.3643179203343
 31
0.0
  0
LINE
  5
CFE
330
18
100
AcDbEntity
  8
1
  6
Continuous
100
AcDbLine
 10
254.1764631221449
 20
423.3643179203343
 30
0.0
 11
254.7522291221448
 21
423.3643179203343
 31
0.0
  0
LINE
  5
CFF
330
18
100
AcDbEntity
  8
1
  6
Continuous
100
AcDbLine
 10
254.7522281221449
 20
423.3643179203343
 30
0.0
 11
255.1584361221448
 21
427.3643179203343
 31
0.0
  0
LINE
  5
D00
330
18
100
AcDbEntity
  8
1
  6
Continuous
100
AcDbLine
 10
261.6944911221443
 20
427.364317920334
 30
0.0
 11
262.1006971221444
 21
423.3643179203339
 31
0.0
  0
LINE
  5
D01
330
18
100
AcDbEntity
  8
1
  6
Continuous
100
AcDbLine
 10
262.1006991221447
 20
423.3643179203343
 30
0.0
 11
262.6764631221448
 21
423.3643179203343
 31
0.0
  0
LINE
  5
D02
330
18
100
AcDbEntity
  8
1
  6
Continuous
100
AcDbLine
 10
261.6944911221448
 20
427.3643179203343
 30
0.0
 11
262.6764631221448
 21
427.3643179203343
 31
0.0
  0
LINE
  5
D03
330
18
100
AcDbEntity
  8
1
  6
Continuous
100
AcDbLine
 10
263.2522271221448
 20
423.3643179203343
 30
0.0
 11
262.6764631221448
 21
423.3643179203343
 31
0.0
  0
LINE
  5
D05
330
18
100
AcDbEntity
  8
1
  6
Continuous
100
AcDbLine
 10
255.3764631221447
 20
429.464308920334
 30
0.0
 11
262.6764631221448
 21
429.464308920334
 31
0.0
  0
LINE
  5
D06
330
18
100
AcDbEntity
  8
1
  6
Continuous
100
AcDbLine
 10
257.6764361221445
 20
431.2143619203343
 30
0.0
 11
258.4264371221445
 21
431.9643619203339
 31
0.0
  0
LINE
  5
D07
330
18
100
AcDbEntity
  8
2
  6
Continuous
100
AcDbLine
 10
258.4264631221448
 20
431.964323920334
 30
0.0
 11
258.4264631221448
 21
429.464308920334
 31
0.0
  0
LINE
  5
D08
330
18
100
AcDbEntity
  8
1
  6
Continuous
100
AcDbLine
 10
257.6764631221448
 20
431.2143239203341
 30
0.0
 11
257.6764631221448
 21
429.464308920334
 31
0.0
  0
LINE
  5
D09
330
18
100
AcDbEntity
  8
1
  6
Continuous
100
AcDbLine
 10
284.1764631221448
 20
380.1643209203341
 30
0.0
 11
284.1764631221448
 21
414.1643209203341
 31
0.0
  0
LINE
  5
D0A
330
18
100
AcDbEntity
  8
1
  6
Continuous
100
AcDbLine
 10
289.1764631221448
 20
380.1643209203341
 30
0.0
 11
289.1764631221448
 21
414.1643209203341
 31
0.0
  0
ARC
  5
D0B
330
18
100
AcDbEntity
  8
1
  6
Continuous
100
AcDbCircle
 10
286.6764631221448
 20
380.1643209203341
 30
0.0
 40
2.5
100
AcDbArc
 50
179.9999599999992
 51
0.0000100179138904
  0
ARC
  5
D0C
330
18
100
AcDbEntity
  8
1
  6
Continuous
100
AcDbCircle
 10
286.6764631221448
 20
414.1643209203341
 30
0.0
 40
2.5
100
AcDbArc
 50
0.0
 51
179.9999599999992
  0
CIRCLE
  5
D0D
330
18
100
AcDbEntity
  8
1
  6
Continuous
100
AcDbCircle
 10
294.1764631221444
 20
428.6643209203344
 30
0.0
 40
4.400000099999997
  0
LINE
  5
D0E
330
18
100
AcDbEntity
  8
1
  6
Continuous
100
AcDbLine
 10
294.2061761221448
 20
441.9143209203343
 30
0.0
 11
297.6764631221444
 21
441.9143209203343
 31
0.0
  0
LINE
  5
D0F
330
18
100
AcDbEntity
  8
4
  6
CENTER
100
AcDbLine
 10
288.1764631221448
 20
428.6643209203344
 30
0.0
 11
300.1764631221444
 21
428.6643209203344
 31
0.0
  0
ARC
  5
D10
330
18
100
AcDbEntity
  8
1
  6
Continuous
100
AcDbCircle
 10
294.2061761221448
 20
428.7143239203341
 30
0.0
 40
13.2
100
AcDbArc
 50
90.00000299999769
 51
149.2786599999996
  0
LINE
  5
D11
330
18
100
AcDbEntity
  8
1
  6
Continuous
100
AcDbLine
 10
282.8586381221448
 20
435.4577209203339
 30
0.0
 11
277.2642701221448
 21
426.0437079203343
 31
0.0
  0
ARC
  5
D12
330
18
100
AcDbEntity
  8
1
  6
Continuous
100
AcDbCircle
 10
269.9764621221447
 20
428.264311920334
 30
0.0
 40
1.199999999999999
100
AcDbArc
 50
0.0000025044784726
 51
90.00000299999769
  0
ARC
  5
D13
330
18
100
AcDbEntity
  8
1
  6
Continuous
100
AcDbCircle
 10
266.9264631221448
 20
416.9343179203342
 30
0.0
 40
10.93000299999999
100
AcDbArc
 50
72.602691000002
 51
107.3973099999985
  0
LINE
  5
D14
330
18
100
AcDbEntity
  8
1
  6
Continuous
100
AcDbLine
 10
271.1764631221448
 20
428.264311920334
 30
0.0
 11
271.1764631221448
 21
422.8643179203343
 31
0.0
  0
LINE
  5
D15
330
18
100
AcDbEntity
  8
1
  6
Continuous
100
AcDbLine
 10
271.1764631221448
 20
427.3643179203343
 30
0.0
 11
270.1944891221448
 21
427.3643179203343
 31
0.0
  0
LINE
  5
D16
330
18
100
AcDbEntity
  8
1
  6
Continuous
100
AcDbLine
 10
270.6006971221444
 20
423.3643179203343
 30
0.0
 11
270.1944911221445
 21
427.3643179203343
 31
0.0
  0
LINE
  5
D17
330
18
100
AcDbEntity
  8
1
  6
Continuous
100
AcDbLine
 10
271.1764631221448
 20
423.3643179203343
 30
0.0
 11
270.6006991221447
 21
423.3643179203343
 31
0.0
  0
ARC
  5
D18
330
18
100
AcDbEntity
  8
1
  6
Continuous
100
AcDbCircle
 10
271.6764631221448
 20
429.3643179203343
 30
0.0
 40
6.5
100
AcDbArc
 50
269.9999600000024
 51
329.2786299999986
  0
LINE
  5
D19
330
18
100
AcDbEntity
  8
1
  6
Continuous
100
AcDbLine
 10
266.9264671221449
 20
431.9643389203341
 30
0.0
 11
267.6764741221447
 21
431.214331920334
 31
0.0
  0
LINE
  5
D1A
330
18
100
AcDbEntity
  8
2
  6
Continuous
100
AcDbLine
 10
266.9264631221448
 20
431.964323920334
 30
0.0
 11
266.9264631221448
 21
429.464308920334
 31
0.0
  0
LINE
  5
D1B
330
18
100
AcDbEntity
  8
1
  6
Continuous
100
AcDbLine
 10
267.6764631221448
 20
431.2143239203341
 30
0.0
 11
267.6764631221448
 21
429.464308920334
 31
0.0
  0
LINE
  5
D1C
330
18
100
AcDbEntity
  8
4
  6
CENTER
100
AcDbLine
 10
294.1764631221444
 20
434.6643209203342
 30
0.0
 11
294.1764631221444
 21
422.6643209203341
 31
0.0
  0
LINE
  5
D1D
330
18
100
AcDbEntity
  8
1
  6
Continuous
100
AcDbLine
 10
297.6764631221444
 20
440.1496009203341
 30
0.0
 11
297.6764631221444
 21
441.9143209203343
 31
0.0
  0
ARC
  5
D1E
330
18
100
AcDbEntity
  8
1
  6
Continuous
100
AcDbCircle
 10
296.6764631221444
 20
431.6643209203343
 30
0.0
 40
7.0
100
AcDbArc
 50
0.0
 51
70.5287659999988
  0
ARC
  5
D1F
330
18
100
AcDbEntity
  8
1
  6
Continuous
100
AcDbCircle
 10
299.6764631221444
 20
440.1496009203341
 30
0.0
 40
2.0
100
AcDbArc
 50
179.9999599999992
 51
250.5287699999982
  0
LINE
  5
115B
330
18
100
AcDbEntity
  8
1
  6
Continuous
100
AcDbLine
 10
449.6041827869483
 20
253.4457124469212
 30
0.0
 11
449.6041827869483
 21
200.0016204469212
 31
0.0
  0
LINE
  5
115C
330
18
100
AcDbEntity
  8
1
  6
Continuous
100
AcDbLine
 10
409.6041827869481
 20
253.4457124469212
 30
0.0
 11
409.6041827869481
 21
200.0016204469212
 31
0.0
  0
LINE
  5
115D
330
18
100
AcDbEntity
  8
4
  6
CENTER
100
AcDbLine
 10
429.6041827869482
 20
189.8111564469212
 30
0.0
 11
429.6041827869482
 21
292.1551048469213
 31
0.0
  0
ARC
  5
1160
330
18
100
AcDbEntity
  8
1
  6
Continuous
100
AcDbCircle
 10
429.6041827869482
 20
344.2236664469214
 30
0.0
 40
150.0
100
AcDbArc
 50
264.0622299999979
 51
275.9377899999995
  0
ARC
  5
1162
330
18
100
AcDbEntity
  8
1
  6
Continuous
100
AcDbCircle
 10
444.6041827869483
 20
200.0016204469212
 30
0.0
 40
5.0
100
AcDbArc
 50
275.9378099999979
 51
0.0000200000020199
  0
ARC
  5
1163
330
18
100
AcDbEntity
  8
1
  6
Continuous
100
AcDbCircle
 10
414.604182786948
 20
200.0016204469212
 30
0.0
 40
5.0
100
AcDbArc
 50
180.0
 51
264.0622000000012
  0
LINE
  5
1164
330
18
100
AcDbEntity
  8
4
  6
CENTER
100
AcDbLine
 10
398.1041827869481
 20
275.5700049923039
 30
0.0
 11
398.1041827869481
 21
290.1551048469213
 31
0.0
  0
LINE
  5
1165
330
18
100
AcDbEntity
  8
4
  6
CENTER
100
AcDbLine
 10
461.1041827869483
 20
275.5700049923039
 30
0.0
 11
461.1041827869483
 21
290.1551048469213
 31
0.0
  0
LINE
  5
1168
330
18
100
AcDbEntity
  8
1
  6
Continuous
100
AcDbLine
 10
452.104182786948
 20
213.2236664469214
 30
0.0
 11
452.104182786948
 21
281.0236664469213
 31
0.0
  0
LINE
  5
1169
330
18
100
AcDbEntity
  8
1
  6
Continuous
100
AcDbLine
 10
451.3041827869483
 20
244.7236664469214
 30
0.0
 11
451.3041827869483
 21
208.7236664469214
 31
0.0
  0
LINE
  5
116A
330
18
100
AcDbEntity
  8
1
  6
Continuous
100
AcDbLine
 10
407.1041827869483
 20
213.2236664469214
 30
0.0
 11
407.1041827869483
 21
281.0236664469213
 31
0.0
  0
LINE
  5
116B
330
18
100
AcDbEntity
  8
1
  6
Continuous
100
AcDbLine
 10
407.9041857869483
 20
244.7236664469214
 30
0.0
 11
407.9041857869483
 21
208.7236664469214
 31
0.0
  0
ARC
  5
116C
330
18
100
AcDbEntity
  8
1
  6
Continuous
100
AcDbCircle
 10
401.9730188486412
 20
276.9734385758999
 30
0.0
 40
72.55961252117265
100
AcDbArc
 50
321.2875086843633
 51
355.9808084744334
  0
ARC
  5
116D
330
18
100
AcDbEntity
  8
1
  6
Continuous
100
AcDbCircle
 10
401.9728975893221
 20
276.973726961187
 30
0.0
 40
69.35989670011455
100
AcDbArc
 50
321.2809943180613
 51
355.887268265204
  0
ARC
  5
116E
330
18
100
AcDbEntity
  8
1
  6
Continuous
100
AcDbCircle
 10
457.2354639819583
 20
276.9737269383806
 30
0.0
 40
69.35989669586909
100
AcDbArc
 50
184.1127317161598
 51
218.719015659952
  0
ARC
  5
116F
330
18
100
AcDbEntity
  8
1
  6
Continuous
100
AcDbCircle
 10
457.2353427093664
 20
276.9734385206195
 30
0.0
 40
72.55961248623774
100
AcDbArc
 50
184.0191814911239
 51
218.7125012812042
  0
LINE
  5
1170
330
18
100
AcDbEntity
  8
4
  6
CENTER
100
AcDbLine
 10
470.3476027869482
 20
226.7236664469214
 30
0.0
 11
392.4212637869481
 21
226.7236664469214
 31
0.0
  0
LINE
  5
1171
330
18
100
AcDbEntity
  8
1
  6
Continuous
100
AcDbLine
 10
463.6542327869483
 20
221.7236134469215
 30
0.0
 11
464.4042327869481
 21
222.4736134469212
 31
0.0
  0
LINE
  5
1172
330
18
100
AcDbEntity
  8
1
  6
Continuous
100
AcDbLine
 10
455.8041827869483
 20
222.4810284469213
 30
0.0
 11
455.8041827869483
 21
221.4837754469213
 31
0.0
  0
LINE
  5
1173
330
18
100
AcDbEntity
  8
1
  6
Continuous
100
AcDbLine
 10
459.8041827869483
 20
221.2492474469212
 30
0.0
 11
459.8041827869483
 21
222.9500764469212
 31
0.0
  0
LINE
  5
1174
330
18
100
AcDbEntity
  8
1
  6
Continuous
100
AcDbLine
 10
461.9041727869483
 20
219.4236634469211
 30
0.0
 11
461.9041727869483
 21
226.7236664469214
 31
0.0
  0
LINE
  5
1175
330
18
100
AcDbEntity
  8
1
  6
Continuous
100
AcDbLine
 10
460.3041827869483
 20
218.2236664469214
 30
0.0
 11
460.3041827869483
 21
226.7236664469214
 31
0.0
  0
ARC
  5
1176
330
18
100
AcDbEntity
  8
1
  6
Continuous
100
AcDbCircle
 10
470.3041827869482
 20
222.2236664469213
 30
0.0
 40
18.200001
100
AcDbArc
 50
141.3272400000006
 51
180.0
  0
LINE
  5
1177
330
18
100
AcDbEntity
  8
1
  6
Continuous
100
AcDbLine
 10
463.654182786948
 20
231.7236664469214
 30
0.0
 11
463.654182786948
 21
221.7236664469214
 31
0.0
  0
ARC
  5
1178
330
18
100
AcDbEntity
  8
1
  6
Continuous
100
AcDbCircle
 10
470.3041827869482
 20
222.2236664469213
 30
0.0
 40
15.0
100
AcDbArc
 50
141.3420039999994
 51
180.0
  0
LINE
  5
1179
330
18
100
AcDbEntity
  8
1
  6
Continuous
100
AcDbLine
 10
451.3041827869483
 20
208.7236664469214
 30
0.0
 11
449.6041827869483
 21
208.7236664469214
 31
0.0
  0
LINE
  5
117A
330
18
100
AcDbEntity
  8
1
  6
Continuous
100
AcDbLine
 10
455.3041827869483
 20
213.2236664469214
 30
0.0
 11
452.104182786948
 21
213.2236664469214
 31
0.0
  0
LINE
  5
117B
330
18
100
AcDbEntity
  8
1
  6
Continuous
100
AcDbLine
 10
463.654182786948
 20
221.7236664469214
 30
0.0
 11
461.9041727869483
 21
221.7236664469214
 31
0.0
  0
LINE
  5
117C
330
18
100
AcDbEntity
  8
1
  6
Continuous
100
AcDbLine
 10
459.8041827869479
 20
221.2492474469212
 30
0.0
 11
455.804172786948
 21
221.4837754469213
 31
0.0
  0
ARC
  5
117D
330
18
100
AcDbEntity
  8
1
  6
Continuous
100
AcDbCircle
 10
460.704172786948
 20
219.4236634469211
 30
0.0
 40
1.199999999999999
100
AcDbArc
 50
270.0
 51
359.999989999999
  0
LINE
  5
117E
330
18
100
AcDbEntity
  8
1
  6
Continuous
100
AcDbLine
 10
455.3041827869483
 20
218.2236744469212
 30
0.0
 11
455.8041827869483
 21
217.2236744469214
 31
0.0
  0
LINE
  5
117F
330
18
100
AcDbEntity
  8
1
  6
Continuous
100
AcDbLine
 10
459.8041827869483
 20
217.4236634469213
 30
0.0
 11
459.8041827869483
 21
217.4756574469212
 31
0.0
  0
LINE
  5
1180
330
18
100
AcDbEntity
  8
1
  6
Continuous
100
AcDbLine
 10
459.8041827869479
 20
217.4236634469215
 30
0.0
 11
460.3041827869481
 21
218.2236664469214
 31
0.0
  0
LINE
  5
1181
330
18
100
AcDbEntity
  8
1
  6
Continuous
100
AcDbLine
 10
460.704172786948
 20
218.2236664469214
 30
0.0
 11
460.3041827869483
 21
218.2236664469214
 31
0.0
  0
LINE
  5
1182
330
18
100
AcDbEntity
  8
1
  6
Continuous
100
AcDbLine
 10
459.8041827869483
 20
217.4236714469211
 30
0.0
 11
455.8041827869483
 21
217.2236664469211
 31
0.0
  0
LINE
  5
1183
330
18
100
AcDbEntity
  8
1
  6
Continuous
100
AcDbLine
 10
455.8041827869483
 20
217.2236584469215
 30
0.0
 11
459.8041827869483
 21
217.4756504469212
 31
0.0
  0
ARC
  5
1184
330
18
100
AcDbEntity
  8
1
  6
Continuous
100
AcDbCircle
 10
456.4941727869483
 20
219.3624524469211
 30
0.0
 40
3.8100059
100
AcDbArc
 50
330.3156199999996
 51
29.68438000000021
  0
LINE
  5
1185
330
18
100
AcDbEntity
  8
1
  6
Continuous
100
AcDbLine
 10
455.3041827869483
 20
213.2236664469214
 30
0.0
 11
455.3041827869483
 21
222.2236664469213
 31
0.0
  0
ARC
  5
1186
330
18
100
AcDbEntity
  8
1
  6
Continuous
100
AcDbCircle
 10
460.0913027869482
 20
219.3537174469212
 30
0.0
 40
4.787128
100
AcDbArc
 50
153.5795799999981
 51
206.4204200000016
  0
LINE
  5
1187
330
18
100
AcDbEntity
  8
1
  6
Continuous
100
AcDbLine
 10
452.104182786948
 20
221.7236664469214
 30
0.0
 11
451.3041827869483
 21
221.7236664469214
 31
0.0
  0
ARC
  5
1188
330
18
100
AcDbEntity
  8
1
  6
Continuous
100
AcDbCircle
 10
456.4941727869483
 20
234.0848804469211
 30
0.0
 40
3.8100059
100
AcDbArc
 50
330.3156199999996
 51
355.8516800000006
  0
LINE
  5
1189
330
18
100
AcDbEntity
  8
1
  6
Continuous
100
AcDbLine
 10
460.3041827869483
 20
233.822787446921
 30
0.0
 11
460.3041827869483
 21
226.7236664469214
 31
0.0
  0
LINE
  5
118A
330
18
100
AcDbEntity
  8
1
  6
Continuous
100
AcDbLine
 10
461.9041727869483
 20
234.0236654469213
 30
0.0
 11
461.9041727869483
 21
226.7236664469214
 31
0.0
  0
LINE
  5
118B
330
18
100
AcDbEntity
  8
1
  6
Continuous
100
AcDbLine
 10
463.654182786948
 20
231.7236664469214
 30
0.0
 11
461.9041727869483
 21
231.7236664469214
 31
0.0
  0
LINE
  5
118C
330
18
100
AcDbEntity
  8
2
  6
Continuous
100
AcDbLine
 10
464.4041827869481
 20
230.9736664469214
 30
0.0
 11
461.9041727869483
 21
230.9736664469214
 31
0.0
  0
LINE
  5
118D
330
18
100
AcDbEntity
  8
1
  6
Continuous
100
AcDbLine
 10
464.4042027869484
 20
230.9736664469212
 30
0.0
 11
463.6542027869483
 21
231.7236704469212
 31
0.0
  0
LINE
  5
118E
330
18
100
AcDbEntity
  8
1
  6
Continuous
100
AcDbLine
 10
459.8041827869483
 20
232.1980814469212
 30
0.0
 11
459.033672786948
 21
232.1529074469212
 31
0.0
  0
LINE
  5
118F
330
18
100
AcDbEntity
  8
2
  6
Continuous
100
AcDbLine
 10
464.4041827869481
 20
222.4736664469214
 30
0.0
 11
461.9041727869483
 21
222.4736664469214
 31
0.0
  0
ARC
  5
1190
330
18
100
AcDbEntity
  8
1
  6
Continuous
100
AcDbCircle
 10
473.5541827869483
 20
226.7236664469214
 30
0.0
 40
18.25
100
AcDbArc
 50
187.4323600000007
 51
193.4427400000014
  0
ARC
  5
1191
330
18
100
AcDbEntity
  8
1
  6
Continuous
100
AcDbCircle
 10
445.8141827869483
 20
226.7236664469214
 30
0.0
 40
14.49
100
AcDbArc
 50
344.9045800000002
 51
15.09541999999981
  0
LINE
  5
1192
330
18
100
AcDbEntity
  8
1
  6
Continuous
100
AcDbLine
 10
455.8041827869483
 20
222.4810284469213
 30
0.0
 11
459.8041827869483
 21
222.9500764469212
 31
0.0
  0
LINE
  5
1193
330
18
100
AcDbEntity
  8
1
  6
Continuous
100
AcDbLine
 10
464.4041827869481
 20
230.9736664469214
 30
0.0
 11
464.4041827869481
 21
222.4736664469214
 31
0.0
  0
LINE
  5
1194
330
18
100
AcDbEntity
  8
1
  6
Continuous
100
AcDbLine
 10
459.8041827869483
 20
232.1980854469212
 30
0.0
 11
459.8041827869483
 21
230.4972604469214
 31
0.0
  0
LINE
  5
1195
330
18
100
AcDbEntity
  8
1
  6
Continuous
100
AcDbLine
 10
457.939632786948
 20
230.7158994469215
 30
0.0
 11
459.8041827869479
 21
230.4972604469214
 31
0.0
  0
LINE
  5
1196
330
18
100
AcDbEntity
  8
1
  6
Continuous
100
AcDbLine
 10
452.104182786948
 20
231.7236664469214
 30
0.0
 11
451.3041827869483
 21
231.7236664469214
 31
0.0
  0
ARC
  5
1197
330
18
100
AcDbEntity
  8
1
  6
Continuous
100
AcDbCircle
 10
460.704172786948
 20
234.0236654469213
 30
0.0
 40
1.199999999999999
100
AcDbArc
 50
359.999989999999
 51
64.11293000000178
  0
ARC
  5
1198
330
18
100
AcDbEntity
  8
1
  6
Continuous
100
AcDbCircle
 10
388.9041857869484
 20
222.2236664469213
 30
0.0
 40
15.0
100
AcDbArc
 50
0.0000400000007758
 51
38.65799000000047
  0
LINE
  5
1199
330
18
100
AcDbEntity
  8
1
  6
Continuous
100
AcDbLine
 10
398.9041857869484
 20
233.822787446921
 30
0.0
 11
398.9041857869484
 21
219.7236664469214
 31
0.0
  0
LINE
  5
119A
330
18
100
AcDbEntity
  8
1
  6
Continuous
100
AcDbLine
 10
399.9041857869483
 20
232.4217064469212
 30
0.0
 11
399.9041857869483
 21
217.7236664469214
 31
0.0
  0
ARC
  5
119B
330
18
100
AcDbEntity
  8
1
  6
Continuous
100
AcDbCircle
 10
388.9041857869484
 20
222.2236664469213
 30
0.0
 40
18.200001
100
AcDbArc
 50
0.0000400000007758
 51
38.67275999999925
  0
LINE
  5
119C
330
18
100
AcDbEntity
  8
1
  6
Continuous
100
AcDbLine
 10
409.6041827869481
 20
208.7236664469214
 30
0.0
 11
407.9041857869483
 21
208.7236664469214
 31
0.0
  0
LINE
  5
119D
330
18
100
AcDbEntity
  8
1
  6
Continuous
100
AcDbLine
 10
407.1041827869483
 20
213.2236664469214
 30
0.0
 11
403.9041857869483
 21
213.2236664469214
 31
0.0
  0
LINE
  5
119E
330
18
100
AcDbEntity
  8
1
  6
Continuous
100
AcDbLine
 10
403.9041857869483
 20
217.7236664469214
 30
0.0
 11
399.9041857869483
 21
217.7236664469214
 31
0.0
  0
LINE
  5
119F
330
18
100
AcDbEntity
  8
1
  6
Continuous
100
AcDbLine
 10
399.9041857869483
 20
217.7236584469212
 30
0.0
 11
398.9041857869484
 21
219.7236584469214
 31
0.0
  0
LINE
  5
11A0
330
18
100
AcDbEntity
  8
1
  6
Continuous
100
AcDbLine
 10
403.9041857869483
 20
213.2236664469214
 30
0.0
 11
403.9041857869483
 21
222.2236664469213
 31
0.0
  0
LINE
  5
11A1
330
18
100
AcDbEntity
  8
1
  6
Continuous
100
AcDbLine
 10
407.9041857869483
 20
221.7236664469214
 30
0.0
 11
407.1041827869483
 21
221.7236664469214
 31
0.0
  0
LINE
  5
11A2
330
18
100
AcDbEntity
  8
1
  6
Continuous
100
AcDbLine
 10
407.9041857869483
 20
231.7236664469214
 30
0.0
 11
407.1041827869483
 21
231.7236664469214
 31
0.0
  0
LINE
  5
11A3
330
18
100
AcDbEntity
  8
1
  6
Continuous
100
AcDbLine
 10
447.4394227869484
 20
277.8236664469214
 30
0.0
 11
411.7689467869483
 21
277.8236664469214
 31
0.0
  0
ARC
  5
11A4
330
18
100
AcDbEntity
  8
1
  6
Continuous
100
AcDbCircle
 10
429.6041827869482
 20
109.2236664469212
 30
0.0
 40
150.0
100
AcDbArc
 50
84.06220700000259
 51
95.937774999998
  0
LINE
  5
11A5
330
18
100
AcDbEntity
  8
1
  6
Continuous
100
AcDbLine
 10
470.354182786948
 20
284.2236664469215
 30
0.0
 11
388.8541817869484
 21
284.2236664469215
 31
0.0
  0
LINE
  5
11A6
330
18
100
AcDbEntity
  8
1
  6
Continuous
100
AcDbLine
 10
470.354182786948
 20
281.0236664469213
 30
0.0
 11
388.8541817869484
 21
281.0236664469213
 31
0.0
  0
ARC
  5
11A7
330
18
100
AcDbEntity
  8
1
  6
Continuous
100
AcDbCircle
 10
444.6041827869483
 20
253.4457124469212
 30
0.0
 40
5.0
100
AcDbArc
 50
0.0000400000007758
 51
84.0621859999983
  0
LINE
  5
11A8
330
18
100
AcDbEntity
  8
1
  6
Continuous
100
AcDbLine
 10
451.3041827869483
 20
244.7236664469214
 30
0.0
 11
449.6041827869483
 21
244.7236664469214
 31
0.0
  0
LINE
  5
11A9
330
18
100
AcDbEntity
  8
1
  6
Continuous
100
AcDbLine
 10
474.354182786948
 20
271.8876484469212
 30
0.0
 11
474.354182786948
 21
280.2236664469214
 31
0.0
  0
LINE
  5
11AA
330
18
100
AcDbEntity
  8
1
  6
Continuous
100
AcDbLine
 10
471.154182786948
 20
271.9818374469212
 30
0.0
 11
471.154182786948
 21
280.2236664469214
 31
0.0
  0
ARC
  5
11AB
330
18
100
AcDbEntity
  8
1
  6
Continuous
100
AcDbCircle
 10
470.354182786948
 20
280.2236664469214
 30
0.0
 40
4.0
100
AcDbArc
 50
0.0000400000007758
 51
90.00001799999918
  0
ARC
  5
11AC
330
18
100
AcDbEntity
  8
1
  6
Continuous
100
AcDbCircle
 10
470.354182786948
 20
280.2236664469214
 30
0.0
 40
0.8000000099999999
100
AcDbArc
 50
0.0000400000007758
 51
90.00001799999918
  0
ARC
  5
11AD
330
18
100
AcDbEntity
  8
1
  6
Continuous
100
AcDbCircle
 10
447.4394227869484
 20
282.8236664469213
 30
0.0
 40
5.0
100
AcDbArc
 50
269.999979999998
 51
338.8998299999999
  0
ARC
  5
11AE
330
18
100
AcDbEntity
  8
1
  6
Continuous
100
AcDbCircle
 10
414.604182786948
 20
253.4457124469212
 30
0.0
 40
5.0
100
AcDbArc
 50
95.93779500000241
 51
180.0
  0
LINE
  5
11AF
330
18
100
AcDbEntity
  8
1
  6
Continuous
100
AcDbLine
 10
409.6041827869481
 20
244.7236664469214
 30
0.0
 11
407.9041857869483
 21
244.7236664469214
 31
0.0
  0
ARC
  5
11B0
330
18
100
AcDbEntity
  8
1
  6
Continuous
100
AcDbCircle
 10
411.7689467869483
 20
282.8236664469213
 30
0.0
 40
5.0
100
AcDbArc
 50
201.1001000000002
 51
269.999979999998
  0
LINE
  5
11B1
330
18
100
AcDbEntity
  8
1
  6
Continuous
100
AcDbLine
 10
388.0541827869483
 20
271.9818374469212
 30
0.0
 11
388.0541827869483
 21
280.2236664469214
 31
0.0
  0
LINE
  5
11B2
330
18
100
AcDbEntity
  8
1
  6
Continuous
100
AcDbLine
 10
384.8541817869484
 20
271.8876484469212
 30
0.0
 11
384.8541817869484
 21
280.2236664469214
 31
0.0
  0
ARC
  5
11B3
330
18
100
AcDbEntity
  8
1
  6
Continuous
100
AcDbCircle
 10
388.8541817869484
 20
280.2236664469214
 30
0.0
 40
4.0
100
AcDbArc
 50
90.00001799999918
 51
180.0
  0
ARC
  5
11B4
330
18
100
AcDbEntity
  8
1
  6
Continuous
100
AcDbCircle
 10
388.8541817869484
 20
280.2236664469214
 30
0.0
 40
0.8000000099999999
100
AcDbArc
 50
90.00001799999918
 51
180.0
  0
ARC
  5
124F
330
18
100
AcDbEntity
  8
1
  6
Continuous
100
AcDbCircle
 10
596.5319024517516
 20
226.7236664469214
 30
0.0
 40
32.5
100
AcDbArc
 50
132.9150970000011
 51
47.08489999999807
  0
LINE
  5
1250
330
18
100
AcDbEntity
  8
4
  6
CENTER
100
AcDbLine
 10
596.5319024517516
 20
190.3008464469213
 30
0.0
 11
596.5319024517516
 21
293.2059662469213
 31
0.0
  0
LINE
  5
1253
330
18
100
AcDbEntity
  8
1
  6
Continuous
100
AcDbLine
 10
637.5319024517516
 20
284.2236664469215
 30
0.0
 11
555.5319024517521
 21
284.2236664469215
 31
0.0
  0
ARC
  5
1254
330
18
100
AcDbEntity
  8
1
  6
Continuous
100
AcDbCircle
 10
596.5319024517516
 20
226.7236664469214
 30
0.0
 40
23.0
100
AcDbArc
 50
255.5209600000013
 51
284.4790999999982
  0
ARC
  5
1255
330
18
100
AcDbEntity
  8
1
  6
Continuous
100
AcDbCircle
 10
591.7364774517517
 20
207.3070764469214
 30
0.0
 40
1.5
100
AcDbArc
 50
76.12695000000153
 51
157.5000450000019
  0
ARC
  5
1256
330
18
100
AcDbEntity
  8
1
  6
Continuous
100
AcDbCircle
 10
596.5319024517516
 20
228.2236664469214
 30
0.0
 40
15.0
100
AcDbArc
 50
196.2601900000015
 51
343.7398200000012
  0
ARC
  5
1259
330
18
100
AcDbEntity
  8
1
  6
Continuous
100
AcDbCircle
 10
596.5319024517516
 20
226.7236664469214
 30
0.0
 40
16.5
100
AcDbArc
 50
168.3443874681479
 51
11.65562028760448
  0
LINE
  5
125A
330
18
100
AcDbEntity
  8
4
  6
CENTER
100
AcDbLine
 10
638.6652374517516
 20
226.7236664469214
 30
0.0
 11
555.1985664517517
 21
226.7236664469214
 31
0.0
  0
ARC
  5
125B
330
18
100
AcDbEntity
  8
1
  6
Continuous
100
AcDbCircle
 10
596.5319024517516
 20
226.7236664469214
 30
0.0
 40
25.0
100
AcDbArc
 50
141.936136043574
 51
38.06386522135134
  0
LINE
  5
125D
330
18
100
AcDbEntity
  8
4
  6
CENTER
100
AcDbLine
 10
628.0319024517516
 20
290.1551048469213
 30
0.0
 11
628.0319024517516
 21
275.5700049923039
 31
0.0
  0
LINE
  5
125E
330
18
100
AcDbEntity
  8
1
  6
Continuous
100
AcDbLine
 10
607.5319024517516
 20
229.0854984469212
 30
0.0
 11
607.5319024517516
 21
281.5236694469211
 31
0.0
  0
LINE
  5
125F
330
18
100
AcDbEntity
  8
1
  6
Continuous
100
AcDbLine
 10
610.9319030517515
 20
224.0236694469214
 30
0.0
 11
624.4279028517516
 21
270.2956654469214
 31
0.0
  0
ARC
  5
1260
330
18
100
AcDbEntity
  8
1
  6
Continuous
100
AcDbCircle
 10
596.5319024517516
 20
226.7236664469214
 30
0.0
 40
18.5
100
AcDbArc
 50
346.1269400000013
 51
13.87310999999828
  0
ARC
  5
1261
330
18
100
AcDbEntity
  8
1
  6
Continuous
100
AcDbCircle
 10
596.5319024517516
 20
226.7236664469214
 30
0.0
 40
23.0
100
AcDbArc
 50
345.5209599999982
 51
14.47910999999813
  0
ARC
  5
1262
330
18
100
AcDbEntity
  8
1
  6
Continuous
100
AcDbCircle
 10
596.5319024517516
 20
226.7236664469214
 30
0.0
 40
23.0
100
AcDbArc
 50
300.5209600000009
 51
329.4791000000012
  0
ARC
  5
1263
330
18
100
AcDbEntity
  8
1
  6
Continuous
100
AcDbCircle
 10
596.5319024517516
 20
226.7236664469214
 30
0.0
 40
18.5
100
AcDbArc
 50
301.1269300000007
 51
328.8731000000004
  0
ARC
  5
1264
330
18
100
AcDbEntity
  8
1
  6
Continuous
100
AcDbCircle
 10
606.8706284517515
 20
209.6031884469214
 30
0.0
 40
1.5
100
AcDbArc
 50
121.1269449999982
 51
202.5000400000009
  0
LINE
  5
1265
330
18
100
AcDbEntity
  8
1
  6
Continuous
100
AcDbLine
 10
606.0649224517518
 20
207.6285984469214
 30
0.0
 11
605.4847904517516
 21
209.0291564469211
 31
0.0
  0
ARC
  5
1266
330
18
100
AcDbEntity
  8
1
  6
Continuous
100
AcDbCircle
 10
607.4507604517516
 20
208.2026324469214
 30
0.0
 40
1.5
100
AcDbArc
 50
202.5001099999983
 51
300.5209800000004
  0
LINE
  5
1267
330
18
100
AcDbEntity
  8
1
  6
Continuous
100
AcDbLine
 10
603.2932744517518
 20
206.4805524469214
 30
0.0
 11
602.7131464517517
 21
207.8811064469212
 31
0.0
  0
ARC
  5
1268
330
18
100
AcDbEntity
  8
1
  6
Continuous
100
AcDbCircle
 10
601.3273544517518
 20
207.3070864469213
 30
0.0
 40
1.5
100
AcDbArc
 50
22.50005000000091
 51
103.8730879999984
  0
ARC
  5
1269
330
18
100
AcDbEntity
  8
1
  6
Continuous
100
AcDbCircle
 10
601.9074864517517
 20
205.9065294469214
 30
0.0
 40
1.5
100
AcDbArc
 50
284.4790399999986
 51
22.50005000000091
  0
ARC
  5
126A
330
18
100
AcDbEntity
  8
1
  6
Continuous
100
AcDbCircle
 10
596.5319024517516
 20
226.7236664469214
 30
0.0
 40
18.5
100
AcDbArc
 50
256.1269299999988
 51
283.8731000000013
  0
LINE
  5
126B
330
18
100
AcDbEntity
  8
1
  6
Continuous
100
AcDbLine
 10
616.7750204517517
 20
219.9622849469215
 30
0.0
 11
615.3744624517518
 21
220.5424142469214
 31
0.0
  0
LINE
  5
126C
330
18
100
AcDbEntity
  8
1
  6
Continuous
100
AcDbLine
 10
615.6269644517517
 20
217.1906588469214
 30
0.0
 11
614.2264104517519
 21
217.7707860469211
 31
0.0
  0
ARC
  5
126D
330
18
100
AcDbEntity
  8
1
  6
Continuous
100
AcDbCircle
 10
613.6523934517517
 20
216.3849661469213
 30
0.0
 40
1.5
100
AcDbArc
 50
67.50005000000276
 51
148.8730859999994
  0
ARC
  5
126E
330
18
100
AcDbEntity
  8
1
  6
Continuous
100
AcDbCircle
 10
615.0529514517518
 20
215.8048403469215
 30
0.0
 40
1.5
100
AcDbArc
 50
329.4790400000006
 51
67.50005000000276
  0
ARC
  5
126F
330
18
100
AcDbEntity
  8
1
  6
Continuous
100
AcDbCircle
 10
615.9484904517515
 20
221.9282419869214
 30
0.0
 40
1.5
100
AcDbArc
 50
166.1269430000005
 51
247.50004
  0
ARC
  5
1270
330
18
100
AcDbEntity
  8
1
  6
Continuous
100
AcDbCircle
 10
617.3490484517517
 20
221.3481137969214
 30
0.0
 40
1.5
100
AcDbArc
 50
247.5001099999986
 51
345.5209699999997
  0
LINE
  5
1271
330
18
100
AcDbEntity
  8
1
  6
Continuous
100
AcDbLine
 10
616.7750094517516
 20
233.4850664469214
 30
0.0
 11
615.3744584517518
 21
232.9049374469215
 31
0.0
  0
ARC
  5
1272
330
18
100
AcDbEntity
  8
1
  6
Continuous
100
AcDbCircle
 10
615.9484824517518
 20
231.5191157469214
 30
0.0
 40
1.5
100
AcDbArc
 50
112.5000479999996
 51
193.8730799999988
  0
ARC
  5
1273
330
18
100
AcDbEntity
  8
1
  6
Continuous
100
AcDbCircle
 10
617.3490374517516
 20
232.0992494469214
 30
0.0
 40
1.5
100
AcDbArc
 50
14.47903000000034
 51
112.5000479999996
  0
LINE
  5
1275
330
18
100
AcDbEntity
  8
1
  6
Continuous
100
AcDbLine
 10
615.6269644517517
 20
236.2566974469213
 30
0.0
 11
614.3449911668957
 21
235.7256850035307
 31
0.0
  0
ARC
  5
1276
330
18
100
AcDbEntity
  8
1
  6
Continuous
100
AcDbCircle
 10
596.5319024517516
 20
226.7236664469214
 30
0.0
 40
23.0
100
AcDbArc
 50
30.52095000000026
 51
34.40038165244937
  0
ARC
  5
1277
330
18
100
AcDbEntity
  8
1
  6
Continuous
100
AcDbCircle
 10
615.0529364517517
 20
237.6425204469214
 30
0.0
 40
1.5
100
AcDbArc
 50
292.50012
 51
30.52097999999876
  0
ARC
  5
1278
330
18
100
AcDbEntity
  8
1
  6
Continuous
100
AcDbCircle
 10
628.5319024517516
 20
278.2236664469214
 30
0.0
 40
3.0
100
AcDbArc
 50
291.7355699999994
 51
16.60152000000095
  0
ARC
  5
1279
330
18
100
AcDbEntity
  8
1
  6
Continuous
100
AcDbCircle
 10
631.5319024517516
 20
268.2236664469214
 30
0.0
 40
7.400000099999997
100
AcDbArc
 50
111.735551
 51
163.7397889999989
  0
LINE
  5
127A
330
18
100
AcDbEntity
  8
1
  6
Continuous
100
AcDbLine
 10
628.7915074517518
 20
275.0975564469213
 30
0.0
 11
629.6428724517518
 21
275.4369674469212
 31
0.0
  0
ARC
  5
127B
330
18
100
AcDbEntity
  8
1
  6
Continuous
100
AcDbCircle
 10
635.2401044517518
 20
280.2236664469214
 30
0.0
 40
4.0
100
AcDbArc
 50
90.00001799999918
 51
196.6016300000003
  0
ARC
  5
127C
330
18
100
AcDbEntity
  8
1
  6
Continuous
100
AcDbCircle
 10
634.5285684517516
 20
278.0236694469213
 30
0.0
 40
3.0
100
AcDbArc
 50
90.00001799999918
 51
178.0898351000004
  0
LINE
  5
127D
330
18
100
AcDbEntity
  8
1
  6
Continuous
100
AcDbLine
 10
637.5319024517516
 20
281.0236694469212
 30
0.0
 11
637.5319024517516
 21
284.2236664469215
 31
0.0
  0
LINE
  5
127E
330
18
100
AcDbEntity
  8
1
  6
Continuous
100
AcDbLine
 10
637.5319024517516
 20
281.0236694469212
 30
0.0
 11
634.5285684517516
 21
281.0236694469212
 31
0.0
  0
LINE
  5
127F
330
18
100
AcDbEntity
  8
4
  6
CENTER
100
AcDbLine
 10
565.031902451752
 20
290.1551048469213
 30
0.0
 11
565.031902451752
 21
275.5700049923039
 31
0.0
  0
LINE
  5
1281
330
18
100
AcDbEntity
  8
1
  6
Continuous
100
AcDbLine
 10
585.5319024517516
 20
228.8813664469211
 30
0.0
 11
585.5319024517516
 21
281.9236634469211
 31
0.0
  0
LINE
  5
1282
330
18
100
AcDbEntity
  8
1
  6
Continuous
100
AcDbLine
 10
582.1319004517517
 20
224.0236694469214
 30
0.0
 11
568.6359024517518
 21
270.2956674469214
 31
0.0
  0
ARC
  5
1283
330
18
100
AcDbEntity
  8
1
  6
Continuous
100
AcDbCircle
 10
596.5319024517516
 20
226.7236664469214
 30
0.0
 40
18.5
100
AcDbArc
 50
166.1269360000003
 51
193.8731000000006
  0
ARC
  5
1284
330
18
100
AcDbEntity
  8
1
  6
Continuous
100
AcDbCircle
 10
596.5319024517516
 20
226.7236664469214
 30
0.0
 40
23.0
100
AcDbArc
 50
165.5209619999996
 51
194.479109999998
  0
ARC
  5
1285
330
18
100
AcDbEntity
  8
1
  6
Continuous
100
AcDbCircle
 10
596.5319024517516
 20
226.7236664469214
 30
0.0
 40
23.0
100
AcDbArc
 50
210.5209599999994
 51
239.4791000000011
  0
ARC
  5
1286
330
18
100
AcDbEntity
  8
1
  6
Continuous
100
AcDbCircle
 10
596.5319024517516
 20
226.7236664469214
 30
0.0
 40
18.5
100
AcDbArc
 50
211.1269300000023
 51
238.8730999999988
  0
ARC
  5
1287
330
18
100
AcDbEntity
  8
1
  6
Continuous
100
AcDbCircle
 10
586.1932034517517
 20
209.6031734469212
 30
0.0
 40
1.5
100
AcDbArc
 50
337.5000499999984
 51
58.87309999999889
  0
ARC
  5
1288
330
18
100
AcDbEntity
  8
1
  6
Continuous
100
AcDbCircle
 10
585.6130794517516
 20
208.2026154469215
 30
0.0
 40
1.5
100
AcDbArc
 50
239.4790399999989
 51
337.5000400000002
  0
LINE
  5
1289
330
18
100
AcDbEntity
  8
1
  6
Continuous
100
AcDbLine
 10
589.7704964517518
 20
206.4805514469215
 30
0.0
 11
590.3506244517516
 21
207.8811084469212
 31
0.0
  0
LINE
  5
128A
330
18
100
AcDbEntity
  8
1
  6
Continuous
100
AcDbLine
 10
586.9988444517516
 20
207.6286164469214
 30
0.0
 11
587.5789724517518
 21
209.0291714469215
 31
0.0
  0
ARC
  5
128B
330
18
100
AcDbEntity
  8
1
  6
Continuous
100
AcDbCircle
 10
591.1563534517518
 20
205.9065184469214
 30
0.0
 40
1.5
100
AcDbArc
 50
157.500113999999
 51
255.5209899999993
  0
LINE
  5
128C
330
18
100
AcDbEntity
  8
1
  6
Continuous
100
AcDbLine
 10
576.2887684517518
 20
219.9623116469213
 30
0.0
 11
577.6893194517517
 21
220.5424403469214
 31
0.0
  0
ARC
  5
128D
330
18
100
AcDbEntity
  8
1
  6
Continuous
100
AcDbCircle
 10
578.0108684517517
 20
215.8048060469214
 30
0.0
 40
1.5
100
AcDbArc
 50
112.5001160000012
 51
210.5209900000017
  0
LINE
  5
128E
330
18
100
AcDbEntity
  8
1
  6
Continuous
100
AcDbLine
 10
577.4368174517518
 20
217.1906550469214
 30
0.0
 11
578.8373834517517
 21
217.7707889469214
 31
0.0
  0
ARC
  5
128F
330
18
100
AcDbEntity
  8
1
  6
Continuous
100
AcDbCircle
 10
579.4114194517518
 20
216.3849413469214
 30
0.0
 40
1.5
100
AcDbArc
 50
31.12696000000028
 51
112.5000479999996
  0
ARC
  5
1290
330
18
100
AcDbEntity
  8
1
  6
Continuous
100
AcDbCircle
 10
577.1153224517518
 20
221.9282133769211
 30
0.0
 40
1.5
100
AcDbArc
 50
292.5000600000007
 51
13.87310999999828
  0
ARC
  5
1291
330
18
100
AcDbEntity
  8
1
  6
Continuous
100
AcDbCircle
 10
575.7147634517519
 20
221.3480785069215
 30
0.0
 40
1.5
100
AcDbArc
 50
194.4790400000018
 51
292.5000400000011
  0
ARC
  5
1292
330
18
100
AcDbEntity
  8
1
  6
Continuous
100
AcDbCircle
 10
575.7147484517518
 20
232.0992134469214
 30
0.0
 40
1.5
100
AcDbArc
 50
67.50011999999758
 51
165.5209890000017
  0
LINE
  5
1293
330
18
100
AcDbEntity
  8
1
  6
Continuous
100
AcDbLine
 10
576.2887764517517
 20
233.4850574469214
 30
0.0
 11
577.6893274517517
 21
232.9049304469215
 31
0.0
  0
ARC
  5
1294
330
18
100
AcDbEntity
  8
1
  6
Continuous
100
AcDbCircle
 10
577.1153074517517
 20
231.5190928469214
 30
0.0
 40
1.5
100
AcDbArc
 50
346.1269699999994
 51
67.50005000000276
  0
ARC
  5
1295
330
18
100
AcDbEntity
  8
1
  6
Continuous
100
AcDbCircle
 10
578.0108454517518
 20
237.6424914469214
 30
0.0
 40
1.5
100
AcDbArc
 50
149.4790400000005
 51
247.50004
  0
LINE
  5
1296
330
18
100
AcDbEntity
  8
1
  6
Continuous
100
AcDbLine
 10
577.4368324517517
 20
236.2566964469214
 30
0.0
 11
578.7188132240906
 21
235.7256840272544
 31
0.0
  0
ARC
  5
1297
330
18
100
AcDbEntity
  8
1
  6
Continuous
100
AcDbCircle
 10
596.5319024517516
 20
226.7236664469214
 30
0.0
 40
23.0
100
AcDbArc
 50
145.5996201769576
 51
149.4791079999999
  0
ARC
  5
1298
330
18
100
AcDbEntity
  8
1
  6
Continuous
100
AcDbCircle
 10
564.5319024517521
 20
278.2236664469214
 30
0.0
 40
3.0
100
AcDbArc
 50
163.3985289999996
 51
248.2645199999978
  0
ARC
  5
1299
330
18
100
AcDbEntity
  8
1
  6
Continuous
100
AcDbCircle
 10
557.8236964517517
 20
280.2236664469214
 30
0.0
 40
4.0
100
AcDbArc
 50
343.3984100000003
 51
90.00001799999918
  0
ARC
  5
129A
330
18
100
AcDbEntity
  8
1
  6
Continuous
100
AcDbCircle
 10
561.5319024517519
 20
268.2236664469214
 30
0.0
 40
7.400000099999997
100
AcDbArc
 50
16.2601900000015
 51
68.26445999999879
  0
LINE
  5
129B
330
18
100
AcDbEntity
  8
1
  6
Continuous
100
AcDbLine
 10
564.2722894517516
 20
275.0975484469214
 30
0.0
 11
563.4209294517518
 21
275.4369594469214
 31
0.0
  0
LINE
  5
129C
330
18
100
AcDbEntity
  8
1
  6
Continuous
100
AcDbLine
 10
555.5319024517521
 20
281.0236694469212
 30
0.0
 11
555.5319024517521
 21
284.2236664469215
 31
0.0
  0
LINE
  5
129D
330
18
100
AcDbEntity
  8
1
  6
Continuous
100
AcDbLine
 10
558.5352364517516
 20
281.0236694469212
 30
0.0
 11
555.5319024517521
 21
281.0236694469212
 31
0.0
  0
ARC
  5
129E
330
18
100
AcDbEntity
  8
1
  6
Continuous
100
AcDbCircle
 10
558.5352364517516
 20
278.0236694469213
 30
0.0
 40
3.0
100
AcDbArc
 50
1.910190000000028
 51
90.00001799999918
  0
LINE
  5
1323
330
18
100
AcDbEntity
  8
4
  6
CENTER
100
AcDbLine
 10
262.6764631221448
 20
135.2116898544105
 30
0.0
 11
262.6764631221448
 21
62.52168185441064
 31
0.0
  0
LINE
  5
1324
330
18
100
AcDbEntity
  8
4
  6
CENTER
100
AcDbLine
 10
294.1764631221444
 20
125.2850218544107
 30
0.0
 11
294.1764631221444
 21
137.2850218544106
 31
0.0
  0
LINE
  5
1325
330
18
100
AcDbEntity
  8
4
  6
CENTER
100
AcDbLine
 10
231.1764631221449
 20
125.2850218544107
 30
0.0
 11
231.1764631221449
 21
137.2850218544106
 31
0.0
  0
LINE
  5
1326
330
18
100
AcDbEntity
  8
1
  6
Continuous
100
AcDbLine
 10
221.6764631221448
 20
134.2850218544107
 30
0.0
 11
221.6764631221448
 21
65.28502185441062
 31
0.0
  0
LINE
  5
1327
330
18
100
AcDbEntity
  8
1
  6
Continuous
100
AcDbLine
 10
303.6764631221444
 20
134.2850218544107
 30
0.0
 11
303.6764631221444
 21
65.28502185441062
 31
0.0
  0
CIRCLE
  5
1328
330
18
100
AcDbEntity
  8
1
  6
Continuous
100
AcDbCircle
 10
231.1764631221449
 20
131.2850218544107
 30
0.0
 40
4.400000099999997
  0
LINE
  5
1329
330
18
100
AcDbEntity
  8
1
  6
Continuous
100
AcDbLine
 10
242.4942943721446
 20
138.0784158544105
 30
0.0
 11
248.0886631221447
 21
128.6644128544107
 31
0.0
  0
LINE
  5
132A
330
18
100
AcDbEntity
  8
1
  6
Continuous
100
AcDbLine
 10
253.6764611221447
 20
129.4850188544107
 30
0.0
 11
255.6764621221446
 21
130.4850188544107
 31
0.0
  0
CIRCLE
  5
132B
330
18
100
AcDbEntity
  8
1
  6
Continuous
100
AcDbCircle
 10
294.1764631221444
 20
131.2850218544107
 30
0.0
 40
4.400000099999997
  0
LINE
  5
132C
330
18
100
AcDbEntity
  8
1
  6
Continuous
100
AcDbLine
 10
277.2642661221448
 20
128.6644088544107
 30
0.0
 11
282.8586381221448
 21
138.0784158544105
 31
0.0
  0
LINE
  5
132D
330
18
100
AcDbEntity
  8
1
  6
Continuous
100
AcDbLine
 10
269.6764731221449
 20
130.4850298544105
 30
0.0
 11
271.6764731221445
 21
129.4850298544105
 31
0.0
  0
LINE
  5
1330
330
18
100
AcDbEntity
  8
1
  6
Continuous
100
AcDbLine
 10
269.6764651221446
 20
130.4850188544107
 30
0.0
 11
255.6764661221448
 21
130.4850188544107
 31
0.0
  0
ARC
  5
1331
330
18
100
AcDbEntity
  8
1
  6
Continuous
100
AcDbCircle
 10
231.1467551221447
 20
131.3350208544106
 30
0.0
 40
13.2
100
AcDbArc
 50
30.72134000000025
 51
90.00000000000005
  0
ARC
  5
1332
330
18
100
AcDbEntity
  8
1
  6
Continuous
100
AcDbCircle
 10
228.6764631221449
 20
134.2850218544107
 30
0.0
 40
7.0
100
AcDbArc
 50
109.4712300000016
 51
180.0000400000006
  0
ARC
  5
1333
330
18
100
AcDbEntity
  8
1
  6
Continuous
100
AcDbCircle
 10
225.6764631221448
 20
142.7703048544106
 30
0.0
 40
2.0
100
AcDbArc
 50
289.4712550000004
 51
0.0
  0
LINE
  5
1334
330
18
100
AcDbEntity
  8
1
  6
Continuous
100
AcDbLine
 10
227.6764631221448
 20
144.5350218544106
 30
0.0
 11
231.1467551221447
 21
144.5350218544106
 31
0.0
  0
LINE
  5
1335
330
18
100
AcDbEntity
  8
1
  6
Continuous
100
AcDbLine
 10
227.6764631221448
 20
144.5350218544106
 30
0.0
 11
227.6764631221448
 21
142.7703048544106
 31
0.0
  0
LINE
  5
1336
330
18
100
AcDbEntity
  8
4
  6
CENTER
100
AcDbLine
 10
225.1764631221448
 20
131.2850218544107
 30
0.0
 11
237.1764631221449
 21
131.2850218544107
 31
0.0
  0
LINE
  5
1337
330
18
100
AcDbEntity
  8
4
  6
CENTER
100
AcDbLine
 10
288.1764631221448
 20
131.2850218544107
 30
0.0
 11
300.1764631221444
 21
131.2850218544107
 31
0.0
  0
LINE
  5
1338
330
18
100
AcDbEntity
  8
1
  6
Continuous
100
AcDbLine
 10
294.2061761221448
 20
144.5350218544106
 30
0.0
 11
297.6764631221444
 21
144.5350218544106
 31
0.0
  0
ARC
  5
1339
330
18
100
AcDbEntity
  8
1
  6
Continuous
100
AcDbCircle
 10
294.2061761221448
 20
131.3350208544106
 30
0.0
 40
13.2
100
AcDbArc
 50
90.00000000000005
 51
149.2786599999998
  0
ARC
  5
133A
330
18
100
AcDbEntity
  8
1
  6
Continuous
100
AcDbCircle
 10
296.6764631221444
 20
134.2850218544107
 30
0.0
 40
7.0
100
AcDbArc
 50
0.0
 51
70.52881999999946
  0
ARC
  5
133B
330
18
100
AcDbEntity
  8
1
  6
Continuous
100
AcDbCircle
 10
299.6764631221444
 20
142.7703048544106
 30
0.0
 40
2.0
100
AcDbArc
 50
180.0000400000006
 51
250.5287800000004
  0
LINE
  5
133C
330
18
100
AcDbEntity
  8
1
  6
Continuous
100
AcDbLine
 10
297.6764631221444
 20
144.5350218544106
 30
0.0
 11
297.6764631221444
 21
142.7703048544106
 31
0.0
  0
ARC
  5
133D
330
18
100
AcDbEntity
  8
1
  6
Continuous
100
AcDbCircle
 10
266.9264631221448
 20
60.33502185441079
 30
0.0
 40
13.75000299999999
100
AcDbArc
 50
74.50126999999771
 51
105.4987300000022
  0
LINE
  5
133E
330
18
100
AcDbEntity
  8
1
  6
Continuous
100
AcDbLine
 10
271.1764631221448
 20
69.08502485441068
 30
0.0
 11
262.6764631221448
 21
69.08502485441068
 31
0.0
  0
LINE
  5
133F
330
18
100
AcDbEntity
  8
1
  6
Continuous
100
AcDbLine
 10
269.9764621221447
 20
67.48503385441086
 30
0.0
 11
262.6764631221448
 21
67.48503385441086
 31
0.0
  0
LINE
  5
1340
330
18
100
AcDbEntity
  8
1
  6
Continuous
100
AcDbLine
 10
253.6764631221449
 20
74.08502485441069
 30
0.0
 11
271.6764631221448
 21
74.08502485441069
 31
0.0
  0
ARC
  5
1341
330
18
100
AcDbEntity
  8
1
  6
Continuous
100
AcDbCircle
 10
266.9264631221448
 20
80.01502485441074
 30
0.0
 40
10.93000299999999
100
AcDbArc
 50
252.6026900000014
 51
287.397308999998
  0
LINE
  5
1342
330
18
100
AcDbEntity
  8
4
  6
CENTER
100
AcDbLine
 10
217.6764631221448
 20
99.78502185441072
 30
0.0
 11
307.6764631221444
 21
99.78502185441072
 31
0.0
  0
LINE
  5
1343
330
18
100
AcDbEntity
  8
1
  6
Continuous
100
AcDbLine
 10
271.6764631221448
 20
129.4850188544107
 30
0.0
 11
253.6764641221448
 21
129.4850188544107
 31
0.0
  0
LINE
  5
1345
330
18
100
AcDbEntity
  8
1
  6
Continuous
100
AcDbLine
 10
253.6764631221449
 20
125.4850188544107
 30
0.0
 11
271.6764631221448
 21
125.4850188544107
 31
0.0
  0
ARC
  5
1349
330
18
100
AcDbEntity
  8
1
  6
Continuous
100
AcDbCircle
 10
253.6764631221449
 20
131.9850188544106
 30
0.0
 40
6.5
100
AcDbArc
 50
210.7213500000002
 51
270.0000179999992
  0
LINE
  5
134A
330
18
100
AcDbEntity
  8
1
  6
Continuous
100
AcDbLine
 10
253.6764631221449
 20
125.4850188544105
 30
0.0
 11
253.6764641221449
 21
129.4850188544105
 31
0.0
  0
LINE
  5
134C
330
18
100
AcDbEntity
  8
4
  6
CENTER
100
AcDbLine
 10
231.1764631221449
 20
62.28502185441062
 30
0.0
 11
231.1764631221449
 21
74.28502185441073
 31
0.0
  0
LINE
  5
134D
330
18
100
AcDbEntity
  8
2
  6
Continuous
100
AcDbLine
 10
258.4264631221448
 20
64.98501885441078
 30
0.0
 11
258.4264631221448
 21
67.48503385441086
 31
0.0
  0
LINE
  5
134E
330
18
100
AcDbEntity
  8
2
  6
Continuous
100
AcDbLine
 10
266.9264631221448
 20
64.98501885441078
 30
0.0
 11
266.9264631221448
 21
67.48503385441086
 31
0.0
  0
CIRCLE
  5
134F
330
18
100
AcDbEntity
  8
1
  6
Continuous
100
AcDbCircle
 10
231.1764631221449
 20
68.28502185441061
 30
0.0
 40
4.400000099999997
  0
LINE
  5
1350
330
18
100
AcDbEntity
  8
1
  6
Continuous
100
AcDbLine
 10
248.0886616221445
 20
70.90561985441059
 30
0.0
 11
242.4942989321445
 21
61.4916218544106
 31
0.0
  0
LINE
  5
1351
330
18
100
AcDbEntity
  8
1
  6
Continuous
100
AcDbLine
 10
257.6764631221448
 20
65.73501885441078
 30
0.0
 11
257.6764631221448
 21
67.48503385441086
 31
0.0
  0
LINE
  5
1352
330
18
100
AcDbEntity
  8
1
  6
Continuous
100
AcDbLine
 10
267.6764631221448
 20
65.73501885441078
 30
0.0
 11
267.6764631221448
 21
67.48503385441086
 31
0.0
  0
LINE
  5
1354
330
18
100
AcDbEntity
  8
4
  6
CENTER
100
AcDbLine
 10
225.1764631221448
 20
68.28502185441061
 30
0.0
 11
237.1764631221449
 21
68.28502185441061
 31
0.0
  0
ARC
  5
1355
330
18
100
AcDbEntity
  8
1
  6
Continuous
100
AcDbCircle
 10
255.3764631221447
 20
68.6850308544108
 30
0.0
 40
1.199999999999999
100
AcDbArc
 50
179.9999899999989
 51
269.9999910000004
  0
ARC
  5
1356
330
18
100
AcDbEntity
  8
1
  6
Continuous
100
AcDbCircle
 10
253.6764631221449
 20
67.58502485441066
 30
0.0
 40
6.5
100
AcDbArc
 50
90.00003999999753
 51
149.2786499999996
  0
LINE
  5
1357
330
18
100
AcDbEntity
  8
1
  6
Continuous
100
AcDbLine
 10
263.6584351221449
 20
69.58502485441066
 30
0.0
 11
262.6764631221448
 21
69.58502485441066
 31
0.0
  0
LINE
  5
1358
330
18
100
AcDbEntity
  8
1
  6
Continuous
100
AcDbLine
 10
263.6584351221445
 20
69.58502485441091
 30
0.0
 11
263.2522291221445
 21
73.58502485441102
 31
0.0
  0
ARC
  5
1359
330
18
100
AcDbEntity
  8
1
  6
Continuous
100
AcDbCircle
 10
258.4264631221448
 20
80.01502485441074
 30
0.0
 40
10.93000299999999
100
AcDbArc
 50
252.6026900000014
 51
287.397308999998
  0
ARC
  5
135A
330
18
100
AcDbEntity
  8
1
  6
Continuous
100
AcDbCircle
 10
258.4264631221448
 20
60.33502185441079
 30
0.0
 40
13.75000299999999
100
AcDbArc
 50
74.50126999999771
 51
105.4987300000022
  0
LINE
  5
135B
330
18
100
AcDbEntity
  8
1
  6
Continuous
100
AcDbLine
 10
254.7522281221449
 20
73.58502485441069
 30
0.0
 11
255.1584361221448
 21
69.58502485441066
 31
0.0
  0
LINE
  5
135C
330
18
100
AcDbEntity
  8
1
  6
Continuous
100
AcDbLine
 10
261.6944911221443
 20
69.58502485441091
 30
0.0
 11
262.1006971221444
 21
73.58502485441102
 31
0.0
  0
LINE
  5
135D
330
18
100
AcDbEntity
  8
1
  6
Continuous
100
AcDbLine
 10
262.1006991221447
 20
73.58502485441069
 30
0.0
 11
262.6764631221448
 21
73.58502485441069
 31
0.0
  0
LINE
  5
135E
330
18
100
AcDbEntity
  8
1
  6
Continuous
100
AcDbLine
 10
261.6944911221448
 20
69.58502485441066
 30
0.0
 11
262.6764631221448
 21
69.58502485441066
 31
0.0
  0
LINE
  5
135F
330
18
100
AcDbEntity
  8
1
  6
Continuous
100
AcDbLine
 10
263.2522271221448
 20
73.58502485441069
 30
0.0
 11
262.6764631221448
 21
73.58502485441069
 31
0.0
  0
LINE
  5
1360
330
18
100
AcDbEntity
  8
1
  6
Continuous
100
AcDbLine
 10
255.3764631221447
 20
67.48503385441086
 30
0.0
 11
262.6764631221448
 21
67.48503385441086
 31
0.0
  0
LINE
  5
1361
330
18
100
AcDbEntity
  8
1
  6
Continuous
100
AcDbLine
 10
254.1764631221449
 20
68.6850308544108
 30
0.0
 11
254.1764631221449
 21
74.08502485441069
 31
0.0
  0
LINE
  5
1362
330
18
100
AcDbEntity
  8
1
  6
Continuous
100
AcDbLine
 10
254.1764631221449
 20
69.08502485441068
 30
0.0
 11
262.6764631221448
 21
69.08502485441068
 31
0.0
  0
LINE
  5
1363
330
18
100
AcDbEntity
  8
1
  6
Continuous
100
AcDbLine
 10
254.1764631221449
 20
69.58502485441066
 30
0.0
 11
255.1584361221448
 21
69.58502485441066
 31
0.0
  0
LINE
  5
1364
330
18
100
AcDbEntity
  8
1
  6
Continuous
100
AcDbLine
 10
254.1764631221449
 20
73.58502485441069
 30
0.0
 11
254.7522291221448
 21
73.58502485441069
 31
0.0
  0
ARC
  5
1365
330
18
100
AcDbEntity
  8
1
  6
Continuous
100
AcDbCircle
 10
231.1467601221447
 20
68.23501885441078
 30
0.0
 40
13.2
100
AcDbArc
 50
269.9999970000023
 51
329.2786590000001
  0
LINE
  5
1366
330
18
100
AcDbEntity
  8
1
  6
Continuous
100
AcDbLine
 10
227.6764631221448
 20
56.79974185441074
 30
0.0
 11
227.6764631221448
 21
55.0350218544106
 31
0.0
  0
ARC
  5
1367
330
18
100
AcDbEntity
  8
1
  6
Continuous
100
AcDbCircle
 10
228.6764631221449
 20
65.28502185441062
 30
0.0
 40
7.0
100
AcDbArc
 50
180.0000400000006
 51
250.5288000000005
  0
ARC
  5
1368
330
18
100
AcDbEntity
  8
1
  6
Continuous
100
AcDbCircle
 10
225.6764631221448
 20
56.79974185441074
 30
0.0
 40
2.0
100
AcDbArc
 50
0.0
 51
70.52881000000049
  0
LINE
  5
1369
330
18
100
AcDbEntity
  8
1
  6
Continuous
100
AcDbLine
 10
227.6764631221448
 20
55.0350218544106
 30
0.0
 11
231.1467601221447
 21
55.0350218544106
 31
0.0
  0
LINE
  5
136A
330
18
100
AcDbEntity
  8
1
  6
Continuous
100
AcDbLine
 10
267.6764631221448
 20
65.73501885441078
 30
0.0
 11
257.6764641221448
 21
65.73501885441078
 31
0.0
  0
LINE
  5
136B
330
18
100
AcDbEntity
  8
1
  6
Continuous
100
AcDbLine
 10
266.9264631221448
 20
64.98501885441078
 30
0.0
 11
258.4264641221448
 21
64.98501885441078
 31
0.0
  0
LINE
  5
136C
330
18
100
AcDbEntity
  8
1
  6
Continuous
100
AcDbLine
 10
257.6764361221445
 20
65.73498085441065
 30
0.0
 11
258.4264371221445
 21
64.9849808544111
 31
0.0
  0
LINE
  5
136D
330
18
100
AcDbEntity
  8
1
  6
Continuous
100
AcDbLine
 10
266.9264671221449
 20
64.98500385441072
 30
0.0
 11
267.6764741221447
 21
65.7350108544108
 31
0.0
  0
ARC
  5
1371
330
18
100
AcDbEntity
  8
1
  6
Continuous
100
AcDbCircle
 10
271.6764631221448
 20
131.9850188544106
 30
0.0
 40
6.5
100
AcDbArc
 50
270.0000179999992
 51
329.2786769999973
  0
LINE
  5
1372
330
18
100
AcDbEntity
  8
1
  6
Continuous
100
AcDbLine
 10
271.6764631221448
 20
125.4850188544107
 30
0.0
 11
271.6764631221448
 21
129.4850188544107
 31
0.0
  0
LINE
  5
1374
330
18
100
AcDbEntity
  8
4
  6
CENTER
100
AcDbLine
 10
294.1764631221444
 20
62.28502185441062
 30
0.0
 11
294.1764631221444
 21
74.28502185441073
 31
0.0
  0
CIRCLE
  5
1375
330
18
100
AcDbEntity
  8
1
  6
Continuous
100
AcDbCircle
 10
294.1764631221444
 20
68.28502185441061
 30
0.0
 40
4.400000099999997
  0
LINE
  5
1376
330
18
100
AcDbEntity
  8
1
  6
Continuous
100
AcDbLine
 10
282.8586381221448
 20
61.49162185441105
 30
0.0
 11
277.2642701221448
 21
70.90563485441066
 31
0.0
  0
LINE
  5
1377
330
18
100
AcDbEntity
  8
4
  6
CENTER
100
AcDbLine
 10
288.1764631221448
 20
68.28502185441061
 30
0.0
 11
300.1764631221444
 21
68.28502185441061
 31
0.0
  0
ARC
  5
1379
330
18
100
AcDbEntity
  8
1
  6
Continuous
100
AcDbCircle
 10
269.9764621221447
 20
68.6850308544108
 30
0.0
 40
1.199999999999999
100
AcDbArc
 50
269.9999970000023
 51
359.9999974955214
  0
LINE
  5
137A
330
18
100
AcDbEntity
  8
1
  6
Continuous
100
AcDbLine
 10
271.1764631221448
 20
68.6850308544108
 30
0.0
 11
271.1764631221448
 21
74.08502485441069
 31
0.0
  0
LINE
  5
137B
330
18
100
AcDbEntity
  8
1
  6
Continuous
100
AcDbLine
 10
271.1764631221448
 20
69.58502485441066
 30
0.0
 11
270.1944891221448
 21
69.58502485441066
 31
0.0
  0
LINE
  5
137C
330
18
100
AcDbEntity
  8
1
  6
Continuous
100
AcDbLine
 10
270.6006971221444
 20
73.58502485441069
 30
0.0
 11
270.1944911221445
 21
69.58502485441066
 31
0.0
  0
LINE
  5
137D
330
18
100
AcDbEntity
  8
1
  6
Continuous
100
AcDbLine
 10
271.1764631221448
 20
73.58502485441069
 30
0.0
 11
270.6006991221447
 21
73.58502485441069
 31
0.0
  0
ARC
  5
137E
330
18
100
AcDbEntity
  8
1
  6
Continuous
100
AcDbCircle
 10
271.6764631221448
 20
67.58502485441066
 30
0.0
 40
6.5
100
AcDbArc
 50
30.72137000000144
 51
90.00003999999753
  0
LINE
  5
137F
330
18
100
AcDbEntity
  8
1
  6
Continuous
100
AcDbLine
 10
294.2061761221448
 20
55.0350218544106
 30
0.0
 11
297.6764631221444
 21
55.0350218544106
 31
0.0
  0
ARC
  5
1380
330
18
100
AcDbEntity
  8
1
  6
Continuous
100
AcDbCircle
 10
294.2061761221448
 20
68.23501885441078
 30
0.0
 40
13.2
100
AcDbArc
 50
210.72134
 51
269.9999970000023
  0
LINE
  5
1381
330
18
100
AcDbEntity
  8
1
  6
Continuous
100
AcDbLine
 10
297.6764631221444
 20
56.79974185441074
 30
0.0
 11
297.6764631221444
 21
55.0350218544106
 31
0.0
  0
ARC
  5
1382
330
18
100
AcDbEntity
  8
1
  6
Continuous
100
AcDbCircle
 10
296.6764631221444
 20
65.28502185441062
 30
0.0
 40
7.0
100
AcDbArc
 50
289.4712340000011
 51
0.0
  0
ARC
  5
1383
330
18
100
AcDbEntity
  8
1
  6
Continuous
100
AcDbCircle
 10
299.6764631221444
 20
56.79974185441074
 30
0.0
 40
2.0
100
AcDbArc
 50
109.4712300000016
 51
180.0000400000006
  0
LINE
  5
1424
330
18
100
AcDbEntity
  8
1
  6
Continuous
100
AcDbLine
 10
253.6764631221449
 20
122.2850188544107
 30
0.0
 11
271.6764631221448
 21
122.2850188544107
 31
0.0
  0
ARC
  5
1425
330
18
100
AcDbEntity
  8
1
  6
Continuous
100
AcDbCircle
 10
253.6764631221449
 20
131.9850188544106
 30
0.0
 40
9.699999999999999
100
AcDbArc
 50
210.7213500000002
 51
270.0000179999992
  0
LINE
  5
1426
330
18
100
AcDbEntity
  8
1
  6
Continuous
100
AcDbLine
 10
239.7433757024458
 20
136.4436539534896
 30
0.0
 11
245.3377444524459
 21
127.0296509534898
 31
0.0
  0
ARC
  5
1427
330
18
100
AcDbEntity
  8
1
  6
Continuous
100
AcDbCircle
 10
231.1467551221447
 20
131.3350208544106
 30
0.0
 40
10.0
100
AcDbArc
 50
30.72134000000025
 51
90.00000000000005
  0
LINE
  5
1428
330
18
100
AcDbEntity
  8
1
  6
Continuous
100
AcDbLine
 10
227.0692885634371
 20
141.3350218544106
 30
0.0
 11
231.1467551221447
 21
141.3350218544106
 31
0.0
  0
ARC
  5
1429
330
18
100
AcDbEntity
  8
1
  6
Continuous
100
AcDbCircle
 10
294.2061761221448
 20
131.3350208544106
 30
0.0
 40
10.0
100
AcDbArc
 50
90.00000000000005
 51
149.2786599999998
  0
LINE
  5
142A
330
18
100
AcDbEntity
  8
1
  6
Continuous
100
AcDbLine
 10
280.0151846798149
 20
127.0296467649719
 30
0.0
 11
285.6095566798149
 21
136.4436537649719
 31
0.0
  0
ARC
  5
142B
330
18
100
AcDbEntity
  8
1
  6
Continuous
100
AcDbCircle
 10
271.6764631221448
 20
131.9850188544106
 30
0.0
 40
9.699999999999999
100
AcDbArc
 50
270.0000179999992
 51
329.2786769999973
  0
LINE
  5
142C
330
18
100
AcDbEntity
  8
1
  6
Continuous
100
AcDbLine
 10
294.2061761221448
 20
141.3350218544106
 30
0.0
 11
298.2836376808521
 21
141.3350218544106
 31
0.0
  0
ARC
  5
142D
330
18
100
AcDbEntity
  8
1
  6
Continuous
100
AcDbCircle
 10
253.6764631221449
 20
67.58502485441066
 30
0.0
 40
9.699999999999999
100
AcDbArc
 50
90.00003999999753
 51
149.2786499999996
  0
LINE
  5
142E
330
18
100
AcDbEntity
  8
1
  6
Continuous
100
AcDbLine
 10
253.6764631221449
 20
77.28502485441066
 30
0.0
 11
271.6764631221448
 21
77.28502485441066
 31
0.0
  0
LINE
  5
142F
330
18
100
AcDbEntity
  8
1
  6
Continuous
100
AcDbLine
 10
245.3377425560661
 20
72.54038108831777
 30
0.0
 11
239.7433798660661
 21
63.12638308831775
 31
0.0
  0
ARC
  5
1430
330
18
100
AcDbEntity
  8
1
  6
Continuous
100
AcDbCircle
 10
231.1467601221447
 20
68.23501885441078
 30
0.0
 40
10.0
100
AcDbArc
 50
269.9999970000023
 51
329.2786590000001
  0
LINE
  5
1431
330
18
100
AcDbEntity
  8
1
  6
Continuous
100
AcDbLine
 10
227.0692916548798
 20
58.23502185441061
 30
0.0
 11
231.1467601221447
 21
58.23502185441061
 31
0.0
  0
ARC
  5
1432
330
18
100
AcDbEntity
  8
1
  6
Continuous
100
AcDbCircle
 10
271.6764631221448
 20
67.58502485441066
 30
0.0
 40
9.699999999999999
100
AcDbArc
 50
30.72137000000144
 51
90.00003999999753
  0
LINE
  5
1433
330
18
100
AcDbEntity
  8
1
  6
Continuous
100
AcDbLine
 10
285.6095576507192
 20
63.12638231004592
 30
0.0
 11
280.0151896507193
 21
72.54039531004555
 31
0.0
  0
ARC
  5
1434
330
18
100
AcDbEntity
  8
1
  6
Continuous
100
AcDbCircle
 10
294.2061761221448
 20
68.23501885441078
 30
0.0
 40
10.0
100
AcDbArc
 50
210.72134
 51
269.9999970000023
  0
LINE
  5
1435
330
18
100
AcDbEntity
  8
1
  6
Continuous
100
AcDbLine
 10
294.2061761221448
 20
58.23502185441061
 30
0.0
 11
298.2836345894096
 21
58.23502185441061
 31
0.0
  0
LINE
  5
1436
330
18
100
AcDbEntity
  8
1
  6
Continuous
100
AcDbLine
 10
289.3985091221446
 20
119.7850218544106
 30
0.0
 11
235.9544171221446
 21
119.7850218544107
 31
0.0
  0
LINE
  5
1437
330
18
100
AcDbEntity
  8
1
  6
Continuous
100
AcDbLine
 10
289.3985091221446
 20
79.78502185441067
 30
0.0
 11
235.9544171221446
 21
79.7850218544108
 31
0.0
  0
ARC
  5
1438
330
18
100
AcDbEntity
  8
1
  6
Continuous
100
AcDbCircle
 10
380.1764631221449
 20
99.7850218544108
 30
0.0
 40
150.0
100
AcDbArc
 50
174.0622100000003
 51
185.937770000002
  0
ARC
  5
1439
330
18
100
AcDbEntity
  8
1
  6
Continuous
100
AcDbCircle
 10
235.9544171221446
 20
114.7850218544107
 30
0.0
 40
5.0
100
AcDbArc
 50
89.99997999999797
 51
174.0621900000019
  0
ARC
  5
143A
330
18
100
AcDbEntity
  8
1
  6
Continuous
100
AcDbCircle
 10
235.9544171221446
 20
84.78502185441078
 30
0.0
 40
5.0
100
AcDbArc
 50
185.9377999999986
 51
270.0
  0
LINE
  5
143B
330
18
100
AcDbEntity
  8
1
  6
Continuous
100
AcDbLine
 10
280.6764631221448
 20
121.4850218544107
 30
0.0
 11
244.6764631221448
 21
121.4850218544108
 31
0.0
  0
LINE
  5
143C
330
18
100
AcDbEntity
  8
1
  6
Continuous
100
AcDbLine
 10
280.6764631221448
 20
78.08502485441073
 30
0.0
 11
244.6764631221448
 21
78.08502485441083
 31
0.0
  0
LINE
  5
1440
330
18
100
AcDbEntity
  8
1
  6
Continuous
100
AcDbLine
 10
244.6764631221448
 20
121.4850218544108
 30
0.0
 11
244.6764631221448
 21
119.7850218544107
 31
0.0
  0
LINE
  5
1445
330
18
100
AcDbEntity
  8
1
  6
Continuous
100
AcDbLine
 10
257.6764631221448
 20
122.2850218544105
 30
0.0
 11
257.6764631221448
 21
121.4850218544107
 31
0.0
  0
LINE
  5
1447
330
18
100
AcDbEntity
  8
1
  6
Continuous
100
AcDbLine
 10
267.6764631221448
 20
122.2850218544105
 30
0.0
 11
267.6764631221448
 21
121.4850218544107
 31
0.0
  0
LINE
  5
144C
330
18
100
AcDbEntity
  8
1
  6
Continuous
100
AcDbLine
 10
244.6764631221448
 20
79.7850218544108
 30
0.0
 11
244.6764631221448
 21
78.08502485441083
 31
0.0
  0
LINE
  5
1451
330
18
100
AcDbEntity
  8
1
  6
Continuous
100
AcDbLine
 10
257.6764631221448
 20
78.08502485441073
 30
0.0
 11
257.6764631221448
 21
77.28502185441067
 31
0.0
  0
LINE
  5
1452
330
18
100
AcDbEntity
  8
1
  6
Continuous
100
AcDbLine
 10
267.6764631221448
 20
78.08502485441073
 30
0.0
 11
267.6764631221448
 21
77.28502185441067
 31
0.0
  0
ARC
  5
1453
330
18
100
AcDbEntity
  8
1
  6
Continuous
100
AcDbCircle
 10
145.1764631221448
 20
99.7850218544108
 30
0.0
 40
150.0
100
AcDbArc
 50
354.062225000002
 51
5.937792999997402
  0
ARC
  5
1454
330
18
100
AcDbEntity
  8
1
  6
Continuous
100
AcDbCircle
 10
289.3985091221447
 20
114.7850218544107
 30
0.0
 40
5.0
100
AcDbArc
 50
5.937814000001712
 51
89.99995999999923
  0
LINE
  5
1455
330
18
100
AcDbEntity
  8
1
  6
Continuous
100
AcDbLine
 10
280.6764631221448
 20
121.4850218544107
 30
0.0
 11
280.6764631221448
 21
119.7850218544106
 31
0.0
  0
ARC
  5
1456
330
18
100
AcDbEntity
  8
1
  6
Continuous
100
AcDbCircle
 10
289.3985091221447
 20
84.78502185441078
 30
0.0
 40
5.0
100
AcDbArc
 50
270.0
 51
354.0622049999976
  0
LINE
  5
1457
330
18
100
AcDbEntity
  8
1
  6
Continuous
100
AcDbLine
 10
280.6764631221448
 20
79.78502185441067
 30
0.0
 11
280.6764631221448
 21
78.08502485441073
 31
0.0
  0
CIRCLE
  5
14F4
330
18
100
AcDbEntity
  8
2
  6
Continuous
100
AcDbCircle
 10
596.5319024517516
 20
226.7236664469214
 30
0.0
 40
4.25
  0
CIRCLE
  5
14F5
330
18
100
AcDbEntity
  8
1
  6
Continuous
100
AcDbCircle
 10
596.5319024517516
 20
226.7236664469214
 30
0.0
 40
5.000003999999761
  0
CIRCLE
  5
14F7
330
18
100
AcDbEntity
  8
1
  6
Continuous
100
AcDbCircle
 10
596.5319024517516
 20
226.7236664469214
 30
0.0
 40
8.500003000000162
  0
ARC
  5
14F8
330
18
100
AcDbEntity
  8
1
  6
Continuous
100
AcDbCircle
 10
596.5319024517516
 20
226.7236664469214
 30
0.0
 40
9.500008000000008
100
AcDbArc
 50
86.52544192956085
 51
93.47455807043983
  0
LINE
  5
14FA
330
18
100
AcDbEntity
  8
1
  6
Continuous
100
AcDbLine
 10
604.4561519618111
 20
231.9635540127368
 30
0.0
 11
597.1076534416924
 21
236.2062116114671
 31
0.0
  0
LINE
  5
14FB
330
18
100
AcDbEntity
  8
1
  6
Continuous
100
AcDbLine
 10
588.0319029517518
 20
230.9663260491126
 30
0.0
 11
588.0319029517518
 21
222.4810068447303
 31
0.0
  0
ARC
  5
14FC
330
18
100
AcDbEntity
  8
1
  6
Continuous
100
AcDbCircle
 10
596.5319024517516
 20
226.7236664469214
 30
0.0
 40
9.500008000000008
100
AcDbArc
 50
146.5254419295593
 51
153.4745445657495
  0
LINE
  5
14FD
330
18
100
AcDbEntity
  8
1
  6
Continuous
100
AcDbLine
 10
588.6076529416923
 20
231.9635540127371
 30
0.0
 11
595.9561514618112
 21
236.2062116114671
 31
0.0
  0
ARC
  5
14FE
330
18
100
AcDbEntity
  8
1
  6
Continuous
100
AcDbCircle
 10
596.5319024517516
 20
226.7236664469214
 30
0.0
 40
9.500008000000008
100
AcDbArc
 50
206.5254554342502
 51
213.4745580704395
  0
LINE
  5
14FF
330
18
100
AcDbEntity
  8
1
  6
Continuous
100
AcDbLine
 10
588.6076529416923
 20
221.4837788811059
 30
0.0
 11
595.9561514618112
 21
217.2411212823758
 31
0.0
  0
ARC
  5
1500
330
18
100
AcDbEntity
  8
1
  6
Continuous
100
AcDbCircle
 10
596.5319024517516
 20
226.7236664469214
 30
0.0
 40
9.500008000000008
100
AcDbArc
 50
266.5254419295608
 51
273.474558070439
  0
LINE
  5
1501
330
18
100
AcDbEntity
  8
1
  6
Continuous
100
AcDbLine
 10
605.0319019517512
 20
230.9663260491128
 30
0.0
 11
605.0319019517518
 21
222.4810068447303
 31
0.0
  0
LINE
  5
1502
330
18
100
AcDbEntity
  8
1
  6
Continuous
100
AcDbLine
 10
604.456151961811
 20
221.4837788811057
 30
0.0
 11
597.1076534416924
 21
217.2411212823758
 31
0.0
  0
ARC
  5
1503
330
18
100
AcDbEntity
  8
1
  6
Continuous
100
AcDbCircle
 10
596.5319024517516
 20
226.7236664469214
 30
0.0
 40
9.500008000000008
100
AcDbArc
 50
326.5254419295603
 51
333.4745445657496
  0
ARC
  5
1504
330
18
100
AcDbEntity
  8
1
  6
Continuous
100
AcDbCircle
 10
596.5319024517516
 20
226.7236664469214
 30
0.0
 40
9.500008000000008
100
AcDbArc
 50
26.52545543425034
 51
33.47455807043957
  0
ENDSEC
  0
SECTION
  2
OBJECTS
  0
DICTIONARY
  5
C
330
0
100
AcDbDictionary
281
     1
  3
ACAD_CIP_PREVIOUS_PRODUCT_INFO
350
1A85
  3
ACAD_COLOR
350
1A68
  3
ACAD_DETAILVIEWSTYLE
350
1A81
  3
ACAD_GROUP
350
D
  3
ACAD_LAYOUT
350
94
  3
ACAD_MATERIAL
350
1A36
  3
ACAD_MLEADERSTYLE
350
1A7D
  3
ACAD_MLINESTYLE
350
1B
  3
ACAD_PLOTSETTINGS
350
95
  3
ACAD_PLOTSTYLENAME
350
1A34
  3
ACAD_SCALELIST
350
1A6B
  3
ACAD_SECTIONVIEWSTYLE
350
1A7F
  3
ACAD_TABLESTYLE
350
1A69
  3
ACAD_VISUALSTYLE
350
1A4F
  3
ACDB_RECOMPOSE_DATA
350
1AA3
  3
AcDbVariableDictionary
350
1A96
  3
CONTENTDICTIONARY
350
3D
  3
DWGPROPS
350
1AA4
  0
DICTIONARY
  5
1A86
330
E
100
AcDbDictionary
280
     1
281
     1
  3
ADSK_XREC_LAYER_RECONCILED
360
1A87
  0
DICTIONARY
  5
1A88
330
4E
100
AcDbDictionary
280
     1
281
     1
  3
ADSK_XREC_LAYER_RECONCILED
360
1A89
  0
DICTIONARY
  5
1A8A
330
4F
100
AcDbDictionary
280
     1
281
     1
  3
ADSK_XREC_LAYER_RECONCILED
360
1A8B
  0
DICTIONARY
  5
1A8C
330
50
100
AcDbDictionary
280
     1
281
     1
  3
ADSK_XREC_LAYER_RECONCILED
360
1A8D
  0
DICTIONARY
  5
1A8E
330
51
100
AcDbDictionary
280
     1
281
     1
  3
ADSK_XREC_LAYER_RECONCILED
360
1A8F
  0
DICTIONARY
  5
1A90
330
52
100
AcDbDictionary
280
     1
281
     1
  3
ADSK_XREC_LAYER_RECONCILED
360
1A91
  0
DICTIONARY
  5
1A92
330
53
100
AcDbDictionary
280
     1
281
     1
  3
ADSK_XREC_LAYER_RECONCILED
360
1A93
  0
DICTIONARY
  5
1A94
330
54
100
AcDbDictionary
280
     1
281
     1
  3
ADSK_XREC_LAYER_RECONCILED
360
1A95
  0
DICTIONARY
  5
1A1B
330
18
100
AcDbDictionary
281
     1
  3
ACAD_LAYOUTSELFREF
350
1A30
  0
DICTIONARY
  5
1A19
330
15
100
AcDbDictionary
281
     1
  3
ACAD_LAYOUTSELFREF
350
1A2F
  0
XRECORD
  5
1A85
102
{ACAD_REACTORS
330
C
102
}
330
C
100
AcDbXrecord
280
     1
300
ACDLT
300
2014
300
ACDLT_F_S
  0
DICTIONARY
  5
1A68
102
{ACAD_REACTORS
330
C
102
}
330
C
100
AcDbDictionary
281
     1
  0
DICTIONARY
  5
1A81
102
{ACAD_REACTORS
330
C
102
}
330
C
100
AcDbDictionary
281
     1
  3
Imperial24
350
1A82
  0
DICTIONARY
  5
D
102
{ACAD_REACTORS
330
C
102
}
330
C
100
AcDbDictionary
281
     1
  0
DICTIONARY
  5
94
102
{ACAD_REACTORS
330
C
102
}
330
C
100
AcDbDictionary
281
     1
  3
Model
350
1A83
  3
レイアウト1
350
1A84
  0
DICTIONARY
  5
1A36
102
{ACAD_REACTORS
330
C
102
}
330
C
100
AcDbDictionary
281
     1
  3
ByBlock
350
1A3F
  3
ByLayer
350
1A37
  3
Global
350
1A47
  0
DICTIONARY
  5
1A7D
102
{ACAD_REACTORS
330
C
102
}
330
C
100
AcDbDictionary
281
     1
  3
Standard
350
1A7E
  0
DICTIONARY
  5
1B
102
{ACAD_REACTORS
330
C
102
}
330
C
100
AcDbDictionary
281
     1
  3
STANDARD
350
1C
  0
DICTIONARY
  5
95
102
{ACAD_REACTORS
330
C
102
}
330
C
100
AcDbDictionary
281
     1
  0
ACDBDICTIONARYWDFLT
  5
1A34
102
{ACAD_REACTORS
330
C
102
}
330
C
100
AcDbDictionary
281
     1
  3
Normal
350
1A35
100
AcDbDictionaryWithDefault
340
1A35
  0
DICTIONARY
  5
1A6B
102
{ACAD_REACTORS
330
C
102
}
330
C
100
AcDbDictionary
281
     1
  3
A0
350
1A6C
  3
A1
350
1A6D
  3
A2
350
1A6E
  3
A3
350
1A6F
  3
A4
350
1A70
  3
A5
350
1A71
  3
A6
350
1A72
  3
A7
350
1A73
  3
A8
350
1A74
  3
A9
350
1A75
  3
B0
350
1A76
  3
B1
350
1A77
  3
B2
350
1A78
  3
B3
350
1A79
  3
B4
350
1A7A
  3
B5
350
1A7B
  3
B6
350
1A7C
  0
DICTIONARY
  5
1A7F
102
{ACAD_REACTORS
330
C
102
}
330
C
100
AcDbDictionary
281
     1
  3
Imperial24
350
1A80
  0
DICTIONARY
  5
1A69
102
{ACAD_REACTORS
330
C
102
}
330
C
100
AcDbDictionary
281
     1
  3
Standard
350
1A6A
  0
DICTIONARY
  5
1A4F
102
{ACAD_REACTORS
330
C
102
}
330
C
100
AcDbDictionary
281
     1
  3
2dWireframe
350
1A55
  3
Basic
350
1A54
  3
Brighten
350
1A5B
  3
ColorChange
350
1A5F
  3
Conceptual
350
1A58
  3
Dim
350
1A5A
  3
EdgeColorOff
350
1A67
  3
Facepattern
350
1A5E
  3
Flat
350
1A50
  3
FlatWithEdges
350
1A51
  3
Gouraud
350
1A52
  3
GouraudWithEdges
350
1A53
  3
Hidden
350
1A57
  3
JitterOff
350
1A65
  3
Linepattern
350
1A5D
  3
OverhangOff
350
1A66
  3
Realistic
350
1A59
  3
Shaded
350
1A64
  3
Shaded with edges
350
1A63
  3
Shades of Gray
350
1A60
  3
Sketchy
350
1A61
  3
Thicken
350
1A5C
  3
Wireframe
350
1A56
  3
X-Ray
350
1A62
  0
XRECORD
  5
1AA3
102
{ACAD_REACTORS
330
C
102
}
330
C
100
AcDbXrecord
280
     1
 90
        1
330
1A6A
  0
DICTIONARY
  5
1A96
102
{ACAD_REACTORS
330
C
102
}
330
C
100
AcDbDictionary
281
     1
  3
CANNOSCALE
350
1A9B
  3
CMLEADERSTYLE
350
1A98
  3
CTABLESTYLE
350
1A97
  3
CVIEWDETAILSTYLE
350
1A99
  3
CVIEWSECTIONSTYLE
350
1A9A
  3
DIMASSOC
350
1A9E
  3
INDEXCTL
350
1A9D
  3
SORTENTS
350
1A9C
  3
XCLIPFRAME
350
1A9F
  0
DICTIONARY
  5
3D
102
{ACAD_REACTORS
330
C
102
}
330
C
100
AcDbDictionary
281
     1
  0
XRECORD
  5
1AA4
102
{ACAD_REACTORS
330
C
102
}
330
C
100
AcDbXrecord
280
     1
  1
DWGPROPS COOKIE
  2

  3

  4

  6

  7

  8
Yoshitsune
  9

300
=
301
=
302
=
303
=
304
=
305
=
306
=
307
=
308
=
309
=
 40
0.1574228356481482
 41
2452929.381745324
 42
2457192.690898958
  1

 90
        0
  0
XRECORD
  5
1A87
102
{ACAD_REACTORS
330
1A86
102
}
330
1A86
100
AcDbXrecord
280
     1
290
     1
  0
XRECORD
  5
1A89
102
{ACAD_REACTORS
330
1A88
102
}
330
1A88
100
AcDbXrecord
280
     1
290
     1
  0
XRECORD
  5
1A8B
102
{ACAD_REACTORS
330
1A8A
102
}
330
1A8A
100
AcDbXrecord
280
     1
290
     1
  0
XRECORD
  5
1A8D
102
{ACAD_REACTORS
330
1A8C
102
}
330
1A8C
100
AcDbXrecord
280
     1
290
     1
  0
XRECORD
  5
1A8F
102
{ACAD_REACTORS
330
1A8E
102
}
330
1A8E
100
AcDbXrecord
280
     1
290
     1
  0
XRECORD
  5
1A91
102
{ACAD_REACTORS
330
1A90
102
}
330
1A90
100
AcDbXrecord
280
     1
290
     1
  0
XRECORD
  5
1A93
102
{ACAD_REACTORS
330
1A92
102
}
330
1A92
100
AcDbXrecord
280
     1
290
     1
  0
XRECORD
  5
1A95
102
{ACAD_REACTORS
330
1A94
102
}
330
1A94
100
AcDbXrecord
280
     1
290
     1
  0
XRECORD
  5
1A30
102
{ACAD_REACTORS
330
1A1B
102
}
330
1A1B
100
AcDbXrecord
280
     1
340
18
  0
XRECORD
  5
1A2F
102
{ACAD_REACTORS
330
1A19
102
}
330
1A19
100
AcDbXrecord
280
     1
340
15
  0
ACDBDETAILVIEWSTYLE
  5
1A82
102
{ACAD_XDICTIONARY
360
1ADC
102
}
102
{ACAD_REACTORS
330
1A81
102
}
330
1A81
100
AcDbModelDocViewStyle
 70
     0
  3
Imperial24
290
     0
100
AcDbDetailViewStyle
 70
     0
 71
     0
 90
        3
 71
     1
340
F
 40
0.24
340
0
 40
0.24
300

 40
0.36
280
     3
 71
     2
340
14
 90
       25
 71
     3
340
F
 40
0.24
 90
        1
 40
0.75
 90
        1
300
%<\AcVar ViewType \f "%tc1">% %<\AcVar ViewDetailId>%\PSCALE %<\AcVar ViewScale \f "%sn">%
 71
     4
340
14
 90
       25
340
14
 90
       25
280
     0
  0
LAYOUT
  5
1A83
102
{ACAD_XDICTIONARY
360
1ADE
102
}
102
{ACAD_REACTORS
330
94
102
}
330
94
100
AcDbPlotSettings
  1

  2
Canon LBP9100C
  4

  6

 40
0.0
 41
0.0
 42
0.0
 43
0.0
 44
0.0
 45
0.0
 46
0.0
 47
0.0
 48
0.0
 49
0.0
140
0.0
141
0.0
142
1.0
143
1.0
 70
  1712
 72
     0
 73
     0
 74
     0
  7

 75
     0
147
1.0
148
0.0
149
0.0
100
AcDbLayout
  1
Model
 70
     1
 71
     0
 10
0.0
 20
0.0
 11
12.0
 21
9.0
 12
0.0
 22
0.0
 32
0.0
 14
0.0
 24
0.0
 34
0.0
 15
0.0
 25
0.0
 35
0.0
146
0.0
 13
0.0
 23
0.0
 33
0.0
 16
1.0
 26
0.0
 36
0.0
 17
0.0
 27
1.0
 37
0.0
 76
     0
330
18
331
1A2E
  0
LAYOUT
  5
1A84
102
{ACAD_XDICTIONARY
360
1AE0
102
}
102
{ACAD_REACTORS
330
94
102
}
330
94
100
AcDbPlotSettings
  1

  2
Canon LBP9100C
  4

  6

 40
0.0
 41
0.0
 42
0.0
 43
0.0
 44
0.0
 45
0.0
 46
0.0
 47
0.0
 48
0.0
 49
0.0
140
0.0
141
0.0
142
1.0
143
1.0
 70
   688
 72
     0
 73
     0
 74
     5
  7

 75
    16
147
1.0
148
0.0
149
0.0
100
AcDbLayout
  1
レイアウト1
 70
     1
 71
     1
 10
0.0
 20
0.0
 11
420.0
 21
297.0
 12
0.0
 22
0.0
 32
0.0
 14
1.000000000000000E+20
 24
1.000000000000000E+20
 34
1.000000000000000E+20
 15
-1.000000000000000E+20
 25
-1.000000000000000E+20
 35
-1.000000000000000E+20
146
0.0
 13
0.0
 23
0.0
 33
0.0
 16
1.0
 26
0.0
 36
0.0
 17
0.0
 27
1.0
 37
0.0
 76
     0
330
15
  0
MATERIAL
  5
1A3F
102
{ACAD_XDICTIONARY
360
1A40
102
}
102
{ACAD_REACTORS
330
1A36
102
}
330
1A36
100
AcDbMaterial
  1
ByBlock
 72
     0
 43
0.0208333333333333
 43
0.0
 43
0.0
 43
0.0
 43
0.0
 43
0.0208333333333333
 43
0.0
 43
0.0
 43
0.0
 43
0.0
 43
1.0
 43
0.0
 43
0.0
 43
0.0
 43
0.0
 43
1.0
 77
     0
 47
0.0208333333333333
 47
0.0
 47
0.0
 47
0.0
 47
0.0
 47
0.0208333333333333
 47
0.0
 47
0.0
 47
0.0
 47
0.0
 47
1.0
 47
0.0
 47
0.0
 47
0.0
 47
0.0
 47
1.0
171
     0
 49
0.0208333333333333
 49
0.0
 49
0.0
 49
0.0
 49
0.0
 49
0.0208333333333333
 49
0.0
 49
0.0
 49
0.0
 49
0.0
 49
1.0
 49
0.0
 49
0.0
 49
0.0
 49
0.0
 49
1.0
175
     0
142
0.0208333333333333
142
0.0
142
0.0
142
0.0
142
0.0
142
0.0208333333333333
142
0.0
142
0.0
142
0.0
142
0.0
142
1.0
142
0.0
142
0.0
142
0.0
142
0.0
142
1.0
179
     0
144
0.0208333333333333
144
0.0
144
0.0
144
0.0
144
0.0
144
0.0208333333333333
144
0.0
144
0.0
144
0.0
144
0.0
144
1.0
144
0.0
144
0.0
144
0.0
144
0.0
144
1.0
147
0.0208333333333333
147
0.0
147
0.0
147
0.0
147
0.0
147
0.0208333333333333
147
0.0
147
0.0
147
0.0
147
0.0
147
1.0
147
0.0
147
0.0
147
0.0
147
0.0
147
1.0
  0
MATERIAL
  5
1A37
102
{ACAD_XDICTIONARY
360
1A38
102
}
102
{ACAD_REACTORS
330
1A36
102
}
330
1A36
100
AcDbMaterial
  1
ByLayer
 72
     0
 43
0.0208333333333333
 43
0.0
 43
0.0
 43
0.0
 43
0.0
 43
0.0208333333333333
 43
0.0
 43
0.0
 43
0.0
 43
0.0
 43
1.0
 43
0.0
 43
0.0
 43
0.0
 43
0.0
 43
1.0
 77
     0
 47
0.0208333333333333
 47
0.0
 47
0.0
 47
0.0
 47
0.0
 47
0.0208333333333333
 47
0.0
 47
0.0
 47
0.0
 47
0.0
 47
1.0
 47
0.0
 47
0.0
 47
0.0
 47
0.0
 47
1.0
171
     0
 49
0.0208333333333333
 49
0.0
 49
0.0
 49
0.0
 49
0.0
 49
0.0208333333333333
 49
0.0
 49
0.0
 49
0.0
 49
0.0
 49
1.0
 49
0.0
 49
0.0
 49
0.0
 49
0.0
 49
1.0
175
     0
142
0.0208333333333333
142
0.0
142
0.0
142
0.0
142
0.0
142
0.0208333333333333
142
0.0
142
0.0
142
0.0
142
0.0
142
1.0
142
0.0
142
0.0
142
0.0
142
0.0
142
1.0
179
     0
144
0.0208333333333333
144
0.0
144
0.0
144
0.0
144
0.0
144
0.0208333333333333
144
0.0
144
0.0
144
0.0
144
0.0
144
1.0
144
0.0
144
0.0
144
0.0
144
0.0
144
1.0
147
0.0208333333333333
147
0.0
147
0.0
147
0.0
147
0.0
147
0.0208333333333333
147
0.0
147
0.0
147
0.0
147
0.0
147
1.0
147
0.0
147
0.0
147
0.0
147
0.0
147
1.0
  0
MATERIAL
  5
1A47
102
{ACAD_XDICTIONARY
360
1A48
102
}
102
{ACAD_REACTORS
330
1A36
102
}
330
1A36
100
AcDbMaterial
  1
Global
 72
     0
 43
0.0208333333333333
 43
0.0
 43
0.0
 43
0.0
 43
0.0
 43
0.0208333333333333
 43
0.0
 43
0.0
 43
0.0
 43
0.0
 43
1.0
 43
0.0
 43
0.0
 43
0.0
 43
0.0
 43
1.0
 77
     0
 47
0.0208333333333333
 47
0.0
 47
0.0
 47
0.0
 47
0.0
 47
0.0208333333333333
 47
0.0
 47
0.0
 47
0.0
 47
0.0
 47
1.0
 47
0.0
 47
0.0
 47
0.0
 47
0.0
 47
1.0
171
     0
 49
0.0208333333333333
 49
0.0
 49
0.0
 49
0.0
 49
0.0
 49
0.0208333333333333
 49
0.0
 49
0.0
 49
0.0
 49
0.0
 49
1.0
 49
0.0
 49
0.0
 49
0.0
 49
0.0
 49
1.0
175
     0
142
0.0208333333333333
142
0.0
142
0.0
142
0.0
142
0.0
142
0.0208333333333333
142
0.0
142
0.0
142
0.0
142
0.0
142
1.0
142
0.0
142
0.0
142
0.0
142
0.0
142
1.0
179
     0
144
0.0208333333333333
144
0.0
144
0.0
144
0.0
144
0.0
144
0.0208333333333333
144
0.0
144
0.0
144
0.0
144
0.0
144
1.0
144
0.0
144
0.0
144
0.0
144
0.0
144
1.0
147
0.0208333333333333
147
0.0
147
0.0
147
0.0
147
0.0
147
0.0208333333333333
147
0.0
147
0.0
147
0.0
147
0.0
147
1.0
147
0.0
147
0.0
147
0.0
147
0.0
147
1.0
  0
MLEADERSTYLE
  5
1A7E
102
{ACAD_REACTORS
330
1A7D
102
}
330
1A7D
100
AcDbMLeaderStyle
170
     2
171
     1
172
     0
 90
        2
 40
0.0
 41
0.0
173
     1
 91
-1056964608
340
12
 92
       -2
290
     1
 42
0.09
291
     1
 43
0.36
  3
Standard
 44
0.18
300

342
F
174
     1
178
     6
175
     1
176
     0
 93
-1056964608
 45
0.18
292
     0
297
     0
 46
0.18
 94
-1056964608
 47
1.0
 49
1.0
140
1.0
293
     1
141
0.0
294
     1
177
     0
142
1.0
295
     0
296
     0
143
0.125
1001
ACAD_MLEADERVER
1070
     2
  0
MLINESTYLE
  5
1C
102
{ACAD_REACTORS
330
1B
102
}
330
1B
100
AcDbMlineStyle
  2
STANDARD
 70
     0
  3

 62
   256
 51
90.0
 52
90.0
 71
     2
 49
0.5
 62
   256
  6
BYLAYER
 49
-0.5
 62
   256
  6
BYLAYER
  0
ACDBPLACEHOLDER
  5
1A35
102
{ACAD_REACTORS
330
1A34
102
}
330
1A34
  0
SCALE
  5
1A6C
102
{ACAD_REACTORS
330
1A6B
102
}
330
1A6B
100
AcDbScale
 70
     0
300
1:1
140
1.0
141
1.0
290
     1
  0
SCALE
  5
1A6D
102
{ACAD_REACTORS
330
1A6B
102
}
330
1A6B
100
AcDbScale
 70
     0
300
1/128" = 1'-0"
140
0.0078125
141
12.0
290
     0
  0
SCALE
  5
1A6E
102
{ACAD_REACTORS
330
1A6B
102
}
330
1A6B
100
AcDbScale
 70
     0
300
1/64" = 1'-0"
140
0.015625
141
12.0
290
     0
  0
SCALE
  5
1A6F
102
{ACAD_REACTORS
330
1A6B
102
}
330
1A6B
100
AcDbScale
 70
     0
300
1/32" = 1'-0"
140
0.03125
141
12.0
290
     0
  0
SCALE
  5
1A70
102
{ACAD_REACTORS
330
1A6B
102
}
330
1A6B
100
AcDbScale
 70
     0
300
1/16" = 1'-0"
140
0.0625
141
12.0
290
     0
  0
SCALE
  5
1A71
102
{ACAD_REACTORS
330
1A6B
102
}
330
1A6B
100
AcDbScale
 70
     0
300
3/32" = 1'-0"
140
0.09375
141
12.0
290
     0
  0
SCALE
  5
1A72
102
{ACAD_REACTORS
330
1A6B
102
}
330
1A6B
100
AcDbScale
 70
     0
300
1/8" = 1'-0"
140
0.125
141
12.0
290
     0
  0
SCALE
  5
1A73
102
{ACAD_REACTORS
330
1A6B
102
}
330
1A6B
100
AcDbScale
 70
     0
300
3/16" = 1'-0"
140
0.1875
141
12.0
290
     0
  0
SCALE
  5
1A74
102
{ACAD_REACTORS
330
1A6B
102
}
330
1A6B
100
AcDbScale
 70
     0
300
1/4" = 1'-0"
140
0.25
141
12.0
290
     0
  0
SCALE
  5
1A75
102
{ACAD_REACTORS
330
1A6B
102
}
330
1A6B
100
AcDbScale
 70
     0
300
3/8" = 1'-0"
140
0.375
141
12.0
290
     0
  0
SCALE
  5
1A76
102
{ACAD_REACTORS
330
1A6B
102
}
330
1A6B
100
AcDbScale
 70
     0
300
1/2" = 1'-0"
140
0.5
141
12.0
290
     0
  0
SCALE
  5
1A77
102
{ACAD_REACTORS
330
1A6B
102
}
330
1A6B
100
AcDbScale
 70
     0
300
3/4" = 1'-0"
140
0.75
141
12.0
290
     0
  0
SCALE
  5
1A78
102
{ACAD_REACTORS
330
1A6B
102
}
330
1A6B
100
AcDbScale
 70
     0
300
1" = 1'-0"
140
1.0
141
12.0
290
     0
  0
SCALE
  5
1A79
102
{ACAD_REACTORS
330
1A6B
102
}
330
1A6B
100
AcDbScale
 70
     0
300
1-1/2" = 1'-0"
140
1.5
141
12.0
290
     0
  0
SCALE
  5
1A7A
102
{ACAD_REACTORS
330
1A6B
102
}
330
1A6B
100
AcDbScale
 70
     0
300
3" = 1'-0"
140
3.0
141
12.0
290
     0
  0
SCALE
  5
1A7B
102
{ACAD_REACTORS
330
1A6B
102
}
330
1A6B
100
AcDbScale
 70
     0
300
6" = 1'-0"
140
6.0
141
12.0
290
     0
  0
SCALE
  5
1A7C
102
{ACAD_REACTORS
330
1A6B
102
}
330
1A6B
100
AcDbScale
 70
     0
300
1'-0" = 1'-0"
140
12.0
141
12.0
290
     0
  0
ACDBSECTIONVIEWSTYLE
  5
1A80
102
{ACAD_XDICTIONARY
360
1ADA
102
}
102
{ACAD_REACTORS
330
1A7F
102
}
330
1A7F
100
AcDbModelDocViewStyle
 70
     0
  3
Imperial24
290
     0
100
AcDbSectionViewStyle
 70
     0
 71
     0
 90
       78
 71
     1
340
F
 40
0.24
340
0
340
0
 40
0.24
300
I, O, Q, S, X, Z
 40
0.48
 90
        3
 40
0.18
 90
        1
 71
     2
340
14
 90
       25
340
14
 90
       50
 40
0.24
 40
0.0
 40
0.24
 71
     3
340
F
 40
0.24
 90
        1
 40
0.75
 90
        1
300
%<\AcVar ViewType \f "%tc1">% %<\AcVar ViewSectionStartId>%-%<\AcVar ViewSectionEndId>%\PSCALE %<\AcVar ViewScale \f "%sn">%
 71
     4
300
ANSI31
 40
1.0
 90
        0
290
     0
290
     0
 90
        6
 40
0.0
 40
1.570796326794896
 40
0.2617993877991494
 40
1.308996938995747
 40
-0.2617993877991494
 40
1.832595714594046
  0
TABLESTYLE
  5
1A6A
102
{ACAD_XDICTIONARY
360
1AA1
102
}
102
{ACAD_REACTORS
330
1A69
102
}
330
1A69
100
AcDbTableStyle
  3
Standard
 70
     0
 71
     0
 40
0.06
 41
0.06
280
     0
281
     0
  7
STANDARD
140
0.18
170
     2
 62
     0
 63
     7
283
     0
274
    -2
284
     1
 64
     0
275
    -2
285
     1
 65
     0
276
    -2
286
     1
 66
     0
277
    -2
287
     1
 67
     0
278
    -2
288
     1
 68
     0
279
    -2
289
     1
 69
     0
  7
STANDARD
140
0.25
170
     5
 62
     0
 63
     7
283
     0
274
    -2
284
     1
 64
     0
275
    -2
285
     1
 65
     0
276
    -2
286
     1
 66
     0
277
    -2
287
     1
 67
     0
278
    -2
288
     1
 68
     0
279
    -2
289
     1
 69
     0
  7
STANDARD
140
0.18
170
     5
 62
     0
 63
     7
283
     0
274
    -2
284
     1
 64
     0
275
    -2
285
     1
 65
     0
276
    -2
286
     1
 66
     0
277
    -2
287
     1
 67
     0
278
    -2
288
     1
 68
     0
279
    -2
289
     1
 69
     0
  0
VISUALSTYLE
  5
1A55
102
{ACAD_XDICTIONARY
360
1AB2
102
}
102
{ACAD_REACTORS
330
1A4F
102
}
330
1A4F
100
AcDbVisualStyle
  2
2dWireframe
 70
     4
 71
     0
 72
     2
 73
     0
 90
        0
 40
-0.6
 41
-30.0
 62
     5
 63
     7
 74
     1
 91
        4
 64
     7
 65
   257
 75
     1
175
     1
 42
1.0
 92
        0
 66
   257
 43
1.0
 76
     1
 77
     6
 78
     2
 67
     7
 79
     5
170
     0
171
     0
290
     0
174
     0
 93
        1
 44
0.0
173
     0
291
     0
 45
0.0
1001
ACAD
1000
AcDbSavedByObjectVersion
1070
     0
  0
VISUALSTYLE
  5
1A54
102
{ACAD_XDICTIONARY
360
1AB0
102
}
102
{ACAD_REACTORS
330
1A4F
102
}
330
1A4F
100
AcDbVisualStyle
  2
Basic
 70
     7
 71
     1
 72
     0
 73
     1
 90
        0
 40
-0.6
 41
-30.0
 62
     5
 63
     7
 74
     0
 91
        4
 64
     7
 65
   257
 75
     1
175
     1
 42
1.0
 92
        8
 66
     7
 43
1.0
 76
     1
 77
     6
 78
     2
 67
     7
 79
     5
170
     0
171
     0
290
     0
174
     0
 93
        1
 44
0.0
173
     0
291
     1
 45
0.0
1001
ACAD
1000
AcDbSavedByObjectVersion
1070
     0
  0
VISUALSTYLE
  5
1A5B
102
{ACAD_XDICTIONARY
360
1ABE
102
}
102
{ACAD_REACTORS
330
1A4F
102
}
330
1A4F
100
AcDbVisualStyle
  2
Brighten
 70
    12
 71
     2
 72
     2
 73
     0
 90
        0
 40
-0.6
 41
-30.0
 62
     5
 63
     7
 74
     1
 91
        4
 64
     7
 65
   257
 75
     1
175
     1
 42
1.0
 92
        8
 66
     7
 43
1.0
 76
     1
 77
     6
 78
     2
 67
     7
 79
     5
170
     0
171
     0
290
     0
174
     0
 93
        1
 44
50.0
173
     0
291
     1
 45
0.0
1001
ACAD
1000
AcDbSavedByObjectVersion
1070
     0
  0
VISUALSTYLE
  5
1A5F
102
{ACAD_XDICTIONARY
360
1AC6
102
}
102
{ACAD_REACTORS
330
1A4F
102
}
330
1A4F
100
AcDbVisualStyle
  2
ColorChange
 70
    16
 71
     2
 72
     2
 73
     3
 90
        0
 40
-0.6
 41
-30.0
 62
     5
 63
     8
 74
     1
 91
        4
 64
     7
 65
   257
 75
     1
175
     1
 42
1.0
 92
        8
 66
     8
 43
1.0
 76
     1
 77
     6
 78
     2
 67
     7
 79
     5
170
     0
171
     0
290
     0
174
     0
 93
        1
 44
0.0
173
     0
291
     1
 45
0.0
1001
ACAD
1000
AcDbSavedByObjectVersion
1070
     0
  0
VISUALSTYLE
  5
1A58
102
{ACAD_XDICTIONARY
360
1AB8
102
}
102
{ACAD_REACTORS
330
1A4F
102
}
330
1A4F
100
AcDbVisualStyle
  2
Conceptual
 70
     9
 71
     3
 72
     2
 73
     0
 90
        0
 40
-0.6
 41
-30.0
 62
     5
 63
     7
 74
     2
 91
        2
 64
     7
 65
   257
 75
     1
175
     1
 42
179.0
 92
        8
 66
     7
 43
1.0
 76
     1
 77
     6
 78
     2
 67
     7
 79
     3
170
     0
171
     0
290
     0
174
     0
 93
        1
 44
0.0
173
     0
291
     0
 45
0.0
1001
ACAD
1000
AcDbSavedByObjectVersion
1070
     0
  0
VISUALSTYLE
  5
1A5A
102
{ACAD_XDICTIONARY
360
1ABC
102
}
102
{ACAD_REACTORS
330
1A4F
102
}
330
1A4F
100
AcDbVisualStyle
  2
Dim
 70
    11
 71
     2
 72
     2
 73
     0
 90
        0
 40
-0.6
 41
-30.0
 62
     5
 63
     7
 74
     1
 91
        4
 64
     7
 65
   257
 75
     1
175
     1
 42
1.0
 92
        8
 66
     7
 43
1.0
 76
     1
 77
     6
 78
     2
 67
     7
 79
     5
170
     0
171
     0
290
     0
174
     0
 93
        1
 44
-50.0
173
     0
291
     1
 45
0.0
1001
ACAD
1000
AcDbSavedByObjectVersion
1070
     0
  0
VISUALSTYLE
  5
1A67
102
{ACAD_XDICTIONARY
360
1AD6
102
}
102
{ACAD_REACTORS
330
1A4F
102
}
330
1A4F
100
AcDbVisualStyle
  2
EdgeColorOff
 70
    22
 71
     2
 72
     2
 73
     0
 90
        0
 40
-0.6
 41
-30.0
 62
     5
 63
     7
 74
     1
 91
        4
 64
     7
 65
   257
 75
     1
175
     1
 42
1.0
 92
        8
 66
     7
 43
1.0
 76
     1
 77
     6
 78
     2
 67
     7
 79
     5
170
     0
171
     0
290
     0
174
     0
 93
        1
 44
0.0
173
     0
291
     1
 45
0.0
1001
ACAD
1000
AcDbSavedByObjectVersion
1070
     0
  0
VISUALSTYLE
  5
1A5E
102
{ACAD_XDICTIONARY
360
1AC4
102
}
102
{ACAD_REACTORS
330
1A4F
102
}
330
1A4F
100
AcDbVisualStyle
  2
Facepattern
 70
    15
 71
     2
 72
     2
 73
     0
 90
        0
 40
-0.6
 41
-30.0
 62
     5
 63
     7
 74
     1
 91
        4
 64
     7
 65
   257
 75
     1
175
     1
 42
1.0
 92
        8
 66
     7
 43
1.0
 76
     1
 77
     6
 78
     2
 67
     7
 79
     5
170
     0
171
     0
290
     0
174
     0
 93
        1
 44
0.0
173
     0
291
     1
 45
0.0
1001
ACAD
1000
AcDbSavedByObjectVersion
1070
     0
  0
VISUALSTYLE
  5
1A50
102
{ACAD_XDICTIONARY
360
1AA8
102
}
102
{ACAD_REACTORS
330
1A4F
102
}
330
1A4F
100
AcDbVisualStyle
  2
Flat
 70
     0
 71
     2
 72
     1
 73
     1
 90
        2
 40
-0.6
 41
30.0
 62
     5
 63
     7
 74
     0
 91
        0
 64
     7
 65
   257
 75
     1
175
     1
 42
1.0
 92
        8
 66
     7
 43
1.0
 76
     1
 77
     6
 78
     2
 67
     7
 79
     5
170
     0
171
     0
290
     0
174
     0
 93
       13
 44
0.0
173
     0
291
     1
 45
0.0
1001
ACAD
1000
AcDbSavedByObjectVersion
1070
     0
  0
VISUALSTYLE
  5
1A51
102
{ACAD_XDICTIONARY
360
1AAA
102
}
102
{ACAD_REACTORS
330
1A4F
102
}
330
1A4F
100
AcDbVisualStyle
  2
FlatWithEdges
 70
     1
 71
     2
 72
     1
 73
     1
 90
        2
 40
-0.6
 41
30.0
 62
     5
 63
     7
 74
     1
 91
        0
 64
     7
 65
   257
 75
     1
175
     1
 42
1.0
 92
        0
 66
   257
 43
1.0
 76
     1
 77
     6
 78
     2
 67
     7
 79
     5
170
     0
171
     0
290
     0
174
     0
 93
       13
 44
0.0
173
     0
291
     1
 45
0.0
1001
ACAD
1000
AcDbSavedByObjectVersion
1070
     0
  0
VISUALSTYLE
  5
1A52
102
{ACAD_XDICTIONARY
360
1AAC
102
}
102
{ACAD_REACTORS
330
1A4F
102
}
330
1A4F
100
AcDbVisualStyle
  2
Gouraud
 70
     2
 71
     2
 72
     2
 73
     1
 90
        2
 40
-0.6
 41
30.0
 62
     5
 63
     7
 74
     0
 91
        0
 64
     7
 65
   257
 75
     1
175
     1
 42
1.0
 92
        0
 66
     7
 43
1.0
 76
     1
 77
     6
 78
     2
 67
     7
 79
     5
170
     0
171
     0
290
     0
174
     0
 93
       13
 44
0.0
173
     0
291
     1
 45
0.0
1001
ACAD
1000
AcDbSavedByObjectVersion
1070
     0
  0
VISUALSTYLE
  5
1A53
102
{ACAD_XDICTIONARY
360
1AAE
102
}
102
{ACAD_REACTORS
330
1A4F
102
}
330
1A4F
100
AcDbVisualStyle
  2
GouraudWithEdges
 70
     3
 71
     2
 72
     2
 73
     1
 90
        2
 40
-0.6
 41
30.0
 62
     5
 63
     7
 74
     1
 91
        0
 64
     7
 65
   257
 75
     1
175
     1
 42
1.0
 92
        0
 66
   257
 43
1.0
 76
     1
 77
     6
 78
     2
 67
     7
 79
     5
170
     0
171
     0
290
     0
174
     0
 93
       13
 44
0.0
173
     0
291
     1
 45
0.0
1001
ACAD
1000
AcDbSavedByObjectVersion
1070
     0
  0
VISUALSTYLE
  5
1A57
102
{ACAD_XDICTIONARY
360
1AB6
102
}
102
{ACAD_REACTORS
330
1A4F
102
}
330
1A4F
100
AcDbVisualStyle
  2
Hidden
 70
     6
 71
     1
 72
     2
 73
     2
 90
        0
 40
-0.6
 41
-30.0
 62
     5
 63
     7
 74
     2
 91
        2
 64
     7
 65
   257
 75
     2
175
     1
 42
40.0
 92
        0
 66
   257
 43
1.0
 76
     1
 77
     6
 78
     2
 67
     7
 79
     3
170
     0
171
     0
290
     0
174
     0
 93
        1
 44
0.0
173
     0
291
     0
 45
0.0
1001
ACAD
1000
AcDbSavedByObjectVersion
1070
     0
  0
VISUALSTYLE
  5
1A65
102
{ACAD_XDICTIONARY
360
1AD2
102
}
102
{ACAD_REACTORS
330
1A4F
102
}
330
1A4F
100
AcDbVisualStyle
  2
JitterOff
 70
    20
 71
     2
 72
     2
 73
     0
 90
        0
 40
-0.6
 41
-30.0
 62
     5
 63
     7
 74
     1
 91
        4
 64
     7
 65
   257
 75
     1
175
     1
 42
1.0
 92
       10
 66
     7
 43
1.0
 76
     1
 77
     6
 78
     2
 67
     7
 79
     5
170
     0
171
     0
290
     0
174
     0
 93
        1
 44
0.0
173
     0
291
     1
 45
0.0
1001
ACAD
1000
AcDbSavedByObjectVersion
1070
     0
  0
VISUALSTYLE
  5
1A5D
102
{ACAD_XDICTIONARY
360
1AC2
102
}
102
{ACAD_REACTORS
330
1A4F
102
}
330
1A4F
100
AcDbVisualStyle
  2
Linepattern
 70
    14
 71
     2
 72
     2
 73
     0
 90
        0
 40
-0.6
 41
-30.0
 62
     5
 63
     7
 74
     1
 91
        4
 64
     7
 65
   257
 75
     7
175
     7
 42
1.0
 92
        8
 66
     7
 43
1.0
 76
     1
 77
     6
 78
     2
 67
     7
 79
     5
170
     0
171
     0
290
     0
174
     0
 93
        1
 44
0.0
173
     0
291
     1
 45
0.0
1001
ACAD
1000
AcDbSavedByObjectVersion
1070
     0
  0
VISUALSTYLE
  5
1A66
102
{ACAD_XDICTIONARY
360
1AD4
102
}
102
{ACAD_REACTORS
330
1A4F
102
}
330
1A4F
100
AcDbVisualStyle
  2
OverhangOff
 70
    21
 71
     2
 72
     2
 73
     0
 90
        0
 40
-0.6
 41
-30.0
 62
     5
 63
     7
 74
     1
 91
        4
 64
     7
 65
   257
 75
     1
175
     1
 42
1.0
 92
        9
 66
     7
 43
1.0
 76
     1
 77
     6
 78
     2
 67
     7
 79
     5
170
     0
171
     0
290
     0
174
     0
 93
        1
 44
0.0
173
     0
291
     1
 45
0.0
1001
ACAD
1000
AcDbSavedByObjectVersion
1070
     0
  0
VISUALSTYLE
  5
1A59
102
{ACAD_XDICTIONARY
360
1ABA
102
}
102
{ACAD_REACTORS
330
1A4F
102
}
330
1A4F
100
AcDbVisualStyle
  2
Realistic
 70
     8
 71
     2
 72
     3
 73
     0
 90
        2
 40
-0.6
 41
30.0
 62
     5
 63
     7
 74
     0
 91
        0
 64
     7
 65
   257
 75
     1
175
     1
 42
1.0
 92
        8
 66
   257
 43
1.0
 76
     1
 77
     6
 78
     2
 67
     7
 79
     3
170
     0
171
     0
290
     0
174
     0
 93
       13
 44
0.0
173
     0
291
     0
 45
0.0
1001
ACAD
1000
AcDbSavedByObjectVersion
1070
     0
  0
VISUALSTYLE
  5
1A64
102
{ACAD_XDICTIONARY
360
1AD0
102
}
102
{ACAD_REACTORS
330
1A4F
102
}
330
1A4F
100
AcDbVisualStyle
  2
Shaded
 70
    27
 71
     2
 72
     2
 73
     1
 90
        2
 40
-0.6
 41
30.0
 62
     5
 63
     7
 74
     0
 91
        4
 64
     7
 65
   257
 75
     1
175
     1
 42
1.0
 92
        8
 66
   257
 43
1.0
 76
     1
 77
     6
 78
     2
 67
     8
 79
     3
170
     0
171
     0
290
     0
174
     0
 93
        5
 44
0.0
173
     0
291
     0
 45
0.0
1001
ACAD
1000
AcDbSavedByObjectVersion
1070
     0
  0
VISUALSTYLE
  5
1A63
102
{ACAD_XDICTIONARY
360
1ACE
102
}
102
{ACAD_REACTORS
330
1A4F
102
}
330
1A4F
100
AcDbVisualStyle
  2
Shaded with edges
 70
    26
 71
     2
 72
     2
 73
     1
 90
        2
 40
-0.6
 41
30.0
 62
     5
 63
     7
 74
     1
 91
       10
 64
     7
 65
   257
 75
     2
175
     1
 42
1.0
 92
        8
 66
   257
 43
1.0
 76
     1
 77
     6
 78
     2
 67
     7
 79
     3
170
     0
171
     0
290
     0
174
     0
 93
        5
 44
0.0
173
     0
291
     0
 45
0.0
1001
ACAD
1000
AcDbSavedByObjectVersion
1070
     0
  0
VISUALSTYLE
  5
1A60
102
{ACAD_XDICTIONARY
360
1AC8
102
}
102
{ACAD_REACTORS
330
1A4F
102
}
330
1A4F
100
AcDbVisualStyle
  2
Shades of Gray
 70
    23
 71
     2
 72
     2
 73
     3
 90
        0
 40
-0.6
 41
-30.0
 62
     5
 63
     7
 74
     2
 91
        2
 64
     7
 65
     7
 75
     1
175
     1
 42
40.0
 92
        8
 66
     7
 43
1.0
 76
     1
 77
     6
 78
     2
 67
     7
 79
     3
170
     0
171
     0
290
     0
174
     0
 93
        1
 44
0.0
173
     0
291
     0
 45
0.0
1001
ACAD
1000
AcDbSavedByObjectVersion
1070
     0
  0
VISUALSTYLE
  5
1A61
102
{ACAD_XDICTIONARY
360
1ACA
102
}
102
{ACAD_REACTORS
330
1A4F
102
}
330
1A4F
100
AcDbVisualStyle
  2
Sketchy
 70
    24
 71
     1
 72
     2
 73
     2
 90
        0
 40
-0.6
 41
-30.0
 62
     5
 63
     7
 74
     2
 91
        2
 64
     7
 65
     7
 75
     1
175
     1
 42
40.0
 92
       11
 66
     7
 43
1.0
 76
     1
 77
     6
 78
     2
 67
     7
 79
     6
170
     0
171
     0
290
     0
174
     0
 93
        1
 44
0.0
173
     0
291
     0
 45
0.0
1001
ACAD
1000
AcDbSavedByObjectVersion
1070
     0
  0
VISUALSTYLE
  5
1A5C
102
{ACAD_XDICTIONARY
360
1AC0
102
}
102
{ACAD_REACTORS
330
1A4F
102
}
330
1A4F
100
AcDbVisualStyle
  2
Thicken
 70
    13
 71
     2
 72
     2
 73
     0
 90
        0
 40
-0.6
 41
-30.0
 62
     5
 63
     7
 74
     1
 91
        4
 64
     7
 65
   257
 75
     1
175
     1
 42
1.0
 92
       12
 66
     7
 43
1.0
 76
     1
 77
     6
 78
     2
 67
     7
 79
     5
170
     0
171
     0
290
     0
174
     0
 93
        1
 44
0.0
173
     0
291
     1
 45
0.0
1001
ACAD
1000
AcDbSavedByObjectVersion
1070
     0
  0
VISUALSTYLE
  5
1A56
102
{ACAD_XDICTIONARY
360
1AB4
102
}
102
{ACAD_REACTORS
330
1A4F
102
}
330
1A4F
100
AcDbVisualStyle
  2
Wireframe
 70
     5
 71
     0
 72
     2
 73
     0
 90
        0
 40
-0.6
 41
-30.0
 62
     5
 63
     7
 74
     1
 91
        4
 64
     7
 65
   257
 75
     1
175
     1
 42
1.0
 92
        0
 66
   257
 43
1.0
 76
     1
 77
     6
 78
     2
 67
     7
 79
     3
170
     0
171
     0
290
     0
174
     0
 93
        1
 44
0.0
173
     0
291
     0
 45
0.0
1001
ACAD
1000
AcDbSavedByObjectVersion
1070
     0
  0
VISUALSTYLE
  5
1A62
102
{ACAD_XDICTIONARY
360
1ACC
102
}
102
{ACAD_REACTORS
330
1A4F
102
}
330
1A4F
100
AcDbVisualStyle
  2
X-Ray
 70
    25
 71
     2
 72
     2
 73
     1
 90
        1
 40
0.5
 41
-30.0
 62
     5
 63
     7
 74
     1
 91
        0
 64
     7
 65
   257
 75
     1
175
     1
 42
1.0
 92
        8
 66
     7
 43
1.0
 76
     1
 77
     6
 78
     2
 67
     7
 79
     3
170
     0
171
     0
290
     0
174
     0
 93
       13
 44
0.0
173
     0
291
     0
 45
0.0
1001
ACAD
1000
AcDbSavedByObjectVersion
1070
     0
  0
DICTIONARYVAR
  5
1A9B
102
{ACAD_REACTORS
330
1A96
102
}
330
1A96
100
DictionaryVariables
280
     0
  1
1:1
  0
DICTIONARYVAR
  5
1A98
102
{ACAD_REACTORS
330
1A96
102
}
330
1A96
100
DictionaryVariables
280
     0
  1
STANDARD
  0
DICTIONARYVAR
  5
1A97
102
{ACAD_REACTORS
330
1A96
102
}
330
1A96
100
DictionaryVariables
280
     0
  1
STANDARD
  0
DICTIONARYVAR
  5
1A99
102
{ACAD_REACTORS
330
1A96
102
}
330
1A96
100
DictionaryVariables
280
     0
  1
Imperial24
  0
DICTIONARYVAR
  5
1A9A
102
{ACAD_REACTORS
330
1A96
102
}
330
1A96
100
DictionaryVariables
280
     0
  1
Imperial24
  0
DICTIONARYVAR
  5
1A9E
102
{ACAD_REACTORS
330
1A96
102
}
330
1A96
100
DictionaryVariables
280
     0
  1
1
  0
DICTIONARYVAR
  5
1A9D
102
{ACAD_REACTORS
330
1A96
102
}
330
1A96
100
DictionaryVariables
280
     0
  1
0
  0
DICTIONARYVAR
  5
1A9C
102
{ACAD_REACTORS
330
1A96
102
}
330
1A96
100
DictionaryVariables
280
     0
  1
127
  0
DICTIONARYVAR
  5
1A9F
102
{ACAD_REACTORS
330
1A96
102
}
330
1A96
100
DictionaryVariables
280
     0
  1
2
  0
DICTIONARY
  5
1ADC
330
1A82
100
AcDbDictionary
280
     1
281
     1
  3
ACAD_XREC_ROUNDTRIP
360
1ADD
  0
DICTIONARY
  5
1ADE
330
1A83
100
AcDbDictionary
280
     1
281
     1
  3
ACAD_XREC_ROUNDTRIP
360
1ADF
  0
DICTIONARY
  5
1AE0
330
1A84
100
AcDbDictionary
280
     1
281
     1
  3
ACAD_XREC_ROUNDTRIP
360
1AE1
  0
DICTIONARY
  5
1A40
330
1A3F
100
AcDbDictionary
280
     1
281
     1
  3
ACAD_XREC_ROUNDTRIP
360
1AA6
  3
BUMPTILE
360
1A42
  3
DIFFUSETILE
360
1A41
  3
OPACITYTILE
360
1A45
  3
REFLECTIONTILE
360
1A44
  3
REFRACTIONTILE
360
1A46
  3
SPECULARTILE
360
1A43
  0
DICTIONARY
  5
1A38
330
1A37
100
AcDbDictionary
280
     1
281
     1
  3
ACAD_XREC_ROUNDTRIP
360
1AA5
  3
BUMPTILE
360
1A3A
  3
DIFFUSETILE
360
1A39
  3
OPACITYTILE
360
1A3D
  3
REFLECTIONTILE
360
1A3C
  3
REFRACTIONTILE
360
1A3E
  3
SPECULARTILE
360
1A3B
  0
DICTIONARY
  5
1A48
330
1A47
100
AcDbDictionary
280
     1
281
     1
  3
ACAD_XREC_ROUNDTRIP
360
1AA7
  3
BUMPTILE
360
1A4A
  3
DIFFUSETILE
360
1A49
  3
OPACITYTILE
360
1A4D
  3
REFLECTIONTILE
360
1A4C
  3
REFRACTIONTILE
360
1A4E
  3
SPECULARTILE
360
1A4B
  0
DICTIONARY
  5
1ADA
330
1A80
100
AcDbDictionary
280
     1
281
     1
  3
ACAD_XREC_ROUNDTRIP
360
1ADB
  0
DICTIONARY
  5
1AA1
330
1A6A
100
AcDbDictionary
280
     1
281
     1
  3
ACAD_ROUNDTRIP_2008_TABLESTYLE_CELLSTYLEMAP
360
1AA2
  3
ACAD_XREC_ROUNDTRIP
360
1AD8
  0
DICTIONARY
  5
1AB2
330
1A55
100
AcDbDictionary
280
     1
281
     1
  3
ACAD_XREC_ROUNDTRIP
360
1AB3
  0
DICTIONARY
  5
1AB0
330
1A54
100
AcDbDictionary
280
     1
281
     1
  3
ACAD_XREC_ROUNDTRIP
360
1AB1
  0
DICTIONARY
  5
1ABE
330
1A5B
100
AcDbDictionary
280
     1
281
     1
  3
ACAD_XREC_ROUNDTRIP
360
1ABF
  0
DICTIONARY
  5
1AC6
330
1A5F
100
AcDbDictionary
280
     1
281
     1
  3
ACAD_XREC_ROUNDTRIP
360
1AC7
  0
DICTIONARY
  5
1AB8
330
1A58
100
AcDbDictionary
280
     1
281
     1
  3
ACAD_XREC_ROUNDTRIP
360
1AB9
  0
DICTIONARY
  5
1ABC
330
1A5A
100
AcDbDictionary
280
     1
281
     1
  3
ACAD_XREC_ROUNDTRIP
360
1ABD
  0
DICTIONARY
  5
1AD6
330
1A67
100
AcDbDictionary
280
     1
281
     1
  3
ACAD_XREC_ROUNDTRIP
360
1AD7
  0
DICTIONARY
  5
1AC4
330
1A5E
100
AcDbDictionary
280
     1
281
     1
  3
ACAD_XREC_ROUNDTRIP
360
1AC5
  0
DICTIONARY
  5
1AA8
330
1A50
100
AcDbDictionary
280
     1
281
     1
  3
ACAD_XREC_ROUNDTRIP
360
1AA9
  0
DICTIONARY
  5
1AAA
330
1A51
100
AcDbDictionary
280
     1
281
     1
  3
ACAD_XREC_ROUNDTRIP
360
1AAB
  0
DICTIONARY
  5
1AAC
330
1A52
100
AcDbDictionary
280
     1
281
     1
  3
ACAD_XREC_ROUNDTRIP
360
1AAD
  0
DICTIONARY
  5
1AAE
330
1A53
100
AcDbDictionary
280
     1
281
     1
  3
ACAD_XREC_ROUNDTRIP
360
1AAF
  0
DICTIONARY
  5
1AB6
330
1A57
100
AcDbDictionary
280
     1
281
     1
  3
ACAD_XREC_ROUNDTRIP
360
1AB7
  0
DICTIONARY
  5
1AD2
330
1A65
100
AcDbDictionary
280
     1
281
     1
  3
ACAD_XREC_ROUNDTRIP
360
1AD3
  0
DICTIONARY
  5
1AC2
330
1A5D
100
AcDbDictionary
280
     1
281
     1
  3
ACAD_XREC_ROUNDTRIP
360
1AC3
  0
DICTIONARY
  5
1AD4
330
1A66
100
AcDbDictionary
280
     1
281
     1
  3
ACAD_XREC_ROUNDTRIP
360
1AD5
  0
DICTIONARY
  5
1ABA
330
1A59
100
AcDbDictionary
280
     1
281
     1
  3
ACAD_XREC_ROUNDTRIP
360
1ABB
  0
DICTIONARY
  5
1AD0
330
1A64
100
AcDbDictionary
280
     1
281
     1
  3
ACAD_XREC_ROUNDTRIP
360
1AD1
  0
DICTIONARY
  5
1ACE
330
1A63
100
AcDbDictionary
280
     1
281
     1
  3
ACAD_XREC_ROUNDTRIP
360
1ACF
  0
DICTIONARY
  5
1AC8
330
1A60
100
AcDbDictionary
280
     1
281
     1
  3
ACAD_XREC_ROUNDTRIP
360
1AC9
  0
DICTIONARY
  5
1ACA
330
1A61
100
AcDbDictionary
280
     1
281
     1
  3
ACAD_XREC_ROUNDTRIP
360
1ACB
  0
DICTIONARY
  5
1AC0
330
1A5C
100
AcDbDictionary
280
     1
281
     1
  3
ACAD_XREC_ROUNDTRIP
360
1AC1
  0
DICTIONARY
  5
1AB4
330
1A56
100
AcDbDictionary
280
     1
281
     1
  3
ACAD_XREC_ROUNDTRIP
360
1AB5
  0
DICTIONARY
  5
1ACC
330
1A62
100
AcDbDictionary
280
     1
281
     1
  3
ACAD_XREC_ROUNDTRIP
360
1ACD
  0
XRECORD
  5
1ADD
102
{ACAD_REACTORS
330
1ADC
102
}
330
1ADC
100
AcDbXrecord
280
     1
102
DISPLAYNAME
  1
Imperial24
102
FLAGS
 90
        0
  0
XRECORD
  5
1ADF
102
{ACAD_REACTORS
330
1ADE
102
}
330
1ADE
100
AcDbXrecord
280
     1
102
SHADEPLOT
 70
     0
102
SHADEPLOTRESLEVEL
 70
     2
102
SHADEPLOTCUSTOMDPI
 70
   300
  0
XRECORD
  5
1AE1
102
{ACAD_REACTORS
330
1AE0
102
}
330
1AE0
100
AcDbXrecord
280
     1
102
SHADEPLOT
 70
     0
102
SHADEPLOTRESLEVEL
 70
     2
102
SHADEPLOTCUSTOMDPI
 70
   300
  0
XRECORD
  5
1AA6
102
{ACAD_REACTORS
330
1A40
102
}
330
1A40
100
AcDbXrecord
280
     1
102
MATERIAL
148
0.0
149
0.0
149
0.0
 93
        0
 94
      127
282
     0
 72
     0
 77
     0
171
     0
175
     0
179
     0
273
     0
  0
XRECORD
  5
1A42
102
{ACAD_REACTORS
330
1A40
102
}
330
1A40
100
AcDbXrecord
280
     1
270
     1
271
     1
  0
XRECORD
  5
1A41
102
{ACAD_REACTORS
330
1A40
102
}
330
1A40
100
AcDbXrecord
280
     1
270
     1
271
     1
  0
XRECORD
  5
1A45
102
{ACAD_REACTORS
330
1A40
102
}
330
1A40
100
AcDbXrecord
280
     1
270
     1
271
     1
  0
XRECORD
  5
1A44
102
{ACAD_REACTORS
330
1A40
102
}
330
1A40
100
AcDbXrecord
280
     1
270
     1
271
     1
  0
XRECORD
  5
1A46
102
{ACAD_REACTORS
330
1A40
102
}
330
1A40
100
AcDbXrecord
280
     1
270
     1
271
     1
  0
XRECORD
  5
1A43
102
{ACAD_REACTORS
330
1A40
102
}
330
1A40
100
AcDbXrecord
280
     1
270
     1
271
     1
  0
XRECORD
  5
1AA5
102
{ACAD_REACTORS
330
1A38
102
}
330
1A38
100
AcDbXrecord
280
     1
102
MATERIAL
148
0.0
149
0.0
149
0.0
 93
        0
 94
      127
282
     0
 72
     0
 77
     0
171
     0
175
     0
179
     0
273
     0
  0
XRECORD
  5
1A3A
102
{ACAD_REACTORS
330
1A38
102
}
330
1A38
100
AcDbXrecord
280
     1
270
     1
271
     1
  0
XRECORD
  5
1A39
102
{ACAD_REACTORS
330
1A38
102
}
330
1A38
100
AcDbXrecord
280
     1
270
     1
271
     1
  0
XRECORD
  5
1A3D
102
{ACAD_REACTORS
330
1A38
102
}
330
1A38
100
AcDbXrecord
280
     1
270
     1
271
     1
  0
XRECORD
  5
1A3C
102
{ACAD_REACTORS
330
1A38
102
}
330
1A38
100
AcDbXrecord
280
     1
270
     1
271
     1
  0
XRECORD
  5
1A3E
102
{ACAD_REACTORS
330
1A38
102
}
330
1A38
100
AcDbXrecord
280
     1
270
     1
271
     1
  0
XRECORD
  5
1A3B
102
{ACAD_REACTORS
330
1A38
102
}
330
1A38
100
AcDbXrecord
280
     1
270
     1
271
     1
  0
XRECORD
  5
1AA7
102
{ACAD_REACTORS
330
1A48
102
}
330
1A48
100
AcDbXrecord
280
     1
102
MATERIAL
148
0.0
149
0.0
149
0.0
 93
        0
 94
      127
282
     0
 72
     0
 77
     0
171
     0
175
     0
179
     0
273
     0
  0
XRECORD
  5
1A4A
102
{ACAD_REACTORS
330
1A48
102
}
330
1A48
100
AcDbXrecord
280
     1
270
     1
271
     1
  0
XRECORD
  5
1A49
102
{ACAD_REACTORS
330
1A48
102
}
330
1A48
100
AcDbXrecord
280
     1
270
     1
271
     1
  0
XRECORD
  5
1A4D
102
{ACAD_REACTORS
330
1A48
102
}
330
1A48
100
AcDbXrecord
280
     1
270
     1
271
     1
  0
XRECORD
  5
1A4C
102
{ACAD_REACTORS
330
1A48
102
}
330
1A48
100
AcDbXrecord
280
     1
270
     1
271
     1
  0
XRECORD
  5
1A4E
102
{ACAD_REACTORS
330
1A48
102
}
330
1A48
100
AcDbXrecord
280
     1
270
     1
271
     1
  0
XRECORD
  5
1A4B
102
{ACAD_REACTORS
330
1A48
102
}
330
1A48
100
AcDbXrecord
280
     1
270
     1
271
     1
  0
XRECORD
  5
1ADB
102
{ACAD_REACTORS
330
1ADA
102
}
330
1ADA
100
AcDbXrecord
280
     1
102
DISPLAYNAME
  1
Imperial24
102
FLAGS
 90
        0
  0
CELLSTYLEMAP
  5
1AA2
102
{ACAD_REACTORS
330
1AA1
102
}
330
1AA1
100
AcDbCellStyleMap
 90
        3
300
CELLSTYLE
  1
TABLEFORMAT_BEGIN
 90
        5
170
     1
 91
        0
 92
    32768
 62
   257
 93
        1
300
CONTENTFORMAT
  1
CONTENTFORMAT_BEGIN
 90
        0
 91
        0
 92
      512
 93
        0
300

 40
0.0
140
1.0
 94
        5
 62
     0
340
F
144
0.25
309
CONTENTFORMAT_END
171
     0
 94
        0
309
TABLEFORMAT_END
  1
CELLSTYLE_BEGIN
 90
        1
 91
        1
300
_TITLE
309
CELLSTYLE_END
300
CELLSTYLE
  1
TABLEFORMAT_BEGIN
 90
        5
170
     1
 91
        0
 92
        0
 62
   257
 93
        1
300
CONTENTFORMAT
  1
CONTENTFORMAT_BEGIN
 90
        0
 91
        0
 92
      512
 93
        0
300

 40
0.0
140
1.0
 94
        5
 62
     0
340
F
144
0.18
309
CONTENTFORMAT_END
171
     0
 94
        0
309
TABLEFORMAT_END
  1
CELLSTYLE_BEGIN
 90
        2
 91
        1
300
_HEADER
309
CELLSTYLE_END
300
CELLSTYLE
  1
TABLEFORMAT_BEGIN
 90
        5
170
     1
 91
        0
 92
        0
 62
   257
 93
        1
300
CONTENTFORMAT
  1
CONTENTFORMAT_BEGIN
 90
        0
 91
        0
 92
      512
 93
        0
300

 40
0.0
140
1.0
 94
        2
 62
     0
340
F
144
0.18
309
CONTENTFORMAT_END
171
     0
 94
        0
309
TABLEFORMAT_END
  1
CELLSTYLE_BEGIN
 90
        3
 91
        2
300
_DATA
309
CELLSTYLE_END
  0
XRECORD
  5
1AD8
102
{ACAD_REACTORS
330
1AA1
102
}
330
1AA1
100
AcDbXrecord
280
     1
102
ACAD_ROUNDTRIP_PRE2007_TABLESTYLE
 90
      512
 91
        0
  1

 92
      512
 93
        0
  2

 94
      512
 95
        0
  3

  0
XRECORD
  5
1AB3
102
{ACAD_REACTORS
330
1AB2
102
}
330
1AB2
100
AcDbXrecord
280
     1
102
RTVSPost2010Prop28
280
     1
102
RTVSPost2010PropOp28
 70
     1
102
RTVSPost2010Prop29
280
     1
102
RTVSPost2010PropOp29
 70
     1
102
RTVSPost2010Prop30
280
     0
102
RTVSPost2010PropOp30
 70
     1
102
RTVSPost2010Prop31
280
     0
102
RTVSPost2010PropOp31
 70
     1
102
RTVSPost2010Prop32
280
     0
102
RTVSPost2010PropOp32
 70
     1
102
RTVSPost2010Prop33
280
     0
102
RTVSPost2010PropOp33
 70
     1
102
RTVSPost2010Prop34
280
     0
102
RTVSPost2010PropOp34
 70
     1
102
RTVSPost2010Prop35
280
     0
102
RTVSPost2010PropOp35
 70
     1
102
RTVSPost2010Prop36
280
     0
102
RTVSPost2010PropOp36
 70
     1
102
RTVSPost2010Prop37
 90
       50
102
RTVSPost2010PropOp37
 70
     1
102
RTVSPost2010Prop38
140
0.0
102
RTVSPost2010PropOp38
 70
     1
102
RTVSPost2010Prop39
140
1.0
102
RTVSPost2010PropOp39
 70
     1
102
RTVSPost2010Prop40
 90
        0
102
RTVSPost2010PropOp40
 70
     1
102
RTVSPost2010Prop41ColorIndex
 90
       18
102
RTVSPost2010Prop41ColorRGB
 90
        0
102
RTVSPost2010PropOp41
 70
     1
102
RTVSPost2010Prop42
 90
       50
102
RTVSPost2010PropOp42
 70
     1
102
RTVSPost2010Prop43
 90
        3
102
RTVSPost2010PropOp43
 70
     1
102
RTVSPost2010Prop44ColorIndex
 90
        5
102
RTVSPost2010Prop44ColorRGB
 90
      255
102
RTVSPost2010PropOp44
 70
     1
102
RTVSPost2010Prop45
280
     0
102
RTVSPost2010PropOp45
 70
     1
102
RTVSPost2010Prop46
 90
       50
102
RTVSPost2010PropOp46
 70
     1
102
RTVSPost2010Prop47
 90
       50
102
RTVSPost2010PropOp47
 70
     1
102
RTVSPost2010Prop48
 90
       50
102
RTVSPost2010PropOp48
 70
     1
102
RTVSPost2010Prop49
280
     0
102
RTVSPost2010PropOp49
 70
     1
102
RTVSPost2010Prop50
 90
       50
102
RTVSPost2010PropOp50
 70
     1
102
RTVSPost2010Prop51ColorIndex
 90
      256
102
RTVSPost2010Prop51ColorRGB
 90
-16777216
102
RTVSPost2010PropOp51
 70
     0
102
RTVSPost2010Prop52
140
1.0
102
RTVSPost2010PropOp52
 70
     0
102
RTVSPost2010Prop53
 90
        2
102
RTVSPost2010PropOp53
 70
     1
102
RTVSPost2010Prop54
  1
strokes_ogs.tif
102
RTVSPost2010PropOp54
 70
     1
102
RTVSPost2010Prop55
280
     0
102
RTVSPost2010PropOp55
 70
     1
102
RTVSPost2010Prop56
140
1.0
102
RTVSPost2010PropOp56
 70
     1
102
RTVSPost2010Prop57
140
1.0
102
RTVSPost2010PropOp57
 70
     1
102
RTVSPropertyOp0
 70
     1
102
RTVSPropertyOp1
 70
     1
102
RTVSPropertyOp2
 70
     1
102
RTVSPropertyOp3
 70
     1
102
RTVSPropertyOp4
 70
     1
102
RTVSPropertyOp5
 70
     1
102
RTVSPropertyOp6
 70
     1
102
RTVSPropertyOp7
 70
     1
102
RTVSPropertyOp8
 70
     1
102
RTVSPropertyOp9
 70
     1
102
RTVSPropertyOp10
 70
     1
102
RTVSPropertyOp11
 70
     1
102
RTVSPropertyOp12
 70
     1
102
RTVSPropertyOp13
 70
     1
102
RTVSPropertyOp14
 70
     1
102
RTVSPropertyOp15
 70
     1
102
RTVSPropertyOp16
 70
     1
102
RTVSPropertyOp17
 70
     1
102
RTVSPropertyOp18
 70
     1
102
RTVSPropertyOp19
 70
     1
102
RTVSPropertyOp20
 70
     1
102
RTVSPropertyOp21
 70
     1
102
RTVSPropertyOp22
 70
     1
102
RTVSPropertyOp23
 70
     1
102
RTVSPropertyOp24
 70
     1
102
RTVSPropertyOp25
 70
     1
102
RTVSPropertyOp26
 70
     1
102
RTVSPropertyOp27
 70
     1
102
RTVSPropertyOp28
 70
     1
102
RTVSPropertyOp29
 70
     1
102
RTVSPropertyOp30
 70
     1
102
RTVSPropertyOp31
 70
     1
102
RTVSPropertyOp32
 70
     1
102
RTVSPropertyOp33
 70
     1
102
RTVSPropertyOp34
 70
     1
102
RTVSPropertyOp35
 70
     1
102
RTVSPropertyOp36
 70
     1
102
RTVSPropertyOp37
 70
     1
102
RTVSPropertyOp38
 70
     1
102
RTVSPropertyOp39
 70
     1
102
RTVSPropertyOp40
 70
     1
102
RTVSPropertyOp41
 70
     1
102
RTVSPropertyOp42
 70
     1
102
RTVSPropertyOp43
 70
     1
102
RTVSPropertyOp44
 70
     1
102
RTVSPropertyOp45
 70
     1
102
RTVSPropertyOp46
 70
     1
102
RTVSPropertyOp47
 70
     1
102
RTVSPropertyOp48
 70
     1
102
RTVSPropertyOp49
 70
     1
102
RTVSPropertyOp50
 70
     1
102
RTVSPropertyOp51
 70
     0
102
RTVSPropertyOp52
 70
     0
102
RTVSPropertyOp53
 70
     1
102
RTVSPropertyOp54
 70
     1
102
RTVSPropertyOp55
 70
     1
102
RTVSPropertyOp56
 70
     1
102
RTVSPropertyOp57
 70
     1
102
RTVSPropertyOp58
 70
     1
102
RTVSPropertyOp59
 70
     1
102
RTVSPropertyOp60
 70
     1
102
RTVSPropertyOp61
 70
     1
102
RTVSPropertyOp62
 70
     1
  0
XRECORD
  5
1AB1
102
{ACAD_REACTORS
330
1AB0
102
}
330
1AB0
100
AcDbXrecord
280
     1
102
RTVSPost2010Prop28
280
     0
102
RTVSPost2010PropOp28
 70
     1
102
RTVSPost2010Prop29
280
     1
102
RTVSPost2010PropOp29
 70
     1
102
RTVSPost2010Prop30
280
     1
102
RTVSPost2010PropOp30
 70
     1
102
RTVSPost2010Prop31
280
     0
102
RTVSPost2010PropOp31
 70
     1
102
RTVSPost2010Prop32
280
     0
102
RTVSPost2010PropOp32
 70
     1
102
RTVSPost2010Prop33
280
     0
102
RTVSPost2010PropOp33
 70
     1
102
RTVSPost2010Prop34
280
     0
102
RTVSPost2010PropOp34
 70
     1
102
RTVSPost2010Prop35
280
     0
102
RTVSPost2010PropOp35
 70
     1
102
RTVSPost2010Prop36
280
     0
102
RTVSPost2010PropOp36
 70
     1
102
RTVSPost2010Prop37
 90
       50
102
RTVSPost2010PropOp37
 70
     1
102
RTVSPost2010Prop38
140
0.0
102
RTVSPost2010PropOp38
 70
     1
102
RTVSPost2010Prop39
140
1.0
102
RTVSPost2010PropOp39
 70
     1
102
RTVSPost2010Prop40
 90
        0
102
RTVSPost2010PropOp40
 70
     1
102
RTVSPost2010Prop41ColorIndex
 90
       18
102
RTVSPost2010Prop41ColorRGB
 90
        0
102
RTVSPost2010PropOp41
 70
     1
102
RTVSPost2010Prop42
 90
       50
102
RTVSPost2010PropOp42
 70
     1
102
RTVSPost2010Prop43
 90
        3
102
RTVSPost2010PropOp43
 70
     1
102
RTVSPost2010Prop44ColorIndex
 90
        5
102
RTVSPost2010Prop44ColorRGB
 90
      255
102
RTVSPost2010PropOp44
 70
     1
102
RTVSPost2010Prop45
280
     0
102
RTVSPost2010PropOp45
 70
     1
102
RTVSPost2010Prop46
 90
       50
102
RTVSPost2010PropOp46
 70
     1
102
RTVSPost2010Prop47
 90
       50
102
RTVSPost2010PropOp47
 70
     1
102
RTVSPost2010Prop48
 90
       50
102
RTVSPost2010PropOp48
 70
     1
102
RTVSPost2010Prop49
280
     0
102
RTVSPost2010PropOp49
 70
     1
102
RTVSPost2010Prop50
 90
       50
102
RTVSPost2010PropOp50
 70
     1
102
RTVSPost2010Prop51ColorIndex
 90
      256
102
RTVSPost2010Prop51ColorRGB
 90
-16777216
102
RTVSPost2010PropOp51
 70
     0
102
RTVSPost2010Prop52
140
1.0
102
RTVSPost2010PropOp52
 70
     0
102
RTVSPost2010Prop53
 90
        2
102
RTVSPost2010PropOp53
 70
     1
102
RTVSPost2010Prop54
  1
strokes_ogs.tif
102
RTVSPost2010PropOp54
 70
     1
102
RTVSPost2010Prop55
280
     0
102
RTVSPost2010PropOp55
 70
     1
102
RTVSPost2010Prop56
140
1.0
102
RTVSPost2010PropOp56
 70
     1
102
RTVSPost2010Prop57
140
1.0
102
RTVSPost2010PropOp57
 70
     1
102
RTVSPropertyOp0
 70
     1
102
RTVSPropertyOp1
 70
     1
102
RTVSPropertyOp2
 70
     1
102
RTVSPropertyOp3
 70
     1
102
RTVSPropertyOp4
 70
     1
102
RTVSPropertyOp5
 70
     1
102
RTVSPropertyOp6
 70
     1
102
RTVSPropertyOp7
 70
     1
102
RTVSPropertyOp8
 70
     1
102
RTVSPropertyOp9
 70
     1
102
RTVSPropertyOp10
 70
     1
102
RTVSPropertyOp11
 70
     1
102
RTVSPropertyOp12
 70
     1
102
RTVSPropertyOp13
 70
     1
102
RTVSPropertyOp14
 70
     1
102
RTVSPropertyOp15
 70
     1
102
RTVSPropertyOp16
 70
     1
102
RTVSPropertyOp17
 70
     1
102
RTVSPropertyOp18
 70
     1
102
RTVSPropertyOp19
 70
     1
102
RTVSPropertyOp20
 70
     1
102
RTVSPropertyOp21
 70
     1
102
RTVSPropertyOp22
 70
     1
102
RTVSPropertyOp23
 70
     1
102
RTVSPropertyOp24
 70
     1
102
RTVSPropertyOp25
 70
     1
102
RTVSPropertyOp26
 70
     1
102
RTVSPropertyOp27
 70
     1
102
RTVSPropertyOp28
 70
     1
102
RTVSPropertyOp29
 70
     1
102
RTVSPropertyOp30
 70
     1
102
RTVSPropertyOp31
 70
     1
102
RTVSPropertyOp32
 70
     1
102
RTVSPropertyOp33
 70
     1
102
RTVSPropertyOp34
 70
     1
102
RTVSPropertyOp35
 70
     1
102
RTVSPropertyOp36
 70
     1
102
RTVSPropertyOp37
 70
     1
102
RTVSPropertyOp38
 70
     1
102
RTVSPropertyOp39
 70
     1
102
RTVSPropertyOp40
 70
     1
102
RTVSPropertyOp41
 70
     1
102
RTVSPropertyOp42
 70
     1
102
RTVSPropertyOp43
 70
     1
102
RTVSPropertyOp44
 70
     1
102
RTVSPropertyOp45
 70
     1
102
RTVSPropertyOp46
 70
     1
102
RTVSPropertyOp47
 70
     1
102
RTVSPropertyOp48
 70
     1
102
RTVSPropertyOp49
 70
     1
102
RTVSPropertyOp50
 70
     1
102
RTVSPropertyOp51
 70
     0
102
RTVSPropertyOp52
 70
     0
102
RTVSPropertyOp53
 70
     1
102
RTVSPropertyOp54
 70
     1
102
RTVSPropertyOp55
 70
     1
102
RTVSPropertyOp56
 70
     1
102
RTVSPropertyOp57
 70
     1
102
RTVSPropertyOp58
 70
     1
102
RTVSPropertyOp59
 70
     1
102
RTVSPropertyOp60
 70
     1
102
RTVSPropertyOp61
 70
     1
102
RTVSPropertyOp62
 70
     1
  0
XRECORD
  5
1ABF
102
{ACAD_REACTORS
330
1ABE
102
}
330
1ABE
100
AcDbXrecord
280
     1
102
RTVSPost2010Prop28
280
     0
102
RTVSPost2010PropOp28
 70
     1
102
RTVSPost2010Prop29
280
     1
102
RTVSPost2010PropOp29
 70
     1
102
RTVSPost2010Prop30
280
     1
102
RTVSPost2010PropOp30
 70
     1
102
RTVSPost2010Prop31
280
     0
102
RTVSPost2010PropOp31
 70
     1
102
RTVSPost2010Prop32
280
     0
102
RTVSPost2010PropOp32
 70
     1
102
RTVSPost2010Prop33
280
     0
102
RTVSPost2010PropOp33
 70
     1
102
RTVSPost2010Prop34
280
     0
102
RTVSPost2010PropOp34
 70
     1
102
RTVSPost2010Prop35
280
     0
102
RTVSPost2010PropOp35
 70
     1
102
RTVSPost2010Prop36
280
     0
102
RTVSPost2010PropOp36
 70
     1
102
RTVSPost2010Prop37
 90
       50
102
RTVSPost2010PropOp37
 70
     1
102
RTVSPost2010Prop38
140
0.0
102
RTVSPost2010PropOp38
 70
     1
102
RTVSPost2010Prop39
140
1.0
102
RTVSPost2010PropOp39
 70
     1
102
RTVSPost2010Prop40
 90
        0
102
RTVSPost2010PropOp40
 70
     1
102
RTVSPost2010Prop41ColorIndex
 90
       18
102
RTVSPost2010Prop41ColorRGB
 90
        0
102
RTVSPost2010PropOp41
 70
     1
102
RTVSPost2010Prop42
 90
       50
102
RTVSPost2010PropOp42
 70
     1
102
RTVSPost2010Prop43
 90
        3
102
RTVSPost2010PropOp43
 70
     1
102
RTVSPost2010Prop44ColorIndex
 90
        5
102
RTVSPost2010Prop44ColorRGB
 90
      255
102
RTVSPost2010PropOp44
 70
     1
102
RTVSPost2010Prop45
280
     0
102
RTVSPost2010PropOp45
 70
     1
102
RTVSPost2010Prop46
 90
       50
102
RTVSPost2010PropOp46
 70
     1
102
RTVSPost2010Prop47
 90
       50
102
RTVSPost2010PropOp47
 70
     1
102
RTVSPost2010Prop48
 90
       50
102
RTVSPost2010PropOp48
 70
     1
102
RTVSPost2010Prop49
280
     0
102
RTVSPost2010PropOp49
 70
     1
102
RTVSPost2010Prop50
 90
       50
102
RTVSPost2010PropOp50
 70
     1
102
RTVSPost2010Prop51ColorIndex
 90
      256
102
RTVSPost2010Prop51ColorRGB
 90
-16777216
102
RTVSPost2010PropOp51
 70
     0
102
RTVSPost2010Prop52
140
1.0
102
RTVSPost2010PropOp52
 70
     0
102
RTVSPost2010Prop53
 90
        2
102
RTVSPost2010PropOp53
 70
     1
102
RTVSPost2010Prop54
  1
strokes_ogs.tif
102
RTVSPost2010PropOp54
 70
     1
102
RTVSPost2010Prop55
280
     0
102
RTVSPost2010PropOp55
 70
     1
102
RTVSPost2010Prop56
140
1.0
102
RTVSPost2010PropOp56
 70
     1
102
RTVSPost2010Prop57
140
1.0
102
RTVSPost2010PropOp57
 70
     1
102
RTVSPropertyOp0
 70
     1
102
RTVSPropertyOp1
 70
     1
102
RTVSPropertyOp2
 70
     1
102
RTVSPropertyOp3
 70
     1
102
RTVSPropertyOp4
 70
     1
102
RTVSPropertyOp5
 70
     1
102
RTVSPropertyOp6
 70
     1
102
RTVSPropertyOp7
 70
     1
102
RTVSPropertyOp8
 70
     1
102
RTVSPropertyOp9
 70
     1
102
RTVSPropertyOp10
 70
     1
102
RTVSPropertyOp11
 70
     1
102
RTVSPropertyOp12
 70
     1
102
RTVSPropertyOp13
 70
     1
102
RTVSPropertyOp14
 70
     1
102
RTVSPropertyOp15
 70
     1
102
RTVSPropertyOp16
 70
     1
102
RTVSPropertyOp17
 70
     1
102
RTVSPropertyOp18
 70
     1
102
RTVSPropertyOp19
 70
     1
102
RTVSPropertyOp20
 70
     1
102
RTVSPropertyOp21
 70
     1
102
RTVSPropertyOp22
 70
     1
102
RTVSPropertyOp23
 70
     1
102
RTVSPropertyOp24
 70
     1
102
RTVSPropertyOp25
 70
     1
102
RTVSPropertyOp26
 70
     1
102
RTVSPropertyOp27
 70
     1
102
RTVSPropertyOp28
 70
     1
102
RTVSPropertyOp29
 70
     1
102
RTVSPropertyOp30
 70
     1
102
RTVSPropertyOp31
 70
     1
102
RTVSPropertyOp32
 70
     1
102
RTVSPropertyOp33
 70
     1
102
RTVSPropertyOp34
 70
     1
102
RTVSPropertyOp35
 70
     1
102
RTVSPropertyOp36
 70
     1
102
RTVSPropertyOp37
 70
     1
102
RTVSPropertyOp38
 70
     1
102
RTVSPropertyOp39
 70
     1
102
RTVSPropertyOp40
 70
     1
102
RTVSPropertyOp41
 70
     1
102
RTVSPropertyOp42
 70
     1
102
RTVSPropertyOp43
 70
     1
102
RTVSPropertyOp44
 70
     1
102
RTVSPropertyOp45
 70
     1
102
RTVSPropertyOp46
 70
     1
102
RTVSPropertyOp47
 70
     1
102
RTVSPropertyOp48
 70
     1
102
RTVSPropertyOp49
 70
     1
102
RTVSPropertyOp50
 70
     1
102
RTVSPropertyOp51
 70
     0
102
RTVSPropertyOp52
 70
     0
102
RTVSPropertyOp53
 70
     1
102
RTVSPropertyOp54
 70
     1
102
RTVSPropertyOp55
 70
     1
102
RTVSPropertyOp56
 70
     1
102
RTVSPropertyOp57
 70
     1
102
RTVSPropertyOp58
 70
     1
102
RTVSPropertyOp59
 70
     1
102
RTVSPropertyOp60
 70
     1
102
RTVSPropertyOp61
 70
     1
102
RTVSPropertyOp62
 70
     1
  0
XRECORD
  5
1AC7
102
{ACAD_REACTORS
330
1AC6
102
}
330
1AC6
100
AcDbXrecord
280
     1
102
RTVSPost2010Prop28
280
     0
102
RTVSPost2010PropOp28
 70
     1
102
RTVSPost2010Prop29
280
     1
102
RTVSPost2010PropOp29
 70
     1
102
RTVSPost2010Prop30
280
     1
102
RTVSPost2010PropOp30
 70
     1
102
RTVSPost2010Prop31
280
     0
102
RTVSPost2010PropOp31
 70
     1
102
RTVSPost2010Prop32
280
     0
102
RTVSPost2010PropOp32
 70
     1
102
RTVSPost2010Prop33
280
     0
102
RTVSPost2010PropOp33
 70
     1
102
RTVSPost2010Prop34
280
     0
102
RTVSPost2010PropOp34
 70
     1
102
RTVSPost2010Prop35
280
     0
102
RTVSPost2010PropOp35
 70
     1
102
RTVSPost2010Prop36
280
     0
102
RTVSPost2010PropOp36
 70
     1
102
RTVSPost2010Prop37
 90
       50
102
RTVSPost2010PropOp37
 70
     1
102
RTVSPost2010Prop38
140
0.0
102
RTVSPost2010PropOp38
 70
     1
102
RTVSPost2010Prop39
140
1.0
102
RTVSPost2010PropOp39
 70
     1
102
RTVSPost2010Prop40
 90
        0
102
RTVSPost2010PropOp40
 70
     1
102
RTVSPost2010Prop41ColorIndex
 90
       18
102
RTVSPost2010Prop41ColorRGB
 90
        0
102
RTVSPost2010PropOp41
 70
     1
102
RTVSPost2010Prop42
 90
       50
102
RTVSPost2010PropOp42
 70
     1
102
RTVSPost2010Prop43
 90
        3
102
RTVSPost2010PropOp43
 70
     1
102
RTVSPost2010Prop44ColorIndex
 90
        5
102
RTVSPost2010Prop44ColorRGB
 90
      255
102
RTVSPost2010PropOp44
 70
     1
102
RTVSPost2010Prop45
280
     0
102
RTVSPost2010PropOp45
 70
     1
102
RTVSPost2010Prop46
 90
       50
102
RTVSPost2010PropOp46
 70
     1
102
RTVSPost2010Prop47
 90
       50
102
RTVSPost2010PropOp47
 70
     1
102
RTVSPost2010Prop48
 90
       50
102
RTVSPost2010PropOp48
 70
     1
102
RTVSPost2010Prop49
280
     0
102
RTVSPost2010PropOp49
 70
     1
102
RTVSPost2010Prop50
 90
       50
102
RTVSPost2010PropOp50
 70
     1
102
RTVSPost2010Prop51ColorIndex
 90
      256
102
RTVSPost2010Prop51ColorRGB
 90
-16777216
102
RTVSPost2010PropOp51
 70
     0
102
RTVSPost2010Prop52
140
1.0
102
RTVSPost2010PropOp52
 70
     0
102
RTVSPost2010Prop53
 90
        2
102
RTVSPost2010PropOp53
 70
     1
102
RTVSPost2010Prop54
  1
strokes_ogs.tif
102
RTVSPost2010PropOp54
 70
     1
102
RTVSPost2010Prop55
280
     0
102
RTVSPost2010PropOp55
 70
     1
102
RTVSPost2010Prop56
140
1.0
102
RTVSPost2010PropOp56
 70
     1
102
RTVSPost2010Prop57
140
1.0
102
RTVSPost2010PropOp57
 70
     1
102
RTVSPropertyOp0
 70
     1
102
RTVSPropertyOp1
 70
     1
102
RTVSPropertyOp2
 70
     1
102
RTVSPropertyOp3
 70
     1
102
RTVSPropertyOp4
 70
     1
102
RTVSPropertyOp5
 70
     1
102
RTVSPropertyOp6
 70
     1
102
RTVSPropertyOp7
 70
     1
102
RTVSPropertyOp8
 70
     1
102
RTVSPropertyOp9
 70
     1
102
RTVSPropertyOp10
 70
     1
102
RTVSPropertyOp11
 70
     1
102
RTVSPropertyOp12
 70
     1
102
RTVSPropertyOp13
 70
     1
102
RTVSPropertyOp14
 70
     1
102
RTVSPropertyOp15
 70
     1
102
RTVSPropertyOp16
 70
     1
102
RTVSPropertyOp17
 70
     1
102
RTVSPropertyOp18
 70
     1
102
RTVSPropertyOp19
 70
     1
102
RTVSPropertyOp20
 70
     1
102
RTVSPropertyOp21
 70
     1
102
RTVSPropertyOp22
 70
     1
102
RTVSPropertyOp23
 70
     1
102
RTVSPropertyOp24
 70
     1
102
RTVSPropertyOp25
 70
     1
102
RTVSPropertyOp26
 70
     1
102
RTVSPropertyOp27
 70
     1
102
RTVSPropertyOp28
 70
     1
102
RTVSPropertyOp29
 70
     1
102
RTVSPropertyOp30
 70
     1
102
RTVSPropertyOp31
 70
     1
102
RTVSPropertyOp32
 70
     1
102
RTVSPropertyOp33
 70
     1
102
RTVSPropertyOp34
 70
     1
102
RTVSPropertyOp35
 70
     1
102
RTVSPropertyOp36
 70
     1
102
RTVSPropertyOp37
 70
     1
102
RTVSPropertyOp38
 70
     1
102
RTVSPropertyOp39
 70
     1
102
RTVSPropertyOp40
 70
     1
102
RTVSPropertyOp41
 70
     1
102
RTVSPropertyOp42
 70
     1
102
RTVSPropertyOp43
 70
     1
102
RTVSPropertyOp44
 70
     1
102
RTVSPropertyOp45
 70
     1
102
RTVSPropertyOp46
 70
     1
102
RTVSPropertyOp47
 70
     1
102
RTVSPropertyOp48
 70
     1
102
RTVSPropertyOp49
 70
     1
102
RTVSPropertyOp50
 70
     1
102
RTVSPropertyOp51
 70
     0
102
RTVSPropertyOp52
 70
     0
102
RTVSPropertyOp53
 70
     1
102
RTVSPropertyOp54
 70
     1
102
RTVSPropertyOp55
 70
     1
102
RTVSPropertyOp56
 70
     1
102
RTVSPropertyOp57
 70
     1
102
RTVSPropertyOp58
 70
     1
102
RTVSPropertyOp59
 70
     1
102
RTVSPropertyOp60
 70
     1
102
RTVSPropertyOp61
 70
     1
102
RTVSPropertyOp62
 70
     1
  0
XRECORD
  5
1AB9
102
{ACAD_REACTORS
330
1AB8
102
}
330
1AB8
100
AcDbXrecord
280
     1
102
RTVSPost2010Prop28
280
     0
102
RTVSPost2010PropOp28
 70
     1
102
RTVSPost2010Prop29
280
     1
102
RTVSPost2010PropOp29
 70
     1
102
RTVSPost2010Prop30
280
     1
102
RTVSPost2010PropOp30
 70
     1
102
RTVSPost2010Prop31
280
     0
102
RTVSPost2010PropOp31
 70
     1
102
RTVSPost2010Prop32
280
     0
102
RTVSPost2010PropOp32
 70
     1
102
RTVSPost2010Prop33
280
     0
102
RTVSPost2010PropOp33
 70
     1
102
RTVSPost2010Prop34
280
     0
102
RTVSPost2010PropOp34
 70
     1
102
RTVSPost2010Prop35
280
     0
102
RTVSPost2010PropOp35
 70
     1
102
RTVSPost2010Prop36
280
     0
102
RTVSPost2010PropOp36
 70
     1
102
RTVSPost2010Prop37
 90
       50
102
RTVSPost2010PropOp37
 70
     1
102
RTVSPost2010Prop38
140
0.0
102
RTVSPost2010PropOp38
 70
     1
102
RTVSPost2010Prop39
140
1.0
102
RTVSPost2010PropOp39
 70
     1
102
RTVSPost2010Prop40
 90
        0
102
RTVSPost2010PropOp40
 70
     1
102
RTVSPost2010Prop41ColorIndex
 90
       18
102
RTVSPost2010Prop41ColorRGB
 90
        0
102
RTVSPost2010PropOp41
 70
     1
102
RTVSPost2010Prop42
 90
       50
102
RTVSPost2010PropOp42
 70
     1
102
RTVSPost2010Prop43
 90
        3
102
RTVSPost2010PropOp43
 70
     1
102
RTVSPost2010Prop44ColorIndex
 90
        5
102
RTVSPost2010Prop44ColorRGB
 90
      255
102
RTVSPost2010PropOp44
 70
     1
102
RTVSPost2010Prop45
280
     0
102
RTVSPost2010PropOp45
 70
     1
102
RTVSPost2010Prop46
 90
       50
102
RTVSPost2010PropOp46
 70
     1
102
RTVSPost2010Prop47
 90
       50
102
RTVSPost2010PropOp47
 70
     1
102
RTVSPost2010Prop48
 90
       50
102
RTVSPost2010PropOp48
 70
     1
102
RTVSPost2010Prop49
280
     0
102
RTVSPost2010PropOp49
 70
     1
102
RTVSPost2010Prop50
 90
       50
102
RTVSPost2010PropOp50
 70
     1
102
RTVSPost2010Prop51ColorIndex
 90
      256
102
RTVSPost2010Prop51ColorRGB
 90
-16777216
102
RTVSPost2010PropOp51
 70
     0
102
RTVSPost2010Prop52
140
1.0
102
RTVSPost2010PropOp52
 70
     0
102
RTVSPost2010Prop53
 90
        2
102
RTVSPost2010PropOp53
 70
     1
102
RTVSPost2010Prop54
  1
strokes_ogs.tif
102
RTVSPost2010PropOp54
 70
     1
102
RTVSPost2010Prop55
280
     0
102
RTVSPost2010PropOp55
 70
     1
102
RTVSPost2010Prop56
140
1.0
102
RTVSPost2010PropOp56
 70
     1
102
RTVSPost2010Prop57
140
1.0
102
RTVSPost2010PropOp57
 70
     1
102
RTVSPropertyOp0
 70
     1
102
RTVSPropertyOp1
 70
     1
102
RTVSPropertyOp2
 70
     1
102
RTVSPropertyOp3
 70
     1
102
RTVSPropertyOp4
 70
     1
102
RTVSPropertyOp5
 70
     1
102
RTVSPropertyOp6
 70
     1
102
RTVSPropertyOp7
 70
     1
102
RTVSPropertyOp8
 70
     1
102
RTVSPropertyOp9
 70
     1
102
RTVSPropertyOp10
 70
     1
102
RTVSPropertyOp11
 70
     1
102
RTVSPropertyOp12
 70
     1
102
RTVSPropertyOp13
 70
     1
102
RTVSPropertyOp14
 70
     1
102
RTVSPropertyOp15
 70
     1
102
RTVSPropertyOp16
 70
     1
102
RTVSPropertyOp17
 70
     1
102
RTVSPropertyOp18
 70
     1
102
RTVSPropertyOp19
 70
     1
102
RTVSPropertyOp20
 70
     1
102
RTVSPropertyOp21
 70
     1
102
RTVSPropertyOp22
 70
     1
102
RTVSPropertyOp23
 70
     1
102
RTVSPropertyOp24
 70
     1
102
RTVSPropertyOp25
 70
     1
102
RTVSPropertyOp26
 70
     1
102
RTVSPropertyOp27
 70
     1
102
RTVSPropertyOp28
 70
     1
102
RTVSPropertyOp29
 70
     1
102
RTVSPropertyOp30
 70
     1
102
RTVSPropertyOp31
 70
     1
102
RTVSPropertyOp32
 70
     1
102
RTVSPropertyOp33
 70
     1
102
RTVSPropertyOp34
 70
     1
102
RTVSPropertyOp35
 70
     1
102
RTVSPropertyOp36
 70
     1
102
RTVSPropertyOp37
 70
     1
102
RTVSPropertyOp38
 70
     1
102
RTVSPropertyOp39
 70
     1
102
RTVSPropertyOp40
 70
     1
102
RTVSPropertyOp41
 70
     1
102
RTVSPropertyOp42
 70
     1
102
RTVSPropertyOp43
 70
     1
102
RTVSPropertyOp44
 70
     1
102
RTVSPropertyOp45
 70
     1
102
RTVSPropertyOp46
 70
     1
102
RTVSPropertyOp47
 70
     1
102
RTVSPropertyOp48
 70
     1
102
RTVSPropertyOp49
 70
     1
102
RTVSPropertyOp50
 70
     1
102
RTVSPropertyOp51
 70
     0
102
RTVSPropertyOp52
 70
     0
102
RTVSPropertyOp53
 70
     1
102
RTVSPropertyOp54
 70
     1
102
RTVSPropertyOp55
 70
     1
102
RTVSPropertyOp56
 70
     1
102
RTVSPropertyOp57
 70
     1
102
RTVSPropertyOp58
 70
     1
102
RTVSPropertyOp59
 70
     1
102
RTVSPropertyOp60
 70
     1
102
RTVSPropertyOp61
 70
     1
102
RTVSPropertyOp62
 70
     1
  0
XRECORD
  5
1ABD
102
{ACAD_REACTORS
330
1ABC
102
}
330
1ABC
100
AcDbXrecord
280
     1
102
RTVSPost2010Prop28
280
     0
102
RTVSPost2010PropOp28
 70
     1
102
RTVSPost2010Prop29
280
     1
102
RTVSPost2010PropOp29
 70
     1
102
RTVSPost2010Prop30
280
     1
102
RTVSPost2010PropOp30
 70
     1
102
RTVSPost2010Prop31
280
     0
102
RTVSPost2010PropOp31
 70
     1
102
RTVSPost2010Prop32
280
     0
102
RTVSPost2010PropOp32
 70
     1
102
RTVSPost2010Prop33
280
     0
102
RTVSPost2010PropOp33
 70
     1
102
RTVSPost2010Prop34
280
     0
102
RTVSPost2010PropOp34
 70
     1
102
RTVSPost2010Prop35
280
     0
102
RTVSPost2010PropOp35
 70
     1
102
RTVSPost2010Prop36
280
     0
102
RTVSPost2010PropOp36
 70
     1
102
RTVSPost2010Prop37
 90
       50
102
RTVSPost2010PropOp37
 70
     1
102
RTVSPost2010Prop38
140
0.0
102
RTVSPost2010PropOp38
 70
     1
102
RTVSPost2010Prop39
140
1.0
102
RTVSPost2010PropOp39
 70
     1
102
RTVSPost2010Prop40
 90
        0
102
RTVSPost2010PropOp40
 70
     1
102
RTVSPost2010Prop41ColorIndex
 90
       18
102
RTVSPost2010Prop41ColorRGB
 90
        0
102
RTVSPost2010PropOp41
 70
     1
102
RTVSPost2010Prop42
 90
       50
102
RTVSPost2010PropOp42
 70
     1
102
RTVSPost2010Prop43
 90
        3
102
RTVSPost2010PropOp43
 70
     1
102
RTVSPost2010Prop44ColorIndex
 90
        5
102
RTVSPost2010Prop44ColorRGB
 90
      255
102
RTVSPost2010PropOp44
 70
     1
102
RTVSPost2010Prop45
280
     0
102
RTVSPost2010PropOp45
 70
     1
102
RTVSPost2010Prop46
 90
       50
102
RTVSPost2010PropOp46
 70
     1
102
RTVSPost2010Prop47
 90
       50
102
RTVSPost2010PropOp47
 70
     1
102
RTVSPost2010Prop48
 90
       50
102
RTVSPost2010PropOp48
 70
     1
102
RTVSPost2010Prop49
280
     0
102
RTVSPost2010PropOp49
 70
     1
102
RTVSPost2010Prop50
 90
       50
102
RTVSPost2010PropOp50
 70
     1
102
RTVSPost2010Prop51ColorIndex
 90
      256
102
RTVSPost2010Prop51ColorRGB
 90
-16777216
102
RTVSPost2010PropOp51
 70
     0
102
RTVSPost2010Prop52
140
1.0
102
RTVSPost2010PropOp52
 70
     0
102
RTVSPost2010Prop53
 90
        2
102
RTVSPost2010PropOp53
 70
     1
102
RTVSPost2010Prop54
  1
strokes_ogs.tif
102
RTVSPost2010PropOp54
 70
     1
102
RTVSPost2010Prop55
280
     0
102
RTVSPost2010PropOp55
 70
     1
102
RTVSPost2010Prop56
140
1.0
102
RTVSPost2010PropOp56
 70
     1
102
RTVSPost2010Prop57
140
1.0
102
RTVSPost2010PropOp57
 70
     1
102
RTVSPropertyOp0
 70
     1
102
RTVSPropertyOp1
 70
     1
102
RTVSPropertyOp2
 70
     1
102
RTVSPropertyOp3
 70
     1
102
RTVSPropertyOp4
 70
     1
102
RTVSPropertyOp5
 70
     1
102
RTVSPropertyOp6
 70
     1
102
RTVSPropertyOp7
 70
     1
102
RTVSPropertyOp8
 70
     1
102
RTVSPropertyOp9
 70
     1
102
RTVSPropertyOp10
 70
     1
102
RTVSPropertyOp11
 70
     1
102
RTVSPropertyOp12
 70
     1
102
RTVSPropertyOp13
 70
     1
102
RTVSPropertyOp14
 70
     1
102
RTVSPropertyOp15
 70
     1
102
RTVSPropertyOp16
 70
     1
102
RTVSPropertyOp17
 70
     1
102
RTVSPropertyOp18
 70
     1
102
RTVSPropertyOp19
 70
     1
102
RTVSPropertyOp20
 70
     1
102
RTVSPropertyOp21
 70
     1
102
RTVSPropertyOp22
 70
     1
102
RTVSPropertyOp23
 70
     1
102
RTVSPropertyOp24
 70
     1
102
RTVSPropertyOp25
 70
     1
102
RTVSPropertyOp26
 70
     1
102
RTVSPropertyOp27
 70
     1
102
RTVSPropertyOp28
 70
     1
102
RTVSPropertyOp29
 70
     1
102
RTVSPropertyOp30
 70
     1
102
RTVSPropertyOp31
 70
     1
102
RTVSPropertyOp32
 70
     1
102
RTVSPropertyOp33
 70
     1
102
RTVSPropertyOp34
 70
     1
102
RTVSPropertyOp35
 70
     1
102
RTVSPropertyOp36
 70
     1
102
RTVSPropertyOp37
 70
     1
102
RTVSPropertyOp38
 70
     1
102
RTVSPropertyOp39
 70
     1
102
RTVSPropertyOp40
 70
     1
102
RTVSPropertyOp41
 70
     1
102
RTVSPropertyOp42
 70
     1
102
RTVSPropertyOp43
 70
     1
102
RTVSPropertyOp44
 70
     1
102
RTVSPropertyOp45
 70
     1
102
RTVSPropertyOp46
 70
     1
102
RTVSPropertyOp47
 70
     1
102
RTVSPropertyOp48
 70
     1
102
RTVSPropertyOp49
 70
     1
102
RTVSPropertyOp50
 70
     1
102
RTVSPropertyOp51
 70
     0
102
RTVSPropertyOp52
 70
     0
102
RTVSPropertyOp53
 70
     1
102
RTVSPropertyOp54
 70
     1
102
RTVSPropertyOp55
 70
     1
102
RTVSPropertyOp56
 70
     1
102
RTVSPropertyOp57
 70
     1
102
RTVSPropertyOp58
 70
     1
102
RTVSPropertyOp59
 70
     1
102
RTVSPropertyOp60
 70
     1
102
RTVSPropertyOp61
 70
     1
102
RTVSPropertyOp62
 70
     1
  0
XRECORD
  5
1AD7
102
{ACAD_REACTORS
330
1AD6
102
}
330
1AD6
100
AcDbXrecord
280
     1
102
RTVSPost2010Prop28
280
     0
102
RTVSPost2010PropOp28
 70
     1
102
RTVSPost2010Prop29
280
     1
102
RTVSPost2010PropOp29
 70
     1
102
RTVSPost2010Prop30
280
     1
102
RTVSPost2010PropOp30
 70
     1
102
RTVSPost2010Prop31
280
     0
102
RTVSPost2010PropOp31
 70
     1
102
RTVSPost2010Prop32
280
     0
102
RTVSPost2010PropOp32
 70
     1
102
RTVSPost2010Prop33
280
     0
102
RTVSPost2010PropOp33
 70
     1
102
RTVSPost2010Prop34
280
     0
102
RTVSPost2010PropOp34
 70
     1
102
RTVSPost2010Prop35
280
     0
102
RTVSPost2010PropOp35
 70
     1
102
RTVSPost2010Prop36
280
     0
102
RTVSPost2010PropOp36
 70
     1
102
RTVSPost2010Prop37
 90
       50
102
RTVSPost2010PropOp37
 70
     0
102
RTVSPost2010Prop38
140
0.0
102
RTVSPost2010PropOp38
 70
     0
102
RTVSPost2010Prop39
140
1.0
102
RTVSPost2010PropOp39
 70
     0
102
RTVSPost2010Prop40
 90
        0
102
RTVSPost2010PropOp40
 70
     0
102
RTVSPost2010Prop41ColorIndex
 90
       18
102
RTVSPost2010Prop41ColorRGB
 90
        0
102
RTVSPost2010PropOp41
 70
     0
102
RTVSPost2010Prop42
 90
       50
102
RTVSPost2010PropOp42
 70
     0
102
RTVSPost2010Prop43
 90
        3
102
RTVSPost2010PropOp43
 70
     0
102
RTVSPost2010Prop44ColorIndex
 90
        5
102
RTVSPost2010Prop44ColorRGB
 90
      255
102
RTVSPost2010PropOp44
 70
     0
102
RTVSPost2010Prop45
280
     0
102
RTVSPost2010PropOp45
 70
     1
102
RTVSPost2010Prop46
 90
       50
102
RTVSPost2010PropOp46
 70
     0
102
RTVSPost2010Prop47
 90
       50
102
RTVSPost2010PropOp47
 70
     0
102
RTVSPost2010Prop48
 90
       50
102
RTVSPost2010PropOp48
 70
     0
102
RTVSPost2010Prop49
280
     0
102
RTVSPost2010PropOp49
 70
     1
102
RTVSPost2010Prop50
 90
       50
102
RTVSPost2010PropOp50
 70
     0
102
RTVSPost2010Prop51ColorIndex
 90
      256
102
RTVSPost2010Prop51ColorRGB
 90
-16777216
102
RTVSPost2010PropOp51
 70
     0
102
RTVSPost2010Prop52
140
1.0
102
RTVSPost2010PropOp52
 70
     0
102
RTVSPost2010Prop53
 90
        2
102
RTVSPost2010PropOp53
 70
     0
102
RTVSPost2010Prop54
  1
strokes_ogs.tif
102
RTVSPost2010PropOp54
 70
     0
102
RTVSPost2010Prop55
280
     0
102
RTVSPost2010PropOp55
 70
     1
102
RTVSPost2010Prop56
140
1.0
102
RTVSPost2010PropOp56
 70
     0
102
RTVSPost2010Prop57
140
1.0
102
RTVSPost2010PropOp57
 70
     0
102
RTVSPropertyOp0
 70
     0
102
RTVSPropertyOp1
 70
     0
102
RTVSPropertyOp2
 70
     0
102
RTVSPropertyOp3
 70
     0
102
RTVSPropertyOp4
 70
     0
102
RTVSPropertyOp5
 70
     0
102
RTVSPropertyOp6
 70
     0
102
RTVSPropertyOp7
 70
     0
102
RTVSPropertyOp8
 70
     0
102
RTVSPropertyOp9
 70
     0
102
RTVSPropertyOp10
 70
     0
102
RTVSPropertyOp11
 70
     0
102
RTVSPropertyOp12
 70
     0
102
RTVSPropertyOp13
 70
     0
102
RTVSPropertyOp14
 70
     2
102
RTVSPropertyOp15
 70
     0
102
RTVSPropertyOp16
 70
     0
102
RTVSPropertyOp17
 70
     0
102
RTVSPropertyOp18
 70
     0
102
RTVSPropertyOp19
 70
     0
102
RTVSPropertyOp20
 70
     0
102
RTVSPropertyOp21
 70
     0
102
RTVSPropertyOp22
 70
     0
102
RTVSPropertyOp23
 70
     0
102
RTVSPropertyOp24
 70
     0
102
RTVSPropertyOp25
 70
     0
102
RTVSPropertyOp26
 70
     0
102
RTVSPropertyOp27
 70
     0
102
RTVSPropertyOp28
 70
     1
102
RTVSPropertyOp29
 70
     1
102
RTVSPropertyOp30
 70
     1
102
RTVSPropertyOp31
 70
     1
102
RTVSPropertyOp32
 70
     1
102
RTVSPropertyOp33
 70
     1
102
RTVSPropertyOp34
 70
     1
102
RTVSPropertyOp35
 70
     1
102
RTVSPropertyOp36
 70
     1
102
RTVSPropertyOp37
 70
     0
102
RTVSPropertyOp38
 70
     0
102
RTVSPropertyOp39
 70
     0
102
RTVSPropertyOp40
 70
     0
102
RTVSPropertyOp41
 70
     0
102
RTVSPropertyOp42
 70
     0
102
RTVSPropertyOp43
 70
     0
102
RTVSPropertyOp44
 70
     0
102
RTVSPropertyOp45
 70
     1
102
RTVSPropertyOp46
 70
     0
102
RTVSPropertyOp47
 70
     0
102
RTVSPropertyOp48
 70
     0
102
RTVSPropertyOp49
 70
     1
102
RTVSPropertyOp50
 70
     0
102
RTVSPropertyOp51
 70
     0
102
RTVSPropertyOp52
 70
     0
102
RTVSPropertyOp53
 70
     0
102
RTVSPropertyOp54
 70
     0
102
RTVSPropertyOp55
 70
     1
102
RTVSPropertyOp56
 70
     0
102
RTVSPropertyOp57
 70
     0
102
RTVSPropertyOp58
 70
     0
102
RTVSPropertyOp59
 70
     0
102
RTVSPropertyOp60
 70
     0
102
RTVSPropertyOp61
 70
     0
102
RTVSPropertyOp62
 70
     0
  0
XRECORD
  5
1AC5
102
{ACAD_REACTORS
330
1AC4
102
}
330
1AC4
100
AcDbXrecord
280
     1
102
RTVSPost2010Prop28
280
     0
102
RTVSPost2010PropOp28
 70
     1
102
RTVSPost2010Prop29
280
     1
102
RTVSPost2010PropOp29
 70
     1
102
RTVSPost2010Prop30
280
     1
102
RTVSPost2010PropOp30
 70
     1
102
RTVSPost2010Prop31
280
     0
102
RTVSPost2010PropOp31
 70
     1
102
RTVSPost2010Prop32
280
     0
102
RTVSPost2010PropOp32
 70
     1
102
RTVSPost2010Prop33
280
     0
102
RTVSPost2010PropOp33
 70
     1
102
RTVSPost2010Prop34
280
     0
102
RTVSPost2010PropOp34
 70
     1
102
RTVSPost2010Prop35
280
     0
102
RTVSPost2010PropOp35
 70
     1
102
RTVSPost2010Prop36
280
     0
102
RTVSPost2010PropOp36
 70
     1
102
RTVSPost2010Prop37
 90
       50
102
RTVSPost2010PropOp37
 70
     1
102
RTVSPost2010Prop38
140
0.0
102
RTVSPost2010PropOp38
 70
     1
102
RTVSPost2010Prop39
140
1.0
102
RTVSPost2010PropOp39
 70
     1
102
RTVSPost2010Prop40
 90
        0
102
RTVSPost2010PropOp40
 70
     1
102
RTVSPost2010Prop41ColorIndex
 90
       18
102
RTVSPost2010Prop41ColorRGB
 90
        0
102
RTVSPost2010PropOp41
 70
     1
102
RTVSPost2010Prop42
 90
       50
102
RTVSPost2010PropOp42
 70
     1
102
RTVSPost2010Prop43
 90
        3
102
RTVSPost2010PropOp43
 70
     1
102
RTVSPost2010Prop44ColorIndex
 90
        5
102
RTVSPost2010Prop44ColorRGB
 90
      255
102
RTVSPost2010PropOp44
 70
     1
102
RTVSPost2010Prop45
280
     0
102
RTVSPost2010PropOp45
 70
     1
102
RTVSPost2010Prop46
 90
       50
102
RTVSPost2010PropOp46
 70
     1
102
RTVSPost2010Prop47
 90
       50
102
RTVSPost2010PropOp47
 70
     1
102
RTVSPost2010Prop48
 90
       50
102
RTVSPost2010PropOp48
 70
     1
102
RTVSPost2010Prop49
280
     0
102
RTVSPost2010PropOp49
 70
     1
102
RTVSPost2010Prop50
 90
       50
102
RTVSPost2010PropOp50
 70
     1
102
RTVSPost2010Prop51ColorIndex
 90
      256
102
RTVSPost2010Prop51ColorRGB
 90
-16777216
102
RTVSPost2010PropOp51
 70
     0
102
RTVSPost2010Prop52
140
1.0
102
RTVSPost2010PropOp52
 70
     0
102
RTVSPost2010Prop53
 90
        2
102
RTVSPost2010PropOp53
 70
     1
102
RTVSPost2010Prop54
  1
strokes_ogs.tif
102
RTVSPost2010PropOp54
 70
     1
102
RTVSPost2010Prop55
280
     0
102
RTVSPost2010PropOp55
 70
     1
102
RTVSPost2010Prop56
140
1.0
102
RTVSPost2010PropOp56
 70
     1
102
RTVSPost2010Prop57
140
1.0
102
RTVSPost2010PropOp57
 70
     1
102
RTVSPropertyOp0
 70
     1
102
RTVSPropertyOp1
 70
     1
102
RTVSPropertyOp2
 70
     1
102
RTVSPropertyOp3
 70
     1
102
RTVSPropertyOp4
 70
     1
102
RTVSPropertyOp5
 70
     1
102
RTVSPropertyOp6
 70
     1
102
RTVSPropertyOp7
 70
     1
102
RTVSPropertyOp8
 70
     1
102
RTVSPropertyOp9
 70
     1
102
RTVSPropertyOp10
 70
     1
102
RTVSPropertyOp11
 70
     1
102
RTVSPropertyOp12
 70
     1
102
RTVSPropertyOp13
 70
     1
102
RTVSPropertyOp14
 70
     1
102
RTVSPropertyOp15
 70
     1
102
RTVSPropertyOp16
 70
     1
102
RTVSPropertyOp17
 70
     1
102
RTVSPropertyOp18
 70
     1
102
RTVSPropertyOp19
 70
     1
102
RTVSPropertyOp20
 70
     1
102
RTVSPropertyOp21
 70
     1
102
RTVSPropertyOp22
 70
     1
102
RTVSPropertyOp23
 70
     1
102
RTVSPropertyOp24
 70
     1
102
RTVSPropertyOp25
 70
     1
102
RTVSPropertyOp26
 70
     1
102
RTVSPropertyOp27
 70
     1
102
RTVSPropertyOp28
 70
     1
102
RTVSPropertyOp29
 70
     1
102
RTVSPropertyOp30
 70
     1
102
RTVSPropertyOp31
 70
     1
102
RTVSPropertyOp32
 70
     1
102
RTVSPropertyOp33
 70
     1
102
RTVSPropertyOp34
 70
     1
102
RTVSPropertyOp35
 70
     1
102
RTVSPropertyOp36
 70
     1
102
RTVSPropertyOp37
 70
     1
102
RTVSPropertyOp38
 70
     1
102
RTVSPropertyOp39
 70
     1
102
RTVSPropertyOp40
 70
     1
102
RTVSPropertyOp41
 70
     1
102
RTVSPropertyOp42
 70
     1
102
RTVSPropertyOp43
 70
     1
102
RTVSPropertyOp44
 70
     1
102
RTVSPropertyOp45
 70
     1
102
RTVSPropertyOp46
 70
     1
102
RTVSPropertyOp47
 70
     1
102
RTVSPropertyOp48
 70
     1
102
RTVSPropertyOp49
 70
     1
102
RTVSPropertyOp50
 70
     1
102
RTVSPropertyOp51
 70
     0
102
RTVSPropertyOp52
 70
     0
102
RTVSPropertyOp53
 70
     1
102
RTVSPropertyOp54
 70
     1
102
RTVSPropertyOp55
 70
     1
102
RTVSPropertyOp56
 70
     1
102
RTVSPropertyOp57
 70
     1
102
RTVSPropertyOp58
 70
     1
102
RTVSPropertyOp59
 70
     1
102
RTVSPropertyOp60
 70
     1
102
RTVSPropertyOp61
 70
     1
102
RTVSPropertyOp62
 70
     1
  0
XRECORD
  5
1AA9
102
{ACAD_REACTORS
330
1AA8
102
}
330
1AA8
100
AcDbXrecord
280
     1
102
RTVSPost2010Prop28
280
     0
102
RTVSPost2010PropOp28
 70
     1
102
RTVSPost2010Prop29
280
     1
102
RTVSPost2010PropOp29
 70
     1
102
RTVSPost2010Prop30
280
     1
102
RTVSPost2010PropOp30
 70
     1
102
RTVSPost2010Prop31
280
     0
102
RTVSPost2010PropOp31
 70
     1
102
RTVSPost2010Prop32
280
     0
102
RTVSPost2010PropOp32
 70
     1
102
RTVSPost2010Prop33
280
     0
102
RTVSPost2010PropOp33
 70
     1
102
RTVSPost2010Prop34
280
     0
102
RTVSPost2010PropOp34
 70
     1
102
RTVSPost2010Prop35
280
     0
102
RTVSPost2010PropOp35
 70
     1
102
RTVSPost2010Prop36
280
     0
102
RTVSPost2010PropOp36
 70
     1
102
RTVSPost2010Prop37
 90
       50
102
RTVSPost2010PropOp37
 70
     1
102
RTVSPost2010Prop38
140
0.0
102
RTVSPost2010PropOp38
 70
     1
102
RTVSPost2010Prop39
140
1.0
102
RTVSPost2010PropOp39
 70
     1
102
RTVSPost2010Prop40
 90
        0
102
RTVSPost2010PropOp40
 70
     1
102
RTVSPost2010Prop41ColorIndex
 90
       18
102
RTVSPost2010Prop41ColorRGB
 90
        0
102
RTVSPost2010PropOp41
 70
     1
102
RTVSPost2010Prop42
 90
       50
102
RTVSPost2010PropOp42
 70
     1
102
RTVSPost2010Prop43
 90
        3
102
RTVSPost2010PropOp43
 70
     1
102
RTVSPost2010Prop44ColorIndex
 90
        5
102
RTVSPost2010Prop44ColorRGB
 90
      255
102
RTVSPost2010PropOp44
 70
     1
102
RTVSPost2010Prop45
280
     0
102
RTVSPost2010PropOp45
 70
     1
102
RTVSPost2010Prop46
 90
       50
102
RTVSPost2010PropOp46
 70
     1
102
RTVSPost2010Prop47
 90
       50
102
RTVSPost2010PropOp47
 70
     1
102
RTVSPost2010Prop48
 90
       50
102
RTVSPost2010PropOp48
 70
     1
102
RTVSPost2010Prop49
280
     0
102
RTVSPost2010PropOp49
 70
     1
102
RTVSPost2010Prop50
 90
       50
102
RTVSPost2010PropOp50
 70
     1
102
RTVSPost2010Prop51ColorIndex
 90
      256
102
RTVSPost2010Prop51ColorRGB
 90
-16777216
102
RTVSPost2010PropOp51
 70
     0
102
RTVSPost2010Prop52
140
1.0
102
RTVSPost2010PropOp52
 70
     0
102
RTVSPost2010Prop53
 90
        2
102
RTVSPost2010PropOp53
 70
     1
102
RTVSPost2010Prop54
  1
strokes_ogs.tif
102
RTVSPost2010PropOp54
 70
     1
102
RTVSPost2010Prop55
280
     0
102
RTVSPost2010PropOp55
 70
     1
102
RTVSPost2010Prop56
140
1.0
102
RTVSPost2010PropOp56
 70
     1
102
RTVSPost2010Prop57
140
1.0
102
RTVSPost2010PropOp57
 70
     1
102
RTVSPropertyOp0
 70
     1
102
RTVSPropertyOp1
 70
     1
102
RTVSPropertyOp2
 70
     1
102
RTVSPropertyOp3
 70
     1
102
RTVSPropertyOp4
 70
     1
102
RTVSPropertyOp5
 70
     1
102
RTVSPropertyOp6
 70
     1
102
RTVSPropertyOp7
 70
     1
102
RTVSPropertyOp8
 70
     1
102
RTVSPropertyOp9
 70
     1
102
RTVSPropertyOp10
 70
     1
102
RTVSPropertyOp11
 70
     1
102
RTVSPropertyOp12
 70
     1
102
RTVSPropertyOp13
 70
     1
102
RTVSPropertyOp14
 70
     1
102
RTVSPropertyOp15
 70
     1
102
RTVSPropertyOp16
 70
     1
102
RTVSPropertyOp17
 70
     1
102
RTVSPropertyOp18
 70
     1
102
RTVSPropertyOp19
 70
     1
102
RTVSPropertyOp20
 70
     1
102
RTVSPropertyOp21
 70
     1
102
RTVSPropertyOp22
 70
     1
102
RTVSPropertyOp23
 70
     1
102
RTVSPropertyOp24
 70
     1
102
RTVSPropertyOp25
 70
     1
102
RTVSPropertyOp26
 70
     1
102
RTVSPropertyOp27
 70
     1
102
RTVSPropertyOp28
 70
     1
102
RTVSPropertyOp29
 70
     1
102
RTVSPropertyOp30
 70
     1
102
RTVSPropertyOp31
 70
     1
102
RTVSPropertyOp32
 70
     1
102
RTVSPropertyOp33
 70
     1
102
RTVSPropertyOp34
 70
     1
102
RTVSPropertyOp35
 70
     1
102
RTVSPropertyOp36
 70
     1
102
RTVSPropertyOp37
 70
     1
102
RTVSPropertyOp38
 70
     1
102
RTVSPropertyOp39
 70
     1
102
RTVSPropertyOp40
 70
     1
102
RTVSPropertyOp41
 70
     1
102
RTVSPropertyOp42
 70
     1
102
RTVSPropertyOp43
 70
     1
102
RTVSPropertyOp44
 70
     1
102
RTVSPropertyOp45
 70
     1
102
RTVSPropertyOp46
 70
     1
102
RTVSPropertyOp47
 70
     1
102
RTVSPropertyOp48
 70
     1
102
RTVSPropertyOp49
 70
     1
102
RTVSPropertyOp50
 70
     1
102
RTVSPropertyOp51
 70
     0
102
RTVSPropertyOp52
 70
     0
102
RTVSPropertyOp53
 70
     1
102
RTVSPropertyOp54
 70
     1
102
RTVSPropertyOp55
 70
     1
102
RTVSPropertyOp56
 70
     1
102
RTVSPropertyOp57
 70
     1
102
RTVSPropertyOp58
 70
     1
102
RTVSPropertyOp59
 70
     1
102
RTVSPropertyOp60
 70
     1
102
RTVSPropertyOp61
 70
     1
102
RTVSPropertyOp62
 70
     1
  0
XRECORD
  5
1AAB
102
{ACAD_REACTORS
330
1AAA
102
}
330
1AAA
100
AcDbXrecord
280
     1
102
RTVSPost2010Prop28
280
     0
102
RTVSPost2010PropOp28
 70
     1
102
RTVSPost2010Prop29
280
     1
102
RTVSPost2010PropOp29
 70
     1
102
RTVSPost2010Prop30
280
     1
102
RTVSPost2010PropOp30
 70
     1
102
RTVSPost2010Prop31
280
     0
102
RTVSPost2010PropOp31
 70
     1
102
RTVSPost2010Prop32
280
     0
102
RTVSPost2010PropOp32
 70
     1
102
RTVSPost2010Prop33
280
     0
102
RTVSPost2010PropOp33
 70
     1
102
RTVSPost2010Prop34
280
     0
102
RTVSPost2010PropOp34
 70
     1
102
RTVSPost2010Prop35
280
     0
102
RTVSPost2010PropOp35
 70
     1
102
RTVSPost2010Prop36
280
     0
102
RTVSPost2010PropOp36
 70
     1
102
RTVSPost2010Prop37
 90
       50
102
RTVSPost2010PropOp37
 70
     1
102
RTVSPost2010Prop38
140
0.0
102
RTVSPost2010PropOp38
 70
     1
102
RTVSPost2010Prop39
140
1.0
102
RTVSPost2010PropOp39
 70
     1
102
RTVSPost2010Prop40
 90
        0
102
RTVSPost2010PropOp40
 70
     1
102
RTVSPost2010Prop41ColorIndex
 90
       18
102
RTVSPost2010Prop41ColorRGB
 90
        0
102
RTVSPost2010PropOp41
 70
     1
102
RTVSPost2010Prop42
 90
       50
102
RTVSPost2010PropOp42
 70
     1
102
RTVSPost2010Prop43
 90
        3
102
RTVSPost2010PropOp43
 70
     1
102
RTVSPost2010Prop44ColorIndex
 90
        5
102
RTVSPost2010Prop44ColorRGB
 90
      255
102
RTVSPost2010PropOp44
 70
     1
102
RTVSPost2010Prop45
280
     0
102
RTVSPost2010PropOp45
 70
     1
102
RTVSPost2010Prop46
 90
       50
102
RTVSPost2010PropOp46
 70
     1
102
RTVSPost2010Prop47
 90
       50
102
RTVSPost2010PropOp47
 70
     1
102
RTVSPost2010Prop48
 90
       50
102
RTVSPost2010PropOp48
 70
     1
102
RTVSPost2010Prop49
280
     0
102
RTVSPost2010PropOp49
 70
     1
102
RTVSPost2010Prop50
 90
       50
102
RTVSPost2010PropOp50
 70
     1
102
RTVSPost2010Prop51ColorIndex
 90
      256
102
RTVSPost2010Prop51ColorRGB
 90
-16777216
102
RTVSPost2010PropOp51
 70
     0
102
RTVSPost2010Prop52
140
1.0
102
RTVSPost2010PropOp52
 70
     0
102
RTVSPost2010Prop53
 90
        2
102
RTVSPost2010PropOp53
 70
     1
102
RTVSPost2010Prop54
  1
strokes_ogs.tif
102
RTVSPost2010PropOp54
 70
     1
102
RTVSPost2010Prop55
280
     0
102
RTVSPost2010PropOp55
 70
     1
102
RTVSPost2010Prop56
140
1.0
102
RTVSPost2010PropOp56
 70
     1
102
RTVSPost2010Prop57
140
1.0
102
RTVSPost2010PropOp57
 70
     1
102
RTVSPropertyOp0
 70
     1
102
RTVSPropertyOp1
 70
     1
102
RTVSPropertyOp2
 70
     1
102
RTVSPropertyOp3
 70
     1
102
RTVSPropertyOp4
 70
     1
102
RTVSPropertyOp5
 70
     1
102
RTVSPropertyOp6
 70
     1
102
RTVSPropertyOp7
 70
     1
102
RTVSPropertyOp8
 70
     1
102
RTVSPropertyOp9
 70
     1
102
RTVSPropertyOp10
 70
     1
102
RTVSPropertyOp11
 70
     1
102
RTVSPropertyOp12
 70
     1
102
RTVSPropertyOp13
 70
     1
102
RTVSPropertyOp14
 70
     1
102
RTVSPropertyOp15
 70
     1
102
RTVSPropertyOp16
 70
     1
102
RTVSPropertyOp17
 70
     1
102
RTVSPropertyOp18
 70
     1
102
RTVSPropertyOp19
 70
     1
102
RTVSPropertyOp20
 70
     1
102
RTVSPropertyOp21
 70
     1
102
RTVSPropertyOp22
 70
     1
102
RTVSPropertyOp23
 70
     1
102
RTVSPropertyOp24
 70
     1
102
RTVSPropertyOp25
 70
     1
102
RTVSPropertyOp26
 70
     1
102
RTVSPropertyOp27
 70
     1
102
RTVSPropertyOp28
 70
     1
102
RTVSPropertyOp29
 70
     1
102
RTVSPropertyOp30
 70
     1
102
RTVSPropertyOp31
 70
     1
102
RTVSPropertyOp32
 70
     1
102
RTVSPropertyOp33
 70
     1
102
RTVSPropertyOp34
 70
     1
102
RTVSPropertyOp35
 70
     1
102
RTVSPropertyOp36
 70
     1
102
RTVSPropertyOp37
 70
     1
102
RTVSPropertyOp38
 70
     1
102
RTVSPropertyOp39
 70
     1
102
RTVSPropertyOp40
 70
     1
102
RTVSPropertyOp41
 70
     1
102
RTVSPropertyOp42
 70
     1
102
RTVSPropertyOp43
 70
     1
102
RTVSPropertyOp44
 70
     1
102
RTVSPropertyOp45
 70
     1
102
RTVSPropertyOp46
 70
     1
102
RTVSPropertyOp47
 70
     1
102
RTVSPropertyOp48
 70
     1
102
RTVSPropertyOp49
 70
     1
102
RTVSPropertyOp50
 70
     1
102
RTVSPropertyOp51
 70
     0
102
RTVSPropertyOp52
 70
     0
102
RTVSPropertyOp53
 70
     1
102
RTVSPropertyOp54
 70
     1
102
RTVSPropertyOp55
 70
     1
102
RTVSPropertyOp56
 70
     1
102
RTVSPropertyOp57
 70
     1
102
RTVSPropertyOp58
 70
     1
102
RTVSPropertyOp59
 70
     1
102
RTVSPropertyOp60
 70
     1
102
RTVSPropertyOp61
 70
     1
102
RTVSPropertyOp62
 70
     1
  0
XRECORD
  5
1AAD
102
{ACAD_REACTORS
330
1AAC
102
}
330
1AAC
100
AcDbXrecord
280
     1
102
RTVSPost2010Prop28
280
     0
102
RTVSPost2010PropOp28
 70
     1
102
RTVSPost2010Prop29
280
     1
102
RTVSPost2010PropOp29
 70
     1
102
RTVSPost2010Prop30
280
     1
102
RTVSPost2010PropOp30
 70
     1
102
RTVSPost2010Prop31
280
     0
102
RTVSPost2010PropOp31
 70
     1
102
RTVSPost2010Prop32
280
     0
102
RTVSPost2010PropOp32
 70
     1
102
RTVSPost2010Prop33
280
     0
102
RTVSPost2010PropOp33
 70
     1
102
RTVSPost2010Prop34
280
     0
102
RTVSPost2010PropOp34
 70
     1
102
RTVSPost2010Prop35
280
     0
102
RTVSPost2010PropOp35
 70
     1
102
RTVSPost2010Prop36
280
     0
102
RTVSPost2010PropOp36
 70
     1
102
RTVSPost2010Prop37
 90
       50
102
RTVSPost2010PropOp37
 70
     1
102
RTVSPost2010Prop38
140
0.0
102
RTVSPost2010PropOp38
 70
     1
102
RTVSPost2010Prop39
140
1.0
102
RTVSPost2010PropOp39
 70
     1
102
RTVSPost2010Prop40
 90
        0
102
RTVSPost2010PropOp40
 70
     1
102
RTVSPost2010Prop41ColorIndex
 90
       18
102
RTVSPost2010Prop41ColorRGB
 90
        0
102
RTVSPost2010PropOp41
 70
     1
102
RTVSPost2010Prop42
 90
       50
102
RTVSPost2010PropOp42
 70
     1
102
RTVSPost2010Prop43
 90
        3
102
RTVSPost2010PropOp43
 70
     1
102
RTVSPost2010Prop44ColorIndex
 90
        5
102
RTVSPost2010Prop44ColorRGB
 90
      255
102
RTVSPost2010PropOp44
 70
     1
102
RTVSPost2010Prop45
280
     0
102
RTVSPost2010PropOp45
 70
     1
102
RTVSPost2010Prop46
 90
       50
102
RTVSPost2010PropOp46
 70
     1
102
RTVSPost2010Prop47
 90
       50
102
RTVSPost2010PropOp47
 70
     1
102
RTVSPost2010Prop48
 90
       50
102
RTVSPost2010PropOp48
 70
     1
102
RTVSPost2010Prop49
280
     0
102
RTVSPost2010PropOp49
 70
     1
102
RTVSPost2010Prop50
 90
       50
102
RTVSPost2010PropOp50
 70
     1
102
RTVSPost2010Prop51ColorIndex
 90
      256
102
RTVSPost2010Prop51ColorRGB
 90
-16777216
102
RTVSPost2010PropOp51
 70
     0
102
RTVSPost2010Prop52
140
1.0
102
RTVSPost2010PropOp52
 70
     0
102
RTVSPost2010Prop53
 90
        2
102
RTVSPost2010PropOp53
 70
     1
102
RTVSPost2010Prop54
  1
strokes_ogs.tif
102
RTVSPost2010PropOp54
 70
     1
102
RTVSPost2010Prop55
280
     0
102
RTVSPost2010PropOp55
 70
     1
102
RTVSPost2010Prop56
140
1.0
102
RTVSPost2010PropOp56
 70
     1
102
RTVSPost2010Prop57
140
1.0
102
RTVSPost2010PropOp57
 70
     1
102
RTVSPropertyOp0
 70
     1
102
RTVSPropertyOp1
 70
     1
102
RTVSPropertyOp2
 70
     1
102
RTVSPropertyOp3
 70
     1
102
RTVSPropertyOp4
 70
     1
102
RTVSPropertyOp5
 70
     1
102
RTVSPropertyOp6
 70
     1
102
RTVSPropertyOp7
 70
     1
102
RTVSPropertyOp8
 70
     1
102
RTVSPropertyOp9
 70
     1
102
RTVSPropertyOp10
 70
     1
102
RTVSPropertyOp11
 70
     1
102
RTVSPropertyOp12
 70
     1
102
RTVSPropertyOp13
 70
     1
102
RTVSPropertyOp14
 70
     1
102
RTVSPropertyOp15
 70
     1
102
RTVSPropertyOp16
 70
     1
102
RTVSPropertyOp17
 70
     1
102
RTVSPropertyOp18
 70
     1
102
RTVSPropertyOp19
 70
     1
102
RTVSPropertyOp20
 70
     1
102
RTVSPropertyOp21
 70
     1
102
RTVSPropertyOp22
 70
     1
102
RTVSPropertyOp23
 70
     1
102
RTVSPropertyOp24
 70
     1
102
RTVSPropertyOp25
 70
     1
102
RTVSPropertyOp26
 70
     1
102
RTVSPropertyOp27
 70
     1
102
RTVSPropertyOp28
 70
     1
102
RTVSPropertyOp29
 70
     1
102
RTVSPropertyOp30
 70
     1
102
RTVSPropertyOp31
 70
     1
102
RTVSPropertyOp32
 70
     1
102
RTVSPropertyOp33
 70
     1
102
RTVSPropertyOp34
 70
     1
102
RTVSPropertyOp35
 70
     1
102
RTVSPropertyOp36
 70
     1
102
RTVSPropertyOp37
 70
     1
102
RTVSPropertyOp38
 70
     1
102
RTVSPropertyOp39
 70
     1
102
RTVSPropertyOp40
 70
     1
102
RTVSPropertyOp41
 70
     1
102
RTVSPropertyOp42
 70
     1
102
RTVSPropertyOp43
 70
     1
102
RTVSPropertyOp44
 70
     1
102
RTVSPropertyOp45
 70
     1
102
RTVSPropertyOp46
 70
     1
102
RTVSPropertyOp47
 70
     1
102
RTVSPropertyOp48
 70
     1
102
RTVSPropertyOp49
 70
     1
102
RTVSPropertyOp50
 70
     1
102
RTVSPropertyOp51
 70
     0
102
RTVSPropertyOp52
 70
     0
102
RTVSPropertyOp53
 70
     1
102
RTVSPropertyOp54
 70
     1
102
RTVSPropertyOp55
 70
     1
102
RTVSPropertyOp56
 70
     1
102
RTVSPropertyOp57
 70
     1
102
RTVSPropertyOp58
 70
     1
102
RTVSPropertyOp59
 70
     1
102
RTVSPropertyOp60
 70
     1
102
RTVSPropertyOp61
 70
     1
102
RTVSPropertyOp62
 70
     1
  0
XRECORD
  5
1AAF
102
{ACAD_REACTORS
330
1AAE
102
}
330
1AAE
100
AcDbXrecord
280
     1
102
RTVSPost2010Prop28
280
     0
102
RTVSPost2010PropOp28
 70
     1
102
RTVSPost2010Prop29
280
     1
102
RTVSPost2010PropOp29
 70
     1
102
RTVSPost2010Prop30
280
     1
102
RTVSPost2010PropOp30
 70
     1
102
RTVSPost2010Prop31
280
     0
102
RTVSPost2010PropOp31
 70
     1
102
RTVSPost2010Prop32
280
     0
102
RTVSPost2010PropOp32
 70
     1
102
RTVSPost2010Prop33
280
     0
102
RTVSPost2010PropOp33
 70
     1
102
RTVSPost2010Prop34
280
     0
102
RTVSPost2010PropOp34
 70
     1
102
RTVSPost2010Prop35
280
     0
102
RTVSPost2010PropOp35
 70
     1
102
RTVSPost2010Prop36
280
     0
102
RTVSPost2010PropOp36
 70
     1
102
RTVSPost2010Prop37
 90
       50
102
RTVSPost2010PropOp37
 70
     1
102
RTVSPost2010Prop38
140
0.0
102
RTVSPost2010PropOp38
 70
     1
102
RTVSPost2010Prop39
140
1.0
102
RTVSPost2010PropOp39
 70
     1
102
RTVSPost2010Prop40
 90
        0
102
RTVSPost2010PropOp40
 70
     1
102
RTVSPost2010Prop41ColorIndex
 90
       18
102
RTVSPost2010Prop41ColorRGB
 90
        0
102
RTVSPost2010PropOp41
 70
     1
102
RTVSPost2010Prop42
 90
       50
102
RTVSPost2010PropOp42
 70
     1
102
RTVSPost2010Prop43
 90
        3
102
RTVSPost2010PropOp43
 70
     1
102
RTVSPost2010Prop44ColorIndex
 90
        5
102
RTVSPost2010Prop44ColorRGB
 90
      255
102
RTVSPost2010PropOp44
 70
     1
102
RTVSPost2010Prop45
280
     0
102
RTVSPost2010PropOp45
 70
     1
102
RTVSPost2010Prop46
 90
       50
102
RTVSPost2010PropOp46
 70
     1
102
RTVSPost2010Prop47
 90
       50
102
RTVSPost2010PropOp47
 70
     1
102
RTVSPost2010Prop48
 90
       50
102
RTVSPost2010PropOp48
 70
     1
102
RTVSPost2010Prop49
280
     0
102
RTVSPost2010PropOp49
 70
     1
102
RTVSPost2010Prop50
 90
       50
102
RTVSPost2010PropOp50
 70
     1
102
RTVSPost2010Prop51ColorIndex
 90
      256
102
RTVSPost2010Prop51ColorRGB
 90
-16777216
102
RTVSPost2010PropOp51
 70
     0
102
RTVSPost2010Prop52
140
1.0
102
RTVSPost2010PropOp52
 70
     0
102
RTVSPost2010Prop53
 90
        2
102
RTVSPost2010PropOp53
 70
     1
102
RTVSPost2010Prop54
  1
strokes_ogs.tif
102
RTVSPost2010PropOp54
 70
     1
102
RTVSPost2010Prop55
280
     0
102
RTVSPost2010PropOp55
 70
     1
102
RTVSPost2010Prop56
140
1.0
102
RTVSPost2010PropOp56
 70
     1
102
RTVSPost2010Prop57
140
1.0
102
RTVSPost2010PropOp57
 70
     1
102
RTVSPropertyOp0
 70
     1
102
RTVSPropertyOp1
 70
     1
102
RTVSPropertyOp2
 70
     1
102
RTVSPropertyOp3
 70
     1
102
RTVSPropertyOp4
 70
     1
102
RTVSPropertyOp5
 70
     1
102
RTVSPropertyOp6
 70
     1
102
RTVSPropertyOp7
 70
     1
102
RTVSPropertyOp8
 70
     1
102
RTVSPropertyOp9
 70
     1
102
RTVSPropertyOp10
 70
     1
102
RTVSPropertyOp11
 70
     1
102
RTVSPropertyOp12
 70
     1
102
RTVSPropertyOp13
 70
     1
102
RTVSPropertyOp14
 70
     1
102
RTVSPropertyOp15
 70
     1
102
RTVSPropertyOp16
 70
     1
102
RTVSPropertyOp17
 70
     1
102
RTVSPropertyOp18
 70
     1
102
RTVSPropertyOp19
 70
     1
102
RTVSPropertyOp20
 70
     1
102
RTVSPropertyOp21
 70
     1
102
RTVSPropertyOp22
 70
     1
102
RTVSPropertyOp23
 70
     1
102
RTVSPropertyOp24
 70
     1
102
RTVSPropertyOp25
 70
     1
102
RTVSPropertyOp26
 70
     1
102
RTVSPropertyOp27
 70
     1
102
RTVSPropertyOp28
 70
     1
102
RTVSPropertyOp29
 70
     1
102
RTVSPropertyOp30
 70
     1
102
RTVSPropertyOp31
 70
     1
102
RTVSPropertyOp32
 70
     1
102
RTVSPropertyOp33
 70
     1
102
RTVSPropertyOp34
 70
     1
102
RTVSPropertyOp35
 70
     1
102
RTVSPropertyOp36
 70
     1
102
RTVSPropertyOp37
 70
     1
102
RTVSPropertyOp38
 70
     1
102
RTVSPropertyOp39
 70
     1
102
RTVSPropertyOp40
 70
     1
102
RTVSPropertyOp41
 70
     1
102
RTVSPropertyOp42
 70
     1
102
RTVSPropertyOp43
 70
     1
102
RTVSPropertyOp44
 70
     1
102
RTVSPropertyOp45
 70
     1
102
RTVSPropertyOp46
 70
     1
102
RTVSPropertyOp47
 70
     1
102
RTVSPropertyOp48
 70
     1
102
RTVSPropertyOp49
 70
     1
102
RTVSPropertyOp50
 70
     1
102
RTVSPropertyOp51
 70
     0
102
RTVSPropertyOp52
 70
     0
102
RTVSPropertyOp53
 70
     1
102
RTVSPropertyOp54
 70
     1
102
RTVSPropertyOp55
 70
     1
102
RTVSPropertyOp56
 70
     1
102
RTVSPropertyOp57
 70
     1
102
RTVSPropertyOp58
 70
     1
102
RTVSPropertyOp59
 70
     1
102
RTVSPropertyOp60
 70
     1
102
RTVSPropertyOp61
 70
     1
102
RTVSPropertyOp62
 70
     1
  0
XRECORD
  5
1AB7
102
{ACAD_REACTORS
330
1AB6
102
}
330
1AB6
100
AcDbXrecord
280
     1
102
RTVSPost2010Prop28
280
     0
102
RTVSPost2010PropOp28
 70
     1
102
RTVSPost2010Prop29
280
     1
102
RTVSPost2010PropOp29
 70
     1
102
RTVSPost2010Prop30
280
     1
102
RTVSPost2010PropOp30
 70
     1
102
RTVSPost2010Prop31
280
     0
102
RTVSPost2010PropOp31
 70
     1
102
RTVSPost2010Prop32
280
     0
102
RTVSPost2010PropOp32
 70
     1
102
RTVSPost2010Prop33
280
     0
102
RTVSPost2010PropOp33
 70
     1
102
RTVSPost2010Prop34
280
     0
102
RTVSPost2010PropOp34
 70
     1
102
RTVSPost2010Prop35
280
     0
102
RTVSPost2010PropOp35
 70
     1
102
RTVSPost2010Prop36
280
     0
102
RTVSPost2010PropOp36
 70
     1
102
RTVSPost2010Prop37
 90
       50
102
RTVSPost2010PropOp37
 70
     1
102
RTVSPost2010Prop38
140
0.0
102
RTVSPost2010PropOp38
 70
     1
102
RTVSPost2010Prop39
140
1.0
102
RTVSPost2010PropOp39
 70
     1
102
RTVSPost2010Prop40
 90
        0
102
RTVSPost2010PropOp40
 70
     1
102
RTVSPost2010Prop41ColorIndex
 90
       18
102
RTVSPost2010Prop41ColorRGB
 90
        0
102
RTVSPost2010PropOp41
 70
     1
102
RTVSPost2010Prop42
 90
       50
102
RTVSPost2010PropOp42
 70
     1
102
RTVSPost2010Prop43
 90
        3
102
RTVSPost2010PropOp43
 70
     1
102
RTVSPost2010Prop44ColorIndex
 90
        5
102
RTVSPost2010Prop44ColorRGB
 90
      255
102
RTVSPost2010PropOp44
 70
     1
102
RTVSPost2010Prop45
280
     0
102
RTVSPost2010PropOp45
 70
     1
102
RTVSPost2010Prop46
 90
       50
102
RTVSPost2010PropOp46
 70
     1
102
RTVSPost2010Prop47
 90
       50
102
RTVSPost2010PropOp47
 70
     1
102
RTVSPost2010Prop48
 90
       50
102
RTVSPost2010PropOp48
 70
     1
102
RTVSPost2010Prop49
280
     0
102
RTVSPost2010PropOp49
 70
     1
102
RTVSPost2010Prop50
 90
       50
102
RTVSPost2010PropOp50
 70
     1
102
RTVSPost2010Prop51ColorIndex
 90
      256
102
RTVSPost2010Prop51ColorRGB
 90
-16777216
102
RTVSPost2010PropOp51
 70
     0
102
RTVSPost2010Prop52
140
1.0
102
RTVSPost2010PropOp52
 70
     0
102
RTVSPost2010Prop53
 90
        2
102
RTVSPost2010PropOp53
 70
     1
102
RTVSPost2010Prop54
  1
strokes_ogs.tif
102
RTVSPost2010PropOp54
 70
     1
102
RTVSPost2010Prop55
280
     0
102
RTVSPost2010PropOp55
 70
     1
102
RTVSPost2010Prop56
140
1.0
102
RTVSPost2010PropOp56
 70
     1
102
RTVSPost2010Prop57
140
1.0
102
RTVSPost2010PropOp57
 70
     1
102
RTVSPropertyOp0
 70
     1
102
RTVSPropertyOp1
 70
     1
102
RTVSPropertyOp2
 70
     1
102
RTVSPropertyOp3
 70
     1
102
RTVSPropertyOp4
 70
     1
102
RTVSPropertyOp5
 70
     1
102
RTVSPropertyOp6
 70
     1
102
RTVSPropertyOp7
 70
     1
102
RTVSPropertyOp8
 70
     1
102
RTVSPropertyOp9
 70
     1
102
RTVSPropertyOp10
 70
     1
102
RTVSPropertyOp11
 70
     1
102
RTVSPropertyOp12
 70
     1
102
RTVSPropertyOp13
 70
     1
102
RTVSPropertyOp14
 70
     1
102
RTVSPropertyOp15
 70
     1
102
RTVSPropertyOp16
 70
     1
102
RTVSPropertyOp17
 70
     1
102
RTVSPropertyOp18
 70
     1
102
RTVSPropertyOp19
 70
     1
102
RTVSPropertyOp20
 70
     1
102
RTVSPropertyOp21
 70
     1
102
RTVSPropertyOp22
 70
     1
102
RTVSPropertyOp23
 70
     1
102
RTVSPropertyOp24
 70
     1
102
RTVSPropertyOp25
 70
     1
102
RTVSPropertyOp26
 70
     1
102
RTVSPropertyOp27
 70
     1
102
RTVSPropertyOp28
 70
     1
102
RTVSPropertyOp29
 70
     1
102
RTVSPropertyOp30
 70
     1
102
RTVSPropertyOp31
 70
     1
102
RTVSPropertyOp32
 70
     1
102
RTVSPropertyOp33
 70
     1
102
RTVSPropertyOp34
 70
     1
102
RTVSPropertyOp35
 70
     1
102
RTVSPropertyOp36
 70
     1
102
RTVSPropertyOp37
 70
     1
102
RTVSPropertyOp38
 70
     1
102
RTVSPropertyOp39
 70
     1
102
RTVSPropertyOp40
 70
     1
102
RTVSPropertyOp41
 70
     1
102
RTVSPropertyOp42
 70
     1
102
RTVSPropertyOp43
 70
     1
102
RTVSPropertyOp44
 70
     1
102
RTVSPropertyOp45
 70
     1
102
RTVSPropertyOp46
 70
     1
102
RTVSPropertyOp47
 70
     1
102
RTVSPropertyOp48
 70
     1
102
RTVSPropertyOp49
 70
     1
102
RTVSPropertyOp50
 70
     1
102
RTVSPropertyOp51
 70
     0
102
RTVSPropertyOp52
 70
     0
102
RTVSPropertyOp53
 70
     1
102
RTVSPropertyOp54
 70
     1
102
RTVSPropertyOp55
 70
     1
102
RTVSPropertyOp56
 70
     1
102
RTVSPropertyOp57
 70
     1
102
RTVSPropertyOp58
 70
     1
102
RTVSPropertyOp59
 70
     1
102
RTVSPropertyOp60
 70
     1
102
RTVSPropertyOp61
 70
     1
102
RTVSPropertyOp62
 70
     1
  0
XRECORD
  5
1AD3
102
{ACAD_REACTORS
330
1AD2
102
}
330
1AD2
100
AcDbXrecord
280
     1
102
RTVSPost2010Prop28
280
     0
102
RTVSPost2010PropOp28
 70
     1
102
RTVSPost2010Prop29
280
     1
102
RTVSPost2010PropOp29
 70
     1
102
RTVSPost2010Prop30
280
     1
102
RTVSPost2010PropOp30
 70
     1
102
RTVSPost2010Prop31
280
     0
102
RTVSPost2010PropOp31
 70
     1
102
RTVSPost2010Prop32
280
     0
102
RTVSPost2010PropOp32
 70
     1
102
RTVSPost2010Prop33
280
     0
102
RTVSPost2010PropOp33
 70
     1
102
RTVSPost2010Prop34
280
     0
102
RTVSPost2010PropOp34
 70
     1
102
RTVSPost2010Prop35
280
     0
102
RTVSPost2010PropOp35
 70
     1
102
RTVSPost2010Prop36
280
     0
102
RTVSPost2010PropOp36
 70
     1
102
RTVSPost2010Prop37
 90
       50
102
RTVSPost2010PropOp37
 70
     0
102
RTVSPost2010Prop38
140
0.0
102
RTVSPost2010PropOp38
 70
     0
102
RTVSPost2010Prop39
140
1.0
102
RTVSPost2010PropOp39
 70
     0
102
RTVSPost2010Prop40
 90
        0
102
RTVSPost2010PropOp40
 70
     0
102
RTVSPost2010Prop41ColorIndex
 90
       18
102
RTVSPost2010Prop41ColorRGB
 90
        0
102
RTVSPost2010PropOp41
 70
     0
102
RTVSPost2010Prop42
 90
       50
102
RTVSPost2010PropOp42
 70
     0
102
RTVSPost2010Prop43
 90
        3
102
RTVSPost2010PropOp43
 70
     0
102
RTVSPost2010Prop44ColorIndex
 90
        5
102
RTVSPost2010Prop44ColorRGB
 90
      255
102
RTVSPost2010PropOp44
 70
     0
102
RTVSPost2010Prop45
280
     0
102
RTVSPost2010PropOp45
 70
     1
102
RTVSPost2010Prop46
 90
       50
102
RTVSPost2010PropOp46
 70
     0
102
RTVSPost2010Prop47
 90
       50
102
RTVSPost2010PropOp47
 70
     0
102
RTVSPost2010Prop48
 90
       50
102
RTVSPost2010PropOp48
 70
     0
102
RTVSPost2010Prop49
280
     0
102
RTVSPost2010PropOp49
 70
     1
102
RTVSPost2010Prop50
 90
       50
102
RTVSPost2010PropOp50
 70
     0
102
RTVSPost2010Prop51ColorIndex
 90
      256
102
RTVSPost2010Prop51ColorRGB
 90
-16777216
102
RTVSPost2010PropOp51
 70
     0
102
RTVSPost2010Prop52
140
1.0
102
RTVSPost2010PropOp52
 70
     0
102
RTVSPost2010Prop53
 90
        2
102
RTVSPost2010PropOp53
 70
     0
102
RTVSPost2010Prop54
  1
strokes_ogs.tif
102
RTVSPost2010PropOp54
 70
     0
102
RTVSPost2010Prop55
280
     0
102
RTVSPost2010PropOp55
 70
     1
102
RTVSPost2010Prop56
140
1.0
102
RTVSPost2010PropOp56
 70
     0
102
RTVSPost2010Prop57
140
1.0
102
RTVSPost2010PropOp57
 70
     0
102
RTVSPropertyOp0
 70
     0
102
RTVSPropertyOp1
 70
     0
102
RTVSPropertyOp2
 70
     0
102
RTVSPropertyOp3
 70
     0
102
RTVSPropertyOp4
 70
     0
102
RTVSPropertyOp5
 70
     0
102
RTVSPropertyOp6
 70
     0
102
RTVSPropertyOp7
 70
     0
102
RTVSPropertyOp8
 70
     0
102
RTVSPropertyOp9
 70
     0
102
RTVSPropertyOp10
 70
     0
102
RTVSPropertyOp11
 70
     0
102
RTVSPropertyOp12
 70
     0
102
RTVSPropertyOp13
 70
     0
102
RTVSPropertyOp14
 70
     2
102
RTVSPropertyOp15
 70
     0
102
RTVSPropertyOp16
 70
     0
102
RTVSPropertyOp17
 70
     0
102
RTVSPropertyOp18
 70
     0
102
RTVSPropertyOp19
 70
     0
102
RTVSPropertyOp20
 70
     0
102
RTVSPropertyOp21
 70
     0
102
RTVSPropertyOp22
 70
     0
102
RTVSPropertyOp23
 70
     0
102
RTVSPropertyOp24
 70
     0
102
RTVSPropertyOp25
 70
     0
102
RTVSPropertyOp26
 70
     0
102
RTVSPropertyOp27
 70
     0
102
RTVSPropertyOp28
 70
     1
102
RTVSPropertyOp29
 70
     1
102
RTVSPropertyOp30
 70
     1
102
RTVSPropertyOp31
 70
     1
102
RTVSPropertyOp32
 70
     1
102
RTVSPropertyOp33
 70
     1
102
RTVSPropertyOp34
 70
     1
102
RTVSPropertyOp35
 70
     1
102
RTVSPropertyOp36
 70
     1
102
RTVSPropertyOp37
 70
     0
102
RTVSPropertyOp38
 70
     0
102
RTVSPropertyOp39
 70
     0
102
RTVSPropertyOp40
 70
     0
102
RTVSPropertyOp41
 70
     0
102
RTVSPropertyOp42
 70
     0
102
RTVSPropertyOp43
 70
     0
102
RTVSPropertyOp44
 70
     0
102
RTVSPropertyOp45
 70
     1
102
RTVSPropertyOp46
 70
     0
102
RTVSPropertyOp47
 70
     0
102
RTVSPropertyOp48
 70
     0
102
RTVSPropertyOp49
 70
     1
102
RTVSPropertyOp50
 70
     0
102
RTVSPropertyOp51
 70
     0
102
RTVSPropertyOp52
 70
     0
102
RTVSPropertyOp53
 70
     0
102
RTVSPropertyOp54
 70
     0
102
RTVSPropertyOp55
 70
     1
102
RTVSPropertyOp56
 70
     0
102
RTVSPropertyOp57
 70
     0
102
RTVSPropertyOp58
 70
     0
102
RTVSPropertyOp59
 70
     0
102
RTVSPropertyOp60
 70
     0
102
RTVSPropertyOp61
 70
     0
102
RTVSPropertyOp62
 70
     0
  0
XRECORD
  5
1AC3
102
{ACAD_REACTORS
330
1AC2
102
}
330
1AC2
100
AcDbXrecord
280
     1
102
RTVSPost2010Prop28
280
     0
102
RTVSPost2010PropOp28
 70
     1
102
RTVSPost2010Prop29
280
     1
102
RTVSPost2010PropOp29
 70
     1
102
RTVSPost2010Prop30
280
     1
102
RTVSPost2010PropOp30
 70
     1
102
RTVSPost2010Prop31
280
     0
102
RTVSPost2010PropOp31
 70
     1
102
RTVSPost2010Prop32
280
     0
102
RTVSPost2010PropOp32
 70
     1
102
RTVSPost2010Prop33
280
     0
102
RTVSPost2010PropOp33
 70
     1
102
RTVSPost2010Prop34
280
     0
102
RTVSPost2010PropOp34
 70
     1
102
RTVSPost2010Prop35
280
     0
102
RTVSPost2010PropOp35
 70
     1
102
RTVSPost2010Prop36
280
     0
102
RTVSPost2010PropOp36
 70
     1
102
RTVSPost2010Prop37
 90
       50
102
RTVSPost2010PropOp37
 70
     1
102
RTVSPost2010Prop38
140
0.0
102
RTVSPost2010PropOp38
 70
     1
102
RTVSPost2010Prop39
140
1.0
102
RTVSPost2010PropOp39
 70
     1
102
RTVSPost2010Prop40
 90
        0
102
RTVSPost2010PropOp40
 70
     1
102
RTVSPost2010Prop41ColorIndex
 90
       18
102
RTVSPost2010Prop41ColorRGB
 90
        0
102
RTVSPost2010PropOp41
 70
     1
102
RTVSPost2010Prop42
 90
       50
102
RTVSPost2010PropOp42
 70
     1
102
RTVSPost2010Prop43
 90
        3
102
RTVSPost2010PropOp43
 70
     1
102
RTVSPost2010Prop44ColorIndex
 90
        5
102
RTVSPost2010Prop44ColorRGB
 90
      255
102
RTVSPost2010PropOp44
 70
     1
102
RTVSPost2010Prop45
280
     0
102
RTVSPost2010PropOp45
 70
     1
102
RTVSPost2010Prop46
 90
       50
102
RTVSPost2010PropOp46
 70
     1
102
RTVSPost2010Prop47
 90
       50
102
RTVSPost2010PropOp47
 70
     1
102
RTVSPost2010Prop48
 90
       50
102
RTVSPost2010PropOp48
 70
     1
102
RTVSPost2010Prop49
280
     0
102
RTVSPost2010PropOp49
 70
     1
102
RTVSPost2010Prop50
 90
       50
102
RTVSPost2010PropOp50
 70
     1
102
RTVSPost2010Prop51ColorIndex
 90
      256
102
RTVSPost2010Prop51ColorRGB
 90
-16777216
102
RTVSPost2010PropOp51
 70
     0
102
RTVSPost2010Prop52
140
1.0
102
RTVSPost2010PropOp52
 70
     0
102
RTVSPost2010Prop53
 90
        2
102
RTVSPost2010PropOp53
 70
     1
102
RTVSPost2010Prop54
  1
strokes_ogs.tif
102
RTVSPost2010PropOp54
 70
     1
102
RTVSPost2010Prop55
280
     0
102
RTVSPost2010PropOp55
 70
     1
102
RTVSPost2010Prop56
140
1.0
102
RTVSPost2010PropOp56
 70
     1
102
RTVSPost2010Prop57
140
1.0
102
RTVSPost2010PropOp57
 70
     1
102
RTVSPropertyOp0
 70
     1
102
RTVSPropertyOp1
 70
     1
102
RTVSPropertyOp2
 70
     1
102
RTVSPropertyOp3
 70
     1
102
RTVSPropertyOp4
 70
     1
102
RTVSPropertyOp5
 70
     1
102
RTVSPropertyOp6
 70
     1
102
RTVSPropertyOp7
 70
     1
102
RTVSPropertyOp8
 70
     1
102
RTVSPropertyOp9
 70
     1
102
RTVSPropertyOp10
 70
     1
102
RTVSPropertyOp11
 70
     1
102
RTVSPropertyOp12
 70
     1
102
RTVSPropertyOp13
 70
     1
102
RTVSPropertyOp14
 70
     1
102
RTVSPropertyOp15
 70
     1
102
RTVSPropertyOp16
 70
     1
102
RTVSPropertyOp17
 70
     1
102
RTVSPropertyOp18
 70
     1
102
RTVSPropertyOp19
 70
     1
102
RTVSPropertyOp20
 70
     1
102
RTVSPropertyOp21
 70
     1
102
RTVSPropertyOp22
 70
     1
102
RTVSPropertyOp23
 70
     1
102
RTVSPropertyOp24
 70
     1
102
RTVSPropertyOp25
 70
     1
102
RTVSPropertyOp26
 70
     1
102
RTVSPropertyOp27
 70
     1
102
RTVSPropertyOp28
 70
     1
102
RTVSPropertyOp29
 70
     1
102
RTVSPropertyOp30
 70
     1
102
RTVSPropertyOp31
 70
     1
102
RTVSPropertyOp32
 70
     1
102
RTVSPropertyOp33
 70
     1
102
RTVSPropertyOp34
 70
     1
102
RTVSPropertyOp35
 70
     1
102
RTVSPropertyOp36
 70
     1
102
RTVSPropertyOp37
 70
     1
102
RTVSPropertyOp38
 70
     1
102
RTVSPropertyOp39
 70
     1
102
RTVSPropertyOp40
 70
     1
102
RTVSPropertyOp41
 70
     1
102
RTVSPropertyOp42
 70
     1
102
RTVSPropertyOp43
 70
     1
102
RTVSPropertyOp44
 70
     1
102
RTVSPropertyOp45
 70
     1
102
RTVSPropertyOp46
 70
     1
102
RTVSPropertyOp47
 70
     1
102
RTVSPropertyOp48
 70
     1
102
RTVSPropertyOp49
 70
     1
102
RTVSPropertyOp50
 70
     1
102
RTVSPropertyOp51
 70
     0
102
RTVSPropertyOp52
 70
     0
102
RTVSPropertyOp53
 70
     1
102
RTVSPropertyOp54
 70
     1
102
RTVSPropertyOp55
 70
     1
102
RTVSPropertyOp56
 70
     1
102
RTVSPropertyOp57
 70
     1
102
RTVSPropertyOp58
 70
     1
102
RTVSPropertyOp59
 70
     1
102
RTVSPropertyOp60
 70
     1
102
RTVSPropertyOp61
 70
     1
102
RTVSPropertyOp62
 70
     1
  0
XRECORD
  5
1AD5
102
{ACAD_REACTORS
330
1AD4
102
}
330
1AD4
100
AcDbXrecord
280
     1
102
RTVSPost2010Prop28
280
     0
102
RTVSPost2010PropOp28
 70
     1
102
RTVSPost2010Prop29
280
     1
102
RTVSPost2010PropOp29
 70
     1
102
RTVSPost2010Prop30
280
     1
102
RTVSPost2010PropOp30
 70
     1
102
RTVSPost2010Prop31
280
     0
102
RTVSPost2010PropOp31
 70
     1
102
RTVSPost2010Prop32
280
     0
102
RTVSPost2010PropOp32
 70
     1
102
RTVSPost2010Prop33
280
     0
102
RTVSPost2010PropOp33
 70
     1
102
RTVSPost2010Prop34
280
     0
102
RTVSPost2010PropOp34
 70
     1
102
RTVSPost2010Prop35
280
     0
102
RTVSPost2010PropOp35
 70
     1
102
RTVSPost2010Prop36
280
     0
102
RTVSPost2010PropOp36
 70
     1
102
RTVSPost2010Prop37
 90
       50
102
RTVSPost2010PropOp37
 70
     0
102
RTVSPost2010Prop38
140
0.0
102
RTVSPost2010PropOp38
 70
     0
102
RTVSPost2010Prop39
140
1.0
102
RTVSPost2010PropOp39
 70
     0
102
RTVSPost2010Prop40
 90
        0
102
RTVSPost2010PropOp40
 70
     0
102
RTVSPost2010Prop41ColorIndex
 90
       18
102
RTVSPost2010Prop41ColorRGB
 90
        0
102
RTVSPost2010PropOp41
 70
     0
102
RTVSPost2010Prop42
 90
       50
102
RTVSPost2010PropOp42
 70
     0
102
RTVSPost2010Prop43
 90
        3
102
RTVSPost2010PropOp43
 70
     0
102
RTVSPost2010Prop44ColorIndex
 90
        5
102
RTVSPost2010Prop44ColorRGB
 90
      255
102
RTVSPost2010PropOp44
 70
     0
102
RTVSPost2010Prop45
280
     0
102
RTVSPost2010PropOp45
 70
     1
102
RTVSPost2010Prop46
 90
       50
102
RTVSPost2010PropOp46
 70
     0
102
RTVSPost2010Prop47
 90
       50
102
RTVSPost2010PropOp47
 70
     0
102
RTVSPost2010Prop48
 90
       50
102
RTVSPost2010PropOp48
 70
     0
102
RTVSPost2010Prop49
280
     0
102
RTVSPost2010PropOp49
 70
     1
102
RTVSPost2010Prop50
 90
       50
102
RTVSPost2010PropOp50
 70
     0
102
RTVSPost2010Prop51ColorIndex
 90
      256
102
RTVSPost2010Prop51ColorRGB
 90
-16777216
102
RTVSPost2010PropOp51
 70
     0
102
RTVSPost2010Prop52
140
1.0
102
RTVSPost2010PropOp52
 70
     0
102
RTVSPost2010Prop53
 90
        2
102
RTVSPost2010PropOp53
 70
     0
102
RTVSPost2010Prop54
  1
strokes_ogs.tif
102
RTVSPost2010PropOp54
 70
     0
102
RTVSPost2010Prop55
280
     0
102
RTVSPost2010PropOp55
 70
     1
102
RTVSPost2010Prop56
140
1.0
102
RTVSPost2010PropOp56
 70
     0
102
RTVSPost2010Prop57
140
1.0
102
RTVSPost2010PropOp57
 70
     0
102
RTVSPropertyOp0
 70
     0
102
RTVSPropertyOp1
 70
     0
102
RTVSPropertyOp2
 70
     0
102
RTVSPropertyOp3
 70
     0
102
RTVSPropertyOp4
 70
     0
102
RTVSPropertyOp5
 70
     0
102
RTVSPropertyOp6
 70
     0
102
RTVSPropertyOp7
 70
     0
102
RTVSPropertyOp8
 70
     0
102
RTVSPropertyOp9
 70
     0
102
RTVSPropertyOp10
 70
     0
102
RTVSPropertyOp11
 70
     0
102
RTVSPropertyOp12
 70
     0
102
RTVSPropertyOp13
 70
     0
102
RTVSPropertyOp14
 70
     2
102
RTVSPropertyOp15
 70
     0
102
RTVSPropertyOp16
 70
     0
102
RTVSPropertyOp17
 70
     0
102
RTVSPropertyOp18
 70
     0
102
RTVSPropertyOp19
 70
     0
102
RTVSPropertyOp20
 70
     0
102
RTVSPropertyOp21
 70
     0
102
RTVSPropertyOp22
 70
     0
102
RTVSPropertyOp23
 70
     0
102
RTVSPropertyOp24
 70
     0
102
RTVSPropertyOp25
 70
     0
102
RTVSPropertyOp26
 70
     0
102
RTVSPropertyOp27
 70
     0
102
RTVSPropertyOp28
 70
     1
102
RTVSPropertyOp29
 70
     1
102
RTVSPropertyOp30
 70
     1
102
RTVSPropertyOp31
 70
     1
102
RTVSPropertyOp32
 70
     1
102
RTVSPropertyOp33
 70
     1
102
RTVSPropertyOp34
 70
     1
102
RTVSPropertyOp35
 70
     1
102
RTVSPropertyOp36
 70
     1
102
RTVSPropertyOp37
 70
     0
102
RTVSPropertyOp38
 70
     0
102
RTVSPropertyOp39
 70
     0
102
RTVSPropertyOp40
 70
     0
102
RTVSPropertyOp41
 70
     0
102
RTVSPropertyOp42
 70
     0
102
RTVSPropertyOp43
 70
     0
102
RTVSPropertyOp44
 70
     0
102
RTVSPropertyOp45
 70
     1
102
RTVSPropertyOp46
 70
     0
102
RTVSPropertyOp47
 70
     0
102
RTVSPropertyOp48
 70
     0
102
RTVSPropertyOp49
 70
     1
102
RTVSPropertyOp50
 70
     0
102
RTVSPropertyOp51
 70
     0
102
RTVSPropertyOp52
 70
     0
102
RTVSPropertyOp53
 70
     0
102
RTVSPropertyOp54
 70
     0
102
RTVSPropertyOp55
 70
     1
102
RTVSPropertyOp56
 70
     0
102
RTVSPropertyOp57
 70
     0
102
RTVSPropertyOp58
 70
     0
102
RTVSPropertyOp59
 70
     0
102
RTVSPropertyOp60
 70
     0
102
RTVSPropertyOp61
 70
     0
102
RTVSPropertyOp62
 70
     0
  0
XRECORD
  5
1ABB
102
{ACAD_REACTORS
330
1ABA
102
}
330
1ABA
100
AcDbXrecord
280
     1
102
RTVSPost2010Prop28
280
     0
102
RTVSPost2010PropOp28
 70
     1
102
RTVSPost2010Prop29
280
     1
102
RTVSPost2010PropOp29
 70
     1
102
RTVSPost2010Prop30
280
     1
102
RTVSPost2010PropOp30
 70
     1
102
RTVSPost2010Prop31
280
     0
102
RTVSPost2010PropOp31
 70
     1
102
RTVSPost2010Prop32
280
     0
102
RTVSPost2010PropOp32
 70
     1
102
RTVSPost2010Prop33
280
     0
102
RTVSPost2010PropOp33
 70
     1
102
RTVSPost2010Prop34
280
     0
102
RTVSPost2010PropOp34
 70
     1
102
RTVSPost2010Prop35
280
     0
102
RTVSPost2010PropOp35
 70
     1
102
RTVSPost2010Prop36
280
     0
102
RTVSPost2010PropOp36
 70
     1
102
RTVSPost2010Prop37
 90
       50
102
RTVSPost2010PropOp37
 70
     1
102
RTVSPost2010Prop38
140
0.0
102
RTVSPost2010PropOp38
 70
     1
102
RTVSPost2010Prop39
140
1.0
102
RTVSPost2010PropOp39
 70
     1
102
RTVSPost2010Prop40
 90
        0
102
RTVSPost2010PropOp40
 70
     1
102
RTVSPost2010Prop41ColorIndex
 90
       18
102
RTVSPost2010Prop41ColorRGB
 90
        0
102
RTVSPost2010PropOp41
 70
     1
102
RTVSPost2010Prop42
 90
       50
102
RTVSPost2010PropOp42
 70
     1
102
RTVSPost2010Prop43
 90
        3
102
RTVSPost2010PropOp43
 70
     1
102
RTVSPost2010Prop44ColorIndex
 90
        5
102
RTVSPost2010Prop44ColorRGB
 90
      255
102
RTVSPost2010PropOp44
 70
     1
102
RTVSPost2010Prop45
280
     0
102
RTVSPost2010PropOp45
 70
     1
102
RTVSPost2010Prop46
 90
       50
102
RTVSPost2010PropOp46
 70
     1
102
RTVSPost2010Prop47
 90
       50
102
RTVSPost2010PropOp47
 70
     1
102
RTVSPost2010Prop48
 90
       50
102
RTVSPost2010PropOp48
 70
     1
102
RTVSPost2010Prop49
280
     0
102
RTVSPost2010PropOp49
 70
     1
102
RTVSPost2010Prop50
 90
       50
102
RTVSPost2010PropOp50
 70
     1
102
RTVSPost2010Prop51ColorIndex
 90
      256
102
RTVSPost2010Prop51ColorRGB
 90
-16777216
102
RTVSPost2010PropOp51
 70
     0
102
RTVSPost2010Prop52
140
1.0
102
RTVSPost2010PropOp52
 70
     0
102
RTVSPost2010Prop53
 90
        2
102
RTVSPost2010PropOp53
 70
     1
102
RTVSPost2010Prop54
  1
strokes_ogs.tif
102
RTVSPost2010PropOp54
 70
     1
102
RTVSPost2010Prop55
280
     0
102
RTVSPost2010PropOp55
 70
     1
102
RTVSPost2010Prop56
140
1.0
102
RTVSPost2010PropOp56
 70
     1
102
RTVSPost2010Prop57
140
1.0
102
RTVSPost2010PropOp57
 70
     1
102
RTVSPropertyOp0
 70
     1
102
RTVSPropertyOp1
 70
     1
102
RTVSPropertyOp2
 70
     1
102
RTVSPropertyOp3
 70
     1
102
RTVSPropertyOp4
 70
     1
102
RTVSPropertyOp5
 70
     1
102
RTVSPropertyOp6
 70
     1
102
RTVSPropertyOp7
 70
     1
102
RTVSPropertyOp8
 70
     1
102
RTVSPropertyOp9
 70
     1
102
RTVSPropertyOp10
 70
     1
102
RTVSPropertyOp11
 70
     1
102
RTVSPropertyOp12
 70
     1
102
RTVSPropertyOp13
 70
     1
102
RTVSPropertyOp14
 70
     1
102
RTVSPropertyOp15
 70
     1
102
RTVSPropertyOp16
 70
     1
102
RTVSPropertyOp17
 70
     1
102
RTVSPropertyOp18
 70
     1
102
RTVSPropertyOp19
 70
     1
102
RTVSPropertyOp20
 70
     1
102
RTVSPropertyOp21
 70
     1
102
RTVSPropertyOp22
 70
     1
102
RTVSPropertyOp23
 70
     1
102
RTVSPropertyOp24
 70
     1
102
RTVSPropertyOp25
 70
     1
102
RTVSPropertyOp26
 70
     1
102
RTVSPropertyOp27
 70
     1
102
RTVSPropertyOp28
 70
     1
102
RTVSPropertyOp29
 70
     1
102
RTVSPropertyOp30
 70
     1
102
RTVSPropertyOp31
 70
     1
102
RTVSPropertyOp32
 70
     1
102
RTVSPropertyOp33
 70
     1
102
RTVSPropertyOp34
 70
     1
102
RTVSPropertyOp35
 70
     1
102
RTVSPropertyOp36
 70
     1
102
RTVSPropertyOp37
 70
     1
102
RTVSPropertyOp38
 70
     1
102
RTVSPropertyOp39
 70
     1
102
RTVSPropertyOp40
 70
     1
102
RTVSPropertyOp41
 70
     1
102
RTVSPropertyOp42
 70
     1
102
RTVSPropertyOp43
 70
     1
102
RTVSPropertyOp44
 70
     1
102
RTVSPropertyOp45
 70
     1
102
RTVSPropertyOp46
 70
     1
102
RTVSPropertyOp47
 70
     1
102
RTVSPropertyOp48
 70
     1
102
RTVSPropertyOp49
 70
     1
102
RTVSPropertyOp50
 70
     1
102
RTVSPropertyOp51
 70
     0
102
RTVSPropertyOp52
 70
     0
102
RTVSPropertyOp53
 70
     1
102
RTVSPropertyOp54
 70
     1
102
RTVSPropertyOp55
 70
     1
102
RTVSPropertyOp56
 70
     1
102
RTVSPropertyOp57
 70
     1
102
RTVSPropertyOp58
 70
     1
102
RTVSPropertyOp59
 70
     1
102
RTVSPropertyOp60
 70
     1
102
RTVSPropertyOp61
 70
     1
102
RTVSPropertyOp62
 70
     1
  0
XRECORD
  5
1AD1
102
{ACAD_REACTORS
330
1AD0
102
}
330
1AD0
100
AcDbXrecord
280
     1
102
RTVSPost2010Prop28
280
     0
102
RTVSPost2010PropOp28
 70
     1
102
RTVSPost2010Prop29
280
     1
102
RTVSPost2010PropOp29
 70
     1
102
RTVSPost2010Prop30
280
     1
102
RTVSPost2010PropOp30
 70
     1
102
RTVSPost2010Prop31
280
     0
102
RTVSPost2010PropOp31
 70
     1
102
RTVSPost2010Prop32
280
     0
102
RTVSPost2010PropOp32
 70
     1
102
RTVSPost2010Prop33
280
     0
102
RTVSPost2010PropOp33
 70
     1
102
RTVSPost2010Prop34
280
     0
102
RTVSPost2010PropOp34
 70
     1
102
RTVSPost2010Prop35
280
     0
102
RTVSPost2010PropOp35
 70
     1
102
RTVSPost2010Prop36
280
     0
102
RTVSPost2010PropOp36
 70
     1
102
RTVSPost2010Prop37
 90
       50
102
RTVSPost2010PropOp37
 70
     1
102
RTVSPost2010Prop38
140
0.0
102
RTVSPost2010PropOp38
 70
     1
102
RTVSPost2010Prop39
140
1.0
102
RTVSPost2010PropOp39
 70
     1
102
RTVSPost2010Prop40
 90
        0
102
RTVSPost2010PropOp40
 70
     1
102
RTVSPost2010Prop41ColorIndex
 90
       18
102
RTVSPost2010Prop41ColorRGB
 90
        0
102
RTVSPost2010PropOp41
 70
     1
102
RTVSPost2010Prop42
 90
       50
102
RTVSPost2010PropOp42
 70
     1
102
RTVSPost2010Prop43
 90
        3
102
RTVSPost2010PropOp43
 70
     1
102
RTVSPost2010Prop44ColorIndex
 90
        5
102
RTVSPost2010Prop44ColorRGB
 90
      255
102
RTVSPost2010PropOp44
 70
     1
102
RTVSPost2010Prop45
280
     0
102
RTVSPost2010PropOp45
 70
     1
102
RTVSPost2010Prop46
 90
       50
102
RTVSPost2010PropOp46
 70
     1
102
RTVSPost2010Prop47
 90
       50
102
RTVSPost2010PropOp47
 70
     1
102
RTVSPost2010Prop48
 90
       50
102
RTVSPost2010PropOp48
 70
     1
102
RTVSPost2010Prop49
280
     0
102
RTVSPost2010PropOp49
 70
     1
102
RTVSPost2010Prop50
 90
       50
102
RTVSPost2010PropOp50
 70
     1
102
RTVSPost2010Prop51ColorIndex
 90
      256
102
RTVSPost2010Prop51ColorRGB
 90
-16777216
102
RTVSPost2010PropOp51
 70
     0
102
RTVSPost2010Prop52
140
1.0
102
RTVSPost2010PropOp52
 70
     0
102
RTVSPost2010Prop53
 90
        2
102
RTVSPost2010PropOp53
 70
     1
102
RTVSPost2010Prop54
  1
strokes_ogs.tif
102
RTVSPost2010PropOp54
 70
     1
102
RTVSPost2010Prop55
280
     0
102
RTVSPost2010PropOp55
 70
     1
102
RTVSPost2010Prop56
140
1.0
102
RTVSPost2010PropOp56
 70
     1
102
RTVSPost2010Prop57
140
1.0
102
RTVSPost2010PropOp57
 70
     1
102
RTVSPropertyOp0
 70
     1
102
RTVSPropertyOp1
 70
     1
102
RTVSPropertyOp2
 70
     1
102
RTVSPropertyOp3
 70
     1
102
RTVSPropertyOp4
 70
     1
102
RTVSPropertyOp5
 70
     1
102
RTVSPropertyOp6
 70
     1
102
RTVSPropertyOp7
 70
     1
102
RTVSPropertyOp8
 70
     1
102
RTVSPropertyOp9
 70
     1
102
RTVSPropertyOp10
 70
     1
102
RTVSPropertyOp11
 70
     1
102
RTVSPropertyOp12
 70
     1
102
RTVSPropertyOp13
 70
     1
102
RTVSPropertyOp14
 70
     1
102
RTVSPropertyOp15
 70
     1
102
RTVSPropertyOp16
 70
     1
102
RTVSPropertyOp17
 70
     1
102
RTVSPropertyOp18
 70
     1
102
RTVSPropertyOp19
 70
     1
102
RTVSPropertyOp20
 70
     1
102
RTVSPropertyOp21
 70
     1
102
RTVSPropertyOp22
 70
     1
102
RTVSPropertyOp23
 70
     1
102
RTVSPropertyOp24
 70
     1
102
RTVSPropertyOp25
 70
     1
102
RTVSPropertyOp26
 70
     1
102
RTVSPropertyOp27
 70
     1
102
RTVSPropertyOp28
 70
     1
102
RTVSPropertyOp29
 70
     1
102
RTVSPropertyOp30
 70
     1
102
RTVSPropertyOp31
 70
     1
102
RTVSPropertyOp32
 70
     1
102
RTVSPropertyOp33
 70
     1
102
RTVSPropertyOp34
 70
     1
102
RTVSPropertyOp35
 70
     1
102
RTVSPropertyOp36
 70
     1
102
RTVSPropertyOp37
 70
     1
102
RTVSPropertyOp38
 70
     1
102
RTVSPropertyOp39
 70
     1
102
RTVSPropertyOp40
 70
     1
102
RTVSPropertyOp41
 70
     1
102
RTVSPropertyOp42
 70
     1
102
RTVSPropertyOp43
 70
     1
102
RTVSPropertyOp44
 70
     1
102
RTVSPropertyOp45
 70
     1
102
RTVSPropertyOp46
 70
     1
102
RTVSPropertyOp47
 70
     1
102
RTVSPropertyOp48
 70
     1
102
RTVSPropertyOp49
 70
     1
102
RTVSPropertyOp50
 70
     1
102
RTVSPropertyOp51
 70
     0
102
RTVSPropertyOp52
 70
     0
102
RTVSPropertyOp53
 70
     1
102
RTVSPropertyOp54
 70
     1
102
RTVSPropertyOp55
 70
     1
102
RTVSPropertyOp56
 70
     1
102
RTVSPropertyOp57
 70
     1
102
RTVSPropertyOp58
 70
     1
102
RTVSPropertyOp59
 70
     1
102
RTVSPropertyOp60
 70
     1
102
RTVSPropertyOp61
 70
     1
102
RTVSPropertyOp62
 70
     1
  0
XRECORD
  5
1ACF
102
{ACAD_REACTORS
330
1ACE
102
}
330
1ACE
100
AcDbXrecord
280
     1
102
RTVSPost2010Prop28
280
     0
102
RTVSPost2010PropOp28
 70
     1
102
RTVSPost2010Prop29
280
     1
102
RTVSPost2010PropOp29
 70
     1
102
RTVSPost2010Prop30
280
     1
102
RTVSPost2010PropOp30
 70
     1
102
RTVSPost2010Prop31
280
     0
102
RTVSPost2010PropOp31
 70
     1
102
RTVSPost2010Prop32
280
     0
102
RTVSPost2010PropOp32
 70
     1
102
RTVSPost2010Prop33
280
     0
102
RTVSPost2010PropOp33
 70
     1
102
RTVSPost2010Prop34
280
     0
102
RTVSPost2010PropOp34
 70
     1
102
RTVSPost2010Prop35
280
     0
102
RTVSPost2010PropOp35
 70
     1
102
RTVSPost2010Prop36
280
     0
102
RTVSPost2010PropOp36
 70
     1
102
RTVSPost2010Prop37
 90
       50
102
RTVSPost2010PropOp37
 70
     1
102
RTVSPost2010Prop38
140
0.0
102
RTVSPost2010PropOp38
 70
     1
102
RTVSPost2010Prop39
140
1.0
102
RTVSPost2010PropOp39
 70
     1
102
RTVSPost2010Prop40
 90
        0
102
RTVSPost2010PropOp40
 70
     1
102
RTVSPost2010Prop41ColorIndex
 90
       18
102
RTVSPost2010Prop41ColorRGB
 90
        0
102
RTVSPost2010PropOp41
 70
     1
102
RTVSPost2010Prop42
 90
       50
102
RTVSPost2010PropOp42
 70
     1
102
RTVSPost2010Prop43
 90
        3
102
RTVSPost2010PropOp43
 70
     1
102
RTVSPost2010Prop44ColorIndex
 90
        5
102
RTVSPost2010Prop44ColorRGB
 90
      255
102
RTVSPost2010PropOp44
 70
     1
102
RTVSPost2010Prop45
280
     0
102
RTVSPost2010PropOp45
 70
     1
102
RTVSPost2010Prop46
 90
       50
102
RTVSPost2010PropOp46
 70
     1
102
RTVSPost2010Prop47
 90
       50
102
RTVSPost2010PropOp47
 70
     1
102
RTVSPost2010Prop48
 90
       50
102
RTVSPost2010PropOp48
 70
     1
102
RTVSPost2010Prop49
280
     0
102
RTVSPost2010PropOp49
 70
     1
102
RTVSPost2010Prop50
 90
       50
102
RTVSPost2010PropOp50
 70
     1
102
RTVSPost2010Prop51ColorIndex
 90
      256
102
RTVSPost2010Prop51ColorRGB
 90
-16777216
102
RTVSPost2010PropOp51
 70
     0
102
RTVSPost2010Prop52
140
1.0
102
RTVSPost2010PropOp52
 70
     0
102
RTVSPost2010Prop53
 90
        2
102
RTVSPost2010PropOp53
 70
     1
102
RTVSPost2010Prop54
  1
strokes_ogs.tif
102
RTVSPost2010PropOp54
 70
     1
102
RTVSPost2010Prop55
280
     0
102
RTVSPost2010PropOp55
 70
     1
102
RTVSPost2010Prop56
140
1.0
102
RTVSPost2010PropOp56
 70
     1
102
RTVSPost2010Prop57
140
1.0
102
RTVSPost2010PropOp57
 70
     1
102
RTVSPropertyOp0
 70
     1
102
RTVSPropertyOp1
 70
     1
102
RTVSPropertyOp2
 70
     1
102
RTVSPropertyOp3
 70
     1
102
RTVSPropertyOp4
 70
     1
102
RTVSPropertyOp5
 70
     1
102
RTVSPropertyOp6
 70
     1
102
RTVSPropertyOp7
 70
     1
102
RTVSPropertyOp8
 70
     1
102
RTVSPropertyOp9
 70
     1
102
RTVSPropertyOp10
 70
     1
102
RTVSPropertyOp11
 70
     1
102
RTVSPropertyOp12
 70
     1
102
RTVSPropertyOp13
 70
     1
102
RTVSPropertyOp14
 70
     1
102
RTVSPropertyOp15
 70
     1
102
RTVSPropertyOp16
 70
     1
102
RTVSPropertyOp17
 70
     1
102
RTVSPropertyOp18
 70
     1
102
RTVSPropertyOp19
 70
     1
102
RTVSPropertyOp20
 70
     1
102
RTVSPropertyOp21
 70
     1
102
RTVSPropertyOp22
 70
     1
102
RTVSPropertyOp23
 70
     1
102
RTVSPropertyOp24
 70
     1
102
RTVSPropertyOp25
 70
     1
102
RTVSPropertyOp26
 70
     1
102
RTVSPropertyOp27
 70
     1
102
RTVSPropertyOp28
 70
     1
102
RTVSPropertyOp29
 70
     1
102
RTVSPropertyOp30
 70
     1
102
RTVSPropertyOp31
 70
     1
102
RTVSPropertyOp32
 70
     1
102
RTVSPropertyOp33
 70
     1
102
RTVSPropertyOp34
 70
     1
102
RTVSPropertyOp35
 70
     1
102
RTVSPropertyOp36
 70
     1
102
RTVSPropertyOp37
 70
     1
102
RTVSPropertyOp38
 70
     1
102
RTVSPropertyOp39
 70
     1
102
RTVSPropertyOp40
 70
     1
102
RTVSPropertyOp41
 70
     1
102
RTVSPropertyOp42
 70
     1
102
RTVSPropertyOp43
 70
     1
102
RTVSPropertyOp44
 70
     1
102
RTVSPropertyOp45
 70
     1
102
RTVSPropertyOp46
 70
     1
102
RTVSPropertyOp47
 70
     1
102
RTVSPropertyOp48
 70
     1
102
RTVSPropertyOp49
 70
     1
102
RTVSPropertyOp50
 70
     1
102
RTVSPropertyOp51
 70
     0
102
RTVSPropertyOp52
 70
     0
102
RTVSPropertyOp53
 70
     1
102
RTVSPropertyOp54
 70
     1
102
RTVSPropertyOp55
 70
     1
102
RTVSPropertyOp56
 70
     1
102
RTVSPropertyOp57
 70
     1
102
RTVSPropertyOp58
 70
     1
102
RTVSPropertyOp59
 70
     1
102
RTVSPropertyOp60
 70
     1
102
RTVSPropertyOp61
 70
     1
102
RTVSPropertyOp62
 70
     1
  0
XRECORD
  5
1AC9
102
{ACAD_REACTORS
330
1AC8
102
}
330
1AC8
100
AcDbXrecord
280
     1
102
RTVSPost2010Prop28
280
     0
102
RTVSPost2010PropOp28
 70
     1
102
RTVSPost2010Prop29
280
     1
102
RTVSPost2010PropOp29
 70
     1
102
RTVSPost2010Prop30
280
     1
102
RTVSPost2010PropOp30
 70
     1
102
RTVSPost2010Prop31
280
     0
102
RTVSPost2010PropOp31
 70
     1
102
RTVSPost2010Prop32
280
     0
102
RTVSPost2010PropOp32
 70
     1
102
RTVSPost2010Prop33
280
     0
102
RTVSPost2010PropOp33
 70
     1
102
RTVSPost2010Prop34
280
     0
102
RTVSPost2010PropOp34
 70
     1
102
RTVSPost2010Prop35
280
     0
102
RTVSPost2010PropOp35
 70
     1
102
RTVSPost2010Prop36
280
     0
102
RTVSPost2010PropOp36
 70
     1
102
RTVSPost2010Prop37
 90
       50
102
RTVSPost2010PropOp37
 70
     1
102
RTVSPost2010Prop38
140
0.0
102
RTVSPost2010PropOp38
 70
     1
102
RTVSPost2010Prop39
140
1.0
102
RTVSPost2010PropOp39
 70
     1
102
RTVSPost2010Prop40
 90
        0
102
RTVSPost2010PropOp40
 70
     1
102
RTVSPost2010Prop41ColorIndex
 90
       18
102
RTVSPost2010Prop41ColorRGB
 90
        0
102
RTVSPost2010PropOp41
 70
     1
102
RTVSPost2010Prop42
 90
       50
102
RTVSPost2010PropOp42
 70
     1
102
RTVSPost2010Prop43
 90
        3
102
RTVSPost2010PropOp43
 70
     1
102
RTVSPost2010Prop44ColorIndex
 90
        5
102
RTVSPost2010Prop44ColorRGB
 90
      255
102
RTVSPost2010PropOp44
 70
     1
102
RTVSPost2010Prop45
280
     0
102
RTVSPost2010PropOp45
 70
     1
102
RTVSPost2010Prop46
 90
       50
102
RTVSPost2010PropOp46
 70
     1
102
RTVSPost2010Prop47
 90
       50
102
RTVSPost2010PropOp47
 70
     1
102
RTVSPost2010Prop48
 90
       50
102
RTVSPost2010PropOp48
 70
     1
102
RTVSPost2010Prop49
280
     0
102
RTVSPost2010PropOp49
 70
     1
102
RTVSPost2010Prop50
 90
       50
102
RTVSPost2010PropOp50
 70
     1
102
RTVSPost2010Prop51ColorIndex
 90
      256
102
RTVSPost2010Prop51ColorRGB
 90
-16777216
102
RTVSPost2010PropOp51
 70
     0
102
RTVSPost2010Prop52
140
1.0
102
RTVSPost2010PropOp52
 70
     0
102
RTVSPost2010Prop53
 90
        2
102
RTVSPost2010PropOp53
 70
     1
102
RTVSPost2010Prop54
  1
strokes_ogs.tif
102
RTVSPost2010PropOp54
 70
     1
102
RTVSPost2010Prop55
280
     0
102
RTVSPost2010PropOp55
 70
     1
102
RTVSPost2010Prop56
140
1.0
102
RTVSPost2010PropOp56
 70
     1
102
RTVSPost2010Prop57
140
1.0
102
RTVSPost2010PropOp57
 70
     1
102
RTVSPropertyOp0
 70
     1
102
RTVSPropertyOp1
 70
     1
102
RTVSPropertyOp2
 70
     1
102
RTVSPropertyOp3
 70
     1
102
RTVSPropertyOp4
 70
     1
102
RTVSPropertyOp5
 70
     1
102
RTVSPropertyOp6
 70
     1
102
RTVSPropertyOp7
 70
     1
102
RTVSPropertyOp8
 70
     1
102
RTVSPropertyOp9
 70
     1
102
RTVSPropertyOp10
 70
     1
102
RTVSPropertyOp11
 70
     1
102
RTVSPropertyOp12
 70
     1
102
RTVSPropertyOp13
 70
     1
102
RTVSPropertyOp14
 70
     1
102
RTVSPropertyOp15
 70
     1
102
RTVSPropertyOp16
 70
     1
102
RTVSPropertyOp17
 70
     1
102
RTVSPropertyOp18
 70
     1
102
RTVSPropertyOp19
 70
     1
102
RTVSPropertyOp20
 70
     1
102
RTVSPropertyOp21
 70
     1
102
RTVSPropertyOp22
 70
     1
102
RTVSPropertyOp23
 70
     1
102
RTVSPropertyOp24
 70
     1
102
RTVSPropertyOp25
 70
     1
102
RTVSPropertyOp26
 70
     1
102
RTVSPropertyOp27
 70
     1
102
RTVSPropertyOp28
 70
     1
102
RTVSPropertyOp29
 70
     1
102
RTVSPropertyOp30
 70
     1
102
RTVSPropertyOp31
 70
     1
102
RTVSPropertyOp32
 70
     1
102
RTVSPropertyOp33
 70
     1
102
RTVSPropertyOp34
 70
     1
102
RTVSPropertyOp35
 70
     1
102
RTVSPropertyOp36
 70
     1
102
RTVSPropertyOp37
 70
     1
102
RTVSPropertyOp38
 70
     1
102
RTVSPropertyOp39
 70
     1
102
RTVSPropertyOp40
 70
     1
102
RTVSPropertyOp41
 70
     1
102
RTVSPropertyOp42
 70
     1
102
RTVSPropertyOp43
 70
     1
102
RTVSPropertyOp44
 70
     1
102
RTVSPropertyOp45
 70
     1
102
RTVSPropertyOp46
 70
     1
102
RTVSPropertyOp47
 70
     1
102
RTVSPropertyOp48
 70
     1
102
RTVSPropertyOp49
 70
     1
102
RTVSPropertyOp50
 70
     1
102
RTVSPropertyOp51
 70
     0
102
RTVSPropertyOp52
 70
     0
102
RTVSPropertyOp53
 70
     1
102
RTVSPropertyOp54
 70
     1
102
RTVSPropertyOp55
 70
     1
102
RTVSPropertyOp56
 70
     1
102
RTVSPropertyOp57
 70
     1
102
RTVSPropertyOp58
 70
     1
102
RTVSPropertyOp59
 70
     1
102
RTVSPropertyOp60
 70
     1
102
RTVSPropertyOp61
 70
     1
102
RTVSPropertyOp62
 70
     1
  0
XRECORD
  5
1ACB
102
{ACAD_REACTORS
330
1ACA
102
}
330
1ACA
100
AcDbXrecord
280
     1
102
RTVSPost2010Prop28
280
     0
102
RTVSPost2010PropOp28
 70
     1
102
RTVSPost2010Prop29
280
     1
102
RTVSPost2010PropOp29
 70
     1
102
RTVSPost2010Prop30
280
     1
102
RTVSPost2010PropOp30
 70
     1
102
RTVSPost2010Prop31
280
     0
102
RTVSPost2010PropOp31
 70
     1
102
RTVSPost2010Prop32
280
     0
102
RTVSPost2010PropOp32
 70
     1
102
RTVSPost2010Prop33
280
     0
102
RTVSPost2010PropOp33
 70
     1
102
RTVSPost2010Prop34
280
     0
102
RTVSPost2010PropOp34
 70
     1
102
RTVSPost2010Prop35
280
     0
102
RTVSPost2010PropOp35
 70
     1
102
RTVSPost2010Prop36
280
     0
102
RTVSPost2010PropOp36
 70
     1
102
RTVSPost2010Prop37
 90
       50
102
RTVSPost2010PropOp37
 70
     1
102
RTVSPost2010Prop38
140
0.0
102
RTVSPost2010PropOp38
 70
     1
102
RTVSPost2010Prop39
140
1.0
102
RTVSPost2010PropOp39
 70
     1
102
RTVSPost2010Prop40
 90
        0
102
RTVSPost2010PropOp40
 70
     1
102
RTVSPost2010Prop41ColorIndex
 90
       18
102
RTVSPost2010Prop41ColorRGB
 90
        0
102
RTVSPost2010PropOp41
 70
     1
102
RTVSPost2010Prop42
 90
       50
102
RTVSPost2010PropOp42
 70
     1
102
RTVSPost2010Prop43
 90
        3
102
RTVSPost2010PropOp43
 70
     1
102
RTVSPost2010Prop44ColorIndex
 90
        5
102
RTVSPost2010Prop44ColorRGB
 90
      255
102
RTVSPost2010PropOp44
 70
     1
102
RTVSPost2010Prop45
280
     0
102
RTVSPost2010PropOp45
 70
     1
102
RTVSPost2010Prop46
 90
       50
102
RTVSPost2010PropOp46
 70
     1
102
RTVSPost2010Prop47
 90
       50
102
RTVSPost2010PropOp47
 70
     1
102
RTVSPost2010Prop48
 90
       50
102
RTVSPost2010PropOp48
 70
     1
102
RTVSPost2010Prop49
280
     0
102
RTVSPost2010PropOp49
 70
     1
102
RTVSPost2010Prop50
 90
       50
102
RTVSPost2010PropOp50
 70
     1
102
RTVSPost2010Prop51ColorIndex
 90
      256
102
RTVSPost2010Prop51ColorRGB
 90
-16777216
102
RTVSPost2010PropOp51
 70
     0
102
RTVSPost2010Prop52
140
1.0
102
RTVSPost2010PropOp52
 70
     0
102
RTVSPost2010Prop53
 90
        2
102
RTVSPost2010PropOp53
 70
     1
102
RTVSPost2010Prop54
  1
strokes_ogs.tif
102
RTVSPost2010PropOp54
 70
     1
102
RTVSPost2010Prop55
280
     0
102
RTVSPost2010PropOp55
 70
     1
102
RTVSPost2010Prop56
140
1.0
102
RTVSPost2010PropOp56
 70
     1
102
RTVSPost2010Prop57
140
1.0
102
RTVSPost2010PropOp57
 70
     1
102
RTVSPropertyOp0
 70
     1
102
RTVSPropertyOp1
 70
     1
102
RTVSPropertyOp2
 70
     1
102
RTVSPropertyOp3
 70
     1
102
RTVSPropertyOp4
 70
     1
102
RTVSPropertyOp5
 70
     1
102
RTVSPropertyOp6
 70
     1
102
RTVSPropertyOp7
 70
     1
102
RTVSPropertyOp8
 70
     1
102
RTVSPropertyOp9
 70
     1
102
RTVSPropertyOp10
 70
     1
102
RTVSPropertyOp11
 70
     1
102
RTVSPropertyOp12
 70
     1
102
RTVSPropertyOp13
 70
     1
102
RTVSPropertyOp14
 70
     1
102
RTVSPropertyOp15
 70
     1
102
RTVSPropertyOp16
 70
     1
102
RTVSPropertyOp17
 70
     1
102
RTVSPropertyOp18
 70
     1
102
RTVSPropertyOp19
 70
     1
102
RTVSPropertyOp20
 70
     1
102
RTVSPropertyOp21
 70
     1
102
RTVSPropertyOp22
 70
     1
102
RTVSPropertyOp23
 70
     1
102
RTVSPropertyOp24
 70
     1
102
RTVSPropertyOp25
 70
     1
102
RTVSPropertyOp26
 70
     1
102
RTVSPropertyOp27
 70
     1
102
RTVSPropertyOp28
 70
     1
102
RTVSPropertyOp29
 70
     1
102
RTVSPropertyOp30
 70
     1
102
RTVSPropertyOp31
 70
     1
102
RTVSPropertyOp32
 70
     1
102
RTVSPropertyOp33
 70
     1
102
RTVSPropertyOp34
 70
     1
102
RTVSPropertyOp35
 70
     1
102
RTVSPropertyOp36
 70
     1
102
RTVSPropertyOp37
 70
     1
102
RTVSPropertyOp38
 70
     1
102
RTVSPropertyOp39
 70
     1
102
RTVSPropertyOp40
 70
     1
102
RTVSPropertyOp41
 70
     1
102
RTVSPropertyOp42
 70
     1
102
RTVSPropertyOp43
 70
     1
102
RTVSPropertyOp44
 70
     1
102
RTVSPropertyOp45
 70
     1
102
RTVSPropertyOp46
 70
     1
102
RTVSPropertyOp47
 70
     1
102
RTVSPropertyOp48
 70
     1
102
RTVSPropertyOp49
 70
     1
102
RTVSPropertyOp50
 70
     1
102
RTVSPropertyOp51
 70
     0
102
RTVSPropertyOp52
 70
     0
102
RTVSPropertyOp53
 70
     1
102
RTVSPropertyOp54
 70
     1
102
RTVSPropertyOp55
 70
     1
102
RTVSPropertyOp56
 70
     1
102
RTVSPropertyOp57
 70
     1
102
RTVSPropertyOp58
 70
     1
102
RTVSPropertyOp59
 70
     1
102
RTVSPropertyOp60
 70
     1
102
RTVSPropertyOp61
 70
     1
102
RTVSPropertyOp62
 70
     1
  0
XRECORD
  5
1AC1
102
{ACAD_REACTORS
330
1AC0
102
}
330
1AC0
100
AcDbXrecord
280
     1
102
RTVSPost2010Prop28
280
     0
102
RTVSPost2010PropOp28
 70
     1
102
RTVSPost2010Prop29
280
     1
102
RTVSPost2010PropOp29
 70
     1
102
RTVSPost2010Prop30
280
     1
102
RTVSPost2010PropOp30
 70
     1
102
RTVSPost2010Prop31
280
     0
102
RTVSPost2010PropOp31
 70
     1
102
RTVSPost2010Prop32
280
     0
102
RTVSPost2010PropOp32
 70
     1
102
RTVSPost2010Prop33
280
     0
102
RTVSPost2010PropOp33
 70
     1
102
RTVSPost2010Prop34
280
     0
102
RTVSPost2010PropOp34
 70
     1
102
RTVSPost2010Prop35
280
     0
102
RTVSPost2010PropOp35
 70
     1
102
RTVSPost2010Prop36
280
     0
102
RTVSPost2010PropOp36
 70
     1
102
RTVSPost2010Prop37
 90
       50
102
RTVSPost2010PropOp37
 70
     1
102
RTVSPost2010Prop38
140
0.0
102
RTVSPost2010PropOp38
 70
     1
102
RTVSPost2010Prop39
140
1.0
102
RTVSPost2010PropOp39
 70
     1
102
RTVSPost2010Prop40
 90
        0
102
RTVSPost2010PropOp40
 70
     1
102
RTVSPost2010Prop41ColorIndex
 90
       18
102
RTVSPost2010Prop41ColorRGB
 90
        0
102
RTVSPost2010PropOp41
 70
     1
102
RTVSPost2010Prop42
 90
       50
102
RTVSPost2010PropOp42
 70
     1
102
RTVSPost2010Prop43
 90
        3
102
RTVSPost2010PropOp43
 70
     1
102
RTVSPost2010Prop44ColorIndex
 90
        5
102
RTVSPost2010Prop44ColorRGB
 90
      255
102
RTVSPost2010PropOp44
 70
     1
102
RTVSPost2010Prop45
280
     0
102
RTVSPost2010PropOp45
 70
     1
102
RTVSPost2010Prop46
 90
       50
102
RTVSPost2010PropOp46
 70
     1
102
RTVSPost2010Prop47
 90
       50
102
RTVSPost2010PropOp47
 70
     1
102
RTVSPost2010Prop48
 90
       50
102
RTVSPost2010PropOp48
 70
     1
102
RTVSPost2010Prop49
280
     0
102
RTVSPost2010PropOp49
 70
     1
102
RTVSPost2010Prop50
 90
       50
102
RTVSPost2010PropOp50
 70
     1
102
RTVSPost2010Prop51ColorIndex
 90
      256
102
RTVSPost2010Prop51ColorRGB
 90
-16777216
102
RTVSPost2010PropOp51
 70
     0
102
RTVSPost2010Prop52
140
1.0
102
RTVSPost2010PropOp52
 70
     0
102
RTVSPost2010Prop53
 90
        2
102
RTVSPost2010PropOp53
 70
     1
102
RTVSPost2010Prop54
  1
strokes_ogs.tif
102
RTVSPost2010PropOp54
 70
     1
102
RTVSPost2010Prop55
280
     0
102
RTVSPost2010PropOp55
 70
     1
102
RTVSPost2010Prop56
140
1.0
102
RTVSPost2010PropOp56
 70
     1
102
RTVSPost2010Prop57
140
1.0
102
RTVSPost2010PropOp57
 70
     1
102
RTVSPropertyOp0
 70
     1
102
RTVSPropertyOp1
 70
     1
102
RTVSPropertyOp2
 70
     1
102
RTVSPropertyOp3
 70
     1
102
RTVSPropertyOp4
 70
     1
102
RTVSPropertyOp5
 70
     1
102
RTVSPropertyOp6
 70
     1
102
RTVSPropertyOp7
 70
     1
102
RTVSPropertyOp8
 70
     1
102
RTVSPropertyOp9
 70
     1
102
RTVSPropertyOp10
 70
     1
102
RTVSPropertyOp11
 70
     1
102
RTVSPropertyOp12
 70
     1
102
RTVSPropertyOp13
 70
     1
102
RTVSPropertyOp14
 70
     1
102
RTVSPropertyOp15
 70
     1
102
RTVSPropertyOp16
 70
     1
102
RTVSPropertyOp17
 70
     1
102
RTVSPropertyOp18
 70
     1
102
RTVSPropertyOp19
 70
     1
102
RTVSPropertyOp20
 70
     1
102
RTVSPropertyOp21
 70
     1
102
RTVSPropertyOp22
 70
     1
102
RTVSPropertyOp23
 70
     1
102
RTVSPropertyOp24
 70
     1
102
RTVSPropertyOp25
 70
     1
102
RTVSPropertyOp26
 70
     1
102
RTVSPropertyOp27
 70
     1
102
RTVSPropertyOp28
 70
     1
102
RTVSPropertyOp29
 70
     1
102
RTVSPropertyOp30
 70
     1
102
RTVSPropertyOp31
 70
     1
102
RTVSPropertyOp32
 70
     1
102
RTVSPropertyOp33
 70
     1
102
RTVSPropertyOp34
 70
     1
102
RTVSPropertyOp35
 70
     1
102
RTVSPropertyOp36
 70
     1
102
RTVSPropertyOp37
 70
     1
102
RTVSPropertyOp38
 70
     1
102
RTVSPropertyOp39
 70
     1
102
RTVSPropertyOp40
 70
     1
102
RTVSPropertyOp41
 70
     1
102
RTVSPropertyOp42
 70
     1
102
RTVSPropertyOp43
 70
     1
102
RTVSPropertyOp44
 70
     1
102
RTVSPropertyOp45
 70
     1
102
RTVSPropertyOp46
 70
     1
102
RTVSPropertyOp47
 70
     1
102
RTVSPropertyOp48
 70
     1
102
RTVSPropertyOp49
 70
     1
102
RTVSPropertyOp50
 70
     1
102
RTVSPropertyOp51
 70
     0
102
RTVSPropertyOp52
 70
     0
102
RTVSPropertyOp53
 70
     1
102
RTVSPropertyOp54
 70
     1
102
RTVSPropertyOp55
 70
     1
102
RTVSPropertyOp56
 70
     1
102
RTVSPropertyOp57
 70
     1
102
RTVSPropertyOp58
 70
     1
102
RTVSPropertyOp59
 70
     1
102
RTVSPropertyOp60
 70
     1
102
RTVSPropertyOp61
 70
     1
102
RTVSPropertyOp62
 70
     1
  0
XRECORD
  5
1AB5
102
{ACAD_REACTORS
330
1AB4
102
}
330
1AB4
100
AcDbXrecord
280
     1
102
RTVSPost2010Prop28
280
     0
102
RTVSPost2010PropOp28
 70
     1
102
RTVSPost2010Prop29
280
     1
102
RTVSPost2010PropOp29
 70
     1
102
RTVSPost2010Prop30
280
     1
102
RTVSPost2010PropOp30
 70
     1
102
RTVSPost2010Prop31
280
     0
102
RTVSPost2010PropOp31
 70
     1
102
RTVSPost2010Prop32
280
     0
102
RTVSPost2010PropOp32
 70
     1
102
RTVSPost2010Prop33
280
     0
102
RTVSPost2010PropOp33
 70
     1
102
RTVSPost2010Prop34
280
     0
102
RTVSPost2010PropOp34
 70
     1
102
RTVSPost2010Prop35
280
     0
102
RTVSPost2010PropOp35
 70
     1
102
RTVSPost2010Prop36
280
     0
102
RTVSPost2010PropOp36
 70
     1
102
RTVSPost2010Prop37
 90
       50
102
RTVSPost2010PropOp37
 70
     1
102
RTVSPost2010Prop38
140
0.0
102
RTVSPost2010PropOp38
 70
     1
102
RTVSPost2010Prop39
140
1.0
102
RTVSPost2010PropOp39
 70
     1
102
RTVSPost2010Prop40
 90
        0
102
RTVSPost2010PropOp40
 70
     1
102
RTVSPost2010Prop41ColorIndex
 90
       18
102
RTVSPost2010Prop41ColorRGB
 90
        0
102
RTVSPost2010PropOp41
 70
     1
102
RTVSPost2010Prop42
 90
       50
102
RTVSPost2010PropOp42
 70
     1
102
RTVSPost2010Prop43
 90
        3
102
RTVSPost2010PropOp43
 70
     1
102
RTVSPost2010Prop44ColorIndex
 90
        5
102
RTVSPost2010Prop44ColorRGB
 90
      255
102
RTVSPost2010PropOp44
 70
     1
102
RTVSPost2010Prop45
280
     0
102
RTVSPost2010PropOp45
 70
     1
102
RTVSPost2010Prop46
 90
       50
102
RTVSPost2010PropOp46
 70
     1
102
RTVSPost2010Prop47
 90
       50
102
RTVSPost2010PropOp47
 70
     1
102
RTVSPost2010Prop48
 90
       50
102
RTVSPost2010PropOp48
 70
     1
102
RTVSPost2010Prop49
280
     0
102
RTVSPost2010PropOp49
 70
     1
102
RTVSPost2010Prop50
 90
       50
102
RTVSPost2010PropOp50
 70
     1
102
RTVSPost2010Prop51ColorIndex
 90
      256
102
RTVSPost2010Prop51ColorRGB
 90
-16777216
102
RTVSPost2010PropOp51
 70
     0
102
RTVSPost2010Prop52
140
1.0
102
RTVSPost2010PropOp52
 70
     0
102
RTVSPost2010Prop53
 90
        2
102
RTVSPost2010PropOp53
 70
     1
102
RTVSPost2010Prop54
  1
strokes_ogs.tif
102
RTVSPost2010PropOp54
 70
     1
102
RTVSPost2010Prop55
280
     0
102
RTVSPost2010PropOp55
 70
     1
102
RTVSPost2010Prop56
140
1.0
102
RTVSPost2010PropOp56
 70
     1
102
RTVSPost2010Prop57
140
1.0
102
RTVSPost2010PropOp57
 70
     1
102
RTVSPropertyOp0
 70
     1
102
RTVSPropertyOp1
 70
     1
102
RTVSPropertyOp2
 70
     1
102
RTVSPropertyOp3
 70
     1
102
RTVSPropertyOp4
 70
     1
102
RTVSPropertyOp5
 70
     1
102
RTVSPropertyOp6
 70
     1
102
RTVSPropertyOp7
 70
     1
102
RTVSPropertyOp8
 70
     1
102
RTVSPropertyOp9
 70
     1
102
RTVSPropertyOp10
 70
     1
102
RTVSPropertyOp11
 70
     1
102
RTVSPropertyOp12
 70
     1
102
RTVSPropertyOp13
 70
     1
102
RTVSPropertyOp14
 70
     1
102
RTVSPropertyOp15
 70
     1
102
RTVSPropertyOp16
 70
     1
102
RTVSPropertyOp17
 70
     1
102
RTVSPropertyOp18
 70
     1
102
RTVSPropertyOp19
 70
     1
102
RTVSPropertyOp20
 70
     1
102
RTVSPropertyOp21
 70
     1
102
RTVSPropertyOp22
 70
     1
102
RTVSPropertyOp23
 70
     1
102
RTVSPropertyOp24
 70
     1
102
RTVSPropertyOp25
 70
     1
102
RTVSPropertyOp26
 70
     1
102
RTVSPropertyOp27
 70
     1
102
RTVSPropertyOp28
 70
     1
102
RTVSPropertyOp29
 70
     1
102
RTVSPropertyOp30
 70
     1
102
RTVSPropertyOp31
 70
     1
102
RTVSPropertyOp32
 70
     1
102
RTVSPropertyOp33
 70
     1
102
RTVSPropertyOp34
 70
     1
102
RTVSPropertyOp35
 70
     1
102
RTVSPropertyOp36
 70
     1
102
RTVSPropertyOp37
 70
     1
102
RTVSPropertyOp38
 70
     1
102
RTVSPropertyOp39
 70
     1
102
RTVSPropertyOp40
 70
     1
102
RTVSPropertyOp41
 70
     1
102
RTVSPropertyOp42
 70
     1
102
RTVSPropertyOp43
 70
     1
102
RTVSPropertyOp44
 70
     1
102
RTVSPropertyOp45
 70
     1
102
RTVSPropertyOp46
 70
     1
102
RTVSPropertyOp47
 70
     1
102
RTVSPropertyOp48
 70
     1
102
RTVSPropertyOp49
 70
     1
102
RTVSPropertyOp50
 70
     1
102
RTVSPropertyOp51
 70
     0
102
RTVSPropertyOp52
 70
     0
102
RTVSPropertyOp53
 70
     1
102
RTVSPropertyOp54
 70
     1
102
RTVSPropertyOp55
 70
     1
102
RTVSPropertyOp56
 70
     1
102
RTVSPropertyOp57
 70
     1
102
RTVSPropertyOp58
 70
     1
102
RTVSPropertyOp59
 70
     1
102
RTVSPropertyOp60
 70
     1
102
RTVSPropertyOp61
 70
     1
102
RTVSPropertyOp62
 70
     1
  0
XRECORD
  5
1ACD
102
{ACAD_REACTORS
330
1ACC
102
}
330
1ACC
100
AcDbXrecord
280
     1
102
RTVSPost2010Prop28
280
     0
102
RTVSPost2010PropOp28
 70
     1
102
RTVSPost2010Prop29
280
     1
102
RTVSPost2010PropOp29
 70
     1
102
RTVSPost2010Prop30
280
     1
102
RTVSPost2010PropOp30
 70
     1
102
RTVSPost2010Prop31
280
     0
102
RTVSPost2010PropOp31
 70
     1
102
RTVSPost2010Prop32
280
     0
102
RTVSPost2010PropOp32
 70
     1
102
RTVSPost2010Prop33
280
     0
102
RTVSPost2010PropOp33
 70
     1
102
RTVSPost2010Prop34
280
     0
102
RTVSPost2010PropOp34
 70
     1
102
RTVSPost2010Prop35
280
     0
102
RTVSPost2010PropOp35
 70
     1
102
RTVSPost2010Prop36
280
     0
102
RTVSPost2010PropOp36
 70
     1
102
RTVSPost2010Prop37
 90
       50
102
RTVSPost2010PropOp37
 70
     1
102
RTVSPost2010Prop38
140
0.0
102
RTVSPost2010PropOp38
 70
     1
102
RTVSPost2010Prop39
140
1.0
102
RTVSPost2010PropOp39
 70
     1
102
RTVSPost2010Prop40
 90
        0
102
RTVSPost2010PropOp40
 70
     1
102
RTVSPost2010Prop41ColorIndex
 90
       18
102
RTVSPost2010Prop41ColorRGB
 90
        0
102
RTVSPost2010PropOp41
 70
     1
102
RTVSPost2010Prop42
 90
       50
102
RTVSPost2010PropOp42
 70
     1
102
RTVSPost2010Prop43
 90
        3
102
RTVSPost2010PropOp43
 70
     1
102
RTVSPost2010Prop44ColorIndex
 90
        5
102
RTVSPost2010Prop44ColorRGB
 90
      255
102
RTVSPost2010PropOp44
 70
     1
102
RTVSPost2010Prop45
280
     0
102
RTVSPost2010PropOp45
 70
     1
102
RTVSPost2010Prop46
 90
       50
102
RTVSPost2010PropOp46
 70
     1
102
RTVSPost2010Prop47
 90
       50
102
RTVSPost2010PropOp47
 70
     1
102
RTVSPost2010Prop48
 90
       50
102
RTVSPost2010PropOp48
 70
     1
102
RTVSPost2010Prop49
280
     0
102
RTVSPost2010PropOp49
 70
     1
102
RTVSPost2010Prop50
 90
       50
102
RTVSPost2010PropOp50
 70
     1
102
RTVSPost2010Prop51ColorIndex
 90
      256
102
RTVSPost2010Prop51ColorRGB
 90
-16777216
102
RTVSPost2010PropOp51
 70
     0
102
RTVSPost2010Prop52
140
1.0
102
RTVSPost2010PropOp52
 70
     0
102
RTVSPost2010Prop53
 90
        2
102
RTVSPost2010PropOp53
 70
     1
102
RTVSPost2010Prop54
  1
strokes_ogs.tif
102
RTVSPost2010PropOp54
 70
     1
102
RTVSPost2010Prop55
280
     0
102
RTVSPost2010PropOp55
 70
     1
102
RTVSPost2010Prop56
140
1.0
102
RTVSPost2010PropOp56
 70
     1
102
RTVSPost2010Prop57
140
1.0
102
RTVSPost2010PropOp57
 70
     1
102
RTVSPropertyOp0
 70
     1
102
RTVSPropertyOp1
 70
     1
102
RTVSPropertyOp2
 70
     1
102
RTVSPropertyOp3
 70
     1
102
RTVSPropertyOp4
 70
     1
102
RTVSPropertyOp5
 70
     1
102
RTVSPropertyOp6
 70
     1
102
RTVSPropertyOp7
 70
     1
102
RTVSPropertyOp8
 70
     1
102
RTVSPropertyOp9
 70
     1
102
RTVSPropertyOp10
 70
     1
102
RTVSPropertyOp11
 70
     1
102
RTVSPropertyOp12
 70
     1
102
RTVSPropertyOp13
 70
     1
102
RTVSPropertyOp14
 70
     1
102
RTVSPropertyOp15
 70
     1
102
RTVSPropertyOp16
 70
     1
102
RTVSPropertyOp17
 70
     1
102
RTVSPropertyOp18
 70
     1
102
RTVSPropertyOp19
 70
     1
102
RTVSPropertyOp20
 70
     1
102
RTVSPropertyOp21
 70
     1
102
RTVSPropertyOp22
 70
     1
102
RTVSPropertyOp23
 70
     1
102
RTVSPropertyOp24
 70
     1
102
RTVSPropertyOp25
 70
     1
102
RTVSPropertyOp26
 70
     1
102
RTVSPropertyOp27
 70
     1
102
RTVSPropertyOp28
 70
     1
102
RTVSPropertyOp29
 70
     1
102
RTVSPropertyOp30
 70
     1
102
RTVSPropertyOp31
 70
     1
102
RTVSPropertyOp32
 70
     1
102
RTVSPropertyOp33
 70
     1
102
RTVSPropertyOp34
 70
     1
102
RTVSPropertyOp35
 70
     1
102
RTVSPropertyOp36
 70
     1
102
RTVSPropertyOp37
 70
     1
102
RTVSPropertyOp38
 70
     1
102
RTVSPropertyOp39
 70
     1
102
RTVSPropertyOp40
 70
     1
102
RTVSPropertyOp41
 70
     1
102
RTVSPropertyOp42
 70
     1
102
RTVSPropertyOp43
 70
     1
102
RTVSPropertyOp44
 70
     1
102
RTVSPropertyOp45
 70
     1
102
RTVSPropertyOp46
 70
     1
102
RTVSPropertyOp47
 70
     1
102
RTVSPropertyOp48
 70
     1
102
RTVSPropertyOp49
 70
     1
102
RTVSPropertyOp50
 70
     1
102
RTVSPropertyOp51
 70
     0
102
RTVSPropertyOp52
 70
     0
102
RTVSPropertyOp53
 70
     1
102
RTVSPropertyOp54
 70
     1
102
RTVSPropertyOp55
 70
     1
102
RTVSPropertyOp56
 70
     1
102
RTVSPropertyOp57
 70
     1
102
RTVSPropertyOp58
 70
     1
102
RTVSPropertyOp59
 70
     1
102
RTVSPropertyOp60
 70
     1
102
RTVSPropertyOp61
 70
     1
102
RTVSPropertyOp62
 70
     1
  0
ENDSEC
  0
EOF
