  0
SECTION
  2
HEADER
  9
$ACADVER
  1
AC1015
  9
$ACADMAINTVER
 70
    20
  9
$DWGCODEPAGE
  3
ANSI_932
  9
$INSBASE
 10
0.0
 20
0.0
 30
0.0
  9
$EXTMIN
 10
9.9999975266385
 20
10.0
 30
0.0
  9
$EXTMAX
 10
652.3171077148719
 20
448.8361383486771
 30
0.0
  9
$LIMMIN
 10
0.0000015376081137
 20
-0.0000001931532552
  9
$LIMMAX
 10
692.0000015376082
 20
477.0606058674526
  9
$ORTHOMODE
 70
     0
  9
$REGENMODE
 70
     1
  9
$FILLMODE
 70
     1
  9
$QTEXTMODE
 70
     0
  9
$MIRRTEXT
 70
     1
  9
$LTSCALE
 40
0.5
  9
$ATTMODE
 70
     1
  9
$TEXTSIZE
 40
2.5
  9
$TRACEWID
 40
1.0
  9
$TEXTSTYLE
  7
STANDARD
  9
$CLAYER
  8
0
  9
$CELTYPE
  6
BYLAYER
  9
$CECOLOR
 62
   256
  9
$CELTSCALE
 40
1.0
  9
$DISPSILH
 70
     0
  9
$DIMSCALE
 40
1.0
  9
$DIMASZ
 40
3.0
  9
$DIMEXO
 40
1.0
  9
$DIMDLI
 40
10.0
  9
$DIMRND
 40
0.0
  9
$DIMDLE
 40
0.0
  9
$DIMEXE
 40
1.0
  9
$DIMTP
 40
0.0
  9
$DIMTM
 40
0.0
  9
$DIMTXT
 40
3.2
  9
$DIMCEN
 40
0.0
  9
$DIMTSZ
 40
0.0
  9
$DIMTOL
 70
     0
  9
$DIMLIM
 70
     0
  9
$DIMTIH
 70
     0
  9
$DIMTOH
 70
     0
  9
$DIMSE1
 70
     0
  9
$DIMSE2
 70
     0
  9
$DIMTAD
 70
     3
  9
$DIMZIN
 70
     8
  9
$DIMBLK
  1

  9
$DIMASO
 70
     1
  9
$DIMSHO
 70
     1
  9
$DIMPOST
  1

  9
$DIMAPOST
  1

  9
$DIMALT
 70
     0
  9
$DIMALTD
 70
     2
  9
$DIMALTF
 40
25.4
  9
$DIMLFAC
 40
1.0
  9
$DIMTOFL
 70
     1
  9
$DIMTVP
 40
0.0
  9
$DIMTIX
 70
     0
  9
$DIMSOXD
 70
     0
  9
$DIMSAH
 70
     1
  9
$DIMBLK1
  1
OPEN
  9
$DIMBLK2
  1
OPEN
  9
$DIMSTYLE
  2
STANDARD
  9
$DIMCLRD
 70
     0
  9
$DIMCLRE
 70
     0
  9
$DIMCLRT
 70
     0
  9
$DIMTFAC
 40
1.0
  9
$DIMGAP
 40
1.0
  9
$DIMJUST
 70
     0
  9
$DIMSD1
 70
     0
  9
$DIMSD2
 70
     0
  9
$DIMTOLJ
 70
     1
  9
$DIMTZIN
 70
     0
  9
$DIMALTZ
 70
     0
  9
$DIMALTTZ
 70
     0
  9
$DIMUPT
 70
     0
  9
$DIMDEC
 70
     4
  9
$DIMTDEC
 70
     4
  9
$DIMALTU
 70
     2
  9
$DIMALTTD
 70
     2
  9
$DIMTXSTY
  7
STANDARD
  9
$DIMAUNIT
 70
     0
  9
$DIMADEC
 70
     0
  9
$DIMALTRND
 40
0.0
  9
$DIMAZIN
 70
     0
  9
$DIMDSEP
 70
    46
  9
$DIMATFIT
 70
     3
  9
$DIMFRAC
 70
     0
  9
$DIMLDRBLK
  1
OPEN
  9
$DIMLUNIT
 70
     2
  9
$DIMLWD
 70
    -2
  9
$DIMLWE
 70
    -2
  9
$DIMTMOVE
 70
     0
  9
$LUNITS
 70
     2
  9
$LUPREC
 70
     4
  9
$SKETCHINC
 40
1.0
  9
$FILLETRAD
 40
10.0
  9
$AUNITS
 70
     0
  9
$AUPREC
 70
     0
  9
$MENU
  1
.
  9
$ELEVATION
 40
0.0
  9
$PELEVATION
 40
0.0
  9
$THICKNESS
 40
0.0
  9
$LIMCHECK
 70
     0
  9
$CHAMFERA
 40
10.0
  9
$CHAMFERB
 40
10.0
  9
$CHAMFERC
 40
20.0
  9
$CHAMFERD
 40
0.0
  9
$SKPOLY
 70
     0
  9
$TDCREATE
 40
2452929.381745324
  9
$TDUCREATE
 40
2452929.006745324
  9
$TDUPDATE
 40
2457192.690908195
  9
$TDUUPDATE
 40
2457192.315908195
  9
$TDINDWG
 40
0.2180320023
  9
$TDUSRTIMER
 40
0.2180319792
  9
$USRTIMER
 70
     1
  9
$ANGBASE
 50
0.0
  9
$ANGDIR
 70
     0
  9
$PDMODE
 70
     0
  9
$PDSIZE
 40
0.0
  9
$PLINEWID
 40
0.0
  9
$SPLFRAME
 70
     0
  9
$SPLINETYPE
 70
     6
  9
$SPLINESEGS
 70
     8
  9
$HANDSEED
  5
362A
  9
$SURFTAB1
 70
     6
  9
$SURFTAB2
 70
     6
  9
$SURFTYPE
 70
     6
  9
$SURFU
 70
     6
  9
$SURFV
 70
     6
  9
$UCSBASE
  2

  9
$UCSNAME
  2

  9
$UCSORG
 10
0.0
 20
0.0
 30
0.0
  9
$UCSXDIR
 10
1.0
 20
0.0
 30
0.0
  9
$UCSYDIR
 10
0.0
 20
1.0
 30
0.0
  9
$UCSORTHOREF
  2

  9
$UCSORTHOVIEW
 70
     0
  9
$UCSORGTOP
 10
0.0
 20
0.0
 30
0.0
  9
$UCSORGBOTTOM
 10
0.0
 20
0.0
 30
0.0
  9
$UCSORGLEFT
 10
0.0
 20
0.0
 30
0.0
  9
$UCSORGRIGHT
 10
0.0
 20
0.0
 30
0.0
  9
$UCSORGFRONT
 10
0.0
 20
0.0
 30
0.0
  9
$UCSORGBACK
 10
0.0
 20
0.0
 30
0.0
  9
$PUCSBASE
  2

  9
$PUCSNAME
  2

  9
$PUCSORG
 10
0.0
 20
0.0
 30
0.0
  9
$PUCSXDIR
 10
1.0
 20
0.0
 30
0.0
  9
$PUCSYDIR
 10
0.0
 20
1.0
 30
0.0
  9
$PUCSORTHOREF
  2

  9
$PUCSORTHOVIEW
 70
     0
  9
$PUCSORGTOP
 10
0.0
 20
0.0
 30
0.0
  9
$PUCSORGBOTTOM
 10
0.0
 20
0.0
 30
0.0
  9
$PUCSORGLEFT
 10
0.0
 20
0.0
 30
0.0
  9
$PUCSORGRIGHT
 10
0.0
 20
0.0
 30
0.0
  9
$PUCSORGFRONT
 10
0.0
 20
0.0
 30
0.0
  9
$PUCSORGBACK
 10
0.0
 20
0.0
 30
0.0
  9
$USERI1
 70
     0
  9
$USERI2
 70
     0
  9
$USERI3
 70
     0
  9
$USERI4
 70
     0
  9
$USERI5
 70
     0
  9
$USERR1
 40
0.0
  9
$USERR2
 40
0.0
  9
$USERR3
 40
0.0
  9
$USERR4
 40
0.0
  9
$USERR5
 40
0.0
  9
$WORLDVIEW
 70
     1
  9
$SHADEDGE
 70
     3
  9
$SHADEDIF
 70
    70
  9
$TILEMODE
 70
     1
  9
$MAXACTVP
 70
    48
  9
$PINSBASE
 10
0.0
 20
0.0
 30
0.0
  9
$PLIMCHECK
 70
     0
  9
$PEXTMIN
 10
1.000000000000000E+20
 20
1.000000000000000E+20
 30
1.000000000000000E+20
  9
$PEXTMAX
 10
-1.000000000000000E+20
 20
-1.000000000000000E+20
 30
-1.000000000000000E+20
  9
$PLIMMIN
 10
0.0
 20
0.0
  9
$PLIMMAX
 10
420.0
 20
297.0
  9
$UNITMODE
 70
     0
  9
$VISRETAIN
 70
     1
  9
$PLINEGEN
 70
     0
  9
$PSLTSCALE
 70
     1
  9
$TREEDEPTH
 70
  3020
  9
$CMLSTYLE
  2
STANDARD
  9
$CMLJUST
 70
     0
  9
$CMLSCALE
 40
20.0
  9
$PROXYGRAPHICS
 70
     1
  9
$MEASUREMENT
 70
     0
  9
$CELWEIGHT
370
    -1
  9
$ENDCAPS
280
     0
  9
$JOINSTYLE
280
     0
  9
$LWDISPLAY
290
     0
  9
$INSUNITS
 70
     0
  9
$HYPERLINKBASE
  1

  9
$STYLESHEET
  1

  9
$XEDIT
290
     1
  9
$CEPSNTYPE
380
     0
  9
$PSTYLEMODE
290
     1
  9
$FINGERPRINTGUID
  2
{D16CD694-D036-4B36-8AFD-30EFF8825E07}
  9
$VERSIONGUID
  2
{E9E7BE0F-C3E9-4D32-8FBD-9CB379A2B74F}
  9
$EXTNAMES
290
     1
  9
$PSVPSCALE
 40
0.0
  9
$OLESTARTUP
290
     0
  0
ENDSEC
  0
SECTION
  2
CLASSES
  0
CLASS
  1
ACDBDICTIONARYWDFLT
  2
AcDbDictionaryWithDefault
  3
ObjectDBX Classes
 90
        0
280
     0
281
     0
  0
CLASS
  1
ACDBPLACEHOLDER
  2
AcDbPlaceHolder
  3
ObjectDBX Classes
 90
        0
280
     0
281
     0
  0
CLASS
  1
LAYOUT
  2
AcDbLayout
  3
ObjectDBX Classes
 90
        0
280
     0
281
     0
  0
CLASS
  1
DICTIONARYVAR
  2
AcDbDictionaryVar
  3
ObjectDBX Classes
 90
        0
280
     0
281
     0
  0
CLASS
  1
MATERIAL
  2
AcDbMaterial
  3
ObjectDBX Classes
 90
     1153
280
     0
281
     0
  0
CLASS
  1
VISUALSTYLE
  2
AcDbVisualStyle
  3
ObjectDBX Classes
 90
     4095
280
     0
281
     0
  0
CLASS
  1
TABLESTYLE
  2
AcDbTableStyle
  3
ObjectDBX Classes
 90
     4095
280
     0
281
     0
  0
CLASS
  1
SCALE
  2
AcDbScale
  3
ObjectDBX Classes
 90
     1153
280
     0
281
     0
  0
CLASS
  1
MLEADERSTYLE
  2
AcDbMLeaderStyle
  3
ACDB_MLEADERSTYLE_CLASS
 90
     4095
280
     0
281
     0
  0
CLASS
  1
ACDBSECTIONVIEWSTYLE
  2
AcDbSectionViewStyle
  3
ObjectDBX Classes
 90
     1025
280
     0
281
     0
  0
CLASS
  1
ACDBDETAILVIEWSTYLE
  2
AcDbDetailViewStyle
  3
ObjectDBX Classes
 90
     1025
280
     0
281
     0
  0
CLASS
  1
CELLSTYLEMAP
  2
AcDbCellStyleMap
  3
ObjectDBX Classes
 90
     1152
280
     0
281
     0
  0
ENDSEC
  0
SECTION
  2
TABLES
  0
TABLE
  2
VPORT
  5
8
330
0
100
AcDbSymbolTable
 70
     1
  0
VPORT
  5
3576
330
8
100
AcDbSymbolTableRecord
100
AcDbViewportTableRecord
  2
*ACTIVE
 70
     0
 10
0.0
 20
0.0
 11
1.0
 21
1.0
 12
500.0599003681867
 22
229.4310949899161
 13
0.0
 23
0.0
 14
10.0
 24
10.0
 15
10.0
 25
10.0
 16
0.0
 26
0.0
 36
1.0
 17
0.0
 27
0.0
 37
0.0
 40
442.3378331102878
 41
2.35006605019815
 42
50.0
 43
0.0
 44
0.0
 50
0.0
 51
0.0
 71
     0
 72
   100
 73
     1
 74
     0
 75
     0
 76
     0
 77
     0
 78
     0
281
     0
 65
     1
110
0.0
120
0.0
130
0.0
111
1.0
121
0.0
131
0.0
112
0.0
122
1.0
132
0.0
 79
     0
146
0.0
1001
ACAD_NAV_VCDISPLAY
1070
     3
  0
ENDTAB
  0
TABLE
  2
LTYPE
  5
5
330
0
100
AcDbSymbolTable
 70
     4
  0
LTYPE
  5
12
330
5
100
AcDbSymbolTableRecord
100
AcDbLinetypeTableRecord
  2
BYBLOCK
 70
     0
  3

 72
    65
 73
     0
 40
0.0
  0
LTYPE
  5
13
330
5
100
AcDbSymbolTableRecord
100
AcDbLinetypeTableRecord
  2
BYLAYER
 70
     0
  3

 72
    65
 73
     0
 40
0.0
  0
LTYPE
  5
14
330
5
100
AcDbSymbolTableRecord
100
AcDbLinetypeTableRecord
  2
CONTINUOUS
 70
     0
  3
Solid line
 72
    65
 73
     0
 40
0.0
  0
LTYPE
  5
4B
330
5
100
AcDbSymbolTableRecord
100
AcDbLinetypeTableRecord
  2
DASHED
 70
     0
  3
Dashed __ __ __ __ __ __ __ __ __ __ __ __ __ _
 72
    65
 73
     2
 40
19.04999999999998
 49
12.7
 74
     0
 49
-6.349999999999997
 74
     0
  0
LTYPE
  5
4C
330
5
100
AcDbSymbolTableRecord
100
AcDbLinetypeTableRecord
  2
CENTER
 70
     0
  3
Center ____ _ ____ _ ____ _ ____ _ ____ _ ____
 72
    65
 73
     4
 40
50.8
 49
31.75
 74
     0
 49
-6.349999999999997
 74
     0
 49
6.349999999999997
 74
     0
 49
-6.349999999999997
 74
     0
  0
LTYPE
  5
4D
330
5
100
AcDbSymbolTableRecord
100
AcDbLinetypeTableRecord
  2
PHANTOM
 70
     0
  3
Phantom ______  __  __  ______  __  __  ______
 72
    65
 73
     6
 40
63.5
 49
31.75
 74
     0
 49
-6.349999999999997
 74
     0
 49
6.349999999999997
 74
     0
 49
-6.349999999999997
 74
     0
 49
6.349999999999997
 74
     0
 49
-6.349999999999997
 74
     0
  0
ENDTAB
  0
TABLE
  2
LAYER
  5
2
330
0
100
AcDbSymbolTable
 70
     8
  0
LAYER
  5
E
102
{ACAD_XDICTIONARY
360
35CE
102
}
330
2
100
AcDbSymbolTableRecord
100
AcDbLayerTableRecord
  2
0
 70
     0
 62
     7
  6
CONTINUOUS
370
    -3
390
357D
  0
LAYER
  5
4E
102
{ACAD_XDICTIONARY
360
35D0
102
}
330
2
100
AcDbSymbolTableRecord
100
AcDbLayerTableRecord
  2
4
 70
     0
 62
     1
  6
CENTER
370
    -3
390
357D
  0
LAYER
  5
4F
102
{ACAD_XDICTIONARY
360
35D2
102
}
330
2
100
AcDbSymbolTableRecord
100
AcDbLayerTableRecord
  2
5
 70
     0
 62
     6
  6
PHANTOM
370
    -3
390
357D
  0
LAYER
  5
50
102
{ACAD_XDICTIONARY
360
35D4
102
}
330
2
100
AcDbSymbolTableRecord
100
AcDbLayerTableRecord
  2
1
 70
     0
 62
     7
  6
CONTINUOUS
370
    -3
390
357D
  0
LAYER
  5
51
102
{ACAD_XDICTIONARY
360
35D6
102
}
330
2
100
AcDbSymbolTableRecord
100
AcDbLayerTableRecord
  2
2
 70
     0
 62
     4
  6
CONTINUOUS
370
    -3
390
357D
  0
LAYER
  5
52
102
{ACAD_XDICTIONARY
360
35D8
102
}
330
2
100
AcDbSymbolTableRecord
100
AcDbLayerTableRecord
  2
3
 70
     0
 62
     2
  6
DASHED
370
    -3
390
357D
  0
LAYER
  5
53
102
{ACAD_XDICTIONARY
360
35DA
102
}
330
2
100
AcDbSymbolTableRecord
100
AcDbLayerTableRecord
  2
6
 70
     0
 62
     5
  6
CONTINUOUS
370
    -3
390
357D
  0
LAYER
  5
54
102
{ACAD_XDICTIONARY
360
35DC
102
}
330
2
100
AcDbSymbolTableRecord
100
AcDbLayerTableRecord
  2
7
 70
     0
 62
     3
  6
CONTINUOUS
370
    -3
390
357D
  0
ENDTAB
  0
TABLE
  2
STYLE
  5
3
330
0
100
AcDbSymbolTable
 70
     1
  0
STYLE
  5
F
330
3
100
AcDbSymbolTableRecord
100
AcDbTextStyleTableRecord
  2
STANDARD
 70
     0
 40
0.0
 41
1.0
 50
0.0
 71
     0
 42
2.5
  3
simplex.shx
  4

  0
ENDTAB
  0
TABLE
  2
VIEW
  5
6
330
0
100
AcDbSymbolTable
 70
     0
  0
ENDTAB
  0
TABLE
  2
UCS
  5
7
330
0
100
AcDbSymbolTable
 70
     0
  0
ENDTAB
  0
TABLE
  2
APPID
  5
9
330
0
100
AcDbSymbolTable
 70
     5
  0
APPID
  5
10
330
9
100
AcDbSymbolTableRecord
100
AcDbRegAppTableRecord
  2
ACAD
 70
     0
  0
APPID
  5
3E
330
9
100
AcDbSymbolTableRecord
100
AcDbRegAppTableRecord
  2
CONTENTTABDATA
 70
     0
  0
APPID
  5
3F
330
9
100
AcDbSymbolTableRecord
100
AcDbRegAppTableRecord
  2
CONTENTCURRENTTAB
 70
     0
  0
APPID
  5
35E8
330
9
100
AcDbSymbolTableRecord
100
AcDbRegAppTableRecord
  2
ACAD_NAV_VCDISPLAY
 70
     0
  0
APPID
  5
3621
330
9
100
AcDbSymbolTableRecord
100
AcDbRegAppTableRecord
  2
ACAD_MLEADERVER
 70
     0
  0
ENDTAB
  0
TABLE
  2
DIMSTYLE
  5
A
330
0
100
AcDbSymbolTable
 70
     1
100
AcDbDimStyleTable
 71
     0
  0
DIMSTYLE
105
1D
330
A
100
AcDbSymbolTableRecord
100
AcDbDimStyleTableRecord
  2
STANDARD
 70
     0
 41
3.0
 42
1.0
 43
10.0
 44
1.0
 73
     0
 74
     0
 77
     3
 78
     8
140
3.2
141
0.0
147
1.0
172
     1
173
     1
340
F
341
2E
343
2E
344
2E
  0
ENDTAB
  0
TABLE
  2
BLOCK_RECORD
  5
1
330
0
100
AcDbSymbolTable
 70
     1
  0
BLOCK_RECORD
  5
18
102
{ACAD_XDICTIONARY
360
3563
102
}
330
1
100
AcDbSymbolTableRecord
100
AcDbBlockTableRecord
  2
*MODEL_SPACE
340
35CB
  0
BLOCK_RECORD
  5
15
102
{ACAD_XDICTIONARY
360
3561
102
}
330
1
100
AcDbSymbolTableRecord
100
AcDbBlockTableRecord
  2
*PAPER_SPACE
340
35CC
  0
BLOCK_RECORD
  5
2E
330
1
100
AcDbSymbolTableRecord
100
AcDbBlockTableRecord
  2
_OPEN
340
0
  0
ENDTAB
  0
ENDSEC
  0
SECTION
  2
BLOCKS
  0
BLOCK
  5
19
330
18
100
AcDbEntity
  8
0
100
AcDbBlockBegin
  2
*MODEL_SPACE
 70
     0
 10
0.0
 20
0.0
 30
0.0
  3
*MODEL_SPACE
  1

  0
ENDBLK
  5
1A
330
18
100
AcDbEntity
  8
0
100
AcDbBlockEnd
  0
BLOCK
  5
16
330
15
100
AcDbEntity
 67
     1
  8
0
100
AcDbBlockBegin
  2
*PAPER_SPACE
 70
     0
 10
0.0
 20
0.0
 30
0.0
  3
*PAPER_SPACE
  1

  0
ENDBLK
  5
17
330
15
100
AcDbEntity
 67
     1
  8
0
100
AcDbBlockEnd
  0
BLOCK
  5
2F
330
2E
100
AcDbEntity
  8
0
100
AcDbBlockBegin
  2
_OPEN
 70
     0
 10
0.0
 20
0.0
 30
0.0
  3
_OPEN
  1

  0
LINE
  5
30
330
2E
100
AcDbEntity
  8
0
  6
ByBlock
 62
     0
100
AcDbLine
 10
-1.0
 20
0.1666666666666666
 30
0.0
 11
0.0
 21
0.0
 31
0.0
  0
LINE
  5
31
330
2E
100
AcDbEntity
  8
0
  6
ByBlock
 62
     0
100
AcDbLine
 10
0.0
 20
0.0
 30
0.0
 11
-1.0
 21
-0.1666666666666666
 31
0.0
  0
LINE
  5
32
330
2E
100
AcDbEntity
  8
0
  6
ByBlock
 62
     0
100
AcDbLine
 10
0.0
 20
0.0
 30
0.0
 11
-1.0
 21
0.0
 31
0.0
  0
ENDBLK
  5
33
330
2E
100
AcDbEntity
  8
0
100
AcDbBlockEnd
  0
ENDSEC
  0
SECTION
  2
ENTITIES
  0
TEXT
  5
63
330
18
100
AcDbEntity
  8
4
  6
CENTER
 48
0.25
100
AcDbText
 10
23.97950852663849
 20
10.0
 30
0.0
 40
1.399999999999999
  1
4
100
AcDbText
  0
TEXT
  5
64
330
18
100
AcDbEntity
  8
7
  6
Continuous
 48
0.25
100
AcDbText
 10
9.999997526638502
 20
26.0000007607689
 30
0.0
 40
3.0
  1
CODE No.9487
100
AcDbText
  0
TEXT
  5
65
330
18
100
AcDbEntity
  8
7
  6
Continuous
 48
0.25
100
AcDbText
 10
9.999997526638502
 20
18.00000076076889
 30
0.0
 40
3.0
  1
TYPE No.TCA-540SR-BAU75
100
AcDbText
  0
TEXT
  5
66
330
18
100
AcDbEntity
  8
1
  6
Continuous
 48
0.25
100
AcDbText
 10
9.999997526638502
 20
10.00000076076889
 30
0.0
 40
1.399999999999999
  1
LAYER
100
AcDbText
  0
TEXT
  5
67
330
18
100
AcDbEntity
  8
2
  6
Continuous
 48
0.25
100
AcDbText
 10
19.9795085266385
 20
10.0
 30
0.0
 40
1.399999999999999
  1
2
100
AcDbText
  0
TEXT
  5
68
330
18
100
AcDbEntity
  8
3
  6
DASHED
 48
0.25
100
AcDbText
 10
21.97950852663849
 20
10.0
 30
0.0
 40
1.399999999999999
  1
3
100
AcDbText
  0
TEXT
  5
69
330
18
100
AcDbEntity
  8
1
  6
Continuous
 48
0.25
100
AcDbText
 10
17.9795085266385
 20
10.0
 30
0.0
 40
1.399999999999999
  1
1
100
AcDbText
  0
TEXT
  5
6A
330
18
100
AcDbEntity
  8
5
  6
PHANTOM
 48
0.25
100
AcDbText
 10
25.97950852663849
 20
10.0
 30
0.0
 40
1.399999999999999
  1
5
100
AcDbText
  0
TEXT
  5
6B
330
18
100
AcDbEntity
  8
6
  6
Continuous
 48
0.25
100
AcDbText
 10
27.97950852663849
 20
10.0
 30
0.0
 40
1.399999999999999
  1
6
100
AcDbText
  0
TEXT
  5
6C
330
18
100
AcDbEntity
  8
7
  6
Continuous
 48
0.25
100
AcDbText
 10
29.9795085266385
 20
10.0
 30
0.0
 40
1.399999999999999
  1
7
100
AcDbText
  0
CIRCLE
  5
14F4
330
18
100
AcDbEntity
  8
2
  6
Continuous
100
AcDbCircle
 10
610.1837727148722
 20
231.6485416594084
 30
0.0
 40
4.25
  0
CIRCLE
  5
14F5
330
18
100
AcDbEntity
  8
1
  6
Continuous
100
AcDbCircle
 10
610.1837727148722
 20
231.6485416594084
 30
0.0
 40
5.000003999999761
  0
CIRCLE
  5
14F7
330
18
100
AcDbEntity
  8
1
  6
Continuous
100
AcDbCircle
 10
610.1837727148722
 20
231.6485416594084
 30
0.0
 40
8.500003000000162
  0
ARC
  5
14F8
330
18
100
AcDbEntity
  8
1
  6
Continuous
100
AcDbCircle
 10
610.1837727148722
 20
231.6485416594084
 30
0.0
 40
9.500008000000008
100
AcDbArc
 50
86.52544192956085
 51
93.47455807043983
  0
LINE
  5
14FA
330
18
100
AcDbEntity
  8
1
  6
Continuous
100
AcDbLine
 10
618.1080222249317
 20
236.8884292252239
 30
0.0
 11
610.7595237048132
 21
241.131086823954
 31
0.0
  0
LINE
  5
14FB
330
18
100
AcDbEntity
  8
1
  6
Continuous
100
AcDbLine
 10
601.6837732148722
 20
235.8912012615995
 30
0.0
 11
601.6837732148722
 21
227.4058820572173
 31
0.0
  0
ARC
  5
14FC
330
18
100
AcDbEntity
  8
1
  6
Continuous
100
AcDbCircle
 10
610.1837727148722
 20
231.6485416594084
 30
0.0
 40
9.500008000000008
100
AcDbArc
 50
146.5254419295593
 51
153.4745445657495
  0
LINE
  5
14FD
330
18
100
AcDbEntity
  8
1
  6
Continuous
100
AcDbLine
 10
602.2595232048128
 20
236.8884292252241
 30
0.0
 11
609.6080217249317
 21
241.131086823954
 31
0.0
  0
ARC
  5
14FE
330
18
100
AcDbEntity
  8
1
  6
Continuous
100
AcDbCircle
 10
610.1837727148722
 20
231.6485416594084
 30
0.0
 40
9.500008000000008
100
AcDbArc
 50
206.5254554342502
 51
213.4745580704395
  0
LINE
  5
14FF
330
18
100
AcDbEntity
  8
1
  6
Continuous
100
AcDbLine
 10
602.2595232048128
 20
226.4086540935929
 30
0.0
 11
609.6080217249317
 21
222.1659964948628
 31
0.0
  0
ARC
  5
1500
330
18
100
AcDbEntity
  8
1
  6
Continuous
100
AcDbCircle
 10
610.1837727148722
 20
231.6485416594084
 30
0.0
 40
9.500008000000008
100
AcDbArc
 50
266.5254419295608
 51
273.474558070439
  0
LINE
  5
1501
330
18
100
AcDbEntity
  8
1
  6
Continuous
100
AcDbLine
 10
618.683772214872
 20
235.8912012615996
 30
0.0
 11
618.6837722148723
 21
227.4058820572171
 31
0.0
  0
LINE
  5
1502
330
18
100
AcDbEntity
  8
1
  6
Continuous
100
AcDbLine
 10
618.1080222249314
 20
226.4086540935927
 30
0.0
 11
610.7595237048132
 21
222.1659964948628
 31
0.0
  0
ARC
  5
1503
330
18
100
AcDbEntity
  8
1
  6
Continuous
100
AcDbCircle
 10
610.1837727148722
 20
231.6485416594084
 30
0.0
 40
9.500008000000008
100
AcDbArc
 50
326.5254419295603
 51
333.4745445657496
  0
ARC
  5
1504
330
18
100
AcDbEntity
  8
1
  6
Continuous
100
AcDbCircle
 10
610.1837727148722
 20
231.6485416594084
 30
0.0
 40
9.500008000000008
100
AcDbArc
 50
26.52545543425034
 51
33.47455807043957
  0
ARC
  5
29AD
330
18
100
AcDbEntity
  8
1
  6
Continuous
100
AcDbCircle
 10
260.8196797527859
 20
231.6485416594086
 30
0.0
 40
16.5
100
AcDbArc
 50
167.108744383031
 51
12.89119140237194
  0
ARC
  5
29AE
330
18
100
AcDbEntity
  8
1
  6
Continuous
100
AcDbCircle
 10
264.724777752786
 20
206.4493346594086
 30
0.0
 40
1.5
100
AcDbArc
 50
278.8089999999978
 51
14.99999899999897
  0
ARC
  5
29AF
330
18
100
AcDbEntity
  8
1
  6
Continuous
100
AcDbCircle
 10
260.8196797527859
 20
231.6485416594086
 30
0.0
 40
30.0
100
AcDbArc
 50
133.9004665467078
 51
46.09951616573272
  0
ARC
  5
29B4
330
18
100
AcDbEntity
  8
1
  6
Continuous
100
AcDbCircle
 10
265.069679752786
 20
443.5361353486769
 30
0.0
 40
13.75000299999999
100
AcDbArc
 50
254.5012699999976
 51
285.4987300000022
  0
ARC
  5
29B5
330
18
100
AcDbEntity
  8
1
  6
Continuous
100
AcDbCircle
 10
265.069679752786
 20
423.8561323486768
 30
0.0
 40
10.93000299999999
100
AcDbArc
 50
72.602691000002
 51
107.3973099999985
  0
CIRCLE
  5
29B6
330
18
100
AcDbEntity
  8
1
  6
Continuous
100
AcDbCircle
 10
260.8196797527859
 20
404.0861353486768
 30
0.0
 40
7.0
  0
ARC
  5
29B7
330
18
100
AcDbEntity
  8
1
  6
Continuous
100
AcDbCircle
 10
260.8196797527859
 20
231.6485416594086
 30
0.0
 40
37.5
100
AcDbArc
 50
127.6820799999979
 51
52.3179200000019
  0
CIRCLE
  5
29B8
330
18
100
AcDbEntity
  8
1
  6
Continuous
100
AcDbCircle
 10
260.8196797527859
 20
231.6485416594086
 30
0.0
 40
7.400000099999997
  0
CIRCLE
  5
29B9
330
18
100
AcDbEntity
  8
1
  6
Continuous
100
AcDbCircle
 10
260.8196797527859
 20
231.6485416594086
 30
0.0
 40
9.0
  0
ARC
  5
29BA
330
18
100
AcDbEntity
  8
1
  6
Continuous
100
AcDbCircle
 10
260.8196797527859
 20
233.1485416594087
 30
0.0
 40
15.0
100
AcDbArc
 50
194.7385599999996
 51
345.2614400000002
  0
LINE
  5
29BB
330
18
100
AcDbEntity
  8
1
  6
Continuous
100
AcDbLine
 10
269.319679752786
 20
434.7861323486768
 30
0.0
 11
260.8196797527859
 21
434.7861323486768
 31
0.0
  0
LINE
  5
29BC
330
18
100
AcDbEntity
  8
1
  6
Continuous
100
AcDbLine
 10
268.119678752786
 20
436.3861253486768
 30
0.0
 11
260.8196797527859
 21
436.3861253486768
 31
0.0
  0
LINE
  5
29BD
330
18
100
AcDbEntity
  8
1
  6
Continuous
100
AcDbLine
 10
269.819679752786
 20
374.3861383486771
 30
0.0
 11
251.8196807527861
 21
374.3861383486771
 31
0.0
  0
LINE
  5
29BE
330
18
100
AcDbEntity
  8
1
  6
Continuous
100
AcDbLine
 10
267.8196817527859
 20
373.3861383486772
 30
0.0
 11
253.8196827527861
 21
373.3861383486772
 31
0.0
  0
LINE
  5
29BF
330
18
100
AcDbEntity
  8
1
  6
Continuous
100
AcDbLine
 10
251.8196797527858
 20
429.7861323486769
 30
0.0
 11
269.819679752786
 21
429.7861323486769
 31
0.0
  0
LINE
  5
29C0
330
18
100
AcDbEntity
  8
4
  6
CENTER
100
AcDbLine
 10
215.8196797527859
 20
404.0861353486768
 30
0.0
 11
305.8196797527859
 21
404.0861353486768
 31
0.0
  0
LINE
  5
29C1
330
18
100
AcDbEntity
  8
1
  6
Continuous
100
AcDbLine
 10
251.8196797527858
 20
378.3861383486772
 30
0.0
 11
269.819679752786
 21
378.3861383486772
 31
0.0
  0
LINE
  5
29C2
330
18
100
AcDbEntity
  8
1
  6
Continuous
100
AcDbLine
 10
219.819679752786
 20
294.1485416594088
 30
0.0
 11
301.8196797527858
 21
294.1485416594088
 31
0.0
  0
LINE
  5
29C3
330
18
100
AcDbEntity
  8
4
  6
CENTER
100
AcDbLine
 10
218.6863447527858
 20
231.6485416594086
 30
0.0
 11
302.1530157527858
 21
231.6485416594086
 31
0.0
  0
ARC
  5
29C6
330
18
100
AcDbEntity
  8
1
  6
Continuous
100
AcDbCircle
 10
113.7689184693694
 20
281.8986021736741
 30
0.0
 40
69.35989670011442
100
AcDbArc
 50
184.1127317347958
 51
218.7190056819396
  0
ARC
  5
29C7
330
18
100
AcDbEntity
  8
1
  6
Continuous
100
AcDbCircle
 10
113.7687972633458
 20
281.898313918796
 30
0.0
 40
72.55961264431816
100
AcDbArc
 50
184.0192315924483
 51
218.7124913696675
  0
LINE
  5
29C8
330
18
100
AcDbEntity
  8
1
  6
Continuous
100
AcDbLine
 10
57.80218327174314
 20
235.6407746594086
 30
0.0
 11
55.93763327174293
 21
235.4221396594086
 31
0.0
  0
LINE
  5
29C9
330
18
100
AcDbEntity
  8
1
  6
Continuous
100
AcDbLine
 10
55.93763327174315
 20
237.1229606594086
 30
0.0
 11
56.70814327174321
 21
237.0777866594086
 31
0.0
  0
LINE
  5
29CA
330
18
100
AcDbEntity
  8
1
  6
Continuous
100
AcDbLine
 10
55.93763327174293
 20
226.1741306594086
 30
0.0
 11
59.93763327174292
 21
226.4086506594086
 31
0.0
  0
LINE
  5
29CB
330
18
100
AcDbEntity
  8
1
  6
Continuous
100
AcDbLine
 10
59.93763327174292
 20
227.4059036594087
 30
0.0
 11
55.93763327174293
 21
227.8749596594086
 31
0.0
  0
LINE
  5
29CC
330
18
100
AcDbEntity
  8
1
  6
Continuous
100
AcDbLine
 10
59.93763327174292
 20
222.1485416594087
 30
0.0
 11
55.93763327174293
 21
222.4005256594086
 31
0.0
  0
LINE
  5
29CD
330
18
100
AcDbEntity
  8
1
  6
Continuous
100
AcDbLine
 10
55.93763327174293
 20
222.3485466594087
 30
0.0
 11
59.93763327174292
 21
222.1485416594087
 31
0.0
  0
LINE
  5
29CE
330
18
100
AcDbEntity
  8
4
  6
CENTER
100
AcDbLine
 10
48.80858997146059
 20
231.6485416594086
 30
0.0
 11
124.4110339714607
 21
231.6485416594086
 31
0.0
  0
LINE
  5
29CF
330
18
100
AcDbEntity
  8
1
  6
Continuous
100
AcDbLine
 10
45.38763327174296
 20
290.9485416594086
 30
0.0
 11
126.8876342717429
 21
290.9485416594086
 31
0.0
  0
LINE
  5
29D0
330
18
100
AcDbEntity
  8
1
  6
Continuous
100
AcDbLine
 10
45.38763327174296
 20
294.1485416594088
 30
0.0
 11
126.8876342717429
 21
294.1485416594088
 31
0.0
  0
ARC
  5
29D1
330
18
100
AcDbEntity
  8
1
  6
Continuous
100
AcDbCircle
 10
69.92763327174316
 20
231.6485416594086
 30
0.0
 40
14.49
100
AcDbArc
 50
164.9045800000001
 51
195.0954199999998
  0
LINE
  5
29D2
330
18
100
AcDbEntity
  8
1
  6
Continuous
100
AcDbLine
 10
53.83764327174299
 20
238.9485406594086
 30
0.0
 11
53.83764327174299
 21
231.6485416594086
 31
0.0
  0
LINE
  5
29D3
330
18
100
AcDbEntity
  8
1
  6
Continuous
100
AcDbLine
 10
55.43763327174293
 20
238.7476626594086
 30
0.0
 11
55.43763327174293
 21
231.6485416594086
 31
0.0
  0
LINE
  5
29D4
330
18
100
AcDbEntity
  8
1
  6
Continuous
100
AcDbLine
 10
52.08763327174303
 20
236.6485416594087
 30
0.0
 11
52.08763327174303
 21
226.6485416594087
 31
0.0
  0
LINE
  5
29D5
330
18
100
AcDbEntity
  8
1
  6
Continuous
100
AcDbLine
 10
51.33763327174301
 20
235.8985416594086
 30
0.0
 11
51.33763327174301
 21
227.3985416594086
 31
0.0
  0
ARC
  5
29D6
330
18
100
AcDbEntity
  8
1
  6
Continuous
100
AcDbCircle
 10
59.24764327174306
 20
224.2873276594086
 30
0.0
 40
3.8100059
100
AcDbArc
 50
150.3156199999998
 51
209.6843800000002
  0
ARC
  5
29D7
330
18
100
AcDbEntity
  8
1
  6
Continuous
100
AcDbCircle
 10
55.03764327174303
 20
224.3485386594087
 30
0.0
 40
1.199999999999999
100
AcDbArc
 50
180.0000099999993
 51
270.0
  0
LINE
  5
29D8
330
18
100
AcDbEntity
  8
1
  6
Continuous
100
AcDbLine
 10
55.03764327174303
 20
223.1485416594086
 30
0.0
 11
55.43763327174293
 21
223.1485416594086
 31
0.0
  0
LINE
  5
29D9
330
18
100
AcDbEntity
  8
1
  6
Continuous
100
AcDbLine
 10
55.93763327174315
 20
222.3485386594087
 30
0.0
 11
55.43763327174293
 21
223.1485416594089
 31
0.0
  0
LINE
  5
29DA
330
18
100
AcDbEntity
  8
1
  6
Continuous
100
AcDbLine
 10
55.93763327174293
 20
222.3485386594087
 30
0.0
 11
55.93763327174293
 21
222.4005326594086
 31
0.0
  0
LINE
  5
29DB
330
18
100
AcDbEntity
  8
1
  6
Continuous
100
AcDbLine
 10
55.93763327174293
 20
226.1741226594086
 30
0.0
 11
55.93763327174293
 21
227.8749516594086
 31
0.0
  0
LINE
  5
29DC
330
18
100
AcDbEntity
  8
1
  6
Continuous
100
AcDbLine
 10
55.43763327174293
 20
223.1485416594086
 30
0.0
 11
55.43763327174293
 21
231.6485416594086
 31
0.0
  0
LINE
  5
29DD
330
18
100
AcDbEntity
  8
1
  6
Continuous
100
AcDbLine
 10
53.83764327174299
 20
224.3485386594087
 30
0.0
 11
53.83764327174299
 21
231.6485416594086
 31
0.0
  0
LINE
  5
29DE
330
18
100
AcDbEntity
  8
1
  6
Continuous
100
AcDbLine
 10
52.0876032717431
 20
226.6485106594086
 30
0.0
 11
51.3376032717431
 21
227.3985106594087
 31
0.0
  0
LINE
  5
29DF
330
18
100
AcDbEntity
  8
2
  6
Continuous
100
AcDbLine
 10
51.33763327174301
 20
227.3985416594086
 30
0.0
 11
53.83764327174299
 21
227.3985416594086
 31
0.0
  0
LINE
  5
29E0
330
18
100
AcDbEntity
  8
1
  6
Continuous
100
AcDbLine
 10
52.08763327174303
 20
226.6485416594087
 30
0.0
 11
53.83764327174299
 21
226.6485416594087
 31
0.0
  0
ARC
  5
29E1
330
18
100
AcDbEntity
  8
1
  6
Continuous
100
AcDbCircle
 10
55.03764327174303
 20
238.9485406594086
 30
0.0
 40
1.199999999999999
100
AcDbArc
 50
115.8870699999982
 51
180.0000099999993
  0
ARC
  5
29E2
330
18
100
AcDbEntity
  8
1
  6
Continuous
100
AcDbCircle
 10
59.24764327174306
 20
239.0097556594086
 30
0.0
 40
3.8100059
100
AcDbArc
 50
184.1483199999993
 51
209.6843900000005
  0
LINE
  5
29E3
330
18
100
AcDbEntity
  8
1
  6
Continuous
100
AcDbLine
 10
55.93763327174293
 20
237.1229606594086
 30
0.0
 11
55.93763327174293
 21
235.4221316594086
 31
0.0
  0
LINE
  5
29E4
330
18
100
AcDbEntity
  8
1
  6
Continuous
100
AcDbLine
 10
51.33761327174306
 20
235.8985416594086
 30
0.0
 11
52.08761327174307
 21
236.6485416594087
 31
0.0
  0
LINE
  5
29E5
330
18
100
AcDbEntity
  8
2
  6
Continuous
100
AcDbLine
 10
51.33763327174301
 20
235.8985416594086
 30
0.0
 11
53.83764327174299
 21
235.8985416594086
 31
0.0
  0
LINE
  5
29E6
330
18
100
AcDbEntity
  8
1
  6
Continuous
100
AcDbLine
 10
52.08763327174303
 20
236.6485416594087
 30
0.0
 11
53.83764327174299
 21
236.6485416594087
 31
0.0
  0
LINE
  5
29E7
330
18
100
AcDbEntity
  8
1
  6
Continuous
100
AcDbLine
 10
44.58763327174302
 20
276.9241686594086
 30
0.0
 11
44.58763327174302
 21
290.1485416594088
 31
0.0
  0
LINE
  5
29E8
330
18
100
AcDbEntity
  8
1
  6
Continuous
100
AcDbLine
 10
41.38763327174297
 20
276.8125206594086
 30
0.0
 11
41.38763327174297
 21
290.1485416594088
 31
0.0
  0
LINE
  5
29E9
330
18
100
AcDbEntity
  8
4
  6
CENTER
100
AcDbLine
 10
54.63763327174297
 20
286.5443331596163
 30
0.0
 11
54.63763327174297
 21
299.1308414594086
 31
0.0
  0
ARC
  5
29EA
330
18
100
AcDbEntity
  8
1
  6
Continuous
100
AcDbCircle
 10
45.38763327174296
 20
290.1485416594088
 30
0.0
 40
4.0
100
AcDbArc
 50
89.99998200000083
 51
179.9999599999992
  0
ARC
  5
29EB
330
18
100
AcDbEntity
  8
1
  6
Continuous
100
AcDbCircle
 10
45.38763327174296
 20
290.1485416594088
 30
0.0
 40
0.8000000099999999
100
AcDbArc
 50
89.99998200000083
 51
179.9999599999992
  0
LINE
  5
29EC
330
18
100
AcDbEntity
  8
1
  6
Continuous
100
AcDbLine
 10
106.1376332717429
 20
263.3705876594086
 30
0.0
 11
106.1376332717429
 21
199.9264916594087
 31
0.0
  0
LINE
  5
29ED
330
18
100
AcDbEntity
  8
1
  6
Continuous
100
AcDbLine
 10
66.13763327174297
 20
263.3705876594086
 30
0.0
 11
66.13763327174297
 21
199.9264916594087
 31
0.0
  0
LINE
  5
29EE
330
18
100
AcDbEntity
  8
4
  6
CENTER
100
AcDbLine
 10
86.13763327174297
 20
190.5503116594086
 30
0.0
 11
86.13763327174297
 21
299.1308414594086
 31
0.0
  0
ARC
  5
29F0
330
18
100
AcDbEntity
  8
1
  6
Continuous
100
AcDbCircle
 10
86.13763327174297
 20
344.1485416594088
 30
0.0
 40
150.0
100
AcDbArc
 50
264.0622070000026
 51
275.937774999998
  0
ARC
  5
29F1
330
18
100
AcDbEntity
  8
1
  6
Continuous
100
AcDbCircle
 10
71.13763327174297
 20
199.9264956594088
 30
0.0
 40
5.0
100
AcDbArc
 50
180.000039999999
 51
264.0621859999984
  0
ARC
  5
29F2
330
18
100
AcDbEntity
  8
1
  6
Continuous
100
AcDbCircle
 10
101.1376332717428
 20
199.9264956594088
 30
0.0
 40
5.0
100
AcDbArc
 50
275.9377950000023
 51
0.0
  0
ARC
  5
29F5
330
18
100
AcDbEntity
  8
1
  6
Continuous
100
AcDbCircle
 10
58.50635207673327
 20
281.8986021508681
 30
0.0
 40
69.35989669586902
100
AcDbArc
 50
321.2809843400476
 51
355.88726828384
  0
ARC
  5
29F6
330
18
100
AcDbEntity
  8
1
  6
Continuous
100
AcDbCircle
 10
58.50647334932511
 20
281.8983137331068
 30
0.0
 40
72.55961248623766
100
AcDbArc
 50
321.2874987187968
 51
355.9808185088742
  0
LINE
  5
29F7
330
18
100
AcDbEntity
  8
1
  6
Continuous
100
AcDbLine
 10
108.6376332717428
 20
218.1485416594087
 30
0.0
 11
108.6376332717428
 21
290.9485416594086
 31
0.0
  0
LINE
  5
29F8
330
18
100
AcDbEntity
  8
1
  6
Continuous
100
AcDbLine
 10
63.63763327174297
 20
218.1485416594087
 30
0.0
 11
63.63763327174297
 21
290.9485416594086
 31
0.0
  0
ARC
  5
29F9
330
18
100
AcDbEntity
  8
1
  6
Continuous
100
AcDbCircle
 10
45.43763327174292
 20
227.1485416594086
 30
0.0
 40
18.200001
100
AcDbArc
 50
0.0
 51
38.67275999999797
  0
ARC
  5
29FA
330
18
100
AcDbEntity
  8
1
  6
Continuous
100
AcDbCircle
 10
45.43763327174292
 20
227.1485416594086
 30
0.0
 40
15.0
100
AcDbArc
 50
0.0
 51
38.65799600000055
  0
LINE
  5
29FB
330
18
100
AcDbEntity
  8
1
  6
Continuous
100
AcDbLine
 10
64.43763327174292
 20
249.6485416594087
 30
0.0
 11
64.43763327174292
 21
213.6485416594087
 31
0.0
  0
LINE
  5
29FC
330
18
100
AcDbEntity
  8
1
  6
Continuous
100
AcDbLine
 10
60.43763327174293
 20
218.1485416594087
 30
0.0
 11
60.43763327174293
 21
227.1485416594086
 31
0.0
  0
LINE
  5
29FD
330
18
100
AcDbEntity
  8
1
  6
Continuous
100
AcDbLine
 10
64.43763327174292
 20
213.6485416594087
 30
0.0
 11
66.13763327174297
 21
213.6485416594087
 31
0.0
  0
LINE
  5
29FE
330
18
100
AcDbEntity
  8
1
  6
Continuous
100
AcDbLine
 10
60.43763327174293
 20
218.1485416594087
 30
0.0
 11
63.63763327174297
 21
218.1485416594087
 31
0.0
  0
LINE
  5
29FF
330
18
100
AcDbEntity
  8
1
  6
Continuous
100
AcDbLine
 10
63.63763327174297
 20
226.6485416594087
 30
0.0
 11
64.43763327174292
 21
226.6485416594087
 31
0.0
  0
ARC
  5
2A00
330
18
100
AcDbEntity
  8
1
  6
Continuous
100
AcDbCircle
 10
42.18763327174293
 20
231.6485416594086
 30
0.0
 40
18.25
100
AcDbArc
 50
346.5572599999986
 51
352.5676399999992
  0
ARC
  5
2A01
330
18
100
AcDbEntity
  8
1
  6
Continuous
100
AcDbCircle
 10
55.65051327174296
 20
224.2785926594086
 30
0.0
 40
4.787128
100
AcDbArc
 50
333.5795799999996
 51
26.42042000000029
  0
LINE
  5
2A02
330
18
100
AcDbEntity
  8
1
  6
Continuous
100
AcDbLine
 10
60.43763327174293
 20
223.1485496594086
 30
0.0
 11
59.93763327174292
 21
222.1485496594088
 31
0.0
  0
LINE
  5
2A03
330
18
100
AcDbEntity
  8
1
  6
Continuous
100
AcDbLine
 10
59.93763327174292
 20
227.4059036594087
 30
0.0
 11
59.93763327174292
 21
226.4086506594086
 31
0.0
  0
LINE
  5
2A04
330
18
100
AcDbEntity
  8
1
  6
Continuous
100
AcDbLine
 10
63.63763327174297
 20
236.6485416594087
 30
0.0
 11
64.43763327174292
 21
236.6485416594087
 31
0.0
  0
LINE
  5
2A05
330
18
100
AcDbEntity
  8
1
  6
Continuous
100
AcDbLine
 10
64.43763327174292
 20
249.6485416594087
 30
0.0
 11
66.13763327174297
 21
249.6485416594087
 31
0.0
  0
ARC
  5
2A06
330
18
100
AcDbEntity
  8
1
  6
Continuous
100
AcDbCircle
 10
126.8376302717431
 20
227.1485416594086
 30
0.0
 40
18.200001
100
AcDbArc
 50
141.327240000002
 51
179.9999599999992
  0
ARC
  5
2A07
330
18
100
AcDbEntity
  8
1
  6
Continuous
100
AcDbCircle
 10
126.8376302717431
 20
227.1485416594086
 30
0.0
 40
15.0
100
AcDbArc
 50
141.3420099999995
 51
179.9999599999992
  0
LINE
  5
2A08
330
18
100
AcDbEntity
  8
1
  6
Continuous
100
AcDbLine
 10
107.837630271743
 20
249.6485416594087
 30
0.0
 11
107.837630271743
 21
213.6485416594087
 31
0.0
  0
LINE
  5
2A09
330
18
100
AcDbEntity
  8
1
  6
Continuous
100
AcDbLine
 10
115.837630271743
 20
237.3465816594086
 30
0.0
 11
115.837630271743
 21
222.6485416594087
 31
0.0
  0
LINE
  5
2A0A
330
18
100
AcDbEntity
  8
1
  6
Continuous
100
AcDbLine
 10
116.837630271743
 20
238.7476626594086
 30
0.0
 11
116.837630271743
 21
224.6485416594087
 31
0.0
  0
LINE
  5
2A0B
330
18
100
AcDbEntity
  8
1
  6
Continuous
100
AcDbLine
 10
111.837630271743
 20
218.1485416594087
 30
0.0
 11
111.837630271743
 21
227.1485416594086
 31
0.0
  0
LINE
  5
2A0C
330
18
100
AcDbEntity
  8
1
  6
Continuous
100
AcDbLine
 10
106.1376332717429
 20
213.6485416594087
 30
0.0
 11
107.837630271743
 21
213.6485416594087
 31
0.0
  0
LINE
  5
2A0D
330
18
100
AcDbEntity
  8
1
  6
Continuous
100
AcDbLine
 10
108.6376332717428
 20
218.1485416594087
 30
0.0
 11
111.837630271743
 21
218.1485416594087
 31
0.0
  0
LINE
  5
2A0E
330
18
100
AcDbEntity
  8
1
  6
Continuous
100
AcDbLine
 10
111.837630271743
 20
222.6485416594087
 30
0.0
 11
115.837630271743
 21
222.6485416594087
 31
0.0
  0
LINE
  5
2A0F
330
18
100
AcDbEntity
  8
1
  6
Continuous
100
AcDbLine
 10
107.837630271743
 20
226.6485416594087
 30
0.0
 11
108.6376332717428
 21
226.6485416594087
 31
0.0
  0
LINE
  5
2A10
330
18
100
AcDbEntity
  8
1
  6
Continuous
100
AcDbLine
 10
115.837630271743
 20
222.6485336594087
 30
0.0
 11
116.837630271743
 21
224.6485336594087
 31
0.0
  0
LINE
  5
2A11
330
18
100
AcDbEntity
  8
1
  6
Continuous
100
AcDbLine
 10
107.837630271743
 20
236.6485416594087
 30
0.0
 11
108.6376332717428
 21
236.6485416594087
 31
0.0
  0
LINE
  5
2A12
330
18
100
AcDbEntity
  8
1
  6
Continuous
100
AcDbLine
 10
116.8376532717428
 20
238.6485526594086
 30
0.0
 11
116.8120262717428
 21
238.6998076594086
 31
0.0
  0
LINE
  5
2A13
330
18
100
AcDbEntity
  8
1
  6
Continuous
100
AcDbLine
 10
106.1376332717429
 20
249.6485416594087
 30
0.0
 11
107.837630271743
 21
249.6485416594087
 31
0.0
  0
ARC
  5
2A14
330
18
100
AcDbEntity
  8
1
  6
Continuous
100
AcDbCircle
 10
86.13763327174297
 20
119.1485416594088
 30
0.0
 40
150.0
100
AcDbArc
 50
84.06222500000202
 51
95.93779299999741
  0
LINE
  5
2A15
330
18
100
AcDbEntity
  8
1
  6
Continuous
100
AcDbLine
 10
68.30239327174308
 20
287.7485416594086
 30
0.0
 11
103.9728692717429
 21
287.7485416594086
 31
0.0
  0
ARC
  5
2A16
330
18
100
AcDbEntity
  8
1
  6
Continuous
100
AcDbCircle
 10
71.13763327174297
 20
263.3705876594086
 30
0.0
 40
5.0
100
AcDbArc
 50
95.93781400000157
 51
179.9999599999992
  0
ARC
  5
2A17
330
18
100
AcDbEntity
  8
1
  6
Continuous
100
AcDbCircle
 10
68.30239327174308
 20
292.7485420594086
 30
0.0
 40
5.0
100
AcDbArc
 50
201.10017
 51
270.0000200000018
  0
ARC
  5
2A18
330
18
100
AcDbEntity
  8
1
  6
Continuous
100
AcDbCircle
 10
101.1376332717428
 20
263.3705876594086
 30
0.0
 40
5.0
100
AcDbArc
 50
0.0
 51
84.0622049999976
  0
ARC
  5
2A19
330
18
100
AcDbEntity
  8
1
  6
Continuous
100
AcDbCircle
 10
103.9728692717429
 20
292.7485420594086
 30
0.0
 40
5.0
100
AcDbArc
 50
270.0000200000018
 51
338.8998999999997
  0
LINE
  5
2A1A
330
18
100
AcDbEntity
  8
4
  6
CENTER
100
AcDbLine
 10
117.6376332717429
 20
286.5443331596163
 30
0.0
 11
117.6376332717429
 21
299.1308414594086
 31
0.0
  0
LINE
  5
2A1B
330
18
100
AcDbEntity
  8
1
  6
Continuous
100
AcDbLine
 10
127.6876332717429
 20
276.9241686594086
 30
0.0
 11
127.6876332717429
 21
290.1485416594088
 31
0.0
  0
LINE
  5
2A1C
330
18
100
AcDbEntity
  8
1
  6
Continuous
100
AcDbLine
 10
130.8876342717429
 20
276.8125236594086
 30
0.0
 11
130.8876342717429
 21
290.1485416594088
 31
0.0
  0
ARC
  5
2A1D
330
18
100
AcDbEntity
  8
1
  6
Continuous
100
AcDbCircle
 10
126.8876342717429
 20
290.1485416594088
 30
0.0
 40
4.0
100
AcDbArc
 50
0.0
 51
89.99998200000083
  0
ARC
  5
2A1E
330
18
100
AcDbEntity
  8
1
  6
Continuous
100
AcDbCircle
 10
126.8876342717429
 20
290.1485416594088
 30
0.0
 40
0.8000000099999999
100
AcDbArc
 50
0.0
 51
89.99998200000083
  0
ARC
  5
2A1F
330
18
100
AcDbEntity
  8
1
  6
Continuous
100
AcDbCircle
 10
260.8196797527859
 20
231.6485416594086
 30
0.0
 40
27.0
100
AcDbArc
 50
231.1909899999992
 51
248.8090000000004
  0
LINE
  5
2A20
330
18
100
AcDbEntity
  8
1
  6
Continuous
100
AcDbLine
 10
264.4780507527859
 20
213.1656806594086
 30
0.0
 11
266.1736647527859
 21
206.8375576594086
 31
0.0
  0
LINE
  5
2A21
330
18
100
AcDbEntity
  8
1
  6
Continuous
100
AcDbLine
 10
254.7464907527859
 20
213.8127276594087
 30
0.0
 11
253.050876752786
 21
207.4846046594086
 31
0.0
  0
LINE
  5
2A22
330
18
100
AcDbEntity
  8
1
  6
Continuous
100
AcDbLine
 10
257.161308752786
 20
213.1656796594086
 30
0.0
 11
255.4656907527858
 21
206.8375576594086
 31
0.0
  0
LINE
  5
2A23
330
18
100
AcDbEntity
  8
4
  6
CENTER
100
AcDbLine
 10
260.8196797527859
 20
190.5503116594086
 30
0.0
 11
260.8196797527859
 21
299.1308414594086
 31
0.0
  0
ARC
  5
2A25
330
18
100
AcDbEntity
  8
1
  6
Continuous
100
AcDbCircle
 10
260.8196797527859
 20
231.6485416594086
 30
0.0
 40
27.0
100
AcDbArc
 50
261.1909900000023
 51
278.8089999999978
  0
ARC
  5
2A26
330
18
100
AcDbEntity
  8
1
  6
Continuous
100
AcDbCircle
 10
256.9145817527859
 20
206.4493346594086
 30
0.0
 40
1.5
100
AcDbArc
 50
164.9999900000002
 51
261.1910000000019
  0
ARC
  5
2A27
330
18
100
AcDbEntity
  8
1
  6
Continuous
100
AcDbCircle
 10
251.601989752786
 20
207.8728346594086
 30
0.0
 40
1.5
100
AcDbArc
 50
248.8090000000004
 51
344.9999999999992
  0
LINE
  5
2A28
330
18
100
AcDbEntity
  8
1
  6
Continuous
100
AcDbLine
 10
232.9762001527857
 20
280.0311676594087
 30
0.0
 11
246.3132348527858
 21
229.3324096594087
 31
0.0
  0
LINE
  5
2A29
330
18
100
AcDbEntity
  8
1
  6
Continuous
100
AcDbLine
 10
249.8196797527858
 20
233.7218756594086
 30
0.0
 11
249.8196797527858
 21
291.4485447594088
 31
0.0
  0
ARC
  5
2A2A
330
18
100
AcDbEntity
  8
1
  6
Continuous
100
AcDbCircle
 10
260.8196797527859
 20
231.6485416594086
 30
0.0
 40
27.0
100
AcDbArc
 50
171.1909899999993
 51
188.8090000000013
  0
ARC
  5
2A2B
330
18
100
AcDbEntity
  8
1
  6
Continuous
100
AcDbCircle
 10
260.8196797527859
 20
231.6485416594086
 30
0.0
 40
17.5
100
AcDbArc
 50
173.3220299999999
 51
186.6779599999995
  0
CIRCLE
  5
2A2C
330
18
100
AcDbEntity
  8
1
  6
Continuous
100
AcDbCircle
 10
260.8196797527859
 20
231.6485416594086
 30
0.0
 40
2.5
  0
ARC
  5
2A2D
330
18
100
AcDbEntity
  8
1
  6
Continuous
100
AcDbCircle
 10
249.470665752786
 20
216.4104396594086
 30
0.0
 40
1.5
100
AcDbArc
 50
53.32203999999965
 51
135.0
  0
ARC
  5
2A2E
330
18
100
AcDbEntity
  8
1
  6
Continuous
100
AcDbCircle
 10
260.8196797527859
 20
231.6485416594086
 30
0.0
 40
17.5
100
AcDbArc
 50
203.3220400000002
 51
216.6779599999993
  0
ARC
  5
2A2F
330
18
100
AcDbEntity
  8
1
  6
Continuous
100
AcDbCircle
 10
237.0439747527859
 20
222.4308483594086
 30
0.0
 40
1.5
100
AcDbArc
 50
105.000010000002
 51
201.1909900000001
  0
ARC
  5
2A30
330
18
100
AcDbEntity
  8
1
  6
Continuous
100
AcDbCircle
 10
240.949074752786
 20
215.6670236594086
 30
0.0
 40
1.5
100
AcDbArc
 50
218.8090099999985
 51
315.0
  0
ARC
  5
2A31
330
18
100
AcDbEntity
  8
1
  6
Continuous
100
AcDbCircle
 10
260.8196797527859
 20
231.6485416594086
 30
0.0
 40
27.0
100
AcDbArc
 50
201.191
 51
218.8090099999985
  0
ARC
  5
2A32
330
18
100
AcDbEntity
  8
1
  6
Continuous
100
AcDbCircle
 10
245.5815737527859
 20
220.2995235594086
 30
0.0
 40
1.5
100
AcDbArc
 50
315.0000100000011
 51
36.67796199999907
  0
ARC
  5
2A33
330
18
100
AcDbEntity
  8
1
  6
Continuous
100
AcDbCircle
 10
244.8381577527859
 20
211.7779326594086
 30
0.0
 40
1.5
100
AcDbArc
 50
135.0
 51
231.1910000000009
  0
LINE
  5
2A34
330
18
100
AcDbEntity
  8
1
  6
Continuous
100
AcDbLine
 10
248.410003752786
 20
217.4710981594087
 30
0.0
 11
243.7774967527859
 21
212.8385916594086
 31
0.0
  0
LINE
  5
2A35
330
18
100
AcDbEntity
  8
1
  6
Continuous
100
AcDbLine
 10
246.6422357527859
 20
219.2388655594086
 30
0.0
 11
242.0097317527861
 21
214.6063586594086
 31
0.0
  0
LINE
  5
2A36
330
18
100
AcDbEntity
  8
1
  6
Continuous
100
AcDbLine
 10
242.336815752786
 20
227.9901682594086
 30
0.0
 11
236.0086977527859
 21
226.2945542294086
 31
0.0
  0
LINE
  5
2A37
330
18
100
AcDbEntity
  8
1
  6
Continuous
100
AcDbLine
 10
242.9838647527859
 20
225.5753537594086
 30
0.0
 11
236.6557447527859
 21
223.8797397594086
 31
0.0
  0
ARC
  5
2A38
330
18
100
AcDbEntity
  8
1
  6
Continuous
100
AcDbCircle
 10
235.6204687527861
 20
227.7434398594087
 30
0.0
 40
1.5
100
AcDbArc
 50
188.8090000000013
 51
285.000000000001
  0
ARC
  5
2A39
330
18
100
AcDbEntity
  8
1
  6
Continuous
100
AcDbCircle
 10
243.3720937527859
 20
224.1264659594086
 30
0.0
 40
1.5
100
AcDbArc
 50
23.32203799999846
 51
105.0000000000011
  0
ARC
  5
2A3A
330
18
100
AcDbEntity
  8
1
  6
Continuous
100
AcDbCircle
 10
241.9485857527861
 20
229.4390575594086
 30
0.0
 40
1.5
100
AcDbArc
 50
285.0000100000021
 51
6.677960500000311
  0
ARC
  5
2A3B
330
18
100
AcDbEntity
  8
1
  6
Continuous
100
AcDbCircle
 10
258.610195752786
 20
212.7774436594086
 30
0.0
 40
1.5
100
AcDbArc
 50
83.32203100000164
 51
165.0000100000013
  0
ARC
  5
2A3C
330
18
100
AcDbEntity
  8
1
  6
Continuous
100
AcDbCircle
 10
253.2976007527859
 20
214.2009516594086
 30
0.0
 40
1.5
100
AcDbArc
 50
344.9999999999992
 51
66.67796599999746
  0
ARC
  5
2A3D
330
18
100
AcDbEntity
  8
1
  6
Continuous
100
AcDbCircle
 10
260.8196797527859
 20
231.6485416594086
 30
0.0
 40
17.5
100
AcDbArc
 50
233.3220400000006
 51
246.6779600000005
  0
ARC
  5
2A3E
330
18
100
AcDbEntity
  8
1
  6
Continuous
100
AcDbCircle
 10
263.0291637527859
 20
212.7774436594086
 30
0.0
 40
1.5
100
AcDbArc
 50
15.00000600000048
 51
96.67795999999805
  0
ARC
  5
2A3F
330
18
100
AcDbEntity
  8
1
  6
Continuous
100
AcDbCircle
 10
260.8196797527859
 20
231.6485416594086
 30
0.0
 40
17.5
100
AcDbArc
 50
263.3220400000019
 51
276.677959999998
  0
ARC
  5
2A40
330
18
100
AcDbEntity
  8
1
  6
Continuous
100
AcDbCircle
 10
260.8196797527859
 20
231.6485416594086
 30
0.0
 40
27.0
100
AcDbArc
 50
141.1909900000014
 51
158.8089999999998
  0
LINE
  5
2A41
330
18
100
AcDbEntity
  8
1
  6
Continuous
100
AcDbLine
 10
242.9838607527857
 20
237.7217296594086
 30
0.0
 11
236.6557447527859
 21
239.4173436594086
 31
0.0
  0
LINE
  5
2A42
330
18
100
AcDbEntity
  8
1
  6
Continuous
100
AcDbLine
 10
242.3368187527858
 20
235.3069135594086
 30
0.0
 11
236.0086977527858
 21
237.0025286594086
 31
0.0
  0
ARC
  5
2A43
330
18
100
AcDbEntity
  8
1
  6
Continuous
100
AcDbCircle
 10
237.0439747527859
 20
240.8662316594087
 30
0.0
 40
1.5
100
AcDbArc
 50
158.8089999999998
 51
254.9999999999988
  0
ARC
  5
2A44
330
18
100
AcDbEntity
  8
1
  6
Continuous
100
AcDbCircle
 10
235.6204687527861
 20
235.5536396594086
 30
0.0
 40
1.5
100
AcDbArc
 50
74.99999200000184
 51
171.1909999999985
  0
ARC
  5
2A45
330
18
100
AcDbEntity
  8
1
  6
Continuous
100
AcDbCircle
 10
241.9485857527861
 20
233.8580257594086
 30
0.0
 40
1.5
100
AcDbArc
 50
353.3220400000001
 51
74.99999200000184
  0
ARC
  5
2A46
330
18
100
AcDbEntity
  8
1
  6
Continuous
100
AcDbCircle
 10
243.3720937527859
 20
239.1706176594087
 30
0.0
 40
1.5
100
AcDbArc
 50
255.0000099999994
 51
297.8960401933537
  0
ARC
  5
2A47
330
18
100
AcDbEntity
  8
1
  6
Continuous
100
AcDbCircle
 10
240.949074752786
 20
247.6300636594086
 30
0.0
 40
1.5
100
AcDbArc
 50
83.94182539094151
 51
141.1910100000011
  0
ARC
  5
2A48
330
18
100
AcDbEntity
  8
1
  6
Continuous
100
AcDbCircle
 10
225.819679752786
 20
278.1485416594086
 30
0.0
 40
7.400000099999997
100
AcDbArc
 50
14.73850999999982
 51
68.26444899999997
  0
LINE
  5
2A49
330
18
100
AcDbEntity
  8
4
  6
CENTER
100
AcDbLine
 10
229.3196797527858
 20
298.6574251694277
 30
0.0
 11
229.3196797527858
 21
287.3518757074553
 31
0.0
  0
ARC
  5
2A4A
330
18
100
AcDbEntity
  8
1
  6
Continuous
100
AcDbCircle
 10
222.1114777527859
 20
290.1485416594088
 30
0.0
 40
4.0
100
AcDbArc
 50
343.3983699999996
 51
89.99998200000083
  0
LINE
  5
2A4B
330
18
100
AcDbEntity
  8
1
  6
Continuous
100
AcDbLine
 10
219.819679752786
 20
290.9485446594088
 30
0.0
 11
219.819679752786
 21
294.1485416594088
 31
0.0
  0
ARC
  5
2A4C
330
18
100
AcDbEntity
  8
1
  6
Continuous
100
AcDbCircle
 10
222.8230137527859
 20
287.9485446594088
 30
0.0
 40
3.0
100
AcDbArc
 50
1.91016489999953
 51
89.99998200000083
  0
LINE
  5
2A4D
330
18
100
AcDbEntity
  8
1
  6
Continuous
100
AcDbLine
 10
219.819679752786
 20
290.9485446594088
 30
0.0
 11
222.8230137527859
 21
290.9485446594088
 31
0.0
  0
ARC
  5
2A4E
330
18
100
AcDbEntity
  8
1
  6
Continuous
100
AcDbCircle
 10
228.8196797527858
 20
288.1485416594088
 30
0.0
 40
3.0
100
AcDbArc
 50
163.398479999999
 51
248.2644300000011
  0
LINE
  5
2A4F
330
18
100
AcDbEntity
  8
1
  6
Continuous
100
AcDbLine
 10
228.560074752786
 20
285.0224316594087
 30
0.0
 11
227.7087097527858
 21
285.3618426594087
 31
0.0
  0
LINE
  5
2A50
330
18
100
AcDbEntity
  8
4
  6
CENTER
100
AcDbLine
 10
260.8196797527859
 20
369.4016603486768
 30
0.0
 11
260.8196797527859
 21
442.898205348677
 31
0.0
  0
LINE
  5
2A51
330
18
100
AcDbEntity
  8
1
  6
Continuous
100
AcDbLine
 10
219.819679752786
 20
369.5861353486769
 30
0.0
 11
219.819679752786
 21
438.5861353486768
 31
0.0
  0
ARC
  5
2A52
330
18
100
AcDbEntity
  8
1
  6
Continuous
100
AcDbCircle
 10
229.2899717527859
 20
372.5361363486769
 30
0.0
 40
13.2
100
AcDbArc
 50
270.0
 51
329.278660000001
  0
CIRCLE
  5
2A53
330
18
100
AcDbEntity
  8
1
  6
Continuous
100
AcDbCircle
 10
229.3196797527858
 20
372.5861353486769
 30
0.0
 40
4.400000099999997
  0
LINE
  5
2A54
330
18
100
AcDbEntity
  8
4
  6
CENTER
100
AcDbLine
 10
223.3196797527859
 20
372.5861353486769
 30
0.0
 11
235.3196797527858
 21
372.5861353486769
 31
0.0
  0
LINE
  5
2A55
330
18
100
AcDbEntity
  8
4
  6
CENTER
100
AcDbLine
 10
229.3196797527858
 20
378.5861353486769
 30
0.0
 11
229.3196797527858
 21
366.5861353486769
 31
0.0
  0
ARC
  5
2A56
330
18
100
AcDbEntity
  8
1
  6
Continuous
100
AcDbCircle
 10
223.819679752786
 20
361.1008523486772
 30
0.0
 40
2.0
100
AcDbArc
 50
0.0
 51
70.52874499999941
  0
ARC
  5
2A57
330
18
100
AcDbEntity
  8
1
  6
Continuous
100
AcDbCircle
 10
226.8196797527858
 20
369.5861353486769
 30
0.0
 40
7.0
100
AcDbArc
 50
179.9999599999992
 51
250.5287699999986
  0
LINE
  5
2A58
330
18
100
AcDbEntity
  8
1
  6
Continuous
100
AcDbLine
 10
225.819679752786
 20
359.3361353486768
 30
0.0
 11
229.2899717527859
 21
359.3361353486768
 31
0.0
  0
LINE
  5
2A59
330
18
100
AcDbEntity
  8
1
  6
Continuous
100
AcDbLine
 10
225.819679752786
 20
359.3361353486768
 30
0.0
 11
225.819679752786
 21
361.1008523486772
 31
0.0
  0
ARC
  5
2A5A
330
18
100
AcDbEntity
  8
1
  6
Continuous
100
AcDbCircle
 10
251.8196797527858
 20
371.8861383486772
 30
0.0
 40
6.5
100
AcDbArc
 50
89.99998200000083
 51
149.278650000001
  0
LINE
  5
2A5B
330
18
100
AcDbEntity
  8
1
  6
Continuous
100
AcDbLine
 10
240.6375118527857
 20
365.7927413486766
 30
0.0
 11
246.2318806527859
 21
375.2067443486769
 31
0.0
  0
LINE
  5
2A5C
330
18
100
AcDbEntity
  8
1
  6
Continuous
100
AcDbLine
 10
251.8196797527858
 20
378.3861383486772
 30
0.0
 11
251.8196807527861
 21
374.3861383486771
 31
0.0
  0
LINE
  5
2A5D
330
18
100
AcDbEntity
  8
1
  6
Continuous
100
AcDbLine
 10
251.8196777527859
 20
374.3861383486769
 30
0.0
 11
253.8196787527861
 21
373.3861383486769
 31
0.0
  0
LINE
  5
2A5E
330
18
100
AcDbEntity
  8
1
  6
Continuous
100
AcDbLine
 10
239.3196797527858
 20
387.0861353486769
 30
0.0
 11
239.3196797527858
 21
421.0861353486768
 31
0.0
  0
LINE
  5
2A5F
330
18
100
AcDbEntity
  8
1
  6
Continuous
100
AcDbLine
 10
234.319679752786
 20
387.0861353486769
 30
0.0
 11
234.319679752786
 21
421.0861353486768
 31
0.0
  0
ARC
  5
2A60
330
18
100
AcDbEntity
  8
1
  6
Continuous
100
AcDbCircle
 10
236.8196797527859
 20
387.0861353486769
 30
0.0
 40
2.5
100
AcDbArc
 50
179.9999599999992
 51
0.000010017912262
  0
ARC
  5
2A61
330
18
100
AcDbEntity
  8
1
  6
Continuous
100
AcDbCircle
 10
236.8196797527859
 20
421.0861353486768
 30
0.0
 40
2.5
100
AcDbArc
 50
0.0
 51
179.9999599999992
  0
ARC
  5
2A62
330
18
100
AcDbEntity
  8
1
  6
Continuous
100
AcDbCircle
 10
229.2899767527859
 20
435.6361383486771
 30
0.0
 40
13.2
100
AcDbArc
 50
30.72134099999852
 51
90.00000299999769
  0
CIRCLE
  5
2A63
330
18
100
AcDbEntity
  8
1
  6
Continuous
100
AcDbCircle
 10
229.3196797527858
 20
435.5861353486768
 30
0.0
 40
4.400000099999997
  0
LINE
  5
2A64
330
18
100
AcDbEntity
  8
4
  6
CENTER
100
AcDbLine
 10
223.3196797527859
 20
435.5861353486768
 30
0.0
 11
235.3196797527858
 21
435.5861353486768
 31
0.0
  0
ARC
  5
2A65
330
18
100
AcDbEntity
  8
1
  6
Continuous
100
AcDbCircle
 10
226.8196797527858
 20
438.5861353486768
 30
0.0
 40
7.0
100
AcDbArc
 50
109.4711999999989
 51
179.9999599999992
  0
LINE
  5
2A66
330
18
100
AcDbEntity
  8
4
  6
CENTER
100
AcDbLine
 10
229.3196797527858
 20
441.5861353486768
 30
0.0
 11
229.3196797527858
 21
429.5861353486769
 31
0.0
  0
ARC
  5
2A67
330
18
100
AcDbEntity
  8
1
  6
Continuous
100
AcDbCircle
 10
223.819679752786
 20
447.0714153486768
 30
0.0
 40
2.0
100
AcDbArc
 50
289.4711899999995
 51
0.0
  0
LINE
  5
2A68
330
18
100
AcDbEntity
  8
1
  6
Continuous
100
AcDbLine
 10
225.819679752786
 20
448.8361353486769
 30
0.0
 11
229.2899767527859
 21
448.8361353486769
 31
0.0
  0
LINE
  5
2A69
330
18
100
AcDbEntity
  8
1
  6
Continuous
100
AcDbLine
 10
225.819679752786
 20
447.0714153486768
 30
0.0
 11
225.819679752786
 21
448.8361353486769
 31
0.0
  0
ARC
  5
2A6A
330
18
100
AcDbEntity
  8
1
  6
Continuous
100
AcDbCircle
 10
251.8196797527858
 20
436.2861353486769
 30
0.0
 40
6.5
100
AcDbArc
 50
210.7213499999988
 51
269.9999600000024
  0
LINE
  5
2A6B
330
18
100
AcDbEntity
  8
1
  6
Continuous
100
AcDbLine
 10
246.2318773527857
 20
432.9655373486771
 30
0.0
 11
240.6375147127859
 21
442.3795353486771
 31
0.0
  0
ARC
  5
2A6C
330
18
100
AcDbEntity
  8
1
  6
Continuous
100
AcDbCircle
 10
256.5696797527859
 20
423.8561323486768
 30
0.0
 40
10.93000299999999
100
AcDbArc
 50
72.602691000002
 51
107.3973099999985
  0
ARC
  5
2A6D
330
18
100
AcDbEntity
  8
1
  6
Continuous
100
AcDbCircle
 10
256.5696797527859
 20
443.5361353486769
 30
0.0
 40
13.75000299999999
100
AcDbArc
 50
254.5012699999976
 51
285.4987300000022
  0
LINE
  5
2A6E
330
18
100
AcDbEntity
  8
1
  6
Continuous
100
AcDbLine
 10
252.3196797527858
 20
434.7861323486768
 30
0.0
 11
260.8196797527859
 21
434.7861323486768
 31
0.0
  0
LINE
  5
2A6F
330
18
100
AcDbEntity
  8
1
  6
Continuous
100
AcDbLine
 10
253.5196797527859
 20
436.3861253486768
 30
0.0
 11
260.8196797527859
 21
436.3861253486768
 31
0.0
  0
LINE
  5
2A70
330
18
100
AcDbEntity
  8
1
  6
Continuous
100
AcDbLine
 10
265.8196797527859
 20
438.1361353486769
 30
0.0
 11
255.8196807527861
 21
438.1361353486769
 31
0.0
  0
LINE
  5
2A71
330
18
100
AcDbEntity
  8
1
  6
Continuous
100
AcDbLine
 10
265.069679752786
 20
438.8861353486769
 30
0.0
 11
256.5696807527861
 21
438.8861353486769
 31
0.0
  0
ARC
  5
2A72
330
18
100
AcDbEntity
  8
1
  6
Continuous
100
AcDbCircle
 10
253.5196797527859
 20
435.1861263486768
 30
0.0
 40
1.199999999999999
100
AcDbArc
 50
90.00000899999959
 51
180.0000099999993
  0
LINE
  5
2A73
330
18
100
AcDbEntity
  8
1
  6
Continuous
100
AcDbLine
 10
252.3196797527858
 20
435.1861263486768
 30
0.0
 11
252.3196797527858
 21
429.7861323486769
 31
0.0
  0
LINE
  5
2A74
330
18
100
AcDbEntity
  8
1
  6
Continuous
100
AcDbLine
 10
252.3196797527858
 20
434.2861323486769
 30
0.0
 11
253.3016527527861
 21
434.2861323486769
 31
0.0
  0
LINE
  5
2A75
330
18
100
AcDbEntity
  8
1
  6
Continuous
100
AcDbLine
 10
252.3196797527858
 20
430.2861323486768
 30
0.0
 11
252.8954457527861
 21
430.2861323486768
 31
0.0
  0
LINE
  5
2A76
330
18
100
AcDbEntity
  8
1
  6
Continuous
100
AcDbLine
 10
252.8954457527861
 20
430.2861323486768
 30
0.0
 11
253.3016527527861
 21
434.2861323486769
 31
0.0
  0
LINE
  5
2A77
330
18
100
AcDbEntity
  8
1
  6
Continuous
100
AcDbLine
 10
255.8196497527859
 20
438.1361653486768
 30
0.0
 11
256.5696507527858
 21
438.8861653486769
 31
0.0
  0
LINE
  5
2A78
330
18
100
AcDbEntity
  8
2
  6
Continuous
100
AcDbLine
 10
256.5696797527859
 20
438.8861353486769
 30
0.0
 11
256.5696797527859
 21
436.3861253486768
 31
0.0
  0
LINE
  5
2A79
330
18
100
AcDbEntity
  8
1
  6
Continuous
100
AcDbLine
 10
255.8196797527859
 20
438.1361353486769
 30
0.0
 11
255.8196797527859
 21
436.3861253486768
 31
0.0
  0
LINE
  5
2A7A
330
18
100
AcDbEntity
  8
1
  6
Continuous
100
AcDbLine
 10
259.8377077527858
 20
434.2861323486769
 30
0.0
 11
260.2439137527857
 21
430.2861323486768
 31
0.0
  0
LINE
  5
2A7B
330
18
100
AcDbEntity
  8
1
  6
Continuous
100
AcDbLine
 10
260.243915752786
 20
430.2861323486768
 30
0.0
 11
260.8196797527859
 21
430.2861323486768
 31
0.0
  0
LINE
  5
2A7C
330
18
100
AcDbEntity
  8
1
  6
Continuous
100
AcDbLine
 10
259.8377077527858
 20
434.2861323486769
 30
0.0
 11
260.8196797527859
 21
434.2861323486769
 31
0.0
  0
LINE
  5
2A7D
330
18
100
AcDbEntity
  8
1
  6
Continuous
100
AcDbLine
 10
261.8016517527859
 20
434.2861323486769
 30
0.0
 11
260.8196797527859
 21
434.2861323486769
 31
0.0
  0
LINE
  5
2A7E
330
18
100
AcDbEntity
  8
1
  6
Continuous
100
AcDbLine
 10
261.3954437527859
 20
430.2861323486768
 30
0.0
 11
260.8196797527859
 21
430.2861323486768
 31
0.0
  0
LINE
  5
2A7F
330
18
100
AcDbEntity
  8
1
  6
Continuous
100
AcDbLine
 10
261.8016517527858
 20
434.2861323486769
 30
0.0
 11
261.3954457527859
 21
430.2861323486768
 31
0.0
  0
LINE
  5
2A80
330
18
100
AcDbEntity
  8
1
  6
Continuous
100
AcDbLine
 10
265.069681752786
 20
438.8861553486766
 30
0.0
 11
265.8196877527859
 21
438.1361453486768
 31
0.0
  0
LINE
  5
2A81
330
18
100
AcDbEntity
  8
2
  6
Continuous
100
AcDbLine
 10
265.069679752786
 20
438.8861353486769
 30
0.0
 11
265.069679752786
 21
436.3861253486768
 31
0.0
  0
LINE
  5
2A82
330
18
100
AcDbEntity
  8
1
  6
Continuous
100
AcDbLine
 10
265.8196797527859
 20
438.1361353486769
 30
0.0
 11
265.8196797527859
 21
436.3861253486768
 31
0.0
  0
ARC
  5
2A84
330
18
100
AcDbEntity
  8
1
  6
Continuous
100
AcDbCircle
 10
260.8196797527859
 20
231.6485416594086
 30
0.0
 40
27.0
100
AcDbArc
 50
291.1909900000001
 51
308.808999999999
  0
LINE
  5
2A85
330
18
100
AcDbEntity
  8
1
  6
Continuous
100
AcDbLine
 10
266.8928647527859
 20
213.8127276594087
 30
0.0
 11
268.588478752786
 21
207.4846046594086
 31
0.0
  0
ARC
  5
2A86
330
18
100
AcDbEntity
  8
1
  6
Continuous
100
AcDbCircle
 10
270.0373697527861
 20
207.8728346594086
 30
0.0
 40
1.5
100
AcDbArc
 50
195.0000099999996
 51
291.1909900000001
  0
LINE
  5
2A87
330
18
100
AcDbEntity
  8
1
  6
Continuous
100
AcDbLine
 10
288.6631667527859
 20
280.0311686594087
 30
0.0
 11
275.326133752786
 21
229.3324096594087
 31
0.0
  0
LINE
  5
2A88
330
18
100
AcDbEntity
  8
1
  6
Continuous
100
AcDbLine
 10
271.819679752786
 20
233.3218736594087
 30
0.0
 11
271.819679752786
 21
291.8485385594086
 31
0.0
  0
ARC
  5
2A89
330
18
100
AcDbEntity
  8
1
  6
Continuous
100
AcDbCircle
 10
260.8196797527859
 20
231.6485416594086
 30
0.0
 40
27.0
100
AcDbArc
 50
351.1909999999986
 51
8.809000000001326
  0
ARC
  5
2A8A
330
18
100
AcDbEntity
  8
1
  6
Continuous
100
AcDbCircle
 10
260.8196797527859
 20
231.6485416594086
 30
0.0
 40
17.5
100
AcDbArc
 50
353.3220400000001
 51
6.677960500000311
  0
ARC
  5
2A8B
330
18
100
AcDbEntity
  8
1
  6
Continuous
100
AcDbCircle
 10
260.8196797527859
 20
231.6485416594086
 30
0.0
 40
27.0
100
AcDbArc
 50
321.1910000000007
 51
338.8090099999997
  0
LINE
  5
2A8C
330
18
100
AcDbEntity
  8
1
  6
Continuous
100
AcDbLine
 10
278.6554877527859
 20
225.5753547594086
 30
0.0
 11
284.9836127527859
 21
223.8797397594086
 31
0.0
  0
LINE
  5
2A8D
330
18
100
AcDbEntity
  8
1
  6
Continuous
100
AcDbLine
 10
279.3025367527858
 20
227.9901693594087
 30
0.0
 11
285.6306617527859
 21
226.2945543194086
 31
0.0
  0
ARC
  5
2A8E
330
18
100
AcDbEntity
  8
1
  6
Continuous
100
AcDbCircle
 10
260.8196797527859
 20
231.6485416594086
 30
0.0
 40
17.5
100
AcDbArc
 50
323.3220400000005
 51
336.6779599999998
  0
LINE
  5
2A8F
330
18
100
AcDbEntity
  8
1
  6
Continuous
100
AcDbLine
 10
273.2293557527859
 20
217.4711000594086
 30
0.0
 11
277.861862752786
 21
212.8385936594086
 31
0.0
  0
ARC
  5
2A90
330
18
100
AcDbEntity
  8
1
  6
Continuous
100
AcDbCircle
 10
268.341758752786
 20
214.2009516594086
 30
0.0
 40
1.5
100
AcDbArc
 50
113.3220499999972
 51
194.9999999999992
  0
ARC
  5
2A91
330
18
100
AcDbEntity
  8
1
  6
Continuous
100
AcDbCircle
 10
272.1686937527861
 20
216.4104396594086
 30
0.0
 40
1.5
100
AcDbArc
 50
45.00000100000149
 51
126.6779599999992
  0
ARC
  5
2A92
330
18
100
AcDbEntity
  8
1
  6
Continuous
100
AcDbCircle
 10
260.8196797527859
 20
231.6485416594086
 30
0.0
 40
17.5
100
AcDbArc
 50
293.3220399999995
 51
306.6779600000003
  0
ARC
  5
2A93
330
18
100
AcDbEntity
  8
1
  6
Continuous
100
AcDbCircle
 10
280.6902847527859
 20
215.6670236594086
 30
0.0
 40
1.5
100
AcDbArc
 50
225.0
 51
321.1910000000007
  0
ARC
  5
2A94
330
18
100
AcDbEntity
  8
1
  6
Continuous
100
AcDbCircle
 10
276.0577857527859
 20
220.2995235594086
 30
0.0
 40
1.5
100
AcDbArc
 50
143.3220400000005
 51
225.0
  0
ARC
  5
2A95
330
18
100
AcDbEntity
  8
1
  6
Continuous
100
AcDbCircle
 10
276.8012017527859
 20
211.7779326594086
 30
0.0
 40
1.5
100
AcDbArc
 50
308.808999999999
 51
45.00000100000149
  0
LINE
  5
2A96
330
18
100
AcDbEntity
  8
1
  6
Continuous
100
AcDbLine
 10
274.9971237527859
 20
219.2388665594086
 30
0.0
 11
279.6296317527859
 21
214.6063606594086
 31
0.0
  0
ARC
  5
2A97
330
18
100
AcDbEntity
  8
1
  6
Continuous
100
AcDbCircle
 10
278.2672657527859
 20
224.1264659594086
 30
0.0
 40
1.5
100
AcDbArc
 50
75.00000599999772
 51
156.6779700000005
  0
ARC
  5
2A98
330
18
100
AcDbEntity
  8
1
  6
Continuous
100
AcDbCircle
 10
279.690773752786
 20
229.4390575594086
 30
0.0
 40
1.5
100
AcDbArc
 50
173.3220299999999
 51
254.9999999999988
  0
ARC
  5
2A99
330
18
100
AcDbEntity
  8
1
  6
Continuous
100
AcDbCircle
 10
284.595382752786
 20
222.4308483594086
 30
0.0
 40
1.5
100
AcDbArc
 50
338.8090099999997
 51
74.99999200000184
  0
ARC
  5
2A9A
330
18
100
AcDbEntity
  8
1
  6
Continuous
100
AcDbCircle
 10
286.0188907527859
 20
227.7434398594087
 30
0.0
 40
1.5
100
AcDbArc
 50
254.9999999999988
 51
351.1909999999986
  0
ARC
  5
2A9B
330
18
100
AcDbEntity
  8
1
  6
Continuous
100
AcDbCircle
 10
260.8196797527859
 20
231.6485416594086
 30
0.0
 40
27.0
100
AcDbArc
 50
21.1909980000003
 51
38.8090090000004
  0
LINE
  5
2A9C
330
18
100
AcDbEntity
  8
1
  6
Continuous
100
AcDbLine
 10
278.6554947527861
 20
237.7217296594086
 30
0.0
 11
284.9836197527861
 21
239.4173446594086
 31
0.0
  0
LINE
  5
2A9D
330
18
100
AcDbEntity
  8
1
  6
Continuous
100
AcDbLine
 10
279.3025517527861
 20
235.3069173594086
 30
0.0
 11
285.6306617527859
 21
237.0025306594086
 31
0.0
  0
ARC
  5
2A9E
330
18
100
AcDbEntity
  8
1
  6
Continuous
100
AcDbCircle
 10
278.2672657527859
 20
239.1706176594087
 30
0.0
 40
1.5
100
AcDbArc
 50
242.1042925225429
 51
285.000000000001
  0
ARC
  5
2A9F
330
18
100
AcDbEntity
  8
1
  6
Continuous
100
AcDbCircle
 10
279.690773752786
 20
233.8580257594086
 30
0.0
 40
1.5
100
AcDbArc
 50
105.000010000002
 51
186.6779599999995
  0
ARC
  5
2AA0
330
18
100
AcDbEntity
  8
1
  6
Continuous
100
AcDbCircle
 10
280.6902847527859
 20
247.6300636594086
 30
0.0
 40
1.5
100
AcDbArc
 50
38.8090090000004
 51
96.05784530161123
  0
ARC
  5
2AA1
330
18
100
AcDbEntity
  8
1
  6
Continuous
100
AcDbCircle
 10
286.0188907527859
 20
235.5536396594086
 30
0.0
 40
1.5
100
AcDbArc
 50
8.809000000001326
 51
105.0000000000011
  0
ARC
  5
2AA2
330
18
100
AcDbEntity
  8
1
  6
Continuous
100
AcDbCircle
 10
284.595382752786
 20
240.8662316594087
 30
0.0
 40
1.5
100
AcDbArc
 50
285.000000000001
 51
21.1909980000003
  0
ARC
  5
2AA3
330
18
100
AcDbEntity
  8
1
  6
Continuous
100
AcDbCircle
 10
299.527885752786
 20
290.1485416594088
 30
0.0
 40
4.0
100
AcDbArc
 50
89.99998200000083
 51
196.6015899999996
  0
LINE
  5
2AA4
330
18
100
AcDbEntity
  8
1
  6
Continuous
100
AcDbLine
 10
298.816345752786
 20
290.9485446594088
 30
0.0
 11
301.8196797527858
 21
290.9485446594088
 31
0.0
  0
ARC
  5
2AA5
330
18
100
AcDbEntity
  8
1
  6
Continuous
100
AcDbCircle
 10
295.8196797527858
 20
278.1485416594086
 30
0.0
 40
7.400000099999997
100
AcDbArc
 50
111.7355400000006
 51
165.2614500000008
  0
LINE
  5
2AA6
330
18
100
AcDbEntity
  8
4
  6
CENTER
100
AcDbLine
 10
292.319679752786
 20
298.6574251694277
 30
0.0
 11
292.319679752786
 21
287.3518757074553
 31
0.0
  0
ARC
  5
2AA7
330
18
100
AcDbEntity
  8
1
  6
Continuous
100
AcDbCircle
 10
298.816345752786
 20
287.9485446594088
 30
0.0
 40
3.0
100
AcDbArc
 50
89.99998200000083
 51
178.0898099999999
  0
ARC
  5
2AA8
330
18
100
AcDbEntity
  8
1
  6
Continuous
100
AcDbCircle
 10
292.819679752786
 20
288.1485416594088
 30
0.0
 40
3.0
100
AcDbArc
 50
291.7354800000022
 51
16.60147099999876
  0
LINE
  5
2AA9
330
18
100
AcDbEntity
  8
1
  6
Continuous
100
AcDbLine
 10
293.0792927527858
 20
285.0224236594089
 30
0.0
 11
293.9306527527859
 21
285.361833659409
 31
0.0
  0
LINE
  5
2AAA
330
18
100
AcDbEntity
  8
1
  6
Continuous
100
AcDbLine
 10
301.8196797527858
 20
290.9485446594088
 30
0.0
 11
301.8196797527858
 21
294.1485416594088
 31
0.0
  0
LINE
  5
2AAD
330
18
100
AcDbEntity
  8
1
  6
Continuous
100
AcDbLine
 10
301.8196797527858
 20
369.5861353486769
 30
0.0
 11
301.8196797527858
 21
438.5861353486768
 31
0.0
  0
ARC
  5
2AAF
330
18
100
AcDbEntity
  8
1
  6
Continuous
100
AcDbCircle
 10
294.819679752786
 20
369.5861353486769
 30
0.0
 40
7.0
100
AcDbArc
 50
289.4711800000005
 51
0.0
  0
ARC
  5
2AB0
330
18
100
AcDbEntity
  8
1
  6
Continuous
100
AcDbCircle
 10
292.3493927527861
 20
372.5361363486769
 30
0.0
 40
13.2
100
AcDbArc
 50
210.7213399999988
 51
270.0
  0
LINE
  5
2AB1
330
18
100
AcDbEntity
  8
1
  6
Continuous
100
AcDbLine
 10
275.4074827527863
 20
375.2067483486771
 30
0.0
 11
281.0018547527861
 21
365.792741348677
 31
0.0
  0
ARC
  5
2AB2
330
18
100
AcDbEntity
  8
1
  6
Continuous
100
AcDbCircle
 10
269.819679752786
 20
371.8861383486772
 30
0.0
 40
6.5
100
AcDbArc
 50
30.72132300000112
 51
89.99998200000083
  0
LINE
  5
2AB3
330
18
100
AcDbEntity
  8
1
  6
Continuous
100
AcDbLine
 10
267.8196897527858
 20
373.3861233486769
 30
0.0
 11
269.8196897527858
 21
374.3861273486768
 31
0.0
  0
LINE
  5
2AB4
330
18
100
AcDbEntity
  8
1
  6
Continuous
100
AcDbLine
 10
269.819679752786
 20
378.3861383486772
 30
0.0
 11
269.819679752786
 21
374.3861383486771
 31
0.0
  0
CIRCLE
  5
2AB5
330
18
100
AcDbEntity
  8
1
  6
Continuous
100
AcDbCircle
 10
292.319679752786
 20
372.5861353486769
 30
0.0
 40
4.400000099999997
  0
LINE
  5
2AB6
330
18
100
AcDbEntity
  8
4
  6
CENTER
100
AcDbLine
 10
292.319679752786
 20
378.5861353486769
 30
0.0
 11
292.319679752786
 21
366.5861353486769
 31
0.0
  0
ARC
  5
2AB7
330
18
100
AcDbEntity
  8
1
  6
Continuous
100
AcDbCircle
 10
297.8196797527859
 20
361.1008523486772
 30
0.0
 40
2.0
100
AcDbArc
 50
109.4712200000001
 51
179.9999599999992
  0
LINE
  5
2AB8
330
18
100
AcDbEntity
  8
1
  6
Continuous
100
AcDbLine
 10
292.3493927527861
 20
359.3361353486768
 30
0.0
 11
295.8196797527858
 21
359.3361353486768
 31
0.0
  0
LINE
  5
2AB9
330
18
100
AcDbEntity
  8
1
  6
Continuous
100
AcDbLine
 10
295.8196797527858
 20
359.3361353486768
 30
0.0
 11
295.8196797527858
 21
361.1008523486772
 31
0.0
  0
LINE
  5
2ABA
330
18
100
AcDbEntity
  8
4
  6
CENTER
100
AcDbLine
 10
286.319679752786
 20
372.5861353486769
 30
0.0
 11
298.3196797527858
 21
372.5861353486769
 31
0.0
  0
LINE
  5
2ABB
330
18
100
AcDbEntity
  8
1
  6
Continuous
100
AcDbLine
 10
282.319679752786
 20
387.0861353486769
 30
0.0
 11
282.319679752786
 21
421.0861353486768
 31
0.0
  0
LINE
  5
2ABC
330
18
100
AcDbEntity
  8
1
  6
Continuous
100
AcDbLine
 10
287.3196797527858
 20
387.0861353486769
 30
0.0
 11
287.3196797527858
 21
421.0861353486768
 31
0.0
  0
ARC
  5
2ABD
330
18
100
AcDbEntity
  8
1
  6
Continuous
100
AcDbCircle
 10
284.819679752786
 20
387.0861353486769
 30
0.0
 40
2.5
100
AcDbArc
 50
179.9999599999992
 51
0.000010017912262
  0
ARC
  5
2ABE
330
18
100
AcDbEntity
  8
1
  6
Continuous
100
AcDbCircle
 10
284.819679752786
 20
421.0861353486768
 30
0.0
 40
2.5
100
AcDbArc
 50
0.0
 51
179.9999599999992
  0
ARC
  5
2ABF
330
18
100
AcDbEntity
  8
1
  6
Continuous
100
AcDbCircle
 10
294.819679752786
 20
438.5861353486768
 30
0.0
 40
7.0
100
AcDbArc
 50
0.0
 51
70.52876599999933
  0
ARC
  5
2AC0
330
18
100
AcDbEntity
  8
1
  6
Continuous
100
AcDbCircle
 10
292.3493927527861
 20
435.6361383486771
 30
0.0
 40
13.2
100
AcDbArc
 50
90.00000299999769
 51
149.278660000001
  0
LINE
  5
2AC1
330
18
100
AcDbEntity
  8
1
  6
Continuous
100
AcDbLine
 10
281.0018547527861
 20
442.3795353486771
 30
0.0
 11
275.4074867527861
 21
432.9655223486768
 31
0.0
  0
ARC
  5
2AC2
330
18
100
AcDbEntity
  8
1
  6
Continuous
100
AcDbCircle
 10
269.819679752786
 20
436.2861353486769
 30
0.0
 40
6.5
100
AcDbArc
 50
269.9999600000024
 51
329.2786299999986
  0
ARC
  5
2AC3
330
18
100
AcDbEntity
  8
1
  6
Continuous
100
AcDbCircle
 10
268.119678752786
 20
435.1861263486768
 30
0.0
 40
1.199999999999999
100
AcDbArc
 50
0.0000025044784726
 51
90.00000299999769
  0
LINE
  5
2AC4
330
18
100
AcDbEntity
  8
1
  6
Continuous
100
AcDbLine
 10
269.319679752786
 20
435.1861263486768
 30
0.0
 11
269.319679752786
 21
429.7861323486769
 31
0.0
  0
LINE
  5
2AC5
330
18
100
AcDbEntity
  8
1
  6
Continuous
100
AcDbLine
 10
269.319679752786
 20
434.2861323486769
 30
0.0
 11
268.3377057527859
 21
434.2861323486769
 31
0.0
  0
LINE
  5
2AC6
330
18
100
AcDbEntity
  8
1
  6
Continuous
100
AcDbLine
 10
268.7439137527857
 20
430.2861323486768
 30
0.0
 11
268.3377077527858
 21
434.2861323486769
 31
0.0
  0
LINE
  5
2AC7
330
18
100
AcDbEntity
  8
1
  6
Continuous
100
AcDbLine
 10
269.319679752786
 20
430.2861323486768
 30
0.0
 11
268.743915752786
 21
430.2861323486768
 31
0.0
  0
CIRCLE
  5
2AC8
330
18
100
AcDbEntity
  8
1
  6
Continuous
100
AcDbCircle
 10
292.319679752786
 20
435.5861353486768
 30
0.0
 40
4.400000099999997
  0
LINE
  5
2AC9
330
18
100
AcDbEntity
  8
4
  6
CENTER
100
AcDbLine
 10
292.319679752786
 20
441.5861353486768
 30
0.0
 11
292.319679752786
 21
429.5861353486769
 31
0.0
  0
LINE
  5
2ACA
330
18
100
AcDbEntity
  8
4
  6
CENTER
100
AcDbLine
 10
286.319679752786
 20
435.5861353486768
 30
0.0
 11
298.3196797527858
 21
435.5861353486768
 31
0.0
  0
ARC
  5
2ACB
330
18
100
AcDbEntity
  8
1
  6
Continuous
100
AcDbCircle
 10
297.8196797527859
 20
447.0714153486768
 30
0.0
 40
2.0
100
AcDbArc
 50
179.9999599999992
 51
250.5287699999986
  0
LINE
  5
2ACC
330
18
100
AcDbEntity
  8
1
  6
Continuous
100
AcDbLine
 10
292.3493927527861
 20
448.8361353486769
 30
0.0
 11
295.8196797527858
 21
448.8361353486769
 31
0.0
  0
LINE
  5
2ACD
330
18
100
AcDbEntity
  8
1
  6
Continuous
100
AcDbLine
 10
295.8196797527858
 20
447.0714153486768
 30
0.0
 11
295.8196797527858
 21
448.8361353486769
 31
0.0
  0
LINE
  5
2ED4
330
18
100
AcDbEntity
  8
4
  6
CENTER
100
AcDbLine
 10
435.5017262338289
 20
190.5503116594086
 30
0.0
 11
435.5017262338289
 21
299.1308414594086
 31
0.0
  0
LINE
  5
2ED5
330
18
100
AcDbEntity
  8
1
  6
Continuous
100
AcDbLine
 10
415.5017262338288
 20
263.3705876594086
 30
0.0
 11
415.5017262338288
 21
199.9264916594087
 31
0.0
  0
LINE
  5
2ED6
330
18
100
AcDbEntity
  8
1
  6
Continuous
100
AcDbLine
 10
455.5017262338289
 20
263.3705876594086
 30
0.0
 11
455.5017262338289
 21
199.9264916594087
 31
0.0
  0
LINE
  5
2ED7
330
18
100
AcDbEntity
  8
1
  6
Continuous
100
AcDbLine
 10
413.0017262338289
 20
218.1485416594087
 30
0.0
 11
413.0017262338289
 21
290.9485416594086
 31
0.0
  0
LINE
  5
2ED8
330
18
100
AcDbEntity
  8
1
  6
Continuous
100
AcDbLine
 10
458.0017262338288
 20
218.1485416594087
 30
0.0
 11
458.0017262338288
 21
290.9485416594086
 31
0.0
  0
LINE
  5
2ED9
330
18
100
AcDbEntity
  8
1
  6
Continuous
100
AcDbLine
 10
457.201726233829
 20
249.6485416594087
 30
0.0
 11
457.201726233829
 21
213.6485416594087
 31
0.0
  0
LINE
  5
2EDA
330
18
100
AcDbEntity
  8
1
  6
Continuous
100
AcDbLine
 10
413.8017292338288
 20
249.6485416594087
 30
0.0
 11
413.8017292338288
 21
213.6485416594087
 31
0.0
  0
ARC
  5
2EDC
330
18
100
AcDbEntity
  8
1
  6
Continuous
100
AcDbCircle
 10
407.870562242226
 20
281.898313918796
 30
0.0
 40
72.55961264431816
100
AcDbArc
 50
321.2875086303323
 51
355.9807684075516
  0
ARC
  5
2EDD
330
18
100
AcDbEntity
  8
1
  6
Continuous
100
AcDbCircle
 10
407.8704410362024
 20
281.8986021736741
 30
0.0
 40
69.35989670011442
100
AcDbArc
 50
321.2809943180603
 51
355.8872682652042
  0
ARC
  5
2EDE
330
18
100
AcDbEntity
  8
1
  6
Continuous
100
AcDbCircle
 10
463.132886156247
 20
281.8983137331068
 30
0.0
 40
72.55961248623766
100
AcDbArc
 50
184.0191814911257
 51
218.712501281203
  0
ARC
  5
2EDF
330
18
100
AcDbEntity
  8
1
  6
Continuous
100
AcDbCircle
 10
463.1330074288386
 20
281.8986021508681
 30
0.0
 40
69.35989669586902
100
AcDbArc
 50
184.11273171616
 51
218.719015659952
  0
LINE
  5
2EE2
330
18
100
AcDbEntity
  8
4
  6
CENTER
100
AcDbLine
 10
472.8307695341113
 20
231.6485416594086
 30
0.0
 11
397.2283255341111
 21
231.6485416594086
 31
0.0
  0
ARC
  5
2EE3
330
18
100
AcDbEntity
  8
1
  6
Continuous
100
AcDbCircle
 10
420.5017262338288
 20
199.9264956594088
 30
0.0
 40
5.0
100
AcDbArc
 50
180.0
 51
264.0622049999976
  0
ARC
  5
2EE5
330
18
100
AcDbEntity
  8
1
  6
Continuous
100
AcDbCircle
 10
435.5017262338289
 20
344.1485416594088
 30
0.0
 40
150.0
100
AcDbArc
 50
264.062225000002
 51
275.9377929999974
  0
ARC
  5
2EE6
330
18
100
AcDbEntity
  8
1
  6
Continuous
100
AcDbCircle
 10
450.5017262338289
 20
199.9264956594088
 30
0.0
 40
5.0
100
AcDbArc
 50
275.9378140000015
 51
359.9999600000008
  0
LINE
  5
2EE7
330
18
100
AcDbEntity
  8
1
  6
Continuous
100
AcDbLine
 10
465.701726233829
 20
226.1741226594086
 30
0.0
 11
465.701726233829
 21
227.8749516594086
 31
0.0
  0
LINE
  5
2EE8
330
18
100
AcDbEntity
  8
1
  6
Continuous
100
AcDbLine
 10
466.201726233829
 20
223.1485416594086
 30
0.0
 11
466.201726233829
 21
231.6485416594086
 31
0.0
  0
LINE
  5
2EE9
330
18
100
AcDbEntity
  8
1
  6
Continuous
100
AcDbLine
 10
467.801716233829
 20
224.3485386594087
 30
0.0
 11
467.801716233829
 21
231.6485416594086
 31
0.0
  0
LINE
  5
2EEA
330
18
100
AcDbEntity
  8
1
  6
Continuous
100
AcDbLine
 10
461.201726233829
 20
218.1485416594087
 30
0.0
 11
461.201726233829
 21
227.1485416594086
 31
0.0
  0
LINE
  5
2EEB
330
18
100
AcDbEntity
  8
1
  6
Continuous
100
AcDbLine
 10
461.701726233829
 20
227.4059036594087
 30
0.0
 11
461.701726233829
 21
226.4086506594086
 31
0.0
  0
LINE
  5
2EEC
330
18
100
AcDbEntity
  8
1
  6
Continuous
100
AcDbLine
 10
457.201726233829
 20
213.6485416594087
 30
0.0
 11
455.5017262338289
 21
213.6485416594087
 31
0.0
  0
ARC
  5
2EED
330
18
100
AcDbEntity
  8
1
  6
Continuous
100
AcDbCircle
 10
466.6017162338288
 20
224.3485386594087
 30
0.0
 40
1.199999999999999
100
AcDbArc
 50
270.0
 51
359.9999900000006
  0
LINE
  5
2EEE
330
18
100
AcDbEntity
  8
1
  6
Continuous
100
AcDbLine
 10
461.201726233829
 20
218.1485416594087
 30
0.0
 11
458.0017262338288
 21
218.1485416594087
 31
0.0
  0
ARC
  5
2EEF
330
18
100
AcDbEntity
  8
1
  6
Continuous
100
AcDbCircle
 10
465.9888462338289
 20
224.2785926594086
 30
0.0
 40
4.787128
100
AcDbArc
 50
153.5795799999997
 51
206.4204200000001
  0
LINE
  5
2EF0
330
18
100
AcDbEntity
  8
1
  6
Continuous
100
AcDbLine
 10
461.201726233829
 20
223.1485496594086
 30
0.0
 11
461.701726233829
 21
222.1485496594088
 31
0.0
  0
ARC
  5
2EF1
330
18
100
AcDbEntity
  8
1
  6
Continuous
100
AcDbCircle
 10
462.3917162338289
 20
224.2873276594086
 30
0.0
 40
3.8100059
100
AcDbArc
 50
330.3156199999996
 51
29.68438000000021
  0
LINE
  5
2EF2
330
18
100
AcDbEntity
  8
1
  6
Continuous
100
AcDbLine
 10
466.6017162338288
 20
223.1485416594086
 30
0.0
 11
466.201726233829
 21
223.1485416594086
 31
0.0
  0
LINE
  5
2EF3
330
18
100
AcDbEntity
  8
1
  6
Continuous
100
AcDbLine
 10
465.7017262338288
 20
222.3485386594087
 30
0.0
 11
466.201726233829
 21
223.1485416594089
 31
0.0
  0
LINE
  5
2EF4
330
18
100
AcDbEntity
  8
1
  6
Continuous
100
AcDbLine
 10
465.701726233829
 20
222.3485386594087
 30
0.0
 11
465.701726233829
 21
222.4005326594086
 31
0.0
  0
LINE
  5
2EF5
330
18
100
AcDbEntity
  8
1
  6
Continuous
100
AcDbLine
 10
465.701726233829
 20
226.1741306594086
 30
0.0
 11
461.701726233829
 21
226.4086506594086
 31
0.0
  0
LINE
  5
2EF6
330
18
100
AcDbEntity
  8
1
  6
Continuous
100
AcDbLine
 10
461.701726233829
 20
222.1485416594087
 30
0.0
 11
465.701726233829
 21
222.4005256594086
 31
0.0
  0
LINE
  5
2EF7
330
18
100
AcDbEntity
  8
1
  6
Continuous
100
AcDbLine
 10
465.701726233829
 20
222.3485466594087
 30
0.0
 11
461.701726233829
 21
222.1485416594087
 31
0.0
  0
ARC
  5
2EF8
330
18
100
AcDbEntity
  8
1
  6
Continuous
100
AcDbCircle
 10
476.2017262338289
 20
227.1485416594086
 30
0.0
 40
18.200001
100
AcDbArc
 50
141.327240000002
 51
180.0
  0
LINE
  5
2EF9
330
18
100
AcDbEntity
  8
1
  6
Continuous
100
AcDbLine
 10
467.801716233829
 20
238.9485406594086
 30
0.0
 11
467.801716233829
 21
231.6485416594086
 31
0.0
  0
LINE
  5
2EFA
330
18
100
AcDbEntity
  8
1
  6
Continuous
100
AcDbLine
 10
466.201726233829
 20
238.7476626594086
 30
0.0
 11
466.201726233829
 21
231.6485416594086
 31
0.0
  0
ARC
  5
2EFB
330
18
100
AcDbEntity
  8
1
  6
Continuous
100
AcDbCircle
 10
462.3917162338289
 20
239.0097556594086
 30
0.0
 40
3.8100059
100
AcDbArc
 50
330.3156099999994
 51
355.8516800000006
  0
LINE
  5
2EFC
330
18
100
AcDbEntity
  8
2
  6
Continuous
100
AcDbLine
 10
470.3017262338287
 20
227.3985416594086
 30
0.0
 11
467.801716233829
 21
227.3985416594086
 31
0.0
  0
LINE
  5
2EFD
330
18
100
AcDbEntity
  8
2
  6
Continuous
100
AcDbLine
 10
470.3017262338287
 20
235.8985416594086
 30
0.0
 11
467.801716233829
 21
235.8985416594086
 31
0.0
  0
LINE
  5
2EFE
330
18
100
AcDbEntity
  8
1
  6
Continuous
100
AcDbLine
 10
469.5517262338289
 20
236.6485416594087
 30
0.0
 11
469.5517262338289
 21
226.6485416594087
 31
0.0
  0
LINE
  5
2EFF
330
18
100
AcDbEntity
  8
1
  6
Continuous
100
AcDbLine
 10
470.3017262338287
 20
235.8985416594086
 30
0.0
 11
470.3017262338287
 21
227.3985416594086
 31
0.0
  0
LINE
  5
2F00
330
18
100
AcDbEntity
  8
1
  6
Continuous
100
AcDbLine
 10
469.5517562338288
 20
226.6485106594086
 30
0.0
 11
470.3017562338287
 21
227.3985106594087
 31
0.0
  0
LINE
  5
2F01
330
18
100
AcDbEntity
  8
1
  6
Continuous
100
AcDbLine
 10
469.5517262338289
 20
226.6485416594087
 30
0.0
 11
467.801716233829
 21
226.6485416594087
 31
0.0
  0
LINE
  5
2F02
330
18
100
AcDbEntity
  8
1
  6
Continuous
100
AcDbLine
 10
470.3017462338289
 20
235.8985416594086
 30
0.0
 11
469.5517462338289
 21
236.6485416594087
 31
0.0
  0
LINE
  5
2F03
330
18
100
AcDbEntity
  8
1
  6
Continuous
100
AcDbLine
 10
469.5517262338289
 20
236.6485416594087
 30
0.0
 11
467.801716233829
 21
236.6485416594087
 31
0.0
  0
LINE
  5
2F04
330
18
100
AcDbEntity
  8
1
  6
Continuous
100
AcDbLine
 10
458.0017262338288
 20
226.6485416594087
 30
0.0
 11
457.201726233829
 21
226.6485416594087
 31
0.0
  0
ARC
  5
2F05
330
18
100
AcDbEntity
  8
1
  6
Continuous
100
AcDbCircle
 10
479.4517262338288
 20
231.6485416594086
 30
0.0
 40
18.25
100
AcDbArc
 50
187.4323600000007
 51
193.4427400000014
  0
LINE
  5
2F06
330
18
100
AcDbEntity
  8
1
  6
Continuous
100
AcDbLine
 10
458.0017262338288
 20
236.6485416594087
 30
0.0
 11
457.201726233829
 21
236.6485416594087
 31
0.0
  0
LINE
  5
2F07
330
18
100
AcDbEntity
  8
1
  6
Continuous
100
AcDbLine
 10
463.8371762338286
 20
235.6407746594086
 30
0.0
 11
465.701726233829
 21
235.4221396594086
 31
0.0
  0
LINE
  5
2F08
330
18
100
AcDbEntity
  8
1
  6
Continuous
100
AcDbLine
 10
465.7017262338288
 20
237.1229606594086
 30
0.0
 11
464.9312162338286
 21
237.0777866594086
 31
0.0
  0
ARC
  5
2F09
330
18
100
AcDbEntity
  8
1
  6
Continuous
100
AcDbCircle
 10
451.7117262338286
 20
231.6485416594086
 30
0.0
 40
14.49
100
AcDbArc
 50
344.9045800000002
 51
15.09541999999981
  0
LINE
  5
2F0A
330
18
100
AcDbEntity
  8
1
  6
Continuous
100
AcDbLine
 10
465.701726233829
 20
237.1229606594086
 30
0.0
 11
465.701726233829
 21
235.4221316594086
 31
0.0
  0
LINE
  5
2F0B
330
18
100
AcDbEntity
  8
1
  6
Continuous
100
AcDbLine
 10
461.701726233829
 20
227.4059036594087
 30
0.0
 11
465.701726233829
 21
227.8749596594086
 31
0.0
  0
ARC
  5
2F0C
330
18
100
AcDbEntity
  8
1
  6
Continuous
100
AcDbCircle
 10
476.2017262338289
 20
227.1485416594086
 30
0.0
 40
15.0
100
AcDbArc
 50
141.3420039999994
 51
180.0
  0
ARC
  5
2F0D
330
18
100
AcDbEntity
  8
1
  6
Continuous
100
AcDbCircle
 10
466.6017162338288
 20
238.9485406594086
 30
0.0
 40
1.199999999999999
100
AcDbArc
 50
359.9999900000006
 51
64.11293000000178
  0
LINE
  5
2F0E
330
18
100
AcDbEntity
  8
1
  6
Continuous
100
AcDbLine
 10
405.8017292338288
 20
237.3465816594086
 30
0.0
 11
405.8017292338288
 21
222.6485416594087
 31
0.0
  0
LINE
  5
2F0F
330
18
100
AcDbEntity
  8
1
  6
Continuous
100
AcDbLine
 10
404.8017292338288
 20
238.7476626594086
 30
0.0
 11
404.8017292338288
 21
224.6485416594087
 31
0.0
  0
LINE
  5
2F10
330
18
100
AcDbEntity
  8
1
  6
Continuous
100
AcDbLine
 10
409.8017292338288
 20
218.1485416594087
 30
0.0
 11
409.8017292338288
 21
227.1485416594086
 31
0.0
  0
LINE
  5
2F11
330
18
100
AcDbEntity
  8
1
  6
Continuous
100
AcDbLine
 10
415.5017262338288
 20
213.6485416594087
 30
0.0
 11
413.8017292338288
 21
213.6485416594087
 31
0.0
  0
LINE
  5
2F12
330
18
100
AcDbEntity
  8
1
  6
Continuous
100
AcDbLine
 10
413.0017262338289
 20
218.1485416594087
 30
0.0
 11
409.8017292338288
 21
218.1485416594087
 31
0.0
  0
LINE
  5
2F13
330
18
100
AcDbEntity
  8
1
  6
Continuous
100
AcDbLine
 10
409.8017292338288
 20
222.6485416594087
 30
0.0
 11
405.8017292338288
 21
222.6485416594087
 31
0.0
  0
LINE
  5
2F14
330
18
100
AcDbEntity
  8
1
  6
Continuous
100
AcDbLine
 10
405.8017292338288
 20
222.6485336594087
 30
0.0
 11
404.8017292338288
 21
224.6485336594087
 31
0.0
  0
ARC
  5
2F15
330
18
100
AcDbEntity
  8
1
  6
Continuous
100
AcDbCircle
 10
394.8017292338288
 20
227.1485416594086
 30
0.0
 40
18.200001
100
AcDbArc
 50
0.0000400000007758
 51
38.67275999999797
  0
ARC
  5
2F16
330
18
100
AcDbEntity
  8
1
  6
Continuous
100
AcDbCircle
 10
394.8017292338288
 20
227.1485416594086
 30
0.0
 40
15.0
100
AcDbArc
 50
0.0000400000007758
 51
38.65799000000047
  0
LINE
  5
2F17
330
18
100
AcDbEntity
  8
1
  6
Continuous
100
AcDbLine
 10
413.8017292338288
 20
226.6485416594087
 30
0.0
 11
413.0017262338289
 21
226.6485416594087
 31
0.0
  0
LINE
  5
2F18
330
18
100
AcDbEntity
  8
1
  6
Continuous
100
AcDbLine
 10
413.8017292338288
 20
236.6485416594087
 30
0.0
 11
413.0017262338289
 21
236.6485416594087
 31
0.0
  0
LINE
  5
2F19
330
18
100
AcDbEntity
  8
1
  6
Continuous
100
AcDbLine
 10
404.8017062338288
 20
238.6485526594086
 30
0.0
 11
404.8273332338288
 21
238.6998076594086
 31
0.0
  0
LINE
  5
2F1B
330
18
100
AcDbEntity
  8
1
  6
Continuous
100
AcDbLine
 10
476.2517262338288
 20
290.9485416594086
 30
0.0
 11
394.7517252338288
 21
290.9485416594086
 31
0.0
  0
LINE
  5
2F1C
330
18
100
AcDbEntity
  8
1
  6
Continuous
100
AcDbLine
 10
476.2517262338288
 20
294.1485416594088
 30
0.0
 11
394.7517252338288
 21
294.1485416594088
 31
0.0
  0
ARC
  5
2F1D
330
18
100
AcDbEntity
  8
1
  6
Continuous
100
AcDbCircle
 10
420.5017262338288
 20
263.3705876594086
 30
0.0
 40
5.0
100
AcDbArc
 50
95.93779500000241
 51
180.0
  0
LINE
  5
2F1E
330
18
100
AcDbEntity
  8
1
  6
Continuous
100
AcDbLine
 10
453.3369662338288
 20
287.7485416594086
 30
0.0
 11
417.6664902338289
 21
287.7485416594086
 31
0.0
  0
LINE
  5
2F20
330
18
100
AcDbEntity
  8
4
  6
CENTER
100
AcDbLine
 10
467.0017262338289
 20
286.5443331596163
 30
0.0
 11
467.0017262338289
 21
299.1308414594086
 31
0.0
  0
ARC
  5
2F21
330
18
100
AcDbEntity
  8
1
  6
Continuous
100
AcDbCircle
 10
453.3369662338288
 20
292.7485420594086
 30
0.0
 40
5.0
100
AcDbArc
 50
269.999979999998
 51
338.8998299999999
  0
ARC
  5
2F22
330
18
100
AcDbEntity
  8
1
  6
Continuous
100
AcDbCircle
 10
476.2517262338288
 20
290.1485416594088
 30
0.0
 40
0.8000000099999999
100
AcDbArc
 50
0.0000400000007758
 51
90.00001799999918
  0
ARC
  5
2F23
330
18
100
AcDbEntity
  8
1
  6
Continuous
100
AcDbCircle
 10
476.2517262338288
 20
290.1485416594088
 30
0.0
 40
4.0
100
AcDbArc
 50
0.0000400000007758
 51
90.00001799999918
  0
ARC
  5
2F25
330
18
100
AcDbEntity
  8
1
  6
Continuous
100
AcDbCircle
 10
435.5017262338289
 20
119.1485416594088
 30
0.0
 40
150.0
100
AcDbArc
 50
84.06220700000259
 51
95.937774999998
  0
LINE
  5
2F26
330
18
100
AcDbEntity
  8
1
  6
Continuous
100
AcDbLine
 10
457.201726233829
 20
249.6485416594087
 30
0.0
 11
455.5017262338289
 21
249.6485416594087
 31
0.0
  0
ARC
  5
2F27
330
18
100
AcDbEntity
  8
1
  6
Continuous
100
AcDbCircle
 10
450.5017262338289
 20
263.3705876594086
 30
0.0
 40
5.0
100
AcDbArc
 50
0.0000400000007758
 51
84.06218599999844
  0
LINE
  5
2F28
330
18
100
AcDbEntity
  8
1
  6
Continuous
100
AcDbLine
 10
480.2517262338288
 20
276.8125206594086
 30
0.0
 11
480.2517262338288
 21
290.1485416594088
 31
0.0
  0
LINE
  5
2F29
330
18
100
AcDbEntity
  8
1
  6
Continuous
100
AcDbLine
 10
477.0517262338287
 20
276.9241686594086
 30
0.0
 11
477.0517262338287
 21
290.1485416594088
 31
0.0
  0
LINE
  5
2F2A
330
18
100
AcDbEntity
  8
4
  6
CENTER
100
AcDbLine
 10
404.0017262338288
 20
286.5443331596163
 30
0.0
 11
404.0017262338288
 21
299.1308414594086
 31
0.0
  0
ARC
  5
2F2B
330
18
100
AcDbEntity
  8
1
  6
Continuous
100
AcDbCircle
 10
417.6664902338289
 20
292.7485420594086
 30
0.0
 40
5.0
100
AcDbArc
 50
201.1001000000002
 51
269.999979999998
  0
ARC
  5
2F2C
330
18
100
AcDbEntity
  8
1
  6
Continuous
100
AcDbCircle
 10
394.7517252338288
 20
290.1485416594088
 30
0.0
 40
0.8000000099999999
100
AcDbArc
 50
90.00001799999918
 51
180.0
  0
ARC
  5
2F2D
330
18
100
AcDbEntity
  8
1
  6
Continuous
100
AcDbCircle
 10
394.7517252338288
 20
290.1485416594088
 30
0.0
 40
4.0
100
AcDbArc
 50
90.00001799999918
 51
180.0
  0
LINE
  5
2F2E
330
18
100
AcDbEntity
  8
1
  6
Continuous
100
AcDbLine
 10
415.5017262338288
 20
249.6485416594087
 30
0.0
 11
413.8017292338288
 21
249.6485416594087
 31
0.0
  0
LINE
  5
2F2F
330
18
100
AcDbEntity
  8
1
  6
Continuous
100
AcDbLine
 10
390.7517252338288
 20
276.8125236594086
 30
0.0
 11
390.7517252338288
 21
290.1485416594088
 31
0.0
  0
LINE
  5
2F30
330
18
100
AcDbEntity
  8
1
  6
Continuous
100
AcDbLine
 10
393.951726233829
 20
276.9241686594086
 30
0.0
 11
393.951726233829
 21
290.1485416594088
 31
0.0
  0
ARC
  5
2FCB
330
18
100
AcDbEntity
  8
1
  6
Continuous
100
AcDbCircle
 10
610.183772714872
 20
231.6485416594086
 30
0.0
 40
30.0
100
AcDbArc
 50
133.9004838342672
 51
46.09953345329209
  0
ARC
  5
2FCC
330
18
100
AcDbEntity
  8
1
  6
Continuous
100
AcDbCircle
 10
645.183772714872
 20
278.1485416594086
 30
0.0
 40
7.400000099999997
100
AcDbArc
 50
111.735551
 51
165.26149
  0
LINE
  5
2FCD
330
18
100
AcDbEntity
  8
1
  6
Continuous
100
AcDbLine
 10
651.183772714872
 20
294.1485416594088
 30
0.0
 11
569.183772714872
 21
294.1485416594088
 31
0.0
  0
ARC
  5
2FCE
330
18
100
AcDbEntity
  8
1
  6
Continuous
100
AcDbCircle
 10
610.183772714872
 20
231.6485416594086
 30
0.0
 40
37.5
100
AcDbArc
 50
127.6820799999979
 51
52.3179200000019
  0
LINE
  5
2FCF
330
18
100
AcDbEntity
  8
4
  6
CENTER
100
AcDbLine
 10
652.3171077148719
 20
231.6485416594086
 30
0.0
 11
568.8504367148721
 21
231.6485416594086
 31
0.0
  0
ARC
  5
2FD1
330
18
100
AcDbEntity
  8
1
  6
Continuous
100
AcDbCircle
 10
648.180438714872
 20
287.9485446594088
 30
0.0
 40
3.0
100
AcDbArc
 50
90.00001799999918
 51
178.0898351000004
  0
ARC
  5
2FD2
330
18
100
AcDbEntity
  8
1
  6
Continuous
100
AcDbCircle
 10
648.8919747148719
 20
290.1485416594088
 30
0.0
 40
4.0
100
AcDbArc
 50
90.00001799999918
 51
196.6016300000003
  0
LINE
  5
2FD3
330
18
100
AcDbEntity
  8
4
  6
CENTER
100
AcDbLine
 10
641.683772714872
 20
298.6574251694277
 30
0.0
 11
641.683772714872
 21
287.3518757074553
 31
0.0
  0
LINE
  5
2FD4
330
18
100
AcDbEntity
  8
1
  6
Continuous
100
AcDbLine
 10
642.443377714872
 20
285.0224316594087
 30
0.0
 11
643.2947427148723
 21
285.3618426594087
 31
0.0
  0
ARC
  5
2FD5
330
18
100
AcDbEntity
  8
1
  6
Continuous
100
AcDbCircle
 10
642.1837727148719
 20
288.1485416594088
 30
0.0
 40
3.0
100
AcDbArc
 50
291.7355699999989
 51
16.60152000000095
  0
LINE
  5
2FD6
330
18
100
AcDbEntity
  8
1
  6
Continuous
100
AcDbLine
 10
651.183772714872
 20
290.9485446594088
 30
0.0
 11
648.180438714872
 21
290.9485446594088
 31
0.0
  0
LINE
  5
2FD7
330
18
100
AcDbEntity
  8
1
  6
Continuous
100
AcDbLine
 10
651.183772714872
 20
290.9485446594088
 30
0.0
 11
651.183772714872
 21
294.1485416594088
 31
0.0
  0
ARC
  5
2FDA
330
18
100
AcDbEntity
  8
1
  6
Continuous
100
AcDbCircle
 10
610.183772714872
 20
231.6485416594086
 30
0.0
 40
16.5
100
AcDbArc
 50
167.108808597628
 51
12.89125561696891
  0
ARC
  5
2FDB
330
18
100
AcDbEntity
  8
1
  6
Continuous
100
AcDbCircle
 10
610.183772714872
 20
231.6485416594086
 30
0.0
 40
27.0
100
AcDbArc
 50
141.1909909999996
 51
158.8090019999995
  0
LINE
  5
2FDC
330
18
100
AcDbEntity
  8
1
  6
Continuous
100
AcDbLine
 10
599.183772714872
 20
233.3218736594087
 30
0.0
 11
599.183772714872
 21
291.8485385594086
 31
0.0
  0
LINE
  5
2FDD
330
18
100
AcDbEntity
  8
1
  6
Continuous
100
AcDbLine
 10
582.3402857148719
 20
280.0311686594087
 30
0.0
 11
595.6773187148719
 21
229.3324096594087
 31
0.0
  0
ARC
  5
2FDE
330
18
100
AcDbEntity
  8
1
  6
Continuous
100
AcDbCircle
 10
610.183772714872
 20
231.6485416594086
 30
0.0
 40
27.0
100
AcDbArc
 50
21.19100000000017
 51
38.80900999999854
  0
LINE
  5
2FDF
330
18
100
AcDbEntity
  8
1
  6
Continuous
100
AcDbLine
 10
621.1837727148719
 20
233.7218756594086
 30
0.0
 11
621.1837727148719
 21
291.4485447594088
 31
0.0
  0
LINE
  5
2FE0
330
18
100
AcDbEntity
  8
1
  6
Continuous
100
AcDbLine
 10
638.0272523148721
 20
280.0311676594087
 30
0.0
 11
624.6902176148721
 21
229.3324096594087
 31
0.0
  0
LINE
  5
2FE1
330
18
100
AcDbEntity
  8
4
  6
CENTER
100
AcDbLine
 10
610.183772714872
 20
190.5503116594086
 30
0.0
 11
610.183772714872
 21
299.1308414594086
 31
0.0
  0
ARC
  5
2FE2
330
18
100
AcDbEntity
  8
1
  6
Continuous
100
AcDbCircle
 10
606.2786747148719
 20
206.4493346594086
 30
0.0
 40
1.5
100
AcDbArc
 50
165.000001000001
 51
261.1910000000022
  0
ARC
  5
2FE3
330
18
100
AcDbEntity
  8
1
  6
Continuous
100
AcDbCircle
 10
614.0888707148717
 20
206.4493346594086
 30
0.0
 40
1.5
100
AcDbArc
 50
278.8089999999978
 51
15.00000999999972
  0
ARC
  5
2FE4
330
18
100
AcDbEntity
  8
1
  6
Continuous
100
AcDbCircle
 10
610.183772714872
 20
231.6485416594086
 30
0.0
 40
27.0
100
AcDbArc
 50
261.1910000000022
 51
278.8090099999976
  0
ARC
  5
2FE5
330
18
100
AcDbEntity
  8
1
  6
Continuous
100
AcDbCircle
 10
584.9845617148718
 20
227.7434398594087
 30
0.0
 40
1.5
100
AcDbArc
 50
188.8090000000014
 51
285.000000000001
  0
LINE
  5
2FE6
330
18
100
AcDbEntity
  8
1
  6
Continuous
100
AcDbLine
 10
591.7009157148719
 20
227.9901693594087
 30
0.0
 11
585.3727907148719
 21
226.2945543194086
 31
0.0
  0
ARC
  5
2FE7
330
18
100
AcDbEntity
  8
1
  6
Continuous
100
AcDbCircle
 10
635.3829837148719
 20
227.7434398594087
 30
0.0
 40
1.5
100
AcDbArc
 50
254.9999999999988
 51
351.1909999999987
  0
LINE
  5
2FE8
330
18
100
AcDbEntity
  8
1
  6
Continuous
100
AcDbLine
 10
628.6666367148717
 20
227.9901682594086
 30
0.0
 11
634.994754714872
 21
226.2945542294086
 31
0.0
  0
ARC
  5
2FE9
330
18
100
AcDbEntity
  8
1
  6
Continuous
100
AcDbCircle
 10
610.183772714872
 20
233.1485416594087
 30
0.0
 40
15.0
100
AcDbArc
 50
194.7385599999996
 51
345.2614400000002
  0
ARC
  5
2FEC
330
18
100
AcDbEntity
  8
1
  6
Continuous
100
AcDbCircle
 10
607.9742887148719
 20
212.7774436594086
 30
0.0
 40
1.5
100
AcDbArc
 50
83.32204000000194
 51
164.9999939999995
  0
ARC
  5
2FED
330
18
100
AcDbEntity
  8
1
  6
Continuous
100
AcDbCircle
 10
610.183772714872
 20
231.6485416594086
 30
0.0
 40
17.5
100
AcDbArc
 50
293.3220399999995
 51
306.6779599999993
  0
LINE
  5
2FEE
330
18
100
AcDbEntity
  8
1
  6
Continuous
100
AcDbLine
 10
624.3612167148719
 20
219.2388655594086
 30
0.0
 11
628.9937207148717
 21
214.6063586594086
 31
0.0
  0
LINE
  5
2FEF
330
18
100
AcDbEntity
  8
1
  6
Continuous
100
AcDbLine
 10
622.593448714872
 20
217.4710981594087
 30
0.0
 11
627.2259557148719
 21
212.8385916594086
 31
0.0
  0
ARC
  5
2FF0
330
18
100
AcDbEntity
  8
1
  6
Continuous
100
AcDbCircle
 10
610.183772714872
 20
231.6485416594086
 30
0.0
 40
27.0
100
AcDbArc
 50
321.1909900000013
 51
338.8089999999998
  0
ARC
  5
2FF1
330
18
100
AcDbEntity
  8
1
  6
Continuous
100
AcDbCircle
 10
610.183772714872
 20
231.6485416594086
 30
0.0
 40
27.0
100
AcDbArc
 50
291.1909999999995
 51
308.8090100000008
  0
ARC
  5
2FF2
330
18
100
AcDbEntity
  8
1
  6
Continuous
100
AcDbCircle
 10
626.1652947148721
 20
211.7779326594086
 30
0.0
 40
1.5
100
AcDbArc
 50
308.808999999999
 51
45.0
  0
ARC
  5
2FF3
330
18
100
AcDbEntity
  8
1
  6
Continuous
100
AcDbCircle
 10
630.0543777148718
 20
215.6670236594086
 30
0.0
 40
1.5
100
AcDbArc
 50
225.0
 51
321.1909900000013
  0
ARC
  5
2FF4
330
18
100
AcDbEntity
  8
1
  6
Continuous
100
AcDbCircle
 10
610.183772714872
 20
231.6485416594086
 30
0.0
 40
17.5
100
AcDbArc
 50
263.3220400000019
 51
276.677959999998
  0
ARC
  5
2FF5
330
18
100
AcDbEntity
  8
1
  6
Continuous
100
AcDbCircle
 10
617.705851714872
 20
214.2009516594086
 30
0.0
 40
1.5
100
AcDbArc
 50
113.3220340000025
 51
195.0000000000006
  0
ARC
  5
2FF6
330
18
100
AcDbEntity
  8
1
  6
Continuous
100
AcDbCircle
 10
612.3932567148719
 20
212.7774436594086
 30
0.0
 40
1.5
100
AcDbArc
 50
14.99998999999862
 51
96.67796899999835
  0
ARC
  5
2FF7
330
18
100
AcDbEntity
  8
1
  6
Continuous
100
AcDbCircle
 10
619.4014627148717
 20
207.8728346594086
 30
0.0
 40
1.5
100
AcDbArc
 50
195.0000000000006
 51
291.1909999999995
  0
LINE
  5
2FF8
330
18
100
AcDbEntity
  8
1
  6
Continuous
100
AcDbLine
 10
613.842143714872
 20
213.1656796594086
 30
0.0
 11
615.5377617148722
 21
206.8375576594086
 31
0.0
  0
LINE
  5
2FF9
330
18
100
AcDbEntity
  8
1
  6
Continuous
100
AcDbLine
 10
616.256961714872
 20
213.8127276594087
 30
0.0
 11
617.9525757148719
 21
207.4846046594086
 31
0.0
  0
ARC
  5
2FFA
330
18
100
AcDbEntity
  8
1
  6
Continuous
100
AcDbCircle
 10
625.4218787148719
 20
220.2995235594086
 30
0.0
 40
1.5
100
AcDbArc
 50
143.3220380000008
 51
224.9999899999989
  0
ARC
  5
2FFB
330
18
100
AcDbEntity
  8
1
  6
Continuous
100
AcDbCircle
 10
627.631358714872
 20
224.1264659594086
 30
0.0
 40
1.5
100
AcDbArc
 50
74.99999999999885
 51
156.6779620000015
  0
LINE
  5
2FFC
330
18
100
AcDbEntity
  8
1
  6
Continuous
100
AcDbLine
 10
628.0195877148719
 20
225.5753537594086
 30
0.0
 11
634.3477077148719
 21
223.8797397594086
 31
0.0
  0
ARC
  5
2FFD
330
18
100
AcDbEntity
  8
1
  6
Continuous
100
AcDbCircle
 10
633.9594777148719
 20
222.4308483594086
 30
0.0
 40
1.5
100
AcDbArc
 50
338.8090099999997
 51
74.99998999999789
  0
ARC
  5
2FFE
330
18
100
AcDbEntity
  8
1
  6
Continuous
100
AcDbCircle
 10
610.183772714872
 20
231.6485416594086
 30
0.0
 40
17.5
100
AcDbArc
 50
323.3220400000005
 51
336.6779599999998
  0
ARC
  5
2FFF
330
18
100
AcDbEntity
  8
1
  6
Continuous
100
AcDbCircle
 10
621.5327867148719
 20
216.4104396594086
 30
0.0
 40
1.5
100
AcDbArc
 50
45.0
 51
126.6779600000003
  0
LINE
  5
3000
330
18
100
AcDbEntity
  8
1
  6
Continuous
100
AcDbLine
 10
596.0063287148718
 20
219.2388665594086
 30
0.0
 11
591.3738207148719
 21
214.6063606594086
 31
0.0
  0
ARC
  5
3001
330
18
100
AcDbEntity
  8
1
  6
Continuous
100
AcDbCircle
 10
610.183772714872
 20
231.6485416594086
 30
0.0
 40
17.5
100
AcDbArc
 50
233.3220399999996
 51
246.6779600000005
  0
LINE
  5
3002
330
18
100
AcDbEntity
  8
1
  6
Continuous
100
AcDbLine
 10
597.774096714872
 20
217.4711000594086
 30
0.0
 11
593.141589714872
 21
212.8385936594086
 31
0.0
  0
ARC
  5
3003
330
18
100
AcDbEntity
  8
1
  6
Continuous
100
AcDbCircle
 10
610.183772714872
 20
231.6485416594086
 30
0.0
 40
27.0
100
AcDbArc
 50
201.1909900000001
 51
218.8089999999991
  0
ARC
  5
3004
330
18
100
AcDbEntity
  8
1
  6
Continuous
100
AcDbCircle
 10
594.202250714872
 20
211.7779326594086
 30
0.0
 40
1.5
100
AcDbArc
 50
134.9999989999985
 51
231.191000000001
  0
ARC
  5
3005
330
18
100
AcDbEntity
  8
1
  6
Continuous
100
AcDbCircle
 10
602.6616937148719
 20
214.2009516594086
 30
0.0
 40
1.5
100
AcDbArc
 50
345.0000000000009
 51
66.67795000000261
  0
ARC
  5
3006
330
18
100
AcDbEntity
  8
1
  6
Continuous
100
AcDbCircle
 10
600.9660827148717
 20
207.8728346594086
 30
0.0
 40
1.5
100
AcDbArc
 50
248.8090099999996
 51
344.9999900000003
  0
LINE
  5
3007
330
18
100
AcDbEntity
  8
1
  6
Continuous
100
AcDbLine
 10
604.1105877148719
 20
213.8127276594087
 30
0.0
 11
602.4149737148717
 21
207.4846046594086
 31
0.0
  0
ARC
  5
3008
330
18
100
AcDbEntity
  8
1
  6
Continuous
100
AcDbCircle
 10
610.183772714872
 20
231.6485416594086
 30
0.0
 40
27.0
100
AcDbArc
 50
231.191000000001
 51
248.8090099999996
  0
LINE
  5
3009
330
18
100
AcDbEntity
  8
1
  6
Continuous
100
AcDbLine
 10
606.525401714872
 20
213.1656806594086
 30
0.0
 11
604.8297877148719
 21
206.8375576594086
 31
0.0
  0
ARC
  5
300A
330
18
100
AcDbEntity
  8
1
  6
Continuous
100
AcDbCircle
 10
590.3131677148719
 20
215.6670236594086
 30
0.0
 40
1.5
100
AcDbArc
 50
218.8089999999991
 51
315.0
  0
LINE
  5
300B
330
18
100
AcDbEntity
  8
1
  6
Continuous
100
AcDbLine
 10
592.3479647148717
 20
225.5753547594086
 30
0.0
 11
586.0198397148717
 21
223.8797397594086
 31
0.0
  0
ARC
  5
300C
330
18
100
AcDbEntity
  8
1
  6
Continuous
100
AcDbCircle
 10
592.736186714872
 20
224.1264659594086
 30
0.0
 40
1.5
100
AcDbArc
 50
23.3220299999993
 51
104.9999940000022
  0
ARC
  5
300D
330
18
100
AcDbEntity
  8
1
  6
Continuous
100
AcDbCircle
 10
594.9456667148719
 20
220.2995235594086
 30
0.0
 40
1.5
100
AcDbArc
 50
315.0
 51
36.67795999999939
  0
ARC
  5
300E
330
18
100
AcDbEntity
  8
1
  6
Continuous
100
AcDbCircle
 10
598.8347587148719
 20
216.4104396594086
 30
0.0
 40
1.5
100
AcDbArc
 50
53.32204000000063
 51
134.9999989999985
  0
ARC
  5
300F
330
18
100
AcDbEntity
  8
1
  6
Continuous
100
AcDbCircle
 10
610.183772714872
 20
231.6485416594086
 30
0.0
 40
17.5
100
AcDbArc
 50
203.3220400000002
 51
216.6779599999993
  0
ARC
  5
3010
330
18
100
AcDbEntity
  8
1
  6
Continuous
100
AcDbCircle
 10
586.408069714872
 20
222.4308483594086
 30
0.0
 40
1.5
100
AcDbArc
 50
105.000007999998
 51
201.1909900000001
  0
ARC
  5
3012
330
18
100
AcDbEntity
  8
1
  6
Continuous
100
AcDbCircle
 10
635.3829837148719
 20
235.5536396594086
 30
0.0
 40
1.5
100
AcDbArc
 50
8.809000000001331
 51
105.000007999998
  0
ARC
  5
3013
330
18
100
AcDbEntity
  8
1
  6
Continuous
100
AcDbCircle
 10
629.0548667148717
 20
233.8580257594086
 30
0.0
 40
1.5
100
AcDbArc
 50
105.000007999998
 51
186.6779599999995
  0
LINE
  5
3014
330
18
100
AcDbEntity
  8
1
  6
Continuous
100
AcDbLine
 10
628.6666337148723
 20
235.3069135594086
 30
0.0
 11
634.9947547148723
 21
237.0025286594086
 31
0.0
  0
ARC
  5
3015
330
18
100
AcDbEntity
  8
1
  6
Continuous
100
AcDbCircle
 10
629.0548667148717
 20
229.4390575594086
 30
0.0
 40
1.5
100
AcDbArc
 50
173.3220394999996
 51
254.9999899999979
  0
ARC
  5
3016
330
18
100
AcDbEntity
  8
1
  6
Continuous
100
AcDbCircle
 10
610.183772714872
 20
231.6485416594086
 30
0.0
 40
17.5
100
AcDbArc
 50
353.3220400000001
 51
6.677970000000035
  0
ARC
  5
3017
330
18
100
AcDbEntity
  8
1
  6
Continuous
100
AcDbCircle
 10
610.183772714872
 20
231.6485416594086
 30
0.0
 40
27.0
100
AcDbArc
 50
351.1909999999987
 51
8.809010000000633
  0
ARC
  5
3018
330
18
100
AcDbEntity
  8
1
  6
Continuous
100
AcDbCircle
 10
627.631358714872
 20
239.1706176594087
 30
0.0
 40
1.5
100
AcDbArc
 50
242.1039598066461
 51
284.9999900000004
  0
ARC
  5
3019
330
18
100
AcDbEntity
  8
1
  6
Continuous
100
AcDbCircle
 10
633.9594777148719
 20
240.8662316594087
 30
0.0
 40
1.5
100
AcDbArc
 50
285.000000000001
 51
21.19100000000017
  0
LINE
  5
301A
330
18
100
AcDbEntity
  8
1
  6
Continuous
100
AcDbLine
 10
628.0195917148721
 20
237.7217296594086
 30
0.0
 11
634.3477077148719
 21
239.4173436594086
 31
0.0
  0
ARC
  5
301B
330
18
100
AcDbEntity
  8
1
  6
Continuous
100
AcDbCircle
 10
584.9845617148718
 20
235.5536396594086
 30
0.0
 40
1.5
100
AcDbArc
 50
74.99999999999885
 51
171.1909999999985
  0
ARC
  5
301C
330
18
100
AcDbEntity
  8
1
  6
Continuous
100
AcDbCircle
 10
591.3126787148719
 20
233.8580257594086
 30
0.0
 40
1.5
100
AcDbArc
 50
353.3220400000001
 51
74.99998999999789
  0
ARC
  5
301D
330
18
100
AcDbEntity
  8
1
  6
Continuous
100
AcDbCircle
 10
591.3126787148719
 20
229.4390575594086
 30
0.0
 40
1.5
100
AcDbArc
 50
285.000000000001
 51
6.677970000000035
  0
ARC
  5
301E
330
18
100
AcDbEntity
  8
1
  6
Continuous
100
AcDbCircle
 10
610.183772714872
 20
231.6485416594086
 30
0.0
 40
17.5
100
AcDbArc
 50
173.3220394999996
 51
186.6779599999995
  0
LINE
  5
301F
330
18
100
AcDbEntity
  8
1
  6
Continuous
100
AcDbLine
 10
591.7009007148717
 20
235.3069173594086
 30
0.0
 11
585.3727907148719
 21
237.0025306594086
 31
0.0
  0
ARC
  5
3020
330
18
100
AcDbEntity
  8
1
  6
Continuous
100
AcDbCircle
 10
610.183772714872
 20
231.6485416594086
 30
0.0
 40
27.0
100
AcDbArc
 50
171.1909999999985
 51
188.8090000000014
  0
LINE
  5
3021
330
18
100
AcDbEntity
  8
1
  6
Continuous
100
AcDbLine
 10
592.3479577148717
 20
237.7217296594086
 30
0.0
 11
586.0198327148719
 21
239.4173446594086
 31
0.0
  0
ARC
  5
3022
330
18
100
AcDbEntity
  8
1
  6
Continuous
100
AcDbCircle
 10
592.736186714872
 20
239.1706176594087
 30
0.0
 40
1.5
100
AcDbArc
 50
254.9999999999988
 51
297.8957074774569
  0
ARC
  5
3023
330
18
100
AcDbEntity
  8
1
  6
Continuous
100
AcDbCircle
 10
586.408069714872
 20
240.8662316594087
 30
0.0
 40
1.5
100
AcDbArc
 50
158.8090019999995
 51
254.9999999999988
  0
ARC
  5
3024
330
18
100
AcDbEntity
  8
1
  6
Continuous
100
AcDbCircle
 10
572.187106714872
 20
287.9485446594088
 30
0.0
 40
3.0
100
AcDbArc
 50
1.910190000000028
 51
90.00001799999918
  0
ARC
  5
3025
330
18
100
AcDbEntity
  8
1
  6
Continuous
100
AcDbCircle
 10
571.475566714872
 20
290.1485416594088
 30
0.0
 40
4.0
100
AcDbArc
 50
343.3984100000003
 51
90.00001799999918
  0
LINE
  5
3026
330
18
100
AcDbEntity
  8
4
  6
CENTER
100
AcDbLine
 10
578.683772714872
 20
298.6574251694277
 30
0.0
 11
578.683772714872
 21
287.3518757074553
 31
0.0
  0
ARC
  5
3027
330
18
100
AcDbEntity
  8
1
  6
Continuous
100
AcDbCircle
 10
578.183772714872
 20
288.1485416594088
 30
0.0
 40
3.0
100
AcDbArc
 50
163.3985290000012
 51
248.2645199999978
  0
ARC
  5
3028
330
18
100
AcDbEntity
  8
1
  6
Continuous
100
AcDbCircle
 10
630.0543777148718
 20
247.6300636594086
 30
0.0
 40
1.5
100
AcDbArc
 50
38.80898999999878
 51
96.05817460905846
  0
ARC
  5
3029
330
18
100
AcDbEntity
  8
1
  6
Continuous
100
AcDbCircle
 10
590.3131677148719
 20
247.6300636594086
 30
0.0
 40
1.5
100
AcDbArc
 50
83.94215469838874
 51
141.1909909999996
  0
LINE
  5
302A
330
18
100
AcDbEntity
  8
1
  6
Continuous
100
AcDbLine
 10
577.9241597148718
 20
285.0224236594089
 30
0.0
 11
577.0727997148717
 21
285.361833659409
 31
0.0
  0
ARC
  5
302B
330
18
100
AcDbEntity
  8
1
  6
Continuous
100
AcDbCircle
 10
575.1837727148719
 20
278.1485416594086
 30
0.0
 40
7.400000099999997
100
AcDbArc
 50
14.73854999999913
 51
68.26445999999939
  0
LINE
  5
302C
330
18
100
AcDbEntity
  8
1
  6
Continuous
100
AcDbLine
 10
569.183772714872
 20
290.9485446594088
 30
0.0
 11
569.183772714872
 21
294.1485416594088
 31
0.0
  0
LINE
  5
302D
330
18
100
AcDbEntity
  8
1
  6
Continuous
100
AcDbLine
 10
572.187106714872
 20
290.9485446594088
 30
0.0
 11
569.183772714872
 21
290.9485446594088
 31
0.0
  0
LINE
  5
30AE
330
18
100
AcDbEntity
  8
4
  6
CENTER
100
AcDbLine
 10
215.8196797527859
 20
99.981373084933
 30
0.0
 11
305.8196797527859
 21
99.981373084933
 31
0.0
  0
LINE
  5
30AF
330
18
100
AcDbEntity
  8
4
  6
CENTER
100
AcDbLine
 10
223.3196797527859
 20
68.48137308493301
 30
0.0
 11
235.3196797527858
 21
68.48137308493301
 31
0.0
  0
LINE
  5
30B0
330
18
100
AcDbEntity
  8
4
  6
CENTER
100
AcDbLine
 10
223.3196797527859
 20
131.4813730849329
 30
0.0
 11
235.3196797527858
 21
131.4813730849329
 31
0.0
  0
ARC
  5
30B1
330
18
100
AcDbEntity
  8
1
  6
Continuous
100
AcDbCircle
 10
229.2899717527859
 20
131.5313720849329
 30
0.0
 40
13.2
100
AcDbArc
 50
30.72133999999887
 51
90.00000000000005
  0
CIRCLE
  5
30B2
330
18
100
AcDbEntity
  8
1
  6
Continuous
100
AcDbCircle
 10
229.3196797527858
 20
131.4813730849329
 30
0.0
 40
4.400000099999997
  0
ARC
  5
30B3
330
18
100
AcDbEntity
  8
1
  6
Continuous
100
AcDbCircle
 10
229.2899767527859
 20
68.43137008493272
 30
0.0
 40
13.2
100
AcDbArc
 50
269.9999970000023
 51
329.2786590000015
  0
CIRCLE
  5
30B4
330
18
100
AcDbEntity
  8
1
  6
Continuous
100
AcDbCircle
 10
229.3196797527858
 20
68.48137308493301
 30
0.0
 40
4.400000099999997
  0
LINE
  5
30B9
330
18
100
AcDbEntity
  8
1
  6
Continuous
100
AcDbLine
 10
219.819679752786
 20
134.4813730849329
 30
0.0
 11
219.819679752786
 21
65.48137308493301
 31
0.0
  0
LINE
  5
30BA
330
18
100
AcDbEntity
  8
4
  6
CENTER
100
AcDbLine
 10
229.3196797527858
 20
125.4813730849329
 30
0.0
 11
229.3196797527858
 21
137.4813730849329
 31
0.0
  0
ARC
  5
30BB
330
18
100
AcDbEntity
  8
1
  6
Continuous
100
AcDbCircle
 10
226.8196797527858
 20
134.4813730849329
 30
0.0
 40
7.0
100
AcDbArc
 50
109.4712300000012
 51
180.0000400000006
  0
LINE
  5
30BC
330
18
100
AcDbEntity
  8
1
  6
Continuous
100
AcDbLine
 10
225.819679752786
 20
144.7313730849329
 30
0.0
 11
229.2899717527859
 21
144.7313730849329
 31
0.0
  0
LINE
  5
30BD
330
18
100
AcDbEntity
  8
1
  6
Continuous
100
AcDbLine
 10
225.819679752786
 20
144.7313730849329
 30
0.0
 11
225.819679752786
 21
142.9666560849326
 31
0.0
  0
ARC
  5
30BE
330
18
100
AcDbEntity
  8
1
  6
Continuous
100
AcDbCircle
 10
223.819679752786
 20
142.9666560849326
 30
0.0
 40
2.0
100
AcDbArc
 50
289.4712550000004
 51
0.0
  0
ARC
  5
30BF
330
18
100
AcDbEntity
  8
1
  6
Continuous
100
AcDbCircle
 10
226.8196797527858
 20
65.48137308493301
 30
0.0
 40
7.0
100
AcDbArc
 50
180.0000400000006
 51
250.5288000000009
  0
LINE
  5
30C0
330
18
100
AcDbEntity
  8
4
  6
CENTER
100
AcDbLine
 10
229.3196797527858
 20
62.481373084933
 30
0.0
 11
229.3196797527858
 21
74.48137308493301
 31
0.0
  0
LINE
  5
30C1
330
18
100
AcDbEntity
  8
1
  6
Continuous
100
AcDbLine
 10
225.819679752786
 20
55.231373084933
 30
0.0
 11
229.2899767527859
 21
55.231373084933
 31
0.0
  0
LINE
  5
30C2
330
18
100
AcDbEntity
  8
1
  6
Continuous
100
AcDbLine
 10
225.819679752786
 20
56.99609308493302
 30
0.0
 11
225.819679752786
 21
55.231373084933
 31
0.0
  0
ARC
  5
30C3
330
18
100
AcDbEntity
  8
1
  6
Continuous
100
AcDbCircle
 10
223.819679752786
 20
56.99609308493302
 30
0.0
 40
2.0
100
AcDbArc
 50
0.0
 51
70.52881000000049
  0
LINE
  5
30C4
330
18
100
AcDbEntity
  8
4
  6
CENTER
100
AcDbLine
 10
260.8196797527859
 20
134.665848084933
 30
0.0
 11
260.8196797527859
 21
61.16930308493284
 31
0.0
  0
LINE
  5
30C7
330
18
100
AcDbEntity
  8
1
  6
Continuous
100
AcDbLine
 10
301.8196797527858
 20
134.4813730849329
 30
0.0
 11
301.8196797527858
 21
65.48137308493301
 31
0.0
  0
ARC
  5
30CC
330
18
100
AcDbEntity
  8
1
  6
Continuous
100
AcDbCircle
 10
269.819679752786
 20
132.1813700849326
 30
0.0
 40
6.5
100
AcDbArc
 50
270.0000179999992
 51
329.2786769999988
  0
LINE
  5
30CD
330
18
100
AcDbEntity
  8
1
  6
Continuous
100
AcDbLine
 10
269.819679752786
 20
125.6813700849327
 30
0.0
 11
269.819679752786
 21
129.6813700849327
 31
0.0
  0
LINE
  5
30CE
330
18
100
AcDbEntity
  8
4
  6
CENTER
100
AcDbLine
 10
292.319679752786
 20
125.4813730849329
 30
0.0
 11
292.319679752786
 21
137.4813730849329
 31
0.0
  0
LINE
  5
30CF
330
18
100
AcDbEntity
  8
1
  6
Continuous
100
AcDbLine
 10
251.8196797527858
 20
125.6813700849327
 30
0.0
 11
251.8196807527861
 21
129.6813700849327
 31
0.0
  0
ARC
  5
30D0
330
18
100
AcDbEntity
  8
1
  6
Continuous
100
AcDbCircle
 10
251.8196797527858
 20
132.1813700849326
 30
0.0
 40
6.5
100
AcDbArc
 50
210.7213499999988
 51
270.0000179999992
  0
CIRCLE
  5
30D1
330
18
100
AcDbEntity
  8
1
  6
Continuous
100
AcDbCircle
 10
292.319679752786
 20
131.4813730849329
 30
0.0
 40
4.400000099999997
  0
LINE
  5
30D3
330
18
100
AcDbEntity
  8
4
  6
CENTER
100
AcDbLine
 10
286.319679752786
 20
131.4813730849329
 30
0.0
 11
298.3196797527858
 21
131.4813730849329
 31
0.0
  0
LINE
  5
30D4
330
18
100
AcDbEntity
  8
1
  6
Continuous
100
AcDbLine
 10
292.3493927527861
 20
144.7313730849329
 30
0.0
 11
295.8196797527858
 21
144.7313730849329
 31
0.0
  0
LINE
  5
30D5
330
18
100
AcDbEntity
  8
1
  6
Continuous
100
AcDbLine
 10
269.819679752786
 20
129.6813700849327
 30
0.0
 11
251.8196807527861
 21
129.6813700849327
 31
0.0
  0
LINE
  5
30D6
330
18
100
AcDbEntity
  8
1
  6
Continuous
100
AcDbLine
 10
267.8196817527859
 20
130.6813700849327
 30
0.0
 11
253.8196827527861
 21
130.6813700849327
 31
0.0
  0
LINE
  5
30D7
330
18
100
AcDbEntity
  8
1
  6
Continuous
100
AcDbLine
 10
240.6375118527857
 20
138.2747670849331
 30
0.0
 11
246.2318806527859
 21
128.8607640849328
 31
0.0
  0
LINE
  5
30D8
330
18
100
AcDbEntity
  8
1
  6
Continuous
100
AcDbLine
 10
251.8196777527859
 20
129.6813700849329
 30
0.0
 11
253.8196787527861
 21
130.6813700849329
 31
0.0
  0
ARC
  5
30D9
330
18
100
AcDbEntity
  8
1
  6
Continuous
100
AcDbCircle
 10
292.3493927527861
 20
131.5313720849329
 30
0.0
 40
13.2
100
AcDbArc
 50
90.00000000000005
 51
149.2786600000012
  0
LINE
  5
30DA
330
18
100
AcDbEntity
  8
1
  6
Continuous
100
AcDbLine
 10
275.4074827527863
 20
128.8607600849327
 30
0.0
 11
281.0018547527861
 21
138.2747670849328
 31
0.0
  0
LINE
  5
30DB
330
18
100
AcDbEntity
  8
1
  6
Continuous
100
AcDbLine
 10
267.8196897527858
 20
130.681385084933
 30
0.0
 11
269.8196897527858
 21
129.681381084933
 31
0.0
  0
ARC
  5
30DC
330
18
100
AcDbEntity
  8
1
  6
Continuous
100
AcDbCircle
 10
294.819679752786
 20
134.4813730849329
 30
0.0
 40
7.0
100
AcDbArc
 50
0.0
 51
70.52881999999946
  0
LINE
  5
30DD
330
18
100
AcDbEntity
  8
1
  6
Continuous
100
AcDbLine
 10
295.8196797527858
 20
144.7313730849329
 30
0.0
 11
295.8196797527858
 21
142.9666560849326
 31
0.0
  0
ARC
  5
30DE
330
18
100
AcDbEntity
  8
1
  6
Continuous
100
AcDbCircle
 10
297.8196797527859
 20
142.9666560849326
 30
0.0
 40
2.0
100
AcDbArc
 50
180.0000400000006
 51
250.52878
  0
LINE
  5
30E0
330
18
100
AcDbEntity
  8
1
  6
Continuous
100
AcDbLine
 10
251.8196797527858
 20
125.6813700849327
 30
0.0
 11
269.819679752786
 21
125.6813700849327
 31
0.0
  0
LINE
  5
30E3
330
18
100
AcDbEntity
  8
1
  6
Continuous
100
AcDbLine
 10
292.3493927527861
 20
55.231373084933
 30
0.0
 11
295.8196797527858
 21
55.231373084933
 31
0.0
  0
LINE
  5
30E4
330
18
100
AcDbEntity
  8
4
  6
CENTER
100
AcDbLine
 10
286.319679752786
 20
68.48137308493301
 30
0.0
 11
298.3196797527858
 21
68.48137308493301
 31
0.0
  0
CIRCLE
  5
30E5
330
18
100
AcDbEntity
  8
1
  6
Continuous
100
AcDbCircle
 10
292.319679752786
 20
68.48137308493301
 30
0.0
 40
4.400000099999997
  0
LINE
  5
30E7
330
18
100
AcDbEntity
  8
4
  6
CENTER
100
AcDbLine
 10
292.319679752786
 20
62.481373084933
 30
0.0
 11
292.319679752786
 21
74.48137308493301
 31
0.0
  0
LINE
  5
30E8
330
18
100
AcDbEntity
  8
1
  6
Continuous
100
AcDbLine
 10
281.0018547527861
 20
61.68797308493275
 30
0.0
 11
275.4074867527861
 21
71.10198608493305
 31
0.0
  0
LINE
  5
30E9
330
18
100
AcDbEntity
  8
1
  6
Continuous
100
AcDbLine
 10
246.2318773527857
 20
71.10197108493277
 30
0.0
 11
240.6375147127859
 21
61.68797308493275
 31
0.0
  0
ARC
  5
30EA
330
18
100
AcDbEntity
  8
1
  6
Continuous
100
AcDbCircle
 10
265.069679752786
 20
60.53137308493297
 30
0.0
 40
13.75000299999999
100
AcDbArc
 50
74.50126999999771
 51
105.4987300000022
  0
ARC
  5
30EB
330
18
100
AcDbEntity
  8
1
  6
Continuous
100
AcDbCircle
 10
265.069679752786
 20
80.21137608493303
 30
0.0
 40
10.93000299999999
100
AcDbArc
 50
252.6026900000014
 51
287.397308999998
  0
LINE
  5
30EC
330
18
100
AcDbEntity
  8
1
  6
Continuous
100
AcDbLine
 10
269.319679752786
 20
69.28137608493307
 30
0.0
 11
260.8196797527859
 21
69.28137608493307
 31
0.0
  0
LINE
  5
30ED
330
18
100
AcDbEntity
  8
1
  6
Continuous
100
AcDbLine
 10
268.119678752786
 20
67.68138308493303
 30
0.0
 11
260.8196797527859
 21
67.68138308493303
 31
0.0
  0
LINE
  5
30EE
330
18
100
AcDbEntity
  8
1
  6
Continuous
100
AcDbLine
 10
251.8196797527858
 20
74.28137608493305
 30
0.0
 11
269.819679752786
 21
74.28137608493305
 31
0.0
  0
LINE
  5
30EF
330
18
100
AcDbEntity
  8
1
  6
Continuous
100
AcDbLine
 10
265.8196797527859
 20
65.93137308493282
 30
0.0
 11
255.8196807527861
 21
65.93137308493282
 31
0.0
  0
LINE
  5
30F0
330
18
100
AcDbEntity
  8
1
  6
Continuous
100
AcDbLine
 10
265.069679752786
 20
65.18137308493283
 30
0.0
 11
256.5696807527861
 21
65.18137308493283
 31
0.0
  0
ARC
  5
30F1
330
18
100
AcDbEntity
  8
1
  6
Continuous
100
AcDbCircle
 10
251.8196797527858
 20
67.78137308493295
 30
0.0
 40
6.5
100
AcDbArc
 50
90.00003999999753
 51
149.278650000001
  0
LINE
  5
30F3
330
18
100
AcDbEntity
  8
2
  6
Continuous
100
AcDbLine
 10
256.5696797527859
 20
65.18137308493283
 30
0.0
 11
256.5696797527859
 21
67.68138308493303
 31
0.0
  0
LINE
  5
30F4
330
18
100
AcDbEntity
  8
1
  6
Continuous
100
AcDbLine
 10
253.5196797527859
 20
67.68138308493303
 30
0.0
 11
260.8196797527859
 21
67.68138308493303
 31
0.0
  0
LINE
  5
30F5
330
18
100
AcDbEntity
  8
1
  6
Continuous
100
AcDbLine
 10
255.8196497527859
 20
65.93134308493302
 30
0.0
 11
256.5696507527858
 21
65.181343084933
 31
0.0
  0
LINE
  5
30F6
330
18
100
AcDbEntity
  8
1
  6
Continuous
100
AcDbLine
 10
255.8196797527859
 20
65.93137308493282
 30
0.0
 11
255.8196797527859
 21
67.68138308493303
 31
0.0
  0
ARC
  5
30F7
330
18
100
AcDbEntity
  8
1
  6
Continuous
100
AcDbCircle
 10
256.5696797527859
 20
80.21137608493303
 30
0.0
 40
10.93000299999999
100
AcDbArc
 50
252.6026900000014
 51
287.397308999998
  0
ARC
  5
30F8
330
18
100
AcDbEntity
  8
1
  6
Continuous
100
AcDbCircle
 10
256.5696797527859
 20
60.53137308493297
 30
0.0
 40
13.75000299999999
100
AcDbArc
 50
74.50126999999771
 51
105.4987300000022
  0
LINE
  5
30F9
330
18
100
AcDbEntity
  8
1
  6
Continuous
100
AcDbLine
 10
252.3196797527858
 20
69.28137608493307
 30
0.0
 11
260.8196797527859
 21
69.28137608493307
 31
0.0
  0
LINE
  5
30FA
330
18
100
AcDbEntity
  8
1
  6
Continuous
100
AcDbLine
 10
252.3196797527858
 20
68.88138208493295
 30
0.0
 11
252.3196797527858
 21
74.28137608493305
 31
0.0
  0
LINE
  5
30FB
330
18
100
AcDbEntity
  8
1
  6
Continuous
100
AcDbLine
 10
252.3196797527858
 20
69.78137608493307
 30
0.0
 11
253.3016527527861
 21
69.78137608493307
 31
0.0
  0
LINE
  5
30FC
330
18
100
AcDbEntity
  8
1
  6
Continuous
100
AcDbLine
 10
252.3196797527858
 20
73.78137608493306
 30
0.0
 11
252.8954457527861
 21
73.78137608493306
 31
0.0
  0
LINE
  5
30FD
330
18
100
AcDbEntity
  8
1
  6
Continuous
100
AcDbLine
 10
252.8954457527861
 20
73.78137608493306
 30
0.0
 11
253.3016527527861
 21
69.78137608493307
 31
0.0
  0
LINE
  5
30FE
330
18
100
AcDbEntity
  8
1
  6
Continuous
100
AcDbLine
 10
259.8377077527858
 20
69.78137608493307
 30
0.0
 11
260.2439137527857
 21
73.78137608493306
 31
0.0
  0
LINE
  5
30FF
330
18
100
AcDbEntity
  8
1
  6
Continuous
100
AcDbLine
 10
260.243915752786
 20
73.78137608493306
 30
0.0
 11
260.8196797527859
 21
73.78137608493306
 31
0.0
  0
LINE
  5
3100
330
18
100
AcDbEntity
  8
1
  6
Continuous
100
AcDbLine
 10
259.8377077527858
 20
69.78137608493307
 30
0.0
 11
260.8196797527859
 21
69.78137608493307
 31
0.0
  0
LINE
  5
3101
330
18
100
AcDbEntity
  8
1
  6
Continuous
100
AcDbLine
 10
261.8016517527859
 20
69.78137608493307
 30
0.0
 11
260.8196797527859
 21
69.78137608493307
 31
0.0
  0
LINE
  5
3102
330
18
100
AcDbEntity
  8
1
  6
Continuous
100
AcDbLine
 10
261.3954437527859
 20
73.78137608493306
 30
0.0
 11
260.8196797527859
 21
73.78137608493306
 31
0.0
  0
LINE
  5
3103
330
18
100
AcDbEntity
  8
1
  6
Continuous
100
AcDbLine
 10
261.8016517527858
 20
69.78137608493307
 30
0.0
 11
261.3954457527859
 21
73.78137608493306
 31
0.0
  0
ARC
  5
3104
330
18
100
AcDbEntity
  8
1
  6
Continuous
100
AcDbCircle
 10
253.5196797527859
 20
68.88138208493295
 30
0.0
 40
1.199999999999999
100
AcDbArc
 50
179.9999900000006
 51
269.9999910000004
  0
ARC
  5
3105
330
18
100
AcDbEntity
  8
1
  6
Continuous
100
AcDbCircle
 10
269.819679752786
 20
67.78137308493295
 30
0.0
 40
6.5
100
AcDbArc
 50
30.72137000000144
 51
90.00003999999753
  0
LINE
  5
3107
330
18
100
AcDbEntity
  8
2
  6
Continuous
100
AcDbLine
 10
265.069679752786
 20
65.18137308493283
 30
0.0
 11
265.069679752786
 21
67.68138308493303
 31
0.0
  0
LINE
  5
3108
330
18
100
AcDbEntity
  8
1
  6
Continuous
100
AcDbLine
 10
265.069681752786
 20
65.1813530849331
 30
0.0
 11
265.8196877527859
 21
65.93136308493308
 31
0.0
  0
LINE
  5
3109
330
18
100
AcDbEntity
  8
1
  6
Continuous
100
AcDbLine
 10
265.8196797527859
 20
65.93137308493282
 30
0.0
 11
265.8196797527859
 21
67.68138308493303
 31
0.0
  0
LINE
  5
310A
330
18
100
AcDbEntity
  8
1
  6
Continuous
100
AcDbLine
 10
269.319679752786
 20
68.88138208493295
 30
0.0
 11
269.319679752786
 21
74.28137608493305
 31
0.0
  0
LINE
  5
310B
330
18
100
AcDbEntity
  8
1
  6
Continuous
100
AcDbLine
 10
269.319679752786
 20
69.78137608493307
 30
0.0
 11
268.3377057527859
 21
69.78137608493307
 31
0.0
  0
LINE
  5
310C
330
18
100
AcDbEntity
  8
1
  6
Continuous
100
AcDbLine
 10
268.7439137527857
 20
73.78137608493306
 30
0.0
 11
268.3377077527858
 21
69.78137608493307
 31
0.0
  0
LINE
  5
310D
330
18
100
AcDbEntity
  8
1
  6
Continuous
100
AcDbLine
 10
269.319679752786
 20
73.78137608493306
 30
0.0
 11
268.743915752786
 21
73.78137608493306
 31
0.0
  0
ARC
  5
310E
330
18
100
AcDbEntity
  8
1
  6
Continuous
100
AcDbCircle
 10
268.119678752786
 20
68.88138208493295
 30
0.0
 40
1.199999999999999
100
AcDbArc
 50
269.9999970000023
 51
359.9999974955214
  0
ARC
  5
310F
330
18
100
AcDbEntity
  8
1
  6
Continuous
100
AcDbCircle
 10
292.3493927527861
 20
68.43137008493272
 30
0.0
 40
13.2
100
AcDbArc
 50
210.7213399999988
 51
269.9999970000023
  0
ARC
  5
3110
330
18
100
AcDbEntity
  8
1
  6
Continuous
100
AcDbCircle
 10
294.819679752786
 20
65.48137308493301
 30
0.0
 40
7.0
100
AcDbArc
 50
289.4712340000006
 51
0.0
  0
LINE
  5
3111
330
18
100
AcDbEntity
  8
1
  6
Continuous
100
AcDbLine
 10
295.8196797527858
 20
56.99609308493302
 30
0.0
 11
295.8196797527858
 21
55.231373084933
 31
0.0
  0
ARC
  5
3112
330
18
100
AcDbEntity
  8
1
  6
Continuous
100
AcDbCircle
 10
297.8196797527859
 20
56.99609308493302
 30
0.0
 40
2.0
100
AcDbArc
 50
109.4712300000012
 51
180.0000400000006
  0
LINE
  5
31B3
330
18
100
AcDbEntity
  8
1
  6
Continuous
100
AcDbLine
 10
229.097633752786
 20
119.9813730849329
 30
0.0
 11
292.5417297527861
 21
119.9813730849329
 31
0.0
  0
LINE
  5
31B4
330
18
100
AcDbEntity
  8
1
  6
Continuous
100
AcDbLine
 10
229.097633752786
 20
79.98137308493301
 30
0.0
 11
292.5417297527861
 21
79.98137308493301
 31
0.0
  0
LINE
  5
31B5
330
18
100
AcDbEntity
  8
1
  6
Continuous
100
AcDbLine
 10
242.8196797527859
 20
78.28137308493295
 30
0.0
 11
278.8196797527859
 21
78.28137308493295
 31
0.0
  0
LINE
  5
31B6
330
18
100
AcDbEntity
  8
1
  6
Continuous
100
AcDbLine
 10
242.8196797527859
 20
121.681370084933
 30
0.0
 11
278.8196797527859
 21
121.681370084933
 31
0.0
  0
ARC
  5
31B7
330
18
100
AcDbEntity
  8
1
  6
Continuous
100
AcDbCircle
 10
292.5417257527858
 20
114.9813730849329
 30
0.0
 40
5.0
100
AcDbArc
 50
5.937795000002352
 51
90.0
  0
ARC
  5
31B9
330
18
100
AcDbEntity
  8
1
  6
Continuous
100
AcDbCircle
 10
148.3196797527858
 20
99.98137308493298
 30
0.0
 40
150.0
100
AcDbArc
 50
354.0622070000026
 51
5.937774999997983
  0
ARC
  5
31BA
330
18
100
AcDbEntity
  8
1
  6
Continuous
100
AcDbCircle
 10
292.5417257527858
 20
84.98137308493296
 30
0.0
 40
5.0
100
AcDbArc
 50
270.0000399999991
 51
354.0621859999983
  0
LINE
  5
31BD
330
18
100
AcDbEntity
  8
1
  6
Continuous
100
AcDbLine
 10
278.8196797527859
 20
78.28137308493295
 30
0.0
 11
278.8196797527859
 21
79.98137308493301
 31
0.0
  0
LINE
  5
31C2
330
18
100
AcDbEntity
  8
1
  6
Continuous
100
AcDbLine
 10
265.8196797527859
 20
77.48137308493301
 30
0.0
 11
265.8196797527859
 21
78.28137308493295
 31
0.0
  0
LINE
  5
31C4
330
18
100
AcDbEntity
  8
1
  6
Continuous
100
AcDbLine
 10
255.8196797527859
 20
77.48137308493301
 30
0.0
 11
255.8196797527859
 21
78.28137308493295
 31
0.0
  0
LINE
  5
31C9
330
18
100
AcDbEntity
  8
1
  6
Continuous
100
AcDbLine
 10
278.8196797527859
 20
119.9813730849329
 30
0.0
 11
278.8196797527859
 21
121.681370084933
 31
0.0
  0
LINE
  5
31CF
330
18
100
AcDbEntity
  8
1
  6
Continuous
100
AcDbLine
 10
265.8196797527859
 20
121.681370084933
 30
0.0
 11
265.8196797527859
 21
122.481373084933
 31
0.0
  0
LINE
  5
31D0
330
18
100
AcDbEntity
  8
1
  6
Continuous
100
AcDbLine
 10
255.8196797527859
 20
121.681370084933
 30
0.0
 11
255.8196797527859
 21
122.481373084933
 31
0.0
  0
ARC
  5
31D2
330
18
100
AcDbEntity
  8
1
  6
Continuous
100
AcDbCircle
 10
229.0976337527859
 20
114.9813730849329
 30
0.0
 40
5.0
100
AcDbArc
 50
90.0
 51
174.0622049999974
  0
ARC
  5
31D3
330
18
100
AcDbEntity
  8
1
  6
Continuous
100
AcDbCircle
 10
373.3196797527857
 20
99.98137308493296
 30
0.0
 40
150.0
100
AcDbArc
 50
174.0622250000019
 51
185.9377929999974
  0
LINE
  5
31D4
330
18
100
AcDbEntity
  8
1
  6
Continuous
100
AcDbLine
 10
242.8196797527859
 20
78.28137308493295
 30
0.0
 11
242.8196797527859
 21
79.98137308493301
 31
0.0
  0
ARC
  5
31D5
330
18
100
AcDbEntity
  8
1
  6
Continuous
100
AcDbCircle
 10
229.0976337527859
 20
84.98137308493296
 30
0.0
 40
5.0
100
AcDbArc
 50
185.9378140000014
 51
269.9999599999991
  0
LINE
  5
31D6
330
18
100
AcDbEntity
  8
1
  6
Continuous
100
AcDbLine
 10
242.8196797527859
 20
119.9813730849329
 30
0.0
 11
242.8196797527859
 21
121.681370084933
 31
0.0
  0
LINE
  5
31EE
330
18
100
AcDbEntity
  8
1
  6
Continuous
100
AcDbLine
 10
225.2125051940784
 20
141.5313730849329
 30
0.0
 11
229.2899717527859
 21
141.5313730849329
 31
0.0
  0
ARC
  5
31EF
330
18
100
AcDbEntity
  8
1
  6
Continuous
100
AcDbCircle
 10
229.2899717527859
 20
131.5313720849329
 30
0.0
 40
10.0
100
AcDbArc
 50
30.72133999999887
 51
90.00000000000005
  0
LINE
  5
31F0
330
18
100
AcDbEntity
  8
1
  6
Continuous
100
AcDbLine
 10
237.8865931895036
 20
136.6400051732145
 30
0.0
 11
243.4809619895037
 21
127.2260021732144
 31
0.0
  0
ARC
  5
31F1
330
18
100
AcDbEntity
  8
1
  6
Continuous
100
AcDbCircle
 10
251.8196797527858
 20
132.1813700849326
 30
0.0
 40
9.699999999999999
100
AcDbArc
 50
210.7213499999988
 51
270.0000179999992
  0
LINE
  5
31F2
330
18
100
AcDbEntity
  8
1
  6
Continuous
100
AcDbLine
 10
251.8196797527858
 20
122.4813700849327
 30
0.0
 11
269.819679752786
 21
122.4813700849327
 31
0.0
  0
ARC
  5
31F3
330
18
100
AcDbEntity
  8
1
  6
Continuous
100
AcDbCircle
 10
269.819679752786
 20
132.1813700849326
 30
0.0
 40
9.699999999999999
100
AcDbArc
 50
270.0000179999992
 51
329.2786769999988
  0
LINE
  5
31F4
330
18
100
AcDbEntity
  8
1
  6
Continuous
100
AcDbLine
 10
278.1584013104565
 20
127.2259979954941
 30
0.0
 11
283.7527733104564
 21
136.6400049954942
 31
0.0
  0
ARC
  5
31F5
330
18
100
AcDbEntity
  8
1
  6
Continuous
100
AcDbCircle
 10
292.3493927527861
 20
131.5313720849329
 30
0.0
 40
10.0
100
AcDbArc
 50
90.00000000000005
 51
149.2786600000012
  0
LINE
  5
31F6
330
18
100
AcDbEntity
  8
1
  6
Continuous
100
AcDbLine
 10
292.3493927527861
 20
141.5313730849329
 30
0.0
 11
296.4268543114935
 21
141.5313730849329
 31
0.0
  0
ARC
  5
31F7
330
18
100
AcDbEntity
  8
1
  6
Continuous
100
AcDbCircle
 10
269.819679752786
 20
67.78137308493295
 30
0.0
 40
9.699999999999999
100
AcDbArc
 50
30.72137000000144
 51
90.00003999999753
  0
LINE
  5
31F8
330
18
100
AcDbEntity
  8
1
  6
Continuous
100
AcDbLine
 10
251.8196797527858
 20
77.48137608493308
 30
0.0
 11
269.819679752786
 21
77.48137608493308
 31
0.0
  0
LINE
  5
31F9
330
18
100
AcDbEntity
  8
1
  6
Continuous
100
AcDbLine
 10
243.4809582802905
 20
72.73673230804222
 30
0.0
 11
237.8865956402908
 21
63.32273430804223
 31
0.0
  0
ARC
  5
31FA
330
18
100
AcDbEntity
  8
1
  6
Continuous
100
AcDbCircle
 10
251.8196797527858
 20
67.78137308493295
 30
0.0
 40
9.699999999999999
100
AcDbArc
 50
90.00003999999753
 51
149.278650000001
  0
ARC
  5
31FB
330
18
100
AcDbEntity
  8
1
  6
Continuous
100
AcDbCircle
 10
229.2899767527859
 20
68.43137008493272
 30
0.0
 40
10.0
100
AcDbArc
 50
269.9999970000023
 51
329.2786590000015
  0
LINE
  5
31FC
330
18
100
AcDbEntity
  8
1
  6
Continuous
100
AcDbLine
 10
225.2125082855207
 20
58.431373084933
 30
0.0
 11
229.2899767527859
 21
58.431373084933
 31
0.0
  0
ARC
  5
31FD
330
18
100
AcDbEntity
  8
1
  6
Continuous
100
AcDbCircle
 10
292.3493927527861
 20
68.43137008493272
 30
0.0
 40
10.0
100
AcDbArc
 50
210.7213399999988
 51
269.9999970000023
  0
LINE
  5
31FE
330
18
100
AcDbEntity
  8
1
  6
Continuous
100
AcDbLine
 10
292.3493927527861
 20
58.431373084933
 30
0.0
 11
296.4268512200512
 21
58.431373084933
 31
0.0
  0
LINE
  5
31FF
330
18
100
AcDbEntity
  8
1
  6
Continuous
100
AcDbLine
 10
283.7527742813606
 20
63.32273354056757
 30
0.0
 11
278.1584062813606
 21
72.73674654056788
 31
0.0
  0
ENDSEC
  0
SECTION
  2
OBJECTS
  0
DICTIONARY
  5
C
330
0
100
AcDbDictionary
281
     1
  3
ACAD_CIP_PREVIOUS_PRODUCT_INFO
350
35CD
  3
ACAD_COLOR
350
35B0
  3
ACAD_DETAILVIEWSTYLE
350
35C9
  3
ACAD_GROUP
350
D
  3
ACAD_LAYOUT
350
94
  3
ACAD_MATERIAL
350
357E
  3
ACAD_MLEADERSTYLE
350
35C5
  3
ACAD_MLINESTYLE
350
1B
  3
ACAD_PLOTSETTINGS
350
95
  3
ACAD_PLOTSTYLENAME
350
357C
  3
ACAD_SCALELIST
350
35B3
  3
ACAD_SECTIONVIEWSTYLE
350
35C7
  3
ACAD_TABLESTYLE
350
35B1
  3
ACAD_VISUALSTYLE
350
3597
  3
ACDB_RECOMPOSE_DATA
350
35EB
  3
AcDbVariableDictionary
350
35DE
  3
CONTENTDICTIONARY
350
3D
  3
DWGPROPS
350
35EC
  0
DICTIONARY
  5
35CE
330
E
100
AcDbDictionary
280
     1
281
     1
  3
ADSK_XREC_LAYER_RECONCILED
360
35CF
  0
DICTIONARY
  5
35D0
330
4E
100
AcDbDictionary
280
     1
281
     1
  3
ADSK_XREC_LAYER_RECONCILED
360
35D1
  0
DICTIONARY
  5
35D2
330
4F
100
AcDbDictionary
280
     1
281
     1
  3
ADSK_XREC_LAYER_RECONCILED
360
35D3
  0
DICTIONARY
  5
35D4
330
50
100
AcDbDictionary
280
     1
281
     1
  3
ADSK_XREC_LAYER_RECONCILED
360
35D5
  0
DICTIONARY
  5
35D6
330
51
100
AcDbDictionary
280
     1
281
     1
  3
ADSK_XREC_LAYER_RECONCILED
360
35D7
  0
DICTIONARY
  5
35D8
330
52
100
AcDbDictionary
280
     1
281
     1
  3
ADSK_XREC_LAYER_RECONCILED
360
35D9
  0
DICTIONARY
  5
35DA
330
53
100
AcDbDictionary
280
     1
281
     1
  3
ADSK_XREC_LAYER_RECONCILED
360
35DB
  0
DICTIONARY
  5
35DC
330
54
100
AcDbDictionary
280
     1
281
     1
  3
ADSK_XREC_LAYER_RECONCILED
360
35DD
  0
DICTIONARY
  5
3563
330
18
100
AcDbDictionary
281
     1
  3
ACAD_LAYOUTSELFREF
350
3578
  0
DICTIONARY
  5
3561
330
15
100
AcDbDictionary
281
     1
  3
ACAD_LAYOUTSELFREF
350
3577
  0
XRECORD
  5
35CD
102
{ACAD_REACTORS
330
C
102
}
330
C
100
AcDbXrecord
280
     1
300
ACDLT
300
2014
300
ACDLT_F_S
  0
DICTIONARY
  5
35B0
102
{ACAD_REACTORS
330
C
102
}
330
C
100
AcDbDictionary
281
     1
  0
DICTIONARY
  5
35C9
102
{ACAD_REACTORS
330
C
102
}
330
C
100
AcDbDictionary
281
     1
  3
Imperial24
350
35CA
  0
DICTIONARY
  5
D
102
{ACAD_REACTORS
330
C
102
}
330
C
100
AcDbDictionary
281
     1
  0
DICTIONARY
  5
94
102
{ACAD_REACTORS
330
C
102
}
330
C
100
AcDbDictionary
281
     1
  3
Model
350
35CB
  3
レイアウト1
350
35CC
  0
DICTIONARY
  5
357E
102
{ACAD_REACTORS
330
C
102
}
330
C
100
AcDbDictionary
281
     1
  3
ByBlock
350
3587
  3
ByLayer
350
357F
  3
Global
350
358F
  0
DICTIONARY
  5
35C5
102
{ACAD_REACTORS
330
C
102
}
330
C
100
AcDbDictionary
281
     1
  3
Standard
350
35C6
  0
DICTIONARY
  5
1B
102
{ACAD_REACTORS
330
C
102
}
330
C
100
AcDbDictionary
281
     1
  3
STANDARD
350
1C
  0
DICTIONARY
  5
95
102
{ACAD_REACTORS
330
C
102
}
330
C
100
AcDbDictionary
281
     1
  0
ACDBDICTIONARYWDFLT
  5
357C
102
{ACAD_REACTORS
330
C
102
}
330
C
100
AcDbDictionary
281
     1
  3
Normal
350
357D
100
AcDbDictionaryWithDefault
340
357D
  0
DICTIONARY
  5
35B3
102
{ACAD_REACTORS
330
C
102
}
330
C
100
AcDbDictionary
281
     1
  3
A0
350
35B4
  3
A1
350
35B5
  3
A2
350
35B6
  3
A3
350
35B7
  3
A4
350
35B8
  3
A5
350
35B9
  3
A6
350
35BA
  3
A7
350
35BB
  3
A8
350
35BC
  3
A9
350
35BD
  3
B0
350
35BE
  3
B1
350
35BF
  3
B2
350
35C0
  3
B3
350
35C1
  3
B4
350
35C2
  3
B5
350
35C3
  3
B6
350
35C4
  0
DICTIONARY
  5
35C7
102
{ACAD_REACTORS
330
C
102
}
330
C
100
AcDbDictionary
281
     1
  3
Imperial24
350
35C8
  0
DICTIONARY
  5
35B1
102
{ACAD_REACTORS
330
C
102
}
330
C
100
AcDbDictionary
281
     1
  3
Standard
350
35B2
  0
DICTIONARY
  5
3597
102
{ACAD_REACTORS
330
C
102
}
330
C
100
AcDbDictionary
281
     1
  3
2dWireframe
350
359D
  3
Basic
350
359C
  3
Brighten
350
35A3
  3
ColorChange
350
35A7
  3
Conceptual
350
35A0
  3
Dim
350
35A2
  3
EdgeColorOff
350
35AF
  3
Facepattern
350
35A6
  3
Flat
350
3598
  3
FlatWithEdges
350
3599
  3
Gouraud
350
359A
  3
GouraudWithEdges
350
359B
  3
Hidden
350
359F
  3
JitterOff
350
35AD
  3
Linepattern
350
35A5
  3
OverhangOff
350
35AE
  3
Realistic
350
35A1
  3
Shaded
350
35AC
  3
Shaded with edges
350
35AB
  3
Shades of Gray
350
35A8
  3
Sketchy
350
35A9
  3
Thicken
350
35A4
  3
Wireframe
350
359E
  3
X-Ray
350
35AA
  0
XRECORD
  5
35EB
102
{ACAD_REACTORS
330
C
102
}
330
C
100
AcDbXrecord
280
     1
 90
        1
330
35B2
  0
DICTIONARY
  5
35DE
102
{ACAD_REACTORS
330
C
102
}
330
C
100
AcDbDictionary
281
     1
  3
CANNOSCALE
350
35E3
  3
CMLEADERSTYLE
350
35E0
  3
CTABLESTYLE
350
35DF
  3
CVIEWDETAILSTYLE
350
35E1
  3
CVIEWSECTIONSTYLE
350
35E2
  3
DIMASSOC
350
35E6
  3
INDEXCTL
350
35E5
  3
SORTENTS
350
35E4
  3
XCLIPFRAME
350
35E7
  0
DICTIONARY
  5
3D
102
{ACAD_REACTORS
330
C
102
}
330
C
100
AcDbDictionary
281
     1
  0
XRECORD
  5
35EC
102
{ACAD_REACTORS
330
C
102
}
330
C
100
AcDbXrecord
280
     1
  1
DWGPROPS COOKIE
  2

  3

  4

  6

  7

  8
Yoshitsune
  9

300
=
301
=
302
=
303
=
304
=
305
=
306
=
307
=
308
=
309
=
 40
0.2180313194444444
 41
2452929.381745324
 42
2457192.690908195
  1

 90
        0
  0
XRECORD
  5
35CF
102
{ACAD_REACTORS
330
35CE
102
}
330
35CE
100
AcDbXrecord
280
     1
290
     1
  0
XRECORD
  5
35D1
102
{ACAD_REACTORS
330
35D0
102
}
330
35D0
100
AcDbXrecord
280
     1
290
     1
  0
XRECORD
  5
35D3
102
{ACAD_REACTORS
330
35D2
102
}
330
35D2
100
AcDbXrecord
280
     1
290
     1
  0
XRECORD
  5
35D5
102
{ACAD_REACTORS
330
35D4
102
}
330
35D4
100
AcDbXrecord
280
     1
290
     1
  0
XRECORD
  5
35D7
102
{ACAD_REACTORS
330
35D6
102
}
330
35D6
100
AcDbXrecord
280
     1
290
     1
  0
XRECORD
  5
35D9
102
{ACAD_REACTORS
330
35D8
102
}
330
35D8
100
AcDbXrecord
280
     1
290
     1
  0
XRECORD
  5
35DB
102
{ACAD_REACTORS
330
35DA
102
}
330
35DA
100
AcDbXrecord
280
     1
290
     1
  0
XRECORD
  5
35DD
102
{ACAD_REACTORS
330
35DC
102
}
330
35DC
100
AcDbXrecord
280
     1
290
     1
  0
XRECORD
  5
3578
102
{ACAD_REACTORS
330
3563
102
}
330
3563
100
AcDbXrecord
280
     1
340
18
  0
XRECORD
  5
3577
102
{ACAD_REACTORS
330
3561
102
}
330
3561
100
AcDbXrecord
280
     1
340
15
  0
ACDBDETAILVIEWSTYLE
  5
35CA
102
{ACAD_XDICTIONARY
360
3624
102
}
102
{ACAD_REACTORS
330
35C9
102
}
330
35C9
100
AcDbModelDocViewStyle
 70
     0
  3
Imperial24
290
     0
100
AcDbDetailViewStyle
 70
     0
 71
     0
 90
        3
 71
     1
340
F
 40
0.24
340
0
 40
0.24
300

 40
0.36
280
     3
 71
     2
340
14
 90
       25
 71
     3
340
F
 40
0.24
 90
        1
 40
0.75
 90
        1
300
%<\AcVar ViewType \f "%tc1">% %<\AcVar ViewDetailId>%\PSCALE %<\AcVar ViewScale \f "%sn">%
 71
     4
340
14
 90
       25
340
14
 90
       25
280
     0
  0
LAYOUT
  5
35CB
102
{ACAD_XDICTIONARY
360
3626
102
}
102
{ACAD_REACTORS
330
94
102
}
330
94
100
AcDbPlotSettings
  1

  2
Canon LBP9100C
  4

  6

 40
0.0
 41
0.0
 42
0.0
 43
0.0
 44
0.0
 45
0.0
 46
0.0
 47
0.0
 48
0.0
 49
0.0
140
0.0
141
0.0
142
1.0
143
1.0
 70
  1712
 72
     0
 73
     0
 74
     0
  7

 75
     0
147
1.0
148
0.0
149
0.0
100
AcDbLayout
  1
Model
 70
     1
 71
     0
 10
0.0
 20
0.0
 11
12.0
 21
9.0
 12
0.0
 22
0.0
 32
0.0
 14
0.0
 24
0.0
 34
0.0
 15
0.0
 25
0.0
 35
0.0
146
0.0
 13
0.0
 23
0.0
 33
0.0
 16
1.0
 26
0.0
 36
0.0
 17
0.0
 27
1.0
 37
0.0
 76
     0
330
18
331
3576
  0
LAYOUT
  5
35CC
102
{ACAD_XDICTIONARY
360
3628
102
}
102
{ACAD_REACTORS
330
94
102
}
330
94
100
AcDbPlotSettings
  1

  2
Canon LBP9100C
  4

  6

 40
0.0
 41
0.0
 42
0.0
 43
0.0
 44
0.0
 45
0.0
 46
0.0
 47
0.0
 48
0.0
 49
0.0
140
0.0
141
0.0
142
1.0
143
1.0
 70
   688
 72
     0
 73
     0
 74
     5
  7

 75
    16
147
1.0
148
0.0
149
0.0
100
AcDbLayout
  1
レイアウト1
 70
     1
 71
     1
 10
0.0
 20
0.0
 11
420.0
 21
297.0
 12
0.0
 22
0.0
 32
0.0
 14
1.000000000000000E+20
 24
1.000000000000000E+20
 34
1.000000000000000E+20
 15
-1.000000000000000E+20
 25
-1.000000000000000E+20
 35
-1.000000000000000E+20
146
0.0
 13
0.0
 23
0.0
 33
0.0
 16
1.0
 26
0.0
 36
0.0
 17
0.0
 27
1.0
 37
0.0
 76
     0
330
15
  0
MATERIAL
  5
3587
102
{ACAD_XDICTIONARY
360
3588
102
}
102
{ACAD_REACTORS
330
357E
102
}
330
357E
100
AcDbMaterial
  1
ByBlock
 72
     0
 43
0.0208333333333333
 43
0.0
 43
0.0
 43
0.0
 43
0.0
 43
0.0208333333333333
 43
0.0
 43
0.0
 43
0.0
 43
0.0
 43
1.0
 43
0.0
 43
0.0
 43
0.0
 43
0.0
 43
1.0
 77
     0
 47
0.0208333333333333
 47
0.0
 47
0.0
 47
0.0
 47
0.0
 47
0.0208333333333333
 47
0.0
 47
0.0
 47
0.0
 47
0.0
 47
1.0
 47
0.0
 47
0.0
 47
0.0
 47
0.0
 47
1.0
171
     0
 49
0.0208333333333333
 49
0.0
 49
0.0
 49
0.0
 49
0.0
 49
0.0208333333333333
 49
0.0
 49
0.0
 49
0.0
 49
0.0
 49
1.0
 49
0.0
 49
0.0
 49
0.0
 49
0.0
 49
1.0
175
     0
142
0.0208333333333333
142
0.0
142
0.0
142
0.0
142
0.0
142
0.0208333333333333
142
0.0
142
0.0
142
0.0
142
0.0
142
1.0
142
0.0
142
0.0
142
0.0
142
0.0
142
1.0
179
     0
144
0.0208333333333333
144
0.0
144
0.0
144
0.0
144
0.0
144
0.0208333333333333
144
0.0
144
0.0
144
0.0
144
0.0
144
1.0
144
0.0
144
0.0
144
0.0
144
0.0
144
1.0
147
0.0208333333333333
147
0.0
147
0.0
147
0.0
147
0.0
147
0.0208333333333333
147
0.0
147
0.0
147
0.0
147
0.0
147
1.0
147
0.0
147
0.0
147
0.0
147
0.0
147
1.0
  0
MATERIAL
  5
357F
102
{ACAD_XDICTIONARY
360
3580
102
}
102
{ACAD_REACTORS
330
357E
102
}
330
357E
100
AcDbMaterial
  1
ByLayer
 72
     0
 43
0.0208333333333333
 43
0.0
 43
0.0
 43
0.0
 43
0.0
 43
0.0208333333333333
 43
0.0
 43
0.0
 43
0.0
 43
0.0
 43
1.0
 43
0.0
 43
0.0
 43
0.0
 43
0.0
 43
1.0
 77
     0
 47
0.0208333333333333
 47
0.0
 47
0.0
 47
0.0
 47
0.0
 47
0.0208333333333333
 47
0.0
 47
0.0
 47
0.0
 47
0.0
 47
1.0
 47
0.0
 47
0.0
 47
0.0
 47
0.0
 47
1.0
171
     0
 49
0.0208333333333333
 49
0.0
 49
0.0
 49
0.0
 49
0.0
 49
0.0208333333333333
 49
0.0
 49
0.0
 49
0.0
 49
0.0
 49
1.0
 49
0.0
 49
0.0
 49
0.0
 49
0.0
 49
1.0
175
     0
142
0.0208333333333333
142
0.0
142
0.0
142
0.0
142
0.0
142
0.0208333333333333
142
0.0
142
0.0
142
0.0
142
0.0
142
1.0
142
0.0
142
0.0
142
0.0
142
0.0
142
1.0
179
     0
144
0.0208333333333333
144
0.0
144
0.0
144
0.0
144
0.0
144
0.0208333333333333
144
0.0
144
0.0
144
0.0
144
0.0
144
1.0
144
0.0
144
0.0
144
0.0
144
0.0
144
1.0
147
0.0208333333333333
147
0.0
147
0.0
147
0.0
147
0.0
147
0.0208333333333333
147
0.0
147
0.0
147
0.0
147
0.0
147
1.0
147
0.0
147
0.0
147
0.0
147
0.0
147
1.0
  0
MATERIAL
  5
358F
102
{ACAD_XDICTIONARY
360
3590
102
}
102
{ACAD_REACTORS
330
357E
102
}
330
357E
100
AcDbMaterial
  1
Global
 72
     0
 43
0.0208333333333333
 43
0.0
 43
0.0
 43
0.0
 43
0.0
 43
0.0208333333333333
 43
0.0
 43
0.0
 43
0.0
 43
0.0
 43
1.0
 43
0.0
 43
0.0
 43
0.0
 43
0.0
 43
1.0
 77
     0
 47
0.0208333333333333
 47
0.0
 47
0.0
 47
0.0
 47
0.0
 47
0.0208333333333333
 47
0.0
 47
0.0
 47
0.0
 47
0.0
 47
1.0
 47
0.0
 47
0.0
 47
0.0
 47
0.0
 47
1.0
171
     0
 49
0.0208333333333333
 49
0.0
 49
0.0
 49
0.0
 49
0.0
 49
0.0208333333333333
 49
0.0
 49
0.0
 49
0.0
 49
0.0
 49
1.0
 49
0.0
 49
0.0
 49
0.0
 49
0.0
 49
1.0
175
     0
142
0.0208333333333333
142
0.0
142
0.0
142
0.0
142
0.0
142
0.0208333333333333
142
0.0
142
0.0
142
0.0
142
0.0
142
1.0
142
0.0
142
0.0
142
0.0
142
0.0
142
1.0
179
     0
144
0.0208333333333333
144
0.0
144
0.0
144
0.0
144
0.0
144
0.0208333333333333
144
0.0
144
0.0
144
0.0
144
0.0
144
1.0
144
0.0
144
0.0
144
0.0
144
0.0
144
1.0
147
0.0208333333333333
147
0.0
147
0.0
147
0.0
147
0.0
147
0.0208333333333333
147
0.0
147
0.0
147
0.0
147
0.0
147
1.0
147
0.0
147
0.0
147
0.0
147
0.0
147
1.0
  0
MLEADERSTYLE
  5
35C6
102
{ACAD_REACTORS
330
35C5
102
}
330
35C5
100
AcDbMLeaderStyle
170
     2
171
     1
172
     0
 90
        2
 40
0.0
 41
0.0
173
     1
 91
-1056964608
340
12
 92
       -2
290
     1
 42
0.09
291
     1
 43
0.36
  3
Standard
 44
0.18
300

342
F
174
     1
178
     6
175
     1
176
     0
 93
-1056964608
 45
0.18
292
     0
297
     0
 46
0.18
 94
-1056964608
 47
1.0
 49
1.0
140
1.0
293
     1
141
0.0
294
     1
177
     0
142
1.0
295
     0
296
     0
143
0.125
1001
ACAD_MLEADERVER
1070
     2
  0
MLINESTYLE
  5
1C
102
{ACAD_REACTORS
330
1B
102
}
330
1B
100
AcDbMlineStyle
  2
STANDARD
 70
     0
  3

 62
   256
 51
90.0
 52
90.0
 71
     2
 49
0.5
 62
   256
  6
BYLAYER
 49
-0.5
 62
   256
  6
BYLAYER
  0
ACDBPLACEHOLDER
  5
357D
102
{ACAD_REACTORS
330
357C
102
}
330
357C
  0
SCALE
  5
35B4
102
{ACAD_REACTORS
330
35B3
102
}
330
35B3
100
AcDbScale
 70
     0
300
1:1
140
1.0
141
1.0
290
     1
  0
SCALE
  5
35B5
102
{ACAD_REACTORS
330
35B3
102
}
330
35B3
100
AcDbScale
 70
     0
300
1/128" = 1'-0"
140
0.0078125
141
12.0
290
     0
  0
SCALE
  5
35B6
102
{ACAD_REACTORS
330
35B3
102
}
330
35B3
100
AcDbScale
 70
     0
300
1/64" = 1'-0"
140
0.015625
141
12.0
290
     0
  0
SCALE
  5
35B7
102
{ACAD_REACTORS
330
35B3
102
}
330
35B3
100
AcDbScale
 70
     0
300
1/32" = 1'-0"
140
0.03125
141
12.0
290
     0
  0
SCALE
  5
35B8
102
{ACAD_REACTORS
330
35B3
102
}
330
35B3
100
AcDbScale
 70
     0
300
1/16" = 1'-0"
140
0.0625
141
12.0
290
     0
  0
SCALE
  5
35B9
102
{ACAD_REACTORS
330
35B3
102
}
330
35B3
100
AcDbScale
 70
     0
300
3/32" = 1'-0"
140
0.09375
141
12.0
290
     0
  0
SCALE
  5
35BA
102
{ACAD_REACTORS
330
35B3
102
}
330
35B3
100
AcDbScale
 70
     0
300
1/8" = 1'-0"
140
0.125
141
12.0
290
     0
  0
SCALE
  5
35BB
102
{ACAD_REACTORS
330
35B3
102
}
330
35B3
100
AcDbScale
 70
     0
300
3/16" = 1'-0"
140
0.1875
141
12.0
290
     0
  0
SCALE
  5
35BC
102
{ACAD_REACTORS
330
35B3
102
}
330
35B3
100
AcDbScale
 70
     0
300
1/4" = 1'-0"
140
0.25
141
12.0
290
     0
  0
SCALE
  5
35BD
102
{ACAD_REACTORS
330
35B3
102
}
330
35B3
100
AcDbScale
 70
     0
300
3/8" = 1'-0"
140
0.375
141
12.0
290
     0
  0
SCALE
  5
35BE
102
{ACAD_REACTORS
330
35B3
102
}
330
35B3
100
AcDbScale
 70
     0
300
1/2" = 1'-0"
140
0.5
141
12.0
290
     0
  0
SCALE
  5
35BF
102
{ACAD_REACTORS
330
35B3
102
}
330
35B3
100
AcDbScale
 70
     0
300
3/4" = 1'-0"
140
0.75
141
12.0
290
     0
  0
SCALE
  5
35C0
102
{ACAD_REACTORS
330
35B3
102
}
330
35B3
100
AcDbScale
 70
     0
300
1" = 1'-0"
140
1.0
141
12.0
290
     0
  0
SCALE
  5
35C1
102
{ACAD_REACTORS
330
35B3
102
}
330
35B3
100
AcDbScale
 70
     0
300
1-1/2" = 1'-0"
140
1.5
141
12.0
290
     0
  0
SCALE
  5
35C2
102
{ACAD_REACTORS
330
35B3
102
}
330
35B3
100
AcDbScale
 70
     0
300
3" = 1'-0"
140
3.0
141
12.0
290
     0
  0
SCALE
  5
35C3
102
{ACAD_REACTORS
330
35B3
102
}
330
35B3
100
AcDbScale
 70
     0
300
6" = 1'-0"
140
6.0
141
12.0
290
     0
  0
SCALE
  5
35C4
102
{ACAD_REACTORS
330
35B3
102
}
330
35B3
100
AcDbScale
 70
     0
300
1'-0" = 1'-0"
140
12.0
141
12.0
290
     0
  0
ACDBSECTIONVIEWSTYLE
  5
35C8
102
{ACAD_XDICTIONARY
360
3622
102
}
102
{ACAD_REACTORS
330
35C7
102
}
330
35C7
100
AcDbModelDocViewStyle
 70
     0
  3
Imperial24
290
     0
100
AcDbSectionViewStyle
 70
     0
 71
     0
 90
       78
 71
     1
340
F
 40
0.24
340
0
340
0
 40
0.24
300
I, O, Q, S, X, Z
 40
0.48
 90
        3
 40
0.18
 90
        1
 71
     2
340
14
 90
       25
340
14
 90
       50
 40
0.24
 40
0.0
 40
0.24
 71
     3
340
F
 40
0.24
 90
        1
 40
0.75
 90
        1
300
%<\AcVar ViewType \f "%tc1">% %<\AcVar ViewSectionStartId>%-%<\AcVar ViewSectionEndId>%\PSCALE %<\AcVar ViewScale \f "%sn">%
 71
     4
300
ANSI31
 40
1.0
 90
        0
290
     0
290
     0
 90
        6
 40
0.0
 40
1.570796326794896
 40
0.2617993877991494
 40
1.308996938995747
 40
-0.2617993877991494
 40
1.832595714594046
  0
TABLESTYLE
  5
35B2
102
{ACAD_XDICTIONARY
360
35E9
102
}
102
{ACAD_REACTORS
330
35B1
102
}
330
35B1
100
AcDbTableStyle
  3
Standard
 70
     0
 71
     0
 40
0.06
 41
0.06
280
     0
281
     0
  7
STANDARD
140
0.18
170
     2
 62
     0
 63
     7
283
     0
274
    -2
284
     1
 64
     0
275
    -2
285
     1
 65
     0
276
    -2
286
     1
 66
     0
277
    -2
287
     1
 67
     0
278
    -2
288
     1
 68
     0
279
    -2
289
     1
 69
     0
  7
STANDARD
140
0.25
170
     5
 62
     0
 63
     7
283
     0
274
    -2
284
     1
 64
     0
275
    -2
285
     1
 65
     0
276
    -2
286
     1
 66
     0
277
    -2
287
     1
 67
     0
278
    -2
288
     1
 68
     0
279
    -2
289
     1
 69
     0
  7
STANDARD
140
0.18
170
     5
 62
     0
 63
     7
283
     0
274
    -2
284
     1
 64
     0
275
    -2
285
     1
 65
     0
276
    -2
286
     1
 66
     0
277
    -2
287
     1
 67
     0
278
    -2
288
     1
 68
     0
279
    -2
289
     1
 69
     0
  0
VISUALSTYLE
  5
359D
102
{ACAD_XDICTIONARY
360
35FA
102
}
102
{ACAD_REACTORS
330
3597
102
}
330
3597
100
AcDbVisualStyle
  2
2dWireframe
 70
     4
 71
     0
 72
     2
 73
     0
 90
        0
 40
-0.6
 41
-30.0
 62
     5
 63
     7
 74
     1
 91
        4
 64
     7
 65
   257
 75
     1
175
     1
 42
1.0
 92
        0
 66
   257
 43
1.0
 76
     1
 77
     6
 78
     2
 67
     7
 79
     5
170
     0
171
     0
290
     0
174
     0
 93
        1
 44
0.0
173
     0
291
     0
 45
0.0
1001
ACAD
1000
AcDbSavedByObjectVersion
1070
     0
  0
VISUALSTYLE
  5
359C
102
{ACAD_XDICTIONARY
360
35F8
102
}
102
{ACAD_REACTORS
330
3597
102
}
330
3597
100
AcDbVisualStyle
  2
Basic
 70
     7
 71
     1
 72
     0
 73
     1
 90
        0
 40
-0.6
 41
-30.0
 62
     5
 63
     7
 74
     0
 91
        4
 64
     7
 65
   257
 75
     1
175
     1
 42
1.0
 92
        8
 66
     7
 43
1.0
 76
     1
 77
     6
 78
     2
 67
     7
 79
     5
170
     0
171
     0
290
     0
174
     0
 93
        1
 44
0.0
173
     0
291
     1
 45
0.0
1001
ACAD
1000
AcDbSavedByObjectVersion
1070
     0
  0
VISUALSTYLE
  5
35A3
102
{ACAD_XDICTIONARY
360
3606
102
}
102
{ACAD_REACTORS
330
3597
102
}
330
3597
100
AcDbVisualStyle
  2
Brighten
 70
    12
 71
     2
 72
     2
 73
     0
 90
        0
 40
-0.6
 41
-30.0
 62
     5
 63
     7
 74
     1
 91
        4
 64
     7
 65
   257
 75
     1
175
     1
 42
1.0
 92
        8
 66
     7
 43
1.0
 76
     1
 77
     6
 78
     2
 67
     7
 79
     5
170
     0
171
     0
290
     0
174
     0
 93
        1
 44
50.0
173
     0
291
     1
 45
0.0
1001
ACAD
1000
AcDbSavedByObjectVersion
1070
     0
  0
VISUALSTYLE
  5
35A7
102
{ACAD_XDICTIONARY
360
360E
102
}
102
{ACAD_REACTORS
330
3597
102
}
330
3597
100
AcDbVisualStyle
  2
ColorChange
 70
    16
 71
     2
 72
     2
 73
     3
 90
        0
 40
-0.6
 41
-30.0
 62
     5
 63
     8
 74
     1
 91
        4
 64
     7
 65
   257
 75
     1
175
     1
 42
1.0
 92
        8
 66
     8
 43
1.0
 76
     1
 77
     6
 78
     2
 67
     7
 79
     5
170
     0
171
     0
290
     0
174
     0
 93
        1
 44
0.0
173
     0
291
     1
 45
0.0
1001
ACAD
1000
AcDbSavedByObjectVersion
1070
     0
  0
VISUALSTYLE
  5
35A0
102
{ACAD_XDICTIONARY
360
3600
102
}
102
{ACAD_REACTORS
330
3597
102
}
330
3597
100
AcDbVisualStyle
  2
Conceptual
 70
     9
 71
     3
 72
     2
 73
     0
 90
        0
 40
-0.6
 41
-30.0
 62
     5
 63
     7
 74
     2
 91
        2
 64
     7
 65
   257
 75
     1
175
     1
 42
179.0
 92
        8
 66
     7
 43
1.0
 76
     1
 77
     6
 78
     2
 67
     7
 79
     3
170
     0
171
     0
290
     0
174
     0
 93
        1
 44
0.0
173
     0
291
     0
 45
0.0
1001
ACAD
1000
AcDbSavedByObjectVersion
1070
     0
  0
VISUALSTYLE
  5
35A2
102
{ACAD_XDICTIONARY
360
3604
102
}
102
{ACAD_REACTORS
330
3597
102
}
330
3597
100
AcDbVisualStyle
  2
Dim
 70
    11
 71
     2
 72
     2
 73
     0
 90
        0
 40
-0.6
 41
-30.0
 62
     5
 63
     7
 74
     1
 91
        4
 64
     7
 65
   257
 75
     1
175
     1
 42
1.0
 92
        8
 66
     7
 43
1.0
 76
     1
 77
     6
 78
     2
 67
     7
 79
     5
170
     0
171
     0
290
     0
174
     0
 93
        1
 44
-50.0
173
     0
291
     1
 45
0.0
1001
ACAD
1000
AcDbSavedByObjectVersion
1070
     0
  0
VISUALSTYLE
  5
35AF
102
{ACAD_XDICTIONARY
360
361E
102
}
102
{ACAD_REACTORS
330
3597
102
}
330
3597
100
AcDbVisualStyle
  2
EdgeColorOff
 70
    22
 71
     2
 72
     2
 73
     0
 90
        0
 40
-0.6
 41
-30.0
 62
     5
 63
     7
 74
     1
 91
        4
 64
     7
 65
   257
 75
     1
175
     1
 42
1.0
 92
        8
 66
     7
 43
1.0
 76
     1
 77
     6
 78
     2
 67
     7
 79
     5
170
     0
171
     0
290
     0
174
     0
 93
        1
 44
0.0
173
     0
291
     1
 45
0.0
1001
ACAD
1000
AcDbSavedByObjectVersion
1070
     0
  0
VISUALSTYLE
  5
35A6
102
{ACAD_XDICTIONARY
360
360C
102
}
102
{ACAD_REACTORS
330
3597
102
}
330
3597
100
AcDbVisualStyle
  2
Facepattern
 70
    15
 71
     2
 72
     2
 73
     0
 90
        0
 40
-0.6
 41
-30.0
 62
     5
 63
     7
 74
     1
 91
        4
 64
     7
 65
   257
 75
     1
175
     1
 42
1.0
 92
        8
 66
     7
 43
1.0
 76
     1
 77
     6
 78
     2
 67
     7
 79
     5
170
     0
171
     0
290
     0
174
     0
 93
        1
 44
0.0
173
     0
291
     1
 45
0.0
1001
ACAD
1000
AcDbSavedByObjectVersion
1070
     0
  0
VISUALSTYLE
  5
3598
102
{ACAD_XDICTIONARY
360
35F0
102
}
102
{ACAD_REACTORS
330
3597
102
}
330
3597
100
AcDbVisualStyle
  2
Flat
 70
     0
 71
     2
 72
     1
 73
     1
 90
        2
 40
-0.6
 41
30.0
 62
     5
 63
     7
 74
     0
 91
        0
 64
     7
 65
   257
 75
     1
175
     1
 42
1.0
 92
        8
 66
     7
 43
1.0
 76
     1
 77
     6
 78
     2
 67
     7
 79
     5
170
     0
171
     0
290
     0
174
     0
 93
       13
 44
0.0
173
     0
291
     1
 45
0.0
1001
ACAD
1000
AcDbSavedByObjectVersion
1070
     0
  0
VISUALSTYLE
  5
3599
102
{ACAD_XDICTIONARY
360
35F2
102
}
102
{ACAD_REACTORS
330
3597
102
}
330
3597
100
AcDbVisualStyle
  2
FlatWithEdges
 70
     1
 71
     2
 72
     1
 73
     1
 90
        2
 40
-0.6
 41
30.0
 62
     5
 63
     7
 74
     1
 91
        0
 64
     7
 65
   257
 75
     1
175
     1
 42
1.0
 92
        0
 66
   257
 43
1.0
 76
     1
 77
     6
 78
     2
 67
     7
 79
     5
170
     0
171
     0
290
     0
174
     0
 93
       13
 44
0.0
173
     0
291
     1
 45
0.0
1001
ACAD
1000
AcDbSavedByObjectVersion
1070
     0
  0
VISUALSTYLE
  5
359A
102
{ACAD_XDICTIONARY
360
35F4
102
}
102
{ACAD_REACTORS
330
3597
102
}
330
3597
100
AcDbVisualStyle
  2
Gouraud
 70
     2
 71
     2
 72
     2
 73
     1
 90
        2
 40
-0.6
 41
30.0
 62
     5
 63
     7
 74
     0
 91
        0
 64
     7
 65
   257
 75
     1
175
     1
 42
1.0
 92
        0
 66
     7
 43
1.0
 76
     1
 77
     6
 78
     2
 67
     7
 79
     5
170
     0
171
     0
290
     0
174
     0
 93
       13
 44
0.0
173
     0
291
     1
 45
0.0
1001
ACAD
1000
AcDbSavedByObjectVersion
1070
     0
  0
VISUALSTYLE
  5
359B
102
{ACAD_XDICTIONARY
360
35F6
102
}
102
{ACAD_REACTORS
330
3597
102
}
330
3597
100
AcDbVisualStyle
  2
GouraudWithEdges
 70
     3
 71
     2
 72
     2
 73
     1
 90
        2
 40
-0.6
 41
30.0
 62
     5
 63
     7
 74
     1
 91
        0
 64
     7
 65
   257
 75
     1
175
     1
 42
1.0
 92
        0
 66
   257
 43
1.0
 76
     1
 77
     6
 78
     2
 67
     7
 79
     5
170
     0
171
     0
290
     0
174
     0
 93
       13
 44
0.0
173
     0
291
     1
 45
0.0
1001
ACAD
1000
AcDbSavedByObjectVersion
1070
     0
  0
VISUALSTYLE
  5
359F
102
{ACAD_XDICTIONARY
360
35FE
102
}
102
{ACAD_REACTORS
330
3597
102
}
330
3597
100
AcDbVisualStyle
  2
Hidden
 70
     6
 71
     1
 72
     2
 73
     2
 90
        0
 40
-0.6
 41
-30.0
 62
     5
 63
     7
 74
     2
 91
        2
 64
     7
 65
   257
 75
     2
175
     1
 42
40.0
 92
        0
 66
   257
 43
1.0
 76
     1
 77
     6
 78
     2
 67
     7
 79
     3
170
     0
171
     0
290
     0
174
     0
 93
        1
 44
0.0
173
     0
291
     0
 45
0.0
1001
ACAD
1000
AcDbSavedByObjectVersion
1070
     0
  0
VISUALSTYLE
  5
35AD
102
{ACAD_XDICTIONARY
360
361A
102
}
102
{ACAD_REACTORS
330
3597
102
}
330
3597
100
AcDbVisualStyle
  2
JitterOff
 70
    20
 71
     2
 72
     2
 73
     0
 90
        0
 40
-0.6
 41
-30.0
 62
     5
 63
     7
 74
     1
 91
        4
 64
     7
 65
   257
 75
     1
175
     1
 42
1.0
 92
       10
 66
     7
 43
1.0
 76
     1
 77
     6
 78
     2
 67
     7
 79
     5
170
     0
171
     0
290
     0
174
     0
 93
        1
 44
0.0
173
     0
291
     1
 45
0.0
1001
ACAD
1000
AcDbSavedByObjectVersion
1070
     0
  0
VISUALSTYLE
  5
35A5
102
{ACAD_XDICTIONARY
360
360A
102
}
102
{ACAD_REACTORS
330
3597
102
}
330
3597
100
AcDbVisualStyle
  2
Linepattern
 70
    14
 71
     2
 72
     2
 73
     0
 90
        0
 40
-0.6
 41
-30.0
 62
     5
 63
     7
 74
     1
 91
        4
 64
     7
 65
   257
 75
     7
175
     7
 42
1.0
 92
        8
 66
     7
 43
1.0
 76
     1
 77
     6
 78
     2
 67
     7
 79
     5
170
     0
171
     0
290
     0
174
     0
 93
        1
 44
0.0
173
     0
291
     1
 45
0.0
1001
ACAD
1000
AcDbSavedByObjectVersion
1070
     0
  0
VISUALSTYLE
  5
35AE
102
{ACAD_XDICTIONARY
360
361C
102
}
102
{ACAD_REACTORS
330
3597
102
}
330
3597
100
AcDbVisualStyle
  2
OverhangOff
 70
    21
 71
     2
 72
     2
 73
     0
 90
        0
 40
-0.6
 41
-30.0
 62
     5
 63
     7
 74
     1
 91
        4
 64
     7
 65
   257
 75
     1
175
     1
 42
1.0
 92
        9
 66
     7
 43
1.0
 76
     1
 77
     6
 78
     2
 67
     7
 79
     5
170
     0
171
     0
290
     0
174
     0
 93
        1
 44
0.0
173
     0
291
     1
 45
0.0
1001
ACAD
1000
AcDbSavedByObjectVersion
1070
     0
  0
VISUALSTYLE
  5
35A1
102
{ACAD_XDICTIONARY
360
3602
102
}
102
{ACAD_REACTORS
330
3597
102
}
330
3597
100
AcDbVisualStyle
  2
Realistic
 70
     8
 71
     2
 72
     3
 73
     0
 90
        2
 40
-0.6
 41
30.0
 62
     5
 63
     7
 74
     0
 91
        0
 64
     7
 65
   257
 75
     1
175
     1
 42
1.0
 92
        8
 66
   257
 43
1.0
 76
     1
 77
     6
 78
     2
 67
     7
 79
     3
170
     0
171
     0
290
     0
174
     0
 93
       13
 44
0.0
173
     0
291
     0
 45
0.0
1001
ACAD
1000
AcDbSavedByObjectVersion
1070
     0
  0
VISUALSTYLE
  5
35AC
102
{ACAD_XDICTIONARY
360
3618
102
}
102
{ACAD_REACTORS
330
3597
102
}
330
3597
100
AcDbVisualStyle
  2
Shaded
 70
    27
 71
     2
 72
     2
 73
     1
 90
        2
 40
-0.6
 41
30.0
 62
     5
 63
     7
 74
     0
 91
        4
 64
     7
 65
   257
 75
     1
175
     1
 42
1.0
 92
        8
 66
   257
 43
1.0
 76
     1
 77
     6
 78
     2
 67
     8
 79
     3
170
     0
171
     0
290
     0
174
     0
 93
        5
 44
0.0
173
     0
291
     0
 45
0.0
1001
ACAD
1000
AcDbSavedByObjectVersion
1070
     0
  0
VISUALSTYLE
  5
35AB
102
{ACAD_XDICTIONARY
360
3616
102
}
102
{ACAD_REACTORS
330
3597
102
}
330
3597
100
AcDbVisualStyle
  2
Shaded with edges
 70
    26
 71
     2
 72
     2
 73
     1
 90
        2
 40
-0.6
 41
30.0
 62
     5
 63
     7
 74
     1
 91
       10
 64
     7
 65
   257
 75
     2
175
     1
 42
1.0
 92
        8
 66
   257
 43
1.0
 76
     1
 77
     6
 78
     2
 67
     7
 79
     3
170
     0
171
     0
290
     0
174
     0
 93
        5
 44
0.0
173
     0
291
     0
 45
0.0
1001
ACAD
1000
AcDbSavedByObjectVersion
1070
     0
  0
VISUALSTYLE
  5
35A8
102
{ACAD_XDICTIONARY
360
3610
102
}
102
{ACAD_REACTORS
330
3597
102
}
330
3597
100
AcDbVisualStyle
  2
Shades of Gray
 70
    23
 71
     2
 72
     2
 73
     3
 90
        0
 40
-0.6
 41
-30.0
 62
     5
 63
     7
 74
     2
 91
        2
 64
     7
 65
     7
 75
     1
175
     1
 42
40.0
 92
        8
 66
     7
 43
1.0
 76
     1
 77
     6
 78
     2
 67
     7
 79
     3
170
     0
171
     0
290
     0
174
     0
 93
        1
 44
0.0
173
     0
291
     0
 45
0.0
1001
ACAD
1000
AcDbSavedByObjectVersion
1070
     0
  0
VISUALSTYLE
  5
35A9
102
{ACAD_XDICTIONARY
360
3612
102
}
102
{ACAD_REACTORS
330
3597
102
}
330
3597
100
AcDbVisualStyle
  2
Sketchy
 70
    24
 71
     1
 72
     2
 73
     2
 90
        0
 40
-0.6
 41
-30.0
 62
     5
 63
     7
 74
     2
 91
        2
 64
     7
 65
     7
 75
     1
175
     1
 42
40.0
 92
       11
 66
     7
 43
1.0
 76
     1
 77
     6
 78
     2
 67
     7
 79
     6
170
     0
171
     0
290
     0
174
     0
 93
        1
 44
0.0
173
     0
291
     0
 45
0.0
1001
ACAD
1000
AcDbSavedByObjectVersion
1070
     0
  0
VISUALSTYLE
  5
35A4
102
{ACAD_XDICTIONARY
360
3608
102
}
102
{ACAD_REACTORS
330
3597
102
}
330
3597
100
AcDbVisualStyle
  2
Thicken
 70
    13
 71
     2
 72
     2
 73
     0
 90
        0
 40
-0.6
 41
-30.0
 62
     5
 63
     7
 74
     1
 91
        4
 64
     7
 65
   257
 75
     1
175
     1
 42
1.0
 92
       12
 66
     7
 43
1.0
 76
     1
 77
     6
 78
     2
 67
     7
 79
     5
170
     0
171
     0
290
     0
174
     0
 93
        1
 44
0.0
173
     0
291
     1
 45
0.0
1001
ACAD
1000
AcDbSavedByObjectVersion
1070
     0
  0
VISUALSTYLE
  5
359E
102
{ACAD_XDICTIONARY
360
35FC
102
}
102
{ACAD_REACTORS
330
3597
102
}
330
3597
100
AcDbVisualStyle
  2
Wireframe
 70
     5
 71
     0
 72
     2
 73
     0
 90
        0
 40
-0.6
 41
-30.0
 62
     5
 63
     7
 74
     1
 91
        4
 64
     7
 65
   257
 75
     1
175
     1
 42
1.0
 92
        0
 66
   257
 43
1.0
 76
     1
 77
     6
 78
     2
 67
     7
 79
     3
170
     0
171
     0
290
     0
174
     0
 93
        1
 44
0.0
173
     0
291
     0
 45
0.0
1001
ACAD
1000
AcDbSavedByObjectVersion
1070
     0
  0
VISUALSTYLE
  5
35AA
102
{ACAD_XDICTIONARY
360
3614
102
}
102
{ACAD_REACTORS
330
3597
102
}
330
3597
100
AcDbVisualStyle
  2
X-Ray
 70
    25
 71
     2
 72
     2
 73
     1
 90
        1
 40
0.5
 41
-30.0
 62
     5
 63
     7
 74
     1
 91
        0
 64
     7
 65
   257
 75
     1
175
     1
 42
1.0
 92
        8
 66
     7
 43
1.0
 76
     1
 77
     6
 78
     2
 67
     7
 79
     3
170
     0
171
     0
290
     0
174
     0
 93
       13
 44
0.0
173
     0
291
     0
 45
0.0
1001
ACAD
1000
AcDbSavedByObjectVersion
1070
     0
  0
DICTIONARYVAR
  5
35E3
102
{ACAD_REACTORS
330
35DE
102
}
330
35DE
100
DictionaryVariables
280
     0
  1
1:1
  0
DICTIONARYVAR
  5
35E0
102
{ACAD_REACTORS
330
35DE
102
}
330
35DE
100
DictionaryVariables
280
     0
  1
STANDARD
  0
DICTIONARYVAR
  5
35DF
102
{ACAD_REACTORS
330
35DE
102
}
330
35DE
100
DictionaryVariables
280
     0
  1
STANDARD
  0
DICTIONARYVAR
  5
35E1
102
{ACAD_REACTORS
330
35DE
102
}
330
35DE
100
DictionaryVariables
280
     0
  1
Imperial24
  0
DICTIONARYVAR
  5
35E2
102
{ACAD_REACTORS
330
35DE
102
}
330
35DE
100
DictionaryVariables
280
     0
  1
Imperial24
  0
DICTIONARYVAR
  5
35E6
102
{ACAD_REACTORS
330
35DE
102
}
330
35DE
100
DictionaryVariables
280
     0
  1
1
  0
DICTIONARYVAR
  5
35E5
102
{ACAD_REACTORS
330
35DE
102
}
330
35DE
100
DictionaryVariables
280
     0
  1
0
  0
DICTIONARYVAR
  5
35E4
102
{ACAD_REACTORS
330
35DE
102
}
330
35DE
100
DictionaryVariables
280
     0
  1
127
  0
DICTIONARYVAR
  5
35E7
102
{ACAD_REACTORS
330
35DE
102
}
330
35DE
100
DictionaryVariables
280
     0
  1
2
  0
DICTIONARY
  5
3624
330
35CA
100
AcDbDictionary
280
     1
281
     1
  3
ACAD_XREC_ROUNDTRIP
360
3625
  0
DICTIONARY
  5
3626
330
35CB
100
AcDbDictionary
280
     1
281
     1
  3
ACAD_XREC_ROUNDTRIP
360
3627
  0
DICTIONARY
  5
3628
330
35CC
100
AcDbDictionary
280
     1
281
     1
  3
ACAD_XREC_ROUNDTRIP
360
3629
  0
DICTIONARY
  5
3588
330
3587
100
AcDbDictionary
280
     1
281
     1
  3
ACAD_XREC_ROUNDTRIP
360
35EE
  3
BUMPTILE
360
358A
  3
DIFFUSETILE
360
3589
  3
OPACITYTILE
360
358D
  3
REFLECTIONTILE
360
358C
  3
REFRACTIONTILE
360
358E
  3
SPECULARTILE
360
358B
  0
DICTIONARY
  5
3580
330
357F
100
AcDbDictionary
280
     1
281
     1
  3
ACAD_XREC_ROUNDTRIP
360
35ED
  3
BUMPTILE
360
3582
  3
DIFFUSETILE
360
3581
  3
OPACITYTILE
360
3585
  3
REFLECTIONTILE
360
3584
  3
REFRACTIONTILE
360
3586
  3
SPECULARTILE
360
3583
  0
DICTIONARY
  5
3590
330
358F
100
AcDbDictionary
280
     1
281
     1
  3
ACAD_XREC_ROUNDTRIP
360
35EF
  3
BUMPTILE
360
3592
  3
DIFFUSETILE
360
3591
  3
OPACITYTILE
360
3595
  3
REFLECTIONTILE
360
3594
  3
REFRACTIONTILE
360
3596
  3
SPECULARTILE
360
3593
  0
DICTIONARY
  5
3622
330
35C8
100
AcDbDictionary
280
     1
281
     1
  3
ACAD_XREC_ROUNDTRIP
360
3623
  0
DICTIONARY
  5
35E9
330
35B2
100
AcDbDictionary
280
     1
281
     1
  3
ACAD_ROUNDTRIP_2008_TABLESTYLE_CELLSTYLEMAP
360
35EA
  3
ACAD_XREC_ROUNDTRIP
360
3620
  0
DICTIONARY
  5
35FA
330
359D
100
AcDbDictionary
280
     1
281
     1
  3
ACAD_XREC_ROUNDTRIP
360
35FB
  0
DICTIONARY
  5
35F8
330
359C
100
AcDbDictionary
280
     1
281
     1
  3
ACAD_XREC_ROUNDTRIP
360
35F9
  0
DICTIONARY
  5
3606
330
35A3
100
AcDbDictionary
280
     1
281
     1
  3
ACAD_XREC_ROUNDTRIP
360
3607
  0
DICTIONARY
  5
360E
330
35A7
100
AcDbDictionary
280
     1
281
     1
  3
ACAD_XREC_ROUNDTRIP
360
360F
  0
DICTIONARY
  5
3600
330
35A0
100
AcDbDictionary
280
     1
281
     1
  3
ACAD_XREC_ROUNDTRIP
360
3601
  0
DICTIONARY
  5
3604
330
35A2
100
AcDbDictionary
280
     1
281
     1
  3
ACAD_XREC_ROUNDTRIP
360
3605
  0
DICTIONARY
  5
361E
330
35AF
100
AcDbDictionary
280
     1
281
     1
  3
ACAD_XREC_ROUNDTRIP
360
361F
  0
DICTIONARY
  5
360C
330
35A6
100
AcDbDictionary
280
     1
281
     1
  3
ACAD_XREC_ROUNDTRIP
360
360D
  0
DICTIONARY
  5
35F0
330
3598
100
AcDbDictionary
280
     1
281
     1
  3
ACAD_XREC_ROUNDTRIP
360
35F1
  0
DICTIONARY
  5
35F2
330
3599
100
AcDbDictionary
280
     1
281
     1
  3
ACAD_XREC_ROUNDTRIP
360
35F3
  0
DICTIONARY
  5
35F4
330
359A
100
AcDbDictionary
280
     1
281
     1
  3
ACAD_XREC_ROUNDTRIP
360
35F5
  0
DICTIONARY
  5
35F6
330
359B
100
AcDbDictionary
280
     1
281
     1
  3
ACAD_XREC_ROUNDTRIP
360
35F7
  0
DICTIONARY
  5
35FE
330
359F
100
AcDbDictionary
280
     1
281
     1
  3
ACAD_XREC_ROUNDTRIP
360
35FF
  0
DICTIONARY
  5
361A
330
35AD
100
AcDbDictionary
280
     1
281
     1
  3
ACAD_XREC_ROUNDTRIP
360
361B
  0
DICTIONARY
  5
360A
330
35A5
100
AcDbDictionary
280
     1
281
     1
  3
ACAD_XREC_ROUNDTRIP
360
360B
  0
DICTIONARY
  5
361C
330
35AE
100
AcDbDictionary
280
     1
281
     1
  3
ACAD_XREC_ROUNDTRIP
360
361D
  0
DICTIONARY
  5
3602
330
35A1
100
AcDbDictionary
280
     1
281
     1
  3
ACAD_XREC_ROUNDTRIP
360
3603
  0
DICTIONARY
  5
3618
330
35AC
100
AcDbDictionary
280
     1
281
     1
  3
ACAD_XREC_ROUNDTRIP
360
3619
  0
DICTIONARY
  5
3616
330
35AB
100
AcDbDictionary
280
     1
281
     1
  3
ACAD_XREC_ROUNDTRIP
360
3617
  0
DICTIONARY
  5
3610
330
35A8
100
AcDbDictionary
280
     1
281
     1
  3
ACAD_XREC_ROUNDTRIP
360
3611
  0
DICTIONARY
  5
3612
330
35A9
100
AcDbDictionary
280
     1
281
     1
  3
ACAD_XREC_ROUNDTRIP
360
3613
  0
DICTIONARY
  5
3608
330
35A4
100
AcDbDictionary
280
     1
281
     1
  3
ACAD_XREC_ROUNDTRIP
360
3609
  0
DICTIONARY
  5
35FC
330
359E
100
AcDbDictionary
280
     1
281
     1
  3
ACAD_XREC_ROUNDTRIP
360
35FD
  0
DICTIONARY
  5
3614
330
35AA
100
AcDbDictionary
280
     1
281
     1
  3
ACAD_XREC_ROUNDTRIP
360
3615
  0
XRECORD
  5
3625
102
{ACAD_REACTORS
330
3624
102
}
330
3624
100
AcDbXrecord
280
     1
102
DISPLAYNAME
  1
Imperial24
102
FLAGS
 90
        0
  0
XRECORD
  5
3627
102
{ACAD_REACTORS
330
3626
102
}
330
3626
100
AcDbXrecord
280
     1
102
SHADEPLOT
 70
     0
102
SHADEPLOTRESLEVEL
 70
     2
102
SHADEPLOTCUSTOMDPI
 70
   300
  0
XRECORD
  5
3629
102
{ACAD_REACTORS
330
3628
102
}
330
3628
100
AcDbXrecord
280
     1
102
SHADEPLOT
 70
     0
102
SHADEPLOTRESLEVEL
 70
     2
102
SHADEPLOTCUSTOMDPI
 70
   300
  0
XRECORD
  5
35EE
102
{ACAD_REACTORS
330
3588
102
}
330
3588
100
AcDbXrecord
280
     1
102
MATERIAL
148
0.0
149
0.0
149
0.0
 93
        0
 94
      127
282
     0
 72
     0
 77
     0
171
     0
175
     0
179
     0
273
     0
  0
XRECORD
  5
358A
102
{ACAD_REACTORS
330
3588
102
}
330
3588
100
AcDbXrecord
280
     1
270
     1
271
     1
  0
XRECORD
  5
3589
102
{ACAD_REACTORS
330
3588
102
}
330
3588
100
AcDbXrecord
280
     1
270
     1
271
     1
  0
XRECORD
  5
358D
102
{ACAD_REACTORS
330
3588
102
}
330
3588
100
AcDbXrecord
280
     1
270
     1
271
     1
  0
XRECORD
  5
358C
102
{ACAD_REACTORS
330
3588
102
}
330
3588
100
AcDbXrecord
280
     1
270
     1
271
     1
  0
XRECORD
  5
358E
102
{ACAD_REACTORS
330
3588
102
}
330
3588
100
AcDbXrecord
280
     1
270
     1
271
     1
  0
XRECORD
  5
358B
102
{ACAD_REACTORS
330
3588
102
}
330
3588
100
AcDbXrecord
280
     1
270
     1
271
     1
  0
XRECORD
  5
35ED
102
{ACAD_REACTORS
330
3580
102
}
330
3580
100
AcDbXrecord
280
     1
102
MATERIAL
148
0.0
149
0.0
149
0.0
 93
        0
 94
      127
282
     0
 72
     0
 77
     0
171
     0
175
     0
179
     0
273
     0
  0
XRECORD
  5
3582
102
{ACAD_REACTORS
330
3580
102
}
330
3580
100
AcDbXrecord
280
     1
270
     1
271
     1
  0
XRECORD
  5
3581
102
{ACAD_REACTORS
330
3580
102
}
330
3580
100
AcDbXrecord
280
     1
270
     1
271
     1
  0
XRECORD
  5
3585
102
{ACAD_REACTORS
330
3580
102
}
330
3580
100
AcDbXrecord
280
     1
270
     1
271
     1
  0
XRECORD
  5
3584
102
{ACAD_REACTORS
330
3580
102
}
330
3580
100
AcDbXrecord
280
     1
270
     1
271
     1
  0
XRECORD
  5
3586
102
{ACAD_REACTORS
330
3580
102
}
330
3580
100
AcDbXrecord
280
     1
270
     1
271
     1
  0
XRECORD
  5
3583
102
{ACAD_REACTORS
330
3580
102
}
330
3580
100
AcDbXrecord
280
     1
270
     1
271
     1
  0
XRECORD
  5
35EF
102
{ACAD_REACTORS
330
3590
102
}
330
3590
100
AcDbXrecord
280
     1
102
MATERIAL
148
0.0
149
0.0
149
0.0
 93
        0
 94
      127
282
     0
 72
     0
 77
     0
171
     0
175
     0
179
     0
273
     0
  0
XRECORD
  5
3592
102
{ACAD_REACTORS
330
3590
102
}
330
3590
100
AcDbXrecord
280
     1
270
     1
271
     1
  0
XRECORD
  5
3591
102
{ACAD_REACTORS
330
3590
102
}
330
3590
100
AcDbXrecord
280
     1
270
     1
271
     1
  0
XRECORD
  5
3595
102
{ACAD_REACTORS
330
3590
102
}
330
3590
100
AcDbXrecord
280
     1
270
     1
271
     1
  0
XRECORD
  5
3594
102
{ACAD_REACTORS
330
3590
102
}
330
3590
100
AcDbXrecord
280
     1
270
     1
271
     1
  0
XRECORD
  5
3596
102
{ACAD_REACTORS
330
3590
102
}
330
3590
100
AcDbXrecord
280
     1
270
     1
271
     1
  0
XRECORD
  5
3593
102
{ACAD_REACTORS
330
3590
102
}
330
3590
100
AcDbXrecord
280
     1
270
     1
271
     1
  0
XRECORD
  5
3623
102
{ACAD_REACTORS
330
3622
102
}
330
3622
100
AcDbXrecord
280
     1
102
DISPLAYNAME
  1
Imperial24
102
FLAGS
 90
        0
  0
CELLSTYLEMAP
  5
35EA
102
{ACAD_REACTORS
330
35E9
102
}
330
35E9
100
AcDbCellStyleMap
 90
        3
300
CELLSTYLE
  1
TABLEFORMAT_BEGIN
 90
        5
170
     1
 91
        0
 92
    32768
 62
   257
 93
        1
300
CONTENTFORMAT
  1
CONTENTFORMAT_BEGIN
 90
        0
 91
        0
 92
      512
 93
        0
300

 40
0.0
140
1.0
 94
        5
 62
     0
340
F
144
0.25
309
CONTENTFORMAT_END
171
     0
 94
        0
309
TABLEFORMAT_END
  1
CELLSTYLE_BEGIN
 90
        1
 91
        1
300
_TITLE
309
CELLSTYLE_END
300
CELLSTYLE
  1
TABLEFORMAT_BEGIN
 90
        5
170
     1
 91
        0
 92
        0
 62
   257
 93
        1
300
CONTENTFORMAT
  1
CONTENTFORMAT_BEGIN
 90
        0
 91
        0
 92
      512
 93
        0
300

 40
0.0
140
1.0
 94
        5
 62
     0
340
F
144
0.18
309
CONTENTFORMAT_END
171
     0
 94
        0
309
TABLEFORMAT_END
  1
CELLSTYLE_BEGIN
 90
        2
 91
        1
300
_HEADER
309
CELLSTYLE_END
300
CELLSTYLE
  1
TABLEFORMAT_BEGIN
 90
        5
170
     1
 91
        0
 92
        0
 62
   257
 93
        1
300
CONTENTFORMAT
  1
CONTENTFORMAT_BEGIN
 90
        0
 91
        0
 92
      512
 93
        0
300

 40
0.0
140
1.0
 94
        2
 62
     0
340
F
144
0.18
309
CONTENTFORMAT_END
171
     0
 94
        0
309
TABLEFORMAT_END
  1
CELLSTYLE_BEGIN
 90
        3
 91
        2
300
_DATA
309
CELLSTYLE_END
  0
XRECORD
  5
3620
102
{ACAD_REACTORS
330
35E9
102
}
330
35E9
100
AcDbXrecord
280
     1
102
ACAD_ROUNDTRIP_PRE2007_TABLESTYLE
 90
      512
 91
        0
  1

 92
      512
 93
        0
  2

 94
      512
 95
        0
  3

  0
XRECORD
  5
35FB
102
{ACAD_REACTORS
330
35FA
102
}
330
35FA
100
AcDbXrecord
280
     1
102
RTVSPost2010Prop28
280
     1
102
RTVSPost2010PropOp28
 70
     1
102
RTVSPost2010Prop29
280
     1
102
RTVSPost2010PropOp29
 70
     1
102
RTVSPost2010Prop30
280
     0
102
RTVSPost2010PropOp30
 70
     1
102
RTVSPost2010Prop31
280
     0
102
RTVSPost2010PropOp31
 70
     1
102
RTVSPost2010Prop32
280
     0
102
RTVSPost2010PropOp32
 70
     1
102
RTVSPost2010Prop33
280
     0
102
RTVSPost2010PropOp33
 70
     1
102
RTVSPost2010Prop34
280
     0
102
RTVSPost2010PropOp34
 70
     1
102
RTVSPost2010Prop35
280
     0
102
RTVSPost2010PropOp35
 70
     1
102
RTVSPost2010Prop36
280
     0
102
RTVSPost2010PropOp36
 70
     1
102
RTVSPost2010Prop37
 90
       50
102
RTVSPost2010PropOp37
 70
     1
102
RTVSPost2010Prop38
140
0.0
102
RTVSPost2010PropOp38
 70
     1
102
RTVSPost2010Prop39
140
1.0
102
RTVSPost2010PropOp39
 70
     1
102
RTVSPost2010Prop40
 90
        0
102
RTVSPost2010PropOp40
 70
     1
102
RTVSPost2010Prop41ColorIndex
 90
       18
102
RTVSPost2010Prop41ColorRGB
 90
        0
102
RTVSPost2010PropOp41
 70
     1
102
RTVSPost2010Prop42
 90
       50
102
RTVSPost2010PropOp42
 70
     1
102
RTVSPost2010Prop43
 90
        3
102
RTVSPost2010PropOp43
 70
     1
102
RTVSPost2010Prop44ColorIndex
 90
        5
102
RTVSPost2010Prop44ColorRGB
 90
      255
102
RTVSPost2010PropOp44
 70
     1
102
RTVSPost2010Prop45
280
     0
102
RTVSPost2010PropOp45
 70
     1
102
RTVSPost2010Prop46
 90
       50
102
RTVSPost2010PropOp46
 70
     1
102
RTVSPost2010Prop47
 90
       50
102
RTVSPost2010PropOp47
 70
     1
102
RTVSPost2010Prop48
 90
       50
102
RTVSPost2010PropOp48
 70
     1
102
RTVSPost2010Prop49
280
     0
102
RTVSPost2010PropOp49
 70
     1
102
RTVSPost2010Prop50
 90
       50
102
RTVSPost2010PropOp50
 70
     1
102
RTVSPost2010Prop51ColorIndex
 90
      256
102
RTVSPost2010Prop51ColorRGB
 90
-16777216
102
RTVSPost2010PropOp51
 70
     0
102
RTVSPost2010Prop52
140
1.0
102
RTVSPost2010PropOp52
 70
     0
102
RTVSPost2010Prop53
 90
        2
102
RTVSPost2010PropOp53
 70
     1
102
RTVSPost2010Prop54
  1
strokes_ogs.tif
102
RTVSPost2010PropOp54
 70
     1
102
RTVSPost2010Prop55
280
     0
102
RTVSPost2010PropOp55
 70
     1
102
RTVSPost2010Prop56
140
1.0
102
RTVSPost2010PropOp56
 70
     1
102
RTVSPost2010Prop57
140
1.0
102
RTVSPost2010PropOp57
 70
     1
102
RTVSPropertyOp0
 70
     1
102
RTVSPropertyOp1
 70
     1
102
RTVSPropertyOp2
 70
     1
102
RTVSPropertyOp3
 70
     1
102
RTVSPropertyOp4
 70
     1
102
RTVSPropertyOp5
 70
     1
102
RTVSPropertyOp6
 70
     1
102
RTVSPropertyOp7
 70
     1
102
RTVSPropertyOp8
 70
     1
102
RTVSPropertyOp9
 70
     1
102
RTVSPropertyOp10
 70
     1
102
RTVSPropertyOp11
 70
     1
102
RTVSPropertyOp12
 70
     1
102
RTVSPropertyOp13
 70
     1
102
RTVSPropertyOp14
 70
     1
102
RTVSPropertyOp15
 70
     1
102
RTVSPropertyOp16
 70
     1
102
RTVSPropertyOp17
 70
     1
102
RTVSPropertyOp18
 70
     1
102
RTVSPropertyOp19
 70
     1
102
RTVSPropertyOp20
 70
     1
102
RTVSPropertyOp21
 70
     1
102
RTVSPropertyOp22
 70
     1
102
RTVSPropertyOp23
 70
     1
102
RTVSPropertyOp24
 70
     1
102
RTVSPropertyOp25
 70
     1
102
RTVSPropertyOp26
 70
     1
102
RTVSPropertyOp27
 70
     1
102
RTVSPropertyOp28
 70
     1
102
RTVSPropertyOp29
 70
     1
102
RTVSPropertyOp30
 70
     1
102
RTVSPropertyOp31
 70
     1
102
RTVSPropertyOp32
 70
     1
102
RTVSPropertyOp33
 70
     1
102
RTVSPropertyOp34
 70
     1
102
RTVSPropertyOp35
 70
     1
102
RTVSPropertyOp36
 70
     1
102
RTVSPropertyOp37
 70
     1
102
RTVSPropertyOp38
 70
     1
102
RTVSPropertyOp39
 70
     1
102
RTVSPropertyOp40
 70
     1
102
RTVSPropertyOp41
 70
     1
102
RTVSPropertyOp42
 70
     1
102
RTVSPropertyOp43
 70
     1
102
RTVSPropertyOp44
 70
     1
102
RTVSPropertyOp45
 70
     1
102
RTVSPropertyOp46
 70
     1
102
RTVSPropertyOp47
 70
     1
102
RTVSPropertyOp48
 70
     1
102
RTVSPropertyOp49
 70
     1
102
RTVSPropertyOp50
 70
     1
102
RTVSPropertyOp51
 70
     0
102
RTVSPropertyOp52
 70
     0
102
RTVSPropertyOp53
 70
     1
102
RTVSPropertyOp54
 70
     1
102
RTVSPropertyOp55
 70
     1
102
RTVSPropertyOp56
 70
     1
102
RTVSPropertyOp57
 70
     1
102
RTVSPropertyOp58
 70
     1
102
RTVSPropertyOp59
 70
     1
102
RTVSPropertyOp60
 70
     1
102
RTVSPropertyOp61
 70
     1
102
RTVSPropertyOp62
 70
     1
  0
XRECORD
  5
35F9
102
{ACAD_REACTORS
330
35F8
102
}
330
35F8
100
AcDbXrecord
280
     1
102
RTVSPost2010Prop28
280
     0
102
RTVSPost2010PropOp28
 70
     1
102
RTVSPost2010Prop29
280
     1
102
RTVSPost2010PropOp29
 70
     1
102
RTVSPost2010Prop30
280
     1
102
RTVSPost2010PropOp30
 70
     1
102
RTVSPost2010Prop31
280
     0
102
RTVSPost2010PropOp31
 70
     1
102
RTVSPost2010Prop32
280
     0
102
RTVSPost2010PropOp32
 70
     1
102
RTVSPost2010Prop33
280
     0
102
RTVSPost2010PropOp33
 70
     1
102
RTVSPost2010Prop34
280
     0
102
RTVSPost2010PropOp34
 70
     1
102
RTVSPost2010Prop35
280
     0
102
RTVSPost2010PropOp35
 70
     1
102
RTVSPost2010Prop36
280
     0
102
RTVSPost2010PropOp36
 70
     1
102
RTVSPost2010Prop37
 90
       50
102
RTVSPost2010PropOp37
 70
     1
102
RTVSPost2010Prop38
140
0.0
102
RTVSPost2010PropOp38
 70
     1
102
RTVSPost2010Prop39
140
1.0
102
RTVSPost2010PropOp39
 70
     1
102
RTVSPost2010Prop40
 90
        0
102
RTVSPost2010PropOp40
 70
     1
102
RTVSPost2010Prop41ColorIndex
 90
       18
102
RTVSPost2010Prop41ColorRGB
 90
        0
102
RTVSPost2010PropOp41
 70
     1
102
RTVSPost2010Prop42
 90
       50
102
RTVSPost2010PropOp42
 70
     1
102
RTVSPost2010Prop43
 90
        3
102
RTVSPost2010PropOp43
 70
     1
102
RTVSPost2010Prop44ColorIndex
 90
        5
102
RTVSPost2010Prop44ColorRGB
 90
      255
102
RTVSPost2010PropOp44
 70
     1
102
RTVSPost2010Prop45
280
     0
102
RTVSPost2010PropOp45
 70
     1
102
RTVSPost2010Prop46
 90
       50
102
RTVSPost2010PropOp46
 70
     1
102
RTVSPost2010Prop47
 90
       50
102
RTVSPost2010PropOp47
 70
     1
102
RTVSPost2010Prop48
 90
       50
102
RTVSPost2010PropOp48
 70
     1
102
RTVSPost2010Prop49
280
     0
102
RTVSPost2010PropOp49
 70
     1
102
RTVSPost2010Prop50
 90
       50
102
RTVSPost2010PropOp50
 70
     1
102
RTVSPost2010Prop51ColorIndex
 90
      256
102
RTVSPost2010Prop51ColorRGB
 90
-16777216
102
RTVSPost2010PropOp51
 70
     0
102
RTVSPost2010Prop52
140
1.0
102
RTVSPost2010PropOp52
 70
     0
102
RTVSPost2010Prop53
 90
        2
102
RTVSPost2010PropOp53
 70
     1
102
RTVSPost2010Prop54
  1
strokes_ogs.tif
102
RTVSPost2010PropOp54
 70
     1
102
RTVSPost2010Prop55
280
     0
102
RTVSPost2010PropOp55
 70
     1
102
RTVSPost2010Prop56
140
1.0
102
RTVSPost2010PropOp56
 70
     1
102
RTVSPost2010Prop57
140
1.0
102
RTVSPost2010PropOp57
 70
     1
102
RTVSPropertyOp0
 70
     1
102
RTVSPropertyOp1
 70
     1
102
RTVSPropertyOp2
 70
     1
102
RTVSPropertyOp3
 70
     1
102
RTVSPropertyOp4
 70
     1
102
RTVSPropertyOp5
 70
     1
102
RTVSPropertyOp6
 70
     1
102
RTVSPropertyOp7
 70
     1
102
RTVSPropertyOp8
 70
     1
102
RTVSPropertyOp9
 70
     1
102
RTVSPropertyOp10
 70
     1
102
RTVSPropertyOp11
 70
     1
102
RTVSPropertyOp12
 70
     1
102
RTVSPropertyOp13
 70
     1
102
RTVSPropertyOp14
 70
     1
102
RTVSPropertyOp15
 70
     1
102
RTVSPropertyOp16
 70
     1
102
RTVSPropertyOp17
 70
     1
102
RTVSPropertyOp18
 70
     1
102
RTVSPropertyOp19
 70
     1
102
RTVSPropertyOp20
 70
     1
102
RTVSPropertyOp21
 70
     1
102
RTVSPropertyOp22
 70
     1
102
RTVSPropertyOp23
 70
     1
102
RTVSPropertyOp24
 70
     1
102
RTVSPropertyOp25
 70
     1
102
RTVSPropertyOp26
 70
     1
102
RTVSPropertyOp27
 70
     1
102
RTVSPropertyOp28
 70
     1
102
RTVSPropertyOp29
 70
     1
102
RTVSPropertyOp30
 70
     1
102
RTVSPropertyOp31
 70
     1
102
RTVSPropertyOp32
 70
     1
102
RTVSPropertyOp33
 70
     1
102
RTVSPropertyOp34
 70
     1
102
RTVSPropertyOp35
 70
     1
102
RTVSPropertyOp36
 70
     1
102
RTVSPropertyOp37
 70
     1
102
RTVSPropertyOp38
 70
     1
102
RTVSPropertyOp39
 70
     1
102
RTVSPropertyOp40
 70
     1
102
RTVSPropertyOp41
 70
     1
102
RTVSPropertyOp42
 70
     1
102
RTVSPropertyOp43
 70
     1
102
RTVSPropertyOp44
 70
     1
102
RTVSPropertyOp45
 70
     1
102
RTVSPropertyOp46
 70
     1
102
RTVSPropertyOp47
 70
     1
102
RTVSPropertyOp48
 70
     1
102
RTVSPropertyOp49
 70
     1
102
RTVSPropertyOp50
 70
     1
102
RTVSPropertyOp51
 70
     0
102
RTVSPropertyOp52
 70
     0
102
RTVSPropertyOp53
 70
     1
102
RTVSPropertyOp54
 70
     1
102
RTVSPropertyOp55
 70
     1
102
RTVSPropertyOp56
 70
     1
102
RTVSPropertyOp57
 70
     1
102
RTVSPropertyOp58
 70
     1
102
RTVSPropertyOp59
 70
     1
102
RTVSPropertyOp60
 70
     1
102
RTVSPropertyOp61
 70
     1
102
RTVSPropertyOp62
 70
     1
  0
XRECORD
  5
3607
102
{ACAD_REACTORS
330
3606
102
}
330
3606
100
AcDbXrecord
280
     1
102
RTVSPost2010Prop28
280
     0
102
RTVSPost2010PropOp28
 70
     1
102
RTVSPost2010Prop29
280
     1
102
RTVSPost2010PropOp29
 70
     1
102
RTVSPost2010Prop30
280
     1
102
RTVSPost2010PropOp30
 70
     1
102
RTVSPost2010Prop31
280
     0
102
RTVSPost2010PropOp31
 70
     1
102
RTVSPost2010Prop32
280
     0
102
RTVSPost2010PropOp32
 70
     1
102
RTVSPost2010Prop33
280
     0
102
RTVSPost2010PropOp33
 70
     1
102
RTVSPost2010Prop34
280
     0
102
RTVSPost2010PropOp34
 70
     1
102
RTVSPost2010Prop35
280
     0
102
RTVSPost2010PropOp35
 70
     1
102
RTVSPost2010Prop36
280
     0
102
RTVSPost2010PropOp36
 70
     1
102
RTVSPost2010Prop37
 90
       50
102
RTVSPost2010PropOp37
 70
     1
102
RTVSPost2010Prop38
140
0.0
102
RTVSPost2010PropOp38
 70
     1
102
RTVSPost2010Prop39
140
1.0
102
RTVSPost2010PropOp39
 70
     1
102
RTVSPost2010Prop40
 90
        0
102
RTVSPost2010PropOp40
 70
     1
102
RTVSPost2010Prop41ColorIndex
 90
       18
102
RTVSPost2010Prop41ColorRGB
 90
        0
102
RTVSPost2010PropOp41
 70
     1
102
RTVSPost2010Prop42
 90
       50
102
RTVSPost2010PropOp42
 70
     1
102
RTVSPost2010Prop43
 90
        3
102
RTVSPost2010PropOp43
 70
     1
102
RTVSPost2010Prop44ColorIndex
 90
        5
102
RTVSPost2010Prop44ColorRGB
 90
      255
102
RTVSPost2010PropOp44
 70
     1
102
RTVSPost2010Prop45
280
     0
102
RTVSPost2010PropOp45
 70
     1
102
RTVSPost2010Prop46
 90
       50
102
RTVSPost2010PropOp46
 70
     1
102
RTVSPost2010Prop47
 90
       50
102
RTVSPost2010PropOp47
 70
     1
102
RTVSPost2010Prop48
 90
       50
102
RTVSPost2010PropOp48
 70
     1
102
RTVSPost2010Prop49
280
     0
102
RTVSPost2010PropOp49
 70
     1
102
RTVSPost2010Prop50
 90
       50
102
RTVSPost2010PropOp50
 70
     1
102
RTVSPost2010Prop51ColorIndex
 90
      256
102
RTVSPost2010Prop51ColorRGB
 90
-16777216
102
RTVSPost2010PropOp51
 70
     0
102
RTVSPost2010Prop52
140
1.0
102
RTVSPost2010PropOp52
 70
     0
102
RTVSPost2010Prop53
 90
        2
102
RTVSPost2010PropOp53
 70
     1
102
RTVSPost2010Prop54
  1
strokes_ogs.tif
102
RTVSPost2010PropOp54
 70
     1
102
RTVSPost2010Prop55
280
     0
102
RTVSPost2010PropOp55
 70
     1
102
RTVSPost2010Prop56
140
1.0
102
RTVSPost2010PropOp56
 70
     1
102
RTVSPost2010Prop57
140
1.0
102
RTVSPost2010PropOp57
 70
     1
102
RTVSPropertyOp0
 70
     1
102
RTVSPropertyOp1
 70
     1
102
RTVSPropertyOp2
 70
     1
102
RTVSPropertyOp3
 70
     1
102
RTVSPropertyOp4
 70
     1
102
RTVSPropertyOp5
 70
     1
102
RTVSPropertyOp6
 70
     1
102
RTVSPropertyOp7
 70
     1
102
RTVSPropertyOp8
 70
     1
102
RTVSPropertyOp9
 70
     1
102
RTVSPropertyOp10
 70
     1
102
RTVSPropertyOp11
 70
     1
102
RTVSPropertyOp12
 70
     1
102
RTVSPropertyOp13
 70
     1
102
RTVSPropertyOp14
 70
     1
102
RTVSPropertyOp15
 70
     1
102
RTVSPropertyOp16
 70
     1
102
RTVSPropertyOp17
 70
     1
102
RTVSPropertyOp18
 70
     1
102
RTVSPropertyOp19
 70
     1
102
RTVSPropertyOp20
 70
     1
102
RTVSPropertyOp21
 70
     1
102
RTVSPropertyOp22
 70
     1
102
RTVSPropertyOp23
 70
     1
102
RTVSPropertyOp24
 70
     1
102
RTVSPropertyOp25
 70
     1
102
RTVSPropertyOp26
 70
     1
102
RTVSPropertyOp27
 70
     1
102
RTVSPropertyOp28
 70
     1
102
RTVSPropertyOp29
 70
     1
102
RTVSPropertyOp30
 70
     1
102
RTVSPropertyOp31
 70
     1
102
RTVSPropertyOp32
 70
     1
102
RTVSPropertyOp33
 70
     1
102
RTVSPropertyOp34
 70
     1
102
RTVSPropertyOp35
 70
     1
102
RTVSPropertyOp36
 70
     1
102
RTVSPropertyOp37
 70
     1
102
RTVSPropertyOp38
 70
     1
102
RTVSPropertyOp39
 70
     1
102
RTVSPropertyOp40
 70
     1
102
RTVSPropertyOp41
 70
     1
102
RTVSPropertyOp42
 70
     1
102
RTVSPropertyOp43
 70
     1
102
RTVSPropertyOp44
 70
     1
102
RTVSPropertyOp45
 70
     1
102
RTVSPropertyOp46
 70
     1
102
RTVSPropertyOp47
 70
     1
102
RTVSPropertyOp48
 70
     1
102
RTVSPropertyOp49
 70
     1
102
RTVSPropertyOp50
 70
     1
102
RTVSPropertyOp51
 70
     0
102
RTVSPropertyOp52
 70
     0
102
RTVSPropertyOp53
 70
     1
102
RTVSPropertyOp54
 70
     1
102
RTVSPropertyOp55
 70
     1
102
RTVSPropertyOp56
 70
     1
102
RTVSPropertyOp57
 70
     1
102
RTVSPropertyOp58
 70
     1
102
RTVSPropertyOp59
 70
     1
102
RTVSPropertyOp60
 70
     1
102
RTVSPropertyOp61
 70
     1
102
RTVSPropertyOp62
 70
     1
  0
XRECORD
  5
360F
102
{ACAD_REACTORS
330
360E
102
}
330
360E
100
AcDbXrecord
280
     1
102
RTVSPost2010Prop28
280
     0
102
RTVSPost2010PropOp28
 70
     1
102
RTVSPost2010Prop29
280
     1
102
RTVSPost2010PropOp29
 70
     1
102
RTVSPost2010Prop30
280
     1
102
RTVSPost2010PropOp30
 70
     1
102
RTVSPost2010Prop31
280
     0
102
RTVSPost2010PropOp31
 70
     1
102
RTVSPost2010Prop32
280
     0
102
RTVSPost2010PropOp32
 70
     1
102
RTVSPost2010Prop33
280
     0
102
RTVSPost2010PropOp33
 70
     1
102
RTVSPost2010Prop34
280
     0
102
RTVSPost2010PropOp34
 70
     1
102
RTVSPost2010Prop35
280
     0
102
RTVSPost2010PropOp35
 70
     1
102
RTVSPost2010Prop36
280
     0
102
RTVSPost2010PropOp36
 70
     1
102
RTVSPost2010Prop37
 90
       50
102
RTVSPost2010PropOp37
 70
     1
102
RTVSPost2010Prop38
140
0.0
102
RTVSPost2010PropOp38
 70
     1
102
RTVSPost2010Prop39
140
1.0
102
RTVSPost2010PropOp39
 70
     1
102
RTVSPost2010Prop40
 90
        0
102
RTVSPost2010PropOp40
 70
     1
102
RTVSPost2010Prop41ColorIndex
 90
       18
102
RTVSPost2010Prop41ColorRGB
 90
        0
102
RTVSPost2010PropOp41
 70
     1
102
RTVSPost2010Prop42
 90
       50
102
RTVSPost2010PropOp42
 70
     1
102
RTVSPost2010Prop43
 90
        3
102
RTVSPost2010PropOp43
 70
     1
102
RTVSPost2010Prop44ColorIndex
 90
        5
102
RTVSPost2010Prop44ColorRGB
 90
      255
102
RTVSPost2010PropOp44
 70
     1
102
RTVSPost2010Prop45
280
     0
102
RTVSPost2010PropOp45
 70
     1
102
RTVSPost2010Prop46
 90
       50
102
RTVSPost2010PropOp46
 70
     1
102
RTVSPost2010Prop47
 90
       50
102
RTVSPost2010PropOp47
 70
     1
102
RTVSPost2010Prop48
 90
       50
102
RTVSPost2010PropOp48
 70
     1
102
RTVSPost2010Prop49
280
     0
102
RTVSPost2010PropOp49
 70
     1
102
RTVSPost2010Prop50
 90
       50
102
RTVSPost2010PropOp50
 70
     1
102
RTVSPost2010Prop51ColorIndex
 90
      256
102
RTVSPost2010Prop51ColorRGB
 90
-16777216
102
RTVSPost2010PropOp51
 70
     0
102
RTVSPost2010Prop52
140
1.0
102
RTVSPost2010PropOp52
 70
     0
102
RTVSPost2010Prop53
 90
        2
102
RTVSPost2010PropOp53
 70
     1
102
RTVSPost2010Prop54
  1
strokes_ogs.tif
102
RTVSPost2010PropOp54
 70
     1
102
RTVSPost2010Prop55
280
     0
102
RTVSPost2010PropOp55
 70
     1
102
RTVSPost2010Prop56
140
1.0
102
RTVSPost2010PropOp56
 70
     1
102
RTVSPost2010Prop57
140
1.0
102
RTVSPost2010PropOp57
 70
     1
102
RTVSPropertyOp0
 70
     1
102
RTVSPropertyOp1
 70
     1
102
RTVSPropertyOp2
 70
     1
102
RTVSPropertyOp3
 70
     1
102
RTVSPropertyOp4
 70
     1
102
RTVSPropertyOp5
 70
     1
102
RTVSPropertyOp6
 70
     1
102
RTVSPropertyOp7
 70
     1
102
RTVSPropertyOp8
 70
     1
102
RTVSPropertyOp9
 70
     1
102
RTVSPropertyOp10
 70
     1
102
RTVSPropertyOp11
 70
     1
102
RTVSPropertyOp12
 70
     1
102
RTVSPropertyOp13
 70
     1
102
RTVSPropertyOp14
 70
     1
102
RTVSPropertyOp15
 70
     1
102
RTVSPropertyOp16
 70
     1
102
RTVSPropertyOp17
 70
     1
102
RTVSPropertyOp18
 70
     1
102
RTVSPropertyOp19
 70
     1
102
RTVSPropertyOp20
 70
     1
102
RTVSPropertyOp21
 70
     1
102
RTVSPropertyOp22
 70
     1
102
RTVSPropertyOp23
 70
     1
102
RTVSPropertyOp24
 70
     1
102
RTVSPropertyOp25
 70
     1
102
RTVSPropertyOp26
 70
     1
102
RTVSPropertyOp27
 70
     1
102
RTVSPropertyOp28
 70
     1
102
RTVSPropertyOp29
 70
     1
102
RTVSPropertyOp30
 70
     1
102
RTVSPropertyOp31
 70
     1
102
RTVSPropertyOp32
 70
     1
102
RTVSPropertyOp33
 70
     1
102
RTVSPropertyOp34
 70
     1
102
RTVSPropertyOp35
 70
     1
102
RTVSPropertyOp36
 70
     1
102
RTVSPropertyOp37
 70
     1
102
RTVSPropertyOp38
 70
     1
102
RTVSPropertyOp39
 70
     1
102
RTVSPropertyOp40
 70
     1
102
RTVSPropertyOp41
 70
     1
102
RTVSPropertyOp42
 70
     1
102
RTVSPropertyOp43
 70
     1
102
RTVSPropertyOp44
 70
     1
102
RTVSPropertyOp45
 70
     1
102
RTVSPropertyOp46
 70
     1
102
RTVSPropertyOp47
 70
     1
102
RTVSPropertyOp48
 70
     1
102
RTVSPropertyOp49
 70
     1
102
RTVSPropertyOp50
 70
     1
102
RTVSPropertyOp51
 70
     0
102
RTVSPropertyOp52
 70
     0
102
RTVSPropertyOp53
 70
     1
102
RTVSPropertyOp54
 70
     1
102
RTVSPropertyOp55
 70
     1
102
RTVSPropertyOp56
 70
     1
102
RTVSPropertyOp57
 70
     1
102
RTVSPropertyOp58
 70
     1
102
RTVSPropertyOp59
 70
     1
102
RTVSPropertyOp60
 70
     1
102
RTVSPropertyOp61
 70
     1
102
RTVSPropertyOp62
 70
     1
  0
XRECORD
  5
3601
102
{ACAD_REACTORS
330
3600
102
}
330
3600
100
AcDbXrecord
280
     1
102
RTVSPost2010Prop28
280
     0
102
RTVSPost2010PropOp28
 70
     1
102
RTVSPost2010Prop29
280
     1
102
RTVSPost2010PropOp29
 70
     1
102
RTVSPost2010Prop30
280
     1
102
RTVSPost2010PropOp30
 70
     1
102
RTVSPost2010Prop31
280
     0
102
RTVSPost2010PropOp31
 70
     1
102
RTVSPost2010Prop32
280
     0
102
RTVSPost2010PropOp32
 70
     1
102
RTVSPost2010Prop33
280
     0
102
RTVSPost2010PropOp33
 70
     1
102
RTVSPost2010Prop34
280
     0
102
RTVSPost2010PropOp34
 70
     1
102
RTVSPost2010Prop35
280
     0
102
RTVSPost2010PropOp35
 70
     1
102
RTVSPost2010Prop36
280
     0
102
RTVSPost2010PropOp36
 70
     1
102
RTVSPost2010Prop37
 90
       50
102
RTVSPost2010PropOp37
 70
     1
102
RTVSPost2010Prop38
140
0.0
102
RTVSPost2010PropOp38
 70
     1
102
RTVSPost2010Prop39
140
1.0
102
RTVSPost2010PropOp39
 70
     1
102
RTVSPost2010Prop40
 90
        0
102
RTVSPost2010PropOp40
 70
     1
102
RTVSPost2010Prop41ColorIndex
 90
       18
102
RTVSPost2010Prop41ColorRGB
 90
        0
102
RTVSPost2010PropOp41
 70
     1
102
RTVSPost2010Prop42
 90
       50
102
RTVSPost2010PropOp42
 70
     1
102
RTVSPost2010Prop43
 90
        3
102
RTVSPost2010PropOp43
 70
     1
102
RTVSPost2010Prop44ColorIndex
 90
        5
102
RTVSPost2010Prop44ColorRGB
 90
      255
102
RTVSPost2010PropOp44
 70
     1
102
RTVSPost2010Prop45
280
     0
102
RTVSPost2010PropOp45
 70
     1
102
RTVSPost2010Prop46
 90
       50
102
RTVSPost2010PropOp46
 70
     1
102
RTVSPost2010Prop47
 90
       50
102
RTVSPost2010PropOp47
 70
     1
102
RTVSPost2010Prop48
 90
       50
102
RTVSPost2010PropOp48
 70
     1
102
RTVSPost2010Prop49
280
     0
102
RTVSPost2010PropOp49
 70
     1
102
RTVSPost2010Prop50
 90
       50
102
RTVSPost2010PropOp50
 70
     1
102
RTVSPost2010Prop51ColorIndex
 90
      256
102
RTVSPost2010Prop51ColorRGB
 90
-16777216
102
RTVSPost2010PropOp51
 70
     0
102
RTVSPost2010Prop52
140
1.0
102
RTVSPost2010PropOp52
 70
     0
102
RTVSPost2010Prop53
 90
        2
102
RTVSPost2010PropOp53
 70
     1
102
RTVSPost2010Prop54
  1
strokes_ogs.tif
102
RTVSPost2010PropOp54
 70
     1
102
RTVSPost2010Prop55
280
     0
102
RTVSPost2010PropOp55
 70
     1
102
RTVSPost2010Prop56
140
1.0
102
RTVSPost2010PropOp56
 70
     1
102
RTVSPost2010Prop57
140
1.0
102
RTVSPost2010PropOp57
 70
     1
102
RTVSPropertyOp0
 70
     1
102
RTVSPropertyOp1
 70
     1
102
RTVSPropertyOp2
 70
     1
102
RTVSPropertyOp3
 70
     1
102
RTVSPropertyOp4
 70
     1
102
RTVSPropertyOp5
 70
     1
102
RTVSPropertyOp6
 70
     1
102
RTVSPropertyOp7
 70
     1
102
RTVSPropertyOp8
 70
     1
102
RTVSPropertyOp9
 70
     1
102
RTVSPropertyOp10
 70
     1
102
RTVSPropertyOp11
 70
     1
102
RTVSPropertyOp12
 70
     1
102
RTVSPropertyOp13
 70
     1
102
RTVSPropertyOp14
 70
     1
102
RTVSPropertyOp15
 70
     1
102
RTVSPropertyOp16
 70
     1
102
RTVSPropertyOp17
 70
     1
102
RTVSPropertyOp18
 70
     1
102
RTVSPropertyOp19
 70
     1
102
RTVSPropertyOp20
 70
     1
102
RTVSPropertyOp21
 70
     1
102
RTVSPropertyOp22
 70
     1
102
RTVSPropertyOp23
 70
     1
102
RTVSPropertyOp24
 70
     1
102
RTVSPropertyOp25
 70
     1
102
RTVSPropertyOp26
 70
     1
102
RTVSPropertyOp27
 70
     1
102
RTVSPropertyOp28
 70
     1
102
RTVSPropertyOp29
 70
     1
102
RTVSPropertyOp30
 70
     1
102
RTVSPropertyOp31
 70
     1
102
RTVSPropertyOp32
 70
     1
102
RTVSPropertyOp33
 70
     1
102
RTVSPropertyOp34
 70
     1
102
RTVSPropertyOp35
 70
     1
102
RTVSPropertyOp36
 70
     1
102
RTVSPropertyOp37
 70
     1
102
RTVSPropertyOp38
 70
     1
102
RTVSPropertyOp39
 70
     1
102
RTVSPropertyOp40
 70
     1
102
RTVSPropertyOp41
 70
     1
102
RTVSPropertyOp42
 70
     1
102
RTVSPropertyOp43
 70
     1
102
RTVSPropertyOp44
 70
     1
102
RTVSPropertyOp45
 70
     1
102
RTVSPropertyOp46
 70
     1
102
RTVSPropertyOp47
 70
     1
102
RTVSPropertyOp48
 70
     1
102
RTVSPropertyOp49
 70
     1
102
RTVSPropertyOp50
 70
     1
102
RTVSPropertyOp51
 70
     0
102
RTVSPropertyOp52
 70
     0
102
RTVSPropertyOp53
 70
     1
102
RTVSPropertyOp54
 70
     1
102
RTVSPropertyOp55
 70
     1
102
RTVSPropertyOp56
 70
     1
102
RTVSPropertyOp57
 70
     1
102
RTVSPropertyOp58
 70
     1
102
RTVSPropertyOp59
 70
     1
102
RTVSPropertyOp60
 70
     1
102
RTVSPropertyOp61
 70
     1
102
RTVSPropertyOp62
 70
     1
  0
XRECORD
  5
3605
102
{ACAD_REACTORS
330
3604
102
}
330
3604
100
AcDbXrecord
280
     1
102
RTVSPost2010Prop28
280
     0
102
RTVSPost2010PropOp28
 70
     1
102
RTVSPost2010Prop29
280
     1
102
RTVSPost2010PropOp29
 70
     1
102
RTVSPost2010Prop30
280
     1
102
RTVSPost2010PropOp30
 70
     1
102
RTVSPost2010Prop31
280
     0
102
RTVSPost2010PropOp31
 70
     1
102
RTVSPost2010Prop32
280
     0
102
RTVSPost2010PropOp32
 70
     1
102
RTVSPost2010Prop33
280
     0
102
RTVSPost2010PropOp33
 70
     1
102
RTVSPost2010Prop34
280
     0
102
RTVSPost2010PropOp34
 70
     1
102
RTVSPost2010Prop35
280
     0
102
RTVSPost2010PropOp35
 70
     1
102
RTVSPost2010Prop36
280
     0
102
RTVSPost2010PropOp36
 70
     1
102
RTVSPost2010Prop37
 90
       50
102
RTVSPost2010PropOp37
 70
     1
102
RTVSPost2010Prop38
140
0.0
102
RTVSPost2010PropOp38
 70
     1
102
RTVSPost2010Prop39
140
1.0
102
RTVSPost2010PropOp39
 70
     1
102
RTVSPost2010Prop40
 90
        0
102
RTVSPost2010PropOp40
 70
     1
102
RTVSPost2010Prop41ColorIndex
 90
       18
102
RTVSPost2010Prop41ColorRGB
 90
        0
102
RTVSPost2010PropOp41
 70
     1
102
RTVSPost2010Prop42
 90
       50
102
RTVSPost2010PropOp42
 70
     1
102
RTVSPost2010Prop43
 90
        3
102
RTVSPost2010PropOp43
 70
     1
102
RTVSPost2010Prop44ColorIndex
 90
        5
102
RTVSPost2010Prop44ColorRGB
 90
      255
102
RTVSPost2010PropOp44
 70
     1
102
RTVSPost2010Prop45
280
     0
102
RTVSPost2010PropOp45
 70
     1
102
RTVSPost2010Prop46
 90
       50
102
RTVSPost2010PropOp46
 70
     1
102
RTVSPost2010Prop47
 90
       50
102
RTVSPost2010PropOp47
 70
     1
102
RTVSPost2010Prop48
 90
       50
102
RTVSPost2010PropOp48
 70
     1
102
RTVSPost2010Prop49
280
     0
102
RTVSPost2010PropOp49
 70
     1
102
RTVSPost2010Prop50
 90
       50
102
RTVSPost2010PropOp50
 70
     1
102
RTVSPost2010Prop51ColorIndex
 90
      256
102
RTVSPost2010Prop51ColorRGB
 90
-16777216
102
RTVSPost2010PropOp51
 70
     0
102
RTVSPost2010Prop52
140
1.0
102
RTVSPost2010PropOp52
 70
     0
102
RTVSPost2010Prop53
 90
        2
102
RTVSPost2010PropOp53
 70
     1
102
RTVSPost2010Prop54
  1
strokes_ogs.tif
102
RTVSPost2010PropOp54
 70
     1
102
RTVSPost2010Prop55
280
     0
102
RTVSPost2010PropOp55
 70
     1
102
RTVSPost2010Prop56
140
1.0
102
RTVSPost2010PropOp56
 70
     1
102
RTVSPost2010Prop57
140
1.0
102
RTVSPost2010PropOp57
 70
     1
102
RTVSPropertyOp0
 70
     1
102
RTVSPropertyOp1
 70
     1
102
RTVSPropertyOp2
 70
     1
102
RTVSPropertyOp3
 70
     1
102
RTVSPropertyOp4
 70
     1
102
RTVSPropertyOp5
 70
     1
102
RTVSPropertyOp6
 70
     1
102
RTVSPropertyOp7
 70
     1
102
RTVSPropertyOp8
 70
     1
102
RTVSPropertyOp9
 70
     1
102
RTVSPropertyOp10
 70
     1
102
RTVSPropertyOp11
 70
     1
102
RTVSPropertyOp12
 70
     1
102
RTVSPropertyOp13
 70
     1
102
RTVSPropertyOp14
 70
     1
102
RTVSPropertyOp15
 70
     1
102
RTVSPropertyOp16
 70
     1
102
RTVSPropertyOp17
 70
     1
102
RTVSPropertyOp18
 70
     1
102
RTVSPropertyOp19
 70
     1
102
RTVSPropertyOp20
 70
     1
102
RTVSPropertyOp21
 70
     1
102
RTVSPropertyOp22
 70
     1
102
RTVSPropertyOp23
 70
     1
102
RTVSPropertyOp24
 70
     1
102
RTVSPropertyOp25
 70
     1
102
RTVSPropertyOp26
 70
     1
102
RTVSPropertyOp27
 70
     1
102
RTVSPropertyOp28
 70
     1
102
RTVSPropertyOp29
 70
     1
102
RTVSPropertyOp30
 70
     1
102
RTVSPropertyOp31
 70
     1
102
RTVSPropertyOp32
 70
     1
102
RTVSPropertyOp33
 70
     1
102
RTVSPropertyOp34
 70
     1
102
RTVSPropertyOp35
 70
     1
102
RTVSPropertyOp36
 70
     1
102
RTVSPropertyOp37
 70
     1
102
RTVSPropertyOp38
 70
     1
102
RTVSPropertyOp39
 70
     1
102
RTVSPropertyOp40
 70
     1
102
RTVSPropertyOp41
 70
     1
102
RTVSPropertyOp42
 70
     1
102
RTVSPropertyOp43
 70
     1
102
RTVSPropertyOp44
 70
     1
102
RTVSPropertyOp45
 70
     1
102
RTVSPropertyOp46
 70
     1
102
RTVSPropertyOp47
 70
     1
102
RTVSPropertyOp48
 70
     1
102
RTVSPropertyOp49
 70
     1
102
RTVSPropertyOp50
 70
     1
102
RTVSPropertyOp51
 70
     0
102
RTVSPropertyOp52
 70
     0
102
RTVSPropertyOp53
 70
     1
102
RTVSPropertyOp54
 70
     1
102
RTVSPropertyOp55
 70
     1
102
RTVSPropertyOp56
 70
     1
102
RTVSPropertyOp57
 70
     1
102
RTVSPropertyOp58
 70
     1
102
RTVSPropertyOp59
 70
     1
102
RTVSPropertyOp60
 70
     1
102
RTVSPropertyOp61
 70
     1
102
RTVSPropertyOp62
 70
     1
  0
XRECORD
  5
361F
102
{ACAD_REACTORS
330
361E
102
}
330
361E
100
AcDbXrecord
280
     1
102
RTVSPost2010Prop28
280
     0
102
RTVSPost2010PropOp28
 70
     1
102
RTVSPost2010Prop29
280
     1
102
RTVSPost2010PropOp29
 70
     1
102
RTVSPost2010Prop30
280
     1
102
RTVSPost2010PropOp30
 70
     1
102
RTVSPost2010Prop31
280
     0
102
RTVSPost2010PropOp31
 70
     1
102
RTVSPost2010Prop32
280
     0
102
RTVSPost2010PropOp32
 70
     1
102
RTVSPost2010Prop33
280
     0
102
RTVSPost2010PropOp33
 70
     1
102
RTVSPost2010Prop34
280
     0
102
RTVSPost2010PropOp34
 70
     1
102
RTVSPost2010Prop35
280
     0
102
RTVSPost2010PropOp35
 70
     1
102
RTVSPost2010Prop36
280
     0
102
RTVSPost2010PropOp36
 70
     1
102
RTVSPost2010Prop37
 90
       50
102
RTVSPost2010PropOp37
 70
     0
102
RTVSPost2010Prop38
140
0.0
102
RTVSPost2010PropOp38
 70
     0
102
RTVSPost2010Prop39
140
1.0
102
RTVSPost2010PropOp39
 70
     0
102
RTVSPost2010Prop40
 90
        0
102
RTVSPost2010PropOp40
 70
     0
102
RTVSPost2010Prop41ColorIndex
 90
       18
102
RTVSPost2010Prop41ColorRGB
 90
        0
102
RTVSPost2010PropOp41
 70
     0
102
RTVSPost2010Prop42
 90
       50
102
RTVSPost2010PropOp42
 70
     0
102
RTVSPost2010Prop43
 90
        3
102
RTVSPost2010PropOp43
 70
     0
102
RTVSPost2010Prop44ColorIndex
 90
        5
102
RTVSPost2010Prop44ColorRGB
 90
      255
102
RTVSPost2010PropOp44
 70
     0
102
RTVSPost2010Prop45
280
     0
102
RTVSPost2010PropOp45
 70
     1
102
RTVSPost2010Prop46
 90
       50
102
RTVSPost2010PropOp46
 70
     0
102
RTVSPost2010Prop47
 90
       50
102
RTVSPost2010PropOp47
 70
     0
102
RTVSPost2010Prop48
 90
       50
102
RTVSPost2010PropOp48
 70
     0
102
RTVSPost2010Prop49
280
     0
102
RTVSPost2010PropOp49
 70
     1
102
RTVSPost2010Prop50
 90
       50
102
RTVSPost2010PropOp50
 70
     0
102
RTVSPost2010Prop51ColorIndex
 90
      256
102
RTVSPost2010Prop51ColorRGB
 90
-16777216
102
RTVSPost2010PropOp51
 70
     0
102
RTVSPost2010Prop52
140
1.0
102
RTVSPost2010PropOp52
 70
     0
102
RTVSPost2010Prop53
 90
        2
102
RTVSPost2010PropOp53
 70
     0
102
RTVSPost2010Prop54
  1
strokes_ogs.tif
102
RTVSPost2010PropOp54
 70
     0
102
RTVSPost2010Prop55
280
     0
102
RTVSPost2010PropOp55
 70
     1
102
RTVSPost2010Prop56
140
1.0
102
RTVSPost2010PropOp56
 70
     0
102
RTVSPost2010Prop57
140
1.0
102
RTVSPost2010PropOp57
 70
     0
102
RTVSPropertyOp0
 70
     0
102
RTVSPropertyOp1
 70
     0
102
RTVSPropertyOp2
 70
     0
102
RTVSPropertyOp3
 70
     0
102
RTVSPropertyOp4
 70
     0
102
RTVSPropertyOp5
 70
     0
102
RTVSPropertyOp6
 70
     0
102
RTVSPropertyOp7
 70
     0
102
RTVSPropertyOp8
 70
     0
102
RTVSPropertyOp9
 70
     0
102
RTVSPropertyOp10
 70
     0
102
RTVSPropertyOp11
 70
     0
102
RTVSPropertyOp12
 70
     0
102
RTVSPropertyOp13
 70
     0
102
RTVSPropertyOp14
 70
     2
102
RTVSPropertyOp15
 70
     0
102
RTVSPropertyOp16
 70
     0
102
RTVSPropertyOp17
 70
     0
102
RTVSPropertyOp18
 70
     0
102
RTVSPropertyOp19
 70
     0
102
RTVSPropertyOp20
 70
     0
102
RTVSPropertyOp21
 70
     0
102
RTVSPropertyOp22
 70
     0
102
RTVSPropertyOp23
 70
     0
102
RTVSPropertyOp24
 70
     0
102
RTVSPropertyOp25
 70
     0
102
RTVSPropertyOp26
 70
     0
102
RTVSPropertyOp27
 70
     0
102
RTVSPropertyOp28
 70
     1
102
RTVSPropertyOp29
 70
     1
102
RTVSPropertyOp30
 70
     1
102
RTVSPropertyOp31
 70
     1
102
RTVSPropertyOp32
 70
     1
102
RTVSPropertyOp33
 70
     1
102
RTVSPropertyOp34
 70
     1
102
RTVSPropertyOp35
 70
     1
102
RTVSPropertyOp36
 70
     1
102
RTVSPropertyOp37
 70
     0
102
RTVSPropertyOp38
 70
     0
102
RTVSPropertyOp39
 70
     0
102
RTVSPropertyOp40
 70
     0
102
RTVSPropertyOp41
 70
     0
102
RTVSPropertyOp42
 70
     0
102
RTVSPropertyOp43
 70
     0
102
RTVSPropertyOp44
 70
     0
102
RTVSPropertyOp45
 70
     1
102
RTVSPropertyOp46
 70
     0
102
RTVSPropertyOp47
 70
     0
102
RTVSPropertyOp48
 70
     0
102
RTVSPropertyOp49
 70
     1
102
RTVSPropertyOp50
 70
     0
102
RTVSPropertyOp51
 70
     0
102
RTVSPropertyOp52
 70
     0
102
RTVSPropertyOp53
 70
     0
102
RTVSPropertyOp54
 70
     0
102
RTVSPropertyOp55
 70
     1
102
RTVSPropertyOp56
 70
     0
102
RTVSPropertyOp57
 70
     0
102
RTVSPropertyOp58
 70
     0
102
RTVSPropertyOp59
 70
     0
102
RTVSPropertyOp60
 70
     0
102
RTVSPropertyOp61
 70
     0
102
RTVSPropertyOp62
 70
     0
  0
XRECORD
  5
360D
102
{ACAD_REACTORS
330
360C
102
}
330
360C
100
AcDbXrecord
280
     1
102
RTVSPost2010Prop28
280
     0
102
RTVSPost2010PropOp28
 70
     1
102
RTVSPost2010Prop29
280
     1
102
RTVSPost2010PropOp29
 70
     1
102
RTVSPost2010Prop30
280
     1
102
RTVSPost2010PropOp30
 70
     1
102
RTVSPost2010Prop31
280
     0
102
RTVSPost2010PropOp31
 70
     1
102
RTVSPost2010Prop32
280
     0
102
RTVSPost2010PropOp32
 70
     1
102
RTVSPost2010Prop33
280
     0
102
RTVSPost2010PropOp33
 70
     1
102
RTVSPost2010Prop34
280
     0
102
RTVSPost2010PropOp34
 70
     1
102
RTVSPost2010Prop35
280
     0
102
RTVSPost2010PropOp35
 70
     1
102
RTVSPost2010Prop36
280
     0
102
RTVSPost2010PropOp36
 70
     1
102
RTVSPost2010Prop37
 90
       50
102
RTVSPost2010PropOp37
 70
     1
102
RTVSPost2010Prop38
140
0.0
102
RTVSPost2010PropOp38
 70
     1
102
RTVSPost2010Prop39
140
1.0
102
RTVSPost2010PropOp39
 70
     1
102
RTVSPost2010Prop40
 90
        0
102
RTVSPost2010PropOp40
 70
     1
102
RTVSPost2010Prop41ColorIndex
 90
       18
102
RTVSPost2010Prop41ColorRGB
 90
        0
102
RTVSPost2010PropOp41
 70
     1
102
RTVSPost2010Prop42
 90
       50
102
RTVSPost2010PropOp42
 70
     1
102
RTVSPost2010Prop43
 90
        3
102
RTVSPost2010PropOp43
 70
     1
102
RTVSPost2010Prop44ColorIndex
 90
        5
102
RTVSPost2010Prop44ColorRGB
 90
      255
102
RTVSPost2010PropOp44
 70
     1
102
RTVSPost2010Prop45
280
     0
102
RTVSPost2010PropOp45
 70
     1
102
RTVSPost2010Prop46
 90
       50
102
RTVSPost2010PropOp46
 70
     1
102
RTVSPost2010Prop47
 90
       50
102
RTVSPost2010PropOp47
 70
     1
102
RTVSPost2010Prop48
 90
       50
102
RTVSPost2010PropOp48
 70
     1
102
RTVSPost2010Prop49
280
     0
102
RTVSPost2010PropOp49
 70
     1
102
RTVSPost2010Prop50
 90
       50
102
RTVSPost2010PropOp50
 70
     1
102
RTVSPost2010Prop51ColorIndex
 90
      256
102
RTVSPost2010Prop51ColorRGB
 90
-16777216
102
RTVSPost2010PropOp51
 70
     0
102
RTVSPost2010Prop52
140
1.0
102
RTVSPost2010PropOp52
 70
     0
102
RTVSPost2010Prop53
 90
        2
102
RTVSPost2010PropOp53
 70
     1
102
RTVSPost2010Prop54
  1
strokes_ogs.tif
102
RTVSPost2010PropOp54
 70
     1
102
RTVSPost2010Prop55
280
     0
102
RTVSPost2010PropOp55
 70
     1
102
RTVSPost2010Prop56
140
1.0
102
RTVSPost2010PropOp56
 70
     1
102
RTVSPost2010Prop57
140
1.0
102
RTVSPost2010PropOp57
 70
     1
102
RTVSPropertyOp0
 70
     1
102
RTVSPropertyOp1
 70
     1
102
RTVSPropertyOp2
 70
     1
102
RTVSPropertyOp3
 70
     1
102
RTVSPropertyOp4
 70
     1
102
RTVSPropertyOp5
 70
     1
102
RTVSPropertyOp6
 70
     1
102
RTVSPropertyOp7
 70
     1
102
RTVSPropertyOp8
 70
     1
102
RTVSPropertyOp9
 70
     1
102
RTVSPropertyOp10
 70
     1
102
RTVSPropertyOp11
 70
     1
102
RTVSPropertyOp12
 70
     1
102
RTVSPropertyOp13
 70
     1
102
RTVSPropertyOp14
 70
     1
102
RTVSPropertyOp15
 70
     1
102
RTVSPropertyOp16
 70
     1
102
RTVSPropertyOp17
 70
     1
102
RTVSPropertyOp18
 70
     1
102
RTVSPropertyOp19
 70
     1
102
RTVSPropertyOp20
 70
     1
102
RTVSPropertyOp21
 70
     1
102
RTVSPropertyOp22
 70
     1
102
RTVSPropertyOp23
 70
     1
102
RTVSPropertyOp24
 70
     1
102
RTVSPropertyOp25
 70
     1
102
RTVSPropertyOp26
 70
     1
102
RTVSPropertyOp27
 70
     1
102
RTVSPropertyOp28
 70
     1
102
RTVSPropertyOp29
 70
     1
102
RTVSPropertyOp30
 70
     1
102
RTVSPropertyOp31
 70
     1
102
RTVSPropertyOp32
 70
     1
102
RTVSPropertyOp33
 70
     1
102
RTVSPropertyOp34
 70
     1
102
RTVSPropertyOp35
 70
     1
102
RTVSPropertyOp36
 70
     1
102
RTVSPropertyOp37
 70
     1
102
RTVSPropertyOp38
 70
     1
102
RTVSPropertyOp39
 70
     1
102
RTVSPropertyOp40
 70
     1
102
RTVSPropertyOp41
 70
     1
102
RTVSPropertyOp42
 70
     1
102
RTVSPropertyOp43
 70
     1
102
RTVSPropertyOp44
 70
     1
102
RTVSPropertyOp45
 70
     1
102
RTVSPropertyOp46
 70
     1
102
RTVSPropertyOp47
 70
     1
102
RTVSPropertyOp48
 70
     1
102
RTVSPropertyOp49
 70
     1
102
RTVSPropertyOp50
 70
     1
102
RTVSPropertyOp51
 70
     0
102
RTVSPropertyOp52
 70
     0
102
RTVSPropertyOp53
 70
     1
102
RTVSPropertyOp54
 70
     1
102
RTVSPropertyOp55
 70
     1
102
RTVSPropertyOp56
 70
     1
102
RTVSPropertyOp57
 70
     1
102
RTVSPropertyOp58
 70
     1
102
RTVSPropertyOp59
 70
     1
102
RTVSPropertyOp60
 70
     1
102
RTVSPropertyOp61
 70
     1
102
RTVSPropertyOp62
 70
     1
  0
XRECORD
  5
35F1
102
{ACAD_REACTORS
330
35F0
102
}
330
35F0
100
AcDbXrecord
280
     1
102
RTVSPost2010Prop28
280
     0
102
RTVSPost2010PropOp28
 70
     1
102
RTVSPost2010Prop29
280
     1
102
RTVSPost2010PropOp29
 70
     1
102
RTVSPost2010Prop30
280
     1
102
RTVSPost2010PropOp30
 70
     1
102
RTVSPost2010Prop31
280
     0
102
RTVSPost2010PropOp31
 70
     1
102
RTVSPost2010Prop32
280
     0
102
RTVSPost2010PropOp32
 70
     1
102
RTVSPost2010Prop33
280
     0
102
RTVSPost2010PropOp33
 70
     1
102
RTVSPost2010Prop34
280
     0
102
RTVSPost2010PropOp34
 70
     1
102
RTVSPost2010Prop35
280
     0
102
RTVSPost2010PropOp35
 70
     1
102
RTVSPost2010Prop36
280
     0
102
RTVSPost2010PropOp36
 70
     1
102
RTVSPost2010Prop37
 90
       50
102
RTVSPost2010PropOp37
 70
     1
102
RTVSPost2010Prop38
140
0.0
102
RTVSPost2010PropOp38
 70
     1
102
RTVSPost2010Prop39
140
1.0
102
RTVSPost2010PropOp39
 70
     1
102
RTVSPost2010Prop40
 90
        0
102
RTVSPost2010PropOp40
 70
     1
102
RTVSPost2010Prop41ColorIndex
 90
       18
102
RTVSPost2010Prop41ColorRGB
 90
        0
102
RTVSPost2010PropOp41
 70
     1
102
RTVSPost2010Prop42
 90
       50
102
RTVSPost2010PropOp42
 70
     1
102
RTVSPost2010Prop43
 90
        3
102
RTVSPost2010PropOp43
 70
     1
102
RTVSPost2010Prop44ColorIndex
 90
        5
102
RTVSPost2010Prop44ColorRGB
 90
      255
102
RTVSPost2010PropOp44
 70
     1
102
RTVSPost2010Prop45
280
     0
102
RTVSPost2010PropOp45
 70
     1
102
RTVSPost2010Prop46
 90
       50
102
RTVSPost2010PropOp46
 70
     1
102
RTVSPost2010Prop47
 90
       50
102
RTVSPost2010PropOp47
 70
     1
102
RTVSPost2010Prop48
 90
       50
102
RTVSPost2010PropOp48
 70
     1
102
RTVSPost2010Prop49
280
     0
102
RTVSPost2010PropOp49
 70
     1
102
RTVSPost2010Prop50
 90
       50
102
RTVSPost2010PropOp50
 70
     1
102
RTVSPost2010Prop51ColorIndex
 90
      256
102
RTVSPost2010Prop51ColorRGB
 90
-16777216
102
RTVSPost2010PropOp51
 70
     0
102
RTVSPost2010Prop52
140
1.0
102
RTVSPost2010PropOp52
 70
     0
102
RTVSPost2010Prop53
 90
        2
102
RTVSPost2010PropOp53
 70
     1
102
RTVSPost2010Prop54
  1
strokes_ogs.tif
102
RTVSPost2010PropOp54
 70
     1
102
RTVSPost2010Prop55
280
     0
102
RTVSPost2010PropOp55
 70
     1
102
RTVSPost2010Prop56
140
1.0
102
RTVSPost2010PropOp56
 70
     1
102
RTVSPost2010Prop57
140
1.0
102
RTVSPost2010PropOp57
 70
     1
102
RTVSPropertyOp0
 70
     1
102
RTVSPropertyOp1
 70
     1
102
RTVSPropertyOp2
 70
     1
102
RTVSPropertyOp3
 70
     1
102
RTVSPropertyOp4
 70
     1
102
RTVSPropertyOp5
 70
     1
102
RTVSPropertyOp6
 70
     1
102
RTVSPropertyOp7
 70
     1
102
RTVSPropertyOp8
 70
     1
102
RTVSPropertyOp9
 70
     1
102
RTVSPropertyOp10
 70
     1
102
RTVSPropertyOp11
 70
     1
102
RTVSPropertyOp12
 70
     1
102
RTVSPropertyOp13
 70
     1
102
RTVSPropertyOp14
 70
     1
102
RTVSPropertyOp15
 70
     1
102
RTVSPropertyOp16
 70
     1
102
RTVSPropertyOp17
 70
     1
102
RTVSPropertyOp18
 70
     1
102
RTVSPropertyOp19
 70
     1
102
RTVSPropertyOp20
 70
     1
102
RTVSPropertyOp21
 70
     1
102
RTVSPropertyOp22
 70
     1
102
RTVSPropertyOp23
 70
     1
102
RTVSPropertyOp24
 70
     1
102
RTVSPropertyOp25
 70
     1
102
RTVSPropertyOp26
 70
     1
102
RTVSPropertyOp27
 70
     1
102
RTVSPropertyOp28
 70
     1
102
RTVSPropertyOp29
 70
     1
102
RTVSPropertyOp30
 70
     1
102
RTVSPropertyOp31
 70
     1
102
RTVSPropertyOp32
 70
     1
102
RTVSPropertyOp33
 70
     1
102
RTVSPropertyOp34
 70
     1
102
RTVSPropertyOp35
 70
     1
102
RTVSPropertyOp36
 70
     1
102
RTVSPropertyOp37
 70
     1
102
RTVSPropertyOp38
 70
     1
102
RTVSPropertyOp39
 70
     1
102
RTVSPropertyOp40
 70
     1
102
RTVSPropertyOp41
 70
     1
102
RTVSPropertyOp42
 70
     1
102
RTVSPropertyOp43
 70
     1
102
RTVSPropertyOp44
 70
     1
102
RTVSPropertyOp45
 70
     1
102
RTVSPropertyOp46
 70
     1
102
RTVSPropertyOp47
 70
     1
102
RTVSPropertyOp48
 70
     1
102
RTVSPropertyOp49
 70
     1
102
RTVSPropertyOp50
 70
     1
102
RTVSPropertyOp51
 70
     0
102
RTVSPropertyOp52
 70
     0
102
RTVSPropertyOp53
 70
     1
102
RTVSPropertyOp54
 70
     1
102
RTVSPropertyOp55
 70
     1
102
RTVSPropertyOp56
 70
     1
102
RTVSPropertyOp57
 70
     1
102
RTVSPropertyOp58
 70
     1
102
RTVSPropertyOp59
 70
     1
102
RTVSPropertyOp60
 70
     1
102
RTVSPropertyOp61
 70
     1
102
RTVSPropertyOp62
 70
     1
  0
XRECORD
  5
35F3
102
{ACAD_REACTORS
330
35F2
102
}
330
35F2
100
AcDbXrecord
280
     1
102
RTVSPost2010Prop28
280
     0
102
RTVSPost2010PropOp28
 70
     1
102
RTVSPost2010Prop29
280
     1
102
RTVSPost2010PropOp29
 70
     1
102
RTVSPost2010Prop30
280
     1
102
RTVSPost2010PropOp30
 70
     1
102
RTVSPost2010Prop31
280
     0
102
RTVSPost2010PropOp31
 70
     1
102
RTVSPost2010Prop32
280
     0
102
RTVSPost2010PropOp32
 70
     1
102
RTVSPost2010Prop33
280
     0
102
RTVSPost2010PropOp33
 70
     1
102
RTVSPost2010Prop34
280
     0
102
RTVSPost2010PropOp34
 70
     1
102
RTVSPost2010Prop35
280
     0
102
RTVSPost2010PropOp35
 70
     1
102
RTVSPost2010Prop36
280
     0
102
RTVSPost2010PropOp36
 70
     1
102
RTVSPost2010Prop37
 90
       50
102
RTVSPost2010PropOp37
 70
     1
102
RTVSPost2010Prop38
140
0.0
102
RTVSPost2010PropOp38
 70
     1
102
RTVSPost2010Prop39
140
1.0
102
RTVSPost2010PropOp39
 70
     1
102
RTVSPost2010Prop40
 90
        0
102
RTVSPost2010PropOp40
 70
     1
102
RTVSPost2010Prop41ColorIndex
 90
       18
102
RTVSPost2010Prop41ColorRGB
 90
        0
102
RTVSPost2010PropOp41
 70
     1
102
RTVSPost2010Prop42
 90
       50
102
RTVSPost2010PropOp42
 70
     1
102
RTVSPost2010Prop43
 90
        3
102
RTVSPost2010PropOp43
 70
     1
102
RTVSPost2010Prop44ColorIndex
 90
        5
102
RTVSPost2010Prop44ColorRGB
 90
      255
102
RTVSPost2010PropOp44
 70
     1
102
RTVSPost2010Prop45
280
     0
102
RTVSPost2010PropOp45
 70
     1
102
RTVSPost2010Prop46
 90
       50
102
RTVSPost2010PropOp46
 70
     1
102
RTVSPost2010Prop47
 90
       50
102
RTVSPost2010PropOp47
 70
     1
102
RTVSPost2010Prop48
 90
       50
102
RTVSPost2010PropOp48
 70
     1
102
RTVSPost2010Prop49
280
     0
102
RTVSPost2010PropOp49
 70
     1
102
RTVSPost2010Prop50
 90
       50
102
RTVSPost2010PropOp50
 70
     1
102
RTVSPost2010Prop51ColorIndex
 90
      256
102
RTVSPost2010Prop51ColorRGB
 90
-16777216
102
RTVSPost2010PropOp51
 70
     0
102
RTVSPost2010Prop52
140
1.0
102
RTVSPost2010PropOp52
 70
     0
102
RTVSPost2010Prop53
 90
        2
102
RTVSPost2010PropOp53
 70
     1
102
RTVSPost2010Prop54
  1
strokes_ogs.tif
102
RTVSPost2010PropOp54
 70
     1
102
RTVSPost2010Prop55
280
     0
102
RTVSPost2010PropOp55
 70
     1
102
RTVSPost2010Prop56
140
1.0
102
RTVSPost2010PropOp56
 70
     1
102
RTVSPost2010Prop57
140
1.0
102
RTVSPost2010PropOp57
 70
     1
102
RTVSPropertyOp0
 70
     1
102
RTVSPropertyOp1
 70
     1
102
RTVSPropertyOp2
 70
     1
102
RTVSPropertyOp3
 70
     1
102
RTVSPropertyOp4
 70
     1
102
RTVSPropertyOp5
 70
     1
102
RTVSPropertyOp6
 70
     1
102
RTVSPropertyOp7
 70
     1
102
RTVSPropertyOp8
 70
     1
102
RTVSPropertyOp9
 70
     1
102
RTVSPropertyOp10
 70
     1
102
RTVSPropertyOp11
 70
     1
102
RTVSPropertyOp12
 70
     1
102
RTVSPropertyOp13
 70
     1
102
RTVSPropertyOp14
 70
     1
102
RTVSPropertyOp15
 70
     1
102
RTVSPropertyOp16
 70
     1
102
RTVSPropertyOp17
 70
     1
102
RTVSPropertyOp18
 70
     1
102
RTVSPropertyOp19
 70
     1
102
RTVSPropertyOp20
 70
     1
102
RTVSPropertyOp21
 70
     1
102
RTVSPropertyOp22
 70
     1
102
RTVSPropertyOp23
 70
     1
102
RTVSPropertyOp24
 70
     1
102
RTVSPropertyOp25
 70
     1
102
RTVSPropertyOp26
 70
     1
102
RTVSPropertyOp27
 70
     1
102
RTVSPropertyOp28
 70
     1
102
RTVSPropertyOp29
 70
     1
102
RTVSPropertyOp30
 70
     1
102
RTVSPropertyOp31
 70
     1
102
RTVSPropertyOp32
 70
     1
102
RTVSPropertyOp33
 70
     1
102
RTVSPropertyOp34
 70
     1
102
RTVSPropertyOp35
 70
     1
102
RTVSPropertyOp36
 70
     1
102
RTVSPropertyOp37
 70
     1
102
RTVSPropertyOp38
 70
     1
102
RTVSPropertyOp39
 70
     1
102
RTVSPropertyOp40
 70
     1
102
RTVSPropertyOp41
 70
     1
102
RTVSPropertyOp42
 70
     1
102
RTVSPropertyOp43
 70
     1
102
RTVSPropertyOp44
 70
     1
102
RTVSPropertyOp45
 70
     1
102
RTVSPropertyOp46
 70
     1
102
RTVSPropertyOp47
 70
     1
102
RTVSPropertyOp48
 70
     1
102
RTVSPropertyOp49
 70
     1
102
RTVSPropertyOp50
 70
     1
102
RTVSPropertyOp51
 70
     0
102
RTVSPropertyOp52
 70
     0
102
RTVSPropertyOp53
 70
     1
102
RTVSPropertyOp54
 70
     1
102
RTVSPropertyOp55
 70
     1
102
RTVSPropertyOp56
 70
     1
102
RTVSPropertyOp57
 70
     1
102
RTVSPropertyOp58
 70
     1
102
RTVSPropertyOp59
 70
     1
102
RTVSPropertyOp60
 70
     1
102
RTVSPropertyOp61
 70
     1
102
RTVSPropertyOp62
 70
     1
  0
XRECORD
  5
35F5
102
{ACAD_REACTORS
330
35F4
102
}
330
35F4
100
AcDbXrecord
280
     1
102
RTVSPost2010Prop28
280
     0
102
RTVSPost2010PropOp28
 70
     1
102
RTVSPost2010Prop29
280
     1
102
RTVSPost2010PropOp29
 70
     1
102
RTVSPost2010Prop30
280
     1
102
RTVSPost2010PropOp30
 70
     1
102
RTVSPost2010Prop31
280
     0
102
RTVSPost2010PropOp31
 70
     1
102
RTVSPost2010Prop32
280
     0
102
RTVSPost2010PropOp32
 70
     1
102
RTVSPost2010Prop33
280
     0
102
RTVSPost2010PropOp33
 70
     1
102
RTVSPost2010Prop34
280
     0
102
RTVSPost2010PropOp34
 70
     1
102
RTVSPost2010Prop35
280
     0
102
RTVSPost2010PropOp35
 70
     1
102
RTVSPost2010Prop36
280
     0
102
RTVSPost2010PropOp36
 70
     1
102
RTVSPost2010Prop37
 90
       50
102
RTVSPost2010PropOp37
 70
     1
102
RTVSPost2010Prop38
140
0.0
102
RTVSPost2010PropOp38
 70
     1
102
RTVSPost2010Prop39
140
1.0
102
RTVSPost2010PropOp39
 70
     1
102
RTVSPost2010Prop40
 90
        0
102
RTVSPost2010PropOp40
 70
     1
102
RTVSPost2010Prop41ColorIndex
 90
       18
102
RTVSPost2010Prop41ColorRGB
 90
        0
102
RTVSPost2010PropOp41
 70
     1
102
RTVSPost2010Prop42
 90
       50
102
RTVSPost2010PropOp42
 70
     1
102
RTVSPost2010Prop43
 90
        3
102
RTVSPost2010PropOp43
 70
     1
102
RTVSPost2010Prop44ColorIndex
 90
        5
102
RTVSPost2010Prop44ColorRGB
 90
      255
102
RTVSPost2010PropOp44
 70
     1
102
RTVSPost2010Prop45
280
     0
102
RTVSPost2010PropOp45
 70
     1
102
RTVSPost2010Prop46
 90
       50
102
RTVSPost2010PropOp46
 70
     1
102
RTVSPost2010Prop47
 90
       50
102
RTVSPost2010PropOp47
 70
     1
102
RTVSPost2010Prop48
 90
       50
102
RTVSPost2010PropOp48
 70
     1
102
RTVSPost2010Prop49
280
     0
102
RTVSPost2010PropOp49
 70
     1
102
RTVSPost2010Prop50
 90
       50
102
RTVSPost2010PropOp50
 70
     1
102
RTVSPost2010Prop51ColorIndex
 90
      256
102
RTVSPost2010Prop51ColorRGB
 90
-16777216
102
RTVSPost2010PropOp51
 70
     0
102
RTVSPost2010Prop52
140
1.0
102
RTVSPost2010PropOp52
 70
     0
102
RTVSPost2010Prop53
 90
        2
102
RTVSPost2010PropOp53
 70
     1
102
RTVSPost2010Prop54
  1
strokes_ogs.tif
102
RTVSPost2010PropOp54
 70
     1
102
RTVSPost2010Prop55
280
     0
102
RTVSPost2010PropOp55
 70
     1
102
RTVSPost2010Prop56
140
1.0
102
RTVSPost2010PropOp56
 70
     1
102
RTVSPost2010Prop57
140
1.0
102
RTVSPost2010PropOp57
 70
     1
102
RTVSPropertyOp0
 70
     1
102
RTVSPropertyOp1
 70
     1
102
RTVSPropertyOp2
 70
     1
102
RTVSPropertyOp3
 70
     1
102
RTVSPropertyOp4
 70
     1
102
RTVSPropertyOp5
 70
     1
102
RTVSPropertyOp6
 70
     1
102
RTVSPropertyOp7
 70
     1
102
RTVSPropertyOp8
 70
     1
102
RTVSPropertyOp9
 70
     1
102
RTVSPropertyOp10
 70
     1
102
RTVSPropertyOp11
 70
     1
102
RTVSPropertyOp12
 70
     1
102
RTVSPropertyOp13
 70
     1
102
RTVSPropertyOp14
 70
     1
102
RTVSPropertyOp15
 70
     1
102
RTVSPropertyOp16
 70
     1
102
RTVSPropertyOp17
 70
     1
102
RTVSPropertyOp18
 70
     1
102
RTVSPropertyOp19
 70
     1
102
RTVSPropertyOp20
 70
     1
102
RTVSPropertyOp21
 70
     1
102
RTVSPropertyOp22
 70
     1
102
RTVSPropertyOp23
 70
     1
102
RTVSPropertyOp24
 70
     1
102
RTVSPropertyOp25
 70
     1
102
RTVSPropertyOp26
 70
     1
102
RTVSPropertyOp27
 70
     1
102
RTVSPropertyOp28
 70
     1
102
RTVSPropertyOp29
 70
     1
102
RTVSPropertyOp30
 70
     1
102
RTVSPropertyOp31
 70
     1
102
RTVSPropertyOp32
 70
     1
102
RTVSPropertyOp33
 70
     1
102
RTVSPropertyOp34
 70
     1
102
RTVSPropertyOp35
 70
     1
102
RTVSPropertyOp36
 70
     1
102
RTVSPropertyOp37
 70
     1
102
RTVSPropertyOp38
 70
     1
102
RTVSPropertyOp39
 70
     1
102
RTVSPropertyOp40
 70
     1
102
RTVSPropertyOp41
 70
     1
102
RTVSPropertyOp42
 70
     1
102
RTVSPropertyOp43
 70
     1
102
RTVSPropertyOp44
 70
     1
102
RTVSPropertyOp45
 70
     1
102
RTVSPropertyOp46
 70
     1
102
RTVSPropertyOp47
 70
     1
102
RTVSPropertyOp48
 70
     1
102
RTVSPropertyOp49
 70
     1
102
RTVSPropertyOp50
 70
     1
102
RTVSPropertyOp51
 70
     0
102
RTVSPropertyOp52
 70
     0
102
RTVSPropertyOp53
 70
     1
102
RTVSPropertyOp54
 70
     1
102
RTVSPropertyOp55
 70
     1
102
RTVSPropertyOp56
 70
     1
102
RTVSPropertyOp57
 70
     1
102
RTVSPropertyOp58
 70
     1
102
RTVSPropertyOp59
 70
     1
102
RTVSPropertyOp60
 70
     1
102
RTVSPropertyOp61
 70
     1
102
RTVSPropertyOp62
 70
     1
  0
XRECORD
  5
35F7
102
{ACAD_REACTORS
330
35F6
102
}
330
35F6
100
AcDbXrecord
280
     1
102
RTVSPost2010Prop28
280
     0
102
RTVSPost2010PropOp28
 70
     1
102
RTVSPost2010Prop29
280
     1
102
RTVSPost2010PropOp29
 70
     1
102
RTVSPost2010Prop30
280
     1
102
RTVSPost2010PropOp30
 70
     1
102
RTVSPost2010Prop31
280
     0
102
RTVSPost2010PropOp31
 70
     1
102
RTVSPost2010Prop32
280
     0
102
RTVSPost2010PropOp32
 70
     1
102
RTVSPost2010Prop33
280
     0
102
RTVSPost2010PropOp33
 70
     1
102
RTVSPost2010Prop34
280
     0
102
RTVSPost2010PropOp34
 70
     1
102
RTVSPost2010Prop35
280
     0
102
RTVSPost2010PropOp35
 70
     1
102
RTVSPost2010Prop36
280
     0
102
RTVSPost2010PropOp36
 70
     1
102
RTVSPost2010Prop37
 90
       50
102
RTVSPost2010PropOp37
 70
     1
102
RTVSPost2010Prop38
140
0.0
102
RTVSPost2010PropOp38
 70
     1
102
RTVSPost2010Prop39
140
1.0
102
RTVSPost2010PropOp39
 70
     1
102
RTVSPost2010Prop40
 90
        0
102
RTVSPost2010PropOp40
 70
     1
102
RTVSPost2010Prop41ColorIndex
 90
       18
102
RTVSPost2010Prop41ColorRGB
 90
        0
102
RTVSPost2010PropOp41
 70
     1
102
RTVSPost2010Prop42
 90
       50
102
RTVSPost2010PropOp42
 70
     1
102
RTVSPost2010Prop43
 90
        3
102
RTVSPost2010PropOp43
 70
     1
102
RTVSPost2010Prop44ColorIndex
 90
        5
102
RTVSPost2010Prop44ColorRGB
 90
      255
102
RTVSPost2010PropOp44
 70
     1
102
RTVSPost2010Prop45
280
     0
102
RTVSPost2010PropOp45
 70
     1
102
RTVSPost2010Prop46
 90
       50
102
RTVSPost2010PropOp46
 70
     1
102
RTVSPost2010Prop47
 90
       50
102
RTVSPost2010PropOp47
 70
     1
102
RTVSPost2010Prop48
 90
       50
102
RTVSPost2010PropOp48
 70
     1
102
RTVSPost2010Prop49
280
     0
102
RTVSPost2010PropOp49
 70
     1
102
RTVSPost2010Prop50
 90
       50
102
RTVSPost2010PropOp50
 70
     1
102
RTVSPost2010Prop51ColorIndex
 90
      256
102
RTVSPost2010Prop51ColorRGB
 90
-16777216
102
RTVSPost2010PropOp51
 70
     0
102
RTVSPost2010Prop52
140
1.0
102
RTVSPost2010PropOp52
 70
     0
102
RTVSPost2010Prop53
 90
        2
102
RTVSPost2010PropOp53
 70
     1
102
RTVSPost2010Prop54
  1
strokes_ogs.tif
102
RTVSPost2010PropOp54
 70
     1
102
RTVSPost2010Prop55
280
     0
102
RTVSPost2010PropOp55
 70
     1
102
RTVSPost2010Prop56
140
1.0
102
RTVSPost2010PropOp56
 70
     1
102
RTVSPost2010Prop57
140
1.0
102
RTVSPost2010PropOp57
 70
     1
102
RTVSPropertyOp0
 70
     1
102
RTVSPropertyOp1
 70
     1
102
RTVSPropertyOp2
 70
     1
102
RTVSPropertyOp3
 70
     1
102
RTVSPropertyOp4
 70
     1
102
RTVSPropertyOp5
 70
     1
102
RTVSPropertyOp6
 70
     1
102
RTVSPropertyOp7
 70
     1
102
RTVSPropertyOp8
 70
     1
102
RTVSPropertyOp9
 70
     1
102
RTVSPropertyOp10
 70
     1
102
RTVSPropertyOp11
 70
     1
102
RTVSPropertyOp12
 70
     1
102
RTVSPropertyOp13
 70
     1
102
RTVSPropertyOp14
 70
     1
102
RTVSPropertyOp15
 70
     1
102
RTVSPropertyOp16
 70
     1
102
RTVSPropertyOp17
 70
     1
102
RTVSPropertyOp18
 70
     1
102
RTVSPropertyOp19
 70
     1
102
RTVSPropertyOp20
 70
     1
102
RTVSPropertyOp21
 70
     1
102
RTVSPropertyOp22
 70
     1
102
RTVSPropertyOp23
 70
     1
102
RTVSPropertyOp24
 70
     1
102
RTVSPropertyOp25
 70
     1
102
RTVSPropertyOp26
 70
     1
102
RTVSPropertyOp27
 70
     1
102
RTVSPropertyOp28
 70
     1
102
RTVSPropertyOp29
 70
     1
102
RTVSPropertyOp30
 70
     1
102
RTVSPropertyOp31
 70
     1
102
RTVSPropertyOp32
 70
     1
102
RTVSPropertyOp33
 70
     1
102
RTVSPropertyOp34
 70
     1
102
RTVSPropertyOp35
 70
     1
102
RTVSPropertyOp36
 70
     1
102
RTVSPropertyOp37
 70
     1
102
RTVSPropertyOp38
 70
     1
102
RTVSPropertyOp39
 70
     1
102
RTVSPropertyOp40
 70
     1
102
RTVSPropertyOp41
 70
     1
102
RTVSPropertyOp42
 70
     1
102
RTVSPropertyOp43
 70
     1
102
RTVSPropertyOp44
 70
     1
102
RTVSPropertyOp45
 70
     1
102
RTVSPropertyOp46
 70
     1
102
RTVSPropertyOp47
 70
     1
102
RTVSPropertyOp48
 70
     1
102
RTVSPropertyOp49
 70
     1
102
RTVSPropertyOp50
 70
     1
102
RTVSPropertyOp51
 70
     0
102
RTVSPropertyOp52
 70
     0
102
RTVSPropertyOp53
 70
     1
102
RTVSPropertyOp54
 70
     1
102
RTVSPropertyOp55
 70
     1
102
RTVSPropertyOp56
 70
     1
102
RTVSPropertyOp57
 70
     1
102
RTVSPropertyOp58
 70
     1
102
RTVSPropertyOp59
 70
     1
102
RTVSPropertyOp60
 70
     1
102
RTVSPropertyOp61
 70
     1
102
RTVSPropertyOp62
 70
     1
  0
XRECORD
  5
35FF
102
{ACAD_REACTORS
330
35FE
102
}
330
35FE
100
AcDbXrecord
280
     1
102
RTVSPost2010Prop28
280
     0
102
RTVSPost2010PropOp28
 70
     1
102
RTVSPost2010Prop29
280
     1
102
RTVSPost2010PropOp29
 70
     1
102
RTVSPost2010Prop30
280
     1
102
RTVSPost2010PropOp30
 70
     1
102
RTVSPost2010Prop31
280
     0
102
RTVSPost2010PropOp31
 70
     1
102
RTVSPost2010Prop32
280
     0
102
RTVSPost2010PropOp32
 70
     1
102
RTVSPost2010Prop33
280
     0
102
RTVSPost2010PropOp33
 70
     1
102
RTVSPost2010Prop34
280
     0
102
RTVSPost2010PropOp34
 70
     1
102
RTVSPost2010Prop35
280
     0
102
RTVSPost2010PropOp35
 70
     1
102
RTVSPost2010Prop36
280
     0
102
RTVSPost2010PropOp36
 70
     1
102
RTVSPost2010Prop37
 90
       50
102
RTVSPost2010PropOp37
 70
     1
102
RTVSPost2010Prop38
140
0.0
102
RTVSPost2010PropOp38
 70
     1
102
RTVSPost2010Prop39
140
1.0
102
RTVSPost2010PropOp39
 70
     1
102
RTVSPost2010Prop40
 90
        0
102
RTVSPost2010PropOp40
 70
     1
102
RTVSPost2010Prop41ColorIndex
 90
       18
102
RTVSPost2010Prop41ColorRGB
 90
        0
102
RTVSPost2010PropOp41
 70
     1
102
RTVSPost2010Prop42
 90
       50
102
RTVSPost2010PropOp42
 70
     1
102
RTVSPost2010Prop43
 90
        3
102
RTVSPost2010PropOp43
 70
     1
102
RTVSPost2010Prop44ColorIndex
 90
        5
102
RTVSPost2010Prop44ColorRGB
 90
      255
102
RTVSPost2010PropOp44
 70
     1
102
RTVSPost2010Prop45
280
     0
102
RTVSPost2010PropOp45
 70
     1
102
RTVSPost2010Prop46
 90
       50
102
RTVSPost2010PropOp46
 70
     1
102
RTVSPost2010Prop47
 90
       50
102
RTVSPost2010PropOp47
 70
     1
102
RTVSPost2010Prop48
 90
       50
102
RTVSPost2010PropOp48
 70
     1
102
RTVSPost2010Prop49
280
     0
102
RTVSPost2010PropOp49
 70
     1
102
RTVSPost2010Prop50
 90
       50
102
RTVSPost2010PropOp50
 70
     1
102
RTVSPost2010Prop51ColorIndex
 90
      256
102
RTVSPost2010Prop51ColorRGB
 90
-16777216
102
RTVSPost2010PropOp51
 70
     0
102
RTVSPost2010Prop52
140
1.0
102
RTVSPost2010PropOp52
 70
     0
102
RTVSPost2010Prop53
 90
        2
102
RTVSPost2010PropOp53
 70
     1
102
RTVSPost2010Prop54
  1
strokes_ogs.tif
102
RTVSPost2010PropOp54
 70
     1
102
RTVSPost2010Prop55
280
     0
102
RTVSPost2010PropOp55
 70
     1
102
RTVSPost2010Prop56
140
1.0
102
RTVSPost2010PropOp56
 70
     1
102
RTVSPost2010Prop57
140
1.0
102
RTVSPost2010PropOp57
 70
     1
102
RTVSPropertyOp0
 70
     1
102
RTVSPropertyOp1
 70
     1
102
RTVSPropertyOp2
 70
     1
102
RTVSPropertyOp3
 70
     1
102
RTVSPropertyOp4
 70
     1
102
RTVSPropertyOp5
 70
     1
102
RTVSPropertyOp6
 70
     1
102
RTVSPropertyOp7
 70
     1
102
RTVSPropertyOp8
 70
     1
102
RTVSPropertyOp9
 70
     1
102
RTVSPropertyOp10
 70
     1
102
RTVSPropertyOp11
 70
     1
102
RTVSPropertyOp12
 70
     1
102
RTVSPropertyOp13
 70
     1
102
RTVSPropertyOp14
 70
     1
102
RTVSPropertyOp15
 70
     1
102
RTVSPropertyOp16
 70
     1
102
RTVSPropertyOp17
 70
     1
102
RTVSPropertyOp18
 70
     1
102
RTVSPropertyOp19
 70
     1
102
RTVSPropertyOp20
 70
     1
102
RTVSPropertyOp21
 70
     1
102
RTVSPropertyOp22
 70
     1
102
RTVSPropertyOp23
 70
     1
102
RTVSPropertyOp24
 70
     1
102
RTVSPropertyOp25
 70
     1
102
RTVSPropertyOp26
 70
     1
102
RTVSPropertyOp27
 70
     1
102
RTVSPropertyOp28
 70
     1
102
RTVSPropertyOp29
 70
     1
102
RTVSPropertyOp30
 70
     1
102
RTVSPropertyOp31
 70
     1
102
RTVSPropertyOp32
 70
     1
102
RTVSPropertyOp33
 70
     1
102
RTVSPropertyOp34
 70
     1
102
RTVSPropertyOp35
 70
     1
102
RTVSPropertyOp36
 70
     1
102
RTVSPropertyOp37
 70
     1
102
RTVSPropertyOp38
 70
     1
102
RTVSPropertyOp39
 70
     1
102
RTVSPropertyOp40
 70
     1
102
RTVSPropertyOp41
 70
     1
102
RTVSPropertyOp42
 70
     1
102
RTVSPropertyOp43
 70
     1
102
RTVSPropertyOp44
 70
     1
102
RTVSPropertyOp45
 70
     1
102
RTVSPropertyOp46
 70
     1
102
RTVSPropertyOp47
 70
     1
102
RTVSPropertyOp48
 70
     1
102
RTVSPropertyOp49
 70
     1
102
RTVSPropertyOp50
 70
     1
102
RTVSPropertyOp51
 70
     0
102
RTVSPropertyOp52
 70
     0
102
RTVSPropertyOp53
 70
     1
102
RTVSPropertyOp54
 70
     1
102
RTVSPropertyOp55
 70
     1
102
RTVSPropertyOp56
 70
     1
102
RTVSPropertyOp57
 70
     1
102
RTVSPropertyOp58
 70
     1
102
RTVSPropertyOp59
 70
     1
102
RTVSPropertyOp60
 70
     1
102
RTVSPropertyOp61
 70
     1
102
RTVSPropertyOp62
 70
     1
  0
XRECORD
  5
361B
102
{ACAD_REACTORS
330
361A
102
}
330
361A
100
AcDbXrecord
280
     1
102
RTVSPost2010Prop28
280
     0
102
RTVSPost2010PropOp28
 70
     1
102
RTVSPost2010Prop29
280
     1
102
RTVSPost2010PropOp29
 70
     1
102
RTVSPost2010Prop30
280
     1
102
RTVSPost2010PropOp30
 70
     1
102
RTVSPost2010Prop31
280
     0
102
RTVSPost2010PropOp31
 70
     1
102
RTVSPost2010Prop32
280
     0
102
RTVSPost2010PropOp32
 70
     1
102
RTVSPost2010Prop33
280
     0
102
RTVSPost2010PropOp33
 70
     1
102
RTVSPost2010Prop34
280
     0
102
RTVSPost2010PropOp34
 70
     1
102
RTVSPost2010Prop35
280
     0
102
RTVSPost2010PropOp35
 70
     1
102
RTVSPost2010Prop36
280
     0
102
RTVSPost2010PropOp36
 70
     1
102
RTVSPost2010Prop37
 90
       50
102
RTVSPost2010PropOp37
 70
     0
102
RTVSPost2010Prop38
140
0.0
102
RTVSPost2010PropOp38
 70
     0
102
RTVSPost2010Prop39
140
1.0
102
RTVSPost2010PropOp39
 70
     0
102
RTVSPost2010Prop40
 90
        0
102
RTVSPost2010PropOp40
 70
     0
102
RTVSPost2010Prop41ColorIndex
 90
       18
102
RTVSPost2010Prop41ColorRGB
 90
        0
102
RTVSPost2010PropOp41
 70
     0
102
RTVSPost2010Prop42
 90
       50
102
RTVSPost2010PropOp42
 70
     0
102
RTVSPost2010Prop43
 90
        3
102
RTVSPost2010PropOp43
 70
     0
102
RTVSPost2010Prop44ColorIndex
 90
        5
102
RTVSPost2010Prop44ColorRGB
 90
      255
102
RTVSPost2010PropOp44
 70
     0
102
RTVSPost2010Prop45
280
     0
102
RTVSPost2010PropOp45
 70
     1
102
RTVSPost2010Prop46
 90
       50
102
RTVSPost2010PropOp46
 70
     0
102
RTVSPost2010Prop47
 90
       50
102
RTVSPost2010PropOp47
 70
     0
102
RTVSPost2010Prop48
 90
       50
102
RTVSPost2010PropOp48
 70
     0
102
RTVSPost2010Prop49
280
     0
102
RTVSPost2010PropOp49
 70
     1
102
RTVSPost2010Prop50
 90
       50
102
RTVSPost2010PropOp50
 70
     0
102
RTVSPost2010Prop51ColorIndex
 90
      256
102
RTVSPost2010Prop51ColorRGB
 90
-16777216
102
RTVSPost2010PropOp51
 70
     0
102
RTVSPost2010Prop52
140
1.0
102
RTVSPost2010PropOp52
 70
     0
102
RTVSPost2010Prop53
 90
        2
102
RTVSPost2010PropOp53
 70
     0
102
RTVSPost2010Prop54
  1
strokes_ogs.tif
102
RTVSPost2010PropOp54
 70
     0
102
RTVSPost2010Prop55
280
     0
102
RTVSPost2010PropOp55
 70
     1
102
RTVSPost2010Prop56
140
1.0
102
RTVSPost2010PropOp56
 70
     0
102
RTVSPost2010Prop57
140
1.0
102
RTVSPost2010PropOp57
 70
     0
102
RTVSPropertyOp0
 70
     0
102
RTVSPropertyOp1
 70
     0
102
RTVSPropertyOp2
 70
     0
102
RTVSPropertyOp3
 70
     0
102
RTVSPropertyOp4
 70
     0
102
RTVSPropertyOp5
 70
     0
102
RTVSPropertyOp6
 70
     0
102
RTVSPropertyOp7
 70
     0
102
RTVSPropertyOp8
 70
     0
102
RTVSPropertyOp9
 70
     0
102
RTVSPropertyOp10
 70
     0
102
RTVSPropertyOp11
 70
     0
102
RTVSPropertyOp12
 70
     0
102
RTVSPropertyOp13
 70
     0
102
RTVSPropertyOp14
 70
     2
102
RTVSPropertyOp15
 70
     0
102
RTVSPropertyOp16
 70
     0
102
RTVSPropertyOp17
 70
     0
102
RTVSPropertyOp18
 70
     0
102
RTVSPropertyOp19
 70
     0
102
RTVSPropertyOp20
 70
     0
102
RTVSPropertyOp21
 70
     0
102
RTVSPropertyOp22
 70
     0
102
RTVSPropertyOp23
 70
     0
102
RTVSPropertyOp24
 70
     0
102
RTVSPropertyOp25
 70
     0
102
RTVSPropertyOp26
 70
     0
102
RTVSPropertyOp27
 70
     0
102
RTVSPropertyOp28
 70
     1
102
RTVSPropertyOp29
 70
     1
102
RTVSPropertyOp30
 70
     1
102
RTVSPropertyOp31
 70
     1
102
RTVSPropertyOp32
 70
     1
102
RTVSPropertyOp33
 70
     1
102
RTVSPropertyOp34
 70
     1
102
RTVSPropertyOp35
 70
     1
102
RTVSPropertyOp36
 70
     1
102
RTVSPropertyOp37
 70
     0
102
RTVSPropertyOp38
 70
     0
102
RTVSPropertyOp39
 70
     0
102
RTVSPropertyOp40
 70
     0
102
RTVSPropertyOp41
 70
     0
102
RTVSPropertyOp42
 70
     0
102
RTVSPropertyOp43
 70
     0
102
RTVSPropertyOp44
 70
     0
102
RTVSPropertyOp45
 70
     1
102
RTVSPropertyOp46
 70
     0
102
RTVSPropertyOp47
 70
     0
102
RTVSPropertyOp48
 70
     0
102
RTVSPropertyOp49
 70
     1
102
RTVSPropertyOp50
 70
     0
102
RTVSPropertyOp51
 70
     0
102
RTVSPropertyOp52
 70
     0
102
RTVSPropertyOp53
 70
     0
102
RTVSPropertyOp54
 70
     0
102
RTVSPropertyOp55
 70
     1
102
RTVSPropertyOp56
 70
     0
102
RTVSPropertyOp57
 70
     0
102
RTVSPropertyOp58
 70
     0
102
RTVSPropertyOp59
 70
     0
102
RTVSPropertyOp60
 70
     0
102
RTVSPropertyOp61
 70
     0
102
RTVSPropertyOp62
 70
     0
  0
XRECORD
  5
360B
102
{ACAD_REACTORS
330
360A
102
}
330
360A
100
AcDbXrecord
280
     1
102
RTVSPost2010Prop28
280
     0
102
RTVSPost2010PropOp28
 70
     1
102
RTVSPost2010Prop29
280
     1
102
RTVSPost2010PropOp29
 70
     1
102
RTVSPost2010Prop30
280
     1
102
RTVSPost2010PropOp30
 70
     1
102
RTVSPost2010Prop31
280
     0
102
RTVSPost2010PropOp31
 70
     1
102
RTVSPost2010Prop32
280
     0
102
RTVSPost2010PropOp32
 70
     1
102
RTVSPost2010Prop33
280
     0
102
RTVSPost2010PropOp33
 70
     1
102
RTVSPost2010Prop34
280
     0
102
RTVSPost2010PropOp34
 70
     1
102
RTVSPost2010Prop35
280
     0
102
RTVSPost2010PropOp35
 70
     1
102
RTVSPost2010Prop36
280
     0
102
RTVSPost2010PropOp36
 70
     1
102
RTVSPost2010Prop37
 90
       50
102
RTVSPost2010PropOp37
 70
     1
102
RTVSPost2010Prop38
140
0.0
102
RTVSPost2010PropOp38
 70
     1
102
RTVSPost2010Prop39
140
1.0
102
RTVSPost2010PropOp39
 70
     1
102
RTVSPost2010Prop40
 90
        0
102
RTVSPost2010PropOp40
 70
     1
102
RTVSPost2010Prop41ColorIndex
 90
       18
102
RTVSPost2010Prop41ColorRGB
 90
        0
102
RTVSPost2010PropOp41
 70
     1
102
RTVSPost2010Prop42
 90
       50
102
RTVSPost2010PropOp42
 70
     1
102
RTVSPost2010Prop43
 90
        3
102
RTVSPost2010PropOp43
 70
     1
102
RTVSPost2010Prop44ColorIndex
 90
        5
102
RTVSPost2010Prop44ColorRGB
 90
      255
102
RTVSPost2010PropOp44
 70
     1
102
RTVSPost2010Prop45
280
     0
102
RTVSPost2010PropOp45
 70
     1
102
RTVSPost2010Prop46
 90
       50
102
RTVSPost2010PropOp46
 70
     1
102
RTVSPost2010Prop47
 90
       50
102
RTVSPost2010PropOp47
 70
     1
102
RTVSPost2010Prop48
 90
       50
102
RTVSPost2010PropOp48
 70
     1
102
RTVSPost2010Prop49
280
     0
102
RTVSPost2010PropOp49
 70
     1
102
RTVSPost2010Prop50
 90
       50
102
RTVSPost2010PropOp50
 70
     1
102
RTVSPost2010Prop51ColorIndex
 90
      256
102
RTVSPost2010Prop51ColorRGB
 90
-16777216
102
RTVSPost2010PropOp51
 70
     0
102
RTVSPost2010Prop52
140
1.0
102
RTVSPost2010PropOp52
 70
     0
102
RTVSPost2010Prop53
 90
        2
102
RTVSPost2010PropOp53
 70
     1
102
RTVSPost2010Prop54
  1
strokes_ogs.tif
102
RTVSPost2010PropOp54
 70
     1
102
RTVSPost2010Prop55
280
     0
102
RTVSPost2010PropOp55
 70
     1
102
RTVSPost2010Prop56
140
1.0
102
RTVSPost2010PropOp56
 70
     1
102
RTVSPost2010Prop57
140
1.0
102
RTVSPost2010PropOp57
 70
     1
102
RTVSPropertyOp0
 70
     1
102
RTVSPropertyOp1
 70
     1
102
RTVSPropertyOp2
 70
     1
102
RTVSPropertyOp3
 70
     1
102
RTVSPropertyOp4
 70
     1
102
RTVSPropertyOp5
 70
     1
102
RTVSPropertyOp6
 70
     1
102
RTVSPropertyOp7
 70
     1
102
RTVSPropertyOp8
 70
     1
102
RTVSPropertyOp9
 70
     1
102
RTVSPropertyOp10
 70
     1
102
RTVSPropertyOp11
 70
     1
102
RTVSPropertyOp12
 70
     1
102
RTVSPropertyOp13
 70
     1
102
RTVSPropertyOp14
 70
     1
102
RTVSPropertyOp15
 70
     1
102
RTVSPropertyOp16
 70
     1
102
RTVSPropertyOp17
 70
     1
102
RTVSPropertyOp18
 70
     1
102
RTVSPropertyOp19
 70
     1
102
RTVSPropertyOp20
 70
     1
102
RTVSPropertyOp21
 70
     1
102
RTVSPropertyOp22
 70
     1
102
RTVSPropertyOp23
 70
     1
102
RTVSPropertyOp24
 70
     1
102
RTVSPropertyOp25
 70
     1
102
RTVSPropertyOp26
 70
     1
102
RTVSPropertyOp27
 70
     1
102
RTVSPropertyOp28
 70
     1
102
RTVSPropertyOp29
 70
     1
102
RTVSPropertyOp30
 70
     1
102
RTVSPropertyOp31
 70
     1
102
RTVSPropertyOp32
 70
     1
102
RTVSPropertyOp33
 70
     1
102
RTVSPropertyOp34
 70
     1
102
RTVSPropertyOp35
 70
     1
102
RTVSPropertyOp36
 70
     1
102
RTVSPropertyOp37
 70
     1
102
RTVSPropertyOp38
 70
     1
102
RTVSPropertyOp39
 70
     1
102
RTVSPropertyOp40
 70
     1
102
RTVSPropertyOp41
 70
     1
102
RTVSPropertyOp42
 70
     1
102
RTVSPropertyOp43
 70
     1
102
RTVSPropertyOp44
 70
     1
102
RTVSPropertyOp45
 70
     1
102
RTVSPropertyOp46
 70
     1
102
RTVSPropertyOp47
 70
     1
102
RTVSPropertyOp48
 70
     1
102
RTVSPropertyOp49
 70
     1
102
RTVSPropertyOp50
 70
     1
102
RTVSPropertyOp51
 70
     0
102
RTVSPropertyOp52
 70
     0
102
RTVSPropertyOp53
 70
     1
102
RTVSPropertyOp54
 70
     1
102
RTVSPropertyOp55
 70
     1
102
RTVSPropertyOp56
 70
     1
102
RTVSPropertyOp57
 70
     1
102
RTVSPropertyOp58
 70
     1
102
RTVSPropertyOp59
 70
     1
102
RTVSPropertyOp60
 70
     1
102
RTVSPropertyOp61
 70
     1
102
RTVSPropertyOp62
 70
     1
  0
XRECORD
  5
361D
102
{ACAD_REACTORS
330
361C
102
}
330
361C
100
AcDbXrecord
280
     1
102
RTVSPost2010Prop28
280
     0
102
RTVSPost2010PropOp28
 70
     1
102
RTVSPost2010Prop29
280
     1
102
RTVSPost2010PropOp29
 70
     1
102
RTVSPost2010Prop30
280
     1
102
RTVSPost2010PropOp30
 70
     1
102
RTVSPost2010Prop31
280
     0
102
RTVSPost2010PropOp31
 70
     1
102
RTVSPost2010Prop32
280
     0
102
RTVSPost2010PropOp32
 70
     1
102
RTVSPost2010Prop33
280
     0
102
RTVSPost2010PropOp33
 70
     1
102
RTVSPost2010Prop34
280
     0
102
RTVSPost2010PropOp34
 70
     1
102
RTVSPost2010Prop35
280
     0
102
RTVSPost2010PropOp35
 70
     1
102
RTVSPost2010Prop36
280
     0
102
RTVSPost2010PropOp36
 70
     1
102
RTVSPost2010Prop37
 90
       50
102
RTVSPost2010PropOp37
 70
     0
102
RTVSPost2010Prop38
140
0.0
102
RTVSPost2010PropOp38
 70
     0
102
RTVSPost2010Prop39
140
1.0
102
RTVSPost2010PropOp39
 70
     0
102
RTVSPost2010Prop40
 90
        0
102
RTVSPost2010PropOp40
 70
     0
102
RTVSPost2010Prop41ColorIndex
 90
       18
102
RTVSPost2010Prop41ColorRGB
 90
        0
102
RTVSPost2010PropOp41
 70
     0
102
RTVSPost2010Prop42
 90
       50
102
RTVSPost2010PropOp42
 70
     0
102
RTVSPost2010Prop43
 90
        3
102
RTVSPost2010PropOp43
 70
     0
102
RTVSPost2010Prop44ColorIndex
 90
        5
102
RTVSPost2010Prop44ColorRGB
 90
      255
102
RTVSPost2010PropOp44
 70
     0
102
RTVSPost2010Prop45
280
     0
102
RTVSPost2010PropOp45
 70
     1
102
RTVSPost2010Prop46
 90
       50
102
RTVSPost2010PropOp46
 70
     0
102
RTVSPost2010Prop47
 90
       50
102
RTVSPost2010PropOp47
 70
     0
102
RTVSPost2010Prop48
 90
       50
102
RTVSPost2010PropOp48
 70
     0
102
RTVSPost2010Prop49
280
     0
102
RTVSPost2010PropOp49
 70
     1
102
RTVSPost2010Prop50
 90
       50
102
RTVSPost2010PropOp50
 70
     0
102
RTVSPost2010Prop51ColorIndex
 90
      256
102
RTVSPost2010Prop51ColorRGB
 90
-16777216
102
RTVSPost2010PropOp51
 70
     0
102
RTVSPost2010Prop52
140
1.0
102
RTVSPost2010PropOp52
 70
     0
102
RTVSPost2010Prop53
 90
        2
102
RTVSPost2010PropOp53
 70
     0
102
RTVSPost2010Prop54
  1
strokes_ogs.tif
102
RTVSPost2010PropOp54
 70
     0
102
RTVSPost2010Prop55
280
     0
102
RTVSPost2010PropOp55
 70
     1
102
RTVSPost2010Prop56
140
1.0
102
RTVSPost2010PropOp56
 70
     0
102
RTVSPost2010Prop57
140
1.0
102
RTVSPost2010PropOp57
 70
     0
102
RTVSPropertyOp0
 70
     0
102
RTVSPropertyOp1
 70
     0
102
RTVSPropertyOp2
 70
     0
102
RTVSPropertyOp3
 70
     0
102
RTVSPropertyOp4
 70
     0
102
RTVSPropertyOp5
 70
     0
102
RTVSPropertyOp6
 70
     0
102
RTVSPropertyOp7
 70
     0
102
RTVSPropertyOp8
 70
     0
102
RTVSPropertyOp9
 70
     0
102
RTVSPropertyOp10
 70
     0
102
RTVSPropertyOp11
 70
     0
102
RTVSPropertyOp12
 70
     0
102
RTVSPropertyOp13
 70
     0
102
RTVSPropertyOp14
 70
     2
102
RTVSPropertyOp15
 70
     0
102
RTVSPropertyOp16
 70
     0
102
RTVSPropertyOp17
 70
     0
102
RTVSPropertyOp18
 70
     0
102
RTVSPropertyOp19
 70
     0
102
RTVSPropertyOp20
 70
     0
102
RTVSPropertyOp21
 70
     0
102
RTVSPropertyOp22
 70
     0
102
RTVSPropertyOp23
 70
     0
102
RTVSPropertyOp24
 70
     0
102
RTVSPropertyOp25
 70
     0
102
RTVSPropertyOp26
 70
     0
102
RTVSPropertyOp27
 70
     0
102
RTVSPropertyOp28
 70
     1
102
RTVSPropertyOp29
 70
     1
102
RTVSPropertyOp30
 70
     1
102
RTVSPropertyOp31
 70
     1
102
RTVSPropertyOp32
 70
     1
102
RTVSPropertyOp33
 70
     1
102
RTVSPropertyOp34
 70
     1
102
RTVSPropertyOp35
 70
     1
102
RTVSPropertyOp36
 70
     1
102
RTVSPropertyOp37
 70
     0
102
RTVSPropertyOp38
 70
     0
102
RTVSPropertyOp39
 70
     0
102
RTVSPropertyOp40
 70
     0
102
RTVSPropertyOp41
 70
     0
102
RTVSPropertyOp42
 70
     0
102
RTVSPropertyOp43
 70
     0
102
RTVSPropertyOp44
 70
     0
102
RTVSPropertyOp45
 70
     1
102
RTVSPropertyOp46
 70
     0
102
RTVSPropertyOp47
 70
     0
102
RTVSPropertyOp48
 70
     0
102
RTVSPropertyOp49
 70
     1
102
RTVSPropertyOp50
 70
     0
102
RTVSPropertyOp51
 70
     0
102
RTVSPropertyOp52
 70
     0
102
RTVSPropertyOp53
 70
     0
102
RTVSPropertyOp54
 70
     0
102
RTVSPropertyOp55
 70
     1
102
RTVSPropertyOp56
 70
     0
102
RTVSPropertyOp57
 70
     0
102
RTVSPropertyOp58
 70
     0
102
RTVSPropertyOp59
 70
     0
102
RTVSPropertyOp60
 70
     0
102
RTVSPropertyOp61
 70
     0
102
RTVSPropertyOp62
 70
     0
  0
XRECORD
  5
3603
102
{ACAD_REACTORS
330
3602
102
}
330
3602
100
AcDbXrecord
280
     1
102
RTVSPost2010Prop28
280
     0
102
RTVSPost2010PropOp28
 70
     1
102
RTVSPost2010Prop29
280
     1
102
RTVSPost2010PropOp29
 70
     1
102
RTVSPost2010Prop30
280
     1
102
RTVSPost2010PropOp30
 70
     1
102
RTVSPost2010Prop31
280
     0
102
RTVSPost2010PropOp31
 70
     1
102
RTVSPost2010Prop32
280
     0
102
RTVSPost2010PropOp32
 70
     1
102
RTVSPost2010Prop33
280
     0
102
RTVSPost2010PropOp33
 70
     1
102
RTVSPost2010Prop34
280
     0
102
RTVSPost2010PropOp34
 70
     1
102
RTVSPost2010Prop35
280
     0
102
RTVSPost2010PropOp35
 70
     1
102
RTVSPost2010Prop36
280
     0
102
RTVSPost2010PropOp36
 70
     1
102
RTVSPost2010Prop37
 90
       50
102
RTVSPost2010PropOp37
 70
     1
102
RTVSPost2010Prop38
140
0.0
102
RTVSPost2010PropOp38
 70
     1
102
RTVSPost2010Prop39
140
1.0
102
RTVSPost2010PropOp39
 70
     1
102
RTVSPost2010Prop40
 90
        0
102
RTVSPost2010PropOp40
 70
     1
102
RTVSPost2010Prop41ColorIndex
 90
       18
102
RTVSPost2010Prop41ColorRGB
 90
        0
102
RTVSPost2010PropOp41
 70
     1
102
RTVSPost2010Prop42
 90
       50
102
RTVSPost2010PropOp42
 70
     1
102
RTVSPost2010Prop43
 90
        3
102
RTVSPost2010PropOp43
 70
     1
102
RTVSPost2010Prop44ColorIndex
 90
        5
102
RTVSPost2010Prop44ColorRGB
 90
      255
102
RTVSPost2010PropOp44
 70
     1
102
RTVSPost2010Prop45
280
     0
102
RTVSPost2010PropOp45
 70
     1
102
RTVSPost2010Prop46
 90
       50
102
RTVSPost2010PropOp46
 70
     1
102
RTVSPost2010Prop47
 90
       50
102
RTVSPost2010PropOp47
 70
     1
102
RTVSPost2010Prop48
 90
       50
102
RTVSPost2010PropOp48
 70
     1
102
RTVSPost2010Prop49
280
     0
102
RTVSPost2010PropOp49
 70
     1
102
RTVSPost2010Prop50
 90
       50
102
RTVSPost2010PropOp50
 70
     1
102
RTVSPost2010Prop51ColorIndex
 90
      256
102
RTVSPost2010Prop51ColorRGB
 90
-16777216
102
RTVSPost2010PropOp51
 70
     0
102
RTVSPost2010Prop52
140
1.0
102
RTVSPost2010PropOp52
 70
     0
102
RTVSPost2010Prop53
 90
        2
102
RTVSPost2010PropOp53
 70
     1
102
RTVSPost2010Prop54
  1
strokes_ogs.tif
102
RTVSPost2010PropOp54
 70
     1
102
RTVSPost2010Prop55
280
     0
102
RTVSPost2010PropOp55
 70
     1
102
RTVSPost2010Prop56
140
1.0
102
RTVSPost2010PropOp56
 70
     1
102
RTVSPost2010Prop57
140
1.0
102
RTVSPost2010PropOp57
 70
     1
102
RTVSPropertyOp0
 70
     1
102
RTVSPropertyOp1
 70
     1
102
RTVSPropertyOp2
 70
     1
102
RTVSPropertyOp3
 70
     1
102
RTVSPropertyOp4
 70
     1
102
RTVSPropertyOp5
 70
     1
102
RTVSPropertyOp6
 70
     1
102
RTVSPropertyOp7
 70
     1
102
RTVSPropertyOp8
 70
     1
102
RTVSPropertyOp9
 70
     1
102
RTVSPropertyOp10
 70
     1
102
RTVSPropertyOp11
 70
     1
102
RTVSPropertyOp12
 70
     1
102
RTVSPropertyOp13
 70
     1
102
RTVSPropertyOp14
 70
     1
102
RTVSPropertyOp15
 70
     1
102
RTVSPropertyOp16
 70
     1
102
RTVSPropertyOp17
 70
     1
102
RTVSPropertyOp18
 70
     1
102
RTVSPropertyOp19
 70
     1
102
RTVSPropertyOp20
 70
     1
102
RTVSPropertyOp21
 70
     1
102
RTVSPropertyOp22
 70
     1
102
RTVSPropertyOp23
 70
     1
102
RTVSPropertyOp24
 70
     1
102
RTVSPropertyOp25
 70
     1
102
RTVSPropertyOp26
 70
     1
102
RTVSPropertyOp27
 70
     1
102
RTVSPropertyOp28
 70
     1
102
RTVSPropertyOp29
 70
     1
102
RTVSPropertyOp30
 70
     1
102
RTVSPropertyOp31
 70
     1
102
RTVSPropertyOp32
 70
     1
102
RTVSPropertyOp33
 70
     1
102
RTVSPropertyOp34
 70
     1
102
RTVSPropertyOp35
 70
     1
102
RTVSPropertyOp36
 70
     1
102
RTVSPropertyOp37
 70
     1
102
RTVSPropertyOp38
 70
     1
102
RTVSPropertyOp39
 70
     1
102
RTVSPropertyOp40
 70
     1
102
RTVSPropertyOp41
 70
     1
102
RTVSPropertyOp42
 70
     1
102
RTVSPropertyOp43
 70
     1
102
RTVSPropertyOp44
 70
     1
102
RTVSPropertyOp45
 70
     1
102
RTVSPropertyOp46
 70
     1
102
RTVSPropertyOp47
 70
     1
102
RTVSPropertyOp48
 70
     1
102
RTVSPropertyOp49
 70
     1
102
RTVSPropertyOp50
 70
     1
102
RTVSPropertyOp51
 70
     0
102
RTVSPropertyOp52
 70
     0
102
RTVSPropertyOp53
 70
     1
102
RTVSPropertyOp54
 70
     1
102
RTVSPropertyOp55
 70
     1
102
RTVSPropertyOp56
 70
     1
102
RTVSPropertyOp57
 70
     1
102
RTVSPropertyOp58
 70
     1
102
RTVSPropertyOp59
 70
     1
102
RTVSPropertyOp60
 70
     1
102
RTVSPropertyOp61
 70
     1
102
RTVSPropertyOp62
 70
     1
  0
XRECORD
  5
3619
102
{ACAD_REACTORS
330
3618
102
}
330
3618
100
AcDbXrecord
280
     1
102
RTVSPost2010Prop28
280
     0
102
RTVSPost2010PropOp28
 70
     1
102
RTVSPost2010Prop29
280
     1
102
RTVSPost2010PropOp29
 70
     1
102
RTVSPost2010Prop30
280
     1
102
RTVSPost2010PropOp30
 70
     1
102
RTVSPost2010Prop31
280
     0
102
RTVSPost2010PropOp31
 70
     1
102
RTVSPost2010Prop32
280
     0
102
RTVSPost2010PropOp32
 70
     1
102
RTVSPost2010Prop33
280
     0
102
RTVSPost2010PropOp33
 70
     1
102
RTVSPost2010Prop34
280
     0
102
RTVSPost2010PropOp34
 70
     1
102
RTVSPost2010Prop35
280
     0
102
RTVSPost2010PropOp35
 70
     1
102
RTVSPost2010Prop36
280
     0
102
RTVSPost2010PropOp36
 70
     1
102
RTVSPost2010Prop37
 90
       50
102
RTVSPost2010PropOp37
 70
     1
102
RTVSPost2010Prop38
140
0.0
102
RTVSPost2010PropOp38
 70
     1
102
RTVSPost2010Prop39
140
1.0
102
RTVSPost2010PropOp39
 70
     1
102
RTVSPost2010Prop40
 90
        0
102
RTVSPost2010PropOp40
 70
     1
102
RTVSPost2010Prop41ColorIndex
 90
       18
102
RTVSPost2010Prop41ColorRGB
 90
        0
102
RTVSPost2010PropOp41
 70
     1
102
RTVSPost2010Prop42
 90
       50
102
RTVSPost2010PropOp42
 70
     1
102
RTVSPost2010Prop43
 90
        3
102
RTVSPost2010PropOp43
 70
     1
102
RTVSPost2010Prop44ColorIndex
 90
        5
102
RTVSPost2010Prop44ColorRGB
 90
      255
102
RTVSPost2010PropOp44
 70
     1
102
RTVSPost2010Prop45
280
     0
102
RTVSPost2010PropOp45
 70
     1
102
RTVSPost2010Prop46
 90
       50
102
RTVSPost2010PropOp46
 70
     1
102
RTVSPost2010Prop47
 90
       50
102
RTVSPost2010PropOp47
 70
     1
102
RTVSPost2010Prop48
 90
       50
102
RTVSPost2010PropOp48
 70
     1
102
RTVSPost2010Prop49
280
     0
102
RTVSPost2010PropOp49
 70
     1
102
RTVSPost2010Prop50
 90
       50
102
RTVSPost2010PropOp50
 70
     1
102
RTVSPost2010Prop51ColorIndex
 90
      256
102
RTVSPost2010Prop51ColorRGB
 90
-16777216
102
RTVSPost2010PropOp51
 70
     0
102
RTVSPost2010Prop52
140
1.0
102
RTVSPost2010PropOp52
 70
     0
102
RTVSPost2010Prop53
 90
        2
102
RTVSPost2010PropOp53
 70
     1
102
RTVSPost2010Prop54
  1
strokes_ogs.tif
102
RTVSPost2010PropOp54
 70
     1
102
RTVSPost2010Prop55
280
     0
102
RTVSPost2010PropOp55
 70
     1
102
RTVSPost2010Prop56
140
1.0
102
RTVSPost2010PropOp56
 70
     1
102
RTVSPost2010Prop57
140
1.0
102
RTVSPost2010PropOp57
 70
     1
102
RTVSPropertyOp0
 70
     1
102
RTVSPropertyOp1
 70
     1
102
RTVSPropertyOp2
 70
     1
102
RTVSPropertyOp3
 70
     1
102
RTVSPropertyOp4
 70
     1
102
RTVSPropertyOp5
 70
     1
102
RTVSPropertyOp6
 70
     1
102
RTVSPropertyOp7
 70
     1
102
RTVSPropertyOp8
 70
     1
102
RTVSPropertyOp9
 70
     1
102
RTVSPropertyOp10
 70
     1
102
RTVSPropertyOp11
 70
     1
102
RTVSPropertyOp12
 70
     1
102
RTVSPropertyOp13
 70
     1
102
RTVSPropertyOp14
 70
     1
102
RTVSPropertyOp15
 70
     1
102
RTVSPropertyOp16
 70
     1
102
RTVSPropertyOp17
 70
     1
102
RTVSPropertyOp18
 70
     1
102
RTVSPropertyOp19
 70
     1
102
RTVSPropertyOp20
 70
     1
102
RTVSPropertyOp21
 70
     1
102
RTVSPropertyOp22
 70
     1
102
RTVSPropertyOp23
 70
     1
102
RTVSPropertyOp24
 70
     1
102
RTVSPropertyOp25
 70
     1
102
RTVSPropertyOp26
 70
     1
102
RTVSPropertyOp27
 70
     1
102
RTVSPropertyOp28
 70
     1
102
RTVSPropertyOp29
 70
     1
102
RTVSPropertyOp30
 70
     1
102
RTVSPropertyOp31
 70
     1
102
RTVSPropertyOp32
 70
     1
102
RTVSPropertyOp33
 70
     1
102
RTVSPropertyOp34
 70
     1
102
RTVSPropertyOp35
 70
     1
102
RTVSPropertyOp36
 70
     1
102
RTVSPropertyOp37
 70
     1
102
RTVSPropertyOp38
 70
     1
102
RTVSPropertyOp39
 70
     1
102
RTVSPropertyOp40
 70
     1
102
RTVSPropertyOp41
 70
     1
102
RTVSPropertyOp42
 70
     1
102
RTVSPropertyOp43
 70
     1
102
RTVSPropertyOp44
 70
     1
102
RTVSPropertyOp45
 70
     1
102
RTVSPropertyOp46
 70
     1
102
RTVSPropertyOp47
 70
     1
102
RTVSPropertyOp48
 70
     1
102
RTVSPropertyOp49
 70
     1
102
RTVSPropertyOp50
 70
     1
102
RTVSPropertyOp51
 70
     0
102
RTVSPropertyOp52
 70
     0
102
RTVSPropertyOp53
 70
     1
102
RTVSPropertyOp54
 70
     1
102
RTVSPropertyOp55
 70
     1
102
RTVSPropertyOp56
 70
     1
102
RTVSPropertyOp57
 70
     1
102
RTVSPropertyOp58
 70
     1
102
RTVSPropertyOp59
 70
     1
102
RTVSPropertyOp60
 70
     1
102
RTVSPropertyOp61
 70
     1
102
RTVSPropertyOp62
 70
     1
  0
XRECORD
  5
3617
102
{ACAD_REACTORS
330
3616
102
}
330
3616
100
AcDbXrecord
280
     1
102
RTVSPost2010Prop28
280
     0
102
RTVSPost2010PropOp28
 70
     1
102
RTVSPost2010Prop29
280
     1
102
RTVSPost2010PropOp29
 70
     1
102
RTVSPost2010Prop30
280
     1
102
RTVSPost2010PropOp30
 70
     1
102
RTVSPost2010Prop31
280
     0
102
RTVSPost2010PropOp31
 70
     1
102
RTVSPost2010Prop32
280
     0
102
RTVSPost2010PropOp32
 70
     1
102
RTVSPost2010Prop33
280
     0
102
RTVSPost2010PropOp33
 70
     1
102
RTVSPost2010Prop34
280
     0
102
RTVSPost2010PropOp34
 70
     1
102
RTVSPost2010Prop35
280
     0
102
RTVSPost2010PropOp35
 70
     1
102
RTVSPost2010Prop36
280
     0
102
RTVSPost2010PropOp36
 70
     1
102
RTVSPost2010Prop37
 90
       50
102
RTVSPost2010PropOp37
 70
     1
102
RTVSPost2010Prop38
140
0.0
102
RTVSPost2010PropOp38
 70
     1
102
RTVSPost2010Prop39
140
1.0
102
RTVSPost2010PropOp39
 70
     1
102
RTVSPost2010Prop40
 90
        0
102
RTVSPost2010PropOp40
 70
     1
102
RTVSPost2010Prop41ColorIndex
 90
       18
102
RTVSPost2010Prop41ColorRGB
 90
        0
102
RTVSPost2010PropOp41
 70
     1
102
RTVSPost2010Prop42
 90
       50
102
RTVSPost2010PropOp42
 70
     1
102
RTVSPost2010Prop43
 90
        3
102
RTVSPost2010PropOp43
 70
     1
102
RTVSPost2010Prop44ColorIndex
 90
        5
102
RTVSPost2010Prop44ColorRGB
 90
      255
102
RTVSPost2010PropOp44
 70
     1
102
RTVSPost2010Prop45
280
     0
102
RTVSPost2010PropOp45
 70
     1
102
RTVSPost2010Prop46
 90
       50
102
RTVSPost2010PropOp46
 70
     1
102
RTVSPost2010Prop47
 90
       50
102
RTVSPost2010PropOp47
 70
     1
102
RTVSPost2010Prop48
 90
       50
102
RTVSPost2010PropOp48
 70
     1
102
RTVSPost2010Prop49
280
     0
102
RTVSPost2010PropOp49
 70
     1
102
RTVSPost2010Prop50
 90
       50
102
RTVSPost2010PropOp50
 70
     1
102
RTVSPost2010Prop51ColorIndex
 90
      256
102
RTVSPost2010Prop51ColorRGB
 90
-16777216
102
RTVSPost2010PropOp51
 70
     0
102
RTVSPost2010Prop52
140
1.0
102
RTVSPost2010PropOp52
 70
     0
102
RTVSPost2010Prop53
 90
        2
102
RTVSPost2010PropOp53
 70
     1
102
RTVSPost2010Prop54
  1
strokes_ogs.tif
102
RTVSPost2010PropOp54
 70
     1
102
RTVSPost2010Prop55
280
     0
102
RTVSPost2010PropOp55
 70
     1
102
RTVSPost2010Prop56
140
1.0
102
RTVSPost2010PropOp56
 70
     1
102
RTVSPost2010Prop57
140
1.0
102
RTVSPost2010PropOp57
 70
     1
102
RTVSPropertyOp0
 70
     1
102
RTVSPropertyOp1
 70
     1
102
RTVSPropertyOp2
 70
     1
102
RTVSPropertyOp3
 70
     1
102
RTVSPropertyOp4
 70
     1
102
RTVSPropertyOp5
 70
     1
102
RTVSPropertyOp6
 70
     1
102
RTVSPropertyOp7
 70
     1
102
RTVSPropertyOp8
 70
     1
102
RTVSPropertyOp9
 70
     1
102
RTVSPropertyOp10
 70
     1
102
RTVSPropertyOp11
 70
     1
102
RTVSPropertyOp12
 70
     1
102
RTVSPropertyOp13
 70
     1
102
RTVSPropertyOp14
 70
     1
102
RTVSPropertyOp15
 70
     1
102
RTVSPropertyOp16
 70
     1
102
RTVSPropertyOp17
 70
     1
102
RTVSPropertyOp18
 70
     1
102
RTVSPropertyOp19
 70
     1
102
RTVSPropertyOp20
 70
     1
102
RTVSPropertyOp21
 70
     1
102
RTVSPropertyOp22
 70
     1
102
RTVSPropertyOp23
 70
     1
102
RTVSPropertyOp24
 70
     1
102
RTVSPropertyOp25
 70
     1
102
RTVSPropertyOp26
 70
     1
102
RTVSPropertyOp27
 70
     1
102
RTVSPropertyOp28
 70
     1
102
RTVSPropertyOp29
 70
     1
102
RTVSPropertyOp30
 70
     1
102
RTVSPropertyOp31
 70
     1
102
RTVSPropertyOp32
 70
     1
102
RTVSPropertyOp33
 70
     1
102
RTVSPropertyOp34
 70
     1
102
RTVSPropertyOp35
 70
     1
102
RTVSPropertyOp36
 70
     1
102
RTVSPropertyOp37
 70
     1
102
RTVSPropertyOp38
 70
     1
102
RTVSPropertyOp39
 70
     1
102
RTVSPropertyOp40
 70
     1
102
RTVSPropertyOp41
 70
     1
102
RTVSPropertyOp42
 70
     1
102
RTVSPropertyOp43
 70
     1
102
RTVSPropertyOp44
 70
     1
102
RTVSPropertyOp45
 70
     1
102
RTVSPropertyOp46
 70
     1
102
RTVSPropertyOp47
 70
     1
102
RTVSPropertyOp48
 70
     1
102
RTVSPropertyOp49
 70
     1
102
RTVSPropertyOp50
 70
     1
102
RTVSPropertyOp51
 70
     0
102
RTVSPropertyOp52
 70
     0
102
RTVSPropertyOp53
 70
     1
102
RTVSPropertyOp54
 70
     1
102
RTVSPropertyOp55
 70
     1
102
RTVSPropertyOp56
 70
     1
102
RTVSPropertyOp57
 70
     1
102
RTVSPropertyOp58
 70
     1
102
RTVSPropertyOp59
 70
     1
102
RTVSPropertyOp60
 70
     1
102
RTVSPropertyOp61
 70
     1
102
RTVSPropertyOp62
 70
     1
  0
XRECORD
  5
3611
102
{ACAD_REACTORS
330
3610
102
}
330
3610
100
AcDbXrecord
280
     1
102
RTVSPost2010Prop28
280
     0
102
RTVSPost2010PropOp28
 70
     1
102
RTVSPost2010Prop29
280
     1
102
RTVSPost2010PropOp29
 70
     1
102
RTVSPost2010Prop30
280
     1
102
RTVSPost2010PropOp30
 70
     1
102
RTVSPost2010Prop31
280
     0
102
RTVSPost2010PropOp31
 70
     1
102
RTVSPost2010Prop32
280
     0
102
RTVSPost2010PropOp32
 70
     1
102
RTVSPost2010Prop33
280
     0
102
RTVSPost2010PropOp33
 70
     1
102
RTVSPost2010Prop34
280
     0
102
RTVSPost2010PropOp34
 70
     1
102
RTVSPost2010Prop35
280
     0
102
RTVSPost2010PropOp35
 70
     1
102
RTVSPost2010Prop36
280
     0
102
RTVSPost2010PropOp36
 70
     1
102
RTVSPost2010Prop37
 90
       50
102
RTVSPost2010PropOp37
 70
     1
102
RTVSPost2010Prop38
140
0.0
102
RTVSPost2010PropOp38
 70
     1
102
RTVSPost2010Prop39
140
1.0
102
RTVSPost2010PropOp39
 70
     1
102
RTVSPost2010Prop40
 90
        0
102
RTVSPost2010PropOp40
 70
     1
102
RTVSPost2010Prop41ColorIndex
 90
       18
102
RTVSPost2010Prop41ColorRGB
 90
        0
102
RTVSPost2010PropOp41
 70
     1
102
RTVSPost2010Prop42
 90
       50
102
RTVSPost2010PropOp42
 70
     1
102
RTVSPost2010Prop43
 90
        3
102
RTVSPost2010PropOp43
 70
     1
102
RTVSPost2010Prop44ColorIndex
 90
        5
102
RTVSPost2010Prop44ColorRGB
 90
      255
102
RTVSPost2010PropOp44
 70
     1
102
RTVSPost2010Prop45
280
     0
102
RTVSPost2010PropOp45
 70
     1
102
RTVSPost2010Prop46
 90
       50
102
RTVSPost2010PropOp46
 70
     1
102
RTVSPost2010Prop47
 90
       50
102
RTVSPost2010PropOp47
 70
     1
102
RTVSPost2010Prop48
 90
       50
102
RTVSPost2010PropOp48
 70
     1
102
RTVSPost2010Prop49
280
     0
102
RTVSPost2010PropOp49
 70
     1
102
RTVSPost2010Prop50
 90
       50
102
RTVSPost2010PropOp50
 70
     1
102
RTVSPost2010Prop51ColorIndex
 90
      256
102
RTVSPost2010Prop51ColorRGB
 90
-16777216
102
RTVSPost2010PropOp51
 70
     0
102
RTVSPost2010Prop52
140
1.0
102
RTVSPost2010PropOp52
 70
     0
102
RTVSPost2010Prop53
 90
        2
102
RTVSPost2010PropOp53
 70
     1
102
RTVSPost2010Prop54
  1
strokes_ogs.tif
102
RTVSPost2010PropOp54
 70
     1
102
RTVSPost2010Prop55
280
     0
102
RTVSPost2010PropOp55
 70
     1
102
RTVSPost2010Prop56
140
1.0
102
RTVSPost2010PropOp56
 70
     1
102
RTVSPost2010Prop57
140
1.0
102
RTVSPost2010PropOp57
 70
     1
102
RTVSPropertyOp0
 70
     1
102
RTVSPropertyOp1
 70
     1
102
RTVSPropertyOp2
 70
     1
102
RTVSPropertyOp3
 70
     1
102
RTVSPropertyOp4
 70
     1
102
RTVSPropertyOp5
 70
     1
102
RTVSPropertyOp6
 70
     1
102
RTVSPropertyOp7
 70
     1
102
RTVSPropertyOp8
 70
     1
102
RTVSPropertyOp9
 70
     1
102
RTVSPropertyOp10
 70
     1
102
RTVSPropertyOp11
 70
     1
102
RTVSPropertyOp12
 70
     1
102
RTVSPropertyOp13
 70
     1
102
RTVSPropertyOp14
 70
     1
102
RTVSPropertyOp15
 70
     1
102
RTVSPropertyOp16
 70
     1
102
RTVSPropertyOp17
 70
     1
102
RTVSPropertyOp18
 70
     1
102
RTVSPropertyOp19
 70
     1
102
RTVSPropertyOp20
 70
     1
102
RTVSPropertyOp21
 70
     1
102
RTVSPropertyOp22
 70
     1
102
RTVSPropertyOp23
 70
     1
102
RTVSPropertyOp24
 70
     1
102
RTVSPropertyOp25
 70
     1
102
RTVSPropertyOp26
 70
     1
102
RTVSPropertyOp27
 70
     1
102
RTVSPropertyOp28
 70
     1
102
RTVSPropertyOp29
 70
     1
102
RTVSPropertyOp30
 70
     1
102
RTVSPropertyOp31
 70
     1
102
RTVSPropertyOp32
 70
     1
102
RTVSPropertyOp33
 70
     1
102
RTVSPropertyOp34
 70
     1
102
RTVSPropertyOp35
 70
     1
102
RTVSPropertyOp36
 70
     1
102
RTVSPropertyOp37
 70
     1
102
RTVSPropertyOp38
 70
     1
102
RTVSPropertyOp39
 70
     1
102
RTVSPropertyOp40
 70
     1
102
RTVSPropertyOp41
 70
     1
102
RTVSPropertyOp42
 70
     1
102
RTVSPropertyOp43
 70
     1
102
RTVSPropertyOp44
 70
     1
102
RTVSPropertyOp45
 70
     1
102
RTVSPropertyOp46
 70
     1
102
RTVSPropertyOp47
 70
     1
102
RTVSPropertyOp48
 70
     1
102
RTVSPropertyOp49
 70
     1
102
RTVSPropertyOp50
 70
     1
102
RTVSPropertyOp51
 70
     0
102
RTVSPropertyOp52
 70
     0
102
RTVSPropertyOp53
 70
     1
102
RTVSPropertyOp54
 70
     1
102
RTVSPropertyOp55
 70
     1
102
RTVSPropertyOp56
 70
     1
102
RTVSPropertyOp57
 70
     1
102
RTVSPropertyOp58
 70
     1
102
RTVSPropertyOp59
 70
     1
102
RTVSPropertyOp60
 70
     1
102
RTVSPropertyOp61
 70
     1
102
RTVSPropertyOp62
 70
     1
  0
XRECORD
  5
3613
102
{ACAD_REACTORS
330
3612
102
}
330
3612
100
AcDbXrecord
280
     1
102
RTVSPost2010Prop28
280
     0
102
RTVSPost2010PropOp28
 70
     1
102
RTVSPost2010Prop29
280
     1
102
RTVSPost2010PropOp29
 70
     1
102
RTVSPost2010Prop30
280
     1
102
RTVSPost2010PropOp30
 70
     1
102
RTVSPost2010Prop31
280
     0
102
RTVSPost2010PropOp31
 70
     1
102
RTVSPost2010Prop32
280
     0
102
RTVSPost2010PropOp32
 70
     1
102
RTVSPost2010Prop33
280
     0
102
RTVSPost2010PropOp33
 70
     1
102
RTVSPost2010Prop34
280
     0
102
RTVSPost2010PropOp34
 70
     1
102
RTVSPost2010Prop35
280
     0
102
RTVSPost2010PropOp35
 70
     1
102
RTVSPost2010Prop36
280
     0
102
RTVSPost2010PropOp36
 70
     1
102
RTVSPost2010Prop37
 90
       50
102
RTVSPost2010PropOp37
 70
     1
102
RTVSPost2010Prop38
140
0.0
102
RTVSPost2010PropOp38
 70
     1
102
RTVSPost2010Prop39
140
1.0
102
RTVSPost2010PropOp39
 70
     1
102
RTVSPost2010Prop40
 90
        0
102
RTVSPost2010PropOp40
 70
     1
102
RTVSPost2010Prop41ColorIndex
 90
       18
102
RTVSPost2010Prop41ColorRGB
 90
        0
102
RTVSPost2010PropOp41
 70
     1
102
RTVSPost2010Prop42
 90
       50
102
RTVSPost2010PropOp42
 70
     1
102
RTVSPost2010Prop43
 90
        3
102
RTVSPost2010PropOp43
 70
     1
102
RTVSPost2010Prop44ColorIndex
 90
        5
102
RTVSPost2010Prop44ColorRGB
 90
      255
102
RTVSPost2010PropOp44
 70
     1
102
RTVSPost2010Prop45
280
     0
102
RTVSPost2010PropOp45
 70
     1
102
RTVSPost2010Prop46
 90
       50
102
RTVSPost2010PropOp46
 70
     1
102
RTVSPost2010Prop47
 90
       50
102
RTVSPost2010PropOp47
 70
     1
102
RTVSPost2010Prop48
 90
       50
102
RTVSPost2010PropOp48
 70
     1
102
RTVSPost2010Prop49
280
     0
102
RTVSPost2010PropOp49
 70
     1
102
RTVSPost2010Prop50
 90
       50
102
RTVSPost2010PropOp50
 70
     1
102
RTVSPost2010Prop51ColorIndex
 90
      256
102
RTVSPost2010Prop51ColorRGB
 90
-16777216
102
RTVSPost2010PropOp51
 70
     0
102
RTVSPost2010Prop52
140
1.0
102
RTVSPost2010PropOp52
 70
     0
102
RTVSPost2010Prop53
 90
        2
102
RTVSPost2010PropOp53
 70
     1
102
RTVSPost2010Prop54
  1
strokes_ogs.tif
102
RTVSPost2010PropOp54
 70
     1
102
RTVSPost2010Prop55
280
     0
102
RTVSPost2010PropOp55
 70
     1
102
RTVSPost2010Prop56
140
1.0
102
RTVSPost2010PropOp56
 70
     1
102
RTVSPost2010Prop57
140
1.0
102
RTVSPost2010PropOp57
 70
     1
102
RTVSPropertyOp0
 70
     1
102
RTVSPropertyOp1
 70
     1
102
RTVSPropertyOp2
 70
     1
102
RTVSPropertyOp3
 70
     1
102
RTVSPropertyOp4
 70
     1
102
RTVSPropertyOp5
 70
     1
102
RTVSPropertyOp6
 70
     1
102
RTVSPropertyOp7
 70
     1
102
RTVSPropertyOp8
 70
     1
102
RTVSPropertyOp9
 70
     1
102
RTVSPropertyOp10
 70
     1
102
RTVSPropertyOp11
 70
     1
102
RTVSPropertyOp12
 70
     1
102
RTVSPropertyOp13
 70
     1
102
RTVSPropertyOp14
 70
     1
102
RTVSPropertyOp15
 70
     1
102
RTVSPropertyOp16
 70
     1
102
RTVSPropertyOp17
 70
     1
102
RTVSPropertyOp18
 70
     1
102
RTVSPropertyOp19
 70
     1
102
RTVSPropertyOp20
 70
     1
102
RTVSPropertyOp21
 70
     1
102
RTVSPropertyOp22
 70
     1
102
RTVSPropertyOp23
 70
     1
102
RTVSPropertyOp24
 70
     1
102
RTVSPropertyOp25
 70
     1
102
RTVSPropertyOp26
 70
     1
102
RTVSPropertyOp27
 70
     1
102
RTVSPropertyOp28
 70
     1
102
RTVSPropertyOp29
 70
     1
102
RTVSPropertyOp30
 70
     1
102
RTVSPropertyOp31
 70
     1
102
RTVSPropertyOp32
 70
     1
102
RTVSPropertyOp33
 70
     1
102
RTVSPropertyOp34
 70
     1
102
RTVSPropertyOp35
 70
     1
102
RTVSPropertyOp36
 70
     1
102
RTVSPropertyOp37
 70
     1
102
RTVSPropertyOp38
 70
     1
102
RTVSPropertyOp39
 70
     1
102
RTVSPropertyOp40
 70
     1
102
RTVSPropertyOp41
 70
     1
102
RTVSPropertyOp42
 70
     1
102
RTVSPropertyOp43
 70
     1
102
RTVSPropertyOp44
 70
     1
102
RTVSPropertyOp45
 70
     1
102
RTVSPropertyOp46
 70
     1
102
RTVSPropertyOp47
 70
     1
102
RTVSPropertyOp48
 70
     1
102
RTVSPropertyOp49
 70
     1
102
RTVSPropertyOp50
 70
     1
102
RTVSPropertyOp51
 70
     0
102
RTVSPropertyOp52
 70
     0
102
RTVSPropertyOp53
 70
     1
102
RTVSPropertyOp54
 70
     1
102
RTVSPropertyOp55
 70
     1
102
RTVSPropertyOp56
 70
     1
102
RTVSPropertyOp57
 70
     1
102
RTVSPropertyOp58
 70
     1
102
RTVSPropertyOp59
 70
     1
102
RTVSPropertyOp60
 70
     1
102
RTVSPropertyOp61
 70
     1
102
RTVSPropertyOp62
 70
     1
  0
XRECORD
  5
3609
102
{ACAD_REACTORS
330
3608
102
}
330
3608
100
AcDbXrecord
280
     1
102
RTVSPost2010Prop28
280
     0
102
RTVSPost2010PropOp28
 70
     1
102
RTVSPost2010Prop29
280
     1
102
RTVSPost2010PropOp29
 70
     1
102
RTVSPost2010Prop30
280
     1
102
RTVSPost2010PropOp30
 70
     1
102
RTVSPost2010Prop31
280
     0
102
RTVSPost2010PropOp31
 70
     1
102
RTVSPost2010Prop32
280
     0
102
RTVSPost2010PropOp32
 70
     1
102
RTVSPost2010Prop33
280
     0
102
RTVSPost2010PropOp33
 70
     1
102
RTVSPost2010Prop34
280
     0
102
RTVSPost2010PropOp34
 70
     1
102
RTVSPost2010Prop35
280
     0
102
RTVSPost2010PropOp35
 70
     1
102
RTVSPost2010Prop36
280
     0
102
RTVSPost2010PropOp36
 70
     1
102
RTVSPost2010Prop37
 90
       50
102
RTVSPost2010PropOp37
 70
     1
102
RTVSPost2010Prop38
140
0.0
102
RTVSPost2010PropOp38
 70
     1
102
RTVSPost2010Prop39
140
1.0
102
RTVSPost2010PropOp39
 70
     1
102
RTVSPost2010Prop40
 90
        0
102
RTVSPost2010PropOp40
 70
     1
102
RTVSPost2010Prop41ColorIndex
 90
       18
102
RTVSPost2010Prop41ColorRGB
 90
        0
102
RTVSPost2010PropOp41
 70
     1
102
RTVSPost2010Prop42
 90
       50
102
RTVSPost2010PropOp42
 70
     1
102
RTVSPost2010Prop43
 90
        3
102
RTVSPost2010PropOp43
 70
     1
102
RTVSPost2010Prop44ColorIndex
 90
        5
102
RTVSPost2010Prop44ColorRGB
 90
      255
102
RTVSPost2010PropOp44
 70
     1
102
RTVSPost2010Prop45
280
     0
102
RTVSPost2010PropOp45
 70
     1
102
RTVSPost2010Prop46
 90
       50
102
RTVSPost2010PropOp46
 70
     1
102
RTVSPost2010Prop47
 90
       50
102
RTVSPost2010PropOp47
 70
     1
102
RTVSPost2010Prop48
 90
       50
102
RTVSPost2010PropOp48
 70
     1
102
RTVSPost2010Prop49
280
     0
102
RTVSPost2010PropOp49
 70
     1
102
RTVSPost2010Prop50
 90
       50
102
RTVSPost2010PropOp50
 70
     1
102
RTVSPost2010Prop51ColorIndex
 90
      256
102
RTVSPost2010Prop51ColorRGB
 90
-16777216
102
RTVSPost2010PropOp51
 70
     0
102
RTVSPost2010Prop52
140
1.0
102
RTVSPost2010PropOp52
 70
     0
102
RTVSPost2010Prop53
 90
        2
102
RTVSPost2010PropOp53
 70
     1
102
RTVSPost2010Prop54
  1
strokes_ogs.tif
102
RTVSPost2010PropOp54
 70
     1
102
RTVSPost2010Prop55
280
     0
102
RTVSPost2010PropOp55
 70
     1
102
RTVSPost2010Prop56
140
1.0
102
RTVSPost2010PropOp56
 70
     1
102
RTVSPost2010Prop57
140
1.0
102
RTVSPost2010PropOp57
 70
     1
102
RTVSPropertyOp0
 70
     1
102
RTVSPropertyOp1
 70
     1
102
RTVSPropertyOp2
 70
     1
102
RTVSPropertyOp3
 70
     1
102
RTVSPropertyOp4
 70
     1
102
RTVSPropertyOp5
 70
     1
102
RTVSPropertyOp6
 70
     1
102
RTVSPropertyOp7
 70
     1
102
RTVSPropertyOp8
 70
     1
102
RTVSPropertyOp9
 70
     1
102
RTVSPropertyOp10
 70
     1
102
RTVSPropertyOp11
 70
     1
102
RTVSPropertyOp12
 70
     1
102
RTVSPropertyOp13
 70
     1
102
RTVSPropertyOp14
 70
     1
102
RTVSPropertyOp15
 70
     1
102
RTVSPropertyOp16
 70
     1
102
RTVSPropertyOp17
 70
     1
102
RTVSPropertyOp18
 70
     1
102
RTVSPropertyOp19
 70
     1
102
RTVSPropertyOp20
 70
     1
102
RTVSPropertyOp21
 70
     1
102
RTVSPropertyOp22
 70
     1
102
RTVSPropertyOp23
 70
     1
102
RTVSPropertyOp24
 70
     1
102
RTVSPropertyOp25
 70
     1
102
RTVSPropertyOp26
 70
     1
102
RTVSPropertyOp27
 70
     1
102
RTVSPropertyOp28
 70
     1
102
RTVSPropertyOp29
 70
     1
102
RTVSPropertyOp30
 70
     1
102
RTVSPropertyOp31
 70
     1
102
RTVSPropertyOp32
 70
     1
102
RTVSPropertyOp33
 70
     1
102
RTVSPropertyOp34
 70
     1
102
RTVSPropertyOp35
 70
     1
102
RTVSPropertyOp36
 70
     1
102
RTVSPropertyOp37
 70
     1
102
RTVSPropertyOp38
 70
     1
102
RTVSPropertyOp39
 70
     1
102
RTVSPropertyOp40
 70
     1
102
RTVSPropertyOp41
 70
     1
102
RTVSPropertyOp42
 70
     1
102
RTVSPropertyOp43
 70
     1
102
RTVSPropertyOp44
 70
     1
102
RTVSPropertyOp45
 70
     1
102
RTVSPropertyOp46
 70
     1
102
RTVSPropertyOp47
 70
     1
102
RTVSPropertyOp48
 70
     1
102
RTVSPropertyOp49
 70
     1
102
RTVSPropertyOp50
 70
     1
102
RTVSPropertyOp51
 70
     0
102
RTVSPropertyOp52
 70
     0
102
RTVSPropertyOp53
 70
     1
102
RTVSPropertyOp54
 70
     1
102
RTVSPropertyOp55
 70
     1
102
RTVSPropertyOp56
 70
     1
102
RTVSPropertyOp57
 70
     1
102
RTVSPropertyOp58
 70
     1
102
RTVSPropertyOp59
 70
     1
102
RTVSPropertyOp60
 70
     1
102
RTVSPropertyOp61
 70
     1
102
RTVSPropertyOp62
 70
     1
  0
XRECORD
  5
35FD
102
{ACAD_REACTORS
330
35FC
102
}
330
35FC
100
AcDbXrecord
280
     1
102
RTVSPost2010Prop28
280
     0
102
RTVSPost2010PropOp28
 70
     1
102
RTVSPost2010Prop29
280
     1
102
RTVSPost2010PropOp29
 70
     1
102
RTVSPost2010Prop30
280
     1
102
RTVSPost2010PropOp30
 70
     1
102
RTVSPost2010Prop31
280
     0
102
RTVSPost2010PropOp31
 70
     1
102
RTVSPost2010Prop32
280
     0
102
RTVSPost2010PropOp32
 70
     1
102
RTVSPost2010Prop33
280
     0
102
RTVSPost2010PropOp33
 70
     1
102
RTVSPost2010Prop34
280
     0
102
RTVSPost2010PropOp34
 70
     1
102
RTVSPost2010Prop35
280
     0
102
RTVSPost2010PropOp35
 70
     1
102
RTVSPost2010Prop36
280
     0
102
RTVSPost2010PropOp36
 70
     1
102
RTVSPost2010Prop37
 90
       50
102
RTVSPost2010PropOp37
 70
     1
102
RTVSPost2010Prop38
140
0.0
102
RTVSPost2010PropOp38
 70
     1
102
RTVSPost2010Prop39
140
1.0
102
RTVSPost2010PropOp39
 70
     1
102
RTVSPost2010Prop40
 90
        0
102
RTVSPost2010PropOp40
 70
     1
102
RTVSPost2010Prop41ColorIndex
 90
       18
102
RTVSPost2010Prop41ColorRGB
 90
        0
102
RTVSPost2010PropOp41
 70
     1
102
RTVSPost2010Prop42
 90
       50
102
RTVSPost2010PropOp42
 70
     1
102
RTVSPost2010Prop43
 90
        3
102
RTVSPost2010PropOp43
 70
     1
102
RTVSPost2010Prop44ColorIndex
 90
        5
102
RTVSPost2010Prop44ColorRGB
 90
      255
102
RTVSPost2010PropOp44
 70
     1
102
RTVSPost2010Prop45
280
     0
102
RTVSPost2010PropOp45
 70
     1
102
RTVSPost2010Prop46
 90
       50
102
RTVSPost2010PropOp46
 70
     1
102
RTVSPost2010Prop47
 90
       50
102
RTVSPost2010PropOp47
 70
     1
102
RTVSPost2010Prop48
 90
       50
102
RTVSPost2010PropOp48
 70
     1
102
RTVSPost2010Prop49
280
     0
102
RTVSPost2010PropOp49
 70
     1
102
RTVSPost2010Prop50
 90
       50
102
RTVSPost2010PropOp50
 70
     1
102
RTVSPost2010Prop51ColorIndex
 90
      256
102
RTVSPost2010Prop51ColorRGB
 90
-16777216
102
RTVSPost2010PropOp51
 70
     0
102
RTVSPost2010Prop52
140
1.0
102
RTVSPost2010PropOp52
 70
     0
102
RTVSPost2010Prop53
 90
        2
102
RTVSPost2010PropOp53
 70
     1
102
RTVSPost2010Prop54
  1
strokes_ogs.tif
102
RTVSPost2010PropOp54
 70
     1
102
RTVSPost2010Prop55
280
     0
102
RTVSPost2010PropOp55
 70
     1
102
RTVSPost2010Prop56
140
1.0
102
RTVSPost2010PropOp56
 70
     1
102
RTVSPost2010Prop57
140
1.0
102
RTVSPost2010PropOp57
 70
     1
102
RTVSPropertyOp0
 70
     1
102
RTVSPropertyOp1
 70
     1
102
RTVSPropertyOp2
 70
     1
102
RTVSPropertyOp3
 70
     1
102
RTVSPropertyOp4
 70
     1
102
RTVSPropertyOp5
 70
     1
102
RTVSPropertyOp6
 70
     1
102
RTVSPropertyOp7
 70
     1
102
RTVSPropertyOp8
 70
     1
102
RTVSPropertyOp9
 70
     1
102
RTVSPropertyOp10
 70
     1
102
RTVSPropertyOp11
 70
     1
102
RTVSPropertyOp12
 70
     1
102
RTVSPropertyOp13
 70
     1
102
RTVSPropertyOp14
 70
     1
102
RTVSPropertyOp15
 70
     1
102
RTVSPropertyOp16
 70
     1
102
RTVSPropertyOp17
 70
     1
102
RTVSPropertyOp18
 70
     1
102
RTVSPropertyOp19
 70
     1
102
RTVSPropertyOp20
 70
     1
102
RTVSPropertyOp21
 70
     1
102
RTVSPropertyOp22
 70
     1
102
RTVSPropertyOp23
 70
     1
102
RTVSPropertyOp24
 70
     1
102
RTVSPropertyOp25
 70
     1
102
RTVSPropertyOp26
 70
     1
102
RTVSPropertyOp27
 70
     1
102
RTVSPropertyOp28
 70
     1
102
RTVSPropertyOp29
 70
     1
102
RTVSPropertyOp30
 70
     1
102
RTVSPropertyOp31
 70
     1
102
RTVSPropertyOp32
 70
     1
102
RTVSPropertyOp33
 70
     1
102
RTVSPropertyOp34
 70
     1
102
RTVSPropertyOp35
 70
     1
102
RTVSPropertyOp36
 70
     1
102
RTVSPropertyOp37
 70
     1
102
RTVSPropertyOp38
 70
     1
102
RTVSPropertyOp39
 70
     1
102
RTVSPropertyOp40
 70
     1
102
RTVSPropertyOp41
 70
     1
102
RTVSPropertyOp42
 70
     1
102
RTVSPropertyOp43
 70
     1
102
RTVSPropertyOp44
 70
     1
102
RTVSPropertyOp45
 70
     1
102
RTVSPropertyOp46
 70
     1
102
RTVSPropertyOp47
 70
     1
102
RTVSPropertyOp48
 70
     1
102
RTVSPropertyOp49
 70
     1
102
RTVSPropertyOp50
 70
     1
102
RTVSPropertyOp51
 70
     0
102
RTVSPropertyOp52
 70
     0
102
RTVSPropertyOp53
 70
     1
102
RTVSPropertyOp54
 70
     1
102
RTVSPropertyOp55
 70
     1
102
RTVSPropertyOp56
 70
     1
102
RTVSPropertyOp57
 70
     1
102
RTVSPropertyOp58
 70
     1
102
RTVSPropertyOp59
 70
     1
102
RTVSPropertyOp60
 70
     1
102
RTVSPropertyOp61
 70
     1
102
RTVSPropertyOp62
 70
     1
  0
XRECORD
  5
3615
102
{ACAD_REACTORS
330
3614
102
}
330
3614
100
AcDbXrecord
280
     1
102
RTVSPost2010Prop28
280
     0
102
RTVSPost2010PropOp28
 70
     1
102
RTVSPost2010Prop29
280
     1
102
RTVSPost2010PropOp29
 70
     1
102
RTVSPost2010Prop30
280
     1
102
RTVSPost2010PropOp30
 70
     1
102
RTVSPost2010Prop31
280
     0
102
RTVSPost2010PropOp31
 70
     1
102
RTVSPost2010Prop32
280
     0
102
RTVSPost2010PropOp32
 70
     1
102
RTVSPost2010Prop33
280
     0
102
RTVSPost2010PropOp33
 70
     1
102
RTVSPost2010Prop34
280
     0
102
RTVSPost2010PropOp34
 70
     1
102
RTVSPost2010Prop35
280
     0
102
RTVSPost2010PropOp35
 70
     1
102
RTVSPost2010Prop36
280
     0
102
RTVSPost2010PropOp36
 70
     1
102
RTVSPost2010Prop37
 90
       50
102
RTVSPost2010PropOp37
 70
     1
102
RTVSPost2010Prop38
140
0.0
102
RTVSPost2010PropOp38
 70
     1
102
RTVSPost2010Prop39
140
1.0
102
RTVSPost2010PropOp39
 70
     1
102
RTVSPost2010Prop40
 90
        0
102
RTVSPost2010PropOp40
 70
     1
102
RTVSPost2010Prop41ColorIndex
 90
       18
102
RTVSPost2010Prop41ColorRGB
 90
        0
102
RTVSPost2010PropOp41
 70
     1
102
RTVSPost2010Prop42
 90
       50
102
RTVSPost2010PropOp42
 70
     1
102
RTVSPost2010Prop43
 90
        3
102
RTVSPost2010PropOp43
 70
     1
102
RTVSPost2010Prop44ColorIndex
 90
        5
102
RTVSPost2010Prop44ColorRGB
 90
      255
102
RTVSPost2010PropOp44
 70
     1
102
RTVSPost2010Prop45
280
     0
102
RTVSPost2010PropOp45
 70
     1
102
RTVSPost2010Prop46
 90
       50
102
RTVSPost2010PropOp46
 70
     1
102
RTVSPost2010Prop47
 90
       50
102
RTVSPost2010PropOp47
 70
     1
102
RTVSPost2010Prop48
 90
       50
102
RTVSPost2010PropOp48
 70
     1
102
RTVSPost2010Prop49
280
     0
102
RTVSPost2010PropOp49
 70
     1
102
RTVSPost2010Prop50
 90
       50
102
RTVSPost2010PropOp50
 70
     1
102
RTVSPost2010Prop51ColorIndex
 90
      256
102
RTVSPost2010Prop51ColorRGB
 90
-16777216
102
RTVSPost2010PropOp51
 70
     0
102
RTVSPost2010Prop52
140
1.0
102
RTVSPost2010PropOp52
 70
     0
102
RTVSPost2010Prop53
 90
        2
102
RTVSPost2010PropOp53
 70
     1
102
RTVSPost2010Prop54
  1
strokes_ogs.tif
102
RTVSPost2010PropOp54
 70
     1
102
RTVSPost2010Prop55
280
     0
102
RTVSPost2010PropOp55
 70
     1
102
RTVSPost2010Prop56
140
1.0
102
RTVSPost2010PropOp56
 70
     1
102
RTVSPost2010Prop57
140
1.0
102
RTVSPost2010PropOp57
 70
     1
102
RTVSPropertyOp0
 70
     1
102
RTVSPropertyOp1
 70
     1
102
RTVSPropertyOp2
 70
     1
102
RTVSPropertyOp3
 70
     1
102
RTVSPropertyOp4
 70
     1
102
RTVSPropertyOp5
 70
     1
102
RTVSPropertyOp6
 70
     1
102
RTVSPropertyOp7
 70
     1
102
RTVSPropertyOp8
 70
     1
102
RTVSPropertyOp9
 70
     1
102
RTVSPropertyOp10
 70
     1
102
RTVSPropertyOp11
 70
     1
102
RTVSPropertyOp12
 70
     1
102
RTVSPropertyOp13
 70
     1
102
RTVSPropertyOp14
 70
     1
102
RTVSPropertyOp15
 70
     1
102
RTVSPropertyOp16
 70
     1
102
RTVSPropertyOp17
 70
     1
102
RTVSPropertyOp18
 70
     1
102
RTVSPropertyOp19
 70
     1
102
RTVSPropertyOp20
 70
     1
102
RTVSPropertyOp21
 70
     1
102
RTVSPropertyOp22
 70
     1
102
RTVSPropertyOp23
 70
     1
102
RTVSPropertyOp24
 70
     1
102
RTVSPropertyOp25
 70
     1
102
RTVSPropertyOp26
 70
     1
102
RTVSPropertyOp27
 70
     1
102
RTVSPropertyOp28
 70
     1
102
RTVSPropertyOp29
 70
     1
102
RTVSPropertyOp30
 70
     1
102
RTVSPropertyOp31
 70
     1
102
RTVSPropertyOp32
 70
     1
102
RTVSPropertyOp33
 70
     1
102
RTVSPropertyOp34
 70
     1
102
RTVSPropertyOp35
 70
     1
102
RTVSPropertyOp36
 70
     1
102
RTVSPropertyOp37
 70
     1
102
RTVSPropertyOp38
 70
     1
102
RTVSPropertyOp39
 70
     1
102
RTVSPropertyOp40
 70
     1
102
RTVSPropertyOp41
 70
     1
102
RTVSPropertyOp42
 70
     1
102
RTVSPropertyOp43
 70
     1
102
RTVSPropertyOp44
 70
     1
102
RTVSPropertyOp45
 70
     1
102
RTVSPropertyOp46
 70
     1
102
RTVSPropertyOp47
 70
     1
102
RTVSPropertyOp48
 70
     1
102
RTVSPropertyOp49
 70
     1
102
RTVSPropertyOp50
 70
     1
102
RTVSPropertyOp51
 70
     0
102
RTVSPropertyOp52
 70
     0
102
RTVSPropertyOp53
 70
     1
102
RTVSPropertyOp54
 70
     1
102
RTVSPropertyOp55
 70
     1
102
RTVSPropertyOp56
 70
     1
102
RTVSPropertyOp57
 70
     1
102
RTVSPropertyOp58
 70
     1
102
RTVSPropertyOp59
 70
     1
102
RTVSPropertyOp60
 70
     1
102
RTVSPropertyOp61
 70
     1
102
RTVSPropertyOp62
 70
     1
  0
ENDSEC
  0
EOF
