  0
SECTION
  2
HEADER
  9
$ACADVER
  1
AC1015
  9
$ACADMAINTVER
 70
    20
  9
$DWGCODEPAGE
  3
ANSI_932
  9
$INSBASE
 10
0.0
 20
0.0
 30
0.0
  9
$EXTMIN
 10
9.9999975266385
 20
10.0
 30
0.0
  9
$EXTMAX
 10
664.4555511789442
 20
456.2671253204901
 30
0.0
  9
$LIMMIN
 10
0.0000015376081137
 20
-0.0000001931532552
  9
$LIMMAX
 10
692.0000015376082
 20
477.0606058674526
  9
$ORTHOMODE
 70
     1
  9
$REGENMODE
 70
     1
  9
$FILLMODE
 70
     1
  9
$QTEXTMODE
 70
     0
  9
$MIRRTEXT
 70
     1
  9
$LTSCALE
 40
0.5
  9
$ATTMODE
 70
     1
  9
$TEXTSIZE
 40
2.5
  9
$TRACEWID
 40
1.0
  9
$TEXTSTYLE
  7
STANDARD
  9
$CLAYER
  8
0
  9
$CELTYPE
  6
BYLAYER
  9
$CECOLOR
 62
   256
  9
$CELTSCALE
 40
1.0
  9
$DISPSILH
 70
     0
  9
$DIMSCALE
 40
1.0
  9
$DIMASZ
 40
3.0
  9
$DIMEXO
 40
1.0
  9
$DIMDLI
 40
10.0
  9
$DIMRND
 40
0.0
  9
$DIMDLE
 40
0.0
  9
$DIMEXE
 40
1.0
  9
$DIMTP
 40
0.0
  9
$DIMTM
 40
0.0
  9
$DIMTXT
 40
3.2
  9
$DIMCEN
 40
0.0
  9
$DIMTSZ
 40
0.0
  9
$DIMTOL
 70
     0
  9
$DIMLIM
 70
     0
  9
$DIMTIH
 70
     0
  9
$DIMTOH
 70
     0
  9
$DIMSE1
 70
     0
  9
$DIMSE2
 70
     0
  9
$DIMTAD
 70
     3
  9
$DIMZIN
 70
     8
  9
$DIMBLK
  1

  9
$DIMASO
 70
     1
  9
$DIMSHO
 70
     1
  9
$DIMPOST
  1

  9
$DIMAPOST
  1

  9
$DIMALT
 70
     0
  9
$DIMALTD
 70
     2
  9
$DIMALTF
 40
25.4
  9
$DIMLFAC
 40
1.0
  9
$DIMTOFL
 70
     1
  9
$DIMTVP
 40
0.0
  9
$DIMTIX
 70
     0
  9
$DIMSOXD
 70
     0
  9
$DIMSAH
 70
     1
  9
$DIMBLK1
  1
OPEN
  9
$DIMBLK2
  1
OPEN
  9
$DIMSTYLE
  2
STANDARD
  9
$DIMCLRD
 70
     0
  9
$DIMCLRE
 70
     0
  9
$DIMCLRT
 70
     0
  9
$DIMTFAC
 40
1.0
  9
$DIMGAP
 40
1.0
  9
$DIMJUST
 70
     0
  9
$DIMSD1
 70
     0
  9
$DIMSD2
 70
     0
  9
$DIMTOLJ
 70
     1
  9
$DIMTZIN
 70
     0
  9
$DIMALTZ
 70
     0
  9
$DIMALTTZ
 70
     0
  9
$DIMUPT
 70
     0
  9
$DIMDEC
 70
     4
  9
$DIMTDEC
 70
     4
  9
$DIMALTU
 70
     2
  9
$DIMALTTD
 70
     2
  9
$DIMTXSTY
  7
STANDARD
  9
$DIMAUNIT
 70
     0
  9
$DIMADEC
 70
     0
  9
$DIMALTRND
 40
0.0
  9
$DIMAZIN
 70
     0
  9
$DIMDSEP
 70
    46
  9
$DIMATFIT
 70
     3
  9
$DIMFRAC
 70
     0
  9
$DIMLDRBLK
  1
OPEN
  9
$DIMLUNIT
 70
     2
  9
$DIMLWD
 70
    -2
  9
$DIMLWE
 70
    -2
  9
$DIMTMOVE
 70
     0
  9
$LUNITS
 70
     2
  9
$LUPREC
 70
     4
  9
$SKETCHINC
 40
1.0
  9
$FILLETRAD
 40
10.0
  9
$AUNITS
 70
     0
  9
$AUPREC
 70
     0
  9
$MENU
  1
.
  9
$ELEVATION
 40
0.0
  9
$PELEVATION
 40
0.0
  9
$THICKNESS
 40
0.0
  9
$LIMCHECK
 70
     0
  9
$CHAMFERA
 40
10.0
  9
$CHAMFERB
 40
10.0
  9
$CHAMFERC
 40
20.0
  9
$CHAMFERD
 40
0.0
  9
$SKPOLY
 70
     0
  9
$TDCREATE
 40
2452929.381745324
  9
$TDUCREATE
 40
2452929.006745324
  9
$TDUPDATE
 40
2457192.690925614
  9
$TDUUPDATE
 40
2457192.315925614
  9
$TDINDWG
 40
0.1898125926
  9
$TDUSRTIMER
 40
0.1898125694
  9
$USRTIMER
 70
     1
  9
$ANGBASE
 50
0.0
  9
$ANGDIR
 70
     0
  9
$PDMODE
 70
     0
  9
$PDSIZE
 40
0.0
  9
$PLINEWID
 40
0.0
  9
$SPLFRAME
 70
     0
  9
$SPLINETYPE
 70
     6
  9
$SPLINESEGS
 70
     8
  9
$HANDSEED
  5
290E
  9
$SURFTAB1
 70
     6
  9
$SURFTAB2
 70
     6
  9
$SURFTYPE
 70
     6
  9
$SURFU
 70
     6
  9
$SURFV
 70
     6
  9
$UCSBASE
  2

  9
$UCSNAME
  2

  9
$UCSORG
 10
0.0
 20
0.0
 30
0.0
  9
$UCSXDIR
 10
1.0
 20
0.0
 30
0.0
  9
$UCSYDIR
 10
0.0
 20
1.0
 30
0.0
  9
$UCSORTHOREF
  2

  9
$UCSORTHOVIEW
 70
     0
  9
$UCSORGTOP
 10
0.0
 20
0.0
 30
0.0
  9
$UCSORGBOTTOM
 10
0.0
 20
0.0
 30
0.0
  9
$UCSORGLEFT
 10
0.0
 20
0.0
 30
0.0
  9
$UCSORGRIGHT
 10
0.0
 20
0.0
 30
0.0
  9
$UCSORGFRONT
 10
0.0
 20
0.0
 30
0.0
  9
$UCSORGBACK
 10
0.0
 20
0.0
 30
0.0
  9
$PUCSBASE
  2

  9
$PUCSNAME
  2

  9
$PUCSORG
 10
0.0
 20
0.0
 30
0.0
  9
$PUCSXDIR
 10
1.0
 20
0.0
 30
0.0
  9
$PUCSYDIR
 10
0.0
 20
1.0
 30
0.0
  9
$PUCSORTHOREF
  2

  9
$PUCSORTHOVIEW
 70
     0
  9
$PUCSORGTOP
 10
0.0
 20
0.0
 30
0.0
  9
$PUCSORGBOTTOM
 10
0.0
 20
0.0
 30
0.0
  9
$PUCSORGLEFT
 10
0.0
 20
0.0
 30
0.0
  9
$PUCSORGRIGHT
 10
0.0
 20
0.0
 30
0.0
  9
$PUCSORGFRONT
 10
0.0
 20
0.0
 30
0.0
  9
$PUCSORGBACK
 10
0.0
 20
0.0
 30
0.0
  9
$USERI1
 70
     0
  9
$USERI2
 70
     0
  9
$USERI3
 70
     0
  9
$USERI4
 70
     0
  9
$USERI5
 70
     0
  9
$USERR1
 40
0.0
  9
$USERR2
 40
0.0
  9
$USERR3
 40
0.0
  9
$USERR4
 40
0.0
  9
$USERR5
 40
0.0
  9
$WORLDVIEW
 70
     1
  9
$SHADEDGE
 70
     3
  9
$SHADEDIF
 70
    70
  9
$TILEMODE
 70
     1
  9
$MAXACTVP
 70
    48
  9
$PINSBASE
 10
0.0
 20
0.0
 30
0.0
  9
$PLIMCHECK
 70
     0
  9
$PEXTMIN
 10
1.000000000000000E+20
 20
1.000000000000000E+20
 30
1.000000000000000E+20
  9
$PEXTMAX
 10
-1.000000000000000E+20
 20
-1.000000000000000E+20
 30
-1.000000000000000E+20
  9
$PLIMMIN
 10
0.0
 20
0.0
  9
$PLIMMAX
 10
420.0
 20
297.0
  9
$UNITMODE
 70
     0
  9
$VISRETAIN
 70
     1
  9
$PLINEGEN
 70
     0
  9
$PSLTSCALE
 70
     1
  9
$TREEDEPTH
 70
  3020
  9
$CMLSTYLE
  2
STANDARD
  9
$CMLJUST
 70
     0
  9
$CMLSCALE
 40
20.0
  9
$PROXYGRAPHICS
 70
     1
  9
$MEASUREMENT
 70
     0
  9
$CELWEIGHT
370
    -1
  9
$ENDCAPS
280
     0
  9
$JOINSTYLE
280
     0
  9
$LWDISPLAY
290
     0
  9
$INSUNITS
 70
     0
  9
$HYPERLINKBASE
  1

  9
$STYLESHEET
  1

  9
$XEDIT
290
     1
  9
$CEPSNTYPE
380
     0
  9
$PSTYLEMODE
290
     1
  9
$FINGERPRINTGUID
  2
{C2C5616C-AC6E-4BF9-A5AC-9E44C2D042AE}
  9
$VERSIONGUID
  2
{4CB18CBD-3E55-4529-99D5-F841FD2E349F}
  9
$EXTNAMES
290
     1
  9
$PSVPSCALE
 40
0.0
  9
$OLESTARTUP
290
     0
  0
ENDSEC
  0
SECTION
  2
CLASSES
  0
CLASS
  1
ACDBDICTIONARYWDFLT
  2
AcDbDictionaryWithDefault
  3
ObjectDBX Classes
 90
        0
280
     0
281
     0
  0
CLASS
  1
ACDBPLACEHOLDER
  2
AcDbPlaceHolder
  3
ObjectDBX Classes
 90
        0
280
     0
281
     0
  0
CLASS
  1
LAYOUT
  2
AcDbLayout
  3
ObjectDBX Classes
 90
        0
280
     0
281
     0
  0
CLASS
  1
DICTIONARYVAR
  2
AcDbDictionaryVar
  3
ObjectDBX Classes
 90
        0
280
     0
281
     0
  0
CLASS
  1
MATERIAL
  2
AcDbMaterial
  3
ObjectDBX Classes
 90
     1153
280
     0
281
     0
  0
CLASS
  1
VISUALSTYLE
  2
AcDbVisualStyle
  3
ObjectDBX Classes
 90
     4095
280
     0
281
     0
  0
CLASS
  1
TABLESTYLE
  2
AcDbTableStyle
  3
ObjectDBX Classes
 90
     4095
280
     0
281
     0
  0
CLASS
  1
SCALE
  2
AcDbScale
  3
ObjectDBX Classes
 90
     1153
280
     0
281
     0
  0
CLASS
  1
MLEADERSTYLE
  2
AcDbMLeaderStyle
  3
ACDB_MLEADERSTYLE_CLASS
 90
     4095
280
     0
281
     0
  0
CLASS
  1
ACDBSECTIONVIEWSTYLE
  2
AcDbSectionViewStyle
  3
ObjectDBX Classes
 90
     1025
280
     0
281
     0
  0
CLASS
  1
ACDBDETAILVIEWSTYLE
  2
AcDbDetailViewStyle
  3
ObjectDBX Classes
 90
     1025
280
     0
281
     0
  0
CLASS
  1
CELLSTYLEMAP
  2
AcDbCellStyleMap
  3
ObjectDBX Classes
 90
     1152
280
     0
281
     0
  0
ENDSEC
  0
SECTION
  2
TABLES
  0
TABLE
  2
VPORT
  5
8
330
0
100
AcDbSymbolTable
 70
     1
  0
VPORT
  5
285A
330
8
100
AcDbSymbolTableRecord
100
AcDbViewportTableRecord
  2
*ACTIVE
 70
     0
 10
0.0
 20
0.0
 11
1.0
 21
1.0
 12
508.9892302562379
 22
233.1435722447707
 13
0.0
 23
0.0
 14
10.0
 24
10.0
 15
10.0
 25
10.0
 16
0.0
 26
0.0
 36
1.0
 17
0.0
 27
0.0
 37
0.0
 40
449.8214056819157
 41
2.35006605019815
 42
50.0
 43
0.0
 44
0.0
 50
0.0
 51
0.0
 71
     0
 72
   100
 73
     1
 74
     0
 75
     0
 76
     0
 77
     0
 78
     0
281
     0
 65
     1
110
0.0
120
0.0
130
0.0
111
1.0
121
0.0
131
0.0
112
0.0
122
1.0
132
0.0
 79
     0
146
0.0
1001
ACAD_NAV_VCDISPLAY
1070
     3
  0
ENDTAB
  0
TABLE
  2
LTYPE
  5
5
330
0
100
AcDbSymbolTable
 70
     4
  0
LTYPE
  5
12
330
5
100
AcDbSymbolTableRecord
100
AcDbLinetypeTableRecord
  2
BYBLOCK
 70
     0
  3

 72
    65
 73
     0
 40
0.0
  0
LTYPE
  5
13
330
5
100
AcDbSymbolTableRecord
100
AcDbLinetypeTableRecord
  2
BYLAYER
 70
     0
  3

 72
    65
 73
     0
 40
0.0
  0
LTYPE
  5
14
330
5
100
AcDbSymbolTableRecord
100
AcDbLinetypeTableRecord
  2
CONTINUOUS
 70
     0
  3
Solid line
 72
    65
 73
     0
 40
0.0
  0
LTYPE
  5
4B
330
5
100
AcDbSymbolTableRecord
100
AcDbLinetypeTableRecord
  2
DASHED
 70
     0
  3
Dashed __ __ __ __ __ __ __ __ __ __ __ __ __ _
 72
    65
 73
     2
 40
19.04999999999998
 49
12.7
 74
     0
 49
-6.349999999999997
 74
     0
  0
LTYPE
  5
4C
330
5
100
AcDbSymbolTableRecord
100
AcDbLinetypeTableRecord
  2
CENTER
 70
     0
  3
Center ____ _ ____ _ ____ _ ____ _ ____ _ ____
 72
    65
 73
     4
 40
50.8
 49
31.75
 74
     0
 49
-6.349999999999997
 74
     0
 49
6.349999999999997
 74
     0
 49
-6.349999999999997
 74
     0
  0
LTYPE
  5
4D
330
5
100
AcDbSymbolTableRecord
100
AcDbLinetypeTableRecord
  2
PHANTOM
 70
     0
  3
Phantom ______  __  __  ______  __  __  ______
 72
    65
 73
     6
 40
63.5
 49
31.75
 74
     0
 49
-6.349999999999997
 74
     0
 49
6.349999999999997
 74
     0
 49
-6.349999999999997
 74
     0
 49
6.349999999999997
 74
     0
 49
-6.349999999999997
 74
     0
  0
ENDTAB
  0
TABLE
  2
LAYER
  5
2
330
0
100
AcDbSymbolTable
 70
     8
  0
LAYER
  5
E
102
{ACAD_XDICTIONARY
360
28B2
102
}
330
2
100
AcDbSymbolTableRecord
100
AcDbLayerTableRecord
  2
0
 70
     0
 62
     7
  6
CONTINUOUS
370
    -3
390
2861
  0
LAYER
  5
4E
102
{ACAD_XDICTIONARY
360
28B4
102
}
330
2
100
AcDbSymbolTableRecord
100
AcDbLayerTableRecord
  2
4
 70
     0
 62
     1
  6
CENTER
370
    -3
390
2861
  0
LAYER
  5
4F
102
{ACAD_XDICTIONARY
360
28B6
102
}
330
2
100
AcDbSymbolTableRecord
100
AcDbLayerTableRecord
  2
5
 70
     0
 62
     6
  6
PHANTOM
370
    -3
390
2861
  0
LAYER
  5
50
102
{ACAD_XDICTIONARY
360
28B8
102
}
330
2
100
AcDbSymbolTableRecord
100
AcDbLayerTableRecord
  2
1
 70
     0
 62
     7
  6
CONTINUOUS
370
    -3
390
2861
  0
LAYER
  5
51
102
{ACAD_XDICTIONARY
360
28BA
102
}
330
2
100
AcDbSymbolTableRecord
100
AcDbLayerTableRecord
  2
2
 70
     0
 62
     4
  6
CONTINUOUS
370
    -3
390
2861
  0
LAYER
  5
52
102
{ACAD_XDICTIONARY
360
28BC
102
}
330
2
100
AcDbSymbolTableRecord
100
AcDbLayerTableRecord
  2
3
 70
     0
 62
     2
  6
DASHED
370
    -3
390
2861
  0
LAYER
  5
53
102
{ACAD_XDICTIONARY
360
28BE
102
}
330
2
100
AcDbSymbolTableRecord
100
AcDbLayerTableRecord
  2
6
 70
     0
 62
     5
  6
CONTINUOUS
370
    -3
390
2861
  0
LAYER
  5
54
102
{ACAD_XDICTIONARY
360
28C0
102
}
330
2
100
AcDbSymbolTableRecord
100
AcDbLayerTableRecord
  2
7
 70
     0
 62
     3
  6
CONTINUOUS
370
    -3
390
2861
  0
ENDTAB
  0
TABLE
  2
STYLE
  5
3
330
0
100
AcDbSymbolTable
 70
     1
  0
STYLE
  5
F
330
3
100
AcDbSymbolTableRecord
100
AcDbTextStyleTableRecord
  2
STANDARD
 70
     0
 40
0.0
 41
1.0
 50
0.0
 71
     0
 42
2.5
  3
simplex.shx
  4

  0
ENDTAB
  0
TABLE
  2
VIEW
  5
6
330
0
100
AcDbSymbolTable
 70
     0
  0
ENDTAB
  0
TABLE
  2
UCS
  5
7
330
0
100
AcDbSymbolTable
 70
     0
  0
ENDTAB
  0
TABLE
  2
APPID
  5
9
330
0
100
AcDbSymbolTable
 70
     5
  0
APPID
  5
10
330
9
100
AcDbSymbolTableRecord
100
AcDbRegAppTableRecord
  2
ACAD
 70
     0
  0
APPID
  5
3E
330
9
100
AcDbSymbolTableRecord
100
AcDbRegAppTableRecord
  2
CONTENTTABDATA
 70
     0
  0
APPID
  5
3F
330
9
100
AcDbSymbolTableRecord
100
AcDbRegAppTableRecord
  2
CONTENTCURRENTTAB
 70
     0
  0
APPID
  5
28CC
330
9
100
AcDbSymbolTableRecord
100
AcDbRegAppTableRecord
  2
ACAD_NAV_VCDISPLAY
 70
     0
  0
APPID
  5
2905
330
9
100
AcDbSymbolTableRecord
100
AcDbRegAppTableRecord
  2
ACAD_MLEADERVER
 70
     0
  0
ENDTAB
  0
TABLE
  2
DIMSTYLE
  5
A
330
0
100
AcDbSymbolTable
 70
     1
100
AcDbDimStyleTable
 71
     0
  0
DIMSTYLE
105
1D
330
A
100
AcDbSymbolTableRecord
100
AcDbDimStyleTableRecord
  2
STANDARD
 70
     0
 41
3.0
 42
1.0
 43
10.0
 44
1.0
 73
     0
 74
     0
 77
     3
 78
     8
140
3.2
141
0.0
147
1.0
172
     1
173
     1
340
F
341
2E
343
2E
344
2E
  0
ENDTAB
  0
TABLE
  2
BLOCK_RECORD
  5
1
330
0
100
AcDbSymbolTable
 70
     1
  0
BLOCK_RECORD
  5
18
102
{ACAD_XDICTIONARY
360
2847
102
}
330
1
100
AcDbSymbolTableRecord
100
AcDbBlockTableRecord
  2
*MODEL_SPACE
340
28AF
  0
BLOCK_RECORD
  5
15
102
{ACAD_XDICTIONARY
360
2845
102
}
330
1
100
AcDbSymbolTableRecord
100
AcDbBlockTableRecord
  2
*PAPER_SPACE
340
28B0
  0
BLOCK_RECORD
  5
2E
330
1
100
AcDbSymbolTableRecord
100
AcDbBlockTableRecord
  2
_OPEN
340
0
  0
ENDTAB
  0
ENDSEC
  0
SECTION
  2
BLOCKS
  0
BLOCK
  5
19
330
18
100
AcDbEntity
  8
0
100
AcDbBlockBegin
  2
*MODEL_SPACE
 70
     0
 10
0.0
 20
0.0
 30
0.0
  3
*MODEL_SPACE
  1

  0
ENDBLK
  5
1A
330
18
100
AcDbEntity
  8
0
100
AcDbBlockEnd
  0
BLOCK
  5
16
330
15
100
AcDbEntity
 67
     1
  8
0
100
AcDbBlockBegin
  2
*PAPER_SPACE
 70
     0
 10
0.0
 20
0.0
 30
0.0
  3
*PAPER_SPACE
  1

  0
ENDBLK
  5
17
330
15
100
AcDbEntity
 67
     1
  8
0
100
AcDbBlockEnd
  0
BLOCK
  5
2F
330
2E
100
AcDbEntity
  8
0
100
AcDbBlockBegin
  2
_OPEN
 70
     0
 10
0.0
 20
0.0
 30
0.0
  3
_OPEN
  1

  0
LINE
  5
30
330
2E
100
AcDbEntity
  8
0
  6
ByBlock
 62
     0
100
AcDbLine
 10
-1.0
 20
0.1666666666666666
 30
0.0
 11
0.0
 21
0.0
 31
0.0
  0
LINE
  5
31
330
2E
100
AcDbEntity
  8
0
  6
ByBlock
 62
     0
100
AcDbLine
 10
0.0
 20
0.0
 30
0.0
 11
-1.0
 21
-0.1666666666666666
 31
0.0
  0
LINE
  5
32
330
2E
100
AcDbEntity
  8
0
  6
ByBlock
 62
     0
100
AcDbLine
 10
0.0
 20
0.0
 30
0.0
 11
-1.0
 21
0.0
 31
0.0
  0
ENDBLK
  5
33
330
2E
100
AcDbEntity
  8
0
100
AcDbBlockEnd
  0
ENDSEC
  0
SECTION
  2
ENTITIES
  0
TEXT
  5
63
330
18
100
AcDbEntity
  8
4
  6
CENTER
 48
0.25
100
AcDbText
 10
23.97950852663849
 20
10.0
 30
0.0
 40
1.399999999999999
  1
4
100
AcDbText
  0
TEXT
  5
64
330
18
100
AcDbEntity
  8
7
  6
Continuous
 48
0.25
100
AcDbText
 10
9.999997526638502
 20
26.0000007607689
 30
0.0
 40
3.0
  1
CODE No.9483
100
AcDbText
  0
TEXT
  5
65
330
18
100
AcDbEntity
  8
7
  6
Continuous
 48
0.25
100
AcDbText
 10
9.999997526638502
 20
18.00000076076889
 30
0.0
 40
3.0
  1
TYPE No.TCA-540SR-NRB75
100
AcDbText
  0
TEXT
  5
66
330
18
100
AcDbEntity
  8
1
  6
Continuous
 48
0.25
100
AcDbText
 10
9.999997526638502
 20
10.00000076076889
 30
0.0
 40
1.399999999999999
  1
LAYER
100
AcDbText
  0
TEXT
  5
67
330
18
100
AcDbEntity
  8
2
  6
Continuous
 48
0.25
100
AcDbText
 10
19.9795085266385
 20
10.0
 30
0.0
 40
1.399999999999999
  1
2
100
AcDbText
  0
TEXT
  5
68
330
18
100
AcDbEntity
  8
3
  6
DASHED
 48
0.25
100
AcDbText
 10
21.97950852663849
 20
10.0
 30
0.0
 40
1.399999999999999
  1
3
100
AcDbText
  0
TEXT
  5
69
330
18
100
AcDbEntity
  8
1
  6
Continuous
 48
0.25
100
AcDbText
 10
17.9795085266385
 20
10.0
 30
0.0
 40
1.399999999999999
  1
1
100
AcDbText
  0
TEXT
  5
6A
330
18
100
AcDbEntity
  8
5
  6
PHANTOM
 48
0.25
100
AcDbText
 10
25.97950852663849
 20
10.0
 30
0.0
 40
1.399999999999999
  1
5
100
AcDbText
  0
TEXT
  5
6B
330
18
100
AcDbEntity
  8
6
  6
Continuous
 48
0.25
100
AcDbText
 10
27.97950852663849
 20
10.0
 30
0.0
 40
1.399999999999999
  1
6
100
AcDbText
  0
TEXT
  5
6C
330
18
100
AcDbEntity
  8
7
  6
Continuous
 48
0.25
100
AcDbText
 10
29.9795085266385
 20
10.0
 30
0.0
 40
1.399999999999999
  1
7
100
AcDbText
  0
CIRCLE
  5
14F4
330
18
100
AcDbEntity
  8
2
  6
Continuous
100
AcDbCircle
 10
622.3222161789442
 20
237.6551532324898
 30
0.0
 40
4.25
  0
CIRCLE
  5
14F5
330
18
100
AcDbEntity
  8
1
  6
Continuous
100
AcDbCircle
 10
622.3222161789442
 20
237.6551532324898
 30
0.0
 40
5.000003999999761
  0
CIRCLE
  5
14F7
330
18
100
AcDbEntity
  8
1
  6
Continuous
100
AcDbCircle
 10
622.3222161789442
 20
237.6551532324898
 30
0.0
 40
8.500003000000162
  0
ARC
  5
14F8
330
18
100
AcDbEntity
  8
1
  6
Continuous
100
AcDbCircle
 10
622.3222161789442
 20
237.6551532324898
 30
0.0
 40
9.500008000000008
100
AcDbArc
 50
86.52544192956085
 51
93.47455807043983
  0
LINE
  5
14FA
330
18
100
AcDbEntity
  8
1
  6
Continuous
100
AcDbLine
 10
630.2464656890037
 20
242.8950407983053
 30
0.0
 11
622.8979671688851
 21
247.1376983970356
 31
0.0
  0
LINE
  5
14FB
330
18
100
AcDbEntity
  8
1
  6
Continuous
100
AcDbLine
 10
613.8222166789444
 20
241.8978128346811
 30
0.0
 11
613.8222166789444
 21
233.4124936302988
 31
0.0
  0
ARC
  5
14FC
330
18
100
AcDbEntity
  8
1
  6
Continuous
100
AcDbCircle
 10
622.3222161789442
 20
237.6551532324898
 30
0.0
 40
9.500008000000008
100
AcDbArc
 50
146.5254419295593
 51
153.4745445657495
  0
LINE
  5
14FD
330
18
100
AcDbEntity
  8
1
  6
Continuous
100
AcDbLine
 10
614.3979666688849
 20
242.8950407983055
 30
0.0
 11
621.7464651890037
 21
247.1376983970356
 31
0.0
  0
ARC
  5
14FE
330
18
100
AcDbEntity
  8
1
  6
Continuous
100
AcDbCircle
 10
622.3222161789442
 20
237.6551532324898
 30
0.0
 40
9.500008000000008
100
AcDbArc
 50
206.5254554342502
 51
213.4745580704395
  0
LINE
  5
14FF
330
18
100
AcDbEntity
  8
1
  6
Continuous
100
AcDbLine
 10
614.3979666688849
 20
232.4152656666744
 30
0.0
 11
621.7464651890037
 21
228.1726080679444
 31
0.0
  0
ARC
  5
1500
330
18
100
AcDbEntity
  8
1
  6
Continuous
100
AcDbCircle
 10
622.3222161789442
 20
237.6551532324898
 30
0.0
 40
9.500008000000008
100
AcDbArc
 50
266.5254419295608
 51
273.474558070439
  0
LINE
  5
1501
330
18
100
AcDbEntity
  8
1
  6
Continuous
100
AcDbLine
 10
630.8222156789438
 20
241.8978128346813
 30
0.0
 11
630.822215678944
 21
233.4124936302988
 31
0.0
  0
LINE
  5
1502
330
18
100
AcDbEntity
  8
1
  6
Continuous
100
AcDbLine
 10
630.2464656890036
 20
232.4152656666743
 30
0.0
 11
622.8979671688851
 21
228.1726080679444
 31
0.0
  0
ARC
  5
1503
330
18
100
AcDbEntity
  8
1
  6
Continuous
100
AcDbCircle
 10
622.3222161789442
 20
237.6551532324898
 30
0.0
 40
9.500008000000008
100
AcDbArc
 50
326.5254419295603
 51
333.4745445657496
  0
ARC
  5
1504
330
18
100
AcDbEntity
  8
1
  6
Continuous
100
AcDbCircle
 10
622.3222161789442
 20
237.6551532324898
 30
0.0
 40
9.500008000000008
100
AcDbArc
 50
26.52545543425034
 51
33.47455807043957
  0
ARC
  5
1B47
330
18
100
AcDbEntity
  8
1
  6
Continuous
100
AcDbCircle
 10
266.6128529134799
 20
237.6551532324902
 30
0.0
 40
17.1
100
AcDbArc
 50
163.4845936698391
 51
16.51535123141632
  0
ARC
  5
1B48
330
18
100
AcDbEntity
  8
1
  6
Continuous
100
AcDbCircle
 10
266.6128529134799
 20
237.6551532324902
 30
0.0
 40
18.5
100
AcDbArc
 50
156.9411404198969
 51
23.05881691687561
  0
ARC
  5
1B49
330
18
100
AcDbEntity
  8
1
  6
Continuous
100
AcDbCircle
 10
266.6128529134799
 20
237.6551532324902
 30
0.0
 40
22.120001
100
AcDbArc
 50
146.1045840805086
 51
33.89538743947767
  0
ARC
  5
1B4B
330
18
100
AcDbEntity
  8
1
  6
Continuous
100
AcDbCircle
 10
270.8628529134799
 20
450.96712232049
 30
0.0
 40
13.75000299999999
100
AcDbArc
 50
254.5012699999976
 51
285.4987300000022
  0
ARC
  5
1B4C
330
18
100
AcDbEntity
  8
1
  6
Continuous
100
AcDbCircle
 10
270.8628529134799
 20
431.2871193204901
 30
0.0
 40
10.93000299999999
100
AcDbArc
 50
72.602691000002
 51
107.3973099999985
  0
CIRCLE
  5
1B4D
330
18
100
AcDbEntity
  8
1
  6
Continuous
100
AcDbCircle
 10
266.6128529134799
 20
411.5171223204899
 30
0.0
 40
7.0
  0
ARC
  5
1B4E
330
18
100
AcDbEntity
  8
1
  6
Continuous
100
AcDbCircle
 10
266.6128529134799
 20
237.6551532324902
 30
0.0
 40
37.5
100
AcDbArc
 50
127.6820799999971
 51
52.31792000000289
  0
CIRCLE
  5
1B4F
330
18
100
AcDbEntity
  8
1
  6
Continuous
100
AcDbCircle
 10
266.6128529134799
 20
237.6551532324902
 30
0.0
 40
7.400000099999997
  0
CIRCLE
  5
1B50
330
18
100
AcDbEntity
  8
1
  6
Continuous
100
AcDbCircle
 10
266.6128529134799
 20
237.6551532324902
 30
0.0
 40
9.0
  0
ARC
  5
1B51
330
18
100
AcDbEntity
  8
1
  6
Continuous
100
AcDbCircle
 10
266.6128529134799
 20
239.1551532324902
 30
0.0
 40
15.0
100
AcDbArc
 50
194.7385599999996
 51
345.2614400000002
  0
LINE
  5
1B52
330
18
100
AcDbEntity
  8
1
  6
Continuous
100
AcDbLine
 10
275.1128529134799
 20
442.2171193204897
 30
0.0
 11
266.6128529134799
 21
442.2171193204897
 31
0.0
  0
LINE
  5
1B53
330
18
100
AcDbEntity
  8
1
  6
Continuous
100
AcDbLine
 10
273.91285191348
 20
443.81711232049
 30
0.0
 11
266.6128529134799
 21
443.81711232049
 31
0.0
  0
LINE
  5
1B54
330
18
100
AcDbEntity
  8
1
  6
Continuous
100
AcDbLine
 10
275.6128529134799
 20
381.8171253204901
 30
0.0
 11
257.6128539134801
 21
381.8171253204901
 31
0.0
  0
LINE
  5
1B55
330
18
100
AcDbEntity
  8
1
  6
Continuous
100
AcDbLine
 10
273.61285491348
 20
380.8171253204903
 30
0.0
 11
259.6128559134801
 21
380.8171253204903
 31
0.0
  0
LINE
  5
1B56
330
18
100
AcDbEntity
  8
1
  6
Continuous
100
AcDbLine
 10
257.6128529134801
 20
437.2171193204898
 30
0.0
 11
275.6128529134799
 21
437.2171193204898
 31
0.0
  0
LINE
  5
1B57
330
18
100
AcDbEntity
  8
4
  6
CENTER
100
AcDbLine
 10
221.6128529134799
 20
411.5171223204899
 30
0.0
 11
311.6128529134801
 21
411.5171223204899
 31
0.0
  0
LINE
  5
1B58
330
18
100
AcDbEntity
  8
1
  6
Continuous
100
AcDbLine
 10
257.6128529134801
 20
385.8171253204901
 30
0.0
 11
275.6128529134799
 21
385.8171253204901
 31
0.0
  0
LINE
  5
1B59
330
18
100
AcDbEntity
  8
1
  6
Continuous
100
AcDbLine
 10
225.6128529134799
 20
300.1551532324902
 30
0.0
 11
307.6128529134801
 21
300.1551532324902
 31
0.0
  0
LINE
  5
1B5A
330
18
100
AcDbEntity
  8
4
  6
CENTER
100
AcDbLine
 10
224.4795179134801
 20
237.6551532324902
 30
0.0
 11
307.94618891348
 21
237.6551532324902
 31
0.0
  0
ARC
  5
1B5D
330
18
100
AcDbEntity
  8
1
  6
Continuous
100
AcDbCircle
 10
116.3894564783742
 20
287.9052137467557
 30
0.0
 40
69.35989670011436
100
AcDbArc
 50
184.1127317347959
 51
218.7190056819409
  0
ARC
  5
1B5E
330
18
100
AcDbEntity
  8
1
  6
Continuous
100
AcDbCircle
 10
116.3893352723508
 20
287.9049254918775
 30
0.0
 40
72.55961264431809
100
AcDbArc
 50
184.0192315924468
 51
218.7124913696677
  0
LINE
  5
1B5F
330
18
100
AcDbEntity
  8
1
  6
Continuous
100
AcDbLine
 10
60.42272128074817
 20
241.64738623249
 30
0.0
 11
58.55817128074796
 21
241.42875123249
 31
0.0
  0
LINE
  5
1B60
330
18
100
AcDbEntity
  8
1
  6
Continuous
100
AcDbLine
 10
58.55817128074818
 20
243.1295722324903
 30
0.0
 11
59.32868128074824
 21
243.0843982324902
 31
0.0
  0
LINE
  5
1B61
330
18
100
AcDbEntity
  8
1
  6
Continuous
100
AcDbLine
 10
58.55817128074796
 20
232.1807422324901
 30
0.0
 11
62.55817128074795
 21
232.4152622324902
 31
0.0
  0
LINE
  5
1B62
330
18
100
AcDbEntity
  8
1
  6
Continuous
100
AcDbLine
 10
62.55817128074795
 20
233.4125152324901
 30
0.0
 11
58.55817128074796
 21
233.88157123249
 31
0.0
  0
LINE
  5
1B63
330
18
100
AcDbEntity
  8
1
  6
Continuous
100
AcDbLine
 10
62.55817128074795
 20
228.15515323249
 30
0.0
 11
58.55817128074796
 21
228.40713723249
 31
0.0
  0
LINE
  5
1B64
330
18
100
AcDbEntity
  8
1
  6
Continuous
100
AcDbLine
 10
58.55817128074796
 20
228.3551582324903
 30
0.0
 11
62.55817128074795
 21
228.15515323249
 31
0.0
  0
LINE
  5
1B65
330
18
100
AcDbEntity
  8
4
  6
CENTER
100
AcDbLine
 10
52.08906128074795
 20
237.6551532324902
 30
0.0
 11
127.6915052807479
 21
237.6551532324902
 31
0.0
  0
LINE
  5
1B66
330
18
100
AcDbEntity
  8
1
  6
Continuous
100
AcDbLine
 10
48.00817128074799
 20
296.9551532324903
 30
0.0
 11
129.5081722807481
 21
296.9551532324903
 31
0.0
  0
LINE
  5
1B67
330
18
100
AcDbEntity
  8
1
  6
Continuous
100
AcDbLine
 10
48.00817128074799
 20
300.1551532324902
 30
0.0
 11
129.5081722807481
 21
300.1551532324902
 31
0.0
  0
ARC
  5
1B68
330
18
100
AcDbEntity
  8
1
  6
Continuous
100
AcDbCircle
 10
72.54817128074819
 20
237.6551532324902
 30
0.0
 40
14.49
100
AcDbArc
 50
164.9045800000001
 51
195.0954199999998
  0
LINE
  5
1B69
330
18
100
AcDbEntity
  8
1
  6
Continuous
100
AcDbLine
 10
56.45818128074802
 20
244.9551522324902
 30
0.0
 11
56.45818128074802
 21
237.6551532324902
 31
0.0
  0
LINE
  5
1B6A
330
18
100
AcDbEntity
  8
1
  6
Continuous
100
AcDbLine
 10
58.05817128074796
 20
244.75427423249
 30
0.0
 11
58.05817128074796
 21
237.6551532324902
 31
0.0
  0
LINE
  5
1B6B
330
18
100
AcDbEntity
  8
1
  6
Continuous
100
AcDbLine
 10
54.70817128074804
 20
242.65515323249
 30
0.0
 11
54.70817128074804
 21
232.6551532324902
 31
0.0
  0
LINE
  5
1B6C
330
18
100
AcDbEntity
  8
1
  6
Continuous
100
AcDbLine
 10
53.95817128074804
 20
241.90515323249
 30
0.0
 11
53.95817128074804
 21
233.4051532324902
 31
0.0
  0
ARC
  5
1B6D
330
18
100
AcDbEntity
  8
1
  6
Continuous
100
AcDbCircle
 10
61.8681812807481
 20
230.29393923249
 30
0.0
 40
3.8100059
100
AcDbArc
 50
150.3156199999998
 51
209.6843800000002
  0
ARC
  5
1B6E
330
18
100
AcDbEntity
  8
1
  6
Continuous
100
AcDbCircle
 10
57.65818128074807
 20
230.3551502324903
 30
0.0
 40
1.199999999999999
100
AcDbArc
 50
180.0000100000009
 51
270.0
  0
LINE
  5
1B6F
330
18
100
AcDbEntity
  8
1
  6
Continuous
100
AcDbLine
 10
57.65818128074807
 20
229.1551532324902
 30
0.0
 11
58.05817128074796
 21
229.1551532324902
 31
0.0
  0
LINE
  5
1B70
330
18
100
AcDbEntity
  8
1
  6
Continuous
100
AcDbLine
 10
58.55817128074818
 20
228.3551502324903
 30
0.0
 11
58.05817128074796
 21
229.1551532324904
 31
0.0
  0
LINE
  5
1B71
330
18
100
AcDbEntity
  8
1
  6
Continuous
100
AcDbLine
 10
58.55817128074796
 20
228.3551502324903
 30
0.0
 11
58.55817128074796
 21
228.4071442324902
 31
0.0
  0
LINE
  5
1B72
330
18
100
AcDbEntity
  8
1
  6
Continuous
100
AcDbLine
 10
58.55817128074796
 20
232.1807342324901
 30
0.0
 11
58.55817128074796
 21
233.8815632324901
 31
0.0
  0
LINE
  5
1B73
330
18
100
AcDbEntity
  8
1
  6
Continuous
100
AcDbLine
 10
58.05817128074796
 20
229.1551532324902
 30
0.0
 11
58.05817128074796
 21
237.6551532324902
 31
0.0
  0
LINE
  5
1B74
330
18
100
AcDbEntity
  8
1
  6
Continuous
100
AcDbLine
 10
56.45818128074802
 20
230.3551502324903
 30
0.0
 11
56.45818128074802
 21
237.6551532324902
 31
0.0
  0
LINE
  5
1B75
330
18
100
AcDbEntity
  8
1
  6
Continuous
100
AcDbLine
 10
54.70814128074812
 20
232.65512223249
 30
0.0
 11
53.95814128074812
 21
233.40512223249
 31
0.0
  0
LINE
  5
1B76
330
18
100
AcDbEntity
  8
2
  6
Continuous
100
AcDbLine
 10
53.95817128074804
 20
233.4051532324902
 30
0.0
 11
56.45818128074802
 21
233.4051532324902
 31
0.0
  0
LINE
  5
1B77
330
18
100
AcDbEntity
  8
1
  6
Continuous
100
AcDbLine
 10
54.70817128074804
 20
232.6551532324902
 30
0.0
 11
56.45818128074802
 21
232.6551532324902
 31
0.0
  0
ARC
  5
1B78
330
18
100
AcDbEntity
  8
1
  6
Continuous
100
AcDbCircle
 10
57.65818128074807
 20
244.9551522324902
 30
0.0
 40
1.199999999999999
100
AcDbArc
 50
115.8870699999982
 51
180.0000100000009
  0
ARC
  5
1B79
330
18
100
AcDbEntity
  8
1
  6
Continuous
100
AcDbCircle
 10
61.8681812807481
 20
245.0163672324901
 30
0.0
 40
3.8100059
100
AcDbArc
 50
184.1483199999993
 51
209.6843900000005
  0
LINE
  5
1B7A
330
18
100
AcDbEntity
  8
1
  6
Continuous
100
AcDbLine
 10
58.55817128074796
 20
243.1295722324903
 30
0.0
 11
58.55817128074796
 21
241.4287432324901
 31
0.0
  0
LINE
  5
1B7B
330
18
100
AcDbEntity
  8
1
  6
Continuous
100
AcDbLine
 10
53.9581512807481
 20
241.90515323249
 30
0.0
 11
54.7081512807481
 21
242.65515323249
 31
0.0
  0
LINE
  5
1B7C
330
18
100
AcDbEntity
  8
2
  6
Continuous
100
AcDbLine
 10
53.95817128074804
 20
241.90515323249
 30
0.0
 11
56.45818128074802
 21
241.90515323249
 31
0.0
  0
LINE
  5
1B7D
330
18
100
AcDbEntity
  8
1
  6
Continuous
100
AcDbLine
 10
54.70817128074804
 20
242.65515323249
 30
0.0
 11
56.45818128074802
 21
242.65515323249
 31
0.0
  0
LINE
  5
1B7E
330
18
100
AcDbEntity
  8
1
  6
Continuous
100
AcDbLine
 10
47.20817128074804
 20
282.9307802324901
 30
0.0
 11
47.20817128074804
 21
296.1551532324902
 31
0.0
  0
LINE
  5
1B7F
330
18
100
AcDbEntity
  8
1
  6
Continuous
100
AcDbLine
 10
44.00817128074799
 20
282.8191322324901
 30
0.0
 11
44.00817128074799
 21
296.1551532324902
 31
0.0
  0
LINE
  5
1B80
330
18
100
AcDbEntity
  8
4
  6
CENTER
100
AcDbLine
 10
57.25817128074799
 20
292.5509447326978
 30
0.0
 11
57.25817128074799
 21
305.13745303249
 31
0.0
  0
ARC
  5
1B81
330
18
100
AcDbEntity
  8
1
  6
Continuous
100
AcDbCircle
 10
48.00817128074799
 20
296.1551532324902
 30
0.0
 40
4.0
100
AcDbArc
 50
89.99998200000083
 51
179.9999599999992
  0
ARC
  5
1B82
330
18
100
AcDbEntity
  8
1
  6
Continuous
100
AcDbCircle
 10
48.00817128074799
 20
296.1551532324902
 30
0.0
 40
0.8000000099999999
100
AcDbArc
 50
89.99998200000083
 51
179.9999599999992
  0
LINE
  5
1B83
330
18
100
AcDbEntity
  8
1
  6
Continuous
100
AcDbLine
 10
108.758171280748
 20
269.3771992324903
 30
0.0
 11
108.758171280748
 21
205.9331032324902
 31
0.0
  0
LINE
  5
1B84
330
18
100
AcDbEntity
  8
1
  6
Continuous
100
AcDbLine
 10
68.758171280748
 20
269.3771992324903
 30
0.0
 11
68.758171280748
 21
205.9331032324902
 31
0.0
  0
LINE
  5
1B85
330
18
100
AcDbEntity
  8
4
  6
CENTER
100
AcDbLine
 10
88.758171280748
 20
196.55692323249
 30
0.0
 11
88.758171280748
 21
305.13745303249
 31
0.0
  0
ARC
  5
1B87
330
18
100
AcDbEntity
  8
1
  6
Continuous
100
AcDbCircle
 10
88.758171280748
 20
350.1551532324902
 30
0.0
 40
150.0
100
AcDbArc
 50
264.0622070000026
 51
275.937774999998
  0
ARC
  5
1B88
330
18
100
AcDbEntity
  8
1
  6
Continuous
100
AcDbCircle
 10
73.758171280748
 20
205.9331072324903
 30
0.0
 40
5.0
100
AcDbArc
 50
180.0000400000006
 51
264.0621859999984
  0
ARC
  5
1B89
330
18
100
AcDbEntity
  8
1
  6
Continuous
100
AcDbCircle
 10
103.758171280748
 20
205.9331072324903
 30
0.0
 40
5.0
100
AcDbArc
 50
275.9377950000023
 51
0.0
  0
ARC
  5
1B8C
330
18
100
AcDbEntity
  8
1
  6
Continuous
100
AcDbCircle
 10
61.12689008573818
 20
287.9052137239497
 30
0.0
 40
69.35989669586915
100
AcDbArc
 50
321.2809843400476
 51
355.8872682838397
  0
ARC
  5
1B8D
330
18
100
AcDbEntity
  8
1
  6
Continuous
100
AcDbCircle
 10
61.12701135833026
 20
287.9049253061883
 30
0.0
 40
72.55961248623768
100
AcDbArc
 50
321.2874987187956
 51
355.9808185088758
  0
LINE
  5
1B8E
330
18
100
AcDbEntity
  8
1
  6
Continuous
100
AcDbLine
 10
111.2581712807479
 20
224.15515323249
 30
0.0
 11
111.2581712807479
 21
296.9551532324903
 31
0.0
  0
LINE
  5
1B8F
330
18
100
AcDbEntity
  8
1
  6
Continuous
100
AcDbLine
 10
66.258171280748
 20
224.15515323249
 30
0.0
 11
66.258171280748
 21
296.9551532324903
 31
0.0
  0
ARC
  5
1B90
330
18
100
AcDbEntity
  8
1
  6
Continuous
100
AcDbCircle
 10
48.05817128074796
 20
233.1551532324902
 30
0.0
 40
18.200001
100
AcDbArc
 50
0.0
 51
38.67275999999924
  0
ARC
  5
1B91
330
18
100
AcDbEntity
  8
1
  6
Continuous
100
AcDbCircle
 10
48.05817128074796
 20
233.1551532324902
 30
0.0
 40
15.0
100
AcDbArc
 50
0.0
 51
38.65799600000055
  0
LINE
  5
1B92
330
18
100
AcDbEntity
  8
1
  6
Continuous
100
AcDbLine
 10
67.05817128074795
 20
255.6551532324902
 30
0.0
 11
67.05817128074795
 21
219.65515323249
 31
0.0
  0
LINE
  5
1B93
330
18
100
AcDbEntity
  8
1
  6
Continuous
100
AcDbLine
 10
63.05817128074796
 20
224.15515323249
 30
0.0
 11
63.05817128074796
 21
233.1551532324902
 31
0.0
  0
LINE
  5
1B94
330
18
100
AcDbEntity
  8
1
  6
Continuous
100
AcDbLine
 10
67.05817128074795
 20
219.65515323249
 30
0.0
 11
68.758171280748
 21
219.65515323249
 31
0.0
  0
LINE
  5
1B95
330
18
100
AcDbEntity
  8
1
  6
Continuous
100
AcDbLine
 10
63.05817128074796
 20
224.15515323249
 30
0.0
 11
66.258171280748
 21
224.15515323249
 31
0.0
  0
LINE
  5
1B96
330
18
100
AcDbEntity
  8
1
  6
Continuous
100
AcDbLine
 10
66.258171280748
 20
232.6551532324902
 30
0.0
 11
67.05817128074795
 21
232.6551532324902
 31
0.0
  0
ARC
  5
1B97
330
18
100
AcDbEntity
  8
1
  6
Continuous
100
AcDbCircle
 10
44.80817128074796
 20
237.6551532324902
 30
0.0
 40
18.25
100
AcDbArc
 50
346.5572599999986
 51
352.5676399999992
  0
ARC
  5
1B98
330
18
100
AcDbEntity
  8
1
  6
Continuous
100
AcDbCircle
 10
58.271051280748
 20
230.2852042324901
 30
0.0
 40
4.787128
100
AcDbArc
 50
333.5795799999981
 51
26.42041999999884
  0
LINE
  5
1B99
330
18
100
AcDbEntity
  8
1
  6
Continuous
100
AcDbLine
 10
63.05817128074796
 20
229.1551612324901
 30
0.0
 11
62.55817128074795
 21
228.15516123249
 31
0.0
  0
LINE
  5
1B9A
330
18
100
AcDbEntity
  8
1
  6
Continuous
100
AcDbLine
 10
62.55817128074795
 20
233.4125152324901
 30
0.0
 11
62.55817128074795
 21
232.4152622324902
 31
0.0
  0
LINE
  5
1B9B
330
18
100
AcDbEntity
  8
1
  6
Continuous
100
AcDbLine
 10
66.258171280748
 20
242.65515323249
 30
0.0
 11
67.05817128074795
 21
242.65515323249
 31
0.0
  0
LINE
  5
1B9C
330
18
100
AcDbEntity
  8
1
  6
Continuous
100
AcDbLine
 10
67.05817128074795
 20
255.6551532324902
 30
0.0
 11
68.758171280748
 21
255.6551532324902
 31
0.0
  0
ARC
  5
1B9D
330
18
100
AcDbEntity
  8
1
  6
Continuous
100
AcDbCircle
 10
129.4581682807481
 20
233.1551532324902
 30
0.0
 40
18.200001
100
AcDbArc
 50
141.3272400000006
 51
179.9999599999992
  0
ARC
  5
1B9E
330
18
100
AcDbEntity
  8
1
  6
Continuous
100
AcDbCircle
 10
129.4581682807481
 20
233.1551532324902
 30
0.0
 40
15.0
100
AcDbArc
 50
141.3420099999995
 51
179.9999599999992
  0
LINE
  5
1B9F
330
18
100
AcDbEntity
  8
1
  6
Continuous
100
AcDbLine
 10
110.4581682807481
 20
255.6551532324902
 30
0.0
 11
110.4581682807481
 21
219.65515323249
 31
0.0
  0
LINE
  5
1BA0
330
18
100
AcDbEntity
  8
1
  6
Continuous
100
AcDbLine
 10
118.4581682807481
 20
243.3531932324902
 30
0.0
 11
118.4581682807481
 21
228.6551532324902
 31
0.0
  0
LINE
  5
1BA1
330
18
100
AcDbEntity
  8
1
  6
Continuous
100
AcDbLine
 10
119.458168280748
 20
244.75427423249
 30
0.0
 11
119.458168280748
 21
230.6551532324902
 31
0.0
  0
LINE
  5
1BA2
330
18
100
AcDbEntity
  8
1
  6
Continuous
100
AcDbLine
 10
114.4581682807481
 20
224.15515323249
 30
0.0
 11
114.4581682807481
 21
233.1551532324902
 31
0.0
  0
LINE
  5
1BA3
330
18
100
AcDbEntity
  8
1
  6
Continuous
100
AcDbLine
 10
108.758171280748
 20
219.65515323249
 30
0.0
 11
110.4581682807481
 21
219.65515323249
 31
0.0
  0
LINE
  5
1BA4
330
18
100
AcDbEntity
  8
1
  6
Continuous
100
AcDbLine
 10
111.2581712807479
 20
224.15515323249
 30
0.0
 11
114.4581682807481
 21
224.15515323249
 31
0.0
  0
LINE
  5
1BA5
330
18
100
AcDbEntity
  8
1
  6
Continuous
100
AcDbLine
 10
114.4581682807481
 20
228.6551532324902
 30
0.0
 11
118.4581682807481
 21
228.6551532324902
 31
0.0
  0
LINE
  5
1BA6
330
18
100
AcDbEntity
  8
1
  6
Continuous
100
AcDbLine
 10
110.4581682807481
 20
232.6551532324902
 30
0.0
 11
111.2581712807479
 21
232.6551532324902
 31
0.0
  0
LINE
  5
1BA7
330
18
100
AcDbEntity
  8
1
  6
Continuous
100
AcDbLine
 10
118.4581682807481
 20
228.6551452324901
 30
0.0
 11
119.458168280748
 21
230.6551452324901
 31
0.0
  0
LINE
  5
1BA8
330
18
100
AcDbEntity
  8
1
  6
Continuous
100
AcDbLine
 10
110.4581682807481
 20
242.65515323249
 30
0.0
 11
111.2581712807479
 21
242.65515323249
 31
0.0
  0
LINE
  5
1BA9
330
18
100
AcDbEntity
  8
1
  6
Continuous
100
AcDbLine
 10
119.4581912807479
 20
244.6551642324902
 30
0.0
 11
119.432564280748
 21
244.7064192324901
 31
0.0
  0
LINE
  5
1BAA
330
18
100
AcDbEntity
  8
1
  6
Continuous
100
AcDbLine
 10
108.758171280748
 20
255.6551532324902
 30
0.0
 11
110.4581682807481
 21
255.6551532324902
 31
0.0
  0
ARC
  5
1BAB
330
18
100
AcDbEntity
  8
1
  6
Continuous
100
AcDbCircle
 10
88.758171280748
 20
125.1551532324902
 30
0.0
 40
150.0
100
AcDbArc
 50
84.06222500000202
 51
95.93779299999741
  0
LINE
  5
1BAC
330
18
100
AcDbEntity
  8
1
  6
Continuous
100
AcDbLine
 10
70.92293128074811
 20
293.7551532324903
 30
0.0
 11
106.593407280748
 21
293.7551532324903
 31
0.0
  0
ARC
  5
1BAD
330
18
100
AcDbEntity
  8
1
  6
Continuous
100
AcDbCircle
 10
73.758171280748
 20
269.3771992324903
 30
0.0
 40
5.0
100
AcDbArc
 50
95.93781400000173
 51
179.9999599999992
  0
ARC
  5
1BAE
330
18
100
AcDbEntity
  8
1
  6
Continuous
100
AcDbCircle
 10
70.92293128074811
 20
298.7551536324903
 30
0.0
 40
5.0
100
AcDbArc
 50
201.10017
 51
270.0000200000018
  0
ARC
  5
1BAF
330
18
100
AcDbEntity
  8
1
  6
Continuous
100
AcDbCircle
 10
103.758171280748
 20
269.3771992324903
 30
0.0
 40
5.0
100
AcDbArc
 50
0.0
 51
84.0622049999976
  0
ARC
  5
1BB0
330
18
100
AcDbEntity
  8
1
  6
Continuous
100
AcDbCircle
 10
106.593407280748
 20
298.7551536324903
 30
0.0
 40
5.0
100
AcDbArc
 50
270.0000200000018
 51
338.8998999999997
  0
LINE
  5
1BB1
330
18
100
AcDbEntity
  8
4
  6
CENTER
100
AcDbLine
 10
120.258171280748
 20
292.5509447326978
 30
0.0
 11
120.258171280748
 21
305.13745303249
 31
0.0
  0
LINE
  5
1BB2
330
18
100
AcDbEntity
  8
1
  6
Continuous
100
AcDbLine
 10
130.3081712807478
 20
282.9307802324901
 30
0.0
 11
130.3081712807478
 21
296.1551532324902
 31
0.0
  0
LINE
  5
1BB3
330
18
100
AcDbEntity
  8
1
  6
Continuous
100
AcDbLine
 10
133.5081722807481
 20
282.8191352324901
 30
0.0
 11
133.5081722807481
 21
296.1551532324902
 31
0.0
  0
ARC
  5
1BB4
330
18
100
AcDbEntity
  8
1
  6
Continuous
100
AcDbCircle
 10
129.5081722807481
 20
296.1551532324902
 30
0.0
 40
4.0
100
AcDbArc
 50
0.0
 51
89.99998200000083
  0
ARC
  5
1BB5
330
18
100
AcDbEntity
  8
1
  6
Continuous
100
AcDbCircle
 10
129.5081722807481
 20
296.1551532324902
 30
0.0
 40
0.8000000099999999
100
AcDbArc
 50
0.0
 51
89.99998200000083
  0
LINE
  5
1BB6
330
18
100
AcDbEntity
  8
4
  6
CENTER
100
AcDbLine
 10
266.6128529134799
 20
196.55692323249
 30
0.0
 11
266.6128529134799
 21
305.13745303249
 31
0.0
  0
LINE
  5
1BB8
330
18
100
AcDbEntity
  8
1
  6
Continuous
100
AcDbLine
 10
238.7693733134799
 20
286.0377792324902
 30
0.0
 11
252.1064080134799
 21
235.3390212324901
 31
0.0
  0
LINE
  5
1BB9
330
18
100
AcDbEntity
  8
1
  6
Continuous
100
AcDbLine
 10
255.6128529134801
 20
239.7284872324903
 30
0.0
 11
255.6128529134801
 21
297.4551563324904
 31
0.0
  0
CIRCLE
  5
1BBA
330
18
100
AcDbEntity
  8
1
  6
Continuous
100
AcDbCircle
 10
266.6128529134799
 20
237.6551532324902
 30
0.0
 40
2.5
  0
ARC
  5
1BBB
330
18
100
AcDbEntity
  8
1
  6
Continuous
100
AcDbCircle
 10
231.6128529134799
 20
284.1551532324901
 30
0.0
 40
7.400000099999997
100
AcDbArc
 50
14.73850999999982
 51
68.26444899999997
  0
LINE
  5
1BBC
330
18
100
AcDbEntity
  8
4
  6
CENTER
100
AcDbLine
 10
235.11285291348
 20
304.6640367425093
 30
0.0
 11
235.11285291348
 21
293.358487280537
 31
0.0
  0
ARC
  5
1BBD
330
18
100
AcDbEntity
  8
1
  6
Continuous
100
AcDbCircle
 10
227.90465091348
 20
296.1551532324902
 30
0.0
 40
4.0
100
AcDbArc
 50
343.3983699999996
 51
89.99998200000083
  0
LINE
  5
1BBE
330
18
100
AcDbEntity
  8
1
  6
Continuous
100
AcDbLine
 10
225.6128529134799
 20
296.9551562324901
 30
0.0
 11
225.6128529134799
 21
300.1551532324902
 31
0.0
  0
ARC
  5
1BBF
330
18
100
AcDbEntity
  8
1
  6
Continuous
100
AcDbCircle
 10
228.61618691348
 20
293.9551562324902
 30
0.0
 40
3.0
100
AcDbArc
 50
1.91016489999953
 51
89.99998200000083
  0
LINE
  5
1BC0
330
18
100
AcDbEntity
  8
1
  6
Continuous
100
AcDbLine
 10
225.6128529134799
 20
296.9551562324901
 30
0.0
 11
228.61618691348
 21
296.9551562324901
 31
0.0
  0
ARC
  5
1BC1
330
18
100
AcDbEntity
  8
1
  6
Continuous
100
AcDbCircle
 10
234.6128529134801
 20
294.1551532324901
 30
0.0
 40
3.0
100
AcDbArc
 50
163.398479999999
 51
248.2644300000004
  0
LINE
  5
1BC2
330
18
100
AcDbEntity
  8
1
  6
Continuous
100
AcDbLine
 10
234.3532479134801
 20
291.0290432324902
 30
0.0
 11
233.5018829134799
 21
291.3684542324901
 31
0.0
  0
LINE
  5
1BC3
330
18
100
AcDbEntity
  8
4
  6
CENTER
100
AcDbLine
 10
266.6128529134799
 20
376.8326473204899
 30
0.0
 11
266.6128529134799
 21
450.32919232049
 31
0.0
  0
LINE
  5
1BC4
330
18
100
AcDbEntity
  8
1
  6
Continuous
100
AcDbLine
 10
225.6128529134799
 20
377.0171223204898
 30
0.0
 11
225.6128529134799
 21
446.0171223204898
 31
0.0
  0
ARC
  5
1BC5
330
18
100
AcDbEntity
  8
1
  6
Continuous
100
AcDbCircle
 10
235.0831449134799
 20
379.9671233204898
 30
0.0
 40
13.2
100
AcDbArc
 50
270.0
 51
329.2786599999997
  0
CIRCLE
  5
1BC6
330
18
100
AcDbEntity
  8
1
  6
Continuous
100
AcDbCircle
 10
235.11285291348
 20
380.0171223204899
 30
0.0
 40
4.400000099999997
  0
LINE
  5
1BC7
330
18
100
AcDbEntity
  8
4
  6
CENTER
100
AcDbLine
 10
229.11285291348
 20
380.0171223204899
 30
0.0
 11
241.1128529134801
 21
380.0171223204899
 31
0.0
  0
LINE
  5
1BC8
330
18
100
AcDbEntity
  8
4
  6
CENTER
100
AcDbLine
 10
235.11285291348
 20
386.0171223204899
 30
0.0
 11
235.11285291348
 21
374.0171223204899
 31
0.0
  0
ARC
  5
1BC9
330
18
100
AcDbEntity
  8
1
  6
Continuous
100
AcDbCircle
 10
229.6128529134799
 20
368.5318393204902
 30
0.0
 40
2.0
100
AcDbArc
 50
0.0
 51
70.52874499999941
  0
ARC
  5
1BCA
330
18
100
AcDbEntity
  8
1
  6
Continuous
100
AcDbCircle
 10
232.6128529134801
 20
377.0171223204898
 30
0.0
 40
7.0
100
AcDbArc
 50
179.9999599999992
 51
250.5287699999982
  0
LINE
  5
1BCB
330
18
100
AcDbEntity
  8
1
  6
Continuous
100
AcDbLine
 10
231.6128529134799
 20
366.7671223204898
 30
0.0
 11
235.0831449134799
 21
366.7671223204898
 31
0.0
  0
LINE
  5
1BCC
330
18
100
AcDbEntity
  8
1
  6
Continuous
100
AcDbLine
 10
231.6128529134799
 20
366.7671223204898
 30
0.0
 11
231.6128529134799
 21
368.5318393204902
 31
0.0
  0
ARC
  5
1BCD
330
18
100
AcDbEntity
  8
1
  6
Continuous
100
AcDbCircle
 10
257.6128529134801
 20
379.3171253204901
 30
0.0
 40
6.5
100
AcDbArc
 50
89.99998200000083
 51
149.2786500000025
  0
LINE
  5
1BCE
330
18
100
AcDbEntity
  8
1
  6
Continuous
100
AcDbLine
 10
246.4306850134799
 20
373.2237283204899
 30
0.0
 11
252.0250538134801
 21
382.6377313204899
 31
0.0
  0
LINE
  5
1BCF
330
18
100
AcDbEntity
  8
1
  6
Continuous
100
AcDbLine
 10
257.6128529134801
 20
385.8171253204901
 30
0.0
 11
257.6128539134801
 21
381.8171253204901
 31
0.0
  0
LINE
  5
1BD0
330
18
100
AcDbEntity
  8
1
  6
Continuous
100
AcDbLine
 10
257.6128509134799
 20
381.8171253204899
 30
0.0
 11
259.6128519134802
 21
380.8171253204899
 31
0.0
  0
LINE
  5
1BD1
330
18
100
AcDbEntity
  8
1
  6
Continuous
100
AcDbLine
 10
245.1128529134801
 20
394.5171223204899
 30
0.0
 11
245.1128529134801
 21
428.5171223204899
 31
0.0
  0
LINE
  5
1BD2
330
18
100
AcDbEntity
  8
1
  6
Continuous
100
AcDbLine
 10
240.1128529134799
 20
394.5171223204899
 30
0.0
 11
240.1128529134799
 21
428.5171223204899
 31
0.0
  0
ARC
  5
1BD3
330
18
100
AcDbEntity
  8
1
  6
Continuous
100
AcDbCircle
 10
242.6128529134799
 20
394.5171223204899
 30
0.0
 40
2.5
100
AcDbArc
 50
179.9999599999992
 51
0.0000100179138904
  0
ARC
  5
1BD4
330
18
100
AcDbEntity
  8
1
  6
Continuous
100
AcDbCircle
 10
242.6128529134799
 20
428.5171223204899
 30
0.0
 40
2.5
100
AcDbArc
 50
0.0
 51
179.9999599999992
  0
ARC
  5
1BD5
330
18
100
AcDbEntity
  8
1
  6
Continuous
100
AcDbCircle
 10
235.08314991348
 20
443.06712532049
 30
0.0
 40
13.2
100
AcDbArc
 50
30.72134099999991
 51
90.00000299999769
  0
CIRCLE
  5
1BD6
330
18
100
AcDbEntity
  8
1
  6
Continuous
100
AcDbCircle
 10
235.11285291348
 20
443.01712232049
 30
0.0
 40
4.400000099999997
  0
LINE
  5
1BD7
330
18
100
AcDbEntity
  8
4
  6
CENTER
100
AcDbLine
 10
229.11285291348
 20
443.01712232049
 30
0.0
 11
241.1128529134801
 21
443.01712232049
 31
0.0
  0
ARC
  5
1BD8
330
18
100
AcDbEntity
  8
1
  6
Continuous
100
AcDbCircle
 10
232.6128529134801
 20
446.0171223204898
 30
0.0
 40
7.0
100
AcDbArc
 50
109.4711999999995
 51
179.9999599999992
  0
LINE
  5
1BD9
330
18
100
AcDbEntity
  8
4
  6
CENTER
100
AcDbLine
 10
235.11285291348
 20
449.01712232049
 30
0.0
 11
235.11285291348
 21
437.0171223204899
 31
0.0
  0
ARC
  5
1BDA
330
18
100
AcDbEntity
  8
1
  6
Continuous
100
AcDbCircle
 10
229.6128529134799
 20
454.50240232049
 30
0.0
 40
2.0
100
AcDbArc
 50
289.4711899999995
 51
0.0
  0
LINE
  5
1BDB
330
18
100
AcDbEntity
  8
1
  6
Continuous
100
AcDbLine
 10
231.6128529134799
 20
456.2671223204898
 30
0.0
 11
235.08314991348
 21
456.2671223204898
 31
0.0
  0
LINE
  5
1BDC
330
18
100
AcDbEntity
  8
1
  6
Continuous
100
AcDbLine
 10
231.6128529134799
 20
454.50240232049
 30
0.0
 11
231.6128529134799
 21
456.2671223204898
 31
0.0
  0
ARC
  5
1BDD
330
18
100
AcDbEntity
  8
1
  6
Continuous
100
AcDbCircle
 10
257.6128529134801
 20
443.71712232049
 30
0.0
 40
6.5
100
AcDbArc
 50
210.7213499999974
 51
269.9999600000024
  0
LINE
  5
1BDE
330
18
100
AcDbEntity
  8
1
  6
Continuous
100
AcDbLine
 10
252.02505051348
 20
440.3965243204901
 30
0.0
 11
246.4306878734801
 21
449.8105223204901
 31
0.0
  0
ARC
  5
1BDF
330
18
100
AcDbEntity
  8
1
  6
Continuous
100
AcDbCircle
 10
262.3628529134799
 20
431.2871193204901
 30
0.0
 40
10.93000299999999
100
AcDbArc
 50
72.602691000002
 51
107.3973099999985
  0
ARC
  5
1BE0
330
18
100
AcDbEntity
  8
1
  6
Continuous
100
AcDbCircle
 10
262.3628529134799
 20
450.96712232049
 30
0.0
 40
13.75000299999999
100
AcDbArc
 50
254.5012699999976
 51
285.4987300000022
  0
LINE
  5
1BE1
330
18
100
AcDbEntity
  8
1
  6
Continuous
100
AcDbLine
 10
258.1128529134799
 20
442.2171193204897
 30
0.0
 11
266.6128529134799
 21
442.2171193204897
 31
0.0
  0
LINE
  5
1BE2
330
18
100
AcDbEntity
  8
1
  6
Continuous
100
AcDbLine
 10
259.3128529134801
 20
443.81711232049
 30
0.0
 11
266.6128529134799
 21
443.81711232049
 31
0.0
  0
LINE
  5
1BE3
330
18
100
AcDbEntity
  8
1
  6
Continuous
100
AcDbLine
 10
271.6128529134799
 20
445.5671223204901
 30
0.0
 11
261.6128539134801
 21
445.5671223204901
 31
0.0
  0
LINE
  5
1BE4
330
18
100
AcDbEntity
  8
1
  6
Continuous
100
AcDbLine
 10
270.8628529134799
 20
446.3171223204901
 30
0.0
 11
262.3628539134802
 21
446.3171223204901
 31
0.0
  0
ARC
  5
1BE5
330
18
100
AcDbEntity
  8
1
  6
Continuous
100
AcDbCircle
 10
259.3128529134801
 20
442.61711332049
 30
0.0
 40
1.199999999999999
100
AcDbArc
 50
90.00000899999959
 51
180.0000100000009
  0
LINE
  5
1BE6
330
18
100
AcDbEntity
  8
1
  6
Continuous
100
AcDbLine
 10
258.1128529134799
 20
442.61711332049
 30
0.0
 11
258.1128529134799
 21
437.2171193204898
 31
0.0
  0
LINE
  5
1BE7
330
18
100
AcDbEntity
  8
1
  6
Continuous
100
AcDbLine
 10
258.1128529134799
 20
441.7171193204898
 30
0.0
 11
259.0948259134801
 21
441.7171193204898
 31
0.0
  0
LINE
  5
1BE8
330
18
100
AcDbEntity
  8
1
  6
Continuous
100
AcDbLine
 10
258.1128529134799
 20
437.7171193204898
 30
0.0
 11
258.6886189134801
 21
437.7171193204898
 31
0.0
  0
LINE
  5
1BE9
330
18
100
AcDbEntity
  8
1
  6
Continuous
100
AcDbLine
 10
258.6886189134801
 20
437.7171193204898
 30
0.0
 11
259.0948259134801
 21
441.7171193204898
 31
0.0
  0
LINE
  5
1BEA
330
18
100
AcDbEntity
  8
1
  6
Continuous
100
AcDbLine
 10
261.6128229134801
 20
445.5671523204901
 30
0.0
 11
262.36282391348
 21
446.31715232049
 31
0.0
  0
LINE
  5
1BEB
330
18
100
AcDbEntity
  8
2
  6
Continuous
100
AcDbLine
 10
262.3628529134799
 20
446.3171223204901
 30
0.0
 11
262.3628529134799
 21
443.81711232049
 31
0.0
  0
LINE
  5
1BEC
330
18
100
AcDbEntity
  8
1
  6
Continuous
100
AcDbLine
 10
261.6128529134801
 20
445.5671223204901
 30
0.0
 11
261.6128529134801
 21
443.81711232049
 31
0.0
  0
LINE
  5
1BED
330
18
100
AcDbEntity
  8
1
  6
Continuous
100
AcDbLine
 10
265.6308809134799
 20
441.7171193204898
 30
0.0
 11
266.0370869134799
 21
437.7171193204898
 31
0.0
  0
LINE
  5
1BEE
330
18
100
AcDbEntity
  8
1
  6
Continuous
100
AcDbLine
 10
266.03708891348
 20
437.7171193204898
 30
0.0
 11
266.6128529134799
 21
437.7171193204898
 31
0.0
  0
LINE
  5
1BEF
330
18
100
AcDbEntity
  8
1
  6
Continuous
100
AcDbLine
 10
265.6308809134799
 20
441.7171193204898
 30
0.0
 11
266.6128529134799
 21
441.7171193204898
 31
0.0
  0
LINE
  5
1BF0
330
18
100
AcDbEntity
  8
1
  6
Continuous
100
AcDbLine
 10
267.5948249134801
 20
441.7171193204898
 30
0.0
 11
266.6128529134799
 21
441.7171193204898
 31
0.0
  0
LINE
  5
1BF1
330
18
100
AcDbEntity
  8
1
  6
Continuous
100
AcDbLine
 10
267.18861691348
 20
437.7171193204898
 30
0.0
 11
266.6128529134799
 21
437.7171193204898
 31
0.0
  0
LINE
  5
1BF2
330
18
100
AcDbEntity
  8
1
  6
Continuous
100
AcDbLine
 10
267.5948249134799
 20
441.7171193204898
 30
0.0
 11
267.18861891348
 21
437.7171193204898
 31
0.0
  0
LINE
  5
1BF3
330
18
100
AcDbEntity
  8
1
  6
Continuous
100
AcDbLine
 10
270.86285491348
 20
446.3171423204896
 30
0.0
 11
271.61286091348
 21
445.5671323204899
 31
0.0
  0
LINE
  5
1BF4
330
18
100
AcDbEntity
  8
2
  6
Continuous
100
AcDbLine
 10
270.8628529134799
 20
446.3171223204901
 30
0.0
 11
270.8628529134799
 21
443.81711232049
 31
0.0
  0
LINE
  5
1BF5
330
18
100
AcDbEntity
  8
1
  6
Continuous
100
AcDbLine
 10
271.6128529134799
 20
445.5671223204901
 30
0.0
 11
271.6128529134799
 21
443.81711232049
 31
0.0
  0
LINE
  5
1BF7
330
18
100
AcDbEntity
  8
1
  6
Continuous
100
AcDbLine
 10
294.4563399134801
 20
286.03778023249
 30
0.0
 11
281.1193069134801
 21
235.3390212324901
 31
0.0
  0
LINE
  5
1BF8
330
18
100
AcDbEntity
  8
1
  6
Continuous
100
AcDbLine
 10
277.6128529134799
 20
239.3284852324902
 30
0.0
 11
277.6128529134799
 21
297.8551501324902
 31
0.0
  0
ARC
  5
1BF9
330
18
100
AcDbEntity
  8
1
  6
Continuous
100
AcDbCircle
 10
305.32105891348
 20
296.1551532324902
 30
0.0
 40
4.0
100
AcDbArc
 50
89.99998200000083
 51
196.6015899999996
  0
LINE
  5
1BFA
330
18
100
AcDbEntity
  8
1
  6
Continuous
100
AcDbLine
 10
304.6095189134799
 20
296.9551562324901
 30
0.0
 11
307.6128529134801
 21
296.9551562324901
 31
0.0
  0
ARC
  5
1BFB
330
18
100
AcDbEntity
  8
1
  6
Continuous
100
AcDbCircle
 10
301.6128529134801
 20
284.1551532324901
 30
0.0
 40
7.400000099999997
100
AcDbArc
 50
111.7355400000012
 51
165.2614499999993
  0
LINE
  5
1BFC
330
18
100
AcDbEntity
  8
4
  6
CENTER
100
AcDbLine
 10
298.1128529134799
 20
304.6640367425093
 30
0.0
 11
298.1128529134799
 21
293.358487280537
 31
0.0
  0
ARC
  5
1BFD
330
18
100
AcDbEntity
  8
1
  6
Continuous
100
AcDbCircle
 10
304.6095189134799
 20
293.9551562324902
 30
0.0
 40
3.0
100
AcDbArc
 50
89.99998200000083
 51
178.0898099999999
  0
ARC
  5
1BFE
330
18
100
AcDbEntity
  8
1
  6
Continuous
100
AcDbCircle
 10
298.6128529134798
 20
294.1551532324901
 30
0.0
 40
3.0
100
AcDbArc
 50
291.7354800000022
 51
16.60147100000032
  0
LINE
  5
1BFF
330
18
100
AcDbEntity
  8
1
  6
Continuous
100
AcDbLine
 10
298.8724659134799
 20
291.0290352324905
 30
0.0
 11
299.7238259134801
 21
291.3684452324904
 31
0.0
  0
LINE
  5
1C00
330
18
100
AcDbEntity
  8
1
  6
Continuous
100
AcDbLine
 10
307.6128529134801
 20
296.9551562324901
 30
0.0
 11
307.6128529134801
 21
300.1551532324902
 31
0.0
  0
LINE
  5
1C03
330
18
100
AcDbEntity
  8
1
  6
Continuous
100
AcDbLine
 10
307.6128529134801
 20
377.0171223204898
 30
0.0
 11
307.6128529134801
 21
446.0171223204898
 31
0.0
  0
ARC
  5
1C05
330
18
100
AcDbEntity
  8
1
  6
Continuous
100
AcDbCircle
 10
300.6128529134798
 20
377.0171223204898
 30
0.0
 40
7.0
100
AcDbArc
 50
289.4711800000005
 51
0.0
  0
ARC
  5
1C06
330
18
100
AcDbEntity
  8
1
  6
Continuous
100
AcDbCircle
 10
298.1425659134801
 20
379.9671233204898
 30
0.0
 40
13.2
100
AcDbArc
 50
210.72134
 51
270.0
  0
LINE
  5
1C07
330
18
100
AcDbEntity
  8
1
  6
Continuous
100
AcDbLine
 10
281.2006559134804
 20
382.6377353204902
 30
0.0
 11
286.7950279134801
 21
373.2237283204901
 31
0.0
  0
ARC
  5
1C08
330
18
100
AcDbEntity
  8
1
  6
Continuous
100
AcDbCircle
 10
275.6128529134799
 20
379.3171253204901
 30
0.0
 40
6.5
100
AcDbArc
 50
30.72132299999972
 51
89.99998200000083
  0
LINE
  5
1C09
330
18
100
AcDbEntity
  8
1
  6
Continuous
100
AcDbLine
 10
273.61286291348
 20
380.81711032049
 30
0.0
 11
275.61286291348
 21
381.8171143204899
 31
0.0
  0
LINE
  5
1C0A
330
18
100
AcDbEntity
  8
1
  6
Continuous
100
AcDbLine
 10
275.6128529134799
 20
385.8171253204901
 30
0.0
 11
275.6128529134799
 21
381.8171253204901
 31
0.0
  0
CIRCLE
  5
1C0B
330
18
100
AcDbEntity
  8
1
  6
Continuous
100
AcDbCircle
 10
298.1128529134799
 20
380.0171223204899
 30
0.0
 40
4.400000099999997
  0
LINE
  5
1C0C
330
18
100
AcDbEntity
  8
4
  6
CENTER
100
AcDbLine
 10
298.1128529134799
 20
386.0171223204899
 30
0.0
 11
298.1128529134799
 21
374.0171223204899
 31
0.0
  0
ARC
  5
1C0D
330
18
100
AcDbEntity
  8
1
  6
Continuous
100
AcDbCircle
 10
303.6128529134801
 20
368.5318393204902
 30
0.0
 40
2.0
100
AcDbArc
 50
109.4712199999995
 51
179.9999599999992
  0
LINE
  5
1C0E
330
18
100
AcDbEntity
  8
1
  6
Continuous
100
AcDbLine
 10
298.1425659134801
 20
366.7671223204898
 30
0.0
 11
301.6128529134801
 21
366.7671223204898
 31
0.0
  0
LINE
  5
1C0F
330
18
100
AcDbEntity
  8
1
  6
Continuous
100
AcDbLine
 10
301.6128529134801
 20
366.7671223204898
 30
0.0
 11
301.6128529134801
 21
368.5318393204902
 31
0.0
  0
LINE
  5
1C10
330
18
100
AcDbEntity
  8
4
  6
CENTER
100
AcDbLine
 10
292.1128529134799
 20
380.0171223204899
 30
0.0
 11
304.1128529134799
 21
380.0171223204899
 31
0.0
  0
LINE
  5
1C11
330
18
100
AcDbEntity
  8
1
  6
Continuous
100
AcDbLine
 10
288.1128529134798
 20
394.5171223204899
 30
0.0
 11
288.1128529134798
 21
428.5171223204899
 31
0.0
  0
LINE
  5
1C12
330
18
100
AcDbEntity
  8
1
  6
Continuous
100
AcDbLine
 10
293.1128529134801
 20
394.5171223204899
 30
0.0
 11
293.1128529134801
 21
428.5171223204899
 31
0.0
  0
ARC
  5
1C13
330
18
100
AcDbEntity
  8
1
  6
Continuous
100
AcDbCircle
 10
290.6128529134798
 20
394.5171223204899
 30
0.0
 40
2.5
100
AcDbArc
 50
179.9999599999992
 51
0.0000100179138904
  0
ARC
  5
1C14
330
18
100
AcDbEntity
  8
1
  6
Continuous
100
AcDbCircle
 10
290.6128529134798
 20
428.5171223204899
 30
0.0
 40
2.5
100
AcDbArc
 50
0.0
 51
179.9999599999992
  0
ARC
  5
1C15
330
18
100
AcDbEntity
  8
1
  6
Continuous
100
AcDbCircle
 10
300.6128529134798
 20
446.0171223204898
 30
0.0
 40
7.0
100
AcDbArc
 50
0.0
 51
70.5287659999988
  0
ARC
  5
1C16
330
18
100
AcDbEntity
  8
1
  6
Continuous
100
AcDbCircle
 10
298.1425659134801
 20
443.06712532049
 30
0.0
 40
13.2
100
AcDbArc
 50
90.00000299999769
 51
149.2786599999996
  0
LINE
  5
1C17
330
18
100
AcDbEntity
  8
1
  6
Continuous
100
AcDbLine
 10
286.7950279134801
 20
449.8105223204901
 30
0.0
 11
281.2006599134802
 21
440.3965093204899
 31
0.0
  0
ARC
  5
1C18
330
18
100
AcDbEntity
  8
1
  6
Continuous
100
AcDbCircle
 10
275.6128529134799
 20
443.71712232049
 30
0.0
 40
6.5
100
AcDbArc
 50
269.9999600000024
 51
329.2786299999986
  0
ARC
  5
1C19
330
18
100
AcDbEntity
  8
1
  6
Continuous
100
AcDbCircle
 10
273.91285191348
 20
442.61711332049
 30
0.0
 40
1.199999999999999
100
AcDbArc
 50
0.0000025044784726
 51
90.00000299999769
  0
LINE
  5
1C1A
330
18
100
AcDbEntity
  8
1
  6
Continuous
100
AcDbLine
 10
275.1128529134799
 20
442.61711332049
 30
0.0
 11
275.1128529134799
 21
437.2171193204898
 31
0.0
  0
LINE
  5
1C1B
330
18
100
AcDbEntity
  8
1
  6
Continuous
100
AcDbLine
 10
275.1128529134799
 20
441.7171193204898
 30
0.0
 11
274.1308789134799
 21
441.7171193204898
 31
0.0
  0
LINE
  5
1C1C
330
18
100
AcDbEntity
  8
1
  6
Continuous
100
AcDbLine
 10
274.5370869134799
 20
437.7171193204898
 30
0.0
 11
274.1308809134799
 21
441.7171193204898
 31
0.0
  0
LINE
  5
1C1D
330
18
100
AcDbEntity
  8
1
  6
Continuous
100
AcDbLine
 10
275.1128529134799
 20
437.7171193204898
 30
0.0
 11
274.53708891348
 21
437.7171193204898
 31
0.0
  0
CIRCLE
  5
1C1E
330
18
100
AcDbEntity
  8
1
  6
Continuous
100
AcDbCircle
 10
298.1128529134799
 20
443.01712232049
 30
0.0
 40
4.400000099999997
  0
LINE
  5
1C1F
330
18
100
AcDbEntity
  8
4
  6
CENTER
100
AcDbLine
 10
298.1128529134799
 20
449.01712232049
 30
0.0
 11
298.1128529134799
 21
437.0171223204899
 31
0.0
  0
LINE
  5
1C20
330
18
100
AcDbEntity
  8
4
  6
CENTER
100
AcDbLine
 10
292.1128529134799
 20
443.01712232049
 30
0.0
 11
304.1128529134799
 21
443.01712232049
 31
0.0
  0
ARC
  5
1C21
330
18
100
AcDbEntity
  8
1
  6
Continuous
100
AcDbCircle
 10
303.6128529134801
 20
454.50240232049
 30
0.0
 40
2.0
100
AcDbArc
 50
179.9999599999992
 51
250.5287699999982
  0
LINE
  5
1C22
330
18
100
AcDbEntity
  8
1
  6
Continuous
100
AcDbLine
 10
298.1425659134801
 20
456.2671223204898
 30
0.0
 11
301.6128529134801
 21
456.2671223204898
 31
0.0
  0
LINE
  5
1C23
330
18
100
AcDbEntity
  8
1
  6
Continuous
100
AcDbLine
 10
301.6128529134801
 20
454.50240232049
 30
0.0
 11
301.6128529134801
 21
456.2671223204898
 31
0.0
  0
LINE
  5
21D7
330
18
100
AcDbEntity
  8
4
  6
CENTER
100
AcDbLine
 10
444.4675345462122
 20
196.55692323249
 30
0.0
 11
444.4675345462122
 21
305.13745303249
 31
0.0
  0
LINE
  5
21D8
330
18
100
AcDbEntity
  8
1
  6
Continuous
100
AcDbLine
 10
424.4675345462121
 20
269.3771992324903
 30
0.0
 11
424.4675345462121
 21
205.9331032324902
 31
0.0
  0
LINE
  5
21D9
330
18
100
AcDbEntity
  8
1
  6
Continuous
100
AcDbLine
 10
464.4675345462121
 20
269.3771992324903
 30
0.0
 11
464.4675345462121
 21
205.9331032324902
 31
0.0
  0
ARC
  5
21DD
330
18
100
AcDbEntity
  8
1
  6
Continuous
100
AcDbCircle
 10
444.4675345462122
 20
350.1551532324902
 30
0.0
 40
150.0
100
AcDbArc
 50
264.062225000002
 51
275.9377929999974
  0
ARC
  5
21DE
330
18
100
AcDbEntity
  8
1
  6
Continuous
100
AcDbCircle
 10
459.4675345462121
 20
205.9331072324903
 30
0.0
 40
5.0
100
AcDbArc
 50
275.9378140000016
 51
359.9999599999993
  0
ARC
  5
21DF
330
18
100
AcDbEntity
  8
1
  6
Continuous
100
AcDbCircle
 10
429.4675345462121
 20
205.9331072324903
 30
0.0
 40
5.0
100
AcDbArc
 50
180.0
 51
264.0622049999976
  0
LINE
  5
21E0
330
18
100
AcDbEntity
  8
1
  6
Continuous
100
AcDbLine
 10
421.9675345462121
 20
224.15515323249
 30
0.0
 11
421.9675345462121
 21
296.9551532324903
 31
0.0
  0
LINE
  5
21E1
330
18
100
AcDbEntity
  8
1
  6
Continuous
100
AcDbLine
 10
466.9675345462121
 20
224.15515323249
 30
0.0
 11
466.9675345462121
 21
296.9551532324903
 31
0.0
  0
LINE
  5
21E2
330
18
100
AcDbEntity
  8
1
  6
Continuous
100
AcDbLine
 10
489.2175345462121
 20
282.8191322324901
 30
0.0
 11
489.2175345462121
 21
296.1551532324902
 31
0.0
  0
LINE
  5
21E3
330
18
100
AcDbEntity
  8
1
  6
Continuous
100
AcDbLine
 10
486.0175345462121
 20
282.9307802324901
 30
0.0
 11
486.0175345462121
 21
296.1551532324902
 31
0.0
  0
LINE
  5
21E5
330
18
100
AcDbEntity
  8
1
  6
Continuous
100
AcDbLine
 10
399.717533546212
 20
282.8191352324901
 30
0.0
 11
399.717533546212
 21
296.1551532324902
 31
0.0
  0
LINE
  5
21E6
330
18
100
AcDbEntity
  8
1
  6
Continuous
100
AcDbLine
 10
402.9175345462121
 20
282.9307802324901
 30
0.0
 11
402.9175345462121
 21
296.1551532324902
 31
0.0
  0
ARC
  5
21E8
330
18
100
AcDbEntity
  8
1
  6
Continuous
100
AcDbCircle
 10
444.4675345462122
 20
125.1551532324902
 30
0.0
 40
150.0
100
AcDbArc
 50
84.06220700000259
 51
95.937774999998
  0
LINE
  5
21E9
330
18
100
AcDbEntity
  8
4
  6
CENTER
100
AcDbLine
 10
481.1366445462121
 20
237.6551532324902
 30
0.0
 11
405.534200546212
 21
237.6551532324902
 31
0.0
  0
ARC
  5
21EA
330
18
100
AcDbEntity
  8
1
  6
Continuous
100
AcDbCircle
 10
416.8363705546092
 20
287.9049254918775
 30
0.0
 40
72.55961264431809
100
AcDbArc
 50
321.2875086303321
 51
355.9807684075532
  0
LINE
  5
21EB
330
18
100
AcDbEntity
  8
1
  6
Continuous
100
AcDbLine
 10
466.1675345462121
 20
255.6551532324902
 30
0.0
 11
466.1675345462121
 21
219.65515323249
 31
0.0
  0
ARC
  5
21EC
330
18
100
AcDbEntity
  8
1
  6
Continuous
100
AcDbCircle
 10
416.8362493485856
 20
287.9052137467557
 30
0.0
 40
69.35989670011436
100
AcDbArc
 50
321.280994318059
 51
355.8872682652042
  0
LINE
  5
21ED
330
18
100
AcDbEntity
  8
1
  6
Continuous
100
AcDbLine
 10
470.1675345462121
 20
224.15515323249
 30
0.0
 11
470.1675345462121
 21
233.1551532324902
 31
0.0
  0
LINE
  5
21EE
330
18
100
AcDbEntity
  8
1
  6
Continuous
100
AcDbLine
 10
466.1675345462121
 20
219.65515323249
 30
0.0
 11
464.4675345462121
 21
219.65515323249
 31
0.0
  0
LINE
  5
21EF
330
18
100
AcDbEntity
  8
1
  6
Continuous
100
AcDbLine
 10
470.1675345462121
 20
224.15515323249
 30
0.0
 11
466.9675345462121
 21
224.15515323249
 31
0.0
  0
ARC
  5
21F0
330
18
100
AcDbEntity
  8
1
  6
Continuous
100
AcDbCircle
 10
460.677534546212
 20
237.6551532324902
 30
0.0
 40
14.49
100
AcDbArc
 50
344.9045800000002
 51
15.09541999999981
  0
LINE
  5
21F1
330
18
100
AcDbEntity
  8
1
  6
Continuous
100
AcDbLine
 10
476.7675245462121
 20
244.9551522324902
 30
0.0
 11
476.7675245462121
 21
237.6551532324902
 31
0.0
  0
LINE
  5
21F2
330
18
100
AcDbEntity
  8
1
  6
Continuous
100
AcDbLine
 10
475.1675345462121
 20
244.75427423249
 30
0.0
 11
475.1675345462121
 21
237.6551532324902
 31
0.0
  0
LINE
  5
21F3
330
18
100
AcDbEntity
  8
1
  6
Continuous
100
AcDbLine
 10
478.5175345462118
 20
242.65515323249
 30
0.0
 11
478.5175345462118
 21
232.6551532324902
 31
0.0
  0
ARC
  5
21F4
330
18
100
AcDbEntity
  8
1
  6
Continuous
100
AcDbCircle
 10
485.1675345462121
 20
233.1551532324902
 30
0.0
 40
18.200001
100
AcDbArc
 50
141.3272400000006
 51
180.0
  0
ARC
  5
21F5
330
18
100
AcDbEntity
  8
1
  6
Continuous
100
AcDbCircle
 10
485.1675345462121
 20
233.1551532324902
 30
0.0
 40
15.0
100
AcDbArc
 50
141.3420039999994
 51
180.0
  0
LINE
  5
21F6
330
18
100
AcDbEntity
  8
1
  6
Continuous
100
AcDbLine
 10
479.2675345462122
 20
241.90515323249
 30
0.0
 11
479.2675345462122
 21
233.4051532324902
 31
0.0
  0
LINE
  5
21F7
330
18
100
AcDbEntity
  8
1
  6
Continuous
100
AcDbLine
 10
474.6675345462121
 20
232.1807422324901
 30
0.0
 11
470.6675345462121
 21
232.4152622324902
 31
0.0
  0
LINE
  5
21F8
330
18
100
AcDbEntity
  8
1
  6
Continuous
100
AcDbLine
 10
470.6675345462121
 20
233.4125152324901
 30
0.0
 11
474.6675345462121
 21
233.88157123249
 31
0.0
  0
LINE
  5
21F9
330
18
100
AcDbEntity
  8
1
  6
Continuous
100
AcDbLine
 10
470.6675345462121
 20
228.15515323249
 30
0.0
 11
474.6675345462121
 21
228.40713723249
 31
0.0
  0
LINE
  5
21FA
330
18
100
AcDbEntity
  8
1
  6
Continuous
100
AcDbLine
 10
474.6675345462121
 20
228.3551582324903
 30
0.0
 11
470.6675345462121
 21
228.15515323249
 31
0.0
  0
ARC
  5
21FB
330
18
100
AcDbEntity
  8
1
  6
Continuous
100
AcDbCircle
 10
471.357524546212
 20
230.29393923249
 30
0.0
 40
3.8100059
100
AcDbArc
 50
330.3156199999996
 51
29.68438000000021
  0
ARC
  5
21FC
330
18
100
AcDbEntity
  8
1
  6
Continuous
100
AcDbCircle
 10
475.567524546212
 20
230.3551502324903
 30
0.0
 40
1.199999999999999
100
AcDbArc
 50
270.0
 51
359.999989999999
  0
LINE
  5
21FD
330
18
100
AcDbEntity
  8
1
  6
Continuous
100
AcDbLine
 10
475.567524546212
 20
229.1551532324902
 30
0.0
 11
475.1675345462121
 21
229.1551532324902
 31
0.0
  0
LINE
  5
21FE
330
18
100
AcDbEntity
  8
1
  6
Continuous
100
AcDbLine
 10
474.6675345462119
 20
228.3551502324903
 30
0.0
 11
475.1675345462121
 21
229.1551532324904
 31
0.0
  0
LINE
  5
21FF
330
18
100
AcDbEntity
  8
1
  6
Continuous
100
AcDbLine
 10
474.6675345462121
 20
228.3551502324903
 30
0.0
 11
474.6675345462121
 21
228.4071442324902
 31
0.0
  0
LINE
  5
2200
330
18
100
AcDbEntity
  8
1
  6
Continuous
100
AcDbLine
 10
474.6675345462121
 20
232.1807342324901
 30
0.0
 11
474.6675345462121
 21
233.8815632324901
 31
0.0
  0
LINE
  5
2201
330
18
100
AcDbEntity
  8
1
  6
Continuous
100
AcDbLine
 10
475.1675345462121
 20
229.1551532324902
 30
0.0
 11
475.1675345462121
 21
237.6551532324902
 31
0.0
  0
LINE
  5
2202
330
18
100
AcDbEntity
  8
1
  6
Continuous
100
AcDbLine
 10
476.7675245462121
 20
230.3551502324903
 30
0.0
 11
476.7675245462121
 21
237.6551532324902
 31
0.0
  0
LINE
  5
2203
330
18
100
AcDbEntity
  8
1
  6
Continuous
100
AcDbLine
 10
478.5175345462118
 20
232.6551532324902
 30
0.0
 11
476.7675245462121
 21
232.6551532324902
 31
0.0
  0
LINE
  5
2204
330
18
100
AcDbEntity
  8
2
  6
Continuous
100
AcDbLine
 10
479.2675345462122
 20
233.4051532324902
 30
0.0
 11
476.7675245462121
 21
233.4051532324902
 31
0.0
  0
LINE
  5
2205
330
18
100
AcDbEntity
  8
1
  6
Continuous
100
AcDbLine
 10
478.5175645462119
 20
232.65512223249
 30
0.0
 11
479.267564546212
 21
233.40512223249
 31
0.0
  0
LINE
  5
2206
330
18
100
AcDbEntity
  8
1
  6
Continuous
100
AcDbLine
 10
466.9675345462121
 20
232.6551532324902
 30
0.0
 11
466.1675345462121
 21
232.6551532324902
 31
0.0
  0
ARC
  5
2207
330
18
100
AcDbEntity
  8
1
  6
Continuous
100
AcDbCircle
 10
488.4175345462121
 20
237.6551532324902
 30
0.0
 40
18.25
100
AcDbArc
 50
187.4323600000007
 51
193.4427400000014
  0
ARC
  5
2208
330
18
100
AcDbEntity
  8
1
  6
Continuous
100
AcDbCircle
 10
474.9546545462122
 20
230.2852042324901
 30
0.0
 40
4.787128
100
AcDbArc
 50
153.5795800000011
 51
206.4204200000016
  0
LINE
  5
2209
330
18
100
AcDbEntity
  8
1
  6
Continuous
100
AcDbLine
 10
470.1675345462121
 20
229.1551612324901
 30
0.0
 11
470.6675345462121
 21
228.15516123249
 31
0.0
  0
LINE
  5
220A
330
18
100
AcDbEntity
  8
1
  6
Continuous
100
AcDbLine
 10
470.6675345462121
 20
233.4125152324901
 30
0.0
 11
470.6675345462121
 21
232.4152622324902
 31
0.0
  0
LINE
  5
220B
330
18
100
AcDbEntity
  8
1
  6
Continuous
100
AcDbLine
 10
472.802984546212
 20
241.64738623249
 30
0.0
 11
474.6675345462121
 21
241.42875123249
 31
0.0
  0
LINE
  5
220C
330
18
100
AcDbEntity
  8
1
  6
Continuous
100
AcDbLine
 10
474.6675345462119
 20
243.1295722324903
 30
0.0
 11
473.8970245462119
 21
243.0843982324902
 31
0.0
  0
ARC
  5
220D
330
18
100
AcDbEntity
  8
1
  6
Continuous
100
AcDbCircle
 10
475.567524546212
 20
244.9551522324902
 30
0.0
 40
1.199999999999999
100
AcDbArc
 50
359.999989999999
 51
64.11293000000178
  0
ARC
  5
220E
330
18
100
AcDbEntity
  8
1
  6
Continuous
100
AcDbCircle
 10
471.357524546212
 20
245.0163672324901
 30
0.0
 40
3.8100059
100
AcDbArc
 50
330.3156099999994
 51
355.8516800000006
  0
LINE
  5
220F
330
18
100
AcDbEntity
  8
1
  6
Continuous
100
AcDbLine
 10
474.6675345462121
 20
243.1295722324903
 30
0.0
 11
474.6675345462121
 21
241.4287432324901
 31
0.0
  0
LINE
  5
2210
330
18
100
AcDbEntity
  8
1
  6
Continuous
100
AcDbLine
 10
478.5175345462118
 20
242.65515323249
 30
0.0
 11
476.7675245462121
 21
242.65515323249
 31
0.0
  0
LINE
  5
2211
330
18
100
AcDbEntity
  8
2
  6
Continuous
100
AcDbLine
 10
479.2675345462122
 20
241.90515323249
 30
0.0
 11
476.7675245462121
 21
241.90515323249
 31
0.0
  0
LINE
  5
2212
330
18
100
AcDbEntity
  8
1
  6
Continuous
100
AcDbLine
 10
479.2675545462118
 20
241.90515323249
 30
0.0
 11
478.517554546212
 21
242.65515323249
 31
0.0
  0
LINE
  5
2213
330
18
100
AcDbEntity
  8
1
  6
Continuous
100
AcDbLine
 10
466.9675345462121
 20
242.65515323249
 30
0.0
 11
466.1675345462121
 21
242.65515323249
 31
0.0
  0
ARC
  5
2214
330
18
100
AcDbEntity
  8
1
  6
Continuous
100
AcDbCircle
 10
459.4675345462121
 20
269.3771992324903
 30
0.0
 40
5.0
100
AcDbArc
 50
0.0000400000007758
 51
84.0621859999983
  0
LINE
  5
2215
330
18
100
AcDbEntity
  8
1
  6
Continuous
100
AcDbLine
 10
466.1675345462121
 20
255.6551532324902
 30
0.0
 11
464.4675345462121
 21
255.6551532324902
 31
0.0
  0
LINE
  5
2216
330
18
100
AcDbEntity
  8
1
  6
Continuous
100
AcDbLine
 10
422.7675375462117
 20
255.6551532324902
 30
0.0
 11
422.7675375462117
 21
219.65515323249
 31
0.0
  0
ARC
  5
2217
330
18
100
AcDbEntity
  8
1
  6
Continuous
100
AcDbCircle
 10
472.0986944686298
 20
287.9049253061883
 30
0.0
 40
72.55961248623768
100
AcDbArc
 50
184.019181491124
 51
218.7125012812042
  0
ARC
  5
2218
330
18
100
AcDbEntity
  8
1
  6
Continuous
100
AcDbCircle
 10
472.098815741222
 20
287.9052137239497
 30
0.0
 40
69.35989669586915
100
AcDbArc
 50
184.1127317161602
 51
218.7190156599523
  0
LINE
  5
2219
330
18
100
AcDbEntity
  8
1
  6
Continuous
100
AcDbLine
 10
418.7675375462117
 20
224.15515323249
 30
0.0
 11
418.7675375462117
 21
233.1551532324902
 31
0.0
  0
LINE
  5
221A
330
18
100
AcDbEntity
  8
1
  6
Continuous
100
AcDbLine
 10
424.4675345462121
 20
219.65515323249
 30
0.0
 11
422.7675375462117
 21
219.65515323249
 31
0.0
  0
LINE
  5
221B
330
18
100
AcDbEntity
  8
1
  6
Continuous
100
AcDbLine
 10
421.9675345462121
 20
224.15515323249
 30
0.0
 11
418.7675375462117
 21
224.15515323249
 31
0.0
  0
LINE
  5
221C
330
18
100
AcDbEntity
  8
1
  6
Continuous
100
AcDbLine
 10
414.7675375462117
 20
243.3531932324902
 30
0.0
 11
414.7675375462117
 21
228.6551532324902
 31
0.0
  0
LINE
  5
221D
330
18
100
AcDbEntity
  8
1
  6
Continuous
100
AcDbLine
 10
413.7675375462118
 20
244.75427423249
 30
0.0
 11
413.7675375462118
 21
230.6551532324902
 31
0.0
  0
ARC
  5
221E
330
18
100
AcDbEntity
  8
1
  6
Continuous
100
AcDbCircle
 10
403.767537546212
 20
233.1551532324902
 30
0.0
 40
18.200001
100
AcDbArc
 50
0.0000400000007758
 51
38.67275999999925
  0
ARC
  5
221F
330
18
100
AcDbEntity
  8
1
  6
Continuous
100
AcDbCircle
 10
403.767537546212
 20
233.1551532324902
 30
0.0
 40
15.0
100
AcDbArc
 50
0.0000400000007758
 51
38.65799000000047
  0
LINE
  5
2220
330
18
100
AcDbEntity
  8
1
  6
Continuous
100
AcDbLine
 10
418.7675375462117
 20
228.6551532324902
 30
0.0
 11
414.7675375462117
 21
228.6551532324902
 31
0.0
  0
LINE
  5
2221
330
18
100
AcDbEntity
  8
1
  6
Continuous
100
AcDbLine
 10
422.7675375462117
 20
232.6551532324902
 30
0.0
 11
421.9675345462121
 21
232.6551532324902
 31
0.0
  0
LINE
  5
2222
330
18
100
AcDbEntity
  8
1
  6
Continuous
100
AcDbLine
 10
414.7675375462117
 20
228.6551452324901
 30
0.0
 11
413.7675375462118
 21
230.6551452324901
 31
0.0
  0
LINE
  5
2223
330
18
100
AcDbEntity
  8
1
  6
Continuous
100
AcDbLine
 10
422.7675375462117
 20
242.65515323249
 30
0.0
 11
421.9675345462121
 21
242.65515323249
 31
0.0
  0
LINE
  5
2224
330
18
100
AcDbEntity
  8
1
  6
Continuous
100
AcDbLine
 10
413.7675145462122
 20
244.6551642324902
 30
0.0
 11
413.7931415462121
 21
244.7064192324901
 31
0.0
  0
ARC
  5
2225
330
18
100
AcDbEntity
  8
1
  6
Continuous
100
AcDbCircle
 10
429.4675345462121
 20
269.3771992324903
 30
0.0
 40
5.0
100
AcDbArc
 50
95.93779500000241
 51
180.0
  0
LINE
  5
2226
330
18
100
AcDbEntity
  8
1
  6
Continuous
100
AcDbLine
 10
424.4675345462121
 20
255.6551532324902
 30
0.0
 11
422.7675375462117
 21
255.6551532324902
 31
0.0
  0
LINE
  5
2228
330
18
100
AcDbEntity
  8
1
  6
Continuous
100
AcDbLine
 10
485.2175345462121
 20
296.9551532324903
 30
0.0
 11
403.7175335462118
 21
296.9551532324903
 31
0.0
  0
LINE
  5
2229
330
18
100
AcDbEntity
  8
1
  6
Continuous
100
AcDbLine
 10
485.2175345462121
 20
300.1551532324902
 30
0.0
 11
403.7175335462118
 21
300.1551532324902
 31
0.0
  0
LINE
  5
222B
330
18
100
AcDbEntity
  8
1
  6
Continuous
100
AcDbLine
 10
462.302774546212
 20
293.7551532324903
 30
0.0
 11
426.6322985462118
 21
293.7551532324903
 31
0.0
  0
ARC
  5
222C
330
18
100
AcDbEntity
  8
1
  6
Continuous
100
AcDbCircle
 10
462.302774546212
 20
298.7551536324903
 30
0.0
 40
5.0
100
AcDbArc
 50
269.999979999998
 51
338.8998299999999
  0
LINE
  5
222D
330
18
100
AcDbEntity
  8
4
  6
CENTER
100
AcDbLine
 10
475.9675345462121
 20
292.5509447326978
 30
0.0
 11
475.9675345462121
 21
305.13745303249
 31
0.0
  0
ARC
  5
222E
330
18
100
AcDbEntity
  8
1
  6
Continuous
100
AcDbCircle
 10
485.2175345462121
 20
296.1551532324902
 30
0.0
 40
4.0
100
AcDbArc
 50
0.0000400000007758
 51
90.00001799999918
  0
ARC
  5
222F
330
18
100
AcDbEntity
  8
1
  6
Continuous
100
AcDbCircle
 10
485.2175345462121
 20
296.1551532324902
 30
0.0
 40
0.8000000099999999
100
AcDbArc
 50
0.0000400000007758
 51
90.00001799999918
  0
ARC
  5
2230
330
18
100
AcDbEntity
  8
1
  6
Continuous
100
AcDbCircle
 10
403.7175335462118
 20
296.1551532324902
 30
0.0
 40
4.0
100
AcDbArc
 50
90.00001799999918
 51
180.0
  0
LINE
  5
2231
330
18
100
AcDbEntity
  8
4
  6
CENTER
100
AcDbLine
 10
412.9675345462121
 20
292.5509447326978
 30
0.0
 11
412.9675345462121
 21
305.13745303249
 31
0.0
  0
ARC
  5
2232
330
18
100
AcDbEntity
  8
1
  6
Continuous
100
AcDbCircle
 10
426.6322985462118
 20
298.7551536324903
 30
0.0
 40
5.0
100
AcDbArc
 50
201.1001000000002
 51
269.999979999998
  0
ARC
  5
2233
330
18
100
AcDbEntity
  8
1
  6
Continuous
100
AcDbCircle
 10
403.7175335462118
 20
296.1551532324902
 30
0.0
 40
0.8000000099999999
100
AcDbArc
 50
90.00001799999918
 51
180.0
  0
LINE
  5
22CB
330
18
100
AcDbEntity
  8
4
  6
CENTER
100
AcDbLine
 10
622.3222161789442
 20
196.55692323249
 30
0.0
 11
622.3222161789442
 21
305.13745303249
 31
0.0
  0
ARC
  5
22CC
330
18
100
AcDbEntity
  8
1
  6
Continuous
100
AcDbCircle
 10
622.3222161789442
 20
237.6551532324902
 30
0.0
 40
37.5
100
AcDbArc
 50
127.6820799999971
 51
52.31792000000289
  0
LINE
  5
22CF
330
18
100
AcDbEntity
  8
1
  6
Continuous
100
AcDbLine
 10
663.3222161789442
 20
296.9551562324901
 30
0.0
 11
660.3188821789442
 21
296.9551562324901
 31
0.0
  0
ARC
  5
22D0
330
18
100
AcDbEntity
  8
1
  6
Continuous
100
AcDbCircle
 10
661.0304181789443
 20
296.1551532324902
 30
0.0
 40
4.0
100
AcDbArc
 50
90.00001799999918
 51
196.6016300000003
  0
LINE
  5
22D1
330
18
100
AcDbEntity
  8
1
  6
Continuous
100
AcDbLine
 10
663.3222161789442
 20
300.1551532324902
 30
0.0
 11
581.3222161789442
 21
300.1551532324902
 31
0.0
  0
LINE
  5
22D3
330
18
100
AcDbEntity
  8
4
  6
CENTER
100
AcDbLine
 10
664.4555511789442
 20
237.6551532324902
 30
0.0
 11
580.9888801789441
 21
237.6551532324902
 31
0.0
  0
LINE
  5
22D5
330
18
100
AcDbEntity
  8
1
  6
Continuous
100
AcDbLine
 10
663.3222161789442
 20
296.9551562324901
 30
0.0
 11
663.3222161789442
 21
300.1551532324902
 31
0.0
  0
LINE
  5
22D6
330
18
100
AcDbEntity
  8
1
  6
Continuous
100
AcDbLine
 10
633.3222161789442
 20
239.7284872324903
 30
0.0
 11
633.3222161789442
 21
297.4551563324904
 31
0.0
  0
ARC
  5
22D7
330
18
100
AcDbEntity
  8
1
  6
Continuous
100
AcDbCircle
 10
654.3222161789442
 20
294.1551532324901
 30
0.0
 40
3.0
100
AcDbArc
 50
291.7355699999994
 51
16.60152000000095
  0
LINE
  5
22D8
330
18
100
AcDbEntity
  8
1
  6
Continuous
100
AcDbLine
 10
611.3222161789442
 20
239.3284852324902
 30
0.0
 11
611.3222161789442
 21
297.8551501324902
 31
0.0
  0
ARC
  5
22D9
330
18
100
AcDbEntity
  8
1
  6
Continuous
100
AcDbCircle
 10
590.3222161789442
 20
294.1551532324901
 30
0.0
 40
3.0
100
AcDbArc
 50
163.3985289999996
 51
248.2645199999978
  0
ARC
  5
22DB
330
18
100
AcDbEntity
  8
1
  6
Continuous
100
AcDbCircle
 10
622.3222161789442
 20
237.6551532324902
 30
0.0
 40
17.1
100
AcDbArc
 50
163.4846487685836
 51
16.51540633016088
  0
ARC
  5
22DC
330
18
100
AcDbEntity
  8
1
  6
Continuous
100
AcDbCircle
 10
622.3222161789442
 20
237.6551532324902
 30
0.0
 40
18.5
100
AcDbArc
 50
156.9411830831244
 51
23.05885958010311
  0
ARC
  5
22DD
330
18
100
AcDbEntity
  8
1
  6
Continuous
100
AcDbCircle
 10
622.3222161789442
 20
237.6551532324902
 30
0.0
 40
22.120001
100
AcDbArc
 50
146.1046125605222
 51
33.8954159194913
  0
LINE
  5
22DE
330
18
100
AcDbEntity
  8
1
  6
Continuous
100
AcDbLine
 10
650.1656957789442
 20
286.0377792324902
 30
0.0
 11
636.8286610789444
 21
235.3390212324901
 31
0.0
  0
LINE
  5
22DF
330
18
100
AcDbEntity
  8
1
  6
Continuous
100
AcDbLine
 10
594.478729178944
 20
286.03778023249
 30
0.0
 11
607.8157621789443
 21
235.3390212324901
 31
0.0
  0
ARC
  5
22E0
330
18
100
AcDbEntity
  8
1
  6
Continuous
100
AcDbCircle
 10
622.3222161789442
 20
239.1551532324902
 30
0.0
 40
15.0
100
AcDbArc
 50
194.7385599999996
 51
345.2614400000002
  0
ARC
  5
22E4
330
18
100
AcDbEntity
  8
1
  6
Continuous
100
AcDbCircle
 10
657.3222161789442
 20
284.1551532324901
 30
0.0
 40
7.400000099999997
100
AcDbArc
 50
111.735551
 51
165.26149
  0
LINE
  5
22E5
330
18
100
AcDbEntity
  8
1
  6
Continuous
100
AcDbLine
 10
654.5818211789442
 20
291.0290432324902
 30
0.0
 11
655.4331861789444
 21
291.3684542324901
 31
0.0
  0
ARC
  5
22E6
330
18
100
AcDbEntity
  8
1
  6
Continuous
100
AcDbCircle
 10
587.3222161789442
 20
284.1551532324901
 30
0.0
 40
7.400000099999997
100
AcDbArc
 50
14.73855000000067
 51
68.26445999999879
  0
LINE
  5
22E7
330
18
100
AcDbEntity
  8
1
  6
Continuous
100
AcDbLine
 10
590.0626031789443
 20
291.0290352324905
 30
0.0
 11
589.2112431789439
 21
291.3684452324904
 31
0.0
  0
LINE
  5
22E9
330
18
100
AcDbEntity
  8
4
  6
CENTER
100
AcDbLine
 10
653.8222161789442
 20
304.6640367425093
 30
0.0
 11
653.8222161789442
 21
293.358487280537
 31
0.0
  0
ARC
  5
22EA
330
18
100
AcDbEntity
  8
1
  6
Continuous
100
AcDbCircle
 10
660.3188821789442
 20
293.9551562324902
 30
0.0
 40
3.0
100
AcDbArc
 50
90.00001799999918
 51
178.0898351000004
  0
LINE
  5
22EB
330
18
100
AcDbEntity
  8
4
  6
CENTER
100
AcDbLine
 10
590.8222161789442
 20
304.6640367425093
 30
0.0
 11
590.8222161789442
 21
293.358487280537
 31
0.0
  0
ARC
  5
22EC
330
18
100
AcDbEntity
  8
1
  6
Continuous
100
AcDbCircle
 10
583.6140101789442
 20
296.1551532324902
 30
0.0
 40
4.0
100
AcDbArc
 50
343.3984100000003
 51
90.00001799999918
  0
LINE
  5
22ED
330
18
100
AcDbEntity
  8
1
  6
Continuous
100
AcDbLine
 10
584.3255501789442
 20
296.9551562324901
 30
0.0
 11
581.3222161789442
 21
296.9551562324901
 31
0.0
  0
ARC
  5
22EE
330
18
100
AcDbEntity
  8
1
  6
Continuous
100
AcDbCircle
 10
584.3255501789442
 20
293.9551562324902
 30
0.0
 40
3.0
100
AcDbArc
 50
1.910190000000028
 51
90.00001799999918
  0
LINE
  5
22EF
330
18
100
AcDbEntity
  8
1
  6
Continuous
100
AcDbLine
 10
581.3222161789442
 20
296.9551562324901
 30
0.0
 11
581.3222161789442
 21
300.1551532324902
 31
0.0
  0
LINE
  5
2373
330
18
100
AcDbEntity
  8
4
  6
CENTER
100
AcDbLine
 10
266.6128529134799
 20
127.7750993489171
 30
0.0
 11
266.6128529134799
 21
54.27855434891694
 31
0.0
  0
LINE
  5
2374
330
18
100
AcDbEntity
  8
1
  6
Continuous
100
AcDbLine
 10
225.6128529134799
 20
127.5906243489171
 30
0.0
 11
225.6128529134799
 21
58.59062434891711
 31
0.0
  0
LINE
  5
2375
330
18
100
AcDbEntity
  8
4
  6
CENTER
100
AcDbLine
 10
235.11285291348
 20
118.590624348917
 30
0.0
 11
235.11285291348
 21
130.590624348917
 31
0.0
  0
LINE
  5
2376
330
18
100
AcDbEntity
  8
1
  6
Continuous
100
AcDbLine
 10
246.4306850134799
 20
131.3840183489171
 30
0.0
 11
252.0250538134801
 21
121.970015348917
 31
0.0
  0
CIRCLE
  5
2377
330
18
100
AcDbEntity
  8
1
  6
Continuous
100
AcDbCircle
 10
235.11285291348
 20
124.5906243489171
 30
0.0
 40
4.400000099999997
  0
LINE
  5
2378
330
18
100
AcDbEntity
  8
1
  6
Continuous
100
AcDbLine
 10
281.2006559134804
 20
121.9700113489168
 30
0.0
 11
286.7950279134801
 21
131.3840183489169
 31
0.0
  0
LINE
  5
2379
330
18
100
AcDbEntity
  8
1
  6
Continuous
100
AcDbLine
 10
307.6128529134801
 20
127.5906243489171
 30
0.0
 11
307.6128529134801
 21
58.59062434891711
 31
0.0
  0
LINE
  5
237A
330
18
100
AcDbEntity
  8
4
  6
CENTER
100
AcDbLine
 10
298.1128529134799
 20
118.590624348917
 30
0.0
 11
298.1128529134799
 21
130.590624348917
 31
0.0
  0
CIRCLE
  5
237B
330
18
100
AcDbEntity
  8
1
  6
Continuous
100
AcDbCircle
 10
298.1128529134799
 20
124.5906243489171
 30
0.0
 40
4.400000099999997
  0
ARC
  5
237C
330
18
100
AcDbEntity
  8
1
  6
Continuous
100
AcDbCircle
 10
232.6128529134801
 20
127.5906243489171
 30
0.0
 40
7.0
100
AcDbArc
 50
109.4712300000016
 51
180.0000400000006
  0
ARC
  5
237F
330
18
100
AcDbEntity
  8
1
  6
Continuous
100
AcDbCircle
 10
298.1425659134801
 20
124.6406233489171
 30
0.0
 40
13.2
100
AcDbArc
 50
90.00000000000005
 51
149.2786599999998
  0
ARC
  5
2380
330
18
100
AcDbEntity
  8
1
  6
Continuous
100
AcDbCircle
 10
235.0831449134799
 20
124.6406233489171
 30
0.0
 40
13.2
100
AcDbArc
 50
30.72134000000025
 51
90.00000000000005
  0
LINE
  5
2381
330
18
100
AcDbEntity
  8
1
  6
Continuous
100
AcDbLine
 10
231.6128529134799
 20
137.840624348917
 30
0.0
 11
231.6128529134799
 21
136.0759073489167
 31
0.0
  0
LINE
  5
2382
330
18
100
AcDbEntity
  8
1
  6
Continuous
100
AcDbLine
 10
231.6128529134799
 20
137.840624348917
 30
0.0
 11
235.0831449134799
 21
137.840624348917
 31
0.0
  0
ARC
  5
2383
330
18
100
AcDbEntity
  8
1
  6
Continuous
100
AcDbCircle
 10
229.6128529134799
 20
136.0759073489167
 30
0.0
 40
2.0
100
AcDbArc
 50
289.4712550000004
 51
0.0
  0
ARC
  5
2384
330
18
100
AcDbEntity
  8
1
  6
Continuous
100
AcDbCircle
 10
300.6128529134798
 20
127.5906243489171
 30
0.0
 40
7.0
100
AcDbArc
 50
0.0
 51
70.52881999999946
  0
LINE
  5
2385
330
18
100
AcDbEntity
  8
1
  6
Continuous
100
AcDbLine
 10
301.6128529134801
 20
137.840624348917
 30
0.0
 11
301.6128529134801
 21
136.0759073489167
 31
0.0
  0
LINE
  5
2386
330
18
100
AcDbEntity
  8
1
  6
Continuous
100
AcDbLine
 10
298.1425659134801
 20
137.840624348917
 30
0.0
 11
301.6128529134801
 21
137.840624348917
 31
0.0
  0
ARC
  5
2387
330
18
100
AcDbEntity
  8
1
  6
Continuous
100
AcDbCircle
 10
303.6128529134801
 20
136.0759073489167
 30
0.0
 40
2.0
100
AcDbArc
 50
180.0000400000006
 51
250.5287800000004
  0
ARC
  5
2389
330
18
100
AcDbEntity
  8
1
  6
Continuous
100
AcDbCircle
 10
232.6128529134801
 20
58.59062434891711
 30
0.0
 40
7.0
100
AcDbArc
 50
180.0000400000006
 51
250.5288000000005
  0
LINE
  5
238A
330
18
100
AcDbEntity
  8
4
  6
CENTER
100
AcDbLine
 10
221.6128529134799
 20
93.09062434891712
 30
0.0
 11
311.6128529134801
 21
93.09062434891712
 31
0.0
  0
LINE
  5
2392
330
18
100
AcDbEntity
  8
4
  6
CENTER
100
AcDbLine
 10
292.1128529134799
 20
124.5906243489171
 30
0.0
 11
304.1128529134799
 21
124.5906243489171
 31
0.0
  0
LINE
  5
2393
330
18
100
AcDbEntity
  8
1
  6
Continuous
100
AcDbLine
 10
273.61285491348
 20
123.7906213489168
 30
0.0
 11
259.6128559134801
 21
123.7906213489168
 31
0.0
  0
LINE
  5
2394
330
18
100
AcDbEntity
  8
1
  6
Continuous
100
AcDbLine
 10
275.6128529134799
 20
122.7906213489168
 30
0.0
 11
257.6128539134801
 21
122.7906213489168
 31
0.0
  0
LINE
  5
2395
330
18
100
AcDbEntity
  8
1
  6
Continuous
100
AcDbLine
 10
257.6128529134801
 20
118.7906213489168
 30
0.0
 11
275.6128529134799
 21
118.7906213489168
 31
0.0
  0
LINE
  5
2396
330
18
100
AcDbEntity
  8
4
  6
CENTER
100
AcDbLine
 10
229.11285291348
 20
124.5906243489171
 30
0.0
 11
241.1128529134801
 21
124.5906243489171
 31
0.0
  0
LINE
  5
2397
330
18
100
AcDbEntity
  8
1
  6
Continuous
100
AcDbLine
 10
257.6128529134801
 20
118.7906213489168
 30
0.0
 11
257.6128539134801
 21
122.7906213489168
 31
0.0
  0
ARC
  5
2398
330
18
100
AcDbEntity
  8
1
  6
Continuous
100
AcDbCircle
 10
257.6128529134801
 20
125.2906213489167
 30
0.0
 40
6.5
100
AcDbArc
 50
210.7213499999974
 51
270.0000179999992
  0
LINE
  5
2399
330
18
100
AcDbEntity
  8
1
  6
Continuous
100
AcDbLine
 10
257.6128509134799
 20
122.790621348917
 30
0.0
 11
259.6128519134802
 21
123.790621348917
 31
0.0
  0
ARC
  5
239B
330
18
100
AcDbEntity
  8
1
  6
Continuous
100
AcDbCircle
 10
275.6128529134799
 20
125.2906213489167
 30
0.0
 40
6.5
100
AcDbArc
 50
270.0000179999992
 51
329.2786770000001
  0
LINE
  5
239C
330
18
100
AcDbEntity
  8
1
  6
Continuous
100
AcDbLine
 10
275.6128529134799
 20
118.7906213489168
 30
0.0
 11
275.6128529134799
 21
122.7906213489168
 31
0.0
  0
LINE
  5
239D
330
18
100
AcDbEntity
  8
1
  6
Continuous
100
AcDbLine
 10
273.61286291348
 20
123.7906363489171
 30
0.0
 11
275.61286291348
 21
122.790632348917
 31
0.0
  0
LINE
  5
23A0
330
18
100
AcDbEntity
  8
4
  6
CENTER
100
AcDbLine
 10
292.1128529134799
 20
61.59062434891712
 30
0.0
 11
304.1128529134799
 21
61.59062434891712
 31
0.0
  0
ARC
  5
23A1
330
18
100
AcDbEntity
  8
1
  6
Continuous
100
AcDbCircle
 10
298.1425659134801
 20
61.54062134891683
 30
0.0
 40
13.2
100
AcDbArc
 50
210.72134
 51
269.9999970000023
  0
LINE
  5
23A2
330
18
100
AcDbEntity
  8
1
  6
Continuous
100
AcDbLine
 10
286.7950279134801
 20
54.79722434891685
 30
0.0
 11
281.2006599134802
 21
64.21123734891716
 31
0.0
  0
LINE
  5
23A3
330
18
100
AcDbEntity
  8
1
  6
Continuous
100
AcDbLine
 10
252.02505051348
 20
64.21122234891685
 30
0.0
 11
246.4306878734801
 21
54.79722434891685
 31
0.0
  0
LINE
  5
23A4
330
18
100
AcDbEntity
  8
1
  6
Continuous
100
AcDbLine
 10
258.6886189134801
 20
66.89062734891717
 30
0.0
 11
259.0948259134801
 21
62.89062734891718
 31
0.0
  0
LINE
  5
23A5
330
18
100
AcDbEntity
  8
1
  6
Continuous
100
AcDbLine
 10
258.1128529134799
 20
61.99063334891707
 30
0.0
 11
258.1128529134799
 21
67.39062734891716
 31
0.0
  0
CIRCLE
  5
23A6
330
18
100
AcDbEntity
  8
1
  6
Continuous
100
AcDbCircle
 10
235.11285291348
 20
61.59062434891712
 30
0.0
 40
4.400000099999997
  0
LINE
  5
23A7
330
18
100
AcDbEntity
  8
4
  6
CENTER
100
AcDbLine
 10
235.11285291348
 20
55.59062434891711
 30
0.0
 11
235.11285291348
 21
67.59062434891712
 31
0.0
  0
LINE
  5
23A8
330
18
100
AcDbEntity
  8
1
  6
Continuous
100
AcDbLine
 10
274.5370869134799
 20
66.89062734891717
 30
0.0
 11
274.1308809134799
 21
62.89062734891718
 31
0.0
  0
LINE
  5
23A9
330
18
100
AcDbEntity
  8
1
  6
Continuous
100
AcDbLine
 10
275.1128529134799
 20
61.99063334891707
 30
0.0
 11
275.1128529134799
 21
67.39062734891716
 31
0.0
  0
LINE
  5
23AA
330
18
100
AcDbEntity
  8
1
  6
Continuous
100
AcDbLine
 10
267.5948249134799
 20
62.89062734891718
 30
0.0
 11
267.18861891348
 21
66.89062734891717
 31
0.0
  0
LINE
  5
23AB
330
18
100
AcDbEntity
  8
1
  6
Continuous
100
AcDbLine
 10
265.6308809134799
 20
62.89062734891718
 30
0.0
 11
266.0370869134799
 21
66.89062734891717
 31
0.0
  0
ARC
  5
23AC
330
18
100
AcDbEntity
  8
1
  6
Continuous
100
AcDbCircle
 10
262.3628529134799
 20
53.64062434891707
 30
0.0
 40
13.75000299999999
100
AcDbArc
 50
74.50126999999771
 51
105.4987300000022
  0
LINE
  5
23AD
330
18
100
AcDbEntity
  8
1
  6
Continuous
100
AcDbLine
 10
257.6128529134801
 20
67.39062734891716
 30
0.0
 11
275.6128529134799
 21
67.39062734891716
 31
0.0
  0
ARC
  5
23AF
330
18
100
AcDbEntity
  8
1
  6
Continuous
100
AcDbCircle
 10
257.6128529134801
 20
60.89062434891707
 30
0.0
 40
6.5
100
AcDbArc
 50
90.00003999999753
 51
149.2786500000025
  0
LINE
  5
23B0
330
18
100
AcDbEntity
  8
1
  6
Continuous
100
AcDbLine
 10
258.1128529134799
 20
66.89062734891717
 30
0.0
 11
258.6886189134801
 21
66.89062734891717
 31
0.0
  0
ARC
  5
23B1
330
18
100
AcDbEntity
  8
1
  6
Continuous
100
AcDbCircle
 10
275.6128529134799
 20
60.89062434891707
 30
0.0
 40
6.5
100
AcDbArc
 50
30.72137000000144
 51
90.00003999999753
  0
LINE
  5
23B2
330
18
100
AcDbEntity
  8
1
  6
Continuous
100
AcDbLine
 10
275.1128529134799
 20
66.89062734891717
 30
0.0
 11
274.53708891348
 21
66.89062734891717
 31
0.0
  0
LINE
  5
23B3
330
18
100
AcDbEntity
  8
1
  6
Continuous
100
AcDbLine
 10
267.18861691348
 20
66.89062734891717
 30
0.0
 11
266.6128529134799
 21
66.89062734891717
 31
0.0
  0
LINE
  5
23B4
330
18
100
AcDbEntity
  8
1
  6
Continuous
100
AcDbLine
 10
266.03708891348
 20
66.89062734891717
 30
0.0
 11
266.6128529134799
 21
66.89062734891717
 31
0.0
  0
ARC
  5
23B5
330
18
100
AcDbEntity
  8
1
  6
Continuous
100
AcDbCircle
 10
270.8628529134799
 20
53.64062434891707
 30
0.0
 40
13.75000299999999
100
AcDbArc
 50
74.50126999999771
 51
105.4987300000022
  0
LINE
  5
23B6
330
18
100
AcDbEntity
  8
1
  6
Continuous
100
AcDbLine
 10
259.3128529134801
 20
60.79063434891714
 30
0.0
 11
266.6128529134799
 21
60.79063434891714
 31
0.0
  0
LINE
  5
23B7
330
18
100
AcDbEntity
  8
1
  6
Continuous
100
AcDbLine
 10
258.1128529134799
 20
62.39062734891717
 30
0.0
 11
266.6128529134799
 21
62.39062734891717
 31
0.0
  0
ARC
  5
23B8
330
18
100
AcDbEntity
  8
1
  6
Continuous
100
AcDbCircle
 10
262.3628529134799
 20
73.32062734891701
 30
0.0
 40
10.93000299999999
100
AcDbArc
 50
252.6026900000014
 51
287.397308999998
  0
ARC
  5
23B9
330
18
100
AcDbEntity
  8
1
  6
Continuous
100
AcDbCircle
 10
235.08314991348
 20
61.54062134891683
 30
0.0
 40
13.2
100
AcDbArc
 50
269.9999970000023
 51
329.2786590000001
  0
LINE
  5
23BA
330
18
100
AcDbEntity
  8
4
  6
CENTER
100
AcDbLine
 10
229.11285291348
 20
61.59062434891712
 30
0.0
 11
241.1128529134801
 21
61.59062434891712
 31
0.0
  0
LINE
  5
23BB
330
18
100
AcDbEntity
  8
1
  6
Continuous
100
AcDbLine
 10
258.1128529134799
 20
62.89062734891718
 30
0.0
 11
259.0948259134801
 21
62.89062734891718
 31
0.0
  0
ARC
  5
23BC
330
18
100
AcDbEntity
  8
1
  6
Continuous
100
AcDbCircle
 10
259.3128529134801
 20
61.99063334891707
 30
0.0
 40
1.199999999999999
100
AcDbArc
 50
179.9999899999989
 51
269.9999910000004
  0
LINE
  5
23BD
330
18
100
AcDbEntity
  8
1
  6
Continuous
100
AcDbLine
 10
231.6128529134799
 20
50.10534434891702
 30
0.0
 11
231.6128529134799
 21
48.34062434891713
 31
0.0
  0
LINE
  5
23BE
330
18
100
AcDbEntity
  8
1
  6
Continuous
100
AcDbLine
 10
231.6128529134799
 20
48.34062434891713
 30
0.0
 11
235.08314991348
 21
48.34062434891713
 31
0.0
  0
ARC
  5
23BF
330
18
100
AcDbEntity
  8
1
  6
Continuous
100
AcDbCircle
 10
229.6128529134799
 20
50.10534434891702
 30
0.0
 40
2.0
100
AcDbArc
 50
0.0
 51
70.52881000000049
  0
LINE
  5
23C0
330
18
100
AcDbEntity
  8
1
  6
Continuous
100
AcDbLine
 10
275.1128529134799
 20
62.89062734891718
 30
0.0
 11
274.1308789134799
 21
62.89062734891718
 31
0.0
  0
ARC
  5
23C1
330
18
100
AcDbEntity
  8
1
  6
Continuous
100
AcDbCircle
 10
273.91285191348
 20
61.99063334891707
 30
0.0
 40
1.199999999999999
100
AcDbArc
 50
269.9999970000023
 51
359.9999974955214
  0
LINE
  5
23C2
330
18
100
AcDbEntity
  8
1
  6
Continuous
100
AcDbLine
 10
271.6128529134799
 20
59.04062434891693
 30
0.0
 11
271.6128529134799
 21
60.79063434891714
 31
0.0
  0
LINE
  5
23C3
330
18
100
AcDbEntity
  8
1
  6
Continuous
100
AcDbLine
 10
270.86285491348
 20
58.2906043489172
 30
0.0
 11
271.61286091348
 21
59.04061434891719
 31
0.0
  0
LINE
  5
23C4
330
18
100
AcDbEntity
  8
1
  6
Continuous
100
AcDbLine
 10
267.5948249134801
 20
62.89062734891718
 30
0.0
 11
266.6128529134799
 21
62.89062734891718
 31
0.0
  0
LINE
  5
23C5
330
18
100
AcDbEntity
  8
1
  6
Continuous
100
AcDbLine
 10
265.6308809134799
 20
62.89062734891718
 30
0.0
 11
266.6128529134799
 21
62.89062734891718
 31
0.0
  0
LINE
  5
23C6
330
18
100
AcDbEntity
  8
1
  6
Continuous
100
AcDbLine
 10
261.6128529134801
 20
59.04062434891693
 30
0.0
 11
261.6128529134801
 21
60.79063434891714
 31
0.0
  0
LINE
  5
23C7
330
18
100
AcDbEntity
  8
1
  6
Continuous
100
AcDbLine
 10
261.6128229134801
 20
59.04059434891699
 30
0.0
 11
262.36282391348
 21
58.290594348917
 31
0.0
  0
LINE
  5
23C8
330
18
100
AcDbEntity
  8
1
  6
Continuous
100
AcDbLine
 10
270.8628529134799
 20
58.29062434891692
 30
0.0
 11
262.3628539134802
 21
58.29062434891692
 31
0.0
  0
LINE
  5
23C9
330
18
100
AcDbEntity
  8
1
  6
Continuous
100
AcDbLine
 10
271.6128529134799
 20
59.04062434891693
 30
0.0
 11
261.6128539134801
 21
59.04062434891693
 31
0.0
  0
LINE
  5
23CA
330
18
100
AcDbEntity
  8
1
  6
Continuous
100
AcDbLine
 10
273.91285191348
 20
60.79063434891714
 30
0.0
 11
266.6128529134799
 21
60.79063434891714
 31
0.0
  0
LINE
  5
23CB
330
18
100
AcDbEntity
  8
1
  6
Continuous
100
AcDbLine
 10
275.1128529134799
 20
62.39062734891717
 30
0.0
 11
266.6128529134799
 21
62.39062734891717
 31
0.0
  0
ARC
  5
23CC
330
18
100
AcDbEntity
  8
1
  6
Continuous
100
AcDbCircle
 10
270.8628529134799
 20
73.32062734891701
 30
0.0
 40
10.93000299999999
100
AcDbArc
 50
252.6026900000014
 51
287.397308999998
  0
LINE
  5
23CD
330
18
100
AcDbEntity
  8
2
  6
Continuous
100
AcDbLine
 10
270.8628529134799
 20
58.29062434891692
 30
0.0
 11
270.8628529134799
 21
60.79063434891714
 31
0.0
  0
LINE
  5
23CE
330
18
100
AcDbEntity
  8
2
  6
Continuous
100
AcDbLine
 10
262.3628529134799
 20
58.29062434891692
 30
0.0
 11
262.3628529134799
 21
60.79063434891714
 31
0.0
  0
CIRCLE
  5
23CF
330
18
100
AcDbEntity
  8
1
  6
Continuous
100
AcDbCircle
 10
298.1128529134799
 20
61.59062434891712
 30
0.0
 40
4.400000099999997
  0
LINE
  5
23D0
330
18
100
AcDbEntity
  8
4
  6
CENTER
100
AcDbLine
 10
298.1128529134799
 20
55.59062434891711
 30
0.0
 11
298.1128529134799
 21
67.59062434891712
 31
0.0
  0
ARC
  5
23D1
330
18
100
AcDbEntity
  8
1
  6
Continuous
100
AcDbCircle
 10
300.6128529134798
 20
58.59062434891711
 30
0.0
 40
7.0
100
AcDbArc
 50
289.4712340000011
 51
0.0
  0
LINE
  5
23D2
330
18
100
AcDbEntity
  8
1
  6
Continuous
100
AcDbLine
 10
301.6128529134801
 20
50.10534434891702
 30
0.0
 11
301.6128529134801
 21
48.34062434891713
 31
0.0
  0
LINE
  5
23D3
330
18
100
AcDbEntity
  8
1
  6
Continuous
100
AcDbLine
 10
298.1425659134801
 20
48.34062434891713
 30
0.0
 11
301.6128529134801
 21
48.34062434891713
 31
0.0
  0
ARC
  5
23D4
330
18
100
AcDbEntity
  8
1
  6
Continuous
100
AcDbCircle
 10
303.6128529134801
 20
50.10534434891702
 30
0.0
 40
2.0
100
AcDbArc
 50
109.4712300000016
 51
180.0000400000006
  0
LINE
  5
2475
330
18
100
AcDbEntity
  8
1
  6
Continuous
100
AcDbLine
 10
231.0056783547726
 20
134.6406243489171
 30
0.0
 11
235.0831449134799
 21
134.6406243489171
 31
0.0
  0
ARC
  5
2476
330
18
100
AcDbEntity
  8
1
  6
Continuous
100
AcDbCircle
 10
235.0831449134799
 20
124.6406233489171
 30
0.0
 40
10.0
100
AcDbArc
 50
30.72134000000025
 51
90.00000000000005
  0
LINE
  5
2477
330
18
100
AcDbEntity
  8
1
  6
Continuous
100
AcDbLine
 10
243.6797663501976
 20
129.7492564371985
 30
0.0
 11
249.2741351501979
 21
120.3352534371985
 31
0.0
  0
ARC
  5
2478
330
18
100
AcDbEntity
  8
1
  6
Continuous
100
AcDbCircle
 10
257.6128529134801
 20
125.2906213489167
 30
0.0
 40
9.699999999999999
100
AcDbArc
 50
210.7213499999974
 51
270.0000179999992
  0
LINE
  5
2479
330
18
100
AcDbEntity
  8
1
  6
Continuous
100
AcDbLine
 10
257.6128529134801
 20
115.5906213489167
 30
0.0
 11
275.6128529134799
 21
115.5906213489167
 31
0.0
  0
ARC
  5
247A
330
18
100
AcDbEntity
  8
1
  6
Continuous
100
AcDbCircle
 10
275.6128529134799
 20
125.2906213489167
 30
0.0
 40
9.699999999999999
100
AcDbArc
 50
270.0000179999992
 51
329.2786770000001
  0
LINE
  5
247B
330
18
100
AcDbEntity
  8
1
  6
Continuous
100
AcDbLine
 10
283.9515744711507
 20
120.3352492594782
 30
0.0
 11
289.5459464711505
 21
129.7492562594783
 31
0.0
  0
ARC
  5
247C
330
18
100
AcDbEntity
  8
1
  6
Continuous
100
AcDbCircle
 10
298.1425659134801
 20
124.6406233489171
 30
0.0
 40
10.0
100
AcDbArc
 50
90.00000000000005
 51
149.2786599999998
  0
LINE
  5
247D
330
18
100
AcDbEntity
  8
1
  6
Continuous
100
AcDbLine
 10
298.1425659134801
 20
134.6406243489171
 30
0.0
 11
302.2200274721875
 21
134.6406243489171
 31
0.0
  0
LINE
  5
247E
330
18
100
AcDbEntity
  8
1
  6
Continuous
100
AcDbLine
 10
257.6128529134801
 20
70.59062734891719
 30
0.0
 11
275.6128529134799
 21
70.59062734891719
 31
0.0
  0
ARC
  5
247F
330
18
100
AcDbEntity
  8
1
  6
Continuous
100
AcDbCircle
 10
257.6128529134801
 20
60.89062434891707
 30
0.0
 40
9.699999999999999
100
AcDbArc
 50
90.00003999999753
 51
149.2786500000025
  0
LINE
  5
2480
330
18
100
AcDbEntity
  8
1
  6
Continuous
100
AcDbLine
 10
249.2741314409847
 20
65.84598357202633
 30
0.0
 11
243.6797688009848
 21
56.43198557202635
 31
0.0
  0
ARC
  5
2481
330
18
100
AcDbEntity
  8
1
  6
Continuous
100
AcDbCircle
 10
235.08314991348
 20
61.54062134891683
 30
0.0
 40
10.0
100
AcDbArc
 50
269.9999970000023
 51
329.2786590000001
  0
LINE
  5
2482
330
18
100
AcDbEntity
  8
1
  6
Continuous
100
AcDbLine
 10
231.0056814462146
 20
51.54062434891712
 30
0.0
 11
235.08314991348
 21
51.54062434891712
 31
0.0
  0
ARC
  5
2483
330
18
100
AcDbEntity
  8
1
  6
Continuous
100
AcDbCircle
 10
275.6128529134799
 20
60.89062434891707
 30
0.0
 40
9.699999999999999
100
AcDbArc
 50
30.72137000000144
 51
90.00003999999753
  0
LINE
  5
2484
330
18
100
AcDbEntity
  8
1
  6
Continuous
100
AcDbLine
 10
289.5459474420547
 20
56.43198480455168
 30
0.0
 11
283.9515794420547
 21
65.84599780455197
 31
0.0
  0
ARC
  5
2485
330
18
100
AcDbEntity
  8
1
  6
Continuous
100
AcDbCircle
 10
298.1425659134801
 20
61.54062134891683
 30
0.0
 40
10.0
100
AcDbArc
 50
210.72134
 51
269.9999970000023
  0
LINE
  5
2486
330
18
100
AcDbEntity
  8
1
  6
Continuous
100
AcDbLine
 10
298.1425659134801
 20
51.54062434891712
 30
0.0
 11
302.2200243807454
 21
51.54062434891712
 31
0.0
  0
LINE
  5
248F
330
18
100
AcDbEntity
  8
1
  6
Continuous
100
AcDbLine
 10
234.8908069134798
 20
113.0906243489171
 30
0.0
 11
298.3349029134799
 21
113.0906243489171
 31
0.0
  0
LINE
  5
2490
330
18
100
AcDbEntity
  8
1
  6
Continuous
100
AcDbLine
 10
234.8908069134798
 20
73.09062434891711
 30
0.0
 11
298.3349029134799
 21
73.09062434891711
 31
0.0
  0
ARC
  5
2492
330
18
100
AcDbEntity
  8
1
  6
Continuous
100
AcDbCircle
 10
154.11285291348
 20
93.09062434891712
 30
0.0
 40
150.0
100
AcDbArc
 50
354.0622070000026
 51
5.937774999997983
  0
ARC
  5
2493
330
18
100
AcDbEntity
  8
1
  6
Continuous
100
AcDbCircle
 10
298.3348989134798
 20
78.09062434891711
 30
0.0
 40
5.0
100
AcDbArc
 50
270.0000400000007
 51
354.0621859999983
  0
ARC
  5
2494
330
18
100
AcDbEntity
  8
1
  6
Continuous
100
AcDbCircle
 10
298.3348989134798
 20
108.090624348917
 30
0.0
 40
5.0
100
AcDbArc
 50
5.937795000002352
 51
90.0
  0
ARC
  5
2495
330
18
100
AcDbEntity
  8
1
  6
Continuous
100
AcDbCircle
 10
379.1128529134799
 20
93.09062434891712
 30
0.0
 40
150.0
100
AcDbArc
 50
174.0622250000019
 51
185.9377929999974
  0
LINE
  5
2496
330
18
100
AcDbEntity
  8
1
  6
Continuous
100
AcDbLine
 10
248.6128529134799
 20
71.39062434891704
 30
0.0
 11
284.6128529134801
 21
71.39062434891704
 31
0.0
  0
LINE
  5
2498
330
18
100
AcDbEntity
  8
1
  6
Continuous
100
AcDbLine
 10
284.6128529134801
 20
71.39062434891704
 30
0.0
 11
284.6128529134801
 21
73.09062434891711
 31
0.0
  0
LINE
  5
24A4
330
18
100
AcDbEntity
  8
1
  6
Continuous
100
AcDbLine
 10
271.6128529134799
 20
70.59062434891711
 30
0.0
 11
271.6128529134799
 21
71.39062434891704
 31
0.0
  0
LINE
  5
24AC
330
18
100
AcDbEntity
  8
1
  6
Continuous
100
AcDbLine
 10
261.6128529134801
 20
70.59062434891711
 30
0.0
 11
261.6128529134801
 21
71.39062434891704
 31
0.0
  0
ARC
  5
24AD
330
18
100
AcDbEntity
  8
1
  6
Continuous
100
AcDbCircle
 10
234.8908069134798
 20
78.09062434891711
 30
0.0
 40
5.0
100
AcDbArc
 50
185.9378140000016
 51
269.9999599999991
  0
LINE
  5
24AE
330
18
100
AcDbEntity
  8
1
  6
Continuous
100
AcDbLine
 10
248.6128529134799
 20
71.39062434891704
 30
0.0
 11
248.6128529134799
 21
73.09062434891711
 31
0.0
  0
LINE
  5
24AF
330
18
100
AcDbEntity
  8
1
  6
Continuous
100
AcDbLine
 10
248.6128529134799
 20
114.7906213489171
 30
0.0
 11
284.6128529134801
 21
114.7906213489171
 31
0.0
  0
LINE
  5
24B2
330
18
100
AcDbEntity
  8
1
  6
Continuous
100
AcDbLine
 10
284.6128529134801
 20
113.0906243489171
 30
0.0
 11
284.6128529134801
 21
114.7906213489171
 31
0.0
  0
LINE
  5
24B9
330
18
100
AcDbEntity
  8
1
  6
Continuous
100
AcDbLine
 10
271.6128529134799
 20
114.7906213489171
 30
0.0
 11
271.6128529134799
 21
115.5906243489171
 31
0.0
  0
LINE
  5
24BB
330
18
100
AcDbEntity
  8
1
  6
Continuous
100
AcDbLine
 10
261.6128529134801
 20
114.7906213489171
 30
0.0
 11
261.6128529134801
 21
115.5906243489171
 31
0.0
  0
ARC
  5
24BD
330
18
100
AcDbEntity
  8
1
  6
Continuous
100
AcDbCircle
 10
234.8908069134798
 20
108.090624348917
 30
0.0
 40
5.0
100
AcDbArc
 50
90.0
 51
174.0622049999974
  0
LINE
  5
24BE
330
18
100
AcDbEntity
  8
1
  6
Continuous
100
AcDbLine
 10
248.6128529134799
 20
113.0906243489171
 30
0.0
 11
248.6128529134799
 21
114.7906213489171
 31
0.0
  0
ENDSEC
  0
SECTION
  2
OBJECTS
  0
DICTIONARY
  5
C
330
0
100
AcDbDictionary
281
     1
  3
ACAD_CIP_PREVIOUS_PRODUCT_INFO
350
28B1
  3
ACAD_COLOR
350
2894
  3
ACAD_DETAILVIEWSTYLE
350
28AD
  3
ACAD_GROUP
350
D
  3
ACAD_LAYOUT
350
94
  3
ACAD_MATERIAL
350
2862
  3
ACAD_MLEADERSTYLE
350
28A9
  3
ACAD_MLINESTYLE
350
1B
  3
ACAD_PLOTSETTINGS
350
95
  3
ACAD_PLOTSTYLENAME
350
2860
  3
ACAD_SCALELIST
350
2897
  3
ACAD_SECTIONVIEWSTYLE
350
28AB
  3
ACAD_TABLESTYLE
350
2895
  3
ACAD_VISUALSTYLE
350
287B
  3
ACDB_RECOMPOSE_DATA
350
28CF
  3
AcDbVariableDictionary
350
28C2
  3
CONTENTDICTIONARY
350
3D
  3
DWGPROPS
350
28D0
  0
DICTIONARY
  5
28B2
330
E
100
AcDbDictionary
280
     1
281
     1
  3
ADSK_XREC_LAYER_RECONCILED
360
28B3
  0
DICTIONARY
  5
28B4
330
4E
100
AcDbDictionary
280
     1
281
     1
  3
ADSK_XREC_LAYER_RECONCILED
360
28B5
  0
DICTIONARY
  5
28B6
330
4F
100
AcDbDictionary
280
     1
281
     1
  3
ADSK_XREC_LAYER_RECONCILED
360
28B7
  0
DICTIONARY
  5
28B8
330
50
100
AcDbDictionary
280
     1
281
     1
  3
ADSK_XREC_LAYER_RECONCILED
360
28B9
  0
DICTIONARY
  5
28BA
330
51
100
AcDbDictionary
280
     1
281
     1
  3
ADSK_XREC_LAYER_RECONCILED
360
28BB
  0
DICTIONARY
  5
28BC
330
52
100
AcDbDictionary
280
     1
281
     1
  3
ADSK_XREC_LAYER_RECONCILED
360
28BD
  0
DICTIONARY
  5
28BE
330
53
100
AcDbDictionary
280
     1
281
     1
  3
ADSK_XREC_LAYER_RECONCILED
360
28BF
  0
DICTIONARY
  5
28C0
330
54
100
AcDbDictionary
280
     1
281
     1
  3
ADSK_XREC_LAYER_RECONCILED
360
28C1
  0
DICTIONARY
  5
2847
330
18
100
AcDbDictionary
281
     1
  3
ACAD_LAYOUTSELFREF
350
285C
  0
DICTIONARY
  5
2845
330
15
100
AcDbDictionary
281
     1
  3
ACAD_LAYOUTSELFREF
350
285B
  0
XRECORD
  5
28B1
102
{ACAD_REACTORS
330
C
102
}
330
C
100
AcDbXrecord
280
     1
300
ACDLT
300
2014
300
ACDLT_F_S
  0
DICTIONARY
  5
2894
102
{ACAD_REACTORS
330
C
102
}
330
C
100
AcDbDictionary
281
     1
  0
DICTIONARY
  5
28AD
102
{ACAD_REACTORS
330
C
102
}
330
C
100
AcDbDictionary
281
     1
  3
Imperial24
350
28AE
  0
DICTIONARY
  5
D
102
{ACAD_REACTORS
330
C
102
}
330
C
100
AcDbDictionary
281
     1
  0
DICTIONARY
  5
94
102
{ACAD_REACTORS
330
C
102
}
330
C
100
AcDbDictionary
281
     1
  3
Model
350
28AF
  3
レイアウト1
350
28B0
  0
DICTIONARY
  5
2862
102
{ACAD_REACTORS
330
C
102
}
330
C
100
AcDbDictionary
281
     1
  3
ByBlock
350
286B
  3
ByLayer
350
2863
  3
Global
350
2873
  0
DICTIONARY
  5
28A9
102
{ACAD_REACTORS
330
C
102
}
330
C
100
AcDbDictionary
281
     1
  3
Standard
350
28AA
  0
DICTIONARY
  5
1B
102
{ACAD_REACTORS
330
C
102
}
330
C
100
AcDbDictionary
281
     1
  3
STANDARD
350
1C
  0
DICTIONARY
  5
95
102
{ACAD_REACTORS
330
C
102
}
330
C
100
AcDbDictionary
281
     1
  0
ACDBDICTIONARYWDFLT
  5
2860
102
{ACAD_REACTORS
330
C
102
}
330
C
100
AcDbDictionary
281
     1
  3
Normal
350
2861
100
AcDbDictionaryWithDefault
340
2861
  0
DICTIONARY
  5
2897
102
{ACAD_REACTORS
330
C
102
}
330
C
100
AcDbDictionary
281
     1
  3
A0
350
2898
  3
A1
350
2899
  3
A2
350
289A
  3
A3
350
289B
  3
A4
350
289C
  3
A5
350
289D
  3
A6
350
289E
  3
A7
350
289F
  3
A8
350
28A0
  3
A9
350
28A1
  3
B0
350
28A2
  3
B1
350
28A3
  3
B2
350
28A4
  3
B3
350
28A5
  3
B4
350
28A6
  3
B5
350
28A7
  3
B6
350
28A8
  0
DICTIONARY
  5
28AB
102
{ACAD_REACTORS
330
C
102
}
330
C
100
AcDbDictionary
281
     1
  3
Imperial24
350
28AC
  0
DICTIONARY
  5
2895
102
{ACAD_REACTORS
330
C
102
}
330
C
100
AcDbDictionary
281
     1
  3
Standard
350
2896
  0
DICTIONARY
  5
287B
102
{ACAD_REACTORS
330
C
102
}
330
C
100
AcDbDictionary
281
     1
  3
2dWireframe
350
2881
  3
Basic
350
2880
  3
Brighten
350
2887
  3
ColorChange
350
288B
  3
Conceptual
350
2884
  3
Dim
350
2886
  3
EdgeColorOff
350
2893
  3
Facepattern
350
288A
  3
Flat
350
287C
  3
FlatWithEdges
350
287D
  3
Gouraud
350
287E
  3
GouraudWithEdges
350
287F
  3
Hidden
350
2883
  3
JitterOff
350
2891
  3
Linepattern
350
2889
  3
OverhangOff
350
2892
  3
Realistic
350
2885
  3
Shaded
350
2890
  3
Shaded with edges
350
288F
  3
Shades of Gray
350
288C
  3
Sketchy
350
288D
  3
Thicken
350
2888
  3
Wireframe
350
2882
  3
X-Ray
350
288E
  0
XRECORD
  5
28CF
102
{ACAD_REACTORS
330
C
102
}
330
C
100
AcDbXrecord
280
     1
 90
        1
330
2896
  0
DICTIONARY
  5
28C2
102
{ACAD_REACTORS
330
C
102
}
330
C
100
AcDbDictionary
281
     1
  3
CANNOSCALE
350
28C7
  3
CMLEADERSTYLE
350
28C4
  3
CTABLESTYLE
350
28C3
  3
CVIEWDETAILSTYLE
350
28C5
  3
CVIEWSECTIONSTYLE
350
28C6
  3
DIMASSOC
350
28CA
  3
INDEXCTL
350
28C9
  3
SORTENTS
350
28C8
  3
XCLIPFRAME
350
28CB
  0
DICTIONARY
  5
3D
102
{ACAD_REACTORS
330
C
102
}
330
C
100
AcDbDictionary
281
     1
  0
XRECORD
  5
28D0
102
{ACAD_REACTORS
330
C
102
}
330
C
100
AcDbXrecord
280
     1
  1
DWGPROPS COOKIE
  2

  3

  4

  6

  7

  8
Yoshitsune
  9

300
=
301
=
302
=
303
=
304
=
305
=
306
=
307
=
308
=
309
=
 40
0.1898119097222222
 41
2452929.381745324
 42
2457192.690925614
  1

 90
        0
  0
XRECORD
  5
28B3
102
{ACAD_REACTORS
330
28B2
102
}
330
28B2
100
AcDbXrecord
280
     1
290
     1
  0
XRECORD
  5
28B5
102
{ACAD_REACTORS
330
28B4
102
}
330
28B4
100
AcDbXrecord
280
     1
290
     1
  0
XRECORD
  5
28B7
102
{ACAD_REACTORS
330
28B6
102
}
330
28B6
100
AcDbXrecord
280
     1
290
     1
  0
XRECORD
  5
28B9
102
{ACAD_REACTORS
330
28B8
102
}
330
28B8
100
AcDbXrecord
280
     1
290
     1
  0
XRECORD
  5
28BB
102
{ACAD_REACTORS
330
28BA
102
}
330
28BA
100
AcDbXrecord
280
     1
290
     1
  0
XRECORD
  5
28BD
102
{ACAD_REACTORS
330
28BC
102
}
330
28BC
100
AcDbXrecord
280
     1
290
     1
  0
XRECORD
  5
28BF
102
{ACAD_REACTORS
330
28BE
102
}
330
28BE
100
AcDbXrecord
280
     1
290
     1
  0
XRECORD
  5
28C1
102
{ACAD_REACTORS
330
28C0
102
}
330
28C0
100
AcDbXrecord
280
     1
290
     1
  0
XRECORD
  5
285C
102
{ACAD_REACTORS
330
2847
102
}
330
2847
100
AcDbXrecord
280
     1
340
18
  0
XRECORD
  5
285B
102
{ACAD_REACTORS
330
2845
102
}
330
2845
100
AcDbXrecord
280
     1
340
15
  0
ACDBDETAILVIEWSTYLE
  5
28AE
102
{ACAD_XDICTIONARY
360
2908
102
}
102
{ACAD_REACTORS
330
28AD
102
}
330
28AD
100
AcDbModelDocViewStyle
 70
     0
  3
Imperial24
290
     0
100
AcDbDetailViewStyle
 70
     0
 71
     0
 90
        3
 71
     1
340
F
 40
0.24
340
0
 40
0.24
300

 40
0.36
280
     3
 71
     2
340
14
 90
       25
 71
     3
340
F
 40
0.24
 90
        1
 40
0.75
 90
        1
300
%<\AcVar ViewType \f "%tc1">% %<\AcVar ViewDetailId>%\PSCALE %<\AcVar ViewScale \f "%sn">%
 71
     4
340
14
 90
       25
340
14
 90
       25
280
     0
  0
LAYOUT
  5
28AF
102
{ACAD_XDICTIONARY
360
290A
102
}
102
{ACAD_REACTORS
330
94
102
}
330
94
100
AcDbPlotSettings
  1

  2
Canon LBP9100C
  4

  6

 40
0.0
 41
0.0
 42
0.0
 43
0.0
 44
0.0
 45
0.0
 46
0.0
 47
0.0
 48
0.0
 49
0.0
140
0.0
141
0.0
142
1.0
143
1.0
 70
  1712
 72
     0
 73
     0
 74
     0
  7

 75
     0
147
1.0
148
0.0
149
0.0
100
AcDbLayout
  1
Model
 70
     1
 71
     0
 10
0.0
 20
0.0
 11
12.0
 21
9.0
 12
0.0
 22
0.0
 32
0.0
 14
0.0
 24
0.0
 34
0.0
 15
0.0
 25
0.0
 35
0.0
146
0.0
 13
0.0
 23
0.0
 33
0.0
 16
1.0
 26
0.0
 36
0.0
 17
0.0
 27
1.0
 37
0.0
 76
     0
330
18
331
285A
  0
LAYOUT
  5
28B0
102
{ACAD_XDICTIONARY
360
290C
102
}
102
{ACAD_REACTORS
330
94
102
}
330
94
100
AcDbPlotSettings
  1

  2
Canon LBP9100C
  4

  6

 40
0.0
 41
0.0
 42
0.0
 43
0.0
 44
0.0
 45
0.0
 46
0.0
 47
0.0
 48
0.0
 49
0.0
140
0.0
141
0.0
142
1.0
143
1.0
 70
   688
 72
     0
 73
     0
 74
     5
  7

 75
    16
147
1.0
148
0.0
149
0.0
100
AcDbLayout
  1
レイアウト1
 70
     1
 71
     1
 10
0.0
 20
0.0
 11
420.0
 21
297.0
 12
0.0
 22
0.0
 32
0.0
 14
1.000000000000000E+20
 24
1.000000000000000E+20
 34
1.000000000000000E+20
 15
-1.000000000000000E+20
 25
-1.000000000000000E+20
 35
-1.000000000000000E+20
146
0.0
 13
0.0
 23
0.0
 33
0.0
 16
1.0
 26
0.0
 36
0.0
 17
0.0
 27
1.0
 37
0.0
 76
     0
330
15
  0
MATERIAL
  5
286B
102
{ACAD_XDICTIONARY
360
286C
102
}
102
{ACAD_REACTORS
330
2862
102
}
330
2862
100
AcDbMaterial
  1
ByBlock
 72
     0
 43
0.0208333333333333
 43
0.0
 43
0.0
 43
0.0
 43
0.0
 43
0.0208333333333333
 43
0.0
 43
0.0
 43
0.0
 43
0.0
 43
1.0
 43
0.0
 43
0.0
 43
0.0
 43
0.0
 43
1.0
 77
     0
 47
0.0208333333333333
 47
0.0
 47
0.0
 47
0.0
 47
0.0
 47
0.0208333333333333
 47
0.0
 47
0.0
 47
0.0
 47
0.0
 47
1.0
 47
0.0
 47
0.0
 47
0.0
 47
0.0
 47
1.0
171
     0
 49
0.0208333333333333
 49
0.0
 49
0.0
 49
0.0
 49
0.0
 49
0.0208333333333333
 49
0.0
 49
0.0
 49
0.0
 49
0.0
 49
1.0
 49
0.0
 49
0.0
 49
0.0
 49
0.0
 49
1.0
175
     0
142
0.0208333333333333
142
0.0
142
0.0
142
0.0
142
0.0
142
0.0208333333333333
142
0.0
142
0.0
142
0.0
142
0.0
142
1.0
142
0.0
142
0.0
142
0.0
142
0.0
142
1.0
179
     0
144
0.0208333333333333
144
0.0
144
0.0
144
0.0
144
0.0
144
0.0208333333333333
144
0.0
144
0.0
144
0.0
144
0.0
144
1.0
144
0.0
144
0.0
144
0.0
144
0.0
144
1.0
147
0.0208333333333333
147
0.0
147
0.0
147
0.0
147
0.0
147
0.0208333333333333
147
0.0
147
0.0
147
0.0
147
0.0
147
1.0
147
0.0
147
0.0
147
0.0
147
0.0
147
1.0
  0
MATERIAL
  5
2863
102
{ACAD_XDICTIONARY
360
2864
102
}
102
{ACAD_REACTORS
330
2862
102
}
330
2862
100
AcDbMaterial
  1
ByLayer
 72
     0
 43
0.0208333333333333
 43
0.0
 43
0.0
 43
0.0
 43
0.0
 43
0.0208333333333333
 43
0.0
 43
0.0
 43
0.0
 43
0.0
 43
1.0
 43
0.0
 43
0.0
 43
0.0
 43
0.0
 43
1.0
 77
     0
 47
0.0208333333333333
 47
0.0
 47
0.0
 47
0.0
 47
0.0
 47
0.0208333333333333
 47
0.0
 47
0.0
 47
0.0
 47
0.0
 47
1.0
 47
0.0
 47
0.0
 47
0.0
 47
0.0
 47
1.0
171
     0
 49
0.0208333333333333
 49
0.0
 49
0.0
 49
0.0
 49
0.0
 49
0.0208333333333333
 49
0.0
 49
0.0
 49
0.0
 49
0.0
 49
1.0
 49
0.0
 49
0.0
 49
0.0
 49
0.0
 49
1.0
175
     0
142
0.0208333333333333
142
0.0
142
0.0
142
0.0
142
0.0
142
0.0208333333333333
142
0.0
142
0.0
142
0.0
142
0.0
142
1.0
142
0.0
142
0.0
142
0.0
142
0.0
142
1.0
179
     0
144
0.0208333333333333
144
0.0
144
0.0
144
0.0
144
0.0
144
0.0208333333333333
144
0.0
144
0.0
144
0.0
144
0.0
144
1.0
144
0.0
144
0.0
144
0.0
144
0.0
144
1.0
147
0.0208333333333333
147
0.0
147
0.0
147
0.0
147
0.0
147
0.0208333333333333
147
0.0
147
0.0
147
0.0
147
0.0
147
1.0
147
0.0
147
0.0
147
0.0
147
0.0
147
1.0
  0
MATERIAL
  5
2873
102
{ACAD_XDICTIONARY
360
2874
102
}
102
{ACAD_REACTORS
330
2862
102
}
330
2862
100
AcDbMaterial
  1
Global
 72
     0
 43
0.0208333333333333
 43
0.0
 43
0.0
 43
0.0
 43
0.0
 43
0.0208333333333333
 43
0.0
 43
0.0
 43
0.0
 43
0.0
 43
1.0
 43
0.0
 43
0.0
 43
0.0
 43
0.0
 43
1.0
 77
     0
 47
0.0208333333333333
 47
0.0
 47
0.0
 47
0.0
 47
0.0
 47
0.0208333333333333
 47
0.0
 47
0.0
 47
0.0
 47
0.0
 47
1.0
 47
0.0
 47
0.0
 47
0.0
 47
0.0
 47
1.0
171
     0
 49
0.0208333333333333
 49
0.0
 49
0.0
 49
0.0
 49
0.0
 49
0.0208333333333333
 49
0.0
 49
0.0
 49
0.0
 49
0.0
 49
1.0
 49
0.0
 49
0.0
 49
0.0
 49
0.0
 49
1.0
175
     0
142
0.0208333333333333
142
0.0
142
0.0
142
0.0
142
0.0
142
0.0208333333333333
142
0.0
142
0.0
142
0.0
142
0.0
142
1.0
142
0.0
142
0.0
142
0.0
142
0.0
142
1.0
179
     0
144
0.0208333333333333
144
0.0
144
0.0
144
0.0
144
0.0
144
0.0208333333333333
144
0.0
144
0.0
144
0.0
144
0.0
144
1.0
144
0.0
144
0.0
144
0.0
144
0.0
144
1.0
147
0.0208333333333333
147
0.0
147
0.0
147
0.0
147
0.0
147
0.0208333333333333
147
0.0
147
0.0
147
0.0
147
0.0
147
1.0
147
0.0
147
0.0
147
0.0
147
0.0
147
1.0
  0
MLEADERSTYLE
  5
28AA
102
{ACAD_REACTORS
330
28A9
102
}
330
28A9
100
AcDbMLeaderStyle
170
     2
171
     1
172
     0
 90
        2
 40
0.0
 41
0.0
173
     1
 91
-1056964608
340
12
 92
       -2
290
     1
 42
0.09
291
     1
 43
0.36
  3
Standard
 44
0.18
300

342
F
174
     1
178
     6
175
     1
176
     0
 93
-1056964608
 45
0.18
292
     0
297
     0
 46
0.18
 94
-1056964608
 47
1.0
 49
1.0
140
1.0
293
     1
141
0.0
294
     1
177
     0
142
1.0
295
     0
296
     0
143
0.125
1001
ACAD_MLEADERVER
1070
     2
  0
MLINESTYLE
  5
1C
102
{ACAD_REACTORS
330
1B
102
}
330
1B
100
AcDbMlineStyle
  2
STANDARD
 70
     0
  3

 62
   256
 51
90.0
 52
90.0
 71
     2
 49
0.5
 62
   256
  6
BYLAYER
 49
-0.5
 62
   256
  6
BYLAYER
  0
ACDBPLACEHOLDER
  5
2861
102
{ACAD_REACTORS
330
2860
102
}
330
2860
  0
SCALE
  5
2898
102
{ACAD_REACTORS
330
2897
102
}
330
2897
100
AcDbScale
 70
     0
300
1:1
140
1.0
141
1.0
290
     1
  0
SCALE
  5
2899
102
{ACAD_REACTORS
330
2897
102
}
330
2897
100
AcDbScale
 70
     0
300
1/128" = 1'-0"
140
0.0078125
141
12.0
290
     0
  0
SCALE
  5
289A
102
{ACAD_REACTORS
330
2897
102
}
330
2897
100
AcDbScale
 70
     0
300
1/64" = 1'-0"
140
0.015625
141
12.0
290
     0
  0
SCALE
  5
289B
102
{ACAD_REACTORS
330
2897
102
}
330
2897
100
AcDbScale
 70
     0
300
1/32" = 1'-0"
140
0.03125
141
12.0
290
     0
  0
SCALE
  5
289C
102
{ACAD_REACTORS
330
2897
102
}
330
2897
100
AcDbScale
 70
     0
300
1/16" = 1'-0"
140
0.0625
141
12.0
290
     0
  0
SCALE
  5
289D
102
{ACAD_REACTORS
330
2897
102
}
330
2897
100
AcDbScale
 70
     0
300
3/32" = 1'-0"
140
0.09375
141
12.0
290
     0
  0
SCALE
  5
289E
102
{ACAD_REACTORS
330
2897
102
}
330
2897
100
AcDbScale
 70
     0
300
1/8" = 1'-0"
140
0.125
141
12.0
290
     0
  0
SCALE
  5
289F
102
{ACAD_REACTORS
330
2897
102
}
330
2897
100
AcDbScale
 70
     0
300
3/16" = 1'-0"
140
0.1875
141
12.0
290
     0
  0
SCALE
  5
28A0
102
{ACAD_REACTORS
330
2897
102
}
330
2897
100
AcDbScale
 70
     0
300
1/4" = 1'-0"
140
0.25
141
12.0
290
     0
  0
SCALE
  5
28A1
102
{ACAD_REACTORS
330
2897
102
}
330
2897
100
AcDbScale
 70
     0
300
3/8" = 1'-0"
140
0.375
141
12.0
290
     0
  0
SCALE
  5
28A2
102
{ACAD_REACTORS
330
2897
102
}
330
2897
100
AcDbScale
 70
     0
300
1/2" = 1'-0"
140
0.5
141
12.0
290
     0
  0
SCALE
  5
28A3
102
{ACAD_REACTORS
330
2897
102
}
330
2897
100
AcDbScale
 70
     0
300
3/4" = 1'-0"
140
0.75
141
12.0
290
     0
  0
SCALE
  5
28A4
102
{ACAD_REACTORS
330
2897
102
}
330
2897
100
AcDbScale
 70
     0
300
1" = 1'-0"
140
1.0
141
12.0
290
     0
  0
SCALE
  5
28A5
102
{ACAD_REACTORS
330
2897
102
}
330
2897
100
AcDbScale
 70
     0
300
1-1/2" = 1'-0"
140
1.5
141
12.0
290
     0
  0
SCALE
  5
28A6
102
{ACAD_REACTORS
330
2897
102
}
330
2897
100
AcDbScale
 70
     0
300
3" = 1'-0"
140
3.0
141
12.0
290
     0
  0
SCALE
  5
28A7
102
{ACAD_REACTORS
330
2897
102
}
330
2897
100
AcDbScale
 70
     0
300
6" = 1'-0"
140
6.0
141
12.0
290
     0
  0
SCALE
  5
28A8
102
{ACAD_REACTORS
330
2897
102
}
330
2897
100
AcDbScale
 70
     0
300
1'-0" = 1'-0"
140
12.0
141
12.0
290
     0
  0
ACDBSECTIONVIEWSTYLE
  5
28AC
102
{ACAD_XDICTIONARY
360
2906
102
}
102
{ACAD_REACTORS
330
28AB
102
}
330
28AB
100
AcDbModelDocViewStyle
 70
     0
  3
Imperial24
290
     0
100
AcDbSectionViewStyle
 70
     0
 71
     0
 90
       78
 71
     1
340
F
 40
0.24
340
0
340
0
 40
0.24
300
I, O, Q, S, X, Z
 40
0.48
 90
        3
 40
0.18
 90
        1
 71
     2
340
14
 90
       25
340
14
 90
       50
 40
0.24
 40
0.0
 40
0.24
 71
     3
340
F
 40
0.24
 90
        1
 40
0.75
 90
        1
300
%<\AcVar ViewType \f "%tc1">% %<\AcVar ViewSectionStartId>%-%<\AcVar ViewSectionEndId>%\PSCALE %<\AcVar ViewScale \f "%sn">%
 71
     4
300
ANSI31
 40
1.0
 90
        0
290
     0
290
     0
 90
        6
 40
0.0
 40
1.570796326794896
 40
0.2617993877991494
 40
1.308996938995747
 40
-0.2617993877991494
 40
1.832595714594046
  0
TABLESTYLE
  5
2896
102
{ACAD_XDICTIONARY
360
28CD
102
}
102
{ACAD_REACTORS
330
2895
102
}
330
2895
100
AcDbTableStyle
  3
Standard
 70
     0
 71
     0
 40
0.06
 41
0.06
280
     0
281
     0
  7
STANDARD
140
0.18
170
     2
 62
     0
 63
     7
283
     0
274
    -2
284
     1
 64
     0
275
    -2
285
     1
 65
     0
276
    -2
286
     1
 66
     0
277
    -2
287
     1
 67
     0
278
    -2
288
     1
 68
     0
279
    -2
289
     1
 69
     0
  7
STANDARD
140
0.25
170
     5
 62
     0
 63
     7
283
     0
274
    -2
284
     1
 64
     0
275
    -2
285
     1
 65
     0
276
    -2
286
     1
 66
     0
277
    -2
287
     1
 67
     0
278
    -2
288
     1
 68
     0
279
    -2
289
     1
 69
     0
  7
STANDARD
140
0.18
170
     5
 62
     0
 63
     7
283
     0
274
    -2
284
     1
 64
     0
275
    -2
285
     1
 65
     0
276
    -2
286
     1
 66
     0
277
    -2
287
     1
 67
     0
278
    -2
288
     1
 68
     0
279
    -2
289
     1
 69
     0
  0
VISUALSTYLE
  5
2881
102
{ACAD_XDICTIONARY
360
28DE
102
}
102
{ACAD_REACTORS
330
287B
102
}
330
287B
100
AcDbVisualStyle
  2
2dWireframe
 70
     4
 71
     0
 72
     2
 73
     0
 90
        0
 40
-0.6
 41
-30.0
 62
     5
 63
     7
 74
     1
 91
        4
 64
     7
 65
   257
 75
     1
175
     1
 42
1.0
 92
        0
 66
   257
 43
1.0
 76
     1
 77
     6
 78
     2
 67
     7
 79
     5
170
     0
171
     0
290
     0
174
     0
 93
        1
 44
0.0
173
     0
291
     0
 45
0.0
1001
ACAD
1000
AcDbSavedByObjectVersion
1070
     0
  0
VISUALSTYLE
  5
2880
102
{ACAD_XDICTIONARY
360
28DC
102
}
102
{ACAD_REACTORS
330
287B
102
}
330
287B
100
AcDbVisualStyle
  2
Basic
 70
     7
 71
     1
 72
     0
 73
     1
 90
        0
 40
-0.6
 41
-30.0
 62
     5
 63
     7
 74
     0
 91
        4
 64
     7
 65
   257
 75
     1
175
     1
 42
1.0
 92
        8
 66
     7
 43
1.0
 76
     1
 77
     6
 78
     2
 67
     7
 79
     5
170
     0
171
     0
290
     0
174
     0
 93
        1
 44
0.0
173
     0
291
     1
 45
0.0
1001
ACAD
1000
AcDbSavedByObjectVersion
1070
     0
  0
VISUALSTYLE
  5
2887
102
{ACAD_XDICTIONARY
360
28EA
102
}
102
{ACAD_REACTORS
330
287B
102
}
330
287B
100
AcDbVisualStyle
  2
Brighten
 70
    12
 71
     2
 72
     2
 73
     0
 90
        0
 40
-0.6
 41
-30.0
 62
     5
 63
     7
 74
     1
 91
        4
 64
     7
 65
   257
 75
     1
175
     1
 42
1.0
 92
        8
 66
     7
 43
1.0
 76
     1
 77
     6
 78
     2
 67
     7
 79
     5
170
     0
171
     0
290
     0
174
     0
 93
        1
 44
50.0
173
     0
291
     1
 45
0.0
1001
ACAD
1000
AcDbSavedByObjectVersion
1070
     0
  0
VISUALSTYLE
  5
288B
102
{ACAD_XDICTIONARY
360
28F2
102
}
102
{ACAD_REACTORS
330
287B
102
}
330
287B
100
AcDbVisualStyle
  2
ColorChange
 70
    16
 71
     2
 72
     2
 73
     3
 90
        0
 40
-0.6
 41
-30.0
 62
     5
 63
     8
 74
     1
 91
        4
 64
     7
 65
   257
 75
     1
175
     1
 42
1.0
 92
        8
 66
     8
 43
1.0
 76
     1
 77
     6
 78
     2
 67
     7
 79
     5
170
     0
171
     0
290
     0
174
     0
 93
        1
 44
0.0
173
     0
291
     1
 45
0.0
1001
ACAD
1000
AcDbSavedByObjectVersion
1070
     0
  0
VISUALSTYLE
  5
2884
102
{ACAD_XDICTIONARY
360
28E4
102
}
102
{ACAD_REACTORS
330
287B
102
}
330
287B
100
AcDbVisualStyle
  2
Conceptual
 70
     9
 71
     3
 72
     2
 73
     0
 90
        0
 40
-0.6
 41
-30.0
 62
     5
 63
     7
 74
     2
 91
        2
 64
     7
 65
   257
 75
     1
175
     1
 42
179.0
 92
        8
 66
     7
 43
1.0
 76
     1
 77
     6
 78
     2
 67
     7
 79
     3
170
     0
171
     0
290
     0
174
     0
 93
        1
 44
0.0
173
     0
291
     0
 45
0.0
1001
ACAD
1000
AcDbSavedByObjectVersion
1070
     0
  0
VISUALSTYLE
  5
2886
102
{ACAD_XDICTIONARY
360
28E8
102
}
102
{ACAD_REACTORS
330
287B
102
}
330
287B
100
AcDbVisualStyle
  2
Dim
 70
    11
 71
     2
 72
     2
 73
     0
 90
        0
 40
-0.6
 41
-30.0
 62
     5
 63
     7
 74
     1
 91
        4
 64
     7
 65
   257
 75
     1
175
     1
 42
1.0
 92
        8
 66
     7
 43
1.0
 76
     1
 77
     6
 78
     2
 67
     7
 79
     5
170
     0
171
     0
290
     0
174
     0
 93
        1
 44
-50.0
173
     0
291
     1
 45
0.0
1001
ACAD
1000
AcDbSavedByObjectVersion
1070
     0
  0
VISUALSTYLE
  5
2893
102
{ACAD_XDICTIONARY
360
2902
102
}
102
{ACAD_REACTORS
330
287B
102
}
330
287B
100
AcDbVisualStyle
  2
EdgeColorOff
 70
    22
 71
     2
 72
     2
 73
     0
 90
        0
 40
-0.6
 41
-30.0
 62
     5
 63
     7
 74
     1
 91
        4
 64
     7
 65
   257
 75
     1
175
     1
 42
1.0
 92
        8
 66
     7
 43
1.0
 76
     1
 77
     6
 78
     2
 67
     7
 79
     5
170
     0
171
     0
290
     0
174
     0
 93
        1
 44
0.0
173
     0
291
     1
 45
0.0
1001
ACAD
1000
AcDbSavedByObjectVersion
1070
     0
  0
VISUALSTYLE
  5
288A
102
{ACAD_XDICTIONARY
360
28F0
102
}
102
{ACAD_REACTORS
330
287B
102
}
330
287B
100
AcDbVisualStyle
  2
Facepattern
 70
    15
 71
     2
 72
     2
 73
     0
 90
        0
 40
-0.6
 41
-30.0
 62
     5
 63
     7
 74
     1
 91
        4
 64
     7
 65
   257
 75
     1
175
     1
 42
1.0
 92
        8
 66
     7
 43
1.0
 76
     1
 77
     6
 78
     2
 67
     7
 79
     5
170
     0
171
     0
290
     0
174
     0
 93
        1
 44
0.0
173
     0
291
     1
 45
0.0
1001
ACAD
1000
AcDbSavedByObjectVersion
1070
     0
  0
VISUALSTYLE
  5
287C
102
{ACAD_XDICTIONARY
360
28D4
102
}
102
{ACAD_REACTORS
330
287B
102
}
330
287B
100
AcDbVisualStyle
  2
Flat
 70
     0
 71
     2
 72
     1
 73
     1
 90
        2
 40
-0.6
 41
30.0
 62
     5
 63
     7
 74
     0
 91
        0
 64
     7
 65
   257
 75
     1
175
     1
 42
1.0
 92
        8
 66
     7
 43
1.0
 76
     1
 77
     6
 78
     2
 67
     7
 79
     5
170
     0
171
     0
290
     0
174
     0
 93
       13
 44
0.0
173
     0
291
     1
 45
0.0
1001
ACAD
1000
AcDbSavedByObjectVersion
1070
     0
  0
VISUALSTYLE
  5
287D
102
{ACAD_XDICTIONARY
360
28D6
102
}
102
{ACAD_REACTORS
330
287B
102
}
330
287B
100
AcDbVisualStyle
  2
FlatWithEdges
 70
     1
 71
     2
 72
     1
 73
     1
 90
        2
 40
-0.6
 41
30.0
 62
     5
 63
     7
 74
     1
 91
        0
 64
     7
 65
   257
 75
     1
175
     1
 42
1.0
 92
        0
 66
   257
 43
1.0
 76
     1
 77
     6
 78
     2
 67
     7
 79
     5
170
     0
171
     0
290
     0
174
     0
 93
       13
 44
0.0
173
     0
291
     1
 45
0.0
1001
ACAD
1000
AcDbSavedByObjectVersion
1070
     0
  0
VISUALSTYLE
  5
287E
102
{ACAD_XDICTIONARY
360
28D8
102
}
102
{ACAD_REACTORS
330
287B
102
}
330
287B
100
AcDbVisualStyle
  2
Gouraud
 70
     2
 71
     2
 72
     2
 73
     1
 90
        2
 40
-0.6
 41
30.0
 62
     5
 63
     7
 74
     0
 91
        0
 64
     7
 65
   257
 75
     1
175
     1
 42
1.0
 92
        0
 66
     7
 43
1.0
 76
     1
 77
     6
 78
     2
 67
     7
 79
     5
170
     0
171
     0
290
     0
174
     0
 93
       13
 44
0.0
173
     0
291
     1
 45
0.0
1001
ACAD
1000
AcDbSavedByObjectVersion
1070
     0
  0
VISUALSTYLE
  5
287F
102
{ACAD_XDICTIONARY
360
28DA
102
}
102
{ACAD_REACTORS
330
287B
102
}
330
287B
100
AcDbVisualStyle
  2
GouraudWithEdges
 70
     3
 71
     2
 72
     2
 73
     1
 90
        2
 40
-0.6
 41
30.0
 62
     5
 63
     7
 74
     1
 91
        0
 64
     7
 65
   257
 75
     1
175
     1
 42
1.0
 92
        0
 66
   257
 43
1.0
 76
     1
 77
     6
 78
     2
 67
     7
 79
     5
170
     0
171
     0
290
     0
174
     0
 93
       13
 44
0.0
173
     0
291
     1
 45
0.0
1001
ACAD
1000
AcDbSavedByObjectVersion
1070
     0
  0
VISUALSTYLE
  5
2883
102
{ACAD_XDICTIONARY
360
28E2
102
}
102
{ACAD_REACTORS
330
287B
102
}
330
287B
100
AcDbVisualStyle
  2
Hidden
 70
     6
 71
     1
 72
     2
 73
     2
 90
        0
 40
-0.6
 41
-30.0
 62
     5
 63
     7
 74
     2
 91
        2
 64
     7
 65
   257
 75
     2
175
     1
 42
40.0
 92
        0
 66
   257
 43
1.0
 76
     1
 77
     6
 78
     2
 67
     7
 79
     3
170
     0
171
     0
290
     0
174
     0
 93
        1
 44
0.0
173
     0
291
     0
 45
0.0
1001
ACAD
1000
AcDbSavedByObjectVersion
1070
     0
  0
VISUALSTYLE
  5
2891
102
{ACAD_XDICTIONARY
360
28FE
102
}
102
{ACAD_REACTORS
330
287B
102
}
330
287B
100
AcDbVisualStyle
  2
JitterOff
 70
    20
 71
     2
 72
     2
 73
     0
 90
        0
 40
-0.6
 41
-30.0
 62
     5
 63
     7
 74
     1
 91
        4
 64
     7
 65
   257
 75
     1
175
     1
 42
1.0
 92
       10
 66
     7
 43
1.0
 76
     1
 77
     6
 78
     2
 67
     7
 79
     5
170
     0
171
     0
290
     0
174
     0
 93
        1
 44
0.0
173
     0
291
     1
 45
0.0
1001
ACAD
1000
AcDbSavedByObjectVersion
1070
     0
  0
VISUALSTYLE
  5
2889
102
{ACAD_XDICTIONARY
360
28EE
102
}
102
{ACAD_REACTORS
330
287B
102
}
330
287B
100
AcDbVisualStyle
  2
Linepattern
 70
    14
 71
     2
 72
     2
 73
     0
 90
        0
 40
-0.6
 41
-30.0
 62
     5
 63
     7
 74
     1
 91
        4
 64
     7
 65
   257
 75
     7
175
     7
 42
1.0
 92
        8
 66
     7
 43
1.0
 76
     1
 77
     6
 78
     2
 67
     7
 79
     5
170
     0
171
     0
290
     0
174
     0
 93
        1
 44
0.0
173
     0
291
     1
 45
0.0
1001
ACAD
1000
AcDbSavedByObjectVersion
1070
     0
  0
VISUALSTYLE
  5
2892
102
{ACAD_XDICTIONARY
360
2900
102
}
102
{ACAD_REACTORS
330
287B
102
}
330
287B
100
AcDbVisualStyle
  2
OverhangOff
 70
    21
 71
     2
 72
     2
 73
     0
 90
        0
 40
-0.6
 41
-30.0
 62
     5
 63
     7
 74
     1
 91
        4
 64
     7
 65
   257
 75
     1
175
     1
 42
1.0
 92
        9
 66
     7
 43
1.0
 76
     1
 77
     6
 78
     2
 67
     7
 79
     5
170
     0
171
     0
290
     0
174
     0
 93
        1
 44
0.0
173
     0
291
     1
 45
0.0
1001
ACAD
1000
AcDbSavedByObjectVersion
1070
     0
  0
VISUALSTYLE
  5
2885
102
{ACAD_XDICTIONARY
360
28E6
102
}
102
{ACAD_REACTORS
330
287B
102
}
330
287B
100
AcDbVisualStyle
  2
Realistic
 70
     8
 71
     2
 72
     3
 73
     0
 90
        2
 40
-0.6
 41
30.0
 62
     5
 63
     7
 74
     0
 91
        0
 64
     7
 65
   257
 75
     1
175
     1
 42
1.0
 92
        8
 66
   257
 43
1.0
 76
     1
 77
     6
 78
     2
 67
     7
 79
     3
170
     0
171
     0
290
     0
174
     0
 93
       13
 44
0.0
173
     0
291
     0
 45
0.0
1001
ACAD
1000
AcDbSavedByObjectVersion
1070
     0
  0
VISUALSTYLE
  5
2890
102
{ACAD_XDICTIONARY
360
28FC
102
}
102
{ACAD_REACTORS
330
287B
102
}
330
287B
100
AcDbVisualStyle
  2
Shaded
 70
    27
 71
     2
 72
     2
 73
     1
 90
        2
 40
-0.6
 41
30.0
 62
     5
 63
     7
 74
     0
 91
        4
 64
     7
 65
   257
 75
     1
175
     1
 42
1.0
 92
        8
 66
   257
 43
1.0
 76
     1
 77
     6
 78
     2
 67
     8
 79
     3
170
     0
171
     0
290
     0
174
     0
 93
        5
 44
0.0
173
     0
291
     0
 45
0.0
1001
ACAD
1000
AcDbSavedByObjectVersion
1070
     0
  0
VISUALSTYLE
  5
288F
102
{ACAD_XDICTIONARY
360
28FA
102
}
102
{ACAD_REACTORS
330
287B
102
}
330
287B
100
AcDbVisualStyle
  2
Shaded with edges
 70
    26
 71
     2
 72
     2
 73
     1
 90
        2
 40
-0.6
 41
30.0
 62
     5
 63
     7
 74
     1
 91
       10
 64
     7
 65
   257
 75
     2
175
     1
 42
1.0
 92
        8
 66
   257
 43
1.0
 76
     1
 77
     6
 78
     2
 67
     7
 79
     3
170
     0
171
     0
290
     0
174
     0
 93
        5
 44
0.0
173
     0
291
     0
 45
0.0
1001
ACAD
1000
AcDbSavedByObjectVersion
1070
     0
  0
VISUALSTYLE
  5
288C
102
{ACAD_XDICTIONARY
360
28F4
102
}
102
{ACAD_REACTORS
330
287B
102
}
330
287B
100
AcDbVisualStyle
  2
Shades of Gray
 70
    23
 71
     2
 72
     2
 73
     3
 90
        0
 40
-0.6
 41
-30.0
 62
     5
 63
     7
 74
     2
 91
        2
 64
     7
 65
     7
 75
     1
175
     1
 42
40.0
 92
        8
 66
     7
 43
1.0
 76
     1
 77
     6
 78
     2
 67
     7
 79
     3
170
     0
171
     0
290
     0
174
     0
 93
        1
 44
0.0
173
     0
291
     0
 45
0.0
1001
ACAD
1000
AcDbSavedByObjectVersion
1070
     0
  0
VISUALSTYLE
  5
288D
102
{ACAD_XDICTIONARY
360
28F6
102
}
102
{ACAD_REACTORS
330
287B
102
}
330
287B
100
AcDbVisualStyle
  2
Sketchy
 70
    24
 71
     1
 72
     2
 73
     2
 90
        0
 40
-0.6
 41
-30.0
 62
     5
 63
     7
 74
     2
 91
        2
 64
     7
 65
     7
 75
     1
175
     1
 42
40.0
 92
       11
 66
     7
 43
1.0
 76
     1
 77
     6
 78
     2
 67
     7
 79
     6
170
     0
171
     0
290
     0
174
     0
 93
        1
 44
0.0
173
     0
291
     0
 45
0.0
1001
ACAD
1000
AcDbSavedByObjectVersion
1070
     0
  0
VISUALSTYLE
  5
2888
102
{ACAD_XDICTIONARY
360
28EC
102
}
102
{ACAD_REACTORS
330
287B
102
}
330
287B
100
AcDbVisualStyle
  2
Thicken
 70
    13
 71
     2
 72
     2
 73
     0
 90
        0
 40
-0.6
 41
-30.0
 62
     5
 63
     7
 74
     1
 91
        4
 64
     7
 65
   257
 75
     1
175
     1
 42
1.0
 92
       12
 66
     7
 43
1.0
 76
     1
 77
     6
 78
     2
 67
     7
 79
     5
170
     0
171
     0
290
     0
174
     0
 93
        1
 44
0.0
173
     0
291
     1
 45
0.0
1001
ACAD
1000
AcDbSavedByObjectVersion
1070
     0
  0
VISUALSTYLE
  5
2882
102
{ACAD_XDICTIONARY
360
28E0
102
}
102
{ACAD_REACTORS
330
287B
102
}
330
287B
100
AcDbVisualStyle
  2
Wireframe
 70
     5
 71
     0
 72
     2
 73
     0
 90
        0
 40
-0.6
 41
-30.0
 62
     5
 63
     7
 74
     1
 91
        4
 64
     7
 65
   257
 75
     1
175
     1
 42
1.0
 92
        0
 66
   257
 43
1.0
 76
     1
 77
     6
 78
     2
 67
     7
 79
     3
170
     0
171
     0
290
     0
174
     0
 93
        1
 44
0.0
173
     0
291
     0
 45
0.0
1001
ACAD
1000
AcDbSavedByObjectVersion
1070
     0
  0
VISUALSTYLE
  5
288E
102
{ACAD_XDICTIONARY
360
28F8
102
}
102
{ACAD_REACTORS
330
287B
102
}
330
287B
100
AcDbVisualStyle
  2
X-Ray
 70
    25
 71
     2
 72
     2
 73
     1
 90
        1
 40
0.5
 41
-30.0
 62
     5
 63
     7
 74
     1
 91
        0
 64
     7
 65
   257
 75
     1
175
     1
 42
1.0
 92
        8
 66
     7
 43
1.0
 76
     1
 77
     6
 78
     2
 67
     7
 79
     3
170
     0
171
     0
290
     0
174
     0
 93
       13
 44
0.0
173
     0
291
     0
 45
0.0
1001
ACAD
1000
AcDbSavedByObjectVersion
1070
     0
  0
DICTIONARYVAR
  5
28C7
102
{ACAD_REACTORS
330
28C2
102
}
330
28C2
100
DictionaryVariables
280
     0
  1
1:1
  0
DICTIONARYVAR
  5
28C4
102
{ACAD_REACTORS
330
28C2
102
}
330
28C2
100
DictionaryVariables
280
     0
  1
STANDARD
  0
DICTIONARYVAR
  5
28C3
102
{ACAD_REACTORS
330
28C2
102
}
330
28C2
100
DictionaryVariables
280
     0
  1
STANDARD
  0
DICTIONARYVAR
  5
28C5
102
{ACAD_REACTORS
330
28C2
102
}
330
28C2
100
DictionaryVariables
280
     0
  1
Imperial24
  0
DICTIONARYVAR
  5
28C6
102
{ACAD_REACTORS
330
28C2
102
}
330
28C2
100
DictionaryVariables
280
     0
  1
Imperial24
  0
DICTIONARYVAR
  5
28CA
102
{ACAD_REACTORS
330
28C2
102
}
330
28C2
100
DictionaryVariables
280
     0
  1
1
  0
DICTIONARYVAR
  5
28C9
102
{ACAD_REACTORS
330
28C2
102
}
330
28C2
100
DictionaryVariables
280
     0
  1
0
  0
DICTIONARYVAR
  5
28C8
102
{ACAD_REACTORS
330
28C2
102
}
330
28C2
100
DictionaryVariables
280
     0
  1
127
  0
DICTIONARYVAR
  5
28CB
102
{ACAD_REACTORS
330
28C2
102
}
330
28C2
100
DictionaryVariables
280
     0
  1
2
  0
DICTIONARY
  5
2908
330
28AE
100
AcDbDictionary
280
     1
281
     1
  3
ACAD_XREC_ROUNDTRIP
360
2909
  0
DICTIONARY
  5
290A
330
28AF
100
AcDbDictionary
280
     1
281
     1
  3
ACAD_XREC_ROUNDTRIP
360
290B
  0
DICTIONARY
  5
290C
330
28B0
100
AcDbDictionary
280
     1
281
     1
  3
ACAD_XREC_ROUNDTRIP
360
290D
  0
DICTIONARY
  5
286C
330
286B
100
AcDbDictionary
280
     1
281
     1
  3
ACAD_XREC_ROUNDTRIP
360
28D2
  3
BUMPTILE
360
286E
  3
DIFFUSETILE
360
286D
  3
OPACITYTILE
360
2871
  3
REFLECTIONTILE
360
2870
  3
REFRACTIONTILE
360
2872
  3
SPECULARTILE
360
286F
  0
DICTIONARY
  5
2864
330
2863
100
AcDbDictionary
280
     1
281
     1
  3
ACAD_XREC_ROUNDTRIP
360
28D1
  3
BUMPTILE
360
2866
  3
DIFFUSETILE
360
2865
  3
OPACITYTILE
360
2869
  3
REFLECTIONTILE
360
2868
  3
REFRACTIONTILE
360
286A
  3
SPECULARTILE
360
2867
  0
DICTIONARY
  5
2874
330
2873
100
AcDbDictionary
280
     1
281
     1
  3
ACAD_XREC_ROUNDTRIP
360
28D3
  3
BUMPTILE
360
2876
  3
DIFFUSETILE
360
2875
  3
OPACITYTILE
360
2879
  3
REFLECTIONTILE
360
2878
  3
REFRACTIONTILE
360
287A
  3
SPECULARTILE
360
2877
  0
DICTIONARY
  5
2906
330
28AC
100
AcDbDictionary
280
     1
281
     1
  3
ACAD_XREC_ROUNDTRIP
360
2907
  0
DICTIONARY
  5
28CD
330
2896
100
AcDbDictionary
280
     1
281
     1
  3
ACAD_ROUNDTRIP_2008_TABLESTYLE_CELLSTYLEMAP
360
28CE
  3
ACAD_XREC_ROUNDTRIP
360
2904
  0
DICTIONARY
  5
28DE
330
2881
100
AcDbDictionary
280
     1
281
     1
  3
ACAD_XREC_ROUNDTRIP
360
28DF
  0
DICTIONARY
  5
28DC
330
2880
100
AcDbDictionary
280
     1
281
     1
  3
ACAD_XREC_ROUNDTRIP
360
28DD
  0
DICTIONARY
  5
28EA
330
2887
100
AcDbDictionary
280
     1
281
     1
  3
ACAD_XREC_ROUNDTRIP
360
28EB
  0
DICTIONARY
  5
28F2
330
288B
100
AcDbDictionary
280
     1
281
     1
  3
ACAD_XREC_ROUNDTRIP
360
28F3
  0
DICTIONARY
  5
28E4
330
2884
100
AcDbDictionary
280
     1
281
     1
  3
ACAD_XREC_ROUNDTRIP
360
28E5
  0
DICTIONARY
  5
28E8
330
2886
100
AcDbDictionary
280
     1
281
     1
  3
ACAD_XREC_ROUNDTRIP
360
28E9
  0
DICTIONARY
  5
2902
330
2893
100
AcDbDictionary
280
     1
281
     1
  3
ACAD_XREC_ROUNDTRIP
360
2903
  0
DICTIONARY
  5
28F0
330
288A
100
AcDbDictionary
280
     1
281
     1
  3
ACAD_XREC_ROUNDTRIP
360
28F1
  0
DICTIONARY
  5
28D4
330
287C
100
AcDbDictionary
280
     1
281
     1
  3
ACAD_XREC_ROUNDTRIP
360
28D5
  0
DICTIONARY
  5
28D6
330
287D
100
AcDbDictionary
280
     1
281
     1
  3
ACAD_XREC_ROUNDTRIP
360
28D7
  0
DICTIONARY
  5
28D8
330
287E
100
AcDbDictionary
280
     1
281
     1
  3
ACAD_XREC_ROUNDTRIP
360
28D9
  0
DICTIONARY
  5
28DA
330
287F
100
AcDbDictionary
280
     1
281
     1
  3
ACAD_XREC_ROUNDTRIP
360
28DB
  0
DICTIONARY
  5
28E2
330
2883
100
AcDbDictionary
280
     1
281
     1
  3
ACAD_XREC_ROUNDTRIP
360
28E3
  0
DICTIONARY
  5
28FE
330
2891
100
AcDbDictionary
280
     1
281
     1
  3
ACAD_XREC_ROUNDTRIP
360
28FF
  0
DICTIONARY
  5
28EE
330
2889
100
AcDbDictionary
280
     1
281
     1
  3
ACAD_XREC_ROUNDTRIP
360
28EF
  0
DICTIONARY
  5
2900
330
2892
100
AcDbDictionary
280
     1
281
     1
  3
ACAD_XREC_ROUNDTRIP
360
2901
  0
DICTIONARY
  5
28E6
330
2885
100
AcDbDictionary
280
     1
281
     1
  3
ACAD_XREC_ROUNDTRIP
360
28E7
  0
DICTIONARY
  5
28FC
330
2890
100
AcDbDictionary
280
     1
281
     1
  3
ACAD_XREC_ROUNDTRIP
360
28FD
  0
DICTIONARY
  5
28FA
330
288F
100
AcDbDictionary
280
     1
281
     1
  3
ACAD_XREC_ROUNDTRIP
360
28FB
  0
DICTIONARY
  5
28F4
330
288C
100
AcDbDictionary
280
     1
281
     1
  3
ACAD_XREC_ROUNDTRIP
360
28F5
  0
DICTIONARY
  5
28F6
330
288D
100
AcDbDictionary
280
     1
281
     1
  3
ACAD_XREC_ROUNDTRIP
360
28F7
  0
DICTIONARY
  5
28EC
330
2888
100
AcDbDictionary
280
     1
281
     1
  3
ACAD_XREC_ROUNDTRIP
360
28ED
  0
DICTIONARY
  5
28E0
330
2882
100
AcDbDictionary
280
     1
281
     1
  3
ACAD_XREC_ROUNDTRIP
360
28E1
  0
DICTIONARY
  5
28F8
330
288E
100
AcDbDictionary
280
     1
281
     1
  3
ACAD_XREC_ROUNDTRIP
360
28F9
  0
XRECORD
  5
2909
102
{ACAD_REACTORS
330
2908
102
}
330
2908
100
AcDbXrecord
280
     1
102
DISPLAYNAME
  1
Imperial24
102
FLAGS
 90
        0
  0
XRECORD
  5
290B
102
{ACAD_REACTORS
330
290A
102
}
330
290A
100
AcDbXrecord
280
     1
102
SHADEPLOT
 70
     0
102
SHADEPLOTRESLEVEL
 70
     2
102
SHADEPLOTCUSTOMDPI
 70
   300
  0
XRECORD
  5
290D
102
{ACAD_REACTORS
330
290C
102
}
330
290C
100
AcDbXrecord
280
     1
102
SHADEPLOT
 70
     0
102
SHADEPLOTRESLEVEL
 70
     2
102
SHADEPLOTCUSTOMDPI
 70
   300
  0
XRECORD
  5
28D2
102
{ACAD_REACTORS
330
286C
102
}
330
286C
100
AcDbXrecord
280
     1
102
MATERIAL
148
0.0
149
0.0
149
0.0
 93
        0
 94
      127
282
     0
 72
     0
 77
     0
171
     0
175
     0
179
     0
273
     0
  0
XRECORD
  5
286E
102
{ACAD_REACTORS
330
286C
102
}
330
286C
100
AcDbXrecord
280
     1
270
     1
271
     1
  0
XRECORD
  5
286D
102
{ACAD_REACTORS
330
286C
102
}
330
286C
100
AcDbXrecord
280
     1
270
     1
271
     1
  0
XRECORD
  5
2871
102
{ACAD_REACTORS
330
286C
102
}
330
286C
100
AcDbXrecord
280
     1
270
     1
271
     1
  0
XRECORD
  5
2870
102
{ACAD_REACTORS
330
286C
102
}
330
286C
100
AcDbXrecord
280
     1
270
     1
271
     1
  0
XRECORD
  5
2872
102
{ACAD_REACTORS
330
286C
102
}
330
286C
100
AcDbXrecord
280
     1
270
     1
271
     1
  0
XRECORD
  5
286F
102
{ACAD_REACTORS
330
286C
102
}
330
286C
100
AcDbXrecord
280
     1
270
     1
271
     1
  0
XRECORD
  5
28D1
102
{ACAD_REACTORS
330
2864
102
}
330
2864
100
AcDbXrecord
280
     1
102
MATERIAL
148
0.0
149
0.0
149
0.0
 93
        0
 94
      127
282
     0
 72
     0
 77
     0
171
     0
175
     0
179
     0
273
     0
  0
XRECORD
  5
2866
102
{ACAD_REACTORS
330
2864
102
}
330
2864
100
AcDbXrecord
280
     1
270
     1
271
     1
  0
XRECORD
  5
2865
102
{ACAD_REACTORS
330
2864
102
}
330
2864
100
AcDbXrecord
280
     1
270
     1
271
     1
  0
XRECORD
  5
2869
102
{ACAD_REACTORS
330
2864
102
}
330
2864
100
AcDbXrecord
280
     1
270
     1
271
     1
  0
XRECORD
  5
2868
102
{ACAD_REACTORS
330
2864
102
}
330
2864
100
AcDbXrecord
280
     1
270
     1
271
     1
  0
XRECORD
  5
286A
102
{ACAD_REACTORS
330
2864
102
}
330
2864
100
AcDbXrecord
280
     1
270
     1
271
     1
  0
XRECORD
  5
2867
102
{ACAD_REACTORS
330
2864
102
}
330
2864
100
AcDbXrecord
280
     1
270
     1
271
     1
  0
XRECORD
  5
28D3
102
{ACAD_REACTORS
330
2874
102
}
330
2874
100
AcDbXrecord
280
     1
102
MATERIAL
148
0.0
149
0.0
149
0.0
 93
        0
 94
      127
282
     0
 72
     0
 77
     0
171
     0
175
     0
179
     0
273
     0
  0
XRECORD
  5
2876
102
{ACAD_REACTORS
330
2874
102
}
330
2874
100
AcDbXrecord
280
     1
270
     1
271
     1
  0
XRECORD
  5
2875
102
{ACAD_REACTORS
330
2874
102
}
330
2874
100
AcDbXrecord
280
     1
270
     1
271
     1
  0
XRECORD
  5
2879
102
{ACAD_REACTORS
330
2874
102
}
330
2874
100
AcDbXrecord
280
     1
270
     1
271
     1
  0
XRECORD
  5
2878
102
{ACAD_REACTORS
330
2874
102
}
330
2874
100
AcDbXrecord
280
     1
270
     1
271
     1
  0
XRECORD
  5
287A
102
{ACAD_REACTORS
330
2874
102
}
330
2874
100
AcDbXrecord
280
     1
270
     1
271
     1
  0
XRECORD
  5
2877
102
{ACAD_REACTORS
330
2874
102
}
330
2874
100
AcDbXrecord
280
     1
270
     1
271
     1
  0
XRECORD
  5
2907
102
{ACAD_REACTORS
330
2906
102
}
330
2906
100
AcDbXrecord
280
     1
102
DISPLAYNAME
  1
Imperial24
102
FLAGS
 90
        0
  0
CELLSTYLEMAP
  5
28CE
102
{ACAD_REACTORS
330
28CD
102
}
330
28CD
100
AcDbCellStyleMap
 90
        3
300
CELLSTYLE
  1
TABLEFORMAT_BEGIN
 90
        5
170
     1
 91
        0
 92
    32768
 62
   257
 93
        1
300
CONTENTFORMAT
  1
CONTENTFORMAT_BEGIN
 90
        0
 91
        0
 92
      512
 93
        0
300

 40
0.0
140
1.0
 94
        5
 62
     0
340
F
144
0.25
309
CONTENTFORMAT_END
171
     0
 94
        0
309
TABLEFORMAT_END
  1
CELLSTYLE_BEGIN
 90
        1
 91
        1
300
_TITLE
309
CELLSTYLE_END
300
CELLSTYLE
  1
TABLEFORMAT_BEGIN
 90
        5
170
     1
 91
        0
 92
        0
 62
   257
 93
        1
300
CONTENTFORMAT
  1
CONTENTFORMAT_BEGIN
 90
        0
 91
        0
 92
      512
 93
        0
300

 40
0.0
140
1.0
 94
        5
 62
     0
340
F
144
0.18
309
CONTENTFORMAT_END
171
     0
 94
        0
309
TABLEFORMAT_END
  1
CELLSTYLE_BEGIN
 90
        2
 91
        1
300
_HEADER
309
CELLSTYLE_END
300
CELLSTYLE
  1
TABLEFORMAT_BEGIN
 90
        5
170
     1
 91
        0
 92
        0
 62
   257
 93
        1
300
CONTENTFORMAT
  1
CONTENTFORMAT_BEGIN
 90
        0
 91
        0
 92
      512
 93
        0
300

 40
0.0
140
1.0
 94
        2
 62
     0
340
F
144
0.18
309
CONTENTFORMAT_END
171
     0
 94
        0
309
TABLEFORMAT_END
  1
CELLSTYLE_BEGIN
 90
        3
 91
        2
300
_DATA
309
CELLSTYLE_END
  0
XRECORD
  5
2904
102
{ACAD_REACTORS
330
28CD
102
}
330
28CD
100
AcDbXrecord
280
     1
102
ACAD_ROUNDTRIP_PRE2007_TABLESTYLE
 90
      512
 91
        0
  1

 92
      512
 93
        0
  2

 94
      512
 95
        0
  3

  0
XRECORD
  5
28DF
102
{ACAD_REACTORS
330
28DE
102
}
330
28DE
100
AcDbXrecord
280
     1
102
RTVSPost2010Prop28
280
     1
102
RTVSPost2010PropOp28
 70
     1
102
RTVSPost2010Prop29
280
     1
102
RTVSPost2010PropOp29
 70
     1
102
RTVSPost2010Prop30
280
     0
102
RTVSPost2010PropOp30
 70
     1
102
RTVSPost2010Prop31
280
     0
102
RTVSPost2010PropOp31
 70
     1
102
RTVSPost2010Prop32
280
     0
102
RTVSPost2010PropOp32
 70
     1
102
RTVSPost2010Prop33
280
     0
102
RTVSPost2010PropOp33
 70
     1
102
RTVSPost2010Prop34
280
     0
102
RTVSPost2010PropOp34
 70
     1
102
RTVSPost2010Prop35
280
     0
102
RTVSPost2010PropOp35
 70
     1
102
RTVSPost2010Prop36
280
     0
102
RTVSPost2010PropOp36
 70
     1
102
RTVSPost2010Prop37
 90
       50
102
RTVSPost2010PropOp37
 70
     1
102
RTVSPost2010Prop38
140
0.0
102
RTVSPost2010PropOp38
 70
     1
102
RTVSPost2010Prop39
140
1.0
102
RTVSPost2010PropOp39
 70
     1
102
RTVSPost2010Prop40
 90
        0
102
RTVSPost2010PropOp40
 70
     1
102
RTVSPost2010Prop41ColorIndex
 90
       18
102
RTVSPost2010Prop41ColorRGB
 90
        0
102
RTVSPost2010PropOp41
 70
     1
102
RTVSPost2010Prop42
 90
       50
102
RTVSPost2010PropOp42
 70
     1
102
RTVSPost2010Prop43
 90
        3
102
RTVSPost2010PropOp43
 70
     1
102
RTVSPost2010Prop44ColorIndex
 90
        5
102
RTVSPost2010Prop44ColorRGB
 90
      255
102
RTVSPost2010PropOp44
 70
     1
102
RTVSPost2010Prop45
280
     0
102
RTVSPost2010PropOp45
 70
     1
102
RTVSPost2010Prop46
 90
       50
102
RTVSPost2010PropOp46
 70
     1
102
RTVSPost2010Prop47
 90
       50
102
RTVSPost2010PropOp47
 70
     1
102
RTVSPost2010Prop48
 90
       50
102
RTVSPost2010PropOp48
 70
     1
102
RTVSPost2010Prop49
280
     0
102
RTVSPost2010PropOp49
 70
     1
102
RTVSPost2010Prop50
 90
       50
102
RTVSPost2010PropOp50
 70
     1
102
RTVSPost2010Prop51ColorIndex
 90
      256
102
RTVSPost2010Prop51ColorRGB
 90
-16777216
102
RTVSPost2010PropOp51
 70
     0
102
RTVSPost2010Prop52
140
1.0
102
RTVSPost2010PropOp52
 70
     0
102
RTVSPost2010Prop53
 90
        2
102
RTVSPost2010PropOp53
 70
     1
102
RTVSPost2010Prop54
  1
strokes_ogs.tif
102
RTVSPost2010PropOp54
 70
     1
102
RTVSPost2010Prop55
280
     0
102
RTVSPost2010PropOp55
 70
     1
102
RTVSPost2010Prop56
140
1.0
102
RTVSPost2010PropOp56
 70
     1
102
RTVSPost2010Prop57
140
1.0
102
RTVSPost2010PropOp57
 70
     1
102
RTVSPropertyOp0
 70
     1
102
RTVSPropertyOp1
 70
     1
102
RTVSPropertyOp2
 70
     1
102
RTVSPropertyOp3
 70
     1
102
RTVSPropertyOp4
 70
     1
102
RTVSPropertyOp5
 70
     1
102
RTVSPropertyOp6
 70
     1
102
RTVSPropertyOp7
 70
     1
102
RTVSPropertyOp8
 70
     1
102
RTVSPropertyOp9
 70
     1
102
RTVSPropertyOp10
 70
     1
102
RTVSPropertyOp11
 70
     1
102
RTVSPropertyOp12
 70
     1
102
RTVSPropertyOp13
 70
     1
102
RTVSPropertyOp14
 70
     1
102
RTVSPropertyOp15
 70
     1
102
RTVSPropertyOp16
 70
     1
102
RTVSPropertyOp17
 70
     1
102
RTVSPropertyOp18
 70
     1
102
RTVSPropertyOp19
 70
     1
102
RTVSPropertyOp20
 70
     1
102
RTVSPropertyOp21
 70
     1
102
RTVSPropertyOp22
 70
     1
102
RTVSPropertyOp23
 70
     1
102
RTVSPropertyOp24
 70
     1
102
RTVSPropertyOp25
 70
     1
102
RTVSPropertyOp26
 70
     1
102
RTVSPropertyOp27
 70
     1
102
RTVSPropertyOp28
 70
     1
102
RTVSPropertyOp29
 70
     1
102
RTVSPropertyOp30
 70
     1
102
RTVSPropertyOp31
 70
     1
102
RTVSPropertyOp32
 70
     1
102
RTVSPropertyOp33
 70
     1
102
RTVSPropertyOp34
 70
     1
102
RTVSPropertyOp35
 70
     1
102
RTVSPropertyOp36
 70
     1
102
RTVSPropertyOp37
 70
     1
102
RTVSPropertyOp38
 70
     1
102
RTVSPropertyOp39
 70
     1
102
RTVSPropertyOp40
 70
     1
102
RTVSPropertyOp41
 70
     1
102
RTVSPropertyOp42
 70
     1
102
RTVSPropertyOp43
 70
     1
102
RTVSPropertyOp44
 70
     1
102
RTVSPropertyOp45
 70
     1
102
RTVSPropertyOp46
 70
     1
102
RTVSPropertyOp47
 70
     1
102
RTVSPropertyOp48
 70
     1
102
RTVSPropertyOp49
 70
     1
102
RTVSPropertyOp50
 70
     1
102
RTVSPropertyOp51
 70
     0
102
RTVSPropertyOp52
 70
     0
102
RTVSPropertyOp53
 70
     1
102
RTVSPropertyOp54
 70
     1
102
RTVSPropertyOp55
 70
     1
102
RTVSPropertyOp56
 70
     1
102
RTVSPropertyOp57
 70
     1
102
RTVSPropertyOp58
 70
     1
102
RTVSPropertyOp59
 70
     1
102
RTVSPropertyOp60
 70
     1
102
RTVSPropertyOp61
 70
     1
102
RTVSPropertyOp62
 70
     1
  0
XRECORD
  5
28DD
102
{ACAD_REACTORS
330
28DC
102
}
330
28DC
100
AcDbXrecord
280
     1
102
RTVSPost2010Prop28
280
     0
102
RTVSPost2010PropOp28
 70
     1
102
RTVSPost2010Prop29
280
     1
102
RTVSPost2010PropOp29
 70
     1
102
RTVSPost2010Prop30
280
     1
102
RTVSPost2010PropOp30
 70
     1
102
RTVSPost2010Prop31
280
     0
102
RTVSPost2010PropOp31
 70
     1
102
RTVSPost2010Prop32
280
     0
102
RTVSPost2010PropOp32
 70
     1
102
RTVSPost2010Prop33
280
     0
102
RTVSPost2010PropOp33
 70
     1
102
RTVSPost2010Prop34
280
     0
102
RTVSPost2010PropOp34
 70
     1
102
RTVSPost2010Prop35
280
     0
102
RTVSPost2010PropOp35
 70
     1
102
RTVSPost2010Prop36
280
     0
102
RTVSPost2010PropOp36
 70
     1
102
RTVSPost2010Prop37
 90
       50
102
RTVSPost2010PropOp37
 70
     1
102
RTVSPost2010Prop38
140
0.0
102
RTVSPost2010PropOp38
 70
     1
102
RTVSPost2010Prop39
140
1.0
102
RTVSPost2010PropOp39
 70
     1
102
RTVSPost2010Prop40
 90
        0
102
RTVSPost2010PropOp40
 70
     1
102
RTVSPost2010Prop41ColorIndex
 90
       18
102
RTVSPost2010Prop41ColorRGB
 90
        0
102
RTVSPost2010PropOp41
 70
     1
102
RTVSPost2010Prop42
 90
       50
102
RTVSPost2010PropOp42
 70
     1
102
RTVSPost2010Prop43
 90
        3
102
RTVSPost2010PropOp43
 70
     1
102
RTVSPost2010Prop44ColorIndex
 90
        5
102
RTVSPost2010Prop44ColorRGB
 90
      255
102
RTVSPost2010PropOp44
 70
     1
102
RTVSPost2010Prop45
280
     0
102
RTVSPost2010PropOp45
 70
     1
102
RTVSPost2010Prop46
 90
       50
102
RTVSPost2010PropOp46
 70
     1
102
RTVSPost2010Prop47
 90
       50
102
RTVSPost2010PropOp47
 70
     1
102
RTVSPost2010Prop48
 90
       50
102
RTVSPost2010PropOp48
 70
     1
102
RTVSPost2010Prop49
280
     0
102
RTVSPost2010PropOp49
 70
     1
102
RTVSPost2010Prop50
 90
       50
102
RTVSPost2010PropOp50
 70
     1
102
RTVSPost2010Prop51ColorIndex
 90
      256
102
RTVSPost2010Prop51ColorRGB
 90
-16777216
102
RTVSPost2010PropOp51
 70
     0
102
RTVSPost2010Prop52
140
1.0
102
RTVSPost2010PropOp52
 70
     0
102
RTVSPost2010Prop53
 90
        2
102
RTVSPost2010PropOp53
 70
     1
102
RTVSPost2010Prop54
  1
strokes_ogs.tif
102
RTVSPost2010PropOp54
 70
     1
102
RTVSPost2010Prop55
280
     0
102
RTVSPost2010PropOp55
 70
     1
102
RTVSPost2010Prop56
140
1.0
102
RTVSPost2010PropOp56
 70
     1
102
RTVSPost2010Prop57
140
1.0
102
RTVSPost2010PropOp57
 70
     1
102
RTVSPropertyOp0
 70
     1
102
RTVSPropertyOp1
 70
     1
102
RTVSPropertyOp2
 70
     1
102
RTVSPropertyOp3
 70
     1
102
RTVSPropertyOp4
 70
     1
102
RTVSPropertyOp5
 70
     1
102
RTVSPropertyOp6
 70
     1
102
RTVSPropertyOp7
 70
     1
102
RTVSPropertyOp8
 70
     1
102
RTVSPropertyOp9
 70
     1
102
RTVSPropertyOp10
 70
     1
102
RTVSPropertyOp11
 70
     1
102
RTVSPropertyOp12
 70
     1
102
RTVSPropertyOp13
 70
     1
102
RTVSPropertyOp14
 70
     1
102
RTVSPropertyOp15
 70
     1
102
RTVSPropertyOp16
 70
     1
102
RTVSPropertyOp17
 70
     1
102
RTVSPropertyOp18
 70
     1
102
RTVSPropertyOp19
 70
     1
102
RTVSPropertyOp20
 70
     1
102
RTVSPropertyOp21
 70
     1
102
RTVSPropertyOp22
 70
     1
102
RTVSPropertyOp23
 70
     1
102
RTVSPropertyOp24
 70
     1
102
RTVSPropertyOp25
 70
     1
102
RTVSPropertyOp26
 70
     1
102
RTVSPropertyOp27
 70
     1
102
RTVSPropertyOp28
 70
     1
102
RTVSPropertyOp29
 70
     1
102
RTVSPropertyOp30
 70
     1
102
RTVSPropertyOp31
 70
     1
102
RTVSPropertyOp32
 70
     1
102
RTVSPropertyOp33
 70
     1
102
RTVSPropertyOp34
 70
     1
102
RTVSPropertyOp35
 70
     1
102
RTVSPropertyOp36
 70
     1
102
RTVSPropertyOp37
 70
     1
102
RTVSPropertyOp38
 70
     1
102
RTVSPropertyOp39
 70
     1
102
RTVSPropertyOp40
 70
     1
102
RTVSPropertyOp41
 70
     1
102
RTVSPropertyOp42
 70
     1
102
RTVSPropertyOp43
 70
     1
102
RTVSPropertyOp44
 70
     1
102
RTVSPropertyOp45
 70
     1
102
RTVSPropertyOp46
 70
     1
102
RTVSPropertyOp47
 70
     1
102
RTVSPropertyOp48
 70
     1
102
RTVSPropertyOp49
 70
     1
102
RTVSPropertyOp50
 70
     1
102
RTVSPropertyOp51
 70
     0
102
RTVSPropertyOp52
 70
     0
102
RTVSPropertyOp53
 70
     1
102
RTVSPropertyOp54
 70
     1
102
RTVSPropertyOp55
 70
     1
102
RTVSPropertyOp56
 70
     1
102
RTVSPropertyOp57
 70
     1
102
RTVSPropertyOp58
 70
     1
102
RTVSPropertyOp59
 70
     1
102
RTVSPropertyOp60
 70
     1
102
RTVSPropertyOp61
 70
     1
102
RTVSPropertyOp62
 70
     1
  0
XRECORD
  5
28EB
102
{ACAD_REACTORS
330
28EA
102
}
330
28EA
100
AcDbXrecord
280
     1
102
RTVSPost2010Prop28
280
     0
102
RTVSPost2010PropOp28
 70
     1
102
RTVSPost2010Prop29
280
     1
102
RTVSPost2010PropOp29
 70
     1
102
RTVSPost2010Prop30
280
     1
102
RTVSPost2010PropOp30
 70
     1
102
RTVSPost2010Prop31
280
     0
102
RTVSPost2010PropOp31
 70
     1
102
RTVSPost2010Prop32
280
     0
102
RTVSPost2010PropOp32
 70
     1
102
RTVSPost2010Prop33
280
     0
102
RTVSPost2010PropOp33
 70
     1
102
RTVSPost2010Prop34
280
     0
102
RTVSPost2010PropOp34
 70
     1
102
RTVSPost2010Prop35
280
     0
102
RTVSPost2010PropOp35
 70
     1
102
RTVSPost2010Prop36
280
     0
102
RTVSPost2010PropOp36
 70
     1
102
RTVSPost2010Prop37
 90
       50
102
RTVSPost2010PropOp37
 70
     1
102
RTVSPost2010Prop38
140
0.0
102
RTVSPost2010PropOp38
 70
     1
102
RTVSPost2010Prop39
140
1.0
102
RTVSPost2010PropOp39
 70
     1
102
RTVSPost2010Prop40
 90
        0
102
RTVSPost2010PropOp40
 70
     1
102
RTVSPost2010Prop41ColorIndex
 90
       18
102
RTVSPost2010Prop41ColorRGB
 90
        0
102
RTVSPost2010PropOp41
 70
     1
102
RTVSPost2010Prop42
 90
       50
102
RTVSPost2010PropOp42
 70
     1
102
RTVSPost2010Prop43
 90
        3
102
RTVSPost2010PropOp43
 70
     1
102
RTVSPost2010Prop44ColorIndex
 90
        5
102
RTVSPost2010Prop44ColorRGB
 90
      255
102
RTVSPost2010PropOp44
 70
     1
102
RTVSPost2010Prop45
280
     0
102
RTVSPost2010PropOp45
 70
     1
102
RTVSPost2010Prop46
 90
       50
102
RTVSPost2010PropOp46
 70
     1
102
RTVSPost2010Prop47
 90
       50
102
RTVSPost2010PropOp47
 70
     1
102
RTVSPost2010Prop48
 90
       50
102
RTVSPost2010PropOp48
 70
     1
102
RTVSPost2010Prop49
280
     0
102
RTVSPost2010PropOp49
 70
     1
102
RTVSPost2010Prop50
 90
       50
102
RTVSPost2010PropOp50
 70
     1
102
RTVSPost2010Prop51ColorIndex
 90
      256
102
RTVSPost2010Prop51ColorRGB
 90
-16777216
102
RTVSPost2010PropOp51
 70
     0
102
RTVSPost2010Prop52
140
1.0
102
RTVSPost2010PropOp52
 70
     0
102
RTVSPost2010Prop53
 90
        2
102
RTVSPost2010PropOp53
 70
     1
102
RTVSPost2010Prop54
  1
strokes_ogs.tif
102
RTVSPost2010PropOp54
 70
     1
102
RTVSPost2010Prop55
280
     0
102
RTVSPost2010PropOp55
 70
     1
102
RTVSPost2010Prop56
140
1.0
102
RTVSPost2010PropOp56
 70
     1
102
RTVSPost2010Prop57
140
1.0
102
RTVSPost2010PropOp57
 70
     1
102
RTVSPropertyOp0
 70
     1
102
RTVSPropertyOp1
 70
     1
102
RTVSPropertyOp2
 70
     1
102
RTVSPropertyOp3
 70
     1
102
RTVSPropertyOp4
 70
     1
102
RTVSPropertyOp5
 70
     1
102
RTVSPropertyOp6
 70
     1
102
RTVSPropertyOp7
 70
     1
102
RTVSPropertyOp8
 70
     1
102
RTVSPropertyOp9
 70
     1
102
RTVSPropertyOp10
 70
     1
102
RTVSPropertyOp11
 70
     1
102
RTVSPropertyOp12
 70
     1
102
RTVSPropertyOp13
 70
     1
102
RTVSPropertyOp14
 70
     1
102
RTVSPropertyOp15
 70
     1
102
RTVSPropertyOp16
 70
     1
102
RTVSPropertyOp17
 70
     1
102
RTVSPropertyOp18
 70
     1
102
RTVSPropertyOp19
 70
     1
102
RTVSPropertyOp20
 70
     1
102
RTVSPropertyOp21
 70
     1
102
RTVSPropertyOp22
 70
     1
102
RTVSPropertyOp23
 70
     1
102
RTVSPropertyOp24
 70
     1
102
RTVSPropertyOp25
 70
     1
102
RTVSPropertyOp26
 70
     1
102
RTVSPropertyOp27
 70
     1
102
RTVSPropertyOp28
 70
     1
102
RTVSPropertyOp29
 70
     1
102
RTVSPropertyOp30
 70
     1
102
RTVSPropertyOp31
 70
     1
102
RTVSPropertyOp32
 70
     1
102
RTVSPropertyOp33
 70
     1
102
RTVSPropertyOp34
 70
     1
102
RTVSPropertyOp35
 70
     1
102
RTVSPropertyOp36
 70
     1
102
RTVSPropertyOp37
 70
     1
102
RTVSPropertyOp38
 70
     1
102
RTVSPropertyOp39
 70
     1
102
RTVSPropertyOp40
 70
     1
102
RTVSPropertyOp41
 70
     1
102
RTVSPropertyOp42
 70
     1
102
RTVSPropertyOp43
 70
     1
102
RTVSPropertyOp44
 70
     1
102
RTVSPropertyOp45
 70
     1
102
RTVSPropertyOp46
 70
     1
102
RTVSPropertyOp47
 70
     1
102
RTVSPropertyOp48
 70
     1
102
RTVSPropertyOp49
 70
     1
102
RTVSPropertyOp50
 70
     1
102
RTVSPropertyOp51
 70
     0
102
RTVSPropertyOp52
 70
     0
102
RTVSPropertyOp53
 70
     1
102
RTVSPropertyOp54
 70
     1
102
RTVSPropertyOp55
 70
     1
102
RTVSPropertyOp56
 70
     1
102
RTVSPropertyOp57
 70
     1
102
RTVSPropertyOp58
 70
     1
102
RTVSPropertyOp59
 70
     1
102
RTVSPropertyOp60
 70
     1
102
RTVSPropertyOp61
 70
     1
102
RTVSPropertyOp62
 70
     1
  0
XRECORD
  5
28F3
102
{ACAD_REACTORS
330
28F2
102
}
330
28F2
100
AcDbXrecord
280
     1
102
RTVSPost2010Prop28
280
     0
102
RTVSPost2010PropOp28
 70
     1
102
RTVSPost2010Prop29
280
     1
102
RTVSPost2010PropOp29
 70
     1
102
RTVSPost2010Prop30
280
     1
102
RTVSPost2010PropOp30
 70
     1
102
RTVSPost2010Prop31
280
     0
102
RTVSPost2010PropOp31
 70
     1
102
RTVSPost2010Prop32
280
     0
102
RTVSPost2010PropOp32
 70
     1
102
RTVSPost2010Prop33
280
     0
102
RTVSPost2010PropOp33
 70
     1
102
RTVSPost2010Prop34
280
     0
102
RTVSPost2010PropOp34
 70
     1
102
RTVSPost2010Prop35
280
     0
102
RTVSPost2010PropOp35
 70
     1
102
RTVSPost2010Prop36
280
     0
102
RTVSPost2010PropOp36
 70
     1
102
RTVSPost2010Prop37
 90
       50
102
RTVSPost2010PropOp37
 70
     1
102
RTVSPost2010Prop38
140
0.0
102
RTVSPost2010PropOp38
 70
     1
102
RTVSPost2010Prop39
140
1.0
102
RTVSPost2010PropOp39
 70
     1
102
RTVSPost2010Prop40
 90
        0
102
RTVSPost2010PropOp40
 70
     1
102
RTVSPost2010Prop41ColorIndex
 90
       18
102
RTVSPost2010Prop41ColorRGB
 90
        0
102
RTVSPost2010PropOp41
 70
     1
102
RTVSPost2010Prop42
 90
       50
102
RTVSPost2010PropOp42
 70
     1
102
RTVSPost2010Prop43
 90
        3
102
RTVSPost2010PropOp43
 70
     1
102
RTVSPost2010Prop44ColorIndex
 90
        5
102
RTVSPost2010Prop44ColorRGB
 90
      255
102
RTVSPost2010PropOp44
 70
     1
102
RTVSPost2010Prop45
280
     0
102
RTVSPost2010PropOp45
 70
     1
102
RTVSPost2010Prop46
 90
       50
102
RTVSPost2010PropOp46
 70
     1
102
RTVSPost2010Prop47
 90
       50
102
RTVSPost2010PropOp47
 70
     1
102
RTVSPost2010Prop48
 90
       50
102
RTVSPost2010PropOp48
 70
     1
102
RTVSPost2010Prop49
280
     0
102
RTVSPost2010PropOp49
 70
     1
102
RTVSPost2010Prop50
 90
       50
102
RTVSPost2010PropOp50
 70
     1
102
RTVSPost2010Prop51ColorIndex
 90
      256
102
RTVSPost2010Prop51ColorRGB
 90
-16777216
102
RTVSPost2010PropOp51
 70
     0
102
RTVSPost2010Prop52
140
1.0
102
RTVSPost2010PropOp52
 70
     0
102
RTVSPost2010Prop53
 90
        2
102
RTVSPost2010PropOp53
 70
     1
102
RTVSPost2010Prop54
  1
strokes_ogs.tif
102
RTVSPost2010PropOp54
 70
     1
102
RTVSPost2010Prop55
280
     0
102
RTVSPost2010PropOp55
 70
     1
102
RTVSPost2010Prop56
140
1.0
102
RTVSPost2010PropOp56
 70
     1
102
RTVSPost2010Prop57
140
1.0
102
RTVSPost2010PropOp57
 70
     1
102
RTVSPropertyOp0
 70
     1
102
RTVSPropertyOp1
 70
     1
102
RTVSPropertyOp2
 70
     1
102
RTVSPropertyOp3
 70
     1
102
RTVSPropertyOp4
 70
     1
102
RTVSPropertyOp5
 70
     1
102
RTVSPropertyOp6
 70
     1
102
RTVSPropertyOp7
 70
     1
102
RTVSPropertyOp8
 70
     1
102
RTVSPropertyOp9
 70
     1
102
RTVSPropertyOp10
 70
     1
102
RTVSPropertyOp11
 70
     1
102
RTVSPropertyOp12
 70
     1
102
RTVSPropertyOp13
 70
     1
102
RTVSPropertyOp14
 70
     1
102
RTVSPropertyOp15
 70
     1
102
RTVSPropertyOp16
 70
     1
102
RTVSPropertyOp17
 70
     1
102
RTVSPropertyOp18
 70
     1
102
RTVSPropertyOp19
 70
     1
102
RTVSPropertyOp20
 70
     1
102
RTVSPropertyOp21
 70
     1
102
RTVSPropertyOp22
 70
     1
102
RTVSPropertyOp23
 70
     1
102
RTVSPropertyOp24
 70
     1
102
RTVSPropertyOp25
 70
     1
102
RTVSPropertyOp26
 70
     1
102
RTVSPropertyOp27
 70
     1
102
RTVSPropertyOp28
 70
     1
102
RTVSPropertyOp29
 70
     1
102
RTVSPropertyOp30
 70
     1
102
RTVSPropertyOp31
 70
     1
102
RTVSPropertyOp32
 70
     1
102
RTVSPropertyOp33
 70
     1
102
RTVSPropertyOp34
 70
     1
102
RTVSPropertyOp35
 70
     1
102
RTVSPropertyOp36
 70
     1
102
RTVSPropertyOp37
 70
     1
102
RTVSPropertyOp38
 70
     1
102
RTVSPropertyOp39
 70
     1
102
RTVSPropertyOp40
 70
     1
102
RTVSPropertyOp41
 70
     1
102
RTVSPropertyOp42
 70
     1
102
RTVSPropertyOp43
 70
     1
102
RTVSPropertyOp44
 70
     1
102
RTVSPropertyOp45
 70
     1
102
RTVSPropertyOp46
 70
     1
102
RTVSPropertyOp47
 70
     1
102
RTVSPropertyOp48
 70
     1
102
RTVSPropertyOp49
 70
     1
102
RTVSPropertyOp50
 70
     1
102
RTVSPropertyOp51
 70
     0
102
RTVSPropertyOp52
 70
     0
102
RTVSPropertyOp53
 70
     1
102
RTVSPropertyOp54
 70
     1
102
RTVSPropertyOp55
 70
     1
102
RTVSPropertyOp56
 70
     1
102
RTVSPropertyOp57
 70
     1
102
RTVSPropertyOp58
 70
     1
102
RTVSPropertyOp59
 70
     1
102
RTVSPropertyOp60
 70
     1
102
RTVSPropertyOp61
 70
     1
102
RTVSPropertyOp62
 70
     1
  0
XRECORD
  5
28E5
102
{ACAD_REACTORS
330
28E4
102
}
330
28E4
100
AcDbXrecord
280
     1
102
RTVSPost2010Prop28
280
     0
102
RTVSPost2010PropOp28
 70
     1
102
RTVSPost2010Prop29
280
     1
102
RTVSPost2010PropOp29
 70
     1
102
RTVSPost2010Prop30
280
     1
102
RTVSPost2010PropOp30
 70
     1
102
RTVSPost2010Prop31
280
     0
102
RTVSPost2010PropOp31
 70
     1
102
RTVSPost2010Prop32
280
     0
102
RTVSPost2010PropOp32
 70
     1
102
RTVSPost2010Prop33
280
     0
102
RTVSPost2010PropOp33
 70
     1
102
RTVSPost2010Prop34
280
     0
102
RTVSPost2010PropOp34
 70
     1
102
RTVSPost2010Prop35
280
     0
102
RTVSPost2010PropOp35
 70
     1
102
RTVSPost2010Prop36
280
     0
102
RTVSPost2010PropOp36
 70
     1
102
RTVSPost2010Prop37
 90
       50
102
RTVSPost2010PropOp37
 70
     1
102
RTVSPost2010Prop38
140
0.0
102
RTVSPost2010PropOp38
 70
     1
102
RTVSPost2010Prop39
140
1.0
102
RTVSPost2010PropOp39
 70
     1
102
RTVSPost2010Prop40
 90
        0
102
RTVSPost2010PropOp40
 70
     1
102
RTVSPost2010Prop41ColorIndex
 90
       18
102
RTVSPost2010Prop41ColorRGB
 90
        0
102
RTVSPost2010PropOp41
 70
     1
102
RTVSPost2010Prop42
 90
       50
102
RTVSPost2010PropOp42
 70
     1
102
RTVSPost2010Prop43
 90
        3
102
RTVSPost2010PropOp43
 70
     1
102
RTVSPost2010Prop44ColorIndex
 90
        5
102
RTVSPost2010Prop44ColorRGB
 90
      255
102
RTVSPost2010PropOp44
 70
     1
102
RTVSPost2010Prop45
280
     0
102
RTVSPost2010PropOp45
 70
     1
102
RTVSPost2010Prop46
 90
       50
102
RTVSPost2010PropOp46
 70
     1
102
RTVSPost2010Prop47
 90
       50
102
RTVSPost2010PropOp47
 70
     1
102
RTVSPost2010Prop48
 90
       50
102
RTVSPost2010PropOp48
 70
     1
102
RTVSPost2010Prop49
280
     0
102
RTVSPost2010PropOp49
 70
     1
102
RTVSPost2010Prop50
 90
       50
102
RTVSPost2010PropOp50
 70
     1
102
RTVSPost2010Prop51ColorIndex
 90
      256
102
RTVSPost2010Prop51ColorRGB
 90
-16777216
102
RTVSPost2010PropOp51
 70
     0
102
RTVSPost2010Prop52
140
1.0
102
RTVSPost2010PropOp52
 70
     0
102
RTVSPost2010Prop53
 90
        2
102
RTVSPost2010PropOp53
 70
     1
102
RTVSPost2010Prop54
  1
strokes_ogs.tif
102
RTVSPost2010PropOp54
 70
     1
102
RTVSPost2010Prop55
280
     0
102
RTVSPost2010PropOp55
 70
     1
102
RTVSPost2010Prop56
140
1.0
102
RTVSPost2010PropOp56
 70
     1
102
RTVSPost2010Prop57
140
1.0
102
RTVSPost2010PropOp57
 70
     1
102
RTVSPropertyOp0
 70
     1
102
RTVSPropertyOp1
 70
     1
102
RTVSPropertyOp2
 70
     1
102
RTVSPropertyOp3
 70
     1
102
RTVSPropertyOp4
 70
     1
102
RTVSPropertyOp5
 70
     1
102
RTVSPropertyOp6
 70
     1
102
RTVSPropertyOp7
 70
     1
102
RTVSPropertyOp8
 70
     1
102
RTVSPropertyOp9
 70
     1
102
RTVSPropertyOp10
 70
     1
102
RTVSPropertyOp11
 70
     1
102
RTVSPropertyOp12
 70
     1
102
RTVSPropertyOp13
 70
     1
102
RTVSPropertyOp14
 70
     1
102
RTVSPropertyOp15
 70
     1
102
RTVSPropertyOp16
 70
     1
102
RTVSPropertyOp17
 70
     1
102
RTVSPropertyOp18
 70
     1
102
RTVSPropertyOp19
 70
     1
102
RTVSPropertyOp20
 70
     1
102
RTVSPropertyOp21
 70
     1
102
RTVSPropertyOp22
 70
     1
102
RTVSPropertyOp23
 70
     1
102
RTVSPropertyOp24
 70
     1
102
RTVSPropertyOp25
 70
     1
102
RTVSPropertyOp26
 70
     1
102
RTVSPropertyOp27
 70
     1
102
RTVSPropertyOp28
 70
     1
102
RTVSPropertyOp29
 70
     1
102
RTVSPropertyOp30
 70
     1
102
RTVSPropertyOp31
 70
     1
102
RTVSPropertyOp32
 70
     1
102
RTVSPropertyOp33
 70
     1
102
RTVSPropertyOp34
 70
     1
102
RTVSPropertyOp35
 70
     1
102
RTVSPropertyOp36
 70
     1
102
RTVSPropertyOp37
 70
     1
102
RTVSPropertyOp38
 70
     1
102
RTVSPropertyOp39
 70
     1
102
RTVSPropertyOp40
 70
     1
102
RTVSPropertyOp41
 70
     1
102
RTVSPropertyOp42
 70
     1
102
RTVSPropertyOp43
 70
     1
102
RTVSPropertyOp44
 70
     1
102
RTVSPropertyOp45
 70
     1
102
RTVSPropertyOp46
 70
     1
102
RTVSPropertyOp47
 70
     1
102
RTVSPropertyOp48
 70
     1
102
RTVSPropertyOp49
 70
     1
102
RTVSPropertyOp50
 70
     1
102
RTVSPropertyOp51
 70
     0
102
RTVSPropertyOp52
 70
     0
102
RTVSPropertyOp53
 70
     1
102
RTVSPropertyOp54
 70
     1
102
RTVSPropertyOp55
 70
     1
102
RTVSPropertyOp56
 70
     1
102
RTVSPropertyOp57
 70
     1
102
RTVSPropertyOp58
 70
     1
102
RTVSPropertyOp59
 70
     1
102
RTVSPropertyOp60
 70
     1
102
RTVSPropertyOp61
 70
     1
102
RTVSPropertyOp62
 70
     1
  0
XRECORD
  5
28E9
102
{ACAD_REACTORS
330
28E8
102
}
330
28E8
100
AcDbXrecord
280
     1
102
RTVSPost2010Prop28
280
     0
102
RTVSPost2010PropOp28
 70
     1
102
RTVSPost2010Prop29
280
     1
102
RTVSPost2010PropOp29
 70
     1
102
RTVSPost2010Prop30
280
     1
102
RTVSPost2010PropOp30
 70
     1
102
RTVSPost2010Prop31
280
     0
102
RTVSPost2010PropOp31
 70
     1
102
RTVSPost2010Prop32
280
     0
102
RTVSPost2010PropOp32
 70
     1
102
RTVSPost2010Prop33
280
     0
102
RTVSPost2010PropOp33
 70
     1
102
RTVSPost2010Prop34
280
     0
102
RTVSPost2010PropOp34
 70
     1
102
RTVSPost2010Prop35
280
     0
102
RTVSPost2010PropOp35
 70
     1
102
RTVSPost2010Prop36
280
     0
102
RTVSPost2010PropOp36
 70
     1
102
RTVSPost2010Prop37
 90
       50
102
RTVSPost2010PropOp37
 70
     1
102
RTVSPost2010Prop38
140
0.0
102
RTVSPost2010PropOp38
 70
     1
102
RTVSPost2010Prop39
140
1.0
102
RTVSPost2010PropOp39
 70
     1
102
RTVSPost2010Prop40
 90
        0
102
RTVSPost2010PropOp40
 70
     1
102
RTVSPost2010Prop41ColorIndex
 90
       18
102
RTVSPost2010Prop41ColorRGB
 90
        0
102
RTVSPost2010PropOp41
 70
     1
102
RTVSPost2010Prop42
 90
       50
102
RTVSPost2010PropOp42
 70
     1
102
RTVSPost2010Prop43
 90
        3
102
RTVSPost2010PropOp43
 70
     1
102
RTVSPost2010Prop44ColorIndex
 90
        5
102
RTVSPost2010Prop44ColorRGB
 90
      255
102
RTVSPost2010PropOp44
 70
     1
102
RTVSPost2010Prop45
280
     0
102
RTVSPost2010PropOp45
 70
     1
102
RTVSPost2010Prop46
 90
       50
102
RTVSPost2010PropOp46
 70
     1
102
RTVSPost2010Prop47
 90
       50
102
RTVSPost2010PropOp47
 70
     1
102
RTVSPost2010Prop48
 90
       50
102
RTVSPost2010PropOp48
 70
     1
102
RTVSPost2010Prop49
280
     0
102
RTVSPost2010PropOp49
 70
     1
102
RTVSPost2010Prop50
 90
       50
102
RTVSPost2010PropOp50
 70
     1
102
RTVSPost2010Prop51ColorIndex
 90
      256
102
RTVSPost2010Prop51ColorRGB
 90
-16777216
102
RTVSPost2010PropOp51
 70
     0
102
RTVSPost2010Prop52
140
1.0
102
RTVSPost2010PropOp52
 70
     0
102
RTVSPost2010Prop53
 90
        2
102
RTVSPost2010PropOp53
 70
     1
102
RTVSPost2010Prop54
  1
strokes_ogs.tif
102
RTVSPost2010PropOp54
 70
     1
102
RTVSPost2010Prop55
280
     0
102
RTVSPost2010PropOp55
 70
     1
102
RTVSPost2010Prop56
140
1.0
102
RTVSPost2010PropOp56
 70
     1
102
RTVSPost2010Prop57
140
1.0
102
RTVSPost2010PropOp57
 70
     1
102
RTVSPropertyOp0
 70
     1
102
RTVSPropertyOp1
 70
     1
102
RTVSPropertyOp2
 70
     1
102
RTVSPropertyOp3
 70
     1
102
RTVSPropertyOp4
 70
     1
102
RTVSPropertyOp5
 70
     1
102
RTVSPropertyOp6
 70
     1
102
RTVSPropertyOp7
 70
     1
102
RTVSPropertyOp8
 70
     1
102
RTVSPropertyOp9
 70
     1
102
RTVSPropertyOp10
 70
     1
102
RTVSPropertyOp11
 70
     1
102
RTVSPropertyOp12
 70
     1
102
RTVSPropertyOp13
 70
     1
102
RTVSPropertyOp14
 70
     1
102
RTVSPropertyOp15
 70
     1
102
RTVSPropertyOp16
 70
     1
102
RTVSPropertyOp17
 70
     1
102
RTVSPropertyOp18
 70
     1
102
RTVSPropertyOp19
 70
     1
102
RTVSPropertyOp20
 70
     1
102
RTVSPropertyOp21
 70
     1
102
RTVSPropertyOp22
 70
     1
102
RTVSPropertyOp23
 70
     1
102
RTVSPropertyOp24
 70
     1
102
RTVSPropertyOp25
 70
     1
102
RTVSPropertyOp26
 70
     1
102
RTVSPropertyOp27
 70
     1
102
RTVSPropertyOp28
 70
     1
102
RTVSPropertyOp29
 70
     1
102
RTVSPropertyOp30
 70
     1
102
RTVSPropertyOp31
 70
     1
102
RTVSPropertyOp32
 70
     1
102
RTVSPropertyOp33
 70
     1
102
RTVSPropertyOp34
 70
     1
102
RTVSPropertyOp35
 70
     1
102
RTVSPropertyOp36
 70
     1
102
RTVSPropertyOp37
 70
     1
102
RTVSPropertyOp38
 70
     1
102
RTVSPropertyOp39
 70
     1
102
RTVSPropertyOp40
 70
     1
102
RTVSPropertyOp41
 70
     1
102
RTVSPropertyOp42
 70
     1
102
RTVSPropertyOp43
 70
     1
102
RTVSPropertyOp44
 70
     1
102
RTVSPropertyOp45
 70
     1
102
RTVSPropertyOp46
 70
     1
102
RTVSPropertyOp47
 70
     1
102
RTVSPropertyOp48
 70
     1
102
RTVSPropertyOp49
 70
     1
102
RTVSPropertyOp50
 70
     1
102
RTVSPropertyOp51
 70
     0
102
RTVSPropertyOp52
 70
     0
102
RTVSPropertyOp53
 70
     1
102
RTVSPropertyOp54
 70
     1
102
RTVSPropertyOp55
 70
     1
102
RTVSPropertyOp56
 70
     1
102
RTVSPropertyOp57
 70
     1
102
RTVSPropertyOp58
 70
     1
102
RTVSPropertyOp59
 70
     1
102
RTVSPropertyOp60
 70
     1
102
RTVSPropertyOp61
 70
     1
102
RTVSPropertyOp62
 70
     1
  0
XRECORD
  5
2903
102
{ACAD_REACTORS
330
2902
102
}
330
2902
100
AcDbXrecord
280
     1
102
RTVSPost2010Prop28
280
     0
102
RTVSPost2010PropOp28
 70
     1
102
RTVSPost2010Prop29
280
     1
102
RTVSPost2010PropOp29
 70
     1
102
RTVSPost2010Prop30
280
     1
102
RTVSPost2010PropOp30
 70
     1
102
RTVSPost2010Prop31
280
     0
102
RTVSPost2010PropOp31
 70
     1
102
RTVSPost2010Prop32
280
     0
102
RTVSPost2010PropOp32
 70
     1
102
RTVSPost2010Prop33
280
     0
102
RTVSPost2010PropOp33
 70
     1
102
RTVSPost2010Prop34
280
     0
102
RTVSPost2010PropOp34
 70
     1
102
RTVSPost2010Prop35
280
     0
102
RTVSPost2010PropOp35
 70
     1
102
RTVSPost2010Prop36
280
     0
102
RTVSPost2010PropOp36
 70
     1
102
RTVSPost2010Prop37
 90
       50
102
RTVSPost2010PropOp37
 70
     0
102
RTVSPost2010Prop38
140
0.0
102
RTVSPost2010PropOp38
 70
     0
102
RTVSPost2010Prop39
140
1.0
102
RTVSPost2010PropOp39
 70
     0
102
RTVSPost2010Prop40
 90
        0
102
RTVSPost2010PropOp40
 70
     0
102
RTVSPost2010Prop41ColorIndex
 90
       18
102
RTVSPost2010Prop41ColorRGB
 90
        0
102
RTVSPost2010PropOp41
 70
     0
102
RTVSPost2010Prop42
 90
       50
102
RTVSPost2010PropOp42
 70
     0
102
RTVSPost2010Prop43
 90
        3
102
RTVSPost2010PropOp43
 70
     0
102
RTVSPost2010Prop44ColorIndex
 90
        5
102
RTVSPost2010Prop44ColorRGB
 90
      255
102
RTVSPost2010PropOp44
 70
     0
102
RTVSPost2010Prop45
280
     0
102
RTVSPost2010PropOp45
 70
     1
102
RTVSPost2010Prop46
 90
       50
102
RTVSPost2010PropOp46
 70
     0
102
RTVSPost2010Prop47
 90
       50
102
RTVSPost2010PropOp47
 70
     0
102
RTVSPost2010Prop48
 90
       50
102
RTVSPost2010PropOp48
 70
     0
102
RTVSPost2010Prop49
280
     0
102
RTVSPost2010PropOp49
 70
     1
102
RTVSPost2010Prop50
 90
       50
102
RTVSPost2010PropOp50
 70
     0
102
RTVSPost2010Prop51ColorIndex
 90
      256
102
RTVSPost2010Prop51ColorRGB
 90
-16777216
102
RTVSPost2010PropOp51
 70
     0
102
RTVSPost2010Prop52
140
1.0
102
RTVSPost2010PropOp52
 70
     0
102
RTVSPost2010Prop53
 90
        2
102
RTVSPost2010PropOp53
 70
     0
102
RTVSPost2010Prop54
  1
strokes_ogs.tif
102
RTVSPost2010PropOp54
 70
     0
102
RTVSPost2010Prop55
280
     0
102
RTVSPost2010PropOp55
 70
     1
102
RTVSPost2010Prop56
140
1.0
102
RTVSPost2010PropOp56
 70
     0
102
RTVSPost2010Prop57
140
1.0
102
RTVSPost2010PropOp57
 70
     0
102
RTVSPropertyOp0
 70
     0
102
RTVSPropertyOp1
 70
     0
102
RTVSPropertyOp2
 70
     0
102
RTVSPropertyOp3
 70
     0
102
RTVSPropertyOp4
 70
     0
102
RTVSPropertyOp5
 70
     0
102
RTVSPropertyOp6
 70
     0
102
RTVSPropertyOp7
 70
     0
102
RTVSPropertyOp8
 70
     0
102
RTVSPropertyOp9
 70
     0
102
RTVSPropertyOp10
 70
     0
102
RTVSPropertyOp11
 70
     0
102
RTVSPropertyOp12
 70
     0
102
RTVSPropertyOp13
 70
     0
102
RTVSPropertyOp14
 70
     2
102
RTVSPropertyOp15
 70
     0
102
RTVSPropertyOp16
 70
     0
102
RTVSPropertyOp17
 70
     0
102
RTVSPropertyOp18
 70
     0
102
RTVSPropertyOp19
 70
     0
102
RTVSPropertyOp20
 70
     0
102
RTVSPropertyOp21
 70
     0
102
RTVSPropertyOp22
 70
     0
102
RTVSPropertyOp23
 70
     0
102
RTVSPropertyOp24
 70
     0
102
RTVSPropertyOp25
 70
     0
102
RTVSPropertyOp26
 70
     0
102
RTVSPropertyOp27
 70
     0
102
RTVSPropertyOp28
 70
     1
102
RTVSPropertyOp29
 70
     1
102
RTVSPropertyOp30
 70
     1
102
RTVSPropertyOp31
 70
     1
102
RTVSPropertyOp32
 70
     1
102
RTVSPropertyOp33
 70
     1
102
RTVSPropertyOp34
 70
     1
102
RTVSPropertyOp35
 70
     1
102
RTVSPropertyOp36
 70
     1
102
RTVSPropertyOp37
 70
     0
102
RTVSPropertyOp38
 70
     0
102
RTVSPropertyOp39
 70
     0
102
RTVSPropertyOp40
 70
     0
102
RTVSPropertyOp41
 70
     0
102
RTVSPropertyOp42
 70
     0
102
RTVSPropertyOp43
 70
     0
102
RTVSPropertyOp44
 70
     0
102
RTVSPropertyOp45
 70
     1
102
RTVSPropertyOp46
 70
     0
102
RTVSPropertyOp47
 70
     0
102
RTVSPropertyOp48
 70
     0
102
RTVSPropertyOp49
 70
     1
102
RTVSPropertyOp50
 70
     0
102
RTVSPropertyOp51
 70
     0
102
RTVSPropertyOp52
 70
     0
102
RTVSPropertyOp53
 70
     0
102
RTVSPropertyOp54
 70
     0
102
RTVSPropertyOp55
 70
     1
102
RTVSPropertyOp56
 70
     0
102
RTVSPropertyOp57
 70
     0
102
RTVSPropertyOp58
 70
     0
102
RTVSPropertyOp59
 70
     0
102
RTVSPropertyOp60
 70
     0
102
RTVSPropertyOp61
 70
     0
102
RTVSPropertyOp62
 70
     0
  0
XRECORD
  5
28F1
102
{ACAD_REACTORS
330
28F0
102
}
330
28F0
100
AcDbXrecord
280
     1
102
RTVSPost2010Prop28
280
     0
102
RTVSPost2010PropOp28
 70
     1
102
RTVSPost2010Prop29
280
     1
102
RTVSPost2010PropOp29
 70
     1
102
RTVSPost2010Prop30
280
     1
102
RTVSPost2010PropOp30
 70
     1
102
RTVSPost2010Prop31
280
     0
102
RTVSPost2010PropOp31
 70
     1
102
RTVSPost2010Prop32
280
     0
102
RTVSPost2010PropOp32
 70
     1
102
RTVSPost2010Prop33
280
     0
102
RTVSPost2010PropOp33
 70
     1
102
RTVSPost2010Prop34
280
     0
102
RTVSPost2010PropOp34
 70
     1
102
RTVSPost2010Prop35
280
     0
102
RTVSPost2010PropOp35
 70
     1
102
RTVSPost2010Prop36
280
     0
102
RTVSPost2010PropOp36
 70
     1
102
RTVSPost2010Prop37
 90
       50
102
RTVSPost2010PropOp37
 70
     1
102
RTVSPost2010Prop38
140
0.0
102
RTVSPost2010PropOp38
 70
     1
102
RTVSPost2010Prop39
140
1.0
102
RTVSPost2010PropOp39
 70
     1
102
RTVSPost2010Prop40
 90
        0
102
RTVSPost2010PropOp40
 70
     1
102
RTVSPost2010Prop41ColorIndex
 90
       18
102
RTVSPost2010Prop41ColorRGB
 90
        0
102
RTVSPost2010PropOp41
 70
     1
102
RTVSPost2010Prop42
 90
       50
102
RTVSPost2010PropOp42
 70
     1
102
RTVSPost2010Prop43
 90
        3
102
RTVSPost2010PropOp43
 70
     1
102
RTVSPost2010Prop44ColorIndex
 90
        5
102
RTVSPost2010Prop44ColorRGB
 90
      255
102
RTVSPost2010PropOp44
 70
     1
102
RTVSPost2010Prop45
280
     0
102
RTVSPost2010PropOp45
 70
     1
102
RTVSPost2010Prop46
 90
       50
102
RTVSPost2010PropOp46
 70
     1
102
RTVSPost2010Prop47
 90
       50
102
RTVSPost2010PropOp47
 70
     1
102
RTVSPost2010Prop48
 90
       50
102
RTVSPost2010PropOp48
 70
     1
102
RTVSPost2010Prop49
280
     0
102
RTVSPost2010PropOp49
 70
     1
102
RTVSPost2010Prop50
 90
       50
102
RTVSPost2010PropOp50
 70
     1
102
RTVSPost2010Prop51ColorIndex
 90
      256
102
RTVSPost2010Prop51ColorRGB
 90
-16777216
102
RTVSPost2010PropOp51
 70
     0
102
RTVSPost2010Prop52
140
1.0
102
RTVSPost2010PropOp52
 70
     0
102
RTVSPost2010Prop53
 90
        2
102
RTVSPost2010PropOp53
 70
     1
102
RTVSPost2010Prop54
  1
strokes_ogs.tif
102
RTVSPost2010PropOp54
 70
     1
102
RTVSPost2010Prop55
280
     0
102
RTVSPost2010PropOp55
 70
     1
102
RTVSPost2010Prop56
140
1.0
102
RTVSPost2010PropOp56
 70
     1
102
RTVSPost2010Prop57
140
1.0
102
RTVSPost2010PropOp57
 70
     1
102
RTVSPropertyOp0
 70
     1
102
RTVSPropertyOp1
 70
     1
102
RTVSPropertyOp2
 70
     1
102
RTVSPropertyOp3
 70
     1
102
RTVSPropertyOp4
 70
     1
102
RTVSPropertyOp5
 70
     1
102
RTVSPropertyOp6
 70
     1
102
RTVSPropertyOp7
 70
     1
102
RTVSPropertyOp8
 70
     1
102
RTVSPropertyOp9
 70
     1
102
RTVSPropertyOp10
 70
     1
102
RTVSPropertyOp11
 70
     1
102
RTVSPropertyOp12
 70
     1
102
RTVSPropertyOp13
 70
     1
102
RTVSPropertyOp14
 70
     1
102
RTVSPropertyOp15
 70
     1
102
RTVSPropertyOp16
 70
     1
102
RTVSPropertyOp17
 70
     1
102
RTVSPropertyOp18
 70
     1
102
RTVSPropertyOp19
 70
     1
102
RTVSPropertyOp20
 70
     1
102
RTVSPropertyOp21
 70
     1
102
RTVSPropertyOp22
 70
     1
102
RTVSPropertyOp23
 70
     1
102
RTVSPropertyOp24
 70
     1
102
RTVSPropertyOp25
 70
     1
102
RTVSPropertyOp26
 70
     1
102
RTVSPropertyOp27
 70
     1
102
RTVSPropertyOp28
 70
     1
102
RTVSPropertyOp29
 70
     1
102
RTVSPropertyOp30
 70
     1
102
RTVSPropertyOp31
 70
     1
102
RTVSPropertyOp32
 70
     1
102
RTVSPropertyOp33
 70
     1
102
RTVSPropertyOp34
 70
     1
102
RTVSPropertyOp35
 70
     1
102
RTVSPropertyOp36
 70
     1
102
RTVSPropertyOp37
 70
     1
102
RTVSPropertyOp38
 70
     1
102
RTVSPropertyOp39
 70
     1
102
RTVSPropertyOp40
 70
     1
102
RTVSPropertyOp41
 70
     1
102
RTVSPropertyOp42
 70
     1
102
RTVSPropertyOp43
 70
     1
102
RTVSPropertyOp44
 70
     1
102
RTVSPropertyOp45
 70
     1
102
RTVSPropertyOp46
 70
     1
102
RTVSPropertyOp47
 70
     1
102
RTVSPropertyOp48
 70
     1
102
RTVSPropertyOp49
 70
     1
102
RTVSPropertyOp50
 70
     1
102
RTVSPropertyOp51
 70
     0
102
RTVSPropertyOp52
 70
     0
102
RTVSPropertyOp53
 70
     1
102
RTVSPropertyOp54
 70
     1
102
RTVSPropertyOp55
 70
     1
102
RTVSPropertyOp56
 70
     1
102
RTVSPropertyOp57
 70
     1
102
RTVSPropertyOp58
 70
     1
102
RTVSPropertyOp59
 70
     1
102
RTVSPropertyOp60
 70
     1
102
RTVSPropertyOp61
 70
     1
102
RTVSPropertyOp62
 70
     1
  0
XRECORD
  5
28D5
102
{ACAD_REACTORS
330
28D4
102
}
330
28D4
100
AcDbXrecord
280
     1
102
RTVSPost2010Prop28
280
     0
102
RTVSPost2010PropOp28
 70
     1
102
RTVSPost2010Prop29
280
     1
102
RTVSPost2010PropOp29
 70
     1
102
RTVSPost2010Prop30
280
     1
102
RTVSPost2010PropOp30
 70
     1
102
RTVSPost2010Prop31
280
     0
102
RTVSPost2010PropOp31
 70
     1
102
RTVSPost2010Prop32
280
     0
102
RTVSPost2010PropOp32
 70
     1
102
RTVSPost2010Prop33
280
     0
102
RTVSPost2010PropOp33
 70
     1
102
RTVSPost2010Prop34
280
     0
102
RTVSPost2010PropOp34
 70
     1
102
RTVSPost2010Prop35
280
     0
102
RTVSPost2010PropOp35
 70
     1
102
RTVSPost2010Prop36
280
     0
102
RTVSPost2010PropOp36
 70
     1
102
RTVSPost2010Prop37
 90
       50
102
RTVSPost2010PropOp37
 70
     1
102
RTVSPost2010Prop38
140
0.0
102
RTVSPost2010PropOp38
 70
     1
102
RTVSPost2010Prop39
140
1.0
102
RTVSPost2010PropOp39
 70
     1
102
RTVSPost2010Prop40
 90
        0
102
RTVSPost2010PropOp40
 70
     1
102
RTVSPost2010Prop41ColorIndex
 90
       18
102
RTVSPost2010Prop41ColorRGB
 90
        0
102
RTVSPost2010PropOp41
 70
     1
102
RTVSPost2010Prop42
 90
       50
102
RTVSPost2010PropOp42
 70
     1
102
RTVSPost2010Prop43
 90
        3
102
RTVSPost2010PropOp43
 70
     1
102
RTVSPost2010Prop44ColorIndex
 90
        5
102
RTVSPost2010Prop44ColorRGB
 90
      255
102
RTVSPost2010PropOp44
 70
     1
102
RTVSPost2010Prop45
280
     0
102
RTVSPost2010PropOp45
 70
     1
102
RTVSPost2010Prop46
 90
       50
102
RTVSPost2010PropOp46
 70
     1
102
RTVSPost2010Prop47
 90
       50
102
RTVSPost2010PropOp47
 70
     1
102
RTVSPost2010Prop48
 90
       50
102
RTVSPost2010PropOp48
 70
     1
102
RTVSPost2010Prop49
280
     0
102
RTVSPost2010PropOp49
 70
     1
102
RTVSPost2010Prop50
 90
       50
102
RTVSPost2010PropOp50
 70
     1
102
RTVSPost2010Prop51ColorIndex
 90
      256
102
RTVSPost2010Prop51ColorRGB
 90
-16777216
102
RTVSPost2010PropOp51
 70
     0
102
RTVSPost2010Prop52
140
1.0
102
RTVSPost2010PropOp52
 70
     0
102
RTVSPost2010Prop53
 90
        2
102
RTVSPost2010PropOp53
 70
     1
102
RTVSPost2010Prop54
  1
strokes_ogs.tif
102
RTVSPost2010PropOp54
 70
     1
102
RTVSPost2010Prop55
280
     0
102
RTVSPost2010PropOp55
 70
     1
102
RTVSPost2010Prop56
140
1.0
102
RTVSPost2010PropOp56
 70
     1
102
RTVSPost2010Prop57
140
1.0
102
RTVSPost2010PropOp57
 70
     1
102
RTVSPropertyOp0
 70
     1
102
RTVSPropertyOp1
 70
     1
102
RTVSPropertyOp2
 70
     1
102
RTVSPropertyOp3
 70
     1
102
RTVSPropertyOp4
 70
     1
102
RTVSPropertyOp5
 70
     1
102
RTVSPropertyOp6
 70
     1
102
RTVSPropertyOp7
 70
     1
102
RTVSPropertyOp8
 70
     1
102
RTVSPropertyOp9
 70
     1
102
RTVSPropertyOp10
 70
     1
102
RTVSPropertyOp11
 70
     1
102
RTVSPropertyOp12
 70
     1
102
RTVSPropertyOp13
 70
     1
102
RTVSPropertyOp14
 70
     1
102
RTVSPropertyOp15
 70
     1
102
RTVSPropertyOp16
 70
     1
102
RTVSPropertyOp17
 70
     1
102
RTVSPropertyOp18
 70
     1
102
RTVSPropertyOp19
 70
     1
102
RTVSPropertyOp20
 70
     1
102
RTVSPropertyOp21
 70
     1
102
RTVSPropertyOp22
 70
     1
102
RTVSPropertyOp23
 70
     1
102
RTVSPropertyOp24
 70
     1
102
RTVSPropertyOp25
 70
     1
102
RTVSPropertyOp26
 70
     1
102
RTVSPropertyOp27
 70
     1
102
RTVSPropertyOp28
 70
     1
102
RTVSPropertyOp29
 70
     1
102
RTVSPropertyOp30
 70
     1
102
RTVSPropertyOp31
 70
     1
102
RTVSPropertyOp32
 70
     1
102
RTVSPropertyOp33
 70
     1
102
RTVSPropertyOp34
 70
     1
102
RTVSPropertyOp35
 70
     1
102
RTVSPropertyOp36
 70
     1
102
RTVSPropertyOp37
 70
     1
102
RTVSPropertyOp38
 70
     1
102
RTVSPropertyOp39
 70
     1
102
RTVSPropertyOp40
 70
     1
102
RTVSPropertyOp41
 70
     1
102
RTVSPropertyOp42
 70
     1
102
RTVSPropertyOp43
 70
     1
102
RTVSPropertyOp44
 70
     1
102
RTVSPropertyOp45
 70
     1
102
RTVSPropertyOp46
 70
     1
102
RTVSPropertyOp47
 70
     1
102
RTVSPropertyOp48
 70
     1
102
RTVSPropertyOp49
 70
     1
102
RTVSPropertyOp50
 70
     1
102
RTVSPropertyOp51
 70
     0
102
RTVSPropertyOp52
 70
     0
102
RTVSPropertyOp53
 70
     1
102
RTVSPropertyOp54
 70
     1
102
RTVSPropertyOp55
 70
     1
102
RTVSPropertyOp56
 70
     1
102
RTVSPropertyOp57
 70
     1
102
RTVSPropertyOp58
 70
     1
102
RTVSPropertyOp59
 70
     1
102
RTVSPropertyOp60
 70
     1
102
RTVSPropertyOp61
 70
     1
102
RTVSPropertyOp62
 70
     1
  0
XRECORD
  5
28D7
102
{ACAD_REACTORS
330
28D6
102
}
330
28D6
100
AcDbXrecord
280
     1
102
RTVSPost2010Prop28
280
     0
102
RTVSPost2010PropOp28
 70
     1
102
RTVSPost2010Prop29
280
     1
102
RTVSPost2010PropOp29
 70
     1
102
RTVSPost2010Prop30
280
     1
102
RTVSPost2010PropOp30
 70
     1
102
RTVSPost2010Prop31
280
     0
102
RTVSPost2010PropOp31
 70
     1
102
RTVSPost2010Prop32
280
     0
102
RTVSPost2010PropOp32
 70
     1
102
RTVSPost2010Prop33
280
     0
102
RTVSPost2010PropOp33
 70
     1
102
RTVSPost2010Prop34
280
     0
102
RTVSPost2010PropOp34
 70
     1
102
RTVSPost2010Prop35
280
     0
102
RTVSPost2010PropOp35
 70
     1
102
RTVSPost2010Prop36
280
     0
102
RTVSPost2010PropOp36
 70
     1
102
RTVSPost2010Prop37
 90
       50
102
RTVSPost2010PropOp37
 70
     1
102
RTVSPost2010Prop38
140
0.0
102
RTVSPost2010PropOp38
 70
     1
102
RTVSPost2010Prop39
140
1.0
102
RTVSPost2010PropOp39
 70
     1
102
RTVSPost2010Prop40
 90
        0
102
RTVSPost2010PropOp40
 70
     1
102
RTVSPost2010Prop41ColorIndex
 90
       18
102
RTVSPost2010Prop41ColorRGB
 90
        0
102
RTVSPost2010PropOp41
 70
     1
102
RTVSPost2010Prop42
 90
       50
102
RTVSPost2010PropOp42
 70
     1
102
RTVSPost2010Prop43
 90
        3
102
RTVSPost2010PropOp43
 70
     1
102
RTVSPost2010Prop44ColorIndex
 90
        5
102
RTVSPost2010Prop44ColorRGB
 90
      255
102
RTVSPost2010PropOp44
 70
     1
102
RTVSPost2010Prop45
280
     0
102
RTVSPost2010PropOp45
 70
     1
102
RTVSPost2010Prop46
 90
       50
102
RTVSPost2010PropOp46
 70
     1
102
RTVSPost2010Prop47
 90
       50
102
RTVSPost2010PropOp47
 70
     1
102
RTVSPost2010Prop48
 90
       50
102
RTVSPost2010PropOp48
 70
     1
102
RTVSPost2010Prop49
280
     0
102
RTVSPost2010PropOp49
 70
     1
102
RTVSPost2010Prop50
 90
       50
102
RTVSPost2010PropOp50
 70
     1
102
RTVSPost2010Prop51ColorIndex
 90
      256
102
RTVSPost2010Prop51ColorRGB
 90
-16777216
102
RTVSPost2010PropOp51
 70
     0
102
RTVSPost2010Prop52
140
1.0
102
RTVSPost2010PropOp52
 70
     0
102
RTVSPost2010Prop53
 90
        2
102
RTVSPost2010PropOp53
 70
     1
102
RTVSPost2010Prop54
  1
strokes_ogs.tif
102
RTVSPost2010PropOp54
 70
     1
102
RTVSPost2010Prop55
280
     0
102
RTVSPost2010PropOp55
 70
     1
102
RTVSPost2010Prop56
140
1.0
102
RTVSPost2010PropOp56
 70
     1
102
RTVSPost2010Prop57
140
1.0
102
RTVSPost2010PropOp57
 70
     1
102
RTVSPropertyOp0
 70
     1
102
RTVSPropertyOp1
 70
     1
102
RTVSPropertyOp2
 70
     1
102
RTVSPropertyOp3
 70
     1
102
RTVSPropertyOp4
 70
     1
102
RTVSPropertyOp5
 70
     1
102
RTVSPropertyOp6
 70
     1
102
RTVSPropertyOp7
 70
     1
102
RTVSPropertyOp8
 70
     1
102
RTVSPropertyOp9
 70
     1
102
RTVSPropertyOp10
 70
     1
102
RTVSPropertyOp11
 70
     1
102
RTVSPropertyOp12
 70
     1
102
RTVSPropertyOp13
 70
     1
102
RTVSPropertyOp14
 70
     1
102
RTVSPropertyOp15
 70
     1
102
RTVSPropertyOp16
 70
     1
102
RTVSPropertyOp17
 70
     1
102
RTVSPropertyOp18
 70
     1
102
RTVSPropertyOp19
 70
     1
102
RTVSPropertyOp20
 70
     1
102
RTVSPropertyOp21
 70
     1
102
RTVSPropertyOp22
 70
     1
102
RTVSPropertyOp23
 70
     1
102
RTVSPropertyOp24
 70
     1
102
RTVSPropertyOp25
 70
     1
102
RTVSPropertyOp26
 70
     1
102
RTVSPropertyOp27
 70
     1
102
RTVSPropertyOp28
 70
     1
102
RTVSPropertyOp29
 70
     1
102
RTVSPropertyOp30
 70
     1
102
RTVSPropertyOp31
 70
     1
102
RTVSPropertyOp32
 70
     1
102
RTVSPropertyOp33
 70
     1
102
RTVSPropertyOp34
 70
     1
102
RTVSPropertyOp35
 70
     1
102
RTVSPropertyOp36
 70
     1
102
RTVSPropertyOp37
 70
     1
102
RTVSPropertyOp38
 70
     1
102
RTVSPropertyOp39
 70
     1
102
RTVSPropertyOp40
 70
     1
102
RTVSPropertyOp41
 70
     1
102
RTVSPropertyOp42
 70
     1
102
RTVSPropertyOp43
 70
     1
102
RTVSPropertyOp44
 70
     1
102
RTVSPropertyOp45
 70
     1
102
RTVSPropertyOp46
 70
     1
102
RTVSPropertyOp47
 70
     1
102
RTVSPropertyOp48
 70
     1
102
RTVSPropertyOp49
 70
     1
102
RTVSPropertyOp50
 70
     1
102
RTVSPropertyOp51
 70
     0
102
RTVSPropertyOp52
 70
     0
102
RTVSPropertyOp53
 70
     1
102
RTVSPropertyOp54
 70
     1
102
RTVSPropertyOp55
 70
     1
102
RTVSPropertyOp56
 70
     1
102
RTVSPropertyOp57
 70
     1
102
RTVSPropertyOp58
 70
     1
102
RTVSPropertyOp59
 70
     1
102
RTVSPropertyOp60
 70
     1
102
RTVSPropertyOp61
 70
     1
102
RTVSPropertyOp62
 70
     1
  0
XRECORD
  5
28D9
102
{ACAD_REACTORS
330
28D8
102
}
330
28D8
100
AcDbXrecord
280
     1
102
RTVSPost2010Prop28
280
     0
102
RTVSPost2010PropOp28
 70
     1
102
RTVSPost2010Prop29
280
     1
102
RTVSPost2010PropOp29
 70
     1
102
RTVSPost2010Prop30
280
     1
102
RTVSPost2010PropOp30
 70
     1
102
RTVSPost2010Prop31
280
     0
102
RTVSPost2010PropOp31
 70
     1
102
RTVSPost2010Prop32
280
     0
102
RTVSPost2010PropOp32
 70
     1
102
RTVSPost2010Prop33
280
     0
102
RTVSPost2010PropOp33
 70
     1
102
RTVSPost2010Prop34
280
     0
102
RTVSPost2010PropOp34
 70
     1
102
RTVSPost2010Prop35
280
     0
102
RTVSPost2010PropOp35
 70
     1
102
RTVSPost2010Prop36
280
     0
102
RTVSPost2010PropOp36
 70
     1
102
RTVSPost2010Prop37
 90
       50
102
RTVSPost2010PropOp37
 70
     1
102
RTVSPost2010Prop38
140
0.0
102
RTVSPost2010PropOp38
 70
     1
102
RTVSPost2010Prop39
140
1.0
102
RTVSPost2010PropOp39
 70
     1
102
RTVSPost2010Prop40
 90
        0
102
RTVSPost2010PropOp40
 70
     1
102
RTVSPost2010Prop41ColorIndex
 90
       18
102
RTVSPost2010Prop41ColorRGB
 90
        0
102
RTVSPost2010PropOp41
 70
     1
102
RTVSPost2010Prop42
 90
       50
102
RTVSPost2010PropOp42
 70
     1
102
RTVSPost2010Prop43
 90
        3
102
RTVSPost2010PropOp43
 70
     1
102
RTVSPost2010Prop44ColorIndex
 90
        5
102
RTVSPost2010Prop44ColorRGB
 90
      255
102
RTVSPost2010PropOp44
 70
     1
102
RTVSPost2010Prop45
280
     0
102
RTVSPost2010PropOp45
 70
     1
102
RTVSPost2010Prop46
 90
       50
102
RTVSPost2010PropOp46
 70
     1
102
RTVSPost2010Prop47
 90
       50
102
RTVSPost2010PropOp47
 70
     1
102
RTVSPost2010Prop48
 90
       50
102
RTVSPost2010PropOp48
 70
     1
102
RTVSPost2010Prop49
280
     0
102
RTVSPost2010PropOp49
 70
     1
102
RTVSPost2010Prop50
 90
       50
102
RTVSPost2010PropOp50
 70
     1
102
RTVSPost2010Prop51ColorIndex
 90
      256
102
RTVSPost2010Prop51ColorRGB
 90
-16777216
102
RTVSPost2010PropOp51
 70
     0
102
RTVSPost2010Prop52
140
1.0
102
RTVSPost2010PropOp52
 70
     0
102
RTVSPost2010Prop53
 90
        2
102
RTVSPost2010PropOp53
 70
     1
102
RTVSPost2010Prop54
  1
strokes_ogs.tif
102
RTVSPost2010PropOp54
 70
     1
102
RTVSPost2010Prop55
280
     0
102
RTVSPost2010PropOp55
 70
     1
102
RTVSPost2010Prop56
140
1.0
102
RTVSPost2010PropOp56
 70
     1
102
RTVSPost2010Prop57
140
1.0
102
RTVSPost2010PropOp57
 70
     1
102
RTVSPropertyOp0
 70
     1
102
RTVSPropertyOp1
 70
     1
102
RTVSPropertyOp2
 70
     1
102
RTVSPropertyOp3
 70
     1
102
RTVSPropertyOp4
 70
     1
102
RTVSPropertyOp5
 70
     1
102
RTVSPropertyOp6
 70
     1
102
RTVSPropertyOp7
 70
     1
102
RTVSPropertyOp8
 70
     1
102
RTVSPropertyOp9
 70
     1
102
RTVSPropertyOp10
 70
     1
102
RTVSPropertyOp11
 70
     1
102
RTVSPropertyOp12
 70
     1
102
RTVSPropertyOp13
 70
     1
102
RTVSPropertyOp14
 70
     1
102
RTVSPropertyOp15
 70
     1
102
RTVSPropertyOp16
 70
     1
102
RTVSPropertyOp17
 70
     1
102
RTVSPropertyOp18
 70
     1
102
RTVSPropertyOp19
 70
     1
102
RTVSPropertyOp20
 70
     1
102
RTVSPropertyOp21
 70
     1
102
RTVSPropertyOp22
 70
     1
102
RTVSPropertyOp23
 70
     1
102
RTVSPropertyOp24
 70
     1
102
RTVSPropertyOp25
 70
     1
102
RTVSPropertyOp26
 70
     1
102
RTVSPropertyOp27
 70
     1
102
RTVSPropertyOp28
 70
     1
102
RTVSPropertyOp29
 70
     1
102
RTVSPropertyOp30
 70
     1
102
RTVSPropertyOp31
 70
     1
102
RTVSPropertyOp32
 70
     1
102
RTVSPropertyOp33
 70
     1
102
RTVSPropertyOp34
 70
     1
102
RTVSPropertyOp35
 70
     1
102
RTVSPropertyOp36
 70
     1
102
RTVSPropertyOp37
 70
     1
102
RTVSPropertyOp38
 70
     1
102
RTVSPropertyOp39
 70
     1
102
RTVSPropertyOp40
 70
     1
102
RTVSPropertyOp41
 70
     1
102
RTVSPropertyOp42
 70
     1
102
RTVSPropertyOp43
 70
     1
102
RTVSPropertyOp44
 70
     1
102
RTVSPropertyOp45
 70
     1
102
RTVSPropertyOp46
 70
     1
102
RTVSPropertyOp47
 70
     1
102
RTVSPropertyOp48
 70
     1
102
RTVSPropertyOp49
 70
     1
102
RTVSPropertyOp50
 70
     1
102
RTVSPropertyOp51
 70
     0
102
RTVSPropertyOp52
 70
     0
102
RTVSPropertyOp53
 70
     1
102
RTVSPropertyOp54
 70
     1
102
RTVSPropertyOp55
 70
     1
102
RTVSPropertyOp56
 70
     1
102
RTVSPropertyOp57
 70
     1
102
RTVSPropertyOp58
 70
     1
102
RTVSPropertyOp59
 70
     1
102
RTVSPropertyOp60
 70
     1
102
RTVSPropertyOp61
 70
     1
102
RTVSPropertyOp62
 70
     1
  0
XRECORD
  5
28DB
102
{ACAD_REACTORS
330
28DA
102
}
330
28DA
100
AcDbXrecord
280
     1
102
RTVSPost2010Prop28
280
     0
102
RTVSPost2010PropOp28
 70
     1
102
RTVSPost2010Prop29
280
     1
102
RTVSPost2010PropOp29
 70
     1
102
RTVSPost2010Prop30
280
     1
102
RTVSPost2010PropOp30
 70
     1
102
RTVSPost2010Prop31
280
     0
102
RTVSPost2010PropOp31
 70
     1
102
RTVSPost2010Prop32
280
     0
102
RTVSPost2010PropOp32
 70
     1
102
RTVSPost2010Prop33
280
     0
102
RTVSPost2010PropOp33
 70
     1
102
RTVSPost2010Prop34
280
     0
102
RTVSPost2010PropOp34
 70
     1
102
RTVSPost2010Prop35
280
     0
102
RTVSPost2010PropOp35
 70
     1
102
RTVSPost2010Prop36
280
     0
102
RTVSPost2010PropOp36
 70
     1
102
RTVSPost2010Prop37
 90
       50
102
RTVSPost2010PropOp37
 70
     1
102
RTVSPost2010Prop38
140
0.0
102
RTVSPost2010PropOp38
 70
     1
102
RTVSPost2010Prop39
140
1.0
102
RTVSPost2010PropOp39
 70
     1
102
RTVSPost2010Prop40
 90
        0
102
RTVSPost2010PropOp40
 70
     1
102
RTVSPost2010Prop41ColorIndex
 90
       18
102
RTVSPost2010Prop41ColorRGB
 90
        0
102
RTVSPost2010PropOp41
 70
     1
102
RTVSPost2010Prop42
 90
       50
102
RTVSPost2010PropOp42
 70
     1
102
RTVSPost2010Prop43
 90
        3
102
RTVSPost2010PropOp43
 70
     1
102
RTVSPost2010Prop44ColorIndex
 90
        5
102
RTVSPost2010Prop44ColorRGB
 90
      255
102
RTVSPost2010PropOp44
 70
     1
102
RTVSPost2010Prop45
280
     0
102
RTVSPost2010PropOp45
 70
     1
102
RTVSPost2010Prop46
 90
       50
102
RTVSPost2010PropOp46
 70
     1
102
RTVSPost2010Prop47
 90
       50
102
RTVSPost2010PropOp47
 70
     1
102
RTVSPost2010Prop48
 90
       50
102
RTVSPost2010PropOp48
 70
     1
102
RTVSPost2010Prop49
280
     0
102
RTVSPost2010PropOp49
 70
     1
102
RTVSPost2010Prop50
 90
       50
102
RTVSPost2010PropOp50
 70
     1
102
RTVSPost2010Prop51ColorIndex
 90
      256
102
RTVSPost2010Prop51ColorRGB
 90
-16777216
102
RTVSPost2010PropOp51
 70
     0
102
RTVSPost2010Prop52
140
1.0
102
RTVSPost2010PropOp52
 70
     0
102
RTVSPost2010Prop53
 90
        2
102
RTVSPost2010PropOp53
 70
     1
102
RTVSPost2010Prop54
  1
strokes_ogs.tif
102
RTVSPost2010PropOp54
 70
     1
102
RTVSPost2010Prop55
280
     0
102
RTVSPost2010PropOp55
 70
     1
102
RTVSPost2010Prop56
140
1.0
102
RTVSPost2010PropOp56
 70
     1
102
RTVSPost2010Prop57
140
1.0
102
RTVSPost2010PropOp57
 70
     1
102
RTVSPropertyOp0
 70
     1
102
RTVSPropertyOp1
 70
     1
102
RTVSPropertyOp2
 70
     1
102
RTVSPropertyOp3
 70
     1
102
RTVSPropertyOp4
 70
     1
102
RTVSPropertyOp5
 70
     1
102
RTVSPropertyOp6
 70
     1
102
RTVSPropertyOp7
 70
     1
102
RTVSPropertyOp8
 70
     1
102
RTVSPropertyOp9
 70
     1
102
RTVSPropertyOp10
 70
     1
102
RTVSPropertyOp11
 70
     1
102
RTVSPropertyOp12
 70
     1
102
RTVSPropertyOp13
 70
     1
102
RTVSPropertyOp14
 70
     1
102
RTVSPropertyOp15
 70
     1
102
RTVSPropertyOp16
 70
     1
102
RTVSPropertyOp17
 70
     1
102
RTVSPropertyOp18
 70
     1
102
RTVSPropertyOp19
 70
     1
102
RTVSPropertyOp20
 70
     1
102
RTVSPropertyOp21
 70
     1
102
RTVSPropertyOp22
 70
     1
102
RTVSPropertyOp23
 70
     1
102
RTVSPropertyOp24
 70
     1
102
RTVSPropertyOp25
 70
     1
102
RTVSPropertyOp26
 70
     1
102
RTVSPropertyOp27
 70
     1
102
RTVSPropertyOp28
 70
     1
102
RTVSPropertyOp29
 70
     1
102
RTVSPropertyOp30
 70
     1
102
RTVSPropertyOp31
 70
     1
102
RTVSPropertyOp32
 70
     1
102
RTVSPropertyOp33
 70
     1
102
RTVSPropertyOp34
 70
     1
102
RTVSPropertyOp35
 70
     1
102
RTVSPropertyOp36
 70
     1
102
RTVSPropertyOp37
 70
     1
102
RTVSPropertyOp38
 70
     1
102
RTVSPropertyOp39
 70
     1
102
RTVSPropertyOp40
 70
     1
102
RTVSPropertyOp41
 70
     1
102
RTVSPropertyOp42
 70
     1
102
RTVSPropertyOp43
 70
     1
102
RTVSPropertyOp44
 70
     1
102
RTVSPropertyOp45
 70
     1
102
RTVSPropertyOp46
 70
     1
102
RTVSPropertyOp47
 70
     1
102
RTVSPropertyOp48
 70
     1
102
RTVSPropertyOp49
 70
     1
102
RTVSPropertyOp50
 70
     1
102
RTVSPropertyOp51
 70
     0
102
RTVSPropertyOp52
 70
     0
102
RTVSPropertyOp53
 70
     1
102
RTVSPropertyOp54
 70
     1
102
RTVSPropertyOp55
 70
     1
102
RTVSPropertyOp56
 70
     1
102
RTVSPropertyOp57
 70
     1
102
RTVSPropertyOp58
 70
     1
102
RTVSPropertyOp59
 70
     1
102
RTVSPropertyOp60
 70
     1
102
RTVSPropertyOp61
 70
     1
102
RTVSPropertyOp62
 70
     1
  0
XRECORD
  5
28E3
102
{ACAD_REACTORS
330
28E2
102
}
330
28E2
100
AcDbXrecord
280
     1
102
RTVSPost2010Prop28
280
     0
102
RTVSPost2010PropOp28
 70
     1
102
RTVSPost2010Prop29
280
     1
102
RTVSPost2010PropOp29
 70
     1
102
RTVSPost2010Prop30
280
     1
102
RTVSPost2010PropOp30
 70
     1
102
RTVSPost2010Prop31
280
     0
102
RTVSPost2010PropOp31
 70
     1
102
RTVSPost2010Prop32
280
     0
102
RTVSPost2010PropOp32
 70
     1
102
RTVSPost2010Prop33
280
     0
102
RTVSPost2010PropOp33
 70
     1
102
RTVSPost2010Prop34
280
     0
102
RTVSPost2010PropOp34
 70
     1
102
RTVSPost2010Prop35
280
     0
102
RTVSPost2010PropOp35
 70
     1
102
RTVSPost2010Prop36
280
     0
102
RTVSPost2010PropOp36
 70
     1
102
RTVSPost2010Prop37
 90
       50
102
RTVSPost2010PropOp37
 70
     1
102
RTVSPost2010Prop38
140
0.0
102
RTVSPost2010PropOp38
 70
     1
102
RTVSPost2010Prop39
140
1.0
102
RTVSPost2010PropOp39
 70
     1
102
RTVSPost2010Prop40
 90
        0
102
RTVSPost2010PropOp40
 70
     1
102
RTVSPost2010Prop41ColorIndex
 90
       18
102
RTVSPost2010Prop41ColorRGB
 90
        0
102
RTVSPost2010PropOp41
 70
     1
102
RTVSPost2010Prop42
 90
       50
102
RTVSPost2010PropOp42
 70
     1
102
RTVSPost2010Prop43
 90
        3
102
RTVSPost2010PropOp43
 70
     1
102
RTVSPost2010Prop44ColorIndex
 90
        5
102
RTVSPost2010Prop44ColorRGB
 90
      255
102
RTVSPost2010PropOp44
 70
     1
102
RTVSPost2010Prop45
280
     0
102
RTVSPost2010PropOp45
 70
     1
102
RTVSPost2010Prop46
 90
       50
102
RTVSPost2010PropOp46
 70
     1
102
RTVSPost2010Prop47
 90
       50
102
RTVSPost2010PropOp47
 70
     1
102
RTVSPost2010Prop48
 90
       50
102
RTVSPost2010PropOp48
 70
     1
102
RTVSPost2010Prop49
280
     0
102
RTVSPost2010PropOp49
 70
     1
102
RTVSPost2010Prop50
 90
       50
102
RTVSPost2010PropOp50
 70
     1
102
RTVSPost2010Prop51ColorIndex
 90
      256
102
RTVSPost2010Prop51ColorRGB
 90
-16777216
102
RTVSPost2010PropOp51
 70
     0
102
RTVSPost2010Prop52
140
1.0
102
RTVSPost2010PropOp52
 70
     0
102
RTVSPost2010Prop53
 90
        2
102
RTVSPost2010PropOp53
 70
     1
102
RTVSPost2010Prop54
  1
strokes_ogs.tif
102
RTVSPost2010PropOp54
 70
     1
102
RTVSPost2010Prop55
280
     0
102
RTVSPost2010PropOp55
 70
     1
102
RTVSPost2010Prop56
140
1.0
102
RTVSPost2010PropOp56
 70
     1
102
RTVSPost2010Prop57
140
1.0
102
RTVSPost2010PropOp57
 70
     1
102
RTVSPropertyOp0
 70
     1
102
RTVSPropertyOp1
 70
     1
102
RTVSPropertyOp2
 70
     1
102
RTVSPropertyOp3
 70
     1
102
RTVSPropertyOp4
 70
     1
102
RTVSPropertyOp5
 70
     1
102
RTVSPropertyOp6
 70
     1
102
RTVSPropertyOp7
 70
     1
102
RTVSPropertyOp8
 70
     1
102
RTVSPropertyOp9
 70
     1
102
RTVSPropertyOp10
 70
     1
102
RTVSPropertyOp11
 70
     1
102
RTVSPropertyOp12
 70
     1
102
RTVSPropertyOp13
 70
     1
102
RTVSPropertyOp14
 70
     1
102
RTVSPropertyOp15
 70
     1
102
RTVSPropertyOp16
 70
     1
102
RTVSPropertyOp17
 70
     1
102
RTVSPropertyOp18
 70
     1
102
RTVSPropertyOp19
 70
     1
102
RTVSPropertyOp20
 70
     1
102
RTVSPropertyOp21
 70
     1
102
RTVSPropertyOp22
 70
     1
102
RTVSPropertyOp23
 70
     1
102
RTVSPropertyOp24
 70
     1
102
RTVSPropertyOp25
 70
     1
102
RTVSPropertyOp26
 70
     1
102
RTVSPropertyOp27
 70
     1
102
RTVSPropertyOp28
 70
     1
102
RTVSPropertyOp29
 70
     1
102
RTVSPropertyOp30
 70
     1
102
RTVSPropertyOp31
 70
     1
102
RTVSPropertyOp32
 70
     1
102
RTVSPropertyOp33
 70
     1
102
RTVSPropertyOp34
 70
     1
102
RTVSPropertyOp35
 70
     1
102
RTVSPropertyOp36
 70
     1
102
RTVSPropertyOp37
 70
     1
102
RTVSPropertyOp38
 70
     1
102
RTVSPropertyOp39
 70
     1
102
RTVSPropertyOp40
 70
     1
102
RTVSPropertyOp41
 70
     1
102
RTVSPropertyOp42
 70
     1
102
RTVSPropertyOp43
 70
     1
102
RTVSPropertyOp44
 70
     1
102
RTVSPropertyOp45
 70
     1
102
RTVSPropertyOp46
 70
     1
102
RTVSPropertyOp47
 70
     1
102
RTVSPropertyOp48
 70
     1
102
RTVSPropertyOp49
 70
     1
102
RTVSPropertyOp50
 70
     1
102
RTVSPropertyOp51
 70
     0
102
RTVSPropertyOp52
 70
     0
102
RTVSPropertyOp53
 70
     1
102
RTVSPropertyOp54
 70
     1
102
RTVSPropertyOp55
 70
     1
102
RTVSPropertyOp56
 70
     1
102
RTVSPropertyOp57
 70
     1
102
RTVSPropertyOp58
 70
     1
102
RTVSPropertyOp59
 70
     1
102
RTVSPropertyOp60
 70
     1
102
RTVSPropertyOp61
 70
     1
102
RTVSPropertyOp62
 70
     1
  0
XRECORD
  5
28FF
102
{ACAD_REACTORS
330
28FE
102
}
330
28FE
100
AcDbXrecord
280
     1
102
RTVSPost2010Prop28
280
     0
102
RTVSPost2010PropOp28
 70
     1
102
RTVSPost2010Prop29
280
     1
102
RTVSPost2010PropOp29
 70
     1
102
RTVSPost2010Prop30
280
     1
102
RTVSPost2010PropOp30
 70
     1
102
RTVSPost2010Prop31
280
     0
102
RTVSPost2010PropOp31
 70
     1
102
RTVSPost2010Prop32
280
     0
102
RTVSPost2010PropOp32
 70
     1
102
RTVSPost2010Prop33
280
     0
102
RTVSPost2010PropOp33
 70
     1
102
RTVSPost2010Prop34
280
     0
102
RTVSPost2010PropOp34
 70
     1
102
RTVSPost2010Prop35
280
     0
102
RTVSPost2010PropOp35
 70
     1
102
RTVSPost2010Prop36
280
     0
102
RTVSPost2010PropOp36
 70
     1
102
RTVSPost2010Prop37
 90
       50
102
RTVSPost2010PropOp37
 70
     0
102
RTVSPost2010Prop38
140
0.0
102
RTVSPost2010PropOp38
 70
     0
102
RTVSPost2010Prop39
140
1.0
102
RTVSPost2010PropOp39
 70
     0
102
RTVSPost2010Prop40
 90
        0
102
RTVSPost2010PropOp40
 70
     0
102
RTVSPost2010Prop41ColorIndex
 90
       18
102
RTVSPost2010Prop41ColorRGB
 90
        0
102
RTVSPost2010PropOp41
 70
     0
102
RTVSPost2010Prop42
 90
       50
102
RTVSPost2010PropOp42
 70
     0
102
RTVSPost2010Prop43
 90
        3
102
RTVSPost2010PropOp43
 70
     0
102
RTVSPost2010Prop44ColorIndex
 90
        5
102
RTVSPost2010Prop44ColorRGB
 90
      255
102
RTVSPost2010PropOp44
 70
     0
102
RTVSPost2010Prop45
280
     0
102
RTVSPost2010PropOp45
 70
     1
102
RTVSPost2010Prop46
 90
       50
102
RTVSPost2010PropOp46
 70
     0
102
RTVSPost2010Prop47
 90
       50
102
RTVSPost2010PropOp47
 70
     0
102
RTVSPost2010Prop48
 90
       50
102
RTVSPost2010PropOp48
 70
     0
102
RTVSPost2010Prop49
280
     0
102
RTVSPost2010PropOp49
 70
     1
102
RTVSPost2010Prop50
 90
       50
102
RTVSPost2010PropOp50
 70
     0
102
RTVSPost2010Prop51ColorIndex
 90
      256
102
RTVSPost2010Prop51ColorRGB
 90
-16777216
102
RTVSPost2010PropOp51
 70
     0
102
RTVSPost2010Prop52
140
1.0
102
RTVSPost2010PropOp52
 70
     0
102
RTVSPost2010Prop53
 90
        2
102
RTVSPost2010PropOp53
 70
     0
102
RTVSPost2010Prop54
  1
strokes_ogs.tif
102
RTVSPost2010PropOp54
 70
     0
102
RTVSPost2010Prop55
280
     0
102
RTVSPost2010PropOp55
 70
     1
102
RTVSPost2010Prop56
140
1.0
102
RTVSPost2010PropOp56
 70
     0
102
RTVSPost2010Prop57
140
1.0
102
RTVSPost2010PropOp57
 70
     0
102
RTVSPropertyOp0
 70
     0
102
RTVSPropertyOp1
 70
     0
102
RTVSPropertyOp2
 70
     0
102
RTVSPropertyOp3
 70
     0
102
RTVSPropertyOp4
 70
     0
102
RTVSPropertyOp5
 70
     0
102
RTVSPropertyOp6
 70
     0
102
RTVSPropertyOp7
 70
     0
102
RTVSPropertyOp8
 70
     0
102
RTVSPropertyOp9
 70
     0
102
RTVSPropertyOp10
 70
     0
102
RTVSPropertyOp11
 70
     0
102
RTVSPropertyOp12
 70
     0
102
RTVSPropertyOp13
 70
     0
102
RTVSPropertyOp14
 70
     2
102
RTVSPropertyOp15
 70
     0
102
RTVSPropertyOp16
 70
     0
102
RTVSPropertyOp17
 70
     0
102
RTVSPropertyOp18
 70
     0
102
RTVSPropertyOp19
 70
     0
102
RTVSPropertyOp20
 70
     0
102
RTVSPropertyOp21
 70
     0
102
RTVSPropertyOp22
 70
     0
102
RTVSPropertyOp23
 70
     0
102
RTVSPropertyOp24
 70
     0
102
RTVSPropertyOp25
 70
     0
102
RTVSPropertyOp26
 70
     0
102
RTVSPropertyOp27
 70
     0
102
RTVSPropertyOp28
 70
     1
102
RTVSPropertyOp29
 70
     1
102
RTVSPropertyOp30
 70
     1
102
RTVSPropertyOp31
 70
     1
102
RTVSPropertyOp32
 70
     1
102
RTVSPropertyOp33
 70
     1
102
RTVSPropertyOp34
 70
     1
102
RTVSPropertyOp35
 70
     1
102
RTVSPropertyOp36
 70
     1
102
RTVSPropertyOp37
 70
     0
102
RTVSPropertyOp38
 70
     0
102
RTVSPropertyOp39
 70
     0
102
RTVSPropertyOp40
 70
     0
102
RTVSPropertyOp41
 70
     0
102
RTVSPropertyOp42
 70
     0
102
RTVSPropertyOp43
 70
     0
102
RTVSPropertyOp44
 70
     0
102
RTVSPropertyOp45
 70
     1
102
RTVSPropertyOp46
 70
     0
102
RTVSPropertyOp47
 70
     0
102
RTVSPropertyOp48
 70
     0
102
RTVSPropertyOp49
 70
     1
102
RTVSPropertyOp50
 70
     0
102
RTVSPropertyOp51
 70
     0
102
RTVSPropertyOp52
 70
     0
102
RTVSPropertyOp53
 70
     0
102
RTVSPropertyOp54
 70
     0
102
RTVSPropertyOp55
 70
     1
102
RTVSPropertyOp56
 70
     0
102
RTVSPropertyOp57
 70
     0
102
RTVSPropertyOp58
 70
     0
102
RTVSPropertyOp59
 70
     0
102
RTVSPropertyOp60
 70
     0
102
RTVSPropertyOp61
 70
     0
102
RTVSPropertyOp62
 70
     0
  0
XRECORD
  5
28EF
102
{ACAD_REACTORS
330
28EE
102
}
330
28EE
100
AcDbXrecord
280
     1
102
RTVSPost2010Prop28
280
     0
102
RTVSPost2010PropOp28
 70
     1
102
RTVSPost2010Prop29
280
     1
102
RTVSPost2010PropOp29
 70
     1
102
RTVSPost2010Prop30
280
     1
102
RTVSPost2010PropOp30
 70
     1
102
RTVSPost2010Prop31
280
     0
102
RTVSPost2010PropOp31
 70
     1
102
RTVSPost2010Prop32
280
     0
102
RTVSPost2010PropOp32
 70
     1
102
RTVSPost2010Prop33
280
     0
102
RTVSPost2010PropOp33
 70
     1
102
RTVSPost2010Prop34
280
     0
102
RTVSPost2010PropOp34
 70
     1
102
RTVSPost2010Prop35
280
     0
102
RTVSPost2010PropOp35
 70
     1
102
RTVSPost2010Prop36
280
     0
102
RTVSPost2010PropOp36
 70
     1
102
RTVSPost2010Prop37
 90
       50
102
RTVSPost2010PropOp37
 70
     1
102
RTVSPost2010Prop38
140
0.0
102
RTVSPost2010PropOp38
 70
     1
102
RTVSPost2010Prop39
140
1.0
102
RTVSPost2010PropOp39
 70
     1
102
RTVSPost2010Prop40
 90
        0
102
RTVSPost2010PropOp40
 70
     1
102
RTVSPost2010Prop41ColorIndex
 90
       18
102
RTVSPost2010Prop41ColorRGB
 90
        0
102
RTVSPost2010PropOp41
 70
     1
102
RTVSPost2010Prop42
 90
       50
102
RTVSPost2010PropOp42
 70
     1
102
RTVSPost2010Prop43
 90
        3
102
RTVSPost2010PropOp43
 70
     1
102
RTVSPost2010Prop44ColorIndex
 90
        5
102
RTVSPost2010Prop44ColorRGB
 90
      255
102
RTVSPost2010PropOp44
 70
     1
102
RTVSPost2010Prop45
280
     0
102
RTVSPost2010PropOp45
 70
     1
102
RTVSPost2010Prop46
 90
       50
102
RTVSPost2010PropOp46
 70
     1
102
RTVSPost2010Prop47
 90
       50
102
RTVSPost2010PropOp47
 70
     1
102
RTVSPost2010Prop48
 90
       50
102
RTVSPost2010PropOp48
 70
     1
102
RTVSPost2010Prop49
280
     0
102
RTVSPost2010PropOp49
 70
     1
102
RTVSPost2010Prop50
 90
       50
102
RTVSPost2010PropOp50
 70
     1
102
RTVSPost2010Prop51ColorIndex
 90
      256
102
RTVSPost2010Prop51ColorRGB
 90
-16777216
102
RTVSPost2010PropOp51
 70
     0
102
RTVSPost2010Prop52
140
1.0
102
RTVSPost2010PropOp52
 70
     0
102
RTVSPost2010Prop53
 90
        2
102
RTVSPost2010PropOp53
 70
     1
102
RTVSPost2010Prop54
  1
strokes_ogs.tif
102
RTVSPost2010PropOp54
 70
     1
102
RTVSPost2010Prop55
280
     0
102
RTVSPost2010PropOp55
 70
     1
102
RTVSPost2010Prop56
140
1.0
102
RTVSPost2010PropOp56
 70
     1
102
RTVSPost2010Prop57
140
1.0
102
RTVSPost2010PropOp57
 70
     1
102
RTVSPropertyOp0
 70
     1
102
RTVSPropertyOp1
 70
     1
102
RTVSPropertyOp2
 70
     1
102
RTVSPropertyOp3
 70
     1
102
RTVSPropertyOp4
 70
     1
102
RTVSPropertyOp5
 70
     1
102
RTVSPropertyOp6
 70
     1
102
RTVSPropertyOp7
 70
     1
102
RTVSPropertyOp8
 70
     1
102
RTVSPropertyOp9
 70
     1
102
RTVSPropertyOp10
 70
     1
102
RTVSPropertyOp11
 70
     1
102
RTVSPropertyOp12
 70
     1
102
RTVSPropertyOp13
 70
     1
102
RTVSPropertyOp14
 70
     1
102
RTVSPropertyOp15
 70
     1
102
RTVSPropertyOp16
 70
     1
102
RTVSPropertyOp17
 70
     1
102
RTVSPropertyOp18
 70
     1
102
RTVSPropertyOp19
 70
     1
102
RTVSPropertyOp20
 70
     1
102
RTVSPropertyOp21
 70
     1
102
RTVSPropertyOp22
 70
     1
102
RTVSPropertyOp23
 70
     1
102
RTVSPropertyOp24
 70
     1
102
RTVSPropertyOp25
 70
     1
102
RTVSPropertyOp26
 70
     1
102
RTVSPropertyOp27
 70
     1
102
RTVSPropertyOp28
 70
     1
102
RTVSPropertyOp29
 70
     1
102
RTVSPropertyOp30
 70
     1
102
RTVSPropertyOp31
 70
     1
102
RTVSPropertyOp32
 70
     1
102
RTVSPropertyOp33
 70
     1
102
RTVSPropertyOp34
 70
     1
102
RTVSPropertyOp35
 70
     1
102
RTVSPropertyOp36
 70
     1
102
RTVSPropertyOp37
 70
     1
102
RTVSPropertyOp38
 70
     1
102
RTVSPropertyOp39
 70
     1
102
RTVSPropertyOp40
 70
     1
102
RTVSPropertyOp41
 70
     1
102
RTVSPropertyOp42
 70
     1
102
RTVSPropertyOp43
 70
     1
102
RTVSPropertyOp44
 70
     1
102
RTVSPropertyOp45
 70
     1
102
RTVSPropertyOp46
 70
     1
102
RTVSPropertyOp47
 70
     1
102
RTVSPropertyOp48
 70
     1
102
RTVSPropertyOp49
 70
     1
102
RTVSPropertyOp50
 70
     1
102
RTVSPropertyOp51
 70
     0
102
RTVSPropertyOp52
 70
     0
102
RTVSPropertyOp53
 70
     1
102
RTVSPropertyOp54
 70
     1
102
RTVSPropertyOp55
 70
     1
102
RTVSPropertyOp56
 70
     1
102
RTVSPropertyOp57
 70
     1
102
RTVSPropertyOp58
 70
     1
102
RTVSPropertyOp59
 70
     1
102
RTVSPropertyOp60
 70
     1
102
RTVSPropertyOp61
 70
     1
102
RTVSPropertyOp62
 70
     1
  0
XRECORD
  5
2901
102
{ACAD_REACTORS
330
2900
102
}
330
2900
100
AcDbXrecord
280
     1
102
RTVSPost2010Prop28
280
     0
102
RTVSPost2010PropOp28
 70
     1
102
RTVSPost2010Prop29
280
     1
102
RTVSPost2010PropOp29
 70
     1
102
RTVSPost2010Prop30
280
     1
102
RTVSPost2010PropOp30
 70
     1
102
RTVSPost2010Prop31
280
     0
102
RTVSPost2010PropOp31
 70
     1
102
RTVSPost2010Prop32
280
     0
102
RTVSPost2010PropOp32
 70
     1
102
RTVSPost2010Prop33
280
     0
102
RTVSPost2010PropOp33
 70
     1
102
RTVSPost2010Prop34
280
     0
102
RTVSPost2010PropOp34
 70
     1
102
RTVSPost2010Prop35
280
     0
102
RTVSPost2010PropOp35
 70
     1
102
RTVSPost2010Prop36
280
     0
102
RTVSPost2010PropOp36
 70
     1
102
RTVSPost2010Prop37
 90
       50
102
RTVSPost2010PropOp37
 70
     0
102
RTVSPost2010Prop38
140
0.0
102
RTVSPost2010PropOp38
 70
     0
102
RTVSPost2010Prop39
140
1.0
102
RTVSPost2010PropOp39
 70
     0
102
RTVSPost2010Prop40
 90
        0
102
RTVSPost2010PropOp40
 70
     0
102
RTVSPost2010Prop41ColorIndex
 90
       18
102
RTVSPost2010Prop41ColorRGB
 90
        0
102
RTVSPost2010PropOp41
 70
     0
102
RTVSPost2010Prop42
 90
       50
102
RTVSPost2010PropOp42
 70
     0
102
RTVSPost2010Prop43
 90
        3
102
RTVSPost2010PropOp43
 70
     0
102
RTVSPost2010Prop44ColorIndex
 90
        5
102
RTVSPost2010Prop44ColorRGB
 90
      255
102
RTVSPost2010PropOp44
 70
     0
102
RTVSPost2010Prop45
280
     0
102
RTVSPost2010PropOp45
 70
     1
102
RTVSPost2010Prop46
 90
       50
102
RTVSPost2010PropOp46
 70
     0
102
RTVSPost2010Prop47
 90
       50
102
RTVSPost2010PropOp47
 70
     0
102
RTVSPost2010Prop48
 90
       50
102
RTVSPost2010PropOp48
 70
     0
102
RTVSPost2010Prop49
280
     0
102
RTVSPost2010PropOp49
 70
     1
102
RTVSPost2010Prop50
 90
       50
102
RTVSPost2010PropOp50
 70
     0
102
RTVSPost2010Prop51ColorIndex
 90
      256
102
RTVSPost2010Prop51ColorRGB
 90
-16777216
102
RTVSPost2010PropOp51
 70
     0
102
RTVSPost2010Prop52
140
1.0
102
RTVSPost2010PropOp52
 70
     0
102
RTVSPost2010Prop53
 90
        2
102
RTVSPost2010PropOp53
 70
     0
102
RTVSPost2010Prop54
  1
strokes_ogs.tif
102
RTVSPost2010PropOp54
 70
     0
102
RTVSPost2010Prop55
280
     0
102
RTVSPost2010PropOp55
 70
     1
102
RTVSPost2010Prop56
140
1.0
102
RTVSPost2010PropOp56
 70
     0
102
RTVSPost2010Prop57
140
1.0
102
RTVSPost2010PropOp57
 70
     0
102
RTVSPropertyOp0
 70
     0
102
RTVSPropertyOp1
 70
     0
102
RTVSPropertyOp2
 70
     0
102
RTVSPropertyOp3
 70
     0
102
RTVSPropertyOp4
 70
     0
102
RTVSPropertyOp5
 70
     0
102
RTVSPropertyOp6
 70
     0
102
RTVSPropertyOp7
 70
     0
102
RTVSPropertyOp8
 70
     0
102
RTVSPropertyOp9
 70
     0
102
RTVSPropertyOp10
 70
     0
102
RTVSPropertyOp11
 70
     0
102
RTVSPropertyOp12
 70
     0
102
RTVSPropertyOp13
 70
     0
102
RTVSPropertyOp14
 70
     2
102
RTVSPropertyOp15
 70
     0
102
RTVSPropertyOp16
 70
     0
102
RTVSPropertyOp17
 70
     0
102
RTVSPropertyOp18
 70
     0
102
RTVSPropertyOp19
 70
     0
102
RTVSPropertyOp20
 70
     0
102
RTVSPropertyOp21
 70
     0
102
RTVSPropertyOp22
 70
     0
102
RTVSPropertyOp23
 70
     0
102
RTVSPropertyOp24
 70
     0
102
RTVSPropertyOp25
 70
     0
102
RTVSPropertyOp26
 70
     0
102
RTVSPropertyOp27
 70
     0
102
RTVSPropertyOp28
 70
     1
102
RTVSPropertyOp29
 70
     1
102
RTVSPropertyOp30
 70
     1
102
RTVSPropertyOp31
 70
     1
102
RTVSPropertyOp32
 70
     1
102
RTVSPropertyOp33
 70
     1
102
RTVSPropertyOp34
 70
     1
102
RTVSPropertyOp35
 70
     1
102
RTVSPropertyOp36
 70
     1
102
RTVSPropertyOp37
 70
     0
102
RTVSPropertyOp38
 70
     0
102
RTVSPropertyOp39
 70
     0
102
RTVSPropertyOp40
 70
     0
102
RTVSPropertyOp41
 70
     0
102
RTVSPropertyOp42
 70
     0
102
RTVSPropertyOp43
 70
     0
102
RTVSPropertyOp44
 70
     0
102
RTVSPropertyOp45
 70
     1
102
RTVSPropertyOp46
 70
     0
102
RTVSPropertyOp47
 70
     0
102
RTVSPropertyOp48
 70
     0
102
RTVSPropertyOp49
 70
     1
102
RTVSPropertyOp50
 70
     0
102
RTVSPropertyOp51
 70
     0
102
RTVSPropertyOp52
 70
     0
102
RTVSPropertyOp53
 70
     0
102
RTVSPropertyOp54
 70
     0
102
RTVSPropertyOp55
 70
     1
102
RTVSPropertyOp56
 70
     0
102
RTVSPropertyOp57
 70
     0
102
RTVSPropertyOp58
 70
     0
102
RTVSPropertyOp59
 70
     0
102
RTVSPropertyOp60
 70
     0
102
RTVSPropertyOp61
 70
     0
102
RTVSPropertyOp62
 70
     0
  0
XRECORD
  5
28E7
102
{ACAD_REACTORS
330
28E6
102
}
330
28E6
100
AcDbXrecord
280
     1
102
RTVSPost2010Prop28
280
     0
102
RTVSPost2010PropOp28
 70
     1
102
RTVSPost2010Prop29
280
     1
102
RTVSPost2010PropOp29
 70
     1
102
RTVSPost2010Prop30
280
     1
102
RTVSPost2010PropOp30
 70
     1
102
RTVSPost2010Prop31
280
     0
102
RTVSPost2010PropOp31
 70
     1
102
RTVSPost2010Prop32
280
     0
102
RTVSPost2010PropOp32
 70
     1
102
RTVSPost2010Prop33
280
     0
102
RTVSPost2010PropOp33
 70
     1
102
RTVSPost2010Prop34
280
     0
102
RTVSPost2010PropOp34
 70
     1
102
RTVSPost2010Prop35
280
     0
102
RTVSPost2010PropOp35
 70
     1
102
RTVSPost2010Prop36
280
     0
102
RTVSPost2010PropOp36
 70
     1
102
RTVSPost2010Prop37
 90
       50
102
RTVSPost2010PropOp37
 70
     1
102
RTVSPost2010Prop38
140
0.0
102
RTVSPost2010PropOp38
 70
     1
102
RTVSPost2010Prop39
140
1.0
102
RTVSPost2010PropOp39
 70
     1
102
RTVSPost2010Prop40
 90
        0
102
RTVSPost2010PropOp40
 70
     1
102
RTVSPost2010Prop41ColorIndex
 90
       18
102
RTVSPost2010Prop41ColorRGB
 90
        0
102
RTVSPost2010PropOp41
 70
     1
102
RTVSPost2010Prop42
 90
       50
102
RTVSPost2010PropOp42
 70
     1
102
RTVSPost2010Prop43
 90
        3
102
RTVSPost2010PropOp43
 70
     1
102
RTVSPost2010Prop44ColorIndex
 90
        5
102
RTVSPost2010Prop44ColorRGB
 90
      255
102
RTVSPost2010PropOp44
 70
     1
102
RTVSPost2010Prop45
280
     0
102
RTVSPost2010PropOp45
 70
     1
102
RTVSPost2010Prop46
 90
       50
102
RTVSPost2010PropOp46
 70
     1
102
RTVSPost2010Prop47
 90
       50
102
RTVSPost2010PropOp47
 70
     1
102
RTVSPost2010Prop48
 90
       50
102
RTVSPost2010PropOp48
 70
     1
102
RTVSPost2010Prop49
280
     0
102
RTVSPost2010PropOp49
 70
     1
102
RTVSPost2010Prop50
 90
       50
102
RTVSPost2010PropOp50
 70
     1
102
RTVSPost2010Prop51ColorIndex
 90
      256
102
RTVSPost2010Prop51ColorRGB
 90
-16777216
102
RTVSPost2010PropOp51
 70
     0
102
RTVSPost2010Prop52
140
1.0
102
RTVSPost2010PropOp52
 70
     0
102
RTVSPost2010Prop53
 90
        2
102
RTVSPost2010PropOp53
 70
     1
102
RTVSPost2010Prop54
  1
strokes_ogs.tif
102
RTVSPost2010PropOp54
 70
     1
102
RTVSPost2010Prop55
280
     0
102
RTVSPost2010PropOp55
 70
     1
102
RTVSPost2010Prop56
140
1.0
102
RTVSPost2010PropOp56
 70
     1
102
RTVSPost2010Prop57
140
1.0
102
RTVSPost2010PropOp57
 70
     1
102
RTVSPropertyOp0
 70
     1
102
RTVSPropertyOp1
 70
     1
102
RTVSPropertyOp2
 70
     1
102
RTVSPropertyOp3
 70
     1
102
RTVSPropertyOp4
 70
     1
102
RTVSPropertyOp5
 70
     1
102
RTVSPropertyOp6
 70
     1
102
RTVSPropertyOp7
 70
     1
102
RTVSPropertyOp8
 70
     1
102
RTVSPropertyOp9
 70
     1
102
RTVSPropertyOp10
 70
     1
102
RTVSPropertyOp11
 70
     1
102
RTVSPropertyOp12
 70
     1
102
RTVSPropertyOp13
 70
     1
102
RTVSPropertyOp14
 70
     1
102
RTVSPropertyOp15
 70
     1
102
RTVSPropertyOp16
 70
     1
102
RTVSPropertyOp17
 70
     1
102
RTVSPropertyOp18
 70
     1
102
RTVSPropertyOp19
 70
     1
102
RTVSPropertyOp20
 70
     1
102
RTVSPropertyOp21
 70
     1
102
RTVSPropertyOp22
 70
     1
102
RTVSPropertyOp23
 70
     1
102
RTVSPropertyOp24
 70
     1
102
RTVSPropertyOp25
 70
     1
102
RTVSPropertyOp26
 70
     1
102
RTVSPropertyOp27
 70
     1
102
RTVSPropertyOp28
 70
     1
102
RTVSPropertyOp29
 70
     1
102
RTVSPropertyOp30
 70
     1
102
RTVSPropertyOp31
 70
     1
102
RTVSPropertyOp32
 70
     1
102
RTVSPropertyOp33
 70
     1
102
RTVSPropertyOp34
 70
     1
102
RTVSPropertyOp35
 70
     1
102
RTVSPropertyOp36
 70
     1
102
RTVSPropertyOp37
 70
     1
102
RTVSPropertyOp38
 70
     1
102
RTVSPropertyOp39
 70
     1
102
RTVSPropertyOp40
 70
     1
102
RTVSPropertyOp41
 70
     1
102
RTVSPropertyOp42
 70
     1
102
RTVSPropertyOp43
 70
     1
102
RTVSPropertyOp44
 70
     1
102
RTVSPropertyOp45
 70
     1
102
RTVSPropertyOp46
 70
     1
102
RTVSPropertyOp47
 70
     1
102
RTVSPropertyOp48
 70
     1
102
RTVSPropertyOp49
 70
     1
102
RTVSPropertyOp50
 70
     1
102
RTVSPropertyOp51
 70
     0
102
RTVSPropertyOp52
 70
     0
102
RTVSPropertyOp53
 70
     1
102
RTVSPropertyOp54
 70
     1
102
RTVSPropertyOp55
 70
     1
102
RTVSPropertyOp56
 70
     1
102
RTVSPropertyOp57
 70
     1
102
RTVSPropertyOp58
 70
     1
102
RTVSPropertyOp59
 70
     1
102
RTVSPropertyOp60
 70
     1
102
RTVSPropertyOp61
 70
     1
102
RTVSPropertyOp62
 70
     1
  0
XRECORD
  5
28FD
102
{ACAD_REACTORS
330
28FC
102
}
330
28FC
100
AcDbXrecord
280
     1
102
RTVSPost2010Prop28
280
     0
102
RTVSPost2010PropOp28
 70
     1
102
RTVSPost2010Prop29
280
     1
102
RTVSPost2010PropOp29
 70
     1
102
RTVSPost2010Prop30
280
     1
102
RTVSPost2010PropOp30
 70
     1
102
RTVSPost2010Prop31
280
     0
102
RTVSPost2010PropOp31
 70
     1
102
RTVSPost2010Prop32
280
     0
102
RTVSPost2010PropOp32
 70
     1
102
RTVSPost2010Prop33
280
     0
102
RTVSPost2010PropOp33
 70
     1
102
RTVSPost2010Prop34
280
     0
102
RTVSPost2010PropOp34
 70
     1
102
RTVSPost2010Prop35
280
     0
102
RTVSPost2010PropOp35
 70
     1
102
RTVSPost2010Prop36
280
     0
102
RTVSPost2010PropOp36
 70
     1
102
RTVSPost2010Prop37
 90
       50
102
RTVSPost2010PropOp37
 70
     1
102
RTVSPost2010Prop38
140
0.0
102
RTVSPost2010PropOp38
 70
     1
102
RTVSPost2010Prop39
140
1.0
102
RTVSPost2010PropOp39
 70
     1
102
RTVSPost2010Prop40
 90
        0
102
RTVSPost2010PropOp40
 70
     1
102
RTVSPost2010Prop41ColorIndex
 90
       18
102
RTVSPost2010Prop41ColorRGB
 90
        0
102
RTVSPost2010PropOp41
 70
     1
102
RTVSPost2010Prop42
 90
       50
102
RTVSPost2010PropOp42
 70
     1
102
RTVSPost2010Prop43
 90
        3
102
RTVSPost2010PropOp43
 70
     1
102
RTVSPost2010Prop44ColorIndex
 90
        5
102
RTVSPost2010Prop44ColorRGB
 90
      255
102
RTVSPost2010PropOp44
 70
     1
102
RTVSPost2010Prop45
280
     0
102
RTVSPost2010PropOp45
 70
     1
102
RTVSPost2010Prop46
 90
       50
102
RTVSPost2010PropOp46
 70
     1
102
RTVSPost2010Prop47
 90
       50
102
RTVSPost2010PropOp47
 70
     1
102
RTVSPost2010Prop48
 90
       50
102
RTVSPost2010PropOp48
 70
     1
102
RTVSPost2010Prop49
280
     0
102
RTVSPost2010PropOp49
 70
     1
102
RTVSPost2010Prop50
 90
       50
102
RTVSPost2010PropOp50
 70
     1
102
RTVSPost2010Prop51ColorIndex
 90
      256
102
RTVSPost2010Prop51ColorRGB
 90
-16777216
102
RTVSPost2010PropOp51
 70
     0
102
RTVSPost2010Prop52
140
1.0
102
RTVSPost2010PropOp52
 70
     0
102
RTVSPost2010Prop53
 90
        2
102
RTVSPost2010PropOp53
 70
     1
102
RTVSPost2010Prop54
  1
strokes_ogs.tif
102
RTVSPost2010PropOp54
 70
     1
102
RTVSPost2010Prop55
280
     0
102
RTVSPost2010PropOp55
 70
     1
102
RTVSPost2010Prop56
140
1.0
102
RTVSPost2010PropOp56
 70
     1
102
RTVSPost2010Prop57
140
1.0
102
RTVSPost2010PropOp57
 70
     1
102
RTVSPropertyOp0
 70
     1
102
RTVSPropertyOp1
 70
     1
102
RTVSPropertyOp2
 70
     1
102
RTVSPropertyOp3
 70
     1
102
RTVSPropertyOp4
 70
     1
102
RTVSPropertyOp5
 70
     1
102
RTVSPropertyOp6
 70
     1
102
RTVSPropertyOp7
 70
     1
102
RTVSPropertyOp8
 70
     1
102
RTVSPropertyOp9
 70
     1
102
RTVSPropertyOp10
 70
     1
102
RTVSPropertyOp11
 70
     1
102
RTVSPropertyOp12
 70
     1
102
RTVSPropertyOp13
 70
     1
102
RTVSPropertyOp14
 70
     1
102
RTVSPropertyOp15
 70
     1
102
RTVSPropertyOp16
 70
     1
102
RTVSPropertyOp17
 70
     1
102
RTVSPropertyOp18
 70
     1
102
RTVSPropertyOp19
 70
     1
102
RTVSPropertyOp20
 70
     1
102
RTVSPropertyOp21
 70
     1
102
RTVSPropertyOp22
 70
     1
102
RTVSPropertyOp23
 70
     1
102
RTVSPropertyOp24
 70
     1
102
RTVSPropertyOp25
 70
     1
102
RTVSPropertyOp26
 70
     1
102
RTVSPropertyOp27
 70
     1
102
RTVSPropertyOp28
 70
     1
102
RTVSPropertyOp29
 70
     1
102
RTVSPropertyOp30
 70
     1
102
RTVSPropertyOp31
 70
     1
102
RTVSPropertyOp32
 70
     1
102
RTVSPropertyOp33
 70
     1
102
RTVSPropertyOp34
 70
     1
102
RTVSPropertyOp35
 70
     1
102
RTVSPropertyOp36
 70
     1
102
RTVSPropertyOp37
 70
     1
102
RTVSPropertyOp38
 70
     1
102
RTVSPropertyOp39
 70
     1
102
RTVSPropertyOp40
 70
     1
102
RTVSPropertyOp41
 70
     1
102
RTVSPropertyOp42
 70
     1
102
RTVSPropertyOp43
 70
     1
102
RTVSPropertyOp44
 70
     1
102
RTVSPropertyOp45
 70
     1
102
RTVSPropertyOp46
 70
     1
102
RTVSPropertyOp47
 70
     1
102
RTVSPropertyOp48
 70
     1
102
RTVSPropertyOp49
 70
     1
102
RTVSPropertyOp50
 70
     1
102
RTVSPropertyOp51
 70
     0
102
RTVSPropertyOp52
 70
     0
102
RTVSPropertyOp53
 70
     1
102
RTVSPropertyOp54
 70
     1
102
RTVSPropertyOp55
 70
     1
102
RTVSPropertyOp56
 70
     1
102
RTVSPropertyOp57
 70
     1
102
RTVSPropertyOp58
 70
     1
102
RTVSPropertyOp59
 70
     1
102
RTVSPropertyOp60
 70
     1
102
RTVSPropertyOp61
 70
     1
102
RTVSPropertyOp62
 70
     1
  0
XRECORD
  5
28FB
102
{ACAD_REACTORS
330
28FA
102
}
330
28FA
100
AcDbXrecord
280
     1
102
RTVSPost2010Prop28
280
     0
102
RTVSPost2010PropOp28
 70
     1
102
RTVSPost2010Prop29
280
     1
102
RTVSPost2010PropOp29
 70
     1
102
RTVSPost2010Prop30
280
     1
102
RTVSPost2010PropOp30
 70
     1
102
RTVSPost2010Prop31
280
     0
102
RTVSPost2010PropOp31
 70
     1
102
RTVSPost2010Prop32
280
     0
102
RTVSPost2010PropOp32
 70
     1
102
RTVSPost2010Prop33
280
     0
102
RTVSPost2010PropOp33
 70
     1
102
RTVSPost2010Prop34
280
     0
102
RTVSPost2010PropOp34
 70
     1
102
RTVSPost2010Prop35
280
     0
102
RTVSPost2010PropOp35
 70
     1
102
RTVSPost2010Prop36
280
     0
102
RTVSPost2010PropOp36
 70
     1
102
RTVSPost2010Prop37
 90
       50
102
RTVSPost2010PropOp37
 70
     1
102
RTVSPost2010Prop38
140
0.0
102
RTVSPost2010PropOp38
 70
     1
102
RTVSPost2010Prop39
140
1.0
102
RTVSPost2010PropOp39
 70
     1
102
RTVSPost2010Prop40
 90
        0
102
RTVSPost2010PropOp40
 70
     1
102
RTVSPost2010Prop41ColorIndex
 90
       18
102
RTVSPost2010Prop41ColorRGB
 90
        0
102
RTVSPost2010PropOp41
 70
     1
102
RTVSPost2010Prop42
 90
       50
102
RTVSPost2010PropOp42
 70
     1
102
RTVSPost2010Prop43
 90
        3
102
RTVSPost2010PropOp43
 70
     1
102
RTVSPost2010Prop44ColorIndex
 90
        5
102
RTVSPost2010Prop44ColorRGB
 90
      255
102
RTVSPost2010PropOp44
 70
     1
102
RTVSPost2010Prop45
280
     0
102
RTVSPost2010PropOp45
 70
     1
102
RTVSPost2010Prop46
 90
       50
102
RTVSPost2010PropOp46
 70
     1
102
RTVSPost2010Prop47
 90
       50
102
RTVSPost2010PropOp47
 70
     1
102
RTVSPost2010Prop48
 90
       50
102
RTVSPost2010PropOp48
 70
     1
102
RTVSPost2010Prop49
280
     0
102
RTVSPost2010PropOp49
 70
     1
102
RTVSPost2010Prop50
 90
       50
102
RTVSPost2010PropOp50
 70
     1
102
RTVSPost2010Prop51ColorIndex
 90
      256
102
RTVSPost2010Prop51ColorRGB
 90
-16777216
102
RTVSPost2010PropOp51
 70
     0
102
RTVSPost2010Prop52
140
1.0
102
RTVSPost2010PropOp52
 70
     0
102
RTVSPost2010Prop53
 90
        2
102
RTVSPost2010PropOp53
 70
     1
102
RTVSPost2010Prop54
  1
strokes_ogs.tif
102
RTVSPost2010PropOp54
 70
     1
102
RTVSPost2010Prop55
280
     0
102
RTVSPost2010PropOp55
 70
     1
102
RTVSPost2010Prop56
140
1.0
102
RTVSPost2010PropOp56
 70
     1
102
RTVSPost2010Prop57
140
1.0
102
RTVSPost2010PropOp57
 70
     1
102
RTVSPropertyOp0
 70
     1
102
RTVSPropertyOp1
 70
     1
102
RTVSPropertyOp2
 70
     1
102
RTVSPropertyOp3
 70
     1
102
RTVSPropertyOp4
 70
     1
102
RTVSPropertyOp5
 70
     1
102
RTVSPropertyOp6
 70
     1
102
RTVSPropertyOp7
 70
     1
102
RTVSPropertyOp8
 70
     1
102
RTVSPropertyOp9
 70
     1
102
RTVSPropertyOp10
 70
     1
102
RTVSPropertyOp11
 70
     1
102
RTVSPropertyOp12
 70
     1
102
RTVSPropertyOp13
 70
     1
102
RTVSPropertyOp14
 70
     1
102
RTVSPropertyOp15
 70
     1
102
RTVSPropertyOp16
 70
     1
102
RTVSPropertyOp17
 70
     1
102
RTVSPropertyOp18
 70
     1
102
RTVSPropertyOp19
 70
     1
102
RTVSPropertyOp20
 70
     1
102
RTVSPropertyOp21
 70
     1
102
RTVSPropertyOp22
 70
     1
102
RTVSPropertyOp23
 70
     1
102
RTVSPropertyOp24
 70
     1
102
RTVSPropertyOp25
 70
     1
102
RTVSPropertyOp26
 70
     1
102
RTVSPropertyOp27
 70
     1
102
RTVSPropertyOp28
 70
     1
102
RTVSPropertyOp29
 70
     1
102
RTVSPropertyOp30
 70
     1
102
RTVSPropertyOp31
 70
     1
102
RTVSPropertyOp32
 70
     1
102
RTVSPropertyOp33
 70
     1
102
RTVSPropertyOp34
 70
     1
102
RTVSPropertyOp35
 70
     1
102
RTVSPropertyOp36
 70
     1
102
RTVSPropertyOp37
 70
     1
102
RTVSPropertyOp38
 70
     1
102
RTVSPropertyOp39
 70
     1
102
RTVSPropertyOp40
 70
     1
102
RTVSPropertyOp41
 70
     1
102
RTVSPropertyOp42
 70
     1
102
RTVSPropertyOp43
 70
     1
102
RTVSPropertyOp44
 70
     1
102
RTVSPropertyOp45
 70
     1
102
RTVSPropertyOp46
 70
     1
102
RTVSPropertyOp47
 70
     1
102
RTVSPropertyOp48
 70
     1
102
RTVSPropertyOp49
 70
     1
102
RTVSPropertyOp50
 70
     1
102
RTVSPropertyOp51
 70
     0
102
RTVSPropertyOp52
 70
     0
102
RTVSPropertyOp53
 70
     1
102
RTVSPropertyOp54
 70
     1
102
RTVSPropertyOp55
 70
     1
102
RTVSPropertyOp56
 70
     1
102
RTVSPropertyOp57
 70
     1
102
RTVSPropertyOp58
 70
     1
102
RTVSPropertyOp59
 70
     1
102
RTVSPropertyOp60
 70
     1
102
RTVSPropertyOp61
 70
     1
102
RTVSPropertyOp62
 70
     1
  0
XRECORD
  5
28F5
102
{ACAD_REACTORS
330
28F4
102
}
330
28F4
100
AcDbXrecord
280
     1
102
RTVSPost2010Prop28
280
     0
102
RTVSPost2010PropOp28
 70
     1
102
RTVSPost2010Prop29
280
     1
102
RTVSPost2010PropOp29
 70
     1
102
RTVSPost2010Prop30
280
     1
102
RTVSPost2010PropOp30
 70
     1
102
RTVSPost2010Prop31
280
     0
102
RTVSPost2010PropOp31
 70
     1
102
RTVSPost2010Prop32
280
     0
102
RTVSPost2010PropOp32
 70
     1
102
RTVSPost2010Prop33
280
     0
102
RTVSPost2010PropOp33
 70
     1
102
RTVSPost2010Prop34
280
     0
102
RTVSPost2010PropOp34
 70
     1
102
RTVSPost2010Prop35
280
     0
102
RTVSPost2010PropOp35
 70
     1
102
RTVSPost2010Prop36
280
     0
102
RTVSPost2010PropOp36
 70
     1
102
RTVSPost2010Prop37
 90
       50
102
RTVSPost2010PropOp37
 70
     1
102
RTVSPost2010Prop38
140
0.0
102
RTVSPost2010PropOp38
 70
     1
102
RTVSPost2010Prop39
140
1.0
102
RTVSPost2010PropOp39
 70
     1
102
RTVSPost2010Prop40
 90
        0
102
RTVSPost2010PropOp40
 70
     1
102
RTVSPost2010Prop41ColorIndex
 90
       18
102
RTVSPost2010Prop41ColorRGB
 90
        0
102
RTVSPost2010PropOp41
 70
     1
102
RTVSPost2010Prop42
 90
       50
102
RTVSPost2010PropOp42
 70
     1
102
RTVSPost2010Prop43
 90
        3
102
RTVSPost2010PropOp43
 70
     1
102
RTVSPost2010Prop44ColorIndex
 90
        5
102
RTVSPost2010Prop44ColorRGB
 90
      255
102
RTVSPost2010PropOp44
 70
     1
102
RTVSPost2010Prop45
280
     0
102
RTVSPost2010PropOp45
 70
     1
102
RTVSPost2010Prop46
 90
       50
102
RTVSPost2010PropOp46
 70
     1
102
RTVSPost2010Prop47
 90
       50
102
RTVSPost2010PropOp47
 70
     1
102
RTVSPost2010Prop48
 90
       50
102
RTVSPost2010PropOp48
 70
     1
102
RTVSPost2010Prop49
280
     0
102
RTVSPost2010PropOp49
 70
     1
102
RTVSPost2010Prop50
 90
       50
102
RTVSPost2010PropOp50
 70
     1
102
RTVSPost2010Prop51ColorIndex
 90
      256
102
RTVSPost2010Prop51ColorRGB
 90
-16777216
102
RTVSPost2010PropOp51
 70
     0
102
RTVSPost2010Prop52
140
1.0
102
RTVSPost2010PropOp52
 70
     0
102
RTVSPost2010Prop53
 90
        2
102
RTVSPost2010PropOp53
 70
     1
102
RTVSPost2010Prop54
  1
strokes_ogs.tif
102
RTVSPost2010PropOp54
 70
     1
102
RTVSPost2010Prop55
280
     0
102
RTVSPost2010PropOp55
 70
     1
102
RTVSPost2010Prop56
140
1.0
102
RTVSPost2010PropOp56
 70
     1
102
RTVSPost2010Prop57
140
1.0
102
RTVSPost2010PropOp57
 70
     1
102
RTVSPropertyOp0
 70
     1
102
RTVSPropertyOp1
 70
     1
102
RTVSPropertyOp2
 70
     1
102
RTVSPropertyOp3
 70
     1
102
RTVSPropertyOp4
 70
     1
102
RTVSPropertyOp5
 70
     1
102
RTVSPropertyOp6
 70
     1
102
RTVSPropertyOp7
 70
     1
102
RTVSPropertyOp8
 70
     1
102
RTVSPropertyOp9
 70
     1
102
RTVSPropertyOp10
 70
     1
102
RTVSPropertyOp11
 70
     1
102
RTVSPropertyOp12
 70
     1
102
RTVSPropertyOp13
 70
     1
102
RTVSPropertyOp14
 70
     1
102
RTVSPropertyOp15
 70
     1
102
RTVSPropertyOp16
 70
     1
102
RTVSPropertyOp17
 70
     1
102
RTVSPropertyOp18
 70
     1
102
RTVSPropertyOp19
 70
     1
102
RTVSPropertyOp20
 70
     1
102
RTVSPropertyOp21
 70
     1
102
RTVSPropertyOp22
 70
     1
102
RTVSPropertyOp23
 70
     1
102
RTVSPropertyOp24
 70
     1
102
RTVSPropertyOp25
 70
     1
102
RTVSPropertyOp26
 70
     1
102
RTVSPropertyOp27
 70
     1
102
RTVSPropertyOp28
 70
     1
102
RTVSPropertyOp29
 70
     1
102
RTVSPropertyOp30
 70
     1
102
RTVSPropertyOp31
 70
     1
102
RTVSPropertyOp32
 70
     1
102
RTVSPropertyOp33
 70
     1
102
RTVSPropertyOp34
 70
     1
102
RTVSPropertyOp35
 70
     1
102
RTVSPropertyOp36
 70
     1
102
RTVSPropertyOp37
 70
     1
102
RTVSPropertyOp38
 70
     1
102
RTVSPropertyOp39
 70
     1
102
RTVSPropertyOp40
 70
     1
102
RTVSPropertyOp41
 70
     1
102
RTVSPropertyOp42
 70
     1
102
RTVSPropertyOp43
 70
     1
102
RTVSPropertyOp44
 70
     1
102
RTVSPropertyOp45
 70
     1
102
RTVSPropertyOp46
 70
     1
102
RTVSPropertyOp47
 70
     1
102
RTVSPropertyOp48
 70
     1
102
RTVSPropertyOp49
 70
     1
102
RTVSPropertyOp50
 70
     1
102
RTVSPropertyOp51
 70
     0
102
RTVSPropertyOp52
 70
     0
102
RTVSPropertyOp53
 70
     1
102
RTVSPropertyOp54
 70
     1
102
RTVSPropertyOp55
 70
     1
102
RTVSPropertyOp56
 70
     1
102
RTVSPropertyOp57
 70
     1
102
RTVSPropertyOp58
 70
     1
102
RTVSPropertyOp59
 70
     1
102
RTVSPropertyOp60
 70
     1
102
RTVSPropertyOp61
 70
     1
102
RTVSPropertyOp62
 70
     1
  0
XRECORD
  5
28F7
102
{ACAD_REACTORS
330
28F6
102
}
330
28F6
100
AcDbXrecord
280
     1
102
RTVSPost2010Prop28
280
     0
102
RTVSPost2010PropOp28
 70
     1
102
RTVSPost2010Prop29
280
     1
102
RTVSPost2010PropOp29
 70
     1
102
RTVSPost2010Prop30
280
     1
102
RTVSPost2010PropOp30
 70
     1
102
RTVSPost2010Prop31
280
     0
102
RTVSPost2010PropOp31
 70
     1
102
RTVSPost2010Prop32
280
     0
102
RTVSPost2010PropOp32
 70
     1
102
RTVSPost2010Prop33
280
     0
102
RTVSPost2010PropOp33
 70
     1
102
RTVSPost2010Prop34
280
     0
102
RTVSPost2010PropOp34
 70
     1
102
RTVSPost2010Prop35
280
     0
102
RTVSPost2010PropOp35
 70
     1
102
RTVSPost2010Prop36
280
     0
102
RTVSPost2010PropOp36
 70
     1
102
RTVSPost2010Prop37
 90
       50
102
RTVSPost2010PropOp37
 70
     1
102
RTVSPost2010Prop38
140
0.0
102
RTVSPost2010PropOp38
 70
     1
102
RTVSPost2010Prop39
140
1.0
102
RTVSPost2010PropOp39
 70
     1
102
RTVSPost2010Prop40
 90
        0
102
RTVSPost2010PropOp40
 70
     1
102
RTVSPost2010Prop41ColorIndex
 90
       18
102
RTVSPost2010Prop41ColorRGB
 90
        0
102
RTVSPost2010PropOp41
 70
     1
102
RTVSPost2010Prop42
 90
       50
102
RTVSPost2010PropOp42
 70
     1
102
RTVSPost2010Prop43
 90
        3
102
RTVSPost2010PropOp43
 70
     1
102
RTVSPost2010Prop44ColorIndex
 90
        5
102
RTVSPost2010Prop44ColorRGB
 90
      255
102
RTVSPost2010PropOp44
 70
     1
102
RTVSPost2010Prop45
280
     0
102
RTVSPost2010PropOp45
 70
     1
102
RTVSPost2010Prop46
 90
       50
102
RTVSPost2010PropOp46
 70
     1
102
RTVSPost2010Prop47
 90
       50
102
RTVSPost2010PropOp47
 70
     1
102
RTVSPost2010Prop48
 90
       50
102
RTVSPost2010PropOp48
 70
     1
102
RTVSPost2010Prop49
280
     0
102
RTVSPost2010PropOp49
 70
     1
102
RTVSPost2010Prop50
 90
       50
102
RTVSPost2010PropOp50
 70
     1
102
RTVSPost2010Prop51ColorIndex
 90
      256
102
RTVSPost2010Prop51ColorRGB
 90
-16777216
102
RTVSPost2010PropOp51
 70
     0
102
RTVSPost2010Prop52
140
1.0
102
RTVSPost2010PropOp52
 70
     0
102
RTVSPost2010Prop53
 90
        2
102
RTVSPost2010PropOp53
 70
     1
102
RTVSPost2010Prop54
  1
strokes_ogs.tif
102
RTVSPost2010PropOp54
 70
     1
102
RTVSPost2010Prop55
280
     0
102
RTVSPost2010PropOp55
 70
     1
102
RTVSPost2010Prop56
140
1.0
102
RTVSPost2010PropOp56
 70
     1
102
RTVSPost2010Prop57
140
1.0
102
RTVSPost2010PropOp57
 70
     1
102
RTVSPropertyOp0
 70
     1
102
RTVSPropertyOp1
 70
     1
102
RTVSPropertyOp2
 70
     1
102
RTVSPropertyOp3
 70
     1
102
RTVSPropertyOp4
 70
     1
102
RTVSPropertyOp5
 70
     1
102
RTVSPropertyOp6
 70
     1
102
RTVSPropertyOp7
 70
     1
102
RTVSPropertyOp8
 70
     1
102
RTVSPropertyOp9
 70
     1
102
RTVSPropertyOp10
 70
     1
102
RTVSPropertyOp11
 70
     1
102
RTVSPropertyOp12
 70
     1
102
RTVSPropertyOp13
 70
     1
102
RTVSPropertyOp14
 70
     1
102
RTVSPropertyOp15
 70
     1
102
RTVSPropertyOp16
 70
     1
102
RTVSPropertyOp17
 70
     1
102
RTVSPropertyOp18
 70
     1
102
RTVSPropertyOp19
 70
     1
102
RTVSPropertyOp20
 70
     1
102
RTVSPropertyOp21
 70
     1
102
RTVSPropertyOp22
 70
     1
102
RTVSPropertyOp23
 70
     1
102
RTVSPropertyOp24
 70
     1
102
RTVSPropertyOp25
 70
     1
102
RTVSPropertyOp26
 70
     1
102
RTVSPropertyOp27
 70
     1
102
RTVSPropertyOp28
 70
     1
102
RTVSPropertyOp29
 70
     1
102
RTVSPropertyOp30
 70
     1
102
RTVSPropertyOp31
 70
     1
102
RTVSPropertyOp32
 70
     1
102
RTVSPropertyOp33
 70
     1
102
RTVSPropertyOp34
 70
     1
102
RTVSPropertyOp35
 70
     1
102
RTVSPropertyOp36
 70
     1
102
RTVSPropertyOp37
 70
     1
102
RTVSPropertyOp38
 70
     1
102
RTVSPropertyOp39
 70
     1
102
RTVSPropertyOp40
 70
     1
102
RTVSPropertyOp41
 70
     1
102
RTVSPropertyOp42
 70
     1
102
RTVSPropertyOp43
 70
     1
102
RTVSPropertyOp44
 70
     1
102
RTVSPropertyOp45
 70
     1
102
RTVSPropertyOp46
 70
     1
102
RTVSPropertyOp47
 70
     1
102
RTVSPropertyOp48
 70
     1
102
RTVSPropertyOp49
 70
     1
102
RTVSPropertyOp50
 70
     1
102
RTVSPropertyOp51
 70
     0
102
RTVSPropertyOp52
 70
     0
102
RTVSPropertyOp53
 70
     1
102
RTVSPropertyOp54
 70
     1
102
RTVSPropertyOp55
 70
     1
102
RTVSPropertyOp56
 70
     1
102
RTVSPropertyOp57
 70
     1
102
RTVSPropertyOp58
 70
     1
102
RTVSPropertyOp59
 70
     1
102
RTVSPropertyOp60
 70
     1
102
RTVSPropertyOp61
 70
     1
102
RTVSPropertyOp62
 70
     1
  0
XRECORD
  5
28ED
102
{ACAD_REACTORS
330
28EC
102
}
330
28EC
100
AcDbXrecord
280
     1
102
RTVSPost2010Prop28
280
     0
102
RTVSPost2010PropOp28
 70
     1
102
RTVSPost2010Prop29
280
     1
102
RTVSPost2010PropOp29
 70
     1
102
RTVSPost2010Prop30
280
     1
102
RTVSPost2010PropOp30
 70
     1
102
RTVSPost2010Prop31
280
     0
102
RTVSPost2010PropOp31
 70
     1
102
RTVSPost2010Prop32
280
     0
102
RTVSPost2010PropOp32
 70
     1
102
RTVSPost2010Prop33
280
     0
102
RTVSPost2010PropOp33
 70
     1
102
RTVSPost2010Prop34
280
     0
102
RTVSPost2010PropOp34
 70
     1
102
RTVSPost2010Prop35
280
     0
102
RTVSPost2010PropOp35
 70
     1
102
RTVSPost2010Prop36
280
     0
102
RTVSPost2010PropOp36
 70
     1
102
RTVSPost2010Prop37
 90
       50
102
RTVSPost2010PropOp37
 70
     1
102
RTVSPost2010Prop38
140
0.0
102
RTVSPost2010PropOp38
 70
     1
102
RTVSPost2010Prop39
140
1.0
102
RTVSPost2010PropOp39
 70
     1
102
RTVSPost2010Prop40
 90
        0
102
RTVSPost2010PropOp40
 70
     1
102
RTVSPost2010Prop41ColorIndex
 90
       18
102
RTVSPost2010Prop41ColorRGB
 90
        0
102
RTVSPost2010PropOp41
 70
     1
102
RTVSPost2010Prop42
 90
       50
102
RTVSPost2010PropOp42
 70
     1
102
RTVSPost2010Prop43
 90
        3
102
RTVSPost2010PropOp43
 70
     1
102
RTVSPost2010Prop44ColorIndex
 90
        5
102
RTVSPost2010Prop44ColorRGB
 90
      255
102
RTVSPost2010PropOp44
 70
     1
102
RTVSPost2010Prop45
280
     0
102
RTVSPost2010PropOp45
 70
     1
102
RTVSPost2010Prop46
 90
       50
102
RTVSPost2010PropOp46
 70
     1
102
RTVSPost2010Prop47
 90
       50
102
RTVSPost2010PropOp47
 70
     1
102
RTVSPost2010Prop48
 90
       50
102
RTVSPost2010PropOp48
 70
     1
102
RTVSPost2010Prop49
280
     0
102
RTVSPost2010PropOp49
 70
     1
102
RTVSPost2010Prop50
 90
       50
102
RTVSPost2010PropOp50
 70
     1
102
RTVSPost2010Prop51ColorIndex
 90
      256
102
RTVSPost2010Prop51ColorRGB
 90
-16777216
102
RTVSPost2010PropOp51
 70
     0
102
RTVSPost2010Prop52
140
1.0
102
RTVSPost2010PropOp52
 70
     0
102
RTVSPost2010Prop53
 90
        2
102
RTVSPost2010PropOp53
 70
     1
102
RTVSPost2010Prop54
  1
strokes_ogs.tif
102
RTVSPost2010PropOp54
 70
     1
102
RTVSPost2010Prop55
280
     0
102
RTVSPost2010PropOp55
 70
     1
102
RTVSPost2010Prop56
140
1.0
102
RTVSPost2010PropOp56
 70
     1
102
RTVSPost2010Prop57
140
1.0
102
RTVSPost2010PropOp57
 70
     1
102
RTVSPropertyOp0
 70
     1
102
RTVSPropertyOp1
 70
     1
102
RTVSPropertyOp2
 70
     1
102
RTVSPropertyOp3
 70
     1
102
RTVSPropertyOp4
 70
     1
102
RTVSPropertyOp5
 70
     1
102
RTVSPropertyOp6
 70
     1
102
RTVSPropertyOp7
 70
     1
102
RTVSPropertyOp8
 70
     1
102
RTVSPropertyOp9
 70
     1
102
RTVSPropertyOp10
 70
     1
102
RTVSPropertyOp11
 70
     1
102
RTVSPropertyOp12
 70
     1
102
RTVSPropertyOp13
 70
     1
102
RTVSPropertyOp14
 70
     1
102
RTVSPropertyOp15
 70
     1
102
RTVSPropertyOp16
 70
     1
102
RTVSPropertyOp17
 70
     1
102
RTVSPropertyOp18
 70
     1
102
RTVSPropertyOp19
 70
     1
102
RTVSPropertyOp20
 70
     1
102
RTVSPropertyOp21
 70
     1
102
RTVSPropertyOp22
 70
     1
102
RTVSPropertyOp23
 70
     1
102
RTVSPropertyOp24
 70
     1
102
RTVSPropertyOp25
 70
     1
102
RTVSPropertyOp26
 70
     1
102
RTVSPropertyOp27
 70
     1
102
RTVSPropertyOp28
 70
     1
102
RTVSPropertyOp29
 70
     1
102
RTVSPropertyOp30
 70
     1
102
RTVSPropertyOp31
 70
     1
102
RTVSPropertyOp32
 70
     1
102
RTVSPropertyOp33
 70
     1
102
RTVSPropertyOp34
 70
     1
102
RTVSPropertyOp35
 70
     1
102
RTVSPropertyOp36
 70
     1
102
RTVSPropertyOp37
 70
     1
102
RTVSPropertyOp38
 70
     1
102
RTVSPropertyOp39
 70
     1
102
RTVSPropertyOp40
 70
     1
102
RTVSPropertyOp41
 70
     1
102
RTVSPropertyOp42
 70
     1
102
RTVSPropertyOp43
 70
     1
102
RTVSPropertyOp44
 70
     1
102
RTVSPropertyOp45
 70
     1
102
RTVSPropertyOp46
 70
     1
102
RTVSPropertyOp47
 70
     1
102
RTVSPropertyOp48
 70
     1
102
RTVSPropertyOp49
 70
     1
102
RTVSPropertyOp50
 70
     1
102
RTVSPropertyOp51
 70
     0
102
RTVSPropertyOp52
 70
     0
102
RTVSPropertyOp53
 70
     1
102
RTVSPropertyOp54
 70
     1
102
RTVSPropertyOp55
 70
     1
102
RTVSPropertyOp56
 70
     1
102
RTVSPropertyOp57
 70
     1
102
RTVSPropertyOp58
 70
     1
102
RTVSPropertyOp59
 70
     1
102
RTVSPropertyOp60
 70
     1
102
RTVSPropertyOp61
 70
     1
102
RTVSPropertyOp62
 70
     1
  0
XRECORD
  5
28E1
102
{ACAD_REACTORS
330
28E0
102
}
330
28E0
100
AcDbXrecord
280
     1
102
RTVSPost2010Prop28
280
     0
102
RTVSPost2010PropOp28
 70
     1
102
RTVSPost2010Prop29
280
     1
102
RTVSPost2010PropOp29
 70
     1
102
RTVSPost2010Prop30
280
     1
102
RTVSPost2010PropOp30
 70
     1
102
RTVSPost2010Prop31
280
     0
102
RTVSPost2010PropOp31
 70
     1
102
RTVSPost2010Prop32
280
     0
102
RTVSPost2010PropOp32
 70
     1
102
RTVSPost2010Prop33
280
     0
102
RTVSPost2010PropOp33
 70
     1
102
RTVSPost2010Prop34
280
     0
102
RTVSPost2010PropOp34
 70
     1
102
RTVSPost2010Prop35
280
     0
102
RTVSPost2010PropOp35
 70
     1
102
RTVSPost2010Prop36
280
     0
102
RTVSPost2010PropOp36
 70
     1
102
RTVSPost2010Prop37
 90
       50
102
RTVSPost2010PropOp37
 70
     1
102
RTVSPost2010Prop38
140
0.0
102
RTVSPost2010PropOp38
 70
     1
102
RTVSPost2010Prop39
140
1.0
102
RTVSPost2010PropOp39
 70
     1
102
RTVSPost2010Prop40
 90
        0
102
RTVSPost2010PropOp40
 70
     1
102
RTVSPost2010Prop41ColorIndex
 90
       18
102
RTVSPost2010Prop41ColorRGB
 90
        0
102
RTVSPost2010PropOp41
 70
     1
102
RTVSPost2010Prop42
 90
       50
102
RTVSPost2010PropOp42
 70
     1
102
RTVSPost2010Prop43
 90
        3
102
RTVSPost2010PropOp43
 70
     1
102
RTVSPost2010Prop44ColorIndex
 90
        5
102
RTVSPost2010Prop44ColorRGB
 90
      255
102
RTVSPost2010PropOp44
 70
     1
102
RTVSPost2010Prop45
280
     0
102
RTVSPost2010PropOp45
 70
     1
102
RTVSPost2010Prop46
 90
       50
102
RTVSPost2010PropOp46
 70
     1
102
RTVSPost2010Prop47
 90
       50
102
RTVSPost2010PropOp47
 70
     1
102
RTVSPost2010Prop48
 90
       50
102
RTVSPost2010PropOp48
 70
     1
102
RTVSPost2010Prop49
280
     0
102
RTVSPost2010PropOp49
 70
     1
102
RTVSPost2010Prop50
 90
       50
102
RTVSPost2010PropOp50
 70
     1
102
RTVSPost2010Prop51ColorIndex
 90
      256
102
RTVSPost2010Prop51ColorRGB
 90
-16777216
102
RTVSPost2010PropOp51
 70
     0
102
RTVSPost2010Prop52
140
1.0
102
RTVSPost2010PropOp52
 70
     0
102
RTVSPost2010Prop53
 90
        2
102
RTVSPost2010PropOp53
 70
     1
102
RTVSPost2010Prop54
  1
strokes_ogs.tif
102
RTVSPost2010PropOp54
 70
     1
102
RTVSPost2010Prop55
280
     0
102
RTVSPost2010PropOp55
 70
     1
102
RTVSPost2010Prop56
140
1.0
102
RTVSPost2010PropOp56
 70
     1
102
RTVSPost2010Prop57
140
1.0
102
RTVSPost2010PropOp57
 70
     1
102
RTVSPropertyOp0
 70
     1
102
RTVSPropertyOp1
 70
     1
102
RTVSPropertyOp2
 70
     1
102
RTVSPropertyOp3
 70
     1
102
RTVSPropertyOp4
 70
     1
102
RTVSPropertyOp5
 70
     1
102
RTVSPropertyOp6
 70
     1
102
RTVSPropertyOp7
 70
     1
102
RTVSPropertyOp8
 70
     1
102
RTVSPropertyOp9
 70
     1
102
RTVSPropertyOp10
 70
     1
102
RTVSPropertyOp11
 70
     1
102
RTVSPropertyOp12
 70
     1
102
RTVSPropertyOp13
 70
     1
102
RTVSPropertyOp14
 70
     1
102
RTVSPropertyOp15
 70
     1
102
RTVSPropertyOp16
 70
     1
102
RTVSPropertyOp17
 70
     1
102
RTVSPropertyOp18
 70
     1
102
RTVSPropertyOp19
 70
     1
102
RTVSPropertyOp20
 70
     1
102
RTVSPropertyOp21
 70
     1
102
RTVSPropertyOp22
 70
     1
102
RTVSPropertyOp23
 70
     1
102
RTVSPropertyOp24
 70
     1
102
RTVSPropertyOp25
 70
     1
102
RTVSPropertyOp26
 70
     1
102
RTVSPropertyOp27
 70
     1
102
RTVSPropertyOp28
 70
     1
102
RTVSPropertyOp29
 70
     1
102
RTVSPropertyOp30
 70
     1
102
RTVSPropertyOp31
 70
     1
102
RTVSPropertyOp32
 70
     1
102
RTVSPropertyOp33
 70
     1
102
RTVSPropertyOp34
 70
     1
102
RTVSPropertyOp35
 70
     1
102
RTVSPropertyOp36
 70
     1
102
RTVSPropertyOp37
 70
     1
102
RTVSPropertyOp38
 70
     1
102
RTVSPropertyOp39
 70
     1
102
RTVSPropertyOp40
 70
     1
102
RTVSPropertyOp41
 70
     1
102
RTVSPropertyOp42
 70
     1
102
RTVSPropertyOp43
 70
     1
102
RTVSPropertyOp44
 70
     1
102
RTVSPropertyOp45
 70
     1
102
RTVSPropertyOp46
 70
     1
102
RTVSPropertyOp47
 70
     1
102
RTVSPropertyOp48
 70
     1
102
RTVSPropertyOp49
 70
     1
102
RTVSPropertyOp50
 70
     1
102
RTVSPropertyOp51
 70
     0
102
RTVSPropertyOp52
 70
     0
102
RTVSPropertyOp53
 70
     1
102
RTVSPropertyOp54
 70
     1
102
RTVSPropertyOp55
 70
     1
102
RTVSPropertyOp56
 70
     1
102
RTVSPropertyOp57
 70
     1
102
RTVSPropertyOp58
 70
     1
102
RTVSPropertyOp59
 70
     1
102
RTVSPropertyOp60
 70
     1
102
RTVSPropertyOp61
 70
     1
102
RTVSPropertyOp62
 70
     1
  0
XRECORD
  5
28F9
102
{ACAD_REACTORS
330
28F8
102
}
330
28F8
100
AcDbXrecord
280
     1
102
RTVSPost2010Prop28
280
     0
102
RTVSPost2010PropOp28
 70
     1
102
RTVSPost2010Prop29
280
     1
102
RTVSPost2010PropOp29
 70
     1
102
RTVSPost2010Prop30
280
     1
102
RTVSPost2010PropOp30
 70
     1
102
RTVSPost2010Prop31
280
     0
102
RTVSPost2010PropOp31
 70
     1
102
RTVSPost2010Prop32
280
     0
102
RTVSPost2010PropOp32
 70
     1
102
RTVSPost2010Prop33
280
     0
102
RTVSPost2010PropOp33
 70
     1
102
RTVSPost2010Prop34
280
     0
102
RTVSPost2010PropOp34
 70
     1
102
RTVSPost2010Prop35
280
     0
102
RTVSPost2010PropOp35
 70
     1
102
RTVSPost2010Prop36
280
     0
102
RTVSPost2010PropOp36
 70
     1
102
RTVSPost2010Prop37
 90
       50
102
RTVSPost2010PropOp37
 70
     1
102
RTVSPost2010Prop38
140
0.0
102
RTVSPost2010PropOp38
 70
     1
102
RTVSPost2010Prop39
140
1.0
102
RTVSPost2010PropOp39
 70
     1
102
RTVSPost2010Prop40
 90
        0
102
RTVSPost2010PropOp40
 70
     1
102
RTVSPost2010Prop41ColorIndex
 90
       18
102
RTVSPost2010Prop41ColorRGB
 90
        0
102
RTVSPost2010PropOp41
 70
     1
102
RTVSPost2010Prop42
 90
       50
102
RTVSPost2010PropOp42
 70
     1
102
RTVSPost2010Prop43
 90
        3
102
RTVSPost2010PropOp43
 70
     1
102
RTVSPost2010Prop44ColorIndex
 90
        5
102
RTVSPost2010Prop44ColorRGB
 90
      255
102
RTVSPost2010PropOp44
 70
     1
102
RTVSPost2010Prop45
280
     0
102
RTVSPost2010PropOp45
 70
     1
102
RTVSPost2010Prop46
 90
       50
102
RTVSPost2010PropOp46
 70
     1
102
RTVSPost2010Prop47
 90
       50
102
RTVSPost2010PropOp47
 70
     1
102
RTVSPost2010Prop48
 90
       50
102
RTVSPost2010PropOp48
 70
     1
102
RTVSPost2010Prop49
280
     0
102
RTVSPost2010PropOp49
 70
     1
102
RTVSPost2010Prop50
 90
       50
102
RTVSPost2010PropOp50
 70
     1
102
RTVSPost2010Prop51ColorIndex
 90
      256
102
RTVSPost2010Prop51ColorRGB
 90
-16777216
102
RTVSPost2010PropOp51
 70
     0
102
RTVSPost2010Prop52
140
1.0
102
RTVSPost2010PropOp52
 70
     0
102
RTVSPost2010Prop53
 90
        2
102
RTVSPost2010PropOp53
 70
     1
102
RTVSPost2010Prop54
  1
strokes_ogs.tif
102
RTVSPost2010PropOp54
 70
     1
102
RTVSPost2010Prop55
280
     0
102
RTVSPost2010PropOp55
 70
     1
102
RTVSPost2010Prop56
140
1.0
102
RTVSPost2010PropOp56
 70
     1
102
RTVSPost2010Prop57
140
1.0
102
RTVSPost2010PropOp57
 70
     1
102
RTVSPropertyOp0
 70
     1
102
RTVSPropertyOp1
 70
     1
102
RTVSPropertyOp2
 70
     1
102
RTVSPropertyOp3
 70
     1
102
RTVSPropertyOp4
 70
     1
102
RTVSPropertyOp5
 70
     1
102
RTVSPropertyOp6
 70
     1
102
RTVSPropertyOp7
 70
     1
102
RTVSPropertyOp8
 70
     1
102
RTVSPropertyOp9
 70
     1
102
RTVSPropertyOp10
 70
     1
102
RTVSPropertyOp11
 70
     1
102
RTVSPropertyOp12
 70
     1
102
RTVSPropertyOp13
 70
     1
102
RTVSPropertyOp14
 70
     1
102
RTVSPropertyOp15
 70
     1
102
RTVSPropertyOp16
 70
     1
102
RTVSPropertyOp17
 70
     1
102
RTVSPropertyOp18
 70
     1
102
RTVSPropertyOp19
 70
     1
102
RTVSPropertyOp20
 70
     1
102
RTVSPropertyOp21
 70
     1
102
RTVSPropertyOp22
 70
     1
102
RTVSPropertyOp23
 70
     1
102
RTVSPropertyOp24
 70
     1
102
RTVSPropertyOp25
 70
     1
102
RTVSPropertyOp26
 70
     1
102
RTVSPropertyOp27
 70
     1
102
RTVSPropertyOp28
 70
     1
102
RTVSPropertyOp29
 70
     1
102
RTVSPropertyOp30
 70
     1
102
RTVSPropertyOp31
 70
     1
102
RTVSPropertyOp32
 70
     1
102
RTVSPropertyOp33
 70
     1
102
RTVSPropertyOp34
 70
     1
102
RTVSPropertyOp35
 70
     1
102
RTVSPropertyOp36
 70
     1
102
RTVSPropertyOp37
 70
     1
102
RTVSPropertyOp38
 70
     1
102
RTVSPropertyOp39
 70
     1
102
RTVSPropertyOp40
 70
     1
102
RTVSPropertyOp41
 70
     1
102
RTVSPropertyOp42
 70
     1
102
RTVSPropertyOp43
 70
     1
102
RTVSPropertyOp44
 70
     1
102
RTVSPropertyOp45
 70
     1
102
RTVSPropertyOp46
 70
     1
102
RTVSPropertyOp47
 70
     1
102
RTVSPropertyOp48
 70
     1
102
RTVSPropertyOp49
 70
     1
102
RTVSPropertyOp50
 70
     1
102
RTVSPropertyOp51
 70
     0
102
RTVSPropertyOp52
 70
     0
102
RTVSPropertyOp53
 70
     1
102
RTVSPropertyOp54
 70
     1
102
RTVSPropertyOp55
 70
     1
102
RTVSPropertyOp56
 70
     1
102
RTVSPropertyOp57
 70
     1
102
RTVSPropertyOp58
 70
     1
102
RTVSPropertyOp59
 70
     1
102
RTVSPropertyOp60
 70
     1
102
RTVSPropertyOp61
 70
     1
102
RTVSPropertyOp62
 70
     1
  0
ENDSEC
  0
EOF
