  0
SECTION
  2
HEADER
  9
$ACADVER
  1
AC1015
  9
$DWGCODEPAGE
  3
ANSI_932
  9
$LTSCALE
 40
20.0
  9
$FILLMODE
 70
     1
  9
$CLAYER
  8
0
  9
$PDMODE
 70
     0
  9
$SPLFRAME
 70
     0
  9
$SPLINETYPE
 70
     6
  9
$SPLINESEGS
 70
     8
  9
$DIMASZ
 40
2.000000
  9
$DIMEXE
 40
1.500000
  9
$DIMEXO
 40
0.800000
  9
$DIMTAD
 70
     1
  9
$DIMTIH
 70
     0
  9
$DIMTOH
 70
     0
  9
$DIMTVP
 40
0.500000
  9
$DIMTXT
 40
3.100000
  9
$EXTMIN
 10
0.000000
 20
0.000000
 30
0.000000
  9
$EXTMAX
 10
297.000000
 20
420.000000
 30
0.000000
  9
$MEASUREMENT
 70
  1
  9
$LIMMIN
 10
0.000000
 20
0.000000
  9
$LIMMAX
 10
297.000000
 20
420.000000
  9
$HANDSEED
  5
14F
  9
$LWDISPLAY
290
     0
  9
$DIMBLK
  1
_OPEN
  9
$DIMDEC
 70
     2
  9
$DIMADEC
 70
     2
  9
$DIMAUNIT
 70
     0
  9
$DIMZIN
 70
     8
  9
$DIMAZIN
 70
     2
  9
$DIMTOFL
 70
     1
  0
ENDSEC
  0
SECTION
  2
CLASSES
  0
ENDSEC
  0
SECTION
  2
TABLES
  0
TABLE
  2
VPORT
  5
11D
100
AcDbSymbolTable
 70
     1
  0
VPORT
  5
11E
100
AcDbSymbolTableRecord
100
AcDbViewportTableRecord
  2
*ACTIVE
 70
     0
 12
135.249999
 22
137.750000
 40
239.499999
 41
1.045929
  0
ENDTAB
  0
TABLE
  2
LTYPE
  5
11F
100
AcDbSymbolTable
 70
     2
  0
LTYPE
  5
120
100
AcDbSymbolTableRecord
100
AcDbLinetypeTableRecord
  2
BYBLOCK
 70
     0
  3

 72
    65
 73
     0
 40
0.0
  0
LTYPE
  5
121
100
AcDbSymbolTableRecord
100
AcDbLinetypeTableRecord
  2
BYLAYER
 70
     0
  3

 72
    65
 73
     0
 40
0.0
  0
LTYPE
  5
122
100
AcDbSymbolTableRecord
100
AcDbLinetypeTableRecord
  2
CONTINUOUS
 70
     0
  3
Solid line (NEC CAE2D for Win R18.0 : 2024.04.25)
 72
    65
 73
     0
 40
0.0
  0
LTYPE
  5
123
100
AcDbSymbolTableRecord
100
AcDbLinetypeTableRecord
  2
CENTER
 70
     0
  3
____ _ ____ _ ____ _ ____ _ ____ _ ____
 72
    65
 73
     4
 40
2.0
 49
1.25
 74
     0
 49
-0.25
 74
     0
 49
0.25
 74
     0
 49
-0.25
 74
     0
  0
ENDTAB
  0
TABLE
  2
LAYER
  5
124
100
AcDbSymbolTable
 70
    12
  0
LAYER
  5
125
100
AcDbSymbolTableRecord
100
AcDbLayerTableRecord
  2
0
 70
     0
 62
     7
  6
CONTINUOUS
370
    -3
390

  0
LAYER
  5
126
100
AcDbSymbolTableRecord
100
AcDbLayerTableRecord
  2
A0
 70
     0
 62
     9
  6
CONTINUOUS
370
    -3
390

  0
LAYER
  5
127
100
AcDbSymbolTableRecord
100
AcDbLayerTableRecord
  2
A1
 70
     0
 62
     8
  6
CONTINUOUS
370
    -3
390

  0
LAYER
  5
128
100
AcDbSymbolTableRecord
100
AcDbLayerTableRecord
  2
A2
 70
     0
 62
    12
  6
CONTINUOUS
370
    -3
390

  0
LAYER
  5
129
100
AcDbSymbolTableRecord
100
AcDbLayerTableRecord
  2
A4
 70
     0
 62
    12
  6
CONTINUOUS
370
    -3
390

  0
LAYER
  5
12A
100
AcDbSymbolTableRecord
100
AcDbLayerTableRecord
  2
A8
 70
     0
 62
    10
  6
CONTINUOUS
370
    -3
390

  0
LAYER
  5
12B
100
AcDbSymbolTableRecord
100
AcDbLayerTableRecord
  2
A10
 70
     0
 62
     6
  6
CONTINUOUS
370
    -3
390

  0
LAYER
  5
12C
100
AcDbSymbolTableRecord
100
AcDbLayerTableRecord
  2
A20
 70
     0
 62
     1
  6
CONTINUOUS
370
    -3
390

  0
LAYER
  5
12D
100
AcDbSymbolTableRecord
100
AcDbLayerTableRecord
  2
A30
 70
     0
 62
     1
  6
CONTINUOUS
370
    -3
390

  0
LAYER
  5
12E
100
AcDbSymbolTableRecord
100
AcDbLayerTableRecord
  2
A40
 70
     0
 62
     9
  6
CONTINUOUS
370
    -3
390

  0
LAYER
  5
12F
100
AcDbSymbolTableRecord
100
AcDbLayerTableRecord
  2
A50
 70
     0
 62
    12
  6
CONTINUOUS
370
    -3
390

  0
LAYER
  5
130
100
AcDbSymbolTableRecord
100
AcDbLayerTableRecord
  2
A1023
 70
     0
 62
    16
  6
CONTINUOUS
370
    -3
390

  0
ENDTAB
  0
TABLE
  2
STYLE
  5
131
100
AcDbSymbolTable
 70
     4
  0
STYLE
  5
132
100
AcDbSymbolTableRecord
100
AcDbTextStyleTableRecord
  2
STANDARD
 70
    64
 40
0.0
 41
1.0
 50
0.0
 71
     0
 42
3.000000000000000
  3
TXT
  4

  0
STYLE
  5
133
100
AcDbSymbolTableRecord
100
AcDbTextStyleTableRecord
  2
ANKTATE
 70
    68
 40
0.0
 41
1.0
 50
0.0
 71
     0
 42
3.000000000000000
  3
TXT
  4

  0
STYLE
  5
134
100
AcDbSymbolTableRecord
100
AcDbTextStyleTableRecord
  2
KNJYOKO
 70
    64
 40
0.0
 41
1.0
 50
0.0
 71
     0
 42
3.000000000000000
  3
TXT
  4
BIGFONT
  0
STYLE
  5
135
100
AcDbSymbolTableRecord
100
AcDbTextStyleTableRecord
  2
KNJTATE
 70
    68
 40
0.0
 41
1.0
 50
0.0
 71
     0
 42
3.000000000000000
  3
TXT
  4
BIGFONT
  0
ENDTAB
  0
TABLE
  2
VIEW
  5
136
100
AcDbSymbolTable
 70
     0
  0
ENDTAB
  0
TABLE
  2
UCS
  5
137
100
AcDbSymbolTable
 70
     0
  0
ENDTAB
  0
TABLE
  2
APPID
  5
138
100
AcDbSymbolTable
 70
     1
  0
APPID
  5
139
100
AcDbSymbolTableRecord
100
AcDbRegAppTableRecord
  2
ACAD
 70
     0
  0
ENDTAB
  0
TABLE
  2
DIMSTYLE
  5
13A
100
AcDbSymbolTable
 70
     2
100
AcDbDimStyleTable
  0
DIMSTYLE
105
13B
100
AcDbSymbolTableRecord
100
AcDbDimStyleTableRecord
  2
STANDARD
 70
     0
 41
2.000000
 44
1.500000
 42
0.800000
145
0.661290
140
3.100000
144
1.000000
146
0.645161
340
132
  0
DIMSTYLE
105
13C
100
AcDbSymbolTableRecord
100
AcDbDimStyleTableRecord
  2
A001
 70
     0
 41
2.000000
 44
1.500000
 42
0.800000
145
0.661290
140
3.100000
144
1.000000
146
0.645161
 77
     1
 73
     0
 74
     0
271
     2
179
     2
275
     0
 78
     8
 79
     2
172
     1
340
132
  0
ENDTAB
  0
TABLE
  2
BLOCK_RECORD
  5
13D
100
AcDbSymbolTable
 70
    12
  0
BLOCK_RECORD
  5
13E
100
AcDbSymbolTableRecord
100
AcDbBlockTableRecord
  2
*MODEL_SPACE
  0
BLOCK_RECORD
  5
13F
100
AcDbSymbolTableRecord
100
AcDbBlockTableRecord
  2
*PAPER_SPACE
  0
BLOCK_RECORD
  5
140
100
AcDbSymbolTableRecord
100
AcDbBlockTableRecord
  2
*PAPER_SPACE0
  0
BLOCK_RECORD
  5
1
100
AcDbSymbolTableRecord
100
AcDbBlockTableRecord
  2
_NONE
  0
BLOCK_RECORD
  5
4
100
AcDbSymbolTableRecord
100
AcDbBlockTableRecord
  2
_CLOSED
  0
BLOCK_RECORD
  5
B
100
AcDbSymbolTableRecord
100
AcDbBlockTableRecord
  2
_DOT
  0
BLOCK_RECORD
  5
13
100
AcDbSymbolTableRecord
100
AcDbBlockTableRecord
  2
_OPEN
  0
BLOCK_RECORD
  5
19
100
AcDbSymbolTableRecord
100
AcDbBlockTableRecord
  2
_ORIGIN
  0
BLOCK_RECORD
  5
1E
100
AcDbSymbolTableRecord
100
AcDbBlockTableRecord
  2
_OPEN30
  0
BLOCK_RECORD
  5
24
100
AcDbSymbolTableRecord
100
AcDbBlockTableRecord
  2
_BOXFILLED
  0
BLOCK_RECORD
  5
29
100
AcDbSymbolTableRecord
100
AcDbBlockTableRecord
  2
_BOXBLANK
  0
BLOCK_RECORD
  5
31
100
AcDbSymbolTableRecord
100
AcDbBlockTableRecord
  2
_OBLIQUE
  0
BLOCK_RECORD
  5
35
100
AcDbSymbolTableRecord
100
AcDbBlockTableRecord
  2
_OPEN90
  0
BLOCK_RECORD
  5
3B
100
AcDbSymbolTableRecord
100
AcDbBlockTableRecord
  2
_CLOSEDBLANK
  0
BLOCK_RECORD
  5
41
100
AcDbSymbolTableRecord
100
AcDbBlockTableRecord
  2
_DOTBLANK
  0
ENDTAB
  0
ENDSEC
  0
SECTION
  2
BLOCKS
  0
BLOCK
  5
141
100
AcDbEntity
  8
0
100
AcDbBlockBegin
  2
*MODEL_SPACE
 70
     0
 10
0.0
 20
0.0
 30
0.0
  3
*MODEL_SPACE
  1

  0
ENDBLK
  5
142
100
AcDbEntity
  8
0
100
AcDbBlockEnd
  0
BLOCK
  5
143
100
AcDbEntity
  8
0
100
AcDbBlockBegin
  2
*PAPER_SPACE
 70
     0
 10
0.0
 20
0.0
 30
0.0
  3
*PAPER_SPACE
  1

  0
ENDBLK
  5
144
100
AcDbEntity
  8
0
100
AcDbBlockEnd
  0
BLOCK
  5
145
100
AcDbEntity
  8
0
100
AcDbBlockBegin
  2
*PAPER_SPACE0
 70
     0
 10
0.0
 20
0.0
 30
0.0
  3
*PAPER_SPACE0
  1

  0
ENDBLK
  5
146
100
AcDbEntity
  8
0
100
AcDbBlockEnd
  0
BLOCK
  5
2
330
1
100
AcDbEntity
  8
0
100
AcDbBlockBegin
  2
_NONE
 70
     0
 10
0.0
 20
0.0
 30
0.0
  3
_NONE
  1

  0
ENDBLK
  5
3
330
1
100
AcDbEntity
  8
0
100
AcDbBlockEnd
  0
BLOCK
  5
5
330
4
100
AcDbEntity
  8
0
100
AcDbBlockBegin
  2
_CLOSED
 70
     0
 10
0.0
 20
0.0
 30
0.0
  3
_CLOSED
  1

  0
LINE
  5
6
330
4
100
AcDbEntity
  8
0
  6
BYBLOCK
 62
     0
370
    -2
100
AcDbLine
 10
-1.0
 20
0.166667
 30
0.0
 11
0.0
 21
0.0
 31
0.0
  0
LINE
  5
7
330
4
100
AcDbEntity
  8
0
  6
BYBLOCK
 62
     0
370
    -2
100
AcDbLine
 10
0.0
 20
0.0
 30
0.0
 11
-1.0
 21
-0.166667
 31
0.0
  0
LINE
  5
8
330
4
100
AcDbEntity
  8
0
  6
BYBLOCK
 62
     0
370
    -2
100
AcDbLine
 10
-1.0
 20
0.166667
 30
0.0
 11
-1.0
 21
-0.166667
 31
0.0
  0
LINE
  5
9
330
4
100
AcDbEntity
  8
0
  6
BYBLOCK
 62
     0
370
    -2
100
AcDbLine
 10
0.0
 20
0.0
 30
0.0
 11
-1.0
 21
0.0
 31
0.0
  0
ENDBLK
  5
A
330
4
100
AcDbEntity
  8
0
100
AcDbBlockEnd
  0
BLOCK
  5
C
330
B
100
AcDbEntity
  8
0
100
AcDbBlockBegin
  2
_DOT
 70
     0
 10
0.0
 20
0.0
 30
0.0
  3
_DOT
  1

  0
POLYLINE
  5
D
330
B
100
AcDbEntity
  8
0
  6
BYBLOCK
 62
     0
370
    -2
100
AcDb2dPolyline
 66
     1
 10
0.0
 20
0.0
 30
0.0
 70
     1
 40
0.5
 41
0.5
  0
VERTEX
  5
E
330
B
100
AcDbEntity
  8
0
  6
BYBLOCK
 62
     0
370
    -2
100
AcDbVertex
100
AcDb2dVertex
 10
-0.25
 20
0.0
 30
0.0
 42
1.0
  0
VERTEX
  5
F
330
B
100
AcDbEntity
  8
0
  6
BYBLOCK
 62
     0
370
    -2
100
AcDbVertex
100
AcDb2dVertex
 10
0.25
 20
0.0
 30
0.0
 42
1.0
  0
SEQEND
  5
10
330
B
100
AcDbEntity
  8
0
  6
BYBLOCK
 62
     0
370
    -2
  0
LINE
  5
11
330
B
100
AcDbEntity
  8
0
  6
BYBLOCK
 62
     0
370
    -2
100
AcDbLine
 10
-0.5
 20
0.0
 30
0.0
 11
-1.0
 21
0.0
 31
0.0
  0
ENDBLK
  5
12
330
B
100
AcDbEntity
  8
0
100
AcDbBlockEnd
  0
BLOCK
  5
14
330
13
100
AcDbEntity
  8
0
100
AcDbBlockBegin
  2
_OPEN
 70
     0
 10
0.0
 20
0.0
 30
0.0
  3
_OPEN
  1

  0
LINE
  5
15
330
13
100
AcDbEntity
  8
0
  6
BYBLOCK
 62
     0
370
    -2
100
AcDbLine
 10
-1.0
 20
0.166667
 30
0.0
 11
0.0
 21
0.0
 31
0.0
  0
LINE
  5
16
330
13
100
AcDbEntity
  8
0
  6
BYBLOCK
 62
     0
370
    -2
100
AcDbLine
 10
0.0
 20
0.0
 30
0.0
 11
-1.0
 21
-0.166667
 31
0.0
  0
LINE
  5
17
330
13
100
AcDbEntity
  8
0
  6
BYBLOCK
 62
     0
370
    -2
100
AcDbLine
 10
0.0
 20
0.0
 30
0.0
 11
-1.0
 21
0.0
 31
0.0
  0
ENDBLK
  5
18
330
13
100
AcDbEntity
  8
0
100
AcDbBlockEnd
  0
BLOCK
  5
1A
330
19
100
AcDbEntity
  8
0
100
AcDbBlockBegin
  2
_ORIGIN
 70
     0
 10
0.0
 20
0.0
 30
0.0
  3
_ORIGIN
  1

  0
CIRCLE
  5
1B
330
19
100
AcDbEntity
  8
0
  6
BYBLOCK
 62
     0
370
    -2
100
AcDbCircle
 10
0.0
 20
0.0
 30
0.0
 40
0.5
  0
LINE
  5
1C
330
19
100
AcDbEntity
  8
0
  6
BYBLOCK
 62
     0
370
    -2
100
AcDbLine
 10
0.0
 20
0.0
 30
0.0
 11
-1.0
 21
0.0
 31
0.0
  0
ENDBLK
  5
1D
330
19
100
AcDbEntity
  8
0
100
AcDbBlockEnd
  0
BLOCK
  5
1F
330
1E
100
AcDbEntity
  8
0
100
AcDbBlockBegin
  2
_OPEN30
 70
     0
 10
0.0
 20
0.0
 30
0.0
  3
_OPEN30
  1

  0
LINE
  5
20
330
1E
100
AcDbEntity
  8
0
  6
BYBLOCK
 62
     0
370
    -2
100
AcDbLine
 10
-1.0
 20
0.267949
 30
0.0
 11
0.0
 21
0.0
 31
0.0
  0
LINE
  5
21
330
1E
100
AcDbEntity
  8
0
  6
BYBLOCK
 62
     0
370
    -2
100
AcDbLine
 10
0.0
 20
0.0
 30
0.0
 11
-1.0
 21
-0.267949
 31
0.0
  0
LINE
  5
22
330
1E
100
AcDbEntity
  8
0
  6
BYBLOCK
 62
     0
370
    -2
100
AcDbLine
 10
0.0
 20
0.0
 30
0.0
 11
-1.0
 21
0.0
 31
0.0
  0
ENDBLK
  5
23
330
1E
100
AcDbEntity
  8
0
100
AcDbBlockEnd
  0
BLOCK
  5
25
330
24
100
AcDbEntity
  8
0
100
AcDbBlockBegin
  2
_BOXFILLED
 70
     0
 10
0.0
 20
0.0
 30
0.0
  3
_BOXFILLED
  1

  0
SOLID
  5
26
330
24
100
AcDbEntity
  8
0
  6
BYBLOCK
 62
     0
370
    -2
100
AcDbTrace
 10
-0.5
 20
0.5
 30
0.0
 11
0.5
 21
0.5
 31
0.0
 12
-0.5
 22
-0.5
 32
0.0
 13
0.5
 23
-0.5
 33
0.0
  0
LINE
  5
27
330
24
100
AcDbEntity
  8
0
  6
BYBLOCK
 62
     0
370
    -2
100
AcDbLine
 10
-0.5
 20
0.0
 30
0.0
 11
-1.0
 21
0.0
 31
0.0
  0
ENDBLK
  5
28
330
24
100
AcDbEntity
  8
0
100
AcDbBlockEnd
  0
BLOCK
  5
2A
330
29
100
AcDbEntity
  8
0
100
AcDbBlockBegin
  2
_BOXBLANK
 70
     0
 10
0.0
 20
0.0
 30
0.0
  3
_BOXBLANK
  1

  0
LINE
  5
2B
330
29
100
AcDbEntity
  8
0
  6
BYBLOCK
 62
     0
370
    -2
100
AcDbLine
 10
-0.5
 20
-0.5
 30
0.0
 11
0.5
 21
-0.5
 31
0.0
  0
LINE
  5
2C
330
29
100
AcDbEntity
  8
0
  6
BYBLOCK
 62
     0
370
    -2
100
AcDbLine
 10
0.5
 20
-0.5
 30
0.0
 11
0.5
 21
0.5
 31
0.0
  0
LINE
  5
2D
330
29
100
AcDbEntity
  8
0
  6
BYBLOCK
 62
     0
370
    -2
100
AcDbLine
 10
0.5
 20
0.5
 30
0.0
 11
-0.5
 21
0.5
 31
0.0
  0
LINE
  5
2E
330
29
100
AcDbEntity
  8
0
  6
BYBLOCK
 62
     0
370
    -2
100
AcDbLine
 10
-0.5
 20
0.5
 30
0.0
 11
-0.5
 21
-0.5
 31
0.0
  0
LINE
  5
2F
330
29
100
AcDbEntity
  8
0
  6
BYBLOCK
 62
     0
370
    -2
100
AcDbLine
 10
-0.5
 20
0.0
 30
0.0
 11
-1.0
 21
0.0
 31
0.0
  0
ENDBLK
  5
30
330
29
100
AcDbEntity
  8
0
100
AcDbBlockEnd
  0
BLOCK
  5
32
330
31
100
AcDbEntity
  8
0
100
AcDbBlockBegin
  2
_OBLIQUE
 70
     0
 10
0.0
 20
0.0
 30
0.0
  3
_OBLIQUE
  1

  0
LINE
  5
33
330
31
100
AcDbEntity
  8
0
  6
BYBLOCK
 62
     0
370
    -2
100
AcDbLine
 10
-0.5
 20
-0.5
 30
0.0
 11
0.5
 21
0.5
 31
0.0
  0
ENDBLK
  5
34
330
31
100
AcDbEntity
  8
0
100
AcDbBlockEnd
  0
BLOCK
  5
36
330
35
100
AcDbEntity
  8
0
100
AcDbBlockBegin
  2
_OPEN90
 70
     0
 10
0.0
 20
0.0
 30
0.0
  3
_OPEN90
  1

  0
LINE
  5
37
330
35
100
AcDbEntity
  8
0
  6
BYBLOCK
 62
     0
370
    -2
100
AcDbLine
 10
-0.5
 20
0.5
 30
0.0
 11
0.0
 21
0.0
 31
0.0
  0
LINE
  5
38
330
35
100
AcDbEntity
  8
0
  6
BYBLOCK
 62
     0
370
    -2
100
AcDbLine
 10
0.0
 20
0.0
 30
0.0
 11
-0.5
 21
-0.5
 31
0.0
  0
LINE
  5
39
330
35
100
AcDbEntity
  8
0
  6
BYBLOCK
 62
     0
370
    -2
100
AcDbLine
 10
0.0
 20
0.0
 30
0.0
 11
-1.0
 21
0.0
 31
0.0
  0
ENDBLK
  5
3A
330
35
100
AcDbEntity
  8
0
100
AcDbBlockEnd
  0
BLOCK
  5
3C
330
3B
100
AcDbEntity
  8
0
100
AcDbBlockBegin
  2
_CLOSEDBLANK
 70
     0
 10
0.0
 20
0.0
 30
0.0
  3
_CLOSEDBLANK
  1

  0
LINE
  5
3D
330
3B
100
AcDbEntity
  8
0
  6
BYBLOCK
 62
     0
370
    -2
100
AcDbLine
 10
-1.0
 20
0.1666666666666666
 30
0.0
 11
0.0
 21
0.0
 31
0.0
  0
LINE
  5
3E
330
3B
100
AcDbEntity
  8
0
  6
BYBLOCK
 62
     0
370
    -2
100
AcDbLine
 10
0.0
 20
0.0
 30
0.0
 11
-1.0
 21
-0.1666666666666666
 31
0.0
  0
LINE
  5
3F
330
3B
100
AcDbEntity
  8
0
  6
BYBLOCK
 62
     0
370
    -2
100
AcDbLine
 10
-1.0
 20
0.1666666666666666
 30
0.0
 11
-1.0
 21
-0.1666666666666666
 31
0.0
  0
ENDBLK
  5
40
330
3B
100
AcDbEntity
  8
0
100
AcDbBlockEnd
  0
BLOCK
  5
42
330
41
100
AcDbEntity
  8
0
100
AcDbBlockBegin
  2
_DOTBLANK
 70
     0
 10
0.0
 20
0.0
 30
0.0
  3
_DOTBLANK
  1

  0
CIRCLE
  5
43
330
41
100
AcDbEntity
  8
0
  6
BYBLOCK
 62
     0
370
    -2
100
AcDbCircle
 10
0.0
 20
0.0
 30
0.0
 40
0.5
  0
LINE
  5
44
330
41
100
AcDbEntity
  8
0
  6
BYBLOCK
 62
     0
370
    -2
100
AcDbLine
 10
-0.5
 20
0.0
 30
0.0
 11
-1.0
 21
0.0
 31
0.0
  0
ENDBLK
  5
45
330
41
100
AcDbEntity
  8
0
100
AcDbBlockEnd
  0
ENDSEC
  0
SECTION
  2
ENTITIES
  0
MTEXT
  5
46
100
AcDbEntity
  8
A8
  6
CONTINUOUS
 62
3
100
AcDbMText
 10
9.999997526638502
 20
18.00000076076889
 30
0.000000000000000
 40
3.000000000000000
 41
0.000000000000000
 44
0.6739999771118164
 71
     7
 72
     1
  1
{\H0.94x;{TYPE No.TCA-540S-BAU50}}
 11
1.000000000000000
 21
0.000000000000000
 31
0.000000000000000
  7
STANDARD
  0
POINT
  5
47
100
AcDbEntity
  8
A0
  6
CONTINUOUS
 62
3
100
AcDbPoint
 10
9.999997526638502
 20
18.00000076076889
 30
0.000000000000000
  0
POINT
  5
48
100
AcDbEntity
  8
A10
  6
CONTINUOUS
 62
3
100
AcDbPoint
 10
50.00000000000000
 20
50.00000000000000
 30
0.000000000000000
  0
LINE
  5
49
100
AcDbEntity
  8
A4
  6
CENTER
 62
1
100
AcDbLine
 10
198.0000000000000
 20
101.4999999999999
 30
0.000000000000000
 11
198.0000000000000
 21
48.49999999999994
 31
0.000000000000000
  0
LINE
  5
4A
100
AcDbEntity
  8
A4
  6
CENTER
 62
1
100
AcDbLine
 10
186.5000000000000
 20
130.5000000000000
 30
0.000000000000000
 11
186.5000000000000
 21
124.3000001999999
 31
0.000000000000000
  0
LINE
  5
4B
100
AcDbEntity
  8
A4
  6
CENTER
 62
1
100
AcDbLine
 10
218.0000000000000
 20
130.5000000000000
 30
0.000000000000000
 11
218.0000000000000
 21
48.49999999999994
 31
0.000000000000000
  0
LINE
  5
4C
100
AcDbEntity
  8
A4
  6
CENTER
 62
1
100
AcDbLine
 10
218.0000000000000
 20
257.4999999999999
 30
0.000000000000000
 11
218.0000000000000
 21
172.4999999999999
 31
0.000000000000000
  0
LINE
  5
4D
100
AcDbEntity
  8
A4
  6
CENTER
 62
1
100
AcDbLine
 10
171.5000000000000
 20
215.0000000000000
 30
0.000000000000000
 11
260.5000000000000
 21
215.0000000000000
 31
0.000000000000000
  0
LINE
  5
4E
100
AcDbEntity
  8
A4
  6
CENTER
 62
1
100
AcDbLine
 10
55.49994764012587
 20
74.99999999999994
 30
0.000000000000000
 11
124.9849202053700
 21
74.99999999999994
 31
0.000000000000000
  0
LINE
  5
4F
100
AcDbEntity
  8
A4
  6
CENTER
 62
1
100
AcDbLine
 10
91.00000000000000
 20
130.5000000000000
 30
0.000000000000000
 11
91.00000000000000
 21
48.49999999999996
 31
0.000000000000000
  0
LINE
  5
50
100
AcDbEntity
  8
A4
  6
CENTER
 62
1
100
AcDbLine
 10
249.5000000000000
 20
130.5000000000000
 30
0.000000000000000
 11
249.5000000000000
 21
124.3000001999999
 31
0.000000000000000
  0
LINE
  5
51
100
AcDbEntity
  8
A4
  6
CENTER
 62
1
100
AcDbLine
 10
59.49999999999983
 20
130.5000000000000
 30
0.000000000000000
 11
59.49999999999983
 21
124.3000001999999
 31
0.000000000000000
  0
LINE
  5
52
100
AcDbEntity
  8
A4
  6
CENTER
 62
1
100
AcDbLine
 10
122.5000000000000
 20
130.5000000000000
 30
0.000000000000000
 11
122.5000000000000
 21
124.3000001999999
 31
0.000000000000000
  0
LINE
  5
53
100
AcDbEntity
  8
A4
  6
CENTER
 62
1
100
AcDbLine
 10
192.4000000999999
 20
246.5000000000000
 30
0.000000000000000
 11
180.1212245169593
 21
246.5000000000000
 31
0.000000000000000
  0
LINE
  5
54
100
AcDbEntity
  8
A4
  6
CENTER
 62
1
100
AcDbLine
 10
186.5000000000000
 20
252.8787754830406
 30
0.000000000000000
 11
186.5000000000000
 21
240.5999999000000
 31
0.000000000000000
  0
LINE
  5
55
100
AcDbEntity
  8
A4
  6
CENTER
 62
1
100
AcDbLine
 10
255.8787754830410
 20
246.5000000000000
 30
0.000000000000000
 11
243.5999999000001
 21
246.5000000000000
 31
0.000000000000000
  0
LINE
  5
56
100
AcDbEntity
  8
A4
  6
CENTER
 62
1
100
AcDbLine
 10
249.5000000000000
 20
252.8787754830406
 30
0.000000000000000
 11
249.5000000000000
 21
240.5999999000000
 31
0.000000000000000
  0
LINE
  5
57
100
AcDbEntity
  8
A4
  6
CENTER
 62
1
100
AcDbLine
 10
255.8787754830410
 20
183.5000000000000
 30
0.000000000000000
 11
243.5999999000001
 21
183.5000000000000
 31
0.000000000000000
  0
LINE
  5
58
100
AcDbEntity
  8
A4
  6
CENTER
 62
1
100
AcDbLine
 10
249.5000000000000
 20
189.4000001000000
 30
0.000000000000000
 11
249.5000000000000
 21
177.1212245169593
 31
0.000000000000000
  0
LINE
  5
59
100
AcDbEntity
  8
A4
  6
CENTER
 62
1
100
AcDbLine
 10
192.4000000999999
 20
183.5000000000000
 30
0.000000000000000
 11
180.1212245169593
 21
183.5000000000000
 31
0.000000000000000
  0
LINE
  5
5A
100
AcDbEntity
  8
A4
  6
CENTER
 62
1
100
AcDbLine
 10
186.5000000000000
 20
189.4000001000000
 30
0.000000000000000
 11
186.5000000000000
 21
177.1212245169593
 31
0.000000000000000
  0
LINE
  5
5B
100
AcDbEntity
  8
A4
  6
CENTER
 62
1
100
AcDbLine
 10
255.9000001000002
 20
183.0000000000000
 30
0.000000000000000
 11
243.6212245169593
 21
183.0000000000000
 31
0.000000000000000
  0
LINE
  5
5C
100
AcDbEntity
  8
A4
  6
CENTER
 62
1
100
AcDbLine
 10
250.0000000000002
 20
189.3787754830406
 30
0.000000000000000
 11
250.0000000000002
 21
177.0999999000000
 31
0.000000000000000
  0
LINE
  5
5D
100
AcDbEntity
  8
A4
  6
CENTER
 62
1
100
AcDbLine
 10
243.6212245169593
 20
246.9999999999999
 30
0.000000000000000
 11
255.9000001000002
 21
246.9999999999999
 31
0.000000000000000
  0
LINE
  5
5E
100
AcDbEntity
  8
A4
  6
CENTER
 62
1
100
AcDbLine
 10
250.0000000000001
 20
252.9000001000000
 30
0.000000000000000
 11
250.0000000000001
 21
240.6212245169593
 31
0.000000000000000
  0
LINE
  5
5F
100
AcDbEntity
  8
A4
  6
CENTER
 62
1
100
AcDbLine
 10
186.0000000000002
 20
240.6212245169593
 30
0.000000000000000
 11
186.0000000000002
 21
252.9000001000000
 31
0.000000000000000
  0
LINE
  5
60
100
AcDbEntity
  8
A4
  6
CENTER
 62
1
100
AcDbLine
 10
180.0999999000001
 20
246.9999999999997
 30
0.000000000000000
 11
192.3787754830407
 21
246.9999999999997
 31
0.000000000000000
  0
LINE
  5
61
100
AcDbEntity
  8
A4
  6
CENTER
 62
1
100
AcDbLine
 10
192.3787754830406
 20
182.9999999999999
 30
0.000000000000000
 11
180.0999999000001
 21
182.9999999999999
 31
0.000000000000000
  0
LINE
  5
62
100
AcDbEntity
  8
A4
  6
CENTER
 62
1
100
AcDbLine
 10
224.5000000000000
 20
74.99999999999994
 30
0.000000000000000
 11
171.5000000000000
 21
74.99999999999994
 31
0.000000000000000
  0
LINE
  5
63
100
AcDbEntity
  8
A4
  6
CENTER
 62
1
100
AcDbLine
 10
226.0000000000000
 20
74.99999999999994
 30
0.000000000000000
 11
225.9891706194210
 21
74.99999999999994
 31
0.000000000000000
  0
LINE
  5
64
100
AcDbEntity
  8
A4
  6
CENTER
 62
1
100
AcDbLine
 10
186.0000000000003
 20
177.0999999000000
 30
0.000000000000000
 11
186.0000000000003
 21
189.3787754830407
 31
0.000000000000000
  0
LINE
  5
65
100
AcDbEntity
  8
A4
  6
CENTER
 62
1
100
AcDbLine
 10
186.0000000000003
 20
190.8830888847419
 30
0.000000000000000
 11
186.0000000000003
 21
190.9000001000001
 31
0.000000000000000
  0
ARC
  5
66
100
AcDbEntity
  8
A1
  6
CONTINUOUS
 62
7
100
AcDbCircle
 10
198.0000000000000
 20
74.99999999999994
 30
0.000000000000000
 40
25.00000000000000
100
AcDbArc
 50
96.89210099999970
 51
355.3281100000002
  0
ARC
  5
67
100
AcDbEntity
  8
A1
  6
CONTINUOUS
 62
7
100
AcDbCircle
 10
190.0000000000000
 20
99.30000299999989
 30
0.000000000000000
 40
5.000000000000000
100
AcDbArc
 50
0.000000000000000
 51
90.00000300000094
  0
ARC
  5
68
100
AcDbEntity
  8
A1
  6
CONTINUOUS
 62
7
100
AcDbCircle
 10
180.0000009999999
 20
95.12461099999990
 30
0.000000000000000
 40
15.00000000000000
100
AcDbArc
 50
311.8103100000012
 51
360.0000000000000
  0
ARC
  5
69
100
AcDbEntity
  8
A1
  6
CONTINUOUS
 62
7
100
AcDbCircle
 10
180.2680292000000
 20
140.6473702999999
 30
0.000000000000000
 40
80.00000000000000
100
AcDbArc
 50
285.1154200000012
 51
334.6491600000001
  0
ARC
  5
6A
100
AcDbEntity
  8
A1
  6
CONTINUOUS
 62
7
100
AcDbCircle
 10
186.6060040000000
 20
114.5000039999999
 30
0.000000000000000
 40
1.500000000000000
100
AcDbArc
 50
270.0000199999987
 51
338.3307399999984
  0
ARC
  5
6B
100
AcDbEntity
  8
A1
  6
CONTINUOUS
 62
7
100
AcDbCircle
 10
247.9904859999999
 20
109.2986639999999
 30
0.000000000000000
 40
4.000000000000000
100
AcDbArc
 50
9.999994599999702
 51
70.43238754690715
  0
ARC
  5
6C
100
AcDbEntity
  8
A1
  6
CONTINUOUS
 62
7
100
AcDbCircle
 10
185.2000019999998
 20
109.0000039999999
 30
0.000000000000000
 40
4.000000000000000
100
AcDbArc
 50
89.99998200000083
 51
179.9999599999992
  0
ARC
  5
6D
100
AcDbEntity
  8
A1
  6
CONTINUOUS
 62
7
100
AcDbCircle
 10
248.1461330000000
 20
126.9999999999999
 30
0.000000000000000
 40
5.000000000000000
100
AcDbArc
 50
270.0000199999987
 51
346.1134599999999
  0
ARC
  5
6E
100
AcDbEntity
  8
A1
  6
CONTINUOUS
 62
7
100
AcDbCircle
 10
187.8538649999998
 20
126.9999999999999
 30
0.000000000000000
 40
5.000000000000000
100
AcDbArc
 50
193.8865200000002
 51
270.0000199999987
  0
ARC
  5
6F
100
AcDbEntity
  8
A1
  6
CONTINUOUS
 62
7
100
AcDbCircle
 10
194.0000000000000
 20
114.9999999999999
 30
0.000000000000000
 40
6.000000000000000
100
AcDbArc
 50
145.4819100000018
 51
179.9999599999992
  0
ARC
  5
70
100
AcDbEntity
  8
A1
  6
CONTINUOUS
 62
7
100
AcDbCircle
 10
242.0000000000000
 20
114.9999999999999
 30
0.000000000000000
 40
6.000000000000000
100
AcDbArc
 50
0.000000000000000
 51
34.51811999999963
  0
CIRCLE
  5
71
100
AcDbEntity
  8
A1
  6
CONTINUOUS
 62
7
100
AcDbCircle
 10
218.0000000000000
 20
215.0000000000000
 30
0.000000000000000
 40
31.50000000000000
  0
CIRCLE
  5
72
100
AcDbEntity
  8
A1
  6
CONTINUOUS
 62
7
100
AcDbCircle
 10
218.0000000000000
 20
215.0000000000000
 30
0.000000000000000
 40
29.00000000000000
  0
CIRCLE
  5
73
100
AcDbEntity
  8
A1
  6
CONTINUOUS
 62
7
100
AcDbCircle
 10
218.0000000000000
 20
215.0000000000000
 30
0.000000000000000
 40
15.50000000000000
  0
CIRCLE
  5
74
100
AcDbEntity
  8
A1
  6
CONTINUOUS
 62
7
100
AcDbCircle
 10
218.0000000000000
 20
215.0000000000000
 30
0.000000000000000
 40
12.00000000000000
  0
ARC
  5
75
100
AcDbEntity
  8
A1
  6
CONTINUOUS
 62
7
100
AcDbCircle
 10
186.5000000000000
 20
183.5000000000000
 30
0.000000000000000
 40
4.400000099999997
100
AcDbArc
 50
315.0000000000000
 51
495.0000000000000
  0
ARC
  5
76
100
AcDbEntity
  8
A1
  6
CONTINUOUS
 62
7
100
AcDbCircle
 10
249.5000000000000
 20
183.5000000000000
 30
0.000000000000000
 40
9.500000000000000
100
AcDbArc
 50
270.0000199999987
 51
360.0000000000000
  0
ARC
  5
77
100
AcDbEntity
  8
A1
  6
CONTINUOUS
 62
7
100
AcDbCircle
 10
186.5000000000000
 20
246.5000000000000
 30
0.000000000000000
 40
9.500000000000000
100
AcDbArc
 50
89.99998200000083
 51
179.9999599999992
  0
ARC
  5
78
100
AcDbEntity
  8
A1
  6
CONTINUOUS
 62
7
100
AcDbCircle
 10
249.5000000000000
 20
246.5000000000000
 30
0.000000000000000
 40
9.500000000000000
100
AcDbArc
 50
0.000000000000000
 51
89.99998200000083
  0
ARC
  5
79
100
AcDbEntity
  8
A1
  6
CONTINUOUS
 62
7
100
AcDbCircle
 10
186.5000000000000
 20
183.5000000000000
 30
0.000000000000000
 40
9.500000000000000
100
AcDbArc
 50
179.9999800000012
 51
270.0000299999997
  0
LINE
  5
7A
100
AcDbEntity
  8
A1
  6
CONTINUOUS
 62
7
100
AcDbLine
 10
195.0000000000000
 20
99.30000299999989
 30
0.000000000000000
 11
195.0000000000000
 21
95.12461099999990
 31
0.000000000000000
  0
LINE
  5
7B
100
AcDbEntity
  8
A1
  6
CONTINUOUS
 62
7
100
AcDbLine
 10
252.5642700000002
 20
106.3945809999999
 30
0.000000000000000
 11
251.9297260000003
 21
109.9932560000000
 31
0.000000000000000
  0
LINE
  5
7C
100
AcDbEntity
  8
A1
  6
CONTINUOUS
 62
7
100
AcDbLine
 10
181.2000017000000
 20
104.3000049999999
 30
0.000000000000000
 11
190.0000000000000
 21
104.3000049999999
 31
0.000000000000000
  0
LINE
  5
7D
100
AcDbEntity
  8
A1
  6
CONTINUOUS
 62
7
100
AcDbLine
 10
181.2000017000000
 20
109.0000039999999
 30
0.000000000000000
 11
181.2000017000000
 21
104.3000049999999
 31
0.000000000000000
  0
LINE
  5
7E
100
AcDbEntity
  8
A1
  6
CONTINUOUS
 62
7
100
AcDbLine
 10
185.2000019999998
 20
113.0000039999999
 30
0.000000000000000
 11
248.7050019999999
 21
113.0000039999999
 31
0.000000000000000
  0
LINE
  5
7F
100
AcDbEntity
  8
A1
  6
CONTINUOUS
 62
7
100
AcDbLine
 10
200.9509090000003
 20
107.2805960000000
 30
0.000000000000000
 11
205.4707300000001
 21
81.64741900000001
 31
0.000000000000000
  0
LINE
  5
80
100
AcDbEntity
  8
A1
  6
CONTINUOUS
 62
7
100
AcDbLine
 10
247.9999850000000
 20
122.0000020000000
 30
0.000000000000000
 11
246.9436649999999
 21
118.4000030000000
 31
0.000000000000000
  0
LINE
  5
81
100
AcDbEntity
  8
A1
  6
CONTINUOUS
 62
7
100
AcDbLine
 10
188.0000019999997
 20
121.9999999999998
 30
0.000000000000000
 11
189.0563179999998
 21
118.4000009999998
 31
0.000000000000000
  0
LINE
  5
82
100
AcDbEntity
  8
A1
  6
CONTINUOUS
 62
7
100
AcDbLine
 10
189.0563159999999
 20
118.3999999999999
 30
0.000000000000000
 11
246.9436799999999
 21
118.3999999999999
 31
0.000000000000000
  0
LINE
  5
83
100
AcDbEntity
  8
A1
  6
CONTINUOUS
 62
7
100
AcDbLine
 10
187.8538649999998
 20
121.9999999999999
 30
0.000000000000000
 11
248.1461330000000
 21
121.9999999999999
 31
0.000000000000000
  0
LINE
  5
84
100
AcDbEntity
  8
A1
  6
CONTINUOUS
 62
7
100
AcDbLine
 10
248.0000000000000
 20
114.9999999999999
 30
0.000000000000000
 11
248.0000000000000
 21
114.9521455365227
 31
0.000000000000000
  0
LINE
  5
85
100
AcDbEntity
  8
A1
  6
CONTINUOUS
 62
7
100
AcDbLine
 10
188.0000000000000
 20
114.9999999999999
 30
0.000000000000000
 11
188.0000000000000
 21
113.9461329999999
 31
0.000000000000000
  0
LINE
  5
86
100
AcDbEntity
  8
A1
  6
CONTINUOUS
 62
7
100
AcDbLine
 10
177.0000000000000
 20
129.0000000000000
 30
0.000000000000000
 11
177.0000000000000
 21
125.8000001999999
 31
0.000000000000000
  0
LINE
  5
87
100
AcDbEntity
  8
A1
  6
CONTINUOUS
 62
7
100
AcDbLine
 10
259.0000000000000
 20
129.0000000000000
 30
0.000000000000000
 11
259.0000000000000
 21
125.8000001999999
 31
0.000000000000000
  0
LINE
  5
88
100
AcDbEntity
  8
A1
  6
CONTINUOUS
 62
7
100
AcDbLine
 10
177.0000000000000
 20
125.8000001999999
 30
0.000000000000000
 11
259.0000000000000
 21
125.8000001999999
 31
0.000000000000000
  0
LINE
  5
89
100
AcDbEntity
  8
A1
  6
CONTINUOUS
 62
7
100
AcDbLine
 10
177.0000000000000
 20
129.0000000000000
 30
0.000000000000000
 11
259.0000000000000
 21
129.0000000000000
 31
0.000000000000000
  0
LINE
  5
8A
100
AcDbEntity
  8
A1
  6
CONTINUOUS
 62
7
100
AcDbLine
 10
186.5000000000000
 20
256.0000000000000
 30
0.000000000000000
 11
249.5000000000000
 21
256.0000000000000
 31
0.000000000000000
  0
LINE
  5
8B
100
AcDbEntity
  8
A1
  6
CONTINUOUS
 62
7
100
AcDbLine
 10
186.5000000000000
 20
174.0000000000000
 30
0.000000000000000
 11
249.5000000000000
 21
174.0000000000000
 31
0.000000000000000
  0
LINE
  5
8C
100
AcDbEntity
  8
A1
  6
CONTINUOUS
 62
7
100
AcDbLine
 10
177.0000000000000
 20
246.5000000000000
 30
0.000000000000000
 11
177.0000000000000
 21
183.5000000000000
 31
0.000000000000000
  0
LINE
  5
8D
100
AcDbEntity
  8
A1
  6
CONTINUOUS
 62
7
100
AcDbLine
 10
259.0000000000000
 20
246.5000000000000
 30
0.000000000000000
 11
259.0000000000000
 21
183.5000000000000
 31
0.000000000000000
  0
CIRCLE
  5
8E
100
AcDbEntity
  8
A1
  6
CONTINUOUS
 62
7
100
AcDbCircle
 10
198.0000000000000
 20
74.99999999999994
 30
0.000000000000000
 40
2.500000000000000
  0
CIRCLE
  5
8F
100
AcDbEntity
  8
A1
  6
CONTINUOUS
 62
7
100
AcDbCircle
 10
198.0000000000000
 20
74.99999999999994
 30
0.000000000000000
 40
7.250000000000000
  0
CIRCLE
  5
90
100
AcDbEntity
  8
A1
  6
CONTINUOUS
 62
7
100
AcDbCircle
 10
198.0000000000000
 20
74.99999999999994
 30
0.000000000000000
 40
9.000000000000000
  0
ARC
  5
91
100
AcDbEntity
  8
A1
  6
CONTINUOUS
 62
7
100
AcDbCircle
 10
198.0000000000000
 20
74.99999999999994
 30
0.000000000000000
 40
10.00000000000000
100
AcDbArc
 50
338.3374700000005
 51
401.6625350000013
  0
ARC
  5
92
100
AcDbEntity
  8
A1
  6
CONTINUOUS
 62
7
100
AcDbCircle
 10
198.0000000000000
 20
74.99999999999994
 30
0.000000000000000
 40
12.00000000000000
100
AcDbArc
 50
131.8103200000001
 51
285.1154300000017
  0
LINE
  5
93
100
AcDbEntity
  8
A1
  6
CONTINUOUS
 62
7
100
AcDbLine
 10
207.2937430000000
 20
71.30860899999990
 30
0.000000000000000
 11
208.2805630000000
 21
65.71207399999997
 31
0.000000000000000
  0
ARC
  5
94
100
AcDbEntity
  8
A1
  6
CONTINUOUS
 62
7
100
AcDbCircle
 10
115.0002589999999
 20
73.83619699999991
 30
0.000000000000000
 40
8.500000000000000
100
AcDbArc
 50
331.9238199999986
 51
360.8035662599987
  0
ARC
  5
95
100
AcDbEntity
  8
A1
  6
CONTINUOUS
 62
7
100
AcDbCircle
 10
115.0002589999999
 20
73.83619699999991
 30
0.000000000000000
 40
8.500000000000000
100
AcDbArc
 50
287.1028199999999
 51
292.7937599999984
  0
ARC
  5
96
100
AcDbEntity
  8
A1
  6
CONTINUOUS
 62
7
100
AcDbCircle
 10
118.0000000000000
 20
109.5278639999999
 30
0.000000000000000
 40
5.000000000000000
100
AcDbArc
 50
0.8035629500007933
 51
48.18968510422131
  0
ARC
  5
97
100
AcDbEntity
  8
A1
  6
CONTINUOUS
 62
7
100
AcDbCircle
 10
93.50000000000000
 20
84.49999999999994
 30
0.000000000000000
 40
20.00000000000000
100
AcDbArc
 50
0.000000000000000
 51
28.95502437185986
  0
ARC
  5
98
100
AcDbEntity
  8
A1
  6
CONTINUOUS
 62
7
100
AcDbCircle
 10
64.00000000000000
 20
109.5278639999999
 30
0.000000000000000
 40
5.000000000000000
100
AcDbArc
 50
131.8103148957791
 51
179.1964299999997
  0
ARC
  5
99
100
AcDbEntity
  8
A1
  6
CONTINUOUS
 62
7
100
AcDbCircle
 10
121.1461330000000
 20
126.9999999999999
 30
0.000000000000000
 40
5.000000000000000
100
AcDbArc
 50
270.0000199999987
 51
346.1134599999999
  0
ARC
  5
9A
100
AcDbEntity
  8
A1
  6
CONTINUOUS
 62
7
100
AcDbCircle
 10
60.85387000000003
 20
126.9999999999999
 30
0.000000000000000
 40
5.000000000000000
100
AcDbArc
 50
193.8865200000002
 51
270.0000199999987
  0
ARC
  5
9B
100
AcDbEntity
  8
A1
  6
CONTINUOUS
 62
7
100
AcDbCircle
 10
67.00000000000000
 20
114.9999999999999
 30
0.000000000000000
 40
6.000000000000000
100
AcDbArc
 50
145.4819100000018
 51
179.9999599999992
  0
ARC
  5
9C
100
AcDbEntity
  8
A1
  6
CONTINUOUS
 62
7
100
AcDbCircle
 10
115.0000000000000
 20
114.9999999999999
 30
0.000000000000000
 40
6.000000000000000
100
AcDbArc
 50
0.000000000000000
 51
34.51811999999963
  0
LINE
  5
9D
100
AcDbEntity
  8
A1
  6
CONTINUOUS
 62
7
100
AcDbLine
 10
122.9995079999999
 20
109.5979859999998
 30
0.000000000000000
 11
123.4994239999999
 21
73.95540199999986
 31
0.000000000000000
  0
LINE
  5
9E
100
AcDbEntity
  8
A1
  6
CONTINUOUS
 62
7
100
AcDbLine
 10
59.00049999999985
 20
109.5979859999998
 30
0.000000000000000
 11
58.63311982117072
 21
83.40549600704698
 31
0.000000000000000
  0
LINE
  5
9F
100
AcDbEntity
  8
A1
  6
CONTINUOUS
 62
7
100
AcDbLine
 10
113.5000000000000
 20
62.99999999999994
 30
0.000000000000000
 11
117.5000000000000
 21
62.99999999999994
 31
0.000000000000000
  0
LINE
  5
A0
100
AcDbEntity
  8
A1
  6
CONTINUOUS
 62
7
100
AcDbLine
 10
64.50000000000000
 20
62.99999999999994
 30
0.000000000000000
 11
68.50000000000000
 21
62.99999999999994
 31
0.000000000000000
  0
LINE
  5
A1
100
AcDbEntity
  8
A1
  6
CONTINUOUS
 62
7
100
AcDbLine
 10
122.5000110000000
 20
82.00000399999990
 30
0.000000000000000
 11
121.5000109999999
 21
84.00000399999995
 31
0.000000000000000
  0
LINE
  5
A2
100
AcDbEntity
  8
A1
  6
CONTINUOUS
 62
7
100
AcDbLine
 10
121.5000000000000
 20
66.00000000000003
 30
0.000000000000000
 11
122.5000000000001
 21
68.00000000000007
 31
0.000000000000000
  0
LINE
  5
A3
100
AcDbEntity
  8
A1
  6
CONTINUOUS
 62
7
100
AcDbLine
 10
117.5000000000000
 20
83.99999999999994
 30
0.000000000000000
 11
121.5000000000000
 21
83.99999999999994
 31
0.000000000000000
  0
LINE
  5
A4
100
AcDbEntity
  8
A1
  6
CONTINUOUS
 62
7
100
AcDbLine
 10
117.5000000000000
 20
65.99999999999994
 30
0.000000000000000
 11
121.5000000000000
 21
65.99999999999994
 31
0.000000000000000
  0
LINE
  5
A5
100
AcDbEntity
  8
A1
  6
CONTINUOUS
 62
7
100
AcDbLine
 10
122.5000000000000
 20
81.99999999999994
 30
0.000000000000000
 11
122.5000000000000
 21
67.99999999999994
 31
0.000000000000000
  0
LINE
  5
A6
100
AcDbEntity
  8
A1
  6
CONTINUOUS
 62
7
100
AcDbLine
 10
121.5000000000000
 20
83.99999999999994
 30
0.000000000000000
 11
121.5000000000000
 21
65.99999999999994
 31
0.000000000000000
  0
LINE
  5
A7
100
AcDbEntity
  8
A1
  6
CONTINUOUS
 62
7
100
AcDbLine
 10
120.9999889999997
 20
122.0000049999999
 30
0.000000000000000
 11
119.9436719999998
 21
118.4000050000000
 31
0.000000000000000
  0
LINE
  5
A8
100
AcDbEntity
  8
A1
  6
CONTINUOUS
 62
7
100
AcDbLine
 10
60.99999999999999
 20
121.9999990000000
 30
0.000000000000000
 11
62.05631000000004
 21
118.3999989999999
 31
0.000000000000000
  0
LINE
  5
A9
100
AcDbEntity
  8
A1
  6
CONTINUOUS
 62
7
100
AcDbLine
 10
62.05632000000003
 20
118.3999999999999
 30
0.000000000000000
 11
119.9436800000000
 21
118.3999999999999
 31
0.000000000000000
  0
LINE
  5
AA
100
AcDbEntity
  8
A1
  6
CONTINUOUS
 62
7
100
AcDbLine
 10
60.85387000000003
 20
121.9999999999999
 30
0.000000000000000
 11
121.1461330000000
 21
121.9999999999999
 31
0.000000000000000
  0
LINE
  5
AB
100
AcDbEntity
  8
A1
  6
CONTINUOUS
 62
7
100
AcDbLine
 10
121.0000000000000
 20
114.9999999999999
 30
0.000000000000000
 11
121.0000000000000
 21
113.9999999549994
 31
0.000000000000000
  0
LINE
  5
AC
100
AcDbEntity
  8
A1
  6
CONTINUOUS
 62
7
100
AcDbLine
 10
61.00000000000000
 20
114.9999999999999
 30
0.000000000000000
 11
61.00000000000000
 21
113.9999999549994
 31
0.000000000000000
  0
LINE
  5
AD
100
AcDbEntity
  8
A1
  6
CONTINUOUS
 62
7
100
AcDbLine
 10
50.00000000000000
 20
129.0000000000000
 30
0.000000000000000
 11
50.00000000000000
 21
125.8000001999999
 31
0.000000000000000
  0
LINE
  5
AE
100
AcDbEntity
  8
A1
  6
CONTINUOUS
 62
7
100
AcDbLine
 10
132.0000000000000
 20
129.0000000000000
 30
0.000000000000000
 11
132.0000000000000
 21
125.8000001999999
 31
0.000000000000000
  0
LINE
  5
AF
100
AcDbEntity
  8
A1
  6
CONTINUOUS
 62
7
100
AcDbLine
 10
60.40217999999999
 20
112.9999999999999
 30
0.000000000000000
 11
121.5978160000000
 21
112.9999999999999
 31
0.000000000000000
  0
LINE
  5
B0
100
AcDbEntity
  8
A1
  6
CONTINUOUS
 62
7
100
AcDbLine
 10
50.00000000000000
 20
125.8000001999999
 30
0.000000000000000
 11
132.0000000000000
 21
125.8000001999999
 31
0.000000000000000
  0
LINE
  5
B1
100
AcDbEntity
  8
A1
  6
CONTINUOUS
 62
7
100
AcDbLine
 10
50.00000000000000
 20
129.0000000000000
 30
0.000000000000000
 11
132.0000000000000
 21
129.0000000000000
 31
0.000000000000000
  0
ARC
  5
B2
100
AcDbEntity
  8
A1
  6
CONTINUOUS
 62
7
100
AcDbCircle
 10
177.7725909999908
 20
200.0000523598743
 30
0.000000000000000
 40
4.000000000000000
100
AcDbArc
 50
185.8969600000000
 51
258.8634594256902
  0
ARC
  5
B3
100
AcDbEntity
  8
A1
  6
CONTINUOUS
 62
7
100
AcDbCircle
 10
177.7725909999908
 20
230.0000523598743
 30
0.000000000000000
 40
4.000000000000000
100
AcDbArc
 50
101.1365405743098
 51
174.1030299999993
  0
ARC
  5
B4
100
AcDbEntity
  8
A1
  6
CONTINUOUS
 62
7
100
AcDbCircle
 10
88.50000000000000
 20
84.49999999999994
 30
0.000000000000000
 40
20.00000000000000
100
AcDbArc
 50
151.0449756281403
 51
179.9999599999992
  0
ARC
  5
B5
100
AcDbEntity
  8
A1
  6
CONTINUOUS
 62
7
100
AcDbCircle
 10
186.0000000000000
 20
183.0000000000000
 30
0.000000000000000
 40
4.400000099999997
100
AcDbArc
 50
135.0000000000000
 51
315.0000000000000
  0
LINE
  5
B6
100
AcDbEntity
  8
A1
  6
CONTINUOUS
 62
7
100
AcDbLine
 10
246.3887300920685
 20
180.3887300920682
 30
0.000000000000000
 11
246.8887300920684
 21
179.8887300920683
 31
0.000000000000000
  0
LINE
  5
B7
100
AcDbEntity
  8
A1
  6
CONTINUOUS
 62
7
100
AcDbLine
 10
252.6112699079317
 20
186.6112699079310
 30
0.000000000000000
 11
253.1112699079315
 21
186.1112699079310
 31
0.000000000000000
  0
ARC
  5
B8
100
AcDbEntity
  8
A1
  6
CONTINUOUS
 62
7
100
AcDbCircle
 10
249.5000000000000
 20
183.5000000000000
 30
0.000000000000000
 40
4.400000099999997
100
AcDbArc
 50
44.99999999999977
 51
224.9999999999998
  0
ARC
  5
B9
100
AcDbEntity
  8
A1
  6
CONTINUOUS
 62
7
100
AcDbCircle
 10
250.0000000000002
 20
183.0000000000000
 30
0.000000000000000
 40
4.400000099999997
100
AcDbArc
 50
224.9999999999998
 51
404.9999999999998
  0
LINE
  5
BA
100
AcDbEntity
  8
A1
  6
CONTINUOUS
 62
7
100
AcDbLine
 10
246.3887300920687
 20
249.6112699079314
 30
0.000000000000000
 11
246.8887300920687
 21
250.1112699079314
 31
0.000000000000000
  0
LINE
  5
BB
100
AcDbEntity
  8
A1
  6
CONTINUOUS
 62
7
100
AcDbLine
 10
252.6112699079315
 20
243.3887300920684
 30
0.000000000000000
 11
253.1112699079315
 21
243.8887300920686
 31
0.000000000000000
  0
ARC
  5
BC
100
AcDbEntity
  8
A1
  6
CONTINUOUS
 62
7
100
AcDbCircle
 10
186.5000000000000
 20
246.5000000000000
 30
0.000000000000000
 40
4.400000099999997
100
AcDbArc
 50
225.0000000000002
 51
405.0000000000002
  0
ARC
  5
BD
100
AcDbEntity
  8
A1
  6
CONTINUOUS
 62
7
100
AcDbCircle
 10
186.0000000000000
 20
247.0000000000000
 30
0.000000000000000
 40
4.400000099999997
100
AcDbArc
 50
45.00000000000023
 51
225.0000000000002
  0
LINE
  5
BE
100
AcDbEntity
  8
A1
  6
CONTINUOUS
 62
7
100
AcDbLine
 10
189.6112699079314
 20
180.3887300920683
 30
0.000000000000000
 11
189.1112699079314
 21
179.8887300920682
 31
0.000000000000000
  0
LINE
  5
BF
100
AcDbEntity
  8
A1
  6
CONTINUOUS
 62
7
100
AcDbLine
 10
183.3887300920685
 20
186.6112699079312
 30
0.000000000000000
 11
182.8887300920684
 21
186.1112699079312
 31
0.000000000000000
  0
ARC
  5
C0
100
AcDbEntity
  8
A1
  6
CONTINUOUS
 62
7
100
AcDbCircle
 10
249.5000000000000
 20
246.5000000000000
 30
0.000000000000000
 40
4.400000099999997
100
AcDbArc
 50
134.9999999999999
 51
314.9999999999998
  0
ARC
  5
C1
100
AcDbEntity
  8
A1
  6
CONTINUOUS
 62
7
100
AcDbCircle
 10
250.0000000000002
 20
247.0000000000000
 30
0.000000000000000
 40
4.400000099999997
100
AcDbArc
 50
314.9999999999998
 51
494.9999999999999
  0
LINE
  5
C2
100
AcDbEntity
  8
A1
  6
CONTINUOUS
 62
7
100
AcDbLine
 10
189.6112699079315
 20
249.6112699079313
 30
0.000000000000000
 11
189.1112699079315
 21
250.1112699079313
 31
0.000000000000000
  0
LINE
  5
C3
100
AcDbEntity
  8
A1
  6
CONTINUOUS
 62
7
100
AcDbLine
 10
183.3887300920684
 20
243.3887300920683
 30
0.000000000000000
 11
182.8887300920684
 21
243.8887300920683
 31
0.000000000000000
  0
ARC
  5
C4
100
AcDbEntity
  8
A1
  6
CONTINUOUS
 62
7
100
AcDbCircle
 10
88.50000000000000
 20
84.49999999999994
 30
0.000000000000000
 40
20.00000000000000
100
AcDbArc
 50
104.9966103161098
 51
135.1783537401985
  0
LINE
  5
C5
100
AcDbEntity
  8
A1
  6
CONTINUOUS
 62
7
100
AcDbLine
 10
117.5000000000000
 20
108.9999999999999
 30
0.000000000000000
 11
117.5000000000000
 21
62.99999999999994
 31
0.000000000000000
  0
LINE
  5
C6
100
AcDbEntity
  8
A1
  6
CONTINUOUS
 62
7
100
AcDbLine
 10
64.50000000000000
 20
108.9999999999999
 30
0.000000000000000
 11
64.50000000000000
 21
62.99999999999994
 31
0.000000000000000
  0
LINE
  5
C7
100
AcDbEntity
  8
A1
  6
CONTINUOUS
 62
7
100
AcDbLine
 10
68.50000000000000
 20
104.5279709407297
 30
0.000000000000000
 11
68.50000000000000
 21
62.99999999999994
 31
0.000000000000000
  0
ARC
  5
C8
100
AcDbEntity
  8
A1
  6
CONTINUOUS
 62
7
100
AcDbCircle
 10
113.4999999999999
 20
108.9999999999999
 30
0.000000000000000
 40
4.000000000000000
100
AcDbArc
 50
0.000000000000000
 51
90.00000300000094
  0
ARC
  5
C9
100
AcDbEntity
  8
A1
  6
CONTINUOUS
 62
7
100
AcDbCircle
 10
91.00000000000011
 20
-325.4747914071602
 30
0.000000000000000
 40
430.5910189806748
100
AcDbArc
 50
86.47159787675611
 51
93.52840212324394
  0
ARC
  5
CA
100
AcDbEntity
  8
A1
  6
CONTINUOUS
 62
7
100
AcDbCircle
 10
68.49999999999989
 20
108.9999999999999
 30
0.000000000000000
 40
4.000000000000000
100
AcDbArc
 50
90.00000300000094
 51
180.0000099999994
  0
ARC
  5
CB
100
AcDbEntity
  8
A1
  6
CONTINUOUS
 62
7
100
AcDbCircle
 10
113.4999999999999
 20
108.9999999999999
 30
0.000000000000000
 40
4.000000000000000
100
AcDbArc
 50
0.000000000000000
 51
90.00000299999770
  0
ARC
  5
CC
100
AcDbEntity
  8
A1
  6
CONTINUOUS
 62
7
100
AcDbCircle
 10
68.49999999999989
 20
108.9999999999999
 30
0.000000000000000
 40
4.000000000000000
100
AcDbArc
 50
90.00000299999770
 51
180.0000000000000
  0
ARC
  5
CD
100
AcDbEntity
  8
A1
  6
CONTINUOUS
 62
7
100
AcDbCircle
 10
93.50000000000000
 20
84.49999999999994
 30
0.000000000000000
 40
20.00000000000000
100
AcDbArc
 50
44.82164625980150
 51
75.00338968389009
  0
ARC
  5
CE
100
AcDbEntity
  8
A1
  6
CONTINUOUS
 62
7
100
AcDbCircle
 10
91.00000000000000
 20
75.16766456950418
 30
0.000000000000000
 40
29.66139144157227
100
AcDbArc
 50
75.00338968389012
 51
104.9966103161098
  0
LINE
  5
CF
100
AcDbEntity
  8
A1
  6
CONTINUOUS
 62
7
100
AcDbLine
 10
56.99992764012578
 20
79.24999599999995
 30
0.000000000000000
 11
57.74992764012583
 21
79.99999600000000
 31
0.000000000000000
  0
LINE
  5
D0
100
AcDbEntity
  8
A1
  6
CONTINUOUS
 62
7
100
AcDbLine
 10
57.74992764012600
 20
69.99998499999988
 30
0.000000000000000
 11
56.99992764012597
 21
70.74998499999987
 31
0.000000000000000
  0
LINE
  5
D1
100
AcDbEntity
  8
A1
  6
CONTINUOUS
 62
7
100
AcDbLine
 10
57.74994764012592
 20
79.99999999999989
 30
0.000000000000000
 11
57.74994764012592
 21
69.99999999999994
 31
0.000000000000000
  0
LINE
  5
D2
100
AcDbEntity
  8
A1
  6
CONTINUOUS
 62
7
100
AcDbLine
 10
56.99994764012587
 20
79.24999999999994
 30
0.000000000000000
 11
56.99994764012587
 21
70.74999999999994
 31
0.000000000000000
  0
LINE
  5
D3
100
AcDbEntity
  8
A2
  6
CONTINUOUS
 62
4
100
AcDbLine
 10
56.99994764012594
 20
70.74999999999993
 30
0.000000000000000
 11
57.89994764012592
 21
70.74999999999990
 31
0.000000000000000
  0
LINE
  5
D4
100
AcDbEntity
  8
A2
  6
CONTINUOUS
 62
4
100
AcDbLine
 10
56.99994764012581
 20
79.24999999999993
 30
0.000000000000000
 11
57.89994764012584
 21
79.24999999999991
 31
0.000000000000000
  0
LINE
  5
D5
100
AcDbEntity
  8
A1
  6
CONTINUOUS
 62
7
100
AcDbLine
 10
57.74994764012592
 20
79.99999999999989
 30
0.000000000000000
 11
57.89994764012590
 21
79.99999999999989
 31
0.000000000000000
  0
LINE
  5
D6
100
AcDbEntity
  8
A1
  6
CONTINUOUS
 62
7
100
AcDbLine
 10
57.74994764012592
 20
69.99999999999994
 30
0.000000000000000
 11
57.89994764012590
 21
69.99999999999994
 31
0.000000000000000
  0
LINE
  5
D7
100
AcDbEntity
  8
A1
  6
CONTINUOUS
 62
7
100
AcDbLine
 10
64.51016347950950
 20
83.51021662476353
 30
0.000000000000000
 11
64.50000283059585
 21
66.50004931465810
 31
0.000000000000000
  0
LINE
  5
D8
100
AcDbEntity
  8
A1
  6
CONTINUOUS
 62
7
100
AcDbLine
 10
59.10001183059586
 20
66.50004931465807
 30
0.000000000000000
 11
59.50000283059580
 21
66.50004931465807
 31
0.000000000000000
  0
LINE
  5
D9
100
AcDbEntity
  8
A1
  6
CONTINUOUS
 62
7
100
AcDbLine
 10
64.00000283059592
 20
70.75740791465807
 30
0.000000000000000
 11
64.00000283059592
 21
69.76015731465799
 31
0.000000000000000
  0
LINE
  5
DA
100
AcDbEntity
  8
A1
  6
CONTINUOUS
 62
7
100
AcDbLine
 10
60.00000283059586
 20
69.52563331465805
 30
0.000000000000000
 11
60.00000283059586
 21
71.22645531465807
 31
0.000000000000000
  0
LINE
  5
DB
100
AcDbEntity
  8
A1
  6
CONTINUOUS
 62
7
100
AcDbLine
 10
64.51016347950960
 20
66.51021662476344
 30
0.000000000000000
 11
64.01016447950960
 21
65.51021662476346
 31
0.000000000000000
  0
LINE
  5
DC
100
AcDbEntity
  8
A1
  6
CONTINUOUS
 62
7
100
AcDbLine
 10
60.00000283059584
 20
65.70004931465806
 30
0.000000000000000
 11
59.50000323059582
 21
66.50004931465810
 31
0.000000000000000
  0
LINE
  5
DD
100
AcDbEntity
  8
A1
  6
CONTINUOUS
 62
7
100
AcDbLine
 10
64.00000283059589
 20
65.50004931465814
 30
0.000000000000000
 11
60.00000283059592
 21
65.75203731465810
 31
0.000000000000000
  0
LINE
  5
DE
100
AcDbEntity
  8
A1
  6
CONTINUOUS
 62
7
100
AcDbLine
 10
60.00000283059578
 20
65.70004731465801
 30
0.000000000000000
 11
64.00000183059586
 21
65.50004931465803
 31
0.000000000000000
  0
LINE
  5
DF
100
AcDbEntity
  8
A1
  6
CONTINUOUS
 62
7
100
AcDbLine
 10
64.00000183059576
 20
70.75740971465811
 30
0.000000000000000
 11
60.00000283059577
 21
71.22645731465812
 31
0.000000000000000
  0
LINE
  5
E0
100
AcDbEntity
  8
A1
  6
CONTINUOUS
 62
7
100
AcDbLine
 10
60.00000243059600
 20
69.52563331465801
 30
0.000000000000000
 11
64.00000283059588
 21
69.76015731465793
 31
0.000000000000000
  0
LINE
  5
E1
100
AcDbEntity
  8
A1
  6
CONTINUOUS
 62
7
100
AcDbLine
 10
60.00000283059586
 20
65.70004931465803
 30
0.000000000000000
 11
60.00000283059586
 21
65.75203731465803
 31
0.000000000000000
  0
LINE
  5
E2
100
AcDbEntity
  8
A1
  6
CONTINUOUS
 62
7
100
AcDbLine
 10
57.90001203059580
 20
82.30004951465804
 30
0.000000000000000
 11
57.90001203059580
 21
67.69929036813551
 31
0.000000000000000
  0
LINE
  5
E3
100
AcDbEntity
  8
A1
  6
CONTINUOUS
 62
7
100
AcDbLine
 10
59.50000283059588
 20
83.50004931465804
 30
0.000000000000000
 11
59.50000283059586
 21
66.50004931465804
 31
0.000000000000000
  0
LINE
  5
E4
100
AcDbEntity
  8
A1
  6
CONTINUOUS
 62
7
100
AcDbLine
 10
64.00000283059585
 20
79.24268971465810
 30
0.000000000000000
 11
60.00000283059593
 21
78.77364131465802
 31
0.000000000000000
  0
LINE
  5
E5
100
AcDbEntity
  8
A1
  6
CONTINUOUS
 62
7
100
AcDbLine
 10
60.00000283059595
 20
80.47446611465797
 30
0.000000000000000
 11
64.00000283059595
 21
80.23994231465798
 31
0.000000000000000
  0
LINE
  5
E6
100
AcDbEntity
  8
A1
  6
CONTINUOUS
 62
7
100
AcDbLine
 10
60.00000283059586
 20
80.47446611465804
 30
0.000000000000000
 11
60.00000283059586
 21
78.77364131465794
 31
0.000000000000000
  0
LINE
  5
E7
100
AcDbEntity
  8
A1
  6
CONTINUOUS
 62
7
100
AcDbLine
 10
59.10001183059586
 20
83.50004931465804
 30
0.000000000000000
 11
59.50000283059580
 21
83.50004931465804
 31
0.000000000000000
  0
ARC
  5
E8
100
AcDbEntity
  8
A1
  6
CONTINUOUS
 62
7
100
AcDbCircle
 10
59.10001183059586
 20
67.70004931465803
 30
0.000000000000000
 40
1.200000039999999
100
AcDbArc
 50
180.0000030000009
 51
270.0000099999978
  0
ARC
  5
E9
100
AcDbEntity
  8
A1
  6
CONTINUOUS
 62
7
100
AcDbCircle
 10
59.71287543059583
 20
67.63010331465807
 30
0.000000000000000
 40
4.787128000000000
100
AcDbArc
 50
333.5795799999947
 51
386.4204200000054
  0
ARC
  5
EA
100
AcDbEntity
  8
A1
  6
CONTINUOUS
 62
7
100
AcDbCircle
 10
63.31000903059584
 20
67.63883331465803
 30
0.000000000000000
 40
3.810005999999998
100
AcDbArc
 50
150.3156250000020
 51
209.6843800000054
  0
ARC
  5
EB
100
AcDbEntity
  8
A1
  6
CONTINUOUS
 62
7
100
AcDbCircle
 10
59.10001183059586
 20
82.30004951465804
 30
0.000000000000000
 40
1.200000039999999
100
AcDbArc
 50
90.00000000000000
 51
180.0000030000009
  0
ARC
  5
EC
100
AcDbEntity
  8
A1
  6
CONTINUOUS
 62
7
100
AcDbCircle
 10
73.99000283059593
 20
75.00004931465807
 30
0.000000000000000
 40
14.48999980000000
100
AcDbArc
 50
164.9045809999948
 51
195.0954199999996
  0
LINE
  5
ED
100
AcDbEntity
  8
A1
  6
CONTINUOUS
 62
7
100
AcDbLine
 10
64.00000283059589
 20
79.24268971465806
 30
0.000000000000000
 11
64.00000283059593
 21
80.23994231465805
 31
0.000000000000000
  0
ARC
  5
EE
100
AcDbEntity
  8
A1
  6
CONTINUOUS
 62
7
100
AcDbCircle
 10
46.25002080000422
 20
75.00005214525393
 30
0.000000000000000
 40
18.24998203059178
100
AcDbArc
 50
346.5572422592535
 51
373.4427453273010
  0
LINE
  5
EF
100
AcDbEntity
  8
A1
  6
CONTINUOUS
 62
7
100
AcDbLine
 10
64.51016347950966
 20
83.51021662476353
 30
0.000000000000000
 11
64.01016447950963
 21
84.51021662476359
 31
0.000000000000000
  0
LINE
  5
F0
100
AcDbEntity
  8
A1
  6
CONTINUOUS
 62
7
100
AcDbLine
 10
60.00000283059583
 20
84.30004931465808
 30
0.000000000000000
 11
59.50000323059582
 21
83.50004931465809
 31
0.000000000000000
  0
LINE
  5
F1
100
AcDbEntity
  8
A1
  6
CONTINUOUS
 62
7
100
AcDbLine
 10
64.00000283059580
 20
84.50004931465801
 30
0.000000000000000
 11
60.00000283059582
 21
84.24806131465806
 31
0.000000000000000
  0
LINE
  5
F2
100
AcDbEntity
  8
A1
  6
CONTINUOUS
 62
7
100
AcDbLine
 10
60.00000283059583
 20
84.30005131465796
 30
0.000000000000000
 11
64.00000183059591
 21
84.50004931465800
 31
0.000000000000000
  0
LINE
  5
F3
100
AcDbEntity
  8
A1
  6
CONTINUOUS
 62
7
100
AcDbLine
 10
60.00000283059586
 20
84.30004931465805
 30
0.000000000000000
 11
60.00000283059586
 21
84.24806131465806
 31
0.000000000000000
  0
ARC
  5
F4
100
AcDbEntity
  8
A1
  6
CONTINUOUS
 62
7
100
AcDbCircle
 10
59.70270812049046
 20
82.35983366574442
 30
0.000000000000000
 40
4.787128000000000
100
AcDbArc
 50
333.5795799999947
 51
386.4204200000054
  0
ARC
  5
F5
100
AcDbEntity
  8
A1
  6
CONTINUOUS
 62
7
100
AcDbCircle
 10
63.31000903059584
 20
82.36126531465811
 30
0.000000000000000
 40
3.810005999999998
100
AcDbArc
 50
150.3156199999956
 51
209.6843749999980
  0
ARC
  5
F6
100
AcDbEntity
  8
A1
  6
CONTINUOUS
 62
7
100
AcDbCircle
 10
60.00000000000000
 20
113.9999999549994
 30
0.000000000000000
 40
1.000000000000000
100
AcDbArc
 50
311.8103148957790
 51
360.0000000000000
  0
ARC
  5
F7
100
AcDbEntity
  8
A1
  6
CONTINUOUS
 62
7
100
AcDbCircle
 10
122.0000000000000
 20
113.9999999549994
 30
0.000000000000000
 40
1.000000000000000
100
AcDbArc
 50
180.0000000000000
 51
228.1896851042216
  0
ARC
  5
F8
100
AcDbEntity
  8
A1
  6
CONTINUOUS
 62
7
100
AcDbCircle
 10
250.0000000000000
 20
114.9521455365227
 30
0.000000000000000
 40
2.000000000000000
100
AcDbArc
 50
180.0000000000004
 51
250.4323875469065
  0
ARC
  5
F9
100
AcDbEntity
  8
A1
  6
CONTINUOUS
 62
7
100
AcDbCircle
 10
322.9999999999909
 20
215.0000523598742
 30
0.000000000000000
 40
150.0000000000000
100
AcDbArc
 50
174.1030399999997
 51
185.8969600000000
  0
ARC
  5
FA
100
AcDbEntity
  8
A1
  6
CONTINUOUS
 62
7
100
AcDbCircle
 10
74.00000000000000
 20
54.50130890949336
 30
0.000000000000000
 40
3.000000000000014
100
AcDbArc
 50
180.0000000000003
 51
259.9063431407745
  0
ARC
  5
FB
100
AcDbEntity
  8
A1
  6
CONTINUOUS
 62
7
100
AcDbCircle
 10
74.00000000000000
 20
95.49869109050650
 30
0.000000000000000
 40
3.000000000000015
100
AcDbArc
 50
100.0936568592255
 51
179.9999999999997
  0
ARC
  5
FC
100
AcDbEntity
  8
A1
  6
CONTINUOUS
 62
7
100
AcDbCircle
 10
91.00000000000000
 20
149.9999999999999
 30
0.000000000000000
 40
99.99999999999993
100
AcDbArc
 50
259.9063431407744
 51
280.0936566660388
  0
ARC
  5
FD
100
AcDbEntity
  8
A1
  6
CONTINUOUS
 62
7
100
AcDbCircle
 10
91.00000000000000
 20
0.000000000000000
 30
0.000000000000000
 40
99.99999999999991
100
AcDbArc
 50
79.90634333396122
 51
100.0936568592256
  0
ARC
  5
FE
100
AcDbEntity
  8
A1
  6
CONTINUOUS
 62
7
100
AcDbCircle
 10
108.0000000000000
 20
95.49869109050653
 30
0.000000000000000
 40
2.999999999999996
100
AcDbArc
 50
359.9999999999999
 51
439.9063495803384
  0
ARC
  5
FF
100
AcDbEntity
  8
A1
  6
CONTINUOUS
 62
7
100
AcDbCircle
 10
108.0000000000000
 20
54.50130890949333
 30
0.000000000000000
 40
2.999999999999992
100
AcDbArc
 50
280.0936504196616
 51
360.0000000000001
  0
LINE
  5
100
100
AcDbEntity
  8
A1
  6
CONTINUOUS
 62
7
100
AcDbLine
 10
113.4999999999999
 20
82.29999999999993
 30
0.000000000000000
 11
112.9999999999999
 21
82.79999999999993
 31
0.000000000000000
  0
LINE
  5
101
100
AcDbEntity
  8
A1
  6
CONTINUOUS
 62
7
100
AcDbLine
 10
113.0000000000000
 20
67.19999999999995
 30
0.000000000000000
 11
113.4999999999999
 21
67.69999999999990
 31
0.000000000000000
  0
LINE
  5
102
100
AcDbEntity
  8
A1
  6
CONTINUOUS
 62
7
100
AcDbLine
 10
112.5000000006540
 20
67.19999999999993
 30
0.000000000000000
 11
113.0000000000000
 21
67.19999999999993
 31
0.000000000000000
  0
LINE
  5
103
100
AcDbEntity
  8
A1
  6
CONTINUOUS
 62
7
100
AcDbLine
 10
113.0000000000000
 20
82.79999999999993
 30
0.000000000000000
 11
112.5000000006540
 21
82.79999999999993
 31
0.000000000000000
  0
LINE
  5
104
100
AcDbEntity
  8
A1
  6
CONTINUOUS
 62
7
100
AcDbLine
 10
113.0000000000000
 20
82.79999999999993
 30
0.000000000000000
 11
113.0000000000000
 21
67.19999999999993
 31
0.000000000000000
  0
LINE
  5
105
100
AcDbEntity
  8
A1
  6
CONTINUOUS
 62
7
100
AcDbLine
 10
68.49999999999996
 20
67.69999999999995
 30
0.000000000000000
 11
68.99999999999996
 21
67.19999999999995
 31
0.000000000000000
  0
LINE
  5
106
100
AcDbEntity
  8
A1
  6
CONTINUOUS
 62
7
100
AcDbLine
 10
68.99999999999996
 20
82.79999999999997
 30
0.000000000000000
 11
68.49999999999994
 21
82.29999999999995
 31
0.000000000000000
  0
LINE
  5
107
100
AcDbEntity
  8
A1
  6
CONTINUOUS
 62
7
100
AcDbLine
 10
68.50000000000000
 20
82.29999999999993
 30
0.000000000000000
 11
68.50000000000000
 21
67.69999999999993
 31
0.000000000000000
  0
LINE
  5
108
100
AcDbEntity
  8
A1
  6
CONTINUOUS
 62
7
100
AcDbLine
 10
69.00000000000000
 20
67.19999999999993
 30
0.000000000000000
 11
69.49999999934596
 21
67.19999999999993
 31
0.000000000000000
  0
LINE
  5
109
100
AcDbEntity
  8
A1
  6
CONTINUOUS
 62
7
100
AcDbLine
 10
69.49999999934596
 20
82.79999999999993
 30
0.000000000000000
 11
69.00000000000000
 21
82.79999999999993
 31
0.000000000000000
  0
LINE
  5
10A
100
AcDbEntity
  8
A1
  6
CONTINUOUS
 62
7
100
AcDbLine
 10
69.00000000000000
 20
82.79999999999993
 30
0.000000000000000
 11
69.00000000000000
 21
67.19999999999993
 31
0.000000000000000
  0
ARC
  5
10B
100
AcDbEntity
  8
A1
  6
CONTINUOUS
 62
7
100
AcDbCircle
 10
74.49999999934607
 20
62.22779759660366
 30
0.000000000000000
 40
5.000000000000117
100
AcDbArc
 50
179.9999999999997
 51
201.5651850356336
  0
ARC
  5
10C
100
AcDbEntity
  8
A1
  6
CONTINUOUS
 62
7
100
AcDbCircle
 10
74.49999999934607
 20
87.77220240339619
 30
0.000000000000000
 40
5.000000000000083
100
AcDbArc
 50
158.4348149643663
 51
180.0000000000003
  0
LINE
  5
10D
100
AcDbEntity
  8
A1
  6
CONTINUOUS
 62
7
100
AcDbLine
 10
112.5000000006540
 20
62.22779759660369
 30
0.000000000000000
 11
112.5000000006540
 21
87.77220240339616
 31
0.000000000000000
  0
ARC
  5
10E
100
AcDbEntity
  8
A1
  6
CONTINUOUS
 62
7
100
AcDbCircle
 10
107.5000000006540
 20
62.22779759660366
 30
0.000000000000000
 40
4.999999999999986
100
AcDbArc
 50
338.4348149643603
 51
360.0000000000002
  0
ARC
  5
10F
100
AcDbEntity
  8
A1
  6
CONTINUOUS
 62
7
100
AcDbCircle
 10
107.5000000006539
 20
87.77220240339616
 30
0.000000000000000
 40
5.000000000000060
100
AcDbArc
 50
359.9999999999999
 51
381.5651850356396
  0
ARC
  5
110
100
AcDbEntity
  8
A1
  6
CONTINUOUS
 62
7
100
AcDbCircle
 10
71.71633877545787
 20
61.10887382427129
 30
0.000000000000000
 40
2.000000000000004
100
AcDbArc
 50
201.0656189037516
 51
235.0284661599011
  0
ARC
  5
111
100
AcDbEntity
  8
A1
  6
CONTINUOUS
 62
7
100
AcDbCircle
 10
71.71633877545787
 20
88.89112617572857
 30
0.000000000000000
 40
2.000000000000002
100
AcDbArc
 50
124.9715338400989
 51
158.9343810962484
  0
ARC
  5
112
100
AcDbEntity
  8
A1
  6
CONTINUOUS
 62
7
100
AcDbCircle
 10
110.2836612245421
 20
61.10887382427134
 30
0.000000000000000
 40
2.000000000000072
100
AcDbArc
 50
304.9715338400148
 51
338.9343810962330
  0
ARC
  5
113
100
AcDbEntity
  8
A1
  6
CONTINUOUS
 62
7
100
AcDbCircle
 10
110.2836612245421
 20
88.89112617572849
 30
0.000000000000000
 40
2.000000000000092
100
AcDbArc
 50
21.06561890376717
 51
55.02846615998513
  0
ARC
  5
114
100
AcDbEntity
  8
A1
  6
CONTINUOUS
 62
7
100
AcDbCircle
 10
70.00000135405230
 20
58.64835436858831
 30
0.000000000000000
 40
1.000000000000008
100
AcDbArc
 50
0.09428777707662860
 51
55.24986866844553
  0
ARC
  5
115
100
AcDbEntity
  8
A1
  6
CONTINUOUS
 62
7
100
AcDbCircle
 10
70.00000135405230
 20
91.35164563141154
 30
0.000000000000000
 40
1.000000000000004
100
AcDbArc
 50
304.7501313315544
 51
359.9057122229235
  0
ARC
  5
116
100
AcDbEntity
  8
A1
  6
CONTINUOUS
 62
7
100
AcDbCircle
 10
111.9999986459477
 20
58.64835436858831
 30
0.000000000000000
 40
1.000000000000027
100
AcDbArc
 50
124.7501313317242
 51
179.9057122229232
  0
ARC
  5
117
100
AcDbEntity
  8
A1
  6
CONTINUOUS
 62
7
100
AcDbCircle
 10
111.9999986459477
 20
91.35164563141154
 30
0.000000000000000
 40
1.000000000000026
100
AcDbArc
 50
180.0942877770768
 51
235.2498686682758
  0
LINE
  5
118
100
AcDbEntity
  8
A1
  6
CONTINUOUS
 62
7
100
AcDbLine
 10
113.5000000000000
 20
62.99999999999994
 30
0.000000000000000
 11
113.5000000000000
 21
104.5279709407298
 31
0.000000000000000
  0
LINE
  5
119
100
AcDbEntity
  8
A1
  6
CONTINUOUS
 62
7
100
AcDbLine
 10
69.49999999934596
 20
62.22779759660372
 30
0.000000000000000
 11
69.49999999934596
 21
87.77220240339616
 31
0.000000000000000
  0
LINE
  5
11A
100
AcDbEntity
  8
A1
  6
CONTINUOUS
 62
7
100
AcDbLine
 10
70.99999999999994
 20
54.50130890949336
 30
0.000000000000000
 11
70.99999999999994
 21
95.49869109050653
 31
0.000000000000000
  0
LINE
  5
11B
100
AcDbEntity
  8
A1
  6
CONTINUOUS
 62
7
100
AcDbLine
 10
111.0000000000000
 20
54.50130890949333
 30
0.000000000000000
 11
111.0000000000000
 21
95.49869109050653
 31
0.000000000000000
  0
ARC
  5
11C
100
AcDbEntity
  8
A1
  6
CONTINUOUS
 62
7
100
AcDbCircle
 10
198.0000000000000
 20
74.99999999999994
 30
0.000000000000000
 40
15.52999999999574
100
AcDbArc
 50
104.5056497656355
 51
328.5061274211200
  0
ENDSEC
  0
SECTION
  2
OBJECTS
  0
DICTIONARY
  5
147
100
AcDbDictionary
  3
ACAD_GROUP
350
148
  3
ACAD_LAYOUT
350
149
  3
ACAD_MLINESTYLE
350
14A
  0
DICTIONARY
  5
148
102
{ACAD_REACTORS
330
147
102
}
330
147
100
AcDbDictionary
  0
DICTIONARY
  5
149
102
{ACAD_REACTORS
330
147
102
}
330
147
100
AcDbDictionary
  3
Model
350
14B
  3
ﾚｲｱｳﾄ1
350
14C
  3
ﾚｲｱｳﾄ2
350
14D
  0
DICTIONARY
  5
14A
102
{ACAD_REACTORS
330
147
102
}
330
147
100
AcDbDictionary
  3
STANDARD
350
14E
  0
LAYOUT
  5
14B
102
{ACAD_REACTORS
330
149
102
}
330
149
100
AcDbPlotSettings
 70
11952
  4
A3
 44
297.000000
 45
420.000000
 73
  1
 72
  1
100
AcDbLayout
  1
Model
 71
0
330
13E
  0
LAYOUT
  5
14C
102
{ACAD_REACTORS
330
149
102
}
330
149
100
AcDbPlotSettings
100
AcDbLayout
  1
ﾚｲｱｳﾄ1
 71
1
330
13F
  0
LAYOUT
  5
14D
102
{ACAD_REACTORS
330
149
102
}
330
149
100
AcDbPlotSettings
100
AcDbLayout
  1
ﾚｲｱｳﾄ2
 71
2
330
140
  0
MLINESTYLE
  5
14E
102
{ACAD_REACTORS
330
14A
102
}
330
14A
100
AcDbMlineStyle
  2
STANDARD
 70
     0
  3

 62
   256
 51
90.00
 52
90.00
 71
     2
 49
0.50
 62
   256
  6
BYLAYER
 49
-0.50
 62
   256
  6
BYLAYER
  0
ENDSEC
  0
EOF
