  0
SECTION
  2
HEADER
  9
$ACADVER
  1
AC1015
  9
$ACADMAINTVER
 70
    20
  9
$DWGCODEPAGE
  3
ANSI_932
  9
$INSBASE
 10
0.0
 20
0.0
 30
0.0
  9
$EXTMIN
 10
9.9999975266385
 20
10.0
 30
0.0
  9
$EXTMAX
 10
643.5661492639487
 20
449.0337312958224
 30
0.0
  9
$LIMMIN
 10
0.0000015376081137
 20
-0.0000001931532552
  9
$LIMMAX
 10
692.0000015376082
 20
477.0606058674526
  9
$ORTHOMODE
 70
     1
  9
$REGENMODE
 70
     1
  9
$FILLMODE
 70
     1
  9
$QTEXTMODE
 70
     0
  9
$MIRRTEXT
 70
     1
  9
$LTSCALE
 40
0.5
  9
$ATTMODE
 70
     1
  9
$TEXTSIZE
 40
2.5
  9
$TRACEWID
 40
1.0
  9
$TEXTSTYLE
  7
STANDARD
  9
$CLAYER
  8
0
  9
$CELTYPE
  6
BYLAYER
  9
$CECOLOR
 62
   256
  9
$CELTSCALE
 40
1.0
  9
$DISPSILH
 70
     0
  9
$DIMSCALE
 40
1.0
  9
$DIMASZ
 40
3.0
  9
$DIMEXO
 40
1.0
  9
$DIMDLI
 40
10.0
  9
$DIMRND
 40
0.0
  9
$DIMDLE
 40
0.0
  9
$DIMEXE
 40
1.0
  9
$DIMTP
 40
0.0
  9
$DIMTM
 40
0.0
  9
$DIMTXT
 40
3.2
  9
$DIMCEN
 40
0.0
  9
$DIMTSZ
 40
0.0
  9
$DIMTOL
 70
     0
  9
$DIMLIM
 70
     0
  9
$DIMTIH
 70
     0
  9
$DIMTOH
 70
     0
  9
$DIMSE1
 70
     0
  9
$DIMSE2
 70
     0
  9
$DIMTAD
 70
     3
  9
$DIMZIN
 70
     8
  9
$DIMBLK
  1

  9
$DIMASO
 70
     1
  9
$DIMSHO
 70
     1
  9
$DIMPOST
  1

  9
$DIMAPOST
  1

  9
$DIMALT
 70
     0
  9
$DIMALTD
 70
     2
  9
$DIMALTF
 40
25.4
  9
$DIMLFAC
 40
1.0
  9
$DIMTOFL
 70
     1
  9
$DIMTVP
 40
0.0
  9
$DIMTIX
 70
     0
  9
$DIMSOXD
 70
     0
  9
$DIMSAH
 70
     1
  9
$DIMBLK1
  1
OPEN
  9
$DIMBLK2
  1
OPEN
  9
$DIMSTYLE
  2
STANDARD
  9
$DIMCLRD
 70
     0
  9
$DIMCLRE
 70
     0
  9
$DIMCLRT
 70
     0
  9
$DIMTFAC
 40
1.0
  9
$DIMGAP
 40
1.0
  9
$DIMJUST
 70
     0
  9
$DIMSD1
 70
     0
  9
$DIMSD2
 70
     0
  9
$DIMTOLJ
 70
     1
  9
$DIMTZIN
 70
     0
  9
$DIMALTZ
 70
     0
  9
$DIMALTTZ
 70
     0
  9
$DIMUPT
 70
     0
  9
$DIMDEC
 70
     4
  9
$DIMTDEC
 70
     4
  9
$DIMALTU
 70
     2
  9
$DIMALTTD
 70
     2
  9
$DIMTXSTY
  7
STANDARD
  9
$DIMAUNIT
 70
     0
  9
$DIMADEC
 70
     0
  9
$DIMALTRND
 40
0.0
  9
$DIMAZIN
 70
     0
  9
$DIMDSEP
 70
    46
  9
$DIMATFIT
 70
     3
  9
$DIMFRAC
 70
     0
  9
$DIMLDRBLK
  1
OPEN
  9
$DIMLUNIT
 70
     2
  9
$DIMLWD
 70
    -2
  9
$DIMLWE
 70
    -2
  9
$DIMTMOVE
 70
     0
  9
$LUNITS
 70
     2
  9
$LUPREC
 70
     4
  9
$SKETCHINC
 40
1.0
  9
$FILLETRAD
 40
5.0
  9
$AUNITS
 70
     0
  9
$AUPREC
 70
     0
  9
$MENU
  1
.
  9
$ELEVATION
 40
0.0
  9
$PELEVATION
 40
0.0
  9
$THICKNESS
 40
0.0
  9
$LIMCHECK
 70
     0
  9
$CHAMFERA
 40
10.0
  9
$CHAMFERB
 40
10.0
  9
$CHAMFERC
 40
20.0
  9
$CHAMFERD
 40
0.0
  9
$SKPOLY
 70
     0
  9
$TDCREATE
 40
2452929.642651910
  9
$TDUCREATE
 40
2452929.267651910
  9
$TDUPDATE
 40
2457192.690960139
  9
$TDUUPDATE
 40
2457192.315960139
  9
$TDINDWG
 40
0.2574041782
  9
$TDUSRTIMER
 40
0.2574041667
  9
$USRTIMER
 70
     1
  9
$ANGBASE
 50
0.0
  9
$ANGDIR
 70
     0
  9
$PDMODE
 70
     0
  9
$PDSIZE
 40
0.0
  9
$PLINEWID
 40
0.0
  9
$SPLFRAME
 70
     0
  9
$SPLINETYPE
 70
     6
  9
$SPLINESEGS
 70
     8
  9
$HANDSEED
  5
2B38
  9
$SURFTAB1
 70
     6
  9
$SURFTAB2
 70
     6
  9
$SURFTYPE
 70
     6
  9
$SURFU
 70
     6
  9
$SURFV
 70
     6
  9
$UCSBASE
  2

  9
$UCSNAME
  2

  9
$UCSORG
 10
0.0
 20
0.0
 30
0.0
  9
$UCSXDIR
 10
1.0
 20
0.0
 30
0.0
  9
$UCSYDIR
 10
0.0
 20
1.0
 30
0.0
  9
$UCSORTHOREF
  2

  9
$UCSORTHOVIEW
 70
     0
  9
$UCSORGTOP
 10
0.0
 20
0.0
 30
0.0
  9
$UCSORGBOTTOM
 10
0.0
 20
0.0
 30
0.0
  9
$UCSORGLEFT
 10
0.0
 20
0.0
 30
0.0
  9
$UCSORGRIGHT
 10
0.0
 20
0.0
 30
0.0
  9
$UCSORGFRONT
 10
0.0
 20
0.0
 30
0.0
  9
$UCSORGBACK
 10
0.0
 20
0.0
 30
0.0
  9
$PUCSBASE
  2

  9
$PUCSNAME
  2

  9
$PUCSORG
 10
0.0
 20
0.0
 30
0.0
  9
$PUCSXDIR
 10
1.0
 20
0.0
 30
0.0
  9
$PUCSYDIR
 10
0.0
 20
1.0
 30
0.0
  9
$PUCSORTHOREF
  2

  9
$PUCSORTHOVIEW
 70
     0
  9
$PUCSORGTOP
 10
0.0
 20
0.0
 30
0.0
  9
$PUCSORGBOTTOM
 10
0.0
 20
0.0
 30
0.0
  9
$PUCSORGLEFT
 10
0.0
 20
0.0
 30
0.0
  9
$PUCSORGRIGHT
 10
0.0
 20
0.0
 30
0.0
  9
$PUCSORGFRONT
 10
0.0
 20
0.0
 30
0.0
  9
$PUCSORGBACK
 10
0.0
 20
0.0
 30
0.0
  9
$USERI1
 70
     0
  9
$USERI2
 70
     0
  9
$USERI3
 70
     0
  9
$USERI4
 70
     0
  9
$USERI5
 70
     0
  9
$USERR1
 40
0.0
  9
$USERR2
 40
0.0
  9
$USERR3
 40
0.0
  9
$USERR4
 40
0.0
  9
$USERR5
 40
0.0
  9
$WORLDVIEW
 70
     1
  9
$SHADEDGE
 70
     3
  9
$SHADEDIF
 70
    70
  9
$TILEMODE
 70
     1
  9
$MAXACTVP
 70
    48
  9
$PINSBASE
 10
0.0
 20
0.0
 30
0.0
  9
$PLIMCHECK
 70
     0
  9
$PEXTMIN
 10
1.000000000000000E+20
 20
1.000000000000000E+20
 30
1.000000000000000E+20
  9
$PEXTMAX
 10
-1.000000000000000E+20
 20
-1.000000000000000E+20
 30
-1.000000000000000E+20
  9
$PLIMMIN
 10
0.0
 20
0.0
  9
$PLIMMAX
 10
420.0
 20
297.0
  9
$UNITMODE
 70
     0
  9
$VISRETAIN
 70
     1
  9
$PLINEGEN
 70
     0
  9
$PSLTSCALE
 70
     1
  9
$TREEDEPTH
 70
  3020
  9
$CMLSTYLE
  2
STANDARD
  9
$CMLJUST
 70
     0
  9
$CMLSCALE
 40
20.0
  9
$PROXYGRAPHICS
 70
     1
  9
$MEASUREMENT
 70
     0
  9
$CELWEIGHT
370
    -1
  9
$ENDCAPS
280
     0
  9
$JOINSTYLE
280
     0
  9
$LWDISPLAY
290
     0
  9
$INSUNITS
 70
     0
  9
$HYPERLINKBASE
  1

  9
$STYLESHEET
  1

  9
$XEDIT
290
     1
  9
$CEPSNTYPE
380
     0
  9
$PSTYLEMODE
290
     1
  9
$FINGERPRINTGUID
  2
{81B14FC8-E31A-4F5C-95FC-2800DCCFEA06}
  9
$VERSIONGUID
  2
{3AFFF34E-7BE8-46D8-8D13-BCE42082783D}
  9
$EXTNAMES
290
     1
  9
$PSVPSCALE
 40
0.0
  9
$OLESTARTUP
290
     0
  0
ENDSEC
  0
SECTION
  2
CLASSES
  0
CLASS
  1
ACDBDICTIONARYWDFLT
  2
AcDbDictionaryWithDefault
  3
ObjectDBX Classes
 90
        0
280
     0
281
     0
  0
CLASS
  1
ACDBPLACEHOLDER
  2
AcDbPlaceHolder
  3
ObjectDBX Classes
 90
        0
280
     0
281
     0
  0
CLASS
  1
LAYOUT
  2
AcDbLayout
  3
ObjectDBX Classes
 90
        0
280
     0
281
     0
  0
CLASS
  1
DICTIONARYVAR
  2
AcDbDictionaryVar
  3
ObjectDBX Classes
 90
        0
280
     0
281
     0
  0
CLASS
  1
MATERIAL
  2
AcDbMaterial
  3
ObjectDBX Classes
 90
     1153
280
     0
281
     0
  0
CLASS
  1
VISUALSTYLE
  2
AcDbVisualStyle
  3
ObjectDBX Classes
 90
     4095
280
     0
281
     0
  0
CLASS
  1
TABLESTYLE
  2
AcDbTableStyle
  3
ObjectDBX Classes
 90
     4095
280
     0
281
     0
  0
CLASS
  1
SCALE
  2
AcDbScale
  3
ObjectDBX Classes
 90
     1153
280
     0
281
     0
  0
CLASS
  1
MLEADERSTYLE
  2
AcDbMLeaderStyle
  3
ACDB_MLEADERSTYLE_CLASS
 90
     4095
280
     0
281
     0
  0
CLASS
  1
ACDBSECTIONVIEWSTYLE
  2
AcDbSectionViewStyle
  3
ObjectDBX Classes
 90
     1025
280
     0
281
     0
  0
CLASS
  1
ACDBDETAILVIEWSTYLE
  2
AcDbDetailViewStyle
  3
ObjectDBX Classes
 90
     1025
280
     0
281
     0
  0
CLASS
  1
CELLSTYLEMAP
  2
AcDbCellStyleMap
  3
ObjectDBX Classes
 90
     1152
280
     0
281
     0
  0
ENDSEC
  0
SECTION
  2
TABLES
  0
TABLE
  2
VPORT
  5
8
330
0
100
AcDbSymbolTable
 70
     1
  0
VPORT
  5
2A84
330
8
100
AcDbSymbolTableRecord
100
AcDbViewportTableRecord
  2
*ACTIVE
 70
     0
 10
0.0
 20
0.0
 11
1.0
 21
1.0
 12
495.7743245574073
 22
229.5220870794959
 13
0.0
 23
0.0
 14
10.0
 24
10.0
 15
10.0
 25
10.0
 16
0.0
 26
0.0
 36
1.0
 17
0.0
 27
0.0
 37
0.0
 40
442.5212540066513
 41
2.35006605019815
 42
50.0
 43
0.0
 44
0.0
 50
0.0
 51
0.0
 71
     0
 72
   100
 73
     1
 74
     0
 75
     0
 76
     0
 77
     0
 78
     0
281
     0
 65
     1
110
0.0
120
0.0
130
0.0
111
1.0
121
0.0
131
0.0
112
0.0
122
1.0
132
0.0
 79
     0
146
0.0
1001
ACAD_NAV_VCDISPLAY
1070
     3
  0
ENDTAB
  0
TABLE
  2
LTYPE
  5
5
330
0
100
AcDbSymbolTable
 70
     4
  0
LTYPE
  5
12
330
5
100
AcDbSymbolTableRecord
100
AcDbLinetypeTableRecord
  2
BYBLOCK
 70
     0
  3

 72
    65
 73
     0
 40
0.0
  0
LTYPE
  5
13
330
5
100
AcDbSymbolTableRecord
100
AcDbLinetypeTableRecord
  2
BYLAYER
 70
     0
  3

 72
    65
 73
     0
 40
0.0
  0
LTYPE
  5
14
330
5
100
AcDbSymbolTableRecord
100
AcDbLinetypeTableRecord
  2
CONTINUOUS
 70
     0
  3
Solid line
 72
    65
 73
     0
 40
0.0
  0
LTYPE
  5
4B
330
5
100
AcDbSymbolTableRecord
100
AcDbLinetypeTableRecord
  2
DASHED
 70
     0
  3
Dashed __ __ __ __ __ __ __ __ __ __ __ __ __ _
 72
    65
 73
     2
 40
19.04999999999998
 49
12.7
 74
     0
 49
-6.349999999999997
 74
     0
  0
LTYPE
  5
4C
330
5
100
AcDbSymbolTableRecord
100
AcDbLinetypeTableRecord
  2
CENTER
 70
     0
  3
Center ____ _ ____ _ ____ _ ____ _ ____ _ ____
 72
    65
 73
     4
 40
50.8
 49
31.75
 74
     0
 49
-6.349999999999997
 74
     0
 49
6.349999999999997
 74
     0
 49
-6.349999999999997
 74
     0
  0
LTYPE
  5
4D
330
5
100
AcDbSymbolTableRecord
100
AcDbLinetypeTableRecord
  2
PHANTOM
 70
     0
  3
Phantom ______  __  __  ______  __  __  ______
 72
    65
 73
     6
 40
63.5
 49
31.75
 74
     0
 49
-6.349999999999997
 74
     0
 49
6.349999999999997
 74
     0
 49
-6.349999999999997
 74
     0
 49
6.349999999999997
 74
     0
 49
-6.349999999999997
 74
     0
  0
ENDTAB
  0
TABLE
  2
LAYER
  5
2
330
0
100
AcDbSymbolTable
 70
     8
  0
LAYER
  5
E
102
{ACAD_XDICTIONARY
360
2ADC
102
}
330
2
100
AcDbSymbolTableRecord
100
AcDbLayerTableRecord
  2
0
 70
     0
 62
     7
  6
CONTINUOUS
370
    -3
390
2A8B
  0
LAYER
  5
4E
102
{ACAD_XDICTIONARY
360
2ADE
102
}
330
2
100
AcDbSymbolTableRecord
100
AcDbLayerTableRecord
  2
4
 70
     0
 62
     1
  6
CENTER
370
    -3
390
2A8B
  0
LAYER
  5
4F
102
{ACAD_XDICTIONARY
360
2AE0
102
}
330
2
100
AcDbSymbolTableRecord
100
AcDbLayerTableRecord
  2
5
 70
     0
 62
     6
  6
PHANTOM
370
    -3
390
2A8B
  0
LAYER
  5
50
102
{ACAD_XDICTIONARY
360
2AE2
102
}
330
2
100
AcDbSymbolTableRecord
100
AcDbLayerTableRecord
  2
1
 70
     0
 62
     7
  6
CONTINUOUS
370
    -3
390
2A8B
  0
LAYER
  5
51
102
{ACAD_XDICTIONARY
360
2AE4
102
}
330
2
100
AcDbSymbolTableRecord
100
AcDbLayerTableRecord
  2
2
 70
     0
 62
     4
  6
CONTINUOUS
370
    -3
390
2A8B
  0
LAYER
  5
52
102
{ACAD_XDICTIONARY
360
2AE6
102
}
330
2
100
AcDbSymbolTableRecord
100
AcDbLayerTableRecord
  2
3
 70
     0
 62
     2
  6
DASHED
370
    -3
390
2A8B
  0
LAYER
  5
53
102
{ACAD_XDICTIONARY
360
2AE8
102
}
330
2
100
AcDbSymbolTableRecord
100
AcDbLayerTableRecord
  2
6
 70
     0
 62
     5
  6
CONTINUOUS
370
    -3
390
2A8B
  0
LAYER
  5
54
102
{ACAD_XDICTIONARY
360
2AEA
102
}
330
2
100
AcDbSymbolTableRecord
100
AcDbLayerTableRecord
  2
7
 70
     0
 62
     3
  6
CONTINUOUS
370
    -3
390
2A8B
  0
ENDTAB
  0
TABLE
  2
STYLE
  5
3
330
0
100
AcDbSymbolTable
 70
     1
  0
STYLE
  5
F
330
3
100
AcDbSymbolTableRecord
100
AcDbTextStyleTableRecord
  2
STANDARD
 70
     0
 40
0.0
 41
1.0
 50
0.0
 71
     0
 42
2.5
  3
simplex.shx
  4

  0
ENDTAB
  0
TABLE
  2
VIEW
  5
6
330
0
100
AcDbSymbolTable
 70
     0
  0
ENDTAB
  0
TABLE
  2
UCS
  5
7
330
0
100
AcDbSymbolTable
 70
     0
  0
ENDTAB
  0
TABLE
  2
APPID
  5
9
330
0
100
AcDbSymbolTable
 70
     5
  0
APPID
  5
10
330
9
100
AcDbSymbolTableRecord
100
AcDbRegAppTableRecord
  2
ACAD
 70
     0
  0
APPID
  5
3E
330
9
100
AcDbSymbolTableRecord
100
AcDbRegAppTableRecord
  2
CONTENTTABDATA
 70
     0
  0
APPID
  5
3F
330
9
100
AcDbSymbolTableRecord
100
AcDbRegAppTableRecord
  2
CONTENTCURRENTTAB
 70
     0
  0
APPID
  5
2AF6
330
9
100
AcDbSymbolTableRecord
100
AcDbRegAppTableRecord
  2
ACAD_NAV_VCDISPLAY
 70
     0
  0
APPID
  5
2B2F
330
9
100
AcDbSymbolTableRecord
100
AcDbRegAppTableRecord
  2
ACAD_MLEADERVER
 70
     0
  0
ENDTAB
  0
TABLE
  2
DIMSTYLE
  5
A
330
0
100
AcDbSymbolTable
 70
     1
100
AcDbDimStyleTable
 71
     0
  0
DIMSTYLE
105
1D
330
A
100
AcDbSymbolTableRecord
100
AcDbDimStyleTableRecord
  2
STANDARD
 70
     0
 41
3.0
 42
1.0
 43
10.0
 44
1.0
 73
     0
 74
     0
 77
     3
 78
     8
140
3.2
141
0.0
147
1.0
172
     1
173
     1
340
F
341
2E
343
2E
344
2E
  0
ENDTAB
  0
TABLE
  2
BLOCK_RECORD
  5
1
330
0
100
AcDbSymbolTable
 70
     1
  0
BLOCK_RECORD
  5
18
102
{ACAD_XDICTIONARY
360
2A71
102
}
330
1
100
AcDbSymbolTableRecord
100
AcDbBlockTableRecord
  2
*MODEL_SPACE
340
2AD9
  0
BLOCK_RECORD
  5
15
102
{ACAD_XDICTIONARY
360
2A6F
102
}
330
1
100
AcDbSymbolTableRecord
100
AcDbBlockTableRecord
  2
*PAPER_SPACE
340
2ADA
  0
BLOCK_RECORD
  5
2E
330
1
100
AcDbSymbolTableRecord
100
AcDbBlockTableRecord
  2
_OPEN
340
0
  0
ENDTAB
  0
ENDSEC
  0
SECTION
  2
BLOCKS
  0
BLOCK
  5
19
330
18
100
AcDbEntity
  8
0
100
AcDbBlockBegin
  2
*MODEL_SPACE
 70
     0
 10
0.0
 20
0.0
 30
0.0
  3
*MODEL_SPACE
  1

  0
ENDBLK
  5
1A
330
18
100
AcDbEntity
  8
0
100
AcDbBlockEnd
  0
BLOCK
  5
16
330
15
100
AcDbEntity
 67
     1
  8
0
100
AcDbBlockBegin
  2
*PAPER_SPACE
 70
     0
 10
0.0
 20
0.0
 30
0.0
  3
*PAPER_SPACE
  1

  0
ENDBLK
  5
17
330
15
100
AcDbEntity
 67
     1
  8
0
100
AcDbBlockEnd
  0
BLOCK
  5
2F
330
2E
100
AcDbEntity
  8
0
100
AcDbBlockBegin
  2
_OPEN
 70
     0
 10
0.0
 20
0.0
 30
0.0
  3
_OPEN
  1

  0
LINE
  5
30
330
2E
100
AcDbEntity
  8
0
  6
ByBlock
 62
     0
100
AcDbLine
 10
-1.0
 20
0.1666666666666666
 30
0.0
 11
0.0
 21
0.0
 31
0.0
  0
LINE
  5
31
330
2E
100
AcDbEntity
  8
0
  6
ByBlock
 62
     0
100
AcDbLine
 10
0.0
 20
0.0
 30
0.0
 11
-1.0
 21
-0.1666666666666666
 31
0.0
  0
LINE
  5
32
330
2E
100
AcDbEntity
  8
0
  6
ByBlock
 62
     0
100
AcDbLine
 10
0.0
 20
0.0
 30
0.0
 11
-1.0
 21
0.0
 31
0.0
  0
ENDBLK
  5
33
330
2E
100
AcDbEntity
  8
0
100
AcDbBlockEnd
  0
ENDSEC
  0
SECTION
  2
ENTITIES
  0
TEXT
  5
63
330
18
100
AcDbEntity
  8
4
  6
CENTER
 48
0.25
100
AcDbText
 10
23.97950852663849
 20
10.0
 30
0.0
 40
1.399999999999999
  1
4
100
AcDbText
  0
TEXT
  5
64
330
18
100
AcDbEntity
  8
7
  6
Continuous
 48
0.25
100
AcDbText
 10
9.999997526638502
 20
26.0000007607689
 30
0.0
 40
3.0
  1
CODE No.9485
100
AcDbText
  0
TEXT
  5
65
330
18
100
AcDbEntity
  8
7
  6
Continuous
 48
0.25
100
AcDbText
 10
9.999997526638502
 20
18.00000076076889
 30
0.0
 40
3.0
  1
TYPE No.TCA-540S-BAU75
100
AcDbText
  0
TEXT
  5
66
330
18
100
AcDbEntity
  8
1
  6
Continuous
 48
0.25
100
AcDbText
 10
9.999997526638502
 20
10.00000076076889
 30
0.0
 40
1.399999999999999
  1
LAYER
100
AcDbText
  0
TEXT
  5
67
330
18
100
AcDbEntity
  8
2
  6
Continuous
 48
0.25
100
AcDbText
 10
19.9795085266385
 20
10.0
 30
0.0
 40
1.399999999999999
  1
2
100
AcDbText
  0
TEXT
  5
68
330
18
100
AcDbEntity
  8
3
  6
DASHED
 48
0.25
100
AcDbText
 10
21.97950852663849
 20
10.0
 30
0.0
 40
1.399999999999999
  1
3
100
AcDbText
  0
TEXT
  5
69
330
18
100
AcDbEntity
  8
1
  6
Continuous
 48
0.25
100
AcDbText
 10
17.9795085266385
 20
10.0
 30
0.0
 40
1.399999999999999
  1
1
100
AcDbText
  0
TEXT
  5
6A
330
18
100
AcDbEntity
  8
5
  6
PHANTOM
 48
0.25
100
AcDbText
 10
25.97950852663849
 20
10.0
 30
0.0
 40
1.399999999999999
  1
5
100
AcDbText
  0
TEXT
  5
6B
330
18
100
AcDbEntity
  8
6
  6
Continuous
 48
0.25
100
AcDbText
 10
27.97950852663849
 20
10.0
 30
0.0
 40
1.399999999999999
  1
6
100
AcDbText
  0
TEXT
  5
6C
330
18
100
AcDbEntity
  8
7
  6
Continuous
 48
0.25
100
AcDbText
 10
29.9795085266385
 20
10.0
 30
0.0
 40
1.399999999999999
  1
7
100
AcDbText
  0
LINE
  5
727
330
18
100
AcDbEntity
  8
1
  6
Continuous
100
AcDbLine
 10
609.3885667639487
 20
235.9969543146867
 30
0.0
 11
609.3885667639487
 21
227.5116351103041
 31
0.0
  0
LINE
  5
728
330
18
100
AcDbEntity
  8
1
  6
Continuous
100
AcDbLine
 10
592.3885677639491
 20
235.9969543146865
 30
0.0
 11
592.3885677639491
 21
227.5116351103043
 31
0.0
  0
CIRCLE
  5
729
330
18
100
AcDbEntity
  8
1
  6
Continuous
100
AcDbCircle
 10
600.888567263949
 20
231.7542947124954
 30
0.0
 40
8.500003000000162
  0
CIRCLE
  5
72A
330
18
100
AcDbEntity
  8
1
  6
Continuous
100
AcDbCircle
 10
600.888567263949
 20
231.7542947124954
 30
0.0
 40
5.000003999999761
  0
CIRCLE
  5
72B
330
18
100
AcDbEntity
  8
2
  6
Continuous
100
AcDbCircle
 10
600.888567263949
 20
231.7542947124954
 30
0.0
 40
4.25
  0
ARC
  5
72C
330
18
100
AcDbEntity
  8
1
  6
Continuous
100
AcDbCircle
 10
600.888567263949
 20
231.7542947124954
 30
0.0
 40
9.500008000000008
100
AcDbArc
 50
266.5254419295533
 51
273.4745580704335
  0
LINE
  5
72D
330
18
100
AcDbEntity
  8
1
  6
Continuous
100
AcDbLine
 10
592.9643177538896
 20
226.5144071466799
 30
0.0
 11
600.3128162740083
 21
222.2717495479499
 31
0.0
  0
ARC
  5
72E
330
18
100
AcDbEntity
  8
1
  6
Continuous
100
AcDbCircle
 10
600.888567263949
 20
231.7542947124954
 30
0.0
 40
9.500008000000008
100
AcDbArc
 50
206.525455434247
 51
213.474558070439
  0
LINE
  5
72F
330
18
100
AcDbEntity
  8
1
  6
Continuous
100
AcDbLine
 10
608.8128167740083
 20
226.5144071466798
 30
0.0
 11
601.4643182538898
 21
222.2717495479499
 31
0.0
  0
ARC
  5
730
330
18
100
AcDbEntity
  8
1
  6
Continuous
100
AcDbCircle
 10
600.888567263949
 20
231.7542947124954
 30
0.0
 40
9.500008000000008
100
AcDbArc
 50
326.5254419295609
 51
333.4745445657528
  0
ARC
  5
731
330
18
100
AcDbEntity
  8
1
  6
Continuous
100
AcDbCircle
 10
600.888567263949
 20
231.7542947124954
 30
0.0
 40
9.500008000000008
100
AcDbArc
 50
86.5254419295533
 51
93.47455807043369
  0
LINE
  5
732
330
18
100
AcDbEntity
  8
1
  6
Continuous
100
AcDbLine
 10
592.9643177538896
 20
236.9941822783109
 30
0.0
 11
600.3128162740083
 21
241.236839877041
 31
0.0
  0
ARC
  5
733
330
18
100
AcDbEntity
  8
1
  6
Continuous
100
AcDbCircle
 10
600.888567263949
 20
231.7542947124954
 30
0.0
 40
9.500008000000008
100
AcDbArc
 50
146.5254419295594
 51
153.4745445657526
  0
ARC
  5
734
330
18
100
AcDbEntity
  8
1
  6
Continuous
100
AcDbCircle
 10
600.888567263949
 20
231.7542947124954
 30
0.0
 40
9.500008000000008
100
AcDbArc
 50
26.52545543424718
 51
33.47455807043905
  0
LINE
  5
735
330
18
100
AcDbEntity
  8
1
  6
Continuous
100
AcDbLine
 10
608.8128167740083
 20
236.9941822783109
 30
0.0
 11
601.4643182538898
 21
241.236839877041
 31
0.0
  0
ARC
  5
189E
330
18
100
AcDbEntity
  8
1
  6
Continuous
100
AcDbCircle
 10
192.6682683468334
 20
312.5466187124953
 30
0.0
 40
99.0
100
AcDbArc
 50
291.7750500000003
 51
334.3898500000002
  0
ARC
  5
189F
330
18
100
AcDbEntity
  8
1
  6
Continuous
100
AcDbCircle
 10
224.9420953468334
 20
231.7542947124953
 30
0.0
 40
37.5
100
AcDbArc
 50
94.89461900000041
 51
14.50465400000046
  0
CIRCLE
  5
18A0
330
18
100
AcDbEntity
  8
1
  6
Continuous
100
AcDbCircle
 10
247.9420953468334
 20
404.0337312958222
 30
0.0
 40
31.5
  0
CIRCLE
  5
18A1
330
18
100
AcDbEntity
  8
1
  6
Continuous
100
AcDbCircle
 10
247.9420953468334
 20
404.0337312958222
 30
0.0
 40
29.0
  0
CIRCLE
  5
18A2
330
18
100
AcDbEntity
  8
1
  6
Continuous
100
AcDbCircle
 10
247.9420953468334
 20
404.0337312958222
 30
0.0
 40
15.5
  0
CIRCLE
  5
18A3
330
18
100
AcDbEntity
  8
1
  6
Continuous
100
AcDbCircle
 10
247.9420953468334
 20
404.0337312958222
 30
0.0
 40
12.0
  0
LINE
  5
18A4
330
18
100
AcDbEntity
  8
1
  6
Continuous
100
AcDbLine
 10
218.9984113468333
 20
283.6542947124953
 30
0.0
 11
276.8857753468332
 21
283.6542947124953
 31
0.0
  0
LINE
  5
18A5
330
18
100
AcDbEntity
  8
1
  6
Continuous
100
AcDbLine
 10
217.7959603468334
 20
287.2542947124953
 30
0.0
 11
278.0882283468333
 21
287.2542947124953
 31
0.0
  0
LINE
  5
18A6
330
18
100
AcDbEntity
  8
1
  6
Continuous
100
AcDbLine
 10
214.9420953468334
 20
278.2542947124953
 30
0.0
 11
278.6411923468333
 21
278.2542947124953
 31
0.0
  0
LINE
  5
18A7
330
18
100
AcDbEntity
  8
4
  6
CENTER
100
AcDbLine
 10
182.2645133468332
 20
231.7542947124953
 30
0.0
 11
266.2178983468334
 21
231.7542947124953
 31
0.0
  0
LINE
  5
18A8
330
18
100
AcDbEntity
  8
1
  6
Continuous
100
AcDbLine
 10
206.9420953468334
 20
291.0542947124953
 30
0.0
 11
288.9420953468333
 21
291.0542947124953
 31
0.0
  0
LINE
  5
18A9
330
18
100
AcDbEntity
  8
1
  6
Continuous
100
AcDbLine
 10
206.9420953468334
 20
294.2542947124953
 30
0.0
 11
288.9420953468333
 21
294.2542947124953
 31
0.0
  0
LINE
  5
18AA
330
18
100
AcDbEntity
  8
1
  6
Continuous
100
AcDbLine
 10
216.4420953468334
 20
445.0337312958223
 30
0.0
 11
279.4420953468334
 21
445.0337312958223
 31
0.0
  0
LINE
  5
18AB
330
18
100
AcDbEntity
  8
1
  6
Continuous
100
AcDbLine
 10
216.4420953468334
 20
363.0337312958223
 30
0.0
 11
279.4420953468334
 21
363.0337312958223
 31
0.0
  0
LINE
  5
18AC
330
18
100
AcDbEntity
  8
4
  6
CENTER
100
AcDbLine
 10
181.9749637169026
 20
404.0337312958222
 30
0.0
 11
292.9420953468333
 21
404.0337312958222
 31
0.0
  0
LINE
  5
18AE
330
18
100
AcDbEntity
  8
4
  6
CENTER
100
AcDbLine
 10
82.96885938827562
 20
298.8194802124953
 30
0.0
 11
82.96885938827562
 21
190.251334712495
 31
0.0
  0
LINE
  5
18B2
330
18
100
AcDbEntity
  8
1
  6
Continuous
100
AcDbLine
 10
102.9688593882756
 20
263.4763407124953
 30
0.0
 11
102.9688593882756
 21
200.032248712495
 31
0.0
  0
LINE
  5
18B3
330
18
100
AcDbEntity
  8
1
  6
Continuous
100
AcDbLine
 10
62.96885938827563
 20
263.4763407124953
 30
0.0
 11
62.96885938827563
 21
200.032248712495
 31
0.0
  0
ARC
  5
18B5
330
18
100
AcDbEntity
  8
1
  6
Continuous
100
AcDbCircle
 10
82.96885938827562
 20
344.2542947124953
 30
0.0
 40
150.0
100
AcDbArc
 50
264.0622100000002
 51
275.9377700000019
  0
ARC
  5
18B6
330
18
100
AcDbEntity
  8
1
  6
Continuous
100
AcDbCircle
 10
67.96885938827563
 20
200.032248712495
 30
0.0
 40
5.0
100
AcDbArc
 50
179.9999799999995
 51
264.062190000002
  0
ARC
  5
18B7
330
18
100
AcDbEntity
  8
1
  6
Continuous
100
AcDbCircle
 10
97.96885938827564
 20
200.032248712495
 30
0.0
 40
5.0
100
AcDbArc
 50
275.9377999999985
 51
0.0
  0
ARC
  5
18B8
330
18
100
AcDbEntity
  8
1
  6
Continuous
100
AcDbCircle
 10
82.96885938827562
 20
119.2542947124952
 30
0.0
 40
150.0
100
AcDbArc
 50
84.06222500000202
 51
95.93779299999741
  0
LINE
  5
18B9
330
18
100
AcDbEntity
  8
1
  6
Continuous
100
AcDbLine
 10
61.46885938827563
 20
273.7542947124953
 30
0.0
 11
104.4688593882755
 21
273.7542947124953
 31
0.0
  0
LINE
  5
18BA
330
18
100
AcDbEntity
  8
1
  6
Continuous
100
AcDbLine
 10
61.46885938827563
 20
269.7542947124953
 30
0.0
 11
104.4688593882755
 21
269.7542947124953
 31
0.0
  0
LINE
  5
18BB
330
18
100
AcDbEntity
  8
4
  6
CENTER
100
AcDbLine
 10
44.72665938827572
 20
231.7542947124953
 30
0.0
 11
117.9423093882757
 21
231.7542947124953
 31
0.0
  0
LINE
  5
18BC
330
18
100
AcDbEntity
  8
1
  6
Continuous
100
AcDbLine
 10
54.02517938827577
 20
283.6542947124953
 30
0.0
 11
111.9125393882757
 21
283.6542947124953
 31
0.0
  0
LINE
  5
18BD
330
18
100
AcDbEntity
  8
1
  6
Continuous
100
AcDbLine
 10
52.82272938827578
 20
287.2542947124953
 30
0.0
 11
113.1149923882758
 21
287.2542947124953
 31
0.0
  0
LINE
  5
18BE
330
18
100
AcDbEntity
  8
1
  6
Continuous
100
AcDbLine
 10
52.37103938827567
 20
278.2542947124953
 30
0.0
 11
113.5666753882755
 21
278.2542947124953
 31
0.0
  0
LINE
  5
18BF
330
18
100
AcDbEntity
  8
1
  6
Continuous
100
AcDbLine
 10
41.96885938827563
 20
291.0542947124953
 30
0.0
 11
123.9688593882755
 21
291.0542947124953
 31
0.0
  0
LINE
  5
18C0
330
18
100
AcDbEntity
  8
1
  6
Continuous
100
AcDbLine
 10
41.96885938827563
 20
294.2542947124953
 30
0.0
 11
123.9688593882755
 21
294.2542947124953
 31
0.0
  0
ARC
  5
18C2
330
18
100
AcDbEntity
  8
1
  6
Continuous
100
AcDbCircle
 10
80.46885938827562
 20
249.7542947124952
 30
0.0
 40
20.0
100
AcDbArc
 50
151.0449756281406
 51
179.9999599999992
  0
LINE
  5
18C3
330
18
100
AcDbEntity
  8
1
  6
Continuous
100
AcDbLine
 10
50.96884938827565
 20
274.782158712495
 30
0.0
 11
50.08226938827556
 21
239.737395712495
 31
0.0
  0
LINE
  5
18C4
330
18
100
AcDbEntity
  8
1
  6
Continuous
100
AcDbLine
 10
56.46885938827563
 20
268.7542947124953
 30
0.0
 11
56.46885938827563
 21
219.7542947124953
 31
0.0
  0
LINE
  5
18C5
330
18
100
AcDbEntity
  8
1
  6
Continuous
100
AcDbLine
 10
60.46885938827563
 20
268.7542947124953
 30
0.0
 11
60.46885938827563
 21
219.7542947124953
 31
0.0
  0
ARC
  5
18C6
330
18
100
AcDbEntity
  8
1
  6
Continuous
100
AcDbCircle
 10
65.95885938827564
 20
231.7542947124953
 30
0.0
 40
14.49
100
AcDbArc
 50
164.9045800000001
 51
195.0954199999998
  0
ARC
  5
18C7
330
18
100
AcDbEntity
  8
1
  6
Continuous
100
AcDbCircle
 10
38.21885938827563
 20
231.7542947124953
 30
0.0
 40
18.25
100
AcDbArc
 50
346.5572600000002
 51
13.44273899999898
  0
LINE
  5
18C8
330
18
100
AcDbEntity
  8
1
  6
Continuous
100
AcDbLine
 10
51.46885938827563
 20
223.2542947124953
 30
0.0
 11
51.46885938827563
 21
231.7542947124953
 31
0.0
  0
LINE
  5
18C9
330
18
100
AcDbEntity
  8
1
  6
Continuous
100
AcDbLine
 10
49.8688693882757
 20
224.4542917124953
 30
0.0
 11
49.8688693882757
 21
231.7542947124953
 31
0.0
  0
LINE
  5
18CA
330
18
100
AcDbEntity
  8
1
  6
Continuous
100
AcDbLine
 10
61.26885938827581
 20
249.7542947124952
 30
0.0
 11
61.26885938827581
 21
213.7542947124952
 31
0.0
  0
LINE
  5
18CB
330
18
100
AcDbEntity
  8
1
  6
Continuous
100
AcDbLine
 10
49.71885938827563
 20
236.7542947124952
 30
0.0
 11
49.71885938827563
 21
226.7542947124952
 31
0.0
  0
LINE
  5
18CC
330
18
100
AcDbEntity
  8
1
  6
Continuous
100
AcDbLine
 10
48.96885938827563
 20
236.0042947124953
 30
0.0
 11
48.96885938827563
 21
227.5042947124953
 31
0.0
  0
LINE
  5
18CD
330
18
100
AcDbEntity
  8
1
  6
Continuous
100
AcDbLine
 10
56.46885938827563
 20
219.7542947124953
 30
0.0
 11
60.46885938827563
 21
219.7542947124953
 31
0.0
  0
ARC
  5
18CE
330
18
100
AcDbEntity
  8
1
  6
Continuous
100
AcDbCircle
 10
51.06886938827575
 20
224.4542917124953
 30
0.0
 40
1.199999999999999
100
AcDbArc
 50
180.0000099999993
 51
270.0
  0
LINE
  5
18CF
330
18
100
AcDbEntity
  8
2
  6
Continuous
100
AcDbLine
 10
48.96885938827563
 20
227.5042947124953
 30
0.0
 11
49.8688693882757
 21
227.5042947124953
 31
0.0
  0
LINE
  5
18D0
330
18
100
AcDbEntity
  8
1
  6
Continuous
100
AcDbLine
 10
49.71885938827563
 20
226.7542947124952
 30
0.0
 11
49.8688693882757
 21
226.7542947124952
 31
0.0
  0
LINE
  5
18D1
330
18
100
AcDbEntity
  8
1
  6
Continuous
100
AcDbLine
 10
49.71884938827565
 20
226.7542867124952
 30
0.0
 11
48.96884938827565
 21
227.5042867124951
 31
0.0
  0
ARC
  5
18D2
330
18
100
AcDbEntity
  8
1
  6
Continuous
100
AcDbCircle
 10
55.27886938827577
 20
224.3930807124953
 30
0.0
 40
3.8100059
100
AcDbArc
 50
150.3156199999998
 51
209.6843800000002
  0
ARC
  5
18D3
330
18
100
AcDbEntity
  8
1
  6
Continuous
100
AcDbCircle
 10
51.68173938827568
 20
224.3843457124953
 30
0.0
 40
4.787128
100
AcDbArc
 50
333.5795799999996
 51
26.42042000000029
  0
LINE
  5
18D4
330
18
100
AcDbEntity
  8
1
  6
Continuous
100
AcDbLine
 10
51.06886938827575
 20
223.2542947124953
 30
0.0
 11
51.46885938827563
 21
223.2542947124953
 31
0.0
  0
LINE
  5
18D5
330
18
100
AcDbEntity
  8
1
  6
Continuous
100
AcDbLine
 10
56.46885938827563
 20
223.254294712495
 30
0.0
 11
55.96885938827563
 21
222.254294712495
 31
0.0
  0
LINE
  5
18D6
330
18
100
AcDbEntity
  8
1
  6
Continuous
100
AcDbLine
 10
51.96886938827582
 20
222.4542997124951
 30
0.0
 11
51.46886938827582
 21
223.2542947124953
 31
0.0
  0
LINE
  5
18D7
330
18
100
AcDbEntity
  8
1
  6
Continuous
100
AcDbLine
 10
51.96885938827563
 20
222.4542917124953
 30
0.0
 11
51.96885938827563
 21
222.5062857124953
 31
0.0
  0
LINE
  5
18D8
330
18
100
AcDbEntity
  8
1
  6
Continuous
100
AcDbLine
 10
51.96885938827563
 20
226.2798757124953
 30
0.0
 11
51.96885938827563
 21
227.9807047124953
 31
0.0
  0
LINE
  5
18D9
330
18
100
AcDbEntity
  8
1
  6
Continuous
100
AcDbLine
 10
55.96885938827563
 20
227.5116567124952
 30
0.0
 11
55.96885938827563
 21
226.5144037124953
 31
0.0
  0
LINE
  5
18DA
330
18
100
AcDbEntity
  8
1
  6
Continuous
100
AcDbLine
 10
51.96885938827563
 20
226.2798757124953
 30
0.0
 11
55.96885938827563
 21
226.5144037124953
 31
0.0
  0
LINE
  5
18DB
330
18
100
AcDbEntity
  8
1
  6
Continuous
100
AcDbLine
 10
55.96885938827563
 20
227.5116567124952
 30
0.0
 11
51.96885938827563
 21
227.9807047124953
 31
0.0
  0
LINE
  5
18DC
330
18
100
AcDbEntity
  8
1
  6
Continuous
100
AcDbLine
 10
55.96885938827563
 20
222.254294712495
 30
0.0
 11
51.96885938827563
 21
222.5062787124949
 31
0.0
  0
LINE
  5
18DD
330
18
100
AcDbEntity
  8
1
  6
Continuous
100
AcDbLine
 10
51.96885938827563
 20
222.4542997124951
 30
0.0
 11
55.96885938827563
 21
222.2542947124952
 31
0.0
  0
LINE
  5
18DE
330
18
100
AcDbEntity
  8
1
  6
Continuous
100
AcDbLine
 10
61.26885938827581
 20
213.7542947124952
 30
0.0
 11
62.96885938827563
 21
213.7542947124952
 31
0.0
  0
LINE
  5
18DF
330
18
100
AcDbEntity
  8
1
  6
Continuous
100
AcDbLine
 10
60.46885938827563
 20
226.7542947124952
 30
0.0
 11
61.26885938827581
 21
226.7542947124952
 31
0.0
  0
ARC
  5
18E0
330
18
100
AcDbEntity
  8
1
  6
Continuous
100
AcDbCircle
 10
51.68173938827568
 20
239.1242407124952
 30
0.0
 40
4.787128
100
AcDbArc
 50
333.5795799999996
 51
26.42042000000029
  0
ARC
  5
18E1
330
18
100
AcDbEntity
  8
1
  6
Continuous
100
AcDbCircle
 10
51.06886938827575
 20
239.0542937124953
 30
0.0
 40
1.199999999999999
100
AcDbArc
 50
90.00000299999769
 51
180.0000099999993
  0
ARC
  5
18E2
330
18
100
AcDbEntity
  8
1
  6
Continuous
100
AcDbCircle
 10
55.27886938827577
 20
239.1155087124952
 30
0.0
 40
3.8100059
100
AcDbArc
 50
150.3156199999998
 51
209.6843800000002
  0
LINE
  5
18E3
330
18
100
AcDbEntity
  8
1
  6
Continuous
100
AcDbLine
 10
51.46885938827563
 20
240.2542947124953
 30
0.0
 11
51.46885938827563
 21
231.7542947124953
 31
0.0
  0
LINE
  5
18E4
330
18
100
AcDbEntity
  8
2
  6
Continuous
100
AcDbLine
 10
48.96885938827563
 20
236.0042947124953
 30
0.0
 11
49.8688693882757
 21
236.0042947124953
 31
0.0
  0
LINE
  5
18E5
330
18
100
AcDbEntity
  8
1
  6
Continuous
100
AcDbLine
 10
49.71885938827563
 20
236.7542947124952
 30
0.0
 11
49.8688693882757
 21
236.7542947124952
 31
0.0
  0
LINE
  5
18E6
330
18
100
AcDbEntity
  8
1
  6
Continuous
100
AcDbLine
 10
48.96884938827565
 20
236.0042867124952
 30
0.0
 11
49.71885938827563
 21
236.7542987124954
 31
0.0
  0
LINE
  5
18E7
330
18
100
AcDbEntity
  8
1
  6
Continuous
100
AcDbLine
 10
49.8688693882757
 20
239.0542937124953
 30
0.0
 11
49.8688693882757
 21
231.7542947124953
 31
0.0
  0
LINE
  5
18E8
330
18
100
AcDbEntity
  8
1
  6
Continuous
100
AcDbLine
 10
55.96885938827563
 20
235.9969357124953
 30
0.0
 11
51.96885938827563
 21
235.5278887124951
 31
0.0
  0
LINE
  5
18E9
330
18
100
AcDbEntity
  8
1
  6
Continuous
100
AcDbLine
 10
51.96885938827563
 20
237.2287097124953
 30
0.0
 11
55.96885938827563
 21
236.9941857124953
 31
0.0
  0
LINE
  5
18EA
330
18
100
AcDbEntity
  8
1
  6
Continuous
100
AcDbLine
 10
55.96885938827563
 20
235.9969357124953
 30
0.0
 11
55.96885938827563
 21
236.9941897124953
 31
0.0
  0
LINE
  5
18EB
330
18
100
AcDbEntity
  8
1
  6
Continuous
100
AcDbLine
 10
51.96885938827563
 20
237.2287137124951
 30
0.0
 11
51.96885938827563
 21
235.5278887124951
 31
0.0
  0
LINE
  5
18EC
330
18
100
AcDbEntity
  8
1
  6
Continuous
100
AcDbLine
 10
51.96885938827563
 20
241.0542977124952
 30
0.0
 11
55.96885938827563
 21
241.2542947124952
 31
0.0
  0
LINE
  5
18ED
330
18
100
AcDbEntity
  8
1
  6
Continuous
100
AcDbLine
 10
55.96885938827563
 20
241.254294712495
 30
0.0
 11
51.96885938827563
 21
241.002307712495
 31
0.0
  0
LINE
  5
18EE
330
18
100
AcDbEntity
  8
1
  6
Continuous
100
AcDbLine
 10
51.96885938827563
 20
241.0542937124953
 30
0.0
 11
51.96885938827563
 21
241.0023077124952
 31
0.0
  0
LINE
  5
18EF
330
18
100
AcDbEntity
  8
1
  6
Continuous
100
AcDbLine
 10
51.96885938827563
 20
241.0542897124953
 30
0.0
 11
51.46885938827563
 21
240.2542907124951
 31
0.0
  0
LINE
  5
18F0
330
18
100
AcDbEntity
  8
1
  6
Continuous
100
AcDbLine
 10
56.46886938827582
 20
240.2542987124953
 30
0.0
 11
55.96886938827584
 21
241.2542987124953
 31
0.0
  0
LINE
  5
18F1
330
18
100
AcDbEntity
  8
1
  6
Continuous
100
AcDbLine
 10
51.06886938827575
 20
240.2542947124953
 30
0.0
 11
51.46885938827563
 21
240.2542947124953
 31
0.0
  0
LINE
  5
18F2
330
18
100
AcDbEntity
  8
1
  6
Continuous
100
AcDbLine
 10
60.46885938827563
 20
236.7542947124952
 30
0.0
 11
61.26885938827581
 21
236.7542947124952
 31
0.0
  0
LINE
  5
18F3
330
18
100
AcDbEntity
  8
1
  6
Continuous
100
AcDbLine
 10
61.26885938827581
 20
249.7542947124952
 30
0.0
 11
62.96885938827563
 21
249.7542947124952
 31
0.0
  0
ARC
  5
18F5
330
18
100
AcDbEntity
  8
1
  6
Continuous
100
AcDbCircle
 10
61.46885938827563
 20
268.7542947124953
 30
0.0
 40
5.0
100
AcDbArc
 50
89.99998200000083
 51
179.9999599999992
  0
ARC
  5
18F6
330
18
100
AcDbEntity
  8
1
  6
Continuous
100
AcDbCircle
 10
67.96885938827563
 20
263.4763407124953
 30
0.0
 40
5.0
100
AcDbArc
 50
95.93781400000157
 51
179.9999599999992
  0
ARC
  5
18F7
330
18
100
AcDbEntity
  8
1
  6
Continuous
100
AcDbCircle
 10
61.46885938827563
 20
268.7542947124953
 30
0.0
 40
1.0
100
AcDbArc
 50
89.99998200000083
 51
179.9999599999992
  0
LINE
  5
18F8
330
18
100
AcDbEntity
  8
1
  6
Continuous
100
AcDbLine
 10
52.96884938827565
 20
287.2542933124951
 30
0.0
 11
54.02516938827578
 21
283.6542937124951
 31
0.0
  0
ARC
  5
18F9
330
18
100
AcDbEntity
  8
1
  6
Continuous
100
AcDbCircle
 10
55.96885938827563
 20
274.782158712495
 30
0.0
 40
5.0
100
AcDbArc
 50
126.8699199999979
 51
179.9999599999992
  0
ARC
  5
18FA
330
18
100
AcDbEntity
  8
1
  6
Continuous
100
AcDbCircle
 10
58.96885938827563
 20
280.2542947124953
 30
0.0
 40
6.0
100
AcDbArc
 50
145.4819099999985
 51
179.9999599999992
  0
ARC
  5
18FB
330
18
100
AcDbEntity
  8
1
  6
Continuous
100
AcDbCircle
 10
51.96885938827563
 20
279.2542947124953
 30
0.0
 40
1.0
100
AcDbArc
 50
311.8102200000021
 51
0.0
  0
LINE
  5
18FC
330
18
100
AcDbEntity
  8
1
  6
Continuous
100
AcDbLine
 10
52.96885938827563
 20
280.2542947124953
 30
0.0
 11
52.96885938827563
 21
279.2542947124953
 31
0.0
  0
ARC
  5
18FD
330
18
100
AcDbEntity
  8
1
  6
Continuous
100
AcDbCircle
 10
52.82272938827578
 20
292.2542947124953
 30
0.0
 40
5.0
100
AcDbArc
 50
193.88652
 51
270.0000200000018
  0
LINE
  5
18FF
330
18
100
AcDbEntity
  8
1
  6
Continuous
100
AcDbLine
 10
41.96885938827563
 20
294.2542947124953
 30
0.0
 11
41.96885938827563
 21
291.0542947124953
 31
0.0
  0
LINE
  5
1901
330
18
100
AcDbEntity
  8
4
  6
CENTER
100
AcDbLine
 10
51.46885938827563
 20
296.8130420124953
 30
0.0
 11
51.46885938827563
 21
288.7035592124951
 31
0.0
  0
ARC
  5
1902
330
18
100
AcDbEntity
  8
1
  6
Continuous
100
AcDbCircle
 10
85.46885938827562
 20
249.7542947124952
 30
0.0
 40
20.0
100
AcDbArc
 50
0.0
 51
28.95502437185924
  0
LINE
  5
1903
330
18
100
AcDbEntity
  8
1
  6
Continuous
100
AcDbLine
 10
114.9688553882755
 20
274.782158712495
 30
0.0
 11
115.9688553882755
 21
235.254294712495
 31
0.0
  0
LINE
  5
1904
330
18
100
AcDbEntity
  8
1
  6
Continuous
100
AcDbLine
 10
109.4688593882755
 20
268.7542947124953
 30
0.0
 11
109.4688593882755
 21
219.7542947124953
 31
0.0
  0
LINE
  5
1905
330
18
100
AcDbEntity
  8
1
  6
Continuous
100
AcDbLine
 10
105.4688593882755
 20
268.7542947124953
 30
0.0
 11
105.4688593882755
 21
219.7542947124953
 31
0.0
  0
LINE
  5
1906
330
18
100
AcDbEntity
  8
1
  6
Continuous
100
AcDbLine
 10
105.4688593882755
 20
219.7542947124953
 30
0.0
 11
109.4688593882755
 21
219.7542947124953
 31
0.0
  0
LINE
  5
1907
330
18
100
AcDbEntity
  8
1
  6
Continuous
100
AcDbLine
 10
104.6688563882758
 20
249.7542947124952
 30
0.0
 11
104.6688563882758
 21
213.7542947124952
 31
0.0
  0
LINE
  5
1908
330
18
100
AcDbEntity
  8
1
  6
Continuous
100
AcDbLine
 10
102.9688593882756
 20
213.7542947124952
 30
0.0
 11
104.6688563882758
 21
213.7542947124952
 31
0.0
  0
LINE
  5
1909
330
18
100
AcDbEntity
  8
1
  6
Continuous
100
AcDbLine
 10
104.6688563882758
 20
226.7542947124952
 30
0.0
 11
105.4688593882755
 21
226.7542947124952
 31
0.0
  0
LINE
  5
190A
330
18
100
AcDbEntity
  8
1
  6
Continuous
100
AcDbLine
 10
104.6688563882758
 20
236.7542947124952
 30
0.0
 11
105.4688593882755
 21
236.7542947124952
 31
0.0
  0
LINE
  5
190B
330
18
100
AcDbEntity
  8
1
  6
Continuous
100
AcDbLine
 10
102.9688593882756
 20
249.7542947124952
 30
0.0
 11
104.6688563882758
 21
249.7542947124952
 31
0.0
  0
LINE
  5
190C
330
18
100
AcDbEntity
  8
1
  6
Continuous
100
AcDbLine
 10
114.4688593882756
 20
238.7542947124952
 30
0.0
 11
114.4688593882756
 21
224.7542947124952
 31
0.0
  0
LINE
  5
190D
330
18
100
AcDbEntity
  8
1
  6
Continuous
100
AcDbLine
 10
113.4688593882756
 20
240.7542947124952
 30
0.0
 11
113.4688593882756
 21
222.7542947124952
 31
0.0
  0
LINE
  5
190E
330
18
100
AcDbEntity
  8
1
  6
Continuous
100
AcDbLine
 10
113.4688593882756
 20
222.754294712495
 30
0.0
 11
114.4688593882756
 21
224.7542947124952
 31
0.0
  0
LINE
  5
190F
330
18
100
AcDbEntity
  8
1
  6
Continuous
100
AcDbLine
 10
109.4688593882755
 20
222.7542947124952
 30
0.0
 11
113.4688593882756
 21
222.7542947124952
 31
0.0
  0
LINE
  5
1910
330
18
100
AcDbEntity
  8
1
  6
Continuous
100
AcDbLine
 10
114.4688633882755
 20
238.7542947124952
 30
0.0
 11
113.4688633882755
 21
240.7542987124953
 31
0.0
  0
ARC
  5
1911
330
18
100
AcDbEntity
  8
1
  6
Continuous
100
AcDbCircle
 10
103.9688593882755
 20
235.2542947124952
 30
0.0
 40
12.0
100
AcDbArc
 50
331.0449600000013
 51
0.0
  0
LINE
  5
1912
330
18
100
AcDbEntity
  8
1
  6
Continuous
100
AcDbLine
 10
109.4688593882755
 20
240.7542947124952
 30
0.0
 11
113.4688593882756
 21
240.7542947124952
 31
0.0
  0
ARC
  5
1913
330
18
100
AcDbEntity
  8
1
  6
Continuous
100
AcDbCircle
 10
104.4688593882755
 20
268.7542947124953
 30
0.0
 40
5.0
100
AcDbArc
 50
0.0
 51
89.99998200000083
  0
ARC
  5
1914
330
18
100
AcDbEntity
  8
1
  6
Continuous
100
AcDbCircle
 10
80.46885938827562
 20
249.7542947124952
 30
0.0
 40
20.0
100
AcDbArc
 50
89.99998200000083
 51
105.2047292158017
  0
ARC
  5
1915
330
18
100
AcDbEntity
  8
1
  6
Continuous
100
AcDbCircle
 10
85.46885938827562
 20
249.7542947124952
 30
0.0
 40
20.0
100
AcDbArc
 50
74.79527078419811
 51
89.99998200000083
  0
ARC
  5
1916
330
18
100
AcDbEntity
  8
1
  6
Continuous
100
AcDbCircle
 10
97.96885938827564
 20
263.4763407124953
 30
0.0
 40
5.0
100
AcDbArc
 50
0.0
 51
84.0622049999976
  0
ARC
  5
1917
330
18
100
AcDbEntity
  8
1
  6
Continuous
100
AcDbCircle
 10
104.4688593882755
 20
268.7542947124953
 30
0.0
 40
1.0
100
AcDbArc
 50
0.0
 51
89.99998200000083
  0
LINE
  5
1918
330
18
100
AcDbEntity
  8
1
  6
Continuous
100
AcDbLine
 10
112.9688483882756
 20
287.2542990124953
 30
0.0
 11
111.9125313882757
 21
283.6542987124953
 31
0.0
  0
ARC
  5
1919
330
18
100
AcDbEntity
  8
1
  6
Continuous
100
AcDbCircle
 10
109.9688593882755
 20
274.782158712495
 30
0.0
 40
5.0
100
AcDbArc
 50
0.0
 51
48.18969600000014
  0
ARC
  5
191A
330
18
100
AcDbEntity
  8
1
  6
Continuous
100
AcDbCircle
 10
113.9688593882755
 20
279.2542947124953
 30
0.0
 40
1.0
100
AcDbArc
 50
179.9999799999995
 51
228.1895899999978
  0
ARC
  5
191B
330
18
100
AcDbEntity
  8
1
  6
Continuous
100
AcDbCircle
 10
106.9688593882755
 20
280.2542947124953
 30
0.0
 40
6.0
100
AcDbArc
 50
0.0
 51
34.51812000000097
  0
LINE
  5
191C
330
18
100
AcDbEntity
  8
1
  6
Continuous
100
AcDbLine
 10
112.9688593882755
 20
280.2542947124953
 30
0.0
 11
112.9688593882755
 21
279.2542947124953
 31
0.0
  0
ARC
  5
191D
330
18
100
AcDbEntity
  8
1
  6
Continuous
100
AcDbCircle
 10
113.1149923882758
 20
292.2542947124953
 30
0.0
 40
5.0
100
AcDbArc
 50
270.0000200000018
 51
346.1134599999998
  0
LINE
  5
191F
330
18
100
AcDbEntity
  8
4
  6
CENTER
100
AcDbLine
 10
114.4688593882756
 20
296.1483300124953
 30
0.0
 11
114.4688593882756
 21
288.9694436124953
 31
0.0
  0
LINE
  5
1921
330
18
100
AcDbEntity
  8
1
  6
Continuous
100
AcDbLine
 10
123.9688593882755
 20
294.2542947124953
 30
0.0
 11
123.9688593882755
 21
291.0542947124953
 31
0.0
  0
LINE
  5
1922
330
18
100
AcDbEntity
  8
4
  6
CENTER
100
AcDbLine
 10
224.9420953468334
 20
272.7923447124953
 30
0.0
 11
224.9420953468334
 21
192.330404712495
 31
0.0
  0
ARC
  5
1924
330
18
100
AcDbEntity
  8
1
  6
Continuous
100
AcDbCircle
 10
203.9420953468334
 20
258.4937817124953
 30
0.0
 40
22.0
100
AcDbArc
 50
308.1445100000008
 51
19.19487000000042
  0
LINE
  5
1925
330
18
100
AcDbEntity
  8
1
  6
Continuous
100
AcDbLine
 10
237.0169553468333
 20
227.2838277124952
 30
0.0
 11
227.7137173468334
 21
275.1448487124953
 31
0.0
  0
CIRCLE
  5
1927
330
18
100
AcDbEntity
  8
1
  6
Continuous
100
AcDbCircle
 10
224.9420953468334
 20
231.7542947124953
 30
0.0
 40
7.25
  0
CIRCLE
  5
1928
330
18
100
AcDbEntity
  8
1
  6
Continuous
100
AcDbCircle
 10
224.9420953468334
 20
231.7542947124953
 30
0.0
 40
9.0
  0
ARC
  5
1929
330
18
100
AcDbEntity
  8
1
  6
Continuous
100
AcDbCircle
 10
224.9420953468334
 20
231.7542947124953
 30
0.0
 40
12.0
100
AcDbArc
 50
128.1445300000008
 51
291.7750299999996
  0
CIRCLE
  5
192A
330
18
100
AcDbEntity
  8
1
  6
Continuous
100
AcDbCircle
 10
224.9420953468334
 20
231.7542947124953
 30
0.0
 40
2.5
  0
LINE
  5
192B
330
18
100
AcDbEntity
  8
1
  6
Continuous
100
AcDbLine
 10
206.9420953468334
 20
294.2542947124953
 30
0.0
 11
206.9420953468334
 21
291.0542947124953
 31
0.0
  0
ARC
  5
192C
330
18
100
AcDbEntity
  8
1
  6
Continuous
100
AcDbCircle
 10
214.9420953468334
 20
273.2542947124953
 30
0.0
 40
5.0
100
AcDbArc
 50
89.99998200000083
 51
179.9999599999992
  0
LINE
  5
192D
330
18
100
AcDbEntity
  8
1
  6
Continuous
100
AcDbLine
 10
220.611801346833
 20
269.7542947124953
 30
0.0
 11
218.9595703468333
 21
278.2542947124953
 31
0.0
  0
ARC
  5
192E
330
18
100
AcDbEntity
  8
1
  6
Continuous
100
AcDbCircle
 10
219.0525883468333
 20
263.7542947124953
 30
0.0
 40
6.0
100
AcDbArc
 50
19.19486899999969
 51
89.99998200000083
  0
LINE
  5
192F
330
18
100
AcDbEntity
  8
1
  6
Continuous
100
AcDbLine
 10
210.6224256468332
 20
269.7542947124953
 30
0.0
 11
219.0525883468333
 21
269.7542947124953
 31
0.0
  0
LINE
  5
1930
330
18
100
AcDbEntity
  8
1
  6
Continuous
100
AcDbLine
 10
209.9420948468331
 20
273.2542947124953
 30
0.0
 11
210.6224256468332
 21
269.7542927124953
 31
0.0
  0
LINE
  5
1931
330
18
100
AcDbEntity
  8
1
  6
Continuous
100
AcDbLine
 10
217.9420973468334
 20
287.2542952124953
 30
0.0
 11
218.998413346833
 21
283.6542957124953
 31
0.0
  0
ARC
  5
1932
330
18
100
AcDbEntity
  8
1
  6
Continuous
100
AcDbCircle
 10
223.9420953468334
 20
280.2542947124953
 30
0.0
 40
6.0
100
AcDbArc
 50
145.4819099999985
 51
179.9999599999992
  0
ARC
  5
1933
330
18
100
AcDbEntity
  8
1
  6
Continuous
100
AcDbCircle
 10
216.9420953468334
 20
279.2542947124953
 30
0.0
 40
1.0
100
AcDbArc
 50
270.0000200000018
 51
0.0
  0
LINE
  5
1934
330
18
100
AcDbEntity
  8
1
  6
Continuous
100
AcDbLine
 10
217.9420953468333
 20
280.2542947124953
 30
0.0
 11
217.9420953468333
 21
279.2542947124953
 31
0.0
  0
ARC
  5
1935
330
18
100
AcDbEntity
  8
1
  6
Continuous
100
AcDbCircle
 10
217.7959603468334
 20
292.2542947124953
 30
0.0
 40
5.0
100
AcDbArc
 50
193.88652
 51
270.0000200000018
  0
LINE
  5
1938
330
18
100
AcDbEntity
  8
4
  6
CENTER
100
AcDbLine
 10
216.4420953468334
 20
296.8130420124953
 30
0.0
 11
216.4420953468334
 21
288.7035592124951
 31
0.0
  0
ARC
  5
1939
330
18
100
AcDbEntity
  8
1
  6
Continuous
100
AcDbCircle
 10
193.2200493468332
 20
389.0337312958223
 30
0.0
 40
5.0
100
AcDbArc
 50
185.9378
 51
270.0
  0
LINE
  5
193A
330
18
100
AcDbEntity
  8
1
  6
Continuous
100
AcDbLine
 10
206.9420953468334
 20
435.5337312958225
 30
0.0
 11
206.9420953468334
 21
372.5337312958223
 31
0.0
  0
ARC
  5
193B
330
18
100
AcDbEntity
  8
1
  6
Continuous
100
AcDbCircle
 10
216.4420953468334
 20
372.5337312958223
 30
0.0
 40
9.5
100
AcDbArc
 50
179.9999799999995
 51
270.0000299999965
  0
LINE
  5
193C
330
18
100
AcDbEntity
  8
1
  6
Continuous
100
AcDbLine
 10
193.2200493468332
 20
384.0337312958223
 30
0.0
 11
206.942095346861
 21
384.0337312958589
 31
0.0
  0
CIRCLE
  5
193D
330
18
100
AcDbEntity
  8
1
  6
Continuous
100
AcDbCircle
 10
216.4420953468334
 20
372.5337312958223
 30
0.0
 40
4.400000099999997
  0
LINE
  5
193E
330
18
100
AcDbEntity
  8
4
  6
CENTER
100
AcDbLine
 10
216.4420953468334
 20
378.5337312958223
 30
0.0
 11
216.4420953468334
 21
366.5337312958223
 31
0.0
  0
LINE
  5
193F
330
18
100
AcDbEntity
  8
4
  6
CENTER
100
AcDbLine
 10
210.4420953468334
 20
372.5337312958223
 30
0.0
 11
222.4420953468334
 21
372.5337312958223
 31
0.0
  0
CIRCLE
  5
1941
330
18
100
AcDbEntity
  8
1
  6
Continuous
100
AcDbCircle
 10
216.4420953468334
 20
435.5337312958225
 30
0.0
 40
4.400000099999997
  0
LINE
  5
1942
330
18
100
AcDbEntity
  8
4
  6
CENTER
100
AcDbLine
 10
216.4420953468334
 20
441.5337312958222
 30
0.0
 11
216.4420953468334
 21
429.5337312958222
 31
0.0
  0
ARC
  5
1943
330
18
100
AcDbEntity
  8
1
  6
Continuous
100
AcDbCircle
 10
337.4420953468333
 20
404.0337312958227
 30
0.0
 40
150.0
100
AcDbArc
 50
174.0622100000003
 51
185.93777
  0
ARC
  5
1944
330
18
100
AcDbEntity
  8
1
  6
Continuous
100
AcDbCircle
 10
193.2200493468332
 20
419.0337312958225
 30
0.0
 40
5.0
100
AcDbArc
 50
89.99997999999797
 51
174.06219
  0
LINE
  5
1945
330
18
100
AcDbEntity
  8
1
  6
Continuous
100
AcDbLine
 10
193.2200510921625
 20
424.0337312958222
 30
0.0
 11
206.9420953468029
 21
424.0337312958588
 31
0.0
  0
ARC
  5
1946
330
18
100
AcDbEntity
  8
1
  6
Continuous
100
AcDbCircle
 10
216.4420953468334
 20
435.5337312958225
 30
0.0
 40
9.5
100
AcDbArc
 50
89.99998200000083
 51
179.9999599999992
  0
LINE
  5
1947
330
18
100
AcDbEntity
  8
4
  6
CENTER
100
AcDbLine
 10
210.4420953468334
 20
435.5337312958225
 30
0.0
 11
222.4420953468334
 21
435.5337312958225
 31
0.0
  0
LINE
  5
1949
330
18
100
AcDbEntity
  8
4
  6
CENTER
100
AcDbLine
 10
247.9420953468334
 20
298.8194802124953
 30
0.0
 11
247.9420953468334
 21
256.7634347124953
 31
0.0
  0
LINE
  5
194A
330
18
100
AcDbEntity
  8
1
  6
Continuous
100
AcDbLine
 10
281.942103346833
 20
269.7542947124949
 30
0.0
 11
280.6044563468331
 21
276.6359117124951
 31
0.0
  0
LINE
  5
194B
330
18
100
AcDbEntity
  8
1
  6
Continuous
100
AcDbLine
 10
277.9420803468332
 20
287.2542971124953
 30
0.0
 11
276.885760346833
 21
283.6542967124951
 31
0.0
  0
ARC
  5
194C
330
18
100
AcDbEntity
  8
1
  6
Continuous
100
AcDbCircle
 10
278.6411923468333
 20
276.2542947124953
 30
0.0
 40
2.0
100
AcDbArc
 50
10.99994800000075
 51
89.99998200000083
  0
ARC
  5
194D
330
18
100
AcDbEntity
  8
1
  6
Continuous
100
AcDbCircle
 10
278.9420953468334
 20
279.2542947124953
 30
0.0
 40
1.0
100
AcDbArc
 50
179.9999799999995
 51
270.0000299999965
  0
ARC
  5
194E
330
18
100
AcDbEntity
  8
1
  6
Continuous
100
AcDbCircle
 10
271.9420953468334
 20
280.2542947124953
 30
0.0
 40
6.0
100
AcDbArc
 50
0.0
 51
34.51812000000097
  0
LINE
  5
194F
330
18
100
AcDbEntity
  8
1
  6
Continuous
100
AcDbLine
 10
277.9420953468334
 20
280.2542947124953
 30
0.0
 11
277.9420953468334
 21
279.2542947124953
 31
0.0
  0
ARC
  5
1950
330
18
100
AcDbEntity
  8
1
  6
Continuous
100
AcDbCircle
 10
278.0882283468333
 20
292.2542947124953
 30
0.0
 40
5.0
100
AcDbArc
 50
270.0000200000018
 51
346.1134599999998
  0
LINE
  5
1952
330
18
100
AcDbEntity
  8
4
  6
CENTER
100
AcDbLine
 10
279.4420953468334
 20
296.1483300124953
 30
0.0
 11
279.4420953468334
 21
288.9694436124953
 31
0.0
  0
LINE
  5
1954
330
18
100
AcDbEntity
  8
1
  6
Continuous
100
AcDbLine
 10
288.9420953468333
 20
294.2542947124953
 30
0.0
 11
288.9420953468333
 21
291.0542947124953
 31
0.0
  0
LINE
  5
1957
330
18
100
AcDbEntity
  8
1
  6
Continuous
100
AcDbLine
 10
288.9420953468333
 20
435.5337312958225
 30
0.0
 11
288.9420953468333
 21
372.5337312958223
 31
0.0
  0
LINE
  5
1958
330
18
100
AcDbEntity
  8
4
  6
CENTER
100
AcDbLine
 10
247.9420953468334
 20
449.0337312958224
 30
0.0
 11
247.9420953468334
 21
359.0337312958223
 31
0.0
  0
LINE
  5
195A
330
18
100
AcDbEntity
  8
4
  6
CENTER
100
AcDbLine
 10
273.4420953468334
 20
372.5337312958223
 30
0.0
 11
285.4420953468333
 21
372.5337312958223
 31
0.0
  0
ARC
  5
195B
330
18
100
AcDbEntity
  8
1
  6
Continuous
100
AcDbCircle
 10
279.4420953468334
 20
372.5337312958223
 30
0.0
 40
9.5
100
AcDbArc
 50
270.0000200000018
 51
0.0
  0
CIRCLE
  5
195C
330
18
100
AcDbEntity
  8
1
  6
Continuous
100
AcDbCircle
 10
279.4420953468334
 20
372.5337312958223
 30
0.0
 40
4.400000099999997
  0
LINE
  5
195D
330
18
100
AcDbEntity
  8
4
  6
CENTER
100
AcDbLine
 10
279.4420953468334
 20
378.5337312958223
 30
0.0
 11
279.4420953468334
 21
366.5337312958223
 31
0.0
  0
CIRCLE
  5
195E
330
18
100
AcDbEntity
  8
1
  6
Continuous
100
AcDbCircle
 10
279.4420953468334
 20
435.5337312958225
 30
0.0
 40
4.400000099999997
  0
LINE
  5
195F
330
18
100
AcDbEntity
  8
4
  6
CENTER
100
AcDbLine
 10
279.4420953468334
 20
441.5337312958222
 30
0.0
 11
279.4420953468334
 21
429.5337312958222
 31
0.0
  0
LINE
  5
1960
330
18
100
AcDbEntity
  8
4
  6
CENTER
100
AcDbLine
 10
273.4420953468334
 20
435.5337312958225
 30
0.0
 11
285.4420953468333
 21
435.5337312958225
 31
0.0
  0
ARC
  5
1961
330
18
100
AcDbEntity
  8
1
  6
Continuous
100
AcDbCircle
 10
279.4420953468334
 20
435.5337312958225
 30
0.0
 40
9.5
100
AcDbArc
 50
0.0
 51
89.99998200000083
  0
LINE
  5
1DB6
330
18
100
AcDbEntity
  8
4
  6
CENTER
100
AcDbLine
 10
224.9420953468334
 20
439.2647012958225
 30
0.0
 11
224.9420953468334
 21
368.8027612958224
 31
0.0
  0
LINE
  5
2119
330
18
100
AcDbEntity
  8
1
  6
Continuous
100
AcDbLine
 10
380.9153353053912
 20
274.782158712495
 30
0.0
 11
379.9153353053912
 21
235.254294712495
 31
0.0
  0
LINE
  5
211C
330
18
100
AcDbEntity
  8
4
  6
CENTER
100
AcDbLine
 10
412.9153313053911
 20
298.8194802124953
 30
0.0
 11
412.9153313053911
 21
190.251334712495
 31
0.0
  0
ARC
  5
2121
330
18
100
AcDbEntity
  8
1
  6
Continuous
100
AcDbCircle
 10
412.9153313053911
 20
119.2542947124952
 30
0.0
 40
150.0
100
AcDbArc
 50
87.04016778720847
 51
92.95983221279149
  0
LINE
  5
2122
330
18
100
AcDbEntity
  8
1
  6
Continuous
100
AcDbLine
 10
415.4153313053911
 20
269.7542947124953
 30
0.0
 11
410.4153313053911
 21
269.7542947124953
 31
0.0
  0
ARC
  5
2123
330
18
100
AcDbEntity
  8
1
  6
Continuous
100
AcDbCircle
 10
412.9153313053911
 20
344.2542947124953
 30
0.0
 40
150.0
100
AcDbArc
 50
264.062229999998
 51
275.9377899999995
  0
LINE
  5
2124
330
18
100
AcDbEntity
  8
4
  6
CENTER
100
AcDbLine
 10
451.1575313053911
 20
231.7542947124953
 30
0.0
 11
377.941881305391
 21
231.7542947124953
 31
0.0
  0
ARC
  5
2125
330
18
100
AcDbEntity
  8
1
  6
Continuous
100
AcDbCircle
 10
429.9253313053911
 20
231.7542947124953
 30
0.0
 40
14.49
100
AcDbArc
 50
344.9045800000002
 51
348.9897356165361
  0
LINE
  5
2127
330
18
100
AcDbEntity
  8
1
  6
Continuous
100
AcDbLine
 10
444.4153313053911
 20
223.2542947124953
 30
0.0
 11
444.4153313053911
 21
229.4448196931841
 31
0.0
  0
LINE
  5
2128
330
18
100
AcDbEntity
  8
1
  6
Continuous
100
AcDbLine
 10
446.0153213053912
 20
224.4542917124953
 30
0.0
 11
446.0153213053912
 21
231.7542947124953
 31
0.0
  0
LINE
  5
2129
330
18
100
AcDbEntity
  8
1
  6
Continuous
100
AcDbLine
 10
446.1653313053911
 20
236.7542947124952
 30
0.0
 11
446.1653313053911
 21
226.7542947124952
 31
0.0
  0
LINE
  5
212A
330
18
100
AcDbEntity
  8
1
  6
Continuous
100
AcDbLine
 10
446.9153313053911
 20
236.0042947124953
 30
0.0
 11
446.9153313053911
 21
227.5042947124953
 31
0.0
  0
LINE
  5
212B
330
18
100
AcDbEntity
  8
1
  6
Continuous
100
AcDbLine
 10
434.615331305391
 20
249.7542947124952
 30
0.0
 11
434.615331305391
 21
213.7542947124952
 31
0.0
  0
LINE
  5
212C
330
18
100
AcDbEntity
  8
1
  6
Continuous
100
AcDbLine
 10
432.9153313053911
 20
259.4367530780138
 30
0.0
 11
432.9153313053911
 21
200.032248712495
 31
0.0
  0
LINE
  5
212E
330
18
100
AcDbEntity
  8
1
  6
Continuous
100
AcDbLine
 10
435.4153313053911
 20
249.7542947124952
 30
0.0
 11
435.4153313053911
 21
219.7542947124953
 31
0.0
  0
ARC
  5
2130
330
18
100
AcDbEntity
  8
1
  6
Continuous
100
AcDbCircle
 10
427.9153313053911
 20
200.032248712495
 30
0.0
 40
5.0
100
AcDbArc
 50
275.9378099999979
 51
0.0000200000003914
  0
LINE
  5
2131
330
18
100
AcDbEntity
  8
1
  6
Continuous
100
AcDbLine
 10
435.4153313053911
 20
226.7542947124952
 30
0.0
 11
434.615331305391
 21
226.7542947124952
 31
0.0
  0
ARC
  5
2132
330
18
100
AcDbEntity
  8
1
  6
Continuous
100
AcDbCircle
 10
444.815321305391
 20
224.4542917124953
 30
0.0
 40
1.199999999999999
100
AcDbArc
 50
270.0
 51
359.9999900000006
  0
LINE
  5
2133
330
18
100
AcDbEntity
  8
2
  6
Continuous
100
AcDbLine
 10
446.9153313053911
 20
227.5042947124953
 30
0.0
 11
446.0153213053912
 21
227.5042947124953
 31
0.0
  0
LINE
  5
2134
330
18
100
AcDbEntity
  8
1
  6
Continuous
100
AcDbLine
 10
446.1653313053911
 20
226.7542947124952
 30
0.0
 11
446.0153213053912
 21
226.7542947124952
 31
0.0
  0
LINE
  5
2135
330
18
100
AcDbEntity
  8
1
  6
Continuous
100
AcDbLine
 10
446.1653413053912
 20
226.7542867124952
 30
0.0
 11
446.9153413053911
 21
227.5042867124951
 31
0.0
  0
ARC
  5
2136
330
18
100
AcDbEntity
  8
1
  6
Continuous
100
AcDbCircle
 10
440.6053213053908
 20
224.3930807124953
 30
0.0
 40
3.8100059
100
AcDbArc
 50
330.3156199999996
 51
29.68438000000021
  0
ARC
  5
2137
330
18
100
AcDbEntity
  8
1
  6
Continuous
100
AcDbCircle
 10
444.2024513053911
 20
224.3843457124953
 30
0.0
 40
4.787128
100
AcDbArc
 50
183.1939667714224
 51
206.4204200000001
  0
LINE
  5
2138
330
18
100
AcDbEntity
  8
1
  6
Continuous
100
AcDbLine
 10
444.815321305391
 20
223.2542947124953
 30
0.0
 11
444.4153313053911
 21
223.2542947124953
 31
0.0
  0
LINE
  5
2139
330
18
100
AcDbEntity
  8
1
  6
Continuous
100
AcDbLine
 10
439.4153313053911
 20
223.254294712495
 30
0.0
 11
439.9153313053911
 21
222.254294712495
 31
0.0
  0
LINE
  5
213A
330
18
100
AcDbEntity
  8
1
  6
Continuous
100
AcDbLine
 10
443.9153213053907
 20
222.4542997124951
 30
0.0
 11
444.4153213053907
 21
223.2542947124953
 31
0.0
  0
LINE
  5
213B
330
18
100
AcDbEntity
  8
1
  6
Continuous
100
AcDbLine
 10
443.9153313053911
 20
222.4542917124953
 30
0.0
 11
443.9153313053911
 21
222.5062857124953
 31
0.0
  0
LINE
  5
213C
330
18
100
AcDbEntity
  8
1
  6
Continuous
100
AcDbLine
 10
443.9153313053911
 20
226.2798757124953
 30
0.0
 11
443.9153313053911
 21
227.9807047124953
 31
0.0
  0
LINE
  5
213E
330
18
100
AcDbEntity
  8
1
  6
Continuous
100
AcDbLine
 10
443.9153313053911
 20
226.2798757124953
 30
0.0
 11
442.0058656427725
 21
226.3918315032258
 31
0.0
  0
LINE
  5
213F
330
18
100
AcDbEntity
  8
1
  6
Continuous
100
AcDbLine
 10
443.4146678238151
 20
227.9219959113186
 30
0.0
 11
443.9153313053911
 21
227.9807047124953
 31
0.0
  0
LINE
  5
2140
330
18
100
AcDbEntity
  8
1
  6
Continuous
100
AcDbLine
 10
439.9153313053911
 20
222.254294712495
 30
0.0
 11
443.9153313053911
 21
222.5062787124949
 31
0.0
  0
LINE
  5
2141
330
18
100
AcDbEntity
  8
1
  6
Continuous
100
AcDbLine
 10
443.9153313053911
 20
222.4542997124951
 30
0.0
 11
439.9153313053911
 21
222.2542947124952
 31
0.0
  0
LINE
  5
2143
330
18
100
AcDbEntity
  8
1
  6
Continuous
100
AcDbLine
 10
434.615331305391
 20
213.7542947124952
 30
0.0
 11
432.9153313053911
 21
213.7542947124952
 31
0.0
  0
ARC
  5
2144
330
18
100
AcDbEntity
  8
1
  6
Continuous
100
AcDbCircle
 10
415.4153313053911
 20
249.7542947124952
 30
0.0
 40
20.0
100
AcDbArc
 50
0.0000400000007758
 51
90.0
  0
LINE
  5
2145
330
18
100
AcDbEntity
  8
1
  6
Continuous
100
AcDbLine
 10
435.4153313053911
 20
236.7542947124952
 30
0.0
 11
434.615331305391
 21
236.7542947124952
 31
0.0
  0
ARC
  5
214B
330
18
100
AcDbEntity
  8
1
  6
Continuous
100
AcDbCircle
 10
444.815321305391
 20
239.0542937124953
 30
0.0
 40
1.199999999999999
100
AcDbArc
 50
359.9999900000006
 51
34.69859990799012
  0
LINE
  5
214E
330
18
100
AcDbEntity
  8
2
  6
Continuous
100
AcDbLine
 10
446.9153313053911
 20
236.0042947124953
 30
0.0
 11
446.0153213053912
 21
236.0042947124953
 31
0.0
  0
LINE
  5
214F
330
18
100
AcDbEntity
  8
1
  6
Continuous
100
AcDbLine
 10
446.1653313053911
 20
236.7542947124952
 30
0.0
 11
446.0153213053912
 21
236.7542947124952
 31
0.0
  0
LINE
  5
2150
330
18
100
AcDbEntity
  8
1
  6
Continuous
100
AcDbLine
 10
446.9153413053911
 20
236.0042867124952
 30
0.0
 11
446.1653313053911
 21
236.7542987124954
 31
0.0
  0
LINE
  5
2151
330
18
100
AcDbEntity
  8
1
  6
Continuous
100
AcDbLine
 10
446.0153213053912
 20
239.0542937124953
 30
0.0
 11
446.0153213053912
 21
231.7542947124953
 31
0.0
  0
LINE
  5
2158
330
18
100
AcDbEntity
  8
1
  6
Continuous
100
AcDbLine
 10
434.615331305391
 20
249.7542947124952
 30
0.0
 11
432.9153313053911
 21
249.7542947124952
 31
0.0
  0
LINE
  5
215D
330
18
100
AcDbEntity
  8
1
  6
Continuous
100
AcDbLine
 10
381.4153313053911
 20
229.4448196931841
 30
0.0
 11
381.4153313053911
 21
224.7542947124952
 31
0.0
  0
LINE
  5
215E
330
18
100
AcDbEntity
  8
1
  6
Continuous
100
AcDbLine
 10
382.4153313053912
 20
227.9228555631876
 30
0.0
 11
382.4153313053912
 21
222.7542947124952
 31
0.0
  0
ARC
  5
215F
330
18
100
AcDbEntity
  8
1
  6
Continuous
100
AcDbCircle
 10
391.9153313053911
 20
235.2542947124952
 30
0.0
 40
12.0
100
AcDbArc
 50
158.7874293974518
 51
239.9999999999999
  0
LINE
  5
2160
330
18
100
AcDbEntity
  8
1
  6
Continuous
100
AcDbLine
 10
386.4153313053911
 20
223.9959644632974
 30
0.0
 11
386.4153313053911
 21
219.7542947124953
 31
0.0
  0
LINE
  5
2161
330
18
100
AcDbEntity
  8
1
  6
Continuous
100
AcDbLine
 10
391.215334305391
 20
249.7542947124952
 30
0.0
 11
391.215334305391
 21
213.7542947124952
 31
0.0
  0
LINE
  5
2162
330
18
100
AcDbEntity
  8
1
  6
Continuous
100
AcDbLine
 10
392.9153313053912
 20
259.4367530780139
 30
0.0
 11
392.9153313053912
 21
200.032248712495
 31
0.0
  0
LINE
  5
2163
330
18
100
AcDbEntity
  8
1
  6
Continuous
100
AcDbLine
 10
390.4153313053911
 20
249.7542947124952
 30
0.0
 11
390.4153313053911
 21
219.7542947124953
 31
0.0
  0
ARC
  5
2164
330
18
100
AcDbEntity
  8
1
  6
Continuous
100
AcDbCircle
 10
397.9153313053911
 20
200.032248712495
 30
0.0
 40
5.0
100
AcDbArc
 50
180.0
 51
264.0622000000012
  0
LINE
  5
2165
330
18
100
AcDbEntity
  8
1
  6
Continuous
100
AcDbLine
 10
392.9153313053912
 20
213.7542947124952
 30
0.0
 11
391.215334305391
 21
213.7542947124952
 31
0.0
  0
LINE
  5
2166
330
18
100
AcDbEntity
  8
1
  6
Continuous
100
AcDbLine
 10
386.4153313053911
 20
222.7542947124952
 30
0.0
 11
382.4153313053912
 21
222.7542947124952
 31
0.0
  0
LINE
  5
2167
330
18
100
AcDbEntity
  8
1
  6
Continuous
100
AcDbLine
 10
391.215334305391
 20
226.7542947124952
 30
0.0
 11
390.4153313053911
 21
226.7542947124952
 31
0.0
  0
LINE
  5
2168
330
18
100
AcDbEntity
  8
1
  6
Continuous
100
AcDbLine
 10
390.4153313053911
 20
219.7542947124953
 30
0.0
 11
386.4153313053911
 21
219.7542947124953
 31
0.0
  0
LINE
  5
2169
330
18
100
AcDbEntity
  8
1
  6
Continuous
100
AcDbLine
 10
382.4153313053912
 20
222.754294712495
 30
0.0
 11
381.4153313053911
 21
224.7542947124952
 31
0.0
  0
ARC
  5
216A
330
18
100
AcDbEntity
  8
1
  6
Continuous
100
AcDbCircle
 10
410.4153313053911
 20
249.7542947124952
 30
0.0
 40
20.0
100
AcDbArc
 50
90.0
 51
180.0
  0
LINE
  5
216C
330
18
100
AcDbEntity
  8
1
  6
Continuous
100
AcDbLine
 10
391.215334305391
 20
236.7542947124952
 30
0.0
 11
390.4153313053911
 21
236.7542947124952
 31
0.0
  0
LINE
  5
216E
330
18
100
AcDbEntity
  8
1
  6
Continuous
100
AcDbLine
 10
392.9153313053912
 20
249.7542947124952
 30
0.0
 11
391.215334305391
 21
249.7542947124952
 31
0.0
  0
LINE
  5
2172
330
18
100
AcDbEntity
  8
1
  6
Continuous
100
AcDbLine
 10
441.859011305391
 20
283.6542947124953
 30
0.0
 11
383.9716513053911
 21
283.6542947124953
 31
0.0
  0
LINE
  5
2173
330
18
100
AcDbEntity
  8
1
  6
Continuous
100
AcDbLine
 10
443.0614613053911
 20
287.2542947124953
 30
0.0
 11
382.769198305391
 21
287.2542947124953
 31
0.0
  0
LINE
  5
2174
330
18
100
AcDbEntity
  8
1
  6
Continuous
100
AcDbLine
 10
443.5131513053911
 20
278.2542947124953
 30
0.0
 11
382.3175153053912
 21
278.2542947124953
 31
0.0
  0
LINE
  5
2175
330
18
100
AcDbEntity
  8
1
  6
Continuous
100
AcDbLine
 10
453.9153313053911
 20
291.0542947124953
 30
0.0
 11
371.9153313053912
 21
291.0542947124953
 31
0.0
  0
LINE
  5
2176
330
18
100
AcDbEntity
  8
1
  6
Continuous
100
AcDbLine
 10
453.9153313053911
 20
294.2542947124953
 30
0.0
 11
371.9153313053912
 21
294.2542947124953
 31
0.0
  0
LINE
  5
217A
330
18
100
AcDbEntity
  8
4
  6
CENTER
100
AcDbLine
 10
444.4153313053911
 20
296.8130420124953
 30
0.0
 11
444.4153313053911
 21
288.7035592124951
 31
0.0
  0
ARC
  5
217B
330
18
100
AcDbEntity
  8
1
  6
Continuous
100
AcDbCircle
 10
436.9153313053911
 20
280.2542947124953
 30
0.0
 40
6.0
100
AcDbArc
 50
0.0000400000007758
 51
34.51809000000135
  0
LINE
  5
217C
330
18
100
AcDbEntity
  8
1
  6
Continuous
100
AcDbLine
 10
442.9153413053911
 20
287.2542933124951
 30
0.0
 11
441.859021305391
 21
283.6542937124951
 31
0.0
  0
ARC
  5
217D
330
18
100
AcDbEntity
  8
1
  6
Continuous
100
AcDbCircle
 10
439.9153313053911
 20
274.782158712495
 30
0.0
 40
5.0
100
AcDbArc
 50
0.0000400000007758
 51
53.13008000000206
  0
ARC
  5
217E
330
18
100
AcDbEntity
  8
1
  6
Continuous
100
AcDbCircle
 10
443.9153313053911
 20
279.2542947124953
 30
0.0
 40
1.0
100
AcDbArc
 50
180.0
 51
228.1897799999978
  0
LINE
  5
217F
330
18
100
AcDbEntity
  8
1
  6
Continuous
100
AcDbLine
 10
442.9153313053911
 20
280.2542947124953
 30
0.0
 11
442.9153313053911
 21
279.2542947124953
 31
0.0
  0
LINE
  5
2180
330
18
100
AcDbEntity
  8
1
  6
Continuous
100
AcDbLine
 10
453.9153313053911
 20
294.2542947124953
 30
0.0
 11
453.9153313053911
 21
291.0542947124953
 31
0.0
  0
ARC
  5
2181
330
18
100
AcDbEntity
  8
1
  6
Continuous
100
AcDbCircle
 10
443.0614613053911
 20
292.2542947124953
 30
0.0
 40
5.0
100
AcDbArc
 50
269.999979999998
 51
346.1134799999999
  0
LINE
  5
2182
330
18
100
AcDbEntity
  8
4
  6
CENTER
100
AcDbLine
 10
381.4153313053911
 20
296.1483300124953
 30
0.0
 11
381.4153313053911
 21
288.9694436124953
 31
0.0
  0
ARC
  5
2183
330
18
100
AcDbEntity
  8
1
  6
Continuous
100
AcDbCircle
 10
388.9153313053911
 20
280.2542947124953
 30
0.0
 40
6.0
100
AcDbArc
 50
145.481879999999
 51
180.0
  0
LINE
  5
2184
330
18
100
AcDbEntity
  8
1
  6
Continuous
100
AcDbLine
 10
382.9153423053909
 20
287.2542990124953
 30
0.0
 11
383.971659305391
 21
283.6542987124953
 31
0.0
  0
ARC
  5
2185
330
18
100
AcDbEntity
  8
1
  6
Continuous
100
AcDbCircle
 10
385.9153313053911
 20
274.782158712495
 30
0.0
 40
5.0
100
AcDbArc
 50
131.8103039999998
 51
180.0
  0
ARC
  5
2186
330
18
100
AcDbEntity
  8
1
  6
Continuous
100
AcDbCircle
 10
381.9153313053911
 20
279.2542947124953
 30
0.0
 40
1.0
100
AcDbArc
 50
311.810410000002
 51
0.0000200000003914
  0
LINE
  5
2187
330
18
100
AcDbEntity
  8
1
  6
Continuous
100
AcDbLine
 10
382.9153313053911
 20
280.2542947124953
 30
0.0
 11
382.9153313053911
 21
279.2542947124953
 31
0.0
  0
ARC
  5
2188
330
18
100
AcDbEntity
  8
1
  6
Continuous
100
AcDbCircle
 10
382.769198305391
 20
292.2542947124953
 30
0.0
 40
5.0
100
AcDbArc
 50
193.8865400000002
 51
269.999979999998
  0
LINE
  5
2189
330
18
100
AcDbEntity
  8
1
  6
Continuous
100
AcDbLine
 10
371.9153313053912
 20
294.2542947124953
 30
0.0
 11
371.9153313053912
 21
291.0542947124953
 31
0.0
  0
ARC
  5
2221
330
18
100
AcDbEntity
  8
1
  6
Continuous
100
AcDbCircle
 10
633.1623942639489
 20
312.5466187124953
 30
0.0
 40
99.0
100
AcDbArc
 50
205.6101499999996
 51
248.2249499999995
  0
LINE
  5
2223
330
18
100
AcDbEntity
  8
1
  6
Continuous
100
AcDbLine
 10
588.813707263949
 20
227.2838277124952
 30
0.0
 11
598.1169452639488
 21
275.1448487124953
 31
0.0
  0
LINE
  5
2225
330
18
100
AcDbEntity
  8
4
  6
CENTER
100
AcDbLine
 10
643.5661492639487
 20
231.7542947124953
 30
0.0
 11
559.612764263949
 21
231.7542947124953
 31
0.0
  0
ARC
  5
2227
330
18
100
AcDbEntity
  8
1
  6
Continuous
100
AcDbCircle
 10
600.888567263949
 20
231.7542947124953
 30
0.0
 40
37.5
100
AcDbArc
 50
165.4953459999995
 51
85.10538099999962
  0
LINE
  5
222F
330
18
100
AcDbEntity
  8
1
  6
Continuous
100
AcDbLine
 10
608.0347022639489
 20
287.2542947124953
 30
0.0
 11
547.742434263949
 21
287.2542947124953
 31
0.0
  0
LINE
  5
2230
330
18
100
AcDbEntity
  8
1
  6
Continuous
100
AcDbLine
 10
606.8322512639489
 20
283.6542947124953
 30
0.0
 11
548.9448872639491
 21
283.6542947124953
 31
0.0
  0
LINE
  5
2232
330
18
100
AcDbEntity
  8
1
  6
Continuous
100
AcDbLine
 10
610.8885672639488
 20
278.2542947124953
 30
0.0
 11
547.1894702639489
 21
278.2542947124953
 31
0.0
  0
LINE
  5
2233
330
18
100
AcDbEntity
  8
1
  6
Continuous
100
AcDbLine
 10
618.8885672639487
 20
291.0542947124953
 30
0.0
 11
536.8885672639488
 21
291.0542947124953
 31
0.0
  0
LINE
  5
2234
330
18
100
AcDbEntity
  8
1
  6
Continuous
100
AcDbLine
 10
618.8885672639487
 20
294.2542947124953
 30
0.0
 11
536.8885672639488
 21
294.2542947124953
 31
0.0
  0
LINE
  5
2235
330
18
100
AcDbEntity
  8
1
  6
Continuous
100
AcDbLine
 10
605.2188612639493
 20
269.7542947124953
 30
0.0
 11
606.8710922639491
 21
278.2542947124953
 31
0.0
  0
LINE
  5
2236
330
18
100
AcDbEntity
  8
1
  6
Continuous
100
AcDbLine
 10
615.8885677639491
 20
273.2542947124953
 30
0.0
 11
615.2082369639489
 21
269.7542927124953
 31
0.0
  0
LINE
  5
2238
330
18
100
AcDbEntity
  8
4
  6
CENTER
100
AcDbLine
 10
600.888567263949
 20
272.7923447124953
 30
0.0
 11
600.888567263949
 21
192.330404712495
 31
0.0
  0
ARC
  5
2239
330
18
100
AcDbEntity
  8
1
  6
Continuous
100
AcDbCircle
 10
600.888567263949
 20
231.7542947124953
 30
0.0
 40
12.0
100
AcDbArc
 50
248.2249700000003
 51
51.85546999999911
  0
ARC
  5
223A
330
18
100
AcDbEntity
  8
1
  6
Continuous
100
AcDbCircle
 10
621.888567263949
 20
258.4937817124953
 30
0.0
 40
22.0
100
AcDbArc
 50
160.8051299999995
 51
231.8554899999991
  0
LINE
  5
223B
330
18
100
AcDbEntity
  8
1
  6
Continuous
100
AcDbLine
 10
615.2082369639489
 20
269.7542947124953
 30
0.0
 11
606.7780742639492
 21
269.7542947124953
 31
0.0
  0
ARC
  5
223C
330
18
100
AcDbEntity
  8
1
  6
Continuous
100
AcDbCircle
 10
606.7780742639492
 20
263.7542947124953
 30
0.0
 40
6.0
100
AcDbArc
 50
90.00001799999918
 51
160.8051310000003
  0
LINE
  5
223E
330
18
100
AcDbEntity
  8
4
  6
CENTER
100
AcDbLine
 10
609.388567263949
 20
296.8130420124953
 30
0.0
 11
609.388567263949
 21
288.7035592124951
 31
0.0
  0
ARC
  5
223F
330
18
100
AcDbEntity
  8
1
  6
Continuous
100
AcDbCircle
 10
601.8885672639489
 20
280.2542947124953
 30
0.0
 40
6.0
100
AcDbArc
 50
0.0000400000007758
 51
34.51809000000135
  0
LINE
  5
2240
330
18
100
AcDbEntity
  8
1
  6
Continuous
100
AcDbLine
 10
607.8885652639487
 20
287.2542952124953
 30
0.0
 11
606.8322492639492
 21
283.6542957124953
 31
0.0
  0
ARC
  5
2241
330
18
100
AcDbEntity
  8
1
  6
Continuous
100
AcDbCircle
 10
610.8885672639488
 20
273.2542947124953
 30
0.0
 40
5.0
100
AcDbArc
 50
0.0000400000007758
 51
90.00001799999918
  0
ARC
  5
2242
330
18
100
AcDbEntity
  8
1
  6
Continuous
100
AcDbCircle
 10
608.888567263949
 20
279.2542947124953
 30
0.0
 40
1.0
100
AcDbArc
 50
180.0
 51
269.999979999998
  0
LINE
  5
2243
330
18
100
AcDbEntity
  8
1
  6
Continuous
100
AcDbLine
 10
607.8885672639487
 20
280.2542947124953
 30
0.0
 11
607.8885672639487
 21
279.2542947124953
 31
0.0
  0
ARC
  5
2244
330
18
100
AcDbEntity
  8
1
  6
Continuous
100
AcDbCircle
 10
608.0347022639489
 20
292.2542947124953
 30
0.0
 40
5.0
100
AcDbArc
 50
269.999979999998
 51
346.1134799999999
  0
LINE
  5
2245
330
18
100
AcDbEntity
  8
1
  6
Continuous
100
AcDbLine
 10
618.8885672639487
 20
294.2542947124953
 30
0.0
 11
618.8885672639487
 21
291.0542947124953
 31
0.0
  0
LINE
  5
2246
330
18
100
AcDbEntity
  8
1
  6
Continuous
100
AcDbLine
 10
543.8885592639492
 20
269.7542947124949
 30
0.0
 11
545.2262062639491
 21
276.6359117124951
 31
0.0
  0
LINE
  5
2247
330
18
100
AcDbEntity
  8
4
  6
CENTER
100
AcDbLine
 10
577.8885672639487
 20
298.8194802124953
 30
0.0
 11
577.8885672639487
 21
256.7634347124953
 31
0.0
  0
LINE
  5
2249
330
18
100
AcDbEntity
  8
4
  6
CENTER
100
AcDbLine
 10
546.388567263949
 20
296.1483300124953
 30
0.0
 11
546.388567263949
 21
288.9694436124953
 31
0.0
  0
ARC
  5
224A
330
18
100
AcDbEntity
  8
1
  6
Continuous
100
AcDbCircle
 10
553.8885672639488
 20
280.2542947124953
 30
0.0
 40
6.0
100
AcDbArc
 50
145.481879999999
 51
180.0
  0
LINE
  5
224B
330
18
100
AcDbEntity
  8
1
  6
Continuous
100
AcDbLine
 10
547.8885822639489
 20
287.2542971124953
 30
0.0
 11
548.9449022639489
 21
283.6542967124951
 31
0.0
  0
ARC
  5
224C
330
18
100
AcDbEntity
  8
1
  6
Continuous
100
AcDbCircle
 10
547.1894702639489
 20
276.2542947124953
 30
0.0
 40
2.0
100
AcDbArc
 50
90.00001799999918
 51
169.0000519999991
  0
ARC
  5
224D
330
18
100
AcDbEntity
  8
1
  6
Continuous
100
AcDbCircle
 10
546.888567263949
 20
279.2542947124953
 30
0.0
 40
1.0
100
AcDbArc
 50
269.9999700000033
 51
0.0000200000003914
  0
LINE
  5
224E
330
18
100
AcDbEntity
  8
1
  6
Continuous
100
AcDbLine
 10
547.8885672639489
 20
280.2542947124953
 30
0.0
 11
547.8885672639489
 21
279.2542947124953
 31
0.0
  0
ARC
  5
224F
330
18
100
AcDbEntity
  8
1
  6
Continuous
100
AcDbCircle
 10
547.742434263949
 20
292.2542947124953
 30
0.0
 40
5.0
100
AcDbArc
 50
193.8865400000002
 51
269.999979999998
  0
LINE
  5
2250
330
18
100
AcDbEntity
  8
1
  6
Continuous
100
AcDbLine
 10
536.8885672639488
 20
294.2542947124953
 30
0.0
 11
536.8885672639488
 21
291.0542947124953
 31
0.0
  0
LINE
  5
22E6
330
18
100
AcDbEntity
  8
1
  6
Continuous
100
AcDbLine
 10
216.4420953468334
 20
43.47485812916811
 30
0.0
 11
279.4420953468334
 21
43.47485812916811
 31
0.0
  0
LINE
  5
22E7
330
18
100
AcDbEntity
  8
1
  6
Continuous
100
AcDbLine
 10
216.4420953468334
 20
125.474858129168
 30
0.0
 11
279.4420953468334
 21
125.474858129168
 31
0.0
  0
LINE
  5
22EC
330
18
100
AcDbEntity
  8
4
  6
CENTER
100
AcDbLine
 10
181.9749637169026
 20
84.47485812916813
 30
0.0
 11
292.9420953468333
 21
84.47485812916813
 31
0.0
  0
ARC
  5
22EF
330
18
100
AcDbEntity
  8
1
  6
Continuous
100
AcDbCircle
 10
216.4420953468334
 20
52.97485812916812
 30
0.0
 40
9.5
100
AcDbArc
 50
180.0000400000006
 51
270.0000179999992
  0
LINE
  5
22F1
330
18
100
AcDbEntity
  8
1
  6
Continuous
100
AcDbLine
 10
206.9420953468334
 20
52.97485812916812
 30
0.0
 11
206.9420953468334
 21
64.47485812916835
 31
0.0
  0
ARC
  5
22F3
330
18
100
AcDbEntity
  8
1
  6
Continuous
100
AcDbCircle
 10
337.4420953468333
 20
84.47485812916792
 30
0.0
 40
150.0
100
AcDbArc
 50
174.0622299999999
 51
185.9377899999995
  0
LINE
  5
22F4
330
18
100
AcDbEntity
  8
4
  6
CENTER
100
AcDbLine
 10
224.9420953468334
 20
49.24388812916806
 30
0.0
 11
224.9420953468334
 21
119.7058281291681
 31
0.0
  0
ARC
  5
22F5
330
18
100
AcDbEntity
  8
1
  6
Continuous
100
AcDbCircle
 10
216.4420953468334
 20
115.9748581291681
 30
0.0
 40
9.5
100
AcDbArc
 50
89.99997000000352
 51
180.0000200000003
  0
ARC
  5
22F6
330
18
100
AcDbEntity
  8
1
  6
Continuous
100
AcDbCircle
 10
216.4420953468334
 20
115.9748581291681
 30
0.0
 40
4.400000099999997
100
AcDbArc
 50
0.0
 51
263.4750213047955
  0
LINE
  5
22F7
330
18
100
AcDbEntity
  8
4
  6
CENTER
100
AcDbLine
 10
216.4420953468334
 20
109.974858129168
 30
0.0
 11
216.4420953468334
 21
121.9748581291681
 31
0.0
  0
LINE
  5
22F8
330
18
100
AcDbEntity
  8
4
  6
CENTER
100
AcDbLine
 10
210.4420953468334
 20
115.9748581291681
 30
0.0
 11
222.4420953468334
 21
115.9748581291681
 31
0.0
  0
LINE
  5
22F9
330
18
100
AcDbEntity
  8
1
  6
Continuous
100
AcDbLine
 10
193.2200493468332
 20
104.4748581291681
 30
0.0
 11
256.6641823592604
 21
104.4748581289999
 31
0.0
  0
ARC
  5
22FA
330
18
100
AcDbEntity
  8
1
  6
Continuous
100
AcDbCircle
 10
193.2200493468332
 20
99.47485812916813
 30
0.0
 40
5.0
100
AcDbArc
 50
90.00000000000005
 51
174.0621999999997
  0
ARC
  5
22FB
330
18
100
AcDbEntity
  8
1
  6
Continuous
100
AcDbCircle
 10
193.2200493468332
 20
69.47485812916813
 30
0.0
 40
5.0
100
AcDbArc
 50
185.9378099999998
 51
270.0000200000018
  0
LINE
  5
22FC
330
18
100
AcDbEntity
  8
1
  6
Continuous
100
AcDbLine
 10
193.2200510921625
 20
64.47485812916835
 30
0.0
 11
256.6641396015039
 21
64.47485812916841
 31
0.0
  0
ARC
  5
22FD
330
18
100
AcDbEntity
  8
1
  6
Continuous
100
AcDbCircle
 10
216.4420953468334
 20
52.97485812916812
 30
0.0
 40
4.400000099999997
100
AcDbArc
 50
90.0
 51
331.3339365670248
  0
LINE
  5
22FE
330
18
100
AcDbEntity
  8
4
  6
CENTER
100
AcDbLine
 10
216.4420953468334
 20
46.97485812916812
 30
0.0
 11
216.4420953468334
 21
58.97485812916812
 31
0.0
  0
LINE
  5
22FF
330
18
100
AcDbEntity
  8
4
  6
CENTER
100
AcDbLine
 10
210.4420953468334
 20
52.97485812916812
 30
0.0
 11
222.4420953468334
 21
52.97485812916812
 31
0.0
  0
LINE
  5
2301
330
18
100
AcDbEntity
  8
4
  6
CENTER
100
AcDbLine
 10
247.9420953468334
 20
39.47485812916811
 30
0.0
 11
247.9420953468334
 21
129.4748581291681
 31
0.0
  0
ARC
  5
2303
330
18
100
AcDbEntity
  8
1
  6
Continuous
100
AcDbCircle
 10
279.4420953468334
 20
52.97485812916812
 30
0.0
 40
9.5
100
AcDbArc
 50
270.0000179999992
 51
0.0
  0
LINE
  5
2306
330
18
100
AcDbEntity
  8
1
  6
Continuous
100
AcDbLine
 10
288.9420953468333
 20
52.97485812916812
 30
0.0
 11
288.9420953468333
 21
115.9748581291681
 31
0.0
  0
ARC
  5
2309
330
18
100
AcDbEntity
  8
1
  6
Continuous
100
AcDbCircle
 10
279.4420953468334
 20
115.9748581291681
 30
0.0
 40
9.5
100
AcDbArc
 50
0.0
 51
89.999979999998
  0
CIRCLE
  5
230A
330
18
100
AcDbEntity
  8
1
  6
Continuous
100
AcDbCircle
 10
279.4420953468334
 20
115.9748581291681
 30
0.0
 40
4.400000099999997
  0
LINE
  5
230B
330
18
100
AcDbEntity
  8
4
  6
CENTER
100
AcDbLine
 10
279.4420953468334
 20
109.974858129168
 30
0.0
 11
279.4420953468334
 21
121.9748581291681
 31
0.0
  0
LINE
  5
230C
330
18
100
AcDbEntity
  8
4
  6
CENTER
100
AcDbLine
 10
273.4420953468334
 20
115.9748581291681
 30
0.0
 11
285.4420953468333
 21
115.9748581291681
 31
0.0
  0
CIRCLE
  5
230D
330
18
100
AcDbEntity
  8
1
  6
Continuous
100
AcDbCircle
 10
279.4420953468334
 20
52.97485812916812
 30
0.0
 40
4.400000099999997
  0
LINE
  5
230E
330
18
100
AcDbEntity
  8
4
  6
CENTER
100
AcDbLine
 10
279.4420953468334
 20
46.97485812916812
 30
0.0
 11
279.4420953468334
 21
58.97485812916812
 31
0.0
  0
LINE
  5
230F
330
18
100
AcDbEntity
  8
4
  6
CENTER
100
AcDbLine
 10
273.4420953468334
 20
52.97485812916812
 30
0.0
 11
285.4420953468333
 21
52.97485812916812
 31
0.0
  0
ARC
  5
23DA
330
18
100
AcDbEntity
  8
1
  6
Continuous
100
AcDbCircle
 10
256.6641413468335
 20
99.47485812916813
 30
0.0
 40
5.0
100
AcDbArc
 50
5.937800000000251
 51
89.99999999999998
  0
ARC
  5
23DB
330
18
100
AcDbEntity
  8
1
  6
Continuous
100
AcDbCircle
 10
112.4420953468334
 20
84.47485812916792
 30
0.0
 40
150.0
100
AcDbArc
 50
354.0622100000001
 51
5.93777000000013
  0
ARC
  5
23DC
330
18
100
AcDbEntity
  8
1
  6
Continuous
100
AcDbCircle
 10
256.6641413468335
 20
69.47485812916813
 30
0.0
 40
5.0
100
AcDbArc
 50
269.999979999998
 51
354.06219
  0
LINE
  5
23DD
330
18
100
AcDbEntity
  8
1
  6
Continuous
100
AcDbLine
 10
206.9420953468334
 20
104.4748581291317
 30
0.0
 11
206.9420953468334
 21
115.9748581291681
 31
0.0
  0
LINE
  5
23EB
330
18
100
AcDbEntity
  8
1
  6
Continuous
100
AcDbLine
 10
219.9420953468333
 20
51.22485812916813
 30
0.0
 11
229.9420953468334
 21
51.22485812916813
 31
0.0
  0
LINE
  5
23EC
330
18
100
AcDbEntity
  8
1
  6
Continuous
100
AcDbLine
 10
220.6920953468334
 20
50.47485812916812
 30
0.0
 11
229.1920953468334
 21
50.47485812916812
 31
0.0
  0
LINE
  5
23ED
330
18
100
AcDbEntity
  8
1
  6
Continuous
100
AcDbLine
 10
206.9420953468334
 20
62.77485812916831
 30
0.0
 11
242.9420953468333
 21
62.77485812916831
 31
0.0
  0
LINE
  5
23EF
330
18
100
AcDbEntity
  8
1
  6
Continuous
100
AcDbLine
 10
212.9420953468334
 20
57.97485812916812
 30
0.0
 11
234.5198916311935
 21
57.97485812916812
 31
0.0
  0
LINE
  5
23F0
330
18
100
AcDbEntity
  8
1
  6
Continuous
100
AcDbLine
 10
212.9420953468334
 20
61.97485812916813
 30
0.0
 11
234.5198916311935
 21
61.97485812916813
 31
0.0
  0
LINE
  5
23F2
330
18
100
AcDbEntity
  8
1
  6
Continuous
100
AcDbLine
 10
229.9420953468334
 20
61.97485812916813
 30
0.0
 11
229.9420953468334
 21
62.77485812916831
 31
0.0
  0
LINE
  5
23F3
330
18
100
AcDbEntity
  8
2
  6
Continuous
100
AcDbLine
 10
229.1920953468334
 20
50.47485812916812
 30
0.0
 11
229.1920953468334
 21
51.37486812916819
 31
0.0
  0
LINE
  5
23F5
330
18
100
AcDbEntity
  8
1
  6
Continuous
100
AcDbLine
 10
229.9420953468334
 20
51.22485812916813
 30
0.0
 11
229.9420953468334
 21
51.37486812916819
 31
0.0
  0
LINE
  5
23F6
330
18
100
AcDbEntity
  8
1
  6
Continuous
100
AcDbLine
 10
229.9421033468334
 20
51.22484812916815
 30
0.0
 11
229.1921033468334
 21
50.47484812916815
 31
0.0
  0
LINE
  5
2404
330
18
100
AcDbEntity
  8
1
  6
Continuous
100
AcDbLine
 10
242.9420953468333
 20
62.77485812916831
 30
0.0
 11
242.9420953468333
 21
64.47485812916813
 31
0.0
  0
LINE
  5
2406
330
18
100
AcDbEntity
  8
1
  6
Continuous
100
AcDbLine
 10
219.9420953468333
 20
61.97485812916813
 30
0.0
 11
219.9420953468333
 21
62.77485812916831
 31
0.0
  0
LINE
  5
240C
330
18
100
AcDbEntity
  8
2
  6
Continuous
100
AcDbLine
 10
220.6920953468334
 20
50.47485812916812
 30
0.0
 11
220.6920953468334
 21
51.37486812916819
 31
0.0
  0
LINE
  5
2410
330
18
100
AcDbEntity
  8
1
  6
Continuous
100
AcDbLine
 10
219.9420953468333
 20
51.22485812916813
 30
0.0
 11
219.9420953468333
 21
51.37486812916819
 31
0.0
  0
LINE
  5
2411
330
18
100
AcDbEntity
  8
1
  6
Continuous
100
AcDbLine
 10
220.6921033468334
 20
50.47484812916815
 30
0.0
 11
219.9420913468332
 21
51.22485812916813
 31
0.0
  0
LINE
  5
241E
330
18
100
AcDbEntity
  8
1
  6
Continuous
100
AcDbLine
 10
217.9420953468333
 20
115.9748581291681
 30
0.0
 11
231.9420953468334
 21
115.9748581291681
 31
0.0
  0
LINE
  5
241F
330
18
100
AcDbEntity
  8
1
  6
Continuous
100
AcDbLine
 10
215.9420953468333
 20
114.9748581291681
 30
0.0
 11
233.9420953468334
 21
114.9748581291681
 31
0.0
  0
LINE
  5
2421
330
18
100
AcDbEntity
  8
1
  6
Continuous
100
AcDbLine
 10
212.9420953468334
 20
110.974858129168
 30
0.0
 11
234.5198916311935
 21
110.974858129168
 31
0.0
  0
LINE
  5
2422
330
18
100
AcDbEntity
  8
1
  6
Continuous
100
AcDbLine
 10
206.9420953468334
 20
106.1748551291681
 30
0.0
 11
242.9420953468333
 21
106.1748551291681
 31
0.0
  0
LINE
  5
2424
330
18
100
AcDbEntity
  8
1
  6
Continuous
100
AcDbLine
 10
212.9420953468334
 20
106.974858129168
 30
0.0
 11
234.5198916311935
 21
106.974858129168
 31
0.0
  0
LINE
  5
2426
330
18
100
AcDbEntity
  8
1
  6
Continuous
100
AcDbLine
 10
242.9420953468333
 20
104.4748581291681
 30
0.0
 11
242.9420953468333
 21
106.1748551291681
 31
0.0
  0
LINE
  5
2427
330
18
100
AcDbEntity
  8
1
  6
Continuous
100
AcDbLine
 10
233.9420953468334
 20
110.974858129168
 30
0.0
 11
233.9420953468334
 21
114.9748581291681
 31
0.0
  0
LINE
  5
2428
330
18
100
AcDbEntity
  8
1
  6
Continuous
100
AcDbLine
 10
229.9420953468334
 20
106.1748551291681
 30
0.0
 11
229.9420953468334
 21
106.974858129168
 31
0.0
  0
LINE
  5
242A
330
18
100
AcDbEntity
  8
1
  6
Continuous
100
AcDbLine
 10
233.9420953468337
 20
114.9748581291681
 30
0.0
 11
231.9420953468334
 21
115.9748581291681
 31
0.0
  0
LINE
  5
242C
330
18
100
AcDbEntity
  8
1
  6
Continuous
100
AcDbLine
 10
215.9420953468333
 20
110.974858129168
 30
0.0
 11
215.9420953468333
 21
114.9748581291681
 31
0.0
  0
LINE
  5
242D
330
18
100
AcDbEntity
  8
1
  6
Continuous
100
AcDbLine
 10
219.9420953468333
 20
106.1748551291681
 30
0.0
 11
219.9420953468333
 21
106.974858129168
 31
0.0
  0
LINE
  5
242E
330
18
100
AcDbEntity
  8
1
  6
Continuous
100
AcDbLine
 10
217.9420953468333
 20
115.974862129168
 30
0.0
 11
215.9420913468334
 21
114.974862129168
 31
0.0
  0
LINE
  5
2448
330
18
100
AcDbEntity
  8
1
  6
Continuous
100
AcDbLine
 10
212.9420953468334
 20
110.974858129168
 30
0.0
 11
212.9420953468334
 21
106.974858129168
 31
0.0
  0
LINE
  5
2449
330
18
100
AcDbEntity
  8
1
  6
Continuous
100
AcDbLine
 10
212.9420953468334
 20
61.97485812916813
 30
0.0
 11
212.9420953468334
 21
57.97485812916812
 31
0.0
  0
ARC
  5
244B
330
18
100
AcDbEntity
  8
1
  6
Continuous
100
AcDbCircle
 10
220.6920953468334
 20
44.22485512916836
 30
0.0
 40
13.75000299999999
100
AcDbArc
 50
74.50126999999766
 51
105.4987300000022
  0
LINE
  5
244C
330
18
100
AcDbEntity
  8
1
  6
Continuous
100
AcDbLine
 10
216.4420953468334
 20
52.97485812916824
 30
0.0
 11
224.9420953468334
 21
52.97485812916824
 31
0.0
  0
ARC
  5
244D
330
18
100
AcDbEntity
  8
1
  6
Continuous
100
AcDbCircle
 10
220.6920953468334
 20
63.9048581291683
 30
0.0
 40
10.93000299999999
100
AcDbArc
 50
252.6026900000014
 51
287.3973089999978
  0
LINE
  5
244E
330
18
100
AcDbEntity
  8
1
  6
Continuous
100
AcDbLine
 10
216.4420953468334
 20
52.57486412916836
 30
0.0
 11
216.4420953468334
 21
57.97485812916824
 31
0.0
  0
LINE
  5
244F
330
18
100
AcDbEntity
  8
1
  6
Continuous
100
AcDbLine
 10
217.0178603468334
 20
57.47485812916824
 30
0.0
 11
217.4240683468333
 21
53.47485812916824
 31
0.0
  0
LINE
  5
2450
330
18
100
AcDbEntity
  8
1
  6
Continuous
100
AcDbLine
 10
216.4420953468334
 20
53.47485812916824
 30
0.0
 11
217.4240683468333
 21
53.47485812916824
 31
0.0
  0
LINE
  5
2451
330
18
100
AcDbEntity
  8
1
  6
Continuous
100
AcDbLine
 10
216.4420953468334
 20
57.47485812916824
 30
0.0
 11
217.0178613468333
 21
57.47485812916824
 31
0.0
  0
LINE
  5
2452
330
18
100
AcDbEntity
  8
1
  6
Continuous
100
AcDbLine
 10
232.866329346833
 20
57.47485812916824
 30
0.0
 11
232.460123346833
 21
53.47485812916824
 31
0.0
  0
LINE
  5
2453
330
18
100
AcDbEntity
  8
1
  6
Continuous
100
AcDbLine
 10
233.4420953468334
 20
52.57486412916836
 30
0.0
 11
233.4420953468334
 21
57.97485812916824
 31
0.0
  0
LINE
  5
2454
330
18
100
AcDbEntity
  8
1
  6
Continuous
100
AcDbLine
 10
223.9601233468329
 20
53.47485812916847
 30
0.0
 11
224.3663293468329
 21
57.47485812916856
 31
0.0
  0
LINE
  5
2455
330
18
100
AcDbEntity
  8
1
  6
Continuous
100
AcDbLine
 10
225.924067346833
 20
53.47485812916847
 30
0.0
 11
225.517861346833
 21
57.47485812916856
 31
0.0
  0
LINE
  5
2456
330
18
100
AcDbEntity
  8
1
  6
Continuous
100
AcDbLine
 10
233.4420953468334
 20
53.47485812916824
 30
0.0
 11
232.4601213468333
 21
53.47485812916824
 31
0.0
  0
LINE
  5
2457
330
18
100
AcDbEntity
  8
1
  6
Continuous
100
AcDbLine
 10
223.9601233468333
 20
53.47485812916824
 30
0.0
 11
224.9420953468334
 21
53.47485812916824
 31
0.0
  0
LINE
  5
2458
330
18
100
AcDbEntity
  8
1
  6
Continuous
100
AcDbLine
 10
225.9240673468334
 20
53.47485812916824
 30
0.0
 11
224.9420953468334
 21
53.47485812916824
 31
0.0
  0
ARC
  5
2459
330
18
100
AcDbEntity
  8
1
  6
Continuous
100
AcDbCircle
 10
229.1920953468334
 20
63.9048581291683
 30
0.0
 40
10.93000299999999
100
AcDbArc
 50
252.6026900000014
 51
287.3973089999978
  0
LINE
  5
245A
330
18
100
AcDbEntity
  8
1
  6
Continuous
100
AcDbLine
 10
233.4420953468334
 20
52.97485812916824
 30
0.0
 11
224.9420953468334
 21
52.97485812916824
 31
0.0
  0
LINE
  5
245B
330
18
100
AcDbEntity
  8
1
  6
Continuous
100
AcDbLine
 10
233.4420953468334
 20
57.47485812916824
 30
0.0
 11
232.8663313468331
 21
57.47485812916824
 31
0.0
  0
LINE
  5
245C
330
18
100
AcDbEntity
  8
1
  6
Continuous
100
AcDbLine
 10
225.5178593468333
 20
57.47485812916824
 30
0.0
 11
224.9420953468334
 21
57.47485812916824
 31
0.0
  0
LINE
  5
245D
330
18
100
AcDbEntity
  8
1
  6
Continuous
100
AcDbLine
 10
224.3663313468331
 20
57.47485812916824
 30
0.0
 11
224.9420953468334
 21
57.47485812916824
 31
0.0
  0
ARC
  5
245E
330
18
100
AcDbEntity
  8
1
  6
Continuous
100
AcDbCircle
 10
229.1920953468334
 20
44.22485512916836
 30
0.0
 40
13.75000299999999
100
AcDbArc
 50
74.50126999999766
 51
105.4987300000022
  0
ARC
  5
245F
330
18
100
AcDbEntity
  8
1
  6
Continuous
100
AcDbCircle
 10
232.2420943468332
 20
52.57486412916836
 30
0.0
 40
1.199999999999999
100
AcDbArc
 50
269.9999970000023
 51
359.9999974955214
  0
LINE
  5
2460
330
18
100
AcDbEntity
  8
1
  6
Continuous
100
AcDbLine
 10
232.2420943468332
 20
51.37486712916842
 30
0.0
 11
224.9420953468334
 21
51.37486712916842
 31
0.0
  0
LINE
  5
2461
330
18
100
AcDbEntity
  8
1
  6
Continuous
100
AcDbLine
 10
217.6420953468332
 20
51.37486712916842
 30
0.0
 11
224.9420953468334
 21
51.37486712916842
 31
0.0
  0
ARC
  5
2462
330
18
100
AcDbEntity
  8
1
  6
Continuous
100
AcDbCircle
 10
217.6420953468332
 20
52.57486412916836
 30
0.0
 40
1.199999999999999
100
AcDbArc
 50
179.9999899999988
 51
269.9999910000004
  0
ARC
  5
2466
330
18
100
AcDbEntity
  8
1
  6
Continuous
100
AcDbCircle
 10
248.9421091656801
 20
84.47485812916813
 30
0.0
 40
33.0
100
AcDbArc
 50
270.0000008155472
 51
90.0
  0
ARC
  5
2469
330
18
100
AcDbEntity
  8
1
  6
Continuous
100
AcDbCircle
 10
248.942109404099
 20
101.2248300146216
 30
0.0
 40
16.25002811454647
100
AcDbArc
 50
90.00000084063799
 51
138.5215614556004
  0
ARC
  5
246A
330
18
100
AcDbEntity
  8
1
  6
Continuous
100
AcDbCircle
 10
234.5198916311935
 20
113.974858129168
 30
0.0
 40
3.0
100
AcDbArc
 50
270.0
 51
318.5215614556003
  0
ARC
  5
246B
330
18
100
AcDbEntity
  8
1
  6
Continuous
100
AcDbCircle
 10
234.5198916311935
 20
113.974858129168
 30
0.0
 40
7.0
100
AcDbArc
 50
270.0
 51
318.5215614556003
  0
ARC
  5
246C
330
18
100
AcDbEntity
  8
1
  6
Continuous
100
AcDbCircle
 10
248.942109404099
 20
101.2248300146216
 30
0.0
 40
12.25002811454647
100
AcDbArc
 50
90.00000084063799
 51
138.5215614556004
  0
ARC
  5
246D
330
18
100
AcDbEntity
  8
1
  6
Continuous
100
AcDbCircle
 10
248.9421091656801
 20
84.47485812916813
 30
0.0
 40
29.00000000000001
100
AcDbArc
 50
270.0000008155472
 51
90.0
  0
ARC
  5
246E
330
18
100
AcDbEntity
  8
1
  6
Continuous
100
AcDbCircle
 10
248.942109404099
 20
67.72488624371459
 30
0.0
 40
16.25002811454647
100
AcDbArc
 50
221.4784385443995
 51
269.999999159362
  0
ARC
  5
246F
330
18
100
AcDbEntity
  8
1
  6
Continuous
100
AcDbCircle
 10
234.5198916311935
 20
54.97485812916813
 30
0.0
 40
3.0
100
AcDbArc
 50
41.47843854439968
 51
90.00000000000005
  0
ARC
  5
2470
330
18
100
AcDbEntity
  8
1
  6
Continuous
100
AcDbCircle
 10
248.942109404099
 20
67.72488624371459
 30
0.0
 40
12.25002811454647
100
AcDbArc
 50
221.4784385443995
 51
269.999999159362
  0
ARC
  5
2471
330
18
100
AcDbEntity
  8
1
  6
Continuous
100
AcDbCircle
 10
234.5198916311935
 20
54.97485812916813
 30
0.0
 40
7.0
100
AcDbArc
 50
41.47843854439968
 51
90.00000000000005
  0
ARC
  5
27F4
330
18
100
AcDbEntity
  8
1
  6
Continuous
100
AcDbCircle
 10
224.9420953468334
 20
231.7542947124953
 30
0.0
 40
16.5
100
AcDbArc
 50
95.45159991078227
 51
338.7277396864333
  0
ARC
  5
27F5
330
18
100
AcDbEntity
  8
1
  6
Continuous
100
AcDbCircle
 10
242.389681346833
 20
224.2322190124953
 30
0.0
 40
1.5
100
AcDbArc
 50
75.00000599999793
 51
156.6779699999998
  0
ARC
  5
27F6
330
18
100
AcDbEntity
  8
1
  6
Continuous
100
AcDbCircle
 10
224.9420953468334
 20
231.7542947124953
 30
0.0
 40
27.0
100
AcDbArc
 50
291.1909899999999
 51
308.8089999999985
  0
ARC
  5
27F7
330
18
100
AcDbEntity
  8
1
  6
Continuous
100
AcDbCircle
 10
224.9420953468334
 20
231.7542947124953
 30
0.0
 40
30.0
100
AcDbArc
 50
88.55125350772651
 51
6.991246022154585
  0
LINE
  5
27F8
330
18
100
AcDbEntity
  8
1
  6
Continuous
100
AcDbLine
 10
239.1195393468333
 20
219.3446196124952
 30
0.0
 11
243.7520473468331
 21
214.7121137124953
 31
0.0
  0
LINE
  5
27F9
330
18
100
AcDbEntity
  8
1
  6
Continuous
100
AcDbLine
 10
237.3517713468334
 20
217.5768531124953
 30
0.0
 11
241.9842783468334
 21
212.9443467124953
 31
0.0
  0
ARC
  5
2884
330
18
100
AcDbEntity
  8
1
  6
Continuous
100
AcDbCircle
 10
221.0369973468332
 20
206.5550877124953
 30
0.0
 40
1.5
100
AcDbArc
 50
164.9999900000002
 51
261.1910000000019
  0
ARC
  5
2885
330
18
100
AcDbEntity
  8
1
  6
Continuous
100
AcDbCircle
 10
224.9420953468334
 20
231.7542947124953
 30
0.0
 40
27.0
100
AcDbArc
 50
261.1909900000023
 51
278.8089999999978
  0
ARC
  5
2886
330
18
100
AcDbEntity
  8
1
  6
Continuous
100
AcDbCircle
 10
228.8471933468333
 20
206.5550877124953
 30
0.0
 40
1.5
100
AcDbArc
 50
278.8089999999978
 51
14.99999899999975
  0
ARC
  5
2889
330
18
100
AcDbEntity
  8
1
  6
Continuous
100
AcDbCircle
 10
208.9605733468333
 20
251.624899712495
 30
0.0
 40
1.5
100
AcDbArc
 50
128.8090100000008
 51
225.0
  0
LINE
  5
288A
330
18
100
AcDbEntity
  8
1
  6
Continuous
100
AcDbLine
 10
221.2837203468335
 20
250.2371607124953
 30
0.0
 11
219.5881063468331
 21
256.5652747124953
 31
0.0
  0
LINE
  5
288B
330
18
100
AcDbEntity
  8
1
  6
Continuous
100
AcDbLine
 10
218.8689063468332
 20
249.5901117124951
 30
0.0
 11
217.1732923468332
 21
255.9182277124953
 31
0.0
  0
ARC
  5
288E
330
18
100
AcDbEntity
  8
1
  6
Continuous
100
AcDbCircle
 10
207.494509346833
 20
224.2322190124953
 30
0.0
 40
1.5
100
AcDbArc
 50
23.32203799999846
 51
105.0000000000011
  0
ARC
  5
288F
330
18
100
AcDbEntity
  8
1
  6
Continuous
100
AcDbCircle
 10
224.9420953468334
 20
231.7542947124953
 30
0.0
 40
27.0
100
AcDbArc
 50
231.1909899999992
 51
248.8090000000001
  0
ARC
  5
2890
330
18
100
AcDbEntity
  8
1
  6
Continuous
100
AcDbCircle
 10
207.494509346833
 20
239.2763707124953
 30
0.0
 40
1.5
100
AcDbArc
 50
255.000009999999
 51
336.6779599999998
  0
LINE
  5
2891
330
18
100
AcDbEntity
  8
1
  6
Continuous
100
AcDbLine
 10
212.5324193468332
 20
245.9317377124953
 30
0.0
 11
207.8999163468334
 21
250.5642407124953
 31
0.0
  0
LINE
  5
2892
330
18
100
AcDbEntity
  8
1
  6
Continuous
100
AcDbLine
 10
210.7646513468329
 20
244.1639707124953
 30
0.0
 11
206.132147346833
 21
248.7964737124952
 31
0.0
  0
LINE
  5
2893
330
18
100
AcDbEntity
  8
1
  6
Continuous
100
AcDbLine
 10
212.5324193468332
 20
217.5768512124951
 30
0.0
 11
207.899912346833
 21
212.9443447124953
 31
0.0
  0
LINE
  5
2894
330
18
100
AcDbEntity
  8
1
  6
Continuous
100
AcDbLine
 10
210.7646513468332
 20
219.3446186124949
 30
0.0
 11
206.1321473468332
 21
214.712111712495
 31
0.0
  0
ARC
  5
2895
330
18
100
AcDbEntity
  8
1
  6
Continuous
100
AcDbCircle
 10
224.9420953468334
 20
231.7542947124953
 30
0.0
 40
27.0
100
AcDbArc
 50
171.19099
 51
188.8090000000005
  0
ARC
  5
2896
330
18
100
AcDbEntity
  8
1
  6
Continuous
100
AcDbCircle
 10
206.071001346833
 20
229.5448106124953
 30
0.0
 40
1.5
100
AcDbArc
 50
285.0000100000018
 51
6.677960499999505
  0
ARC
  5
2897
330
18
100
AcDbEntity
  8
1
  6
Continuous
100
AcDbCircle
 10
224.9420953468334
 20
231.7542947124953
 30
0.0
 40
27.0
100
AcDbArc
 50
201.191
 51
218.8090099999985
  0
ARC
  5
2898
330
18
100
AcDbEntity
  8
1
  6
Continuous
100
AcDbCircle
 10
208.9605733468333
 20
211.8836857124953
 30
0.0
 40
1.5
100
AcDbArc
 50
135.0
 51
231.1910000000014
  0
ARC
  5
2899
330
18
100
AcDbEntity
  8
1
  6
Continuous
100
AcDbCircle
 10
205.0714903468333
 20
215.7727767124952
 30
0.0
 40
1.5
100
AcDbArc
 50
218.8090099999985
 51
315.0
  0
ARC
  5
289A
330
18
100
AcDbEntity
  8
1
  6
Continuous
100
AcDbCircle
 10
201.1663903468333
 20
222.5366014124953
 30
0.0
 40
1.5
100
AcDbArc
 50
105.0000100000019
 51
201.1909900000001
  0
LINE
  5
289B
330
18
100
AcDbEntity
  8
1
  6
Continuous
100
AcDbLine
 10
206.4592313468332
 20
228.0959213124949
 30
0.0
 11
200.1311133468334
 21
226.4003072824949
 31
0.0
  0
ARC
  5
289C
330
18
100
AcDbEntity
  8
1
  6
Continuous
100
AcDbCircle
 10
199.7428843468333
 20
227.8491929124953
 30
0.0
 40
1.5
100
AcDbArc
 50
188.8090000000005
 51
285.000000000001
  0
LINE
  5
289D
330
18
100
AcDbEntity
  8
1
  6
Continuous
100
AcDbLine
 10
207.106280346833
 20
225.6811068124951
 30
0.0
 11
200.778160346833
 21
223.9854928124953
 31
0.0
  0
ARC
  5
289E
330
18
100
AcDbEntity
  8
1
  6
Continuous
100
AcDbCircle
 10
201.1663903468333
 20
240.9719847124953
 30
0.0
 40
1.5
100
AcDbArc
 50
158.8089999999998
 51
254.9999999999988
  0
LINE
  5
289F
330
18
100
AcDbEntity
  8
1
  6
Continuous
100
AcDbLine
 10
206.4592343468334
 20
235.4126666124952
 30
0.0
 11
200.131113346833
 21
237.1082817124953
 31
0.0
  0
ARC
  5
28A0
330
18
100
AcDbEntity
  8
1
  6
Continuous
100
AcDbCircle
 10
199.7428843468333
 20
235.6593927124952
 30
0.0
 40
1.5
100
AcDbArc
 50
74.99999200000205
 51
171.1909999999994
  0
ARC
  5
28A1
330
18
100
AcDbEntity
  8
1
  6
Continuous
100
AcDbCircle
 10
206.071001346833
 20
233.9637788124953
 30
0.0
 40
1.5
100
AcDbArc
 50
353.3220400000001
 51
74.99999200000205
  0
ARC
  5
28A2
330
18
100
AcDbEntity
  8
1
  6
Continuous
100
AcDbCircle
 10
224.9420953468334
 20
231.7542947124953
 30
0.0
 40
17.5
100
AcDbArc
 50
173.3220299999999
 51
186.6779599999995
  0
LINE
  5
28A3
330
18
100
AcDbEntity
  8
1
  6
Continuous
100
AcDbLine
 10
207.1062763468332
 20
237.8274827124953
 30
0.0
 11
200.778160346833
 21
239.5230967124953
 31
0.0
  0
ARC
  5
28A4
330
18
100
AcDbEntity
  8
1
  6
Continuous
100
AcDbCircle
 10
224.9420953468334
 20
231.7542947124953
 30
0.0
 40
27.0
100
AcDbArc
 50
141.1909900000014
 51
158.8089999999998
  0
ARC
  5
28A5
330
18
100
AcDbEntity
  8
1
  6
Continuous
100
AcDbCircle
 10
205.0714903468333
 20
247.7358167124953
 30
0.0
 40
1.5
100
AcDbArc
 50
45.00000100000149
 51
141.1910100000011
  0
ARC
  5
28A6
330
18
100
AcDbEntity
  8
1
  6
Continuous
100
AcDbCircle
 10
224.9420953468334
 20
231.7542947124953
 30
0.0
 40
12.5
100
AcDbArc
 50
115.1551670252499
 51
309.1505630220237
  0
ARC
  5
28AA
330
18
100
AcDbEntity
  8
1
  6
Continuous
100
AcDbCircle
 10
224.9420953468334
 20
231.7542947124953
 30
0.0
 40
17.5
100
AcDbArc
 50
263.3220400000019
 51
276.6779599999978
  0
ARC
  5
28AB
330
18
100
AcDbEntity
  8
1
  6
Continuous
100
AcDbCircle
 10
224.9420953468334
 20
231.7542947124953
 30
0.0
 40
17.5
100
AcDbArc
 50
233.32204
 51
246.67796
  0
ARC
  5
28AC
330
18
100
AcDbEntity
  8
1
  6
Continuous
100
AcDbCircle
 10
215.7244053468334
 20
207.9785877124953
 30
0.0
 40
1.5
100
AcDbArc
 50
248.8090000000001
 51
345.0
  0
ARC
  5
28AD
330
18
100
AcDbEntity
  8
1
  6
Continuous
100
AcDbCircle
 10
222.7326113468329
 20
212.8831967124952
 30
0.0
 40
1.5
100
AcDbArc
 50
83.32203100000155
 51
165.0000100000004
  0
ARC
  5
28AE
330
18
100
AcDbEntity
  8
1
  6
Continuous
100
AcDbCircle
 10
217.4200163468333
 20
214.3067047124951
 30
0.0
 40
1.5
100
AcDbArc
 50
345.0
 51
66.67796599999746
  0
LINE
  5
28AF
330
18
100
AcDbEntity
  8
1
  6
Continuous
100
AcDbLine
 10
218.8689063468332
 20
213.918480712495
 30
0.0
 11
217.1732923468332
 21
207.5903577124953
 31
0.0
  0
LINE
  5
28B0
330
18
100
AcDbEntity
  8
1
  6
Continuous
100
AcDbLine
 10
221.2837243468328
 20
213.2714327124953
 30
0.0
 11
219.5881063468331
 21
206.9433107124949
 31
0.0
  0
ARC
  5
28B1
330
18
100
AcDbEntity
  8
1
  6
Continuous
100
AcDbCircle
 10
213.5930813468331
 20
216.5161927124953
 30
0.0
 40
1.5
100
AcDbArc
 50
53.32204000000015
 51
135.0
  0
ARC
  5
28B2
330
18
100
AcDbEntity
  8
1
  6
Continuous
100
AcDbCircle
 10
209.7039893468334
 20
220.4052766124953
 30
0.0
 40
1.5
100
AcDbArc
 50
315.0000100000011
 51
36.67796199999907
  0
ARC
  5
28B3
330
18
100
AcDbEntity
  8
1
  6
Continuous
100
AcDbCircle
 10
224.9420953468334
 20
231.7542947124953
 30
0.0
 40
17.5
100
AcDbArc
 50
203.3220400000002
 51
216.6779599999993
  0
ARC
  5
28B4
330
18
100
AcDbEntity
  8
1
  6
Continuous
100
AcDbCircle
 10
224.9420953468334
 20
231.7542947124953
 30
0.0
 40
17.5
100
AcDbArc
 50
293.3220399999997
 51
306.6779599999998
  0
ARC
  5
28B5
330
18
100
AcDbEntity
  8
1
  6
Continuous
100
AcDbCircle
 10
234.1597853468333
 20
207.9785877124953
 30
0.0
 40
1.5
100
AcDbArc
 50
195.0000099999996
 51
291.1909899999999
  0
ARC
  5
28B6
330
18
100
AcDbEntity
  8
1
  6
Continuous
100
AcDbCircle
 10
232.4641743468331
 20
214.3067047124951
 30
0.0
 40
1.5
100
AcDbArc
 50
113.3220499999977
 51
194.9999999999999
  0
ARC
  5
28B7
330
18
100
AcDbEntity
  8
1
  6
Continuous
100
AcDbCircle
 10
227.1515793468334
 20
212.8831967124952
 30
0.0
 40
1.5
100
AcDbArc
 50
15.00000600000048
 51
96.67795999999796
  0
LINE
  5
28B8
330
18
100
AcDbEntity
  8
1
  6
Continuous
100
AcDbLine
 10
231.015280346833
 20
213.9184807124951
 30
0.0
 11
232.710894346833
 21
207.5903577124953
 31
0.0
  0
LINE
  5
28B9
330
18
100
AcDbEntity
  8
1
  6
Continuous
100
AcDbLine
 10
228.6004663468331
 20
213.2714337124953
 30
0.0
 11
230.296080346833
 21
206.9433107124952
 31
0.0
  0
ARC
  5
28BA
330
18
100
AcDbEntity
  8
1
  6
Continuous
100
AcDbCircle
 10
240.1802013468332
 20
220.4052766124953
 30
0.0
 40
1.5
100
AcDbArc
 50
143.3220400000005
 51
225.0
  0
ARC
  5
28BB
330
18
100
AcDbEntity
  8
1
  6
Continuous
100
AcDbCircle
 10
224.9420953468334
 20
231.7542947124953
 30
0.0
 40
17.5
100
AcDbArc
 50
323.3220400000005
 51
336.6779599999998
  0
ARC
  5
28BC
330
18
100
AcDbEntity
  8
1
  6
Continuous
100
AcDbCircle
 10
236.2911093468333
 20
216.5161927124953
 30
0.0
 40
1.5
100
AcDbArc
 50
45.00000100000149
 51
126.6779599999997
  0
ARC
  5
28BE
330
18
100
AcDbEntity
  8
1
  6
Continuous
100
AcDbCircle
 10
224.9420953468334
 20
231.7542947124953
 30
0.0
 40
17.5
100
AcDbArc
 50
143.3220400000005
 51
156.6779599999998
  0
ARC
  5
28BF
330
18
100
AcDbEntity
  8
1
  6
Continuous
100
AcDbCircle
 10
224.9420953468334
 20
231.7542947124953
 30
0.0
 40
17.5
100
AcDbArc
 50
113.3220300000022
 51
126.6779599999997
  0
ARC
  5
28C0
330
18
100
AcDbEntity
  8
1
  6
Continuous
100
AcDbCircle
 10
209.7039893468334
 20
243.1033127124951
 30
0.0
 40
1.5
100
AcDbArc
 50
323.3220400000005
 51
45.00000100000149
  0
ARC
  5
28C1
330
18
100
AcDbEntity
  8
1
  6
Continuous
100
AcDbCircle
 10
213.5930813468331
 20
246.9924007124951
 30
0.0
 40
1.5
100
AcDbArc
 50
225.0
 51
306.6779599999998
  0
ARC
  5
28C2
330
18
100
AcDbEntity
  8
1
  6
Continuous
100
AcDbCircle
 10
224.9420953468334
 20
231.7542947124953
 30
0.0
 40
17.5
100
AcDbArc
 50
93.43594205465038
 51
96.67795999999796
  0
ARC
  5
28C3
330
18
100
AcDbEntity
  8
1
  6
Continuous
100
AcDbCircle
 10
217.4200163468333
 20
249.2018847124953
 30
0.0
 40
1.5
100
AcDbArc
 50
293.3220399999997
 51
14.99999899999975
  0
ARC
  5
28C4
330
18
100
AcDbEntity
  8
1
  6
Continuous
100
AcDbCircle
 10
222.7326113468329
 20
250.6253887124953
 30
0.0
 40
1.5
100
AcDbArc
 50
195.0000099999996
 51
276.6779599999978
  0
ARC
  5
28C5
330
18
100
AcDbEntity
  8
1
  6
Continuous
100
AcDbCircle
 10
224.9420953468334
 20
231.7542947124953
 30
0.0
 40
27.0
100
AcDbArc
 50
111.1909999999997
 51
128.8090100000008
  0
ARC
  5
28C9
330
18
100
AcDbEntity
  8
1
  6
Continuous
100
AcDbCircle
 10
224.9420953468334
 20
231.7542947124953
 30
0.0
 40
27.0
100
AcDbArc
 50
87.88027600440228
 51
98.80900700000211
  0
ARC
  5
28CB
330
18
100
AcDbEntity
  8
1
  6
Continuous
100
AcDbCircle
 10
215.7244053468334
 20
255.5300017124952
 30
0.0
 40
1.5
100
AcDbArc
 50
14.99999899999975
 51
111.1909899999999
  0
ARC
  5
28CC
330
18
100
AcDbEntity
  8
1
  6
Continuous
100
AcDbCircle
 10
221.0369973468332
 20
256.9535057124953
 30
0.0
 40
1.5
100
AcDbArc
 50
98.80899999999785
 51
194.9999999999999
  0
ARC
  5
28E8
330
18
100
AcDbEntity
  8
1
  6
Continuous
100
AcDbCircle
 10
224.9420953468334
 20
231.7542947124953
 30
0.0
 40
27.0
100
AcDbArc
 50
351.1909999999994
 51
3.116756093227062
  0
ARC
  5
28E9
330
18
100
AcDbEntity
  8
1
  6
Continuous
100
AcDbCircle
 10
224.9420953468334
 20
231.7542947124953
 30
0.0
 40
27.0
100
AcDbArc
 50
321.1910000000007
 51
338.8090099999997
  0
ARC
  5
28EA
330
18
100
AcDbEntity
  8
1
  6
Continuous
100
AcDbCircle
 10
244.8127003468332
 20
215.7727767124952
 30
0.0
 40
1.5
100
AcDbArc
 50
225.0
 51
321.1910000000007
  0
ARC
  5
28EB
330
18
100
AcDbEntity
  8
1
  6
Continuous
100
AcDbCircle
 10
240.9236173468334
 20
211.8836857124953
 30
0.0
 40
1.5
100
AcDbArc
 50
308.8089999999985
 51
45.00000100000149
  0
ARC
  5
28EC
330
18
100
AcDbEntity
  8
1
  6
Continuous
100
AcDbCircle
 10
248.7177983468331
 20
222.5366014124953
 30
0.0
 40
1.5
100
AcDbArc
 50
338.8090099999997
 51
74.99999200000205
  0
LINE
  5
28ED
330
18
100
AcDbEntity
  8
1
  6
Continuous
100
AcDbLine
 10
244.05460274538
 20
227.9272081905545
 30
0.0
 11
249.7530773468333
 21
226.4003073724953
 31
0.0
  0
LINE
  5
28EE
330
18
100
AcDbEntity
  8
1
  6
Continuous
100
AcDbLine
 10
242.7779033468332
 20
225.6811078124951
 30
0.0
 11
249.1060283468331
 21
223.9854928124953
 31
0.0
  0
ARC
  5
28EF
330
18
100
AcDbEntity
  8
1
  6
Continuous
100
AcDbCircle
 10
250.1413063468333
 20
227.8491929124953
 30
0.0
 40
1.5
100
AcDbArc
 50
254.9999999999988
 51
351.1909999999994
  0
ARC
  5
29F6
330
18
100
AcDbEntity
  8
1
  6
Continuous
100
AcDbCircle
 10
600.888567263949
 20
231.7542947124953
 30
0.0
 40
30.0
100
AcDbArc
 50
173.0087539778454
 51
91.44874649227348
  0
ARC
  5
29F7
330
18
100
AcDbEntity
  8
1
  6
Continuous
100
AcDbCircle
 10
600.888567263949
 20
231.7542947124953
 30
0.0
 40
16.5
100
AcDbArc
 50
201.2722603135665
 51
84.5484000892177
  0
ARC
  5
29F8
330
18
100
AcDbEntity
  8
1
  6
Continuous
100
AcDbCircle
 10
600.888567263949
 20
231.7542947124953
 30
0.0
 40
12.5
100
AcDbArc
 50
230.8494369779761
 51
64.84483297475003
  0
ARC
  5
29F9
330
18
100
AcDbEntity
  8
1
  6
Continuous
100
AcDbCircle
 10
616.1266732639488
 20
220.4052766124953
 30
0.0
 40
1.5
100
AcDbArc
 50
143.3220380000008
 51
224.9999899999989
  0
ARC
  5
29FA
330
18
100
AcDbEntity
  8
1
  6
Continuous
100
AcDbCircle
 10
600.888567263949
 20
231.7542947124953
 30
0.0
 40
27.0
100
AcDbArc
 50
321.1909900000013
 51
338.8089999999998
  0
ARC
  5
29FB
330
18
100
AcDbEntity
  8
1
  6
Continuous
100
AcDbCircle
 10
620.7591722639489
 20
215.7727767124952
 30
0.0
 40
1.5
100
AcDbArc
 50
225.0
 51
321.1909900000013
  0
ARC
  5
29FC
330
18
100
AcDbEntity
  8
1
  6
Continuous
100
AcDbCircle
 10
612.2375812639488
 20
216.5161927124953
 30
0.0
 40
1.5
100
AcDbArc
 50
45.0
 51
126.6779599999997
  0
ARC
  5
29FD
330
18
100
AcDbEntity
  8
1
  6
Continuous
100
AcDbCircle
 10
616.870089263949
 20
211.8836857124953
 30
0.0
 40
1.5
100
AcDbArc
 50
308.8089999999985
 51
45.0
  0
LINE
  5
29FE
330
18
100
AcDbEntity
  8
1
  6
Continuous
100
AcDbLine
 10
615.0660112639491
 20
219.3446186124949
 30
0.0
 11
619.6985152639491
 21
214.712111712495
 31
0.0
  0
LINE
  5
29FF
330
18
100
AcDbEntity
  8
1
  6
Continuous
100
AcDbLine
 10
613.2982432639493
 20
217.5768512124951
 30
0.0
 11
617.9307502639493
 21
212.9443447124953
 31
0.0
  0
LINE
  5
2A00
330
18
100
AcDbEntity
  8
1
  6
Continuous
100
AcDbLine
 10
618.7243822639492
 20
225.6811068124951
 30
0.0
 11
625.0525022639492
 21
223.9854928124953
 31
0.0
  0
ARC
  5
2A01
330
18
100
AcDbEntity
  8
1
  6
Continuous
100
AcDbCircle
 10
624.664272263949
 20
222.5366014124953
 30
0.0
 40
1.5
100
AcDbArc
 50
338.8090099999997
 51
74.99998999999808
  0
ARC
  5
2A02
330
18
100
AcDbEntity
  8
1
  6
Continuous
100
AcDbCircle
 10
600.888567263949
 20
231.7542947124953
 30
0.0
 40
17.5
100
AcDbArc
 50
323.3220400000005
 51
336.6779599999998
  0
ARC
  5
2A03
330
18
100
AcDbEntity
  8
1
  6
Continuous
100
AcDbCircle
 10
618.3361532639493
 20
224.2322190124953
 30
0.0
 40
1.5
100
AcDbArc
 50
74.99999999999885
 51
156.6779620000015
  0
ARC
  5
2A04
330
18
100
AcDbEntity
  8
1
  6
Continuous
100
AcDbCircle
 10
619.7596612639492
 20
229.5448106124953
 30
0.0
 40
1.5
100
AcDbArc
 50
173.3220395000005
 51
254.999989999998
  0
ARC
  5
2A05
330
18
100
AcDbEntity
  8
1
  6
Continuous
100
AcDbCircle
 10
600.888567263949
 20
231.7542947124953
 30
0.0
 40
17.5
100
AcDbArc
 50
353.3220400000001
 51
6.677970000000035
  0
ARC
  5
2A06
330
18
100
AcDbEntity
  8
1
  6
Continuous
100
AcDbCircle
 10
600.888567263949
 20
231.7542947124953
 30
0.0
 40
27.0
100
AcDbArc
 50
351.1909999999994
 51
8.809009999999819
  0
LINE
  5
2A07
330
18
100
AcDbEntity
  8
1
  6
Continuous
100
AcDbLine
 10
619.3714312639489
 20
228.0959213124949
 30
0.0
 11
625.6995492639489
 21
226.4003072824949
 31
0.0
  0
ARC
  5
2A08
330
18
100
AcDbEntity
  8
1
  6
Continuous
100
AcDbCircle
 10
626.0877782639489
 20
227.8491929124953
 30
0.0
 40
1.5
100
AcDbArc
 50
254.9999999999988
 51
351.1909999999994
  0
ARC
  5
2A09
330
18
100
AcDbEntity
  8
1
  6
Continuous
100
AcDbCircle
 10
600.888567263949
 20
231.7542947124953
 30
0.0
 40
17.5
100
AcDbArc
 50
23.32204000000018
 51
36.67795999999939
  0
ARC
  5
2A0A
330
18
100
AcDbEntity
  8
1
  6
Continuous
100
AcDbCircle
 10
624.664272263949
 20
240.9719847124953
 30
0.0
 40
1.5
100
AcDbArc
 50
285.000000000001
 51
21.19100000000017
  0
LINE
  5
2A0B
330
18
100
AcDbEntity
  8
1
  6
Continuous
100
AcDbLine
 10
619.3714282639489
 20
235.4126666124952
 30
0.0
 11
625.6995492639494
 21
237.1082817124953
 31
0.0
  0
LINE
  5
2A0C
330
18
100
AcDbEntity
  8
1
  6
Continuous
100
AcDbLine
 10
618.724386263949
 20
237.8274827124953
 30
0.0
 11
625.0525022639492
 21
239.5230967124953
 31
0.0
  0
ARC
  5
2A0D
330
18
100
AcDbEntity
  8
1
  6
Continuous
100
AcDbCircle
 10
626.0877782639489
 20
235.6593927124952
 30
0.0
 40
1.5
100
AcDbArc
 50
8.809000000000517
 51
105.0000079999979
  0
ARC
  5
2A0E
330
18
100
AcDbEntity
  8
1
  6
Continuous
100
AcDbCircle
 10
619.7596612639492
 20
233.9637788124953
 30
0.0
 40
1.5
100
AcDbArc
 50
105.0000079999979
 51
186.6779599999995
  0
ARC
  5
2A0F
330
18
100
AcDbEntity
  8
1
  6
Continuous
100
AcDbCircle
 10
618.3361532639493
 20
239.2763707124953
 30
0.0
 40
1.5
100
AcDbArc
 50
203.3220400000002
 51
284.9999900000008
  0
ARC
  5
2A10
330
18
100
AcDbEntity
  8
1
  6
Continuous
100
AcDbCircle
 10
616.1266732639488
 20
243.1033127124951
 30
0.0
 40
1.5
100
AcDbArc
 50
134.9999989999985
 51
216.6779599999993
  0
ARC
  5
2A11
330
18
100
AcDbEntity
  8
1
  6
Continuous
100
AcDbCircle
 10
616.870089263949
 20
251.624899712495
 30
0.0
 40
1.5
100
AcDbArc
 50
315.0
 51
51.19098999999918
  0
ARC
  5
2A12
330
18
100
AcDbEntity
  8
1
  6
Continuous
100
AcDbCircle
 10
620.7591722639489
 20
247.7358167124953
 30
0.0
 40
1.5
100
AcDbArc
 50
38.80898999999878
 51
134.9999989999985
  0
ARC
  5
2A13
330
18
100
AcDbEntity
  8
1
  6
Continuous
100
AcDbCircle
 10
600.888567263949
 20
231.7542947124953
 30
0.0
 40
27.0
100
AcDbArc
 50
21.19100000000017
 51
38.80900999999854
  0
LINE
  5
2A14
330
18
100
AcDbEntity
  8
1
  6
Continuous
100
AcDbLine
 10
615.0660112639492
 20
244.1639707124953
 30
0.0
 11
619.6985152639492
 21
248.7964737124952
 31
0.0
  0
LINE
  5
2A15
330
18
100
AcDbEntity
  8
1
  6
Continuous
100
AcDbLine
 10
613.2982432639493
 20
245.9317377124953
 30
0.0
 11
617.9307462639489
 21
250.5642407124953
 31
0.0
  0
LINE
  5
2A16
330
18
100
AcDbEntity
  8
1
  6
Continuous
100
AcDbLine
 10
606.9617562639491
 20
249.5901117124951
 30
0.0
 11
608.6573702639491
 21
255.9182277124953
 31
0.0
  0
LINE
  5
2A17
330
18
100
AcDbEntity
  8
1
  6
Continuous
100
AcDbLine
 10
604.5469422639489
 20
250.2371607124953
 30
0.0
 11
606.2425562639491
 21
256.5652747124953
 31
0.0
  0
ARC
  5
2A18
330
18
100
AcDbEntity
  8
1
  6
Continuous
100
AcDbCircle
 10
612.2375812639488
 20
246.9924007124951
 30
0.0
 40
1.5
100
AcDbArc
 50
233.32204
 51
315.0
  0
ARC
  5
2A19
330
18
100
AcDbEntity
  8
1
  6
Continuous
100
AcDbCircle
 10
600.888567263949
 20
231.7542947124953
 30
0.0
 40
17.5
100
AcDbArc
 50
53.32204000000015
 51
66.67796999999771
  0
ARC
  5
2A1A
330
18
100
AcDbEntity
  8
1
  6
Continuous
100
AcDbCircle
 10
603.0980512639493
 20
250.6253887124953
 30
0.0
 40
1.5
100
AcDbArc
 50
263.3220400000019
 51
344.9999900000003
  0
ARC
  5
2A1B
330
18
100
AcDbEntity
  8
1
  6
Continuous
100
AcDbCircle
 10
608.4106462639489
 20
249.2018847124953
 30
0.0
 40
1.5
100
AcDbArc
 50
165.0000010000002
 51
246.67796
  0
ARC
  5
2A1C
330
18
100
AcDbEntity
  8
1
  6
Continuous
100
AcDbCircle
 10
604.7936652639491
 20
256.9535057124953
 30
0.0
 40
1.5
100
AcDbArc
 50
345.0
 51
81.19100000000214
  0
ARC
  5
2A1D
330
18
100
AcDbEntity
  8
1
  6
Continuous
100
AcDbCircle
 10
610.1062572639489
 20
255.5300017124952
 30
0.0
 40
1.5
100
AcDbArc
 50
68.80901000000005
 51
165.0000010000002
  0
ARC
  5
2A1E
330
18
100
AcDbEntity
  8
1
  6
Continuous
100
AcDbCircle
 10
600.888567263949
 20
231.7542947124953
 30
0.0
 40
27.0
100
AcDbArc
 50
51.19098999999918
 51
68.80900000000014
  0
ARC
  5
2A1F
330
18
100
AcDbEntity
  8
1
  6
Continuous
100
AcDbCircle
 10
600.888567263949
 20
231.7542947124953
 30
0.0
 40
17.5
100
AcDbArc
 50
83.32204000000208
 51
86.56405794534961
  0
ARC
  5
2A20
330
18
100
AcDbEntity
  8
1
  6
Continuous
100
AcDbCircle
 10
600.888567263949
 20
231.7542947124953
 30
0.0
 40
27.0
100
AcDbArc
 50
81.19099299999787
 51
92.11972399559773
  0
ARC
  5
2A21
330
18
100
AcDbEntity
  8
1
  6
Continuous
100
AcDbCircle
 10
600.888567263949
 20
231.7542947124953
 30
0.0
 40
27.0
100
AcDbArc
 50
176.8832439067729
 51
188.8090000000005
  0
ARC
  5
2A22
330
18
100
AcDbEntity
  8
1
  6
Continuous
100
AcDbCircle
 10
600.888567263949
 20
231.7542947124953
 30
0.0
 40
27.0
100
AcDbArc
 50
201.1909900000001
 51
218.8089999999993
  0
ARC
  5
2A23
330
18
100
AcDbEntity
  8
1
  6
Continuous
100
AcDbCircle
 10
581.0179622639491
 20
215.7727767124952
 30
0.0
 40
1.5
100
AcDbArc
 50
218.8089999999993
 51
315.0
  0
LINE
  5
2A24
330
18
100
AcDbEntity
  8
1
  6
Continuous
100
AcDbLine
 10
583.0527592639491
 20
225.6811078124951
 30
0.0
 11
576.7246342639491
 21
223.9854928124953
 31
0.0
  0
ARC
  5
2A25
330
18
100
AcDbEntity
  8
1
  6
Continuous
100
AcDbCircle
 10
575.6893562639491
 20
227.8491929124953
 30
0.0
 40
1.5
100
AcDbArc
 50
188.8090000000005
 51
285.000000000001
  0
LINE
  5
2A26
330
18
100
AcDbEntity
  8
1
  6
Continuous
100
AcDbLine
 10
581.7760598654022
 20
227.9272081905545
 30
0.0
 11
576.077585263949
 21
226.4003073724953
 31
0.0
  0
ARC
  5
2A27
330
18
100
AcDbEntity
  8
1
  6
Continuous
100
AcDbCircle
 10
577.1128642639491
 20
222.5366014124953
 30
0.0
 40
1.5
100
AcDbArc
 50
105.0000079999979
 51
201.1909900000001
  0
ARC
  5
2A28
330
18
100
AcDbEntity
  8
1
  6
Continuous
100
AcDbCircle
 10
585.6504612639493
 20
220.4052766124953
 30
0.0
 40
1.5
100
AcDbArc
 50
315.0
 51
36.67795999999939
  0
LINE
  5
2A29
330
18
100
AcDbEntity
  8
1
  6
Continuous
100
AcDbLine
 10
588.4788912639487
 20
217.5768531124953
 30
0.0
 11
583.8463842639489
 21
212.9443467124953
 31
0.0
  0
LINE
  5
2A2A
330
18
100
AcDbEntity
  8
1
  6
Continuous
100
AcDbLine
 10
586.7111232639489
 20
219.3446196124952
 30
0.0
 11
582.0786152639491
 21
214.7121137124953
 31
0.0
  0
ARC
  5
2A2B
330
18
100
AcDbEntity
  8
1
  6
Continuous
100
AcDbCircle
 10
584.9070452639489
 20
211.8836857124953
 30
0.0
 40
1.5
100
AcDbArc
 50
134.9999989999985
 51
231.1910000000014
  0
ARC
  5
2A2C
330
18
100
AcDbEntity
  8
1
  6
Continuous
100
AcDbCircle
 10
600.888567263949
 20
231.7542947124953
 30
0.0
 40
17.5
100
AcDbArc
 50
203.3220400000002
 51
216.6779599999993
  0
ARC
  5
2A2D
330
18
100
AcDbEntity
  8
1
  6
Continuous
100
AcDbCircle
 10
583.4409812639489
 20
224.2322190124953
 30
0.0
 40
1.5
100
AcDbArc
 50
23.32203000000006
 51
104.999994000002
  0
ARC
  5
2A2E
330
18
100
AcDbEntity
  8
1
  6
Continuous
100
AcDbCircle
 10
600.888567263949
 20
231.7542947124953
 30
0.0
 40
17.5
100
AcDbArc
 50
263.3220400000019
 51
276.6779599999978
  0
ARC
  5
2A2F
330
18
100
AcDbEntity
  8
1
  6
Continuous
100
AcDbCircle
 10
600.888567263949
 20
231.7542947124953
 30
0.0
 40
27.0
100
AcDbArc
 50
261.1910000000022
 51
278.8090099999976
  0
ARC
  5
2A30
330
18
100
AcDbEntity
  8
1
  6
Continuous
100
AcDbCircle
 10
603.0980512639493
 20
212.8831967124952
 30
0.0
 40
1.5
100
AcDbArc
 50
14.99998999999942
 51
96.67796899999846
  0
LINE
  5
2A31
330
18
100
AcDbEntity
  8
1
  6
Continuous
100
AcDbLine
 10
597.2301962639493
 20
213.2714337124953
 30
0.0
 11
595.5345822639492
 21
206.9433107124952
 31
0.0
  0
LINE
  5
2A32
330
18
100
AcDbEntity
  8
1
  6
Continuous
100
AcDbLine
 10
594.8153822639492
 20
213.9184807124951
 30
0.0
 11
593.1197682639492
 21
207.5903577124953
 31
0.0
  0
ARC
  5
2A33
330
18
100
AcDbEntity
  8
1
  6
Continuous
100
AcDbCircle
 10
600.888567263949
 20
231.7542947124953
 30
0.0
 40
27.0
100
AcDbArc
 50
231.1910000000014
 51
248.8090099999999
  0
ARC
  5
2A34
330
18
100
AcDbEntity
  8
1
  6
Continuous
100
AcDbCircle
 10
591.670877263949
 20
207.9785877124953
 30
0.0
 40
1.5
100
AcDbArc
 50
248.8090099999999
 51
344.9999900000003
  0
ARC
  5
2A35
330
18
100
AcDbEntity
  8
1
  6
Continuous
100
AcDbCircle
 10
596.983469263949
 20
206.5550877124953
 30
0.0
 40
1.5
100
AcDbArc
 50
165.0000010000002
 51
261.1910000000022
  0
ARC
  5
2A36
330
18
100
AcDbEntity
  8
1
  6
Continuous
100
AcDbCircle
 10
589.5395532639488
 20
216.5161927124953
 30
0.0
 40
1.5
100
AcDbArc
 50
53.32204000000015
 51
134.9999989999985
  0
ARC
  5
2A37
330
18
100
AcDbEntity
  8
1
  6
Continuous
100
AcDbCircle
 10
600.888567263949
 20
231.7542947124953
 30
0.0
 40
17.5
100
AcDbArc
 50
233.32204
 51
246.67796
  0
ARC
  5
2A38
330
18
100
AcDbEntity
  8
1
  6
Continuous
100
AcDbCircle
 10
598.6790832639488
 20
212.8831967124952
 30
0.0
 40
1.5
100
AcDbArc
 50
83.32204000000208
 51
164.9999939999995
  0
ARC
  5
2A39
330
18
100
AcDbEntity
  8
1
  6
Continuous
100
AcDbCircle
 10
593.3664882639491
 20
214.3067047124951
 30
0.0
 40
1.5
100
AcDbArc
 50
345.0
 51
66.67795000000227
  0
LINE
  5
2A3A
330
18
100
AcDbEntity
  8
1
  6
Continuous
100
AcDbLine
 10
604.5469382639493
 20
213.2714327124953
 30
0.0
 11
606.2425562639491
 21
206.9433107124949
 31
0.0
  0
LINE
  5
2A3B
330
18
100
AcDbEntity
  8
1
  6
Continuous
100
AcDbLine
 10
606.9617562639491
 20
213.918480712495
 30
0.0
 11
608.6573702639491
 21
207.5903577124953
 31
0.0
  0
ARC
  5
2A3C
330
18
100
AcDbEntity
  8
1
  6
Continuous
100
AcDbCircle
 10
600.888567263949
 20
231.7542947124953
 30
0.0
 40
27.0
100
AcDbArc
 50
291.1909999999997
 51
308.8090100000008
  0
ARC
  5
2A3D
330
18
100
AcDbEntity
  8
1
  6
Continuous
100
AcDbCircle
 10
610.1062572639489
 20
207.9785877124953
 30
0.0
 40
1.5
100
AcDbArc
 50
194.9999999999999
 51
291.1909999999997
  0
ARC
  5
2A3E
330
18
100
AcDbEntity
  8
1
  6
Continuous
100
AcDbCircle
 10
604.7936652639491
 20
206.5550877124953
 30
0.0
 40
1.5
100
AcDbArc
 50
278.8089999999978
 51
15.00000999999972
  0
ARC
  5
2A3F
330
18
100
AcDbEntity
  8
1
  6
Continuous
100
AcDbCircle
 10
608.4106462639489
 20
214.3067047124951
 30
0.0
 40
1.5
100
AcDbArc
 50
113.3220340000025
 51
194.9999999999999
  0
ARC
  5
2A40
330
18
100
AcDbEntity
  8
1
  6
Continuous
100
AcDbCircle
 10
600.888567263949
 20
231.7542947124953
 30
0.0
 40
17.5
100
AcDbArc
 50
293.3220399999997
 51
306.6779599999998
  0
LINE
  5
2A41
330
18
100
AcDbEntity
  8
1
  6
Continuous
100
AcDbLine
 10
417.3461863163193
 20
271.8380665838719
 30
0.0
 11
408.4844762944628
 21
271.8380665838719
 31
0.0
  0
ARC
  5
2A42
330
18
100
AcDbEntity
  8
1
  6
Continuous
100
AcDbCircle
 10
408.4844762944628
 20
249.5440749475875
 30
0.0
 40
22.29399163628452
100
AcDbArc
 50
90.0
 51
156.4876405314128
  0
ARC
  5
2A43
330
18
100
AcDbEntity
  8
1
  6
Continuous
100
AcDbCircle
 10
391.9153313053911
 20
235.2542947124952
 30
0.0
 40
8.0
100
AcDbArc
 50
158.7874293974518
 51
239.9999999999999
  0
ARC
  5
2A45
330
18
100
AcDbEntity
  8
1
  6
Continuous
100
AcDbCircle
 10
385.4153313053911
 20
223.9959644632975
 30
0.0
 40
1.0
100
AcDbArc
 50
359.9999999999983
 51
60.00000000000028
  0
ARC
  5
2A46
330
18
100
AcDbEntity
  8
1
  6
Continuous
100
AcDbCircle
 10
385.4153313053911
 20
223.9959644632975
 30
0.0
 40
5.0
100
AcDbArc
 50
0.0
 51
60.0000000000001
  0
LINE
  5
2A48
330
18
100
AcDbEntity
  8
1
  6
Continuous
100
AcDbLine
 10
391.7704425269146
 20
256.9908769471031
 30
0.0
 11
384.4573757940004
 21
238.1489276063384
 31
0.0
  0
LINE
  5
2A49
330
18
100
AcDbEntity
  8
1
  6
Continuous
100
AcDbLine
 10
388.0414647712194
 20
258.4381933940248
 30
0.0
 11
380.7283980383052
 21
239.59624405326
 31
0.0
  0
LINE
  5
2A4A
330
18
100
AcDbEntity
  8
1
  6
Continuous
100
AcDbLine
 10
444.9153273053911
 20
274.782158712495
 30
0.0
 11
445.9153273053911
 21
235.254294712495
 31
0.0
  0
ARC
  5
2A4B
330
18
100
AcDbEntity
  8
1
  6
Continuous
100
AcDbCircle
 10
433.9153313053911
 20
235.2542947124952
 30
0.0
 40
12.0
100
AcDbArc
 50
299.9999999999999
 51
21.21257060254816
  0
ARC
  5
2A4C
330
18
100
AcDbEntity
  8
1
  6
Continuous
100
AcDbCircle
 10
433.9153313053911
 20
235.2542947124952
 30
0.0
 40
8.0
100
AcDbArc
 50
300.0
 51
21.21257060254811
  0
LINE
  5
2A4D
330
18
100
AcDbEntity
  8
1
  6
Continuous
100
AcDbLine
 10
437.7891978395629
 20
258.4381933940248
 30
0.0
 11
445.102264572477
 21
239.59624405326
 31
0.0
  0
LINE
  5
2A4E
330
18
100
AcDbEntity
  8
1
  6
Continuous
100
AcDbLine
 10
434.0602200838676
 20
256.9908769471031
 30
0.0
 11
441.3732868167818
 21
238.1489276063384
 31
0.0
  0
ARC
  5
2A4F
330
18
100
AcDbEntity
  8
1
  6
Continuous
100
AcDbCircle
 10
417.3461863163193
 20
249.5440749475875
 30
0.0
 40
22.29399163628449
100
AcDbArc
 50
23.5123594685871
 51
90.0
  0
LINE
  5
2A50
330
18
100
AcDbEntity
  8
1
  6
Continuous
100
AcDbLine
 10
435.4153313053911
 20
219.7542947124953
 30
0.0
 11
439.4153313053911
 21
219.7542947124953
 31
0.0
  0
LINE
  5
2A51
330
18
100
AcDbEntity
  8
1
  6
Continuous
100
AcDbLine
 10
439.4153313053911
 20
223.9959644632974
 30
0.0
 11
439.4153313053911
 21
219.7542947124953
 31
0.0
  0
ARC
  5
2A52
330
18
100
AcDbEntity
  8
1
  6
Continuous
100
AcDbCircle
 10
440.4153313053911
 20
223.9959644632975
 30
0.0
 40
5.0
100
AcDbArc
 50
119.9999999999997
 51
180.0
  0
ARC
  5
2A53
330
18
100
AcDbEntity
  8
1
  6
Continuous
100
AcDbCircle
 10
440.4153313053911
 20
223.9959644632975
 30
0.0
 40
1.0
100
AcDbArc
 50
119.9999999999997
 51
180.0000000000015
  0
ENDSEC
  0
SECTION
  2
OBJECTS
  0
DICTIONARY
  5
C
330
0
100
AcDbDictionary
281
     1
  3
ACAD_CIP_PREVIOUS_PRODUCT_INFO
350
2ADB
  3
ACAD_COLOR
350
2ABE
  3
ACAD_DETAILVIEWSTYLE
350
2AD7
  3
ACAD_GROUP
350
D
  3
ACAD_LAYOUT
350
94
  3
ACAD_MATERIAL
350
2A8C
  3
ACAD_MLEADERSTYLE
350
2AD3
  3
ACAD_MLINESTYLE
350
1B
  3
ACAD_PLOTSETTINGS
350
95
  3
ACAD_PLOTSTYLENAME
350
2A8A
  3
ACAD_SCALELIST
350
2AC1
  3
ACAD_SECTIONVIEWSTYLE
350
2AD5
  3
ACAD_TABLESTYLE
350
2ABF
  3
ACAD_VISUALSTYLE
350
2AA5
  3
ACDB_RECOMPOSE_DATA
350
2AF9
  3
AcDbVariableDictionary
350
2AEC
  3
CONTENTDICTIONARY
350
3D
  3
DWGPROPS
350
2AFA
  0
DICTIONARY
  5
2ADC
330
E
100
AcDbDictionary
280
     1
281
     1
  3
ADSK_XREC_LAYER_RECONCILED
360
2ADD
  0
DICTIONARY
  5
2ADE
330
4E
100
AcDbDictionary
280
     1
281
     1
  3
ADSK_XREC_LAYER_RECONCILED
360
2ADF
  0
DICTIONARY
  5
2AE0
330
4F
100
AcDbDictionary
280
     1
281
     1
  3
ADSK_XREC_LAYER_RECONCILED
360
2AE1
  0
DICTIONARY
  5
2AE2
330
50
100
AcDbDictionary
280
     1
281
     1
  3
ADSK_XREC_LAYER_RECONCILED
360
2AE3
  0
DICTIONARY
  5
2AE4
330
51
100
AcDbDictionary
280
     1
281
     1
  3
ADSK_XREC_LAYER_RECONCILED
360
2AE5
  0
DICTIONARY
  5
2AE6
330
52
100
AcDbDictionary
280
     1
281
     1
  3
ADSK_XREC_LAYER_RECONCILED
360
2AE7
  0
DICTIONARY
  5
2AE8
330
53
100
AcDbDictionary
280
     1
281
     1
  3
ADSK_XREC_LAYER_RECONCILED
360
2AE9
  0
DICTIONARY
  5
2AEA
330
54
100
AcDbDictionary
280
     1
281
     1
  3
ADSK_XREC_LAYER_RECONCILED
360
2AEB
  0
DICTIONARY
  5
2A71
330
18
100
AcDbDictionary
281
     1
  3
ACAD_LAYOUTSELFREF
350
2A86
  0
DICTIONARY
  5
2A6F
330
15
100
AcDbDictionary
281
     1
  3
ACAD_LAYOUTSELFREF
350
2A85
  0
XRECORD
  5
2ADB
102
{ACAD_REACTORS
330
C
102
}
330
C
100
AcDbXrecord
280
     1
300
ACDLT
300
2014
300
ACDLT_F_S
  0
DICTIONARY
  5
2ABE
102
{ACAD_REACTORS
330
C
102
}
330
C
100
AcDbDictionary
281
     1
  0
DICTIONARY
  5
2AD7
102
{ACAD_REACTORS
330
C
102
}
330
C
100
AcDbDictionary
281
     1
  3
Imperial24
350
2AD8
  0
DICTIONARY
  5
D
102
{ACAD_REACTORS
330
C
102
}
330
C
100
AcDbDictionary
281
     1
  0
DICTIONARY
  5
94
102
{ACAD_REACTORS
330
C
102
}
330
C
100
AcDbDictionary
281
     1
  3
Model
350
2AD9
  3
レイアウト1
350
2ADA
  0
DICTIONARY
  5
2A8C
102
{ACAD_REACTORS
330
C
102
}
330
C
100
AcDbDictionary
281
     1
  3
ByBlock
350
2A95
  3
ByLayer
350
2A8D
  3
Global
350
2A9D
  0
DICTIONARY
  5
2AD3
102
{ACAD_REACTORS
330
C
102
}
330
C
100
AcDbDictionary
281
     1
  3
Standard
350
2AD4
  0
DICTIONARY
  5
1B
102
{ACAD_REACTORS
330
C
102
}
330
C
100
AcDbDictionary
281
     1
  3
STANDARD
350
1C
  0
DICTIONARY
  5
95
102
{ACAD_REACTORS
330
C
102
}
330
C
100
AcDbDictionary
281
     1
  0
ACDBDICTIONARYWDFLT
  5
2A8A
102
{ACAD_REACTORS
330
C
102
}
330
C
100
AcDbDictionary
281
     1
  3
Normal
350
2A8B
100
AcDbDictionaryWithDefault
340
2A8B
  0
DICTIONARY
  5
2AC1
102
{ACAD_REACTORS
330
C
102
}
330
C
100
AcDbDictionary
281
     1
  3
A0
350
2AC2
  3
A1
350
2AC3
  3
A2
350
2AC4
  3
A3
350
2AC5
  3
A4
350
2AC6
  3
A5
350
2AC7
  3
A6
350
2AC8
  3
A7
350
2AC9
  3
A8
350
2ACA
  3
A9
350
2ACB
  3
B0
350
2ACC
  3
B1
350
2ACD
  3
B2
350
2ACE
  3
B3
350
2ACF
  3
B4
350
2AD0
  3
B5
350
2AD1
  3
B6
350
2AD2
  0
DICTIONARY
  5
2AD5
102
{ACAD_REACTORS
330
C
102
}
330
C
100
AcDbDictionary
281
     1
  3
Imperial24
350
2AD6
  0
DICTIONARY
  5
2ABF
102
{ACAD_REACTORS
330
C
102
}
330
C
100
AcDbDictionary
281
     1
  3
Standard
350
2AC0
  0
DICTIONARY
  5
2AA5
102
{ACAD_REACTORS
330
C
102
}
330
C
100
AcDbDictionary
281
     1
  3
2dWireframe
350
2AAB
  3
Basic
350
2AAA
  3
Brighten
350
2AB1
  3
ColorChange
350
2AB5
  3
Conceptual
350
2AAE
  3
Dim
350
2AB0
  3
EdgeColorOff
350
2ABD
  3
Facepattern
350
2AB4
  3
Flat
350
2AA6
  3
FlatWithEdges
350
2AA7
  3
Gouraud
350
2AA8
  3
GouraudWithEdges
350
2AA9
  3
Hidden
350
2AAD
  3
JitterOff
350
2ABB
  3
Linepattern
350
2AB3
  3
OverhangOff
350
2ABC
  3
Realistic
350
2AAF
  3
Shaded
350
2ABA
  3
Shaded with edges
350
2AB9
  3
Shades of Gray
350
2AB6
  3
Sketchy
350
2AB7
  3
Thicken
350
2AB2
  3
Wireframe
350
2AAC
  3
X-Ray
350
2AB8
  0
XRECORD
  5
2AF9
102
{ACAD_REACTORS
330
C
102
}
330
C
100
AcDbXrecord
280
     1
 90
        1
330
2AC0
  0
DICTIONARY
  5
2AEC
102
{ACAD_REACTORS
330
C
102
}
330
C
100
AcDbDictionary
281
     1
  3
CANNOSCALE
350
2AF1
  3
CMLEADERSTYLE
350
2AEE
  3
CTABLESTYLE
350
2AED
  3
CVIEWDETAILSTYLE
350
2AEF
  3
CVIEWSECTIONSTYLE
350
2AF0
  3
DIMASSOC
350
2AF4
  3
INDEXCTL
350
2AF3
  3
SORTENTS
350
2AF2
  3
XCLIPFRAME
350
2AF5
  0
DICTIONARY
  5
3D
102
{ACAD_REACTORS
330
C
102
}
330
C
100
AcDbDictionary
281
     1
  0
XRECORD
  5
2AFA
102
{ACAD_REACTORS
330
C
102
}
330
C
100
AcDbXrecord
280
     1
  1
DWGPROPS COOKIE
  2

  3

  4

  6

  7

  8
Yoshitsune
  9

300
=
301
=
302
=
303
=
304
=
305
=
306
=
307
=
308
=
309
=
 40
0.2574034953703704
 41
2452929.64265191
 42
2457192.690960139
  1

 90
        0
  0
XRECORD
  5
2ADD
102
{ACAD_REACTORS
330
2ADC
102
}
330
2ADC
100
AcDbXrecord
280
     1
290
     1
  0
XRECORD
  5
2ADF
102
{ACAD_REACTORS
330
2ADE
102
}
330
2ADE
100
AcDbXrecord
280
     1
290
     1
  0
XRECORD
  5
2AE1
102
{ACAD_REACTORS
330
2AE0
102
}
330
2AE0
100
AcDbXrecord
280
     1
290
     1
  0
XRECORD
  5
2AE3
102
{ACAD_REACTORS
330
2AE2
102
}
330
2AE2
100
AcDbXrecord
280
     1
290
     1
  0
XRECORD
  5
2AE5
102
{ACAD_REACTORS
330
2AE4
102
}
330
2AE4
100
AcDbXrecord
280
     1
290
     1
  0
XRECORD
  5
2AE7
102
{ACAD_REACTORS
330
2AE6
102
}
330
2AE6
100
AcDbXrecord
280
     1
290
     1
  0
XRECORD
  5
2AE9
102
{ACAD_REACTORS
330
2AE8
102
}
330
2AE8
100
AcDbXrecord
280
     1
290
     1
  0
XRECORD
  5
2AEB
102
{ACAD_REACTORS
330
2AEA
102
}
330
2AEA
100
AcDbXrecord
280
     1
290
     1
  0
XRECORD
  5
2A86
102
{ACAD_REACTORS
330
2A71
102
}
330
2A71
100
AcDbXrecord
280
     1
340
18
  0
XRECORD
  5
2A85
102
{ACAD_REACTORS
330
2A6F
102
}
330
2A6F
100
AcDbXrecord
280
     1
340
15
  0
ACDBDETAILVIEWSTYLE
  5
2AD8
102
{ACAD_XDICTIONARY
360
2B32
102
}
102
{ACAD_REACTORS
330
2AD7
102
}
330
2AD7
100
AcDbModelDocViewStyle
 70
     0
  3
Imperial24
290
     0
100
AcDbDetailViewStyle
 70
     0
 71
     0
 90
        3
 71
     1
340
F
 40
0.24
340
0
 40
0.24
300

 40
0.36
280
     3
 71
     2
340
14
 90
       25
 71
     3
340
F
 40
0.24
 90
        1
 40
0.75
 90
        1
300
%<\AcVar ViewType \f "%tc1">% %<\AcVar ViewDetailId>%\PSCALE %<\AcVar ViewScale \f "%sn">%
 71
     4
340
14
 90
       25
340
14
 90
       25
280
     0
  0
LAYOUT
  5
2AD9
102
{ACAD_XDICTIONARY
360
2B34
102
}
102
{ACAD_REACTORS
330
94
102
}
330
94
100
AcDbPlotSettings
  1

  2
Canon LBP9100C
  4

  6

 40
0.0
 41
0.0
 42
0.0
 43
0.0
 44
0.0
 45
0.0
 46
0.0
 47
0.0
 48
0.0
 49
0.0
140
0.0
141
0.0
142
1.0
143
1.0
 70
  1712
 72
     0
 73
     0
 74
     0
  7

 75
     0
147
1.0
148
0.0
149
0.0
100
AcDbLayout
  1
Model
 70
     1
 71
     0
 10
0.0
 20
0.0
 11
12.0
 21
9.0
 12
0.0
 22
0.0
 32
0.0
 14
0.0
 24
0.0
 34
0.0
 15
0.0
 25
0.0
 35
0.0
146
0.0
 13
0.0
 23
0.0
 33
0.0
 16
1.0
 26
0.0
 36
0.0
 17
0.0
 27
1.0
 37
0.0
 76
     0
330
18
331
2A84
  0
LAYOUT
  5
2ADA
102
{ACAD_XDICTIONARY
360
2B36
102
}
102
{ACAD_REACTORS
330
94
102
}
330
94
100
AcDbPlotSettings
  1

  2
Canon LBP9100C
  4

  6

 40
0.0
 41
0.0
 42
0.0
 43
0.0
 44
0.0
 45
0.0
 46
0.0
 47
0.0
 48
0.0
 49
0.0
140
0.0
141
0.0
142
1.0
143
1.0
 70
   688
 72
     0
 73
     0
 74
     5
  7

 75
    16
147
1.0
148
0.0
149
0.0
100
AcDbLayout
  1
レイアウト1
 70
     1
 71
     1
 10
0.0
 20
0.0
 11
420.0
 21
297.0
 12
0.0
 22
0.0
 32
0.0
 14
1.000000000000000E+20
 24
1.000000000000000E+20
 34
1.000000000000000E+20
 15
-1.000000000000000E+20
 25
-1.000000000000000E+20
 35
-1.000000000000000E+20
146
0.0
 13
0.0
 23
0.0
 33
0.0
 16
1.0
 26
0.0
 36
0.0
 17
0.0
 27
1.0
 37
0.0
 76
     0
330
15
  0
MATERIAL
  5
2A95
102
{ACAD_XDICTIONARY
360
2A96
102
}
102
{ACAD_REACTORS
330
2A8C
102
}
330
2A8C
100
AcDbMaterial
  1
ByBlock
 72
     0
 43
0.0208333333333333
 43
0.0
 43
0.0
 43
0.0
 43
0.0
 43
0.0208333333333333
 43
0.0
 43
0.0
 43
0.0
 43
0.0
 43
1.0
 43
0.0
 43
0.0
 43
0.0
 43
0.0
 43
1.0
 77
     0
 47
0.0208333333333333
 47
0.0
 47
0.0
 47
0.0
 47
0.0
 47
0.0208333333333333
 47
0.0
 47
0.0
 47
0.0
 47
0.0
 47
1.0
 47
0.0
 47
0.0
 47
0.0
 47
0.0
 47
1.0
171
     0
 49
0.0208333333333333
 49
0.0
 49
0.0
 49
0.0
 49
0.0
 49
0.0208333333333333
 49
0.0
 49
0.0
 49
0.0
 49
0.0
 49
1.0
 49
0.0
 49
0.0
 49
0.0
 49
0.0
 49
1.0
175
     0
142
0.0208333333333333
142
0.0
142
0.0
142
0.0
142
0.0
142
0.0208333333333333
142
0.0
142
0.0
142
0.0
142
0.0
142
1.0
142
0.0
142
0.0
142
0.0
142
0.0
142
1.0
179
     0
144
0.0208333333333333
144
0.0
144
0.0
144
0.0
144
0.0
144
0.0208333333333333
144
0.0
144
0.0
144
0.0
144
0.0
144
1.0
144
0.0
144
0.0
144
0.0
144
0.0
144
1.0
147
0.0208333333333333
147
0.0
147
0.0
147
0.0
147
0.0
147
0.0208333333333333
147
0.0
147
0.0
147
0.0
147
0.0
147
1.0
147
0.0
147
0.0
147
0.0
147
0.0
147
1.0
  0
MATERIAL
  5
2A8D
102
{ACAD_XDICTIONARY
360
2A8E
102
}
102
{ACAD_REACTORS
330
2A8C
102
}
330
2A8C
100
AcDbMaterial
  1
ByLayer
 72
     0
 43
0.0208333333333333
 43
0.0
 43
0.0
 43
0.0
 43
0.0
 43
0.0208333333333333
 43
0.0
 43
0.0
 43
0.0
 43
0.0
 43
1.0
 43
0.0
 43
0.0
 43
0.0
 43
0.0
 43
1.0
 77
     0
 47
0.0208333333333333
 47
0.0
 47
0.0
 47
0.0
 47
0.0
 47
0.0208333333333333
 47
0.0
 47
0.0
 47
0.0
 47
0.0
 47
1.0
 47
0.0
 47
0.0
 47
0.0
 47
0.0
 47
1.0
171
     0
 49
0.0208333333333333
 49
0.0
 49
0.0
 49
0.0
 49
0.0
 49
0.0208333333333333
 49
0.0
 49
0.0
 49
0.0
 49
0.0
 49
1.0
 49
0.0
 49
0.0
 49
0.0
 49
0.0
 49
1.0
175
     0
142
0.0208333333333333
142
0.0
142
0.0
142
0.0
142
0.0
142
0.0208333333333333
142
0.0
142
0.0
142
0.0
142
0.0
142
1.0
142
0.0
142
0.0
142
0.0
142
0.0
142
1.0
179
     0
144
0.0208333333333333
144
0.0
144
0.0
144
0.0
144
0.0
144
0.0208333333333333
144
0.0
144
0.0
144
0.0
144
0.0
144
1.0
144
0.0
144
0.0
144
0.0
144
0.0
144
1.0
147
0.0208333333333333
147
0.0
147
0.0
147
0.0
147
0.0
147
0.0208333333333333
147
0.0
147
0.0
147
0.0
147
0.0
147
1.0
147
0.0
147
0.0
147
0.0
147
0.0
147
1.0
  0
MATERIAL
  5
2A9D
102
{ACAD_XDICTIONARY
360
2A9E
102
}
102
{ACAD_REACTORS
330
2A8C
102
}
330
2A8C
100
AcDbMaterial
  1
Global
 72
     0
 43
0.0208333333333333
 43
0.0
 43
0.0
 43
0.0
 43
0.0
 43
0.0208333333333333
 43
0.0
 43
0.0
 43
0.0
 43
0.0
 43
1.0
 43
0.0
 43
0.0
 43
0.0
 43
0.0
 43
1.0
 77
     0
 47
0.0208333333333333
 47
0.0
 47
0.0
 47
0.0
 47
0.0
 47
0.0208333333333333
 47
0.0
 47
0.0
 47
0.0
 47
0.0
 47
1.0
 47
0.0
 47
0.0
 47
0.0
 47
0.0
 47
1.0
171
     0
 49
0.0208333333333333
 49
0.0
 49
0.0
 49
0.0
 49
0.0
 49
0.0208333333333333
 49
0.0
 49
0.0
 49
0.0
 49
0.0
 49
1.0
 49
0.0
 49
0.0
 49
0.0
 49
0.0
 49
1.0
175
     0
142
0.0208333333333333
142
0.0
142
0.0
142
0.0
142
0.0
142
0.0208333333333333
142
0.0
142
0.0
142
0.0
142
0.0
142
1.0
142
0.0
142
0.0
142
0.0
142
0.0
142
1.0
179
     0
144
0.0208333333333333
144
0.0
144
0.0
144
0.0
144
0.0
144
0.0208333333333333
144
0.0
144
0.0
144
0.0
144
0.0
144
1.0
144
0.0
144
0.0
144
0.0
144
0.0
144
1.0
147
0.0208333333333333
147
0.0
147
0.0
147
0.0
147
0.0
147
0.0208333333333333
147
0.0
147
0.0
147
0.0
147
0.0
147
1.0
147
0.0
147
0.0
147
0.0
147
0.0
147
1.0
  0
MLEADERSTYLE
  5
2AD4
102
{ACAD_REACTORS
330
2AD3
102
}
330
2AD3
100
AcDbMLeaderStyle
170
     2
171
     1
172
     0
 90
        2
 40
0.0
 41
0.0
173
     1
 91
-1056964608
340
12
 92
       -2
290
     1
 42
0.09
291
     1
 43
0.36
  3
Standard
 44
0.18
300

342
F
174
     1
178
     6
175
     1
176
     0
 93
-1056964608
 45
0.18
292
     0
297
     0
 46
0.18
 94
-1056964608
 47
1.0
 49
1.0
140
1.0
293
     1
141
0.0
294
     1
177
     0
142
1.0
295
     0
296
     0
143
0.125
1001
ACAD_MLEADERVER
1070
     2
  0
MLINESTYLE
  5
1C
102
{ACAD_REACTORS
330
1B
102
}
330
1B
100
AcDbMlineStyle
  2
STANDARD
 70
     0
  3

 62
   256
 51
90.0
 52
90.0
 71
     2
 49
0.5
 62
   256
  6
BYLAYER
 49
-0.5
 62
   256
  6
BYLAYER
  0
ACDBPLACEHOLDER
  5
2A8B
102
{ACAD_REACTORS
330
2A8A
102
}
330
2A8A
  0
SCALE
  5
2AC2
102
{ACAD_REACTORS
330
2AC1
102
}
330
2AC1
100
AcDbScale
 70
     0
300
1:1
140
1.0
141
1.0
290
     1
  0
SCALE
  5
2AC3
102
{ACAD_REACTORS
330
2AC1
102
}
330
2AC1
100
AcDbScale
 70
     0
300
1/128" = 1'-0"
140
0.0078125
141
12.0
290
     0
  0
SCALE
  5
2AC4
102
{ACAD_REACTORS
330
2AC1
102
}
330
2AC1
100
AcDbScale
 70
     0
300
1/64" = 1'-0"
140
0.015625
141
12.0
290
     0
  0
SCALE
  5
2AC5
102
{ACAD_REACTORS
330
2AC1
102
}
330
2AC1
100
AcDbScale
 70
     0
300
1/32" = 1'-0"
140
0.03125
141
12.0
290
     0
  0
SCALE
  5
2AC6
102
{ACAD_REACTORS
330
2AC1
102
}
330
2AC1
100
AcDbScale
 70
     0
300
1/16" = 1'-0"
140
0.0625
141
12.0
290
     0
  0
SCALE
  5
2AC7
102
{ACAD_REACTORS
330
2AC1
102
}
330
2AC1
100
AcDbScale
 70
     0
300
3/32" = 1'-0"
140
0.09375
141
12.0
290
     0
  0
SCALE
  5
2AC8
102
{ACAD_REACTORS
330
2AC1
102
}
330
2AC1
100
AcDbScale
 70
     0
300
1/8" = 1'-0"
140
0.125
141
12.0
290
     0
  0
SCALE
  5
2AC9
102
{ACAD_REACTORS
330
2AC1
102
}
330
2AC1
100
AcDbScale
 70
     0
300
3/16" = 1'-0"
140
0.1875
141
12.0
290
     0
  0
SCALE
  5
2ACA
102
{ACAD_REACTORS
330
2AC1
102
}
330
2AC1
100
AcDbScale
 70
     0
300
1/4" = 1'-0"
140
0.25
141
12.0
290
     0
  0
SCALE
  5
2ACB
102
{ACAD_REACTORS
330
2AC1
102
}
330
2AC1
100
AcDbScale
 70
     0
300
3/8" = 1'-0"
140
0.375
141
12.0
290
     0
  0
SCALE
  5
2ACC
102
{ACAD_REACTORS
330
2AC1
102
}
330
2AC1
100
AcDbScale
 70
     0
300
1/2" = 1'-0"
140
0.5
141
12.0
290
     0
  0
SCALE
  5
2ACD
102
{ACAD_REACTORS
330
2AC1
102
}
330
2AC1
100
AcDbScale
 70
     0
300
3/4" = 1'-0"
140
0.75
141
12.0
290
     0
  0
SCALE
  5
2ACE
102
{ACAD_REACTORS
330
2AC1
102
}
330
2AC1
100
AcDbScale
 70
     0
300
1" = 1'-0"
140
1.0
141
12.0
290
     0
  0
SCALE
  5
2ACF
102
{ACAD_REACTORS
330
2AC1
102
}
330
2AC1
100
AcDbScale
 70
     0
300
1-1/2" = 1'-0"
140
1.5
141
12.0
290
     0
  0
SCALE
  5
2AD0
102
{ACAD_REACTORS
330
2AC1
102
}
330
2AC1
100
AcDbScale
 70
     0
300
3" = 1'-0"
140
3.0
141
12.0
290
     0
  0
SCALE
  5
2AD1
102
{ACAD_REACTORS
330
2AC1
102
}
330
2AC1
100
AcDbScale
 70
     0
300
6" = 1'-0"
140
6.0
141
12.0
290
     0
  0
SCALE
  5
2AD2
102
{ACAD_REACTORS
330
2AC1
102
}
330
2AC1
100
AcDbScale
 70
     0
300
1'-0" = 1'-0"
140
12.0
141
12.0
290
     0
  0
ACDBSECTIONVIEWSTYLE
  5
2AD6
102
{ACAD_XDICTIONARY
360
2B30
102
}
102
{ACAD_REACTORS
330
2AD5
102
}
330
2AD5
100
AcDbModelDocViewStyle
 70
     0
  3
Imperial24
290
     0
100
AcDbSectionViewStyle
 70
     0
 71
     0
 90
       78
 71
     1
340
F
 40
0.24
340
0
340
0
 40
0.24
300
I, O, Q, S, X, Z
 40
0.48
 90
        3
 40
0.18
 90
        1
 71
     2
340
14
 90
       25
340
14
 90
       50
 40
0.24
 40
0.0
 40
0.24
 71
     3
340
F
 40
0.24
 90
        1
 40
0.75
 90
        1
300
%<\AcVar ViewType \f "%tc1">% %<\AcVar ViewSectionStartId>%-%<\AcVar ViewSectionEndId>%\PSCALE %<\AcVar ViewScale \f "%sn">%
 71
     4
300
ANSI31
 40
1.0
 90
        0
290
     0
290
     0
 90
        6
 40
0.0
 40
1.570796326794896
 40
0.2617993877991494
 40
1.308996938995747
 40
-0.2617993877991494
 40
1.832595714594046
  0
TABLESTYLE
  5
2AC0
102
{ACAD_XDICTIONARY
360
2AF7
102
}
102
{ACAD_REACTORS
330
2ABF
102
}
330
2ABF
100
AcDbTableStyle
  3
Standard
 70
     0
 71
     0
 40
0.06
 41
0.06
280
     0
281
     0
  7
STANDARD
140
0.18
170
     2
 62
     0
 63
     7
283
     0
274
    -2
284
     1
 64
     0
275
    -2
285
     1
 65
     0
276
    -2
286
     1
 66
     0
277
    -2
287
     1
 67
     0
278
    -2
288
     1
 68
     0
279
    -2
289
     1
 69
     0
  7
STANDARD
140
0.25
170
     5
 62
     0
 63
     7
283
     0
274
    -2
284
     1
 64
     0
275
    -2
285
     1
 65
     0
276
    -2
286
     1
 66
     0
277
    -2
287
     1
 67
     0
278
    -2
288
     1
 68
     0
279
    -2
289
     1
 69
     0
  7
STANDARD
140
0.18
170
     5
 62
     0
 63
     7
283
     0
274
    -2
284
     1
 64
     0
275
    -2
285
     1
 65
     0
276
    -2
286
     1
 66
     0
277
    -2
287
     1
 67
     0
278
    -2
288
     1
 68
     0
279
    -2
289
     1
 69
     0
  0
VISUALSTYLE
  5
2AAB
102
{ACAD_XDICTIONARY
360
2B08
102
}
102
{ACAD_REACTORS
330
2AA5
102
}
330
2AA5
100
AcDbVisualStyle
  2
2dWireframe
 70
     4
 71
     0
 72
     2
 73
     0
 90
        0
 40
-0.6
 41
-30.0
 62
     5
 63
     7
 74
     1
 91
        4
 64
     7
 65
   257
 75
     1
175
     1
 42
1.0
 92
        0
 66
   257
 43
1.0
 76
     1
 77
     6
 78
     2
 67
     7
 79
     5
170
     0
171
     0
290
     0
174
     0
 93
        1
 44
0.0
173
     0
291
     0
 45
0.0
1001
ACAD
1000
AcDbSavedByObjectVersion
1070
     0
  0
VISUALSTYLE
  5
2AAA
102
{ACAD_XDICTIONARY
360
2B06
102
}
102
{ACAD_REACTORS
330
2AA5
102
}
330
2AA5
100
AcDbVisualStyle
  2
Basic
 70
     7
 71
     1
 72
     0
 73
     1
 90
        0
 40
-0.6
 41
-30.0
 62
     5
 63
     7
 74
     0
 91
        4
 64
     7
 65
   257
 75
     1
175
     1
 42
1.0
 92
        8
 66
     7
 43
1.0
 76
     1
 77
     6
 78
     2
 67
     7
 79
     5
170
     0
171
     0
290
     0
174
     0
 93
        1
 44
0.0
173
     0
291
     1
 45
0.0
1001
ACAD
1000
AcDbSavedByObjectVersion
1070
     0
  0
VISUALSTYLE
  5
2AB1
102
{ACAD_XDICTIONARY
360
2B14
102
}
102
{ACAD_REACTORS
330
2AA5
102
}
330
2AA5
100
AcDbVisualStyle
  2
Brighten
 70
    12
 71
     2
 72
     2
 73
     0
 90
        0
 40
-0.6
 41
-30.0
 62
     5
 63
     7
 74
     1
 91
        4
 64
     7
 65
   257
 75
     1
175
     1
 42
1.0
 92
        8
 66
     7
 43
1.0
 76
     1
 77
     6
 78
     2
 67
     7
 79
     5
170
     0
171
     0
290
     0
174
     0
 93
        1
 44
50.0
173
     0
291
     1
 45
0.0
1001
ACAD
1000
AcDbSavedByObjectVersion
1070
     0
  0
VISUALSTYLE
  5
2AB5
102
{ACAD_XDICTIONARY
360
2B1C
102
}
102
{ACAD_REACTORS
330
2AA5
102
}
330
2AA5
100
AcDbVisualStyle
  2
ColorChange
 70
    16
 71
     2
 72
     2
 73
     3
 90
        0
 40
-0.6
 41
-30.0
 62
     5
 63
     8
 74
     1
 91
        4
 64
     7
 65
   257
 75
     1
175
     1
 42
1.0
 92
        8
 66
     8
 43
1.0
 76
     1
 77
     6
 78
     2
 67
     7
 79
     5
170
     0
171
     0
290
     0
174
     0
 93
        1
 44
0.0
173
     0
291
     1
 45
0.0
1001
ACAD
1000
AcDbSavedByObjectVersion
1070
     0
  0
VISUALSTYLE
  5
2AAE
102
{ACAD_XDICTIONARY
360
2B0E
102
}
102
{ACAD_REACTORS
330
2AA5
102
}
330
2AA5
100
AcDbVisualStyle
  2
Conceptual
 70
     9
 71
     3
 72
     2
 73
     0
 90
        0
 40
-0.6
 41
-30.0
 62
     5
 63
     7
 74
     2
 91
        2
 64
     7
 65
   257
 75
     1
175
     1
 42
179.0
 92
        8
 66
     7
 43
1.0
 76
     1
 77
     6
 78
     2
 67
     7
 79
     3
170
     0
171
     0
290
     0
174
     0
 93
        1
 44
0.0
173
     0
291
     0
 45
0.0
1001
ACAD
1000
AcDbSavedByObjectVersion
1070
     0
  0
VISUALSTYLE
  5
2AB0
102
{ACAD_XDICTIONARY
360
2B12
102
}
102
{ACAD_REACTORS
330
2AA5
102
}
330
2AA5
100
AcDbVisualStyle
  2
Dim
 70
    11
 71
     2
 72
     2
 73
     0
 90
        0
 40
-0.6
 41
-30.0
 62
     5
 63
     7
 74
     1
 91
        4
 64
     7
 65
   257
 75
     1
175
     1
 42
1.0
 92
        8
 66
     7
 43
1.0
 76
     1
 77
     6
 78
     2
 67
     7
 79
     5
170
     0
171
     0
290
     0
174
     0
 93
        1
 44
-50.0
173
     0
291
     1
 45
0.0
1001
ACAD
1000
AcDbSavedByObjectVersion
1070
     0
  0
VISUALSTYLE
  5
2ABD
102
{ACAD_XDICTIONARY
360
2B2C
102
}
102
{ACAD_REACTORS
330
2AA5
102
}
330
2AA5
100
AcDbVisualStyle
  2
EdgeColorOff
 70
    22
 71
     2
 72
     2
 73
     0
 90
        0
 40
-0.6
 41
-30.0
 62
     5
 63
     7
 74
     1
 91
        4
 64
     7
 65
   257
 75
     1
175
     1
 42
1.0
 92
        8
 66
     7
 43
1.0
 76
     1
 77
     6
 78
     2
 67
     7
 79
     5
170
     0
171
     0
290
     0
174
     0
 93
        1
 44
0.0
173
     0
291
     1
 45
0.0
1001
ACAD
1000
AcDbSavedByObjectVersion
1070
     0
  0
VISUALSTYLE
  5
2AB4
102
{ACAD_XDICTIONARY
360
2B1A
102
}
102
{ACAD_REACTORS
330
2AA5
102
}
330
2AA5
100
AcDbVisualStyle
  2
Facepattern
 70
    15
 71
     2
 72
     2
 73
     0
 90
        0
 40
-0.6
 41
-30.0
 62
     5
 63
     7
 74
     1
 91
        4
 64
     7
 65
   257
 75
     1
175
     1
 42
1.0
 92
        8
 66
     7
 43
1.0
 76
     1
 77
     6
 78
     2
 67
     7
 79
     5
170
     0
171
     0
290
     0
174
     0
 93
        1
 44
0.0
173
     0
291
     1
 45
0.0
1001
ACAD
1000
AcDbSavedByObjectVersion
1070
     0
  0
VISUALSTYLE
  5
2AA6
102
{ACAD_XDICTIONARY
360
2AFE
102
}
102
{ACAD_REACTORS
330
2AA5
102
}
330
2AA5
100
AcDbVisualStyle
  2
Flat
 70
     0
 71
     2
 72
     1
 73
     1
 90
        2
 40
-0.6
 41
30.0
 62
     5
 63
     7
 74
     0
 91
        0
 64
     7
 65
   257
 75
     1
175
     1
 42
1.0
 92
        8
 66
     7
 43
1.0
 76
     1
 77
     6
 78
     2
 67
     7
 79
     5
170
     0
171
     0
290
     0
174
     0
 93
       13
 44
0.0
173
     0
291
     1
 45
0.0
1001
ACAD
1000
AcDbSavedByObjectVersion
1070
     0
  0
VISUALSTYLE
  5
2AA7
102
{ACAD_XDICTIONARY
360
2B00
102
}
102
{ACAD_REACTORS
330
2AA5
102
}
330
2AA5
100
AcDbVisualStyle
  2
FlatWithEdges
 70
     1
 71
     2
 72
     1
 73
     1
 90
        2
 40
-0.6
 41
30.0
 62
     5
 63
     7
 74
     1
 91
        0
 64
     7
 65
   257
 75
     1
175
     1
 42
1.0
 92
        0
 66
   257
 43
1.0
 76
     1
 77
     6
 78
     2
 67
     7
 79
     5
170
     0
171
     0
290
     0
174
     0
 93
       13
 44
0.0
173
     0
291
     1
 45
0.0
1001
ACAD
1000
AcDbSavedByObjectVersion
1070
     0
  0
VISUALSTYLE
  5
2AA8
102
{ACAD_XDICTIONARY
360
2B02
102
}
102
{ACAD_REACTORS
330
2AA5
102
}
330
2AA5
100
AcDbVisualStyle
  2
Gouraud
 70
     2
 71
     2
 72
     2
 73
     1
 90
        2
 40
-0.6
 41
30.0
 62
     5
 63
     7
 74
     0
 91
        0
 64
     7
 65
   257
 75
     1
175
     1
 42
1.0
 92
        0
 66
     7
 43
1.0
 76
     1
 77
     6
 78
     2
 67
     7
 79
     5
170
     0
171
     0
290
     0
174
     0
 93
       13
 44
0.0
173
     0
291
     1
 45
0.0
1001
ACAD
1000
AcDbSavedByObjectVersion
1070
     0
  0
VISUALSTYLE
  5
2AA9
102
{ACAD_XDICTIONARY
360
2B04
102
}
102
{ACAD_REACTORS
330
2AA5
102
}
330
2AA5
100
AcDbVisualStyle
  2
GouraudWithEdges
 70
     3
 71
     2
 72
     2
 73
     1
 90
        2
 40
-0.6
 41
30.0
 62
     5
 63
     7
 74
     1
 91
        0
 64
     7
 65
   257
 75
     1
175
     1
 42
1.0
 92
        0
 66
   257
 43
1.0
 76
     1
 77
     6
 78
     2
 67
     7
 79
     5
170
     0
171
     0
290
     0
174
     0
 93
       13
 44
0.0
173
     0
291
     1
 45
0.0
1001
ACAD
1000
AcDbSavedByObjectVersion
1070
     0
  0
VISUALSTYLE
  5
2AAD
102
{ACAD_XDICTIONARY
360
2B0C
102
}
102
{ACAD_REACTORS
330
2AA5
102
}
330
2AA5
100
AcDbVisualStyle
  2
Hidden
 70
     6
 71
     1
 72
     2
 73
     2
 90
        0
 40
-0.6
 41
-30.0
 62
     5
 63
     7
 74
     2
 91
        2
 64
     7
 65
   257
 75
     2
175
     1
 42
40.0
 92
        0
 66
   257
 43
1.0
 76
     1
 77
     6
 78
     2
 67
     7
 79
     3
170
     0
171
     0
290
     0
174
     0
 93
        1
 44
0.0
173
     0
291
     0
 45
0.0
1001
ACAD
1000
AcDbSavedByObjectVersion
1070
     0
  0
VISUALSTYLE
  5
2ABB
102
{ACAD_XDICTIONARY
360
2B28
102
}
102
{ACAD_REACTORS
330
2AA5
102
}
330
2AA5
100
AcDbVisualStyle
  2
JitterOff
 70
    20
 71
     2
 72
     2
 73
     0
 90
        0
 40
-0.6
 41
-30.0
 62
     5
 63
     7
 74
     1
 91
        4
 64
     7
 65
   257
 75
     1
175
     1
 42
1.0
 92
       10
 66
     7
 43
1.0
 76
     1
 77
     6
 78
     2
 67
     7
 79
     5
170
     0
171
     0
290
     0
174
     0
 93
        1
 44
0.0
173
     0
291
     1
 45
0.0
1001
ACAD
1000
AcDbSavedByObjectVersion
1070
     0
  0
VISUALSTYLE
  5
2AB3
102
{ACAD_XDICTIONARY
360
2B18
102
}
102
{ACAD_REACTORS
330
2AA5
102
}
330
2AA5
100
AcDbVisualStyle
  2
Linepattern
 70
    14
 71
     2
 72
     2
 73
     0
 90
        0
 40
-0.6
 41
-30.0
 62
     5
 63
     7
 74
     1
 91
        4
 64
     7
 65
   257
 75
     7
175
     7
 42
1.0
 92
        8
 66
     7
 43
1.0
 76
     1
 77
     6
 78
     2
 67
     7
 79
     5
170
     0
171
     0
290
     0
174
     0
 93
        1
 44
0.0
173
     0
291
     1
 45
0.0
1001
ACAD
1000
AcDbSavedByObjectVersion
1070
     0
  0
VISUALSTYLE
  5
2ABC
102
{ACAD_XDICTIONARY
360
2B2A
102
}
102
{ACAD_REACTORS
330
2AA5
102
}
330
2AA5
100
AcDbVisualStyle
  2
OverhangOff
 70
    21
 71
     2
 72
     2
 73
     0
 90
        0
 40
-0.6
 41
-30.0
 62
     5
 63
     7
 74
     1
 91
        4
 64
     7
 65
   257
 75
     1
175
     1
 42
1.0
 92
        9
 66
     7
 43
1.0
 76
     1
 77
     6
 78
     2
 67
     7
 79
     5
170
     0
171
     0
290
     0
174
     0
 93
        1
 44
0.0
173
     0
291
     1
 45
0.0
1001
ACAD
1000
AcDbSavedByObjectVersion
1070
     0
  0
VISUALSTYLE
  5
2AAF
102
{ACAD_XDICTIONARY
360
2B10
102
}
102
{ACAD_REACTORS
330
2AA5
102
}
330
2AA5
100
AcDbVisualStyle
  2
Realistic
 70
     8
 71
     2
 72
     3
 73
     0
 90
        2
 40
-0.6
 41
30.0
 62
     5
 63
     7
 74
     0
 91
        0
 64
     7
 65
   257
 75
     1
175
     1
 42
1.0
 92
        8
 66
   257
 43
1.0
 76
     1
 77
     6
 78
     2
 67
     7
 79
     3
170
     0
171
     0
290
     0
174
     0
 93
       13
 44
0.0
173
     0
291
     0
 45
0.0
1001
ACAD
1000
AcDbSavedByObjectVersion
1070
     0
  0
VISUALSTYLE
  5
2ABA
102
{ACAD_XDICTIONARY
360
2B26
102
}
102
{ACAD_REACTORS
330
2AA5
102
}
330
2AA5
100
AcDbVisualStyle
  2
Shaded
 70
    27
 71
     2
 72
     2
 73
     1
 90
        2
 40
-0.6
 41
30.0
 62
     5
 63
     7
 74
     0
 91
        4
 64
     7
 65
   257
 75
     1
175
     1
 42
1.0
 92
        8
 66
   257
 43
1.0
 76
     1
 77
     6
 78
     2
 67
     8
 79
     3
170
     0
171
     0
290
     0
174
     0
 93
        5
 44
0.0
173
     0
291
     0
 45
0.0
1001
ACAD
1000
AcDbSavedByObjectVersion
1070
     0
  0
VISUALSTYLE
  5
2AB9
102
{ACAD_XDICTIONARY
360
2B24
102
}
102
{ACAD_REACTORS
330
2AA5
102
}
330
2AA5
100
AcDbVisualStyle
  2
Shaded with edges
 70
    26
 71
     2
 72
     2
 73
     1
 90
        2
 40
-0.6
 41
30.0
 62
     5
 63
     7
 74
     1
 91
       10
 64
     7
 65
   257
 75
     2
175
     1
 42
1.0
 92
        8
 66
   257
 43
1.0
 76
     1
 77
     6
 78
     2
 67
     7
 79
     3
170
     0
171
     0
290
     0
174
     0
 93
        5
 44
0.0
173
     0
291
     0
 45
0.0
1001
ACAD
1000
AcDbSavedByObjectVersion
1070
     0
  0
VISUALSTYLE
  5
2AB6
102
{ACAD_XDICTIONARY
360
2B1E
102
}
102
{ACAD_REACTORS
330
2AA5
102
}
330
2AA5
100
AcDbVisualStyle
  2
Shades of Gray
 70
    23
 71
     2
 72
     2
 73
     3
 90
        0
 40
-0.6
 41
-30.0
 62
     5
 63
     7
 74
     2
 91
        2
 64
     7
 65
     7
 75
     1
175
     1
 42
40.0
 92
        8
 66
     7
 43
1.0
 76
     1
 77
     6
 78
     2
 67
     7
 79
     3
170
     0
171
     0
290
     0
174
     0
 93
        1
 44
0.0
173
     0
291
     0
 45
0.0
1001
ACAD
1000
AcDbSavedByObjectVersion
1070
     0
  0
VISUALSTYLE
  5
2AB7
102
{ACAD_XDICTIONARY
360
2B20
102
}
102
{ACAD_REACTORS
330
2AA5
102
}
330
2AA5
100
AcDbVisualStyle
  2
Sketchy
 70
    24
 71
     1
 72
     2
 73
     2
 90
        0
 40
-0.6
 41
-30.0
 62
     5
 63
     7
 74
     2
 91
        2
 64
     7
 65
     7
 75
     1
175
     1
 42
40.0
 92
       11
 66
     7
 43
1.0
 76
     1
 77
     6
 78
     2
 67
     7
 79
     6
170
     0
171
     0
290
     0
174
     0
 93
        1
 44
0.0
173
     0
291
     0
 45
0.0
1001
ACAD
1000
AcDbSavedByObjectVersion
1070
     0
  0
VISUALSTYLE
  5
2AB2
102
{ACAD_XDICTIONARY
360
2B16
102
}
102
{ACAD_REACTORS
330
2AA5
102
}
330
2AA5
100
AcDbVisualStyle
  2
Thicken
 70
    13
 71
     2
 72
     2
 73
     0
 90
        0
 40
-0.6
 41
-30.0
 62
     5
 63
     7
 74
     1
 91
        4
 64
     7
 65
   257
 75
     1
175
     1
 42
1.0
 92
       12
 66
     7
 43
1.0
 76
     1
 77
     6
 78
     2
 67
     7
 79
     5
170
     0
171
     0
290
     0
174
     0
 93
        1
 44
0.0
173
     0
291
     1
 45
0.0
1001
ACAD
1000
AcDbSavedByObjectVersion
1070
     0
  0
VISUALSTYLE
  5
2AAC
102
{ACAD_XDICTIONARY
360
2B0A
102
}
102
{ACAD_REACTORS
330
2AA5
102
}
330
2AA5
100
AcDbVisualStyle
  2
Wireframe
 70
     5
 71
     0
 72
     2
 73
     0
 90
        0
 40
-0.6
 41
-30.0
 62
     5
 63
     7
 74
     1
 91
        4
 64
     7
 65
   257
 75
     1
175
     1
 42
1.0
 92
        0
 66
   257
 43
1.0
 76
     1
 77
     6
 78
     2
 67
     7
 79
     3
170
     0
171
     0
290
     0
174
     0
 93
        1
 44
0.0
173
     0
291
     0
 45
0.0
1001
ACAD
1000
AcDbSavedByObjectVersion
1070
     0
  0
VISUALSTYLE
  5
2AB8
102
{ACAD_XDICTIONARY
360
2B22
102
}
102
{ACAD_REACTORS
330
2AA5
102
}
330
2AA5
100
AcDbVisualStyle
  2
X-Ray
 70
    25
 71
     2
 72
     2
 73
     1
 90
        1
 40
0.5
 41
-30.0
 62
     5
 63
     7
 74
     1
 91
        0
 64
     7
 65
   257
 75
     1
175
     1
 42
1.0
 92
        8
 66
     7
 43
1.0
 76
     1
 77
     6
 78
     2
 67
     7
 79
     3
170
     0
171
     0
290
     0
174
     0
 93
       13
 44
0.0
173
     0
291
     0
 45
0.0
1001
ACAD
1000
AcDbSavedByObjectVersion
1070
     0
  0
DICTIONARYVAR
  5
2AF1
102
{ACAD_REACTORS
330
2AEC
102
}
330
2AEC
100
DictionaryVariables
280
     0
  1
1:1
  0
DICTIONARYVAR
  5
2AEE
102
{ACAD_REACTORS
330
2AEC
102
}
330
2AEC
100
DictionaryVariables
280
     0
  1
STANDARD
  0
DICTIONARYVAR
  5
2AED
102
{ACAD_REACTORS
330
2AEC
102
}
330
2AEC
100
DictionaryVariables
280
     0
  1
STANDARD
  0
DICTIONARYVAR
  5
2AEF
102
{ACAD_REACTORS
330
2AEC
102
}
330
2AEC
100
DictionaryVariables
280
     0
  1
Imperial24
  0
DICTIONARYVAR
  5
2AF0
102
{ACAD_REACTORS
330
2AEC
102
}
330
2AEC
100
DictionaryVariables
280
     0
  1
Imperial24
  0
DICTIONARYVAR
  5
2AF4
102
{ACAD_REACTORS
330
2AEC
102
}
330
2AEC
100
DictionaryVariables
280
     0
  1
1
  0
DICTIONARYVAR
  5
2AF3
102
{ACAD_REACTORS
330
2AEC
102
}
330
2AEC
100
DictionaryVariables
280
     0
  1
0
  0
DICTIONARYVAR
  5
2AF2
102
{ACAD_REACTORS
330
2AEC
102
}
330
2AEC
100
DictionaryVariables
280
     0
  1
127
  0
DICTIONARYVAR
  5
2AF5
102
{ACAD_REACTORS
330
2AEC
102
}
330
2AEC
100
DictionaryVariables
280
     0
  1
2
  0
DICTIONARY
  5
2B32
330
2AD8
100
AcDbDictionary
280
     1
281
     1
  3
ACAD_XREC_ROUNDTRIP
360
2B33
  0
DICTIONARY
  5
2B34
330
2AD9
100
AcDbDictionary
280
     1
281
     1
  3
ACAD_XREC_ROUNDTRIP
360
2B35
  0
DICTIONARY
  5
2B36
330
2ADA
100
AcDbDictionary
280
     1
281
     1
  3
ACAD_XREC_ROUNDTRIP
360
2B37
  0
DICTIONARY
  5
2A96
330
2A95
100
AcDbDictionary
280
     1
281
     1
  3
ACAD_XREC_ROUNDTRIP
360
2AFC
  3
BUMPTILE
360
2A98
  3
DIFFUSETILE
360
2A97
  3
OPACITYTILE
360
2A9B
  3
REFLECTIONTILE
360
2A9A
  3
REFRACTIONTILE
360
2A9C
  3
SPECULARTILE
360
2A99
  0
DICTIONARY
  5
2A8E
330
2A8D
100
AcDbDictionary
280
     1
281
     1
  3
ACAD_XREC_ROUNDTRIP
360
2AFB
  3
BUMPTILE
360
2A90
  3
DIFFUSETILE
360
2A8F
  3
OPACITYTILE
360
2A93
  3
REFLECTIONTILE
360
2A92
  3
REFRACTIONTILE
360
2A94
  3
SPECULARTILE
360
2A91
  0
DICTIONARY
  5
2A9E
330
2A9D
100
AcDbDictionary
280
     1
281
     1
  3
ACAD_XREC_ROUNDTRIP
360
2AFD
  3
BUMPTILE
360
2AA0
  3
DIFFUSETILE
360
2A9F
  3
OPACITYTILE
360
2AA3
  3
REFLECTIONTILE
360
2AA2
  3
REFRACTIONTILE
360
2AA4
  3
SPECULARTILE
360
2AA1
  0
DICTIONARY
  5
2B30
330
2AD6
100
AcDbDictionary
280
     1
281
     1
  3
ACAD_XREC_ROUNDTRIP
360
2B31
  0
DICTIONARY
  5
2AF7
330
2AC0
100
AcDbDictionary
280
     1
281
     1
  3
ACAD_ROUNDTRIP_2008_TABLESTYLE_CELLSTYLEMAP
360
2AF8
  3
ACAD_XREC_ROUNDTRIP
360
2B2E
  0
DICTIONARY
  5
2B08
330
2AAB
100
AcDbDictionary
280
     1
281
     1
  3
ACAD_XREC_ROUNDTRIP
360
2B09
  0
DICTIONARY
  5
2B06
330
2AAA
100
AcDbDictionary
280
     1
281
     1
  3
ACAD_XREC_ROUNDTRIP
360
2B07
  0
DICTIONARY
  5
2B14
330
2AB1
100
AcDbDictionary
280
     1
281
     1
  3
ACAD_XREC_ROUNDTRIP
360
2B15
  0
DICTIONARY
  5
2B1C
330
2AB5
100
AcDbDictionary
280
     1
281
     1
  3
ACAD_XREC_ROUNDTRIP
360
2B1D
  0
DICTIONARY
  5
2B0E
330
2AAE
100
AcDbDictionary
280
     1
281
     1
  3
ACAD_XREC_ROUNDTRIP
360
2B0F
  0
DICTIONARY
  5
2B12
330
2AB0
100
AcDbDictionary
280
     1
281
     1
  3
ACAD_XREC_ROUNDTRIP
360
2B13
  0
DICTIONARY
  5
2B2C
330
2ABD
100
AcDbDictionary
280
     1
281
     1
  3
ACAD_XREC_ROUNDTRIP
360
2B2D
  0
DICTIONARY
  5
2B1A
330
2AB4
100
AcDbDictionary
280
     1
281
     1
  3
ACAD_XREC_ROUNDTRIP
360
2B1B
  0
DICTIONARY
  5
2AFE
330
2AA6
100
AcDbDictionary
280
     1
281
     1
  3
ACAD_XREC_ROUNDTRIP
360
2AFF
  0
DICTIONARY
  5
2B00
330
2AA7
100
AcDbDictionary
280
     1
281
     1
  3
ACAD_XREC_ROUNDTRIP
360
2B01
  0
DICTIONARY
  5
2B02
330
2AA8
100
AcDbDictionary
280
     1
281
     1
  3
ACAD_XREC_ROUNDTRIP
360
2B03
  0
DICTIONARY
  5
2B04
330
2AA9
100
AcDbDictionary
280
     1
281
     1
  3
ACAD_XREC_ROUNDTRIP
360
2B05
  0
DICTIONARY
  5
2B0C
330
2AAD
100
AcDbDictionary
280
     1
281
     1
  3
ACAD_XREC_ROUNDTRIP
360
2B0D
  0
DICTIONARY
  5
2B28
330
2ABB
100
AcDbDictionary
280
     1
281
     1
  3
ACAD_XREC_ROUNDTRIP
360
2B29
  0
DICTIONARY
  5
2B18
330
2AB3
100
AcDbDictionary
280
     1
281
     1
  3
ACAD_XREC_ROUNDTRIP
360
2B19
  0
DICTIONARY
  5
2B2A
330
2ABC
100
AcDbDictionary
280
     1
281
     1
  3
ACAD_XREC_ROUNDTRIP
360
2B2B
  0
DICTIONARY
  5
2B10
330
2AAF
100
AcDbDictionary
280
     1
281
     1
  3
ACAD_XREC_ROUNDTRIP
360
2B11
  0
DICTIONARY
  5
2B26
330
2ABA
100
AcDbDictionary
280
     1
281
     1
  3
ACAD_XREC_ROUNDTRIP
360
2B27
  0
DICTIONARY
  5
2B24
330
2AB9
100
AcDbDictionary
280
     1
281
     1
  3
ACAD_XREC_ROUNDTRIP
360
2B25
  0
DICTIONARY
  5
2B1E
330
2AB6
100
AcDbDictionary
280
     1
281
     1
  3
ACAD_XREC_ROUNDTRIP
360
2B1F
  0
DICTIONARY
  5
2B20
330
2AB7
100
AcDbDictionary
280
     1
281
     1
  3
ACAD_XREC_ROUNDTRIP
360
2B21
  0
DICTIONARY
  5
2B16
330
2AB2
100
AcDbDictionary
280
     1
281
     1
  3
ACAD_XREC_ROUNDTRIP
360
2B17
  0
DICTIONARY
  5
2B0A
330
2AAC
100
AcDbDictionary
280
     1
281
     1
  3
ACAD_XREC_ROUNDTRIP
360
2B0B
  0
DICTIONARY
  5
2B22
330
2AB8
100
AcDbDictionary
280
     1
281
     1
  3
ACAD_XREC_ROUNDTRIP
360
2B23
  0
XRECORD
  5
2B33
102
{ACAD_REACTORS
330
2B32
102
}
330
2B32
100
AcDbXrecord
280
     1
102
DISPLAYNAME
  1
Imperial24
102
FLAGS
 90
        0
  0
XRECORD
  5
2B35
102
{ACAD_REACTORS
330
2B34
102
}
330
2B34
100
AcDbXrecord
280
     1
102
SHADEPLOT
 70
     0
102
SHADEPLOTRESLEVEL
 70
     2
102
SHADEPLOTCUSTOMDPI
 70
   300
  0
XRECORD
  5
2B37
102
{ACAD_REACTORS
330
2B36
102
}
330
2B36
100
AcDbXrecord
280
     1
102
SHADEPLOT
 70
     0
102
SHADEPLOTRESLEVEL
 70
     2
102
SHADEPLOTCUSTOMDPI
 70
   300
  0
XRECORD
  5
2AFC
102
{ACAD_REACTORS
330
2A96
102
}
330
2A96
100
AcDbXrecord
280
     1
102
MATERIAL
148
0.0
149
0.0
149
0.0
 93
        0
 94
      127
282
     0
 72
     0
 77
     0
171
     0
175
     0
179
     0
273
     0
  0
XRECORD
  5
2A98
102
{ACAD_REACTORS
330
2A96
102
}
330
2A96
100
AcDbXrecord
280
     1
270
     1
271
     1
  0
XRECORD
  5
2A97
102
{ACAD_REACTORS
330
2A96
102
}
330
2A96
100
AcDbXrecord
280
     1
270
     1
271
     1
  0
XRECORD
  5
2A9B
102
{ACAD_REACTORS
330
2A96
102
}
330
2A96
100
AcDbXrecord
280
     1
270
     1
271
     1
  0
XRECORD
  5
2A9A
102
{ACAD_REACTORS
330
2A96
102
}
330
2A96
100
AcDbXrecord
280
     1
270
     1
271
     1
  0
XRECORD
  5
2A9C
102
{ACAD_REACTORS
330
2A96
102
}
330
2A96
100
AcDbXrecord
280
     1
270
     1
271
     1
  0
XRECORD
  5
2A99
102
{ACAD_REACTORS
330
2A96
102
}
330
2A96
100
AcDbXrecord
280
     1
270
     1
271
     1
  0
XRECORD
  5
2AFB
102
{ACAD_REACTORS
330
2A8E
102
}
330
2A8E
100
AcDbXrecord
280
     1
102
MATERIAL
148
0.0
149
0.0
149
0.0
 93
        0
 94
      127
282
     0
 72
     0
 77
     0
171
     0
175
     0
179
     0
273
     0
  0
XRECORD
  5
2A90
102
{ACAD_REACTORS
330
2A8E
102
}
330
2A8E
100
AcDbXrecord
280
     1
270
     1
271
     1
  0
XRECORD
  5
2A8F
102
{ACAD_REACTORS
330
2A8E
102
}
330
2A8E
100
AcDbXrecord
280
     1
270
     1
271
     1
  0
XRECORD
  5
2A93
102
{ACAD_REACTORS
330
2A8E
102
}
330
2A8E
100
AcDbXrecord
280
     1
270
     1
271
     1
  0
XRECORD
  5
2A92
102
{ACAD_REACTORS
330
2A8E
102
}
330
2A8E
100
AcDbXrecord
280
     1
270
     1
271
     1
  0
XRECORD
  5
2A94
102
{ACAD_REACTORS
330
2A8E
102
}
330
2A8E
100
AcDbXrecord
280
     1
270
     1
271
     1
  0
XRECORD
  5
2A91
102
{ACAD_REACTORS
330
2A8E
102
}
330
2A8E
100
AcDbXrecord
280
     1
270
     1
271
     1
  0
XRECORD
  5
2AFD
102
{ACAD_REACTORS
330
2A9E
102
}
330
2A9E
100
AcDbXrecord
280
     1
102
MATERIAL
148
0.0
149
0.0
149
0.0
 93
        0
 94
      127
282
     0
 72
     0
 77
     0
171
     0
175
     0
179
     0
273
     0
  0
XRECORD
  5
2AA0
102
{ACAD_REACTORS
330
2A9E
102
}
330
2A9E
100
AcDbXrecord
280
     1
270
     1
271
     1
  0
XRECORD
  5
2A9F
102
{ACAD_REACTORS
330
2A9E
102
}
330
2A9E
100
AcDbXrecord
280
     1
270
     1
271
     1
  0
XRECORD
  5
2AA3
102
{ACAD_REACTORS
330
2A9E
102
}
330
2A9E
100
AcDbXrecord
280
     1
270
     1
271
     1
  0
XRECORD
  5
2AA2
102
{ACAD_REACTORS
330
2A9E
102
}
330
2A9E
100
AcDbXrecord
280
     1
270
     1
271
     1
  0
XRECORD
  5
2AA4
102
{ACAD_REACTORS
330
2A9E
102
}
330
2A9E
100
AcDbXrecord
280
     1
270
     1
271
     1
  0
XRECORD
  5
2AA1
102
{ACAD_REACTORS
330
2A9E
102
}
330
2A9E
100
AcDbXrecord
280
     1
270
     1
271
     1
  0
XRECORD
  5
2B31
102
{ACAD_REACTORS
330
2B30
102
}
330
2B30
100
AcDbXrecord
280
     1
102
DISPLAYNAME
  1
Imperial24
102
FLAGS
 90
        0
  0
CELLSTYLEMAP
  5
2AF8
102
{ACAD_REACTORS
330
2AF7
102
}
330
2AF7
100
AcDbCellStyleMap
 90
        3
300
CELLSTYLE
  1
TABLEFORMAT_BEGIN
 90
        5
170
     1
 91
        0
 92
    32768
 62
   257
 93
        1
300
CONTENTFORMAT
  1
CONTENTFORMAT_BEGIN
 90
        0
 91
        0
 92
      512
 93
        0
300

 40
0.0
140
1.0
 94
        5
 62
     0
340
F
144
0.25
309
CONTENTFORMAT_END
171
     0
 94
        0
309
TABLEFORMAT_END
  1
CELLSTYLE_BEGIN
 90
        1
 91
        1
300
_TITLE
309
CELLSTYLE_END
300
CELLSTYLE
  1
TABLEFORMAT_BEGIN
 90
        5
170
     1
 91
        0
 92
        0
 62
   257
 93
        1
300
CONTENTFORMAT
  1
CONTENTFORMAT_BEGIN
 90
        0
 91
        0
 92
      512
 93
        0
300

 40
0.0
140
1.0
 94
        5
 62
     0
340
F
144
0.18
309
CONTENTFORMAT_END
171
     0
 94
        0
309
TABLEFORMAT_END
  1
CELLSTYLE_BEGIN
 90
        2
 91
        1
300
_HEADER
309
CELLSTYLE_END
300
CELLSTYLE
  1
TABLEFORMAT_BEGIN
 90
        5
170
     1
 91
        0
 92
        0
 62
   257
 93
        1
300
CONTENTFORMAT
  1
CONTENTFORMAT_BEGIN
 90
        0
 91
        0
 92
      512
 93
        0
300

 40
0.0
140
1.0
 94
        2
 62
     0
340
F
144
0.18
309
CONTENTFORMAT_END
171
     0
 94
        0
309
TABLEFORMAT_END
  1
CELLSTYLE_BEGIN
 90
        3
 91
        2
300
_DATA
309
CELLSTYLE_END
  0
XRECORD
  5
2B2E
102
{ACAD_REACTORS
330
2AF7
102
}
330
2AF7
100
AcDbXrecord
280
     1
102
ACAD_ROUNDTRIP_PRE2007_TABLESTYLE
 90
      512
 91
        0
  1

 92
      512
 93
        0
  2

 94
      512
 95
        0
  3

  0
XRECORD
  5
2B09
102
{ACAD_REACTORS
330
2B08
102
}
330
2B08
100
AcDbXrecord
280
     1
102
RTVSPost2010Prop28
280
     1
102
RTVSPost2010PropOp28
 70
     1
102
RTVSPost2010Prop29
280
     1
102
RTVSPost2010PropOp29
 70
     1
102
RTVSPost2010Prop30
280
     0
102
RTVSPost2010PropOp30
 70
     1
102
RTVSPost2010Prop31
280
     0
102
RTVSPost2010PropOp31
 70
     1
102
RTVSPost2010Prop32
280
     0
102
RTVSPost2010PropOp32
 70
     1
102
RTVSPost2010Prop33
280
     0
102
RTVSPost2010PropOp33
 70
     1
102
RTVSPost2010Prop34
280
     0
102
RTVSPost2010PropOp34
 70
     1
102
RTVSPost2010Prop35
280
     0
102
RTVSPost2010PropOp35
 70
     1
102
RTVSPost2010Prop36
280
     0
102
RTVSPost2010PropOp36
 70
     1
102
RTVSPost2010Prop37
 90
       50
102
RTVSPost2010PropOp37
 70
     1
102
RTVSPost2010Prop38
140
0.0
102
RTVSPost2010PropOp38
 70
     1
102
RTVSPost2010Prop39
140
1.0
102
RTVSPost2010PropOp39
 70
     1
102
RTVSPost2010Prop40
 90
        0
102
RTVSPost2010PropOp40
 70
     1
102
RTVSPost2010Prop41ColorIndex
 90
       18
102
RTVSPost2010Prop41ColorRGB
 90
        0
102
RTVSPost2010PropOp41
 70
     1
102
RTVSPost2010Prop42
 90
       50
102
RTVSPost2010PropOp42
 70
     1
102
RTVSPost2010Prop43
 90
        3
102
RTVSPost2010PropOp43
 70
     1
102
RTVSPost2010Prop44ColorIndex
 90
        5
102
RTVSPost2010Prop44ColorRGB
 90
      255
102
RTVSPost2010PropOp44
 70
     1
102
RTVSPost2010Prop45
280
     0
102
RTVSPost2010PropOp45
 70
     1
102
RTVSPost2010Prop46
 90
       50
102
RTVSPost2010PropOp46
 70
     1
102
RTVSPost2010Prop47
 90
       50
102
RTVSPost2010PropOp47
 70
     1
102
RTVSPost2010Prop48
 90
       50
102
RTVSPost2010PropOp48
 70
     1
102
RTVSPost2010Prop49
280
     0
102
RTVSPost2010PropOp49
 70
     1
102
RTVSPost2010Prop50
 90
       50
102
RTVSPost2010PropOp50
 70
     1
102
RTVSPost2010Prop51ColorIndex
 90
      256
102
RTVSPost2010Prop51ColorRGB
 90
-16777216
102
RTVSPost2010PropOp51
 70
     0
102
RTVSPost2010Prop52
140
1.0
102
RTVSPost2010PropOp52
 70
     0
102
RTVSPost2010Prop53
 90
        2
102
RTVSPost2010PropOp53
 70
     1
102
RTVSPost2010Prop54
  1
strokes_ogs.tif
102
RTVSPost2010PropOp54
 70
     1
102
RTVSPost2010Prop55
280
     0
102
RTVSPost2010PropOp55
 70
     1
102
RTVSPost2010Prop56
140
1.0
102
RTVSPost2010PropOp56
 70
     1
102
RTVSPost2010Prop57
140
1.0
102
RTVSPost2010PropOp57
 70
     1
102
RTVSPropertyOp0
 70
     1
102
RTVSPropertyOp1
 70
     1
102
RTVSPropertyOp2
 70
     1
102
RTVSPropertyOp3
 70
     1
102
RTVSPropertyOp4
 70
     1
102
RTVSPropertyOp5
 70
     1
102
RTVSPropertyOp6
 70
     1
102
RTVSPropertyOp7
 70
     1
102
RTVSPropertyOp8
 70
     1
102
RTVSPropertyOp9
 70
     1
102
RTVSPropertyOp10
 70
     1
102
RTVSPropertyOp11
 70
     1
102
RTVSPropertyOp12
 70
     1
102
RTVSPropertyOp13
 70
     1
102
RTVSPropertyOp14
 70
     1
102
RTVSPropertyOp15
 70
     1
102
RTVSPropertyOp16
 70
     1
102
RTVSPropertyOp17
 70
     1
102
RTVSPropertyOp18
 70
     1
102
RTVSPropertyOp19
 70
     1
102
RTVSPropertyOp20
 70
     1
102
RTVSPropertyOp21
 70
     1
102
RTVSPropertyOp22
 70
     1
102
RTVSPropertyOp23
 70
     1
102
RTVSPropertyOp24
 70
     1
102
RTVSPropertyOp25
 70
     1
102
RTVSPropertyOp26
 70
     1
102
RTVSPropertyOp27
 70
     1
102
RTVSPropertyOp28
 70
     1
102
RTVSPropertyOp29
 70
     1
102
RTVSPropertyOp30
 70
     1
102
RTVSPropertyOp31
 70
     1
102
RTVSPropertyOp32
 70
     1
102
RTVSPropertyOp33
 70
     1
102
RTVSPropertyOp34
 70
     1
102
RTVSPropertyOp35
 70
     1
102
RTVSPropertyOp36
 70
     1
102
RTVSPropertyOp37
 70
     1
102
RTVSPropertyOp38
 70
     1
102
RTVSPropertyOp39
 70
     1
102
RTVSPropertyOp40
 70
     1
102
RTVSPropertyOp41
 70
     1
102
RTVSPropertyOp42
 70
     1
102
RTVSPropertyOp43
 70
     1
102
RTVSPropertyOp44
 70
     1
102
RTVSPropertyOp45
 70
     1
102
RTVSPropertyOp46
 70
     1
102
RTVSPropertyOp47
 70
     1
102
RTVSPropertyOp48
 70
     1
102
RTVSPropertyOp49
 70
     1
102
RTVSPropertyOp50
 70
     1
102
RTVSPropertyOp51
 70
     0
102
RTVSPropertyOp52
 70
     0
102
RTVSPropertyOp53
 70
     1
102
RTVSPropertyOp54
 70
     1
102
RTVSPropertyOp55
 70
     1
102
RTVSPropertyOp56
 70
     1
102
RTVSPropertyOp57
 70
     1
102
RTVSPropertyOp58
 70
     1
102
RTVSPropertyOp59
 70
     1
102
RTVSPropertyOp60
 70
     1
102
RTVSPropertyOp61
 70
     1
102
RTVSPropertyOp62
 70
     1
  0
XRECORD
  5
2B07
102
{ACAD_REACTORS
330
2B06
102
}
330
2B06
100
AcDbXrecord
280
     1
102
RTVSPost2010Prop28
280
     0
102
RTVSPost2010PropOp28
 70
     1
102
RTVSPost2010Prop29
280
     1
102
RTVSPost2010PropOp29
 70
     1
102
RTVSPost2010Prop30
280
     1
102
RTVSPost2010PropOp30
 70
     1
102
RTVSPost2010Prop31
280
     0
102
RTVSPost2010PropOp31
 70
     1
102
RTVSPost2010Prop32
280
     0
102
RTVSPost2010PropOp32
 70
     1
102
RTVSPost2010Prop33
280
     0
102
RTVSPost2010PropOp33
 70
     1
102
RTVSPost2010Prop34
280
     0
102
RTVSPost2010PropOp34
 70
     1
102
RTVSPost2010Prop35
280
     0
102
RTVSPost2010PropOp35
 70
     1
102
RTVSPost2010Prop36
280
     0
102
RTVSPost2010PropOp36
 70
     1
102
RTVSPost2010Prop37
 90
       50
102
RTVSPost2010PropOp37
 70
     1
102
RTVSPost2010Prop38
140
0.0
102
RTVSPost2010PropOp38
 70
     1
102
RTVSPost2010Prop39
140
1.0
102
RTVSPost2010PropOp39
 70
     1
102
RTVSPost2010Prop40
 90
        0
102
RTVSPost2010PropOp40
 70
     1
102
RTVSPost2010Prop41ColorIndex
 90
       18
102
RTVSPost2010Prop41ColorRGB
 90
        0
102
RTVSPost2010PropOp41
 70
     1
102
RTVSPost2010Prop42
 90
       50
102
RTVSPost2010PropOp42
 70
     1
102
RTVSPost2010Prop43
 90
        3
102
RTVSPost2010PropOp43
 70
     1
102
RTVSPost2010Prop44ColorIndex
 90
        5
102
RTVSPost2010Prop44ColorRGB
 90
      255
102
RTVSPost2010PropOp44
 70
     1
102
RTVSPost2010Prop45
280
     0
102
RTVSPost2010PropOp45
 70
     1
102
RTVSPost2010Prop46
 90
       50
102
RTVSPost2010PropOp46
 70
     1
102
RTVSPost2010Prop47
 90
       50
102
RTVSPost2010PropOp47
 70
     1
102
RTVSPost2010Prop48
 90
       50
102
RTVSPost2010PropOp48
 70
     1
102
RTVSPost2010Prop49
280
     0
102
RTVSPost2010PropOp49
 70
     1
102
RTVSPost2010Prop50
 90
       50
102
RTVSPost2010PropOp50
 70
     1
102
RTVSPost2010Prop51ColorIndex
 90
      256
102
RTVSPost2010Prop51ColorRGB
 90
-16777216
102
RTVSPost2010PropOp51
 70
     0
102
RTVSPost2010Prop52
140
1.0
102
RTVSPost2010PropOp52
 70
     0
102
RTVSPost2010Prop53
 90
        2
102
RTVSPost2010PropOp53
 70
     1
102
RTVSPost2010Prop54
  1
strokes_ogs.tif
102
RTVSPost2010PropOp54
 70
     1
102
RTVSPost2010Prop55
280
     0
102
RTVSPost2010PropOp55
 70
     1
102
RTVSPost2010Prop56
140
1.0
102
RTVSPost2010PropOp56
 70
     1
102
RTVSPost2010Prop57
140
1.0
102
RTVSPost2010PropOp57
 70
     1
102
RTVSPropertyOp0
 70
     1
102
RTVSPropertyOp1
 70
     1
102
RTVSPropertyOp2
 70
     1
102
RTVSPropertyOp3
 70
     1
102
RTVSPropertyOp4
 70
     1
102
RTVSPropertyOp5
 70
     1
102
RTVSPropertyOp6
 70
     1
102
RTVSPropertyOp7
 70
     1
102
RTVSPropertyOp8
 70
     1
102
RTVSPropertyOp9
 70
     1
102
RTVSPropertyOp10
 70
     1
102
RTVSPropertyOp11
 70
     1
102
RTVSPropertyOp12
 70
     1
102
RTVSPropertyOp13
 70
     1
102
RTVSPropertyOp14
 70
     1
102
RTVSPropertyOp15
 70
     1
102
RTVSPropertyOp16
 70
     1
102
RTVSPropertyOp17
 70
     1
102
RTVSPropertyOp18
 70
     1
102
RTVSPropertyOp19
 70
     1
102
RTVSPropertyOp20
 70
     1
102
RTVSPropertyOp21
 70
     1
102
RTVSPropertyOp22
 70
     1
102
RTVSPropertyOp23
 70
     1
102
RTVSPropertyOp24
 70
     1
102
RTVSPropertyOp25
 70
     1
102
RTVSPropertyOp26
 70
     1
102
RTVSPropertyOp27
 70
     1
102
RTVSPropertyOp28
 70
     1
102
RTVSPropertyOp29
 70
     1
102
RTVSPropertyOp30
 70
     1
102
RTVSPropertyOp31
 70
     1
102
RTVSPropertyOp32
 70
     1
102
RTVSPropertyOp33
 70
     1
102
RTVSPropertyOp34
 70
     1
102
RTVSPropertyOp35
 70
     1
102
RTVSPropertyOp36
 70
     1
102
RTVSPropertyOp37
 70
     1
102
RTVSPropertyOp38
 70
     1
102
RTVSPropertyOp39
 70
     1
102
RTVSPropertyOp40
 70
     1
102
RTVSPropertyOp41
 70
     1
102
RTVSPropertyOp42
 70
     1
102
RTVSPropertyOp43
 70
     1
102
RTVSPropertyOp44
 70
     1
102
RTVSPropertyOp45
 70
     1
102
RTVSPropertyOp46
 70
     1
102
RTVSPropertyOp47
 70
     1
102
RTVSPropertyOp48
 70
     1
102
RTVSPropertyOp49
 70
     1
102
RTVSPropertyOp50
 70
     1
102
RTVSPropertyOp51
 70
     0
102
RTVSPropertyOp52
 70
     0
102
RTVSPropertyOp53
 70
     1
102
RTVSPropertyOp54
 70
     1
102
RTVSPropertyOp55
 70
     1
102
RTVSPropertyOp56
 70
     1
102
RTVSPropertyOp57
 70
     1
102
RTVSPropertyOp58
 70
     1
102
RTVSPropertyOp59
 70
     1
102
RTVSPropertyOp60
 70
     1
102
RTVSPropertyOp61
 70
     1
102
RTVSPropertyOp62
 70
     1
  0
XRECORD
  5
2B15
102
{ACAD_REACTORS
330
2B14
102
}
330
2B14
100
AcDbXrecord
280
     1
102
RTVSPost2010Prop28
280
     0
102
RTVSPost2010PropOp28
 70
     1
102
RTVSPost2010Prop29
280
     1
102
RTVSPost2010PropOp29
 70
     1
102
RTVSPost2010Prop30
280
     1
102
RTVSPost2010PropOp30
 70
     1
102
RTVSPost2010Prop31
280
     0
102
RTVSPost2010PropOp31
 70
     1
102
RTVSPost2010Prop32
280
     0
102
RTVSPost2010PropOp32
 70
     1
102
RTVSPost2010Prop33
280
     0
102
RTVSPost2010PropOp33
 70
     1
102
RTVSPost2010Prop34
280
     0
102
RTVSPost2010PropOp34
 70
     1
102
RTVSPost2010Prop35
280
     0
102
RTVSPost2010PropOp35
 70
     1
102
RTVSPost2010Prop36
280
     0
102
RTVSPost2010PropOp36
 70
     1
102
RTVSPost2010Prop37
 90
       50
102
RTVSPost2010PropOp37
 70
     1
102
RTVSPost2010Prop38
140
0.0
102
RTVSPost2010PropOp38
 70
     1
102
RTVSPost2010Prop39
140
1.0
102
RTVSPost2010PropOp39
 70
     1
102
RTVSPost2010Prop40
 90
        0
102
RTVSPost2010PropOp40
 70
     1
102
RTVSPost2010Prop41ColorIndex
 90
       18
102
RTVSPost2010Prop41ColorRGB
 90
        0
102
RTVSPost2010PropOp41
 70
     1
102
RTVSPost2010Prop42
 90
       50
102
RTVSPost2010PropOp42
 70
     1
102
RTVSPost2010Prop43
 90
        3
102
RTVSPost2010PropOp43
 70
     1
102
RTVSPost2010Prop44ColorIndex
 90
        5
102
RTVSPost2010Prop44ColorRGB
 90
      255
102
RTVSPost2010PropOp44
 70
     1
102
RTVSPost2010Prop45
280
     0
102
RTVSPost2010PropOp45
 70
     1
102
RTVSPost2010Prop46
 90
       50
102
RTVSPost2010PropOp46
 70
     1
102
RTVSPost2010Prop47
 90
       50
102
RTVSPost2010PropOp47
 70
     1
102
RTVSPost2010Prop48
 90
       50
102
RTVSPost2010PropOp48
 70
     1
102
RTVSPost2010Prop49
280
     0
102
RTVSPost2010PropOp49
 70
     1
102
RTVSPost2010Prop50
 90
       50
102
RTVSPost2010PropOp50
 70
     1
102
RTVSPost2010Prop51ColorIndex
 90
      256
102
RTVSPost2010Prop51ColorRGB
 90
-16777216
102
RTVSPost2010PropOp51
 70
     0
102
RTVSPost2010Prop52
140
1.0
102
RTVSPost2010PropOp52
 70
     0
102
RTVSPost2010Prop53
 90
        2
102
RTVSPost2010PropOp53
 70
     1
102
RTVSPost2010Prop54
  1
strokes_ogs.tif
102
RTVSPost2010PropOp54
 70
     1
102
RTVSPost2010Prop55
280
     0
102
RTVSPost2010PropOp55
 70
     1
102
RTVSPost2010Prop56
140
1.0
102
RTVSPost2010PropOp56
 70
     1
102
RTVSPost2010Prop57
140
1.0
102
RTVSPost2010PropOp57
 70
     1
102
RTVSPropertyOp0
 70
     1
102
RTVSPropertyOp1
 70
     1
102
RTVSPropertyOp2
 70
     1
102
RTVSPropertyOp3
 70
     1
102
RTVSPropertyOp4
 70
     1
102
RTVSPropertyOp5
 70
     1
102
RTVSPropertyOp6
 70
     1
102
RTVSPropertyOp7
 70
     1
102
RTVSPropertyOp8
 70
     1
102
RTVSPropertyOp9
 70
     1
102
RTVSPropertyOp10
 70
     1
102
RTVSPropertyOp11
 70
     1
102
RTVSPropertyOp12
 70
     1
102
RTVSPropertyOp13
 70
     1
102
RTVSPropertyOp14
 70
     1
102
RTVSPropertyOp15
 70
     1
102
RTVSPropertyOp16
 70
     1
102
RTVSPropertyOp17
 70
     1
102
RTVSPropertyOp18
 70
     1
102
RTVSPropertyOp19
 70
     1
102
RTVSPropertyOp20
 70
     1
102
RTVSPropertyOp21
 70
     1
102
RTVSPropertyOp22
 70
     1
102
RTVSPropertyOp23
 70
     1
102
RTVSPropertyOp24
 70
     1
102
RTVSPropertyOp25
 70
     1
102
RTVSPropertyOp26
 70
     1
102
RTVSPropertyOp27
 70
     1
102
RTVSPropertyOp28
 70
     1
102
RTVSPropertyOp29
 70
     1
102
RTVSPropertyOp30
 70
     1
102
RTVSPropertyOp31
 70
     1
102
RTVSPropertyOp32
 70
     1
102
RTVSPropertyOp33
 70
     1
102
RTVSPropertyOp34
 70
     1
102
RTVSPropertyOp35
 70
     1
102
RTVSPropertyOp36
 70
     1
102
RTVSPropertyOp37
 70
     1
102
RTVSPropertyOp38
 70
     1
102
RTVSPropertyOp39
 70
     1
102
RTVSPropertyOp40
 70
     1
102
RTVSPropertyOp41
 70
     1
102
RTVSPropertyOp42
 70
     1
102
RTVSPropertyOp43
 70
     1
102
RTVSPropertyOp44
 70
     1
102
RTVSPropertyOp45
 70
     1
102
RTVSPropertyOp46
 70
     1
102
RTVSPropertyOp47
 70
     1
102
RTVSPropertyOp48
 70
     1
102
RTVSPropertyOp49
 70
     1
102
RTVSPropertyOp50
 70
     1
102
RTVSPropertyOp51
 70
     0
102
RTVSPropertyOp52
 70
     0
102
RTVSPropertyOp53
 70
     1
102
RTVSPropertyOp54
 70
     1
102
RTVSPropertyOp55
 70
     1
102
RTVSPropertyOp56
 70
     1
102
RTVSPropertyOp57
 70
     1
102
RTVSPropertyOp58
 70
     1
102
RTVSPropertyOp59
 70
     1
102
RTVSPropertyOp60
 70
     1
102
RTVSPropertyOp61
 70
     1
102
RTVSPropertyOp62
 70
     1
  0
XRECORD
  5
2B1D
102
{ACAD_REACTORS
330
2B1C
102
}
330
2B1C
100
AcDbXrecord
280
     1
102
RTVSPost2010Prop28
280
     0
102
RTVSPost2010PropOp28
 70
     1
102
RTVSPost2010Prop29
280
     1
102
RTVSPost2010PropOp29
 70
     1
102
RTVSPost2010Prop30
280
     1
102
RTVSPost2010PropOp30
 70
     1
102
RTVSPost2010Prop31
280
     0
102
RTVSPost2010PropOp31
 70
     1
102
RTVSPost2010Prop32
280
     0
102
RTVSPost2010PropOp32
 70
     1
102
RTVSPost2010Prop33
280
     0
102
RTVSPost2010PropOp33
 70
     1
102
RTVSPost2010Prop34
280
     0
102
RTVSPost2010PropOp34
 70
     1
102
RTVSPost2010Prop35
280
     0
102
RTVSPost2010PropOp35
 70
     1
102
RTVSPost2010Prop36
280
     0
102
RTVSPost2010PropOp36
 70
     1
102
RTVSPost2010Prop37
 90
       50
102
RTVSPost2010PropOp37
 70
     1
102
RTVSPost2010Prop38
140
0.0
102
RTVSPost2010PropOp38
 70
     1
102
RTVSPost2010Prop39
140
1.0
102
RTVSPost2010PropOp39
 70
     1
102
RTVSPost2010Prop40
 90
        0
102
RTVSPost2010PropOp40
 70
     1
102
RTVSPost2010Prop41ColorIndex
 90
       18
102
RTVSPost2010Prop41ColorRGB
 90
        0
102
RTVSPost2010PropOp41
 70
     1
102
RTVSPost2010Prop42
 90
       50
102
RTVSPost2010PropOp42
 70
     1
102
RTVSPost2010Prop43
 90
        3
102
RTVSPost2010PropOp43
 70
     1
102
RTVSPost2010Prop44ColorIndex
 90
        5
102
RTVSPost2010Prop44ColorRGB
 90
      255
102
RTVSPost2010PropOp44
 70
     1
102
RTVSPost2010Prop45
280
     0
102
RTVSPost2010PropOp45
 70
     1
102
RTVSPost2010Prop46
 90
       50
102
RTVSPost2010PropOp46
 70
     1
102
RTVSPost2010Prop47
 90
       50
102
RTVSPost2010PropOp47
 70
     1
102
RTVSPost2010Prop48
 90
       50
102
RTVSPost2010PropOp48
 70
     1
102
RTVSPost2010Prop49
280
     0
102
RTVSPost2010PropOp49
 70
     1
102
RTVSPost2010Prop50
 90
       50
102
RTVSPost2010PropOp50
 70
     1
102
RTVSPost2010Prop51ColorIndex
 90
      256
102
RTVSPost2010Prop51ColorRGB
 90
-16777216
102
RTVSPost2010PropOp51
 70
     0
102
RTVSPost2010Prop52
140
1.0
102
RTVSPost2010PropOp52
 70
     0
102
RTVSPost2010Prop53
 90
        2
102
RTVSPost2010PropOp53
 70
     1
102
RTVSPost2010Prop54
  1
strokes_ogs.tif
102
RTVSPost2010PropOp54
 70
     1
102
RTVSPost2010Prop55
280
     0
102
RTVSPost2010PropOp55
 70
     1
102
RTVSPost2010Prop56
140
1.0
102
RTVSPost2010PropOp56
 70
     1
102
RTVSPost2010Prop57
140
1.0
102
RTVSPost2010PropOp57
 70
     1
102
RTVSPropertyOp0
 70
     1
102
RTVSPropertyOp1
 70
     1
102
RTVSPropertyOp2
 70
     1
102
RTVSPropertyOp3
 70
     1
102
RTVSPropertyOp4
 70
     1
102
RTVSPropertyOp5
 70
     1
102
RTVSPropertyOp6
 70
     1
102
RTVSPropertyOp7
 70
     1
102
RTVSPropertyOp8
 70
     1
102
RTVSPropertyOp9
 70
     1
102
RTVSPropertyOp10
 70
     1
102
RTVSPropertyOp11
 70
     1
102
RTVSPropertyOp12
 70
     1
102
RTVSPropertyOp13
 70
     1
102
RTVSPropertyOp14
 70
     1
102
RTVSPropertyOp15
 70
     1
102
RTVSPropertyOp16
 70
     1
102
RTVSPropertyOp17
 70
     1
102
RTVSPropertyOp18
 70
     1
102
RTVSPropertyOp19
 70
     1
102
RTVSPropertyOp20
 70
     1
102
RTVSPropertyOp21
 70
     1
102
RTVSPropertyOp22
 70
     1
102
RTVSPropertyOp23
 70
     1
102
RTVSPropertyOp24
 70
     1
102
RTVSPropertyOp25
 70
     1
102
RTVSPropertyOp26
 70
     1
102
RTVSPropertyOp27
 70
     1
102
RTVSPropertyOp28
 70
     1
102
RTVSPropertyOp29
 70
     1
102
RTVSPropertyOp30
 70
     1
102
RTVSPropertyOp31
 70
     1
102
RTVSPropertyOp32
 70
     1
102
RTVSPropertyOp33
 70
     1
102
RTVSPropertyOp34
 70
     1
102
RTVSPropertyOp35
 70
     1
102
RTVSPropertyOp36
 70
     1
102
RTVSPropertyOp37
 70
     1
102
RTVSPropertyOp38
 70
     1
102
RTVSPropertyOp39
 70
     1
102
RTVSPropertyOp40
 70
     1
102
RTVSPropertyOp41
 70
     1
102
RTVSPropertyOp42
 70
     1
102
RTVSPropertyOp43
 70
     1
102
RTVSPropertyOp44
 70
     1
102
RTVSPropertyOp45
 70
     1
102
RTVSPropertyOp46
 70
     1
102
RTVSPropertyOp47
 70
     1
102
RTVSPropertyOp48
 70
     1
102
RTVSPropertyOp49
 70
     1
102
RTVSPropertyOp50
 70
     1
102
RTVSPropertyOp51
 70
     0
102
RTVSPropertyOp52
 70
     0
102
RTVSPropertyOp53
 70
     1
102
RTVSPropertyOp54
 70
     1
102
RTVSPropertyOp55
 70
     1
102
RTVSPropertyOp56
 70
     1
102
RTVSPropertyOp57
 70
     1
102
RTVSPropertyOp58
 70
     1
102
RTVSPropertyOp59
 70
     1
102
RTVSPropertyOp60
 70
     1
102
RTVSPropertyOp61
 70
     1
102
RTVSPropertyOp62
 70
     1
  0
XRECORD
  5
2B0F
102
{ACAD_REACTORS
330
2B0E
102
}
330
2B0E
100
AcDbXrecord
280
     1
102
RTVSPost2010Prop28
280
     0
102
RTVSPost2010PropOp28
 70
     1
102
RTVSPost2010Prop29
280
     1
102
RTVSPost2010PropOp29
 70
     1
102
RTVSPost2010Prop30
280
     1
102
RTVSPost2010PropOp30
 70
     1
102
RTVSPost2010Prop31
280
     0
102
RTVSPost2010PropOp31
 70
     1
102
RTVSPost2010Prop32
280
     0
102
RTVSPost2010PropOp32
 70
     1
102
RTVSPost2010Prop33
280
     0
102
RTVSPost2010PropOp33
 70
     1
102
RTVSPost2010Prop34
280
     0
102
RTVSPost2010PropOp34
 70
     1
102
RTVSPost2010Prop35
280
     0
102
RTVSPost2010PropOp35
 70
     1
102
RTVSPost2010Prop36
280
     0
102
RTVSPost2010PropOp36
 70
     1
102
RTVSPost2010Prop37
 90
       50
102
RTVSPost2010PropOp37
 70
     1
102
RTVSPost2010Prop38
140
0.0
102
RTVSPost2010PropOp38
 70
     1
102
RTVSPost2010Prop39
140
1.0
102
RTVSPost2010PropOp39
 70
     1
102
RTVSPost2010Prop40
 90
        0
102
RTVSPost2010PropOp40
 70
     1
102
RTVSPost2010Prop41ColorIndex
 90
       18
102
RTVSPost2010Prop41ColorRGB
 90
        0
102
RTVSPost2010PropOp41
 70
     1
102
RTVSPost2010Prop42
 90
       50
102
RTVSPost2010PropOp42
 70
     1
102
RTVSPost2010Prop43
 90
        3
102
RTVSPost2010PropOp43
 70
     1
102
RTVSPost2010Prop44ColorIndex
 90
        5
102
RTVSPost2010Prop44ColorRGB
 90
      255
102
RTVSPost2010PropOp44
 70
     1
102
RTVSPost2010Prop45
280
     0
102
RTVSPost2010PropOp45
 70
     1
102
RTVSPost2010Prop46
 90
       50
102
RTVSPost2010PropOp46
 70
     1
102
RTVSPost2010Prop47
 90
       50
102
RTVSPost2010PropOp47
 70
     1
102
RTVSPost2010Prop48
 90
       50
102
RTVSPost2010PropOp48
 70
     1
102
RTVSPost2010Prop49
280
     0
102
RTVSPost2010PropOp49
 70
     1
102
RTVSPost2010Prop50
 90
       50
102
RTVSPost2010PropOp50
 70
     1
102
RTVSPost2010Prop51ColorIndex
 90
      256
102
RTVSPost2010Prop51ColorRGB
 90
-16777216
102
RTVSPost2010PropOp51
 70
     0
102
RTVSPost2010Prop52
140
1.0
102
RTVSPost2010PropOp52
 70
     0
102
RTVSPost2010Prop53
 90
        2
102
RTVSPost2010PropOp53
 70
     1
102
RTVSPost2010Prop54
  1
strokes_ogs.tif
102
RTVSPost2010PropOp54
 70
     1
102
RTVSPost2010Prop55
280
     0
102
RTVSPost2010PropOp55
 70
     1
102
RTVSPost2010Prop56
140
1.0
102
RTVSPost2010PropOp56
 70
     1
102
RTVSPost2010Prop57
140
1.0
102
RTVSPost2010PropOp57
 70
     1
102
RTVSPropertyOp0
 70
     1
102
RTVSPropertyOp1
 70
     1
102
RTVSPropertyOp2
 70
     1
102
RTVSPropertyOp3
 70
     1
102
RTVSPropertyOp4
 70
     1
102
RTVSPropertyOp5
 70
     1
102
RTVSPropertyOp6
 70
     1
102
RTVSPropertyOp7
 70
     1
102
RTVSPropertyOp8
 70
     1
102
RTVSPropertyOp9
 70
     1
102
RTVSPropertyOp10
 70
     1
102
RTVSPropertyOp11
 70
     1
102
RTVSPropertyOp12
 70
     1
102
RTVSPropertyOp13
 70
     1
102
RTVSPropertyOp14
 70
     1
102
RTVSPropertyOp15
 70
     1
102
RTVSPropertyOp16
 70
     1
102
RTVSPropertyOp17
 70
     1
102
RTVSPropertyOp18
 70
     1
102
RTVSPropertyOp19
 70
     1
102
RTVSPropertyOp20
 70
     1
102
RTVSPropertyOp21
 70
     1
102
RTVSPropertyOp22
 70
     1
102
RTVSPropertyOp23
 70
     1
102
RTVSPropertyOp24
 70
     1
102
RTVSPropertyOp25
 70
     1
102
RTVSPropertyOp26
 70
     1
102
RTVSPropertyOp27
 70
     1
102
RTVSPropertyOp28
 70
     1
102
RTVSPropertyOp29
 70
     1
102
RTVSPropertyOp30
 70
     1
102
RTVSPropertyOp31
 70
     1
102
RTVSPropertyOp32
 70
     1
102
RTVSPropertyOp33
 70
     1
102
RTVSPropertyOp34
 70
     1
102
RTVSPropertyOp35
 70
     1
102
RTVSPropertyOp36
 70
     1
102
RTVSPropertyOp37
 70
     1
102
RTVSPropertyOp38
 70
     1
102
RTVSPropertyOp39
 70
     1
102
RTVSPropertyOp40
 70
     1
102
RTVSPropertyOp41
 70
     1
102
RTVSPropertyOp42
 70
     1
102
RTVSPropertyOp43
 70
     1
102
RTVSPropertyOp44
 70
     1
102
RTVSPropertyOp45
 70
     1
102
RTVSPropertyOp46
 70
     1
102
RTVSPropertyOp47
 70
     1
102
RTVSPropertyOp48
 70
     1
102
RTVSPropertyOp49
 70
     1
102
RTVSPropertyOp50
 70
     1
102
RTVSPropertyOp51
 70
     0
102
RTVSPropertyOp52
 70
     0
102
RTVSPropertyOp53
 70
     1
102
RTVSPropertyOp54
 70
     1
102
RTVSPropertyOp55
 70
     1
102
RTVSPropertyOp56
 70
     1
102
RTVSPropertyOp57
 70
     1
102
RTVSPropertyOp58
 70
     1
102
RTVSPropertyOp59
 70
     1
102
RTVSPropertyOp60
 70
     1
102
RTVSPropertyOp61
 70
     1
102
RTVSPropertyOp62
 70
     1
  0
XRECORD
  5
2B13
102
{ACAD_REACTORS
330
2B12
102
}
330
2B12
100
AcDbXrecord
280
     1
102
RTVSPost2010Prop28
280
     0
102
RTVSPost2010PropOp28
 70
     1
102
RTVSPost2010Prop29
280
     1
102
RTVSPost2010PropOp29
 70
     1
102
RTVSPost2010Prop30
280
     1
102
RTVSPost2010PropOp30
 70
     1
102
RTVSPost2010Prop31
280
     0
102
RTVSPost2010PropOp31
 70
     1
102
RTVSPost2010Prop32
280
     0
102
RTVSPost2010PropOp32
 70
     1
102
RTVSPost2010Prop33
280
     0
102
RTVSPost2010PropOp33
 70
     1
102
RTVSPost2010Prop34
280
     0
102
RTVSPost2010PropOp34
 70
     1
102
RTVSPost2010Prop35
280
     0
102
RTVSPost2010PropOp35
 70
     1
102
RTVSPost2010Prop36
280
     0
102
RTVSPost2010PropOp36
 70
     1
102
RTVSPost2010Prop37
 90
       50
102
RTVSPost2010PropOp37
 70
     1
102
RTVSPost2010Prop38
140
0.0
102
RTVSPost2010PropOp38
 70
     1
102
RTVSPost2010Prop39
140
1.0
102
RTVSPost2010PropOp39
 70
     1
102
RTVSPost2010Prop40
 90
        0
102
RTVSPost2010PropOp40
 70
     1
102
RTVSPost2010Prop41ColorIndex
 90
       18
102
RTVSPost2010Prop41ColorRGB
 90
        0
102
RTVSPost2010PropOp41
 70
     1
102
RTVSPost2010Prop42
 90
       50
102
RTVSPost2010PropOp42
 70
     1
102
RTVSPost2010Prop43
 90
        3
102
RTVSPost2010PropOp43
 70
     1
102
RTVSPost2010Prop44ColorIndex
 90
        5
102
RTVSPost2010Prop44ColorRGB
 90
      255
102
RTVSPost2010PropOp44
 70
     1
102
RTVSPost2010Prop45
280
     0
102
RTVSPost2010PropOp45
 70
     1
102
RTVSPost2010Prop46
 90
       50
102
RTVSPost2010PropOp46
 70
     1
102
RTVSPost2010Prop47
 90
       50
102
RTVSPost2010PropOp47
 70
     1
102
RTVSPost2010Prop48
 90
       50
102
RTVSPost2010PropOp48
 70
     1
102
RTVSPost2010Prop49
280
     0
102
RTVSPost2010PropOp49
 70
     1
102
RTVSPost2010Prop50
 90
       50
102
RTVSPost2010PropOp50
 70
     1
102
RTVSPost2010Prop51ColorIndex
 90
      256
102
RTVSPost2010Prop51ColorRGB
 90
-16777216
102
RTVSPost2010PropOp51
 70
     0
102
RTVSPost2010Prop52
140
1.0
102
RTVSPost2010PropOp52
 70
     0
102
RTVSPost2010Prop53
 90
        2
102
RTVSPost2010PropOp53
 70
     1
102
RTVSPost2010Prop54
  1
strokes_ogs.tif
102
RTVSPost2010PropOp54
 70
     1
102
RTVSPost2010Prop55
280
     0
102
RTVSPost2010PropOp55
 70
     1
102
RTVSPost2010Prop56
140
1.0
102
RTVSPost2010PropOp56
 70
     1
102
RTVSPost2010Prop57
140
1.0
102
RTVSPost2010PropOp57
 70
     1
102
RTVSPropertyOp0
 70
     1
102
RTVSPropertyOp1
 70
     1
102
RTVSPropertyOp2
 70
     1
102
RTVSPropertyOp3
 70
     1
102
RTVSPropertyOp4
 70
     1
102
RTVSPropertyOp5
 70
     1
102
RTVSPropertyOp6
 70
     1
102
RTVSPropertyOp7
 70
     1
102
RTVSPropertyOp8
 70
     1
102
RTVSPropertyOp9
 70
     1
102
RTVSPropertyOp10
 70
     1
102
RTVSPropertyOp11
 70
     1
102
RTVSPropertyOp12
 70
     1
102
RTVSPropertyOp13
 70
     1
102
RTVSPropertyOp14
 70
     1
102
RTVSPropertyOp15
 70
     1
102
RTVSPropertyOp16
 70
     1
102
RTVSPropertyOp17
 70
     1
102
RTVSPropertyOp18
 70
     1
102
RTVSPropertyOp19
 70
     1
102
RTVSPropertyOp20
 70
     1
102
RTVSPropertyOp21
 70
     1
102
RTVSPropertyOp22
 70
     1
102
RTVSPropertyOp23
 70
     1
102
RTVSPropertyOp24
 70
     1
102
RTVSPropertyOp25
 70
     1
102
RTVSPropertyOp26
 70
     1
102
RTVSPropertyOp27
 70
     1
102
RTVSPropertyOp28
 70
     1
102
RTVSPropertyOp29
 70
     1
102
RTVSPropertyOp30
 70
     1
102
RTVSPropertyOp31
 70
     1
102
RTVSPropertyOp32
 70
     1
102
RTVSPropertyOp33
 70
     1
102
RTVSPropertyOp34
 70
     1
102
RTVSPropertyOp35
 70
     1
102
RTVSPropertyOp36
 70
     1
102
RTVSPropertyOp37
 70
     1
102
RTVSPropertyOp38
 70
     1
102
RTVSPropertyOp39
 70
     1
102
RTVSPropertyOp40
 70
     1
102
RTVSPropertyOp41
 70
     1
102
RTVSPropertyOp42
 70
     1
102
RTVSPropertyOp43
 70
     1
102
RTVSPropertyOp44
 70
     1
102
RTVSPropertyOp45
 70
     1
102
RTVSPropertyOp46
 70
     1
102
RTVSPropertyOp47
 70
     1
102
RTVSPropertyOp48
 70
     1
102
RTVSPropertyOp49
 70
     1
102
RTVSPropertyOp50
 70
     1
102
RTVSPropertyOp51
 70
     0
102
RTVSPropertyOp52
 70
     0
102
RTVSPropertyOp53
 70
     1
102
RTVSPropertyOp54
 70
     1
102
RTVSPropertyOp55
 70
     1
102
RTVSPropertyOp56
 70
     1
102
RTVSPropertyOp57
 70
     1
102
RTVSPropertyOp58
 70
     1
102
RTVSPropertyOp59
 70
     1
102
RTVSPropertyOp60
 70
     1
102
RTVSPropertyOp61
 70
     1
102
RTVSPropertyOp62
 70
     1
  0
XRECORD
  5
2B2D
102
{ACAD_REACTORS
330
2B2C
102
}
330
2B2C
100
AcDbXrecord
280
     1
102
RTVSPost2010Prop28
280
     0
102
RTVSPost2010PropOp28
 70
     1
102
RTVSPost2010Prop29
280
     1
102
RTVSPost2010PropOp29
 70
     1
102
RTVSPost2010Prop30
280
     1
102
RTVSPost2010PropOp30
 70
     1
102
RTVSPost2010Prop31
280
     0
102
RTVSPost2010PropOp31
 70
     1
102
RTVSPost2010Prop32
280
     0
102
RTVSPost2010PropOp32
 70
     1
102
RTVSPost2010Prop33
280
     0
102
RTVSPost2010PropOp33
 70
     1
102
RTVSPost2010Prop34
280
     0
102
RTVSPost2010PropOp34
 70
     1
102
RTVSPost2010Prop35
280
     0
102
RTVSPost2010PropOp35
 70
     1
102
RTVSPost2010Prop36
280
     0
102
RTVSPost2010PropOp36
 70
     1
102
RTVSPost2010Prop37
 90
       50
102
RTVSPost2010PropOp37
 70
     0
102
RTVSPost2010Prop38
140
0.0
102
RTVSPost2010PropOp38
 70
     0
102
RTVSPost2010Prop39
140
1.0
102
RTVSPost2010PropOp39
 70
     0
102
RTVSPost2010Prop40
 90
        0
102
RTVSPost2010PropOp40
 70
     0
102
RTVSPost2010Prop41ColorIndex
 90
       18
102
RTVSPost2010Prop41ColorRGB
 90
        0
102
RTVSPost2010PropOp41
 70
     0
102
RTVSPost2010Prop42
 90
       50
102
RTVSPost2010PropOp42
 70
     0
102
RTVSPost2010Prop43
 90
        3
102
RTVSPost2010PropOp43
 70
     0
102
RTVSPost2010Prop44ColorIndex
 90
        5
102
RTVSPost2010Prop44ColorRGB
 90
      255
102
RTVSPost2010PropOp44
 70
     0
102
RTVSPost2010Prop45
280
     0
102
RTVSPost2010PropOp45
 70
     1
102
RTVSPost2010Prop46
 90
       50
102
RTVSPost2010PropOp46
 70
     0
102
RTVSPost2010Prop47
 90
       50
102
RTVSPost2010PropOp47
 70
     0
102
RTVSPost2010Prop48
 90
       50
102
RTVSPost2010PropOp48
 70
     0
102
RTVSPost2010Prop49
280
     0
102
RTVSPost2010PropOp49
 70
     1
102
RTVSPost2010Prop50
 90
       50
102
RTVSPost2010PropOp50
 70
     0
102
RTVSPost2010Prop51ColorIndex
 90
      256
102
RTVSPost2010Prop51ColorRGB
 90
-16777216
102
RTVSPost2010PropOp51
 70
     0
102
RTVSPost2010Prop52
140
1.0
102
RTVSPost2010PropOp52
 70
     0
102
RTVSPost2010Prop53
 90
        2
102
RTVSPost2010PropOp53
 70
     0
102
RTVSPost2010Prop54
  1
strokes_ogs.tif
102
RTVSPost2010PropOp54
 70
     0
102
RTVSPost2010Prop55
280
     0
102
RTVSPost2010PropOp55
 70
     1
102
RTVSPost2010Prop56
140
1.0
102
RTVSPost2010PropOp56
 70
     0
102
RTVSPost2010Prop57
140
1.0
102
RTVSPost2010PropOp57
 70
     0
102
RTVSPropertyOp0
 70
     0
102
RTVSPropertyOp1
 70
     0
102
RTVSPropertyOp2
 70
     0
102
RTVSPropertyOp3
 70
     0
102
RTVSPropertyOp4
 70
     0
102
RTVSPropertyOp5
 70
     0
102
RTVSPropertyOp6
 70
     0
102
RTVSPropertyOp7
 70
     0
102
RTVSPropertyOp8
 70
     0
102
RTVSPropertyOp9
 70
     0
102
RTVSPropertyOp10
 70
     0
102
RTVSPropertyOp11
 70
     0
102
RTVSPropertyOp12
 70
     0
102
RTVSPropertyOp13
 70
     0
102
RTVSPropertyOp14
 70
     2
102
RTVSPropertyOp15
 70
     0
102
RTVSPropertyOp16
 70
     0
102
RTVSPropertyOp17
 70
     0
102
RTVSPropertyOp18
 70
     0
102
RTVSPropertyOp19
 70
     0
102
RTVSPropertyOp20
 70
     0
102
RTVSPropertyOp21
 70
     0
102
RTVSPropertyOp22
 70
     0
102
RTVSPropertyOp23
 70
     0
102
RTVSPropertyOp24
 70
     0
102
RTVSPropertyOp25
 70
     0
102
RTVSPropertyOp26
 70
     0
102
RTVSPropertyOp27
 70
     0
102
RTVSPropertyOp28
 70
     1
102
RTVSPropertyOp29
 70
     1
102
RTVSPropertyOp30
 70
     1
102
RTVSPropertyOp31
 70
     1
102
RTVSPropertyOp32
 70
     1
102
RTVSPropertyOp33
 70
     1
102
RTVSPropertyOp34
 70
     1
102
RTVSPropertyOp35
 70
     1
102
RTVSPropertyOp36
 70
     1
102
RTVSPropertyOp37
 70
     0
102
RTVSPropertyOp38
 70
     0
102
RTVSPropertyOp39
 70
     0
102
RTVSPropertyOp40
 70
     0
102
RTVSPropertyOp41
 70
     0
102
RTVSPropertyOp42
 70
     0
102
RTVSPropertyOp43
 70
     0
102
RTVSPropertyOp44
 70
     0
102
RTVSPropertyOp45
 70
     1
102
RTVSPropertyOp46
 70
     0
102
RTVSPropertyOp47
 70
     0
102
RTVSPropertyOp48
 70
     0
102
RTVSPropertyOp49
 70
     1
102
RTVSPropertyOp50
 70
     0
102
RTVSPropertyOp51
 70
     0
102
RTVSPropertyOp52
 70
     0
102
RTVSPropertyOp53
 70
     0
102
RTVSPropertyOp54
 70
     0
102
RTVSPropertyOp55
 70
     1
102
RTVSPropertyOp56
 70
     0
102
RTVSPropertyOp57
 70
     0
102
RTVSPropertyOp58
 70
     0
102
RTVSPropertyOp59
 70
     0
102
RTVSPropertyOp60
 70
     0
102
RTVSPropertyOp61
 70
     0
102
RTVSPropertyOp62
 70
     0
  0
XRECORD
  5
2B1B
102
{ACAD_REACTORS
330
2B1A
102
}
330
2B1A
100
AcDbXrecord
280
     1
102
RTVSPost2010Prop28
280
     0
102
RTVSPost2010PropOp28
 70
     1
102
RTVSPost2010Prop29
280
     1
102
RTVSPost2010PropOp29
 70
     1
102
RTVSPost2010Prop30
280
     1
102
RTVSPost2010PropOp30
 70
     1
102
RTVSPost2010Prop31
280
     0
102
RTVSPost2010PropOp31
 70
     1
102
RTVSPost2010Prop32
280
     0
102
RTVSPost2010PropOp32
 70
     1
102
RTVSPost2010Prop33
280
     0
102
RTVSPost2010PropOp33
 70
     1
102
RTVSPost2010Prop34
280
     0
102
RTVSPost2010PropOp34
 70
     1
102
RTVSPost2010Prop35
280
     0
102
RTVSPost2010PropOp35
 70
     1
102
RTVSPost2010Prop36
280
     0
102
RTVSPost2010PropOp36
 70
     1
102
RTVSPost2010Prop37
 90
       50
102
RTVSPost2010PropOp37
 70
     1
102
RTVSPost2010Prop38
140
0.0
102
RTVSPost2010PropOp38
 70
     1
102
RTVSPost2010Prop39
140
1.0
102
RTVSPost2010PropOp39
 70
     1
102
RTVSPost2010Prop40
 90
        0
102
RTVSPost2010PropOp40
 70
     1
102
RTVSPost2010Prop41ColorIndex
 90
       18
102
RTVSPost2010Prop41ColorRGB
 90
        0
102
RTVSPost2010PropOp41
 70
     1
102
RTVSPost2010Prop42
 90
       50
102
RTVSPost2010PropOp42
 70
     1
102
RTVSPost2010Prop43
 90
        3
102
RTVSPost2010PropOp43
 70
     1
102
RTVSPost2010Prop44ColorIndex
 90
        5
102
RTVSPost2010Prop44ColorRGB
 90
      255
102
RTVSPost2010PropOp44
 70
     1
102
RTVSPost2010Prop45
280
     0
102
RTVSPost2010PropOp45
 70
     1
102
RTVSPost2010Prop46
 90
       50
102
RTVSPost2010PropOp46
 70
     1
102
RTVSPost2010Prop47
 90
       50
102
RTVSPost2010PropOp47
 70
     1
102
RTVSPost2010Prop48
 90
       50
102
RTVSPost2010PropOp48
 70
     1
102
RTVSPost2010Prop49
280
     0
102
RTVSPost2010PropOp49
 70
     1
102
RTVSPost2010Prop50
 90
       50
102
RTVSPost2010PropOp50
 70
     1
102
RTVSPost2010Prop51ColorIndex
 90
      256
102
RTVSPost2010Prop51ColorRGB
 90
-16777216
102
RTVSPost2010PropOp51
 70
     0
102
RTVSPost2010Prop52
140
1.0
102
RTVSPost2010PropOp52
 70
     0
102
RTVSPost2010Prop53
 90
        2
102
RTVSPost2010PropOp53
 70
     1
102
RTVSPost2010Prop54
  1
strokes_ogs.tif
102
RTVSPost2010PropOp54
 70
     1
102
RTVSPost2010Prop55
280
     0
102
RTVSPost2010PropOp55
 70
     1
102
RTVSPost2010Prop56
140
1.0
102
RTVSPost2010PropOp56
 70
     1
102
RTVSPost2010Prop57
140
1.0
102
RTVSPost2010PropOp57
 70
     1
102
RTVSPropertyOp0
 70
     1
102
RTVSPropertyOp1
 70
     1
102
RTVSPropertyOp2
 70
     1
102
RTVSPropertyOp3
 70
     1
102
RTVSPropertyOp4
 70
     1
102
RTVSPropertyOp5
 70
     1
102
RTVSPropertyOp6
 70
     1
102
RTVSPropertyOp7
 70
     1
102
RTVSPropertyOp8
 70
     1
102
RTVSPropertyOp9
 70
     1
102
RTVSPropertyOp10
 70
     1
102
RTVSPropertyOp11
 70
     1
102
RTVSPropertyOp12
 70
     1
102
RTVSPropertyOp13
 70
     1
102
RTVSPropertyOp14
 70
     1
102
RTVSPropertyOp15
 70
     1
102
RTVSPropertyOp16
 70
     1
102
RTVSPropertyOp17
 70
     1
102
RTVSPropertyOp18
 70
     1
102
RTVSPropertyOp19
 70
     1
102
RTVSPropertyOp20
 70
     1
102
RTVSPropertyOp21
 70
     1
102
RTVSPropertyOp22
 70
     1
102
RTVSPropertyOp23
 70
     1
102
RTVSPropertyOp24
 70
     1
102
RTVSPropertyOp25
 70
     1
102
RTVSPropertyOp26
 70
     1
102
RTVSPropertyOp27
 70
     1
102
RTVSPropertyOp28
 70
     1
102
RTVSPropertyOp29
 70
     1
102
RTVSPropertyOp30
 70
     1
102
RTVSPropertyOp31
 70
     1
102
RTVSPropertyOp32
 70
     1
102
RTVSPropertyOp33
 70
     1
102
RTVSPropertyOp34
 70
     1
102
RTVSPropertyOp35
 70
     1
102
RTVSPropertyOp36
 70
     1
102
RTVSPropertyOp37
 70
     1
102
RTVSPropertyOp38
 70
     1
102
RTVSPropertyOp39
 70
     1
102
RTVSPropertyOp40
 70
     1
102
RTVSPropertyOp41
 70
     1
102
RTVSPropertyOp42
 70
     1
102
RTVSPropertyOp43
 70
     1
102
RTVSPropertyOp44
 70
     1
102
RTVSPropertyOp45
 70
     1
102
RTVSPropertyOp46
 70
     1
102
RTVSPropertyOp47
 70
     1
102
RTVSPropertyOp48
 70
     1
102
RTVSPropertyOp49
 70
     1
102
RTVSPropertyOp50
 70
     1
102
RTVSPropertyOp51
 70
     0
102
RTVSPropertyOp52
 70
     0
102
RTVSPropertyOp53
 70
     1
102
RTVSPropertyOp54
 70
     1
102
RTVSPropertyOp55
 70
     1
102
RTVSPropertyOp56
 70
     1
102
RTVSPropertyOp57
 70
     1
102
RTVSPropertyOp58
 70
     1
102
RTVSPropertyOp59
 70
     1
102
RTVSPropertyOp60
 70
     1
102
RTVSPropertyOp61
 70
     1
102
RTVSPropertyOp62
 70
     1
  0
XRECORD
  5
2AFF
102
{ACAD_REACTORS
330
2AFE
102
}
330
2AFE
100
AcDbXrecord
280
     1
102
RTVSPost2010Prop28
280
     0
102
RTVSPost2010PropOp28
 70
     1
102
RTVSPost2010Prop29
280
     1
102
RTVSPost2010PropOp29
 70
     1
102
RTVSPost2010Prop30
280
     1
102
RTVSPost2010PropOp30
 70
     1
102
RTVSPost2010Prop31
280
     0
102
RTVSPost2010PropOp31
 70
     1
102
RTVSPost2010Prop32
280
     0
102
RTVSPost2010PropOp32
 70
     1
102
RTVSPost2010Prop33
280
     0
102
RTVSPost2010PropOp33
 70
     1
102
RTVSPost2010Prop34
280
     0
102
RTVSPost2010PropOp34
 70
     1
102
RTVSPost2010Prop35
280
     0
102
RTVSPost2010PropOp35
 70
     1
102
RTVSPost2010Prop36
280
     0
102
RTVSPost2010PropOp36
 70
     1
102
RTVSPost2010Prop37
 90
       50
102
RTVSPost2010PropOp37
 70
     1
102
RTVSPost2010Prop38
140
0.0
102
RTVSPost2010PropOp38
 70
     1
102
RTVSPost2010Prop39
140
1.0
102
RTVSPost2010PropOp39
 70
     1
102
RTVSPost2010Prop40
 90
        0
102
RTVSPost2010PropOp40
 70
     1
102
RTVSPost2010Prop41ColorIndex
 90
       18
102
RTVSPost2010Prop41ColorRGB
 90
        0
102
RTVSPost2010PropOp41
 70
     1
102
RTVSPost2010Prop42
 90
       50
102
RTVSPost2010PropOp42
 70
     1
102
RTVSPost2010Prop43
 90
        3
102
RTVSPost2010PropOp43
 70
     1
102
RTVSPost2010Prop44ColorIndex
 90
        5
102
RTVSPost2010Prop44ColorRGB
 90
      255
102
RTVSPost2010PropOp44
 70
     1
102
RTVSPost2010Prop45
280
     0
102
RTVSPost2010PropOp45
 70
     1
102
RTVSPost2010Prop46
 90
       50
102
RTVSPost2010PropOp46
 70
     1
102
RTVSPost2010Prop47
 90
       50
102
RTVSPost2010PropOp47
 70
     1
102
RTVSPost2010Prop48
 90
       50
102
RTVSPost2010PropOp48
 70
     1
102
RTVSPost2010Prop49
280
     0
102
RTVSPost2010PropOp49
 70
     1
102
RTVSPost2010Prop50
 90
       50
102
RTVSPost2010PropOp50
 70
     1
102
RTVSPost2010Prop51ColorIndex
 90
      256
102
RTVSPost2010Prop51ColorRGB
 90
-16777216
102
RTVSPost2010PropOp51
 70
     0
102
RTVSPost2010Prop52
140
1.0
102
RTVSPost2010PropOp52
 70
     0
102
RTVSPost2010Prop53
 90
        2
102
RTVSPost2010PropOp53
 70
     1
102
RTVSPost2010Prop54
  1
strokes_ogs.tif
102
RTVSPost2010PropOp54
 70
     1
102
RTVSPost2010Prop55
280
     0
102
RTVSPost2010PropOp55
 70
     1
102
RTVSPost2010Prop56
140
1.0
102
RTVSPost2010PropOp56
 70
     1
102
RTVSPost2010Prop57
140
1.0
102
RTVSPost2010PropOp57
 70
     1
102
RTVSPropertyOp0
 70
     1
102
RTVSPropertyOp1
 70
     1
102
RTVSPropertyOp2
 70
     1
102
RTVSPropertyOp3
 70
     1
102
RTVSPropertyOp4
 70
     1
102
RTVSPropertyOp5
 70
     1
102
RTVSPropertyOp6
 70
     1
102
RTVSPropertyOp7
 70
     1
102
RTVSPropertyOp8
 70
     1
102
RTVSPropertyOp9
 70
     1
102
RTVSPropertyOp10
 70
     1
102
RTVSPropertyOp11
 70
     1
102
RTVSPropertyOp12
 70
     1
102
RTVSPropertyOp13
 70
     1
102
RTVSPropertyOp14
 70
     1
102
RTVSPropertyOp15
 70
     1
102
RTVSPropertyOp16
 70
     1
102
RTVSPropertyOp17
 70
     1
102
RTVSPropertyOp18
 70
     1
102
RTVSPropertyOp19
 70
     1
102
RTVSPropertyOp20
 70
     1
102
RTVSPropertyOp21
 70
     1
102
RTVSPropertyOp22
 70
     1
102
RTVSPropertyOp23
 70
     1
102
RTVSPropertyOp24
 70
     1
102
RTVSPropertyOp25
 70
     1
102
RTVSPropertyOp26
 70
     1
102
RTVSPropertyOp27
 70
     1
102
RTVSPropertyOp28
 70
     1
102
RTVSPropertyOp29
 70
     1
102
RTVSPropertyOp30
 70
     1
102
RTVSPropertyOp31
 70
     1
102
RTVSPropertyOp32
 70
     1
102
RTVSPropertyOp33
 70
     1
102
RTVSPropertyOp34
 70
     1
102
RTVSPropertyOp35
 70
     1
102
RTVSPropertyOp36
 70
     1
102
RTVSPropertyOp37
 70
     1
102
RTVSPropertyOp38
 70
     1
102
RTVSPropertyOp39
 70
     1
102
RTVSPropertyOp40
 70
     1
102
RTVSPropertyOp41
 70
     1
102
RTVSPropertyOp42
 70
     1
102
RTVSPropertyOp43
 70
     1
102
RTVSPropertyOp44
 70
     1
102
RTVSPropertyOp45
 70
     1
102
RTVSPropertyOp46
 70
     1
102
RTVSPropertyOp47
 70
     1
102
RTVSPropertyOp48
 70
     1
102
RTVSPropertyOp49
 70
     1
102
RTVSPropertyOp50
 70
     1
102
RTVSPropertyOp51
 70
     0
102
RTVSPropertyOp52
 70
     0
102
RTVSPropertyOp53
 70
     1
102
RTVSPropertyOp54
 70
     1
102
RTVSPropertyOp55
 70
     1
102
RTVSPropertyOp56
 70
     1
102
RTVSPropertyOp57
 70
     1
102
RTVSPropertyOp58
 70
     1
102
RTVSPropertyOp59
 70
     1
102
RTVSPropertyOp60
 70
     1
102
RTVSPropertyOp61
 70
     1
102
RTVSPropertyOp62
 70
     1
  0
XRECORD
  5
2B01
102
{ACAD_REACTORS
330
2B00
102
}
330
2B00
100
AcDbXrecord
280
     1
102
RTVSPost2010Prop28
280
     0
102
RTVSPost2010PropOp28
 70
     1
102
RTVSPost2010Prop29
280
     1
102
RTVSPost2010PropOp29
 70
     1
102
RTVSPost2010Prop30
280
     1
102
RTVSPost2010PropOp30
 70
     1
102
RTVSPost2010Prop31
280
     0
102
RTVSPost2010PropOp31
 70
     1
102
RTVSPost2010Prop32
280
     0
102
RTVSPost2010PropOp32
 70
     1
102
RTVSPost2010Prop33
280
     0
102
RTVSPost2010PropOp33
 70
     1
102
RTVSPost2010Prop34
280
     0
102
RTVSPost2010PropOp34
 70
     1
102
RTVSPost2010Prop35
280
     0
102
RTVSPost2010PropOp35
 70
     1
102
RTVSPost2010Prop36
280
     0
102
RTVSPost2010PropOp36
 70
     1
102
RTVSPost2010Prop37
 90
       50
102
RTVSPost2010PropOp37
 70
     1
102
RTVSPost2010Prop38
140
0.0
102
RTVSPost2010PropOp38
 70
     1
102
RTVSPost2010Prop39
140
1.0
102
RTVSPost2010PropOp39
 70
     1
102
RTVSPost2010Prop40
 90
        0
102
RTVSPost2010PropOp40
 70
     1
102
RTVSPost2010Prop41ColorIndex
 90
       18
102
RTVSPost2010Prop41ColorRGB
 90
        0
102
RTVSPost2010PropOp41
 70
     1
102
RTVSPost2010Prop42
 90
       50
102
RTVSPost2010PropOp42
 70
     1
102
RTVSPost2010Prop43
 90
        3
102
RTVSPost2010PropOp43
 70
     1
102
RTVSPost2010Prop44ColorIndex
 90
        5
102
RTVSPost2010Prop44ColorRGB
 90
      255
102
RTVSPost2010PropOp44
 70
     1
102
RTVSPost2010Prop45
280
     0
102
RTVSPost2010PropOp45
 70
     1
102
RTVSPost2010Prop46
 90
       50
102
RTVSPost2010PropOp46
 70
     1
102
RTVSPost2010Prop47
 90
       50
102
RTVSPost2010PropOp47
 70
     1
102
RTVSPost2010Prop48
 90
       50
102
RTVSPost2010PropOp48
 70
     1
102
RTVSPost2010Prop49
280
     0
102
RTVSPost2010PropOp49
 70
     1
102
RTVSPost2010Prop50
 90
       50
102
RTVSPost2010PropOp50
 70
     1
102
RTVSPost2010Prop51ColorIndex
 90
      256
102
RTVSPost2010Prop51ColorRGB
 90
-16777216
102
RTVSPost2010PropOp51
 70
     0
102
RTVSPost2010Prop52
140
1.0
102
RTVSPost2010PropOp52
 70
     0
102
RTVSPost2010Prop53
 90
        2
102
RTVSPost2010PropOp53
 70
     1
102
RTVSPost2010Prop54
  1
strokes_ogs.tif
102
RTVSPost2010PropOp54
 70
     1
102
RTVSPost2010Prop55
280
     0
102
RTVSPost2010PropOp55
 70
     1
102
RTVSPost2010Prop56
140
1.0
102
RTVSPost2010PropOp56
 70
     1
102
RTVSPost2010Prop57
140
1.0
102
RTVSPost2010PropOp57
 70
     1
102
RTVSPropertyOp0
 70
     1
102
RTVSPropertyOp1
 70
     1
102
RTVSPropertyOp2
 70
     1
102
RTVSPropertyOp3
 70
     1
102
RTVSPropertyOp4
 70
     1
102
RTVSPropertyOp5
 70
     1
102
RTVSPropertyOp6
 70
     1
102
RTVSPropertyOp7
 70
     1
102
RTVSPropertyOp8
 70
     1
102
RTVSPropertyOp9
 70
     1
102
RTVSPropertyOp10
 70
     1
102
RTVSPropertyOp11
 70
     1
102
RTVSPropertyOp12
 70
     1
102
RTVSPropertyOp13
 70
     1
102
RTVSPropertyOp14
 70
     1
102
RTVSPropertyOp15
 70
     1
102
RTVSPropertyOp16
 70
     1
102
RTVSPropertyOp17
 70
     1
102
RTVSPropertyOp18
 70
     1
102
RTVSPropertyOp19
 70
     1
102
RTVSPropertyOp20
 70
     1
102
RTVSPropertyOp21
 70
     1
102
RTVSPropertyOp22
 70
     1
102
RTVSPropertyOp23
 70
     1
102
RTVSPropertyOp24
 70
     1
102
RTVSPropertyOp25
 70
     1
102
RTVSPropertyOp26
 70
     1
102
RTVSPropertyOp27
 70
     1
102
RTVSPropertyOp28
 70
     1
102
RTVSPropertyOp29
 70
     1
102
RTVSPropertyOp30
 70
     1
102
RTVSPropertyOp31
 70
     1
102
RTVSPropertyOp32
 70
     1
102
RTVSPropertyOp33
 70
     1
102
RTVSPropertyOp34
 70
     1
102
RTVSPropertyOp35
 70
     1
102
RTVSPropertyOp36
 70
     1
102
RTVSPropertyOp37
 70
     1
102
RTVSPropertyOp38
 70
     1
102
RTVSPropertyOp39
 70
     1
102
RTVSPropertyOp40
 70
     1
102
RTVSPropertyOp41
 70
     1
102
RTVSPropertyOp42
 70
     1
102
RTVSPropertyOp43
 70
     1
102
RTVSPropertyOp44
 70
     1
102
RTVSPropertyOp45
 70
     1
102
RTVSPropertyOp46
 70
     1
102
RTVSPropertyOp47
 70
     1
102
RTVSPropertyOp48
 70
     1
102
RTVSPropertyOp49
 70
     1
102
RTVSPropertyOp50
 70
     1
102
RTVSPropertyOp51
 70
     0
102
RTVSPropertyOp52
 70
     0
102
RTVSPropertyOp53
 70
     1
102
RTVSPropertyOp54
 70
     1
102
RTVSPropertyOp55
 70
     1
102
RTVSPropertyOp56
 70
     1
102
RTVSPropertyOp57
 70
     1
102
RTVSPropertyOp58
 70
     1
102
RTVSPropertyOp59
 70
     1
102
RTVSPropertyOp60
 70
     1
102
RTVSPropertyOp61
 70
     1
102
RTVSPropertyOp62
 70
     1
  0
XRECORD
  5
2B03
102
{ACAD_REACTORS
330
2B02
102
}
330
2B02
100
AcDbXrecord
280
     1
102
RTVSPost2010Prop28
280
     0
102
RTVSPost2010PropOp28
 70
     1
102
RTVSPost2010Prop29
280
     1
102
RTVSPost2010PropOp29
 70
     1
102
RTVSPost2010Prop30
280
     1
102
RTVSPost2010PropOp30
 70
     1
102
RTVSPost2010Prop31
280
     0
102
RTVSPost2010PropOp31
 70
     1
102
RTVSPost2010Prop32
280
     0
102
RTVSPost2010PropOp32
 70
     1
102
RTVSPost2010Prop33
280
     0
102
RTVSPost2010PropOp33
 70
     1
102
RTVSPost2010Prop34
280
     0
102
RTVSPost2010PropOp34
 70
     1
102
RTVSPost2010Prop35
280
     0
102
RTVSPost2010PropOp35
 70
     1
102
RTVSPost2010Prop36
280
     0
102
RTVSPost2010PropOp36
 70
     1
102
RTVSPost2010Prop37
 90
       50
102
RTVSPost2010PropOp37
 70
     1
102
RTVSPost2010Prop38
140
0.0
102
RTVSPost2010PropOp38
 70
     1
102
RTVSPost2010Prop39
140
1.0
102
RTVSPost2010PropOp39
 70
     1
102
RTVSPost2010Prop40
 90
        0
102
RTVSPost2010PropOp40
 70
     1
102
RTVSPost2010Prop41ColorIndex
 90
       18
102
RTVSPost2010Prop41ColorRGB
 90
        0
102
RTVSPost2010PropOp41
 70
     1
102
RTVSPost2010Prop42
 90
       50
102
RTVSPost2010PropOp42
 70
     1
102
RTVSPost2010Prop43
 90
        3
102
RTVSPost2010PropOp43
 70
     1
102
RTVSPost2010Prop44ColorIndex
 90
        5
102
RTVSPost2010Prop44ColorRGB
 90
      255
102
RTVSPost2010PropOp44
 70
     1
102
RTVSPost2010Prop45
280
     0
102
RTVSPost2010PropOp45
 70
     1
102
RTVSPost2010Prop46
 90
       50
102
RTVSPost2010PropOp46
 70
     1
102
RTVSPost2010Prop47
 90
       50
102
RTVSPost2010PropOp47
 70
     1
102
RTVSPost2010Prop48
 90
       50
102
RTVSPost2010PropOp48
 70
     1
102
RTVSPost2010Prop49
280
     0
102
RTVSPost2010PropOp49
 70
     1
102
RTVSPost2010Prop50
 90
       50
102
RTVSPost2010PropOp50
 70
     1
102
RTVSPost2010Prop51ColorIndex
 90
      256
102
RTVSPost2010Prop51ColorRGB
 90
-16777216
102
RTVSPost2010PropOp51
 70
     0
102
RTVSPost2010Prop52
140
1.0
102
RTVSPost2010PropOp52
 70
     0
102
RTVSPost2010Prop53
 90
        2
102
RTVSPost2010PropOp53
 70
     1
102
RTVSPost2010Prop54
  1
strokes_ogs.tif
102
RTVSPost2010PropOp54
 70
     1
102
RTVSPost2010Prop55
280
     0
102
RTVSPost2010PropOp55
 70
     1
102
RTVSPost2010Prop56
140
1.0
102
RTVSPost2010PropOp56
 70
     1
102
RTVSPost2010Prop57
140
1.0
102
RTVSPost2010PropOp57
 70
     1
102
RTVSPropertyOp0
 70
     1
102
RTVSPropertyOp1
 70
     1
102
RTVSPropertyOp2
 70
     1
102
RTVSPropertyOp3
 70
     1
102
RTVSPropertyOp4
 70
     1
102
RTVSPropertyOp5
 70
     1
102
RTVSPropertyOp6
 70
     1
102
RTVSPropertyOp7
 70
     1
102
RTVSPropertyOp8
 70
     1
102
RTVSPropertyOp9
 70
     1
102
RTVSPropertyOp10
 70
     1
102
RTVSPropertyOp11
 70
     1
102
RTVSPropertyOp12
 70
     1
102
RTVSPropertyOp13
 70
     1
102
RTVSPropertyOp14
 70
     1
102
RTVSPropertyOp15
 70
     1
102
RTVSPropertyOp16
 70
     1
102
RTVSPropertyOp17
 70
     1
102
RTVSPropertyOp18
 70
     1
102
RTVSPropertyOp19
 70
     1
102
RTVSPropertyOp20
 70
     1
102
RTVSPropertyOp21
 70
     1
102
RTVSPropertyOp22
 70
     1
102
RTVSPropertyOp23
 70
     1
102
RTVSPropertyOp24
 70
     1
102
RTVSPropertyOp25
 70
     1
102
RTVSPropertyOp26
 70
     1
102
RTVSPropertyOp27
 70
     1
102
RTVSPropertyOp28
 70
     1
102
RTVSPropertyOp29
 70
     1
102
RTVSPropertyOp30
 70
     1
102
RTVSPropertyOp31
 70
     1
102
RTVSPropertyOp32
 70
     1
102
RTVSPropertyOp33
 70
     1
102
RTVSPropertyOp34
 70
     1
102
RTVSPropertyOp35
 70
     1
102
RTVSPropertyOp36
 70
     1
102
RTVSPropertyOp37
 70
     1
102
RTVSPropertyOp38
 70
     1
102
RTVSPropertyOp39
 70
     1
102
RTVSPropertyOp40
 70
     1
102
RTVSPropertyOp41
 70
     1
102
RTVSPropertyOp42
 70
     1
102
RTVSPropertyOp43
 70
     1
102
RTVSPropertyOp44
 70
     1
102
RTVSPropertyOp45
 70
     1
102
RTVSPropertyOp46
 70
     1
102
RTVSPropertyOp47
 70
     1
102
RTVSPropertyOp48
 70
     1
102
RTVSPropertyOp49
 70
     1
102
RTVSPropertyOp50
 70
     1
102
RTVSPropertyOp51
 70
     0
102
RTVSPropertyOp52
 70
     0
102
RTVSPropertyOp53
 70
     1
102
RTVSPropertyOp54
 70
     1
102
RTVSPropertyOp55
 70
     1
102
RTVSPropertyOp56
 70
     1
102
RTVSPropertyOp57
 70
     1
102
RTVSPropertyOp58
 70
     1
102
RTVSPropertyOp59
 70
     1
102
RTVSPropertyOp60
 70
     1
102
RTVSPropertyOp61
 70
     1
102
RTVSPropertyOp62
 70
     1
  0
XRECORD
  5
2B05
102
{ACAD_REACTORS
330
2B04
102
}
330
2B04
100
AcDbXrecord
280
     1
102
RTVSPost2010Prop28
280
     0
102
RTVSPost2010PropOp28
 70
     1
102
RTVSPost2010Prop29
280
     1
102
RTVSPost2010PropOp29
 70
     1
102
RTVSPost2010Prop30
280
     1
102
RTVSPost2010PropOp30
 70
     1
102
RTVSPost2010Prop31
280
     0
102
RTVSPost2010PropOp31
 70
     1
102
RTVSPost2010Prop32
280
     0
102
RTVSPost2010PropOp32
 70
     1
102
RTVSPost2010Prop33
280
     0
102
RTVSPost2010PropOp33
 70
     1
102
RTVSPost2010Prop34
280
     0
102
RTVSPost2010PropOp34
 70
     1
102
RTVSPost2010Prop35
280
     0
102
RTVSPost2010PropOp35
 70
     1
102
RTVSPost2010Prop36
280
     0
102
RTVSPost2010PropOp36
 70
     1
102
RTVSPost2010Prop37
 90
       50
102
RTVSPost2010PropOp37
 70
     1
102
RTVSPost2010Prop38
140
0.0
102
RTVSPost2010PropOp38
 70
     1
102
RTVSPost2010Prop39
140
1.0
102
RTVSPost2010PropOp39
 70
     1
102
RTVSPost2010Prop40
 90
        0
102
RTVSPost2010PropOp40
 70
     1
102
RTVSPost2010Prop41ColorIndex
 90
       18
102
RTVSPost2010Prop41ColorRGB
 90
        0
102
RTVSPost2010PropOp41
 70
     1
102
RTVSPost2010Prop42
 90
       50
102
RTVSPost2010PropOp42
 70
     1
102
RTVSPost2010Prop43
 90
        3
102
RTVSPost2010PropOp43
 70
     1
102
RTVSPost2010Prop44ColorIndex
 90
        5
102
RTVSPost2010Prop44ColorRGB
 90
      255
102
RTVSPost2010PropOp44
 70
     1
102
RTVSPost2010Prop45
280
     0
102
RTVSPost2010PropOp45
 70
     1
102
RTVSPost2010Prop46
 90
       50
102
RTVSPost2010PropOp46
 70
     1
102
RTVSPost2010Prop47
 90
       50
102
RTVSPost2010PropOp47
 70
     1
102
RTVSPost2010Prop48
 90
       50
102
RTVSPost2010PropOp48
 70
     1
102
RTVSPost2010Prop49
280
     0
102
RTVSPost2010PropOp49
 70
     1
102
RTVSPost2010Prop50
 90
       50
102
RTVSPost2010PropOp50
 70
     1
102
RTVSPost2010Prop51ColorIndex
 90
      256
102
RTVSPost2010Prop51ColorRGB
 90
-16777216
102
RTVSPost2010PropOp51
 70
     0
102
RTVSPost2010Prop52
140
1.0
102
RTVSPost2010PropOp52
 70
     0
102
RTVSPost2010Prop53
 90
        2
102
RTVSPost2010PropOp53
 70
     1
102
RTVSPost2010Prop54
  1
strokes_ogs.tif
102
RTVSPost2010PropOp54
 70
     1
102
RTVSPost2010Prop55
280
     0
102
RTVSPost2010PropOp55
 70
     1
102
RTVSPost2010Prop56
140
1.0
102
RTVSPost2010PropOp56
 70
     1
102
RTVSPost2010Prop57
140
1.0
102
RTVSPost2010PropOp57
 70
     1
102
RTVSPropertyOp0
 70
     1
102
RTVSPropertyOp1
 70
     1
102
RTVSPropertyOp2
 70
     1
102
RTVSPropertyOp3
 70
     1
102
RTVSPropertyOp4
 70
     1
102
RTVSPropertyOp5
 70
     1
102
RTVSPropertyOp6
 70
     1
102
RTVSPropertyOp7
 70
     1
102
RTVSPropertyOp8
 70
     1
102
RTVSPropertyOp9
 70
     1
102
RTVSPropertyOp10
 70
     1
102
RTVSPropertyOp11
 70
     1
102
RTVSPropertyOp12
 70
     1
102
RTVSPropertyOp13
 70
     1
102
RTVSPropertyOp14
 70
     1
102
RTVSPropertyOp15
 70
     1
102
RTVSPropertyOp16
 70
     1
102
RTVSPropertyOp17
 70
     1
102
RTVSPropertyOp18
 70
     1
102
RTVSPropertyOp19
 70
     1
102
RTVSPropertyOp20
 70
     1
102
RTVSPropertyOp21
 70
     1
102
RTVSPropertyOp22
 70
     1
102
RTVSPropertyOp23
 70
     1
102
RTVSPropertyOp24
 70
     1
102
RTVSPropertyOp25
 70
     1
102
RTVSPropertyOp26
 70
     1
102
RTVSPropertyOp27
 70
     1
102
RTVSPropertyOp28
 70
     1
102
RTVSPropertyOp29
 70
     1
102
RTVSPropertyOp30
 70
     1
102
RTVSPropertyOp31
 70
     1
102
RTVSPropertyOp32
 70
     1
102
RTVSPropertyOp33
 70
     1
102
RTVSPropertyOp34
 70
     1
102
RTVSPropertyOp35
 70
     1
102
RTVSPropertyOp36
 70
     1
102
RTVSPropertyOp37
 70
     1
102
RTVSPropertyOp38
 70
     1
102
RTVSPropertyOp39
 70
     1
102
RTVSPropertyOp40
 70
     1
102
RTVSPropertyOp41
 70
     1
102
RTVSPropertyOp42
 70
     1
102
RTVSPropertyOp43
 70
     1
102
RTVSPropertyOp44
 70
     1
102
RTVSPropertyOp45
 70
     1
102
RTVSPropertyOp46
 70
     1
102
RTVSPropertyOp47
 70
     1
102
RTVSPropertyOp48
 70
     1
102
RTVSPropertyOp49
 70
     1
102
RTVSPropertyOp50
 70
     1
102
RTVSPropertyOp51
 70
     0
102
RTVSPropertyOp52
 70
     0
102
RTVSPropertyOp53
 70
     1
102
RTVSPropertyOp54
 70
     1
102
RTVSPropertyOp55
 70
     1
102
RTVSPropertyOp56
 70
     1
102
RTVSPropertyOp57
 70
     1
102
RTVSPropertyOp58
 70
     1
102
RTVSPropertyOp59
 70
     1
102
RTVSPropertyOp60
 70
     1
102
RTVSPropertyOp61
 70
     1
102
RTVSPropertyOp62
 70
     1
  0
XRECORD
  5
2B0D
102
{ACAD_REACTORS
330
2B0C
102
}
330
2B0C
100
AcDbXrecord
280
     1
102
RTVSPost2010Prop28
280
     0
102
RTVSPost2010PropOp28
 70
     1
102
RTVSPost2010Prop29
280
     1
102
RTVSPost2010PropOp29
 70
     1
102
RTVSPost2010Prop30
280
     1
102
RTVSPost2010PropOp30
 70
     1
102
RTVSPost2010Prop31
280
     0
102
RTVSPost2010PropOp31
 70
     1
102
RTVSPost2010Prop32
280
     0
102
RTVSPost2010PropOp32
 70
     1
102
RTVSPost2010Prop33
280
     0
102
RTVSPost2010PropOp33
 70
     1
102
RTVSPost2010Prop34
280
     0
102
RTVSPost2010PropOp34
 70
     1
102
RTVSPost2010Prop35
280
     0
102
RTVSPost2010PropOp35
 70
     1
102
RTVSPost2010Prop36
280
     0
102
RTVSPost2010PropOp36
 70
     1
102
RTVSPost2010Prop37
 90
       50
102
RTVSPost2010PropOp37
 70
     1
102
RTVSPost2010Prop38
140
0.0
102
RTVSPost2010PropOp38
 70
     1
102
RTVSPost2010Prop39
140
1.0
102
RTVSPost2010PropOp39
 70
     1
102
RTVSPost2010Prop40
 90
        0
102
RTVSPost2010PropOp40
 70
     1
102
RTVSPost2010Prop41ColorIndex
 90
       18
102
RTVSPost2010Prop41ColorRGB
 90
        0
102
RTVSPost2010PropOp41
 70
     1
102
RTVSPost2010Prop42
 90
       50
102
RTVSPost2010PropOp42
 70
     1
102
RTVSPost2010Prop43
 90
        3
102
RTVSPost2010PropOp43
 70
     1
102
RTVSPost2010Prop44ColorIndex
 90
        5
102
RTVSPost2010Prop44ColorRGB
 90
      255
102
RTVSPost2010PropOp44
 70
     1
102
RTVSPost2010Prop45
280
     0
102
RTVSPost2010PropOp45
 70
     1
102
RTVSPost2010Prop46
 90
       50
102
RTVSPost2010PropOp46
 70
     1
102
RTVSPost2010Prop47
 90
       50
102
RTVSPost2010PropOp47
 70
     1
102
RTVSPost2010Prop48
 90
       50
102
RTVSPost2010PropOp48
 70
     1
102
RTVSPost2010Prop49
280
     0
102
RTVSPost2010PropOp49
 70
     1
102
RTVSPost2010Prop50
 90
       50
102
RTVSPost2010PropOp50
 70
     1
102
RTVSPost2010Prop51ColorIndex
 90
      256
102
RTVSPost2010Prop51ColorRGB
 90
-16777216
102
RTVSPost2010PropOp51
 70
     0
102
RTVSPost2010Prop52
140
1.0
102
RTVSPost2010PropOp52
 70
     0
102
RTVSPost2010Prop53
 90
        2
102
RTVSPost2010PropOp53
 70
     1
102
RTVSPost2010Prop54
  1
strokes_ogs.tif
102
RTVSPost2010PropOp54
 70
     1
102
RTVSPost2010Prop55
280
     0
102
RTVSPost2010PropOp55
 70
     1
102
RTVSPost2010Prop56
140
1.0
102
RTVSPost2010PropOp56
 70
     1
102
RTVSPost2010Prop57
140
1.0
102
RTVSPost2010PropOp57
 70
     1
102
RTVSPropertyOp0
 70
     1
102
RTVSPropertyOp1
 70
     1
102
RTVSPropertyOp2
 70
     1
102
RTVSPropertyOp3
 70
     1
102
RTVSPropertyOp4
 70
     1
102
RTVSPropertyOp5
 70
     1
102
RTVSPropertyOp6
 70
     1
102
RTVSPropertyOp7
 70
     1
102
RTVSPropertyOp8
 70
     1
102
RTVSPropertyOp9
 70
     1
102
RTVSPropertyOp10
 70
     1
102
RTVSPropertyOp11
 70
     1
102
RTVSPropertyOp12
 70
     1
102
RTVSPropertyOp13
 70
     1
102
RTVSPropertyOp14
 70
     1
102
RTVSPropertyOp15
 70
     1
102
RTVSPropertyOp16
 70
     1
102
RTVSPropertyOp17
 70
     1
102
RTVSPropertyOp18
 70
     1
102
RTVSPropertyOp19
 70
     1
102
RTVSPropertyOp20
 70
     1
102
RTVSPropertyOp21
 70
     1
102
RTVSPropertyOp22
 70
     1
102
RTVSPropertyOp23
 70
     1
102
RTVSPropertyOp24
 70
     1
102
RTVSPropertyOp25
 70
     1
102
RTVSPropertyOp26
 70
     1
102
RTVSPropertyOp27
 70
     1
102
RTVSPropertyOp28
 70
     1
102
RTVSPropertyOp29
 70
     1
102
RTVSPropertyOp30
 70
     1
102
RTVSPropertyOp31
 70
     1
102
RTVSPropertyOp32
 70
     1
102
RTVSPropertyOp33
 70
     1
102
RTVSPropertyOp34
 70
     1
102
RTVSPropertyOp35
 70
     1
102
RTVSPropertyOp36
 70
     1
102
RTVSPropertyOp37
 70
     1
102
RTVSPropertyOp38
 70
     1
102
RTVSPropertyOp39
 70
     1
102
RTVSPropertyOp40
 70
     1
102
RTVSPropertyOp41
 70
     1
102
RTVSPropertyOp42
 70
     1
102
RTVSPropertyOp43
 70
     1
102
RTVSPropertyOp44
 70
     1
102
RTVSPropertyOp45
 70
     1
102
RTVSPropertyOp46
 70
     1
102
RTVSPropertyOp47
 70
     1
102
RTVSPropertyOp48
 70
     1
102
RTVSPropertyOp49
 70
     1
102
RTVSPropertyOp50
 70
     1
102
RTVSPropertyOp51
 70
     0
102
RTVSPropertyOp52
 70
     0
102
RTVSPropertyOp53
 70
     1
102
RTVSPropertyOp54
 70
     1
102
RTVSPropertyOp55
 70
     1
102
RTVSPropertyOp56
 70
     1
102
RTVSPropertyOp57
 70
     1
102
RTVSPropertyOp58
 70
     1
102
RTVSPropertyOp59
 70
     1
102
RTVSPropertyOp60
 70
     1
102
RTVSPropertyOp61
 70
     1
102
RTVSPropertyOp62
 70
     1
  0
XRECORD
  5
2B29
102
{ACAD_REACTORS
330
2B28
102
}
330
2B28
100
AcDbXrecord
280
     1
102
RTVSPost2010Prop28
280
     0
102
RTVSPost2010PropOp28
 70
     1
102
RTVSPost2010Prop29
280
     1
102
RTVSPost2010PropOp29
 70
     1
102
RTVSPost2010Prop30
280
     1
102
RTVSPost2010PropOp30
 70
     1
102
RTVSPost2010Prop31
280
     0
102
RTVSPost2010PropOp31
 70
     1
102
RTVSPost2010Prop32
280
     0
102
RTVSPost2010PropOp32
 70
     1
102
RTVSPost2010Prop33
280
     0
102
RTVSPost2010PropOp33
 70
     1
102
RTVSPost2010Prop34
280
     0
102
RTVSPost2010PropOp34
 70
     1
102
RTVSPost2010Prop35
280
     0
102
RTVSPost2010PropOp35
 70
     1
102
RTVSPost2010Prop36
280
     0
102
RTVSPost2010PropOp36
 70
     1
102
RTVSPost2010Prop37
 90
       50
102
RTVSPost2010PropOp37
 70
     0
102
RTVSPost2010Prop38
140
0.0
102
RTVSPost2010PropOp38
 70
     0
102
RTVSPost2010Prop39
140
1.0
102
RTVSPost2010PropOp39
 70
     0
102
RTVSPost2010Prop40
 90
        0
102
RTVSPost2010PropOp40
 70
     0
102
RTVSPost2010Prop41ColorIndex
 90
       18
102
RTVSPost2010Prop41ColorRGB
 90
        0
102
RTVSPost2010PropOp41
 70
     0
102
RTVSPost2010Prop42
 90
       50
102
RTVSPost2010PropOp42
 70
     0
102
RTVSPost2010Prop43
 90
        3
102
RTVSPost2010PropOp43
 70
     0
102
RTVSPost2010Prop44ColorIndex
 90
        5
102
RTVSPost2010Prop44ColorRGB
 90
      255
102
RTVSPost2010PropOp44
 70
     0
102
RTVSPost2010Prop45
280
     0
102
RTVSPost2010PropOp45
 70
     1
102
RTVSPost2010Prop46
 90
       50
102
RTVSPost2010PropOp46
 70
     0
102
RTVSPost2010Prop47
 90
       50
102
RTVSPost2010PropOp47
 70
     0
102
RTVSPost2010Prop48
 90
       50
102
RTVSPost2010PropOp48
 70
     0
102
RTVSPost2010Prop49
280
     0
102
RTVSPost2010PropOp49
 70
     1
102
RTVSPost2010Prop50
 90
       50
102
RTVSPost2010PropOp50
 70
     0
102
RTVSPost2010Prop51ColorIndex
 90
      256
102
RTVSPost2010Prop51ColorRGB
 90
-16777216
102
RTVSPost2010PropOp51
 70
     0
102
RTVSPost2010Prop52
140
1.0
102
RTVSPost2010PropOp52
 70
     0
102
RTVSPost2010Prop53
 90
        2
102
RTVSPost2010PropOp53
 70
     0
102
RTVSPost2010Prop54
  1
strokes_ogs.tif
102
RTVSPost2010PropOp54
 70
     0
102
RTVSPost2010Prop55
280
     0
102
RTVSPost2010PropOp55
 70
     1
102
RTVSPost2010Prop56
140
1.0
102
RTVSPost2010PropOp56
 70
     0
102
RTVSPost2010Prop57
140
1.0
102
RTVSPost2010PropOp57
 70
     0
102
RTVSPropertyOp0
 70
     0
102
RTVSPropertyOp1
 70
     0
102
RTVSPropertyOp2
 70
     0
102
RTVSPropertyOp3
 70
     0
102
RTVSPropertyOp4
 70
     0
102
RTVSPropertyOp5
 70
     0
102
RTVSPropertyOp6
 70
     0
102
RTVSPropertyOp7
 70
     0
102
RTVSPropertyOp8
 70
     0
102
RTVSPropertyOp9
 70
     0
102
RTVSPropertyOp10
 70
     0
102
RTVSPropertyOp11
 70
     0
102
RTVSPropertyOp12
 70
     0
102
RTVSPropertyOp13
 70
     0
102
RTVSPropertyOp14
 70
     2
102
RTVSPropertyOp15
 70
     0
102
RTVSPropertyOp16
 70
     0
102
RTVSPropertyOp17
 70
     0
102
RTVSPropertyOp18
 70
     0
102
RTVSPropertyOp19
 70
     0
102
RTVSPropertyOp20
 70
     0
102
RTVSPropertyOp21
 70
     0
102
RTVSPropertyOp22
 70
     0
102
RTVSPropertyOp23
 70
     0
102
RTVSPropertyOp24
 70
     0
102
RTVSPropertyOp25
 70
     0
102
RTVSPropertyOp26
 70
     0
102
RTVSPropertyOp27
 70
     0
102
RTVSPropertyOp28
 70
     1
102
RTVSPropertyOp29
 70
     1
102
RTVSPropertyOp30
 70
     1
102
RTVSPropertyOp31
 70
     1
102
RTVSPropertyOp32
 70
     1
102
RTVSPropertyOp33
 70
     1
102
RTVSPropertyOp34
 70
     1
102
RTVSPropertyOp35
 70
     1
102
RTVSPropertyOp36
 70
     1
102
RTVSPropertyOp37
 70
     0
102
RTVSPropertyOp38
 70
     0
102
RTVSPropertyOp39
 70
     0
102
RTVSPropertyOp40
 70
     0
102
RTVSPropertyOp41
 70
     0
102
RTVSPropertyOp42
 70
     0
102
RTVSPropertyOp43
 70
     0
102
RTVSPropertyOp44
 70
     0
102
RTVSPropertyOp45
 70
     1
102
RTVSPropertyOp46
 70
     0
102
RTVSPropertyOp47
 70
     0
102
RTVSPropertyOp48
 70
     0
102
RTVSPropertyOp49
 70
     1
102
RTVSPropertyOp50
 70
     0
102
RTVSPropertyOp51
 70
     0
102
RTVSPropertyOp52
 70
     0
102
RTVSPropertyOp53
 70
     0
102
RTVSPropertyOp54
 70
     0
102
RTVSPropertyOp55
 70
     1
102
RTVSPropertyOp56
 70
     0
102
RTVSPropertyOp57
 70
     0
102
RTVSPropertyOp58
 70
     0
102
RTVSPropertyOp59
 70
     0
102
RTVSPropertyOp60
 70
     0
102
RTVSPropertyOp61
 70
     0
102
RTVSPropertyOp62
 70
     0
  0
XRECORD
  5
2B19
102
{ACAD_REACTORS
330
2B18
102
}
330
2B18
100
AcDbXrecord
280
     1
102
RTVSPost2010Prop28
280
     0
102
RTVSPost2010PropOp28
 70
     1
102
RTVSPost2010Prop29
280
     1
102
RTVSPost2010PropOp29
 70
     1
102
RTVSPost2010Prop30
280
     1
102
RTVSPost2010PropOp30
 70
     1
102
RTVSPost2010Prop31
280
     0
102
RTVSPost2010PropOp31
 70
     1
102
RTVSPost2010Prop32
280
     0
102
RTVSPost2010PropOp32
 70
     1
102
RTVSPost2010Prop33
280
     0
102
RTVSPost2010PropOp33
 70
     1
102
RTVSPost2010Prop34
280
     0
102
RTVSPost2010PropOp34
 70
     1
102
RTVSPost2010Prop35
280
     0
102
RTVSPost2010PropOp35
 70
     1
102
RTVSPost2010Prop36
280
     0
102
RTVSPost2010PropOp36
 70
     1
102
RTVSPost2010Prop37
 90
       50
102
RTVSPost2010PropOp37
 70
     1
102
RTVSPost2010Prop38
140
0.0
102
RTVSPost2010PropOp38
 70
     1
102
RTVSPost2010Prop39
140
1.0
102
RTVSPost2010PropOp39
 70
     1
102
RTVSPost2010Prop40
 90
        0
102
RTVSPost2010PropOp40
 70
     1
102
RTVSPost2010Prop41ColorIndex
 90
       18
102
RTVSPost2010Prop41ColorRGB
 90
        0
102
RTVSPost2010PropOp41
 70
     1
102
RTVSPost2010Prop42
 90
       50
102
RTVSPost2010PropOp42
 70
     1
102
RTVSPost2010Prop43
 90
        3
102
RTVSPost2010PropOp43
 70
     1
102
RTVSPost2010Prop44ColorIndex
 90
        5
102
RTVSPost2010Prop44ColorRGB
 90
      255
102
RTVSPost2010PropOp44
 70
     1
102
RTVSPost2010Prop45
280
     0
102
RTVSPost2010PropOp45
 70
     1
102
RTVSPost2010Prop46
 90
       50
102
RTVSPost2010PropOp46
 70
     1
102
RTVSPost2010Prop47
 90
       50
102
RTVSPost2010PropOp47
 70
     1
102
RTVSPost2010Prop48
 90
       50
102
RTVSPost2010PropOp48
 70
     1
102
RTVSPost2010Prop49
280
     0
102
RTVSPost2010PropOp49
 70
     1
102
RTVSPost2010Prop50
 90
       50
102
RTVSPost2010PropOp50
 70
     1
102
RTVSPost2010Prop51ColorIndex
 90
      256
102
RTVSPost2010Prop51ColorRGB
 90
-16777216
102
RTVSPost2010PropOp51
 70
     0
102
RTVSPost2010Prop52
140
1.0
102
RTVSPost2010PropOp52
 70
     0
102
RTVSPost2010Prop53
 90
        2
102
RTVSPost2010PropOp53
 70
     1
102
RTVSPost2010Prop54
  1
strokes_ogs.tif
102
RTVSPost2010PropOp54
 70
     1
102
RTVSPost2010Prop55
280
     0
102
RTVSPost2010PropOp55
 70
     1
102
RTVSPost2010Prop56
140
1.0
102
RTVSPost2010PropOp56
 70
     1
102
RTVSPost2010Prop57
140
1.0
102
RTVSPost2010PropOp57
 70
     1
102
RTVSPropertyOp0
 70
     1
102
RTVSPropertyOp1
 70
     1
102
RTVSPropertyOp2
 70
     1
102
RTVSPropertyOp3
 70
     1
102
RTVSPropertyOp4
 70
     1
102
RTVSPropertyOp5
 70
     1
102
RTVSPropertyOp6
 70
     1
102
RTVSPropertyOp7
 70
     1
102
RTVSPropertyOp8
 70
     1
102
RTVSPropertyOp9
 70
     1
102
RTVSPropertyOp10
 70
     1
102
RTVSPropertyOp11
 70
     1
102
RTVSPropertyOp12
 70
     1
102
RTVSPropertyOp13
 70
     1
102
RTVSPropertyOp14
 70
     1
102
RTVSPropertyOp15
 70
     1
102
RTVSPropertyOp16
 70
     1
102
RTVSPropertyOp17
 70
     1
102
RTVSPropertyOp18
 70
     1
102
RTVSPropertyOp19
 70
     1
102
RTVSPropertyOp20
 70
     1
102
RTVSPropertyOp21
 70
     1
102
RTVSPropertyOp22
 70
     1
102
RTVSPropertyOp23
 70
     1
102
RTVSPropertyOp24
 70
     1
102
RTVSPropertyOp25
 70
     1
102
RTVSPropertyOp26
 70
     1
102
RTVSPropertyOp27
 70
     1
102
RTVSPropertyOp28
 70
     1
102
RTVSPropertyOp29
 70
     1
102
RTVSPropertyOp30
 70
     1
102
RTVSPropertyOp31
 70
     1
102
RTVSPropertyOp32
 70
     1
102
RTVSPropertyOp33
 70
     1
102
RTVSPropertyOp34
 70
     1
102
RTVSPropertyOp35
 70
     1
102
RTVSPropertyOp36
 70
     1
102
RTVSPropertyOp37
 70
     1
102
RTVSPropertyOp38
 70
     1
102
RTVSPropertyOp39
 70
     1
102
RTVSPropertyOp40
 70
     1
102
RTVSPropertyOp41
 70
     1
102
RTVSPropertyOp42
 70
     1
102
RTVSPropertyOp43
 70
     1
102
RTVSPropertyOp44
 70
     1
102
RTVSPropertyOp45
 70
     1
102
RTVSPropertyOp46
 70
     1
102
RTVSPropertyOp47
 70
     1
102
RTVSPropertyOp48
 70
     1
102
RTVSPropertyOp49
 70
     1
102
RTVSPropertyOp50
 70
     1
102
RTVSPropertyOp51
 70
     0
102
RTVSPropertyOp52
 70
     0
102
RTVSPropertyOp53
 70
     1
102
RTVSPropertyOp54
 70
     1
102
RTVSPropertyOp55
 70
     1
102
RTVSPropertyOp56
 70
     1
102
RTVSPropertyOp57
 70
     1
102
RTVSPropertyOp58
 70
     1
102
RTVSPropertyOp59
 70
     1
102
RTVSPropertyOp60
 70
     1
102
RTVSPropertyOp61
 70
     1
102
RTVSPropertyOp62
 70
     1
  0
XRECORD
  5
2B2B
102
{ACAD_REACTORS
330
2B2A
102
}
330
2B2A
100
AcDbXrecord
280
     1
102
RTVSPost2010Prop28
280
     0
102
RTVSPost2010PropOp28
 70
     1
102
RTVSPost2010Prop29
280
     1
102
RTVSPost2010PropOp29
 70
     1
102
RTVSPost2010Prop30
280
     1
102
RTVSPost2010PropOp30
 70
     1
102
RTVSPost2010Prop31
280
     0
102
RTVSPost2010PropOp31
 70
     1
102
RTVSPost2010Prop32
280
     0
102
RTVSPost2010PropOp32
 70
     1
102
RTVSPost2010Prop33
280
     0
102
RTVSPost2010PropOp33
 70
     1
102
RTVSPost2010Prop34
280
     0
102
RTVSPost2010PropOp34
 70
     1
102
RTVSPost2010Prop35
280
     0
102
RTVSPost2010PropOp35
 70
     1
102
RTVSPost2010Prop36
280
     0
102
RTVSPost2010PropOp36
 70
     1
102
RTVSPost2010Prop37
 90
       50
102
RTVSPost2010PropOp37
 70
     0
102
RTVSPost2010Prop38
140
0.0
102
RTVSPost2010PropOp38
 70
     0
102
RTVSPost2010Prop39
140
1.0
102
RTVSPost2010PropOp39
 70
     0
102
RTVSPost2010Prop40
 90
        0
102
RTVSPost2010PropOp40
 70
     0
102
RTVSPost2010Prop41ColorIndex
 90
       18
102
RTVSPost2010Prop41ColorRGB
 90
        0
102
RTVSPost2010PropOp41
 70
     0
102
RTVSPost2010Prop42
 90
       50
102
RTVSPost2010PropOp42
 70
     0
102
RTVSPost2010Prop43
 90
        3
102
RTVSPost2010PropOp43
 70
     0
102
RTVSPost2010Prop44ColorIndex
 90
        5
102
RTVSPost2010Prop44ColorRGB
 90
      255
102
RTVSPost2010PropOp44
 70
     0
102
RTVSPost2010Prop45
280
     0
102
RTVSPost2010PropOp45
 70
     1
102
RTVSPost2010Prop46
 90
       50
102
RTVSPost2010PropOp46
 70
     0
102
RTVSPost2010Prop47
 90
       50
102
RTVSPost2010PropOp47
 70
     0
102
RTVSPost2010Prop48
 90
       50
102
RTVSPost2010PropOp48
 70
     0
102
RTVSPost2010Prop49
280
     0
102
RTVSPost2010PropOp49
 70
     1
102
RTVSPost2010Prop50
 90
       50
102
RTVSPost2010PropOp50
 70
     0
102
RTVSPost2010Prop51ColorIndex
 90
      256
102
RTVSPost2010Prop51ColorRGB
 90
-16777216
102
RTVSPost2010PropOp51
 70
     0
102
RTVSPost2010Prop52
140
1.0
102
RTVSPost2010PropOp52
 70
     0
102
RTVSPost2010Prop53
 90
        2
102
RTVSPost2010PropOp53
 70
     0
102
RTVSPost2010Prop54
  1
strokes_ogs.tif
102
RTVSPost2010PropOp54
 70
     0
102
RTVSPost2010Prop55
280
     0
102
RTVSPost2010PropOp55
 70
     1
102
RTVSPost2010Prop56
140
1.0
102
RTVSPost2010PropOp56
 70
     0
102
RTVSPost2010Prop57
140
1.0
102
RTVSPost2010PropOp57
 70
     0
102
RTVSPropertyOp0
 70
     0
102
RTVSPropertyOp1
 70
     0
102
RTVSPropertyOp2
 70
     0
102
RTVSPropertyOp3
 70
     0
102
RTVSPropertyOp4
 70
     0
102
RTVSPropertyOp5
 70
     0
102
RTVSPropertyOp6
 70
     0
102
RTVSPropertyOp7
 70
     0
102
RTVSPropertyOp8
 70
     0
102
RTVSPropertyOp9
 70
     0
102
RTVSPropertyOp10
 70
     0
102
RTVSPropertyOp11
 70
     0
102
RTVSPropertyOp12
 70
     0
102
RTVSPropertyOp13
 70
     0
102
RTVSPropertyOp14
 70
     2
102
RTVSPropertyOp15
 70
     0
102
RTVSPropertyOp16
 70
     0
102
RTVSPropertyOp17
 70
     0
102
RTVSPropertyOp18
 70
     0
102
RTVSPropertyOp19
 70
     0
102
RTVSPropertyOp20
 70
     0
102
RTVSPropertyOp21
 70
     0
102
RTVSPropertyOp22
 70
     0
102
RTVSPropertyOp23
 70
     0
102
RTVSPropertyOp24
 70
     0
102
RTVSPropertyOp25
 70
     0
102
RTVSPropertyOp26
 70
     0
102
RTVSPropertyOp27
 70
     0
102
RTVSPropertyOp28
 70
     1
102
RTVSPropertyOp29
 70
     1
102
RTVSPropertyOp30
 70
     1
102
RTVSPropertyOp31
 70
     1
102
RTVSPropertyOp32
 70
     1
102
RTVSPropertyOp33
 70
     1
102
RTVSPropertyOp34
 70
     1
102
RTVSPropertyOp35
 70
     1
102
RTVSPropertyOp36
 70
     1
102
RTVSPropertyOp37
 70
     0
102
RTVSPropertyOp38
 70
     0
102
RTVSPropertyOp39
 70
     0
102
RTVSPropertyOp40
 70
     0
102
RTVSPropertyOp41
 70
     0
102
RTVSPropertyOp42
 70
     0
102
RTVSPropertyOp43
 70
     0
102
RTVSPropertyOp44
 70
     0
102
RTVSPropertyOp45
 70
     1
102
RTVSPropertyOp46
 70
     0
102
RTVSPropertyOp47
 70
     0
102
RTVSPropertyOp48
 70
     0
102
RTVSPropertyOp49
 70
     1
102
RTVSPropertyOp50
 70
     0
102
RTVSPropertyOp51
 70
     0
102
RTVSPropertyOp52
 70
     0
102
RTVSPropertyOp53
 70
     0
102
RTVSPropertyOp54
 70
     0
102
RTVSPropertyOp55
 70
     1
102
RTVSPropertyOp56
 70
     0
102
RTVSPropertyOp57
 70
     0
102
RTVSPropertyOp58
 70
     0
102
RTVSPropertyOp59
 70
     0
102
RTVSPropertyOp60
 70
     0
102
RTVSPropertyOp61
 70
     0
102
RTVSPropertyOp62
 70
     0
  0
XRECORD
  5
2B11
102
{ACAD_REACTORS
330
2B10
102
}
330
2B10
100
AcDbXrecord
280
     1
102
RTVSPost2010Prop28
280
     0
102
RTVSPost2010PropOp28
 70
     1
102
RTVSPost2010Prop29
280
     1
102
RTVSPost2010PropOp29
 70
     1
102
RTVSPost2010Prop30
280
     1
102
RTVSPost2010PropOp30
 70
     1
102
RTVSPost2010Prop31
280
     0
102
RTVSPost2010PropOp31
 70
     1
102
RTVSPost2010Prop32
280
     0
102
RTVSPost2010PropOp32
 70
     1
102
RTVSPost2010Prop33
280
     0
102
RTVSPost2010PropOp33
 70
     1
102
RTVSPost2010Prop34
280
     0
102
RTVSPost2010PropOp34
 70
     1
102
RTVSPost2010Prop35
280
     0
102
RTVSPost2010PropOp35
 70
     1
102
RTVSPost2010Prop36
280
     0
102
RTVSPost2010PropOp36
 70
     1
102
RTVSPost2010Prop37
 90
       50
102
RTVSPost2010PropOp37
 70
     1
102
RTVSPost2010Prop38
140
0.0
102
RTVSPost2010PropOp38
 70
     1
102
RTVSPost2010Prop39
140
1.0
102
RTVSPost2010PropOp39
 70
     1
102
RTVSPost2010Prop40
 90
        0
102
RTVSPost2010PropOp40
 70
     1
102
RTVSPost2010Prop41ColorIndex
 90
       18
102
RTVSPost2010Prop41ColorRGB
 90
        0
102
RTVSPost2010PropOp41
 70
     1
102
RTVSPost2010Prop42
 90
       50
102
RTVSPost2010PropOp42
 70
     1
102
RTVSPost2010Prop43
 90
        3
102
RTVSPost2010PropOp43
 70
     1
102
RTVSPost2010Prop44ColorIndex
 90
        5
102
RTVSPost2010Prop44ColorRGB
 90
      255
102
RTVSPost2010PropOp44
 70
     1
102
RTVSPost2010Prop45
280
     0
102
RTVSPost2010PropOp45
 70
     1
102
RTVSPost2010Prop46
 90
       50
102
RTVSPost2010PropOp46
 70
     1
102
RTVSPost2010Prop47
 90
       50
102
RTVSPost2010PropOp47
 70
     1
102
RTVSPost2010Prop48
 90
       50
102
RTVSPost2010PropOp48
 70
     1
102
RTVSPost2010Prop49
280
     0
102
RTVSPost2010PropOp49
 70
     1
102
RTVSPost2010Prop50
 90
       50
102
RTVSPost2010PropOp50
 70
     1
102
RTVSPost2010Prop51ColorIndex
 90
      256
102
RTVSPost2010Prop51ColorRGB
 90
-16777216
102
RTVSPost2010PropOp51
 70
     0
102
RTVSPost2010Prop52
140
1.0
102
RTVSPost2010PropOp52
 70
     0
102
RTVSPost2010Prop53
 90
        2
102
RTVSPost2010PropOp53
 70
     1
102
RTVSPost2010Prop54
  1
strokes_ogs.tif
102
RTVSPost2010PropOp54
 70
     1
102
RTVSPost2010Prop55
280
     0
102
RTVSPost2010PropOp55
 70
     1
102
RTVSPost2010Prop56
140
1.0
102
RTVSPost2010PropOp56
 70
     1
102
RTVSPost2010Prop57
140
1.0
102
RTVSPost2010PropOp57
 70
     1
102
RTVSPropertyOp0
 70
     1
102
RTVSPropertyOp1
 70
     1
102
RTVSPropertyOp2
 70
     1
102
RTVSPropertyOp3
 70
     1
102
RTVSPropertyOp4
 70
     1
102
RTVSPropertyOp5
 70
     1
102
RTVSPropertyOp6
 70
     1
102
RTVSPropertyOp7
 70
     1
102
RTVSPropertyOp8
 70
     1
102
RTVSPropertyOp9
 70
     1
102
RTVSPropertyOp10
 70
     1
102
RTVSPropertyOp11
 70
     1
102
RTVSPropertyOp12
 70
     1
102
RTVSPropertyOp13
 70
     1
102
RTVSPropertyOp14
 70
     1
102
RTVSPropertyOp15
 70
     1
102
RTVSPropertyOp16
 70
     1
102
RTVSPropertyOp17
 70
     1
102
RTVSPropertyOp18
 70
     1
102
RTVSPropertyOp19
 70
     1
102
RTVSPropertyOp20
 70
     1
102
RTVSPropertyOp21
 70
     1
102
RTVSPropertyOp22
 70
     1
102
RTVSPropertyOp23
 70
     1
102
RTVSPropertyOp24
 70
     1
102
RTVSPropertyOp25
 70
     1
102
RTVSPropertyOp26
 70
     1
102
RTVSPropertyOp27
 70
     1
102
RTVSPropertyOp28
 70
     1
102
RTVSPropertyOp29
 70
     1
102
RTVSPropertyOp30
 70
     1
102
RTVSPropertyOp31
 70
     1
102
RTVSPropertyOp32
 70
     1
102
RTVSPropertyOp33
 70
     1
102
RTVSPropertyOp34
 70
     1
102
RTVSPropertyOp35
 70
     1
102
RTVSPropertyOp36
 70
     1
102
RTVSPropertyOp37
 70
     1
102
RTVSPropertyOp38
 70
     1
102
RTVSPropertyOp39
 70
     1
102
RTVSPropertyOp40
 70
     1
102
RTVSPropertyOp41
 70
     1
102
RTVSPropertyOp42
 70
     1
102
RTVSPropertyOp43
 70
     1
102
RTVSPropertyOp44
 70
     1
102
RTVSPropertyOp45
 70
     1
102
RTVSPropertyOp46
 70
     1
102
RTVSPropertyOp47
 70
     1
102
RTVSPropertyOp48
 70
     1
102
RTVSPropertyOp49
 70
     1
102
RTVSPropertyOp50
 70
     1
102
RTVSPropertyOp51
 70
     0
102
RTVSPropertyOp52
 70
     0
102
RTVSPropertyOp53
 70
     1
102
RTVSPropertyOp54
 70
     1
102
RTVSPropertyOp55
 70
     1
102
RTVSPropertyOp56
 70
     1
102
RTVSPropertyOp57
 70
     1
102
RTVSPropertyOp58
 70
     1
102
RTVSPropertyOp59
 70
     1
102
RTVSPropertyOp60
 70
     1
102
RTVSPropertyOp61
 70
     1
102
RTVSPropertyOp62
 70
     1
  0
XRECORD
  5
2B27
102
{ACAD_REACTORS
330
2B26
102
}
330
2B26
100
AcDbXrecord
280
     1
102
RTVSPost2010Prop28
280
     0
102
RTVSPost2010PropOp28
 70
     1
102
RTVSPost2010Prop29
280
     1
102
RTVSPost2010PropOp29
 70
     1
102
RTVSPost2010Prop30
280
     1
102
RTVSPost2010PropOp30
 70
     1
102
RTVSPost2010Prop31
280
     0
102
RTVSPost2010PropOp31
 70
     1
102
RTVSPost2010Prop32
280
     0
102
RTVSPost2010PropOp32
 70
     1
102
RTVSPost2010Prop33
280
     0
102
RTVSPost2010PropOp33
 70
     1
102
RTVSPost2010Prop34
280
     0
102
RTVSPost2010PropOp34
 70
     1
102
RTVSPost2010Prop35
280
     0
102
RTVSPost2010PropOp35
 70
     1
102
RTVSPost2010Prop36
280
     0
102
RTVSPost2010PropOp36
 70
     1
102
RTVSPost2010Prop37
 90
       50
102
RTVSPost2010PropOp37
 70
     1
102
RTVSPost2010Prop38
140
0.0
102
RTVSPost2010PropOp38
 70
     1
102
RTVSPost2010Prop39
140
1.0
102
RTVSPost2010PropOp39
 70
     1
102
RTVSPost2010Prop40
 90
        0
102
RTVSPost2010PropOp40
 70
     1
102
RTVSPost2010Prop41ColorIndex
 90
       18
102
RTVSPost2010Prop41ColorRGB
 90
        0
102
RTVSPost2010PropOp41
 70
     1
102
RTVSPost2010Prop42
 90
       50
102
RTVSPost2010PropOp42
 70
     1
102
RTVSPost2010Prop43
 90
        3
102
RTVSPost2010PropOp43
 70
     1
102
RTVSPost2010Prop44ColorIndex
 90
        5
102
RTVSPost2010Prop44ColorRGB
 90
      255
102
RTVSPost2010PropOp44
 70
     1
102
RTVSPost2010Prop45
280
     0
102
RTVSPost2010PropOp45
 70
     1
102
RTVSPost2010Prop46
 90
       50
102
RTVSPost2010PropOp46
 70
     1
102
RTVSPost2010Prop47
 90
       50
102
RTVSPost2010PropOp47
 70
     1
102
RTVSPost2010Prop48
 90
       50
102
RTVSPost2010PropOp48
 70
     1
102
RTVSPost2010Prop49
280
     0
102
RTVSPost2010PropOp49
 70
     1
102
RTVSPost2010Prop50
 90
       50
102
RTVSPost2010PropOp50
 70
     1
102
RTVSPost2010Prop51ColorIndex
 90
      256
102
RTVSPost2010Prop51ColorRGB
 90
-16777216
102
RTVSPost2010PropOp51
 70
     0
102
RTVSPost2010Prop52
140
1.0
102
RTVSPost2010PropOp52
 70
     0
102
RTVSPost2010Prop53
 90
        2
102
RTVSPost2010PropOp53
 70
     1
102
RTVSPost2010Prop54
  1
strokes_ogs.tif
102
RTVSPost2010PropOp54
 70
     1
102
RTVSPost2010Prop55
280
     0
102
RTVSPost2010PropOp55
 70
     1
102
RTVSPost2010Prop56
140
1.0
102
RTVSPost2010PropOp56
 70
     1
102
RTVSPost2010Prop57
140
1.0
102
RTVSPost2010PropOp57
 70
     1
102
RTVSPropertyOp0
 70
     1
102
RTVSPropertyOp1
 70
     1
102
RTVSPropertyOp2
 70
     1
102
RTVSPropertyOp3
 70
     1
102
RTVSPropertyOp4
 70
     1
102
RTVSPropertyOp5
 70
     1
102
RTVSPropertyOp6
 70
     1
102
RTVSPropertyOp7
 70
     1
102
RTVSPropertyOp8
 70
     1
102
RTVSPropertyOp9
 70
     1
102
RTVSPropertyOp10
 70
     1
102
RTVSPropertyOp11
 70
     1
102
RTVSPropertyOp12
 70
     1
102
RTVSPropertyOp13
 70
     1
102
RTVSPropertyOp14
 70
     1
102
RTVSPropertyOp15
 70
     1
102
RTVSPropertyOp16
 70
     1
102
RTVSPropertyOp17
 70
     1
102
RTVSPropertyOp18
 70
     1
102
RTVSPropertyOp19
 70
     1
102
RTVSPropertyOp20
 70
     1
102
RTVSPropertyOp21
 70
     1
102
RTVSPropertyOp22
 70
     1
102
RTVSPropertyOp23
 70
     1
102
RTVSPropertyOp24
 70
     1
102
RTVSPropertyOp25
 70
     1
102
RTVSPropertyOp26
 70
     1
102
RTVSPropertyOp27
 70
     1
102
RTVSPropertyOp28
 70
     1
102
RTVSPropertyOp29
 70
     1
102
RTVSPropertyOp30
 70
     1
102
RTVSPropertyOp31
 70
     1
102
RTVSPropertyOp32
 70
     1
102
RTVSPropertyOp33
 70
     1
102
RTVSPropertyOp34
 70
     1
102
RTVSPropertyOp35
 70
     1
102
RTVSPropertyOp36
 70
     1
102
RTVSPropertyOp37
 70
     1
102
RTVSPropertyOp38
 70
     1
102
RTVSPropertyOp39
 70
     1
102
RTVSPropertyOp40
 70
     1
102
RTVSPropertyOp41
 70
     1
102
RTVSPropertyOp42
 70
     1
102
RTVSPropertyOp43
 70
     1
102
RTVSPropertyOp44
 70
     1
102
RTVSPropertyOp45
 70
     1
102
RTVSPropertyOp46
 70
     1
102
RTVSPropertyOp47
 70
     1
102
RTVSPropertyOp48
 70
     1
102
RTVSPropertyOp49
 70
     1
102
RTVSPropertyOp50
 70
     1
102
RTVSPropertyOp51
 70
     0
102
RTVSPropertyOp52
 70
     0
102
RTVSPropertyOp53
 70
     1
102
RTVSPropertyOp54
 70
     1
102
RTVSPropertyOp55
 70
     1
102
RTVSPropertyOp56
 70
     1
102
RTVSPropertyOp57
 70
     1
102
RTVSPropertyOp58
 70
     1
102
RTVSPropertyOp59
 70
     1
102
RTVSPropertyOp60
 70
     1
102
RTVSPropertyOp61
 70
     1
102
RTVSPropertyOp62
 70
     1
  0
XRECORD
  5
2B25
102
{ACAD_REACTORS
330
2B24
102
}
330
2B24
100
AcDbXrecord
280
     1
102
RTVSPost2010Prop28
280
     0
102
RTVSPost2010PropOp28
 70
     1
102
RTVSPost2010Prop29
280
     1
102
RTVSPost2010PropOp29
 70
     1
102
RTVSPost2010Prop30
280
     1
102
RTVSPost2010PropOp30
 70
     1
102
RTVSPost2010Prop31
280
     0
102
RTVSPost2010PropOp31
 70
     1
102
RTVSPost2010Prop32
280
     0
102
RTVSPost2010PropOp32
 70
     1
102
RTVSPost2010Prop33
280
     0
102
RTVSPost2010PropOp33
 70
     1
102
RTVSPost2010Prop34
280
     0
102
RTVSPost2010PropOp34
 70
     1
102
RTVSPost2010Prop35
280
     0
102
RTVSPost2010PropOp35
 70
     1
102
RTVSPost2010Prop36
280
     0
102
RTVSPost2010PropOp36
 70
     1
102
RTVSPost2010Prop37
 90
       50
102
RTVSPost2010PropOp37
 70
     1
102
RTVSPost2010Prop38
140
0.0
102
RTVSPost2010PropOp38
 70
     1
102
RTVSPost2010Prop39
140
1.0
102
RTVSPost2010PropOp39
 70
     1
102
RTVSPost2010Prop40
 90
        0
102
RTVSPost2010PropOp40
 70
     1
102
RTVSPost2010Prop41ColorIndex
 90
       18
102
RTVSPost2010Prop41ColorRGB
 90
        0
102
RTVSPost2010PropOp41
 70
     1
102
RTVSPost2010Prop42
 90
       50
102
RTVSPost2010PropOp42
 70
     1
102
RTVSPost2010Prop43
 90
        3
102
RTVSPost2010PropOp43
 70
     1
102
RTVSPost2010Prop44ColorIndex
 90
        5
102
RTVSPost2010Prop44ColorRGB
 90
      255
102
RTVSPost2010PropOp44
 70
     1
102
RTVSPost2010Prop45
280
     0
102
RTVSPost2010PropOp45
 70
     1
102
RTVSPost2010Prop46
 90
       50
102
RTVSPost2010PropOp46
 70
     1
102
RTVSPost2010Prop47
 90
       50
102
RTVSPost2010PropOp47
 70
     1
102
RTVSPost2010Prop48
 90
       50
102
RTVSPost2010PropOp48
 70
     1
102
RTVSPost2010Prop49
280
     0
102
RTVSPost2010PropOp49
 70
     1
102
RTVSPost2010Prop50
 90
       50
102
RTVSPost2010PropOp50
 70
     1
102
RTVSPost2010Prop51ColorIndex
 90
      256
102
RTVSPost2010Prop51ColorRGB
 90
-16777216
102
RTVSPost2010PropOp51
 70
     0
102
RTVSPost2010Prop52
140
1.0
102
RTVSPost2010PropOp52
 70
     0
102
RTVSPost2010Prop53
 90
        2
102
RTVSPost2010PropOp53
 70
     1
102
RTVSPost2010Prop54
  1
strokes_ogs.tif
102
RTVSPost2010PropOp54
 70
     1
102
RTVSPost2010Prop55
280
     0
102
RTVSPost2010PropOp55
 70
     1
102
RTVSPost2010Prop56
140
1.0
102
RTVSPost2010PropOp56
 70
     1
102
RTVSPost2010Prop57
140
1.0
102
RTVSPost2010PropOp57
 70
     1
102
RTVSPropertyOp0
 70
     1
102
RTVSPropertyOp1
 70
     1
102
RTVSPropertyOp2
 70
     1
102
RTVSPropertyOp3
 70
     1
102
RTVSPropertyOp4
 70
     1
102
RTVSPropertyOp5
 70
     1
102
RTVSPropertyOp6
 70
     1
102
RTVSPropertyOp7
 70
     1
102
RTVSPropertyOp8
 70
     1
102
RTVSPropertyOp9
 70
     1
102
RTVSPropertyOp10
 70
     1
102
RTVSPropertyOp11
 70
     1
102
RTVSPropertyOp12
 70
     1
102
RTVSPropertyOp13
 70
     1
102
RTVSPropertyOp14
 70
     1
102
RTVSPropertyOp15
 70
     1
102
RTVSPropertyOp16
 70
     1
102
RTVSPropertyOp17
 70
     1
102
RTVSPropertyOp18
 70
     1
102
RTVSPropertyOp19
 70
     1
102
RTVSPropertyOp20
 70
     1
102
RTVSPropertyOp21
 70
     1
102
RTVSPropertyOp22
 70
     1
102
RTVSPropertyOp23
 70
     1
102
RTVSPropertyOp24
 70
     1
102
RTVSPropertyOp25
 70
     1
102
RTVSPropertyOp26
 70
     1
102
RTVSPropertyOp27
 70
     1
102
RTVSPropertyOp28
 70
     1
102
RTVSPropertyOp29
 70
     1
102
RTVSPropertyOp30
 70
     1
102
RTVSPropertyOp31
 70
     1
102
RTVSPropertyOp32
 70
     1
102
RTVSPropertyOp33
 70
     1
102
RTVSPropertyOp34
 70
     1
102
RTVSPropertyOp35
 70
     1
102
RTVSPropertyOp36
 70
     1
102
RTVSPropertyOp37
 70
     1
102
RTVSPropertyOp38
 70
     1
102
RTVSPropertyOp39
 70
     1
102
RTVSPropertyOp40
 70
     1
102
RTVSPropertyOp41
 70
     1
102
RTVSPropertyOp42
 70
     1
102
RTVSPropertyOp43
 70
     1
102
RTVSPropertyOp44
 70
     1
102
RTVSPropertyOp45
 70
     1
102
RTVSPropertyOp46
 70
     1
102
RTVSPropertyOp47
 70
     1
102
RTVSPropertyOp48
 70
     1
102
RTVSPropertyOp49
 70
     1
102
RTVSPropertyOp50
 70
     1
102
RTVSPropertyOp51
 70
     0
102
RTVSPropertyOp52
 70
     0
102
RTVSPropertyOp53
 70
     1
102
RTVSPropertyOp54
 70
     1
102
RTVSPropertyOp55
 70
     1
102
RTVSPropertyOp56
 70
     1
102
RTVSPropertyOp57
 70
     1
102
RTVSPropertyOp58
 70
     1
102
RTVSPropertyOp59
 70
     1
102
RTVSPropertyOp60
 70
     1
102
RTVSPropertyOp61
 70
     1
102
RTVSPropertyOp62
 70
     1
  0
XRECORD
  5
2B1F
102
{ACAD_REACTORS
330
2B1E
102
}
330
2B1E
100
AcDbXrecord
280
     1
102
RTVSPost2010Prop28
280
     0
102
RTVSPost2010PropOp28
 70
     1
102
RTVSPost2010Prop29
280
     1
102
RTVSPost2010PropOp29
 70
     1
102
RTVSPost2010Prop30
280
     1
102
RTVSPost2010PropOp30
 70
     1
102
RTVSPost2010Prop31
280
     0
102
RTVSPost2010PropOp31
 70
     1
102
RTVSPost2010Prop32
280
     0
102
RTVSPost2010PropOp32
 70
     1
102
RTVSPost2010Prop33
280
     0
102
RTVSPost2010PropOp33
 70
     1
102
RTVSPost2010Prop34
280
     0
102
RTVSPost2010PropOp34
 70
     1
102
RTVSPost2010Prop35
280
     0
102
RTVSPost2010PropOp35
 70
     1
102
RTVSPost2010Prop36
280
     0
102
RTVSPost2010PropOp36
 70
     1
102
RTVSPost2010Prop37
 90
       50
102
RTVSPost2010PropOp37
 70
     1
102
RTVSPost2010Prop38
140
0.0
102
RTVSPost2010PropOp38
 70
     1
102
RTVSPost2010Prop39
140
1.0
102
RTVSPost2010PropOp39
 70
     1
102
RTVSPost2010Prop40
 90
        0
102
RTVSPost2010PropOp40
 70
     1
102
RTVSPost2010Prop41ColorIndex
 90
       18
102
RTVSPost2010Prop41ColorRGB
 90
        0
102
RTVSPost2010PropOp41
 70
     1
102
RTVSPost2010Prop42
 90
       50
102
RTVSPost2010PropOp42
 70
     1
102
RTVSPost2010Prop43
 90
        3
102
RTVSPost2010PropOp43
 70
     1
102
RTVSPost2010Prop44ColorIndex
 90
        5
102
RTVSPost2010Prop44ColorRGB
 90
      255
102
RTVSPost2010PropOp44
 70
     1
102
RTVSPost2010Prop45
280
     0
102
RTVSPost2010PropOp45
 70
     1
102
RTVSPost2010Prop46
 90
       50
102
RTVSPost2010PropOp46
 70
     1
102
RTVSPost2010Prop47
 90
       50
102
RTVSPost2010PropOp47
 70
     1
102
RTVSPost2010Prop48
 90
       50
102
RTVSPost2010PropOp48
 70
     1
102
RTVSPost2010Prop49
280
     0
102
RTVSPost2010PropOp49
 70
     1
102
RTVSPost2010Prop50
 90
       50
102
RTVSPost2010PropOp50
 70
     1
102
RTVSPost2010Prop51ColorIndex
 90
      256
102
RTVSPost2010Prop51ColorRGB
 90
-16777216
102
RTVSPost2010PropOp51
 70
     0
102
RTVSPost2010Prop52
140
1.0
102
RTVSPost2010PropOp52
 70
     0
102
RTVSPost2010Prop53
 90
        2
102
RTVSPost2010PropOp53
 70
     1
102
RTVSPost2010Prop54
  1
strokes_ogs.tif
102
RTVSPost2010PropOp54
 70
     1
102
RTVSPost2010Prop55
280
     0
102
RTVSPost2010PropOp55
 70
     1
102
RTVSPost2010Prop56
140
1.0
102
RTVSPost2010PropOp56
 70
     1
102
RTVSPost2010Prop57
140
1.0
102
RTVSPost2010PropOp57
 70
     1
102
RTVSPropertyOp0
 70
     1
102
RTVSPropertyOp1
 70
     1
102
RTVSPropertyOp2
 70
     1
102
RTVSPropertyOp3
 70
     1
102
RTVSPropertyOp4
 70
     1
102
RTVSPropertyOp5
 70
     1
102
RTVSPropertyOp6
 70
     1
102
RTVSPropertyOp7
 70
     1
102
RTVSPropertyOp8
 70
     1
102
RTVSPropertyOp9
 70
     1
102
RTVSPropertyOp10
 70
     1
102
RTVSPropertyOp11
 70
     1
102
RTVSPropertyOp12
 70
     1
102
RTVSPropertyOp13
 70
     1
102
RTVSPropertyOp14
 70
     1
102
RTVSPropertyOp15
 70
     1
102
RTVSPropertyOp16
 70
     1
102
RTVSPropertyOp17
 70
     1
102
RTVSPropertyOp18
 70
     1
102
RTVSPropertyOp19
 70
     1
102
RTVSPropertyOp20
 70
     1
102
RTVSPropertyOp21
 70
     1
102
RTVSPropertyOp22
 70
     1
102
RTVSPropertyOp23
 70
     1
102
RTVSPropertyOp24
 70
     1
102
RTVSPropertyOp25
 70
     1
102
RTVSPropertyOp26
 70
     1
102
RTVSPropertyOp27
 70
     1
102
RTVSPropertyOp28
 70
     1
102
RTVSPropertyOp29
 70
     1
102
RTVSPropertyOp30
 70
     1
102
RTVSPropertyOp31
 70
     1
102
RTVSPropertyOp32
 70
     1
102
RTVSPropertyOp33
 70
     1
102
RTVSPropertyOp34
 70
     1
102
RTVSPropertyOp35
 70
     1
102
RTVSPropertyOp36
 70
     1
102
RTVSPropertyOp37
 70
     1
102
RTVSPropertyOp38
 70
     1
102
RTVSPropertyOp39
 70
     1
102
RTVSPropertyOp40
 70
     1
102
RTVSPropertyOp41
 70
     1
102
RTVSPropertyOp42
 70
     1
102
RTVSPropertyOp43
 70
     1
102
RTVSPropertyOp44
 70
     1
102
RTVSPropertyOp45
 70
     1
102
RTVSPropertyOp46
 70
     1
102
RTVSPropertyOp47
 70
     1
102
RTVSPropertyOp48
 70
     1
102
RTVSPropertyOp49
 70
     1
102
RTVSPropertyOp50
 70
     1
102
RTVSPropertyOp51
 70
     0
102
RTVSPropertyOp52
 70
     0
102
RTVSPropertyOp53
 70
     1
102
RTVSPropertyOp54
 70
     1
102
RTVSPropertyOp55
 70
     1
102
RTVSPropertyOp56
 70
     1
102
RTVSPropertyOp57
 70
     1
102
RTVSPropertyOp58
 70
     1
102
RTVSPropertyOp59
 70
     1
102
RTVSPropertyOp60
 70
     1
102
RTVSPropertyOp61
 70
     1
102
RTVSPropertyOp62
 70
     1
  0
XRECORD
  5
2B21
102
{ACAD_REACTORS
330
2B20
102
}
330
2B20
100
AcDbXrecord
280
     1
102
RTVSPost2010Prop28
280
     0
102
RTVSPost2010PropOp28
 70
     1
102
RTVSPost2010Prop29
280
     1
102
RTVSPost2010PropOp29
 70
     1
102
RTVSPost2010Prop30
280
     1
102
RTVSPost2010PropOp30
 70
     1
102
RTVSPost2010Prop31
280
     0
102
RTVSPost2010PropOp31
 70
     1
102
RTVSPost2010Prop32
280
     0
102
RTVSPost2010PropOp32
 70
     1
102
RTVSPost2010Prop33
280
     0
102
RTVSPost2010PropOp33
 70
     1
102
RTVSPost2010Prop34
280
     0
102
RTVSPost2010PropOp34
 70
     1
102
RTVSPost2010Prop35
280
     0
102
RTVSPost2010PropOp35
 70
     1
102
RTVSPost2010Prop36
280
     0
102
RTVSPost2010PropOp36
 70
     1
102
RTVSPost2010Prop37
 90
       50
102
RTVSPost2010PropOp37
 70
     1
102
RTVSPost2010Prop38
140
0.0
102
RTVSPost2010PropOp38
 70
     1
102
RTVSPost2010Prop39
140
1.0
102
RTVSPost2010PropOp39
 70
     1
102
RTVSPost2010Prop40
 90
        0
102
RTVSPost2010PropOp40
 70
     1
102
RTVSPost2010Prop41ColorIndex
 90
       18
102
RTVSPost2010Prop41ColorRGB
 90
        0
102
RTVSPost2010PropOp41
 70
     1
102
RTVSPost2010Prop42
 90
       50
102
RTVSPost2010PropOp42
 70
     1
102
RTVSPost2010Prop43
 90
        3
102
RTVSPost2010PropOp43
 70
     1
102
RTVSPost2010Prop44ColorIndex
 90
        5
102
RTVSPost2010Prop44ColorRGB
 90
      255
102
RTVSPost2010PropOp44
 70
     1
102
RTVSPost2010Prop45
280
     0
102
RTVSPost2010PropOp45
 70
     1
102
RTVSPost2010Prop46
 90
       50
102
RTVSPost2010PropOp46
 70
     1
102
RTVSPost2010Prop47
 90
       50
102
RTVSPost2010PropOp47
 70
     1
102
RTVSPost2010Prop48
 90
       50
102
RTVSPost2010PropOp48
 70
     1
102
RTVSPost2010Prop49
280
     0
102
RTVSPost2010PropOp49
 70
     1
102
RTVSPost2010Prop50
 90
       50
102
RTVSPost2010PropOp50
 70
     1
102
RTVSPost2010Prop51ColorIndex
 90
      256
102
RTVSPost2010Prop51ColorRGB
 90
-16777216
102
RTVSPost2010PropOp51
 70
     0
102
RTVSPost2010Prop52
140
1.0
102
RTVSPost2010PropOp52
 70
     0
102
RTVSPost2010Prop53
 90
        2
102
RTVSPost2010PropOp53
 70
     1
102
RTVSPost2010Prop54
  1
strokes_ogs.tif
102
RTVSPost2010PropOp54
 70
     1
102
RTVSPost2010Prop55
280
     0
102
RTVSPost2010PropOp55
 70
     1
102
RTVSPost2010Prop56
140
1.0
102
RTVSPost2010PropOp56
 70
     1
102
RTVSPost2010Prop57
140
1.0
102
RTVSPost2010PropOp57
 70
     1
102
RTVSPropertyOp0
 70
     1
102
RTVSPropertyOp1
 70
     1
102
RTVSPropertyOp2
 70
     1
102
RTVSPropertyOp3
 70
     1
102
RTVSPropertyOp4
 70
     1
102
RTVSPropertyOp5
 70
     1
102
RTVSPropertyOp6
 70
     1
102
RTVSPropertyOp7
 70
     1
102
RTVSPropertyOp8
 70
     1
102
RTVSPropertyOp9
 70
     1
102
RTVSPropertyOp10
 70
     1
102
RTVSPropertyOp11
 70
     1
102
RTVSPropertyOp12
 70
     1
102
RTVSPropertyOp13
 70
     1
102
RTVSPropertyOp14
 70
     1
102
RTVSPropertyOp15
 70
     1
102
RTVSPropertyOp16
 70
     1
102
RTVSPropertyOp17
 70
     1
102
RTVSPropertyOp18
 70
     1
102
RTVSPropertyOp19
 70
     1
102
RTVSPropertyOp20
 70
     1
102
RTVSPropertyOp21
 70
     1
102
RTVSPropertyOp22
 70
     1
102
RTVSPropertyOp23
 70
     1
102
RTVSPropertyOp24
 70
     1
102
RTVSPropertyOp25
 70
     1
102
RTVSPropertyOp26
 70
     1
102
RTVSPropertyOp27
 70
     1
102
RTVSPropertyOp28
 70
     1
102
RTVSPropertyOp29
 70
     1
102
RTVSPropertyOp30
 70
     1
102
RTVSPropertyOp31
 70
     1
102
RTVSPropertyOp32
 70
     1
102
RTVSPropertyOp33
 70
     1
102
RTVSPropertyOp34
 70
     1
102
RTVSPropertyOp35
 70
     1
102
RTVSPropertyOp36
 70
     1
102
RTVSPropertyOp37
 70
     1
102
RTVSPropertyOp38
 70
     1
102
RTVSPropertyOp39
 70
     1
102
RTVSPropertyOp40
 70
     1
102
RTVSPropertyOp41
 70
     1
102
RTVSPropertyOp42
 70
     1
102
RTVSPropertyOp43
 70
     1
102
RTVSPropertyOp44
 70
     1
102
RTVSPropertyOp45
 70
     1
102
RTVSPropertyOp46
 70
     1
102
RTVSPropertyOp47
 70
     1
102
RTVSPropertyOp48
 70
     1
102
RTVSPropertyOp49
 70
     1
102
RTVSPropertyOp50
 70
     1
102
RTVSPropertyOp51
 70
     0
102
RTVSPropertyOp52
 70
     0
102
RTVSPropertyOp53
 70
     1
102
RTVSPropertyOp54
 70
     1
102
RTVSPropertyOp55
 70
     1
102
RTVSPropertyOp56
 70
     1
102
RTVSPropertyOp57
 70
     1
102
RTVSPropertyOp58
 70
     1
102
RTVSPropertyOp59
 70
     1
102
RTVSPropertyOp60
 70
     1
102
RTVSPropertyOp61
 70
     1
102
RTVSPropertyOp62
 70
     1
  0
XRECORD
  5
2B17
102
{ACAD_REACTORS
330
2B16
102
}
330
2B16
100
AcDbXrecord
280
     1
102
RTVSPost2010Prop28
280
     0
102
RTVSPost2010PropOp28
 70
     1
102
RTVSPost2010Prop29
280
     1
102
RTVSPost2010PropOp29
 70
     1
102
RTVSPost2010Prop30
280
     1
102
RTVSPost2010PropOp30
 70
     1
102
RTVSPost2010Prop31
280
     0
102
RTVSPost2010PropOp31
 70
     1
102
RTVSPost2010Prop32
280
     0
102
RTVSPost2010PropOp32
 70
     1
102
RTVSPost2010Prop33
280
     0
102
RTVSPost2010PropOp33
 70
     1
102
RTVSPost2010Prop34
280
     0
102
RTVSPost2010PropOp34
 70
     1
102
RTVSPost2010Prop35
280
     0
102
RTVSPost2010PropOp35
 70
     1
102
RTVSPost2010Prop36
280
     0
102
RTVSPost2010PropOp36
 70
     1
102
RTVSPost2010Prop37
 90
       50
102
RTVSPost2010PropOp37
 70
     1
102
RTVSPost2010Prop38
140
0.0
102
RTVSPost2010PropOp38
 70
     1
102
RTVSPost2010Prop39
140
1.0
102
RTVSPost2010PropOp39
 70
     1
102
RTVSPost2010Prop40
 90
        0
102
RTVSPost2010PropOp40
 70
     1
102
RTVSPost2010Prop41ColorIndex
 90
       18
102
RTVSPost2010Prop41ColorRGB
 90
        0
102
RTVSPost2010PropOp41
 70
     1
102
RTVSPost2010Prop42
 90
       50
102
RTVSPost2010PropOp42
 70
     1
102
RTVSPost2010Prop43
 90
        3
102
RTVSPost2010PropOp43
 70
     1
102
RTVSPost2010Prop44ColorIndex
 90
        5
102
RTVSPost2010Prop44ColorRGB
 90
      255
102
RTVSPost2010PropOp44
 70
     1
102
RTVSPost2010Prop45
280
     0
102
RTVSPost2010PropOp45
 70
     1
102
RTVSPost2010Prop46
 90
       50
102
RTVSPost2010PropOp46
 70
     1
102
RTVSPost2010Prop47
 90
       50
102
RTVSPost2010PropOp47
 70
     1
102
RTVSPost2010Prop48
 90
       50
102
RTVSPost2010PropOp48
 70
     1
102
RTVSPost2010Prop49
280
     0
102
RTVSPost2010PropOp49
 70
     1
102
RTVSPost2010Prop50
 90
       50
102
RTVSPost2010PropOp50
 70
     1
102
RTVSPost2010Prop51ColorIndex
 90
      256
102
RTVSPost2010Prop51ColorRGB
 90
-16777216
102
RTVSPost2010PropOp51
 70
     0
102
RTVSPost2010Prop52
140
1.0
102
RTVSPost2010PropOp52
 70
     0
102
RTVSPost2010Prop53
 90
        2
102
RTVSPost2010PropOp53
 70
     1
102
RTVSPost2010Prop54
  1
strokes_ogs.tif
102
RTVSPost2010PropOp54
 70
     1
102
RTVSPost2010Prop55
280
     0
102
RTVSPost2010PropOp55
 70
     1
102
RTVSPost2010Prop56
140
1.0
102
RTVSPost2010PropOp56
 70
     1
102
RTVSPost2010Prop57
140
1.0
102
RTVSPost2010PropOp57
 70
     1
102
RTVSPropertyOp0
 70
     1
102
RTVSPropertyOp1
 70
     1
102
RTVSPropertyOp2
 70
     1
102
RTVSPropertyOp3
 70
     1
102
RTVSPropertyOp4
 70
     1
102
RTVSPropertyOp5
 70
     1
102
RTVSPropertyOp6
 70
     1
102
RTVSPropertyOp7
 70
     1
102
RTVSPropertyOp8
 70
     1
102
RTVSPropertyOp9
 70
     1
102
RTVSPropertyOp10
 70
     1
102
RTVSPropertyOp11
 70
     1
102
RTVSPropertyOp12
 70
     1
102
RTVSPropertyOp13
 70
     1
102
RTVSPropertyOp14
 70
     1
102
RTVSPropertyOp15
 70
     1
102
RTVSPropertyOp16
 70
     1
102
RTVSPropertyOp17
 70
     1
102
RTVSPropertyOp18
 70
     1
102
RTVSPropertyOp19
 70
     1
102
RTVSPropertyOp20
 70
     1
102
RTVSPropertyOp21
 70
     1
102
RTVSPropertyOp22
 70
     1
102
RTVSPropertyOp23
 70
     1
102
RTVSPropertyOp24
 70
     1
102
RTVSPropertyOp25
 70
     1
102
RTVSPropertyOp26
 70
     1
102
RTVSPropertyOp27
 70
     1
102
RTVSPropertyOp28
 70
     1
102
RTVSPropertyOp29
 70
     1
102
RTVSPropertyOp30
 70
     1
102
RTVSPropertyOp31
 70
     1
102
RTVSPropertyOp32
 70
     1
102
RTVSPropertyOp33
 70
     1
102
RTVSPropertyOp34
 70
     1
102
RTVSPropertyOp35
 70
     1
102
RTVSPropertyOp36
 70
     1
102
RTVSPropertyOp37
 70
     1
102
RTVSPropertyOp38
 70
     1
102
RTVSPropertyOp39
 70
     1
102
RTVSPropertyOp40
 70
     1
102
RTVSPropertyOp41
 70
     1
102
RTVSPropertyOp42
 70
     1
102
RTVSPropertyOp43
 70
     1
102
RTVSPropertyOp44
 70
     1
102
RTVSPropertyOp45
 70
     1
102
RTVSPropertyOp46
 70
     1
102
RTVSPropertyOp47
 70
     1
102
RTVSPropertyOp48
 70
     1
102
RTVSPropertyOp49
 70
     1
102
RTVSPropertyOp50
 70
     1
102
RTVSPropertyOp51
 70
     0
102
RTVSPropertyOp52
 70
     0
102
RTVSPropertyOp53
 70
     1
102
RTVSPropertyOp54
 70
     1
102
RTVSPropertyOp55
 70
     1
102
RTVSPropertyOp56
 70
     1
102
RTVSPropertyOp57
 70
     1
102
RTVSPropertyOp58
 70
     1
102
RTVSPropertyOp59
 70
     1
102
RTVSPropertyOp60
 70
     1
102
RTVSPropertyOp61
 70
     1
102
RTVSPropertyOp62
 70
     1
  0
XRECORD
  5
2B0B
102
{ACAD_REACTORS
330
2B0A
102
}
330
2B0A
100
AcDbXrecord
280
     1
102
RTVSPost2010Prop28
280
     0
102
RTVSPost2010PropOp28
 70
     1
102
RTVSPost2010Prop29
280
     1
102
RTVSPost2010PropOp29
 70
     1
102
RTVSPost2010Prop30
280
     1
102
RTVSPost2010PropOp30
 70
     1
102
RTVSPost2010Prop31
280
     0
102
RTVSPost2010PropOp31
 70
     1
102
RTVSPost2010Prop32
280
     0
102
RTVSPost2010PropOp32
 70
     1
102
RTVSPost2010Prop33
280
     0
102
RTVSPost2010PropOp33
 70
     1
102
RTVSPost2010Prop34
280
     0
102
RTVSPost2010PropOp34
 70
     1
102
RTVSPost2010Prop35
280
     0
102
RTVSPost2010PropOp35
 70
     1
102
RTVSPost2010Prop36
280
     0
102
RTVSPost2010PropOp36
 70
     1
102
RTVSPost2010Prop37
 90
       50
102
RTVSPost2010PropOp37
 70
     1
102
RTVSPost2010Prop38
140
0.0
102
RTVSPost2010PropOp38
 70
     1
102
RTVSPost2010Prop39
140
1.0
102
RTVSPost2010PropOp39
 70
     1
102
RTVSPost2010Prop40
 90
        0
102
RTVSPost2010PropOp40
 70
     1
102
RTVSPost2010Prop41ColorIndex
 90
       18
102
RTVSPost2010Prop41ColorRGB
 90
        0
102
RTVSPost2010PropOp41
 70
     1
102
RTVSPost2010Prop42
 90
       50
102
RTVSPost2010PropOp42
 70
     1
102
RTVSPost2010Prop43
 90
        3
102
RTVSPost2010PropOp43
 70
     1
102
RTVSPost2010Prop44ColorIndex
 90
        5
102
RTVSPost2010Prop44ColorRGB
 90
      255
102
RTVSPost2010PropOp44
 70
     1
102
RTVSPost2010Prop45
280
     0
102
RTVSPost2010PropOp45
 70
     1
102
RTVSPost2010Prop46
 90
       50
102
RTVSPost2010PropOp46
 70
     1
102
RTVSPost2010Prop47
 90
       50
102
RTVSPost2010PropOp47
 70
     1
102
RTVSPost2010Prop48
 90
       50
102
RTVSPost2010PropOp48
 70
     1
102
RTVSPost2010Prop49
280
     0
102
RTVSPost2010PropOp49
 70
     1
102
RTVSPost2010Prop50
 90
       50
102
RTVSPost2010PropOp50
 70
     1
102
RTVSPost2010Prop51ColorIndex
 90
      256
102
RTVSPost2010Prop51ColorRGB
 90
-16777216
102
RTVSPost2010PropOp51
 70
     0
102
RTVSPost2010Prop52
140
1.0
102
RTVSPost2010PropOp52
 70
     0
102
RTVSPost2010Prop53
 90
        2
102
RTVSPost2010PropOp53
 70
     1
102
RTVSPost2010Prop54
  1
strokes_ogs.tif
102
RTVSPost2010PropOp54
 70
     1
102
RTVSPost2010Prop55
280
     0
102
RTVSPost2010PropOp55
 70
     1
102
RTVSPost2010Prop56
140
1.0
102
RTVSPost2010PropOp56
 70
     1
102
RTVSPost2010Prop57
140
1.0
102
RTVSPost2010PropOp57
 70
     1
102
RTVSPropertyOp0
 70
     1
102
RTVSPropertyOp1
 70
     1
102
RTVSPropertyOp2
 70
     1
102
RTVSPropertyOp3
 70
     1
102
RTVSPropertyOp4
 70
     1
102
RTVSPropertyOp5
 70
     1
102
RTVSPropertyOp6
 70
     1
102
RTVSPropertyOp7
 70
     1
102
RTVSPropertyOp8
 70
     1
102
RTVSPropertyOp9
 70
     1
102
RTVSPropertyOp10
 70
     1
102
RTVSPropertyOp11
 70
     1
102
RTVSPropertyOp12
 70
     1
102
RTVSPropertyOp13
 70
     1
102
RTVSPropertyOp14
 70
     1
102
RTVSPropertyOp15
 70
     1
102
RTVSPropertyOp16
 70
     1
102
RTVSPropertyOp17
 70
     1
102
RTVSPropertyOp18
 70
     1
102
RTVSPropertyOp19
 70
     1
102
RTVSPropertyOp20
 70
     1
102
RTVSPropertyOp21
 70
     1
102
RTVSPropertyOp22
 70
     1
102
RTVSPropertyOp23
 70
     1
102
RTVSPropertyOp24
 70
     1
102
RTVSPropertyOp25
 70
     1
102
RTVSPropertyOp26
 70
     1
102
RTVSPropertyOp27
 70
     1
102
RTVSPropertyOp28
 70
     1
102
RTVSPropertyOp29
 70
     1
102
RTVSPropertyOp30
 70
     1
102
RTVSPropertyOp31
 70
     1
102
RTVSPropertyOp32
 70
     1
102
RTVSPropertyOp33
 70
     1
102
RTVSPropertyOp34
 70
     1
102
RTVSPropertyOp35
 70
     1
102
RTVSPropertyOp36
 70
     1
102
RTVSPropertyOp37
 70
     1
102
RTVSPropertyOp38
 70
     1
102
RTVSPropertyOp39
 70
     1
102
RTVSPropertyOp40
 70
     1
102
RTVSPropertyOp41
 70
     1
102
RTVSPropertyOp42
 70
     1
102
RTVSPropertyOp43
 70
     1
102
RTVSPropertyOp44
 70
     1
102
RTVSPropertyOp45
 70
     1
102
RTVSPropertyOp46
 70
     1
102
RTVSPropertyOp47
 70
     1
102
RTVSPropertyOp48
 70
     1
102
RTVSPropertyOp49
 70
     1
102
RTVSPropertyOp50
 70
     1
102
RTVSPropertyOp51
 70
     0
102
RTVSPropertyOp52
 70
     0
102
RTVSPropertyOp53
 70
     1
102
RTVSPropertyOp54
 70
     1
102
RTVSPropertyOp55
 70
     1
102
RTVSPropertyOp56
 70
     1
102
RTVSPropertyOp57
 70
     1
102
RTVSPropertyOp58
 70
     1
102
RTVSPropertyOp59
 70
     1
102
RTVSPropertyOp60
 70
     1
102
RTVSPropertyOp61
 70
     1
102
RTVSPropertyOp62
 70
     1
  0
XRECORD
  5
2B23
102
{ACAD_REACTORS
330
2B22
102
}
330
2B22
100
AcDbXrecord
280
     1
102
RTVSPost2010Prop28
280
     0
102
RTVSPost2010PropOp28
 70
     1
102
RTVSPost2010Prop29
280
     1
102
RTVSPost2010PropOp29
 70
     1
102
RTVSPost2010Prop30
280
     1
102
RTVSPost2010PropOp30
 70
     1
102
RTVSPost2010Prop31
280
     0
102
RTVSPost2010PropOp31
 70
     1
102
RTVSPost2010Prop32
280
     0
102
RTVSPost2010PropOp32
 70
     1
102
RTVSPost2010Prop33
280
     0
102
RTVSPost2010PropOp33
 70
     1
102
RTVSPost2010Prop34
280
     0
102
RTVSPost2010PropOp34
 70
     1
102
RTVSPost2010Prop35
280
     0
102
RTVSPost2010PropOp35
 70
     1
102
RTVSPost2010Prop36
280
     0
102
RTVSPost2010PropOp36
 70
     1
102
RTVSPost2010Prop37
 90
       50
102
RTVSPost2010PropOp37
 70
     1
102
RTVSPost2010Prop38
140
0.0
102
RTVSPost2010PropOp38
 70
     1
102
RTVSPost2010Prop39
140
1.0
102
RTVSPost2010PropOp39
 70
     1
102
RTVSPost2010Prop40
 90
        0
102
RTVSPost2010PropOp40
 70
     1
102
RTVSPost2010Prop41ColorIndex
 90
       18
102
RTVSPost2010Prop41ColorRGB
 90
        0
102
RTVSPost2010PropOp41
 70
     1
102
RTVSPost2010Prop42
 90
       50
102
RTVSPost2010PropOp42
 70
     1
102
RTVSPost2010Prop43
 90
        3
102
RTVSPost2010PropOp43
 70
     1
102
RTVSPost2010Prop44ColorIndex
 90
        5
102
RTVSPost2010Prop44ColorRGB
 90
      255
102
RTVSPost2010PropOp44
 70
     1
102
RTVSPost2010Prop45
280
     0
102
RTVSPost2010PropOp45
 70
     1
102
RTVSPost2010Prop46
 90
       50
102
RTVSPost2010PropOp46
 70
     1
102
RTVSPost2010Prop47
 90
       50
102
RTVSPost2010PropOp47
 70
     1
102
RTVSPost2010Prop48
 90
       50
102
RTVSPost2010PropOp48
 70
     1
102
RTVSPost2010Prop49
280
     0
102
RTVSPost2010PropOp49
 70
     1
102
RTVSPost2010Prop50
 90
       50
102
RTVSPost2010PropOp50
 70
     1
102
RTVSPost2010Prop51ColorIndex
 90
      256
102
RTVSPost2010Prop51ColorRGB
 90
-16777216
102
RTVSPost2010PropOp51
 70
     0
102
RTVSPost2010Prop52
140
1.0
102
RTVSPost2010PropOp52
 70
     0
102
RTVSPost2010Prop53
 90
        2
102
RTVSPost2010PropOp53
 70
     1
102
RTVSPost2010Prop54
  1
strokes_ogs.tif
102
RTVSPost2010PropOp54
 70
     1
102
RTVSPost2010Prop55
280
     0
102
RTVSPost2010PropOp55
 70
     1
102
RTVSPost2010Prop56
140
1.0
102
RTVSPost2010PropOp56
 70
     1
102
RTVSPost2010Prop57
140
1.0
102
RTVSPost2010PropOp57
 70
     1
102
RTVSPropertyOp0
 70
     1
102
RTVSPropertyOp1
 70
     1
102
RTVSPropertyOp2
 70
     1
102
RTVSPropertyOp3
 70
     1
102
RTVSPropertyOp4
 70
     1
102
RTVSPropertyOp5
 70
     1
102
RTVSPropertyOp6
 70
     1
102
RTVSPropertyOp7
 70
     1
102
RTVSPropertyOp8
 70
     1
102
RTVSPropertyOp9
 70
     1
102
RTVSPropertyOp10
 70
     1
102
RTVSPropertyOp11
 70
     1
102
RTVSPropertyOp12
 70
     1
102
RTVSPropertyOp13
 70
     1
102
RTVSPropertyOp14
 70
     1
102
RTVSPropertyOp15
 70
     1
102
RTVSPropertyOp16
 70
     1
102
RTVSPropertyOp17
 70
     1
102
RTVSPropertyOp18
 70
     1
102
RTVSPropertyOp19
 70
     1
102
RTVSPropertyOp20
 70
     1
102
RTVSPropertyOp21
 70
     1
102
RTVSPropertyOp22
 70
     1
102
RTVSPropertyOp23
 70
     1
102
RTVSPropertyOp24
 70
     1
102
RTVSPropertyOp25
 70
     1
102
RTVSPropertyOp26
 70
     1
102
RTVSPropertyOp27
 70
     1
102
RTVSPropertyOp28
 70
     1
102
RTVSPropertyOp29
 70
     1
102
RTVSPropertyOp30
 70
     1
102
RTVSPropertyOp31
 70
     1
102
RTVSPropertyOp32
 70
     1
102
RTVSPropertyOp33
 70
     1
102
RTVSPropertyOp34
 70
     1
102
RTVSPropertyOp35
 70
     1
102
RTVSPropertyOp36
 70
     1
102
RTVSPropertyOp37
 70
     1
102
RTVSPropertyOp38
 70
     1
102
RTVSPropertyOp39
 70
     1
102
RTVSPropertyOp40
 70
     1
102
RTVSPropertyOp41
 70
     1
102
RTVSPropertyOp42
 70
     1
102
RTVSPropertyOp43
 70
     1
102
RTVSPropertyOp44
 70
     1
102
RTVSPropertyOp45
 70
     1
102
RTVSPropertyOp46
 70
     1
102
RTVSPropertyOp47
 70
     1
102
RTVSPropertyOp48
 70
     1
102
RTVSPropertyOp49
 70
     1
102
RTVSPropertyOp50
 70
     1
102
RTVSPropertyOp51
 70
     0
102
RTVSPropertyOp52
 70
     0
102
RTVSPropertyOp53
 70
     1
102
RTVSPropertyOp54
 70
     1
102
RTVSPropertyOp55
 70
     1
102
RTVSPropertyOp56
 70
     1
102
RTVSPropertyOp57
 70
     1
102
RTVSPropertyOp58
 70
     1
102
RTVSPropertyOp59
 70
     1
102
RTVSPropertyOp60
 70
     1
102
RTVSPropertyOp61
 70
     1
102
RTVSPropertyOp62
 70
     1
  0
ENDSEC
  0
EOF
