  0
SECTION
  2
HEADER
  9
$ACADVER
  1
AC1015
  9
$ACADMAINTVER
 70
    20
  9
$DWGCODEPAGE
  3
ANSI_932
  9
$INSBASE
 10
0.0
 20
0.0
 30
0.0
  9
$EXTMIN
 10
9.9999975266385
 20
10.0
 30
0.0
  9
$EXTMAX
 10
658.5591539190402
 20
448.9113807204557
 30
0.0
  9
$LIMMIN
 10
0.0000015376081137
 20
-0.0000001931532552
  9
$LIMMAX
 10
692.0000015376082
 20
477.0606058674526
  9
$ORTHOMODE
 70
     1
  9
$REGENMODE
 70
     1
  9
$FILLMODE
 70
     1
  9
$QTEXTMODE
 70
     0
  9
$MIRRTEXT
 70
     1
  9
$LTSCALE
 40
0.5
  9
$ATTMODE
 70
     1
  9
$TEXTSIZE
 40
2.5
  9
$TRACEWID
 40
1.0
  9
$TEXTSTYLE
  7
STANDARD
  9
$CLAYER
  8
0
  9
$CELTYPE
  6
BYLAYER
  9
$CECOLOR
 62
   256
  9
$CELTSCALE
 40
1.0
  9
$DISPSILH
 70
     0
  9
$DIMSCALE
 40
1.0
  9
$DIMASZ
 40
3.0
  9
$DIMEXO
 40
1.0
  9
$DIMDLI
 40
10.0
  9
$DIMRND
 40
0.0
  9
$DIMDLE
 40
0.0
  9
$DIMEXE
 40
1.0
  9
$DIMTP
 40
0.0
  9
$DIMTM
 40
0.0
  9
$DIMTXT
 40
3.2
  9
$DIMCEN
 40
0.0
  9
$DIMTSZ
 40
0.0
  9
$DIMTOL
 70
     0
  9
$DIMLIM
 70
     0
  9
$DIMTIH
 70
     0
  9
$DIMTOH
 70
     0
  9
$DIMSE1
 70
     0
  9
$DIMSE2
 70
     0
  9
$DIMTAD
 70
     3
  9
$DIMZIN
 70
     8
  9
$DIMBLK
  1

  9
$DIMASO
 70
     1
  9
$DIMSHO
 70
     1
  9
$DIMPOST
  1

  9
$DIMAPOST
  1

  9
$DIMALT
 70
     0
  9
$DIMALTD
 70
     2
  9
$DIMALTF
 40
25.4
  9
$DIMLFAC
 40
1.0
  9
$DIMTOFL
 70
     1
  9
$DIMTVP
 40
0.0
  9
$DIMTIX
 70
     0
  9
$DIMSOXD
 70
     0
  9
$DIMSAH
 70
     1
  9
$DIMBLK1
  1
OPEN
  9
$DIMBLK2
  1
OPEN
  9
$DIMSTYLE
  2
STANDARD
  9
$DIMCLRD
 70
     0
  9
$DIMCLRE
 70
     0
  9
$DIMCLRT
 70
     0
  9
$DIMTFAC
 40
1.0
  9
$DIMGAP
 40
1.0
  9
$DIMJUST
 70
     0
  9
$DIMSD1
 70
     0
  9
$DIMSD2
 70
     0
  9
$DIMTOLJ
 70
     1
  9
$DIMTZIN
 70
     0
  9
$DIMALTZ
 70
     0
  9
$DIMALTTZ
 70
     0
  9
$DIMUPT
 70
     0
  9
$DIMDEC
 70
     4
  9
$DIMTDEC
 70
     4
  9
$DIMALTU
 70
     2
  9
$DIMALTTD
 70
     2
  9
$DIMTXSTY
  7
STANDARD
  9
$DIMAUNIT
 70
     0
  9
$DIMADEC
 70
     0
  9
$DIMALTRND
 40
0.0
  9
$DIMAZIN
 70
     0
  9
$DIMDSEP
 70
    46
  9
$DIMATFIT
 70
     3
  9
$DIMFRAC
 70
     0
  9
$DIMLDRBLK
  1
OPEN
  9
$DIMLUNIT
 70
     2
  9
$DIMLWD
 70
    -2
  9
$DIMLWE
 70
    -2
  9
$DIMTMOVE
 70
     0
  9
$LUNITS
 70
     2
  9
$LUPREC
 70
     4
  9
$SKETCHINC
 40
1.0
  9
$FILLETRAD
 40
1.0
  9
$AUNITS
 70
     0
  9
$AUPREC
 70
     0
  9
$MENU
  1
.
  9
$ELEVATION
 40
0.0
  9
$PELEVATION
 40
0.0
  9
$THICKNESS
 40
0.0
  9
$LIMCHECK
 70
     0
  9
$CHAMFERA
 40
10.0
  9
$CHAMFERB
 40
10.0
  9
$CHAMFERC
 40
20.0
  9
$CHAMFERD
 40
0.0
  9
$SKPOLY
 70
     0
  9
$TDCREATE
 40
2452933.409272639
  9
$TDUCREATE
 40
2452933.034272639
  9
$TDUPDATE
 40
2457192.690996227
  9
$TDUUPDATE
 40
2457192.315996227
  9
$TDINDWG
 40
0.2908395486
  9
$TDUSRTIMER
 40
0.2908395486
  9
$USRTIMER
 70
     1
  9
$ANGBASE
 50
0.0
  9
$ANGDIR
 70
     0
  9
$PDMODE
 70
     0
  9
$PDSIZE
 40
0.0
  9
$PLINEWID
 40
0.0
  9
$SPLFRAME
 70
     0
  9
$SPLINETYPE
 70
     6
  9
$SPLINESEGS
 70
     8
  9
$HANDSEED
  5
295A
  9
$SURFTAB1
 70
     6
  9
$SURFTAB2
 70
     6
  9
$SURFTYPE
 70
     6
  9
$SURFU
 70
     6
  9
$SURFV
 70
     6
  9
$UCSBASE
  2

  9
$UCSNAME
  2

  9
$UCSORG
 10
0.0
 20
0.0
 30
0.0
  9
$UCSXDIR
 10
1.0
 20
0.0
 30
0.0
  9
$UCSYDIR
 10
0.0
 20
1.0
 30
0.0
  9
$UCSORTHOREF
  2

  9
$UCSORTHOVIEW
 70
     0
  9
$UCSORGTOP
 10
0.0
 20
0.0
 30
0.0
  9
$UCSORGBOTTOM
 10
0.0
 20
0.0
 30
0.0
  9
$UCSORGLEFT
 10
0.0
 20
0.0
 30
0.0
  9
$UCSORGRIGHT
 10
0.0
 20
0.0
 30
0.0
  9
$UCSORGFRONT
 10
0.0
 20
0.0
 30
0.0
  9
$UCSORGBACK
 10
0.0
 20
0.0
 30
0.0
  9
$PUCSBASE
  2

  9
$PUCSNAME
  2

  9
$PUCSORG
 10
0.0
 20
0.0
 30
0.0
  9
$PUCSXDIR
 10
1.0
 20
0.0
 30
0.0
  9
$PUCSYDIR
 10
0.0
 20
1.0
 30
0.0
  9
$PUCSORTHOREF
  2

  9
$PUCSORTHOVIEW
 70
     0
  9
$PUCSORGTOP
 10
0.0
 20
0.0
 30
0.0
  9
$PUCSORGBOTTOM
 10
0.0
 20
0.0
 30
0.0
  9
$PUCSORGLEFT
 10
0.0
 20
0.0
 30
0.0
  9
$PUCSORGRIGHT
 10
0.0
 20
0.0
 30
0.0
  9
$PUCSORGFRONT
 10
0.0
 20
0.0
 30
0.0
  9
$PUCSORGBACK
 10
0.0
 20
0.0
 30
0.0
  9
$USERI1
 70
     0
  9
$USERI2
 70
     0
  9
$USERI3
 70
     0
  9
$USERI4
 70
     0
  9
$USERI5
 70
     0
  9
$USERR1
 40
0.0
  9
$USERR2
 40
0.0
  9
$USERR3
 40
0.0
  9
$USERR4
 40
0.0
  9
$USERR5
 40
0.0
  9
$WORLDVIEW
 70
     1
  9
$SHADEDGE
 70
     3
  9
$SHADEDIF
 70
    70
  9
$TILEMODE
 70
     1
  9
$MAXACTVP
 70
    48
  9
$PINSBASE
 10
0.0
 20
0.0
 30
0.0
  9
$PLIMCHECK
 70
     0
  9
$PEXTMIN
 10
1.000000000000000E+20
 20
1.000000000000000E+20
 30
1.000000000000000E+20
  9
$PEXTMAX
 10
-1.000000000000000E+20
 20
-1.000000000000000E+20
 30
-1.000000000000000E+20
  9
$PLIMMIN
 10
0.0
 20
0.0
  9
$PLIMMAX
 10
420.0
 20
297.0
  9
$UNITMODE
 70
     0
  9
$VISRETAIN
 70
     1
  9
$PLINEGEN
 70
     0
  9
$PSLTSCALE
 70
     1
  9
$TREEDEPTH
 70
  3020
  9
$CMLSTYLE
  2
STANDARD
  9
$CMLJUST
 70
     0
  9
$CMLSCALE
 40
20.0
  9
$PROXYGRAPHICS
 70
     1
  9
$MEASUREMENT
 70
     0
  9
$CELWEIGHT
370
    -1
  9
$ENDCAPS
280
     0
  9
$JOINSTYLE
280
     0
  9
$LWDISPLAY
290
     0
  9
$INSUNITS
 70
     0
  9
$HYPERLINKBASE
  1

  9
$STYLESHEET
  1

  9
$XEDIT
290
     1
  9
$CEPSNTYPE
380
     0
  9
$PSTYLEMODE
290
     1
  9
$FINGERPRINTGUID
  2
{1DD59F04-15C5-4ADC-9C98-232163E712FC}
  9
$VERSIONGUID
  2
{CE33B9D1-E84F-4698-81A3-0CCDB9499400}
  9
$EXTNAMES
290
     1
  9
$PSVPSCALE
 40
0.0
  9
$OLESTARTUP
290
     0
  0
ENDSEC
  0
SECTION
  2
CLASSES
  0
CLASS
  1
ACDBDICTIONARYWDFLT
  2
AcDbDictionaryWithDefault
  3
ObjectDBX Classes
 90
        0
280
     0
281
     0
  0
CLASS
  1
ACDBPLACEHOLDER
  2
AcDbPlaceHolder
  3
ObjectDBX Classes
 90
        0
280
     0
281
     0
  0
CLASS
  1
LAYOUT
  2
AcDbLayout
  3
ObjectDBX Classes
 90
        0
280
     0
281
     0
  0
CLASS
  1
DICTIONARYVAR
  2
AcDbDictionaryVar
  3
ObjectDBX Classes
 90
        0
280
     0
281
     0
  0
CLASS
  1
MATERIAL
  2
AcDbMaterial
  3
ObjectDBX Classes
 90
     1153
280
     0
281
     0
  0
CLASS
  1
VISUALSTYLE
  2
AcDbVisualStyle
  3
ObjectDBX Classes
 90
     4095
280
     0
281
     0
  0
CLASS
  1
TABLESTYLE
  2
AcDbTableStyle
  3
ObjectDBX Classes
 90
     4095
280
     0
281
     0
  0
CLASS
  1
SCALE
  2
AcDbScale
  3
ObjectDBX Classes
 90
     1153
280
     0
281
     0
  0
CLASS
  1
MLEADERSTYLE
  2
AcDbMLeaderStyle
  3
ACDB_MLEADERSTYLE_CLASS
 90
     4095
280
     0
281
     0
  0
CLASS
  1
ACDBSECTIONVIEWSTYLE
  2
AcDbSectionViewStyle
  3
ObjectDBX Classes
 90
     1025
280
     0
281
     0
  0
CLASS
  1
ACDBDETAILVIEWSTYLE
  2
AcDbDetailViewStyle
  3
ObjectDBX Classes
 90
     1025
280
     0
281
     0
  0
CLASS
  1
CELLSTYLEMAP
  2
AcDbCellStyleMap
  3
ObjectDBX Classes
 90
     1152
280
     0
281
     0
  0
ENDSEC
  0
SECTION
  2
TABLES
  0
TABLE
  2
VPORT
  5
8
330
0
100
AcDbSymbolTable
 70
     1
  0
VPORT
  5
28A6
330
8
100
AcDbSymbolTableRecord
100
AcDbViewportTableRecord
  2
*ACTIVE
 70
     0
 10
0.0
 20
0.0
 11
1.0
 21
1.0
 12
503.2292454890134
 22
229.4674918257481
 13
0.0
 23
0.0
 14
10.0
 24
10.0
 15
10.0
 25
10.0
 16
0.0
 26
0.0
 36
1.0
 17
0.0
 27
0.0
 37
0.0
 40
442.4112014688334
 41
2.35006605019815
 42
50.0
 43
0.0
 44
0.0
 50
0.0
 51
0.0
 71
     0
 72
   100
 73
     1
 74
     0
 75
     0
 76
     0
 77
     0
 78
     0
281
     0
 65
     1
110
0.0
120
0.0
130
0.0
111
1.0
121
0.0
131
0.0
112
0.0
122
1.0
132
0.0
 79
     0
146
0.0
1001
ACAD_NAV_VCDISPLAY
1070
     3
  0
ENDTAB
  0
TABLE
  2
LTYPE
  5
5
330
0
100
AcDbSymbolTable
 70
     4
  0
LTYPE
  5
12
330
5
100
AcDbSymbolTableRecord
100
AcDbLinetypeTableRecord
  2
BYBLOCK
 70
     0
  3

 72
    65
 73
     0
 40
0.0
  0
LTYPE
  5
13
330
5
100
AcDbSymbolTableRecord
100
AcDbLinetypeTableRecord
  2
BYLAYER
 70
     0
  3

 72
    65
 73
     0
 40
0.0
  0
LTYPE
  5
14
330
5
100
AcDbSymbolTableRecord
100
AcDbLinetypeTableRecord
  2
CONTINUOUS
 70
     0
  3
Solid line
 72
    65
 73
     0
 40
0.0
  0
LTYPE
  5
4B
330
5
100
AcDbSymbolTableRecord
100
AcDbLinetypeTableRecord
  2
DASHED
 70
     0
  3
Dashed __ __ __ __ __ __ __ __ __ __ __ __ __ _
 72
    65
 73
     2
 40
19.04999999999998
 49
12.7
 74
     0
 49
-6.349999999999997
 74
     0
  0
LTYPE
  5
4C
330
5
100
AcDbSymbolTableRecord
100
AcDbLinetypeTableRecord
  2
CENTER
 70
     0
  3
Center ____ _ ____ _ ____ _ ____ _ ____ _ ____
 72
    65
 73
     4
 40
50.8
 49
31.75
 74
     0
 49
-6.349999999999997
 74
     0
 49
6.349999999999997
 74
     0
 49
-6.349999999999997
 74
     0
  0
LTYPE
  5
4D
330
5
100
AcDbSymbolTableRecord
100
AcDbLinetypeTableRecord
  2
PHANTOM
 70
     0
  3
Phantom ______  __  __  ______  __  __  ______
 72
    65
 73
     6
 40
63.5
 49
31.75
 74
     0
 49
-6.349999999999997
 74
     0
 49
6.349999999999997
 74
     0
 49
-6.349999999999997
 74
     0
 49
6.349999999999997
 74
     0
 49
-6.349999999999997
 74
     0
  0
ENDTAB
  0
TABLE
  2
LAYER
  5
2
330
0
100
AcDbSymbolTable
 70
     8
  0
LAYER
  5
E
102
{ACAD_XDICTIONARY
360
28FE
102
}
330
2
100
AcDbSymbolTableRecord
100
AcDbLayerTableRecord
  2
0
 70
     0
 62
     7
  6
CONTINUOUS
370
    -3
390
28AD
  0
LAYER
  5
4E
102
{ACAD_XDICTIONARY
360
2900
102
}
330
2
100
AcDbSymbolTableRecord
100
AcDbLayerTableRecord
  2
4
 70
     0
 62
     1
  6
CENTER
370
    -3
390
28AD
  0
LAYER
  5
4F
102
{ACAD_XDICTIONARY
360
2902
102
}
330
2
100
AcDbSymbolTableRecord
100
AcDbLayerTableRecord
  2
5
 70
     0
 62
     6
  6
PHANTOM
370
    -3
390
28AD
  0
LAYER
  5
50
102
{ACAD_XDICTIONARY
360
2904
102
}
330
2
100
AcDbSymbolTableRecord
100
AcDbLayerTableRecord
  2
1
 70
     0
 62
     7
  6
CONTINUOUS
370
    -3
390
28AD
  0
LAYER
  5
51
102
{ACAD_XDICTIONARY
360
2906
102
}
330
2
100
AcDbSymbolTableRecord
100
AcDbLayerTableRecord
  2
2
 70
     0
 62
     4
  6
CONTINUOUS
370
    -3
390
28AD
  0
LAYER
  5
52
102
{ACAD_XDICTIONARY
360
2908
102
}
330
2
100
AcDbSymbolTableRecord
100
AcDbLayerTableRecord
  2
3
 70
     0
 62
     2
  6
DASHED
370
    -3
390
28AD
  0
LAYER
  5
53
102
{ACAD_XDICTIONARY
360
290A
102
}
330
2
100
AcDbSymbolTableRecord
100
AcDbLayerTableRecord
  2
6
 70
     0
 62
     5
  6
CONTINUOUS
370
    -3
390
28AD
  0
LAYER
  5
54
102
{ACAD_XDICTIONARY
360
290C
102
}
330
2
100
AcDbSymbolTableRecord
100
AcDbLayerTableRecord
  2
7
 70
     0
 62
     3
  6
CONTINUOUS
370
    -3
390
28AD
  0
ENDTAB
  0
TABLE
  2
STYLE
  5
3
330
0
100
AcDbSymbolTable
 70
     1
  0
STYLE
  5
F
330
3
100
AcDbSymbolTableRecord
100
AcDbTextStyleTableRecord
  2
STANDARD
 70
     0
 40
0.0
 41
1.0
 50
0.0
 71
     0
 42
2.5
  3
simplex.shx
  4

  0
ENDTAB
  0
TABLE
  2
VIEW
  5
6
330
0
100
AcDbSymbolTable
 70
     0
  0
ENDTAB
  0
TABLE
  2
UCS
  5
7
330
0
100
AcDbSymbolTable
 70
     0
  0
ENDTAB
  0
TABLE
  2
APPID
  5
9
330
0
100
AcDbSymbolTable
 70
     5
  0
APPID
  5
10
330
9
100
AcDbSymbolTableRecord
100
AcDbRegAppTableRecord
  2
ACAD
 70
     0
  0
APPID
  5
3E
330
9
100
AcDbSymbolTableRecord
100
AcDbRegAppTableRecord
  2
CONTENTTABDATA
 70
     0
  0
APPID
  5
3F
330
9
100
AcDbSymbolTableRecord
100
AcDbRegAppTableRecord
  2
CONTENTCURRENTTAB
 70
     0
  0
APPID
  5
2918
330
9
100
AcDbSymbolTableRecord
100
AcDbRegAppTableRecord
  2
ACAD_NAV_VCDISPLAY
 70
     0
  0
APPID
  5
2951
330
9
100
AcDbSymbolTableRecord
100
AcDbRegAppTableRecord
  2
ACAD_MLEADERVER
 70
     0
  0
ENDTAB
  0
TABLE
  2
DIMSTYLE
  5
A
330
0
100
AcDbSymbolTable
 70
     1
100
AcDbDimStyleTable
 71
     0
  0
DIMSTYLE
105
1D
330
A
100
AcDbSymbolTableRecord
100
AcDbDimStyleTableRecord
  2
STANDARD
 70
     0
 41
3.0
 42
1.0
 43
10.0
 44
1.0
 73
     0
 74
     0
 77
     3
 78
     8
140
3.2
141
0.0
147
1.0
172
     1
173
     1
340
F
341
2E
343
2E
344
2E
  0
ENDTAB
  0
TABLE
  2
BLOCK_RECORD
  5
1
330
0
100
AcDbSymbolTable
 70
     1
  0
BLOCK_RECORD
  5
18
102
{ACAD_XDICTIONARY
360
2893
102
}
330
1
100
AcDbSymbolTableRecord
100
AcDbBlockTableRecord
  2
*MODEL_SPACE
340
28FB
  0
BLOCK_RECORD
  5
15
102
{ACAD_XDICTIONARY
360
2891
102
}
330
1
100
AcDbSymbolTableRecord
100
AcDbBlockTableRecord
  2
*PAPER_SPACE
340
28FC
  0
BLOCK_RECORD
  5
2E
330
1
100
AcDbSymbolTableRecord
100
AcDbBlockTableRecord
  2
_OPEN
340
0
  0
ENDTAB
  0
ENDSEC
  0
SECTION
  2
BLOCKS
  0
BLOCK
  5
19
330
18
100
AcDbEntity
  8
0
100
AcDbBlockBegin
  2
*MODEL_SPACE
 70
     0
 10
0.0
 20
0.0
 30
0.0
  3
*MODEL_SPACE
  1

  0
ENDBLK
  5
1A
330
18
100
AcDbEntity
  8
0
100
AcDbBlockEnd
  0
BLOCK
  5
16
330
15
100
AcDbEntity
 67
     1
  8
0
100
AcDbBlockBegin
  2
*PAPER_SPACE
 70
     0
 10
0.0
 20
0.0
 30
0.0
  3
*PAPER_SPACE
  1

  0
ENDBLK
  5
17
330
15
100
AcDbEntity
 67
     1
  8
0
100
AcDbBlockEnd
  0
BLOCK
  5
2F
330
2E
100
AcDbEntity
  8
0
100
AcDbBlockBegin
  2
_OPEN
 70
     0
 10
0.0
 20
0.0
 30
0.0
  3
_OPEN
  1

  0
LINE
  5
30
330
2E
100
AcDbEntity
  8
0
  6
ByBlock
 62
     0
100
AcDbLine
 10
-1.0
 20
0.1666666666666666
 30
0.0
 11
0.0
 21
0.0
 31
0.0
  0
LINE
  5
31
330
2E
100
AcDbEntity
  8
0
  6
ByBlock
 62
     0
100
AcDbLine
 10
0.0
 20
0.0
 30
0.0
 11
-1.0
 21
-0.1666666666666666
 31
0.0
  0
LINE
  5
32
330
2E
100
AcDbEntity
  8
0
  6
ByBlock
 62
     0
100
AcDbLine
 10
0.0
 20
0.0
 30
0.0
 11
-1.0
 21
0.0
 31
0.0
  0
ENDBLK
  5
33
330
2E
100
AcDbEntity
  8
0
100
AcDbBlockEnd
  0
ENDSEC
  0
SECTION
  2
ENTITIES
  0
TEXT
  5
63
330
18
100
AcDbEntity
  8
4
  6
CENTER
 48
0.25
100
AcDbText
 10
23.97950852663849
 20
10.0
 30
0.0
 40
1.399999999999999
  1
4
100
AcDbText
  0
TEXT
  5
64
330
18
100
AcDbEntity
  8
7
  6
Continuous
 48
0.25
100
AcDbText
 10
9.999997526638502
 20
26.0000007607689
 30
0.0
 40
3.0
  1
CODE No.9491
100
AcDbText
  0
TEXT
  5
65
330
18
100
AcDbEntity
  8
7
  6
Continuous
 48
0.25
100
AcDbText
 10
9.999997526638502
 20
18.00000076076889
 30
0.0
 40
3.0
  1
TYPE No.TCA-545S-BAU75
100
AcDbText
  0
TEXT
  5
66
330
18
100
AcDbEntity
  8
1
  6
Continuous
 48
0.25
100
AcDbText
 10
9.999997526638502
 20
10.00000076076889
 30
0.0
 40
1.399999999999999
  1
LAYER
100
AcDbText
  0
TEXT
  5
67
330
18
100
AcDbEntity
  8
2
  6
Continuous
 48
0.25
100
AcDbText
 10
19.9795085266385
 20
10.0
 30
0.0
 40
1.399999999999999
  1
2
100
AcDbText
  0
TEXT
  5
68
330
18
100
AcDbEntity
  8
3
  6
DASHED
 48
0.25
100
AcDbText
 10
21.97950852663849
 20
10.0
 30
0.0
 40
1.399999999999999
  1
3
100
AcDbText
  0
TEXT
  5
69
330
18
100
AcDbEntity
  8
1
  6
Continuous
 48
0.25
100
AcDbText
 10
17.9795085266385
 20
10.0
 30
0.0
 40
1.399999999999999
  1
1
100
AcDbText
  0
TEXT
  5
6A
330
18
100
AcDbEntity
  8
5
  6
PHANTOM
 48
0.25
100
AcDbText
 10
25.97950852663849
 20
10.0
 30
0.0
 40
1.399999999999999
  1
5
100
AcDbText
  0
TEXT
  5
6B
330
18
100
AcDbEntity
  8
6
  6
Continuous
 48
0.25
100
AcDbText
 10
27.97950852663849
 20
10.0
 30
0.0
 40
1.399999999999999
  1
6
100
AcDbText
  0
TEXT
  5
6C
330
18
100
AcDbEntity
  8
7
  6
Continuous
 48
0.25
100
AcDbText
 10
29.9795085266385
 20
10.0
 30
0.0
 40
1.399999999999999
  1
7
100
AcDbText
  0
LINE
  5
A61
330
18
100
AcDbEntity
  8
1
  6
Continuous
100
AcDbLine
 10
603.9110974190397
 20
235.3158614497071
 30
0.0
 11
603.91109741904
 21
226.8305422453245
 31
0.0
  0
LINE
  5
A62
330
18
100
AcDbEntity
  8
1
  6
Continuous
100
AcDbLine
 10
586.9110984190402
 20
235.3158614497071
 30
0.0
 11
586.9110984190402
 21
226.8305422453246
 31
0.0
  0
CIRCLE
  5
A63
330
18
100
AcDbEntity
  8
1
  6
Continuous
100
AcDbCircle
 10
595.4110979190399
 20
231.0732018475158
 30
0.0
 40
8.500003000000162
  0
CIRCLE
  5
A64
330
18
100
AcDbEntity
  8
1
  6
Continuous
100
AcDbCircle
 10
595.4110979190399
 20
231.0732018475158
 30
0.0
 40
5.000003999999761
  0
CIRCLE
  5
A65
330
18
100
AcDbEntity
  8
2
  6
Continuous
100
AcDbCircle
 10
595.4110979190399
 20
231.0732018475158
 30
0.0
 40
4.25
  0
ARC
  5
A66
330
18
100
AcDbEntity
  8
1
  6
Continuous
100
AcDbCircle
 10
595.4110979190399
 20
231.0732018475158
 30
0.0
 40
9.500008000000008
100
AcDbArc
 50
266.5254419295598
 51
273.4745580704402
  0
LINE
  5
A67
330
18
100
AcDbEntity
  8
1
  6
Continuous
100
AcDbLine
 10
587.4868484089806
 20
225.8333142817003
 30
0.0
 11
594.8353469290996
 21
221.5906566829703
 31
0.0
  0
ARC
  5
A68
330
18
100
AcDbEntity
  8
1
  6
Continuous
100
AcDbCircle
 10
595.4110979190399
 20
231.0732018475158
 30
0.0
 40
9.500008000000008
100
AcDbArc
 50
206.5254554342501
 51
213.474558070439
  0
LINE
  5
A69
330
18
100
AcDbEntity
  8
1
  6
Continuous
100
AcDbLine
 10
603.3353474290993
 20
225.8333142817001
 30
0.0
 11
595.9868489089807
 21
221.5906566829703
 31
0.0
  0
ARC
  5
A6A
330
18
100
AcDbEntity
  8
1
  6
Continuous
100
AcDbCircle
 10
595.4110979190399
 20
231.0732018475158
 30
0.0
 40
9.500008000000008
100
AcDbArc
 50
326.5254419295609
 51
333.4745445657499
  0
ARC
  5
A6B
330
18
100
AcDbEntity
  8
1
  6
Continuous
100
AcDbCircle
 10
595.4110979190399
 20
231.0732018475158
 30
0.0
 40
9.500008000000008
100
AcDbArc
 50
86.5254419295598
 51
93.47455807044015
  0
LINE
  5
A6C
330
18
100
AcDbEntity
  8
1
  6
Continuous
100
AcDbLine
 10
587.4868484089806
 20
236.3130894133314
 30
0.0
 11
594.8353469290996
 21
240.5557470120614
 31
0.0
  0
ARC
  5
A6D
330
18
100
AcDbEntity
  8
1
  6
Continuous
100
AcDbCircle
 10
595.4110979190399
 20
231.0732018475158
 30
0.0
 40
9.500008000000008
100
AcDbArc
 50
146.5254419295594
 51
153.4745445657499
  0
ARC
  5
A6E
330
18
100
AcDbEntity
  8
1
  6
Continuous
100
AcDbCircle
 10
595.4110979190399
 20
231.0732018475158
 30
0.0
 40
9.500008000000008
100
AcDbArc
 50
26.52545543425008
 51
33.47455807043905
  0
LINE
  5
A6F
330
18
100
AcDbEntity
  8
1
  6
Continuous
100
AcDbLine
 10
603.3353474290995
 20
236.3130894133313
 30
0.0
 11
595.9868489089807
 21
240.5557470120614
 31
0.0
  0
LINE
  5
14F8
330
18
100
AcDbEntity
  8
4
  6
CENTER
100
AcDbLine
 10
64.12427295767566
 20
298.1383873475158
 30
0.0
 11
64.12427295767566
 21
189.5702418475158
 31
0.0
  0
LINE
  5
14F9
330
18
100
AcDbEntity
  8
1
  6
Continuous
100
AcDbLine
 10
34.12427295767566
 20
286.5732099475158
 30
0.0
 11
35.18059295767557
 21
282.9732038475158
 31
0.0
  0
LINE
  5
14FA
330
18
100
AcDbEntity
  8
1
  6
Continuous
100
AcDbLine
 10
94.12425795767559
 20
286.5732080475158
 30
0.0
 11
93.06793795767566
 21
282.9732128475158
 31
0.0
  0
LINE
  5
14FB
330
18
100
AcDbEntity
  8
1
  6
Continuous
100
AcDbLine
 10
294.0420058372383
 20
286.5732042475158
 30
0.0
 11
292.9856858372381
 21
282.9732028475159
 31
0.0
  0
LINE
  5
14FC
330
18
100
AcDbEntity
  8
1
  6
Continuous
100
AcDbLine
 10
234.0420208372381
 20
286.5732008475158
 30
0.0
 11
235.0983368372379
 21
282.9732008475158
 31
0.0
  0
LINE
  5
14FD
330
18
100
AcDbEntity
  8
4
  6
CENTER
100
AcDbLine
 10
264.042020837238
 20
298.1383873475158
 30
0.0
 11
264.042020837238
 21
256.0823418475158
 31
0.0
  0
ARC
  5
1500
330
18
100
AcDbEntity
  8
1
  6
Continuous
100
AcDbCircle
 10
88.02427495767551
 20
244.9924218475159
 30
0.0
 40
4.400000099999997
100
AcDbArc
 50
255.5224899999974
 51
284.4775100000024
  0
ARC
  5
1501
330
18
100
AcDbEntity
  8
1
  6
Continuous
100
AcDbCircle
 10
86.62427295767564
 20
249.4810808475159
 30
0.0
 40
2.0
100
AcDbArc
 50
270.0
 51
0.0
  0
LINE
  5
1502
330
18
100
AcDbEntity
  8
1
  6
Continuous
100
AcDbLine
 10
37.62427295767565
 20
263.9495788475159
 30
0.0
 11
90.62427295767564
 21
263.9495788475159
 31
0.0
  0
LINE
  5
1503
330
18
100
AcDbEntity
  8
1
  6
Continuous
100
AcDbLine
 10
84.54942095767547
 20
273.5732018475159
 30
0.0
 11
92.92427595767572
 21
273.5732018475159
 31
0.0
  0
LINE
  5
1504
330
18
100
AcDbEntity
  8
1
  6
Continuous
100
AcDbLine
 10
82.21223995767559
 20
272.6820998475159
 30
0.0
 11
88.96001195767553
 21
269.5302258475158
 31
0.0
  0
LINE
  5
1505
330
18
100
AcDbEntity
  8
1
  6
Continuous
100
AcDbLine
 10
82.21223995767559
 20
274.664895847516
 30
0.0
 11
88.96001195767576
 21
271.5130228475159
 31
0.0
  0
LINE
  5
1506
330
18
100
AcDbEntity
  8
1
  6
Continuous
100
AcDbLine
 10
35.02426295767554
 20
250.5733658475159
 30
0.0
 11
93.22427895767557
 21
250.5733658475159
 31
0.0
  0
LINE
  5
1507
330
18
100
AcDbEntity
  8
1
  6
Continuous
100
AcDbLine
 10
35.02426295767554
 20
250.3312548475158
 30
0.0
 11
93.22427895767557
 21
250.3312548475158
 31
0.0
  0
LINE
  5
1508
330
18
100
AcDbEntity
  8
1
  6
Continuous
100
AcDbLine
 10
86.62427295767564
 20
216.7731988475159
 30
0.0
 11
90.62427295767564
 21
216.7731988475159
 31
0.0
  0
LINE
  5
1509
330
18
100
AcDbEntity
  8
1
  6
Continuous
100
AcDbLine
 10
33.52646295767545
 20
277.5732018475159
 30
0.0
 11
94.72208195767551
 21
277.5732018475159
 31
0.0
  0
LINE
  5
150A
330
18
100
AcDbEntity
  8
1
  6
Continuous
100
AcDbLine
 10
35.18061295767575
 20
282.9732018475159
 30
0.0
 11
93.06795295767551
 21
282.9732018475159
 31
0.0
  0
LINE
  5
150B
330
18
100
AcDbEntity
  8
4
  6
CENTER
100
AcDbLine
 10
20.82427295767546
 20
231.0732018475158
 30
0.0
 11
101.0720119576755
 21
231.0732018475158
 31
0.0
  0
LINE
  5
150C
330
18
100
AcDbEntity
  8
1
  6
Continuous
100
AcDbLine
 10
86.62427295767564
 20
219.0732018475158
 30
0.0
 11
90.62427295767564
 21
219.0732018475158
 31
0.0
  0
ARC
  5
1511
330
18
100
AcDbEntity
  8
1
  6
Continuous
100
AcDbCircle
 10
34.13428295767561
 20
238.4344158475158
 30
0.0
 40
3.8100059
100
AcDbArc
 50
150.3156199999998
 51
209.6843800000002
  0
ARC
  5
1512
330
18
100
AcDbEntity
  8
1
  6
Continuous
100
AcDbCircle
 10
29.9242729576756
 20
238.3732008475158
 30
0.0
 40
1.199999999999999
100
AcDbArc
 50
90.00000299999769
 51
180.0000099999993
  0
ARC
  5
1513
330
18
100
AcDbEntity
  8
1
  6
Continuous
100
AcDbCircle
 10
30.53717295767546
 20
238.4431478475158
 30
0.0
 40
4.787128
100
AcDbArc
 50
333.5795799999996
 51
26.42042000000029
  0
LINE
  5
1514
330
18
100
AcDbEntity
  8
1
  6
Continuous
100
AcDbLine
 10
38.82427295767547
 20
250.3312548475158
 30
0.0
 11
38.82427295767547
 21
239.1116008475159
 31
0.0
  0
LINE
  5
1515
330
18
100
AcDbEntity
  8
1
  6
Continuous
100
AcDbLine
 10
35.32428295767568
 20
250.3312548475158
 30
0.0
 11
35.32428295767568
 21
219.0732018475158
 31
0.0
  0
LINE
  5
1516
330
18
100
AcDbEntity
  8
1
  6
Continuous
100
AcDbLine
 10
86.62427295767564
 20
247.4810808475158
 30
0.0
 11
86.62427295767564
 21
216.7731988475159
 31
0.0
  0
LINE
  5
1517
330
18
100
AcDbEntity
  8
1
  6
Continuous
100
AcDbLine
 10
37.62427295767565
 20
250.3312548475158
 30
0.0
 11
37.62427295767565
 21
219.0732018475158
 31
0.0
  0
LINE
  5
1518
330
18
100
AcDbEntity
  8
1
  6
Continuous
100
AcDbLine
 10
41.62427295767566
 20
247.4810808475158
 30
0.0
 11
41.62427295767566
 21
216.7731988475159
 31
0.0
  0
LINE
  5
1519
330
18
100
AcDbEntity
  8
1
  6
Continuous
100
AcDbLine
 10
44.12427295767566
 20
247.4810808475158
 30
0.0
 11
44.12427295767566
 21
199.3511558475158
 31
0.0
  0
LINE
  5
151A
330
18
100
AcDbEntity
  8
1
  6
Continuous
100
AcDbLine
 10
84.12427295767566
 20
247.4810808475158
 30
0.0
 11
84.12427295767566
 21
199.3511558475158
 31
0.0
  0
LINE
  5
151B
330
18
100
AcDbEntity
  8
1
  6
Continuous
100
AcDbLine
 10
85.8242699576756
 20
247.4810808475158
 30
0.0
 11
85.8242699576756
 21
213.0732018475158
 31
0.0
  0
LINE
  5
151C
330
18
100
AcDbEntity
  8
1
  6
Continuous
100
AcDbLine
 10
42.42427295767561
 20
247.4810808475158
 30
0.0
 11
42.42427295767561
 21
213.0732018475158
 31
0.0
  0
LINE
  5
151D
330
18
100
AcDbEntity
  8
1
  6
Continuous
100
AcDbLine
 10
30.32427295767546
 20
239.5732018475158
 30
0.0
 11
30.32427295767546
 21
231.0732018475158
 31
0.0
  0
ARC
  5
151E
330
18
100
AcDbEntity
  8
1
  6
Continuous
100
AcDbCircle
 10
64.12427295767566
 20
343.5732018475158
 30
0.0
 40
150.0
100
AcDbArc
 50
264.0622100000005
 51
275.9377700000019
  0
ARC
  5
151F
330
18
100
AcDbEntity
  8
1
  6
Continuous
100
AcDbCircle
 10
49.12427295767566
 20
199.3511558475158
 30
0.0
 40
5.0
100
AcDbArc
 50
179.9999799999995
 51
264.062190000002
  0
LINE
  5
1520
330
18
100
AcDbEntity
  8
1
  6
Continuous
100
AcDbLine
 10
42.42427295767561
 20
213.0732018475158
 30
0.0
 11
44.12427295767566
 21
213.0732018475158
 31
0.0
  0
LINE
  5
1521
330
18
100
AcDbEntity
  8
1
  6
Continuous
100
AcDbLine
 10
37.62427295767565
 20
216.7731988475159
 30
0.0
 11
41.62427295767566
 21
216.7731988475159
 31
0.0
  0
LINE
  5
1522
330
18
100
AcDbEntity
  8
1
  6
Continuous
100
AcDbLine
 10
37.62427295767565
 20
219.0732018475158
 30
0.0
 11
41.62427295767566
 21
219.0732018475158
 31
0.0
  0
ARC
  5
1523
330
18
100
AcDbEntity
  8
1
  6
Continuous
100
AcDbCircle
 10
17.07427295767547
 20
231.0732018475158
 30
0.0
 40
18.25
100
AcDbArc
 50
346.5572599999986
 51
13.44273899999898
  0
ARC
  5
1524
330
18
100
AcDbEntity
  8
1
  6
Continuous
100
AcDbCircle
 10
44.81427295767571
 20
231.0732018475158
 30
0.0
 40
14.49
100
AcDbArc
 50
164.9045800000001
 51
195.0954199999998
  0
LINE
  5
1525
330
18
100
AcDbEntity
  8
1
  6
Continuous
100
AcDbLine
 10
26.32427295767546
 20
235.3232018475158
 30
0.0
 11
26.32427295767546
 21
226.8232018475158
 31
0.0
  0
LINE
  5
1526
330
18
100
AcDbEntity
  8
1
  6
Continuous
100
AcDbLine
 10
27.07427295767546
 20
236.0732018475158
 30
0.0
 11
27.07427295767546
 21
226.0732018475158
 31
0.0
  0
LINE
  5
1527
330
18
100
AcDbEntity
  8
1
  6
Continuous
100
AcDbLine
 10
28.72429295767551
 20
223.7731988475159
 30
0.0
 11
28.72429295767551
 21
231.0732018475158
 31
0.0
  0
LINE
  5
1528
330
18
100
AcDbEntity
  8
1
  6
Continuous
100
AcDbLine
 10
30.32427295767546
 20
222.5732018475159
 30
0.0
 11
30.32427295767546
 21
231.0732018475158
 31
0.0
  0
LINE
  5
1529
330
18
100
AcDbEntity
  8
1
  6
Continuous
100
AcDbLine
 10
30.82428295767544
 20
225.5987828475159
 30
0.0
 11
34.82427295767546
 21
225.8333028475159
 31
0.0
  0
LINE
  5
152A
330
18
100
AcDbEntity
  8
1
  6
Continuous
100
AcDbLine
 10
30.82427295767546
 20
221.7732068475159
 30
0.0
 11
34.82428295767567
 21
221.5732098475159
 31
0.0
  0
LINE
  5
152B
330
18
100
AcDbEntity
  8
1
  6
Continuous
100
AcDbLine
 10
34.8242729576757
 20
226.830556847516
 30
0.0
 11
30.8242729576757
 21
227.2996038475159
 31
0.0
  0
LINE
  5
152C
330
18
100
AcDbEntity
  8
1
  6
Continuous
100
AcDbLine
 10
34.82428295767545
 20
221.5731938475158
 30
0.0
 11
30.82427295767546
 21
221.8251858475159
 31
0.0
  0
ARC
  5
152D
330
18
100
AcDbEntity
  8
1
  6
Continuous
100
AcDbCircle
 10
29.9242729576756
 20
223.7731988475159
 30
0.0
 40
1.199999999999999
100
AcDbArc
 50
180.0000099999993
 51
270.0
  0
ARC
  5
152E
330
18
100
AcDbEntity
  8
1
  6
Continuous
100
AcDbCircle
 10
34.13428295767561
 20
223.7119878475159
 30
0.0
 40
3.8100059
100
AcDbArc
 50
150.3156199999998
 51
209.6843800000002
  0
LINE
  5
152F
330
18
100
AcDbEntity
  8
1
  6
Continuous
100
AcDbLine
 10
27.07427295767546
 20
226.0732018475158
 30
0.0
 11
28.72429295767551
 21
226.0732018475158
 31
0.0
  0
LINE
  5
1530
330
18
100
AcDbEntity
  8
2
  6
Continuous
100
AcDbLine
 10
26.32427295767546
 20
226.8232018475158
 30
0.0
 11
28.72429295767551
 21
226.8232018475158
 31
0.0
  0
LINE
  5
1531
330
18
100
AcDbEntity
  8
1
  6
Continuous
100
AcDbLine
 10
27.07425295767551
 20
226.073186847516
 30
0.0
 11
26.32425295767552
 21
226.8231788475159
 31
0.0
  0
LINE
  5
1532
330
18
100
AcDbEntity
  8
1
  6
Continuous
100
AcDbLine
 10
30.82428295767567
 20
225.5987828475159
 30
0.0
 11
30.82428295767567
 21
227.2996118475159
 31
0.0
  0
LINE
  5
1533
330
18
100
AcDbEntity
  8
1
  6
Continuous
100
AcDbLine
 10
30.82428295767567
 20
221.7731988475159
 30
0.0
 11
30.82428295767567
 21
221.8251928475158
 31
0.0
  0
LINE
  5
1534
330
18
100
AcDbEntity
  8
1
  6
Continuous
100
AcDbLine
 10
30.82430295767562
 20
221.7732068475156
 30
0.0
 11
30.32430295767563
 21
222.5732098475158
 31
0.0
  0
LINE
  5
1535
330
18
100
AcDbEntity
  8
1
  6
Continuous
100
AcDbLine
 10
29.9242729576756
 20
222.5732018475159
 30
0.0
 11
30.32427295767546
 21
222.5732018475159
 31
0.0
  0
ARC
  5
1536
330
18
100
AcDbEntity
  8
1
  6
Continuous
100
AcDbCircle
 10
37.62427295767565
 20
219.0732018475158
 30
0.0
 40
2.299999999999998
100
AcDbArc
 50
179.9999899999988
 51
270.0
  0
ARC
  5
1537
330
18
100
AcDbEntity
  8
1
  6
Continuous
100
AcDbCircle
 10
30.53717295767546
 20
223.7032528475158
 30
0.0
 40
4.787128
100
AcDbArc
 50
333.5795799999996
 51
26.42042000000029
  0
LINE
  5
1538
330
18
100
AcDbEntity
  8
1
  6
Continuous
100
AcDbLine
 10
34.82428295767567
 20
226.8305638475159
 30
0.0
 11
34.82428295767567
 21
225.8333108475159
 31
0.0
  0
LINE
  5
1539
330
18
100
AcDbEntity
  8
1
  6
Continuous
100
AcDbLine
 10
35.32427295767571
 20
222.5731938475159
 30
0.0
 11
34.8242729576757
 21
221.5732018475158
 31
0.0
  0
LINE
  5
153A
330
18
100
AcDbEntity
  8
1
  6
Continuous
100
AcDbLine
 10
30.82428295767567
 20
236.5476088475159
 30
0.0
 11
34.82428295767545
 21
236.3130848475158
 31
0.0
  0
LINE
  5
153B
330
18
100
AcDbEntity
  8
1
  6
Continuous
100
AcDbLine
 10
34.82428295767545
 20
235.3158468475159
 30
0.0
 11
30.82428295767544
 21
234.8467998475159
 31
0.0
  0
LINE
  5
153C
330
18
100
AcDbEntity
  8
2
  6
Continuous
100
AcDbLine
 10
26.32427295767546
 20
235.3232018475158
 30
0.0
 11
28.72429295767551
 21
235.3232018475158
 31
0.0
  0
LINE
  5
153D
330
18
100
AcDbEntity
  8
1
  6
Continuous
100
AcDbLine
 10
27.07427295767546
 20
236.0732018475158
 30
0.0
 11
28.72429295767551
 21
236.0732018475158
 31
0.0
  0
LINE
  5
153E
330
18
100
AcDbEntity
  8
1
  6
Continuous
100
AcDbLine
 10
26.32425295767552
 20
235.3231788475159
 30
0.0
 11
27.07425295767574
 21
236.0731868475159
 31
0.0
  0
LINE
  5
153F
330
18
100
AcDbEntity
  8
1
  6
Continuous
100
AcDbLine
 10
30.82428295767567
 20
236.5476208475159
 30
0.0
 11
30.82428295767567
 21
234.8467958475158
 31
0.0
  0
LINE
  5
1540
330
18
100
AcDbEntity
  8
1
  6
Continuous
100
AcDbLine
 10
28.72429295767551
 20
238.3732008475158
 30
0.0
 11
28.72429295767551
 21
231.0732018475158
 31
0.0
  0
LINE
  5
1541
330
18
100
AcDbEntity
  8
1
  6
Continuous
100
AcDbLine
 10
37.62427295767565
 20
239.1116008475159
 30
0.0
 11
38.82427295767547
 21
239.1116008475159
 31
0.0
  0
LINE
  5
1542
330
18
100
AcDbEntity
  8
1
  6
Continuous
100
AcDbLine
 10
34.82428295767567
 20
235.3158428475158
 30
0.0
 11
34.82428295767567
 21
236.3130968475159
 31
0.0
  0
LINE
  5
1543
330
18
100
AcDbEntity
  8
1
  6
Continuous
100
AcDbLine
 10
41.62427295767566
 20
226.0732018475158
 30
0.0
 11
42.42427295767561
 21
226.0732018475158
 31
0.0
  0
LINE
  5
1544
330
18
100
AcDbEntity
  8
1
  6
Continuous
100
AcDbLine
 10
41.62427295767566
 20
236.0732018475158
 30
0.0
 11
42.42427295767561
 21
236.0732018475158
 31
0.0
  0
ARC
  5
1545
330
18
100
AcDbEntity
  8
1
  6
Continuous
100
AcDbCircle
 10
79.12427295767566
 20
199.3511558475158
 30
0.0
 40
5.0
100
AcDbArc
 50
275.9377999999985
 51
0.0
  0
LINE
  5
1546
330
18
100
AcDbEntity
  8
1
  6
Continuous
100
AcDbLine
 10
84.12427295767566
 20
213.0732018475158
 30
0.0
 11
85.8242699576756
 21
213.0732018475158
 31
0.0
  0
LINE
  5
1547
330
18
100
AcDbEntity
  8
1
  6
Continuous
100
AcDbLine
 10
85.8242699576756
 20
226.0732018475158
 30
0.0
 11
86.62427295767564
 21
226.0732018475158
 31
0.0
  0
LINE
  5
1548
330
18
100
AcDbEntity
  8
1
  6
Continuous
100
AcDbLine
 10
85.8242699576756
 20
236.0732018475158
 30
0.0
 11
86.62427295767564
 21
236.0732018475158
 31
0.0
  0
LINE
  5
1549
330
18
100
AcDbEntity
  8
1
  6
Continuous
100
AcDbLine
 10
47.62427295767563
 20
273.0346828475159
 30
0.0
 11
80.62427295767566
 21
273.0346828475159
 31
0.0
  0
LINE
  5
154A
330
18
100
AcDbEntity
  8
1
  6
Continuous
100
AcDbLine
 10
47.62427295767563
 20
275.0174788475159
 30
0.0
 11
80.62427295767566
 21
275.0174788475159
 31
0.0
  0
ARC
  5
154B
330
18
100
AcDbEntity
  8
1
  6
Continuous
100
AcDbCircle
 10
31.02428295767548
 20
261.6890888475158
 30
0.0
 40
1.0
100
AcDbArc
 50
90.00000299999769
 51
180.0000099999993
  0
LINE
  5
154C
330
18
100
AcDbEntity
  8
1
  6
Continuous
100
AcDbLine
 10
29.52428295767548
 20
268.3293488475159
 30
0.0
 11
29.52428295767548
 21
260.3697568475158
 31
0.0
  0
LINE
  5
154D
330
18
100
AcDbEntity
  8
1
  6
Continuous
100
AcDbLine
 10
28.72428295767554
 20
267.3495538475158
 30
0.0
 11
28.72428295767554
 21
261.3495538475159
 31
0.0
  0
LINE
  5
154E
330
18
100
AcDbEntity
  8
1
  6
Continuous
100
AcDbLine
 10
30.02428295767549
 20
271.3495538475158
 30
0.0
 11
30.02428295767549
 21
250.0517178475158
 31
0.0
  0
LINE
  5
154F
330
18
100
AcDbEntity
  8
1
  6
Continuous
100
AcDbLine
 10
32.02426295767553
 20
263.9495788475159
 30
0.0
 11
32.02426295767553
 21
240.4332058475159
 31
0.0
  0
ARC
  5
1550
330
18
100
AcDbEntity
  8
1
  6
Continuous
100
AcDbCircle
 10
40.22427295767554
 20
244.9924218475159
 30
0.0
 40
4.400000099999997
100
AcDbArc
 50
255.5224899999974
 51
284.4775100000024
  0
ARC
  5
1551
330
18
100
AcDbEntity
  8
1
  6
Continuous
100
AcDbCircle
 10
41.62427295767566
 20
249.4810808475159
 30
0.0
 40
2.0
100
AcDbArc
 50
179.9999899999988
 51
270.0
  0
ARC
  5
1552
330
18
100
AcDbEntity
  8
1
  6
Continuous
100
AcDbCircle
 10
35.02426295767554
 20
247.5733658475159
 30
0.0
 40
3.0
100
AcDbArc
 50
90.00000299999769
 51
180.0000099999993
  0
ARC
  5
1553
330
18
100
AcDbEntity
  8
1
  6
Continuous
100
AcDbCircle
 10
36.20551295767564
 20
245.8424198475158
 30
0.0
 40
5.78125
100
AcDbArc
 50
145.7945399999999
 51
214.2054599999999
  0
LINE
  5
1554
330
18
100
AcDbEntity
  8
1
  6
Continuous
100
AcDbLine
 10
30.02428295767549
 20
250.0517178475158
 30
0.0
 11
32.02426295767553
 21
250.0517178475158
 31
0.0
  0
LINE
  5
1555
330
18
100
AcDbEntity
  8
1
  6
Continuous
100
AcDbLine
 10
34.82430295767562
 20
240.5732058475158
 30
0.0
 11
30.82430295767562
 21
240.3212178475158
 31
0.0
  0
LINE
  5
1556
330
18
100
AcDbEntity
  8
1
  6
Continuous
100
AcDbLine
 10
30.8242729576757
 20
240.3732048475159
 30
0.0
 11
34.8242729576757
 21
240.5732018475158
 31
0.0
  0
LINE
  5
1557
330
18
100
AcDbEntity
  8
1
  6
Continuous
100
AcDbLine
 10
29.9242729576756
 20
239.5732018475158
 30
0.0
 11
30.32427295767546
 21
239.5732018475158
 31
0.0
  0
LINE
  5
1558
330
18
100
AcDbEntity
  8
1
  6
Continuous
100
AcDbLine
 10
30.82427295767546
 20
240.3732048475159
 30
0.0
 11
30.32427295767546
 21
239.5732128475159
 31
0.0
  0
LINE
  5
1559
330
18
100
AcDbEntity
  8
1
  6
Continuous
100
AcDbLine
 10
30.82428295767567
 20
240.3732008475158
 30
0.0
 11
30.82428295767567
 21
240.3212148475158
 31
0.0
  0
LINE
  5
155A
330
18
100
AcDbEntity
  8
1
  6
Continuous
100
AcDbLine
 10
39.12427295767566
 20
242.3424198475158
 30
0.0
 11
38.82427295767547
 21
242.3424198475158
 31
0.0
  0
LINE
  5
155B
330
18
100
AcDbEntity
  8
1
  6
Continuous
100
AcDbLine
 10
39.12427295767566
 20
249.3424198475159
 30
0.0
 11
38.82427295767547
 21
249.3424198475159
 31
0.0
  0
LINE
  5
155C
330
18
100
AcDbEntity
  8
1
  6
Continuous
100
AcDbLine
 10
39.12427295767566
 20
250.3312548475158
 30
0.0
 11
39.12427295767566
 21
240.7321378475159
 31
0.0
  0
LINE
  5
155D
330
18
100
AcDbEntity
  8
1
  6
Continuous
100
AcDbLine
 10
31.42427295767561
 20
242.5924198475158
 30
0.0
 11
32.02426295767553
 21
243.5078868475159
 31
0.0
  0
LINE
  5
155E
330
18
100
AcDbEntity
  8
1
  6
Continuous
100
AcDbLine
 10
31.42426295767563
 20
249.0924198475159
 30
0.0
 11
31.42426295767563
 21
242.5924198475158
 31
0.0
  0
LINE
  5
155F
330
18
100
AcDbEntity
  8
1
  6
Continuous
100
AcDbLine
 10
32.02426295767553
 20
248.5079168475158
 30
0.0
 11
31.42427295767561
 21
249.0924198475159
 31
0.0
  0
LINE
  5
1560
330
18
100
AcDbEntity
  8
1
  6
Continuous
100
AcDbLine
 10
35.02426295767554
 20
250.3312548475158
 30
0.0
 11
35.02426295767554
 21
240.1112118475158
 31
0.0
  0
LINE
  5
1561
330
18
100
AcDbEntity
  8
1
  6
Continuous
100
AcDbLine
 10
35.32428295767568
 20
239.5732058475159
 30
0.0
 11
34.82428295767567
 21
240.5732058475158
 31
0.0
  0
ARC
  5
1562
330
18
100
AcDbEntity
  8
1
  6
Continuous
100
AcDbCircle
 10
29.72428295767553
 20
261.3495538475159
 30
0.0
 40
1.0
100
AcDbArc
 50
179.9999899999988
 51
258.4630500000013
  0
ARC
  5
1563
330
18
100
AcDbEntity
  8
1
  6
Continuous
100
AcDbCircle
 10
34.20551295767563
 20
258.2990208475159
 30
0.0
 40
5.78125
100
AcDbArc
 50
155.3140199999991
 51
214.2054599999999
  0
LINE
  5
1564
330
18
100
AcDbEntity
  8
1
  6
Continuous
100
AcDbLine
 10
30.02428295767549
 20
261.8495558475158
 30
0.0
 11
29.52428295767548
 21
260.3697568475158
 31
0.0
  0
LINE
  5
1565
330
18
100
AcDbEntity
  8
1
  6
Continuous
100
AcDbLine
 10
30.02426295767554
 20
260.9645138475158
 30
0.0
 11
29.79929295767556
 21
261.1836758475159
 31
0.0
  0
LINE
  5
1566
330
18
100
AcDbEntity
  8
1
  6
Continuous
100
AcDbLine
 10
29.42426295767564
 20
260.3956198475159
 30
0.0
 11
29.42426295767564
 21
255.0490208475159
 31
0.0
  0
LINE
  5
1567
330
18
100
AcDbEntity
  8
1
  6
Continuous
100
AcDbLine
 10
29.42426295767564
 20
255.0490168475159
 30
0.0
 11
30.02426295767554
 21
255.964490847516
 31
0.0
  0
LINE
  5
1568
330
18
100
AcDbEntity
  8
1
  6
Continuous
100
AcDbLine
 10
41.62427295767566
 20
247.4810808475158
 30
0.0
 11
51.12427295767566
 21
247.4810808475158
 31
0.0
  0
LINE
  5
1569
330
18
100
AcDbEntity
  8
1
  6
Continuous
100
AcDbLine
 10
41.32427295767548
 20
247.5037098475159
 30
0.0
 11
41.32427295767548
 21
240.7321378475159
 31
0.0
  0
LINE
  5
156A
330
18
100
AcDbEntity
  8
1
  6
Continuous
100
AcDbLine
 10
39.62427295767565
 20
250.3312548475158
 30
0.0
 11
39.62427295767565
 21
249.4810808475159
 31
0.0
  0
ARC
  5
156B
330
18
100
AcDbEntity
  8
1
  6
Continuous
100
AcDbCircle
 10
51.12427295767566
 20
248.4810808475158
 30
0.0
 40
1.0
100
AcDbArc
 50
270.0
 51
0.0
  0
LINE
  5
156C
330
18
100
AcDbEntity
  8
1
  6
Continuous
100
AcDbLine
 10
52.12427295767565
 20
250.3312548475158
 30
0.0
 11
52.12427295767565
 21
248.4810808475158
 31
0.0
  0
LINE
  5
156D
330
18
100
AcDbEntity
  8
1
  6
Continuous
100
AcDbLine
 10
46.03630295767561
 20
272.682097847516
 30
0.0
 11
39.28854295767564
 21
269.5302278475159
 31
0.0
  0
LINE
  5
156E
330
18
100
AcDbEntity
  8
1
  6
Continuous
100
AcDbLine
 10
35.32428295767568
 20
273.5732018475159
 30
0.0
 11
43.6991329576756
 21
273.5732018475159
 31
0.0
  0
LINE
  5
156F
330
18
100
AcDbEntity
  8
1
  6
Continuous
100
AcDbLine
 10
46.03630295767561
 20
274.6648898475159
 30
0.0
 11
39.28853295767567
 21
271.5130188475159
 31
0.0
  0
LINE
  5
1570
330
18
100
AcDbEntity
  8
1
  6
Continuous
100
AcDbLine
 10
32.12427295767565
 20
274.1010658475159
 30
0.0
 11
32.10526295767567
 21
273.3495538475158
 31
0.0
  0
ARC
  5
1571
330
18
100
AcDbEntity
  8
1
  6
Continuous
100
AcDbCircle
 10
32.02428295767548
 20
271.3495538475158
 30
0.0
 40
2.0
100
AcDbArc
 50
90.00000299999769
 51
180.0000099999993
  0
LINE
  5
1572
330
18
100
AcDbEntity
  8
1
  6
Continuous
100
AcDbLine
 10
31.02428295767548
 20
262.6890888475159
 30
0.0
 11
32.02426295767553
 21
262.6890888475159
 31
0.0
  0
ARC
  5
1573
330
18
100
AcDbEntity
  8
1
  6
Continuous
100
AcDbCircle
 10
29.72428295767553
 20
267.3495538475158
 30
0.0
 40
1.0
100
AcDbArc
 50
101.5369600000027
 51
180.0000099999993
  0
LINE
  5
1574
330
18
100
AcDbEntity
  8
1
  6
Continuous
100
AcDbLine
 10
30.02428295767549
 20
266.8495618475159
 30
0.0
 11
29.52428295767548
 21
268.3293528475159
 31
0.0
  0
ARC
  5
1575
330
18
100
AcDbEntity
  8
1
  6
Continuous
100
AcDbCircle
 10
35.12427295767565
 20
265.9495788475159
 30
0.0
 40
2.0
100
AcDbArc
 50
270.0
 51
0.0
  0
ARC
  5
1576
330
18
100
AcDbEntity
  8
1
  6
Continuous
100
AcDbCircle
 10
40.87650295767571
 20
266.1305808475158
 30
0.0
 40
3.752229499999998
100
AcDbArc
 50
115.0371999999981
 51
180.0000099999993
  0
ARC
  5
1577
330
18
100
AcDbEntity
  8
1
  6
Continuous
100
AcDbCircle
 10
40.87650295767571
 20
268.1133758475159
 30
0.0
 40
3.752229499999998
100
AcDbArc
 50
115.0371999999981
 51
180.0000099999993
  0
LINE
  5
1578
330
18
100
AcDbEntity
  8
1
  6
Continuous
100
AcDbLine
 10
32.02428295767548
 20
273.3495538475158
 30
0.0
 11
35.12427295767565
 21
273.3495538475158
 31
0.0
  0
LINE
  5
1579
330
18
100
AcDbEntity
  8
1
  6
Continuous
100
AcDbLine
 10
32.02426295767553
 20
263.9495788475159
 30
0.0
 11
35.12427295767565
 21
263.9495788475159
 31
0.0
  0
LINE
  5
157A
330
18
100
AcDbEntity
  8
1
  6
Continuous
100
AcDbLine
 10
37.12427295767565
 20
268.1133758475159
 30
0.0
 11
37.12427295767565
 21
265.9495788475159
 31
0.0
  0
LINE
  5
157B
330
18
100
AcDbEntity
  8
1
  6
Continuous
100
AcDbLine
 10
35.12427295767565
 20
273.3495538475158
 30
0.0
 11
35.12427295767565
 21
263.9479118475159
 31
0.0
  0
LINE
  5
157C
330
18
100
AcDbEntity
  8
1
  6
Continuous
100
AcDbLine
 10
35.32428295767568
 20
273.5732018475159
 30
0.0
 11
35.32428295767568
 21
263.9495788475159
 31
0.0
  0
ARC
  5
157D
330
18
100
AcDbEntity
  8
1
  6
Continuous
100
AcDbCircle
 10
33.12427295767566
 20
278.5732018475159
 30
0.0
 40
1.0
100
AcDbArc
 50
311.7693699999981
 51
0.0
  0
ARC
  5
157E
330
18
100
AcDbEntity
  8
1
  6
Continuous
100
AcDbCircle
 10
40.12427295767564
 20
279.5732018475159
 30
0.0
 40
6.0
100
AcDbArc
 50
145.4819099999985
 51
179.9999599999992
  0
ARC
  5
157F
330
18
100
AcDbEntity
  8
1
  6
Continuous
100
AcDbCircle
 10
37.12427295767565
 20
274.1010658475159
 30
0.0
 40
5.0
100
AcDbArc
 50
131.8021299999975
 51
179.9999599999992
  0
LINE
  5
1580
330
18
100
AcDbEntity
  8
1
  6
Continuous
100
AcDbLine
 10
34.12427295767566
 20
279.5732018475159
 30
0.0
 11
34.12427295767566
 21
278.5732018475159
 31
0.0
  0
ARC
  5
1581
330
18
100
AcDbEntity
  8
1
  6
Continuous
100
AcDbCircle
 10
47.62427295767563
 20
269.2824528475159
 30
0.0
 40
3.752229499999998
100
AcDbArc
 50
90.00000299999769
 51
115.0371999999981
  0
ARC
  5
1582
330
18
100
AcDbEntity
  8
1
  6
Continuous
100
AcDbCircle
 10
47.62427295767563
 20
271.2652488475159
 30
0.0
 40
3.752229499999998
100
AcDbArc
 50
90.00000299999769
 51
115.0371999999981
  0
LINE
  5
1583
330
18
100
AcDbEntity
  8
1
  6
Continuous
100
AcDbLine
 10
77.12427295767565
 20
247.4810808475158
 30
0.0
 11
86.62427295767564
 21
247.4810808475158
 31
0.0
  0
ARC
  5
1584
330
18
100
AcDbEntity
  8
1
  6
Continuous
100
AcDbCircle
 10
77.12427295767565
 20
248.4810808475158
 30
0.0
 40
1.0
100
AcDbArc
 50
179.9999899999988
 51
270.0
  0
LINE
  5
1585
330
18
100
AcDbEntity
  8
1
  6
Continuous
100
AcDbLine
 10
76.12427295767566
 20
250.3312548475158
 30
0.0
 11
76.12427295767566
 21
248.4810808475158
 31
0.0
  0
LINE
  5
1586
330
18
100
AcDbEntity
  8
1
  6
Continuous
100
AcDbLine
 10
86.92427595767572
 20
247.5037098475159
 30
0.0
 11
86.92427595767572
 21
240.7321378475159
 31
0.0
  0
LINE
  5
1587
330
18
100
AcDbEntity
  8
1
  6
Continuous
100
AcDbLine
 10
88.62427295767565
 20
250.3312548475158
 30
0.0
 11
88.62427295767565
 21
249.4810808475159
 31
0.0
  0
ARC
  5
1588
330
18
100
AcDbEntity
  8
1
  6
Continuous
100
AcDbCircle
 10
80.62427295767566
 20
269.2824528475159
 30
0.0
 40
3.752229499999998
100
AcDbArc
 50
64.96279700000065
 51
90.00000299999769
  0
ARC
  5
1589
330
18
100
AcDbEntity
  8
1
  6
Continuous
100
AcDbCircle
 10
80.62427295767566
 20
271.2652488475159
 30
0.0
 40
3.752229499999998
100
AcDbArc
 50
64.96279700000065
 51
90.00000299999769
  0
LINE
  5
158A
330
18
100
AcDbEntity
  8
5
  6
PHANTOM
100
AcDbLine
 10
189.884536837238
 20
232.4191068475158
 30
0.0
 11
198.870305837238
 21
222.3440838475159
 31
0.0
  0
LINE
  5
158B
330
18
100
AcDbEntity
  8
5
  6
PHANTOM
100
AcDbLine
 10
189.937795837238
 20
232.3593958475159
 30
0.0
 11
203.6510368372382
 21
244.5900438475159
 31
0.0
  0
LINE
  5
158C
330
18
100
AcDbEntity
  8
1
  6
Continuous
100
AcDbLine
 10
190.0837368372383
 20
250.3312588475159
 30
0.0
 11
217.449945537238
 21
240.2146588475159
 31
0.0
  0
LINE
  5
158D
330
18
100
AcDbEntity
  8
1
  6
Continuous
100
AcDbLine
 10
188.1765618372383
 20
263.9495808475158
 30
0.0
 11
206.4916568372381
 21
262.4666518475158
 31
0.0
  0
ARC
  5
158E
330
18
100
AcDbEntity
  8
1
  6
Continuous
100
AcDbCircle
 10
93.97743795767565
 20
237.5732018475158
 30
0.0
 40
2.5
100
AcDbArc
 50
7.8651532000004
 51
90.00000299999769
  0
LINE
  5
158F
330
18
100
AcDbEntity
  8
1
  6
Continuous
100
AcDbLine
 10
89.42427595767572
 20
250.3312548475158
 30
0.0
 11
89.42427595767572
 21
239.1116008475159
 31
0.0
  0
LINE
  5
1590
330
18
100
AcDbEntity
  8
1
  6
Continuous
100
AcDbLine
 10
92.92427595767572
 20
250.3312548475158
 30
0.0
 11
92.92427595767572
 21
219.0732018475158
 31
0.0
  0
LINE
  5
1591
330
18
100
AcDbEntity
  8
1
  6
Continuous
100
AcDbLine
 10
90.62427295767564
 20
250.3312548475158
 30
0.0
 11
90.62427295767564
 21
219.0732018475158
 31
0.0
  0
ARC
  5
1593
330
18
100
AcDbEntity
  8
1
  6
Continuous
100
AcDbCircle
 10
46.92427295767561
 20
231.0732018475158
 30
0.0
 40
50.0
100
AcDbArc
 50
352.134849999999
 51
7.8651532000004
  0
ARC
  5
1594
330
18
100
AcDbEntity
  8
1
  6
Continuous
100
AcDbCircle
 10
93.97743795767565
 20
224.5732018475159
 30
0.0
 40
2.5
100
AcDbArc
 50
270.0
 51
352.134849999999
  0
ARC
  5
1595
330
18
100
AcDbEntity
  8
1
  6
Continuous
100
AcDbCircle
 10
90.62427295767564
 20
219.0732018475158
 30
0.0
 40
2.299999999999998
100
AcDbArc
 50
270.0
 51
0.0
  0
LINE
  5
1596
330
18
100
AcDbEntity
  8
1
  6
Continuous
100
AcDbLine
 10
92.92427595767572
 20
222.0732018475158
 30
0.0
 11
93.97743795767565
 21
222.0732018475158
 31
0.0
  0
LINE
  5
1597
330
18
100
AcDbEntity
  8
1
  6
Continuous
100
AcDbLine
 10
89.42427595767572
 20
239.1116008475159
 30
0.0
 11
90.62427295767564
 21
239.1116008475159
 31
0.0
  0
ARC
  5
1598
330
18
100
AcDbEntity
  8
1
  6
Continuous
100
AcDbCircle
 10
97.22427895767557
 20
261.6890888475158
 30
0.0
 40
1.0
100
AcDbArc
 50
0.0
 51
90.00000299999769
  0
LINE
  5
1599
330
18
100
AcDbEntity
  8
1
  6
Continuous
100
AcDbLine
 10
100.2242789576754
 20
268.7225378475159
 30
0.0
 11
100.2242789576754
 21
259.9765718475159
 31
0.0
  0
LINE
  5
159A
330
18
100
AcDbEntity
  8
1
  6
Continuous
100
AcDbLine
 10
98.22427895767557
 20
271.3495538475158
 30
0.0
 11
98.22427895767557
 21
250.0517178475158
 31
0.0
  0
LINE
  5
159B
330
18
100
AcDbEntity
  8
1
  6
Continuous
100
AcDbLine
 10
96.22427895767557
 20
263.9495788475159
 30
0.0
 11
96.22427895767557
 21
239.8424168475159
 31
0.0
  0
ARC
  5
159C
330
18
100
AcDbEntity
  8
1
  6
Continuous
100
AcDbCircle
 10
93.22427895767557
 20
247.5733658475159
 30
0.0
 40
3.0
100
AcDbArc
 50
0.0
 51
90.00000299999769
  0
ARC
  5
159D
330
18
100
AcDbEntity
  8
1
  6
Continuous
100
AcDbCircle
 10
92.04302795767558
 20
245.8424198475158
 30
0.0
 40
5.78125
100
AcDbArc
 50
325.79454
 51
34.20545800000007
  0
LINE
  5
159E
330
18
100
AcDbEntity
  8
1
  6
Continuous
100
AcDbLine
 10
96.22427895767557
 20
250.0517178475158
 30
0.0
 11
98.22427895767557
 21
250.0517178475158
 31
0.0
  0
LINE
  5
159F
330
18
100
AcDbEntity
  8
1
  6
Continuous
100
AcDbLine
 10
89.12427295767564
 20
249.3424198475159
 30
0.0
 11
89.42427595767572
 21
249.3424198475159
 31
0.0
  0
LINE
  5
15A0
330
18
100
AcDbEntity
  8
1
  6
Continuous
100
AcDbLine
 10
89.12427295767564
 20
242.3424198475158
 30
0.0
 11
89.42427595767572
 21
242.3424198475158
 31
0.0
  0
LINE
  5
15A1
330
18
100
AcDbEntity
  8
1
  6
Continuous
100
AcDbLine
 10
89.12427295767564
 20
250.3312548475158
 30
0.0
 11
89.12427295767564
 21
240.7321378475159
 31
0.0
  0
LINE
  5
15A2
330
18
100
AcDbEntity
  8
1
  6
Continuous
100
AcDbLine
 10
92.92427595767572
 20
240.0732018475158
 30
0.0
 11
93.97743795767565
 21
240.0732018475158
 31
0.0
  0
LINE
  5
15A3
330
18
100
AcDbEntity
  8
1
  6
Continuous
100
AcDbLine
 10
95.02656295767565
 20
239.8424168475159
 30
0.0
 11
96.22427895767557
 21
239.8424168475159
 31
0.0
  0
LINE
  5
15A4
330
18
100
AcDbEntity
  8
1
  6
Continuous
100
AcDbLine
 10
96.22427895767557
 20
248.507912847516
 30
0.0
 11
96.82427795767559
 21
249.0924198475159
 31
0.0
  0
LINE
  5
15A5
330
18
100
AcDbEntity
  8
1
  6
Continuous
100
AcDbLine
 10
96.82427795767559
 20
242.5924198475158
 30
0.0
 11
96.22427895767557
 21
243.5078868475159
 31
0.0
  0
LINE
  5
15A6
330
18
100
AcDbEntity
  8
1
  6
Continuous
100
AcDbLine
 10
96.82427795767559
 20
249.0924198475159
 30
0.0
 11
96.82427795767559
 21
242.5924198475158
 31
0.0
  0
LINE
  5
15A7
330
18
100
AcDbEntity
  8
1
  6
Continuous
100
AcDbLine
 10
93.22427895767557
 20
250.3312548475158
 30
0.0
 11
93.22427895767557
 21
240.0732018475158
 31
0.0
  0
ARC
  5
15A8
330
18
100
AcDbEntity
  8
1
  6
Continuous
100
AcDbCircle
 10
99.22427895767556
 20
263.8495538475158
 30
0.0
 40
4.0
100
AcDbArc
 50
255.5224899999974
 51
284.4775100000024
  0
ARC
  5
15A9
330
18
100
AcDbEntity
  8
1
  6
Continuous
100
AcDbCircle
 10
94.04302795767558
 20
258.2990208475159
 30
0.0
 40
5.78125
100
AcDbArc
 50
325.79454
 51
15.74640299999978
  0
LINE
  5
15AA
330
18
100
AcDbEntity
  8
1
  6
Continuous
100
AcDbLine
 10
98.82427795767558
 20
255.0490208475159
 30
0.0
 11
98.22427895767557
 21
255.9644868475158
 31
0.0
  0
LINE
  5
15AB
330
18
100
AcDbEntity
  8
1
  6
Continuous
100
AcDbLine
 10
98.82427795767558
 20
259.8696038475159
 30
0.0
 11
98.82427795767558
 21
255.0490208475159
 31
0.0
  0
LINE
  5
15AC
330
18
100
AcDbEntity
  8
1
  6
Continuous
100
AcDbLine
 10
96.12426495767572
 20
274.1010648475159
 30
0.0
 11
96.14327795767577
 21
273.3495538475158
 31
0.0
  0
ARC
  5
15AD
330
18
100
AcDbEntity
  8
1
  6
Continuous
100
AcDbCircle
 10
96.22427895767557
 20
271.3495538475158
 30
0.0
 40
2.0
100
AcDbArc
 50
0.0
 51
90.00000299999769
  0
LINE
  5
15AE
330
18
100
AcDbEntity
  8
1
  6
Continuous
100
AcDbLine
 10
96.22427895767557
 20
262.6890888475159
 30
0.0
 11
97.22427895767557
 21
262.6890888475159
 31
0.0
  0
ARC
  5
15AF
330
18
100
AcDbEntity
  8
1
  6
Continuous
100
AcDbCircle
 10
93.12427295767564
 20
265.9495788475159
 30
0.0
 40
2.0
100
AcDbArc
 50
179.9999899999988
 51
270.0
  0
ARC
  5
15B0
330
18
100
AcDbEntity
  8
1
  6
Continuous
100
AcDbCircle
 10
87.37204495767556
 20
266.1305808475158
 30
0.0
 40
3.752229499999998
100
AcDbArc
 50
0.0
 51
64.96279700000065
  0
ARC
  5
15B1
330
18
100
AcDbEntity
  8
1
  6
Continuous
100
AcDbCircle
 10
87.37204495767556
 20
268.1133758475159
 30
0.0
 40
3.752229499999998
100
AcDbArc
 50
0.0
 51
64.96279700000065
  0
LINE
  5
15B2
330
18
100
AcDbEntity
  8
1
  6
Continuous
100
AcDbLine
 10
93.12427295767564
 20
263.9495788475159
 30
0.0
 11
96.22427895767557
 21
263.9495788475159
 31
0.0
  0
LINE
  5
15B3
330
18
100
AcDbEntity
  8
1
  6
Continuous
100
AcDbLine
 10
93.12427295767564
 20
273.3495538475158
 30
0.0
 11
96.22427895767557
 21
273.3495538475158
 31
0.0
  0
LINE
  5
15B4
330
18
100
AcDbEntity
  8
1
  6
Continuous
100
AcDbLine
 10
91.12427295767565
 20
268.1133758475159
 30
0.0
 11
91.12427295767565
 21
265.9495788475159
 31
0.0
  0
LINE
  5
15B5
330
18
100
AcDbEntity
  8
1
  6
Continuous
100
AcDbLine
 10
93.12427295767564
 20
273.3495538475158
 30
0.0
 11
93.12427295767564
 21
263.9495788475159
 31
0.0
  0
LINE
  5
15B6
330
18
100
AcDbEntity
  8
1
  6
Continuous
100
AcDbLine
 10
92.92427595767572
 20
273.5732018475159
 30
0.0
 11
92.92427595767572
 21
263.9495788475159
 31
0.0
  0
ARC
  5
15B7
330
18
100
AcDbEntity
  8
1
  6
Continuous
100
AcDbCircle
 10
99.22427895767556
 20
264.8495538475158
 30
0.0
 40
4.0
100
AcDbArc
 50
75.52248800000183
 51
104.4775100000024
  0
ARC
  5
15B8
330
18
100
AcDbEntity
  8
1
  6
Continuous
100
AcDbCircle
 10
88.12427295767564
 20
279.5732018475159
 30
0.0
 40
6.0
100
AcDbArc
 50
0.0
 51
34.51812000000097
  0
ARC
  5
15B9
330
18
100
AcDbEntity
  8
1
  6
Continuous
100
AcDbCircle
 10
95.12427295767563
 20
278.5732018475159
 30
0.0
 40
1.0
100
AcDbArc
 50
179.9999799999995
 51
228.1895899999978
  0
ARC
  5
15BA
330
18
100
AcDbEntity
  8
1
  6
Continuous
100
AcDbCircle
 10
91.12427295767565
 20
274.1010658475159
 30
0.0
 40
5.0
100
AcDbArc
 50
0.0
 51
48.18969600000014
  0
LINE
  5
15BB
330
18
100
AcDbEntity
  8
1
  6
Continuous
100
AcDbLine
 10
94.12427295767564
 20
279.5732018475159
 30
0.0
 11
94.12427295767564
 21
278.5732018475159
 31
0.0
  0
LINE
  5
15BD
330
18
100
AcDbEntity
  8
5
  6
PHANTOM
100
AcDbLine
 10
178.012822837238
 20
235.8922018475158
 30
0.0
 11
190.0033988372383
 21
235.4167538475159
 31
0.0
  0
LINE
  5
15BE
330
18
100
AcDbEntity
  8
5
  6
PHANTOM
100
AcDbLine
 10
177.893960837238
 20
232.8945558475159
 30
0.0
 11
189.884536837238
 21
232.4191068475158
 31
0.0
  0
LINE
  5
15BF
330
18
100
AcDbEntity
  8
5
  6
PHANTOM
100
AcDbLine
 10
178.012822837238
 20
235.8922018475159
 30
0.0
 11
177.893960837238
 21
232.8945558475159
 31
0.0
  0
ARC
  5
15C0
330
18
100
AcDbEntity
  8
5
  6
PHANTOM
100
AcDbCircle
 10
189.8845388372383
 20
232.4191108475158
 30
0.0
 40
3.0
100
AcDbArc
 50
40.20100100000084
 51
87.72930600000192
  0
LINE
  5
15C1
330
18
100
AcDbEntity
  8
1
  6
Continuous
100
AcDbLine
 10
188.183015837238
 20
264.0293348475158
 30
0.0
 11
187.093515837238
 21
250.5733658475159
 31
0.0
  0
LINE
  5
15C2
330
18
100
AcDbEntity
  8
1
  6
Continuous
100
AcDbLine
 10
190.083730837238
 20
250.331254847516
 30
0.0
 11
187.093515837238
 21
250.5733658475159
 31
0.0
  0
LINE
  5
15C3
330
18
100
AcDbEntity
  8
1
  6
Continuous
100
AcDbLine
 10
182.5031718372381
 20
275.0174788475159
 30
0.0
 11
180.2518328372381
 21
273.0346828475159
 31
0.0
  0
LINE
  5
15C4
330
18
100
AcDbEntity
  8
1
  6
Continuous
100
AcDbLine
 10
182.5031718372381
 20
275.0174788475159
 30
0.0
 11
190.4343548372382
 21
266.0121288475161
 31
0.0
  0
LINE
  5
15C5
330
18
100
AcDbEntity
  8
1
  6
Continuous
100
AcDbLine
 10
189.1124891676117
 20
267.513018545374
 30
0.0
 11
186.8611501676118
 21
265.5302225453739
 31
0.0
  0
LINE
  5
15C6
330
18
100
AcDbEntity
  8
1
  6
Continuous
100
AcDbLine
 10
180.2518328372381
 20
273.0346828475159
 30
0.0
 11
188.1830178372383
 21
264.0293328475158
 31
0.0
  0
ARC
  5
15C7
330
18
100
AcDbEntity
  8
1
  6
Continuous
100
AcDbCircle
 10
188.183019837238
 20
264.0293328475158
 30
0.0
 40
3.0
100
AcDbArc
 50
353.8426799999998
 51
41.37098200000028
  0
LINE
  5
15CA
330
18
100
AcDbEntity
  8
4
  6
CENTER
100
AcDbLine
 10
241.0420168372382
 20
272.1112518475158
 30
0.0
 11
241.0420168372382
 21
189.7973948475158
 31
0.0
  0
ARC
  5
15CC
330
18
100
AcDbEntity
  8
1
  6
Continuous
100
AcDbCircle
 10
208.7681908372382
 20
311.8655258475158
 30
0.0
 40
99.0
100
AcDbArc
 50
295.8466920768282
 51
334.3898409974048
  0
ARC
  5
15CD
330
18
100
AcDbEntity
  8
1
  6
Continuous
100
AcDbCircle
 10
241.0420168372382
 20
231.0732018475158
 30
0.0
 40
37.5
100
AcDbArc
 50
160.4266800000006
 51
14.50468200000018
  0
LINE
  5
15CE
330
18
100
AcDbEntity
  8
1
  6
Continuous
100
AcDbLine
 10
235.0983368372379
 20
282.9732018475159
 30
0.0
 11
292.9857008372382
 21
282.9732018475159
 31
0.0
  0
LINE
  5
15CF
330
18
100
AcDbEntity
  8
1
  6
Continuous
100
AcDbLine
 10
231.0420168372381
 20
277.5732018475159
 30
0.0
 11
294.7411178372381
 21
277.5732018475159
 31
0.0
  0
LINE
  5
15D0
330
18
100
AcDbEntity
  8
4
  6
CENTER
100
AcDbLine
 10
199.7662098372382
 20
231.0732018475158
 30
0.0
 11
282.3178238372381
 21
231.0732018475158
 31
0.0
  0
ARC
  5
15D1
330
18
100
AcDbEntity
  8
5
  6
PHANTOM
100
AcDbCircle
 10
224.6801300372379
 20
242.5526328475159
 30
0.0
 40
6.0
100
AcDbArc
 50
295.9716100000017
 51
2.956479200000087
  0
ARC
  5
15D2
330
18
100
AcDbEntity
  8
1
  6
Continuous
100
AcDbCircle
 10
225.3015194372383
 20
242.1562588475159
 30
0.0
 40
4.449999299999999
100
AcDbArc
 50
237.3879100000011
 51
55.98559200000082
  0
CIRCLE
  5
15D3
330
18
100
AcDbEntity
  8
1
  6
Continuous
100
AcDbCircle
 10
241.0420168372382
 20
231.0732018475158
 30
0.0
 40
9.0
  0
LINE
  5
15D4
330
18
100
AcDbEntity
  8
1
  6
Continuous
100
AcDbLine
 10
242.4892098372381
 20
268.8782858475158
 30
0.0
 11
252.4043328372381
 21
220.4457378475159
 31
0.0
  0
LINE
  5
15D5
330
18
100
AcDbEntity
  8
1
  6
Continuous
100
AcDbLine
 10
222.906682037238
 20
238.4056298475158
 30
0.0
 11
220.5280901372382
 21
239.9259508475158
 31
0.0
  0
LINE
  5
15D6
330
18
100
AcDbEntity
  8
1
  6
Continuous
100
AcDbLine
 10
253.1168768372383
 20
226.6027348475158
 30
0.0
 11
243.813640837238
 21
274.4637558475159
 31
0.0
  0
LINE
  5
15D7
330
18
100
AcDbEntity
  8
1
  6
Continuous
100
AcDbLine
 10
202.2953188372381
 20
245.8169418475158
 30
0.0
 11
226.382698537238
 21
230.4293078475159
 31
0.0
  0
ARC
  5
15DB
330
18
100
AcDbEntity
  8
1
  6
Continuous
100
AcDbCircle
 10
220.9991856372381
 20
222.0020958475158
 30
0.0
 40
10.0
100
AcDbArc
 50
24.35084499999993
 51
57.42851699999897
  0
LINE
  5
15DC
330
18
100
AcDbEntity
  8
5
  6
PHANTOM
100
AcDbLine
 10
201.109199837238
 20
224.3409248475159
 30
0.0
 11
227.3169603372382
 21
237.1631028475159
 31
0.0
  0
LINE
  5
15DD
330
18
100
AcDbEntity
  8
5
  6
PHANTOM
100
AcDbLine
 10
201.1091978372383
 20
224.3409248475159
 30
0.0
 11
198.870305837238
 21
222.3440838475159
 31
0.0
  0
ARC
  5
15DE
330
18
100
AcDbEntity
  8
1
  6
Continuous
100
AcDbCircle
 10
241.0420168372382
 20
231.0732018475158
 30
0.0
 40
14.3
100
AcDbArc
 50
270.0
 51
291.7750500000003
  0
ARC
  5
15DF
330
18
100
AcDbEntity
  8
1
  6
Continuous
100
AcDbCircle
 10
241.0420168372382
 20
231.0732018475158
 30
0.0
 40
12.0
100
AcDbArc
 50
204.3508499999997
 51
267.8570900000023
  0
LINE
  5
15E0
330
18
100
AcDbEntity
  8
1
  6
Continuous
100
AcDbLine
 10
241.042022837238
 20
216.7731988475159
 30
0.0
 11
240.594947837238
 21
219.0731938475158
 31
0.0
  0
ARC
  5
15E1
330
18
100
AcDbEntity
  8
1
  6
Continuous
100
AcDbCircle
 10
208.768197837238
 20
311.8655298475159
 30
0.0
 40
101.2999999999999
100
AcDbArc
 50
291.7750500000003
 51
295.5158899999982
  0
CIRCLE
  5
15E2
330
18
100
AcDbEntity
  8
5
  6
PHANTOM
100
AcDbCircle
 10
224.6801271372381
 20
242.5526328475159
 30
0.0
 40
3.25
  0
ARC
  5
15E3
330
18
100
AcDbEntity
  8
5
  6
PHANTOM
100
AcDbCircle
 10
217.9655144372381
 20
253.7218648475159
 30
0.0
 40
15.29795
100
AcDbArc
 50
349.8893699999994
 51
56.28871599999833
  0
ARC
  5
15E4
330
18
100
AcDbEntity
  8
1
  6
Continuous
100
AcDbCircle
 10
223.0936794372381
 20
258.0517178475158
 30
0.0
 40
15.29795
100
AcDbArc
 50
23.60132100000024
 51
90.00066500000178
  0
ARC
  5
15E5
330
18
100
AcDbEntity
  8
1
  6
Continuous
100
AcDbCircle
 10
223.0936794372381
 20
258.0517178475158
 30
0.0
 40
8.0
100
AcDbArc
 50
232.0743299999989
 51
330.5856399999997
  0
ARC
  5
15E6
330
18
100
AcDbEntity
  8
1
  6
Continuous
100
AcDbCircle
 10
231.0420168372381
 20
272.5732018475159
 30
0.0
 40
5.0
100
AcDbArc
 50
89.99998200000083
 51
168.4630399999996
  0
LINE
  5
15E7
330
18
100
AcDbEntity
  8
5
  6
PHANTOM
100
AcDbLine
 10
231.0569558372379
 20
251.3874188475159
 30
0.0
 11
221.5817168372381
 21
246.5858248475158
 31
0.0
  0
LINE
  5
15E8
330
18
100
AcDbEntity
  8
1
  6
Continuous
100
AcDbLine
 10
203.1284958372382
 20
273.5732018475159
 30
0.0
 11
236.495351837238
 21
273.5732018475159
 31
0.0
  0
LINE
  5
15E9
330
18
100
AcDbEntity
  8
1
  6
Continuous
100
AcDbLine
 10
229.645806837238
 20
247.8062798475158
 30
0.0
 11
223.8896971372382
 21
241.7197588475159
 31
0.0
  0
ARC
  5
15EA
330
18
100
AcDbEntity
  8
5
  6
PHANTOM
100
AcDbCircle
 10
213.3842526372382
 20
264.3495578475158
 30
0.0
 40
7.0
100
AcDbArc
 50
165.500169999999
 51
198.3623799999991
  0
CIRCLE
  5
15EB
330
18
100
AcDbEntity
  8
1
  6
Continuous
100
AcDbCircle
 10
213.3842506372382
 20
264.3495538475158
 30
0.0
 40
4.5
  0
ARC
  5
15EC
330
18
100
AcDbEntity
  8
1
  6
Continuous
100
AcDbCircle
 10
205.8297958372381
 20
261.7170258475159
 30
0.0
 40
1.0
100
AcDbArc
 50
19.21212000000029
 51
91.25023400000099
  0
ARC
  5
15ED
330
18
100
AcDbEntity
  8
5
  6
PHANTOM
100
AcDbCircle
 10
217.9655144372381
 20
253.7218648475159
 30
0.0
 40
8.0
100
AcDbArc
 50
198.3623799999991
 51
296.8736999999972
  0
LINE
  5
15EE
330
18
100
AcDbEntity
  8
1
  6
Continuous
100
AcDbLine
 10
209.081782337238
 20
258.8278938475159
 30
0.0
 11
218.176575227238
 21
251.7412468475158
 31
0.0
  0
ARC
  5
15EF
330
18
100
AcDbEntity
  8
5
  6
PHANTOM
100
AcDbCircle
 10
206.8975808372381
 20
251.5054298475158
 30
0.0
 40
3.0
100
AcDbArc
 50
311.7293200000016
 51
11.64310999999963
  0
LINE
  5
15F0
330
18
100
AcDbEntity
  8
5
  6
PHANTOM
100
AcDbLine
 10
203.7664048372382
 20
244.692937847516
 30
0.0
 11
208.8944178372381
 21
249.2665378475158
 31
0.0
  0
ARC
  5
15F1
330
18
100
AcDbEntity
  8
5
  6
PHANTOM
100
AcDbCircle
 10
218.2325169872383
 20
253.8410548475159
 30
0.0
 40
8.5730658
100
AcDbArc
 50
183.6229999999995
 51
191.6431000000016
  0
ARC
  5
15F2
330
18
100
AcDbEntity
  8
1
  6
Continuous
100
AcDbCircle
 10
213.3842506372382
 20
264.3495578475158
 30
0.0
 40
7.0
100
AcDbArc
 50
199.2121200000001
 51
232.0743299999989
  0
LINE
  5
15F3
330
18
100
AcDbEntity
  8
5
  6
PHANTOM
100
AcDbLine
 10
206.7406738372383
 20
262.1443728475159
 30
0.0
 11
210.3728533372382
 21
251.2016538475159
 31
0.0
  0
CIRCLE
  5
15F4
330
18
100
AcDbEntity
  8
5
  6
PHANTOM
100
AcDbCircle
 10
218.2325437472381
 20
253.8409938475158
 30
0.0
 40
3.25
  0
CIRCLE
  5
15F5
330
18
100
AcDbEntity
  8
1
  6
Continuous
100
AcDbCircle
 10
219.530387917238
 20
245.8424198475158
 30
0.0
 40
3.25
  0
ARC
  5
15F6
330
18
100
AcDbEntity
  8
1
  6
Continuous
100
AcDbCircle
 10
219.530387917238
 20
245.8424168475159
 30
0.0
 40
6.0
100
AcDbArc
 50
249.6132899999981
 51
316.5981500000002
  0
CIRCLE
  5
15F7
330
18
100
AcDbEntity
  8
1
  6
Continuous
100
AcDbCircle
 10
223.2496853372381
 20
258.2990208475159
 30
0.0
 40
3.25
  0
ARC
  5
15F8
330
18
100
AcDbEntity
  8
1
  6
Continuous
100
AcDbCircle
 10
213.3842506372382
 20
264.3495538475158
 30
0.0
 40
9.0
100
AcDbArc
 50
90.00066500000178
 51
190.6317699999999
  0
LINE
  5
15F9
330
18
100
AcDbEntity
  8
1
  6
Continuous
100
AcDbLine
 10
203.1284958372382
 20
271.2732028475159
 30
0.0
 11
207.6341988372381
 21
271.2732028475159
 31
0.0
  0
ARC
  5
15FA
330
18
100
AcDbEntity
  8
1
  6
Continuous
100
AcDbCircle
 10
203.1284958372382
 20
271.2732028475159
 30
0.0
 40
2.299999999999998
100
AcDbArc
 50
90.00000299999769
 51
153.0000100000006
  0
LINE
  5
15FB
330
18
100
AcDbEntity
  8
1
  6
Continuous
100
AcDbLine
 10
201.079181837238
 20
272.3173808475156
 30
0.0
 11
196.500901837238
 21
263.3320038475157
 31
0.0
  0
ARC
  5
15FC
330
18
100
AcDbEntity
  8
5
  6
PHANTOM
100
AcDbCircle
 10
205.6390648372381
 20
266.3525728475158
 30
0.0
 40
1.0
100
AcDbArc
 50
345.5001699999992
 51
57.53828500000141
  0
LINE
  5
15FD
330
18
100
AcDbEntity
  8
5
  6
PHANTOM
100
AcDbLine
 10
205.1046378372381
 20
267.8777238475158
 30
0.0
 11
206.175801837238
 21
267.1963228475158
 31
0.0
  0
LINE
  5
15FE
330
18
100
AcDbEntity
  8
1
  6
Continuous
100
AcDbLine
 10
204.5387528372382
 20
262.6890888475159
 30
0.0
 11
205.807977837238
 21
262.7167868475158
 31
0.0
  0
LINE
  5
15FF
330
18
100
AcDbEntity
  8
5
  6
PHANTOM
100
AcDbLine
 10
226.4560027372381
 20
266.4473858475158
 30
0.0
 11
218.3793238172381
 21
271.8361588475159
 31
0.0
  0
LINE
  5
1600
330
18
100
AcDbEntity
  8
1
  6
Continuous
100
AcDbLine
 10
223.0935025372382
 20
273.3496678475158
 30
0.0
 11
213.3841443372381
 21
273.3495538475158
 31
0.0
  0
ARC
  5
1601
330
18
100
AcDbEntity
  8
5
  6
PHANTOM
100
AcDbCircle
 10
213.3842506372382
 20
264.3495538475158
 30
0.0
 40
9.0
100
AcDbArc
 50
56.28871900000183
 51
90.00066500000178
  0
ARC
  5
1602
330
18
100
AcDbEntity
  8
1
  6
Continuous
100
AcDbCircle
 10
223.2375278372383
 20
258.3026368475159
 30
0.0
 40
12.297948
100
AcDbArc
 50
301.4050599999986
 51
20.01792999999892
  0
LINE
  5
1603
330
18
100
AcDbEntity
  8
1
  6
Continuous
100
AcDbLine
 10
235.2793008372382
 20
263.3758198475159
 30
0.0
 11
230.0624048372383
 21
254.1227398475159
 31
0.0
  0
LINE
  5
1604
330
18
100
AcDbEntity
  8
5
  6
PHANTOM
100
AcDbLine
 10
230.2528788372379
 20
250.9799518475158
 30
0.0
 11
230.6721348372382
 21
242.8620968475158
 31
0.0
  0
LINE
  5
1605
330
18
100
AcDbEntity
  8
5
  6
PHANTOM
100
AcDbLine
 10
231.0569578372379
 20
251.3874188475158
 30
0.0
 11
233.025903837238
 21
251.0363178475158
 31
0.0
  0
LINE
  5
1606
330
18
100
AcDbEntity
  8
1
  6
Continuous
100
AcDbLine
 10
235.2793068372382
 20
263.3758198475159
 30
0.0
 11
237.1120148372383
 21
264.1765608475159
 31
0.0
  0
LINE
  5
1607
330
18
100
AcDbEntity
  8
1
  6
Continuous
100
AcDbLine
 10
230.7891068372382
 20
271.2732028475159
 30
0.0
 11
239.550862837238
 21
271.2732028475159
 31
0.0
  0
ARC
  5
1608
330
18
100
AcDbEntity
  8
1
  6
Continuous
100
AcDbCircle
 10
239.550862837238
 20
268.2732028475159
 30
0.0
 40
3.0
100
AcDbArc
 50
11.50342900000067
 51
90.00000299999769
  0
LINE
  5
1609
330
18
100
AcDbEntity
  8
1
  6
Continuous
100
AcDbLine
 10
236.495351837238
 20
273.5732018475159
 30
0.0
 11
236.495351837238
 21
271.2732028475159
 31
0.0
  0
ARC
  5
160A
330
18
100
AcDbEntity
  8
1
  6
Continuous
100
AcDbCircle
 10
240.042016837238
 20
279.5732018475159
 30
0.0
 40
6.0
100
AcDbArc
 50
145.4819099999985
 51
179.9999599999992
  0
ARC
  5
160B
330
18
100
AcDbEntity
  8
1
  6
Continuous
100
AcDbCircle
 10
233.0420168372381
 20
278.5732018475159
 30
0.0
 40
1.0
100
AcDbArc
 50
270.0000200000018
 51
0.0
  0
LINE
  5
160C
330
18
100
AcDbEntity
  8
1
  6
Continuous
100
AcDbLine
 10
234.042016837238
 20
279.5732018475159
 30
0.0
 11
234.042016837238
 21
278.5732018475159
 31
0.0
  0
ARC
  5
160D
330
18
100
AcDbEntity
  8
1
  6
Continuous
100
AcDbCircle
 10
288.0420208372381
 20
279.5732018475159
 30
0.0
 40
6.0
100
AcDbArc
 50
0.0
 51
34.51812000000097
  0
LINE
  5
160E
330
18
100
AcDbEntity
  8
1
  6
Continuous
100
AcDbLine
 10
298.0420358372384
 20
269.0732018475159
 30
0.0
 11
296.7043898372385
 21
275.9548198475158
 31
0.0
  0
ARC
  5
160F
330
18
100
AcDbEntity
  8
1
  6
Continuous
100
AcDbCircle
 10
295.0420208372383
 20
278.5732018475159
 30
0.0
 40
1.0
100
AcDbArc
 50
179.9999799999995
 51
270.0000299999965
  0
ARC
  5
1610
330
18
100
AcDbEntity
  8
1
  6
Continuous
100
AcDbCircle
 10
294.7411178372381
 20
275.5732018475159
 30
0.0
 40
2.0
100
AcDbArc
 50
10.99994800000075
 51
89.99998200000083
  0
LINE
  5
1611
330
18
100
AcDbEntity
  8
1
  6
Continuous
100
AcDbLine
 10
294.0420208372383
 20
279.5732018475159
 30
0.0
 11
294.0420208372383
 21
278.5732018475159
 31
0.0
  0
LINE
  5
1612
330
18
100
AcDbEntity
  8
1
  6
Continuous
100
AcDbLine
 10
23.12427295767566
 20
293.5732018475158
 30
0.0
 11
105.1242729576755
 21
293.5732018475158
 31
0.0
  0
LINE
  5
1613
330
18
100
AcDbEntity
  8
1
  6
Continuous
100
AcDbLine
 10
23.12427295767566
 20
290.3732018475158
 30
0.0
 11
105.1242729576755
 21
290.3732018475158
 31
0.0
  0
LINE
  5
1614
330
18
100
AcDbEntity
  8
1
  6
Continuous
100
AcDbLine
 10
33.97815295767554
 20
286.573201847516
 30
0.0
 11
94.27040595767564
 21
286.573201847516
 31
0.0
  0
ARC
  5
1616
330
18
100
AcDbEntity
  8
1
  6
Continuous
100
AcDbCircle
 10
33.97815295767554
 20
291.5732018475158
 30
0.0
 40
5.0
100
AcDbArc
 50
193.88652
 51
270.0000200000018
  0
LINE
  5
1617
330
18
100
AcDbEntity
  8
1
  6
Continuous
100
AcDbLine
 10
23.12427295767566
 20
293.5732018475158
 30
0.0
 11
23.12427295767566
 21
290.3732018475158
 31
0.0
  0
LINE
  5
1619
330
18
100
AcDbEntity
  8
4
  6
CENTER
100
AcDbLine
 10
32.62427295767565
 20
296.1319491475158
 30
0.0
 11
32.62427295767565
 21
288.0224663475159
 31
0.0
  0
LINE
  5
161C
330
18
100
AcDbEntity
  8
4
  6
CENTER
100
AcDbLine
 10
264.042020837238
 20
448.9113807204557
 30
0.0
 11
264.042020837238
 21
358.9113807204558
 31
0.0
  0
ARC
  5
161E
330
18
100
AcDbEntity
  8
1
  6
Continuous
100
AcDbCircle
 10
196.3830158372383
 20
429.5113707202902
 30
0.0
 40
3.2
100
AcDbArc
 50
90.0
 51
180.0
  0
ARC
  5
161F
330
18
100
AcDbEntity
  8
1
  6
Continuous
100
AcDbCircle
 10
196.383015837238
 20
378.3113777204222
 30
0.0
 40
3.2
100
AcDbArc
 50
180.0
 51
270.0
  0
LINE
  5
1620
330
18
100
AcDbEntity
  8
1
  6
Continuous
100
AcDbLine
 10
191.1830158372383
 20
374.8113747204556
 30
0.0
 11
204.3842506372381
 21
374.8113747204556
 31
0.0
  0
LINE
  5
1621
330
18
100
AcDbEntity
  8
1
  6
Continuous
100
AcDbLine
 10
191.1830158372383
 20
433.0113907204554
 30
0.0
 11
204.3842506372381
 21
433.0113907204554
 31
0.0
  0
LINE
  5
1622
330
18
100
AcDbEntity
  8
1
  6
Continuous
100
AcDbLine
 10
191.1830158372383
 20
436.0113907204556
 30
0.0
 11
204.818510024207
 21
436.0113907204556
 31
0.0
  0
LINE
  5
1623
330
18
100
AcDbEntity
  8
1
  6
Continuous
100
AcDbLine
 10
191.1830158372383
 20
371.8113747204556
 30
0.0
 11
204.8184994621906
 21
371.8113747204556
 31
0.0
  0
LINE
  5
1624
330
18
100
AcDbEntity
  8
4
  6
CENTER
100
AcDbLine
 10
174.2242964311269
 20
403.9113807204556
 30
0.0
 11
310.593831615774
 21
403.9113807204556
 31
0.0
  0
ARC
  5
1625
330
18
100
AcDbEntity
  8
1
  6
Continuous
100
AcDbCircle
 10
94.27040595767564
 20
291.5732018475158
 30
0.0
 40
5.0
100
AcDbArc
 50
270.0000200000018
 51
346.1134599999998
  0
LINE
  5
1628
330
18
100
AcDbEntity
  8
1
  6
Continuous
100
AcDbLine
 10
105.1242729576755
 20
293.5732018475158
 30
0.0
 11
105.1242729576755
 21
290.3732018475158
 31
0.0
  0
LINE
  5
162A
330
18
100
AcDbEntity
  8
1
  6
Continuous
100
AcDbLine
 10
193.1830158372383
 20
378.3113777204222
 30
0.0
 11
193.1830158372383
 21
429.5113707202902
 31
0.0
  0
LINE
  5
162B
330
18
100
AcDbEntity
  8
1
  6
Continuous
100
AcDbLine
 10
191.1830158372383
 20
374.8113747204556
 30
0.0
 11
191.1830158372383
 21
433.0113907204554
 31
0.0
  0
LINE
  5
162C
330
18
100
AcDbEntity
  8
1
  6
Continuous
100
AcDbLine
 10
182.5031718372383
 20
388.4939976281796
 30
0.0
 11
182.5031718372383
 21
419.3287638127321
 31
0.0
  0
LINE
  5
162D
330
18
100
AcDbEntity
  8
1
  6
Continuous
100
AcDbLine
 10
180.2518328372381
 20
388.4939976281796
 30
0.0
 11
180.2518328372381
 21
419.3287638127321
 31
0.0
  0
LINE
  5
162E
330
18
100
AcDbEntity
  8
1
  6
Continuous
100
AcDbLine
 10
180.8285533996479
 20
386.4951641730261
 30
0.0
 11
186.8611501676118
 21
376.9113807204572
 31
0.0
  0
LINE
  5
162F
330
18
100
AcDbEntity
  8
1
  6
Continuous
100
AcDbLine
 10
183.079892399648
 20
386.4951641730261
 30
0.0
 11
189.1124891676117
 21
376.9113807204572
 31
0.0
  0
LINE
  5
1630
330
18
100
AcDbEntity
  8
1
  6
Continuous
100
AcDbLine
 10
189.183015837238
 20
376.9113807204572
 30
0.0
 11
186.8611501676118
 21
376.9113807204572
 31
0.0
  0
ARC
  5
1631
330
18
100
AcDbEntity
  8
1
  6
Continuous
100
AcDbCircle
 10
187.1830158372383
 20
375.9113807204571
 30
0.0
 40
1.0
100
AcDbArc
 50
0.0
 51
90.0
  0
ARC
  5
1632
330
18
100
AcDbEntity
  8
1
  6
Continuous
100
AcDbCircle
 10
189.1830158372383
 20
374.9113807204571
 30
0.0
 40
2.0
100
AcDbArc
 50
0.0
 51
90.0
  0
ARC
  5
1633
330
18
100
AcDbEntity
  8
1
  6
Continuous
100
AcDbCircle
 10
191.1830158372383
 20
374.8113747204556
 30
0.0
 40
3.0
100
AcDbArc
 50
180.0
 51
270.0
  0
LINE
  5
1634
330
18
100
AcDbEntity
  8
1
  6
Continuous
100
AcDbLine
 10
188.1830158372383
 20
374.8113747204556
 30
0.0
 11
188.1830158372383
 21
375.9113807204571
 31
0.0
  0
ARC
  5
1635
330
18
100
AcDbEntity
  8
1
  6
Continuous
100
AcDbCircle
 10
184.0040328372382
 20
388.4939976281796
 30
0.0
 40
3.7522
100
AcDbArc
 50
180.0
 51
212.1887239690425
  0
ARC
  5
1636
330
18
100
AcDbEntity
  8
1
  6
Continuous
100
AcDbCircle
 10
186.2553718372381
 20
388.4939976281796
 30
0.0
 40
3.7522
100
AcDbArc
 50
180.0
 51
212.1887239690425
  0
LINE
  5
1637
330
18
100
AcDbEntity
  8
1
  6
Continuous
100
AcDbLine
 10
180.82931156572
 20
387.4113807204557
 30
0.0
 11
182.2478057379038
 21
387.4113807204557
 31
0.0
  0
LINE
  5
1638
330
18
100
AcDbEntity
  8
1
  6
Continuous
100
AcDbLine
 10
180.8285533996476
 20
421.3275972678854
 30
0.0
 11
186.8611501676118
 21
430.9113807204568
 31
0.0
  0
LINE
  5
1639
330
18
100
AcDbEntity
  8
1
  6
Continuous
100
AcDbLine
 10
183.079892399648
 20
421.3275972678856
 30
0.0
 11
189.1124891676117
 21
430.9113807204568
 31
0.0
  0
ARC
  5
163A
330
18
100
AcDbEntity
  8
1
  6
Continuous
100
AcDbCircle
 10
186.2553718372381
 20
419.3287638127321
 30
0.0
 40
3.7522
100
AcDbArc
 50
147.8112760309649
 51
180.0
  0
ARC
  5
163B
330
18
100
AcDbEntity
  8
1
  6
Continuous
100
AcDbCircle
 10
184.0040328372382
 20
419.3287638127321
 30
0.0
 40
3.7522
100
AcDbArc
 50
147.8112760309649
 51
180.0
  0
LINE
  5
163C
330
18
100
AcDbEntity
  8
1
  6
Continuous
100
AcDbLine
 10
180.82931156572
 20
420.411380720456
 30
0.0
 11
182.2478057379038
 21
420.411380720456
 31
0.0
  0
LINE
  5
163D
330
18
100
AcDbEntity
  8
1
  6
Continuous
100
AcDbLine
 10
189.1830158372383
 20
430.9113807204571
 30
0.0
 11
186.8611501676118
 21
430.9113807204571
 31
0.0
  0
ARC
  5
163E
330
18
100
AcDbEntity
  8
1
  6
Continuous
100
AcDbCircle
 10
187.1830158372383
 20
431.9113807204571
 30
0.0
 40
1.0
100
AcDbArc
 50
270.0
 51
0.0
  0
ARC
  5
163F
330
18
100
AcDbEntity
  8
1
  6
Continuous
100
AcDbCircle
 10
189.1830158372383
 20
432.9113807204571
 30
0.0
 40
2.0
100
AcDbArc
 50
270.0
 51
0.0
  0
ARC
  5
1640
330
18
100
AcDbEntity
  8
1
  6
Continuous
100
AcDbCircle
 10
191.1830158372383
 20
433.0113907204554
 30
0.0
 40
3.0
100
AcDbArc
 50
90.0
 51
180.0
  0
LINE
  5
1641
330
18
100
AcDbEntity
  8
1
  6
Continuous
100
AcDbLine
 10
188.1830158372383
 20
431.9113807204571
 30
0.0
 11
188.1830158372383
 21
433.0113907204554
 31
0.0
  0
LINE
  5
1644
330
18
100
AcDbEntity
  8
1
  6
Continuous
100
AcDbLine
 10
233.8958838372382
 20
286.573201847516
 30
0.0
 11
294.1881538372381
 21
286.573201847516
 31
0.0
  0
LINE
  5
1645
330
18
100
AcDbEntity
  8
1
  6
Continuous
100
AcDbLine
 10
223.042017037238
 20
293.5732018475158
 30
0.0
 11
305.0420208372384
 21
293.5732018475158
 31
0.0
  0
LINE
  5
1646
330
18
100
AcDbEntity
  8
1
  6
Continuous
100
AcDbLine
 10
223.042017037238
 20
290.3732018475158
 30
0.0
 11
305.0420208372384
 21
290.3732018475158
 31
0.0
  0
LINE
  5
1647
330
18
100
AcDbEntity
  8
1
  6
Continuous
100
AcDbLine
 10
223.042017037238
 20
293.5732018475158
 30
0.0
 11
223.042017037238
 21
290.3732018475158
 31
0.0
  0
ARC
  5
1648
330
18
100
AcDbEntity
  8
1
  6
Continuous
100
AcDbCircle
 10
233.8958838372382
 20
291.5732018475158
 30
0.0
 40
5.0
100
AcDbArc
 50
193.88652
 51
270.0000200000018
  0
ARC
  5
164D
330
18
100
AcDbEntity
  8
1
  6
Continuous
100
AcDbCircle
 10
294.1881538372381
 20
291.5732018475158
 30
0.0
 40
5.0
100
AcDbArc
 50
270.0000200000018
 51
346.1134599999998
  0
LINE
  5
1650
330
18
100
AcDbEntity
  8
1
  6
Continuous
100
AcDbLine
 10
305.0420208372384
 20
293.5732018475158
 30
0.0
 11
305.0420208372384
 21
290.3732018475158
 31
0.0
  0
CIRCLE
  5
1651
330
18
100
AcDbEntity
  8
1
  6
Continuous
100
AcDbCircle
 10
264.042020837238
 20
403.9113807204556
 30
0.0
 40
31.5
  0
CIRCLE
  5
1652
330
18
100
AcDbEntity
  8
1
  6
Continuous
100
AcDbCircle
 10
264.042020837238
 20
403.9113807204556
 30
0.0
 40
29.0
  0
CIRCLE
  5
1653
330
18
100
AcDbEntity
  8
1
  6
Continuous
100
AcDbCircle
 10
264.042020837238
 20
403.9113807204556
 30
0.0
 40
15.5
  0
CIRCLE
  5
1654
330
18
100
AcDbEntity
  8
1
  6
Continuous
100
AcDbCircle
 10
264.042020837238
 20
403.9113807204556
 30
0.0
 40
12.0
  0
LINE
  5
1655
330
18
100
AcDbEntity
  8
1
  6
Continuous
100
AcDbLine
 10
232.542020837238
 20
444.9113807204557
 30
0.0
 11
295.5420208372384
 21
444.9113807204557
 31
0.0
  0
LINE
  5
1656
330
18
100
AcDbEntity
  8
1
  6
Continuous
100
AcDbLine
 10
232.542020837238
 20
362.9113807204557
 30
0.0
 11
295.5420208372384
 21
362.9113807204557
 31
0.0
  0
LINE
  5
1657
330
18
100
AcDbEntity
  8
1
  6
Continuous
100
AcDbLine
 10
201.9267489159151
 20
380.6198631563863
 30
0.0
 11
201.9267489159151
 21
428.7017380882679
 31
0.0
  0
LINE
  5
1658
330
18
100
AcDbEntity
  8
1
  6
Continuous
100
AcDbLine
 10
223.042020837238
 20
435.4113807204558
 30
0.0
 11
223.042020837238
 21
372.4113807204557
 31
0.0
  0
ARC
  5
1659
330
18
100
AcDbEntity
  8
1
  6
Continuous
100
AcDbCircle
 10
232.542020837238
 20
372.4113807204557
 30
0.0
 40
9.5
100
AcDbArc
 50
179.9999799999995
 51
270.0000299999965
  0
LINE
  5
165A
330
18
100
AcDbEntity
  8
4
  6
CENTER
100
AcDbLine
 10
226.542020837238
 20
372.4113807204557
 30
0.0
 11
238.5420208372381
 21
372.4113807204557
 31
0.0
  0
LINE
  5
165B
330
18
100
AcDbEntity
  8
1
  6
Continuous
100
AcDbLine
 10
217.7572346370943
 20
367.8113747204556
 30
0.0
 11
209.0112686370944
 21
367.8113747204556
 31
0.0
  0
LINE
  5
165C
330
18
100
AcDbEntity
  8
1
  6
Continuous
100
AcDbLine
 10
208.1364506372383
 20
369.8113747204557
 30
0.0
 11
223.4047362953206
 21
369.8113747204557
 31
0.0
  0
LINE
  5
165D
330
18
100
AcDbEntity
  8
1
  6
Continuous
100
AcDbLine
 10
204.3842506372381
 20
374.9113807204718
 30
0.0
 11
223.0420208372347
 21
374.9113807204766
 31
0.0
  0
LINE
  5
165E
330
18
100
AcDbEntity
  8
1
  6
Continuous
100
AcDbLine
 10
196.3830158372363
 20
375.1113777204226
 30
0.0
 11
223.0420208372347
 21
375.1113777204071
 31
0.0
  0
ARC
  5
165F
330
18
100
AcDbEntity
  8
1
  6
Continuous
100
AcDbCircle
 10
212.8842506370943
 20
368.8113747204555
 30
0.0
 40
4.0
100
AcDbArc
 50
165.5224900000001
 51
194.4775099999997
  0
LINE
  5
1660
330
18
100
AcDbEntity
  8
1
  6
Continuous
100
AcDbLine
 10
204.3842506372381
 20
373.5635747204558
 30
0.0
 11
204.3842506372381
 21
375.1113777204178
 31
0.0
  0
ARC
  5
1661
330
18
100
AcDbEntity
  8
1
  6
Continuous
100
AcDbCircle
 10
208.1364506372383
 20
373.5635747204558
 30
0.0
 40
3.7522
100
AcDbArc
 50
180.0
 51
270.0
  0
ARC
  5
1662
330
18
100
AcDbEntity
  8
1
  6
Continuous
100
AcDbCircle
 10
213.8842506370941
 20
368.8113747204555
 30
0.0
 40
4.0
100
AcDbArc
 50
345.5224880000006
 51
14.47750999999979
  0
LINE
  5
1663
330
18
100
AcDbEntity
  8
1
  6
Continuous
100
AcDbLine
 10
219.9996853371599
 20
369.2113757204556
 30
0.0
 11
220.9151513371599
 21
369.8113747204556
 31
0.0
  0
LINE
  5
1664
330
18
100
AcDbEntity
  8
1
  6
Continuous
100
AcDbLine
 10
223.5971917164569
 20
369.2113757204558
 30
0.0
 11
219.9996853371599
 21
369.2113757204558
 31
0.0
  0
ARC
  5
1665
330
18
100
AcDbEntity
  8
1
  6
Continuous
100
AcDbCircle
 10
223.2496853371599
 20
373.9926257204556
 30
0.0
 40
5.78125
100
AcDbArc
 50
235.7945400000013
 51
277.4284215052375
  0
LINE
  5
1666
330
18
100
AcDbEntity
  8
4
  6
CENTER
100
AcDbLine
 10
232.542020837238
 20
378.4113807204557
 30
0.0
 11
232.542020837238
 21
366.4113807204557
 31
0.0
  0
CIRCLE
  5
1667
330
18
100
AcDbEntity
  8
1
  6
Continuous
100
AcDbCircle
 10
232.542020837238
 20
372.4113807204557
 30
0.0
 40
4.400000099999997
  0
ARC
  5
1668
330
18
100
AcDbEntity
  8
1
  6
Continuous
100
AcDbCircle
 10
232.542020837238
 20
435.4113807204558
 30
0.0
 40
9.5
100
AcDbArc
 50
89.99998200000083
 51
179.9999599999992
  0
LINE
  5
1669
330
18
100
AcDbEntity
  8
4
  6
CENTER
100
AcDbLine
 10
226.542020837238
 20
435.4113807204558
 30
0.0
 11
238.5420208372381
 21
435.4113807204558
 31
0.0
  0
LINE
  5
166A
330
18
100
AcDbEntity
  8
1
  6
Continuous
100
AcDbLine
 10
217.3640456370944
 20
438.5113707204557
 30
0.0
 11
209.4044536370943
 21
438.5113707204557
 31
0.0
  0
LINE
  5
166B
330
18
100
AcDbEntity
  8
1
  6
Continuous
100
AcDbLine
 10
216.3842506370941
 20
439.3113707204554
 30
0.0
 11
210.3842506370941
 21
439.3113707204554
 31
0.0
  0
LINE
  5
166C
330
18
100
AcDbEntity
  8
1
  6
Continuous
100
AcDbLine
 10
204.3842506372381
 20
432.9113807204718
 30
0.0
 11
223.0420208372347
 21
432.9113807204767
 31
0.0
  0
LINE
  5
166D
330
18
100
AcDbEntity
  8
1
  6
Continuous
100
AcDbLine
 10
208.1364506372383
 20
438.0113707204556
 30
0.0
 11
223.4047317425503
 21
438.0113707204556
 31
0.0
  0
LINE
  5
166E
330
18
100
AcDbEntity
  8
1
  6
Continuous
100
AcDbLine
 10
196.3830158372472
 20
432.7113707202902
 30
0.0
 11
223.0420208372347
 21
432.7113707202141
 31
0.0
  0
ARC
  5
166F
330
18
100
AcDbEntity
  8
1
  6
Continuous
100
AcDbCircle
 10
208.1364506372383
 20
434.2591707204556
 30
0.0
 40
3.7522
100
AcDbArc
 50
90.0
 51
180.0
  0
LINE
  5
1670
330
18
100
AcDbEntity
  8
1
  6
Continuous
100
AcDbLine
 10
204.3842506372381
 20
432.7113707202673
 30
0.0
 11
204.3842506372381
 21
434.2591707204556
 31
0.0
  0
LINE
  5
1671
330
18
100
AcDbEntity
  8
1
  6
Continuous
100
AcDbLine
 10
210.8842526370945
 20
438.0113707204556
 30
0.0
 11
209.4044536370943
 21
438.5113707204557
 31
0.0
  0
ARC
  5
1672
330
18
100
AcDbEntity
  8
1
  6
Continuous
100
AcDbCircle
 10
210.3842506370941
 20
438.3113707204556
 30
0.0
 40
1.0
100
AcDbArc
 50
89.99998999999899
 51
168.4630499999997
  0
LINE
  5
1673
330
18
100
AcDbEntity
  8
1
  6
Continuous
100
AcDbLine
 10
215.8842586370941
 20
438.0113707204555
 30
0.0
 11
217.3640496370941
 21
438.5113707204554
 31
0.0
  0
ARC
  5
1674
330
18
100
AcDbEntity
  8
1
  6
Continuous
100
AcDbCircle
 10
216.3842506370941
 20
438.3113707204556
 30
0.0
 40
1.0
100
AcDbArc
 50
11.53696000000024
 51
90.00001000000102
  0
ARC
  5
1675
330
18
100
AcDbEntity
  8
1
  6
Continuous
100
AcDbCircle
 10
223.2496853371599
 20
433.8301407204556
 30
0.0
 40
5.78125
100
AcDbArc
 50
82.57155566223682
 51
124.2054599999985
  0
LINE
  5
1676
330
18
100
AcDbEntity
  8
1
  6
Continuous
100
AcDbLine
 10
219.9996813371599
 20
438.6113907204558
 30
0.0
 11
220.9151553371599
 21
438.0113907204558
 31
0.0
  0
LINE
  5
1677
330
18
100
AcDbEntity
  8
1
  6
Continuous
100
AcDbLine
 10
223.5971935052043
 20
438.6113907204556
 30
0.0
 11
219.9996853371599
 21
438.6113907204556
 31
0.0
  0
CIRCLE
  5
1678
330
18
100
AcDbEntity
  8
1
  6
Continuous
100
AcDbCircle
 10
232.542020837238
 20
435.4113807204558
 30
0.0
 40
4.400000099999997
  0
LINE
  5
1679
330
18
100
AcDbEntity
  8
4
  6
CENTER
100
AcDbLine
 10
232.542020837238
 20
441.4113807204556
 30
0.0
 11
232.542020837238
 21
429.4113807204557
 31
0.0
  0
LINE
  5
167A
330
18
100
AcDbEntity
  8
1
  6
Continuous
100
AcDbLine
 10
305.0420208372384
 20
435.4113807204558
 30
0.0
 11
305.0420208372384
 21
372.4113807204557
 31
0.0
  0
CIRCLE
  5
167B
330
18
100
AcDbEntity
  8
1
  6
Continuous
100
AcDbCircle
 10
295.5420208372384
 20
372.4113807204557
 30
0.0
 40
4.400000099999997
  0
LINE
  5
167C
330
18
100
AcDbEntity
  8
4
  6
CENTER
100
AcDbLine
 10
289.5420208372381
 20
372.4113807204557
 30
0.0
 11
301.5420208372384
 21
372.4113807204557
 31
0.0
  0
ARC
  5
167D
330
18
100
AcDbEntity
  8
1
  6
Continuous
100
AcDbCircle
 10
295.5420208372384
 20
372.4113807204557
 30
0.0
 40
9.5
100
AcDbArc
 50
270.0000200000018
 51
0.0
  0
LINE
  5
167E
330
18
100
AcDbEntity
  8
4
  6
CENTER
100
AcDbLine
 10
295.5420208372384
 20
378.4113807204557
 30
0.0
 11
295.5420208372384
 21
366.4113807204557
 31
0.0
  0
CIRCLE
  5
167F
330
18
100
AcDbEntity
  8
1
  6
Continuous
100
AcDbCircle
 10
295.5420208372384
 20
435.4113807204558
 30
0.0
 40
4.400000099999997
  0
LINE
  5
1680
330
18
100
AcDbEntity
  8
4
  6
CENTER
100
AcDbLine
 10
289.5420208372381
 20
435.4113807204558
 30
0.0
 11
301.5420208372384
 21
435.4113807204558
 31
0.0
  0
ARC
  5
1681
330
18
100
AcDbEntity
  8
1
  6
Continuous
100
AcDbCircle
 10
295.5420208372384
 20
435.4113807204558
 30
0.0
 40
9.5
100
AcDbArc
 50
0.0
 51
89.99998200000083
  0
LINE
  5
1682
330
18
100
AcDbEntity
  8
4
  6
CENTER
100
AcDbLine
 10
295.5420208372384
 20
441.4113807204556
 30
0.0
 11
295.5420208372384
 21
429.4113807204557
 31
0.0
  0
LINE
  5
1756
330
18
100
AcDbEntity
  8
4
  6
CENTER
100
AcDbLine
 10
95.62427295767564
 20
296.1319491475158
 30
0.0
 11
95.62427295767564
 21
288.0224663475159
 31
0.0
  0
LINE
  5
1757
330
18
100
AcDbEntity
  8
4
  6
CENTER
100
AcDbLine
 10
232.542020837238
 20
296.1319491475158
 30
0.0
 11
232.542020837238
 21
288.0224663475159
 31
0.0
  0
LINE
  5
1758
330
18
100
AcDbEntity
  8
4
  6
CENTER
100
AcDbLine
 10
295.5420208372381
 20
296.1319491475158
 30
0.0
 11
295.5420208372381
 21
288.0224663475159
 31
0.0
  0
LINE
  5
18A1
330
18
100
AcDbEntity
  8
4
  6
CENTER
100
AcDbLine
 10
422.0865873353423
 20
298.1383873475158
 30
0.0
 11
422.0865873353423
 21
189.5702418475158
 31
0.0
  0
LINE
  5
18A2
330
18
100
AcDbEntity
  8
4
  6
CENTER
100
AcDbLine
 10
453.586587335342
 20
296.1319491475158
 30
0.0
 11
453.586587335342
 21
288.0224663475159
 31
0.0
  0
LINE
  5
18A3
330
18
100
AcDbEntity
  8
4
  6
CENTER
100
AcDbLine
 10
390.5865873353424
 20
296.1319491475158
 30
0.0
 11
390.5865873353424
 21
288.0224663475159
 31
0.0
  0
LINE
  5
18A6
330
18
100
AcDbEntity
  8
1
  6
Continuous
100
AcDbLine
 10
402.0865873353423
 20
258.7556602130343
 30
0.0
 11
402.0865873353423
 21
199.3511558475158
 31
0.0
  0
LINE
  5
18A7
330
18
100
AcDbEntity
  8
1
  6
Continuous
100
AcDbLine
 10
442.0865873353423
 20
258.7556602130343
 30
0.0
 11
442.0865873353423
 21
199.3511558475158
 31
0.0
  0
ARC
  5
18A9
330
18
100
AcDbEntity
  8
1
  6
Continuous
100
AcDbCircle
 10
422.0865873353423
 20
343.5732018475158
 30
0.0
 40
150.0
100
AcDbArc
 50
264.062229999998
 51
275.9377899999995
  0
ARC
  5
18AA
330
18
100
AcDbEntity
  8
1
  6
Continuous
100
AcDbCircle
 10
437.086587335342
 20
199.3511558475158
 30
0.0
 40
5.0
100
AcDbArc
 50
275.9378099999979
 51
0.0000200000003914
  0
ARC
  5
18AB
330
18
100
AcDbEntity
  8
1
  6
Continuous
100
AcDbCircle
 10
407.0865873353421
 20
199.3511558475158
 30
0.0
 40
5.0
100
AcDbArc
 50
180.0
 51
264.0622000000012
  0
LINE
  5
18AD
330
18
100
AcDbEntity
  8
4
  6
CENTER
100
AcDbLine
 10
465.3865873353423
 20
231.0732018475158
 30
0.0
 11
385.1388483353423
 21
231.0732018475158
 31
0.0
  0
LINE
  5
18B1
330
18
100
AcDbEntity
  8
1
  6
Continuous
100
AcDbLine
 10
452.6843973353424
 20
277.5732018475159
 30
0.0
 11
391.4887783353425
 21
277.5732018475159
 31
0.0
  0
LINE
  5
18B2
330
18
100
AcDbEntity
  8
1
  6
Continuous
100
AcDbLine
 10
451.030247335342
 20
282.9732018475159
 30
0.0
 11
393.1429073353423
 21
282.9732018475159
 31
0.0
  0
LINE
  5
18B5
330
18
100
AcDbEntity
  8
1
  6
Continuous
100
AcDbLine
 10
463.0865873353423
 20
293.5732018475158
 30
0.0
 11
381.0865873353423
 21
293.5732018475158
 31
0.0
  0
LINE
  5
18B6
330
18
100
AcDbEntity
  8
1
  6
Continuous
100
AcDbLine
 10
463.0865873353423
 20
290.3732018475158
 30
0.0
 11
381.0865873353423
 21
290.3732018475158
 31
0.0
  0
LINE
  5
18B7
330
18
100
AcDbEntity
  8
1
  6
Continuous
100
AcDbLine
 10
452.2327073353424
 20
286.573201847516
 30
0.0
 11
391.9404543353423
 21
286.573201847516
 31
0.0
  0
LINE
  5
18B8
330
18
100
AcDbEntity
  8
1
  6
Continuous
100
AcDbLine
 10
456.1865773353424
 20
271.3495538475158
 30
0.0
 11
456.1865773353424
 21
250.0517178475158
 31
0.0
  0
LINE
  5
18BE
330
18
100
AcDbEntity
  8
1
  6
Continuous
100
AcDbLine
 10
443.7865873353423
 20
249.0732018475158
 30
0.0
 11
443.7865873353423
 21
213.0732018475158
 31
0.0
  0
ARC
  5
18C0
330
18
100
AcDbEntity
  8
1
  6
Continuous
100
AcDbCircle
 10
441.396587335342
 20
231.0732018475158
 30
0.0
 40
14.49
100
AcDbArc
 50
344.9045800000002
 51
15.09541999999981
  0
LINE
  5
18C1
330
18
100
AcDbEntity
  8
1
  6
Continuous
100
AcDbLine
 10
455.8865873353425
 20
222.5732018475159
 30
0.0
 11
455.8865873353425
 21
231.0732018475158
 31
0.0
  0
LINE
  5
18C2
330
18
100
AcDbEntity
  8
1
  6
Continuous
100
AcDbLine
 10
459.8865873353425
 20
235.3232018475158
 30
0.0
 11
459.8865873353425
 21
226.8232018475158
 31
0.0
  0
LINE
  5
18C3
330
18
100
AcDbEntity
  8
1
  6
Continuous
100
AcDbLine
 10
459.1365873353423
 20
236.0732018475158
 30
0.0
 11
459.1365873353423
 21
226.0732018475158
 31
0.0
  0
LINE
  5
18C4
330
18
100
AcDbEntity
  8
1
  6
Continuous
100
AcDbLine
 10
457.4865673353423
 20
223.7731988475159
 30
0.0
 11
457.4865673353423
 21
231.0732018475158
 31
0.0
  0
ARC
  5
18C5
330
18
100
AcDbEntity
  8
1
  6
Continuous
100
AcDbCircle
 10
452.0765773353423
 20
223.7119878475159
 30
0.0
 40
3.8100059
100
AcDbArc
 50
330.3156199999996
 51
29.68438000000021
  0
LINE
  5
18C6
330
18
100
AcDbEntity
  8
1
  6
Continuous
100
AcDbLine
 10
455.3865573353423
 20
221.7732068475156
 30
0.0
 11
455.8865573353423
 21
222.5732098475158
 31
0.0
  0
LINE
  5
18C7
330
18
100
AcDbEntity
  8
1
  6
Continuous
100
AcDbLine
 10
456.2865873353423
 20
222.5732018475159
 30
0.0
 11
455.8865873353425
 21
222.5732018475159
 31
0.0
  0
LINE
  5
18C8
330
18
100
AcDbEntity
  8
2
  6
Continuous
100
AcDbLine
 10
459.8865873353425
 20
226.8232018475158
 30
0.0
 11
457.4865673353423
 21
226.8232018475158
 31
0.0
  0
LINE
  5
18C9
330
18
100
AcDbEntity
  8
1
  6
Continuous
100
AcDbLine
 10
459.1365873353423
 20
226.0732018475158
 30
0.0
 11
457.4865673353423
 21
226.0732018475158
 31
0.0
  0
LINE
  5
18CA
330
18
100
AcDbEntity
  8
1
  6
Continuous
100
AcDbLine
 10
459.1366073353424
 20
226.073186847516
 30
0.0
 11
459.8866073353424
 21
226.8231788475159
 31
0.0
  0
ARC
  5
18CB
330
18
100
AcDbEntity
  8
1
  6
Continuous
100
AcDbCircle
 10
456.2865873353423
 20
223.7731988475159
 30
0.0
 40
1.199999999999999
100
AcDbArc
 50
270.0
 51
359.9999900000006
  0
LINE
  5
18CF
330
18
100
AcDbEntity
  8
1
  6
Continuous
100
AcDbLine
 10
443.7865873353423
 20
213.0732018475158
 30
0.0
 11
442.0865873353423
 21
213.0732018475158
 31
0.0
  0
LINE
  5
18D0
330
18
100
AcDbEntity
  8
1
  6
Continuous
100
AcDbLine
 10
455.3865773353424
 20
225.5987828475159
 30
0.0
 11
451.3865873353425
 21
225.8333028475159
 31
0.0
  0
LINE
  5
18D1
330
18
100
AcDbEntity
  8
1
  6
Continuous
100
AcDbLine
 10
455.3865873353425
 20
221.7732068475159
 30
0.0
 11
451.3865773353423
 21
221.5732098475159
 31
0.0
  0
LINE
  5
18D2
330
18
100
AcDbEntity
  8
1
  6
Continuous
100
AcDbLine
 10
452.3486417036145
 20
226.9433690263348
 30
0.0
 11
455.3865873353422
 21
227.2996038475159
 31
0.0
  0
LINE
  5
18D3
330
18
100
AcDbEntity
  8
1
  6
Continuous
100
AcDbLine
 10
451.3865773353423
 20
221.5731938475158
 30
0.0
 11
455.3865873353425
 21
221.8251858475159
 31
0.0
  0
LINE
  5
18D4
330
18
100
AcDbEntity
  8
1
  6
Continuous
100
AcDbLine
 10
455.3865773353423
 20
225.5987828475159
 30
0.0
 11
455.3865773353423
 21
227.2996118475159
 31
0.0
  0
LINE
  5
18D5
330
18
100
AcDbEntity
  8
1
  6
Continuous
100
AcDbLine
 10
455.3865773353423
 20
221.7731988475159
 30
0.0
 11
455.3865773353423
 21
221.8251928475158
 31
0.0
  0
ARC
  5
18D6
330
18
100
AcDbEntity
  8
1
  6
Continuous
100
AcDbCircle
 10
455.6736873353425
 20
223.7032528475158
 30
0.0
 40
4.787128
100
AcDbArc
 50
153.5795799999997
 51
206.4204200000001
  0
LINE
  5
18D7
330
18
100
AcDbEntity
  8
1
  6
Continuous
100
AcDbLine
 10
451.3865773353423
 20
225.9065897066676
 30
0.0
 11
451.3865773353423
 21
225.8333108475159
 31
0.0
  0
LINE
  5
18D8
330
18
100
AcDbEntity
  8
1
  6
Continuous
100
AcDbLine
 10
450.886587335342
 20
222.5731938475159
 30
0.0
 11
451.3865873353422
 21
221.5732018475158
 31
0.0
  0
LINE
  5
18D9
330
18
100
AcDbEntity
  8
1
  6
Continuous
100
AcDbLine
 10
444.5865873353421
 20
226.0732018475158
 30
0.0
 11
443.7865873353423
 21
226.0732018475158
 31
0.0
  0
ARC
  5
18DA
330
18
100
AcDbEntity
  8
1
  6
Continuous
100
AcDbCircle
 10
450.0053473353423
 20
245.8424198475158
 30
0.0
 40
5.78125
100
AcDbArc
 50
327.4799191803507
 51
34.20545999999993
  0
LINE
  5
18DB
330
18
100
AcDbEntity
  8
1
  6
Continuous
100
AcDbLine
 10
456.1865773353424
 20
250.0517178475158
 30
0.0
 11
454.6949984017372
 21
250.0517178475158
 31
0.0
  0
ARC
  5
18DC
330
18
100
AcDbEntity
  8
1
  6
Continuous
100
AcDbCircle
 10
452.0765773353423
 20
238.4344158475158
 30
0.0
 40
3.8100059
100
AcDbArc
 50
330.3156199999996
 51
29.68438000000021
  0
LINE
  5
18DD
330
18
100
AcDbEntity
  8
1
  6
Continuous
100
AcDbLine
 10
455.3865873353425
 20
240.3732048475159
 30
0.0
 11
455.8865873353425
 21
239.5732128475159
 31
0.0
  0
LINE
  5
18DE
330
18
100
AcDbEntity
  8
1
  6
Continuous
100
AcDbLine
 10
455.8865873353425
 20
239.5732018475158
 30
0.0
 11
455.8865873353425
 21
231.0732018475158
 31
0.0
  0
LINE
  5
18DF
330
18
100
AcDbEntity
  8
1
  6
Continuous
100
AcDbLine
 10
456.2865873353423
 20
239.5732018475158
 30
0.0
 11
455.8865873353425
 21
239.5732018475158
 31
0.0
  0
LINE
  5
18E0
330
18
100
AcDbEntity
  8
2
  6
Continuous
100
AcDbLine
 10
459.8865873353425
 20
235.3232018475158
 30
0.0
 11
457.4865673353423
 21
235.3232018475158
 31
0.0
  0
LINE
  5
18E1
330
18
100
AcDbEntity
  8
1
  6
Continuous
100
AcDbLine
 10
459.1365873353423
 20
236.0732018475158
 30
0.0
 11
457.4865673353423
 21
236.0732018475158
 31
0.0
  0
LINE
  5
18E2
330
18
100
AcDbEntity
  8
1
  6
Continuous
100
AcDbLine
 10
459.8866073353424
 20
235.3231788475159
 30
0.0
 11
459.136607335342
 21
236.0731868475159
 31
0.0
  0
LINE
  5
18E3
330
18
100
AcDbEntity
  8
1
  6
Continuous
100
AcDbLine
 10
457.4865673353423
 20
238.3732008475158
 30
0.0
 11
457.4865673353423
 21
231.0732018475158
 31
0.0
  0
ARC
  5
18E4
330
18
100
AcDbEntity
  8
1
  6
Continuous
100
AcDbCircle
 10
456.2865873353423
 20
238.3732008475158
 30
0.0
 40
1.199999999999999
100
AcDbArc
 50
359.9999900000006
 51
89.99999700000229
  0
LINE
  5
18EB
330
18
100
AcDbEntity
  8
1
  6
Continuous
100
AcDbLine
 10
455.3865773353423
 20
236.5476088475159
 30
0.0
 11
455.0371518802012
 21
236.5271216836556
 31
0.0
  0
LINE
  5
18EC
330
18
100
AcDbEntity
  8
1
  6
Continuous
100
AcDbLine
 10
455.078748493858
 20
234.8828963961686
 30
0.0
 11
455.3865773353424
 21
234.8467998475159
 31
0.0
  0
LINE
  5
18ED
330
18
100
AcDbEntity
  8
1
  6
Continuous
100
AcDbLine
 10
455.3865773353423
 20
236.5476208475159
 30
0.0
 11
455.3865773353423
 21
234.8467958475158
 31
0.0
  0
LINE
  5
18EF
330
18
100
AcDbEntity
  8
1
  6
Continuous
100
AcDbLine
 10
454.9404555538376
 20
240.3493209214453
 30
0.0
 11
455.3865573353423
 21
240.3212178475158
 31
0.0
  0
LINE
  5
18F0
330
18
100
AcDbEntity
  8
1
  6
Continuous
100
AcDbLine
 10
455.3865873353422
 20
240.3732048475159
 30
0.0
 11
454.9392855265113
 21
240.395569602481
 31
0.0
  0
LINE
  5
18F1
330
18
100
AcDbEntity
  8
1
  6
Continuous
100
AcDbLine
 10
455.3865773353423
 20
240.3732008475158
 30
0.0
 11
455.3865773353423
 21
240.3212148475158
 31
0.0
  0
LINE
  5
18F3
330
18
100
AcDbEntity
  8
1
  6
Continuous
100
AcDbLine
 10
444.5865873353421
 20
236.0732018475158
 30
0.0
 11
443.7865873353423
 21
236.0732018475158
 31
0.0
  0
LINE
  5
18F7
330
18
100
AcDbEntity
  8
1
  6
Continuous
100
AcDbLine
 10
454.7865973353423
 20
249.0924198475159
 30
0.0
 11
454.7865973353423
 21
246.4310076574198
 31
0.0
  0
LINE
  5
18F8
330
18
100
AcDbEntity
  8
1
  6
Continuous
100
AcDbLine
 10
454.7208865427545
 20
249.0284149301507
 30
0.0
 11
454.7865873353423
 21
249.0924198475159
 31
0.0
  0
ARC
  5
1902
330
18
100
AcDbEntity
  8
1
  6
Continuous
100
AcDbCircle
 10
454.1865773353424
 20
271.3495538475158
 30
0.0
 40
2.0
100
AcDbArc
 50
359.9999900000006
 51
89.99999700000229
  0
LINE
  5
1906
330
18
100
AcDbEntity
  8
1
  6
Continuous
100
AcDbLine
 10
456.6865773353423
 20
268.3293488475159
 30
0.0
 11
456.6865773353426
 21
261.4515859760664
 31
0.0
  0
LINE
  5
1907
330
18
100
AcDbEntity
  8
1
  6
Continuous
100
AcDbLine
 10
457.4865773353423
 20
267.3495538475158
 30
0.0
 11
457.4865773353423
 21
261.3495538475159
 31
0.0
  0
LINE
  5
1908
330
18
100
AcDbEntity
  8
1
  6
Continuous
100
AcDbLine
 10
456.1865773353424
 20
261.8495558475158
 30
0.0
 11
456.4115673470308
 21
261.1836758589026
 31
0.0
  0
LINE
  5
1909
330
18
100
AcDbEntity
  8
1
  6
Continuous
100
AcDbLine
 10
456.1865973353424
 20
260.9645138475158
 30
0.0
 11
456.7865973353423
 21
261.5490237821735
 31
0.0
  0
LINE
  5
190A
330
18
100
AcDbEntity
  8
1
  6
Continuous
100
AcDbLine
 10
456.7865973353423
 20
261.5490237821735
 30
0.0
 11
456.7865973353423
 21
255.0490208475159
 31
0.0
  0
LINE
  5
190B
330
18
100
AcDbEntity
  8
1
  6
Continuous
100
AcDbLine
 10
456.7865973353423
 20
255.0490168475159
 30
0.0
 11
456.1865973353424
 21
255.964490847516
 31
0.0
  0
ARC
  5
190C
330
18
100
AcDbEntity
  8
1
  6
Continuous
100
AcDbCircle
 10
456.4865773353424
 20
261.3495538475159
 30
0.0
 40
1.0
100
AcDbArc
 50
320.5042849167684
 51
0.0000100000010134
  0
ARC
  5
190D
330
18
100
AcDbEntity
  8
1
  6
Continuous
100
AcDbCircle
 10
452.0053473353423
 20
258.2990208475159
 30
0.0
 40
5.78125
100
AcDbArc
 50
325.79454
 51
34.20545793810544
  0
LINE
  5
190E
330
18
100
AcDbEntity
  8
1
  6
Continuous
100
AcDbLine
 10
456.1865773353424
 20
266.8495618475159
 30
0.0
 11
456.6865773353423
 21
268.3293528475159
 31
0.0
  0
ARC
  5
190F
330
18
100
AcDbEntity
  8
1
  6
Continuous
100
AcDbCircle
 10
456.4865773353424
 20
267.3495538475158
 30
0.0
 40
1.0
100
AcDbArc
 50
359.9999900000006
 51
78.46303999999723
  0
ARC
  5
1916
330
18
100
AcDbEntity
  8
1
  6
Continuous
100
AcDbCircle
 10
452.2327073353424
 20
291.5732018475158
 30
0.0
 40
5.0
100
AcDbArc
 50
269.999979999998
 51
346.1134799999999
  0
LINE
  5
1917
330
18
100
AcDbEntity
  8
1
  6
Continuous
100
AcDbLine
 10
463.0865873353423
 20
293.5732018475158
 30
0.0
 11
463.0865873353423
 21
290.3732018475158
 31
0.0
  0
LINE
  5
1918
330
18
100
AcDbEntity
  8
1
  6
Continuous
100
AcDbLine
 10
452.0865873353423
 20
286.5732099475158
 30
0.0
 11
451.0302673353423
 21
282.9732038475158
 31
0.0
  0
LINE
  5
191B
330
18
100
AcDbEntity
  8
1
  6
Continuous
100
AcDbLine
 10
454.1865773353424
 20
273.3495538475158
 30
0.0
 11
454.1055955440461
 21
273.3495538475158
 31
0.0
  0
ARC
  5
191C
330
18
100
AcDbEntity
  8
1
  6
Continuous
100
AcDbCircle
 10
453.0865873353421
 20
278.5732018475159
 30
0.0
 40
1.0
100
AcDbArc
 50
180.0
 51
228.2306300000018
  0
ARC
  5
191D
330
18
100
AcDbEntity
  8
1
  6
Continuous
100
AcDbCircle
 10
446.0865873353423
 20
279.5732018475159
 30
0.0
 40
6.0
100
AcDbArc
 50
0.0000400000007758
 51
34.51809000000135
  0
ARC
  5
191E
330
18
100
AcDbEntity
  8
1
  6
Continuous
100
AcDbCircle
 10
449.0865873353421
 20
274.1010658475159
 30
0.0
 40
5.0
100
AcDbArc
 50
0.0000400000007758
 51
48.19787000000229
  0
LINE
  5
191F
330
18
100
AcDbEntity
  8
1
  6
Continuous
100
AcDbLine
 10
452.0865873353423
 20
279.5732018475159
 30
0.0
 11
452.0865873353423
 21
278.5732018475159
 31
0.0
  0
LINE
  5
1923
330
18
100
AcDbEntity
  8
1
  6
Continuous
100
AcDbLine
 10
387.9865813353424
 20
271.3495538475158
 30
0.0
 11
387.9865813353424
 21
250.0517178475158
 31
0.0
  0
LINE
  5
1925
330
18
100
AcDbEntity
  8
1
  6
Continuous
100
AcDbLine
 10
393.2865843353421
 20
225.4539939213859
 30
0.0
 11
393.2865843353421
 21
219.0732018475158
 31
0.0
  0
ARC
  5
1926
330
18
100
AcDbEntity
  8
1
  6
Continuous
100
AcDbCircle
 10
439.2865873353423
 20
231.0732018475158
 30
0.0
 40
50.0
100
AcDbArc
 50
178.5823066098669
 51
187.8651500000009
  0
LINE
  5
1927
330
18
100
AcDbEntity
  8
1
  6
Continuous
100
AcDbLine
 10
399.5865873353423
 20
249.0732018475158
 30
0.0
 11
399.5865873353423
 21
217.7731988475159
 31
0.0
  0
LINE
  5
1928
330
18
100
AcDbEntity
  8
1
  6
Continuous
100
AcDbLine
 10
400.3865903353423
 20
249.0732018475158
 30
0.0
 11
400.3865903353423
 21
213.0732018475158
 31
0.0
  0
ARC
  5
192A
330
18
100
AcDbEntity
  8
1
  6
Continuous
100
AcDbCircle
 10
395.5865873353424
 20
219.0732018475158
 30
0.0
 40
2.299999999999998
100
AcDbArc
 50
180.0
 51
270.0
  0
LINE
  5
192B
330
18
100
AcDbEntity
  8
1
  6
Continuous
100
AcDbLine
 10
402.0865873353423
 20
213.0732018475158
 30
0.0
 11
400.3865903353423
 21
213.0732018475158
 31
0.0
  0
LINE
  5
192C
330
18
100
AcDbEntity
  8
1
  6
Continuous
100
AcDbLine
 10
398.5865873353422
 20
216.7731988475159
 30
0.0
 11
395.5865873353424
 21
216.7731988475159
 31
0.0
  0
LINE
  5
192D
330
18
100
AcDbEntity
  8
1
  6
Continuous
100
AcDbLine
 10
398.5865873353422
 20
220.4457387577759
 30
0.0
 11
395.5865873353424
 21
220.4457387577759
 31
0.0
  0
LINE
  5
192E
330
18
100
AcDbEntity
  8
1
  6
Continuous
100
AcDbLine
 10
400.3865903353423
 20
226.0732018475158
 30
0.0
 11
399.5865873353423
 21
226.0732018475158
 31
0.0
  0
ARC
  5
192F
330
18
100
AcDbEntity
  8
1
  6
Continuous
100
AcDbCircle
 10
392.2334223353423
 20
224.5732018475159
 30
0.0
 40
2.5
100
AcDbArc
 50
187.8651500000009
 51
270.0
  0
LINE
  5
1930
330
18
100
AcDbEntity
  8
1
  6
Continuous
100
AcDbLine
 10
393.2865843353421
 20
222.0732018475158
 30
0.0
 11
392.2334223353423
 21
222.0732018475158
 31
0.0
  0
LINE
  5
1935
330
18
100
AcDbEntity
  8
1
  6
Continuous
100
AcDbLine
 10
400.3865903353423
 20
236.0732018475158
 30
0.0
 11
399.5865873353423
 21
236.0732018475158
 31
0.0
  0
ARC
  5
1941
330
18
100
AcDbEntity
  8
1
  6
Continuous
100
AcDbCircle
 10
394.1678323353423
 20
245.8424198475158
 30
0.0
 40
5.78125
100
AcDbArc
 50
145.7945419999999
 51
212.5199921619888
  0
LINE
  5
1942
330
18
100
AcDbEntity
  8
1
  6
Continuous
100
AcDbLine
 10
389.4781762689476
 20
250.0517178475158
 30
0.0
 11
387.9865813353424
 21
250.0517178475158
 31
0.0
  0
LINE
  5
1943
330
18
100
AcDbEntity
  8
1
  6
Continuous
100
AcDbLine
 10
389.4522880205568
 20
249.0284106859209
 30
0.0
 11
389.3865823353424
 21
249.0924198475159
 31
0.0
  0
LINE
  5
1945
330
18
100
AcDbEntity
  8
1
  6
Continuous
100
AcDbLine
 10
389.3865823353424
 20
249.0924198475159
 30
0.0
 11
389.3865823353424
 21
246.4312052967414
 31
0.0
  0
ARC
  5
1946
330
18
100
AcDbEntity
  8
1
  6
Continuous
100
AcDbCircle
 10
389.9865813353424
 20
271.3495538475158
 30
0.0
 40
2.0
100
AcDbArc
 50
89.99999700000229
 51
180.0
  0
ARC
  5
1950
330
18
100
AcDbEntity
  8
1
  6
Continuous
100
AcDbCircle
 10
388.9865813353424
 20
263.1765588197611
 30
0.0
 40
1.0
100
AcDbArc
 50
89.99999700000229
 51
180.0
  0
LINE
  5
1951
330
18
100
AcDbEntity
  8
1
  6
Continuous
100
AcDbLine
 10
385.9865813353424
 20
268.7225378475159
 30
0.0
 11
385.9865813353424
 21
259.9765718475159
 31
0.0
  0
ARC
  5
1952
330
18
100
AcDbEntity
  8
1
  6
Continuous
100
AcDbCircle
 10
392.1678323353424
 20
258.2990208475159
 30
0.0
 40
5.78125
100
AcDbArc
 50
145.7945420618957
 51
214.2054599999999
  0
ARC
  5
1953
330
18
100
AcDbEntity
  8
1
  6
Continuous
100
AcDbCircle
 10
386.9865813353424
 20
263.8495538475158
 30
0.0
 40
4.0
100
AcDbArc
 50
255.5224899999974
 51
264.5049078294257
  0
LINE
  5
1954
330
18
100
AcDbEntity
  8
1
  6
Continuous
100
AcDbLine
 10
387.3865823353423
 20
261.5490208475157
 30
0.0
 11
387.3865823353423
 21
255.0490208475159
 31
0.0
  0
LINE
  5
1955
330
18
100
AcDbEntity
  8
1
  6
Continuous
100
AcDbLine
 10
387.3865823353423
 20
255.0490208475159
 30
0.0
 11
387.9865813353424
 21
255.9644868475158
 31
0.0
  0
ARC
  5
1956
330
18
100
AcDbEntity
  8
1
  6
Continuous
100
AcDbCircle
 10
386.9865813353424
 20
264.8495538475158
 30
0.0
 40
4.0
100
AcDbArc
 50
75.52248999999743
 51
104.477511999998
  0
LINE
  5
1957
330
18
100
AcDbEntity
  8
1
  6
Continuous
100
AcDbLine
 10
389.7978841843564
 20
264.176558819761
 30
0.0
 11
388.9865813353424
 21
264.176558819761
 31
0.0
  0
LINE
  5
195B
330
18
100
AcDbEntity
  8
1
  6
Continuous
100
AcDbLine
 10
392.0866023353423
 20
286.5732080475158
 30
0.0
 11
393.1429223353422
 21
282.9732128475158
 31
0.0
  0
LINE
  5
195D
330
18
100
AcDbEntity
  8
1
  6
Continuous
100
AcDbLine
 10
390.0675791266383
 20
273.3495538475158
 30
0.0
 11
389.9865813353424
 21
273.3495538475158
 31
0.0
  0
ARC
  5
195E
330
18
100
AcDbEntity
  8
1
  6
Continuous
100
AcDbCircle
 10
398.0865873353423
 20
279.5732018475159
 30
0.0
 40
6.0
100
AcDbArc
 50
145.481879999999
 51
180.0
  0
ARC
  5
195F
330
18
100
AcDbEntity
  8
1
  6
Continuous
100
AcDbCircle
 10
391.0865873353424
 20
278.5732018475159
 30
0.0
 40
1.0
100
AcDbArc
 50
311.810410000002
 51
0.0000200000003914
  0
ARC
  5
1960
330
18
100
AcDbEntity
  8
1
  6
Continuous
100
AcDbCircle
 10
395.0865873353424
 20
274.1010658475159
 30
0.0
 40
5.0
100
AcDbArc
 50
131.8103039999998
 51
180.0
  0
LINE
  5
1961
330
18
100
AcDbEntity
  8
1
  6
Continuous
100
AcDbLine
 10
392.0865873353422
 20
279.5732018475159
 30
0.0
 11
392.0865873353422
 21
278.5732018475159
 31
0.0
  0
ARC
  5
1962
330
18
100
AcDbEntity
  8
1
  6
Continuous
100
AcDbCircle
 10
391.9404543353423
 20
291.5732018475158
 30
0.0
 40
5.0
100
AcDbArc
 50
193.8865400000002
 51
269.999979999998
  0
LINE
  5
1963
330
18
100
AcDbEntity
  8
1
  6
Continuous
100
AcDbLine
 10
381.0865873353423
 20
293.5732018475158
 30
0.0
 11
381.0865873353423
 21
290.3732018475158
 31
0.0
  0
LINE
  5
19E9
330
18
100
AcDbEntity
  8
4
  6
CENTER
100
AcDbLine
 10
540.9110939190402
 20
296.1319491475158
 30
0.0
 11
540.9110939190402
 21
288.0224663475159
 31
0.0
  0
LINE
  5
19EA
330
18
100
AcDbEntity
  8
4
  6
CENTER
100
AcDbLine
 10
603.9110939190402
 20
296.1319491475158
 30
0.0
 11
603.9110939190402
 21
288.0224663475159
 31
0.0
  0
LINE
  5
19EB
330
18
100
AcDbEntity
  8
4
  6
CENTER
100
AcDbLine
 10
572.4110939190402
 20
298.1383873475158
 30
0.0
 11
572.4110939190402
 21
256.0823418475158
 31
0.0
  0
LINE
  5
19EF
330
18
100
AcDbEntity
  8
1
  6
Continuous
100
AcDbLine
 10
613.4110977190402
 20
290.3732018475158
 30
0.0
 11
531.41109391904
 21
290.3732018475158
 31
0.0
  0
LINE
  5
19F0
330
18
100
AcDbEntity
  8
1
  6
Continuous
100
AcDbLine
 10
613.4110977190402
 20
293.5732018475158
 30
0.0
 11
531.41109391904
 21
293.5732018475158
 31
0.0
  0
LINE
  5
19F1
330
18
100
AcDbEntity
  8
1
  6
Continuous
100
AcDbLine
 10
602.5572309190401
 20
286.573201847516
 30
0.0
 11
542.2649609190402
 21
286.573201847516
 31
0.0
  0
LINE
  5
19F2
330
18
100
AcDbEntity
  8
1
  6
Continuous
100
AcDbLine
 10
605.4110979190402
 20
277.5732018475159
 30
0.0
 11
541.7119969190403
 21
277.5732018475159
 31
0.0
  0
LINE
  5
19F3
330
18
100
AcDbEntity
  8
1
  6
Continuous
100
AcDbLine
 10
601.3547779190401
 20
282.9732018475159
 30
0.0
 11
543.4674139190401
 21
282.9732018475159
 31
0.0
  0
ARC
  5
19F4
330
18
100
AcDbEntity
  8
1
  6
Continuous
100
AcDbCircle
 10
627.6849239190401
 20
311.8655258475158
 30
0.0
 40
99.0
100
AcDbArc
 50
205.6101590025951
 51
244.1533079231717
  0
LINE
  5
19F6
330
18
100
AcDbEntity
  8
4
  6
CENTER
100
AcDbLine
 10
595.4110979190402
 20
272.1112518475158
 30
0.0
 11
595.4110979190402
 21
189.7973948475158
 31
0.0
  0
ARC
  5
19F7
330
18
100
AcDbEntity
  8
1
  6
Continuous
100
AcDbCircle
 10
595.4110979190402
 20
231.0732018475158
 30
0.0
 40
37.5
100
AcDbArc
 50
165.4953179999997
 51
19.57331999999923
  0
LINE
  5
19F9
330
18
100
AcDbEntity
  8
4
  6
CENTER
100
AcDbLine
 10
636.6869049190402
 20
231.0732018475158
 30
0.0
 11
554.1352909190402
 21
231.0732018475158
 31
0.0
  0
LINE
  5
19FA
330
18
100
AcDbEntity
  8
1
  6
Continuous
100
AcDbLine
 10
613.3596122190401
 20
273.3496678475158
 30
0.0
 11
623.0689704190401
 21
273.3495538475158
 31
0.0
  0
CIRCLE
  5
19FB
330
18
100
AcDbEntity
  8
1
  6
Continuous
100
AcDbCircle
 10
613.2034294190402
 20
258.2990208475159
 30
0.0
 40
3.25
  0
ARC
  5
19FC
330
18
100
AcDbEntity
  8
1
  6
Continuous
100
AcDbCircle
 10
616.9227268390402
 20
245.8424168475159
 30
0.0
 40
6.0
100
AcDbArc
 50
223.4018499999996
 51
290.3867100000018
  0
CIRCLE
  5
19FD
330
18
100
AcDbEntity
  8
1
  6
Continuous
100
AcDbCircle
 10
616.9227268390402
 20
245.8424198475158
 30
0.0
 40
3.25
  0
LINE
  5
19FE
330
18
100
AcDbEntity
  8
1
  6
Continuous
100
AcDbLine
 10
633.3246189190401
 20
273.5732018475159
 30
0.0
 11
599.9577629190402
 21
273.5732018475159
 31
0.0
  0
ARC
  5
19FF
330
18
100
AcDbEntity
  8
1
  6
Continuous
100
AcDbCircle
 10
613.3594353190401
 20
258.0517178475158
 30
0.0
 40
8.0
100
AcDbArc
 50
209.4143600000001
 51
307.9256700000011
  0
LINE
  5
1A01
330
18
100
AcDbEntity
  8
1
  6
Continuous
100
AcDbLine
 10
634.1577959190401
 20
245.8169418475158
 30
0.0
 11
610.0704162190402
 21
230.4293078475159
 31
0.0
  0
LINE
  5
1A02
330
18
100
AcDbEntity
  8
1
  6
Continuous
100
AcDbLine
 10
613.5464327190402
 20
238.4056298475158
 30
0.0
 11
615.9250246190402
 21
239.9259508475158
 31
0.0
  0
LINE
  5
1A03
330
18
100
AcDbEntity
  8
5
  6
PHANTOM
100
AcDbLine
 10
609.9971120190401
 20
266.4473858475158
 30
0.0
 11
618.0737909390402
 21
271.8361588475159
 31
0.0
  0
CIRCLE
  5
1A04
330
18
100
AcDbEntity
  8
5
  6
PHANTOM
100
AcDbCircle
 10
618.2205710090402
 20
253.8409938475158
 30
0.0
 40
3.25
  0
ARC
  5
1A05
330
18
100
AcDbEntity
  8
5
  6
PHANTOM
100
AcDbCircle
 10
618.4876003190402
 20
253.7218648475159
 30
0.0
 40
8.0
100
AcDbArc
 50
243.1263000000028
 51
341.6376200000008
  0
LINE
  5
1A06
330
18
100
AcDbEntity
  8
5
  6
PHANTOM
100
AcDbLine
 10
635.3439149190402
 20
224.3409248475159
 30
0.0
 11
609.1361544190402
 21
237.1631028475159
 31
0.0
  0
LINE
  5
1A07
330
18
100
AcDbEntity
  8
1
  6
Continuous
100
AcDbLine
 10
627.3713324190402
 20
258.8278938475159
 30
0.0
 11
618.2765395290402
 21
251.7412468475158
 31
0.0
  0
LINE
  5
1A08
330
18
100
AcDbEntity
  8
1
  6
Continuous
100
AcDbLine
 10
648.2700989190402
 20
264.0293348475158
 30
0.0
 11
649.3595989190402
 21
250.5733658475159
 31
0.0
  0
LINE
  5
1A09
330
18
100
AcDbEntity
  8
5
  6
PHANTOM
100
AcDbLine
 10
629.71244091904
 20
262.1443728475159
 30
0.0
 11
626.0802614190402
 21
251.2016538475159
 31
0.0
  0
ARC
  5
1A0A
330
18
100
AcDbEntity
  8
5
  6
PHANTOM
100
AcDbCircle
 10
629.5555339190403
 20
251.5054298475158
 30
0.0
 40
3.0
100
AcDbArc
 50
168.3568900000003
 51
228.2706799999983
  0
LINE
  5
1A0B
330
18
100
AcDbEntity
  8
1
  6
Continuous
100
AcDbLine
 10
646.3693839190402
 20
250.331254847516
 30
0.0
 11
649.3595989190402
 21
250.5733658475159
 31
0.0
  0
LINE
  5
1A0C
330
18
100
AcDbEntity
  8
5
  6
PHANTOM
100
AcDbLine
 10
658.4402919190401
 20
235.8922018475158
 30
0.0
 11
646.4497159190401
 21
235.4167538475159
 31
0.0
  0
LINE
  5
1A0D
330
18
100
AcDbEntity
  8
5
  6
PHANTOM
100
AcDbLine
 10
646.5685779190401
 20
232.4191068475158
 30
0.0
 11
637.5828089190402
 21
222.3440838475159
 31
0.0
  0
LINE
  5
1A0E
330
18
100
AcDbEntity
  8
5
  6
PHANTOM
100
AcDbLine
 10
658.5591539190402
 20
232.8945558475159
 30
0.0
 11
646.5685779190401
 21
232.4191068475158
 31
0.0
  0
LINE
  5
1A0F
330
18
100
AcDbEntity
  8
5
  6
PHANTOM
100
AcDbLine
 10
658.4402919190401
 20
235.8922018475159
 30
0.0
 11
658.5591539190402
 21
232.8945558475159
 31
0.0
  0
LINE
  5
1A10
330
18
100
AcDbEntity
  8
5
  6
PHANTOM
100
AcDbLine
 10
635.3439169190401
 20
224.3409248475159
 30
0.0
 11
637.5828089190402
 21
222.3440838475159
 31
0.0
  0
LINE
  5
1A11
330
18
100
AcDbEntity
  8
1
  6
Continuous
100
AcDbLine
 10
646.36937791904
 20
250.3312588475159
 30
0.0
 11
619.0031692190403
 21
240.2146588475159
 31
0.0
  0
LINE
  5
1A12
330
18
100
AcDbEntity
  8
5
  6
PHANTOM
100
AcDbLine
 10
632.6867099190401
 20
244.692937847516
 30
0.0
 11
627.5586969190401
 21
249.2665378475158
 31
0.0
  0
LINE
  5
1A13
330
18
100
AcDbEntity
  8
5
  6
PHANTOM
100
AcDbLine
 10
646.5153189190401
 20
232.3593958475159
 30
0.0
 11
632.8020779190401
 21
244.5900438475159
 31
0.0
  0
ARC
  5
1A14
330
18
100
AcDbEntity
  8
5
  6
PHANTOM
100
AcDbCircle
 10
646.56857591904
 20
232.4191108475158
 30
0.0
 40
3.0
100
AcDbArc
 50
92.27069399999807
 51
139.798998999999
  0
LINE
  5
1A15
330
18
100
AcDbEntity
  8
1
  6
Continuous
100
AcDbLine
 10
653.9499429190402
 20
275.0174788475159
 30
0.0
 11
646.0187599190401
 21
266.0121288475161
 31
0.0
  0
LINE
  5
1A16
330
18
100
AcDbEntity
  8
1
  6
Continuous
100
AcDbLine
 10
648.2765529190401
 20
263.9495808475158
 30
0.0
 11
629.9614579190402
 21
262.4666518475158
 31
0.0
  0
LINE
  5
1A17
330
18
100
AcDbEntity
  8
1
  6
Continuous
100
AcDbLine
 10
653.9499429190402
 20
275.0174788475159
 30
0.0
 11
656.2012819190401
 21
273.0346828475159
 31
0.0
  0
LINE
  5
1A18
330
18
100
AcDbEntity
  8
1
  6
Continuous
100
AcDbLine
 10
656.2012819190401
 20
273.0346828475159
 30
0.0
 11
648.27009691904
 21
264.0293328475158
 31
0.0
  0
LINE
  5
1A19
330
18
100
AcDbEntity
  8
1
  6
Continuous
100
AcDbLine
 10
647.3406255886666
 20
267.513018545374
 30
0.0
 11
649.5919645886665
 21
265.5302225453739
 31
0.0
  0
ARC
  5
1A1A
330
18
100
AcDbEntity
  8
1
  6
Continuous
100
AcDbCircle
 10
633.3246189190401
 20
271.2732028475159
 30
0.0
 40
2.299999999999998
100
AcDbArc
 50
26.9999899999994
 51
89.99999700000229
  0
ARC
  5
1A1B
330
18
100
AcDbEntity
  8
1
  6
Continuous
100
AcDbCircle
 10
623.0688641190401
 20
264.3495538475158
 30
0.0
 40
9.0
100
AcDbArc
 50
349.3682299999999
 51
89.99933499999821
  0
ARC
  5
1A1C
330
18
100
AcDbEntity
  8
5
  6
PHANTOM
100
AcDbCircle
 10
623.0688641190401
 20
264.3495538475158
 30
0.0
 40
9.0
100
AcDbArc
 50
89.99933499999821
 51
123.7112809999981
  0
LINE
  5
1A1D
330
18
100
AcDbEntity
  8
1
  6
Continuous
100
AcDbLine
 10
631.9143619190401
 20
262.6890888475159
 30
0.0
 11
630.6451369190401
 21
262.7167868475158
 31
0.0
  0
LINE
  5
1A1E
330
18
100
AcDbEntity
  8
1
  6
Continuous
100
AcDbLine
 10
633.3246189190401
 20
271.2732028475159
 30
0.0
 11
628.8189159190401
 21
271.2732028475159
 31
0.0
  0
LINE
  5
1A1F
330
18
100
AcDbEntity
  8
5
  6
PHANTOM
100
AcDbLine
 10
631.3484769190401
 20
267.8777238475158
 30
0.0
 11
630.2773129190402
 21
267.1963228475158
 31
0.0
  0
LINE
  5
1A20
330
18
100
AcDbEntity
  8
1
  6
Continuous
100
AcDbLine
 10
635.3739329190402
 20
272.3173808475156
 30
0.0
 11
639.9522129190402
 21
263.3320038475157
 31
0.0
  0
ARC
  5
1A21
330
18
100
AcDbEntity
  8
1
  6
Continuous
100
AcDbCircle
 10
648.2700949190403
 20
264.0293328475158
 30
0.0
 40
3.0
100
AcDbArc
 50
138.6290179999996
 51
186.1573200000002
  0
ARC
  5
1A22
330
18
100
AcDbEntity
  8
1
  6
Continuous
100
AcDbCircle
 10
630.6233189190402
 20
261.7170258475159
 30
0.0
 40
1.0
100
AcDbArc
 50
88.74976599999902
 51
160.7878799999996
  0
CIRCLE
  5
1A23
330
18
100
AcDbEntity
  8
1
  6
Continuous
100
AcDbCircle
 10
623.0688641190401
 20
264.3495538475158
 30
0.0
 40
3.979795968271702
  0
ARC
  5
1A24
330
18
100
AcDbEntity
  8
5
  6
PHANTOM
100
AcDbCircle
 10
623.0688621190402
 20
264.3495578475158
 30
0.0
 40
7.0
100
AcDbArc
 50
341.6376200000008
 51
14.49983000000077
  0
ARC
  5
1A25
330
18
100
AcDbEntity
  8
1
  6
Continuous
100
AcDbCircle
 10
623.0688641190401
 20
264.3495578475158
 30
0.0
 40
7.0
100
AcDbArc
 50
307.9256700000011
 51
340.7878799999997
  0
ARC
  5
1A26
330
18
100
AcDbEntity
  8
5
  6
PHANTOM
100
AcDbCircle
 10
618.2205977690402
 20
253.8410548475159
 30
0.0
 40
8.5730658
100
AcDbArc
 50
348.3568999999981
 51
356.3770000000004
  0
ARC
  5
1A27
330
18
100
AcDbEntity
  8
5
  6
PHANTOM
100
AcDbCircle
 10
630.8140499190401
 20
266.3525728475158
 30
0.0
 40
1.0
100
AcDbArc
 50
122.4617149999985
 51
194.4998300000006
  0
ARC
  5
1A28
330
18
100
AcDbEntity
  8
1
  6
Continuous
100
AcDbCircle
 10
613.2155869190401
 20
258.3026368475159
 30
0.0
 40
12.297948
100
AcDbArc
 50
159.982070000001
 51
238.5949400000011
  0
LINE
  5
1A29
330
18
100
AcDbEntity
  8
1
  6
Continuous
100
AcDbLine
 10
583.3362379190401
 20
226.6027348475158
 30
0.0
 11
592.6394739190402
 21
274.4637558475159
 31
0.0
  0
LINE
  5
1A2A
330
18
100
AcDbEntity
  8
1
  6
Continuous
100
AcDbLine
 10
593.9639049190402
 20
268.8782858475158
 30
0.0
 11
587.2039555962365
 21
235.8578613853844
 31
0.0
  0
ARC
  5
1A2B
330
18
100
AcDbEntity
  8
5
  6
PHANTOM
100
AcDbCircle
 10
618.4876003190402
 20
253.7218648475159
 30
0.0
 40
15.29795
100
AcDbArc
 50
123.7112840000016
 51
190.1106300000005
  0
ARC
  5
1A2C
330
18
100
AcDbEntity
  8
1
  6
Continuous
100
AcDbCircle
 10
627.6849169190402
 20
311.8655298475159
 30
0.0
 40
101.2999999999999
100
AcDbArc
 50
244.4841100000016
 51
248.2249499999995
  0
ARC
  5
1A2E
330
18
100
AcDbEntity
  8
1
  6
Continuous
100
AcDbCircle
 10
615.4539291190401
 20
222.0020958475158
 30
0.0
 40
10.0
100
AcDbArc
 50
122.5714830000009
 51
155.649155
  0
ARC
  5
1A30
330
18
100
AcDbEntity
  8
1
  6
Continuous
100
AcDbCircle
 10
595.4110979190402
 20
231.0732018475158
 30
0.0
 40
12.0
100
AcDbArc
 50
272.1429099999975
 51
335.6491500000001
  0
ARC
  5
1A32
330
18
100
AcDbEntity
  8
1
  6
Continuous
100
AcDbCircle
 10
595.4110979190402
 20
231.0732018475158
 30
0.0
 40
14.3
100
AcDbArc
 50
248.2249499999995
 51
270.0
  0
LINE
  5
1A33
330
18
100
AcDbEntity
  8
1
  6
Continuous
100
AcDbLine
 10
595.4110919190402
 20
216.7731988475159
 30
0.0
 11
595.8581669190401
 21
219.0731938475158
 31
0.0
  0
ARC
  5
1A34
330
18
100
AcDbEntity
  8
1
  6
Continuous
100
AcDbCircle
 10
611.1515953190401
 20
242.1562588475159
 30
0.0
 40
4.449999299999999
100
AcDbArc
 50
124.0144079999992
 51
302.6120899999988
  0
CIRCLE
  5
1A35
330
18
100
AcDbEntity
  8
5
  6
PHANTOM
100
AcDbCircle
 10
611.7729876190401
 20
242.5526328475159
 30
0.0
 40
3.25
  0
ARC
  5
1A36
330
18
100
AcDbEntity
  8
5
  6
PHANTOM
100
AcDbCircle
 10
611.7729847190402
 20
242.5526328475159
 30
0.0
 40
6.0
100
AcDbArc
 50
177.0435207999999
 51
244.0283899999982
  0
LINE
  5
1A37
330
18
100
AcDbEntity
  8
1
  6
Continuous
100
AcDbLine
 10
606.8073079190402
 20
247.8062798475158
 30
0.0
 11
612.5634176190401
 21
241.7197588475159
 31
0.0
  0
LINE
  5
1A38
330
18
100
AcDbEntity
  8
5
  6
PHANTOM
100
AcDbLine
 10
605.3961589190402
 20
251.3874188475159
 30
0.0
 11
614.8713979190402
 21
246.5858248475158
 31
0.0
  0
LINE
  5
1A39
330
18
100
AcDbEntity
  8
5
  6
PHANTOM
100
AcDbLine
 10
605.3961569190402
 20
251.3874188475158
 30
0.0
 11
603.4272109190403
 21
251.0363178475158
 31
0.0
  0
LINE
  5
1A3A
330
18
100
AcDbEntity
  8
5
  6
PHANTOM
100
AcDbLine
 10
606.2002359190402
 20
250.9799518475158
 30
0.0
 11
605.7809799190401
 21
242.8620968475158
 31
0.0
  0
LINE
  5
1A3B
330
18
100
AcDbEntity
  8
1
  6
Continuous
100
AcDbLine
 10
599.9577629190402
 20
273.5732018475159
 30
0.0
 11
599.9577629190402
 21
271.2732028475159
 31
0.0
  0
ARC
  5
1A3C
330
18
100
AcDbEntity
  8
1
  6
Continuous
100
AcDbCircle
 10
613.3594353190401
 20
258.0517178475158
 30
0.0
 40
15.29795
100
AcDbArc
 50
89.99933499999821
 51
156.3986789999997
  0
LINE
  5
1A3D
330
18
100
AcDbEntity
  8
1
  6
Continuous
100
AcDbLine
 10
605.6640079190401
 20
271.2732028475159
 30
0.0
 11
596.9022519190401
 21
271.2732028475159
 31
0.0
  0
LINE
  5
1A3E
330
18
100
AcDbEntity
  8
1
  6
Continuous
100
AcDbLine
 10
601.1738079190402
 20
263.3758198475159
 30
0.0
 11
599.34109991904
 21
264.1765608475159
 31
0.0
  0
LINE
  5
1A3F
330
18
100
AcDbEntity
  8
1
  6
Continuous
100
AcDbLine
 10
601.1738139190401
 20
263.3758198475159
 30
0.0
 11
606.3907099190401
 21
254.1227398475159
 31
0.0
  0
ARC
  5
1A40
330
18
100
AcDbEntity
  8
1
  6
Continuous
100
AcDbCircle
 10
596.9022519190401
 20
268.2732028475159
 30
0.0
 40
3.0
100
AcDbArc
 50
89.99999700000229
 51
168.4965709999993
  0
LINE
  5
1A41
330
18
100
AcDbEntity
  8
1
  6
Continuous
100
AcDbLine
 10
602.4110939190402
 20
286.5732008475158
 30
0.0
 11
601.3547779190401
 21
282.9732008475158
 31
0.0
  0
ARC
  5
1A42
330
18
100
AcDbEntity
  8
1
  6
Continuous
100
AcDbCircle
 10
605.4110979190402
 20
272.5732018475159
 30
0.0
 40
5.0
100
AcDbArc
 50
11.53696000000024
 51
90.00001799999918
  0
LINE
  5
1A43
330
18
100
AcDbEntity
  8
1
  6
Continuous
100
AcDbLine
 10
602.4110979190402
 20
279.5732018475159
 30
0.0
 11
602.4110979190402
 21
278.5732018475159
 31
0.0
  0
ARC
  5
1A44
330
18
100
AcDbEntity
  8
1
  6
Continuous
100
AcDbCircle
 10
603.4110979190402
 20
278.5732018475159
 30
0.0
 40
1.0
100
AcDbArc
 50
180.0
 51
269.999979999998
  0
ARC
  5
1A45
330
18
100
AcDbEntity
  8
1
  6
Continuous
100
AcDbCircle
 10
596.4110979190402
 20
279.5732018475159
 30
0.0
 40
6.0
100
AcDbArc
 50
0.0000400000007758
 51
34.51809000000135
  0
ARC
  5
1A46
330
18
100
AcDbEntity
  8
1
  6
Continuous
100
AcDbCircle
 10
602.5572309190401
 20
291.5732018475158
 30
0.0
 40
5.0
100
AcDbArc
 50
269.999979999998
 51
346.1134799999999
  0
LINE
  5
1A47
330
18
100
AcDbEntity
  8
1
  6
Continuous
100
AcDbLine
 10
613.4110977190402
 20
293.5732018475158
 30
0.0
 11
613.4110977190402
 21
290.3732018475158
 31
0.0
  0
LINE
  5
1A48
330
18
100
AcDbEntity
  8
1
  6
Continuous
100
AcDbLine
 10
538.4110789190398
 20
269.0732018475159
 30
0.0
 11
539.7487249190398
 21
275.9548198475158
 31
0.0
  0
ARC
  5
1A49
330
18
100
AcDbEntity
  8
1
  6
Continuous
100
AcDbCircle
 10
542.2649609190402
 20
291.5732018475158
 30
0.0
 40
5.0
100
AcDbArc
 50
193.8865400000002
 51
269.999979999998
  0
LINE
  5
1A4A
330
18
100
AcDbEntity
  8
1
  6
Continuous
100
AcDbLine
 10
542.41110891904
 20
286.5732042475158
 30
0.0
 11
543.4674289190402
 21
282.9732028475159
 31
0.0
  0
LINE
  5
1A4B
330
18
100
AcDbEntity
  8
1
  6
Continuous
100
AcDbLine
 10
542.4110939190398
 20
279.5732018475159
 30
0.0
 11
542.4110939190398
 21
278.5732018475159
 31
0.0
  0
ARC
  5
1A4C
330
18
100
AcDbEntity
  8
1
  6
Continuous
100
AcDbCircle
 10
541.7119969190403
 20
275.5732018475159
 30
0.0
 40
2.0
100
AcDbArc
 50
90.00001799999918
 51
169.0000519999991
  0
ARC
  5
1A4D
330
18
100
AcDbEntity
  8
1
  6
Continuous
100
AcDbCircle
 10
541.41109391904
 20
278.5732018475159
 30
0.0
 40
1.0
100
AcDbArc
 50
269.9999700000033
 51
0.0000200000003914
  0
ARC
  5
1A4E
330
18
100
AcDbEntity
  8
1
  6
Continuous
100
AcDbCircle
 10
548.4110939190402
 20
279.5732018475159
 30
0.0
 40
6.0
100
AcDbArc
 50
145.481879999999
 51
180.0
  0
LINE
  5
1A4F
330
18
100
AcDbEntity
  8
1
  6
Continuous
100
AcDbLine
 10
531.41109391904
 20
293.5732018475158
 30
0.0
 11
531.41109391904
 21
290.3732018475158
 31
0.0
  0
LINE
  5
1AEA
330
18
100
AcDbEntity
  8
1
  6
Continuous
100
AcDbLine
 10
232.542020837238
 20
48.40554977849388
 30
0.0
 11
295.5420208372384
 21
48.40554977849388
 31
0.0
  0
LINE
  5
1AEB
330
18
100
AcDbEntity
  8
1
  6
Continuous
100
AcDbLine
 10
232.542020837238
 20
130.4055497784937
 30
0.0
 11
295.5420208372384
 21
130.4055497784937
 31
0.0
  0
LINE
  5
1AEC
330
18
100
AcDbEntity
  8
4
  6
CENTER
100
AcDbLine
 10
174.2242964311269
 20
89.40554977849387
 30
0.0
 11
313.936339789206
 21
89.40554977849387
 31
0.0
  0
LINE
  5
1AEF
330
18
100
AcDbEntity
  8
4
  6
CENTER
100
AcDbLine
 10
232.542020837238
 20
114.9055497784938
 30
0.0
 11
232.542020837238
 21
126.9055497784938
 31
0.0
  0
ARC
  5
1AF0
330
18
100
AcDbEntity
  8
1
  6
Continuous
100
AcDbCircle
 10
232.542020837238
 20
120.9055497784938
 30
0.0
 40
9.5
100
AcDbArc
 50
89.99997000000352
 51
154.087482904129
  0
LINE
  5
1AF1
330
18
100
AcDbEntity
  8
4
  6
CENTER
100
AcDbLine
 10
264.042020837238
 20
44.40554977849386
 30
0.0
 11
264.042020837238
 21
134.4055497784937
 31
0.0
  0
LINE
  5
1AF2
330
18
100
AcDbEntity
  8
1
  6
Continuous
100
AcDbLine
 10
208.1364506372383
 20
123.5055557784937
 30
0.0
 11
237.1120148372383
 21
123.5055557784937
 31
0.0
  0
LINE
  5
1AF4
330
18
100
AcDbEntity
  8
1
  6
Continuous
100
AcDbLine
 10
196.3830158372363
 20
118.205552778527
 30
0.0
 11
251.4043273299909
 21
118.2055527785422
 31
0.0
  0
LINE
  5
1AF5
330
18
100
AcDbEntity
  8
1
  6
Continuous
100
AcDbLine
 10
219.9996853371599
 20
124.105554778494
 30
0.0
 11
220.9151513371599
 21
123.505555778494
 31
0.0
  0
LINE
  5
1AF6
330
18
100
AcDbEntity
  8
1
  6
Continuous
100
AcDbLine
 10
226.4996853371595
 20
124.1055547784938
 30
0.0
 11
219.9996853371599
 21
124.1055547784938
 31
0.0
  0
ARC
  5
1AF7
330
18
100
AcDbEntity
  8
1
  6
Continuous
100
AcDbCircle
 10
223.2496853371599
 20
119.324304778494
 30
0.0
 40
5.78125
100
AcDbArc
 50
55.79454206189526
 51
124.2054599999985
  0
LINE
  5
1AF9
330
18
100
AcDbEntity
  8
1
  6
Continuous
100
AcDbLine
 10
208.1364506372383
 20
55.30555977849382
 30
0.0
 11
232.542020837238
 21
55.30555977849382
 31
0.0
  0
ARC
  5
1AFB
330
18
100
AcDbEntity
  8
1
  6
Continuous
100
AcDbCircle
 10
223.2496853371599
 20
59.48678977849397
 30
0.0
 40
5.78125
100
AcDbArc
 50
235.7945400000013
 51
304.2054814680319
  0
LINE
  5
1AFC
330
18
100
AcDbEntity
  8
1
  6
Continuous
100
AcDbLine
 10
219.9996813371599
 20
54.70553977849387
 30
0.0
 11
220.9151553371599
 21
55.30553977849375
 31
0.0
  0
LINE
  5
1AFD
330
18
100
AcDbEntity
  8
1
  6
Continuous
100
AcDbLine
 10
226.4996893371595
 20
54.70553977849395
 30
0.0
 11
219.9996853371599
 21
54.70553977849395
 31
0.0
  0
LINE
  5
1AFE
330
18
100
AcDbEntity
  8
1
  6
Continuous
100
AcDbLine
 10
193.1830158372383
 20
115.0055527785273
 30
0.0
 11
193.1830158372383
 21
63.80555977865945
 31
0.0
  0
LINE
  5
1AFF
330
18
100
AcDbEntity
  8
1
  6
Continuous
100
AcDbLine
 10
191.1830158372383
 20
118.5055557784939
 30
0.0
 11
191.1830158372383
 21
60.30553977849399
 31
0.0
  0
LINE
  5
1B01
330
18
100
AcDbEntity
  8
1
  6
Continuous
100
AcDbLine
 10
180.2518328372381
 20
104.82293287077
 30
0.0
 11
180.2518328372381
 21
73.98816668621748
 31
0.0
  0
ARC
  5
1B04
330
18
100
AcDbEntity
  8
1
  6
Continuous
100
AcDbCircle
 10
190.093515837238
 20
118.5055557784939
 30
0.0
 40
3.0
100
AcDbArc
 50
90.00000000000005
 51
180.0
  0
LINE
  5
1B05
330
18
100
AcDbEntity
  8
1
  6
Continuous
100
AcDbLine
 10
180.8285533996479
 20
106.8217663259235
 30
0.0
 11
186.8611501676118
 21
116.4055497784925
 31
0.0
  0
LINE
  5
1B07
330
18
100
AcDbEntity
  8
1
  6
Continuous
100
AcDbLine
 10
187.093515837238
 20
116.4055497784925
 30
0.0
 11
186.8611501676118
 21
116.4055497784925
 31
0.0
  0
ARC
  5
1B0B
330
18
100
AcDbEntity
  8
1
  6
Continuous
100
AcDbCircle
 10
184.0040328372382
 20
104.82293287077
 30
0.0
 40
3.7522
100
AcDbArc
 50
147.8112760309573
 51
180.0
  0
ARC
  5
1B0D
330
18
100
AcDbEntity
  8
1
  6
Continuous
100
AcDbCircle
 10
208.1364506372383
 20
119.7533557784937
 30
0.0
 40
3.7522
100
AcDbArc
 50
90.00000000000005
 51
152.1616009919184
  0
ARC
  5
1B0E
330
18
100
AcDbEntity
  8
1
  6
Continuous
100
AcDbCircle
 10
196.383015837238
 20
115.0055527785273
 30
0.0
 40
3.2
100
AcDbArc
 50
90.00000000000005
 51
180.0
  0
LINE
  5
1B0F
330
18
100
AcDbEntity
  8
1
  6
Continuous
100
AcDbLine
 10
190.083730837238
 20
118.5055557784939
 30
0.0
 11
232.0420168372379
 21
118.5055557784939
 31
0.0
  0
LINE
  5
1B10
330
18
100
AcDbEntity
  8
1
  6
Continuous
100
AcDbLine
 10
190.093515837238
 20
121.505555778494
 30
0.0
 11
233.4457935384896
 21
121.505555778494
 31
0.0
  0
LINE
  5
1B12
330
18
100
AcDbEntity
  8
1
  6
Continuous
100
AcDbLine
 10
217.7572346370943
 20
125.505555778494
 30
0.0
 11
209.0112686370944
 21
125.505555778494
 31
0.0
  0
ARC
  5
1B13
330
18
100
AcDbEntity
  8
1
  6
Continuous
100
AcDbCircle
 10
212.8842506370943
 20
124.505555778494
 30
0.0
 40
4.0
100
AcDbArc
 50
165.5224900000001
 51
194.4775099999997
  0
ARC
  5
1B14
330
18
100
AcDbEntity
  8
1
  6
Continuous
100
AcDbCircle
 10
213.8842506370941
 20
124.505555778494
 30
0.0
 40
4.0
100
AcDbArc
 50
345.5224900000002
 51
14.47751199999935
  0
ARC
  5
1B16
330
18
100
AcDbEntity
  8
1
  6
Continuous
100
AcDbCircle
 10
190.093515837238
 20
60.30553977849399
 30
0.0
 40
3.0
100
AcDbArc
 50
180.0
 51
270.0
  0
ARC
  5
1B19
330
18
100
AcDbEntity
  8
1
  6
Continuous
100
AcDbCircle
 10
184.0040328372382
 20
73.98816668621748
 30
0.0
 40
3.7522
100
AcDbArc
 50
180.0
 51
212.1887239690351
  0
LINE
  5
1B1B
330
18
100
AcDbEntity
  8
1
  6
Continuous
100
AcDbLine
 10
180.8285533996476
 20
71.98933323106428
 30
0.0
 11
186.8611501676118
 21
62.40554977849264
 31
0.0
  0
LINE
  5
1B1D
330
18
100
AcDbEntity
  8
1
  6
Continuous
100
AcDbLine
 10
187.093515837238
 20
62.40554977849249
 30
0.0
 11
186.8611501676118
 21
62.40554977849249
 31
0.0
  0
ARC
  5
1B1F
330
18
100
AcDbEntity
  8
1
  6
Continuous
100
AcDbCircle
 10
196.3830158372383
 20
63.80555977865945
 30
0.0
 40
3.2
100
AcDbArc
 50
180.0
 51
270.0
  0
ARC
  5
1B20
330
18
100
AcDbEntity
  8
1
  6
Continuous
100
AcDbCircle
 10
208.1364506372383
 20
59.05775977849384
 30
0.0
 40
3.7522
100
AcDbArc
 50
207.838744377057
 51
270.0
  0
LINE
  5
1B21
330
18
100
AcDbEntity
  8
1
  6
Continuous
100
AcDbLine
 10
190.083730837238
 20
60.30553977849399
 30
0.0
 11
232.5420168372381
 21
60.30553977849399
 31
0.0
  0
LINE
  5
1B22
330
18
100
AcDbEntity
  8
1
  6
Continuous
100
AcDbLine
 10
190.093515837238
 20
57.305539778494
 30
0.0
 11
232.5420168372381
 21
57.305539778494
 31
0.0
  0
LINE
  5
1B24
330
18
100
AcDbEntity
  8
1
  6
Continuous
100
AcDbLine
 10
217.3640456370944
 20
54.80555977849395
 30
0.0
 11
209.4044536370943
 21
54.80555977849395
 31
0.0
  0
LINE
  5
1B25
330
18
100
AcDbEntity
  8
1
  6
Continuous
100
AcDbLine
 10
216.3842506370941
 20
54.005559778494
 30
0.0
 11
210.3842506370941
 21
54.005559778494
 31
0.0
  0
LINE
  5
1B26
330
18
100
AcDbEntity
  8
1
  6
Continuous
100
AcDbLine
 10
210.8842526370945
 20
55.30555977849382
 30
0.0
 11
209.4044536370943
 21
54.80555977849382
 31
0.0
  0
ARC
  5
1B27
330
18
100
AcDbEntity
  8
1
  6
Continuous
100
AcDbCircle
 10
210.3842506370941
 20
55.00555977849399
 30
0.0
 40
1.0
100
AcDbArc
 50
191.5369500000003
 51
270.000010000001
  0
LINE
  5
1B28
330
18
100
AcDbEntity
  8
1
  6
Continuous
100
AcDbLine
 10
215.8842586370941
 20
55.30555977849394
 30
0.0
 11
217.3640496370941
 21
54.80555977849428
 31
0.0
  0
ARC
  5
1B29
330
18
100
AcDbEntity
  8
1
  6
Continuous
100
AcDbCircle
 10
216.3842506370941
 20
55.00555977849399
 30
0.0
 40
1.0
100
AcDbArc
 50
269.999989999999
 51
348.4630399999996
  0
LINE
  5
1B2C
330
18
100
AcDbEntity
  8
1
  6
Continuous
100
AcDbLine
 10
223.042020837238
 20
67.70554977849382
 30
0.0
 11
223.0420208372382
 21
69.40554977849387
 31
0.0
  0
LINE
  5
1B2D
330
18
100
AcDbEntity
  8
4
  6
CENTER
100
AcDbLine
 10
226.542020837238
 20
120.9055497784938
 30
0.0
 11
238.5420208372381
 21
120.9055497784938
 31
0.0
  0
ARC
  5
1B2E
330
18
100
AcDbEntity
  8
1
  6
Continuous
100
AcDbCircle
 10
232.542020837238
 20
120.9055497784938
 30
0.0
 40
4.400000099999997
100
AcDbArc
 50
36.22164251363268
 51
143.7783574863673
  0
LINE
  5
1B2F
330
18
100
AcDbEntity
  8
4
  6
CENTER
100
AcDbLine
 10
232.542020837238
 20
51.90554977849387
 30
0.0
 11
232.542020837238
 21
63.90554977849387
 31
0.0
  0
ARC
  5
1B30
330
18
100
AcDbEntity
  8
1
  6
Continuous
100
AcDbCircle
 10
232.542020837238
 20
57.90554977849388
 30
0.0
 40
4.400000099999997
100
AcDbArc
 50
216.2213842536343
 51
297.5807641990101
  0
LINE
  5
1B31
330
18
100
AcDbEntity
  8
4
  6
CENTER
100
AcDbLine
 10
226.542020837238
 20
57.90554977849388
 30
0.0
 11
238.5420208372381
 21
57.90554977849388
 31
0.0
  0
ARC
  5
1B32
330
18
100
AcDbEntity
  8
1
  6
Continuous
100
AcDbCircle
 10
232.542020837238
 20
57.90554977849388
 30
0.0
 40
9.5
100
AcDbArc
 50
205.9125486249846
 51
270.0000179999992
  0
LINE
  5
1B36
330
18
100
AcDbEntity
  8
4
  6
CENTER
100
AcDbLine
 10
295.5420208372384
 20
114.9055497784938
 30
0.0
 11
295.5420208372384
 21
126.9055497784938
 31
0.0
  0
ARC
  5
1B37
330
18
100
AcDbEntity
  8
1
  6
Continuous
100
AcDbCircle
 10
295.5420208372384
 20
120.9055497784938
 30
0.0
 40
9.5
100
AcDbArc
 50
0.0
 51
89.999979999998
  0
LINE
  5
1B39
330
18
100
AcDbEntity
  8
1
  6
Continuous
100
AcDbLine
 10
305.0420208372384
 20
57.90554977849388
 30
0.0
 11
305.0420208372384
 21
120.9055497784938
 31
0.0
  0
LINE
  5
1B3A
330
18
100
AcDbEntity
  8
4
  6
CENTER
100
AcDbLine
 10
289.5420208372381
 20
120.9055497784938
 30
0.0
 11
301.5420208372384
 21
120.9055497784938
 31
0.0
  0
CIRCLE
  5
1B3B
330
18
100
AcDbEntity
  8
1
  6
Continuous
100
AcDbCircle
 10
295.5420208372384
 20
120.9055497784938
 30
0.0
 40
4.400000099999997
  0
LINE
  5
1B3C
330
18
100
AcDbEntity
  8
4
  6
CENTER
100
AcDbLine
 10
295.5420208372384
 20
51.90554977849387
 30
0.0
 11
295.5420208372384
 21
63.90554977849387
 31
0.0
  0
CIRCLE
  5
1B3D
330
18
100
AcDbEntity
  8
1
  6
Continuous
100
AcDbCircle
 10
295.5420208372384
 20
57.90554977849388
 30
0.0
 40
4.400000099999997
  0
LINE
  5
1B3E
330
18
100
AcDbEntity
  8
4
  6
CENTER
100
AcDbLine
 10
289.5420208372381
 20
57.90554977849388
 30
0.0
 11
301.5420208372384
 21
57.90554977849388
 31
0.0
  0
ARC
  5
1B3F
330
18
100
AcDbEntity
  8
1
  6
Continuous
100
AcDbCircle
 10
295.5420208372384
 20
57.90554977849388
 30
0.0
 40
9.5
100
AcDbArc
 50
270.0000179999992
 51
0.0
  0
LINE
  5
1BE0
330
18
100
AcDbEntity
  8
1
  6
Continuous
100
AcDbLine
 10
586.9110984190402
 20
234.4273375994748
 30
0.0
 11
584.0487819190403
 21
220.4457378475159
 31
0.0
  0
ARC
  5
1E4E
330
18
100
AcDbEntity
  8
1
  6
Continuous
100
AcDbCircle
 10
265.0420346560849
 20
89.40554977849387
 30
0.0
 40
29.00000000000001
100
AcDbArc
 50
270.0000008155508
 51
90.0
  0
ARC
  5
1E4F
330
18
100
AcDbEntity
  8
1
  6
Continuous
100
AcDbCircle
 10
265.0420346560849
 20
89.40554977849387
 30
0.0
 40
33.0
100
AcDbArc
 50
270.0000008155508
 51
90.0
  0
ARC
  5
1E62
330
18
100
AcDbEntity
  8
1
  6
Continuous
100
AcDbCircle
 10
250.6198171215985
 20
59.90554977849388
 30
0.0
 40
7.0
100
AcDbArc
 50
41.47843854440306
 51
90.0
  0
LINE
  5
1E63
330
18
100
AcDbEntity
  8
1
  6
Continuous
100
AcDbLine
 10
229.042020837238
 20
66.90554977849387
 30
0.0
 11
229.042020837238
 21
62.90554977849388
 31
0.0
  0
ARC
  5
1E64
330
18
100
AcDbEntity
  8
1
  6
Continuous
100
AcDbCircle
 10
265.0420348945036
 20
72.65557789304034
 30
0.0
 40
12.25002811454647
100
AcDbArc
 50
221.4784385444029
 51
269.9999991593581
  0
ARC
  5
1E65
330
18
100
AcDbEntity
  8
1
  6
Continuous
100
AcDbCircle
 10
265.0420348945036
 20
72.65557789304034
 30
0.0
 40
16.25002811454647
100
AcDbArc
 50
221.4784385444029
 51
269.9999991593581
  0
LINE
  5
1E67
330
18
100
AcDbEntity
  8
1
  6
Continuous
100
AcDbLine
 10
248.3420158372379
 20
54.00556977849372
 30
0.0
 11
241.0420168372382
 21
54.00556977849372
 31
0.0
  0
ARC
  5
1E68
330
18
100
AcDbEntity
  8
1
  6
Continuous
100
AcDbCircle
 10
245.2920168372382
 20
46.85555777849367
 30
0.0
 40
13.75000299999999
100
AcDbArc
 50
74.50126999999766
 51
105.4987300000022
  0
LINE
  5
1E69
330
18
100
AcDbEntity
  8
1
  6
Continuous
100
AcDbLine
 10
249.5420168372382
 20
55.60556077849355
 30
0.0
 11
241.0420168372382
 21
55.60556077849355
 31
0.0
  0
LINE
  5
1E6A
330
18
100
AcDbEntity
  8
1
  6
Continuous
100
AcDbLine
 10
242.0239888372381
 20
56.10556077849357
 30
0.0
 11
241.0420168372382
 21
56.10556077849357
 31
0.0
  0
LINE
  5
1E6B
330
18
100
AcDbEntity
  8
1
  6
Continuous
100
AcDbLine
 10
242.0239888372377
 20
56.10556077849379
 30
0.0
 11
241.6177828372378
 21
60.1055607784939
 31
0.0
  0
LINE
  5
1E71
330
18
100
AcDbEntity
  8
1
  6
Continuous
100
AcDbLine
 10
233.7420168372378
 20
54.00556977849372
 30
0.0
 11
241.0420168372382
 21
54.00556977849372
 31
0.0
  0
ARC
  5
1E72
330
18
100
AcDbEntity
  8
1
  6
Continuous
100
AcDbCircle
 10
236.7920168372382
 20
66.53556077849362
 30
0.0
 40
10.93000299999999
100
AcDbArc
 50
252.6026900000076
 51
287.3973090000038
  0
LINE
  5
1E73
330
18
100
AcDbEntity
  8
1
  6
Continuous
100
AcDbLine
 10
232.5420168372381
 20
55.60556077849355
 30
0.0
 11
241.0420168372382
 21
55.60556077849355
 31
0.0
  0
ARC
  5
1E74
330
18
100
AcDbEntity
  8
1
  6
Continuous
100
AcDbCircle
 10
236.7920168372382
 20
46.85555777849367
 30
0.0
 40
13.75000299999999
100
AcDbArc
 50
74.50126999999766
 51
105.4987300000022
  0
ARC
  5
1E76
330
18
100
AcDbEntity
  8
1
  6
Continuous
100
AcDbCircle
 10
233.7420168372378
 20
55.20556677849365
 30
0.0
 40
1.199999999999999
100
AcDbArc
 50
179.9999899999988
 51
269.9999909999938
  0
LINE
  5
1E77
330
18
100
AcDbEntity
  8
1
  6
Continuous
100
AcDbLine
 10
232.5420168372381
 20
60.10556077849354
 30
0.0
 11
233.117782837238
 21
60.10556077849354
 31
0.0
  0
LINE
  5
1E78
330
18
100
AcDbEntity
  8
1
  6
Continuous
100
AcDbLine
 10
232.5420168372381
 20
56.10556077849357
 30
0.0
 11
233.523989837238
 21
56.10556077849357
 31
0.0
  0
LINE
  5
1E79
330
18
100
AcDbEntity
  8
1
  6
Continuous
100
AcDbLine
 10
233.1177818372382
 20
60.10556077849354
 30
0.0
 11
233.523989837238
 21
56.10556077849357
 31
0.0
  0
LINE
  5
1E7A
330
18
100
AcDbEntity
  8
1
  6
Continuous
100
AcDbLine
 10
232.5420168372381
 20
55.20556677849365
 30
0.0
 11
232.5420168372381
 21
60.60556077849355
 31
0.0
  0
LINE
  5
1E7B
330
18
100
AcDbEntity
  8
1
  6
Continuous
100
AcDbLine
 10
240.466252837238
 20
60.10556077849354
 30
0.0
 11
241.0420168372382
 21
60.10556077849354
 31
0.0
  0
LINE
  5
1E7C
330
18
100
AcDbEntity
  8
1
  6
Continuous
100
AcDbLine
 10
241.617780837238
 20
60.10556077849354
 30
0.0
 11
241.0420168372382
 21
60.10556077849354
 31
0.0
  0
LINE
  5
1E7D
330
18
100
AcDbEntity
  8
1
  6
Continuous
100
AcDbLine
 10
240.060044837238
 20
56.10556077849357
 30
0.0
 11
241.0420168372382
 21
56.10556077849357
 31
0.0
  0
LINE
  5
1E7E
330
18
100
AcDbEntity
  8
1
  6
Continuous
100
AcDbLine
 10
240.0600448372375
 20
56.10556077849379
 30
0.0
 11
240.4662508372378
 21
60.1055607784939
 31
0.0
  0
ARC
  5
1E82
330
18
100
AcDbEntity
  8
1
  6
Continuous
100
AcDbCircle
 10
248.3420158372379
 20
55.20556677849365
 30
0.0
 40
1.199999999999999
100
AcDbArc
 50
269.9999970000023
 51
359.9999974955214
  0
LINE
  5
1E83
330
18
100
AcDbEntity
  8
1
  6
Continuous
100
AcDbLine
 10
249.5420168372382
 20
60.10556077849354
 30
0.0
 11
248.966252837238
 21
60.10556077849354
 31
0.0
  0
ARC
  5
1E84
330
18
100
AcDbEntity
  8
1
  6
Continuous
100
AcDbCircle
 10
245.2920168372382
 20
66.53556077849362
 30
0.0
 40
10.93000299999999
100
AcDbArc
 50
252.6026900000076
 51
287.3973090000038
  0
LINE
  5
1E85
330
18
100
AcDbEntity
  8
1
  6
Continuous
100
AcDbLine
 10
249.5420168372382
 20
56.10556077849357
 30
0.0
 11
248.560042837238
 21
56.10556077849357
 31
0.0
  0
LINE
  5
1E86
330
18
100
AcDbEntity
  8
1
  6
Continuous
100
AcDbLine
 10
249.5420168372382
 20
55.20556677849365
 30
0.0
 11
249.5420168372382
 21
60.60556077849355
 31
0.0
  0
LINE
  5
1E87
330
18
100
AcDbEntity
  8
1
  6
Continuous
100
AcDbLine
 10
248.9662508372378
 20
60.10556077849354
 30
0.0
 11
248.5600448372379
 21
56.10556077849357
 31
0.0
  0
LINE
  5
1E8C
330
18
100
AcDbEntity
  8
1
  6
Continuous
100
AcDbLine
 10
229.042020837238
 20
66.90554977849387
 30
0.0
 11
250.6198171215985
 21
66.90554977849387
 31
0.0
  0
ARC
  5
1E9E
330
18
100
AcDbEntity
  8
1
  6
Continuous
100
AcDbCircle
 10
265.0420348945036
 20
106.1555216639474
 30
0.0
 40
12.25002811454647
100
AcDbArc
 50
90.00000084064188
 51
138.5215614555969
  0
ARC
  5
1E9F
330
18
100
AcDbEntity
  8
1
  6
Continuous
100
AcDbCircle
 10
265.0420348945036
 20
106.1555216639474
 30
0.0
 40
16.25002811454647
100
AcDbArc
 50
90.00000084064188
 51
138.5215614555969
  0
LINE
  5
1EA0
330
18
100
AcDbEntity
  8
1
  6
Continuous
100
AcDbLine
 10
229.042020837238
 20
111.9055497784938
 30
0.0
 11
250.404327329991
 21
111.9055497784938
 31
0.0
  0
LINE
  5
1EA1
330
18
100
AcDbEntity
  8
1
  6
Continuous
100
AcDbLine
 10
196.4830158372383
 20
115.9055497784938
 30
0.0
 11
240.5933114432903
 21
115.9055497784938
 31
0.0
  0
LINE
  5
1EA7
330
18
100
AcDbEntity
  8
1
  6
Continuous
100
AcDbLine
 10
229.042020837238
 20
115.9055497784938
 30
0.0
 11
229.042020837238
 21
111.9055497784938
 31
0.0
  0
ARC
  5
1EAD
330
18
100
AcDbEntity
  8
1
  6
Continuous
100
AcDbCircle
 10
250.6198171215985
 20
118.9055497784938
 30
0.0
 40
7.0
100
AcDbArc
 50
270.0
 51
318.5215614555969
  0
ARC
  5
1EAE
330
18
100
AcDbEntity
  8
1
  6
Continuous
100
AcDbCircle
 10
250.6198171215985
 20
118.9055497784938
 30
0.0
 40
3.0
100
AcDbArc
 50
306.5009942637124
 51
318.5215614555969
  0
LINE
  5
1F73
330
18
100
AcDbEntity
  8
1
  6
Continuous
100
AcDbLine
 10
209.3199708372383
 20
109.4055497784938
 30
0.0
 11
272.7640628372382
 21
109.4055497784938
 31
0.0
  0
LINE
  5
1F74
330
18
100
AcDbEntity
  8
1
  6
Continuous
100
AcDbLine
 10
209.3199708372383
 20
69.40554977849387
 30
0.0
 11
272.7640628372379
 21
69.40554977849387
 31
0.0
  0
ARC
  5
1F76
330
18
100
AcDbEntity
  8
1
  6
Continuous
100
AcDbCircle
 10
128.5420168372379
 20
89.40554977849393
 30
0.0
 40
150.0
100
AcDbArc
 50
354.0622100000005
 51
5.937770000001883
  0
ARC
  5
1F77
330
18
100
AcDbEntity
  8
1
  6
Continuous
100
AcDbCircle
 10
272.7640628372379
 20
74.40554977849394
 30
0.0
 40
5.0
100
AcDbArc
 50
269.9999799999996
 51
354.0621900000019
  0
ARC
  5
1F78
330
18
100
AcDbEntity
  8
1
  6
Continuous
100
AcDbCircle
 10
272.7640628372379
 20
104.4055497784939
 30
0.0
 40
5.0
100
AcDbArc
 50
5.937799999998611
 51
90.0
  0
LINE
  5
1F8B
330
18
100
AcDbEntity
  8
1
  6
Continuous
100
AcDbLine
 10
223.042020837238
 20
67.70554977849382
 30
0.0
 11
259.042016837238
 21
67.70554977849382
 31
0.0
  0
LINE
  5
1F8F
330
18
100
AcDbEntity
  8
1
  6
Continuous
100
AcDbLine
 10
236.7920168372382
 20
51.60554977849368
 30
0.0
 11
245.2920168372382
 21
51.60554977849368
 31
0.0
  0
LINE
  5
1F90
330
18
100
AcDbEntity
  8
1
  6
Continuous
100
AcDbLine
 10
236.042016837238
 20
52.35554977849369
 30
0.0
 11
246.042016837238
 21
52.35554977849369
 31
0.0
  0
LINE
  5
1F95
330
18
100
AcDbEntity
  8
2
  6
Continuous
100
AcDbLine
 10
245.2920168372382
 20
51.60554977849368
 30
0.0
 11
245.2920168372382
 21
54.00556977849372
 31
0.0
  0
LINE
  5
1F96
330
18
100
AcDbEntity
  8
1
  6
Continuous
100
AcDbLine
 10
246.042016837238
 20
52.35554977849369
 30
0.0
 11
246.042016837238
 21
54.00556977849372
 31
0.0
  0
LINE
  5
1F97
330
18
100
AcDbEntity
  8
1
  6
Continuous
100
AcDbLine
 10
246.042031837238
 20
52.35552977849375
 30
0.0
 11
245.292039837238
 21
51.60552977849373
 31
0.0
  0
LINE
  5
1F9C
330
18
100
AcDbEntity
  8
1
  6
Continuous
100
AcDbLine
 10
259.042016837238
 20
67.70554977849382
 30
0.0
 11
259.042016837238
 21
69.40554977849387
 31
0.0
  0
LINE
  5
1FA6
330
18
100
AcDbEntity
  8
1
  6
Continuous
100
AcDbLine
 10
246.042016837238
 20
66.90554977849387
 30
0.0
 11
246.042016837238
 21
67.70554977849382
 31
0.0
  0
LINE
  5
1FAD
330
18
100
AcDbEntity
  8
2
  6
Continuous
100
AcDbLine
 10
236.7920168372382
 20
51.60554977849368
 30
0.0
 11
236.7920168372382
 21
54.00556977849372
 31
0.0
  0
LINE
  5
1FAE
330
18
100
AcDbEntity
  8
1
  6
Continuous
100
AcDbLine
 10
236.042016837238
 20
52.35554977849369
 30
0.0
 11
236.042016837238
 21
54.00556977849372
 31
0.0
  0
LINE
  5
1FAF
330
18
100
AcDbEntity
  8
1
  6
Continuous
100
AcDbLine
 10
236.792039837238
 20
51.60552977849373
 30
0.0
 11
236.0420318372379
 21
52.35552977849398
 31
0.0
  0
LINE
  5
1FC0
330
18
100
AcDbEntity
  8
1
  6
Continuous
100
AcDbLine
 10
236.042016837238
 20
66.90554977849387
 30
0.0
 11
236.042016837238
 21
67.70554977849382
 31
0.0
  0
ARC
  5
1FF3
330
18
100
AcDbEntity
  8
1
  6
Continuous
100
AcDbCircle
 10
241.0420168372378
 20
72.20554977849388
 30
0.0
 40
50.0
100
AcDbArc
 50
82.13484999999897
 51
97.86515320000042
  0
LINE
  5
1FF5
330
18
100
AcDbEntity
  8
1
  6
Continuous
100
AcDbLine
 10
223.042020837238
 20
111.1055467784938
 30
0.0
 11
259.042016837238
 21
111.1055467784938
 31
0.0
  0
LINE
  5
1FF8
330
18
100
AcDbEntity
  8
1
  6
Continuous
100
AcDbLine
 10
259.042016837238
 20
109.4055497784938
 30
0.0
 11
259.042016837238
 21
111.1055467784938
 31
0.0
  0
LINE
  5
1FFB
330
18
100
AcDbEntity
  8
1
  6
Continuous
100
AcDbLine
 10
246.042016837238
 20
111.1055467784938
 30
0.0
 11
246.042016837238
 21
111.9055497784938
 31
0.0
  0
ARC
  5
1FFC
330
18
100
AcDbEntity
  8
1
  6
Continuous
100
AcDbCircle
 10
247.5420168372378
 20
119.2587147784939
 30
0.0
 40
2.5
100
AcDbArc
 50
0.0
 51
82.13484999999897
  0
LINE
  5
1FFD
330
18
100
AcDbEntity
  8
1
  6
Continuous
100
AcDbLine
 10
250.0420168372381
 20
118.2055527784938
 30
0.0
 11
250.0420168372381
 21
119.2587147784938
 31
0.0
  0
LINE
  5
2002
330
18
100
AcDbEntity
  8
1
  6
Continuous
100
AcDbLine
 10
236.042016837238
 20
111.1055467784938
 30
0.0
 11
236.042016837238
 21
111.9055497784938
 31
0.0
  0
ARC
  5
200A
330
18
100
AcDbEntity
  8
1
  6
Continuous
100
AcDbCircle
 10
234.5420168372378
 20
119.2587147784939
 30
0.0
 40
2.5
100
AcDbArc
 50
97.86515320000042
 51
180.0000029999976
  0
LINE
  5
200B
330
18
100
AcDbEntity
  8
1
  6
Continuous
100
AcDbLine
 10
232.042016837238
 20
118.2055527784938
 30
0.0
 11
232.042016837238
 21
119.2587147784938
 31
0.0
  0
LINE
  5
2070
330
18
100
AcDbEntity
  8
1
  6
Continuous
100
AcDbLine
 10
241.0420168372383
 20
117.7568473845912
 30
0.0
 11
241.0420168372382
 21
113.9055497784939
 31
0.0
  0
ARC
  5
2071
330
18
100
AcDbEntity
  8
1
  6
Continuous
100
AcDbCircle
 10
353.5420168372384
 20
89.40554977849393
 30
0.0
 40
150.0
100
AcDbArc
 50
174.062229999998
 51
185.9377899999993
  0
ARC
  5
2072
330
18
100
AcDbEntity
  8
1
  6
Continuous
100
AcDbCircle
 10
209.3199708372383
 20
74.40554977849394
 30
0.0
 40
5.0
100
AcDbArc
 50
185.9378099999979
 51
270.0000200000004
  0
ARC
  5
2073
330
18
100
AcDbEntity
  8
1
  6
Continuous
100
AcDbCircle
 10
209.3199708372383
 20
104.4055497784939
 30
0.0
 40
5.0
100
AcDbArc
 50
90.0
 51
174.0622000000012
  0
LINE
  5
2076
330
18
100
AcDbEntity
  8
1
  6
Continuous
100
AcDbLine
 10
223.042020837238
 20
109.4055497784938
 30
0.0
 11
223.042020837238
 21
111.1055467784938
 31
0.0
  0
LINE
  5
2077
330
18
100
AcDbEntity
  8
1
  6
Continuous
100
AcDbLine
 10
252.404327329991
 20
113.9055497784938
 30
0.0
 11
252.4043273299911
 21
117.2055527785422
 31
0.0
  0
LINE
  5
2078
330
18
100
AcDbEntity
  8
1
  6
Continuous
100
AcDbLine
 10
241.0420168372382
 20
113.9055497784938
 30
0.0
 11
241.0420168372378
 21
117.7568473845912
 31
0.0
  0
LINE
  5
2079
330
18
100
AcDbEntity
  8
1
  6
Continuous
100
AcDbLine
 10
240.5933114432903
 20
113.9055497784938
 30
0.0
 11
240.5933114432903
 21
115.9055497784938
 31
0.0
  0
ARC
  5
207A
330
18
100
AcDbEntity
  8
1
  6
Continuous
100
AcDbCircle
 10
250.404327329991
 20
113.9055497784939
 30
0.0
 40
2.0
100
AcDbArc
 50
270.0
 51
359.9999999999987
  0
ARC
  5
207B
330
18
100
AcDbEntity
  8
1
  6
Continuous
100
AcDbCircle
 10
243.0420168372383
 20
113.9055497784939
 30
0.0
 40
2.0
100
AcDbArc
 50
180.0000000000012
 51
269.9999999999934
  0
ARC
  5
207C
330
18
100
AcDbEntity
  8
1
  6
Continuous
100
AcDbCircle
 10
242.5933114432904
 20
113.9055497784939
 30
0.0
 40
2.0
100
AcDbArc
 50
180.0000000000012
 51
269.9999999999934
  0
ARC
  5
207D
330
18
100
AcDbEntity
  8
1
  6
Continuous
100
AcDbCircle
 10
251.4043273299912
 20
117.2055527785422
 30
0.0
 40
1.0
100
AcDbArc
 50
0.0
 51
90.00000000001589
  0
ARC
  5
207E
330
18
100
AcDbEntity
  8
1
  6
Continuous
100
AcDbCircle
 10
240.5933114432897
 20
117.7568473845912
 30
0.0
 40
0.4487053939480261
100
AcDbArc
 50
0.0
 51
90.00000000002904
  0
ARC
  5
2080
330
18
100
AcDbEntity
  8
1
  6
Continuous
100
AcDbCircle
 10
251.4043273299912
 20
61.6055467784455
 30
0.0
 40
1.0
100
AcDbArc
 50
269.999999999984
 51
0.0
  0
LINE
  5
2081
330
18
100
AcDbEntity
  8
1
  6
Continuous
100
AcDbLine
 10
196.3830158372363
 20
60.60554677846074
 30
0.0
 11
251.4043273299909
 21
60.6055467784455
 31
0.0
  0
LINE
  5
2082
330
18
100
AcDbEntity
  8
1
  6
Continuous
100
AcDbLine
 10
252.404327329991
 20
64.90554977849388
 30
0.0
 11
252.4043273299911
 21
61.6055467784455
 31
0.0
  0
ARC
  5
2083
330
18
100
AcDbEntity
  8
1
  6
Continuous
100
AcDbCircle
 10
250.404327329991
 20
64.90554977849382
 30
0.0
 40
2.0
100
AcDbArc
 50
0.0000000000012354
 51
90.00000000000005
  0
LINE
  5
2084
330
18
100
AcDbEntity
  8
1
  6
Continuous
100
AcDbLine
 10
241.0420168372382
 20
64.90554977849388
 30
0.0
 11
241.0420168372378
 21
61.05425217239648
 31
0.0
  0
LINE
  5
2085
330
18
100
AcDbEntity
  8
1
  6
Continuous
100
AcDbLine
 10
241.0420168372383
 20
61.05425217239648
 30
0.0
 11
241.0420168372382
 21
64.90554977849382
 31
0.0
  0
LINE
  5
2086
330
18
100
AcDbEntity
  8
1
  6
Continuous
100
AcDbLine
 10
240.5933114432903
 20
64.90554977849388
 30
0.0
 11
240.5933114432903
 21
62.90554977849388
 31
0.0
  0
ARC
  5
2087
330
18
100
AcDbEntity
  8
1
  6
Continuous
100
AcDbCircle
 10
242.5933114432904
 20
64.90554977849382
 30
0.0
 40
2.0
100
AcDbArc
 50
90.00000000000651
 51
179.9999999999986
  0
ARC
  5
2088
330
18
100
AcDbEntity
  8
1
  6
Continuous
100
AcDbCircle
 10
243.0420168372383
 20
64.90554977849382
 30
0.0
 40
2.0
100
AcDbArc
 50
90.00000000000651
 51
179.9999999999986
  0
LINE
  5
2089
330
18
100
AcDbEntity
  8
1
  6
Continuous
100
AcDbLine
 10
196.4830158372383
 20
62.90554977849382
 30
0.0
 11
240.5933114432903
 21
62.90554977849388
 31
0.0
  0
ARC
  5
208A
330
18
100
AcDbEntity
  8
1
  6
Continuous
100
AcDbCircle
 10
240.5933114432897
 20
61.05425217239648
 30
0.0
 40
0.4487053939480261
100
AcDbArc
 50
269.999999999971
 51
0.0
  0
LINE
  5
208B
330
18
100
AcDbEntity
  8
1
  6
Continuous
100
AcDbLine
 10
229.042020837238
 20
66.90554977849387
 30
0.0
 11
250.404327329991
 21
66.90554977849387
 31
0.0
  0
ARC
  5
208C
330
18
100
AcDbEntity
  8
1
  6
Continuous
100
AcDbCircle
 10
250.6198171215985
 20
59.90554977849388
 30
0.0
 40
3.0
100
AcDbArc
 50
41.47843854440306
 51
53.49900573628753
  0
LINE
  5
2091
330
18
100
AcDbEntity
  8
1
  6
Continuous
100
AcDbLine
 10
187.093515837238
 20
118.5055557784939
 30
0.0
 11
187.093515837238
 21
60.30553977849399
 31
0.0
  0
LINE
  5
2092
330
18
100
AcDbEntity
  8
1
  6
Continuous
100
AcDbLine
 10
190.083730837238
 20
118.5055557784939
 30
0.0
 11
190.083730837238
 21
60.30553977849399
 31
0.0
  0
LINE
  5
2094
330
18
100
AcDbEntity
  8
1
  6
Continuous
100
AcDbLine
 10
195.4830158372383
 20
114.9055497784938
 30
0.0
 11
195.4830158372383
 21
63.90554977849382
 31
0.0
  0
LINE
  5
2097
330
18
100
AcDbEntity
  8
1
  6
Continuous
100
AcDbLine
 10
226.4996853371599
 20
124.105554778494
 30
0.0
 11
225.5842193371595
 21
123.505555778494
 31
0.0
  0
ARC
  5
20CF
330
18
100
AcDbEntity
  8
1
  6
Continuous
100
AcDbCircle
 10
197.4830158372382
 20
113.9055497784939
 30
0.0
 40
2.0
100
AcDbArc
 50
90.0
 51
162.8855668360935
  0
ARC
  5
20D0
330
18
100
AcDbEntity
  8
1
  6
Continuous
100
AcDbCircle
 10
196.4830158372383
 20
114.9055497784938
 30
0.0
 40
1.0
100
AcDbArc
 50
90.0
 51
270.0
  0
ARC
  5
20D1
330
18
100
AcDbEntity
  8
1
  6
Continuous
100
AcDbCircle
 10
197.6830158372383
 20
113.7055527784939
 30
0.0
 40
1.0
100
AcDbArc
 50
90.0
 51
168.4632163989165
  0
ARC
  5
20D2
330
18
100
AcDbEntity
  8
1
  6
Continuous
100
AcDbCircle
 10
198.0048804316624
 20
112.9055497784939
 30
0.0
 40
1.0
100
AcDbArc
 50
359.9999999999992
 51
90.0
  0
ARC
  5
20D3
330
18
100
AcDbEntity
  8
1
  6
Continuous
100
AcDbCircle
 10
198.6903213459683
 20
112.9055497784938
 30
0.0
 40
1.0
100
AcDbArc
 50
359.9999999999992
 51
90.0
  0
LINE
  5
20D4
330
18
100
AcDbEntity
  8
1
  6
Continuous
100
AcDbLine
 10
196.4830158372383
 20
113.9055497784938
 30
0.0
 11
198.6903213459683
 21
113.9055497784938
 31
0.0
  0
LINE
  5
20D5
330
18
100
AcDbEntity
  8
1
  6
Continuous
100
AcDbLine
 10
195.7377975978279
 20
114.9055497784938
 30
0.0
 11
195.7377975978279
 21
114.9055497784938
 31
0.0
  0
LINE
  5
20D6
330
18
100
AcDbEntity
  8
1
  6
Continuous
100
AcDbLine
 10
199.0048804316624
 20
112.9055497784939
 30
0.0
 11
199.0048804316624
 21
101.9055497784937
 31
0.0
  0
LINE
  5
20D7
330
18
100
AcDbEntity
  8
1
  6
Continuous
100
AcDbLine
 10
199.6903213459683
 20
112.9055497784938
 30
0.0
 11
199.6903213459683
 21
101.9055497784937
 31
0.0
  0
ARC
  5
20D8
330
18
100
AcDbEntity
  8
1
  6
Continuous
100
AcDbCircle
 10
198.1903213459683
 20
100.9055496784938
 30
0.0
 40
0.5
100
AcDbArc
 50
89.99999999999348
 51
180.0000000000039
  0
ARC
  5
20D9
330
18
100
AcDbEntity
  8
1
  6
Continuous
100
AcDbCircle
 10
197.5048804316623
 20
100.9055497784939
 30
0.0
 40
0.5
100
AcDbArc
 50
89.99999999999348
 51
180.0000000000039
  0
ARC
  5
20DA
330
18
100
AcDbEntity
  8
1
  6
Continuous
100
AcDbCircle
 10
199.1903213459683
 20
101.9055497784937
 30
0.0
 40
0.5
100
AcDbArc
 50
270.0
 51
0.0
  0
ARC
  5
20DB
330
18
100
AcDbEntity
  8
1
  6
Continuous
100
AcDbCircle
 10
198.5048804316624
 20
101.9055497784937
 30
0.0
 40
0.5
100
AcDbArc
 50
270.0
 51
0.0
  0
LINE
  5
20DC
330
18
100
AcDbEntity
  8
1
  6
Continuous
100
AcDbLine
 10
199.1903213459683
 20
101.4055497784938
 30
0.0
 11
197.5048804316624
 21
101.4055497784938
 31
0.0
  0
LINE
  5
20DD
330
18
100
AcDbEntity
  8
1
  6
Continuous
100
AcDbLine
 10
199.6903213459683
 20
98.40554977849388
 30
0.0
 11
199.6903213459683
 21
92.40554977849388
 31
0.0
  0
LINE
  5
20DE
330
18
100
AcDbEntity
  8
1
  6
Continuous
100
AcDbLine
 10
197.6903213459683
 20
100.9055497784938
 30
0.0
 11
197.6903213459683
 21
77.90554987849384
 31
0.0
  0
ARC
  5
20DF
330
18
100
AcDbEntity
  8
1
  6
Continuous
100
AcDbCircle
 10
198.6903213459683
 20
99.40554977849387
 30
0.0
 40
2.799999999999998
100
AcDbArc
 50
0.0
 51
69.07516757236166
  0
ARC
  5
20E0
330
18
100
AcDbEntity
  8
1
  6
Continuous
100
AcDbCircle
 10
198.6903213459683
 20
99.40554977849387
 30
0.0
 40
4.0
100
AcDbArc
 50
0.0
 51
75.52248781407008
  0
LINE
  5
20E1
330
18
100
AcDbEntity
  8
1
  6
Continuous
100
AcDbLine
 10
199.6903213459683
 20
103.4055497784938
 30
0.0
 11
204.1967792164824
 21
103.4055497784938
 31
0.0
  0
LINE
  5
20E2
330
18
100
AcDbEntity
  8
1
  6
Continuous
100
AcDbLine
 10
203.8122602756249
 20
98.40554977849388
 30
0.0
 11
199.6903213459683
 21
98.40554977849388
 31
0.0
  0
LINE
  5
20E4
330
18
100
AcDbEntity
  8
1
  6
Continuous
100
AcDbLine
 10
201.4903213459683
 20
99.40554977849387
 30
0.0
 11
201.4903213459683
 21
98.40554977849388
 31
0.0
  0
LINE
  5
20E5
330
18
100
AcDbEntity
  8
1
  6
Continuous
100
AcDbLine
 10
202.6903213459684
 20
99.40554977849387
 30
0.0
 11
202.6903213459684
 21
98.40554977849388
 31
0.0
  0
LINE
  5
20E6
330
18
100
AcDbEntity
  8
1
  6
Continuous
100
AcDbLine
 10
197.0048804316624
 20
100.9055497784938
 30
0.0
 11
197.0048804316624
 21
77.90554977849382
 31
0.0
  0
LINE
  5
20E7
330
18
100
AcDbEntity
  8
1
  6
Continuous
100
AcDbLine
 10
200.1903213459683
 20
92.40554977849388
 30
0.0
 11
199.6903213459683
 21
92.40554977849388
 31
0.0
  0
LINE
  5
20E8
330
18
100
AcDbEntity
  8
1
  6
Continuous
100
AcDbLine
 10
200.1903213459683
 20
92.40554977849388
 30
0.0
 11
200.1903213459683
 21
86.40554977849388
 31
0.0
  0
ARC
  5
20E9
330
18
100
AcDbEntity
  8
1
  6
Continuous
100
AcDbCircle
 10
198.6903213459683
 20
79.40554977849387
 30
0.0
 40
4.0
100
AcDbArc
 50
284.4775121859298
 51
0.0
  0
ARC
  5
20EA
330
18
100
AcDbEntity
  8
1
  6
Continuous
100
AcDbCircle
 10
198.6903213459683
 20
79.40554977849387
 30
0.0
 40
2.799999999999998
100
AcDbArc
 50
290.9248324276383
 51
0.0
  0
LINE
  5
20EB
330
18
100
AcDbEntity
  8
1
  6
Continuous
100
AcDbLine
 10
203.8122602756249
 20
80.40554977849387
 30
0.0
 11
199.6903213459683
 21
80.40554977849387
 31
0.0
  0
LINE
  5
20EC
330
18
100
AcDbEntity
  8
1
  6
Continuous
100
AcDbLine
 10
200.1903213459683
 20
86.40554977849388
 30
0.0
 11
199.6903213459683
 21
86.40554977849388
 31
0.0
  0
LINE
  5
20ED
330
18
100
AcDbEntity
  8
1
  6
Continuous
100
AcDbLine
 10
199.0048804316624
 20
65.90554977849382
 30
0.0
 11
199.0048804316624
 21
76.90554977849385
 31
0.0
  0
LINE
  5
20EE
330
18
100
AcDbEntity
  8
1
  6
Continuous
100
AcDbLine
 10
199.6903213459683
 20
65.90554977849388
 30
0.0
 11
199.6903213459683
 21
76.90554977849385
 31
0.0
  0
LINE
  5
20EF
330
18
100
AcDbEntity
  8
1
  6
Continuous
100
AcDbLine
 10
199.6903213459683
 20
80.40554977849387
 30
0.0
 11
199.6903213459683
 21
86.40554977849388
 31
0.0
  0
ARC
  5
20F1
330
18
100
AcDbEntity
  8
1
  6
Continuous
100
AcDbCircle
 10
198.5048804316624
 20
76.90554977849385
 30
0.0
 40
0.5
100
AcDbArc
 50
0.0
 51
90.0
  0
ARC
  5
20F2
330
18
100
AcDbEntity
  8
1
  6
Continuous
100
AcDbCircle
 10
199.1903213459683
 20
76.90554977849385
 30
0.0
 40
0.5
100
AcDbArc
 50
0.0
 51
90.0
  0
LINE
  5
20F3
330
18
100
AcDbEntity
  8
1
  6
Continuous
100
AcDbLine
 10
199.1903213459683
 20
77.40554977849384
 30
0.0
 11
197.5048804316624
 21
77.40554977849384
 31
0.0
  0
ARC
  5
20F4
330
18
100
AcDbEntity
  8
1
  6
Continuous
100
AcDbCircle
 10
197.5048804316623
 20
77.90554977849382
 30
0.0
 40
0.5
100
AcDbArc
 50
179.9999999999959
 51
270.0000000000065
  0
ARC
  5
20F5
330
18
100
AcDbEntity
  8
1
  6
Continuous
100
AcDbCircle
 10
198.1903213459683
 20
77.90554987849384
 30
0.0
 40
0.5
100
AcDbArc
 50
179.9999999999959
 51
270.0000000000065
  0
LINE
  5
20F6
330
18
100
AcDbEntity
  8
1
  6
Continuous
100
AcDbLine
 10
202.6903213459684
 20
79.40554977849387
 30
0.0
 11
202.6903213459684
 21
80.40554977849387
 31
0.0
  0
LINE
  5
20F7
330
18
100
AcDbEntity
  8
1
  6
Continuous
100
AcDbLine
 10
201.4903213459683
 20
79.40554977849387
 30
0.0
 11
201.4903213459683
 21
80.40554977849387
 31
0.0
  0
LINE
  5
20F8
330
18
100
AcDbEntity
  8
1
  6
Continuous
100
AcDbLine
 10
199.6903213459681
 20
75.40554977849388
 30
0.0
 11
204.1967792164824
 21
75.40554977849385
 31
0.0
  0
ARC
  5
20FA
330
18
100
AcDbEntity
  8
1
  6
Continuous
100
AcDbCircle
 10
198.6903213459683
 20
65.90554977849388
 30
0.0
 40
1.0
100
AcDbArc
 50
269.9999999999934
 51
0.0000000000008142
  0
ARC
  5
20FB
330
18
100
AcDbEntity
  8
1
  6
Continuous
100
AcDbCircle
 10
198.0048804316624
 20
65.90554977849382
 30
0.0
 40
1.0
100
AcDbArc
 50
269.9999999999934
 51
0.0000000000008142
  0
LINE
  5
20FC
330
18
100
AcDbEntity
  8
1
  6
Continuous
100
AcDbLine
 10
196.4830158372383
 20
64.90554977849388
 30
0.0
 11
198.6903213459683
 21
64.90554977849388
 31
0.0
  0
ARC
  5
20FD
330
18
100
AcDbEntity
  8
1
  6
Continuous
100
AcDbCircle
 10
196.4830158372383
 20
63.90554977849382
 30
0.0
 40
1.0
100
AcDbArc
 50
90.0
 51
270.0
  0
ARC
  5
20FE
330
18
100
AcDbEntity
  8
1
  6
Continuous
100
AcDbCircle
 10
197.4830158372382
 20
64.90554977849382
 30
0.0
 40
2.0
100
AcDbArc
 50
197.1144331639063
 51
270.0
  0
ARC
  5
20FF
330
18
100
AcDbEntity
  8
1
  6
Continuous
100
AcDbCircle
 10
197.6830158372383
 20
65.10554677849376
 30
0.0
 40
1.0
100
AcDbArc
 50
191.5367836010833
 51
270.0
  0
LINE
  5
2102
330
18
100
AcDbEntity
  8
1
  6
Continuous
100
AcDbLine
 10
197.6830158372383
 20
114.7055527784939
 30
0.0
 11
226.2612069172381
 21
114.7055527784938
 31
0.0
  0
LINE
  5
2105
330
18
100
AcDbEntity
  8
1
  6
Continuous
100
AcDbLine
 10
216.280387917238
 20
122.1055547784938
 30
0.0
 11
217.195854917238
 21
121.5055557784937
 31
0.0
  0
LINE
  5
2106
330
18
100
AcDbEntity
  8
1
  6
Continuous
100
AcDbLine
 10
216.280387917238
 20
122.1055547784938
 30
0.0
 11
222.780387917238
 21
122.1055547784938
 31
0.0
  0
ARC
  5
2107
330
18
100
AcDbEntity
  8
1
  6
Continuous
100
AcDbCircle
 10
219.530387917238
 20
117.3243047784938
 30
0.0
 40
5.78125
100
AcDbArc
 50
55.79454000000005
 51
124.205458
  0
LINE
  5
2108
330
18
100
AcDbEntity
  8
1
  6
Continuous
100
AcDbLine
 10
222.780387917238
 20
122.1055547784938
 30
0.0
 11
221.864920917238
 21
121.5055557784937
 31
0.0
  0
LINE
  5
2109
330
18
100
AcDbEntity
  8
1
  6
Continuous
100
AcDbLine
 10
214.4201076167331
 20
114.4055497784938
 30
0.0
 11
224.6406699172382
 21
114.4055497784938
 31
0.0
  0
LINE
  5
210A
330
18
100
AcDbEntity
  8
1
  6
Continuous
100
AcDbLine
 10
223.030387917238
 20
114.4055497784938
 30
0.0
 11
223.030387917238
 21
114.7055527784939
 31
0.0
  0
LINE
  5
210B
330
18
100
AcDbEntity
  8
1
  6
Continuous
100
AcDbLine
 10
226.2612069172381
 20
114.7055527784939
 30
0.0
 11
226.2612069172381
 21
115.9055497784938
 31
0.0
  0
ARC
  5
210C
330
18
100
AcDbEntity
  8
1
  6
Continuous
100
AcDbCircle
 10
220.380385917238
 20
113.3055517784937
 30
0.0
 40
4.400000099999997
100
AcDbArc
 50
345.5224899999973
 51
14.4775100000025
  0
LINE
  5
210D
330
18
100
AcDbEntity
  8
1
  6
Continuous
100
AcDbLine
 10
214.4201078749317
 20
112.2055527784938
 30
0.0
 11
224.6406699172382
 21
112.2055527784938
 31
0.0
  0
LINE
  5
210E
330
18
100
AcDbEntity
  8
1
  6
Continuous
100
AcDbLine
 10
216.030387917238
 20
114.4055497784938
 30
0.0
 11
216.030387917238
 21
114.7055527784939
 31
0.0
  0
ARC
  5
210F
330
18
100
AcDbEntity
  8
1
  6
Continuous
100
AcDbCircle
 10
218.6803899172381
 20
113.3055517784937
 30
0.0
 40
4.400000099999997
100
AcDbArc
 50
165.5224899999974
 51
194.4775100000025
  0
LINE
  5
2111
330
18
100
AcDbEntity
  8
1
  6
Continuous
100
AcDbLine
 10
237.1120148372383
 20
123.5055557784937
 30
0.0
 11
237.1120148372383
 21
122.0508613361519
 31
0.0
  0
LINE
  5
2112
330
18
100
AcDbEntity
  8
1
  6
Continuous
100
AcDbLine
 10
197.6830158372383
 20
64.10554677849376
 30
0.0
 11
226.2612069172381
 21
64.10554677849387
 31
0.0
  0
LINE
  5
2113
330
18
100
AcDbEntity
  8
1
  6
Continuous
100
AcDbLine
 10
214.4201078749317
 20
66.60554677849382
 30
0.0
 11
224.6406699172382
 21
66.60554677849382
 31
0.0
  0
LINE
  5
2114
330
18
100
AcDbEntity
  8
1
  6
Continuous
100
AcDbLine
 10
214.4201076167331
 20
64.40554977849387
 30
0.0
 11
224.6406699172382
 21
64.40554977849387
 31
0.0
  0
ARC
  5
2115
330
18
100
AcDbEntity
  8
1
  6
Continuous
100
AcDbCircle
 10
218.6803899172381
 20
65.50554777849396
 30
0.0
 40
4.400000099999997
100
AcDbArc
 50
165.5224899999974
 51
194.4775100000025
  0
LINE
  5
2116
330
18
100
AcDbEntity
  8
1
  6
Continuous
100
AcDbLine
 10
216.030387917238
 20
64.40554977849387
 30
0.0
 11
216.030387917238
 21
64.10554677849382
 31
0.0
  0
ARC
  5
2117
330
18
100
AcDbEntity
  8
1
  6
Continuous
100
AcDbCircle
 10
220.380385917238
 20
65.50554777849396
 30
0.0
 40
4.400000099999997
100
AcDbArc
 50
345.5224899999975
 51
14.47751000000255
  0
LINE
  5
2118
330
18
100
AcDbEntity
  8
1
  6
Continuous
100
AcDbLine
 10
226.2612069172381
 20
64.10554677849382
 30
0.0
 11
226.2612069172381
 21
62.90554977849388
 31
0.0
  0
LINE
  5
2119
330
18
100
AcDbEntity
  8
1
  6
Continuous
100
AcDbLine
 10
223.030387917238
 20
64.40554977849387
 30
0.0
 11
223.030387917238
 21
64.10554677849382
 31
0.0
  0
ARC
  5
211A
330
18
100
AcDbEntity
  8
1
  6
Continuous
100
AcDbCircle
 10
219.530387917238
 20
61.4867947784939
 30
0.0
 40
5.78125
100
AcDbArc
 50
235.7945419999999
 51
304.2054599999999
  0
LINE
  5
211B
330
18
100
AcDbEntity
  8
1
  6
Continuous
100
AcDbLine
 10
216.280387917238
 20
56.70554477849396
 30
0.0
 11
222.780387917238
 21
56.70554477849396
 31
0.0
  0
LINE
  5
211C
330
18
100
AcDbEntity
  8
1
  6
Continuous
100
AcDbLine
 10
216.280387917238
 20
56.70554477849396
 30
0.0
 11
217.195854917238
 21
57.30554377849397
 31
0.0
  0
LINE
  5
211D
330
18
100
AcDbEntity
  8
1
  6
Continuous
100
AcDbLine
 10
222.780387917238
 20
56.70554477849396
 30
0.0
 11
221.864920917238
 21
57.30554377849397
 31
0.0
  0
LINE
  5
211E
330
18
100
AcDbEntity
  8
1
  6
Continuous
100
AcDbLine
 10
226.4996893371598
 20
54.70553977849387
 30
0.0
 11
225.5842153371597
 21
55.30553977849375
 31
0.0
  0
LINE
  5
211F
330
18
100
AcDbEntity
  8
4
  6
CENTER
100
AcDbLine
 10
241.0420168372382
 20
126.4435997784937
 30
0.0
 11
241.0420168372382
 21
50.12974277849389
 31
0.0
  0
LINE
  5
2120
330
18
100
AcDbEntity
  8
4
  6
CENTER
100
AcDbLine
 10
241.0420168372382
 20
442.9494307204556
 30
0.0
 11
241.0420168372382
 21
366.6355737204558
 31
0.0
  0
LINE
  5
220C
330
18
100
AcDbEntity
  8
1
  6
Continuous
100
AcDbLine
 10
390.0865913353424
 20
274.1010658475159
 30
0.0
 11
389.0865913353422
 21
234.5732018475155
 31
0.0
  0
LINE
  5
220D
330
18
100
AcDbEntity
  8
1
  6
Continuous
100
AcDbLine
 10
454.0865833353421
 20
274.1010658475159
 30
0.0
 11
455.0865833353423
 21
234.5732018475155
 31
0.0
  0
ARC
  5
220E
330
18
100
AcDbEntity
  8
1
  6
Continuous
100
AcDbCircle
 10
417.6557323244142
 20
248.8629820826082
 30
0.0
 40
22.29399163628448
100
AcDbArc
 50
90.0
 51
156.4876405314103
  0
ARC
  5
220F
330
18
100
AcDbEntity
  8
1
  6
Continuous
100
AcDbCircle
 10
419.5865873353421
 20
249.0732018475158
 30
0.0
 40
20.0
100
AcDbArc
 50
90.0
 51
180.0
  0
ARC
  5
2210
330
18
100
AcDbEntity
  8
1
  6
Continuous
100
AcDbCircle
 10
422.0865873353423
 20
118.5732018475156
 30
0.0
 40
150.0
100
AcDbArc
 50
87.04016778721621
 51
92.95983221278378
  0
LINE
  5
2211
330
18
100
AcDbEntity
  8
1
  6
Continuous
100
AcDbLine
 10
426.5174423462703
 20
271.1569737188925
 30
0.0
 11
417.6557323244142
 21
271.1569737188925
 31
0.0
  0
LINE
  5
2212
330
18
100
AcDbEntity
  8
1
  6
Continuous
100
AcDbLine
 10
424.586587335342
 20
269.0732018475157
 30
0.0
 11
419.5865873353421
 21
269.0732018475157
 31
0.0
  0
ARC
  5
2213
330
18
100
AcDbEntity
  8
1
  6
Continuous
100
AcDbCircle
 10
424.586587335342
 20
249.0732018475158
 30
0.0
 40
20.0
100
AcDbArc
 50
0.0000400000007688
 51
90.0
  0
ARC
  5
2214
330
18
100
AcDbEntity
  8
1
  6
Continuous
100
AcDbCircle
 10
426.5174423462703
 20
248.8629820826081
 30
0.0
 40
22.29399163628452
100
AcDbArc
 50
23.51235946858969
 51
90.0
  0
LINE
  5
2215
330
18
100
AcDbEntity
  8
1
  6
Continuous
100
AcDbLine
 10
446.9604538695137
 20
257.7571005290453
 30
0.0
 11
454.2735206024281
 21
238.9151511882805
 31
0.0
  0
LINE
  5
2216
330
18
100
AcDbEntity
  8
1
  6
Continuous
100
AcDbLine
 10
443.2314761138186
 20
256.3097840821236
 30
0.0
 11
450.5445428467328
 21
237.4678347413589
 31
0.0
  0
LINE
  5
2217
330
18
100
AcDbEntity
  8
1
  6
Continuous
100
AcDbLine
 10
400.9416985568658
 20
256.3097840821236
 30
0.0
 11
393.6286318239517
 21
237.4678347413589
 31
0.0
  0
LINE
  5
2218
330
18
100
AcDbEntity
  8
1
  6
Continuous
100
AcDbLine
 10
397.2127208011706
 20
257.7571005290453
 30
0.0
 11
389.8996540682563
 21
238.9151511882805
 31
0.0
  0
ARC
  5
2219
330
18
100
AcDbEntity
  8
1
  6
Continuous
100
AcDbCircle
 10
401.0865873353423
 20
234.5732018475158
 30
0.0
 40
8.0
100
AcDbArc
 50
158.7874293974513
 51
239.9999999999995
  0
ARC
  5
221A
330
18
100
AcDbEntity
  8
1
  6
Continuous
100
AcDbCircle
 10
401.0865873353423
 20
234.5732018475158
 30
0.0
 40
12.0
100
AcDbArc
 50
158.7874293974513
 51
239.9999999999995
  0
LINE
  5
221B
330
18
100
AcDbEntity
  8
1
  6
Continuous
100
AcDbLine
 10
395.5865873353424
 20
223.3148715983181
 30
0.0
 11
395.5865873353424
 21
222.7457417577759
 31
0.0
  0
ARC
  5
221D
330
18
100
AcDbEntity
  8
1
  6
Continuous
100
AcDbCircle
 10
394.5865873353424
 20
223.3148715983181
 30
0.0
 40
1.0
100
AcDbArc
 50
359.9999999999967
 51
59.99999999999944
  0
ARC
  5
221E
330
18
100
AcDbEntity
  8
1
  6
Continuous
100
AcDbCircle
 10
394.5865873353424
 20
223.3148715983181
 30
0.0
 40
5.0
100
AcDbArc
 50
0.0
 51
59.99999999999944
  0
LINE
  5
221F
330
18
100
AcDbEntity
  8
1
  6
Continuous
100
AcDbLine
 10
387.3865823353423
 20
261.5490208475159
 30
0.0
 11
387.9865813353424
 21
260.633554847516
 31
0.0
  0
LINE
  5
2221
330
18
100
AcDbEntity
  8
1
  6
Continuous
100
AcDbLine
 10
454.3752904863281
 20
264.176558819761
 30
0.0
 11
455.1865933353422
 21
264.176558819761
 31
0.0
  0
ARC
  5
2222
330
18
100
AcDbEntity
  8
1
  6
Continuous
100
AcDbCircle
 10
455.1865933353422
 20
263.1765588197611
 30
0.0
 40
1.0
100
AcDbArc
 50
0.000000000000007
 51
90.00000299999769
  0
LINE
  5
2226
330
18
100
AcDbEntity
  8
1
  6
Continuous
100
AcDbLine
 10
402.0865873353423
 20
249.0732018475158
 30
0.0
 11
400.3865903353423
 21
249.0732018475158
 31
0.0
  0
LINE
  5
2227
330
18
100
AcDbEntity
  8
1
  6
Continuous
100
AcDbLine
 10
443.7865873353423
 20
249.0732018475158
 30
0.0
 11
442.0865873353423
 21
249.0732018475158
 31
0.0
  0
ARC
  5
222B
330
18
100
AcDbEntity
  8
1
  6
Continuous
100
AcDbCircle
 10
395.5865873353424
 20
222.7457417577759
 30
0.0
 40
2.299999999999998
100
AcDbArc
 50
180.0
 51
270.0
  0
LINE
  5
222C
330
18
100
AcDbEntity
  8
1
  6
Continuous
100
AcDbLine
 10
398.5865873353422
 20
222.7457417577759
 30
0.0
 11
395.5865873353424
 21
222.7457417577759
 31
0.0
  0
ARC
  5
222E
330
18
100
AcDbEntity
  8
1
  6
Continuous
100
AcDbCircle
 10
398.5865873353422
 20
219.4457387577759
 30
0.0
 40
1.0
100
AcDbArc
 50
0.0
 51
90.0
  0
ARC
  5
222F
330
18
100
AcDbEntity
  8
1
  6
Continuous
100
AcDbCircle
 10
398.5865873353422
 20
217.7731988475159
 30
0.0
 40
1.0
100
AcDbArc
 50
270.0
 51
0.0
  0
ARC
  5
2230
330
18
100
AcDbEntity
  8
1
  6
Continuous
100
AcDbCircle
 10
398.5865873353422
 20
221.7457417577759
 30
0.0
 40
1.0
100
AcDbArc
 50
0.0
 51
90.0
  0
LINE
  5
2231
330
18
100
AcDbEntity
  8
1
  6
Continuous
100
AcDbLine
 10
444.5865873353421
 20
249.0732018475158
 30
0.0
 11
444.5865873353421
 21
217.7731988475159
 31
0.0
  0
ARC
  5
2232
330
18
100
AcDbEntity
  8
1
  6
Continuous
100
AcDbCircle
 10
443.0865873353424
 20
234.5732018475158
 30
0.0
 40
12.0
100
AcDbArc
 50
300.0000000000005
 51
21.21257060254865
  0
ARC
  5
2233
330
18
100
AcDbEntity
  8
1
  6
Continuous
100
AcDbCircle
 10
443.0865873353424
 20
234.5732018475158
 30
0.0
 40
8.0
100
AcDbArc
 50
300.0000000000005
 51
21.21257060254865
  0
LINE
  5
2234
330
18
100
AcDbEntity
  8
1
  6
Continuous
100
AcDbLine
 10
445.5865873353423
 20
216.7731988475159
 30
0.0
 11
448.5865873353422
 21
216.7731988475159
 31
0.0
  0
ARC
  5
2235
330
18
100
AcDbEntity
  8
1
  6
Continuous
100
AcDbCircle
 10
448.5865873353422
 20
219.0732018475158
 30
0.0
 40
2.299999999999998
100
AcDbArc
 50
270.0
 51
0.000000000000007
  0
LINE
  5
2236
330
18
100
AcDbEntity
  8
1
  6
Continuous
100
AcDbLine
 10
445.5865873353423
 20
222.7457417577759
 30
0.0
 11
448.5865873353422
 21
222.7457417577759
 31
0.0
  0
LINE
  5
2237
330
18
100
AcDbEntity
  8
1
  6
Continuous
100
AcDbLine
 10
445.5865873353423
 20
220.4457387577759
 30
0.0
 11
448.5865873353422
 21
220.4457387577759
 31
0.0
  0
LINE
  5
2238
330
18
100
AcDbEntity
  8
1
  6
Continuous
100
AcDbLine
 10
448.5865873353422
 20
223.3148715983181
 30
0.0
 11
448.5865873353422
 21
222.7457417577759
 31
0.0
  0
ARC
  5
2239
330
18
100
AcDbEntity
  8
1
  6
Continuous
100
AcDbCircle
 10
448.5865873353422
 20
222.7457417577759
 30
0.0
 40
2.299999999999998
100
AcDbArc
 50
270.0
 51
0.000000000000007
  0
ARC
  5
223A
330
18
100
AcDbEntity
  8
1
  6
Continuous
100
AcDbCircle
 10
449.586587335342
 20
223.3148715983181
 30
0.0
 40
5.0
100
AcDbArc
 50
120.0000000000005
 51
180.0
  0
ARC
  5
223B
330
18
100
AcDbEntity
  8
1
  6
Continuous
100
AcDbCircle
 10
449.586587335342
 20
223.3148715983181
 30
0.0
 40
1.0
100
AcDbArc
 50
120.0000000000005
 51
180.0000000000032
  0
LINE
  5
223C
330
18
100
AcDbEntity
  8
1
  6
Continuous
100
AcDbLine
 10
450.8865903353423
 20
225.4539939213859
 30
0.0
 11
450.8865903353423
 21
219.0732018475158
 31
0.0
  0
ARC
  5
223D
330
18
100
AcDbEntity
  8
1
  6
Continuous
100
AcDbCircle
 10
445.5865873353423
 20
219.4457387577759
 30
0.0
 40
1.0
100
AcDbArc
 50
90.0
 51
180.0
  0
ARC
  5
223E
330
18
100
AcDbEntity
  8
1
  6
Continuous
100
AcDbCircle
 10
445.5865873353423
 20
217.7731988475159
 30
0.0
 40
1.0
100
AcDbArc
 50
180.0
 51
270.0
  0
ARC
  5
223F
330
18
100
AcDbEntity
  8
1
  6
Continuous
100
AcDbCircle
 10
445.5865873353423
 20
221.7457417577759
 30
0.0
 40
1.0
100
AcDbArc
 50
90.0
 51
180.0
  0
ARC
  5
278A
330
18
100
AcDbEntity
  8
1
  6
Continuous
100
AcDbCircle
 10
260.9126218372383
 20
215.0916838475158
 30
0.0
 40
1.5
100
AcDbArc
 50
225.0
 51
321.1910000000007
  0
ARC
  5
278B
330
18
100
AcDbEntity
  8
1
  6
Continuous
100
AcDbCircle
 10
241.0420168372383
 20
231.0732018475158
 30
0.0
 40
30.0
100
AcDbArc
 50
163.7573456162641
 51
6.991244613354179
  0
LINE
  5
278C
330
18
100
AcDbEntity
  8
1
  6
Continuous
100
AcDbLine
 10
258.8778248372385
 20
225.0000149475158
 30
0.0
 11
265.2059498372385
 21
223.3043999475158
 31
0.0
  0
LINE
  5
278D
330
18
100
AcDbEntity
  8
1
  6
Continuous
100
AcDbLine
 10
260.1545249296325
 20
227.2461151396595
 30
0.0
 11
265.8529988372383
 21
225.7192145075159
 31
0.0
  0
ARC
  5
279A
330
18
100
AcDbEntity
  8
1
  6
Continuous
100
AcDbCircle
 10
241.0420168372383
 20
231.0732018475158
 30
0.0
 40
16.5
100
AcDbArc
 50
178.171048674016
 51
338.7277370839601
  0
ARC
  5
279B
330
18
100
AcDbEntity
  8
1
  6
Continuous
100
AcDbCircle
 10
241.0420168372383
 20
231.0732018475158
 30
0.0
 40
12.5
100
AcDbArc
 50
193.5464160398581
 51
268.3916688624764
  0
ARC
  5
279C
330
18
100
AcDbEntity
  8
1
  6
Continuous
100
AcDbCircle
 10
241.0420168372383
 20
231.0732018475158
 30
0.0
 40
27.0
100
AcDbArc
 50
231.1909900000017
 51
248.8090000000001
  0
LINE
  5
279D
330
18
100
AcDbEntity
  8
1
  6
Continuous
100
AcDbLine
 10
228.6323408372383
 20
216.8957583475158
 30
0.0
 11
223.9998338372382
 21
212.2632518475158
 31
0.0
  0
ARC
  5
279F
330
18
100
AcDbEntity
  8
1
  6
Continuous
100
AcDbCircle
 10
241.0420168372383
 20
231.0732018475158
 30
0.0
 40
27.0
100
AcDbArc
 50
201.191
 51
218.8090100000005
  0
LINE
  5
27A0
330
18
100
AcDbEntity
  8
1
  6
Continuous
100
AcDbLine
 10
226.8645728372383
 20
218.6635257475159
 30
0.0
 11
222.2320688372383
 21
214.0310188475159
 31
0.0
  0
ARC
  5
27A1
330
18
100
AcDbEntity
  8
1
  6
Continuous
100
AcDbCircle
 10
225.0604948372383
 20
211.2025928475158
 30
0.0
 40
1.5
100
AcDbArc
 50
135.0
 51
231.1910000000014
  0
ARC
  5
27A2
330
18
100
AcDbEntity
  8
1
  6
Continuous
100
AcDbCircle
 10
221.1714118372384
 20
215.0916838475158
 30
0.0
 40
1.5
100
AcDbArc
 50
218.8090100000005
 51
315.0
  0
ARC
  5
27A5
330
18
100
AcDbEntity
  8
1
  6
Continuous
100
AcDbCircle
 10
241.0420168372383
 20
231.0732018475158
 30
0.0
 40
27.0
100
AcDbArc
 50
171.19099
 51
188.809
  0
ARC
  5
27A6
330
18
100
AcDbEntity
  8
1
  6
Continuous
100
AcDbCircle
 10
222.1709228372383
 20
228.8637177475159
 30
0.0
 40
1.5
100
AcDbArc
 50
285.0000099999988
 51
6.677960499999882
  0
LINE
  5
27A7
330
18
100
AcDbEntity
  8
1
  6
Continuous
100
AcDbLine
 10
222.5591528372384
 20
227.4148284475159
 30
0.0
 11
216.2310348372384
 21
225.7192144175158
 31
0.0
  0
LINE
  5
27A8
330
18
100
AcDbEntity
  8
1
  6
Continuous
100
AcDbLine
 10
223.2062018372384
 20
225.0000139475158
 30
0.0
 11
216.8780818372383
 21
223.3043999475158
 31
0.0
  0
ARC
  5
27A9
330
18
100
AcDbEntity
  8
1
  6
Continuous
100
AcDbCircle
 10
215.8428058372384
 20
227.1681000475158
 30
0.0
 40
1.5
100
AcDbArc
 50
188.809
 51
285.000000000001
  0
ARC
  5
27AA
330
18
100
AcDbEntity
  8
1
  6
Continuous
100
AcDbCircle
 10
217.2663118372383
 20
221.8555085475158
 30
0.0
 40
1.5
100
AcDbArc
 50
105.0000099999987
 51
201.1909900000001
  0
ARC
  5
27AB
330
18
100
AcDbEntity
  8
1
  6
Continuous
100
AcDbCircle
 10
223.5944308372384
 20
223.5511261475159
 30
0.0
 40
1.5
100
AcDbArc
 50
23.32203799999973
 51
105.0000000000011
  0
ARC
  5
27AC
330
18
100
AcDbEntity
  8
1
  6
Continuous
100
AcDbCircle
 10
225.8039108372384
 20
219.7241837475158
 30
0.0
 40
1.5
100
AcDbArc
 50
315.0000099999989
 51
36.67796199999907
  0
ARC
  5
27AD
330
18
100
AcDbEntity
  8
1
  6
Continuous
100
AcDbCircle
 10
241.0420168372383
 20
231.0732018475158
 30
0.0
 40
17.5
100
AcDbArc
 50
203.3220400000002
 51
216.6779599999993
  0
ARC
  5
27AE
330
18
100
AcDbEntity
  8
1
  6
Continuous
100
AcDbCircle
 10
215.8428058372384
 20
234.9782998475158
 30
0.0
 40
1.5
100
AcDbArc
 50
74.9999919999989
 51
171.1909999999999
  0
LINE
  5
27AF
330
18
100
AcDbEntity
  8
1
  6
Continuous
100
AcDbLine
 10
217.5448455670045
 20
236.075154284344
 30
0.0
 11
216.2310348372384
 21
236.4271888475158
 31
0.0
  0
ARC
  5
27B0
330
18
100
AcDbEntity
  8
1
  6
Continuous
100
AcDbCircle
 10
241.0420168372383
 20
231.0732018475158
 30
0.0
 40
17.5
100
AcDbArc
 50
176.2427089480352
 51
186.6779599999995
  0
ARC
  5
27B1
330
18
100
AcDbEntity
  8
1
  6
Continuous
100
AcDbCircle
 10
241.0420168372383
 20
231.0732018475158
 30
0.0
 40
17.5
100
AcDbArc
 50
293.3220399999997
 51
306.6779599999998
  0
ARC
  5
27B2
330
18
100
AcDbEntity
  8
1
  6
Continuous
100
AcDbCircle
 10
241.0420168372383
 20
231.0732018475158
 30
0.0
 40
17.5
100
AcDbArc
 50
233.32204
 51
246.67796
  0
LINE
  5
27B3
330
18
100
AcDbEntity
  8
1
  6
Continuous
100
AcDbLine
 10
255.2194608372383
 20
218.663526747516
 30
0.0
 11
259.8519688372383
 21
214.0310208475158
 31
0.0
  0
LINE
  5
27B4
330
18
100
AcDbEntity
  8
1
  6
Continuous
100
AcDbLine
 10
253.4516928372382
 20
216.8957602475159
 30
0.0
 11
258.0841998372383
 21
212.2632538475158
 31
0.0
  0
ARC
  5
27B5
330
18
100
AcDbEntity
  8
1
  6
Continuous
100
AcDbCircle
 10
243.2515008372383
 20
212.2021038475158
 30
0.0
 40
1.5
100
AcDbArc
 50
15.00000600000048
 51
96.67796000000121
  0
ARC
  5
27B6
330
18
100
AcDbEntity
  8
1
  6
Continuous
100
AcDbCircle
 10
241.0420168372383
 20
231.0732018475158
 30
0.0
 40
27.0
100
AcDbArc
 50
261.190989999999
 51
278.809000000001
  0
ARC
  5
27B7
330
18
100
AcDbEntity
  8
1
  6
Continuous
100
AcDbCircle
 10
237.1369188372383
 20
205.8739948475158
 30
0.0
 40
1.5
100
AcDbArc
 50
164.9999899999994
 51
261.1909999999988
  0
LINE
  5
27B8
330
18
100
AcDbEntity
  8
1
  6
Continuous
100
AcDbLine
 10
237.3836458372383
 20
212.590339847516
 30
0.0
 11
235.6880278372384
 21
206.2622178475158
 31
0.0
  0
ARC
  5
27B9
330
18
100
AcDbEntity
  8
1
  6
Continuous
100
AcDbCircle
 10
233.5199378372383
 20
213.6256118475158
 30
0.0
 40
1.5
100
AcDbArc
 50
345.0
 51
66.67796600000047
  0
ARC
  5
27BA
330
18
100
AcDbEntity
  8
1
  6
Continuous
100
AcDbCircle
 10
231.8243268372383
 20
207.2974948475158
 30
0.0
 40
1.5
100
AcDbArc
 50
248.8090000000001
 51
345.0
  0
LINE
  5
27BB
330
18
100
AcDbEntity
  8
1
  6
Continuous
100
AcDbLine
 10
234.9688278372383
 20
213.2373878475158
 30
0.0
 11
233.2732138372383
 21
206.9092648475158
 31
0.0
  0
ARC
  5
27BC
330
18
100
AcDbEntity
  8
1
  6
Continuous
100
AcDbCircle
 10
238.8325328372383
 20
212.2021038475158
 30
0.0
 40
1.5
100
AcDbArc
 50
83.32203100000155
 51
165.0000099999996
  0
ARC
  5
27BD
330
18
100
AcDbEntity
  8
1
  6
Continuous
100
AcDbCircle
 10
241.0420168372383
 20
231.0732018475158
 30
0.0
 40
17.5
100
AcDbArc
 50
263.3220399999988
 51
276.6779600000011
  0
ARC
  5
27BE
330
18
100
AcDbEntity
  8
1
  6
Continuous
100
AcDbCircle
 10
244.9471148372383
 20
205.8739948475158
 30
0.0
 40
1.5
100
AcDbArc
 50
278.809000000001
 51
14.99999899999975
  0
ARC
  5
27BF
330
18
100
AcDbEntity
  8
1
  6
Continuous
100
AcDbCircle
 10
241.0420168372383
 20
231.0732018475158
 30
0.0
 40
27.0
100
AcDbArc
 50
291.1909899999999
 51
308.8089999999985
  0
ARC
  5
27C0
330
18
100
AcDbEntity
  8
1
  6
Continuous
100
AcDbCircle
 10
248.5640958372385
 20
213.6256118475158
 30
0.0
 40
1.5
100
AcDbArc
 50
113.3220500000007
 51
194.9999999999999
  0
ARC
  5
27C1
330
18
100
AcDbEntity
  8
1
  6
Continuous
100
AcDbCircle
 10
250.2597068372383
 20
207.2974948475158
 30
0.0
 40
1.5
100
AcDbArc
 50
195.0000100000004
 51
291.1909899999999
  0
LINE
  5
27C2
330
18
100
AcDbEntity
  8
1
  6
Continuous
100
AcDbLine
 10
247.1152018372383
 20
213.2373878475158
 30
0.0
 11
248.8108158372383
 21
206.9092648475158
 31
0.0
  0
LINE
  5
27C3
330
18
100
AcDbEntity
  8
1
  6
Continuous
100
AcDbLine
 10
244.7003878372384
 20
212.5903408475158
 30
0.0
 11
246.3960018372383
 21
206.2622178475158
 31
0.0
  0
ARC
  5
27C4
330
18
100
AcDbEntity
  8
1
  6
Continuous
100
AcDbCircle
 10
257.0235388372383
 20
211.2025928475158
 30
0.0
 40
1.5
100
AcDbArc
 50
308.8089999999985
 51
45.00000099999978
  0
ARC
  5
27C7
330
18
100
AcDbEntity
  8
1
  6
Continuous
100
AcDbCircle
 10
229.6930028372385
 20
215.8350998475158
 30
0.0
 40
1.5
100
AcDbArc
 50
53.32204000000015
 51
135.0
  0
ARC
  5
27C9
330
18
100
AcDbEntity
  8
1
  6
Continuous
100
AcDbCircle
 10
252.3910308372385
 20
215.8350998475158
 30
0.0
 40
1.5
100
AcDbArc
 50
45.00000099999978
 51
126.6779599999997
  0
ARC
  5
27CB
330
18
100
AcDbEntity
  8
1
  6
Continuous
100
AcDbCircle
 10
256.2801228372383
 20
219.7241837475158
 30
0.0
 40
1.5
100
AcDbArc
 50
143.3220400000005
 51
225.0
  0
ARC
  5
27CC
330
18
100
AcDbEntity
  8
1
  6
Continuous
100
AcDbCircle
 10
258.4896028372384
 20
223.5511261475159
 30
0.0
 40
1.5
100
AcDbArc
 50
75.0000060000011
 51
156.6779699999998
  0
ARC
  5
27CD
330
18
100
AcDbEntity
  8
1
  6
Continuous
100
AcDbCircle
 10
241.0420168372383
 20
231.0732018475158
 30
0.0
 40
17.5
100
AcDbArc
 50
323.3220400000005
 51
336.6779599999998
  0
ARC
  5
27F9
330
18
100
AcDbEntity
  8
1
  6
Continuous
100
AcDbCircle
 10
241.0420168372383
 20
231.0732018475158
 30
0.0
 40
27.0
100
AcDbArc
 50
321.1910000000007
 51
338.8090099999997
  0
ARC
  5
27FA
330
18
100
AcDbEntity
  8
1
  6
Continuous
100
AcDbCircle
 10
241.0420168372383
 20
231.0732018475158
 30
0.0
 40
27.0
100
AcDbArc
 50
351.1909999999998
 51
3.116754568273593
  0
ARC
  5
27FB
330
18
100
AcDbEntity
  8
1
  6
Continuous
100
AcDbCircle
 10
266.241227837238
 20
227.1681000475158
 30
0.0
 40
1.5
100
AcDbArc
 50
254.9999999999988
 51
351.1909999999998
  0
ARC
  5
27FC
330
18
100
AcDbEntity
  8
1
  6
Continuous
100
AcDbCircle
 10
264.8177198372383
 20
221.8555085475158
 30
0.0
 40
1.5
100
AcDbArc
 50
338.8090099999997
 51
74.9999919999989
  0
ARC
  5
2834
330
18
100
AcDbEntity
  8
1
  6
Continuous
100
AcDbCircle
 10
595.4110979190399
 20
231.0732018475158
 30
0.0
 40
30.0
100
AcDbArc
 50
173.0087553866458
 51
16.24265438373575
  0
ARC
  5
2835
330
18
100
AcDbEntity
  8
1
  6
Continuous
100
AcDbCircle
 10
595.4110979190399
 20
231.0732018475158
 30
0.0
 40
16.5
100
AcDbArc
 50
201.2722629160397
 51
1.828951325983719
  0
ARC
  5
2836
330
18
100
AcDbEntity
  8
1
  6
Continuous
100
AcDbCircle
 10
595.4110979190399
 20
231.0732018475158
 30
0.0
 40
12.5
100
AcDbArc
 50
271.6083311375235
 51
346.4535839601416
  0
ARC
  5
2837
330
18
100
AcDbEntity
  8
1
  6
Continuous
100
AcDbCircle
 10
597.6205819190401
 20
212.2021038475158
 30
0.0
 40
1.5
100
AcDbArc
 50
14.99999000000025
 51
96.67796899999846
  0
ARC
  5
2838
330
18
100
AcDbEntity
  8
1
  6
Continuous
100
AcDbCircle
 10
615.28170291904
 20
215.0916838475158
 30
0.0
 40
1.5
100
AcDbArc
 50
225.0
 51
321.1909899999993
  0
LINE
  5
2839
330
18
100
AcDbEntity
  8
1
  6
Continuous
100
AcDbLine
 10
599.0694689190401
 20
212.590339847516
 30
0.0
 11
600.7650869190397
 21
206.2622178475158
 31
0.0
  0
LINE
  5
283A
330
18
100
AcDbEntity
  8
1
  6
Continuous
100
AcDbLine
 10
601.4842869190397
 20
213.2373878475158
 30
0.0
 11
603.1799009190397
 21
206.9092648475158
 31
0.0
  0
ARC
  5
283B
330
18
100
AcDbEntity
  8
1
  6
Continuous
100
AcDbCircle
 10
611.39261991904
 20
211.2025928475158
 30
0.0
 40
1.5
100
AcDbArc
 50
308.8089999999985
 51
45.0
  0
ARC
  5
283C
330
18
100
AcDbEntity
  8
1
  6
Continuous
100
AcDbCircle
 10
595.4110979190399
 20
231.0732018475158
 30
0.0
 40
27.0
100
AcDbArc
 50
291.1909999999997
 51
308.8090099999981
  0
ARC
  5
283D
330
18
100
AcDbEntity
  8
1
  6
Continuous
100
AcDbCircle
 10
599.3161959190397
 20
205.8739948475158
 30
0.0
 40
1.5
100
AcDbArc
 50
278.809000000001
 51
15.00001000000056
  0
ARC
  5
283E
330
18
100
AcDbEntity
  8
1
  6
Continuous
100
AcDbCircle
 10
604.62878791904
 20
207.2974948475158
 30
0.0
 40
1.5
100
AcDbArc
 50
194.9999999999999
 51
291.1909999999997
  0
ARC
  5
283F
330
18
100
AcDbEntity
  8
1
  6
Continuous
100
AcDbCircle
 10
606.7601119190397
 20
215.8350998475158
 30
0.0
 40
1.5
100
AcDbArc
 50
45.0
 51
126.6779599999997
  0
ARC
  5
2840
330
18
100
AcDbEntity
  8
1
  6
Continuous
100
AcDbCircle
 10
595.4110979190399
 20
231.0732018475158
 30
0.0
 40
17.5
100
AcDbArc
 50
293.3220399999997
 51
306.6779599999998
  0
LINE
  5
2841
330
18
100
AcDbEntity
  8
1
  6
Continuous
100
AcDbLine
 10
607.8207739190401
 20
216.8957583475158
 30
0.0
 11
612.45328091904
 21
212.2632518475158
 31
0.0
  0
ARC
  5
2842
330
18
100
AcDbEntity
  8
1
  6
Continuous
100
AcDbCircle
 10
602.9331769190397
 20
213.6256118475158
 30
0.0
 40
1.5
100
AcDbArc
 50
113.3220339999995
 51
194.9999999999999
  0
ARC
  5
2843
330
18
100
AcDbEntity
  8
1
  6
Continuous
100
AcDbCircle
 10
595.4110979190399
 20
231.0732018475158
 30
0.0
 40
17.5
100
AcDbArc
 50
323.3220400000005
 51
336.6779599999998
  0
LINE
  5
2844
330
18
100
AcDbEntity
  8
1
  6
Continuous
100
AcDbLine
 10
609.5885419190397
 20
218.6635257475159
 30
0.0
 11
614.2210459190397
 21
214.0310188475159
 31
0.0
  0
ARC
  5
2845
330
18
100
AcDbEntity
  8
1
  6
Continuous
100
AcDbCircle
 10
610.64920391904
 20
219.7241837475158
 30
0.0
 40
1.5
100
AcDbArc
 50
143.3220380000008
 51
224.9999900000012
  0
ARC
  5
2846
330
18
100
AcDbEntity
  8
1
  6
Continuous
100
AcDbCircle
 10
614.2821919190397
 20
228.8637177475159
 30
0.0
 40
1.5
100
AcDbArc
 50
173.3220395
 51
254.9999900000011
  0
LINE
  5
2847
330
18
100
AcDbEntity
  8
1
  6
Continuous
100
AcDbLine
 10
613.2469129190398
 20
225.0000139475158
 30
0.0
 11
619.57503291904
 21
223.3043999475158
 31
0.0
  0
LINE
  5
2848
330
18
100
AcDbEntity
  8
1
  6
Continuous
100
AcDbLine
 10
613.8939619190397
 20
227.4148284475159
 30
0.0
 11
620.2220799190397
 21
225.7192144175158
 31
0.0
  0
ARC
  5
2849
330
18
100
AcDbEntity
  8
1
  6
Continuous
100
AcDbCircle
 10
612.8586839190401
 20
223.5511261475159
 30
0.0
 40
1.5
100
AcDbArc
 50
74.99999999999885
 51
156.6779620000001
  0
ARC
  5
284A
330
18
100
AcDbEntity
  8
1
  6
Continuous
100
AcDbCircle
 10
595.4110979190399
 20
231.0732018475158
 30
0.0
 40
17.5
100
AcDbArc
 50
353.3220400000001
 51
3.757291051964768
  0
ARC
  5
284B
330
18
100
AcDbEntity
  8
1
  6
Continuous
100
AcDbCircle
 10
620.6103089190397
 20
234.9782998475158
 30
0.0
 40
1.5
100
AcDbArc
 50
8.809000000000033
 51
105.0000080000009
  0
LINE
  5
284C
330
18
100
AcDbEntity
  8
1
  6
Continuous
100
AcDbLine
 10
618.9082691892735
 20
236.075154284344
 30
0.0
 11
620.2220799190397
 21
236.4271888475158
 31
0.0
  0
ARC
  5
284D
330
18
100
AcDbEntity
  8
1
  6
Continuous
100
AcDbCircle
 10
595.4110979190399
 20
231.0732018475158
 30
0.0
 40
27.0
100
AcDbArc
 50
351.1909999999998
 51
8.809009999999819
  0
ARC
  5
284E
330
18
100
AcDbEntity
  8
1
  6
Continuous
100
AcDbCircle
 10
619.18680291904
 20
221.8555085475158
 30
0.0
 40
1.5
100
AcDbArc
 50
338.8090099999997
 51
74.99999000000125
  0
ARC
  5
284F
330
18
100
AcDbEntity
  8
1
  6
Continuous
100
AcDbCircle
 10
595.4110979190399
 20
231.0732018475158
 30
0.0
 40
27.0
100
AcDbArc
 50
321.1909899999993
 51
338.8089999999998
  0
ARC
  5
2850
330
18
100
AcDbEntity
  8
1
  6
Continuous
100
AcDbCircle
 10
620.6103089190397
 20
227.1681000475158
 30
0.0
 40
1.5
100
AcDbArc
 50
254.9999999999988
 51
351.1909999999998
  0
ARC
  5
2851
330
18
100
AcDbEntity
  8
1
  6
Continuous
100
AcDbCircle
 10
595.4110979190399
 20
231.0732018475158
 30
0.0
 40
17.5
100
AcDbArc
 50
263.3220399999988
 51
276.6779600000011
  0
ARC
  5
2852
330
18
100
AcDbEntity
  8
1
  6
Continuous
100
AcDbCircle
 10
595.4110979190399
 20
231.0732018475158
 30
0.0
 40
27.0
100
AcDbArc
 50
261.1909999999988
 51
278.8090100000008
  0
ARC
  5
2853
330
18
100
AcDbEntity
  8
1
  6
Continuous
100
AcDbCircle
 10
591.50599991904
 20
205.8739948475158
 30
0.0
 40
1.5
100
AcDbArc
 50
165.0000010000002
 51
261.1909999999988
  0
ARC
  5
2854
330
18
100
AcDbEntity
  8
1
  6
Continuous
100
AcDbCircle
 10
586.19340791904
 20
207.2974948475158
 30
0.0
 40
1.5
100
AcDbArc
 50
248.8090099999999
 51
344.9999899999994
  0
ARC
  5
2855
330
18
100
AcDbEntity
  8
1
  6
Continuous
100
AcDbCircle
 10
595.4110979190399
 20
231.0732018475158
 30
0.0
 40
27.0
100
AcDbArc
 50
231.1910000000014
 51
248.8090099999999
  0
LINE
  5
2856
330
18
100
AcDbEntity
  8
1
  6
Continuous
100
AcDbLine
 10
589.33791291904
 20
213.2373878475158
 30
0.0
 11
587.64229891904
 21
206.9092648475158
 31
0.0
  0
LINE
  5
2857
330
18
100
AcDbEntity
  8
1
  6
Continuous
100
AcDbLine
 10
591.75272691904
 20
212.5903408475158
 30
0.0
 11
590.05711291904
 21
206.2622178475158
 31
0.0
  0
ARC
  5
2858
330
18
100
AcDbEntity
  8
1
  6
Continuous
100
AcDbCircle
 10
593.20161391904
 20
212.2021038475158
 30
0.0
 40
1.5
100
AcDbArc
 50
83.32203999999881
 51
164.9999939999995
  0
ARC
  5
2859
330
18
100
AcDbEntity
  8
1
  6
Continuous
100
AcDbCircle
 10
595.4110979190399
 20
231.0732018475158
 30
0.0
 40
17.5
100
AcDbArc
 50
233.32204
 51
246.67796
  0
ARC
  5
285A
330
18
100
AcDbEntity
  8
1
  6
Continuous
100
AcDbCircle
 10
587.8890189190398
 20
213.6256118475158
 30
0.0
 40
1.5
100
AcDbArc
 50
345.0
 51
66.67794999999927
  0
LINE
  5
285B
330
18
100
AcDbEntity
  8
1
  6
Continuous
100
AcDbLine
 10
583.0014219190401
 20
216.8957602475159
 30
0.0
 11
578.3689149190401
 21
212.2632538475158
 31
0.0
  0
ARC
  5
285C
330
18
100
AcDbEntity
  8
1
  6
Continuous
100
AcDbCircle
 10
580.1729919190401
 20
219.7241837475158
 30
0.0
 40
1.5
100
AcDbArc
 50
315.0
 51
36.67795999999939
  0
LINE
  5
285D
330
18
100
AcDbEntity
  8
1
  6
Continuous
100
AcDbLine
 10
581.23365391904
 20
218.663526747516
 30
0.0
 11
576.6011459190397
 21
214.0310208475158
 31
0.0
  0
ARC
  5
285E
330
18
100
AcDbEntity
  8
1
  6
Continuous
100
AcDbCircle
 10
584.0620839190399
 20
215.8350998475158
 30
0.0
 40
1.5
100
AcDbArc
 50
53.32204000000015
 51
134.9999990000002
  0
ARC
  5
285F
330
18
100
AcDbEntity
  8
1
  6
Continuous
100
AcDbCircle
 10
595.4110979190399
 20
231.0732018475158
 30
0.0
 40
17.5
100
AcDbArc
 50
203.3220400000002
 51
216.6779599999993
  0
LINE
  5
2860
330
18
100
AcDbEntity
  8
1
  6
Continuous
100
AcDbLine
 10
577.5752899190397
 20
225.0000149475158
 30
0.0
 11
571.2471649190397
 21
223.3043999475158
 31
0.0
  0
ARC
  5
2861
330
18
100
AcDbEntity
  8
1
  6
Continuous
100
AcDbCircle
 10
577.9635119190401
 20
223.5511261475159
 30
0.0
 40
1.5
100
AcDbArc
 50
23.32203000000006
 51
104.9999939999989
  0
ARC
  5
2862
330
18
100
AcDbEntity
  8
1
  6
Continuous
100
AcDbCircle
 10
571.6353949190398
 20
221.8555085475158
 30
0.0
 40
1.5
100
AcDbArc
 50
105.0000080000009
 51
201.1909900000001
  0
ARC
  5
2863
330
18
100
AcDbEntity
  8
1
  6
Continuous
100
AcDbCircle
 10
595.4110979190399
 20
231.0732018475158
 30
0.0
 40
27.0
100
AcDbArc
 50
201.1909900000001
 51
218.8089999999991
  0
ARC
  5
2864
330
18
100
AcDbEntity
  8
1
  6
Continuous
100
AcDbCircle
 10
575.5404929190397
 20
215.0916838475158
 30
0.0
 40
1.5
100
AcDbArc
 50
218.8089999999991
 51
315.0
  0
ARC
  5
2865
330
18
100
AcDbEntity
  8
1
  6
Continuous
100
AcDbCircle
 10
579.4295759190397
 20
211.2025928475158
 30
0.0
 40
1.5
100
AcDbArc
 50
134.9999990000002
 51
231.1910000000014
  0
LINE
  5
2866
330
18
100
AcDbEntity
  8
1
  6
Continuous
100
AcDbLine
 10
576.2985898266459
 20
227.2461151396595
 30
0.0
 11
570.60011591904
 21
225.7192145075159
 31
0.0
  0
ARC
  5
2867
330
18
100
AcDbEntity
  8
1
  6
Continuous
100
AcDbCircle
 10
595.4110979190399
 20
231.0732018475158
 30
0.0
 40
27.0
100
AcDbArc
 50
176.8832454317264
 51
188.809
  0
ARC
  5
2868
330
18
100
AcDbEntity
  8
1
  6
Continuous
100
AcDbCircle
 10
570.2118869190401
 20
227.1681000475158
 30
0.0
 40
1.5
100
AcDbArc
 50
188.809
 51
285.000000000001
  0
ENDSEC
  0
SECTION
  2
OBJECTS
  0
DICTIONARY
  5
C
330
0
100
AcDbDictionary
281
     1
  3
ACAD_CIP_PREVIOUS_PRODUCT_INFO
350
28FD
  3
ACAD_COLOR
350
28E0
  3
ACAD_DETAILVIEWSTYLE
350
28F9
  3
ACAD_GROUP
350
D
  3
ACAD_LAYOUT
350
94
  3
ACAD_MATERIAL
350
28AE
  3
ACAD_MLEADERSTYLE
350
28F5
  3
ACAD_MLINESTYLE
350
1B
  3
ACAD_PLOTSETTINGS
350
95
  3
ACAD_PLOTSTYLENAME
350
28AC
  3
ACAD_SCALELIST
350
28E3
  3
ACAD_SECTIONVIEWSTYLE
350
28F7
  3
ACAD_TABLESTYLE
350
28E1
  3
ACAD_VISUALSTYLE
350
28C7
  3
ACDB_RECOMPOSE_DATA
350
291B
  3
AcDbVariableDictionary
350
290E
  3
CONTENTDICTIONARY
350
3D
  3
DWGPROPS
350
291C
  0
DICTIONARY
  5
28FE
330
E
100
AcDbDictionary
280
     1
281
     1
  3
ADSK_XREC_LAYER_RECONCILED
360
28FF
  0
DICTIONARY
  5
2900
330
4E
100
AcDbDictionary
280
     1
281
     1
  3
ADSK_XREC_LAYER_RECONCILED
360
2901
  0
DICTIONARY
  5
2902
330
4F
100
AcDbDictionary
280
     1
281
     1
  3
ADSK_XREC_LAYER_RECONCILED
360
2903
  0
DICTIONARY
  5
2904
330
50
100
AcDbDictionary
280
     1
281
     1
  3
ADSK_XREC_LAYER_RECONCILED
360
2905
  0
DICTIONARY
  5
2906
330
51
100
AcDbDictionary
280
     1
281
     1
  3
ADSK_XREC_LAYER_RECONCILED
360
2907
  0
DICTIONARY
  5
2908
330
52
100
AcDbDictionary
280
     1
281
     1
  3
ADSK_XREC_LAYER_RECONCILED
360
2909
  0
DICTIONARY
  5
290A
330
53
100
AcDbDictionary
280
     1
281
     1
  3
ADSK_XREC_LAYER_RECONCILED
360
290B
  0
DICTIONARY
  5
290C
330
54
100
AcDbDictionary
280
     1
281
     1
  3
ADSK_XREC_LAYER_RECONCILED
360
290D
  0
DICTIONARY
  5
2893
330
18
100
AcDbDictionary
281
     1
  3
ACAD_LAYOUTSELFREF
350
28A8
  0
DICTIONARY
  5
2891
330
15
100
AcDbDictionary
281
     1
  3
ACAD_LAYOUTSELFREF
350
28A7
  0
XRECORD
  5
28FD
102
{ACAD_REACTORS
330
C
102
}
330
C
100
AcDbXrecord
280
     1
300
ACDLT
300
2014
300
ACDLT_F_S
  0
DICTIONARY
  5
28E0
102
{ACAD_REACTORS
330
C
102
}
330
C
100
AcDbDictionary
281
     1
  0
DICTIONARY
  5
28F9
102
{ACAD_REACTORS
330
C
102
}
330
C
100
AcDbDictionary
281
     1
  3
Imperial24
350
28FA
  0
DICTIONARY
  5
D
102
{ACAD_REACTORS
330
C
102
}
330
C
100
AcDbDictionary
281
     1
  0
DICTIONARY
  5
94
102
{ACAD_REACTORS
330
C
102
}
330
C
100
AcDbDictionary
281
     1
  3
Model
350
28FB
  3
レイアウト1
350
28FC
  0
DICTIONARY
  5
28AE
102
{ACAD_REACTORS
330
C
102
}
330
C
100
AcDbDictionary
281
     1
  3
ByBlock
350
28B7
  3
ByLayer
350
28AF
  3
Global
350
28BF
  0
DICTIONARY
  5
28F5
102
{ACAD_REACTORS
330
C
102
}
330
C
100
AcDbDictionary
281
     1
  3
Standard
350
28F6
  0
DICTIONARY
  5
1B
102
{ACAD_REACTORS
330
C
102
}
330
C
100
AcDbDictionary
281
     1
  3
STANDARD
350
1C
  0
DICTIONARY
  5
95
102
{ACAD_REACTORS
330
C
102
}
330
C
100
AcDbDictionary
281
     1
  0
ACDBDICTIONARYWDFLT
  5
28AC
102
{ACAD_REACTORS
330
C
102
}
330
C
100
AcDbDictionary
281
     1
  3
Normal
350
28AD
100
AcDbDictionaryWithDefault
340
28AD
  0
DICTIONARY
  5
28E3
102
{ACAD_REACTORS
330
C
102
}
330
C
100
AcDbDictionary
281
     1
  3
A0
350
28E4
  3
A1
350
28E5
  3
A2
350
28E6
  3
A3
350
28E7
  3
A4
350
28E8
  3
A5
350
28E9
  3
A6
350
28EA
  3
A7
350
28EB
  3
A8
350
28EC
  3
A9
350
28ED
  3
B0
350
28EE
  3
B1
350
28EF
  3
B2
350
28F0
  3
B3
350
28F1
  3
B4
350
28F2
  3
B5
350
28F3
  3
B6
350
28F4
  0
DICTIONARY
  5
28F7
102
{ACAD_REACTORS
330
C
102
}
330
C
100
AcDbDictionary
281
     1
  3
Imperial24
350
28F8
  0
DICTIONARY
  5
28E1
102
{ACAD_REACTORS
330
C
102
}
330
C
100
AcDbDictionary
281
     1
  3
Standard
350
28E2
  0
DICTIONARY
  5
28C7
102
{ACAD_REACTORS
330
C
102
}
330
C
100
AcDbDictionary
281
     1
  3
2dWireframe
350
28CD
  3
Basic
350
28CC
  3
Brighten
350
28D3
  3
ColorChange
350
28D7
  3
Conceptual
350
28D0
  3
Dim
350
28D2
  3
EdgeColorOff
350
28DF
  3
Facepattern
350
28D6
  3
Flat
350
28C8
  3
FlatWithEdges
350
28C9
  3
Gouraud
350
28CA
  3
GouraudWithEdges
350
28CB
  3
Hidden
350
28CF
  3
JitterOff
350
28DD
  3
Linepattern
350
28D5
  3
OverhangOff
350
28DE
  3
Realistic
350
28D1
  3
Shaded
350
28DC
  3
Shaded with edges
350
28DB
  3
Shades of Gray
350
28D8
  3
Sketchy
350
28D9
  3
Thicken
350
28D4
  3
Wireframe
350
28CE
  3
X-Ray
350
28DA
  0
XRECORD
  5
291B
102
{ACAD_REACTORS
330
C
102
}
330
C
100
AcDbXrecord
280
     1
 90
        1
330
28E2
  0
DICTIONARY
  5
290E
102
{ACAD_REACTORS
330
C
102
}
330
C
100
AcDbDictionary
281
     1
  3
CANNOSCALE
350
2913
  3
CMLEADERSTYLE
350
2910
  3
CTABLESTYLE
350
290F
  3
CVIEWDETAILSTYLE
350
2911
  3
CVIEWSECTIONSTYLE
350
2912
  3
DIMASSOC
350
2916
  3
INDEXCTL
350
2915
  3
SORTENTS
350
2914
  3
XCLIPFRAME
350
2917
  0
DICTIONARY
  5
3D
102
{ACAD_REACTORS
330
C
102
}
330
C
100
AcDbDictionary
281
     1
  0
XRECORD
  5
291C
102
{ACAD_REACTORS
330
C
102
}
330
C
100
AcDbXrecord
280
     1
  1
DWGPROPS COOKIE
  2

  3

  4

  6

  7

  8
Yoshitsune
  9

300
=
301
=
302
=
303
=
304
=
305
=
306
=
307
=
308
=
309
=
 40
0.2908388773148148
 41
2452933.409272639
 42
2457192.690996227
  1

 90
        0
  0
XRECORD
  5
28FF
102
{ACAD_REACTORS
330
28FE
102
}
330
28FE
100
AcDbXrecord
280
     1
290
     1
  0
XRECORD
  5
2901
102
{ACAD_REACTORS
330
2900
102
}
330
2900
100
AcDbXrecord
280
     1
290
     1
  0
XRECORD
  5
2903
102
{ACAD_REACTORS
330
2902
102
}
330
2902
100
AcDbXrecord
280
     1
290
     1
  0
XRECORD
  5
2905
102
{ACAD_REACTORS
330
2904
102
}
330
2904
100
AcDbXrecord
280
     1
290
     1
  0
XRECORD
  5
2907
102
{ACAD_REACTORS
330
2906
102
}
330
2906
100
AcDbXrecord
280
     1
290
     1
  0
XRECORD
  5
2909
102
{ACAD_REACTORS
330
2908
102
}
330
2908
100
AcDbXrecord
280
     1
290
     1
  0
XRECORD
  5
290B
102
{ACAD_REACTORS
330
290A
102
}
330
290A
100
AcDbXrecord
280
     1
290
     1
  0
XRECORD
  5
290D
102
{ACAD_REACTORS
330
290C
102
}
330
290C
100
AcDbXrecord
280
     1
290
     1
  0
XRECORD
  5
28A8
102
{ACAD_REACTORS
330
2893
102
}
330
2893
100
AcDbXrecord
280
     1
340
18
  0
XRECORD
  5
28A7
102
{ACAD_REACTORS
330
2891
102
}
330
2891
100
AcDbXrecord
280
     1
340
15
  0
ACDBDETAILVIEWSTYLE
  5
28FA
102
{ACAD_XDICTIONARY
360
2954
102
}
102
{ACAD_REACTORS
330
28F9
102
}
330
28F9
100
AcDbModelDocViewStyle
 70
     0
  3
Imperial24
290
     0
100
AcDbDetailViewStyle
 70
     0
 71
     0
 90
        3
 71
     1
340
F
 40
0.24
340
0
 40
0.24
300

 40
0.36
280
     3
 71
     2
340
14
 90
       25
 71
     3
340
F
 40
0.24
 90
        1
 40
0.75
 90
        1
300
%<\AcVar ViewType \f "%tc1">% %<\AcVar ViewDetailId>%\PSCALE %<\AcVar ViewScale \f "%sn">%
 71
     4
340
14
 90
       25
340
14
 90
       25
280
     0
  0
LAYOUT
  5
28FB
102
{ACAD_XDICTIONARY
360
2956
102
}
102
{ACAD_REACTORS
330
94
102
}
330
94
100
AcDbPlotSettings
  1

  2
Canon LBP9100C
  4

  6

 40
0.0
 41
0.0
 42
0.0
 43
0.0
 44
0.0
 45
0.0
 46
0.0
 47
0.0
 48
0.0
 49
0.0
140
0.0
141
0.0
142
1.0
143
1.0
 70
  1712
 72
     0
 73
     0
 74
     0
  7

 75
     0
147
1.0
148
0.0
149
0.0
100
AcDbLayout
  1
Model
 70
     1
 71
     0
 10
0.0
 20
0.0
 11
12.0
 21
9.0
 12
0.0
 22
0.0
 32
0.0
 14
0.0
 24
0.0
 34
0.0
 15
0.0
 25
0.0
 35
0.0
146
0.0
 13
0.0
 23
0.0
 33
0.0
 16
1.0
 26
0.0
 36
0.0
 17
0.0
 27
1.0
 37
0.0
 76
     0
330
18
331
28A6
  0
LAYOUT
  5
28FC
102
{ACAD_XDICTIONARY
360
2958
102
}
102
{ACAD_REACTORS
330
94
102
}
330
94
100
AcDbPlotSettings
  1

  2
Canon LBP9100C
  4

  6

 40
0.0
 41
0.0
 42
0.0
 43
0.0
 44
0.0
 45
0.0
 46
0.0
 47
0.0
 48
0.0
 49
0.0
140
0.0
141
0.0
142
1.0
143
1.0
 70
   688
 72
     0
 73
     0
 74
     5
  7

 75
    16
147
1.0
148
0.0
149
0.0
100
AcDbLayout
  1
レイアウト1
 70
     1
 71
     1
 10
0.0
 20
0.0
 11
420.0
 21
297.0
 12
0.0
 22
0.0
 32
0.0
 14
1.000000000000000E+20
 24
1.000000000000000E+20
 34
1.000000000000000E+20
 15
-1.000000000000000E+20
 25
-1.000000000000000E+20
 35
-1.000000000000000E+20
146
0.0
 13
0.0
 23
0.0
 33
0.0
 16
1.0
 26
0.0
 36
0.0
 17
0.0
 27
1.0
 37
0.0
 76
     0
330
15
  0
MATERIAL
  5
28B7
102
{ACAD_XDICTIONARY
360
28B8
102
}
102
{ACAD_REACTORS
330
28AE
102
}
330
28AE
100
AcDbMaterial
  1
ByBlock
 72
     0
 43
0.0208333333333333
 43
0.0
 43
0.0
 43
0.0
 43
0.0
 43
0.0208333333333333
 43
0.0
 43
0.0
 43
0.0
 43
0.0
 43
1.0
 43
0.0
 43
0.0
 43
0.0
 43
0.0
 43
1.0
 77
     0
 47
0.0208333333333333
 47
0.0
 47
0.0
 47
0.0
 47
0.0
 47
0.0208333333333333
 47
0.0
 47
0.0
 47
0.0
 47
0.0
 47
1.0
 47
0.0
 47
0.0
 47
0.0
 47
0.0
 47
1.0
171
     0
 49
0.0208333333333333
 49
0.0
 49
0.0
 49
0.0
 49
0.0
 49
0.0208333333333333
 49
0.0
 49
0.0
 49
0.0
 49
0.0
 49
1.0
 49
0.0
 49
0.0
 49
0.0
 49
0.0
 49
1.0
175
     0
142
0.0208333333333333
142
0.0
142
0.0
142
0.0
142
0.0
142
0.0208333333333333
142
0.0
142
0.0
142
0.0
142
0.0
142
1.0
142
0.0
142
0.0
142
0.0
142
0.0
142
1.0
179
     0
144
0.0208333333333333
144
0.0
144
0.0
144
0.0
144
0.0
144
0.0208333333333333
144
0.0
144
0.0
144
0.0
144
0.0
144
1.0
144
0.0
144
0.0
144
0.0
144
0.0
144
1.0
147
0.0208333333333333
147
0.0
147
0.0
147
0.0
147
0.0
147
0.0208333333333333
147
0.0
147
0.0
147
0.0
147
0.0
147
1.0
147
0.0
147
0.0
147
0.0
147
0.0
147
1.0
  0
MATERIAL
  5
28AF
102
{ACAD_XDICTIONARY
360
28B0
102
}
102
{ACAD_REACTORS
330
28AE
102
}
330
28AE
100
AcDbMaterial
  1
ByLayer
 72
     0
 43
0.0208333333333333
 43
0.0
 43
0.0
 43
0.0
 43
0.0
 43
0.0208333333333333
 43
0.0
 43
0.0
 43
0.0
 43
0.0
 43
1.0
 43
0.0
 43
0.0
 43
0.0
 43
0.0
 43
1.0
 77
     0
 47
0.0208333333333333
 47
0.0
 47
0.0
 47
0.0
 47
0.0
 47
0.0208333333333333
 47
0.0
 47
0.0
 47
0.0
 47
0.0
 47
1.0
 47
0.0
 47
0.0
 47
0.0
 47
0.0
 47
1.0
171
     0
 49
0.0208333333333333
 49
0.0
 49
0.0
 49
0.0
 49
0.0
 49
0.0208333333333333
 49
0.0
 49
0.0
 49
0.0
 49
0.0
 49
1.0
 49
0.0
 49
0.0
 49
0.0
 49
0.0
 49
1.0
175
     0
142
0.0208333333333333
142
0.0
142
0.0
142
0.0
142
0.0
142
0.0208333333333333
142
0.0
142
0.0
142
0.0
142
0.0
142
1.0
142
0.0
142
0.0
142
0.0
142
0.0
142
1.0
179
     0
144
0.0208333333333333
144
0.0
144
0.0
144
0.0
144
0.0
144
0.0208333333333333
144
0.0
144
0.0
144
0.0
144
0.0
144
1.0
144
0.0
144
0.0
144
0.0
144
0.0
144
1.0
147
0.0208333333333333
147
0.0
147
0.0
147
0.0
147
0.0
147
0.0208333333333333
147
0.0
147
0.0
147
0.0
147
0.0
147
1.0
147
0.0
147
0.0
147
0.0
147
0.0
147
1.0
  0
MATERIAL
  5
28BF
102
{ACAD_XDICTIONARY
360
28C0
102
}
102
{ACAD_REACTORS
330
28AE
102
}
330
28AE
100
AcDbMaterial
  1
Global
 72
     0
 43
0.0208333333333333
 43
0.0
 43
0.0
 43
0.0
 43
0.0
 43
0.0208333333333333
 43
0.0
 43
0.0
 43
0.0
 43
0.0
 43
1.0
 43
0.0
 43
0.0
 43
0.0
 43
0.0
 43
1.0
 77
     0
 47
0.0208333333333333
 47
0.0
 47
0.0
 47
0.0
 47
0.0
 47
0.0208333333333333
 47
0.0
 47
0.0
 47
0.0
 47
0.0
 47
1.0
 47
0.0
 47
0.0
 47
0.0
 47
0.0
 47
1.0
171
     0
 49
0.0208333333333333
 49
0.0
 49
0.0
 49
0.0
 49
0.0
 49
0.0208333333333333
 49
0.0
 49
0.0
 49
0.0
 49
0.0
 49
1.0
 49
0.0
 49
0.0
 49
0.0
 49
0.0
 49
1.0
175
     0
142
0.0208333333333333
142
0.0
142
0.0
142
0.0
142
0.0
142
0.0208333333333333
142
0.0
142
0.0
142
0.0
142
0.0
142
1.0
142
0.0
142
0.0
142
0.0
142
0.0
142
1.0
179
     0
144
0.0208333333333333
144
0.0
144
0.0
144
0.0
144
0.0
144
0.0208333333333333
144
0.0
144
0.0
144
0.0
144
0.0
144
1.0
144
0.0
144
0.0
144
0.0
144
0.0
144
1.0
147
0.0208333333333333
147
0.0
147
0.0
147
0.0
147
0.0
147
0.0208333333333333
147
0.0
147
0.0
147
0.0
147
0.0
147
1.0
147
0.0
147
0.0
147
0.0
147
0.0
147
1.0
  0
MLEADERSTYLE
  5
28F6
102
{ACAD_REACTORS
330
28F5
102
}
330
28F5
100
AcDbMLeaderStyle
170
     2
171
     1
172
     0
 90
        2
 40
0.0
 41
0.0
173
     1
 91
-1056964608
340
12
 92
       -2
290
     1
 42
0.09
291
     1
 43
0.36
  3
Standard
 44
0.18
300

342
F
174
     1
178
     6
175
     1
176
     0
 93
-1056964608
 45
0.18
292
     0
297
     0
 46
0.18
 94
-1056964608
 47
1.0
 49
1.0
140
1.0
293
     1
141
0.0
294
     1
177
     0
142
1.0
295
     0
296
     0
143
0.125
1001
ACAD_MLEADERVER
1070
     2
  0
MLINESTYLE
  5
1C
102
{ACAD_REACTORS
330
1B
102
}
330
1B
100
AcDbMlineStyle
  2
STANDARD
 70
     0
  3

 62
   256
 51
90.0
 52
90.0
 71
     2
 49
0.5
 62
   256
  6
BYLAYER
 49
-0.5
 62
   256
  6
BYLAYER
  0
ACDBPLACEHOLDER
  5
28AD
102
{ACAD_REACTORS
330
28AC
102
}
330
28AC
  0
SCALE
  5
28E4
102
{ACAD_REACTORS
330
28E3
102
}
330
28E3
100
AcDbScale
 70
     0
300
1:1
140
1.0
141
1.0
290
     1
  0
SCALE
  5
28E5
102
{ACAD_REACTORS
330
28E3
102
}
330
28E3
100
AcDbScale
 70
     0
300
1/128" = 1'-0"
140
0.0078125
141
12.0
290
     0
  0
SCALE
  5
28E6
102
{ACAD_REACTORS
330
28E3
102
}
330
28E3
100
AcDbScale
 70
     0
300
1/64" = 1'-0"
140
0.015625
141
12.0
290
     0
  0
SCALE
  5
28E7
102
{ACAD_REACTORS
330
28E3
102
}
330
28E3
100
AcDbScale
 70
     0
300
1/32" = 1'-0"
140
0.03125
141
12.0
290
     0
  0
SCALE
  5
28E8
102
{ACAD_REACTORS
330
28E3
102
}
330
28E3
100
AcDbScale
 70
     0
300
1/16" = 1'-0"
140
0.0625
141
12.0
290
     0
  0
SCALE
  5
28E9
102
{ACAD_REACTORS
330
28E3
102
}
330
28E3
100
AcDbScale
 70
     0
300
3/32" = 1'-0"
140
0.09375
141
12.0
290
     0
  0
SCALE
  5
28EA
102
{ACAD_REACTORS
330
28E3
102
}
330
28E3
100
AcDbScale
 70
     0
300
1/8" = 1'-0"
140
0.125
141
12.0
290
     0
  0
SCALE
  5
28EB
102
{ACAD_REACTORS
330
28E3
102
}
330
28E3
100
AcDbScale
 70
     0
300
3/16" = 1'-0"
140
0.1875
141
12.0
290
     0
  0
SCALE
  5
28EC
102
{ACAD_REACTORS
330
28E3
102
}
330
28E3
100
AcDbScale
 70
     0
300
1/4" = 1'-0"
140
0.25
141
12.0
290
     0
  0
SCALE
  5
28ED
102
{ACAD_REACTORS
330
28E3
102
}
330
28E3
100
AcDbScale
 70
     0
300
3/8" = 1'-0"
140
0.375
141
12.0
290
     0
  0
SCALE
  5
28EE
102
{ACAD_REACTORS
330
28E3
102
}
330
28E3
100
AcDbScale
 70
     0
300
1/2" = 1'-0"
140
0.5
141
12.0
290
     0
  0
SCALE
  5
28EF
102
{ACAD_REACTORS
330
28E3
102
}
330
28E3
100
AcDbScale
 70
     0
300
3/4" = 1'-0"
140
0.75
141
12.0
290
     0
  0
SCALE
  5
28F0
102
{ACAD_REACTORS
330
28E3
102
}
330
28E3
100
AcDbScale
 70
     0
300
1" = 1'-0"
140
1.0
141
12.0
290
     0
  0
SCALE
  5
28F1
102
{ACAD_REACTORS
330
28E3
102
}
330
28E3
100
AcDbScale
 70
     0
300
1-1/2" = 1'-0"
140
1.5
141
12.0
290
     0
  0
SCALE
  5
28F2
102
{ACAD_REACTORS
330
28E3
102
}
330
28E3
100
AcDbScale
 70
     0
300
3" = 1'-0"
140
3.0
141
12.0
290
     0
  0
SCALE
  5
28F3
102
{ACAD_REACTORS
330
28E3
102
}
330
28E3
100
AcDbScale
 70
     0
300
6" = 1'-0"
140
6.0
141
12.0
290
     0
  0
SCALE
  5
28F4
102
{ACAD_REACTORS
330
28E3
102
}
330
28E3
100
AcDbScale
 70
     0
300
1'-0" = 1'-0"
140
12.0
141
12.0
290
     0
  0
ACDBSECTIONVIEWSTYLE
  5
28F8
102
{ACAD_XDICTIONARY
360
2952
102
}
102
{ACAD_REACTORS
330
28F7
102
}
330
28F7
100
AcDbModelDocViewStyle
 70
     0
  3
Imperial24
290
     0
100
AcDbSectionViewStyle
 70
     0
 71
     0
 90
       78
 71
     1
340
F
 40
0.24
340
0
340
0
 40
0.24
300
I, O, Q, S, X, Z
 40
0.48
 90
        3
 40
0.18
 90
        1
 71
     2
340
14
 90
       25
340
14
 90
       50
 40
0.24
 40
0.0
 40
0.24
 71
     3
340
F
 40
0.24
 90
        1
 40
0.75
 90
        1
300
%<\AcVar ViewType \f "%tc1">% %<\AcVar ViewSectionStartId>%-%<\AcVar ViewSectionEndId>%\PSCALE %<\AcVar ViewScale \f "%sn">%
 71
     4
300
ANSI31
 40
1.0
 90
        0
290
     0
290
     0
 90
        6
 40
0.0
 40
1.570796326794896
 40
0.2617993877991494
 40
1.308996938995747
 40
-0.2617993877991494
 40
1.832595714594046
  0
TABLESTYLE
  5
28E2
102
{ACAD_XDICTIONARY
360
2919
102
}
102
{ACAD_REACTORS
330
28E1
102
}
330
28E1
100
AcDbTableStyle
  3
Standard
 70
     0
 71
     0
 40
0.06
 41
0.06
280
     0
281
     0
  7
STANDARD
140
0.18
170
     2
 62
     0
 63
     7
283
     0
274
    -2
284
     1
 64
     0
275
    -2
285
     1
 65
     0
276
    -2
286
     1
 66
     0
277
    -2
287
     1
 67
     0
278
    -2
288
     1
 68
     0
279
    -2
289
     1
 69
     0
  7
STANDARD
140
0.25
170
     5
 62
     0
 63
     7
283
     0
274
    -2
284
     1
 64
     0
275
    -2
285
     1
 65
     0
276
    -2
286
     1
 66
     0
277
    -2
287
     1
 67
     0
278
    -2
288
     1
 68
     0
279
    -2
289
     1
 69
     0
  7
STANDARD
140
0.18
170
     5
 62
     0
 63
     7
283
     0
274
    -2
284
     1
 64
     0
275
    -2
285
     1
 65
     0
276
    -2
286
     1
 66
     0
277
    -2
287
     1
 67
     0
278
    -2
288
     1
 68
     0
279
    -2
289
     1
 69
     0
  0
VISUALSTYLE
  5
28CD
102
{ACAD_XDICTIONARY
360
292A
102
}
102
{ACAD_REACTORS
330
28C7
102
}
330
28C7
100
AcDbVisualStyle
  2
2dWireframe
 70
     4
 71
     0
 72
     2
 73
     0
 90
        0
 40
-0.6
 41
-30.0
 62
     5
 63
     7
 74
     1
 91
        4
 64
     7
 65
   257
 75
     1
175
     1
 42
1.0
 92
        0
 66
   257
 43
1.0
 76
     1
 77
     6
 78
     2
 67
     7
 79
     5
170
     0
171
     0
290
     0
174
     0
 93
        1
 44
0.0
173
     0
291
     0
 45
0.0
1001
ACAD
1000
AcDbSavedByObjectVersion
1070
     0
  0
VISUALSTYLE
  5
28CC
102
{ACAD_XDICTIONARY
360
2928
102
}
102
{ACAD_REACTORS
330
28C7
102
}
330
28C7
100
AcDbVisualStyle
  2
Basic
 70
     7
 71
     1
 72
     0
 73
     1
 90
        0
 40
-0.6
 41
-30.0
 62
     5
 63
     7
 74
     0
 91
        4
 64
     7
 65
   257
 75
     1
175
     1
 42
1.0
 92
        8
 66
     7
 43
1.0
 76
     1
 77
     6
 78
     2
 67
     7
 79
     5
170
     0
171
     0
290
     0
174
     0
 93
        1
 44
0.0
173
     0
291
     1
 45
0.0
1001
ACAD
1000
AcDbSavedByObjectVersion
1070
     0
  0
VISUALSTYLE
  5
28D3
102
{ACAD_XDICTIONARY
360
2936
102
}
102
{ACAD_REACTORS
330
28C7
102
}
330
28C7
100
AcDbVisualStyle
  2
Brighten
 70
    12
 71
     2
 72
     2
 73
     0
 90
        0
 40
-0.6
 41
-30.0
 62
     5
 63
     7
 74
     1
 91
        4
 64
     7
 65
   257
 75
     1
175
     1
 42
1.0
 92
        8
 66
     7
 43
1.0
 76
     1
 77
     6
 78
     2
 67
     7
 79
     5
170
     0
171
     0
290
     0
174
     0
 93
        1
 44
50.0
173
     0
291
     1
 45
0.0
1001
ACAD
1000
AcDbSavedByObjectVersion
1070
     0
  0
VISUALSTYLE
  5
28D7
102
{ACAD_XDICTIONARY
360
293E
102
}
102
{ACAD_REACTORS
330
28C7
102
}
330
28C7
100
AcDbVisualStyle
  2
ColorChange
 70
    16
 71
     2
 72
     2
 73
     3
 90
        0
 40
-0.6
 41
-30.0
 62
     5
 63
     8
 74
     1
 91
        4
 64
     7
 65
   257
 75
     1
175
     1
 42
1.0
 92
        8
 66
     8
 43
1.0
 76
     1
 77
     6
 78
     2
 67
     7
 79
     5
170
     0
171
     0
290
     0
174
     0
 93
        1
 44
0.0
173
     0
291
     1
 45
0.0
1001
ACAD
1000
AcDbSavedByObjectVersion
1070
     0
  0
VISUALSTYLE
  5
28D0
102
{ACAD_XDICTIONARY
360
2930
102
}
102
{ACAD_REACTORS
330
28C7
102
}
330
28C7
100
AcDbVisualStyle
  2
Conceptual
 70
     9
 71
     3
 72
     2
 73
     0
 90
        0
 40
-0.6
 41
-30.0
 62
     5
 63
     7
 74
     2
 91
        2
 64
     7
 65
   257
 75
     1
175
     1
 42
179.0
 92
        8
 66
     7
 43
1.0
 76
     1
 77
     6
 78
     2
 67
     7
 79
     3
170
     0
171
     0
290
     0
174
     0
 93
        1
 44
0.0
173
     0
291
     0
 45
0.0
1001
ACAD
1000
AcDbSavedByObjectVersion
1070
     0
  0
VISUALSTYLE
  5
28D2
102
{ACAD_XDICTIONARY
360
2934
102
}
102
{ACAD_REACTORS
330
28C7
102
}
330
28C7
100
AcDbVisualStyle
  2
Dim
 70
    11
 71
     2
 72
     2
 73
     0
 90
        0
 40
-0.6
 41
-30.0
 62
     5
 63
     7
 74
     1
 91
        4
 64
     7
 65
   257
 75
     1
175
     1
 42
1.0
 92
        8
 66
     7
 43
1.0
 76
     1
 77
     6
 78
     2
 67
     7
 79
     5
170
     0
171
     0
290
     0
174
     0
 93
        1
 44
-50.0
173
     0
291
     1
 45
0.0
1001
ACAD
1000
AcDbSavedByObjectVersion
1070
     0
  0
VISUALSTYLE
  5
28DF
102
{ACAD_XDICTIONARY
360
294E
102
}
102
{ACAD_REACTORS
330
28C7
102
}
330
28C7
100
AcDbVisualStyle
  2
EdgeColorOff
 70
    22
 71
     2
 72
     2
 73
     0
 90
        0
 40
-0.6
 41
-30.0
 62
     5
 63
     7
 74
     1
 91
        4
 64
     7
 65
   257
 75
     1
175
     1
 42
1.0
 92
        8
 66
     7
 43
1.0
 76
     1
 77
     6
 78
     2
 67
     7
 79
     5
170
     0
171
     0
290
     0
174
     0
 93
        1
 44
0.0
173
     0
291
     1
 45
0.0
1001
ACAD
1000
AcDbSavedByObjectVersion
1070
     0
  0
VISUALSTYLE
  5
28D6
102
{ACAD_XDICTIONARY
360
293C
102
}
102
{ACAD_REACTORS
330
28C7
102
}
330
28C7
100
AcDbVisualStyle
  2
Facepattern
 70
    15
 71
     2
 72
     2
 73
     0
 90
        0
 40
-0.6
 41
-30.0
 62
     5
 63
     7
 74
     1
 91
        4
 64
     7
 65
   257
 75
     1
175
     1
 42
1.0
 92
        8
 66
     7
 43
1.0
 76
     1
 77
     6
 78
     2
 67
     7
 79
     5
170
     0
171
     0
290
     0
174
     0
 93
        1
 44
0.0
173
     0
291
     1
 45
0.0
1001
ACAD
1000
AcDbSavedByObjectVersion
1070
     0
  0
VISUALSTYLE
  5
28C8
102
{ACAD_XDICTIONARY
360
2920
102
}
102
{ACAD_REACTORS
330
28C7
102
}
330
28C7
100
AcDbVisualStyle
  2
Flat
 70
     0
 71
     2
 72
     1
 73
     1
 90
        2
 40
-0.6
 41
30.0
 62
     5
 63
     7
 74
     0
 91
        0
 64
     7
 65
   257
 75
     1
175
     1
 42
1.0
 92
        8
 66
     7
 43
1.0
 76
     1
 77
     6
 78
     2
 67
     7
 79
     5
170
     0
171
     0
290
     0
174
     0
 93
       13
 44
0.0
173
     0
291
     1
 45
0.0
1001
ACAD
1000
AcDbSavedByObjectVersion
1070
     0
  0
VISUALSTYLE
  5
28C9
102
{ACAD_XDICTIONARY
360
2922
102
}
102
{ACAD_REACTORS
330
28C7
102
}
330
28C7
100
AcDbVisualStyle
  2
FlatWithEdges
 70
     1
 71
     2
 72
     1
 73
     1
 90
        2
 40
-0.6
 41
30.0
 62
     5
 63
     7
 74
     1
 91
        0
 64
     7
 65
   257
 75
     1
175
     1
 42
1.0
 92
        0
 66
   257
 43
1.0
 76
     1
 77
     6
 78
     2
 67
     7
 79
     5
170
     0
171
     0
290
     0
174
     0
 93
       13
 44
0.0
173
     0
291
     1
 45
0.0
1001
ACAD
1000
AcDbSavedByObjectVersion
1070
     0
  0
VISUALSTYLE
  5
28CA
102
{ACAD_XDICTIONARY
360
2924
102
}
102
{ACAD_REACTORS
330
28C7
102
}
330
28C7
100
AcDbVisualStyle
  2
Gouraud
 70
     2
 71
     2
 72
     2
 73
     1
 90
        2
 40
-0.6
 41
30.0
 62
     5
 63
     7
 74
     0
 91
        0
 64
     7
 65
   257
 75
     1
175
     1
 42
1.0
 92
        0
 66
     7
 43
1.0
 76
     1
 77
     6
 78
     2
 67
     7
 79
     5
170
     0
171
     0
290
     0
174
     0
 93
       13
 44
0.0
173
     0
291
     1
 45
0.0
1001
ACAD
1000
AcDbSavedByObjectVersion
1070
     0
  0
VISUALSTYLE
  5
28CB
102
{ACAD_XDICTIONARY
360
2926
102
}
102
{ACAD_REACTORS
330
28C7
102
}
330
28C7
100
AcDbVisualStyle
  2
GouraudWithEdges
 70
     3
 71
     2
 72
     2
 73
     1
 90
        2
 40
-0.6
 41
30.0
 62
     5
 63
     7
 74
     1
 91
        0
 64
     7
 65
   257
 75
     1
175
     1
 42
1.0
 92
        0
 66
   257
 43
1.0
 76
     1
 77
     6
 78
     2
 67
     7
 79
     5
170
     0
171
     0
290
     0
174
     0
 93
       13
 44
0.0
173
     0
291
     1
 45
0.0
1001
ACAD
1000
AcDbSavedByObjectVersion
1070
     0
  0
VISUALSTYLE
  5
28CF
102
{ACAD_XDICTIONARY
360
292E
102
}
102
{ACAD_REACTORS
330
28C7
102
}
330
28C7
100
AcDbVisualStyle
  2
Hidden
 70
     6
 71
     1
 72
     2
 73
     2
 90
        0
 40
-0.6
 41
-30.0
 62
     5
 63
     7
 74
     2
 91
        2
 64
     7
 65
   257
 75
     2
175
     1
 42
40.0
 92
        0
 66
   257
 43
1.0
 76
     1
 77
     6
 78
     2
 67
     7
 79
     3
170
     0
171
     0
290
     0
174
     0
 93
        1
 44
0.0
173
     0
291
     0
 45
0.0
1001
ACAD
1000
AcDbSavedByObjectVersion
1070
     0
  0
VISUALSTYLE
  5
28DD
102
{ACAD_XDICTIONARY
360
294A
102
}
102
{ACAD_REACTORS
330
28C7
102
}
330
28C7
100
AcDbVisualStyle
  2
JitterOff
 70
    20
 71
     2
 72
     2
 73
     0
 90
        0
 40
-0.6
 41
-30.0
 62
     5
 63
     7
 74
     1
 91
        4
 64
     7
 65
   257
 75
     1
175
     1
 42
1.0
 92
       10
 66
     7
 43
1.0
 76
     1
 77
     6
 78
     2
 67
     7
 79
     5
170
     0
171
     0
290
     0
174
     0
 93
        1
 44
0.0
173
     0
291
     1
 45
0.0
1001
ACAD
1000
AcDbSavedByObjectVersion
1070
     0
  0
VISUALSTYLE
  5
28D5
102
{ACAD_XDICTIONARY
360
293A
102
}
102
{ACAD_REACTORS
330
28C7
102
}
330
28C7
100
AcDbVisualStyle
  2
Linepattern
 70
    14
 71
     2
 72
     2
 73
     0
 90
        0
 40
-0.6
 41
-30.0
 62
     5
 63
     7
 74
     1
 91
        4
 64
     7
 65
   257
 75
     7
175
     7
 42
1.0
 92
        8
 66
     7
 43
1.0
 76
     1
 77
     6
 78
     2
 67
     7
 79
     5
170
     0
171
     0
290
     0
174
     0
 93
        1
 44
0.0
173
     0
291
     1
 45
0.0
1001
ACAD
1000
AcDbSavedByObjectVersion
1070
     0
  0
VISUALSTYLE
  5
28DE
102
{ACAD_XDICTIONARY
360
294C
102
}
102
{ACAD_REACTORS
330
28C7
102
}
330
28C7
100
AcDbVisualStyle
  2
OverhangOff
 70
    21
 71
     2
 72
     2
 73
     0
 90
        0
 40
-0.6
 41
-30.0
 62
     5
 63
     7
 74
     1
 91
        4
 64
     7
 65
   257
 75
     1
175
     1
 42
1.0
 92
        9
 66
     7
 43
1.0
 76
     1
 77
     6
 78
     2
 67
     7
 79
     5
170
     0
171
     0
290
     0
174
     0
 93
        1
 44
0.0
173
     0
291
     1
 45
0.0
1001
ACAD
1000
AcDbSavedByObjectVersion
1070
     0
  0
VISUALSTYLE
  5
28D1
102
{ACAD_XDICTIONARY
360
2932
102
}
102
{ACAD_REACTORS
330
28C7
102
}
330
28C7
100
AcDbVisualStyle
  2
Realistic
 70
     8
 71
     2
 72
     3
 73
     0
 90
        2
 40
-0.6
 41
30.0
 62
     5
 63
     7
 74
     0
 91
        0
 64
     7
 65
   257
 75
     1
175
     1
 42
1.0
 92
        8
 66
   257
 43
1.0
 76
     1
 77
     6
 78
     2
 67
     7
 79
     3
170
     0
171
     0
290
     0
174
     0
 93
       13
 44
0.0
173
     0
291
     0
 45
0.0
1001
ACAD
1000
AcDbSavedByObjectVersion
1070
     0
  0
VISUALSTYLE
  5
28DC
102
{ACAD_XDICTIONARY
360
2948
102
}
102
{ACAD_REACTORS
330
28C7
102
}
330
28C7
100
AcDbVisualStyle
  2
Shaded
 70
    27
 71
     2
 72
     2
 73
     1
 90
        2
 40
-0.6
 41
30.0
 62
     5
 63
     7
 74
     0
 91
        4
 64
     7
 65
   257
 75
     1
175
     1
 42
1.0
 92
        8
 66
   257
 43
1.0
 76
     1
 77
     6
 78
     2
 67
     8
 79
     3
170
     0
171
     0
290
     0
174
     0
 93
        5
 44
0.0
173
     0
291
     0
 45
0.0
1001
ACAD
1000
AcDbSavedByObjectVersion
1070
     0
  0
VISUALSTYLE
  5
28DB
102
{ACAD_XDICTIONARY
360
2946
102
}
102
{ACAD_REACTORS
330
28C7
102
}
330
28C7
100
AcDbVisualStyle
  2
Shaded with edges
 70
    26
 71
     2
 72
     2
 73
     1
 90
        2
 40
-0.6
 41
30.0
 62
     5
 63
     7
 74
     1
 91
       10
 64
     7
 65
   257
 75
     2
175
     1
 42
1.0
 92
        8
 66
   257
 43
1.0
 76
     1
 77
     6
 78
     2
 67
     7
 79
     3
170
     0
171
     0
290
     0
174
     0
 93
        5
 44
0.0
173
     0
291
     0
 45
0.0
1001
ACAD
1000
AcDbSavedByObjectVersion
1070
     0
  0
VISUALSTYLE
  5
28D8
102
{ACAD_XDICTIONARY
360
2940
102
}
102
{ACAD_REACTORS
330
28C7
102
}
330
28C7
100
AcDbVisualStyle
  2
Shades of Gray
 70
    23
 71
     2
 72
     2
 73
     3
 90
        0
 40
-0.6
 41
-30.0
 62
     5
 63
     7
 74
     2
 91
        2
 64
     7
 65
     7
 75
     1
175
     1
 42
40.0
 92
        8
 66
     7
 43
1.0
 76
     1
 77
     6
 78
     2
 67
     7
 79
     3
170
     0
171
     0
290
     0
174
     0
 93
        1
 44
0.0
173
     0
291
     0
 45
0.0
1001
ACAD
1000
AcDbSavedByObjectVersion
1070
     0
  0
VISUALSTYLE
  5
28D9
102
{ACAD_XDICTIONARY
360
2942
102
}
102
{ACAD_REACTORS
330
28C7
102
}
330
28C7
100
AcDbVisualStyle
  2
Sketchy
 70
    24
 71
     1
 72
     2
 73
     2
 90
        0
 40
-0.6
 41
-30.0
 62
     5
 63
     7
 74
     2
 91
        2
 64
     7
 65
     7
 75
     1
175
     1
 42
40.0
 92
       11
 66
     7
 43
1.0
 76
     1
 77
     6
 78
     2
 67
     7
 79
     6
170
     0
171
     0
290
     0
174
     0
 93
        1
 44
0.0
173
     0
291
     0
 45
0.0
1001
ACAD
1000
AcDbSavedByObjectVersion
1070
     0
  0
VISUALSTYLE
  5
28D4
102
{ACAD_XDICTIONARY
360
2938
102
}
102
{ACAD_REACTORS
330
28C7
102
}
330
28C7
100
AcDbVisualStyle
  2
Thicken
 70
    13
 71
     2
 72
     2
 73
     0
 90
        0
 40
-0.6
 41
-30.0
 62
     5
 63
     7
 74
     1
 91
        4
 64
     7
 65
   257
 75
     1
175
     1
 42
1.0
 92
       12
 66
     7
 43
1.0
 76
     1
 77
     6
 78
     2
 67
     7
 79
     5
170
     0
171
     0
290
     0
174
     0
 93
        1
 44
0.0
173
     0
291
     1
 45
0.0
1001
ACAD
1000
AcDbSavedByObjectVersion
1070
     0
  0
VISUALSTYLE
  5
28CE
102
{ACAD_XDICTIONARY
360
292C
102
}
102
{ACAD_REACTORS
330
28C7
102
}
330
28C7
100
AcDbVisualStyle
  2
Wireframe
 70
     5
 71
     0
 72
     2
 73
     0
 90
        0
 40
-0.6
 41
-30.0
 62
     5
 63
     7
 74
     1
 91
        4
 64
     7
 65
   257
 75
     1
175
     1
 42
1.0
 92
        0
 66
   257
 43
1.0
 76
     1
 77
     6
 78
     2
 67
     7
 79
     3
170
     0
171
     0
290
     0
174
     0
 93
        1
 44
0.0
173
     0
291
     0
 45
0.0
1001
ACAD
1000
AcDbSavedByObjectVersion
1070
     0
  0
VISUALSTYLE
  5
28DA
102
{ACAD_XDICTIONARY
360
2944
102
}
102
{ACAD_REACTORS
330
28C7
102
}
330
28C7
100
AcDbVisualStyle
  2
X-Ray
 70
    25
 71
     2
 72
     2
 73
     1
 90
        1
 40
0.5
 41
-30.0
 62
     5
 63
     7
 74
     1
 91
        0
 64
     7
 65
   257
 75
     1
175
     1
 42
1.0
 92
        8
 66
     7
 43
1.0
 76
     1
 77
     6
 78
     2
 67
     7
 79
     3
170
     0
171
     0
290
     0
174
     0
 93
       13
 44
0.0
173
     0
291
     0
 45
0.0
1001
ACAD
1000
AcDbSavedByObjectVersion
1070
     0
  0
DICTIONARYVAR
  5
2913
102
{ACAD_REACTORS
330
290E
102
}
330
290E
100
DictionaryVariables
280
     0
  1
1:1
  0
DICTIONARYVAR
  5
2910
102
{ACAD_REACTORS
330
290E
102
}
330
290E
100
DictionaryVariables
280
     0
  1
STANDARD
  0
DICTIONARYVAR
  5
290F
102
{ACAD_REACTORS
330
290E
102
}
330
290E
100
DictionaryVariables
280
     0
  1
STANDARD
  0
DICTIONARYVAR
  5
2911
102
{ACAD_REACTORS
330
290E
102
}
330
290E
100
DictionaryVariables
280
     0
  1
Imperial24
  0
DICTIONARYVAR
  5
2912
102
{ACAD_REACTORS
330
290E
102
}
330
290E
100
DictionaryVariables
280
     0
  1
Imperial24
  0
DICTIONARYVAR
  5
2916
102
{ACAD_REACTORS
330
290E
102
}
330
290E
100
DictionaryVariables
280
     0
  1
1
  0
DICTIONARYVAR
  5
2915
102
{ACAD_REACTORS
330
290E
102
}
330
290E
100
DictionaryVariables
280
     0
  1
0
  0
DICTIONARYVAR
  5
2914
102
{ACAD_REACTORS
330
290E
102
}
330
290E
100
DictionaryVariables
280
     0
  1
127
  0
DICTIONARYVAR
  5
2917
102
{ACAD_REACTORS
330
290E
102
}
330
290E
100
DictionaryVariables
280
     0
  1
2
  0
DICTIONARY
  5
2954
330
28FA
100
AcDbDictionary
280
     1
281
     1
  3
ACAD_XREC_ROUNDTRIP
360
2955
  0
DICTIONARY
  5
2956
330
28FB
100
AcDbDictionary
280
     1
281
     1
  3
ACAD_XREC_ROUNDTRIP
360
2957
  0
DICTIONARY
  5
2958
330
28FC
100
AcDbDictionary
280
     1
281
     1
  3
ACAD_XREC_ROUNDTRIP
360
2959
  0
DICTIONARY
  5
28B8
330
28B7
100
AcDbDictionary
280
     1
281
     1
  3
ACAD_XREC_ROUNDTRIP
360
291E
  3
BUMPTILE
360
28BA
  3
DIFFUSETILE
360
28B9
  3
OPACITYTILE
360
28BD
  3
REFLECTIONTILE
360
28BC
  3
REFRACTIONTILE
360
28BE
  3
SPECULARTILE
360
28BB
  0
DICTIONARY
  5
28B0
330
28AF
100
AcDbDictionary
280
     1
281
     1
  3
ACAD_XREC_ROUNDTRIP
360
291D
  3
BUMPTILE
360
28B2
  3
DIFFUSETILE
360
28B1
  3
OPACITYTILE
360
28B5
  3
REFLECTIONTILE
360
28B4
  3
REFRACTIONTILE
360
28B6
  3
SPECULARTILE
360
28B3
  0
DICTIONARY
  5
28C0
330
28BF
100
AcDbDictionary
280
     1
281
     1
  3
ACAD_XREC_ROUNDTRIP
360
291F
  3
BUMPTILE
360
28C2
  3
DIFFUSETILE
360
28C1
  3
OPACITYTILE
360
28C5
  3
REFLECTIONTILE
360
28C4
  3
REFRACTIONTILE
360
28C6
  3
SPECULARTILE
360
28C3
  0
DICTIONARY
  5
2952
330
28F8
100
AcDbDictionary
280
     1
281
     1
  3
ACAD_XREC_ROUNDTRIP
360
2953
  0
DICTIONARY
  5
2919
330
28E2
100
AcDbDictionary
280
     1
281
     1
  3
ACAD_ROUNDTRIP_2008_TABLESTYLE_CELLSTYLEMAP
360
291A
  3
ACAD_XREC_ROUNDTRIP
360
2950
  0
DICTIONARY
  5
292A
330
28CD
100
AcDbDictionary
280
     1
281
     1
  3
ACAD_XREC_ROUNDTRIP
360
292B
  0
DICTIONARY
  5
2928
330
28CC
100
AcDbDictionary
280
     1
281
     1
  3
ACAD_XREC_ROUNDTRIP
360
2929
  0
DICTIONARY
  5
2936
330
28D3
100
AcDbDictionary
280
     1
281
     1
  3
ACAD_XREC_ROUNDTRIP
360
2937
  0
DICTIONARY
  5
293E
330
28D7
100
AcDbDictionary
280
     1
281
     1
  3
ACAD_XREC_ROUNDTRIP
360
293F
  0
DICTIONARY
  5
2930
330
28D0
100
AcDbDictionary
280
     1
281
     1
  3
ACAD_XREC_ROUNDTRIP
360
2931
  0
DICTIONARY
  5
2934
330
28D2
100
AcDbDictionary
280
     1
281
     1
  3
ACAD_XREC_ROUNDTRIP
360
2935
  0
DICTIONARY
  5
294E
330
28DF
100
AcDbDictionary
280
     1
281
     1
  3
ACAD_XREC_ROUNDTRIP
360
294F
  0
DICTIONARY
  5
293C
330
28D6
100
AcDbDictionary
280
     1
281
     1
  3
ACAD_XREC_ROUNDTRIP
360
293D
  0
DICTIONARY
  5
2920
330
28C8
100
AcDbDictionary
280
     1
281
     1
  3
ACAD_XREC_ROUNDTRIP
360
2921
  0
DICTIONARY
  5
2922
330
28C9
100
AcDbDictionary
280
     1
281
     1
  3
ACAD_XREC_ROUNDTRIP
360
2923
  0
DICTIONARY
  5
2924
330
28CA
100
AcDbDictionary
280
     1
281
     1
  3
ACAD_XREC_ROUNDTRIP
360
2925
  0
DICTIONARY
  5
2926
330
28CB
100
AcDbDictionary
280
     1
281
     1
  3
ACAD_XREC_ROUNDTRIP
360
2927
  0
DICTIONARY
  5
292E
330
28CF
100
AcDbDictionary
280
     1
281
     1
  3
ACAD_XREC_ROUNDTRIP
360
292F
  0
DICTIONARY
  5
294A
330
28DD
100
AcDbDictionary
280
     1
281
     1
  3
ACAD_XREC_ROUNDTRIP
360
294B
  0
DICTIONARY
  5
293A
330
28D5
100
AcDbDictionary
280
     1
281
     1
  3
ACAD_XREC_ROUNDTRIP
360
293B
  0
DICTIONARY
  5
294C
330
28DE
100
AcDbDictionary
280
     1
281
     1
  3
ACAD_XREC_ROUNDTRIP
360
294D
  0
DICTIONARY
  5
2932
330
28D1
100
AcDbDictionary
280
     1
281
     1
  3
ACAD_XREC_ROUNDTRIP
360
2933
  0
DICTIONARY
  5
2948
330
28DC
100
AcDbDictionary
280
     1
281
     1
  3
ACAD_XREC_ROUNDTRIP
360
2949
  0
DICTIONARY
  5
2946
330
28DB
100
AcDbDictionary
280
     1
281
     1
  3
ACAD_XREC_ROUNDTRIP
360
2947
  0
DICTIONARY
  5
2940
330
28D8
100
AcDbDictionary
280
     1
281
     1
  3
ACAD_XREC_ROUNDTRIP
360
2941
  0
DICTIONARY
  5
2942
330
28D9
100
AcDbDictionary
280
     1
281
     1
  3
ACAD_XREC_ROUNDTRIP
360
2943
  0
DICTIONARY
  5
2938
330
28D4
100
AcDbDictionary
280
     1
281
     1
  3
ACAD_XREC_ROUNDTRIP
360
2939
  0
DICTIONARY
  5
292C
330
28CE
100
AcDbDictionary
280
     1
281
     1
  3
ACAD_XREC_ROUNDTRIP
360
292D
  0
DICTIONARY
  5
2944
330
28DA
100
AcDbDictionary
280
     1
281
     1
  3
ACAD_XREC_ROUNDTRIP
360
2945
  0
XRECORD
  5
2955
102
{ACAD_REACTORS
330
2954
102
}
330
2954
100
AcDbXrecord
280
     1
102
DISPLAYNAME
  1
Imperial24
102
FLAGS
 90
        0
  0
XRECORD
  5
2957
102
{ACAD_REACTORS
330
2956
102
}
330
2956
100
AcDbXrecord
280
     1
102
SHADEPLOT
 70
     0
102
SHADEPLOTRESLEVEL
 70
     2
102
SHADEPLOTCUSTOMDPI
 70
   300
  0
XRECORD
  5
2959
102
{ACAD_REACTORS
330
2958
102
}
330
2958
100
AcDbXrecord
280
     1
102
SHADEPLOT
 70
     0
102
SHADEPLOTRESLEVEL
 70
     2
102
SHADEPLOTCUSTOMDPI
 70
   300
  0
XRECORD
  5
291E
102
{ACAD_REACTORS
330
28B8
102
}
330
28B8
100
AcDbXrecord
280
     1
102
MATERIAL
148
0.0
149
0.0
149
0.0
 93
        0
 94
      127
282
     0
 72
     0
 77
     0
171
     0
175
     0
179
     0
273
     0
  0
XRECORD
  5
28BA
102
{ACAD_REACTORS
330
28B8
102
}
330
28B8
100
AcDbXrecord
280
     1
270
     1
271
     1
  0
XRECORD
  5
28B9
102
{ACAD_REACTORS
330
28B8
102
}
330
28B8
100
AcDbXrecord
280
     1
270
     1
271
     1
  0
XRECORD
  5
28BD
102
{ACAD_REACTORS
330
28B8
102
}
330
28B8
100
AcDbXrecord
280
     1
270
     1
271
     1
  0
XRECORD
  5
28BC
102
{ACAD_REACTORS
330
28B8
102
}
330
28B8
100
AcDbXrecord
280
     1
270
     1
271
     1
  0
XRECORD
  5
28BE
102
{ACAD_REACTORS
330
28B8
102
}
330
28B8
100
AcDbXrecord
280
     1
270
     1
271
     1
  0
XRECORD
  5
28BB
102
{ACAD_REACTORS
330
28B8
102
}
330
28B8
100
AcDbXrecord
280
     1
270
     1
271
     1
  0
XRECORD
  5
291D
102
{ACAD_REACTORS
330
28B0
102
}
330
28B0
100
AcDbXrecord
280
     1
102
MATERIAL
148
0.0
149
0.0
149
0.0
 93
        0
 94
      127
282
     0
 72
     0
 77
     0
171
     0
175
     0
179
     0
273
     0
  0
XRECORD
  5
28B2
102
{ACAD_REACTORS
330
28B0
102
}
330
28B0
100
AcDbXrecord
280
     1
270
     1
271
     1
  0
XRECORD
  5
28B1
102
{ACAD_REACTORS
330
28B0
102
}
330
28B0
100
AcDbXrecord
280
     1
270
     1
271
     1
  0
XRECORD
  5
28B5
102
{ACAD_REACTORS
330
28B0
102
}
330
28B0
100
AcDbXrecord
280
     1
270
     1
271
     1
  0
XRECORD
  5
28B4
102
{ACAD_REACTORS
330
28B0
102
}
330
28B0
100
AcDbXrecord
280
     1
270
     1
271
     1
  0
XRECORD
  5
28B6
102
{ACAD_REACTORS
330
28B0
102
}
330
28B0
100
AcDbXrecord
280
     1
270
     1
271
     1
  0
XRECORD
  5
28B3
102
{ACAD_REACTORS
330
28B0
102
}
330
28B0
100
AcDbXrecord
280
     1
270
     1
271
     1
  0
XRECORD
  5
291F
102
{ACAD_REACTORS
330
28C0
102
}
330
28C0
100
AcDbXrecord
280
     1
102
MATERIAL
148
0.0
149
0.0
149
0.0
 93
        0
 94
      127
282
     0
 72
     0
 77
     0
171
     0
175
     0
179
     0
273
     0
  0
XRECORD
  5
28C2
102
{ACAD_REACTORS
330
28C0
102
}
330
28C0
100
AcDbXrecord
280
     1
270
     1
271
     1
  0
XRECORD
  5
28C1
102
{ACAD_REACTORS
330
28C0
102
}
330
28C0
100
AcDbXrecord
280
     1
270
     1
271
     1
  0
XRECORD
  5
28C5
102
{ACAD_REACTORS
330
28C0
102
}
330
28C0
100
AcDbXrecord
280
     1
270
     1
271
     1
  0
XRECORD
  5
28C4
102
{ACAD_REACTORS
330
28C0
102
}
330
28C0
100
AcDbXrecord
280
     1
270
     1
271
     1
  0
XRECORD
  5
28C6
102
{ACAD_REACTORS
330
28C0
102
}
330
28C0
100
AcDbXrecord
280
     1
270
     1
271
     1
  0
XRECORD
  5
28C3
102
{ACAD_REACTORS
330
28C0
102
}
330
28C0
100
AcDbXrecord
280
     1
270
     1
271
     1
  0
XRECORD
  5
2953
102
{ACAD_REACTORS
330
2952
102
}
330
2952
100
AcDbXrecord
280
     1
102
DISPLAYNAME
  1
Imperial24
102
FLAGS
 90
        0
  0
CELLSTYLEMAP
  5
291A
102
{ACAD_REACTORS
330
2919
102
}
330
2919
100
AcDbCellStyleMap
 90
        3
300
CELLSTYLE
  1
TABLEFORMAT_BEGIN
 90
        5
170
     1
 91
        0
 92
    32768
 62
   257
 93
        1
300
CONTENTFORMAT
  1
CONTENTFORMAT_BEGIN
 90
        0
 91
        0
 92
      512
 93
        0
300

 40
0.0
140
1.0
 94
        5
 62
     0
340
F
144
0.25
309
CONTENTFORMAT_END
171
     0
 94
        0
309
TABLEFORMAT_END
  1
CELLSTYLE_BEGIN
 90
        1
 91
        1
300
_TITLE
309
CELLSTYLE_END
300
CELLSTYLE
  1
TABLEFORMAT_BEGIN
 90
        5
170
     1
 91
        0
 92
        0
 62
   257
 93
        1
300
CONTENTFORMAT
  1
CONTENTFORMAT_BEGIN
 90
        0
 91
        0
 92
      512
 93
        0
300

 40
0.0
140
1.0
 94
        5
 62
     0
340
F
144
0.18
309
CONTENTFORMAT_END
171
     0
 94
        0
309
TABLEFORMAT_END
  1
CELLSTYLE_BEGIN
 90
        2
 91
        1
300
_HEADER
309
CELLSTYLE_END
300
CELLSTYLE
  1
TABLEFORMAT_BEGIN
 90
        5
170
     1
 91
        0
 92
        0
 62
   257
 93
        1
300
CONTENTFORMAT
  1
CONTENTFORMAT_BEGIN
 90
        0
 91
        0
 92
      512
 93
        0
300

 40
0.0
140
1.0
 94
        2
 62
     0
340
F
144
0.18
309
CONTENTFORMAT_END
171
     0
 94
        0
309
TABLEFORMAT_END
  1
CELLSTYLE_BEGIN
 90
        3
 91
        2
300
_DATA
309
CELLSTYLE_END
  0
XRECORD
  5
2950
102
{ACAD_REACTORS
330
2919
102
}
330
2919
100
AcDbXrecord
280
     1
102
ACAD_ROUNDTRIP_PRE2007_TABLESTYLE
 90
      512
 91
        0
  1

 92
      512
 93
        0
  2

 94
      512
 95
        0
  3

  0
XRECORD
  5
292B
102
{ACAD_REACTORS
330
292A
102
}
330
292A
100
AcDbXrecord
280
     1
102
RTVSPost2010Prop28
280
     1
102
RTVSPost2010PropOp28
 70
     1
102
RTVSPost2010Prop29
280
     1
102
RTVSPost2010PropOp29
 70
     1
102
RTVSPost2010Prop30
280
     0
102
RTVSPost2010PropOp30
 70
     1
102
RTVSPost2010Prop31
280
     0
102
RTVSPost2010PropOp31
 70
     1
102
RTVSPost2010Prop32
280
     0
102
RTVSPost2010PropOp32
 70
     1
102
RTVSPost2010Prop33
280
     0
102
RTVSPost2010PropOp33
 70
     1
102
RTVSPost2010Prop34
280
     0
102
RTVSPost2010PropOp34
 70
     1
102
RTVSPost2010Prop35
280
     0
102
RTVSPost2010PropOp35
 70
     1
102
RTVSPost2010Prop36
280
     0
102
RTVSPost2010PropOp36
 70
     1
102
RTVSPost2010Prop37
 90
       50
102
RTVSPost2010PropOp37
 70
     1
102
RTVSPost2010Prop38
140
0.0
102
RTVSPost2010PropOp38
 70
     1
102
RTVSPost2010Prop39
140
1.0
102
RTVSPost2010PropOp39
 70
     1
102
RTVSPost2010Prop40
 90
        0
102
RTVSPost2010PropOp40
 70
     1
102
RTVSPost2010Prop41ColorIndex
 90
       18
102
RTVSPost2010Prop41ColorRGB
 90
        0
102
RTVSPost2010PropOp41
 70
     1
102
RTVSPost2010Prop42
 90
       50
102
RTVSPost2010PropOp42
 70
     1
102
RTVSPost2010Prop43
 90
        3
102
RTVSPost2010PropOp43
 70
     1
102
RTVSPost2010Prop44ColorIndex
 90
        5
102
RTVSPost2010Prop44ColorRGB
 90
      255
102
RTVSPost2010PropOp44
 70
     1
102
RTVSPost2010Prop45
280
     0
102
RTVSPost2010PropOp45
 70
     1
102
RTVSPost2010Prop46
 90
       50
102
RTVSPost2010PropOp46
 70
     1
102
RTVSPost2010Prop47
 90
       50
102
RTVSPost2010PropOp47
 70
     1
102
RTVSPost2010Prop48
 90
       50
102
RTVSPost2010PropOp48
 70
     1
102
RTVSPost2010Prop49
280
     0
102
RTVSPost2010PropOp49
 70
     1
102
RTVSPost2010Prop50
 90
       50
102
RTVSPost2010PropOp50
 70
     1
102
RTVSPost2010Prop51ColorIndex
 90
      256
102
RTVSPost2010Prop51ColorRGB
 90
-16777216
102
RTVSPost2010PropOp51
 70
     0
102
RTVSPost2010Prop52
140
1.0
102
RTVSPost2010PropOp52
 70
     0
102
RTVSPost2010Prop53
 90
        2
102
RTVSPost2010PropOp53
 70
     1
102
RTVSPost2010Prop54
  1
strokes_ogs.tif
102
RTVSPost2010PropOp54
 70
     1
102
RTVSPost2010Prop55
280
     0
102
RTVSPost2010PropOp55
 70
     1
102
RTVSPost2010Prop56
140
1.0
102
RTVSPost2010PropOp56
 70
     1
102
RTVSPost2010Prop57
140
1.0
102
RTVSPost2010PropOp57
 70
     1
102
RTVSPropertyOp0
 70
     1
102
RTVSPropertyOp1
 70
     1
102
RTVSPropertyOp2
 70
     1
102
RTVSPropertyOp3
 70
     1
102
RTVSPropertyOp4
 70
     1
102
RTVSPropertyOp5
 70
     1
102
RTVSPropertyOp6
 70
     1
102
RTVSPropertyOp7
 70
     1
102
RTVSPropertyOp8
 70
     1
102
RTVSPropertyOp9
 70
     1
102
RTVSPropertyOp10
 70
     1
102
RTVSPropertyOp11
 70
     1
102
RTVSPropertyOp12
 70
     1
102
RTVSPropertyOp13
 70
     1
102
RTVSPropertyOp14
 70
     1
102
RTVSPropertyOp15
 70
     1
102
RTVSPropertyOp16
 70
     1
102
RTVSPropertyOp17
 70
     1
102
RTVSPropertyOp18
 70
     1
102
RTVSPropertyOp19
 70
     1
102
RTVSPropertyOp20
 70
     1
102
RTVSPropertyOp21
 70
     1
102
RTVSPropertyOp22
 70
     1
102
RTVSPropertyOp23
 70
     1
102
RTVSPropertyOp24
 70
     1
102
RTVSPropertyOp25
 70
     1
102
RTVSPropertyOp26
 70
     1
102
RTVSPropertyOp27
 70
     1
102
RTVSPropertyOp28
 70
     1
102
RTVSPropertyOp29
 70
     1
102
RTVSPropertyOp30
 70
     1
102
RTVSPropertyOp31
 70
     1
102
RTVSPropertyOp32
 70
     1
102
RTVSPropertyOp33
 70
     1
102
RTVSPropertyOp34
 70
     1
102
RTVSPropertyOp35
 70
     1
102
RTVSPropertyOp36
 70
     1
102
RTVSPropertyOp37
 70
     1
102
RTVSPropertyOp38
 70
     1
102
RTVSPropertyOp39
 70
     1
102
RTVSPropertyOp40
 70
     1
102
RTVSPropertyOp41
 70
     1
102
RTVSPropertyOp42
 70
     1
102
RTVSPropertyOp43
 70
     1
102
RTVSPropertyOp44
 70
     1
102
RTVSPropertyOp45
 70
     1
102
RTVSPropertyOp46
 70
     1
102
RTVSPropertyOp47
 70
     1
102
RTVSPropertyOp48
 70
     1
102
RTVSPropertyOp49
 70
     1
102
RTVSPropertyOp50
 70
     1
102
RTVSPropertyOp51
 70
     0
102
RTVSPropertyOp52
 70
     0
102
RTVSPropertyOp53
 70
     1
102
RTVSPropertyOp54
 70
     1
102
RTVSPropertyOp55
 70
     1
102
RTVSPropertyOp56
 70
     1
102
RTVSPropertyOp57
 70
     1
102
RTVSPropertyOp58
 70
     1
102
RTVSPropertyOp59
 70
     1
102
RTVSPropertyOp60
 70
     1
102
RTVSPropertyOp61
 70
     1
102
RTVSPropertyOp62
 70
     1
  0
XRECORD
  5
2929
102
{ACAD_REACTORS
330
2928
102
}
330
2928
100
AcDbXrecord
280
     1
102
RTVSPost2010Prop28
280
     0
102
RTVSPost2010PropOp28
 70
     1
102
RTVSPost2010Prop29
280
     1
102
RTVSPost2010PropOp29
 70
     1
102
RTVSPost2010Prop30
280
     1
102
RTVSPost2010PropOp30
 70
     1
102
RTVSPost2010Prop31
280
     0
102
RTVSPost2010PropOp31
 70
     1
102
RTVSPost2010Prop32
280
     0
102
RTVSPost2010PropOp32
 70
     1
102
RTVSPost2010Prop33
280
     0
102
RTVSPost2010PropOp33
 70
     1
102
RTVSPost2010Prop34
280
     0
102
RTVSPost2010PropOp34
 70
     1
102
RTVSPost2010Prop35
280
     0
102
RTVSPost2010PropOp35
 70
     1
102
RTVSPost2010Prop36
280
     0
102
RTVSPost2010PropOp36
 70
     1
102
RTVSPost2010Prop37
 90
       50
102
RTVSPost2010PropOp37
 70
     1
102
RTVSPost2010Prop38
140
0.0
102
RTVSPost2010PropOp38
 70
     1
102
RTVSPost2010Prop39
140
1.0
102
RTVSPost2010PropOp39
 70
     1
102
RTVSPost2010Prop40
 90
        0
102
RTVSPost2010PropOp40
 70
     1
102
RTVSPost2010Prop41ColorIndex
 90
       18
102
RTVSPost2010Prop41ColorRGB
 90
        0
102
RTVSPost2010PropOp41
 70
     1
102
RTVSPost2010Prop42
 90
       50
102
RTVSPost2010PropOp42
 70
     1
102
RTVSPost2010Prop43
 90
        3
102
RTVSPost2010PropOp43
 70
     1
102
RTVSPost2010Prop44ColorIndex
 90
        5
102
RTVSPost2010Prop44ColorRGB
 90
      255
102
RTVSPost2010PropOp44
 70
     1
102
RTVSPost2010Prop45
280
     0
102
RTVSPost2010PropOp45
 70
     1
102
RTVSPost2010Prop46
 90
       50
102
RTVSPost2010PropOp46
 70
     1
102
RTVSPost2010Prop47
 90
       50
102
RTVSPost2010PropOp47
 70
     1
102
RTVSPost2010Prop48
 90
       50
102
RTVSPost2010PropOp48
 70
     1
102
RTVSPost2010Prop49
280
     0
102
RTVSPost2010PropOp49
 70
     1
102
RTVSPost2010Prop50
 90
       50
102
RTVSPost2010PropOp50
 70
     1
102
RTVSPost2010Prop51ColorIndex
 90
      256
102
RTVSPost2010Prop51ColorRGB
 90
-16777216
102
RTVSPost2010PropOp51
 70
     0
102
RTVSPost2010Prop52
140
1.0
102
RTVSPost2010PropOp52
 70
     0
102
RTVSPost2010Prop53
 90
        2
102
RTVSPost2010PropOp53
 70
     1
102
RTVSPost2010Prop54
  1
strokes_ogs.tif
102
RTVSPost2010PropOp54
 70
     1
102
RTVSPost2010Prop55
280
     0
102
RTVSPost2010PropOp55
 70
     1
102
RTVSPost2010Prop56
140
1.0
102
RTVSPost2010PropOp56
 70
     1
102
RTVSPost2010Prop57
140
1.0
102
RTVSPost2010PropOp57
 70
     1
102
RTVSPropertyOp0
 70
     1
102
RTVSPropertyOp1
 70
     1
102
RTVSPropertyOp2
 70
     1
102
RTVSPropertyOp3
 70
     1
102
RTVSPropertyOp4
 70
     1
102
RTVSPropertyOp5
 70
     1
102
RTVSPropertyOp6
 70
     1
102
RTVSPropertyOp7
 70
     1
102
RTVSPropertyOp8
 70
     1
102
RTVSPropertyOp9
 70
     1
102
RTVSPropertyOp10
 70
     1
102
RTVSPropertyOp11
 70
     1
102
RTVSPropertyOp12
 70
     1
102
RTVSPropertyOp13
 70
     1
102
RTVSPropertyOp14
 70
     1
102
RTVSPropertyOp15
 70
     1
102
RTVSPropertyOp16
 70
     1
102
RTVSPropertyOp17
 70
     1
102
RTVSPropertyOp18
 70
     1
102
RTVSPropertyOp19
 70
     1
102
RTVSPropertyOp20
 70
     1
102
RTVSPropertyOp21
 70
     1
102
RTVSPropertyOp22
 70
     1
102
RTVSPropertyOp23
 70
     1
102
RTVSPropertyOp24
 70
     1
102
RTVSPropertyOp25
 70
     1
102
RTVSPropertyOp26
 70
     1
102
RTVSPropertyOp27
 70
     1
102
RTVSPropertyOp28
 70
     1
102
RTVSPropertyOp29
 70
     1
102
RTVSPropertyOp30
 70
     1
102
RTVSPropertyOp31
 70
     1
102
RTVSPropertyOp32
 70
     1
102
RTVSPropertyOp33
 70
     1
102
RTVSPropertyOp34
 70
     1
102
RTVSPropertyOp35
 70
     1
102
RTVSPropertyOp36
 70
     1
102
RTVSPropertyOp37
 70
     1
102
RTVSPropertyOp38
 70
     1
102
RTVSPropertyOp39
 70
     1
102
RTVSPropertyOp40
 70
     1
102
RTVSPropertyOp41
 70
     1
102
RTVSPropertyOp42
 70
     1
102
RTVSPropertyOp43
 70
     1
102
RTVSPropertyOp44
 70
     1
102
RTVSPropertyOp45
 70
     1
102
RTVSPropertyOp46
 70
     1
102
RTVSPropertyOp47
 70
     1
102
RTVSPropertyOp48
 70
     1
102
RTVSPropertyOp49
 70
     1
102
RTVSPropertyOp50
 70
     1
102
RTVSPropertyOp51
 70
     0
102
RTVSPropertyOp52
 70
     0
102
RTVSPropertyOp53
 70
     1
102
RTVSPropertyOp54
 70
     1
102
RTVSPropertyOp55
 70
     1
102
RTVSPropertyOp56
 70
     1
102
RTVSPropertyOp57
 70
     1
102
RTVSPropertyOp58
 70
     1
102
RTVSPropertyOp59
 70
     1
102
RTVSPropertyOp60
 70
     1
102
RTVSPropertyOp61
 70
     1
102
RTVSPropertyOp62
 70
     1
  0
XRECORD
  5
2937
102
{ACAD_REACTORS
330
2936
102
}
330
2936
100
AcDbXrecord
280
     1
102
RTVSPost2010Prop28
280
     0
102
RTVSPost2010PropOp28
 70
     1
102
RTVSPost2010Prop29
280
     1
102
RTVSPost2010PropOp29
 70
     1
102
RTVSPost2010Prop30
280
     1
102
RTVSPost2010PropOp30
 70
     1
102
RTVSPost2010Prop31
280
     0
102
RTVSPost2010PropOp31
 70
     1
102
RTVSPost2010Prop32
280
     0
102
RTVSPost2010PropOp32
 70
     1
102
RTVSPost2010Prop33
280
     0
102
RTVSPost2010PropOp33
 70
     1
102
RTVSPost2010Prop34
280
     0
102
RTVSPost2010PropOp34
 70
     1
102
RTVSPost2010Prop35
280
     0
102
RTVSPost2010PropOp35
 70
     1
102
RTVSPost2010Prop36
280
     0
102
RTVSPost2010PropOp36
 70
     1
102
RTVSPost2010Prop37
 90
       50
102
RTVSPost2010PropOp37
 70
     1
102
RTVSPost2010Prop38
140
0.0
102
RTVSPost2010PropOp38
 70
     1
102
RTVSPost2010Prop39
140
1.0
102
RTVSPost2010PropOp39
 70
     1
102
RTVSPost2010Prop40
 90
        0
102
RTVSPost2010PropOp40
 70
     1
102
RTVSPost2010Prop41ColorIndex
 90
       18
102
RTVSPost2010Prop41ColorRGB
 90
        0
102
RTVSPost2010PropOp41
 70
     1
102
RTVSPost2010Prop42
 90
       50
102
RTVSPost2010PropOp42
 70
     1
102
RTVSPost2010Prop43
 90
        3
102
RTVSPost2010PropOp43
 70
     1
102
RTVSPost2010Prop44ColorIndex
 90
        5
102
RTVSPost2010Prop44ColorRGB
 90
      255
102
RTVSPost2010PropOp44
 70
     1
102
RTVSPost2010Prop45
280
     0
102
RTVSPost2010PropOp45
 70
     1
102
RTVSPost2010Prop46
 90
       50
102
RTVSPost2010PropOp46
 70
     1
102
RTVSPost2010Prop47
 90
       50
102
RTVSPost2010PropOp47
 70
     1
102
RTVSPost2010Prop48
 90
       50
102
RTVSPost2010PropOp48
 70
     1
102
RTVSPost2010Prop49
280
     0
102
RTVSPost2010PropOp49
 70
     1
102
RTVSPost2010Prop50
 90
       50
102
RTVSPost2010PropOp50
 70
     1
102
RTVSPost2010Prop51ColorIndex
 90
      256
102
RTVSPost2010Prop51ColorRGB
 90
-16777216
102
RTVSPost2010PropOp51
 70
     0
102
RTVSPost2010Prop52
140
1.0
102
RTVSPost2010PropOp52
 70
     0
102
RTVSPost2010Prop53
 90
        2
102
RTVSPost2010PropOp53
 70
     1
102
RTVSPost2010Prop54
  1
strokes_ogs.tif
102
RTVSPost2010PropOp54
 70
     1
102
RTVSPost2010Prop55
280
     0
102
RTVSPost2010PropOp55
 70
     1
102
RTVSPost2010Prop56
140
1.0
102
RTVSPost2010PropOp56
 70
     1
102
RTVSPost2010Prop57
140
1.0
102
RTVSPost2010PropOp57
 70
     1
102
RTVSPropertyOp0
 70
     1
102
RTVSPropertyOp1
 70
     1
102
RTVSPropertyOp2
 70
     1
102
RTVSPropertyOp3
 70
     1
102
RTVSPropertyOp4
 70
     1
102
RTVSPropertyOp5
 70
     1
102
RTVSPropertyOp6
 70
     1
102
RTVSPropertyOp7
 70
     1
102
RTVSPropertyOp8
 70
     1
102
RTVSPropertyOp9
 70
     1
102
RTVSPropertyOp10
 70
     1
102
RTVSPropertyOp11
 70
     1
102
RTVSPropertyOp12
 70
     1
102
RTVSPropertyOp13
 70
     1
102
RTVSPropertyOp14
 70
     1
102
RTVSPropertyOp15
 70
     1
102
RTVSPropertyOp16
 70
     1
102
RTVSPropertyOp17
 70
     1
102
RTVSPropertyOp18
 70
     1
102
RTVSPropertyOp19
 70
     1
102
RTVSPropertyOp20
 70
     1
102
RTVSPropertyOp21
 70
     1
102
RTVSPropertyOp22
 70
     1
102
RTVSPropertyOp23
 70
     1
102
RTVSPropertyOp24
 70
     1
102
RTVSPropertyOp25
 70
     1
102
RTVSPropertyOp26
 70
     1
102
RTVSPropertyOp27
 70
     1
102
RTVSPropertyOp28
 70
     1
102
RTVSPropertyOp29
 70
     1
102
RTVSPropertyOp30
 70
     1
102
RTVSPropertyOp31
 70
     1
102
RTVSPropertyOp32
 70
     1
102
RTVSPropertyOp33
 70
     1
102
RTVSPropertyOp34
 70
     1
102
RTVSPropertyOp35
 70
     1
102
RTVSPropertyOp36
 70
     1
102
RTVSPropertyOp37
 70
     1
102
RTVSPropertyOp38
 70
     1
102
RTVSPropertyOp39
 70
     1
102
RTVSPropertyOp40
 70
     1
102
RTVSPropertyOp41
 70
     1
102
RTVSPropertyOp42
 70
     1
102
RTVSPropertyOp43
 70
     1
102
RTVSPropertyOp44
 70
     1
102
RTVSPropertyOp45
 70
     1
102
RTVSPropertyOp46
 70
     1
102
RTVSPropertyOp47
 70
     1
102
RTVSPropertyOp48
 70
     1
102
RTVSPropertyOp49
 70
     1
102
RTVSPropertyOp50
 70
     1
102
RTVSPropertyOp51
 70
     0
102
RTVSPropertyOp52
 70
     0
102
RTVSPropertyOp53
 70
     1
102
RTVSPropertyOp54
 70
     1
102
RTVSPropertyOp55
 70
     1
102
RTVSPropertyOp56
 70
     1
102
RTVSPropertyOp57
 70
     1
102
RTVSPropertyOp58
 70
     1
102
RTVSPropertyOp59
 70
     1
102
RTVSPropertyOp60
 70
     1
102
RTVSPropertyOp61
 70
     1
102
RTVSPropertyOp62
 70
     1
  0
XRECORD
  5
293F
102
{ACAD_REACTORS
330
293E
102
}
330
293E
100
AcDbXrecord
280
     1
102
RTVSPost2010Prop28
280
     0
102
RTVSPost2010PropOp28
 70
     1
102
RTVSPost2010Prop29
280
     1
102
RTVSPost2010PropOp29
 70
     1
102
RTVSPost2010Prop30
280
     1
102
RTVSPost2010PropOp30
 70
     1
102
RTVSPost2010Prop31
280
     0
102
RTVSPost2010PropOp31
 70
     1
102
RTVSPost2010Prop32
280
     0
102
RTVSPost2010PropOp32
 70
     1
102
RTVSPost2010Prop33
280
     0
102
RTVSPost2010PropOp33
 70
     1
102
RTVSPost2010Prop34
280
     0
102
RTVSPost2010PropOp34
 70
     1
102
RTVSPost2010Prop35
280
     0
102
RTVSPost2010PropOp35
 70
     1
102
RTVSPost2010Prop36
280
     0
102
RTVSPost2010PropOp36
 70
     1
102
RTVSPost2010Prop37
 90
       50
102
RTVSPost2010PropOp37
 70
     1
102
RTVSPost2010Prop38
140
0.0
102
RTVSPost2010PropOp38
 70
     1
102
RTVSPost2010Prop39
140
1.0
102
RTVSPost2010PropOp39
 70
     1
102
RTVSPost2010Prop40
 90
        0
102
RTVSPost2010PropOp40
 70
     1
102
RTVSPost2010Prop41ColorIndex
 90
       18
102
RTVSPost2010Prop41ColorRGB
 90
        0
102
RTVSPost2010PropOp41
 70
     1
102
RTVSPost2010Prop42
 90
       50
102
RTVSPost2010PropOp42
 70
     1
102
RTVSPost2010Prop43
 90
        3
102
RTVSPost2010PropOp43
 70
     1
102
RTVSPost2010Prop44ColorIndex
 90
        5
102
RTVSPost2010Prop44ColorRGB
 90
      255
102
RTVSPost2010PropOp44
 70
     1
102
RTVSPost2010Prop45
280
     0
102
RTVSPost2010PropOp45
 70
     1
102
RTVSPost2010Prop46
 90
       50
102
RTVSPost2010PropOp46
 70
     1
102
RTVSPost2010Prop47
 90
       50
102
RTVSPost2010PropOp47
 70
     1
102
RTVSPost2010Prop48
 90
       50
102
RTVSPost2010PropOp48
 70
     1
102
RTVSPost2010Prop49
280
     0
102
RTVSPost2010PropOp49
 70
     1
102
RTVSPost2010Prop50
 90
       50
102
RTVSPost2010PropOp50
 70
     1
102
RTVSPost2010Prop51ColorIndex
 90
      256
102
RTVSPost2010Prop51ColorRGB
 90
-16777216
102
RTVSPost2010PropOp51
 70
     0
102
RTVSPost2010Prop52
140
1.0
102
RTVSPost2010PropOp52
 70
     0
102
RTVSPost2010Prop53
 90
        2
102
RTVSPost2010PropOp53
 70
     1
102
RTVSPost2010Prop54
  1
strokes_ogs.tif
102
RTVSPost2010PropOp54
 70
     1
102
RTVSPost2010Prop55
280
     0
102
RTVSPost2010PropOp55
 70
     1
102
RTVSPost2010Prop56
140
1.0
102
RTVSPost2010PropOp56
 70
     1
102
RTVSPost2010Prop57
140
1.0
102
RTVSPost2010PropOp57
 70
     1
102
RTVSPropertyOp0
 70
     1
102
RTVSPropertyOp1
 70
     1
102
RTVSPropertyOp2
 70
     1
102
RTVSPropertyOp3
 70
     1
102
RTVSPropertyOp4
 70
     1
102
RTVSPropertyOp5
 70
     1
102
RTVSPropertyOp6
 70
     1
102
RTVSPropertyOp7
 70
     1
102
RTVSPropertyOp8
 70
     1
102
RTVSPropertyOp9
 70
     1
102
RTVSPropertyOp10
 70
     1
102
RTVSPropertyOp11
 70
     1
102
RTVSPropertyOp12
 70
     1
102
RTVSPropertyOp13
 70
     1
102
RTVSPropertyOp14
 70
     1
102
RTVSPropertyOp15
 70
     1
102
RTVSPropertyOp16
 70
     1
102
RTVSPropertyOp17
 70
     1
102
RTVSPropertyOp18
 70
     1
102
RTVSPropertyOp19
 70
     1
102
RTVSPropertyOp20
 70
     1
102
RTVSPropertyOp21
 70
     1
102
RTVSPropertyOp22
 70
     1
102
RTVSPropertyOp23
 70
     1
102
RTVSPropertyOp24
 70
     1
102
RTVSPropertyOp25
 70
     1
102
RTVSPropertyOp26
 70
     1
102
RTVSPropertyOp27
 70
     1
102
RTVSPropertyOp28
 70
     1
102
RTVSPropertyOp29
 70
     1
102
RTVSPropertyOp30
 70
     1
102
RTVSPropertyOp31
 70
     1
102
RTVSPropertyOp32
 70
     1
102
RTVSPropertyOp33
 70
     1
102
RTVSPropertyOp34
 70
     1
102
RTVSPropertyOp35
 70
     1
102
RTVSPropertyOp36
 70
     1
102
RTVSPropertyOp37
 70
     1
102
RTVSPropertyOp38
 70
     1
102
RTVSPropertyOp39
 70
     1
102
RTVSPropertyOp40
 70
     1
102
RTVSPropertyOp41
 70
     1
102
RTVSPropertyOp42
 70
     1
102
RTVSPropertyOp43
 70
     1
102
RTVSPropertyOp44
 70
     1
102
RTVSPropertyOp45
 70
     1
102
RTVSPropertyOp46
 70
     1
102
RTVSPropertyOp47
 70
     1
102
RTVSPropertyOp48
 70
     1
102
RTVSPropertyOp49
 70
     1
102
RTVSPropertyOp50
 70
     1
102
RTVSPropertyOp51
 70
     0
102
RTVSPropertyOp52
 70
     0
102
RTVSPropertyOp53
 70
     1
102
RTVSPropertyOp54
 70
     1
102
RTVSPropertyOp55
 70
     1
102
RTVSPropertyOp56
 70
     1
102
RTVSPropertyOp57
 70
     1
102
RTVSPropertyOp58
 70
     1
102
RTVSPropertyOp59
 70
     1
102
RTVSPropertyOp60
 70
     1
102
RTVSPropertyOp61
 70
     1
102
RTVSPropertyOp62
 70
     1
  0
XRECORD
  5
2931
102
{ACAD_REACTORS
330
2930
102
}
330
2930
100
AcDbXrecord
280
     1
102
RTVSPost2010Prop28
280
     0
102
RTVSPost2010PropOp28
 70
     1
102
RTVSPost2010Prop29
280
     1
102
RTVSPost2010PropOp29
 70
     1
102
RTVSPost2010Prop30
280
     1
102
RTVSPost2010PropOp30
 70
     1
102
RTVSPost2010Prop31
280
     0
102
RTVSPost2010PropOp31
 70
     1
102
RTVSPost2010Prop32
280
     0
102
RTVSPost2010PropOp32
 70
     1
102
RTVSPost2010Prop33
280
     0
102
RTVSPost2010PropOp33
 70
     1
102
RTVSPost2010Prop34
280
     0
102
RTVSPost2010PropOp34
 70
     1
102
RTVSPost2010Prop35
280
     0
102
RTVSPost2010PropOp35
 70
     1
102
RTVSPost2010Prop36
280
     0
102
RTVSPost2010PropOp36
 70
     1
102
RTVSPost2010Prop37
 90
       50
102
RTVSPost2010PropOp37
 70
     1
102
RTVSPost2010Prop38
140
0.0
102
RTVSPost2010PropOp38
 70
     1
102
RTVSPost2010Prop39
140
1.0
102
RTVSPost2010PropOp39
 70
     1
102
RTVSPost2010Prop40
 90
        0
102
RTVSPost2010PropOp40
 70
     1
102
RTVSPost2010Prop41ColorIndex
 90
       18
102
RTVSPost2010Prop41ColorRGB
 90
        0
102
RTVSPost2010PropOp41
 70
     1
102
RTVSPost2010Prop42
 90
       50
102
RTVSPost2010PropOp42
 70
     1
102
RTVSPost2010Prop43
 90
        3
102
RTVSPost2010PropOp43
 70
     1
102
RTVSPost2010Prop44ColorIndex
 90
        5
102
RTVSPost2010Prop44ColorRGB
 90
      255
102
RTVSPost2010PropOp44
 70
     1
102
RTVSPost2010Prop45
280
     0
102
RTVSPost2010PropOp45
 70
     1
102
RTVSPost2010Prop46
 90
       50
102
RTVSPost2010PropOp46
 70
     1
102
RTVSPost2010Prop47
 90
       50
102
RTVSPost2010PropOp47
 70
     1
102
RTVSPost2010Prop48
 90
       50
102
RTVSPost2010PropOp48
 70
     1
102
RTVSPost2010Prop49
280
     0
102
RTVSPost2010PropOp49
 70
     1
102
RTVSPost2010Prop50
 90
       50
102
RTVSPost2010PropOp50
 70
     1
102
RTVSPost2010Prop51ColorIndex
 90
      256
102
RTVSPost2010Prop51ColorRGB
 90
-16777216
102
RTVSPost2010PropOp51
 70
     0
102
RTVSPost2010Prop52
140
1.0
102
RTVSPost2010PropOp52
 70
     0
102
RTVSPost2010Prop53
 90
        2
102
RTVSPost2010PropOp53
 70
     1
102
RTVSPost2010Prop54
  1
strokes_ogs.tif
102
RTVSPost2010PropOp54
 70
     1
102
RTVSPost2010Prop55
280
     0
102
RTVSPost2010PropOp55
 70
     1
102
RTVSPost2010Prop56
140
1.0
102
RTVSPost2010PropOp56
 70
     1
102
RTVSPost2010Prop57
140
1.0
102
RTVSPost2010PropOp57
 70
     1
102
RTVSPropertyOp0
 70
     1
102
RTVSPropertyOp1
 70
     1
102
RTVSPropertyOp2
 70
     1
102
RTVSPropertyOp3
 70
     1
102
RTVSPropertyOp4
 70
     1
102
RTVSPropertyOp5
 70
     1
102
RTVSPropertyOp6
 70
     1
102
RTVSPropertyOp7
 70
     1
102
RTVSPropertyOp8
 70
     1
102
RTVSPropertyOp9
 70
     1
102
RTVSPropertyOp10
 70
     1
102
RTVSPropertyOp11
 70
     1
102
RTVSPropertyOp12
 70
     1
102
RTVSPropertyOp13
 70
     1
102
RTVSPropertyOp14
 70
     1
102
RTVSPropertyOp15
 70
     1
102
RTVSPropertyOp16
 70
     1
102
RTVSPropertyOp17
 70
     1
102
RTVSPropertyOp18
 70
     1
102
RTVSPropertyOp19
 70
     1
102
RTVSPropertyOp20
 70
     1
102
RTVSPropertyOp21
 70
     1
102
RTVSPropertyOp22
 70
     1
102
RTVSPropertyOp23
 70
     1
102
RTVSPropertyOp24
 70
     1
102
RTVSPropertyOp25
 70
     1
102
RTVSPropertyOp26
 70
     1
102
RTVSPropertyOp27
 70
     1
102
RTVSPropertyOp28
 70
     1
102
RTVSPropertyOp29
 70
     1
102
RTVSPropertyOp30
 70
     1
102
RTVSPropertyOp31
 70
     1
102
RTVSPropertyOp32
 70
     1
102
RTVSPropertyOp33
 70
     1
102
RTVSPropertyOp34
 70
     1
102
RTVSPropertyOp35
 70
     1
102
RTVSPropertyOp36
 70
     1
102
RTVSPropertyOp37
 70
     1
102
RTVSPropertyOp38
 70
     1
102
RTVSPropertyOp39
 70
     1
102
RTVSPropertyOp40
 70
     1
102
RTVSPropertyOp41
 70
     1
102
RTVSPropertyOp42
 70
     1
102
RTVSPropertyOp43
 70
     1
102
RTVSPropertyOp44
 70
     1
102
RTVSPropertyOp45
 70
     1
102
RTVSPropertyOp46
 70
     1
102
RTVSPropertyOp47
 70
     1
102
RTVSPropertyOp48
 70
     1
102
RTVSPropertyOp49
 70
     1
102
RTVSPropertyOp50
 70
     1
102
RTVSPropertyOp51
 70
     0
102
RTVSPropertyOp52
 70
     0
102
RTVSPropertyOp53
 70
     1
102
RTVSPropertyOp54
 70
     1
102
RTVSPropertyOp55
 70
     1
102
RTVSPropertyOp56
 70
     1
102
RTVSPropertyOp57
 70
     1
102
RTVSPropertyOp58
 70
     1
102
RTVSPropertyOp59
 70
     1
102
RTVSPropertyOp60
 70
     1
102
RTVSPropertyOp61
 70
     1
102
RTVSPropertyOp62
 70
     1
  0
XRECORD
  5
2935
102
{ACAD_REACTORS
330
2934
102
}
330
2934
100
AcDbXrecord
280
     1
102
RTVSPost2010Prop28
280
     0
102
RTVSPost2010PropOp28
 70
     1
102
RTVSPost2010Prop29
280
     1
102
RTVSPost2010PropOp29
 70
     1
102
RTVSPost2010Prop30
280
     1
102
RTVSPost2010PropOp30
 70
     1
102
RTVSPost2010Prop31
280
     0
102
RTVSPost2010PropOp31
 70
     1
102
RTVSPost2010Prop32
280
     0
102
RTVSPost2010PropOp32
 70
     1
102
RTVSPost2010Prop33
280
     0
102
RTVSPost2010PropOp33
 70
     1
102
RTVSPost2010Prop34
280
     0
102
RTVSPost2010PropOp34
 70
     1
102
RTVSPost2010Prop35
280
     0
102
RTVSPost2010PropOp35
 70
     1
102
RTVSPost2010Prop36
280
     0
102
RTVSPost2010PropOp36
 70
     1
102
RTVSPost2010Prop37
 90
       50
102
RTVSPost2010PropOp37
 70
     1
102
RTVSPost2010Prop38
140
0.0
102
RTVSPost2010PropOp38
 70
     1
102
RTVSPost2010Prop39
140
1.0
102
RTVSPost2010PropOp39
 70
     1
102
RTVSPost2010Prop40
 90
        0
102
RTVSPost2010PropOp40
 70
     1
102
RTVSPost2010Prop41ColorIndex
 90
       18
102
RTVSPost2010Prop41ColorRGB
 90
        0
102
RTVSPost2010PropOp41
 70
     1
102
RTVSPost2010Prop42
 90
       50
102
RTVSPost2010PropOp42
 70
     1
102
RTVSPost2010Prop43
 90
        3
102
RTVSPost2010PropOp43
 70
     1
102
RTVSPost2010Prop44ColorIndex
 90
        5
102
RTVSPost2010Prop44ColorRGB
 90
      255
102
RTVSPost2010PropOp44
 70
     1
102
RTVSPost2010Prop45
280
     0
102
RTVSPost2010PropOp45
 70
     1
102
RTVSPost2010Prop46
 90
       50
102
RTVSPost2010PropOp46
 70
     1
102
RTVSPost2010Prop47
 90
       50
102
RTVSPost2010PropOp47
 70
     1
102
RTVSPost2010Prop48
 90
       50
102
RTVSPost2010PropOp48
 70
     1
102
RTVSPost2010Prop49
280
     0
102
RTVSPost2010PropOp49
 70
     1
102
RTVSPost2010Prop50
 90
       50
102
RTVSPost2010PropOp50
 70
     1
102
RTVSPost2010Prop51ColorIndex
 90
      256
102
RTVSPost2010Prop51ColorRGB
 90
-16777216
102
RTVSPost2010PropOp51
 70
     0
102
RTVSPost2010Prop52
140
1.0
102
RTVSPost2010PropOp52
 70
     0
102
RTVSPost2010Prop53
 90
        2
102
RTVSPost2010PropOp53
 70
     1
102
RTVSPost2010Prop54
  1
strokes_ogs.tif
102
RTVSPost2010PropOp54
 70
     1
102
RTVSPost2010Prop55
280
     0
102
RTVSPost2010PropOp55
 70
     1
102
RTVSPost2010Prop56
140
1.0
102
RTVSPost2010PropOp56
 70
     1
102
RTVSPost2010Prop57
140
1.0
102
RTVSPost2010PropOp57
 70
     1
102
RTVSPropertyOp0
 70
     1
102
RTVSPropertyOp1
 70
     1
102
RTVSPropertyOp2
 70
     1
102
RTVSPropertyOp3
 70
     1
102
RTVSPropertyOp4
 70
     1
102
RTVSPropertyOp5
 70
     1
102
RTVSPropertyOp6
 70
     1
102
RTVSPropertyOp7
 70
     1
102
RTVSPropertyOp8
 70
     1
102
RTVSPropertyOp9
 70
     1
102
RTVSPropertyOp10
 70
     1
102
RTVSPropertyOp11
 70
     1
102
RTVSPropertyOp12
 70
     1
102
RTVSPropertyOp13
 70
     1
102
RTVSPropertyOp14
 70
     1
102
RTVSPropertyOp15
 70
     1
102
RTVSPropertyOp16
 70
     1
102
RTVSPropertyOp17
 70
     1
102
RTVSPropertyOp18
 70
     1
102
RTVSPropertyOp19
 70
     1
102
RTVSPropertyOp20
 70
     1
102
RTVSPropertyOp21
 70
     1
102
RTVSPropertyOp22
 70
     1
102
RTVSPropertyOp23
 70
     1
102
RTVSPropertyOp24
 70
     1
102
RTVSPropertyOp25
 70
     1
102
RTVSPropertyOp26
 70
     1
102
RTVSPropertyOp27
 70
     1
102
RTVSPropertyOp28
 70
     1
102
RTVSPropertyOp29
 70
     1
102
RTVSPropertyOp30
 70
     1
102
RTVSPropertyOp31
 70
     1
102
RTVSPropertyOp32
 70
     1
102
RTVSPropertyOp33
 70
     1
102
RTVSPropertyOp34
 70
     1
102
RTVSPropertyOp35
 70
     1
102
RTVSPropertyOp36
 70
     1
102
RTVSPropertyOp37
 70
     1
102
RTVSPropertyOp38
 70
     1
102
RTVSPropertyOp39
 70
     1
102
RTVSPropertyOp40
 70
     1
102
RTVSPropertyOp41
 70
     1
102
RTVSPropertyOp42
 70
     1
102
RTVSPropertyOp43
 70
     1
102
RTVSPropertyOp44
 70
     1
102
RTVSPropertyOp45
 70
     1
102
RTVSPropertyOp46
 70
     1
102
RTVSPropertyOp47
 70
     1
102
RTVSPropertyOp48
 70
     1
102
RTVSPropertyOp49
 70
     1
102
RTVSPropertyOp50
 70
     1
102
RTVSPropertyOp51
 70
     0
102
RTVSPropertyOp52
 70
     0
102
RTVSPropertyOp53
 70
     1
102
RTVSPropertyOp54
 70
     1
102
RTVSPropertyOp55
 70
     1
102
RTVSPropertyOp56
 70
     1
102
RTVSPropertyOp57
 70
     1
102
RTVSPropertyOp58
 70
     1
102
RTVSPropertyOp59
 70
     1
102
RTVSPropertyOp60
 70
     1
102
RTVSPropertyOp61
 70
     1
102
RTVSPropertyOp62
 70
     1
  0
XRECORD
  5
294F
102
{ACAD_REACTORS
330
294E
102
}
330
294E
100
AcDbXrecord
280
     1
102
RTVSPost2010Prop28
280
     0
102
RTVSPost2010PropOp28
 70
     1
102
RTVSPost2010Prop29
280
     1
102
RTVSPost2010PropOp29
 70
     1
102
RTVSPost2010Prop30
280
     1
102
RTVSPost2010PropOp30
 70
     1
102
RTVSPost2010Prop31
280
     0
102
RTVSPost2010PropOp31
 70
     1
102
RTVSPost2010Prop32
280
     0
102
RTVSPost2010PropOp32
 70
     1
102
RTVSPost2010Prop33
280
     0
102
RTVSPost2010PropOp33
 70
     1
102
RTVSPost2010Prop34
280
     0
102
RTVSPost2010PropOp34
 70
     1
102
RTVSPost2010Prop35
280
     0
102
RTVSPost2010PropOp35
 70
     1
102
RTVSPost2010Prop36
280
     0
102
RTVSPost2010PropOp36
 70
     1
102
RTVSPost2010Prop37
 90
       50
102
RTVSPost2010PropOp37
 70
     0
102
RTVSPost2010Prop38
140
0.0
102
RTVSPost2010PropOp38
 70
     0
102
RTVSPost2010Prop39
140
1.0
102
RTVSPost2010PropOp39
 70
     0
102
RTVSPost2010Prop40
 90
        0
102
RTVSPost2010PropOp40
 70
     0
102
RTVSPost2010Prop41ColorIndex
 90
       18
102
RTVSPost2010Prop41ColorRGB
 90
        0
102
RTVSPost2010PropOp41
 70
     0
102
RTVSPost2010Prop42
 90
       50
102
RTVSPost2010PropOp42
 70
     0
102
RTVSPost2010Prop43
 90
        3
102
RTVSPost2010PropOp43
 70
     0
102
RTVSPost2010Prop44ColorIndex
 90
        5
102
RTVSPost2010Prop44ColorRGB
 90
      255
102
RTVSPost2010PropOp44
 70
     0
102
RTVSPost2010Prop45
280
     0
102
RTVSPost2010PropOp45
 70
     1
102
RTVSPost2010Prop46
 90
       50
102
RTVSPost2010PropOp46
 70
     0
102
RTVSPost2010Prop47
 90
       50
102
RTVSPost2010PropOp47
 70
     0
102
RTVSPost2010Prop48
 90
       50
102
RTVSPost2010PropOp48
 70
     0
102
RTVSPost2010Prop49
280
     0
102
RTVSPost2010PropOp49
 70
     1
102
RTVSPost2010Prop50
 90
       50
102
RTVSPost2010PropOp50
 70
     0
102
RTVSPost2010Prop51ColorIndex
 90
      256
102
RTVSPost2010Prop51ColorRGB
 90
-16777216
102
RTVSPost2010PropOp51
 70
     0
102
RTVSPost2010Prop52
140
1.0
102
RTVSPost2010PropOp52
 70
     0
102
RTVSPost2010Prop53
 90
        2
102
RTVSPost2010PropOp53
 70
     0
102
RTVSPost2010Prop54
  1
strokes_ogs.tif
102
RTVSPost2010PropOp54
 70
     0
102
RTVSPost2010Prop55
280
     0
102
RTVSPost2010PropOp55
 70
     1
102
RTVSPost2010Prop56
140
1.0
102
RTVSPost2010PropOp56
 70
     0
102
RTVSPost2010Prop57
140
1.0
102
RTVSPost2010PropOp57
 70
     0
102
RTVSPropertyOp0
 70
     0
102
RTVSPropertyOp1
 70
     0
102
RTVSPropertyOp2
 70
     0
102
RTVSPropertyOp3
 70
     0
102
RTVSPropertyOp4
 70
     0
102
RTVSPropertyOp5
 70
     0
102
RTVSPropertyOp6
 70
     0
102
RTVSPropertyOp7
 70
     0
102
RTVSPropertyOp8
 70
     0
102
RTVSPropertyOp9
 70
     0
102
RTVSPropertyOp10
 70
     0
102
RTVSPropertyOp11
 70
     0
102
RTVSPropertyOp12
 70
     0
102
RTVSPropertyOp13
 70
     0
102
RTVSPropertyOp14
 70
     2
102
RTVSPropertyOp15
 70
     0
102
RTVSPropertyOp16
 70
     0
102
RTVSPropertyOp17
 70
     0
102
RTVSPropertyOp18
 70
     0
102
RTVSPropertyOp19
 70
     0
102
RTVSPropertyOp20
 70
     0
102
RTVSPropertyOp21
 70
     0
102
RTVSPropertyOp22
 70
     0
102
RTVSPropertyOp23
 70
     0
102
RTVSPropertyOp24
 70
     0
102
RTVSPropertyOp25
 70
     0
102
RTVSPropertyOp26
 70
     0
102
RTVSPropertyOp27
 70
     0
102
RTVSPropertyOp28
 70
     1
102
RTVSPropertyOp29
 70
     1
102
RTVSPropertyOp30
 70
     1
102
RTVSPropertyOp31
 70
     1
102
RTVSPropertyOp32
 70
     1
102
RTVSPropertyOp33
 70
     1
102
RTVSPropertyOp34
 70
     1
102
RTVSPropertyOp35
 70
     1
102
RTVSPropertyOp36
 70
     1
102
RTVSPropertyOp37
 70
     0
102
RTVSPropertyOp38
 70
     0
102
RTVSPropertyOp39
 70
     0
102
RTVSPropertyOp40
 70
     0
102
RTVSPropertyOp41
 70
     0
102
RTVSPropertyOp42
 70
     0
102
RTVSPropertyOp43
 70
     0
102
RTVSPropertyOp44
 70
     0
102
RTVSPropertyOp45
 70
     1
102
RTVSPropertyOp46
 70
     0
102
RTVSPropertyOp47
 70
     0
102
RTVSPropertyOp48
 70
     0
102
RTVSPropertyOp49
 70
     1
102
RTVSPropertyOp50
 70
     0
102
RTVSPropertyOp51
 70
     0
102
RTVSPropertyOp52
 70
     0
102
RTVSPropertyOp53
 70
     0
102
RTVSPropertyOp54
 70
     0
102
RTVSPropertyOp55
 70
     1
102
RTVSPropertyOp56
 70
     0
102
RTVSPropertyOp57
 70
     0
102
RTVSPropertyOp58
 70
     0
102
RTVSPropertyOp59
 70
     0
102
RTVSPropertyOp60
 70
     0
102
RTVSPropertyOp61
 70
     0
102
RTVSPropertyOp62
 70
     0
  0
XRECORD
  5
293D
102
{ACAD_REACTORS
330
293C
102
}
330
293C
100
AcDbXrecord
280
     1
102
RTVSPost2010Prop28
280
     0
102
RTVSPost2010PropOp28
 70
     1
102
RTVSPost2010Prop29
280
     1
102
RTVSPost2010PropOp29
 70
     1
102
RTVSPost2010Prop30
280
     1
102
RTVSPost2010PropOp30
 70
     1
102
RTVSPost2010Prop31
280
     0
102
RTVSPost2010PropOp31
 70
     1
102
RTVSPost2010Prop32
280
     0
102
RTVSPost2010PropOp32
 70
     1
102
RTVSPost2010Prop33
280
     0
102
RTVSPost2010PropOp33
 70
     1
102
RTVSPost2010Prop34
280
     0
102
RTVSPost2010PropOp34
 70
     1
102
RTVSPost2010Prop35
280
     0
102
RTVSPost2010PropOp35
 70
     1
102
RTVSPost2010Prop36
280
     0
102
RTVSPost2010PropOp36
 70
     1
102
RTVSPost2010Prop37
 90
       50
102
RTVSPost2010PropOp37
 70
     1
102
RTVSPost2010Prop38
140
0.0
102
RTVSPost2010PropOp38
 70
     1
102
RTVSPost2010Prop39
140
1.0
102
RTVSPost2010PropOp39
 70
     1
102
RTVSPost2010Prop40
 90
        0
102
RTVSPost2010PropOp40
 70
     1
102
RTVSPost2010Prop41ColorIndex
 90
       18
102
RTVSPost2010Prop41ColorRGB
 90
        0
102
RTVSPost2010PropOp41
 70
     1
102
RTVSPost2010Prop42
 90
       50
102
RTVSPost2010PropOp42
 70
     1
102
RTVSPost2010Prop43
 90
        3
102
RTVSPost2010PropOp43
 70
     1
102
RTVSPost2010Prop44ColorIndex
 90
        5
102
RTVSPost2010Prop44ColorRGB
 90
      255
102
RTVSPost2010PropOp44
 70
     1
102
RTVSPost2010Prop45
280
     0
102
RTVSPost2010PropOp45
 70
     1
102
RTVSPost2010Prop46
 90
       50
102
RTVSPost2010PropOp46
 70
     1
102
RTVSPost2010Prop47
 90
       50
102
RTVSPost2010PropOp47
 70
     1
102
RTVSPost2010Prop48
 90
       50
102
RTVSPost2010PropOp48
 70
     1
102
RTVSPost2010Prop49
280
     0
102
RTVSPost2010PropOp49
 70
     1
102
RTVSPost2010Prop50
 90
       50
102
RTVSPost2010PropOp50
 70
     1
102
RTVSPost2010Prop51ColorIndex
 90
      256
102
RTVSPost2010Prop51ColorRGB
 90
-16777216
102
RTVSPost2010PropOp51
 70
     0
102
RTVSPost2010Prop52
140
1.0
102
RTVSPost2010PropOp52
 70
     0
102
RTVSPost2010Prop53
 90
        2
102
RTVSPost2010PropOp53
 70
     1
102
RTVSPost2010Prop54
  1
strokes_ogs.tif
102
RTVSPost2010PropOp54
 70
     1
102
RTVSPost2010Prop55
280
     0
102
RTVSPost2010PropOp55
 70
     1
102
RTVSPost2010Prop56
140
1.0
102
RTVSPost2010PropOp56
 70
     1
102
RTVSPost2010Prop57
140
1.0
102
RTVSPost2010PropOp57
 70
     1
102
RTVSPropertyOp0
 70
     1
102
RTVSPropertyOp1
 70
     1
102
RTVSPropertyOp2
 70
     1
102
RTVSPropertyOp3
 70
     1
102
RTVSPropertyOp4
 70
     1
102
RTVSPropertyOp5
 70
     1
102
RTVSPropertyOp6
 70
     1
102
RTVSPropertyOp7
 70
     1
102
RTVSPropertyOp8
 70
     1
102
RTVSPropertyOp9
 70
     1
102
RTVSPropertyOp10
 70
     1
102
RTVSPropertyOp11
 70
     1
102
RTVSPropertyOp12
 70
     1
102
RTVSPropertyOp13
 70
     1
102
RTVSPropertyOp14
 70
     1
102
RTVSPropertyOp15
 70
     1
102
RTVSPropertyOp16
 70
     1
102
RTVSPropertyOp17
 70
     1
102
RTVSPropertyOp18
 70
     1
102
RTVSPropertyOp19
 70
     1
102
RTVSPropertyOp20
 70
     1
102
RTVSPropertyOp21
 70
     1
102
RTVSPropertyOp22
 70
     1
102
RTVSPropertyOp23
 70
     1
102
RTVSPropertyOp24
 70
     1
102
RTVSPropertyOp25
 70
     1
102
RTVSPropertyOp26
 70
     1
102
RTVSPropertyOp27
 70
     1
102
RTVSPropertyOp28
 70
     1
102
RTVSPropertyOp29
 70
     1
102
RTVSPropertyOp30
 70
     1
102
RTVSPropertyOp31
 70
     1
102
RTVSPropertyOp32
 70
     1
102
RTVSPropertyOp33
 70
     1
102
RTVSPropertyOp34
 70
     1
102
RTVSPropertyOp35
 70
     1
102
RTVSPropertyOp36
 70
     1
102
RTVSPropertyOp37
 70
     1
102
RTVSPropertyOp38
 70
     1
102
RTVSPropertyOp39
 70
     1
102
RTVSPropertyOp40
 70
     1
102
RTVSPropertyOp41
 70
     1
102
RTVSPropertyOp42
 70
     1
102
RTVSPropertyOp43
 70
     1
102
RTVSPropertyOp44
 70
     1
102
RTVSPropertyOp45
 70
     1
102
RTVSPropertyOp46
 70
     1
102
RTVSPropertyOp47
 70
     1
102
RTVSPropertyOp48
 70
     1
102
RTVSPropertyOp49
 70
     1
102
RTVSPropertyOp50
 70
     1
102
RTVSPropertyOp51
 70
     0
102
RTVSPropertyOp52
 70
     0
102
RTVSPropertyOp53
 70
     1
102
RTVSPropertyOp54
 70
     1
102
RTVSPropertyOp55
 70
     1
102
RTVSPropertyOp56
 70
     1
102
RTVSPropertyOp57
 70
     1
102
RTVSPropertyOp58
 70
     1
102
RTVSPropertyOp59
 70
     1
102
RTVSPropertyOp60
 70
     1
102
RTVSPropertyOp61
 70
     1
102
RTVSPropertyOp62
 70
     1
  0
XRECORD
  5
2921
102
{ACAD_REACTORS
330
2920
102
}
330
2920
100
AcDbXrecord
280
     1
102
RTVSPost2010Prop28
280
     0
102
RTVSPost2010PropOp28
 70
     1
102
RTVSPost2010Prop29
280
     1
102
RTVSPost2010PropOp29
 70
     1
102
RTVSPost2010Prop30
280
     1
102
RTVSPost2010PropOp30
 70
     1
102
RTVSPost2010Prop31
280
     0
102
RTVSPost2010PropOp31
 70
     1
102
RTVSPost2010Prop32
280
     0
102
RTVSPost2010PropOp32
 70
     1
102
RTVSPost2010Prop33
280
     0
102
RTVSPost2010PropOp33
 70
     1
102
RTVSPost2010Prop34
280
     0
102
RTVSPost2010PropOp34
 70
     1
102
RTVSPost2010Prop35
280
     0
102
RTVSPost2010PropOp35
 70
     1
102
RTVSPost2010Prop36
280
     0
102
RTVSPost2010PropOp36
 70
     1
102
RTVSPost2010Prop37
 90
       50
102
RTVSPost2010PropOp37
 70
     1
102
RTVSPost2010Prop38
140
0.0
102
RTVSPost2010PropOp38
 70
     1
102
RTVSPost2010Prop39
140
1.0
102
RTVSPost2010PropOp39
 70
     1
102
RTVSPost2010Prop40
 90
        0
102
RTVSPost2010PropOp40
 70
     1
102
RTVSPost2010Prop41ColorIndex
 90
       18
102
RTVSPost2010Prop41ColorRGB
 90
        0
102
RTVSPost2010PropOp41
 70
     1
102
RTVSPost2010Prop42
 90
       50
102
RTVSPost2010PropOp42
 70
     1
102
RTVSPost2010Prop43
 90
        3
102
RTVSPost2010PropOp43
 70
     1
102
RTVSPost2010Prop44ColorIndex
 90
        5
102
RTVSPost2010Prop44ColorRGB
 90
      255
102
RTVSPost2010PropOp44
 70
     1
102
RTVSPost2010Prop45
280
     0
102
RTVSPost2010PropOp45
 70
     1
102
RTVSPost2010Prop46
 90
       50
102
RTVSPost2010PropOp46
 70
     1
102
RTVSPost2010Prop47
 90
       50
102
RTVSPost2010PropOp47
 70
     1
102
RTVSPost2010Prop48
 90
       50
102
RTVSPost2010PropOp48
 70
     1
102
RTVSPost2010Prop49
280
     0
102
RTVSPost2010PropOp49
 70
     1
102
RTVSPost2010Prop50
 90
       50
102
RTVSPost2010PropOp50
 70
     1
102
RTVSPost2010Prop51ColorIndex
 90
      256
102
RTVSPost2010Prop51ColorRGB
 90
-16777216
102
RTVSPost2010PropOp51
 70
     0
102
RTVSPost2010Prop52
140
1.0
102
RTVSPost2010PropOp52
 70
     0
102
RTVSPost2010Prop53
 90
        2
102
RTVSPost2010PropOp53
 70
     1
102
RTVSPost2010Prop54
  1
strokes_ogs.tif
102
RTVSPost2010PropOp54
 70
     1
102
RTVSPost2010Prop55
280
     0
102
RTVSPost2010PropOp55
 70
     1
102
RTVSPost2010Prop56
140
1.0
102
RTVSPost2010PropOp56
 70
     1
102
RTVSPost2010Prop57
140
1.0
102
RTVSPost2010PropOp57
 70
     1
102
RTVSPropertyOp0
 70
     1
102
RTVSPropertyOp1
 70
     1
102
RTVSPropertyOp2
 70
     1
102
RTVSPropertyOp3
 70
     1
102
RTVSPropertyOp4
 70
     1
102
RTVSPropertyOp5
 70
     1
102
RTVSPropertyOp6
 70
     1
102
RTVSPropertyOp7
 70
     1
102
RTVSPropertyOp8
 70
     1
102
RTVSPropertyOp9
 70
     1
102
RTVSPropertyOp10
 70
     1
102
RTVSPropertyOp11
 70
     1
102
RTVSPropertyOp12
 70
     1
102
RTVSPropertyOp13
 70
     1
102
RTVSPropertyOp14
 70
     1
102
RTVSPropertyOp15
 70
     1
102
RTVSPropertyOp16
 70
     1
102
RTVSPropertyOp17
 70
     1
102
RTVSPropertyOp18
 70
     1
102
RTVSPropertyOp19
 70
     1
102
RTVSPropertyOp20
 70
     1
102
RTVSPropertyOp21
 70
     1
102
RTVSPropertyOp22
 70
     1
102
RTVSPropertyOp23
 70
     1
102
RTVSPropertyOp24
 70
     1
102
RTVSPropertyOp25
 70
     1
102
RTVSPropertyOp26
 70
     1
102
RTVSPropertyOp27
 70
     1
102
RTVSPropertyOp28
 70
     1
102
RTVSPropertyOp29
 70
     1
102
RTVSPropertyOp30
 70
     1
102
RTVSPropertyOp31
 70
     1
102
RTVSPropertyOp32
 70
     1
102
RTVSPropertyOp33
 70
     1
102
RTVSPropertyOp34
 70
     1
102
RTVSPropertyOp35
 70
     1
102
RTVSPropertyOp36
 70
     1
102
RTVSPropertyOp37
 70
     1
102
RTVSPropertyOp38
 70
     1
102
RTVSPropertyOp39
 70
     1
102
RTVSPropertyOp40
 70
     1
102
RTVSPropertyOp41
 70
     1
102
RTVSPropertyOp42
 70
     1
102
RTVSPropertyOp43
 70
     1
102
RTVSPropertyOp44
 70
     1
102
RTVSPropertyOp45
 70
     1
102
RTVSPropertyOp46
 70
     1
102
RTVSPropertyOp47
 70
     1
102
RTVSPropertyOp48
 70
     1
102
RTVSPropertyOp49
 70
     1
102
RTVSPropertyOp50
 70
     1
102
RTVSPropertyOp51
 70
     0
102
RTVSPropertyOp52
 70
     0
102
RTVSPropertyOp53
 70
     1
102
RTVSPropertyOp54
 70
     1
102
RTVSPropertyOp55
 70
     1
102
RTVSPropertyOp56
 70
     1
102
RTVSPropertyOp57
 70
     1
102
RTVSPropertyOp58
 70
     1
102
RTVSPropertyOp59
 70
     1
102
RTVSPropertyOp60
 70
     1
102
RTVSPropertyOp61
 70
     1
102
RTVSPropertyOp62
 70
     1
  0
XRECORD
  5
2923
102
{ACAD_REACTORS
330
2922
102
}
330
2922
100
AcDbXrecord
280
     1
102
RTVSPost2010Prop28
280
     0
102
RTVSPost2010PropOp28
 70
     1
102
RTVSPost2010Prop29
280
     1
102
RTVSPost2010PropOp29
 70
     1
102
RTVSPost2010Prop30
280
     1
102
RTVSPost2010PropOp30
 70
     1
102
RTVSPost2010Prop31
280
     0
102
RTVSPost2010PropOp31
 70
     1
102
RTVSPost2010Prop32
280
     0
102
RTVSPost2010PropOp32
 70
     1
102
RTVSPost2010Prop33
280
     0
102
RTVSPost2010PropOp33
 70
     1
102
RTVSPost2010Prop34
280
     0
102
RTVSPost2010PropOp34
 70
     1
102
RTVSPost2010Prop35
280
     0
102
RTVSPost2010PropOp35
 70
     1
102
RTVSPost2010Prop36
280
     0
102
RTVSPost2010PropOp36
 70
     1
102
RTVSPost2010Prop37
 90
       50
102
RTVSPost2010PropOp37
 70
     1
102
RTVSPost2010Prop38
140
0.0
102
RTVSPost2010PropOp38
 70
     1
102
RTVSPost2010Prop39
140
1.0
102
RTVSPost2010PropOp39
 70
     1
102
RTVSPost2010Prop40
 90
        0
102
RTVSPost2010PropOp40
 70
     1
102
RTVSPost2010Prop41ColorIndex
 90
       18
102
RTVSPost2010Prop41ColorRGB
 90
        0
102
RTVSPost2010PropOp41
 70
     1
102
RTVSPost2010Prop42
 90
       50
102
RTVSPost2010PropOp42
 70
     1
102
RTVSPost2010Prop43
 90
        3
102
RTVSPost2010PropOp43
 70
     1
102
RTVSPost2010Prop44ColorIndex
 90
        5
102
RTVSPost2010Prop44ColorRGB
 90
      255
102
RTVSPost2010PropOp44
 70
     1
102
RTVSPost2010Prop45
280
     0
102
RTVSPost2010PropOp45
 70
     1
102
RTVSPost2010Prop46
 90
       50
102
RTVSPost2010PropOp46
 70
     1
102
RTVSPost2010Prop47
 90
       50
102
RTVSPost2010PropOp47
 70
     1
102
RTVSPost2010Prop48
 90
       50
102
RTVSPost2010PropOp48
 70
     1
102
RTVSPost2010Prop49
280
     0
102
RTVSPost2010PropOp49
 70
     1
102
RTVSPost2010Prop50
 90
       50
102
RTVSPost2010PropOp50
 70
     1
102
RTVSPost2010Prop51ColorIndex
 90
      256
102
RTVSPost2010Prop51ColorRGB
 90
-16777216
102
RTVSPost2010PropOp51
 70
     0
102
RTVSPost2010Prop52
140
1.0
102
RTVSPost2010PropOp52
 70
     0
102
RTVSPost2010Prop53
 90
        2
102
RTVSPost2010PropOp53
 70
     1
102
RTVSPost2010Prop54
  1
strokes_ogs.tif
102
RTVSPost2010PropOp54
 70
     1
102
RTVSPost2010Prop55
280
     0
102
RTVSPost2010PropOp55
 70
     1
102
RTVSPost2010Prop56
140
1.0
102
RTVSPost2010PropOp56
 70
     1
102
RTVSPost2010Prop57
140
1.0
102
RTVSPost2010PropOp57
 70
     1
102
RTVSPropertyOp0
 70
     1
102
RTVSPropertyOp1
 70
     1
102
RTVSPropertyOp2
 70
     1
102
RTVSPropertyOp3
 70
     1
102
RTVSPropertyOp4
 70
     1
102
RTVSPropertyOp5
 70
     1
102
RTVSPropertyOp6
 70
     1
102
RTVSPropertyOp7
 70
     1
102
RTVSPropertyOp8
 70
     1
102
RTVSPropertyOp9
 70
     1
102
RTVSPropertyOp10
 70
     1
102
RTVSPropertyOp11
 70
     1
102
RTVSPropertyOp12
 70
     1
102
RTVSPropertyOp13
 70
     1
102
RTVSPropertyOp14
 70
     1
102
RTVSPropertyOp15
 70
     1
102
RTVSPropertyOp16
 70
     1
102
RTVSPropertyOp17
 70
     1
102
RTVSPropertyOp18
 70
     1
102
RTVSPropertyOp19
 70
     1
102
RTVSPropertyOp20
 70
     1
102
RTVSPropertyOp21
 70
     1
102
RTVSPropertyOp22
 70
     1
102
RTVSPropertyOp23
 70
     1
102
RTVSPropertyOp24
 70
     1
102
RTVSPropertyOp25
 70
     1
102
RTVSPropertyOp26
 70
     1
102
RTVSPropertyOp27
 70
     1
102
RTVSPropertyOp28
 70
     1
102
RTVSPropertyOp29
 70
     1
102
RTVSPropertyOp30
 70
     1
102
RTVSPropertyOp31
 70
     1
102
RTVSPropertyOp32
 70
     1
102
RTVSPropertyOp33
 70
     1
102
RTVSPropertyOp34
 70
     1
102
RTVSPropertyOp35
 70
     1
102
RTVSPropertyOp36
 70
     1
102
RTVSPropertyOp37
 70
     1
102
RTVSPropertyOp38
 70
     1
102
RTVSPropertyOp39
 70
     1
102
RTVSPropertyOp40
 70
     1
102
RTVSPropertyOp41
 70
     1
102
RTVSPropertyOp42
 70
     1
102
RTVSPropertyOp43
 70
     1
102
RTVSPropertyOp44
 70
     1
102
RTVSPropertyOp45
 70
     1
102
RTVSPropertyOp46
 70
     1
102
RTVSPropertyOp47
 70
     1
102
RTVSPropertyOp48
 70
     1
102
RTVSPropertyOp49
 70
     1
102
RTVSPropertyOp50
 70
     1
102
RTVSPropertyOp51
 70
     0
102
RTVSPropertyOp52
 70
     0
102
RTVSPropertyOp53
 70
     1
102
RTVSPropertyOp54
 70
     1
102
RTVSPropertyOp55
 70
     1
102
RTVSPropertyOp56
 70
     1
102
RTVSPropertyOp57
 70
     1
102
RTVSPropertyOp58
 70
     1
102
RTVSPropertyOp59
 70
     1
102
RTVSPropertyOp60
 70
     1
102
RTVSPropertyOp61
 70
     1
102
RTVSPropertyOp62
 70
     1
  0
XRECORD
  5
2925
102
{ACAD_REACTORS
330
2924
102
}
330
2924
100
AcDbXrecord
280
     1
102
RTVSPost2010Prop28
280
     0
102
RTVSPost2010PropOp28
 70
     1
102
RTVSPost2010Prop29
280
     1
102
RTVSPost2010PropOp29
 70
     1
102
RTVSPost2010Prop30
280
     1
102
RTVSPost2010PropOp30
 70
     1
102
RTVSPost2010Prop31
280
     0
102
RTVSPost2010PropOp31
 70
     1
102
RTVSPost2010Prop32
280
     0
102
RTVSPost2010PropOp32
 70
     1
102
RTVSPost2010Prop33
280
     0
102
RTVSPost2010PropOp33
 70
     1
102
RTVSPost2010Prop34
280
     0
102
RTVSPost2010PropOp34
 70
     1
102
RTVSPost2010Prop35
280
     0
102
RTVSPost2010PropOp35
 70
     1
102
RTVSPost2010Prop36
280
     0
102
RTVSPost2010PropOp36
 70
     1
102
RTVSPost2010Prop37
 90
       50
102
RTVSPost2010PropOp37
 70
     1
102
RTVSPost2010Prop38
140
0.0
102
RTVSPost2010PropOp38
 70
     1
102
RTVSPost2010Prop39
140
1.0
102
RTVSPost2010PropOp39
 70
     1
102
RTVSPost2010Prop40
 90
        0
102
RTVSPost2010PropOp40
 70
     1
102
RTVSPost2010Prop41ColorIndex
 90
       18
102
RTVSPost2010Prop41ColorRGB
 90
        0
102
RTVSPost2010PropOp41
 70
     1
102
RTVSPost2010Prop42
 90
       50
102
RTVSPost2010PropOp42
 70
     1
102
RTVSPost2010Prop43
 90
        3
102
RTVSPost2010PropOp43
 70
     1
102
RTVSPost2010Prop44ColorIndex
 90
        5
102
RTVSPost2010Prop44ColorRGB
 90
      255
102
RTVSPost2010PropOp44
 70
     1
102
RTVSPost2010Prop45
280
     0
102
RTVSPost2010PropOp45
 70
     1
102
RTVSPost2010Prop46
 90
       50
102
RTVSPost2010PropOp46
 70
     1
102
RTVSPost2010Prop47
 90
       50
102
RTVSPost2010PropOp47
 70
     1
102
RTVSPost2010Prop48
 90
       50
102
RTVSPost2010PropOp48
 70
     1
102
RTVSPost2010Prop49
280
     0
102
RTVSPost2010PropOp49
 70
     1
102
RTVSPost2010Prop50
 90
       50
102
RTVSPost2010PropOp50
 70
     1
102
RTVSPost2010Prop51ColorIndex
 90
      256
102
RTVSPost2010Prop51ColorRGB
 90
-16777216
102
RTVSPost2010PropOp51
 70
     0
102
RTVSPost2010Prop52
140
1.0
102
RTVSPost2010PropOp52
 70
     0
102
RTVSPost2010Prop53
 90
        2
102
RTVSPost2010PropOp53
 70
     1
102
RTVSPost2010Prop54
  1
strokes_ogs.tif
102
RTVSPost2010PropOp54
 70
     1
102
RTVSPost2010Prop55
280
     0
102
RTVSPost2010PropOp55
 70
     1
102
RTVSPost2010Prop56
140
1.0
102
RTVSPost2010PropOp56
 70
     1
102
RTVSPost2010Prop57
140
1.0
102
RTVSPost2010PropOp57
 70
     1
102
RTVSPropertyOp0
 70
     1
102
RTVSPropertyOp1
 70
     1
102
RTVSPropertyOp2
 70
     1
102
RTVSPropertyOp3
 70
     1
102
RTVSPropertyOp4
 70
     1
102
RTVSPropertyOp5
 70
     1
102
RTVSPropertyOp6
 70
     1
102
RTVSPropertyOp7
 70
     1
102
RTVSPropertyOp8
 70
     1
102
RTVSPropertyOp9
 70
     1
102
RTVSPropertyOp10
 70
     1
102
RTVSPropertyOp11
 70
     1
102
RTVSPropertyOp12
 70
     1
102
RTVSPropertyOp13
 70
     1
102
RTVSPropertyOp14
 70
     1
102
RTVSPropertyOp15
 70
     1
102
RTVSPropertyOp16
 70
     1
102
RTVSPropertyOp17
 70
     1
102
RTVSPropertyOp18
 70
     1
102
RTVSPropertyOp19
 70
     1
102
RTVSPropertyOp20
 70
     1
102
RTVSPropertyOp21
 70
     1
102
RTVSPropertyOp22
 70
     1
102
RTVSPropertyOp23
 70
     1
102
RTVSPropertyOp24
 70
     1
102
RTVSPropertyOp25
 70
     1
102
RTVSPropertyOp26
 70
     1
102
RTVSPropertyOp27
 70
     1
102
RTVSPropertyOp28
 70
     1
102
RTVSPropertyOp29
 70
     1
102
RTVSPropertyOp30
 70
     1
102
RTVSPropertyOp31
 70
     1
102
RTVSPropertyOp32
 70
     1
102
RTVSPropertyOp33
 70
     1
102
RTVSPropertyOp34
 70
     1
102
RTVSPropertyOp35
 70
     1
102
RTVSPropertyOp36
 70
     1
102
RTVSPropertyOp37
 70
     1
102
RTVSPropertyOp38
 70
     1
102
RTVSPropertyOp39
 70
     1
102
RTVSPropertyOp40
 70
     1
102
RTVSPropertyOp41
 70
     1
102
RTVSPropertyOp42
 70
     1
102
RTVSPropertyOp43
 70
     1
102
RTVSPropertyOp44
 70
     1
102
RTVSPropertyOp45
 70
     1
102
RTVSPropertyOp46
 70
     1
102
RTVSPropertyOp47
 70
     1
102
RTVSPropertyOp48
 70
     1
102
RTVSPropertyOp49
 70
     1
102
RTVSPropertyOp50
 70
     1
102
RTVSPropertyOp51
 70
     0
102
RTVSPropertyOp52
 70
     0
102
RTVSPropertyOp53
 70
     1
102
RTVSPropertyOp54
 70
     1
102
RTVSPropertyOp55
 70
     1
102
RTVSPropertyOp56
 70
     1
102
RTVSPropertyOp57
 70
     1
102
RTVSPropertyOp58
 70
     1
102
RTVSPropertyOp59
 70
     1
102
RTVSPropertyOp60
 70
     1
102
RTVSPropertyOp61
 70
     1
102
RTVSPropertyOp62
 70
     1
  0
XRECORD
  5
2927
102
{ACAD_REACTORS
330
2926
102
}
330
2926
100
AcDbXrecord
280
     1
102
RTVSPost2010Prop28
280
     0
102
RTVSPost2010PropOp28
 70
     1
102
RTVSPost2010Prop29
280
     1
102
RTVSPost2010PropOp29
 70
     1
102
RTVSPost2010Prop30
280
     1
102
RTVSPost2010PropOp30
 70
     1
102
RTVSPost2010Prop31
280
     0
102
RTVSPost2010PropOp31
 70
     1
102
RTVSPost2010Prop32
280
     0
102
RTVSPost2010PropOp32
 70
     1
102
RTVSPost2010Prop33
280
     0
102
RTVSPost2010PropOp33
 70
     1
102
RTVSPost2010Prop34
280
     0
102
RTVSPost2010PropOp34
 70
     1
102
RTVSPost2010Prop35
280
     0
102
RTVSPost2010PropOp35
 70
     1
102
RTVSPost2010Prop36
280
     0
102
RTVSPost2010PropOp36
 70
     1
102
RTVSPost2010Prop37
 90
       50
102
RTVSPost2010PropOp37
 70
     1
102
RTVSPost2010Prop38
140
0.0
102
RTVSPost2010PropOp38
 70
     1
102
RTVSPost2010Prop39
140
1.0
102
RTVSPost2010PropOp39
 70
     1
102
RTVSPost2010Prop40
 90
        0
102
RTVSPost2010PropOp40
 70
     1
102
RTVSPost2010Prop41ColorIndex
 90
       18
102
RTVSPost2010Prop41ColorRGB
 90
        0
102
RTVSPost2010PropOp41
 70
     1
102
RTVSPost2010Prop42
 90
       50
102
RTVSPost2010PropOp42
 70
     1
102
RTVSPost2010Prop43
 90
        3
102
RTVSPost2010PropOp43
 70
     1
102
RTVSPost2010Prop44ColorIndex
 90
        5
102
RTVSPost2010Prop44ColorRGB
 90
      255
102
RTVSPost2010PropOp44
 70
     1
102
RTVSPost2010Prop45
280
     0
102
RTVSPost2010PropOp45
 70
     1
102
RTVSPost2010Prop46
 90
       50
102
RTVSPost2010PropOp46
 70
     1
102
RTVSPost2010Prop47
 90
       50
102
RTVSPost2010PropOp47
 70
     1
102
RTVSPost2010Prop48
 90
       50
102
RTVSPost2010PropOp48
 70
     1
102
RTVSPost2010Prop49
280
     0
102
RTVSPost2010PropOp49
 70
     1
102
RTVSPost2010Prop50
 90
       50
102
RTVSPost2010PropOp50
 70
     1
102
RTVSPost2010Prop51ColorIndex
 90
      256
102
RTVSPost2010Prop51ColorRGB
 90
-16777216
102
RTVSPost2010PropOp51
 70
     0
102
RTVSPost2010Prop52
140
1.0
102
RTVSPost2010PropOp52
 70
     0
102
RTVSPost2010Prop53
 90
        2
102
RTVSPost2010PropOp53
 70
     1
102
RTVSPost2010Prop54
  1
strokes_ogs.tif
102
RTVSPost2010PropOp54
 70
     1
102
RTVSPost2010Prop55
280
     0
102
RTVSPost2010PropOp55
 70
     1
102
RTVSPost2010Prop56
140
1.0
102
RTVSPost2010PropOp56
 70
     1
102
RTVSPost2010Prop57
140
1.0
102
RTVSPost2010PropOp57
 70
     1
102
RTVSPropertyOp0
 70
     1
102
RTVSPropertyOp1
 70
     1
102
RTVSPropertyOp2
 70
     1
102
RTVSPropertyOp3
 70
     1
102
RTVSPropertyOp4
 70
     1
102
RTVSPropertyOp5
 70
     1
102
RTVSPropertyOp6
 70
     1
102
RTVSPropertyOp7
 70
     1
102
RTVSPropertyOp8
 70
     1
102
RTVSPropertyOp9
 70
     1
102
RTVSPropertyOp10
 70
     1
102
RTVSPropertyOp11
 70
     1
102
RTVSPropertyOp12
 70
     1
102
RTVSPropertyOp13
 70
     1
102
RTVSPropertyOp14
 70
     1
102
RTVSPropertyOp15
 70
     1
102
RTVSPropertyOp16
 70
     1
102
RTVSPropertyOp17
 70
     1
102
RTVSPropertyOp18
 70
     1
102
RTVSPropertyOp19
 70
     1
102
RTVSPropertyOp20
 70
     1
102
RTVSPropertyOp21
 70
     1
102
RTVSPropertyOp22
 70
     1
102
RTVSPropertyOp23
 70
     1
102
RTVSPropertyOp24
 70
     1
102
RTVSPropertyOp25
 70
     1
102
RTVSPropertyOp26
 70
     1
102
RTVSPropertyOp27
 70
     1
102
RTVSPropertyOp28
 70
     1
102
RTVSPropertyOp29
 70
     1
102
RTVSPropertyOp30
 70
     1
102
RTVSPropertyOp31
 70
     1
102
RTVSPropertyOp32
 70
     1
102
RTVSPropertyOp33
 70
     1
102
RTVSPropertyOp34
 70
     1
102
RTVSPropertyOp35
 70
     1
102
RTVSPropertyOp36
 70
     1
102
RTVSPropertyOp37
 70
     1
102
RTVSPropertyOp38
 70
     1
102
RTVSPropertyOp39
 70
     1
102
RTVSPropertyOp40
 70
     1
102
RTVSPropertyOp41
 70
     1
102
RTVSPropertyOp42
 70
     1
102
RTVSPropertyOp43
 70
     1
102
RTVSPropertyOp44
 70
     1
102
RTVSPropertyOp45
 70
     1
102
RTVSPropertyOp46
 70
     1
102
RTVSPropertyOp47
 70
     1
102
RTVSPropertyOp48
 70
     1
102
RTVSPropertyOp49
 70
     1
102
RTVSPropertyOp50
 70
     1
102
RTVSPropertyOp51
 70
     0
102
RTVSPropertyOp52
 70
     0
102
RTVSPropertyOp53
 70
     1
102
RTVSPropertyOp54
 70
     1
102
RTVSPropertyOp55
 70
     1
102
RTVSPropertyOp56
 70
     1
102
RTVSPropertyOp57
 70
     1
102
RTVSPropertyOp58
 70
     1
102
RTVSPropertyOp59
 70
     1
102
RTVSPropertyOp60
 70
     1
102
RTVSPropertyOp61
 70
     1
102
RTVSPropertyOp62
 70
     1
  0
XRECORD
  5
292F
102
{ACAD_REACTORS
330
292E
102
}
330
292E
100
AcDbXrecord
280
     1
102
RTVSPost2010Prop28
280
     0
102
RTVSPost2010PropOp28
 70
     1
102
RTVSPost2010Prop29
280
     1
102
RTVSPost2010PropOp29
 70
     1
102
RTVSPost2010Prop30
280
     1
102
RTVSPost2010PropOp30
 70
     1
102
RTVSPost2010Prop31
280
     0
102
RTVSPost2010PropOp31
 70
     1
102
RTVSPost2010Prop32
280
     0
102
RTVSPost2010PropOp32
 70
     1
102
RTVSPost2010Prop33
280
     0
102
RTVSPost2010PropOp33
 70
     1
102
RTVSPost2010Prop34
280
     0
102
RTVSPost2010PropOp34
 70
     1
102
RTVSPost2010Prop35
280
     0
102
RTVSPost2010PropOp35
 70
     1
102
RTVSPost2010Prop36
280
     0
102
RTVSPost2010PropOp36
 70
     1
102
RTVSPost2010Prop37
 90
       50
102
RTVSPost2010PropOp37
 70
     1
102
RTVSPost2010Prop38
140
0.0
102
RTVSPost2010PropOp38
 70
     1
102
RTVSPost2010Prop39
140
1.0
102
RTVSPost2010PropOp39
 70
     1
102
RTVSPost2010Prop40
 90
        0
102
RTVSPost2010PropOp40
 70
     1
102
RTVSPost2010Prop41ColorIndex
 90
       18
102
RTVSPost2010Prop41ColorRGB
 90
        0
102
RTVSPost2010PropOp41
 70
     1
102
RTVSPost2010Prop42
 90
       50
102
RTVSPost2010PropOp42
 70
     1
102
RTVSPost2010Prop43
 90
        3
102
RTVSPost2010PropOp43
 70
     1
102
RTVSPost2010Prop44ColorIndex
 90
        5
102
RTVSPost2010Prop44ColorRGB
 90
      255
102
RTVSPost2010PropOp44
 70
     1
102
RTVSPost2010Prop45
280
     0
102
RTVSPost2010PropOp45
 70
     1
102
RTVSPost2010Prop46
 90
       50
102
RTVSPost2010PropOp46
 70
     1
102
RTVSPost2010Prop47
 90
       50
102
RTVSPost2010PropOp47
 70
     1
102
RTVSPost2010Prop48
 90
       50
102
RTVSPost2010PropOp48
 70
     1
102
RTVSPost2010Prop49
280
     0
102
RTVSPost2010PropOp49
 70
     1
102
RTVSPost2010Prop50
 90
       50
102
RTVSPost2010PropOp50
 70
     1
102
RTVSPost2010Prop51ColorIndex
 90
      256
102
RTVSPost2010Prop51ColorRGB
 90
-16777216
102
RTVSPost2010PropOp51
 70
     0
102
RTVSPost2010Prop52
140
1.0
102
RTVSPost2010PropOp52
 70
     0
102
RTVSPost2010Prop53
 90
        2
102
RTVSPost2010PropOp53
 70
     1
102
RTVSPost2010Prop54
  1
strokes_ogs.tif
102
RTVSPost2010PropOp54
 70
     1
102
RTVSPost2010Prop55
280
     0
102
RTVSPost2010PropOp55
 70
     1
102
RTVSPost2010Prop56
140
1.0
102
RTVSPost2010PropOp56
 70
     1
102
RTVSPost2010Prop57
140
1.0
102
RTVSPost2010PropOp57
 70
     1
102
RTVSPropertyOp0
 70
     1
102
RTVSPropertyOp1
 70
     1
102
RTVSPropertyOp2
 70
     1
102
RTVSPropertyOp3
 70
     1
102
RTVSPropertyOp4
 70
     1
102
RTVSPropertyOp5
 70
     1
102
RTVSPropertyOp6
 70
     1
102
RTVSPropertyOp7
 70
     1
102
RTVSPropertyOp8
 70
     1
102
RTVSPropertyOp9
 70
     1
102
RTVSPropertyOp10
 70
     1
102
RTVSPropertyOp11
 70
     1
102
RTVSPropertyOp12
 70
     1
102
RTVSPropertyOp13
 70
     1
102
RTVSPropertyOp14
 70
     1
102
RTVSPropertyOp15
 70
     1
102
RTVSPropertyOp16
 70
     1
102
RTVSPropertyOp17
 70
     1
102
RTVSPropertyOp18
 70
     1
102
RTVSPropertyOp19
 70
     1
102
RTVSPropertyOp20
 70
     1
102
RTVSPropertyOp21
 70
     1
102
RTVSPropertyOp22
 70
     1
102
RTVSPropertyOp23
 70
     1
102
RTVSPropertyOp24
 70
     1
102
RTVSPropertyOp25
 70
     1
102
RTVSPropertyOp26
 70
     1
102
RTVSPropertyOp27
 70
     1
102
RTVSPropertyOp28
 70
     1
102
RTVSPropertyOp29
 70
     1
102
RTVSPropertyOp30
 70
     1
102
RTVSPropertyOp31
 70
     1
102
RTVSPropertyOp32
 70
     1
102
RTVSPropertyOp33
 70
     1
102
RTVSPropertyOp34
 70
     1
102
RTVSPropertyOp35
 70
     1
102
RTVSPropertyOp36
 70
     1
102
RTVSPropertyOp37
 70
     1
102
RTVSPropertyOp38
 70
     1
102
RTVSPropertyOp39
 70
     1
102
RTVSPropertyOp40
 70
     1
102
RTVSPropertyOp41
 70
     1
102
RTVSPropertyOp42
 70
     1
102
RTVSPropertyOp43
 70
     1
102
RTVSPropertyOp44
 70
     1
102
RTVSPropertyOp45
 70
     1
102
RTVSPropertyOp46
 70
     1
102
RTVSPropertyOp47
 70
     1
102
RTVSPropertyOp48
 70
     1
102
RTVSPropertyOp49
 70
     1
102
RTVSPropertyOp50
 70
     1
102
RTVSPropertyOp51
 70
     0
102
RTVSPropertyOp52
 70
     0
102
RTVSPropertyOp53
 70
     1
102
RTVSPropertyOp54
 70
     1
102
RTVSPropertyOp55
 70
     1
102
RTVSPropertyOp56
 70
     1
102
RTVSPropertyOp57
 70
     1
102
RTVSPropertyOp58
 70
     1
102
RTVSPropertyOp59
 70
     1
102
RTVSPropertyOp60
 70
     1
102
RTVSPropertyOp61
 70
     1
102
RTVSPropertyOp62
 70
     1
  0
XRECORD
  5
294B
102
{ACAD_REACTORS
330
294A
102
}
330
294A
100
AcDbXrecord
280
     1
102
RTVSPost2010Prop28
280
     0
102
RTVSPost2010PropOp28
 70
     1
102
RTVSPost2010Prop29
280
     1
102
RTVSPost2010PropOp29
 70
     1
102
RTVSPost2010Prop30
280
     1
102
RTVSPost2010PropOp30
 70
     1
102
RTVSPost2010Prop31
280
     0
102
RTVSPost2010PropOp31
 70
     1
102
RTVSPost2010Prop32
280
     0
102
RTVSPost2010PropOp32
 70
     1
102
RTVSPost2010Prop33
280
     0
102
RTVSPost2010PropOp33
 70
     1
102
RTVSPost2010Prop34
280
     0
102
RTVSPost2010PropOp34
 70
     1
102
RTVSPost2010Prop35
280
     0
102
RTVSPost2010PropOp35
 70
     1
102
RTVSPost2010Prop36
280
     0
102
RTVSPost2010PropOp36
 70
     1
102
RTVSPost2010Prop37
 90
       50
102
RTVSPost2010PropOp37
 70
     0
102
RTVSPost2010Prop38
140
0.0
102
RTVSPost2010PropOp38
 70
     0
102
RTVSPost2010Prop39
140
1.0
102
RTVSPost2010PropOp39
 70
     0
102
RTVSPost2010Prop40
 90
        0
102
RTVSPost2010PropOp40
 70
     0
102
RTVSPost2010Prop41ColorIndex
 90
       18
102
RTVSPost2010Prop41ColorRGB
 90
        0
102
RTVSPost2010PropOp41
 70
     0
102
RTVSPost2010Prop42
 90
       50
102
RTVSPost2010PropOp42
 70
     0
102
RTVSPost2010Prop43
 90
        3
102
RTVSPost2010PropOp43
 70
     0
102
RTVSPost2010Prop44ColorIndex
 90
        5
102
RTVSPost2010Prop44ColorRGB
 90
      255
102
RTVSPost2010PropOp44
 70
     0
102
RTVSPost2010Prop45
280
     0
102
RTVSPost2010PropOp45
 70
     1
102
RTVSPost2010Prop46
 90
       50
102
RTVSPost2010PropOp46
 70
     0
102
RTVSPost2010Prop47
 90
       50
102
RTVSPost2010PropOp47
 70
     0
102
RTVSPost2010Prop48
 90
       50
102
RTVSPost2010PropOp48
 70
     0
102
RTVSPost2010Prop49
280
     0
102
RTVSPost2010PropOp49
 70
     1
102
RTVSPost2010Prop50
 90
       50
102
RTVSPost2010PropOp50
 70
     0
102
RTVSPost2010Prop51ColorIndex
 90
      256
102
RTVSPost2010Prop51ColorRGB
 90
-16777216
102
RTVSPost2010PropOp51
 70
     0
102
RTVSPost2010Prop52
140
1.0
102
RTVSPost2010PropOp52
 70
     0
102
RTVSPost2010Prop53
 90
        2
102
RTVSPost2010PropOp53
 70
     0
102
RTVSPost2010Prop54
  1
strokes_ogs.tif
102
RTVSPost2010PropOp54
 70
     0
102
RTVSPost2010Prop55
280
     0
102
RTVSPost2010PropOp55
 70
     1
102
RTVSPost2010Prop56
140
1.0
102
RTVSPost2010PropOp56
 70
     0
102
RTVSPost2010Prop57
140
1.0
102
RTVSPost2010PropOp57
 70
     0
102
RTVSPropertyOp0
 70
     0
102
RTVSPropertyOp1
 70
     0
102
RTVSPropertyOp2
 70
     0
102
RTVSPropertyOp3
 70
     0
102
RTVSPropertyOp4
 70
     0
102
RTVSPropertyOp5
 70
     0
102
RTVSPropertyOp6
 70
     0
102
RTVSPropertyOp7
 70
     0
102
RTVSPropertyOp8
 70
     0
102
RTVSPropertyOp9
 70
     0
102
RTVSPropertyOp10
 70
     0
102
RTVSPropertyOp11
 70
     0
102
RTVSPropertyOp12
 70
     0
102
RTVSPropertyOp13
 70
     0
102
RTVSPropertyOp14
 70
     2
102
RTVSPropertyOp15
 70
     0
102
RTVSPropertyOp16
 70
     0
102
RTVSPropertyOp17
 70
     0
102
RTVSPropertyOp18
 70
     0
102
RTVSPropertyOp19
 70
     0
102
RTVSPropertyOp20
 70
     0
102
RTVSPropertyOp21
 70
     0
102
RTVSPropertyOp22
 70
     0
102
RTVSPropertyOp23
 70
     0
102
RTVSPropertyOp24
 70
     0
102
RTVSPropertyOp25
 70
     0
102
RTVSPropertyOp26
 70
     0
102
RTVSPropertyOp27
 70
     0
102
RTVSPropertyOp28
 70
     1
102
RTVSPropertyOp29
 70
     1
102
RTVSPropertyOp30
 70
     1
102
RTVSPropertyOp31
 70
     1
102
RTVSPropertyOp32
 70
     1
102
RTVSPropertyOp33
 70
     1
102
RTVSPropertyOp34
 70
     1
102
RTVSPropertyOp35
 70
     1
102
RTVSPropertyOp36
 70
     1
102
RTVSPropertyOp37
 70
     0
102
RTVSPropertyOp38
 70
     0
102
RTVSPropertyOp39
 70
     0
102
RTVSPropertyOp40
 70
     0
102
RTVSPropertyOp41
 70
     0
102
RTVSPropertyOp42
 70
     0
102
RTVSPropertyOp43
 70
     0
102
RTVSPropertyOp44
 70
     0
102
RTVSPropertyOp45
 70
     1
102
RTVSPropertyOp46
 70
     0
102
RTVSPropertyOp47
 70
     0
102
RTVSPropertyOp48
 70
     0
102
RTVSPropertyOp49
 70
     1
102
RTVSPropertyOp50
 70
     0
102
RTVSPropertyOp51
 70
     0
102
RTVSPropertyOp52
 70
     0
102
RTVSPropertyOp53
 70
     0
102
RTVSPropertyOp54
 70
     0
102
RTVSPropertyOp55
 70
     1
102
RTVSPropertyOp56
 70
     0
102
RTVSPropertyOp57
 70
     0
102
RTVSPropertyOp58
 70
     0
102
RTVSPropertyOp59
 70
     0
102
RTVSPropertyOp60
 70
     0
102
RTVSPropertyOp61
 70
     0
102
RTVSPropertyOp62
 70
     0
  0
XRECORD
  5
293B
102
{ACAD_REACTORS
330
293A
102
}
330
293A
100
AcDbXrecord
280
     1
102
RTVSPost2010Prop28
280
     0
102
RTVSPost2010PropOp28
 70
     1
102
RTVSPost2010Prop29
280
     1
102
RTVSPost2010PropOp29
 70
     1
102
RTVSPost2010Prop30
280
     1
102
RTVSPost2010PropOp30
 70
     1
102
RTVSPost2010Prop31
280
     0
102
RTVSPost2010PropOp31
 70
     1
102
RTVSPost2010Prop32
280
     0
102
RTVSPost2010PropOp32
 70
     1
102
RTVSPost2010Prop33
280
     0
102
RTVSPost2010PropOp33
 70
     1
102
RTVSPost2010Prop34
280
     0
102
RTVSPost2010PropOp34
 70
     1
102
RTVSPost2010Prop35
280
     0
102
RTVSPost2010PropOp35
 70
     1
102
RTVSPost2010Prop36
280
     0
102
RTVSPost2010PropOp36
 70
     1
102
RTVSPost2010Prop37
 90
       50
102
RTVSPost2010PropOp37
 70
     1
102
RTVSPost2010Prop38
140
0.0
102
RTVSPost2010PropOp38
 70
     1
102
RTVSPost2010Prop39
140
1.0
102
RTVSPost2010PropOp39
 70
     1
102
RTVSPost2010Prop40
 90
        0
102
RTVSPost2010PropOp40
 70
     1
102
RTVSPost2010Prop41ColorIndex
 90
       18
102
RTVSPost2010Prop41ColorRGB
 90
        0
102
RTVSPost2010PropOp41
 70
     1
102
RTVSPost2010Prop42
 90
       50
102
RTVSPost2010PropOp42
 70
     1
102
RTVSPost2010Prop43
 90
        3
102
RTVSPost2010PropOp43
 70
     1
102
RTVSPost2010Prop44ColorIndex
 90
        5
102
RTVSPost2010Prop44ColorRGB
 90
      255
102
RTVSPost2010PropOp44
 70
     1
102
RTVSPost2010Prop45
280
     0
102
RTVSPost2010PropOp45
 70
     1
102
RTVSPost2010Prop46
 90
       50
102
RTVSPost2010PropOp46
 70
     1
102
RTVSPost2010Prop47
 90
       50
102
RTVSPost2010PropOp47
 70
     1
102
RTVSPost2010Prop48
 90
       50
102
RTVSPost2010PropOp48
 70
     1
102
RTVSPost2010Prop49
280
     0
102
RTVSPost2010PropOp49
 70
     1
102
RTVSPost2010Prop50
 90
       50
102
RTVSPost2010PropOp50
 70
     1
102
RTVSPost2010Prop51ColorIndex
 90
      256
102
RTVSPost2010Prop51ColorRGB
 90
-16777216
102
RTVSPost2010PropOp51
 70
     0
102
RTVSPost2010Prop52
140
1.0
102
RTVSPost2010PropOp52
 70
     0
102
RTVSPost2010Prop53
 90
        2
102
RTVSPost2010PropOp53
 70
     1
102
RTVSPost2010Prop54
  1
strokes_ogs.tif
102
RTVSPost2010PropOp54
 70
     1
102
RTVSPost2010Prop55
280
     0
102
RTVSPost2010PropOp55
 70
     1
102
RTVSPost2010Prop56
140
1.0
102
RTVSPost2010PropOp56
 70
     1
102
RTVSPost2010Prop57
140
1.0
102
RTVSPost2010PropOp57
 70
     1
102
RTVSPropertyOp0
 70
     1
102
RTVSPropertyOp1
 70
     1
102
RTVSPropertyOp2
 70
     1
102
RTVSPropertyOp3
 70
     1
102
RTVSPropertyOp4
 70
     1
102
RTVSPropertyOp5
 70
     1
102
RTVSPropertyOp6
 70
     1
102
RTVSPropertyOp7
 70
     1
102
RTVSPropertyOp8
 70
     1
102
RTVSPropertyOp9
 70
     1
102
RTVSPropertyOp10
 70
     1
102
RTVSPropertyOp11
 70
     1
102
RTVSPropertyOp12
 70
     1
102
RTVSPropertyOp13
 70
     1
102
RTVSPropertyOp14
 70
     1
102
RTVSPropertyOp15
 70
     1
102
RTVSPropertyOp16
 70
     1
102
RTVSPropertyOp17
 70
     1
102
RTVSPropertyOp18
 70
     1
102
RTVSPropertyOp19
 70
     1
102
RTVSPropertyOp20
 70
     1
102
RTVSPropertyOp21
 70
     1
102
RTVSPropertyOp22
 70
     1
102
RTVSPropertyOp23
 70
     1
102
RTVSPropertyOp24
 70
     1
102
RTVSPropertyOp25
 70
     1
102
RTVSPropertyOp26
 70
     1
102
RTVSPropertyOp27
 70
     1
102
RTVSPropertyOp28
 70
     1
102
RTVSPropertyOp29
 70
     1
102
RTVSPropertyOp30
 70
     1
102
RTVSPropertyOp31
 70
     1
102
RTVSPropertyOp32
 70
     1
102
RTVSPropertyOp33
 70
     1
102
RTVSPropertyOp34
 70
     1
102
RTVSPropertyOp35
 70
     1
102
RTVSPropertyOp36
 70
     1
102
RTVSPropertyOp37
 70
     1
102
RTVSPropertyOp38
 70
     1
102
RTVSPropertyOp39
 70
     1
102
RTVSPropertyOp40
 70
     1
102
RTVSPropertyOp41
 70
     1
102
RTVSPropertyOp42
 70
     1
102
RTVSPropertyOp43
 70
     1
102
RTVSPropertyOp44
 70
     1
102
RTVSPropertyOp45
 70
     1
102
RTVSPropertyOp46
 70
     1
102
RTVSPropertyOp47
 70
     1
102
RTVSPropertyOp48
 70
     1
102
RTVSPropertyOp49
 70
     1
102
RTVSPropertyOp50
 70
     1
102
RTVSPropertyOp51
 70
     0
102
RTVSPropertyOp52
 70
     0
102
RTVSPropertyOp53
 70
     1
102
RTVSPropertyOp54
 70
     1
102
RTVSPropertyOp55
 70
     1
102
RTVSPropertyOp56
 70
     1
102
RTVSPropertyOp57
 70
     1
102
RTVSPropertyOp58
 70
     1
102
RTVSPropertyOp59
 70
     1
102
RTVSPropertyOp60
 70
     1
102
RTVSPropertyOp61
 70
     1
102
RTVSPropertyOp62
 70
     1
  0
XRECORD
  5
294D
102
{ACAD_REACTORS
330
294C
102
}
330
294C
100
AcDbXrecord
280
     1
102
RTVSPost2010Prop28
280
     0
102
RTVSPost2010PropOp28
 70
     1
102
RTVSPost2010Prop29
280
     1
102
RTVSPost2010PropOp29
 70
     1
102
RTVSPost2010Prop30
280
     1
102
RTVSPost2010PropOp30
 70
     1
102
RTVSPost2010Prop31
280
     0
102
RTVSPost2010PropOp31
 70
     1
102
RTVSPost2010Prop32
280
     0
102
RTVSPost2010PropOp32
 70
     1
102
RTVSPost2010Prop33
280
     0
102
RTVSPost2010PropOp33
 70
     1
102
RTVSPost2010Prop34
280
     0
102
RTVSPost2010PropOp34
 70
     1
102
RTVSPost2010Prop35
280
     0
102
RTVSPost2010PropOp35
 70
     1
102
RTVSPost2010Prop36
280
     0
102
RTVSPost2010PropOp36
 70
     1
102
RTVSPost2010Prop37
 90
       50
102
RTVSPost2010PropOp37
 70
     0
102
RTVSPost2010Prop38
140
0.0
102
RTVSPost2010PropOp38
 70
     0
102
RTVSPost2010Prop39
140
1.0
102
RTVSPost2010PropOp39
 70
     0
102
RTVSPost2010Prop40
 90
        0
102
RTVSPost2010PropOp40
 70
     0
102
RTVSPost2010Prop41ColorIndex
 90
       18
102
RTVSPost2010Prop41ColorRGB
 90
        0
102
RTVSPost2010PropOp41
 70
     0
102
RTVSPost2010Prop42
 90
       50
102
RTVSPost2010PropOp42
 70
     0
102
RTVSPost2010Prop43
 90
        3
102
RTVSPost2010PropOp43
 70
     0
102
RTVSPost2010Prop44ColorIndex
 90
        5
102
RTVSPost2010Prop44ColorRGB
 90
      255
102
RTVSPost2010PropOp44
 70
     0
102
RTVSPost2010Prop45
280
     0
102
RTVSPost2010PropOp45
 70
     1
102
RTVSPost2010Prop46
 90
       50
102
RTVSPost2010PropOp46
 70
     0
102
RTVSPost2010Prop47
 90
       50
102
RTVSPost2010PropOp47
 70
     0
102
RTVSPost2010Prop48
 90
       50
102
RTVSPost2010PropOp48
 70
     0
102
RTVSPost2010Prop49
280
     0
102
RTVSPost2010PropOp49
 70
     1
102
RTVSPost2010Prop50
 90
       50
102
RTVSPost2010PropOp50
 70
     0
102
RTVSPost2010Prop51ColorIndex
 90
      256
102
RTVSPost2010Prop51ColorRGB
 90
-16777216
102
RTVSPost2010PropOp51
 70
     0
102
RTVSPost2010Prop52
140
1.0
102
RTVSPost2010PropOp52
 70
     0
102
RTVSPost2010Prop53
 90
        2
102
RTVSPost2010PropOp53
 70
     0
102
RTVSPost2010Prop54
  1
strokes_ogs.tif
102
RTVSPost2010PropOp54
 70
     0
102
RTVSPost2010Prop55
280
     0
102
RTVSPost2010PropOp55
 70
     1
102
RTVSPost2010Prop56
140
1.0
102
RTVSPost2010PropOp56
 70
     0
102
RTVSPost2010Prop57
140
1.0
102
RTVSPost2010PropOp57
 70
     0
102
RTVSPropertyOp0
 70
     0
102
RTVSPropertyOp1
 70
     0
102
RTVSPropertyOp2
 70
     0
102
RTVSPropertyOp3
 70
     0
102
RTVSPropertyOp4
 70
     0
102
RTVSPropertyOp5
 70
     0
102
RTVSPropertyOp6
 70
     0
102
RTVSPropertyOp7
 70
     0
102
RTVSPropertyOp8
 70
     0
102
RTVSPropertyOp9
 70
     0
102
RTVSPropertyOp10
 70
     0
102
RTVSPropertyOp11
 70
     0
102
RTVSPropertyOp12
 70
     0
102
RTVSPropertyOp13
 70
     0
102
RTVSPropertyOp14
 70
     2
102
RTVSPropertyOp15
 70
     0
102
RTVSPropertyOp16
 70
     0
102
RTVSPropertyOp17
 70
     0
102
RTVSPropertyOp18
 70
     0
102
RTVSPropertyOp19
 70
     0
102
RTVSPropertyOp20
 70
     0
102
RTVSPropertyOp21
 70
     0
102
RTVSPropertyOp22
 70
     0
102
RTVSPropertyOp23
 70
     0
102
RTVSPropertyOp24
 70
     0
102
RTVSPropertyOp25
 70
     0
102
RTVSPropertyOp26
 70
     0
102
RTVSPropertyOp27
 70
     0
102
RTVSPropertyOp28
 70
     1
102
RTVSPropertyOp29
 70
     1
102
RTVSPropertyOp30
 70
     1
102
RTVSPropertyOp31
 70
     1
102
RTVSPropertyOp32
 70
     1
102
RTVSPropertyOp33
 70
     1
102
RTVSPropertyOp34
 70
     1
102
RTVSPropertyOp35
 70
     1
102
RTVSPropertyOp36
 70
     1
102
RTVSPropertyOp37
 70
     0
102
RTVSPropertyOp38
 70
     0
102
RTVSPropertyOp39
 70
     0
102
RTVSPropertyOp40
 70
     0
102
RTVSPropertyOp41
 70
     0
102
RTVSPropertyOp42
 70
     0
102
RTVSPropertyOp43
 70
     0
102
RTVSPropertyOp44
 70
     0
102
RTVSPropertyOp45
 70
     1
102
RTVSPropertyOp46
 70
     0
102
RTVSPropertyOp47
 70
     0
102
RTVSPropertyOp48
 70
     0
102
RTVSPropertyOp49
 70
     1
102
RTVSPropertyOp50
 70
     0
102
RTVSPropertyOp51
 70
     0
102
RTVSPropertyOp52
 70
     0
102
RTVSPropertyOp53
 70
     0
102
RTVSPropertyOp54
 70
     0
102
RTVSPropertyOp55
 70
     1
102
RTVSPropertyOp56
 70
     0
102
RTVSPropertyOp57
 70
     0
102
RTVSPropertyOp58
 70
     0
102
RTVSPropertyOp59
 70
     0
102
RTVSPropertyOp60
 70
     0
102
RTVSPropertyOp61
 70
     0
102
RTVSPropertyOp62
 70
     0
  0
XRECORD
  5
2933
102
{ACAD_REACTORS
330
2932
102
}
330
2932
100
AcDbXrecord
280
     1
102
RTVSPost2010Prop28
280
     0
102
RTVSPost2010PropOp28
 70
     1
102
RTVSPost2010Prop29
280
     1
102
RTVSPost2010PropOp29
 70
     1
102
RTVSPost2010Prop30
280
     1
102
RTVSPost2010PropOp30
 70
     1
102
RTVSPost2010Prop31
280
     0
102
RTVSPost2010PropOp31
 70
     1
102
RTVSPost2010Prop32
280
     0
102
RTVSPost2010PropOp32
 70
     1
102
RTVSPost2010Prop33
280
     0
102
RTVSPost2010PropOp33
 70
     1
102
RTVSPost2010Prop34
280
     0
102
RTVSPost2010PropOp34
 70
     1
102
RTVSPost2010Prop35
280
     0
102
RTVSPost2010PropOp35
 70
     1
102
RTVSPost2010Prop36
280
     0
102
RTVSPost2010PropOp36
 70
     1
102
RTVSPost2010Prop37
 90
       50
102
RTVSPost2010PropOp37
 70
     1
102
RTVSPost2010Prop38
140
0.0
102
RTVSPost2010PropOp38
 70
     1
102
RTVSPost2010Prop39
140
1.0
102
RTVSPost2010PropOp39
 70
     1
102
RTVSPost2010Prop40
 90
        0
102
RTVSPost2010PropOp40
 70
     1
102
RTVSPost2010Prop41ColorIndex
 90
       18
102
RTVSPost2010Prop41ColorRGB
 90
        0
102
RTVSPost2010PropOp41
 70
     1
102
RTVSPost2010Prop42
 90
       50
102
RTVSPost2010PropOp42
 70
     1
102
RTVSPost2010Prop43
 90
        3
102
RTVSPost2010PropOp43
 70
     1
102
RTVSPost2010Prop44ColorIndex
 90
        5
102
RTVSPost2010Prop44ColorRGB
 90
      255
102
RTVSPost2010PropOp44
 70
     1
102
RTVSPost2010Prop45
280
     0
102
RTVSPost2010PropOp45
 70
     1
102
RTVSPost2010Prop46
 90
       50
102
RTVSPost2010PropOp46
 70
     1
102
RTVSPost2010Prop47
 90
       50
102
RTVSPost2010PropOp47
 70
     1
102
RTVSPost2010Prop48
 90
       50
102
RTVSPost2010PropOp48
 70
     1
102
RTVSPost2010Prop49
280
     0
102
RTVSPost2010PropOp49
 70
     1
102
RTVSPost2010Prop50
 90
       50
102
RTVSPost2010PropOp50
 70
     1
102
RTVSPost2010Prop51ColorIndex
 90
      256
102
RTVSPost2010Prop51ColorRGB
 90
-16777216
102
RTVSPost2010PropOp51
 70
     0
102
RTVSPost2010Prop52
140
1.0
102
RTVSPost2010PropOp52
 70
     0
102
RTVSPost2010Prop53
 90
        2
102
RTVSPost2010PropOp53
 70
     1
102
RTVSPost2010Prop54
  1
strokes_ogs.tif
102
RTVSPost2010PropOp54
 70
     1
102
RTVSPost2010Prop55
280
     0
102
RTVSPost2010PropOp55
 70
     1
102
RTVSPost2010Prop56
140
1.0
102
RTVSPost2010PropOp56
 70
     1
102
RTVSPost2010Prop57
140
1.0
102
RTVSPost2010PropOp57
 70
     1
102
RTVSPropertyOp0
 70
     1
102
RTVSPropertyOp1
 70
     1
102
RTVSPropertyOp2
 70
     1
102
RTVSPropertyOp3
 70
     1
102
RTVSPropertyOp4
 70
     1
102
RTVSPropertyOp5
 70
     1
102
RTVSPropertyOp6
 70
     1
102
RTVSPropertyOp7
 70
     1
102
RTVSPropertyOp8
 70
     1
102
RTVSPropertyOp9
 70
     1
102
RTVSPropertyOp10
 70
     1
102
RTVSPropertyOp11
 70
     1
102
RTVSPropertyOp12
 70
     1
102
RTVSPropertyOp13
 70
     1
102
RTVSPropertyOp14
 70
     1
102
RTVSPropertyOp15
 70
     1
102
RTVSPropertyOp16
 70
     1
102
RTVSPropertyOp17
 70
     1
102
RTVSPropertyOp18
 70
     1
102
RTVSPropertyOp19
 70
     1
102
RTVSPropertyOp20
 70
     1
102
RTVSPropertyOp21
 70
     1
102
RTVSPropertyOp22
 70
     1
102
RTVSPropertyOp23
 70
     1
102
RTVSPropertyOp24
 70
     1
102
RTVSPropertyOp25
 70
     1
102
RTVSPropertyOp26
 70
     1
102
RTVSPropertyOp27
 70
     1
102
RTVSPropertyOp28
 70
     1
102
RTVSPropertyOp29
 70
     1
102
RTVSPropertyOp30
 70
     1
102
RTVSPropertyOp31
 70
     1
102
RTVSPropertyOp32
 70
     1
102
RTVSPropertyOp33
 70
     1
102
RTVSPropertyOp34
 70
     1
102
RTVSPropertyOp35
 70
     1
102
RTVSPropertyOp36
 70
     1
102
RTVSPropertyOp37
 70
     1
102
RTVSPropertyOp38
 70
     1
102
RTVSPropertyOp39
 70
     1
102
RTVSPropertyOp40
 70
     1
102
RTVSPropertyOp41
 70
     1
102
RTVSPropertyOp42
 70
     1
102
RTVSPropertyOp43
 70
     1
102
RTVSPropertyOp44
 70
     1
102
RTVSPropertyOp45
 70
     1
102
RTVSPropertyOp46
 70
     1
102
RTVSPropertyOp47
 70
     1
102
RTVSPropertyOp48
 70
     1
102
RTVSPropertyOp49
 70
     1
102
RTVSPropertyOp50
 70
     1
102
RTVSPropertyOp51
 70
     0
102
RTVSPropertyOp52
 70
     0
102
RTVSPropertyOp53
 70
     1
102
RTVSPropertyOp54
 70
     1
102
RTVSPropertyOp55
 70
     1
102
RTVSPropertyOp56
 70
     1
102
RTVSPropertyOp57
 70
     1
102
RTVSPropertyOp58
 70
     1
102
RTVSPropertyOp59
 70
     1
102
RTVSPropertyOp60
 70
     1
102
RTVSPropertyOp61
 70
     1
102
RTVSPropertyOp62
 70
     1
  0
XRECORD
  5
2949
102
{ACAD_REACTORS
330
2948
102
}
330
2948
100
AcDbXrecord
280
     1
102
RTVSPost2010Prop28
280
     0
102
RTVSPost2010PropOp28
 70
     1
102
RTVSPost2010Prop29
280
     1
102
RTVSPost2010PropOp29
 70
     1
102
RTVSPost2010Prop30
280
     1
102
RTVSPost2010PropOp30
 70
     1
102
RTVSPost2010Prop31
280
     0
102
RTVSPost2010PropOp31
 70
     1
102
RTVSPost2010Prop32
280
     0
102
RTVSPost2010PropOp32
 70
     1
102
RTVSPost2010Prop33
280
     0
102
RTVSPost2010PropOp33
 70
     1
102
RTVSPost2010Prop34
280
     0
102
RTVSPost2010PropOp34
 70
     1
102
RTVSPost2010Prop35
280
     0
102
RTVSPost2010PropOp35
 70
     1
102
RTVSPost2010Prop36
280
     0
102
RTVSPost2010PropOp36
 70
     1
102
RTVSPost2010Prop37
 90
       50
102
RTVSPost2010PropOp37
 70
     1
102
RTVSPost2010Prop38
140
0.0
102
RTVSPost2010PropOp38
 70
     1
102
RTVSPost2010Prop39
140
1.0
102
RTVSPost2010PropOp39
 70
     1
102
RTVSPost2010Prop40
 90
        0
102
RTVSPost2010PropOp40
 70
     1
102
RTVSPost2010Prop41ColorIndex
 90
       18
102
RTVSPost2010Prop41ColorRGB
 90
        0
102
RTVSPost2010PropOp41
 70
     1
102
RTVSPost2010Prop42
 90
       50
102
RTVSPost2010PropOp42
 70
     1
102
RTVSPost2010Prop43
 90
        3
102
RTVSPost2010PropOp43
 70
     1
102
RTVSPost2010Prop44ColorIndex
 90
        5
102
RTVSPost2010Prop44ColorRGB
 90
      255
102
RTVSPost2010PropOp44
 70
     1
102
RTVSPost2010Prop45
280
     0
102
RTVSPost2010PropOp45
 70
     1
102
RTVSPost2010Prop46
 90
       50
102
RTVSPost2010PropOp46
 70
     1
102
RTVSPost2010Prop47
 90
       50
102
RTVSPost2010PropOp47
 70
     1
102
RTVSPost2010Prop48
 90
       50
102
RTVSPost2010PropOp48
 70
     1
102
RTVSPost2010Prop49
280
     0
102
RTVSPost2010PropOp49
 70
     1
102
RTVSPost2010Prop50
 90
       50
102
RTVSPost2010PropOp50
 70
     1
102
RTVSPost2010Prop51ColorIndex
 90
      256
102
RTVSPost2010Prop51ColorRGB
 90
-16777216
102
RTVSPost2010PropOp51
 70
     0
102
RTVSPost2010Prop52
140
1.0
102
RTVSPost2010PropOp52
 70
     0
102
RTVSPost2010Prop53
 90
        2
102
RTVSPost2010PropOp53
 70
     1
102
RTVSPost2010Prop54
  1
strokes_ogs.tif
102
RTVSPost2010PropOp54
 70
     1
102
RTVSPost2010Prop55
280
     0
102
RTVSPost2010PropOp55
 70
     1
102
RTVSPost2010Prop56
140
1.0
102
RTVSPost2010PropOp56
 70
     1
102
RTVSPost2010Prop57
140
1.0
102
RTVSPost2010PropOp57
 70
     1
102
RTVSPropertyOp0
 70
     1
102
RTVSPropertyOp1
 70
     1
102
RTVSPropertyOp2
 70
     1
102
RTVSPropertyOp3
 70
     1
102
RTVSPropertyOp4
 70
     1
102
RTVSPropertyOp5
 70
     1
102
RTVSPropertyOp6
 70
     1
102
RTVSPropertyOp7
 70
     1
102
RTVSPropertyOp8
 70
     1
102
RTVSPropertyOp9
 70
     1
102
RTVSPropertyOp10
 70
     1
102
RTVSPropertyOp11
 70
     1
102
RTVSPropertyOp12
 70
     1
102
RTVSPropertyOp13
 70
     1
102
RTVSPropertyOp14
 70
     1
102
RTVSPropertyOp15
 70
     1
102
RTVSPropertyOp16
 70
     1
102
RTVSPropertyOp17
 70
     1
102
RTVSPropertyOp18
 70
     1
102
RTVSPropertyOp19
 70
     1
102
RTVSPropertyOp20
 70
     1
102
RTVSPropertyOp21
 70
     1
102
RTVSPropertyOp22
 70
     1
102
RTVSPropertyOp23
 70
     1
102
RTVSPropertyOp24
 70
     1
102
RTVSPropertyOp25
 70
     1
102
RTVSPropertyOp26
 70
     1
102
RTVSPropertyOp27
 70
     1
102
RTVSPropertyOp28
 70
     1
102
RTVSPropertyOp29
 70
     1
102
RTVSPropertyOp30
 70
     1
102
RTVSPropertyOp31
 70
     1
102
RTVSPropertyOp32
 70
     1
102
RTVSPropertyOp33
 70
     1
102
RTVSPropertyOp34
 70
     1
102
RTVSPropertyOp35
 70
     1
102
RTVSPropertyOp36
 70
     1
102
RTVSPropertyOp37
 70
     1
102
RTVSPropertyOp38
 70
     1
102
RTVSPropertyOp39
 70
     1
102
RTVSPropertyOp40
 70
     1
102
RTVSPropertyOp41
 70
     1
102
RTVSPropertyOp42
 70
     1
102
RTVSPropertyOp43
 70
     1
102
RTVSPropertyOp44
 70
     1
102
RTVSPropertyOp45
 70
     1
102
RTVSPropertyOp46
 70
     1
102
RTVSPropertyOp47
 70
     1
102
RTVSPropertyOp48
 70
     1
102
RTVSPropertyOp49
 70
     1
102
RTVSPropertyOp50
 70
     1
102
RTVSPropertyOp51
 70
     0
102
RTVSPropertyOp52
 70
     0
102
RTVSPropertyOp53
 70
     1
102
RTVSPropertyOp54
 70
     1
102
RTVSPropertyOp55
 70
     1
102
RTVSPropertyOp56
 70
     1
102
RTVSPropertyOp57
 70
     1
102
RTVSPropertyOp58
 70
     1
102
RTVSPropertyOp59
 70
     1
102
RTVSPropertyOp60
 70
     1
102
RTVSPropertyOp61
 70
     1
102
RTVSPropertyOp62
 70
     1
  0
XRECORD
  5
2947
102
{ACAD_REACTORS
330
2946
102
}
330
2946
100
AcDbXrecord
280
     1
102
RTVSPost2010Prop28
280
     0
102
RTVSPost2010PropOp28
 70
     1
102
RTVSPost2010Prop29
280
     1
102
RTVSPost2010PropOp29
 70
     1
102
RTVSPost2010Prop30
280
     1
102
RTVSPost2010PropOp30
 70
     1
102
RTVSPost2010Prop31
280
     0
102
RTVSPost2010PropOp31
 70
     1
102
RTVSPost2010Prop32
280
     0
102
RTVSPost2010PropOp32
 70
     1
102
RTVSPost2010Prop33
280
     0
102
RTVSPost2010PropOp33
 70
     1
102
RTVSPost2010Prop34
280
     0
102
RTVSPost2010PropOp34
 70
     1
102
RTVSPost2010Prop35
280
     0
102
RTVSPost2010PropOp35
 70
     1
102
RTVSPost2010Prop36
280
     0
102
RTVSPost2010PropOp36
 70
     1
102
RTVSPost2010Prop37
 90
       50
102
RTVSPost2010PropOp37
 70
     1
102
RTVSPost2010Prop38
140
0.0
102
RTVSPost2010PropOp38
 70
     1
102
RTVSPost2010Prop39
140
1.0
102
RTVSPost2010PropOp39
 70
     1
102
RTVSPost2010Prop40
 90
        0
102
RTVSPost2010PropOp40
 70
     1
102
RTVSPost2010Prop41ColorIndex
 90
       18
102
RTVSPost2010Prop41ColorRGB
 90
        0
102
RTVSPost2010PropOp41
 70
     1
102
RTVSPost2010Prop42
 90
       50
102
RTVSPost2010PropOp42
 70
     1
102
RTVSPost2010Prop43
 90
        3
102
RTVSPost2010PropOp43
 70
     1
102
RTVSPost2010Prop44ColorIndex
 90
        5
102
RTVSPost2010Prop44ColorRGB
 90
      255
102
RTVSPost2010PropOp44
 70
     1
102
RTVSPost2010Prop45
280
     0
102
RTVSPost2010PropOp45
 70
     1
102
RTVSPost2010Prop46
 90
       50
102
RTVSPost2010PropOp46
 70
     1
102
RTVSPost2010Prop47
 90
       50
102
RTVSPost2010PropOp47
 70
     1
102
RTVSPost2010Prop48
 90
       50
102
RTVSPost2010PropOp48
 70
     1
102
RTVSPost2010Prop49
280
     0
102
RTVSPost2010PropOp49
 70
     1
102
RTVSPost2010Prop50
 90
       50
102
RTVSPost2010PropOp50
 70
     1
102
RTVSPost2010Prop51ColorIndex
 90
      256
102
RTVSPost2010Prop51ColorRGB
 90
-16777216
102
RTVSPost2010PropOp51
 70
     0
102
RTVSPost2010Prop52
140
1.0
102
RTVSPost2010PropOp52
 70
     0
102
RTVSPost2010Prop53
 90
        2
102
RTVSPost2010PropOp53
 70
     1
102
RTVSPost2010Prop54
  1
strokes_ogs.tif
102
RTVSPost2010PropOp54
 70
     1
102
RTVSPost2010Prop55
280
     0
102
RTVSPost2010PropOp55
 70
     1
102
RTVSPost2010Prop56
140
1.0
102
RTVSPost2010PropOp56
 70
     1
102
RTVSPost2010Prop57
140
1.0
102
RTVSPost2010PropOp57
 70
     1
102
RTVSPropertyOp0
 70
     1
102
RTVSPropertyOp1
 70
     1
102
RTVSPropertyOp2
 70
     1
102
RTVSPropertyOp3
 70
     1
102
RTVSPropertyOp4
 70
     1
102
RTVSPropertyOp5
 70
     1
102
RTVSPropertyOp6
 70
     1
102
RTVSPropertyOp7
 70
     1
102
RTVSPropertyOp8
 70
     1
102
RTVSPropertyOp9
 70
     1
102
RTVSPropertyOp10
 70
     1
102
RTVSPropertyOp11
 70
     1
102
RTVSPropertyOp12
 70
     1
102
RTVSPropertyOp13
 70
     1
102
RTVSPropertyOp14
 70
     1
102
RTVSPropertyOp15
 70
     1
102
RTVSPropertyOp16
 70
     1
102
RTVSPropertyOp17
 70
     1
102
RTVSPropertyOp18
 70
     1
102
RTVSPropertyOp19
 70
     1
102
RTVSPropertyOp20
 70
     1
102
RTVSPropertyOp21
 70
     1
102
RTVSPropertyOp22
 70
     1
102
RTVSPropertyOp23
 70
     1
102
RTVSPropertyOp24
 70
     1
102
RTVSPropertyOp25
 70
     1
102
RTVSPropertyOp26
 70
     1
102
RTVSPropertyOp27
 70
     1
102
RTVSPropertyOp28
 70
     1
102
RTVSPropertyOp29
 70
     1
102
RTVSPropertyOp30
 70
     1
102
RTVSPropertyOp31
 70
     1
102
RTVSPropertyOp32
 70
     1
102
RTVSPropertyOp33
 70
     1
102
RTVSPropertyOp34
 70
     1
102
RTVSPropertyOp35
 70
     1
102
RTVSPropertyOp36
 70
     1
102
RTVSPropertyOp37
 70
     1
102
RTVSPropertyOp38
 70
     1
102
RTVSPropertyOp39
 70
     1
102
RTVSPropertyOp40
 70
     1
102
RTVSPropertyOp41
 70
     1
102
RTVSPropertyOp42
 70
     1
102
RTVSPropertyOp43
 70
     1
102
RTVSPropertyOp44
 70
     1
102
RTVSPropertyOp45
 70
     1
102
RTVSPropertyOp46
 70
     1
102
RTVSPropertyOp47
 70
     1
102
RTVSPropertyOp48
 70
     1
102
RTVSPropertyOp49
 70
     1
102
RTVSPropertyOp50
 70
     1
102
RTVSPropertyOp51
 70
     0
102
RTVSPropertyOp52
 70
     0
102
RTVSPropertyOp53
 70
     1
102
RTVSPropertyOp54
 70
     1
102
RTVSPropertyOp55
 70
     1
102
RTVSPropertyOp56
 70
     1
102
RTVSPropertyOp57
 70
     1
102
RTVSPropertyOp58
 70
     1
102
RTVSPropertyOp59
 70
     1
102
RTVSPropertyOp60
 70
     1
102
RTVSPropertyOp61
 70
     1
102
RTVSPropertyOp62
 70
     1
  0
XRECORD
  5
2941
102
{ACAD_REACTORS
330
2940
102
}
330
2940
100
AcDbXrecord
280
     1
102
RTVSPost2010Prop28
280
     0
102
RTVSPost2010PropOp28
 70
     1
102
RTVSPost2010Prop29
280
     1
102
RTVSPost2010PropOp29
 70
     1
102
RTVSPost2010Prop30
280
     1
102
RTVSPost2010PropOp30
 70
     1
102
RTVSPost2010Prop31
280
     0
102
RTVSPost2010PropOp31
 70
     1
102
RTVSPost2010Prop32
280
     0
102
RTVSPost2010PropOp32
 70
     1
102
RTVSPost2010Prop33
280
     0
102
RTVSPost2010PropOp33
 70
     1
102
RTVSPost2010Prop34
280
     0
102
RTVSPost2010PropOp34
 70
     1
102
RTVSPost2010Prop35
280
     0
102
RTVSPost2010PropOp35
 70
     1
102
RTVSPost2010Prop36
280
     0
102
RTVSPost2010PropOp36
 70
     1
102
RTVSPost2010Prop37
 90
       50
102
RTVSPost2010PropOp37
 70
     1
102
RTVSPost2010Prop38
140
0.0
102
RTVSPost2010PropOp38
 70
     1
102
RTVSPost2010Prop39
140
1.0
102
RTVSPost2010PropOp39
 70
     1
102
RTVSPost2010Prop40
 90
        0
102
RTVSPost2010PropOp40
 70
     1
102
RTVSPost2010Prop41ColorIndex
 90
       18
102
RTVSPost2010Prop41ColorRGB
 90
        0
102
RTVSPost2010PropOp41
 70
     1
102
RTVSPost2010Prop42
 90
       50
102
RTVSPost2010PropOp42
 70
     1
102
RTVSPost2010Prop43
 90
        3
102
RTVSPost2010PropOp43
 70
     1
102
RTVSPost2010Prop44ColorIndex
 90
        5
102
RTVSPost2010Prop44ColorRGB
 90
      255
102
RTVSPost2010PropOp44
 70
     1
102
RTVSPost2010Prop45
280
     0
102
RTVSPost2010PropOp45
 70
     1
102
RTVSPost2010Prop46
 90
       50
102
RTVSPost2010PropOp46
 70
     1
102
RTVSPost2010Prop47
 90
       50
102
RTVSPost2010PropOp47
 70
     1
102
RTVSPost2010Prop48
 90
       50
102
RTVSPost2010PropOp48
 70
     1
102
RTVSPost2010Prop49
280
     0
102
RTVSPost2010PropOp49
 70
     1
102
RTVSPost2010Prop50
 90
       50
102
RTVSPost2010PropOp50
 70
     1
102
RTVSPost2010Prop51ColorIndex
 90
      256
102
RTVSPost2010Prop51ColorRGB
 90
-16777216
102
RTVSPost2010PropOp51
 70
     0
102
RTVSPost2010Prop52
140
1.0
102
RTVSPost2010PropOp52
 70
     0
102
RTVSPost2010Prop53
 90
        2
102
RTVSPost2010PropOp53
 70
     1
102
RTVSPost2010Prop54
  1
strokes_ogs.tif
102
RTVSPost2010PropOp54
 70
     1
102
RTVSPost2010Prop55
280
     0
102
RTVSPost2010PropOp55
 70
     1
102
RTVSPost2010Prop56
140
1.0
102
RTVSPost2010PropOp56
 70
     1
102
RTVSPost2010Prop57
140
1.0
102
RTVSPost2010PropOp57
 70
     1
102
RTVSPropertyOp0
 70
     1
102
RTVSPropertyOp1
 70
     1
102
RTVSPropertyOp2
 70
     1
102
RTVSPropertyOp3
 70
     1
102
RTVSPropertyOp4
 70
     1
102
RTVSPropertyOp5
 70
     1
102
RTVSPropertyOp6
 70
     1
102
RTVSPropertyOp7
 70
     1
102
RTVSPropertyOp8
 70
     1
102
RTVSPropertyOp9
 70
     1
102
RTVSPropertyOp10
 70
     1
102
RTVSPropertyOp11
 70
     1
102
RTVSPropertyOp12
 70
     1
102
RTVSPropertyOp13
 70
     1
102
RTVSPropertyOp14
 70
     1
102
RTVSPropertyOp15
 70
     1
102
RTVSPropertyOp16
 70
     1
102
RTVSPropertyOp17
 70
     1
102
RTVSPropertyOp18
 70
     1
102
RTVSPropertyOp19
 70
     1
102
RTVSPropertyOp20
 70
     1
102
RTVSPropertyOp21
 70
     1
102
RTVSPropertyOp22
 70
     1
102
RTVSPropertyOp23
 70
     1
102
RTVSPropertyOp24
 70
     1
102
RTVSPropertyOp25
 70
     1
102
RTVSPropertyOp26
 70
     1
102
RTVSPropertyOp27
 70
     1
102
RTVSPropertyOp28
 70
     1
102
RTVSPropertyOp29
 70
     1
102
RTVSPropertyOp30
 70
     1
102
RTVSPropertyOp31
 70
     1
102
RTVSPropertyOp32
 70
     1
102
RTVSPropertyOp33
 70
     1
102
RTVSPropertyOp34
 70
     1
102
RTVSPropertyOp35
 70
     1
102
RTVSPropertyOp36
 70
     1
102
RTVSPropertyOp37
 70
     1
102
RTVSPropertyOp38
 70
     1
102
RTVSPropertyOp39
 70
     1
102
RTVSPropertyOp40
 70
     1
102
RTVSPropertyOp41
 70
     1
102
RTVSPropertyOp42
 70
     1
102
RTVSPropertyOp43
 70
     1
102
RTVSPropertyOp44
 70
     1
102
RTVSPropertyOp45
 70
     1
102
RTVSPropertyOp46
 70
     1
102
RTVSPropertyOp47
 70
     1
102
RTVSPropertyOp48
 70
     1
102
RTVSPropertyOp49
 70
     1
102
RTVSPropertyOp50
 70
     1
102
RTVSPropertyOp51
 70
     0
102
RTVSPropertyOp52
 70
     0
102
RTVSPropertyOp53
 70
     1
102
RTVSPropertyOp54
 70
     1
102
RTVSPropertyOp55
 70
     1
102
RTVSPropertyOp56
 70
     1
102
RTVSPropertyOp57
 70
     1
102
RTVSPropertyOp58
 70
     1
102
RTVSPropertyOp59
 70
     1
102
RTVSPropertyOp60
 70
     1
102
RTVSPropertyOp61
 70
     1
102
RTVSPropertyOp62
 70
     1
  0
XRECORD
  5
2943
102
{ACAD_REACTORS
330
2942
102
}
330
2942
100
AcDbXrecord
280
     1
102
RTVSPost2010Prop28
280
     0
102
RTVSPost2010PropOp28
 70
     1
102
RTVSPost2010Prop29
280
     1
102
RTVSPost2010PropOp29
 70
     1
102
RTVSPost2010Prop30
280
     1
102
RTVSPost2010PropOp30
 70
     1
102
RTVSPost2010Prop31
280
     0
102
RTVSPost2010PropOp31
 70
     1
102
RTVSPost2010Prop32
280
     0
102
RTVSPost2010PropOp32
 70
     1
102
RTVSPost2010Prop33
280
     0
102
RTVSPost2010PropOp33
 70
     1
102
RTVSPost2010Prop34
280
     0
102
RTVSPost2010PropOp34
 70
     1
102
RTVSPost2010Prop35
280
     0
102
RTVSPost2010PropOp35
 70
     1
102
RTVSPost2010Prop36
280
     0
102
RTVSPost2010PropOp36
 70
     1
102
RTVSPost2010Prop37
 90
       50
102
RTVSPost2010PropOp37
 70
     1
102
RTVSPost2010Prop38
140
0.0
102
RTVSPost2010PropOp38
 70
     1
102
RTVSPost2010Prop39
140
1.0
102
RTVSPost2010PropOp39
 70
     1
102
RTVSPost2010Prop40
 90
        0
102
RTVSPost2010PropOp40
 70
     1
102
RTVSPost2010Prop41ColorIndex
 90
       18
102
RTVSPost2010Prop41ColorRGB
 90
        0
102
RTVSPost2010PropOp41
 70
     1
102
RTVSPost2010Prop42
 90
       50
102
RTVSPost2010PropOp42
 70
     1
102
RTVSPost2010Prop43
 90
        3
102
RTVSPost2010PropOp43
 70
     1
102
RTVSPost2010Prop44ColorIndex
 90
        5
102
RTVSPost2010Prop44ColorRGB
 90
      255
102
RTVSPost2010PropOp44
 70
     1
102
RTVSPost2010Prop45
280
     0
102
RTVSPost2010PropOp45
 70
     1
102
RTVSPost2010Prop46
 90
       50
102
RTVSPost2010PropOp46
 70
     1
102
RTVSPost2010Prop47
 90
       50
102
RTVSPost2010PropOp47
 70
     1
102
RTVSPost2010Prop48
 90
       50
102
RTVSPost2010PropOp48
 70
     1
102
RTVSPost2010Prop49
280
     0
102
RTVSPost2010PropOp49
 70
     1
102
RTVSPost2010Prop50
 90
       50
102
RTVSPost2010PropOp50
 70
     1
102
RTVSPost2010Prop51ColorIndex
 90
      256
102
RTVSPost2010Prop51ColorRGB
 90
-16777216
102
RTVSPost2010PropOp51
 70
     0
102
RTVSPost2010Prop52
140
1.0
102
RTVSPost2010PropOp52
 70
     0
102
RTVSPost2010Prop53
 90
        2
102
RTVSPost2010PropOp53
 70
     1
102
RTVSPost2010Prop54
  1
strokes_ogs.tif
102
RTVSPost2010PropOp54
 70
     1
102
RTVSPost2010Prop55
280
     0
102
RTVSPost2010PropOp55
 70
     1
102
RTVSPost2010Prop56
140
1.0
102
RTVSPost2010PropOp56
 70
     1
102
RTVSPost2010Prop57
140
1.0
102
RTVSPost2010PropOp57
 70
     1
102
RTVSPropertyOp0
 70
     1
102
RTVSPropertyOp1
 70
     1
102
RTVSPropertyOp2
 70
     1
102
RTVSPropertyOp3
 70
     1
102
RTVSPropertyOp4
 70
     1
102
RTVSPropertyOp5
 70
     1
102
RTVSPropertyOp6
 70
     1
102
RTVSPropertyOp7
 70
     1
102
RTVSPropertyOp8
 70
     1
102
RTVSPropertyOp9
 70
     1
102
RTVSPropertyOp10
 70
     1
102
RTVSPropertyOp11
 70
     1
102
RTVSPropertyOp12
 70
     1
102
RTVSPropertyOp13
 70
     1
102
RTVSPropertyOp14
 70
     1
102
RTVSPropertyOp15
 70
     1
102
RTVSPropertyOp16
 70
     1
102
RTVSPropertyOp17
 70
     1
102
RTVSPropertyOp18
 70
     1
102
RTVSPropertyOp19
 70
     1
102
RTVSPropertyOp20
 70
     1
102
RTVSPropertyOp21
 70
     1
102
RTVSPropertyOp22
 70
     1
102
RTVSPropertyOp23
 70
     1
102
RTVSPropertyOp24
 70
     1
102
RTVSPropertyOp25
 70
     1
102
RTVSPropertyOp26
 70
     1
102
RTVSPropertyOp27
 70
     1
102
RTVSPropertyOp28
 70
     1
102
RTVSPropertyOp29
 70
     1
102
RTVSPropertyOp30
 70
     1
102
RTVSPropertyOp31
 70
     1
102
RTVSPropertyOp32
 70
     1
102
RTVSPropertyOp33
 70
     1
102
RTVSPropertyOp34
 70
     1
102
RTVSPropertyOp35
 70
     1
102
RTVSPropertyOp36
 70
     1
102
RTVSPropertyOp37
 70
     1
102
RTVSPropertyOp38
 70
     1
102
RTVSPropertyOp39
 70
     1
102
RTVSPropertyOp40
 70
     1
102
RTVSPropertyOp41
 70
     1
102
RTVSPropertyOp42
 70
     1
102
RTVSPropertyOp43
 70
     1
102
RTVSPropertyOp44
 70
     1
102
RTVSPropertyOp45
 70
     1
102
RTVSPropertyOp46
 70
     1
102
RTVSPropertyOp47
 70
     1
102
RTVSPropertyOp48
 70
     1
102
RTVSPropertyOp49
 70
     1
102
RTVSPropertyOp50
 70
     1
102
RTVSPropertyOp51
 70
     0
102
RTVSPropertyOp52
 70
     0
102
RTVSPropertyOp53
 70
     1
102
RTVSPropertyOp54
 70
     1
102
RTVSPropertyOp55
 70
     1
102
RTVSPropertyOp56
 70
     1
102
RTVSPropertyOp57
 70
     1
102
RTVSPropertyOp58
 70
     1
102
RTVSPropertyOp59
 70
     1
102
RTVSPropertyOp60
 70
     1
102
RTVSPropertyOp61
 70
     1
102
RTVSPropertyOp62
 70
     1
  0
XRECORD
  5
2939
102
{ACAD_REACTORS
330
2938
102
}
330
2938
100
AcDbXrecord
280
     1
102
RTVSPost2010Prop28
280
     0
102
RTVSPost2010PropOp28
 70
     1
102
RTVSPost2010Prop29
280
     1
102
RTVSPost2010PropOp29
 70
     1
102
RTVSPost2010Prop30
280
     1
102
RTVSPost2010PropOp30
 70
     1
102
RTVSPost2010Prop31
280
     0
102
RTVSPost2010PropOp31
 70
     1
102
RTVSPost2010Prop32
280
     0
102
RTVSPost2010PropOp32
 70
     1
102
RTVSPost2010Prop33
280
     0
102
RTVSPost2010PropOp33
 70
     1
102
RTVSPost2010Prop34
280
     0
102
RTVSPost2010PropOp34
 70
     1
102
RTVSPost2010Prop35
280
     0
102
RTVSPost2010PropOp35
 70
     1
102
RTVSPost2010Prop36
280
     0
102
RTVSPost2010PropOp36
 70
     1
102
RTVSPost2010Prop37
 90
       50
102
RTVSPost2010PropOp37
 70
     1
102
RTVSPost2010Prop38
140
0.0
102
RTVSPost2010PropOp38
 70
     1
102
RTVSPost2010Prop39
140
1.0
102
RTVSPost2010PropOp39
 70
     1
102
RTVSPost2010Prop40
 90
        0
102
RTVSPost2010PropOp40
 70
     1
102
RTVSPost2010Prop41ColorIndex
 90
       18
102
RTVSPost2010Prop41ColorRGB
 90
        0
102
RTVSPost2010PropOp41
 70
     1
102
RTVSPost2010Prop42
 90
       50
102
RTVSPost2010PropOp42
 70
     1
102
RTVSPost2010Prop43
 90
        3
102
RTVSPost2010PropOp43
 70
     1
102
RTVSPost2010Prop44ColorIndex
 90
        5
102
RTVSPost2010Prop44ColorRGB
 90
      255
102
RTVSPost2010PropOp44
 70
     1
102
RTVSPost2010Prop45
280
     0
102
RTVSPost2010PropOp45
 70
     1
102
RTVSPost2010Prop46
 90
       50
102
RTVSPost2010PropOp46
 70
     1
102
RTVSPost2010Prop47
 90
       50
102
RTVSPost2010PropOp47
 70
     1
102
RTVSPost2010Prop48
 90
       50
102
RTVSPost2010PropOp48
 70
     1
102
RTVSPost2010Prop49
280
     0
102
RTVSPost2010PropOp49
 70
     1
102
RTVSPost2010Prop50
 90
       50
102
RTVSPost2010PropOp50
 70
     1
102
RTVSPost2010Prop51ColorIndex
 90
      256
102
RTVSPost2010Prop51ColorRGB
 90
-16777216
102
RTVSPost2010PropOp51
 70
     0
102
RTVSPost2010Prop52
140
1.0
102
RTVSPost2010PropOp52
 70
     0
102
RTVSPost2010Prop53
 90
        2
102
RTVSPost2010PropOp53
 70
     1
102
RTVSPost2010Prop54
  1
strokes_ogs.tif
102
RTVSPost2010PropOp54
 70
     1
102
RTVSPost2010Prop55
280
     0
102
RTVSPost2010PropOp55
 70
     1
102
RTVSPost2010Prop56
140
1.0
102
RTVSPost2010PropOp56
 70
     1
102
RTVSPost2010Prop57
140
1.0
102
RTVSPost2010PropOp57
 70
     1
102
RTVSPropertyOp0
 70
     1
102
RTVSPropertyOp1
 70
     1
102
RTVSPropertyOp2
 70
     1
102
RTVSPropertyOp3
 70
     1
102
RTVSPropertyOp4
 70
     1
102
RTVSPropertyOp5
 70
     1
102
RTVSPropertyOp6
 70
     1
102
RTVSPropertyOp7
 70
     1
102
RTVSPropertyOp8
 70
     1
102
RTVSPropertyOp9
 70
     1
102
RTVSPropertyOp10
 70
     1
102
RTVSPropertyOp11
 70
     1
102
RTVSPropertyOp12
 70
     1
102
RTVSPropertyOp13
 70
     1
102
RTVSPropertyOp14
 70
     1
102
RTVSPropertyOp15
 70
     1
102
RTVSPropertyOp16
 70
     1
102
RTVSPropertyOp17
 70
     1
102
RTVSPropertyOp18
 70
     1
102
RTVSPropertyOp19
 70
     1
102
RTVSPropertyOp20
 70
     1
102
RTVSPropertyOp21
 70
     1
102
RTVSPropertyOp22
 70
     1
102
RTVSPropertyOp23
 70
     1
102
RTVSPropertyOp24
 70
     1
102
RTVSPropertyOp25
 70
     1
102
RTVSPropertyOp26
 70
     1
102
RTVSPropertyOp27
 70
     1
102
RTVSPropertyOp28
 70
     1
102
RTVSPropertyOp29
 70
     1
102
RTVSPropertyOp30
 70
     1
102
RTVSPropertyOp31
 70
     1
102
RTVSPropertyOp32
 70
     1
102
RTVSPropertyOp33
 70
     1
102
RTVSPropertyOp34
 70
     1
102
RTVSPropertyOp35
 70
     1
102
RTVSPropertyOp36
 70
     1
102
RTVSPropertyOp37
 70
     1
102
RTVSPropertyOp38
 70
     1
102
RTVSPropertyOp39
 70
     1
102
RTVSPropertyOp40
 70
     1
102
RTVSPropertyOp41
 70
     1
102
RTVSPropertyOp42
 70
     1
102
RTVSPropertyOp43
 70
     1
102
RTVSPropertyOp44
 70
     1
102
RTVSPropertyOp45
 70
     1
102
RTVSPropertyOp46
 70
     1
102
RTVSPropertyOp47
 70
     1
102
RTVSPropertyOp48
 70
     1
102
RTVSPropertyOp49
 70
     1
102
RTVSPropertyOp50
 70
     1
102
RTVSPropertyOp51
 70
     0
102
RTVSPropertyOp52
 70
     0
102
RTVSPropertyOp53
 70
     1
102
RTVSPropertyOp54
 70
     1
102
RTVSPropertyOp55
 70
     1
102
RTVSPropertyOp56
 70
     1
102
RTVSPropertyOp57
 70
     1
102
RTVSPropertyOp58
 70
     1
102
RTVSPropertyOp59
 70
     1
102
RTVSPropertyOp60
 70
     1
102
RTVSPropertyOp61
 70
     1
102
RTVSPropertyOp62
 70
     1
  0
XRECORD
  5
292D
102
{ACAD_REACTORS
330
292C
102
}
330
292C
100
AcDbXrecord
280
     1
102
RTVSPost2010Prop28
280
     0
102
RTVSPost2010PropOp28
 70
     1
102
RTVSPost2010Prop29
280
     1
102
RTVSPost2010PropOp29
 70
     1
102
RTVSPost2010Prop30
280
     1
102
RTVSPost2010PropOp30
 70
     1
102
RTVSPost2010Prop31
280
     0
102
RTVSPost2010PropOp31
 70
     1
102
RTVSPost2010Prop32
280
     0
102
RTVSPost2010PropOp32
 70
     1
102
RTVSPost2010Prop33
280
     0
102
RTVSPost2010PropOp33
 70
     1
102
RTVSPost2010Prop34
280
     0
102
RTVSPost2010PropOp34
 70
     1
102
RTVSPost2010Prop35
280
     0
102
RTVSPost2010PropOp35
 70
     1
102
RTVSPost2010Prop36
280
     0
102
RTVSPost2010PropOp36
 70
     1
102
RTVSPost2010Prop37
 90
       50
102
RTVSPost2010PropOp37
 70
     1
102
RTVSPost2010Prop38
140
0.0
102
RTVSPost2010PropOp38
 70
     1
102
RTVSPost2010Prop39
140
1.0
102
RTVSPost2010PropOp39
 70
     1
102
RTVSPost2010Prop40
 90
        0
102
RTVSPost2010PropOp40
 70
     1
102
RTVSPost2010Prop41ColorIndex
 90
       18
102
RTVSPost2010Prop41ColorRGB
 90
        0
102
RTVSPost2010PropOp41
 70
     1
102
RTVSPost2010Prop42
 90
       50
102
RTVSPost2010PropOp42
 70
     1
102
RTVSPost2010Prop43
 90
        3
102
RTVSPost2010PropOp43
 70
     1
102
RTVSPost2010Prop44ColorIndex
 90
        5
102
RTVSPost2010Prop44ColorRGB
 90
      255
102
RTVSPost2010PropOp44
 70
     1
102
RTVSPost2010Prop45
280
     0
102
RTVSPost2010PropOp45
 70
     1
102
RTVSPost2010Prop46
 90
       50
102
RTVSPost2010PropOp46
 70
     1
102
RTVSPost2010Prop47
 90
       50
102
RTVSPost2010PropOp47
 70
     1
102
RTVSPost2010Prop48
 90
       50
102
RTVSPost2010PropOp48
 70
     1
102
RTVSPost2010Prop49
280
     0
102
RTVSPost2010PropOp49
 70
     1
102
RTVSPost2010Prop50
 90
       50
102
RTVSPost2010PropOp50
 70
     1
102
RTVSPost2010Prop51ColorIndex
 90
      256
102
RTVSPost2010Prop51ColorRGB
 90
-16777216
102
RTVSPost2010PropOp51
 70
     0
102
RTVSPost2010Prop52
140
1.0
102
RTVSPost2010PropOp52
 70
     0
102
RTVSPost2010Prop53
 90
        2
102
RTVSPost2010PropOp53
 70
     1
102
RTVSPost2010Prop54
  1
strokes_ogs.tif
102
RTVSPost2010PropOp54
 70
     1
102
RTVSPost2010Prop55
280
     0
102
RTVSPost2010PropOp55
 70
     1
102
RTVSPost2010Prop56
140
1.0
102
RTVSPost2010PropOp56
 70
     1
102
RTVSPost2010Prop57
140
1.0
102
RTVSPost2010PropOp57
 70
     1
102
RTVSPropertyOp0
 70
     1
102
RTVSPropertyOp1
 70
     1
102
RTVSPropertyOp2
 70
     1
102
RTVSPropertyOp3
 70
     1
102
RTVSPropertyOp4
 70
     1
102
RTVSPropertyOp5
 70
     1
102
RTVSPropertyOp6
 70
     1
102
RTVSPropertyOp7
 70
     1
102
RTVSPropertyOp8
 70
     1
102
RTVSPropertyOp9
 70
     1
102
RTVSPropertyOp10
 70
     1
102
RTVSPropertyOp11
 70
     1
102
RTVSPropertyOp12
 70
     1
102
RTVSPropertyOp13
 70
     1
102
RTVSPropertyOp14
 70
     1
102
RTVSPropertyOp15
 70
     1
102
RTVSPropertyOp16
 70
     1
102
RTVSPropertyOp17
 70
     1
102
RTVSPropertyOp18
 70
     1
102
RTVSPropertyOp19
 70
     1
102
RTVSPropertyOp20
 70
     1
102
RTVSPropertyOp21
 70
     1
102
RTVSPropertyOp22
 70
     1
102
RTVSPropertyOp23
 70
     1
102
RTVSPropertyOp24
 70
     1
102
RTVSPropertyOp25
 70
     1
102
RTVSPropertyOp26
 70
     1
102
RTVSPropertyOp27
 70
     1
102
RTVSPropertyOp28
 70
     1
102
RTVSPropertyOp29
 70
     1
102
RTVSPropertyOp30
 70
     1
102
RTVSPropertyOp31
 70
     1
102
RTVSPropertyOp32
 70
     1
102
RTVSPropertyOp33
 70
     1
102
RTVSPropertyOp34
 70
     1
102
RTVSPropertyOp35
 70
     1
102
RTVSPropertyOp36
 70
     1
102
RTVSPropertyOp37
 70
     1
102
RTVSPropertyOp38
 70
     1
102
RTVSPropertyOp39
 70
     1
102
RTVSPropertyOp40
 70
     1
102
RTVSPropertyOp41
 70
     1
102
RTVSPropertyOp42
 70
     1
102
RTVSPropertyOp43
 70
     1
102
RTVSPropertyOp44
 70
     1
102
RTVSPropertyOp45
 70
     1
102
RTVSPropertyOp46
 70
     1
102
RTVSPropertyOp47
 70
     1
102
RTVSPropertyOp48
 70
     1
102
RTVSPropertyOp49
 70
     1
102
RTVSPropertyOp50
 70
     1
102
RTVSPropertyOp51
 70
     0
102
RTVSPropertyOp52
 70
     0
102
RTVSPropertyOp53
 70
     1
102
RTVSPropertyOp54
 70
     1
102
RTVSPropertyOp55
 70
     1
102
RTVSPropertyOp56
 70
     1
102
RTVSPropertyOp57
 70
     1
102
RTVSPropertyOp58
 70
     1
102
RTVSPropertyOp59
 70
     1
102
RTVSPropertyOp60
 70
     1
102
RTVSPropertyOp61
 70
     1
102
RTVSPropertyOp62
 70
     1
  0
XRECORD
  5
2945
102
{ACAD_REACTORS
330
2944
102
}
330
2944
100
AcDbXrecord
280
     1
102
RTVSPost2010Prop28
280
     0
102
RTVSPost2010PropOp28
 70
     1
102
RTVSPost2010Prop29
280
     1
102
RTVSPost2010PropOp29
 70
     1
102
RTVSPost2010Prop30
280
     1
102
RTVSPost2010PropOp30
 70
     1
102
RTVSPost2010Prop31
280
     0
102
RTVSPost2010PropOp31
 70
     1
102
RTVSPost2010Prop32
280
     0
102
RTVSPost2010PropOp32
 70
     1
102
RTVSPost2010Prop33
280
     0
102
RTVSPost2010PropOp33
 70
     1
102
RTVSPost2010Prop34
280
     0
102
RTVSPost2010PropOp34
 70
     1
102
RTVSPost2010Prop35
280
     0
102
RTVSPost2010PropOp35
 70
     1
102
RTVSPost2010Prop36
280
     0
102
RTVSPost2010PropOp36
 70
     1
102
RTVSPost2010Prop37
 90
       50
102
RTVSPost2010PropOp37
 70
     1
102
RTVSPost2010Prop38
140
0.0
102
RTVSPost2010PropOp38
 70
     1
102
RTVSPost2010Prop39
140
1.0
102
RTVSPost2010PropOp39
 70
     1
102
RTVSPost2010Prop40
 90
        0
102
RTVSPost2010PropOp40
 70
     1
102
RTVSPost2010Prop41ColorIndex
 90
       18
102
RTVSPost2010Prop41ColorRGB
 90
        0
102
RTVSPost2010PropOp41
 70
     1
102
RTVSPost2010Prop42
 90
       50
102
RTVSPost2010PropOp42
 70
     1
102
RTVSPost2010Prop43
 90
        3
102
RTVSPost2010PropOp43
 70
     1
102
RTVSPost2010Prop44ColorIndex
 90
        5
102
RTVSPost2010Prop44ColorRGB
 90
      255
102
RTVSPost2010PropOp44
 70
     1
102
RTVSPost2010Prop45
280
     0
102
RTVSPost2010PropOp45
 70
     1
102
RTVSPost2010Prop46
 90
       50
102
RTVSPost2010PropOp46
 70
     1
102
RTVSPost2010Prop47
 90
       50
102
RTVSPost2010PropOp47
 70
     1
102
RTVSPost2010Prop48
 90
       50
102
RTVSPost2010PropOp48
 70
     1
102
RTVSPost2010Prop49
280
     0
102
RTVSPost2010PropOp49
 70
     1
102
RTVSPost2010Prop50
 90
       50
102
RTVSPost2010PropOp50
 70
     1
102
RTVSPost2010Prop51ColorIndex
 90
      256
102
RTVSPost2010Prop51ColorRGB
 90
-16777216
102
RTVSPost2010PropOp51
 70
     0
102
RTVSPost2010Prop52
140
1.0
102
RTVSPost2010PropOp52
 70
     0
102
RTVSPost2010Prop53
 90
        2
102
RTVSPost2010PropOp53
 70
     1
102
RTVSPost2010Prop54
  1
strokes_ogs.tif
102
RTVSPost2010PropOp54
 70
     1
102
RTVSPost2010Prop55
280
     0
102
RTVSPost2010PropOp55
 70
     1
102
RTVSPost2010Prop56
140
1.0
102
RTVSPost2010PropOp56
 70
     1
102
RTVSPost2010Prop57
140
1.0
102
RTVSPost2010PropOp57
 70
     1
102
RTVSPropertyOp0
 70
     1
102
RTVSPropertyOp1
 70
     1
102
RTVSPropertyOp2
 70
     1
102
RTVSPropertyOp3
 70
     1
102
RTVSPropertyOp4
 70
     1
102
RTVSPropertyOp5
 70
     1
102
RTVSPropertyOp6
 70
     1
102
RTVSPropertyOp7
 70
     1
102
RTVSPropertyOp8
 70
     1
102
RTVSPropertyOp9
 70
     1
102
RTVSPropertyOp10
 70
     1
102
RTVSPropertyOp11
 70
     1
102
RTVSPropertyOp12
 70
     1
102
RTVSPropertyOp13
 70
     1
102
RTVSPropertyOp14
 70
     1
102
RTVSPropertyOp15
 70
     1
102
RTVSPropertyOp16
 70
     1
102
RTVSPropertyOp17
 70
     1
102
RTVSPropertyOp18
 70
     1
102
RTVSPropertyOp19
 70
     1
102
RTVSPropertyOp20
 70
     1
102
RTVSPropertyOp21
 70
     1
102
RTVSPropertyOp22
 70
     1
102
RTVSPropertyOp23
 70
     1
102
RTVSPropertyOp24
 70
     1
102
RTVSPropertyOp25
 70
     1
102
RTVSPropertyOp26
 70
     1
102
RTVSPropertyOp27
 70
     1
102
RTVSPropertyOp28
 70
     1
102
RTVSPropertyOp29
 70
     1
102
RTVSPropertyOp30
 70
     1
102
RTVSPropertyOp31
 70
     1
102
RTVSPropertyOp32
 70
     1
102
RTVSPropertyOp33
 70
     1
102
RTVSPropertyOp34
 70
     1
102
RTVSPropertyOp35
 70
     1
102
RTVSPropertyOp36
 70
     1
102
RTVSPropertyOp37
 70
     1
102
RTVSPropertyOp38
 70
     1
102
RTVSPropertyOp39
 70
     1
102
RTVSPropertyOp40
 70
     1
102
RTVSPropertyOp41
 70
     1
102
RTVSPropertyOp42
 70
     1
102
RTVSPropertyOp43
 70
     1
102
RTVSPropertyOp44
 70
     1
102
RTVSPropertyOp45
 70
     1
102
RTVSPropertyOp46
 70
     1
102
RTVSPropertyOp47
 70
     1
102
RTVSPropertyOp48
 70
     1
102
RTVSPropertyOp49
 70
     1
102
RTVSPropertyOp50
 70
     1
102
RTVSPropertyOp51
 70
     0
102
RTVSPropertyOp52
 70
     0
102
RTVSPropertyOp53
 70
     1
102
RTVSPropertyOp54
 70
     1
102
RTVSPropertyOp55
 70
     1
102
RTVSPropertyOp56
 70
     1
102
RTVSPropertyOp57
 70
     1
102
RTVSPropertyOp58
 70
     1
102
RTVSPropertyOp59
 70
     1
102
RTVSPropertyOp60
 70
     1
102
RTVSPropertyOp61
 70
     1
102
RTVSPropertyOp62
 70
     1
  0
ENDSEC
  0
EOF
