  0
SECTION
  2
HEADER
  9
$ACADVER
  1
AC1015
  9
$DWGCODEPAGE
  3
ANSI_932
  9
$LTSCALE
 40
20.0
  9
$FILLMODE
 70
     1
  9
$CLAYER
  8
0
  9
$PDMODE
 70
     0
  9
$SPLFRAME
 70
     0
  9
$SPLINETYPE
 70
     6
  9
$SPLINESEGS
 70
     8
  9
$DIMASZ
 40
2.000000
  9
$DIMEXE
 40
1.500000
  9
$DIMEXO
 40
0.800000
  9
$DIMTAD
 70
     1
  9
$DIMTIH
 70
     0
  9
$DIMTOH
 70
     0
  9
$DIMTVP
 40
0.500000
  9
$DIMTXT
 40
3.100000
  9
$EXTMIN
 10
0.000000
 20
0.000000
 30
0.000000
  9
$EXTMAX
 10
297.000000
 20
420.000000
 30
0.000000
  9
$MEASUREMENT
 70
  1
  9
$LIMMIN
 10
0.000000
 20
0.000000
  9
$LIMMAX
 10
297.000000
 20
420.000000
  9
$HANDSEED
  5
2A7
  9
$LWDISPLAY
290
     0
  9
$DIMBLK
  1
_OPEN
  9
$DIMDEC
 70
     2
  9
$DIMADEC
 70
     2
  9
$DIMAUNIT
 70
     0
  9
$DIMZIN
 70
     8
  9
$DIMAZIN
 70
     2
  9
$DIMTOFL
 70
     1
  0
ENDSEC
  0
SECTION
  2
CLASSES
  0
ENDSEC
  0
SECTION
  2
TABLES
  0
TABLE
  2
VPORT
  5
277
100
AcDbSymbolTable
 70
     1
  0
VPORT
  5
278
100
AcDbSymbolTableRecord
100
AcDbViewportTableRecord
  2
*ACTIVE
 70
     0
 12
295.351500
 22
134.799723
 40
556.573594
 41
1.363437
  0
ENDTAB
  0
TABLE
  2
LTYPE
  5
279
100
AcDbSymbolTable
 70
     2
  0
LTYPE
  5
27A
100
AcDbSymbolTableRecord
100
AcDbLinetypeTableRecord
  2
BYBLOCK
 70
     0
  3

 72
    65
 73
     0
 40
0.0
  0
LTYPE
  5
27B
100
AcDbSymbolTableRecord
100
AcDbLinetypeTableRecord
  2
BYLAYER
 70
     0
  3

 72
    65
 73
     0
 40
0.0
  0
LTYPE
  5
27C
100
AcDbSymbolTableRecord
100
AcDbLinetypeTableRecord
  2
CONTINUOUS
 70
     0
  3
Solid line (NEC CAE2D for Win R16.0 : 2021.10.04)
 72
    65
 73
     0
 40
0.0
  0
LTYPE
  5
27D
100
AcDbSymbolTableRecord
100
AcDbLinetypeTableRecord
  2
CENTER
 70
     0
  3
____ _ ____ _ ____ _ ____ _ ____ _ ____
 72
    65
 73
     4
 40
2.0
 49
1.25
 74
     0
 49
-0.25
 74
     0
 49
0.25
 74
     0
 49
-0.25
 74
     0
  0
ENDTAB
  0
TABLE
  2
LAYER
  5
27E
100
AcDbSymbolTable
 70
    10
  0
LAYER
  5
27F
100
AcDbSymbolTableRecord
100
AcDbLayerTableRecord
  2
0
 70
     0
 62
     7
  6
CONTINUOUS
370
    -3
390

  0
LAYER
  5
280
100
AcDbSymbolTableRecord
100
AcDbLayerTableRecord
  2
DXF0
 70
     0
 62
     7
  6
CONTINUOUS
370
    -3
390

  0
LAYER
  5
281
100
AcDbSymbolTableRecord
100
AcDbLayerTableRecord
  2
4
 70
     0
 62
     1
  6
CONTINUOUS
370
    -3
390

  0
LAYER
  5
282
100
AcDbSymbolTableRecord
100
AcDbLayerTableRecord
  2
5
 70
     0
 62
     6
  6
CONTINUOUS
370
    -3
390

  0
LAYER
  5
283
100
AcDbSymbolTableRecord
100
AcDbLayerTableRecord
  2
1
 70
     0
 62
     7
  6
CONTINUOUS
370
    -3
390

  0
LAYER
  5
284
100
AcDbSymbolTableRecord
100
AcDbLayerTableRecord
  2
2
 70
     0
 62
     4
  6
CONTINUOUS
370
    -3
390

  0
LAYER
  5
285
100
AcDbSymbolTableRecord
100
AcDbLayerTableRecord
  2
3
 70
     0
 62
     2
  6
CONTINUOUS
370
    -3
390

  0
LAYER
  5
286
100
AcDbSymbolTableRecord
100
AcDbLayerTableRecord
  2
6
 70
     0
 62
     5
  6
CONTINUOUS
370
    -3
390

  0
LAYER
  5
287
100
AcDbSymbolTableRecord
100
AcDbLayerTableRecord
  2
7
 70
     0
 62
     7
  6
CONTINUOUS
370
    -3
390

  0
LAYER
  5
288
100
AcDbSymbolTableRecord
100
AcDbLayerTableRecord
  2
DXF1023
 70
     0
 62
    16
  6
CONTINUOUS
370
    -3
390

  0
ENDTAB
  0
TABLE
  2
STYLE
  5
289
100
AcDbSymbolTable
 70
     4
  0
STYLE
  5
28A
100
AcDbSymbolTableRecord
100
AcDbTextStyleTableRecord
  2
STANDARD
 70
    64
 40
0.0
 41
1.0
 50
0.0
 71
     0
 42
3.000000000000000
  3
TXT
  4

  0
STYLE
  5
28B
100
AcDbSymbolTableRecord
100
AcDbTextStyleTableRecord
  2
ANKTATE
 70
    68
 40
0.0
 41
1.0
 50
0.0
 71
     0
 42
3.000000000000000
  3
TXT
  4

  0
STYLE
  5
28C
100
AcDbSymbolTableRecord
100
AcDbTextStyleTableRecord
  2
KNJYOKO
 70
    64
 40
0.0
 41
1.0
 50
0.0
 71
     0
 42
3.000000000000000
  3
TXT
  4
BIGFONT
  0
STYLE
  5
28D
100
AcDbSymbolTableRecord
100
AcDbTextStyleTableRecord
  2
KNJTATE
 70
    68
 40
0.0
 41
1.0
 50
0.0
 71
     0
 42
3.000000000000000
  3
TXT
  4
BIGFONT
  0
ENDTAB
  0
TABLE
  2
VIEW
  5
28E
100
AcDbSymbolTable
 70
     0
  0
ENDTAB
  0
TABLE
  2
UCS
  5
28F
100
AcDbSymbolTable
 70
     0
  0
ENDTAB
  0
TABLE
  2
APPID
  5
290
100
AcDbSymbolTable
 70
     1
  0
APPID
  5
291
100
AcDbSymbolTableRecord
100
AcDbRegAppTableRecord
  2
ACAD
 70
     0
  0
ENDTAB
  0
TABLE
  2
DIMSTYLE
  5
292
100
AcDbSymbolTable
 70
     2
100
AcDbDimStyleTable
  0
DIMSTYLE
105
293
100
AcDbSymbolTableRecord
100
AcDbDimStyleTableRecord
  2
STANDARD
 70
     0
 41
2.000000
 44
1.500000
 42
0.800000
145
0.661290
140
3.100000
144
1.000000
146
0.645161
340
28A
  0
DIMSTYLE
105
294
100
AcDbSymbolTableRecord
100
AcDbDimStyleTableRecord
  2
DXF001
 70
     0
 41
2.000000
 44
1.500000
 42
0.800000
145
0.661290
140
3.100000
144
1.000000
146
0.645161
 77
     1
 73
     0
 74
     0
271
     2
179
     2
275
     0
 78
     8
 79
     2
172
     1
340
28A
  0
ENDTAB
  0
TABLE
  2
BLOCK_RECORD
  5
295
100
AcDbSymbolTable
 70
    12
  0
BLOCK_RECORD
  5
296
100
AcDbSymbolTableRecord
100
AcDbBlockTableRecord
  2
*MODEL_SPACE
  0
BLOCK_RECORD
  5
297
100
AcDbSymbolTableRecord
100
AcDbBlockTableRecord
  2
*PAPER_SPACE
  0
BLOCK_RECORD
  5
298
100
AcDbSymbolTableRecord
100
AcDbBlockTableRecord
  2
*PAPER_SPACE0
  0
BLOCK_RECORD
  5
1
100
AcDbSymbolTableRecord
100
AcDbBlockTableRecord
  2
_NONE
  0
BLOCK_RECORD
  5
4
100
AcDbSymbolTableRecord
100
AcDbBlockTableRecord
  2
_CLOSED
  0
BLOCK_RECORD
  5
B
100
AcDbSymbolTableRecord
100
AcDbBlockTableRecord
  2
_DOT
  0
BLOCK_RECORD
  5
13
100
AcDbSymbolTableRecord
100
AcDbBlockTableRecord
  2
_OPEN
  0
BLOCK_RECORD
  5
19
100
AcDbSymbolTableRecord
100
AcDbBlockTableRecord
  2
_ORIGIN
  0
BLOCK_RECORD
  5
1E
100
AcDbSymbolTableRecord
100
AcDbBlockTableRecord
  2
_OPEN30
  0
BLOCK_RECORD
  5
24
100
AcDbSymbolTableRecord
100
AcDbBlockTableRecord
  2
_BOXFILLED
  0
BLOCK_RECORD
  5
29
100
AcDbSymbolTableRecord
100
AcDbBlockTableRecord
  2
_BOXBLANK
  0
BLOCK_RECORD
  5
31
100
AcDbSymbolTableRecord
100
AcDbBlockTableRecord
  2
_OBLIQUE
  0
BLOCK_RECORD
  5
35
100
AcDbSymbolTableRecord
100
AcDbBlockTableRecord
  2
_OPEN90
  0
BLOCK_RECORD
  5
3B
100
AcDbSymbolTableRecord
100
AcDbBlockTableRecord
  2
_CLOSEDBLANK
  0
BLOCK_RECORD
  5
41
100
AcDbSymbolTableRecord
100
AcDbBlockTableRecord
  2
_DOTBLANK
  0
ENDTAB
  0
ENDSEC
  0
SECTION
  2
BLOCKS
  0
BLOCK
  5
299
100
AcDbEntity
  8
0
100
AcDbBlockBegin
  2
*MODEL_SPACE
 70
     0
 10
0.0
 20
0.0
 30
0.0
  3
*MODEL_SPACE
  1

  0
ENDBLK
  5
29A
100
AcDbEntity
  8
0
100
AcDbBlockEnd
  0
BLOCK
  5
29B
100
AcDbEntity
  8
0
100
AcDbBlockBegin
  2
*PAPER_SPACE
 70
     0
 10
0.0
 20
0.0
 30
0.0
  3
*PAPER_SPACE
  1

  0
ENDBLK
  5
29C
100
AcDbEntity
  8
0
100
AcDbBlockEnd
  0
BLOCK
  5
29D
100
AcDbEntity
  8
0
100
AcDbBlockBegin
  2
*PAPER_SPACE0
 70
     0
 10
0.0
 20
0.0
 30
0.0
  3
*PAPER_SPACE0
  1

  0
ENDBLK
  5
29E
100
AcDbEntity
  8
0
100
AcDbBlockEnd
  0
BLOCK
  5
2
330
1
100
AcDbEntity
  8
0
100
AcDbBlockBegin
  2
_NONE
 70
     0
 10
0.0
 20
0.0
 30
0.0
  3
_NONE
  1

  0
ENDBLK
  5
3
330
1
100
AcDbEntity
  8
0
100
AcDbBlockEnd
  0
BLOCK
  5
5
330
4
100
AcDbEntity
  8
0
100
AcDbBlockBegin
  2
_CLOSED
 70
     0
 10
0.0
 20
0.0
 30
0.0
  3
_CLOSED
  1

  0
LINE
  5
6
330
4
100
AcDbEntity
  8
0
  6
BYBLOCK
 62
     0
370
    -2
100
AcDbLine
 10
-1.0
 20
0.166667
 30
0.0
 11
0.0
 21
0.0
 31
0.0
  0
LINE
  5
7
330
4
100
AcDbEntity
  8
0
  6
BYBLOCK
 62
     0
370
    -2
100
AcDbLine
 10
0.0
 20
0.0
 30
0.0
 11
-1.0
 21
-0.166667
 31
0.0
  0
LINE
  5
8
330
4
100
AcDbEntity
  8
0
  6
BYBLOCK
 62
     0
370
    -2
100
AcDbLine
 10
-1.0
 20
0.166667
 30
0.0
 11
-1.0
 21
-0.166667
 31
0.0
  0
LINE
  5
9
330
4
100
AcDbEntity
  8
0
  6
BYBLOCK
 62
     0
370
    -2
100
AcDbLine
 10
0.0
 20
0.0
 30
0.0
 11
-1.0
 21
0.0
 31
0.0
  0
ENDBLK
  5
A
330
4
100
AcDbEntity
  8
0
100
AcDbBlockEnd
  0
BLOCK
  5
C
330
B
100
AcDbEntity
  8
0
100
AcDbBlockBegin
  2
_DOT
 70
     0
 10
0.0
 20
0.0
 30
0.0
  3
_DOT
  1

  0
POLYLINE
  5
D
330
B
100
AcDbEntity
  8
0
  6
BYBLOCK
 62
     0
370
    -2
100
AcDb2dPolyline
 66
     1
 10
0.0
 20
0.0
 30
0.0
 70
     1
 40
0.5
 41
0.5
  0
VERTEX
  5
E
330
B
100
AcDbEntity
  8
0
  6
BYBLOCK
 62
     0
370
    -2
100
AcDbVertex
100
AcDb2dVertex
 10
-0.25
 20
0.0
 30
0.0
 42
1.0
  0
VERTEX
  5
F
330
B
100
AcDbEntity
  8
0
  6
BYBLOCK
 62
     0
370
    -2
100
AcDbVertex
100
AcDb2dVertex
 10
0.25
 20
0.0
 30
0.0
 42
1.0
  0
SEQEND
  5
10
330
B
100
AcDbEntity
  8
0
  6
BYBLOCK
 62
     0
370
    -2
  0
LINE
  5
11
330
B
100
AcDbEntity
  8
0
  6
BYBLOCK
 62
     0
370
    -2
100
AcDbLine
 10
-0.5
 20
0.0
 30
0.0
 11
-1.0
 21
0.0
 31
0.0
  0
ENDBLK
  5
12
330
B
100
AcDbEntity
  8
0
100
AcDbBlockEnd
  0
BLOCK
  5
14
330
13
100
AcDbEntity
  8
0
100
AcDbBlockBegin
  2
_OPEN
 70
     0
 10
0.0
 20
0.0
 30
0.0
  3
_OPEN
  1

  0
LINE
  5
15
330
13
100
AcDbEntity
  8
0
  6
BYBLOCK
 62
     0
370
    -2
100
AcDbLine
 10
-1.0
 20
0.166667
 30
0.0
 11
0.0
 21
0.0
 31
0.0
  0
LINE
  5
16
330
13
100
AcDbEntity
  8
0
  6
BYBLOCK
 62
     0
370
    -2
100
AcDbLine
 10
0.0
 20
0.0
 30
0.0
 11
-1.0
 21
-0.166667
 31
0.0
  0
LINE
  5
17
330
13
100
AcDbEntity
  8
0
  6
BYBLOCK
 62
     0
370
    -2
100
AcDbLine
 10
0.0
 20
0.0
 30
0.0
 11
-1.0
 21
0.0
 31
0.0
  0
ENDBLK
  5
18
330
13
100
AcDbEntity
  8
0
100
AcDbBlockEnd
  0
BLOCK
  5
1A
330
19
100
AcDbEntity
  8
0
100
AcDbBlockBegin
  2
_ORIGIN
 70
     0
 10
0.0
 20
0.0
 30
0.0
  3
_ORIGIN
  1

  0
CIRCLE
  5
1B
330
19
100
AcDbEntity
  8
0
  6
BYBLOCK
 62
     0
370
    -2
100
AcDbCircle
 10
0.0
 20
0.0
 30
0.0
 40
0.5
  0
LINE
  5
1C
330
19
100
AcDbEntity
  8
0
  6
BYBLOCK
 62
     0
370
    -2
100
AcDbLine
 10
0.0
 20
0.0
 30
0.0
 11
-1.0
 21
0.0
 31
0.0
  0
ENDBLK
  5
1D
330
19
100
AcDbEntity
  8
0
100
AcDbBlockEnd
  0
BLOCK
  5
1F
330
1E
100
AcDbEntity
  8
0
100
AcDbBlockBegin
  2
_OPEN30
 70
     0
 10
0.0
 20
0.0
 30
0.0
  3
_OPEN30
  1

  0
LINE
  5
20
330
1E
100
AcDbEntity
  8
0
  6
BYBLOCK
 62
     0
370
    -2
100
AcDbLine
 10
-1.0
 20
0.267949
 30
0.0
 11
0.0
 21
0.0
 31
0.0
  0
LINE
  5
21
330
1E
100
AcDbEntity
  8
0
  6
BYBLOCK
 62
     0
370
    -2
100
AcDbLine
 10
0.0
 20
0.0
 30
0.0
 11
-1.0
 21
-0.267949
 31
0.0
  0
LINE
  5
22
330
1E
100
AcDbEntity
  8
0
  6
BYBLOCK
 62
     0
370
    -2
100
AcDbLine
 10
0.0
 20
0.0
 30
0.0
 11
-1.0
 21
0.0
 31
0.0
  0
ENDBLK
  5
23
330
1E
100
AcDbEntity
  8
0
100
AcDbBlockEnd
  0
BLOCK
  5
25
330
24
100
AcDbEntity
  8
0
100
AcDbBlockBegin
  2
_BOXFILLED
 70
     0
 10
0.0
 20
0.0
 30
0.0
  3
_BOXFILLED
  1

  0
SOLID
  5
26
330
24
100
AcDbEntity
  8
0
  6
BYBLOCK
 62
     0
370
    -2
100
AcDbTrace
 10
-0.5
 20
0.5
 30
0.0
 11
0.5
 21
0.5
 31
0.0
 12
-0.5
 22
-0.5
 32
0.0
 13
0.5
 23
-0.5
 33
0.0
  0
LINE
  5
27
330
24
100
AcDbEntity
  8
0
  6
BYBLOCK
 62
     0
370
    -2
100
AcDbLine
 10
-0.5
 20
0.0
 30
0.0
 11
-1.0
 21
0.0
 31
0.0
  0
ENDBLK
  5
28
330
24
100
AcDbEntity
  8
0
100
AcDbBlockEnd
  0
BLOCK
  5
2A
330
29
100
AcDbEntity
  8
0
100
AcDbBlockBegin
  2
_BOXBLANK
 70
     0
 10
0.0
 20
0.0
 30
0.0
  3
_BOXBLANK
  1

  0
LINE
  5
2B
330
29
100
AcDbEntity
  8
0
  6
BYBLOCK
 62
     0
370
    -2
100
AcDbLine
 10
-0.5
 20
-0.5
 30
0.0
 11
0.5
 21
-0.5
 31
0.0
  0
LINE
  5
2C
330
29
100
AcDbEntity
  8
0
  6
BYBLOCK
 62
     0
370
    -2
100
AcDbLine
 10
0.5
 20
-0.5
 30
0.0
 11
0.5
 21
0.5
 31
0.0
  0
LINE
  5
2D
330
29
100
AcDbEntity
  8
0
  6
BYBLOCK
 62
     0
370
    -2
100
AcDbLine
 10
0.5
 20
0.5
 30
0.0
 11
-0.5
 21
0.5
 31
0.0
  0
LINE
  5
2E
330
29
100
AcDbEntity
  8
0
  6
BYBLOCK
 62
     0
370
    -2
100
AcDbLine
 10
-0.5
 20
0.5
 30
0.0
 11
-0.5
 21
-0.5
 31
0.0
  0
LINE
  5
2F
330
29
100
AcDbEntity
  8
0
  6
BYBLOCK
 62
     0
370
    -2
100
AcDbLine
 10
-0.5
 20
0.0
 30
0.0
 11
-1.0
 21
0.0
 31
0.0
  0
ENDBLK
  5
30
330
29
100
AcDbEntity
  8
0
100
AcDbBlockEnd
  0
BLOCK
  5
32
330
31
100
AcDbEntity
  8
0
100
AcDbBlockBegin
  2
_OBLIQUE
 70
     0
 10
0.0
 20
0.0
 30
0.0
  3
_OBLIQUE
  1

  0
LINE
  5
33
330
31
100
AcDbEntity
  8
0
  6
BYBLOCK
 62
     0
370
    -2
100
AcDbLine
 10
-0.5
 20
-0.5
 30
0.0
 11
0.5
 21
0.5
 31
0.0
  0
ENDBLK
  5
34
330
31
100
AcDbEntity
  8
0
100
AcDbBlockEnd
  0
BLOCK
  5
36
330
35
100
AcDbEntity
  8
0
100
AcDbBlockBegin
  2
_OPEN90
 70
     0
 10
0.0
 20
0.0
 30
0.0
  3
_OPEN90
  1

  0
LINE
  5
37
330
35
100
AcDbEntity
  8
0
  6
BYBLOCK
 62
     0
370
    -2
100
AcDbLine
 10
-0.5
 20
0.5
 30
0.0
 11
0.0
 21
0.0
 31
0.0
  0
LINE
  5
38
330
35
100
AcDbEntity
  8
0
  6
BYBLOCK
 62
     0
370
    -2
100
AcDbLine
 10
0.0
 20
0.0
 30
0.0
 11
-0.5
 21
-0.5
 31
0.0
  0
LINE
  5
39
330
35
100
AcDbEntity
  8
0
  6
BYBLOCK
 62
     0
370
    -2
100
AcDbLine
 10
0.0
 20
0.0
 30
0.0
 11
-1.0
 21
0.0
 31
0.0
  0
ENDBLK
  5
3A
330
35
100
AcDbEntity
  8
0
100
AcDbBlockEnd
  0
BLOCK
  5
3C
330
3B
100
AcDbEntity
  8
0
100
AcDbBlockBegin
  2
_CLOSEDBLANK
 70
     0
 10
0.0
 20
0.0
 30
0.0
  3
_CLOSEDBLANK
  1

  0
LINE
  5
3D
330
3B
100
AcDbEntity
  8
0
  6
BYBLOCK
 62
     0
370
    -2
100
AcDbLine
 10
-1.0
 20
0.1666666666666666
 30
0.0
 11
0.0
 21
0.0
 31
0.0
  0
LINE
  5
3E
330
3B
100
AcDbEntity
  8
0
  6
BYBLOCK
 62
     0
370
    -2
100
AcDbLine
 10
0.0
 20
0.0
 30
0.0
 11
-1.0
 21
-0.1666666666666666
 31
0.0
  0
LINE
  5
3F
330
3B
100
AcDbEntity
  8
0
  6
BYBLOCK
 62
     0
370
    -2
100
AcDbLine
 10
-1.0
 20
0.1666666666666666
 30
0.0
 11
-1.0
 21
-0.1666666666666666
 31
0.0
  0
ENDBLK
  5
40
330
3B
100
AcDbEntity
  8
0
100
AcDbBlockEnd
  0
BLOCK
  5
42
330
41
100
AcDbEntity
  8
0
100
AcDbBlockBegin
  2
_DOTBLANK
 70
     0
 10
0.0
 20
0.0
 30
0.0
  3
_DOTBLANK
  1

  0
CIRCLE
  5
43
330
41
100
AcDbEntity
  8
0
  6
BYBLOCK
 62
     0
370
    -2
100
AcDbCircle
 10
0.0
 20
0.0
 30
0.0
 40
0.5
  0
LINE
  5
44
330
41
100
AcDbEntity
  8
0
  6
BYBLOCK
 62
     0
370
    -2
100
AcDbLine
 10
-0.5
 20
0.0
 30
0.0
 11
-1.0
 21
0.0
 31
0.0
  0
ENDBLK
  5
45
330
41
100
AcDbEntity
  8
0
100
AcDbBlockEnd
  0
ENDSEC
  0
SECTION
  2
ENTITIES
  0
MTEXT
  5
46
100
AcDbEntity
  8
7
  6
CONTINUOUS
 62
7
100
AcDbMText
 10
9.999997526638502
 20
18.00000076076889
 30
0.000000000000000
 40
3.000000000000000
 41
0.000000000000000
 44
0.6739999771118164
 71
     7
 72
     1
  1
{\H0.94x;{TYPE No.TCA-54NL-NRB50}}
 11
1.000000000000000
 21
0.000000000000000
 31
0.000000000000000
  7
STANDARD
  0
LINE
  5
47
100
AcDbEntity
  8
1
  6
CONTINUOUS
 62
7
100
AcDbLine
 10
567.7857142857106
 20
272.1747723646559
 30
0.000000000000000
 11
567.7857142857106
 21
268.9747725646559
 31
0.000000000000000
  0
LINE
  5
48
100
AcDbEntity
  8
1
  6
CONTINUOUS
 62
7
100
AcDbLine
 10
485.7857142857105
 20
272.1747723646559
 30
0.000000000000000
 11
485.7857142857105
 21
268.9747725646559
 31
0.000000000000000
  0
LINE
  5
49
100
AcDbEntity
  8
4
  6
CENTER
 62
1
100
AcDbLine
 10
526.7857142857105
 20
277.1747723646559
 30
0.000000000000000
 11
526.7857142857105
 21
251.1747763646558
 31
0.000000000000000
  0
ARC
  5
4A
100
AcDbEntity
  8
1
  6
CONTINUOUS
 62
7
100
AcDbCircle
 10
521.1857142857104
 20
229.5747743646558
 30
0.000000000000000
 40
12.89898200000000
100
AcDbArc
 50
54.46232299999874
 51
125.5376700000013
  0
ARC
  5
4B
100
AcDbEntity
  8
1
  6
CONTINUOUS
 62
7
100
AcDbCircle
 10
521.1857142857104
 20
246.3747733646558
 30
0.000000000000000
 40
12.89898200000000
100
AcDbArc
 50
234.4623299999986
 51
307.7434100000031
  0
ARC
  5
4C
100
AcDbEntity
  8
1
  6
CONTINUOUS
 62
7
100
AcDbCircle
 10
564.5176862857105
 20
283.8221426646558
 30
0.000000000000000
 40
80.00000000000000
100
AcDbArc
 50
205.3508300000037
 51
254.8845799999995
  0
LINE
  5
4D
100
AcDbEntity
  8
4
  6
CENTER
 62
1
100
AcDbLine
 10
516.7857142857106
 20
218.1747723646559
 30
0.000000000000000
 11
576.7857142857105
 21
218.1747723646559
 31
0.000000000000000
  0
LINE
  5
4E
100
AcDbEntity
  8
1
  6
CONTINUOUS
 62
7
100
AcDbLine
 10
559.5857092857102
 20
256.1747763646558
 30
0.000000000000000
 11
496.0807142857105
 21
256.1747763646558
 31
0.000000000000000
  0
LINE
  5
4F
100
AcDbEntity
  8
1
  6
CONTINUOUS
 62
7
100
AcDbLine
 10
555.7293942857103
 20
261.5747723646558
 30
0.000000000000000
 11
497.8420342857106
 21
261.5747723646558
 31
0.000000000000000
  0
LINE
  5
50
100
AcDbEntity
  8
1
  6
CONTINUOUS
 62
7
100
AcDbLine
 10
556.9318472857105
 20
265.1747723646559
 30
0.000000000000000
 11
496.6395842857105
 21
265.1747723646559
 31
0.000000000000000
  0
LINE
  5
51
100
AcDbEntity
  8
1
  6
CONTINUOUS
 62
7
100
AcDbLine
 10
567.7857142857106
 20
268.9747725646559
 30
0.000000000000000
 11
485.7857142857105
 21
268.9747725646559
 31
0.000000000000000
  0
ARC
  5
52
100
AcDbEntity
  8
1
  6
CONTINUOUS
 62
7
100
AcDbCircle
 10
518.1857142857104
 20
235.2729703646558
 30
0.000000000000000
 40
0.5000000000000000
100
AcDbArc
 50
179.9999899999989
 51
254.8783400000003
  0
LINE
  5
53
100
AcDbEntity
  8
1
  6
CONTINUOUS
 62
7
100
AcDbLine
 10
519.6857142857107
 20
241.4806543646559
 30
0.000000000000000
 11
519.6857142857107
 21
234.4688933646558
 31
0.000000000000000
  0
LINE
  5
54
100
AcDbEntity
  8
1
  6
CONTINUOUS
 62
7
100
AcDbLine
 10
520.6857142857104
 20
241.5643563646558
 30
0.000000000000000
 11
520.6857142857104
 21
234.3851953646558
 31
0.000000000000000
  0
LINE
  5
55
100
AcDbEntity
  8
1
  6
CONTINUOUS
 62
7
100
AcDbLine
 10
518.6857142857104
 20
236.7747743646558
 30
0.000000000000000
 11
518.6857142857104
 21
234.8878233646559
 31
0.000000000000000
  0
ARC
  5
56
100
AcDbEntity
  8
1
  6
CONTINUOUS
 62
7
100
AcDbCircle
 10
521.1857142857104
 20
246.3747733646558
 30
0.000000000000000
 40
12.00000000000000
100
AcDbArc
 50
254.8783299999991
 51
256.7727699999997
  0
ARC
  5
57
100
AcDbEntity
  8
1
  6
CONTINUOUS
 62
7
100
AcDbCircle
 10
518.4857142857103
 20
234.8878233646559
 30
0.000000000000000
 40
0.2000000000000000
100
AcDbArc
 50
256.7727699999997
 51
360.0000000000000
  0
ARC
  5
58
100
AcDbEntity
  8
1
  6
CONTINUOUS
 62
7
100
AcDbCircle
 10
515.1857142857107
 20
237.9747713646557
 30
0.000000000000000
 40
2.576193299999999
100
AcDbArc
 50
125.5376700000013
 51
166.5320299999976
  0
ARC
  5
59
100
AcDbEntity
  8
1
  6
CONTINUOUS
 62
7
100
AcDbCircle
 10
515.1857142857107
 20
237.9747713646557
 30
0.000000000000000
 40
2.576193299999999
100
AcDbArc
 50
179.9999899999989
 51
234.4623399999969
  0
ARC
  5
5A
100
AcDbEntity
  8
1
  6
CONTINUOUS
 62
7
100
AcDbCircle
 10
518.1857142857104
 20
240.6765763646558
 30
0.000000000000000
 40
0.5000000000000000
100
AcDbArc
 50
105.1216700000008
 51
180.0000100000009
  0
LINE
  5
5B
100
AcDbEntity
  8
1
  6
CONTINUOUS
 62
7
100
AcDbLine
 10
518.6857142857104
 20
241.0617233646559
 30
0.000000000000000
 11
518.6857142857104
 21
239.1747763646558
 31
0.000000000000000
  0
ARC
  5
5C
100
AcDbEntity
  8
1
  6
CONTINUOUS
 62
7
100
AcDbCircle
 10
521.1857142857104
 20
229.5747743646558
 30
0.000000000000000
 40
12.00000000000000
100
AcDbArc
 50
113.4722600000022
 51
115.7714600000032
  0
ARC
  5
5D
100
AcDbEntity
  8
1
  6
CONTINUOUS
 62
7
100
AcDbCircle
 10
521.1857142857104
 20
246.3747733646558
 30
0.000000000000000
 40
12.00000000000000
100
AcDbArc
 50
244.2285399999967
 51
246.5277399999977
  0
ARC
  5
5E
100
AcDbEntity
  8
1
  6
CONTINUOUS
 62
7
100
AcDbCircle
 10
516.1857142857106
 20
236.0186143646559
 30
0.000000000000000
 40
0.5000000000000000
100
AcDbArc
 50
179.9999899999989
 51
244.2285500000032
  0
ARC
  5
5F
100
AcDbEntity
  8
1
  6
CONTINUOUS
 62
7
100
AcDbCircle
 10
516.1857142857106
 20
239.9309333646558
 30
0.000000000000000
 40
0.5000000000000000
100
AcDbArc
 50
115.7714600000032
 51
180.0000100000009
  0
ARC
  5
60
100
AcDbEntity
  8
1
  6
CONTINUOUS
 62
7
100
AcDbCircle
 10
516.4857142857104
 20
235.5511873646559
 30
0.000000000000000
 40
0.2000000000000000
100
AcDbArc
 50
246.5277399999977
 51
360.0000000000000
  0
ARC
  5
61
100
AcDbEntity
  8
1
  6
CONTINUOUS
 62
7
100
AcDbCircle
 10
516.4857142857104
 20
240.3983633646558
 30
0.000000000000000
 40
0.2000000000000000
100
AcDbArc
 50
0.000000000000000
 51
113.4722600000022
  0
LINE
  5
62
100
AcDbEntity
  8
1
  6
CONTINUOUS
 62
7
100
AcDbLine
 10
515.6857142857107
 20
239.9309333646558
 30
0.000000000000000
 11
515.6857142857107
 21
236.0186143646559
 31
0.000000000000000
  0
LINE
  5
63
100
AcDbEntity
  8
1
  6
CONTINUOUS
 62
7
100
AcDbLine
 10
516.6857142857104
 20
240.3983633646558
 30
0.000000000000000
 11
516.6857142857104
 21
235.5511873646559
 31
0.000000000000000
  0
LINE
  5
64
100
AcDbEntity
  8
1
  6
CONTINUOUS
 62
7
100
AcDbLine
 10
514.6857142857107
 20
240.7163103646559
 30
0.000000000000000
 11
514.6857142857107
 21
236.0505313646558
 31
0.000000000000000
  0
LINE
  5
65
100
AcDbEntity
  8
1
  6
CONTINUOUS
 62
7
100
AcDbLine
 10
517.6857142857104
 20
240.6765763646558
 30
0.000000000000000
 11
517.6857142857104
 21
235.2729703646558
 31
0.000000000000000
  0
LINE
  5
66
100
AcDbEntity
  8
1
  6
CONTINUOUS
 62
7
100
AcDbLine
 10
519.6857142857107
 20
237.9747793646557
 30
0.000000000000000
 11
520.6857142857104
 21
237.9747793646557
 31
0.000000000000000
  0
ARC
  5
67
100
AcDbEntity
  8
1
  6
CONTINUOUS
 62
7
100
AcDbCircle
 10
521.1857142857104
 20
229.5747743646558
 30
0.000000000000000
 40
12.00000000000000
100
AcDbArc
 50
103.2272300000002
 51
105.1216700000008
  0
ARC
  5
68
100
AcDbEntity
  8
1
  6
CONTINUOUS
 62
7
100
AcDbCircle
 10
518.4857142857103
 20
241.0617233646559
 30
0.000000000000000
 40
0.2000000000000000
100
AcDbArc
 50
0.000000000000000
 51
103.2272300000002
  0
ARC
  5
69
100
AcDbEntity
  8
1
  6
CONTINUOUS
 62
7
100
AcDbCircle
 10
502.7857142857105
 20
258.1747723646559
 30
0.000000000000000
 40
6.000000000000000
100
AcDbArc
 50
145.4818800000003
 51
180.0000100000009
  0
ARC
  5
6A
100
AcDbEntity
  8
1
  6
CONTINUOUS
 62
7
100
AcDbCircle
 10
494.9258242857103
 20
258.1747763646558
 30
0.000000000000000
 40
2.000000000000000
100
AcDbArc
 50
288.1538400000014
 51
338.4271399999998
  0
LINE
  5
6B
100
AcDbEntity
  8
1
  6
CONTINUOUS
 62
7
100
AcDbLine
 10
492.2214442857105
 20
249.5693533646557
 30
0.000000000000000
 11
492.8559842857103
 21
253.1680283646559
 31
0.000000000000000
  0
ARC
  5
6C
100
AcDbEntity
  8
1
  6
CONTINUOUS
 62
7
100
AcDbCircle
 10
496.7952342857105
 20
252.4734363646558
 30
0.000000000000000
 40
4.000000000000000
100
AcDbArc
 50
108.1537899999997
 51
170.0000099999975
  0
LINE
  5
6D
100
AcDbEntity
  8
1
  6
CONTINUOUS
 62
7
100
AcDbLine
 10
496.7857142857106
 20
258.1747723646559
 30
0.000000000000000
 11
496.7857142857106
 21
257.4394073646559
 31
0.000000000000000
  0
LINE
  5
6E
100
AcDbEntity
  8
1
  6
CONTINUOUS
 62
7
100
AcDbLine
 10
496.7857342857105
 20
265.1747763646558
 30
0.000000000000000
 11
497.8420542857106
 21
261.5747763646558
 31
0.000000000000000
  0
ARC
  5
6F
100
AcDbEntity
  8
1
  6
CONTINUOUS
 62
7
100
AcDbCircle
 10
496.6395842857105
 20
270.1747723646559
 30
0.000000000000000
 40
5.000000000000000
100
AcDbArc
 50
193.8865300000010
 51
269.9999799999980
  0
ARC
  5
70
100
AcDbEntity
  8
1
  6
CONTINUOUS
 62
7
100
AcDbCircle
 10
546.7857142857106
 20
218.1747723646558
 30
0.000000000000000
 40
12.87026705682315
100
AcDbArc
 50
231.8130319546531
 51
423.7125058523051
  0
ARC
  5
71
100
AcDbEntity
  8
1
  6
CONTINUOUS
 62
7
100
AcDbCircle
 10
546.7857142857106
 20
218.1747723646558
 30
0.000000000000000
 40
15.37026705682315
100
AcDbArc
 50
212.3271035293222
 51
435.0808149037769
  0
CIRCLE
  5
72
100
AcDbEntity
  8
1
  6
CONTINUOUS
 62
7
100
AcDbCircle
 10
546.7857142857106
 20
218.1747723646559
 30
0.000000000000000
 40
6.500000000000000
  0
ARC
  5
73
100
AcDbEntity
  8
1
  6
CONTINUOUS
 62
7
100
AcDbCircle
 10
546.7857142857106
 20
218.1747723646559
 30
0.000000000000000
 40
9.300000199999999
100
AcDbArc
 50
143.9389299999991
 51
156.0610800000038
  0
ARC
  5
74
100
AcDbEntity
  8
1
  6
CONTINUOUS
 62
7
100
AcDbCircle
 10
546.7857142857106
 20
218.1747723646559
 30
0.000000000000000
 40
9.300000199999999
100
AcDbArc
 50
23.93892300000164
 51
36.06107700000207
  0
CIRCLE
  5
75
100
AcDbEntity
  8
1
  6
CONTINUOUS
 62
7
100
AcDbCircle
 10
546.7857142857106
 20
218.1747723646559
 30
0.000000000000000
 40
8.500000000000000
  0
ARC
  5
76
100
AcDbEntity
  8
1
  6
CONTINUOUS
 62
7
100
AcDbCircle
 10
546.7857142857106
 20
218.1747723646559
 30
0.000000000000000
 40
25.00000000000000
100
AcDbArc
 50
184.6718846416721
 51
443.1078979999995
  0
ARC
  5
77
100
AcDbEntity
  8
1
  6
CONTINUOUS
 62
7
100
AcDbCircle
 10
546.7857142857106
 20
218.1747723646559
 30
0.000000000000000
 40
10.00000000000000
100
AcDbArc
 50
138.3374599999974
 51
201.6625200000000
  0
ARC
  5
78
100
AcDbEntity
  8
1
  6
CONTINUOUS
 62
7
100
AcDbCircle
 10
546.7857142857106
 20
218.1747723646559
 30
0.000000000000000
 40
12.00000000000000
100
AcDbArc
 50
254.8845700000014
 51
408.1896860000026
  0
LINE
  5
79
100
AcDbEntity
  8
1
  6
CONTINUOUS
 62
7
100
AcDbLine
 10
538.8614892857106
 20
223.4146713646560
 30
0.000000000000000
 11
546.2099462857104
 21
227.6573083646560
 31
0.000000000000000
  0
LINE
  5
7A
100
AcDbEntity
  8
1
  6
CONTINUOUS
 62
7
100
AcDbLine
 10
547.3614822857107
 20
227.6573083646558
 30
0.000000000000000
 11
554.7099462857104
 21
223.4146713646558
 31
0.000000000000000
  0
ARC
  5
7B
100
AcDbEntity
  8
1
  6
CONTINUOUS
 62
7
100
AcDbCircle
 10
546.7857142857106
 20
218.1747723646559
 30
0.000000000000000
 40
9.300000199999999
100
AcDbArc
 50
323.9389199999970
 51
336.0610800000038
  0
LINE
  5
7C
100
AcDbEntity
  8
1
  6
CONTINUOUS
 62
7
100
AcDbLine
 10
547.3614822857107
 20
208.6922433646558
 30
0.000000000000000
 11
554.7099462857103
 21
212.9348813646558
 31
0.000000000000000
  0
LINE
  5
7D
100
AcDbEntity
  8
1
  6
CONTINUOUS
 62
7
100
AcDbLine
 10
537.4919752857106
 20
214.4833813646558
 30
0.000000000000000
 11
536.5051512857108
 21
208.8868463646558
 31
0.000000000000000
  0
LINE
  5
7E
100
AcDbEntity
  8
1
  6
CONTINUOUS
 62
7
100
AcDbLine
 10
538.8614822857105
 20
212.9348733646559
 30
0.000000000000000
 11
546.2099462857102
 21
208.6922363646558
 31
0.000000000000000
  0
ARC
  5
7F
100
AcDbEntity
  8
1
  6
CONTINUOUS
 62
7
100
AcDbCircle
 10
546.7857142857106
 20
218.1747723646559
 30
0.000000000000000
 40
9.300000199999999
100
AcDbArc
 50
263.9389200000020
 51
276.0610699999974
  0
ARC
  5
80
100
AcDbEntity
  8
1
  6
CONTINUOUS
 62
7
100
AcDbCircle
 10
546.7857142857106
 20
218.1747723646559
 30
0.000000000000000
 40
9.500000000000000
100
AcDbArc
 50
266.5253499999990
 51
273.4746500000009
  0
CIRCLE
  5
81
100
AcDbEntity
  8
1
  6
CONTINUOUS
 62
7
100
AcDbCircle
 10
546.7857142857106
 20
218.1747723646559
 30
0.000000000000000
 40
5.000000000000000
  0
ARC
  5
82
100
AcDbEntity
  8
1
  6
CONTINUOUS
 62
7
100
AcDbCircle
 10
546.7857142857106
 20
218.1747723646559
 30
0.000000000000000
 40
6.000000000000000
100
AcDbArc
 50
138.5903700000011
 51
221.4096299999988
  0
LINE
  5
83
100
AcDbEntity
  8
1
  6
CONTINUOUS
 62
7
100
AcDbLine
 10
538.2857142857106
 20
222.4174103646558
 30
0.000000000000000
 11
538.2857142857106
 21
213.9321343646559
 31
0.000000000000000
  0
ARC
  5
84
100
AcDbEntity
  8
1
  6
CONTINUOUS
 62
7
100
AcDbCircle
 10
546.7857142857106
 20
218.1747723646559
 30
0.000000000000000
 40
9.300000199999999
100
AcDbArc
 50
203.9389199999961
 51
216.0610700000008
  0
ARC
  5
85
100
AcDbEntity
  8
1
  6
CONTINUOUS
 62
7
100
AcDbCircle
 10
546.7857142857106
 20
218.1747723646559
 30
0.000000000000000
 40
9.500000000000000
100
AcDbArc
 50
206.5253499999986
 51
213.4746399999975
  0
ARC
  5
86
100
AcDbEntity
  8
1
  6
CONTINUOUS
 62
7
100
AcDbCircle
 10
542.5107122857107
 20
214.4045773646559
 30
0.000000000000000
 40
0.3000000100000000
100
AcDbArc
 50
221.4096200000011
 51
285.3642399999971
  0
LINE
  5
87
100
AcDbEntity
  8
1
  6
CONTINUOUS
 62
7
100
AcDbLine
 10
543.5357142857107
 20
214.3751053646559
 30
0.000000000000000
 11
542.5901962857104
 21
214.1153013646559
 31
0.000000000000000
  0
ARC
  5
88
100
AcDbEntity
  8
1
  6
CONTINUOUS
 62
7
100
AcDbCircle
 10
546.7857142857106
 20
218.1747723646559
 30
0.000000000000000
 40
9.500000000000000
100
AcDbArc
 50
146.5253600000024
 51
153.4746500000013
  0
ARC
  5
89
100
AcDbEntity
  8
1
  6
CONTINUOUS
 62
7
100
AcDbCircle
 10
542.5107122857107
 20
221.9449673646557
 30
0.000000000000000
 40
0.3000000100000000
100
AcDbArc
 50
74.63575799999776
 51
138.5903799999987
  0
LINE
  5
8A
100
AcDbEntity
  8
1
  6
CONTINUOUS
 62
7
100
AcDbLine
 10
543.5357222857103
 20
221.9744473646558
 30
0.000000000000000
 11
542.5902032857107
 21
222.2342513646560
 31
0.000000000000000
  0
ARC
  5
8B
100
AcDbEntity
  8
1
  6
CONTINUOUS
 62
7
100
AcDbCircle
 10
546.7857142857106
 20
218.1747723646559
 30
0.000000000000000
 40
6.000000000000000
100
AcDbArc
 50
318.5903799999987
 51
401.4096240000002
  0
LINE
  5
8C
100
AcDbEntity
  8
1
  6
CONTINUOUS
 62
7
100
AcDbLine
 10
550.0357142857102
 20
214.3751013646557
 30
0.000000000000000
 11
550.9812252857104
 21
214.1152973646559
 31
0.000000000000000
  0
ARC
  5
8D
100
AcDbEntity
  8
1
  6
CONTINUOUS
 62
7
100
AcDbCircle
 10
551.0607162857103
 20
214.4045773646559
 30
0.000000000000000
 40
0.3000000100000000
100
AcDbArc
 50
254.6357600000028
 51
318.5903799999987
  0
LINE
  5
8E
100
AcDbEntity
  8
1
  6
CONTINUOUS
 62
7
100
AcDbLine
 10
550.0357142857105
 20
221.9744433646559
 30
0.000000000000000
 11
550.9812322857106
 21
222.2342473646559
 31
0.000000000000000
  0
ARC
  5
8F
100
AcDbEntity
  8
1
  6
CONTINUOUS
 62
7
100
AcDbCircle
 10
551.0607162857103
 20
221.9449673646557
 30
0.000000000000000
 40
0.3000000100000000
100
AcDbArc
 50
41.40961700000161
 51
105.3642399999971
  0
LINE
  5
90
100
AcDbEntity
  8
1
  6
CONTINUOUS
 62
7
100
AcDbLine
 10
555.2857142857106
 20
222.4174103646558
 30
0.000000000000000
 11
555.2857142857106
 21
213.9321343646559
 31
0.000000000000000
  0
ARC
  5
91
100
AcDbEntity
  8
1
  6
CONTINUOUS
 62
7
100
AcDbCircle
 10
546.7857142857106
 20
218.1747723646559
 30
0.000000000000000
 40
9.500000000000000
100
AcDbArc
 50
326.5253499999997
 51
333.4746500000013
  0
ARC
  5
92
100
AcDbEntity
  8
1
  6
CONTINUOUS
 62
7
100
AcDbCircle
 10
546.7857142857106
 20
218.1747723646559
 30
0.000000000000000
 40
9.500000000000000
100
AcDbArc
 50
26.52534999999866
 51
33.47465099999819
  0
ARC
  5
93
100
AcDbEntity
  8
1
  6
CONTINUOUS
 62
7
100
AcDbCircle
 10
554.7857142857106
 20
242.4747753646560
 30
0.000000000000000
 40
5.000000000000000
100
AcDbArc
 50
89.99999600000093
 51
180.0000100000009
  0
ARC
  5
94
100
AcDbEntity
  8
1
  6
CONTINUOUS
 62
7
100
AcDbCircle
 10
564.7857142857104
 20
238.2993833646557
 30
0.000000000000000
 40
15.00000000000000
100
AcDbArc
 50
179.9999899999989
 51
228.1896800000023
  0
LINE
  5
95
100
AcDbEntity
  8
1
  6
CONTINUOUS
 62
7
100
AcDbLine
 10
543.8348092857103
 20
250.4553683646560
 30
0.000000000000000
 11
539.3149882857105
 21
224.8221873646560
 31
0.000000000000000
  0
LINE
  5
96
100
AcDbEntity
  8
1
  6
CONTINUOUS
 62
7
100
AcDbLine
 10
521.6857142857104
 20
241.5643563646558
 30
0.000000000000000
 11
521.6857142857104
 21
234.3851953646558
 31
0.000000000000000
  0
LINE
  5
97
100
AcDbEntity
  8
1
  6
CONTINUOUS
 62
7
100
AcDbLine
 10
522.6857142857104
 20
241.2516723646558
 30
0.000000000000000
 11
522.6857142857104
 21
234.6978743646559
 31
0.000000000000000
  0
LINE
  5
98
100
AcDbEntity
  8
1
  6
CONTINUOUS
 62
7
100
AcDbLine
 10
523.6857142857107
 20
237.9747793646557
 30
0.000000000000000
 11
523.6857142857107
 21
235.0500203646560
 31
0.000000000000000
  0
LINE
  5
99
100
AcDbEntity
  8
1
  6
CONTINUOUS
 62
7
100
AcDbLine
 10
524.6857142857106
 20
241.0530183646558
 30
0.000000000000000
 11
524.6857142857106
 21
234.8965323646558
 31
0.000000000000000
  0
ARC
  5
9A
100
AcDbEntity
  8
1
  6
CONTINUOUS
 62
7
100
AcDbCircle
 10
521.1857142857104
 20
246.3747733646558
 30
0.000000000000000
 40
12.00000000000000
100
AcDbArc
 50
278.2832999999984
 51
280.0154100000019
  0
ARC
  5
9B
100
AcDbEntity
  8
1
  6
CONTINUOUS
 62
7
100
AcDbCircle
 10
523.1857142857107
 20
235.0500203646560
 30
0.000000000000000
 40
0.5000000000000000
100
AcDbArc
 50
280.0154100000019
 51
360.0000000000000
  0
ARC
  5
9C
100
AcDbEntity
  8
1
  6
CONTINUOUS
 62
7
100
AcDbCircle
 10
522.8857242857107
 20
234.6978743646559
 30
0.000000000000000
 40
0.2000000000000000
100
AcDbArc
 50
179.9999899999989
 51
278.2832999999984
  0
ARC
  5
9D
100
AcDbEntity
  8
1
  6
CONTINUOUS
 62
7
100
AcDbCircle
 10
527.1857162857107
 20
237.9747713646557
 30
0.000000000000000
 40
2.576193299999999
100
AcDbArc
 50
332.2377599999970
 51
414.4623229999987
  0
LINE
  5
9E
100
AcDbEntity
  8
1
  6
CONTINUOUS
 62
7
100
AcDbLine
 10
527.6963052857104
 20
237.9747793646557
 30
0.000000000000000
 11
529.7619182857106
 21
237.9747793646557
 31
0.000000000000000
  0
LINE
  5
9F
100
AcDbEntity
  8
1
  6
CONTINUOUS
 62
7
100
AcDbLine
 10
523.6857142857107
 20
240.8995303646558
 30
0.000000000000000
 11
523.6857142857107
 21
239.1747763646558
 31
0.000000000000000
  0
LINE
  5
A0
100
AcDbEntity
  8
1
  6
CONTINUOUS
 62
7
100
AcDbLine
 10
523.1857142857107
 20
237.9747793646557
 30
0.000000000000000
 11
523.6857142857107
 21
237.9747793646557
 31
0.000000000000000
  0
ARC
  5
A1
100
AcDbEntity
  8
1
  6
CONTINUOUS
 62
7
100
AcDbCircle
 10
526.1857142857104
 20
238.1747763646558
 30
0.000000000000000
 40
0.5000003600000003
100
AcDbArc
 50
179.9999899999989
 51
360.0000100179139
  0
LINE
  5
A2
100
AcDbEntity
  8
1
  6
CONTINUOUS
 62
7
100
AcDbLine
 10
525.6857142857104
 20
240.6990753646558
 30
0.000000000000000
 11
525.6857142857104
 21
238.1747763646558
 31
0.000000000000000
  0
LINE
  5
A3
100
AcDbEntity
  8
1
  6
CONTINUOUS
 62
7
100
AcDbLine
 10
526.6857142857104
 20
240.2401373646558
 30
0.000000000000000
 11
526.6857142857104
 21
238.1747763646558
 31
0.000000000000000
  0
LINE
  5
A4
100
AcDbEntity
  8
1
  6
CONTINUOUS
 62
7
100
AcDbLine
 10
526.1857142857104
 20
237.6747763646558
 30
0.000000000000000
 11
526.1857142857104
 21
235.4660583646558
 31
0.000000000000000
  0
LINE
  5
A5
100
AcDbEntity
  8
1
  6
CONTINUOUS
 62
7
100
AcDbLine
 10
527.1582192857105
 20
235.9666463646558
 30
0.000000000000000
 11
528.3242652857103
 21
240.3183763646558
 31
0.000000000000000
  0
ARC
  5
A6
100
AcDbEntity
  8
1
  6
CONTINUOUS
 62
7
100
AcDbCircle
 10
521.1857142857104
 20
229.5747743646558
 30
0.000000000000000
 40
12.00000000000000
100
AcDbArc
 50
79.98458900000014
 51
81.71669699999877
  0
ARC
  5
A7
100
AcDbEntity
  8
1
  6
CONTINUOUS
 62
7
100
AcDbCircle
 10
523.1857142857107
 20
240.8995303646559
 30
0.000000000000000
 40
0.5000000000000000
100
AcDbArc
 50
0.000000000000000
 51
79.98458900000014
  0
ARC
  5
A8
100
AcDbEntity
  8
1
  6
CONTINUOUS
 62
7
100
AcDbCircle
 10
522.8857242857107
 20
241.2516723646558
 30
0.000000000000000
 40
0.2000000000000000
100
AcDbArc
 50
81.71669699999877
 51
180.0000100000009
  0
ARC
  5
A9
100
AcDbEntity
  8
1
  6
CONTINUOUS
 62
7
100
AcDbCircle
 10
546.7857142857106
 20
218.1747723646559
 30
0.000000000000000
 40
9.300000199999999
100
AcDbArc
 50
83.93892700000114
 51
96.06107799999913
  0
ARC
  5
AA
100
AcDbEntity
  8
1
  6
CONTINUOUS
 62
7
100
AcDbCircle
 10
546.7857142857106
 20
218.1747723646559
 30
0.000000000000000
 40
9.500000000000000
100
AcDbArc
 50
86.52534900000292
 51
93.47465000000095
  0
LINE
  5
AB
100
AcDbEntity
  8
1
  6
CONTINUOUS
 62
7
100
AcDbLine
 10
549.7857142857106
 20
242.4747753646560
 30
0.000000000000000
 11
549.7857142857106
 21
238.2993833646557
 31
0.000000000000000
  0
ARC
  5
AC
100
AcDbEntity
  8
1
  6
CONTINUOUS
 62
7
100
AcDbCircle
 10
550.7857142857106
 20
258.1747723646559
 30
0.000000000000000
 40
6.000000000000000
100
AcDbArc
 50
3.597217807490000e-05
 51
34.51809200000175
  0
ARC
  5
AD
100
AcDbEntity
  8
1
  6
CONTINUOUS
 62
7
100
AcDbCircle
 10
559.5857092857102
 20
252.1747763646558
 30
0.000000000000000
 40
4.000000000000000
100
AcDbArc
 50
3.597217807490000e-05
 51
90.00001600000296
  0
LINE
  5
AE
100
AcDbEntity
  8
1
  6
CONTINUOUS
 62
7
100
AcDbLine
 10
563.5857132857104
 20
247.4747773646559
 30
0.000000000000000
 11
554.7857142857106
 21
247.4747773646559
 31
0.000000000000000
  0
ARC
  5
AF
100
AcDbEntity
  8
1
  6
CONTINUOUS
 62
7
100
AcDbCircle
 10
558.1797112857107
 20
257.6747763646558
 30
0.000000000000000
 40
1.500000000000000
100
AcDbArc
 50
201.6692599999987
 51
269.9999799999980
  0
LINE
  5
B0
100
AcDbEntity
  8
1
  6
CONTINUOUS
 62
7
100
AcDbLine
 10
556.7857142857104
 20
258.1747723646559
 30
0.000000000000000
 11
556.7857142857104
 21
257.1209053646558
 31
0.000000000000000
  0
LINE
  5
B1
100
AcDbEntity
  8
1
  6
CONTINUOUS
 62
7
100
AcDbLine
 10
563.5857132857104
 20
252.1747763646558
 30
0.000000000000000
 11
563.5857132857104
 21
247.4747773646559
 31
0.000000000000000
  0
LINE
  5
B2
100
AcDbEntity
  8
1
  6
CONTINUOUS
 62
7
100
AcDbLine
 10
556.7857142857104
 20
265.1747733646557
 30
0.000000000000000
 11
555.7293942857103
 21
261.5747733646557
 31
0.000000000000000
  0
ARC
  5
B3
100
AcDbEntity
  8
1
  6
CONTINUOUS
 62
7
100
AcDbCircle
 10
556.9318472857105
 20
270.1747723646559
 30
0.000000000000000
 40
5.000000000000000
100
AcDbArc
 50
269.9999799999980
 51
346.1134800000030
  0
CIRCLE
  5
B4
100
AcDbEntity
  8
1
  6
CONTINUOUS
 62
7
100
AcDbCircle
 10
226.7857142857105
 20
363.1747723646540
 30
0.000000000000000
 40
31.50000000000000
  0
CIRCLE
  5
B5
100
AcDbEntity
  8
1
  6
CONTINUOUS
 62
7
100
AcDbCircle
 10
226.7857142857105
 20
363.1747723646540
 30
0.000000000000000
 40
29.00000000000000
  0
CIRCLE
  5
B6
100
AcDbEntity
  8
1
  6
CONTINUOUS
 62
7
100
AcDbCircle
 10
226.7857142857105
 20
363.1747723646540
 30
0.000000000000000
 40
15.50000000000000
  0
CIRCLE
  5
B7
100
AcDbEntity
  8
1
  6
CONTINUOUS
 62
7
100
AcDbCircle
 10
226.7857142857105
 20
363.1747723646540
 30
0.000000000000000
 40
12.00000000000000
  0
LINE
  5
B8
100
AcDbEntity
  8
1
  6
CONTINUOUS
 62
7
100
AcDbLine
 10
567.7857142857106
 20
272.1747723646559
 30
0.000000000000000
 11
485.7857142857105
 21
272.1747723646559
 31
0.000000000000000
  0
LINE
  5
B9
100
AcDbEntity
  8
1
  6
CONTINUOUS
 62
7
100
AcDbLine
 10
195.2857142857105
 20
322.1747723646541
 30
0.000000000000000
 11
258.2857142857104
 21
322.1747723646541
 31
0.000000000000000
  0
LINE
  5
BA
100
AcDbEntity
  8
1
  6
CONTINUOUS
 62
7
100
AcDbLine
 10
195.2857142857105
 20
404.1747723646540
 30
0.000000000000000
 11
258.2857142857104
 21
404.1747723646540
 31
0.000000000000000
  0
LINE
  5
BB
100
AcDbEntity
  8
4
  6
CENTER
 62
1
100
AcDbLine
 10
176.7857142857107
 20
363.1747723646538
 30
0.000000000000000
 11
276.7857142857105
 21
363.1747723646540
 31
0.000000000000000
  0
LINE
  5
BC
100
AcDbEntity
  8
1
  6
CONTINUOUS
 62
7
100
AcDbLine
 10
267.7857142857106
 20
331.6747723646541
 30
0.000000000000000
 11
267.7857142857106
 21
394.6747723646540
 31
0.000000000000000
  0
ARC
  5
BD
100
AcDbEntity
  8
1
  6
CONTINUOUS
 62
7
100
AcDbCircle
 10
258.2857142857104
 20
394.6747723646540
 30
0.000000000000000
 40
9.500000000000000
100
AcDbArc
 50
359.9999899999990
 51
449.9999699999969
  0
ARC
  5
BE
100
AcDbEntity
  8
1
  6
CONTINUOUS
 62
7
100
AcDbCircle
 10
258.2857142857104
 20
331.6747723646541
 30
0.000000000000000
 40
9.500000000000000
100
AcDbArc
 50
270.0000160000029
 51
360.0000100000010
  0
ARC
  5
BF
100
AcDbEntity
  8
1
  6
CONTINUOUS
 62
7
100
AcDbCircle
 10
186.5583052857106
 20
348.1747723646541
 30
0.000000000000000
 40
4.000000000000000
100
AcDbArc
 50
185.8969599999999
 51
258.8634594255587
  0
LINE
  5
C0
100
AcDbEntity
  8
1
  6
CONTINUOUS
 62
7
100
AcDbLine
 10
185.7857142857105
 20
342.7982518184011
 30
0.000000000000000
 11
185.7857142857105
 21
390.3773414497352
 31
0.000000000000000
  0
LINE
  5
C1
100
AcDbEntity
  8
1
  6
CONTINUOUS
 62
7
100
AcDbLine
 10
185.7857142857105
 20
331.6747723646541
 30
0.000000000000000
 11
185.7857142857105
 21
394.6747723646540
 31
0.000000000000000
  0
LINE
  5
C2
100
AcDbEntity
  8
4
  6
CENTER
 62
1
100
AcDbLine
 10
226.7857142857105
 20
317.1747723646541
 30
0.000000000000000
 11
226.7857142857105
 21
409.1747723646538
 31
0.000000000000000
  0
ARC
  5
C3
100
AcDbEntity
  8
1
  6
CONTINUOUS
 62
7
100
AcDbCircle
 10
195.2857142857105
 20
394.6747723646540
 30
0.000000000000000
 40
9.500000000000000
100
AcDbArc
 50
89.99996999999694
 51
180.0000223117997
  0
ARC
  5
C4
100
AcDbEntity
  8
1
  6
CONTINUOUS
 62
7
100
AcDbCircle
 10
331.7857142857107
 20
363.1747723646538
 30
0.000000000000000
 40
150.0000000000000
100
AcDbArc
 50
174.1030416645779
 51
185.8969580687569
  0
ARC
  5
C5
100
AcDbEntity
  8
1
  6
CONTINUOUS
 62
7
100
AcDbCircle
 10
186.5583052857106
 20
378.1747723646541
 30
0.000000000000000
 40
4.000000000000000
100
AcDbArc
 50
101.1365405744412
 51
174.1030299999995
  0
ARC
  5
C6
100
AcDbEntity
  8
1
  6
CONTINUOUS
 62
7
100
AcDbCircle
 10
195.2857142857105
 20
331.6747723646541
 30
0.000000000000000
 40
9.500000000000000
100
AcDbArc
 50
180.0000359721780
 51
270.0000160000029
  0
LINE
  5
C7
100
AcDbEntity
  8
4
  6
CENTER
 62
1
100
AcDbLine
 10
546.7857142857106
 20
188.1747723646559
 30
0.000000000000000
 11
546.7857142857106
 21
248.1747723646559
 31
0.000000000000000
  0
LINE
  5
C8
100
AcDbEntity
  8
4
  6
CENTER
 62
1
100
AcDbLine
 10
226.7857142857105
 20
277.1747723646559
 30
0.000000000000000
 11
226.7857142857105
 21
251.1747763646558
 31
0.000000000000000
  0
ARC
  5
C9
100
AcDbEntity
  8
1
  6
CONTINUOUS
 62
7
100
AcDbCircle
 10
256.9318442857106
 20
270.1747723646559
 30
0.000000000000000
 40
5.000000000000000
100
AcDbArc
 50
270.0000200000019
 51
346.1134699999989
  0
ARC
  5
CA
100
AcDbEntity
  8
1
  6
CONTINUOUS
 62
7
100
AcDbCircle
 10
196.6395812857106
 20
270.1747723646559
 30
0.000000000000000
 40
5.000000000000000
100
AcDbArc
 50
193.8865199999970
 51
270.0000200000019
  0
LINE
  5
CB
100
AcDbEntity
  8
4
  6
CENTER
 62
1
100
AcDbLine
 10
236.7857142857106
 20
218.1747723646559
 30
0.000000000000000
 11
176.7857142857105
 21
218.1747723646559
 31
0.000000000000000
  0
LINE
  5
CC
100
AcDbEntity
  8
1
  6
CONTINUOUS
 62
7
100
AcDbLine
 10
196.6395812857106
 20
265.1747723646559
 30
0.000000000000000
 11
256.9318442857106
 21
265.1747723646559
 31
0.000000000000000
  0
LINE
  5
CD
100
AcDbEntity
  8
1
  6
CONTINUOUS
 62
7
100
AcDbLine
 10
197.8420342857106
 20
261.5747723646558
 30
0.000000000000000
 11
255.7293942857104
 21
261.5747723646558
 31
0.000000000000000
  0
LINE
  5
CE
100
AcDbEntity
  8
1
  6
CONTINUOUS
 62
7
100
AcDbLine
 10
193.9857192857106
 20
256.1747763646558
 30
0.000000000000000
 11
257.4907142857105
 21
256.1747763646558
 31
0.000000000000000
  0
ARC
  5
CF
100
AcDbEntity
  8
1
  6
CONTINUOUS
 62
7
100
AcDbCircle
 10
189.0537422857105
 20
283.8221426646558
 30
0.000000000000000
 40
80.00000000000000
100
AcDbArc
 50
285.1154200000004
 51
334.6491699999963
  0
ARC
  5
D0
100
AcDbEntity
  8
1
  6
CONTINUOUS
 62
7
100
AcDbCircle
 10
256.7761942857105
 20
252.4734363646558
 30
0.000000000000000
 40
4.000000000000000
100
AcDbArc
 50
9.999990000002450
 51
71.84621000000024
  0
LINE
  5
D1
100
AcDbEntity
  8
1
  6
CONTINUOUS
 62
7
100
AcDbLine
 10
261.3499842857104
 20
249.5693533646558
 30
0.000000000000000
 11
260.7154442857105
 21
253.1680283646559
 31
0.000000000000000
  0
ARC
  5
D2
100
AcDbEntity
  8
1
  6
CONTINUOUS
 62
7
100
AcDbCircle
 10
258.6456042857107
 20
258.1747763646558
 30
0.000000000000000
 40
2.000000000000000
100
AcDbArc
 50
201.5728600000000
 51
251.8461599999985
  0
ARC
  5
D3
100
AcDbEntity
  8
1
  6
CONTINUOUS
 62
7
100
AcDbCircle
 10
250.7857142857105
 20
258.1747723646559
 30
0.000000000000000
 40
6.000000000000000
100
AcDbArc
 50
359.9999899999990
 51
394.5181199999996
  0
LINE
  5
D4
100
AcDbEntity
  8
1
  6
CONTINUOUS
 62
7
100
AcDbLine
 10
256.7857142857105
 20
258.1747723646559
 30
0.000000000000000
 11
256.7857142857105
 21
257.4394073646559
 31
0.000000000000000
  0
LINE
  5
D5
100
AcDbEntity
  8
1
  6
CONTINUOUS
 62
7
100
AcDbLine
 10
256.7856942857105
 20
265.1747763646558
 30
0.000000000000000
 11
255.7293742857104
 21
261.5747763646557
 31
0.000000000000000
  0
LINE
  5
D6
100
AcDbEntity
  8
4
  6
CENTER
 62
1
100
AcDbLine
 10
206.7857142857105
 20
188.1747723646559
 30
0.000000000000000
 11
206.7857142857105
 21
248.1747723646559
 31
0.000000000000000
  0
ARC
  5
D7
100
AcDbEntity
  8
1
  6
CONTINUOUS
 62
7
100
AcDbCircle
 10
206.7857142857105
 20
218.1747723646559
 30
0.000000000000000
 40
25.00000000000000
100
AcDbArc
 50
96.89210200000053
 51
355.3281153583277
  0
ARC
  5
D8
100
AcDbEntity
  8
1
  6
CONTINUOUS
 62
7
100
AcDbCircle
 10
206.7857142857105
 20
218.1747723646559
 30
0.000000000000000
 40
12.00000000000000
100
AcDbArc
 50
131.8103139999974
 51
285.1154299999984
  0
ARC
  5
D9
100
AcDbEntity
  8
1
  6
CONTINUOUS
 62
7
100
AcDbCircle
 10
206.7857142857105
 20
218.1747723646558
 30
0.000000000000000
 40
15.37026705682315
100
AcDbArc
 50
104.9191850962231
 51
327.6728964706777
  0
ARC
  5
DA
100
AcDbEntity
  8
1
  6
CONTINUOUS
 62
7
100
AcDbCircle
 10
206.7857142857105
 20
218.1747723646558
 30
0.000000000000000
 40
12.87026705682315
100
AcDbArc
 50
116.2874941476948
 51
308.1869680453468
  0
ARC
  5
DB
100
AcDbEntity
  8
1
  6
CONTINUOUS
 62
7
100
AcDbCircle
 10
206.7857142857105
 20
218.1747723646559
 30
0.000000000000000
 40
10.00000000000000
100
AcDbArc
 50
338.3374799999999
 51
401.6625400000026
  0
LINE
  5
DC
100
AcDbEntity
  8
1
  6
CONTINUOUS
 62
7
100
AcDbLine
 10
216.0794532857105
 20
214.4833813646558
 30
0.000000000000000
 11
217.0662772857103
 21
208.8868463646558
 31
0.000000000000000
  0
ARC
  5
DD
100
AcDbEntity
  8
1
  6
CONTINUOUS
 62
7
100
AcDbCircle
 10
188.7857142857105
 20
238.2993833646557
 30
0.000000000000000
 40
15.00000000000000
100
AcDbArc
 50
311.8103199999977
 51
360.0000100000010
  0
ARC
  5
DE
100
AcDbEntity
  8
1
  6
CONTINUOUS
 62
7
100
AcDbCircle
 10
198.7857142857105
 20
242.4747753646560
 30
0.000000000000000
 40
5.000000000000000
100
AcDbArc
 50
359.9999899999990
 51
450.0000039999991
  0
LINE
  5
DF
100
AcDbEntity
  8
1
  6
CONTINUOUS
 62
7
100
AcDbLine
 10
209.7366192857107
 20
250.4553683646560
 30
0.000000000000000
 11
214.2564402857106
 21
224.8221873646559
 31
0.000000000000000
  0
LINE
  5
E0
100
AcDbEntity
  8
1
  6
CONTINUOUS
 62
7
100
AcDbLine
 10
203.7857142857105
 20
242.4747753646560
 30
0.000000000000000
 11
203.7857142857105
 21
238.2993833646557
 31
0.000000000000000
  0
ARC
  5
E1
100
AcDbEntity
  8
1
  6
CONTINUOUS
 62
7
100
AcDbCircle
 10
193.9857192857106
 20
252.1747763646558
 30
0.000000000000000
 40
4.000000000000000
100
AcDbArc
 50
89.99998399999708
 51
179.9999640278219
  0
LINE
  5
E2
100
AcDbEntity
  8
1
  6
CONTINUOUS
 62
7
100
AcDbLine
 10
189.9857152857107
 20
247.4747773646559
 30
0.000000000000000
 11
198.7857142857105
 21
247.4747773646559
 31
0.000000000000000
  0
LINE
  5
E3
100
AcDbEntity
  8
1
  6
CONTINUOUS
 62
7
100
AcDbLine
 10
189.9857152857107
 20
252.1747763646558
 30
0.000000000000000
 11
189.9857152857107
 21
247.4747773646559
 31
0.000000000000000
  0
LINE
  5
E4
100
AcDbEntity
  8
1
  6
CONTINUOUS
 62
7
100
AcDbLine
 10
196.7857142857105
 20
265.1747733646558
 30
0.000000000000000
 11
197.8420342857106
 21
261.5747733646558
 31
0.000000000000000
  0
ARC
  5
E5
100
AcDbEntity
  8
1
  6
CONTINUOUS
 62
7
100
AcDbCircle
 10
202.7857142857105
 20
258.1747723646559
 30
0.000000000000000
 40
6.000000000000000
100
AcDbArc
 50
145.4819079999982
 51
179.9999640278219
  0
LINE
  5
E6
100
AcDbEntity
  8
1
  6
CONTINUOUS
 62
7
100
AcDbLine
 10
196.7857142857105
 20
258.1747723646559
 30
0.000000000000000
 11
196.7857142857105
 21
257.1209053646558
 31
0.000000000000000
  0
ARC
  5
E7
100
AcDbEntity
  8
1
  6
CONTINUOUS
 62
7
100
AcDbCircle
 10
195.3917172857104
 20
257.6747763646558
 30
0.000000000000000
 40
1.500000000000000
100
AcDbArc
 50
270.0000200000019
 51
338.3307400000012
  0
LINE
  5
E8
100
AcDbEntity
  8
1
  6
CONTINUOUS
 62
7
100
AcDbLine
 10
185.7857142857105
 20
272.1747723646559
 30
0.000000000000000
 11
267.7857142857106
 21
272.1747723646559
 31
0.000000000000000
  0
LINE
  5
E9
100
AcDbEntity
  8
1
  6
CONTINUOUS
 62
7
100
AcDbLine
 10
185.7857142857105
 20
268.9747725646559
 30
0.000000000000000
 11
267.7857142857106
 21
268.9747725646559
 31
0.000000000000000
  0
LINE
  5
EA
100
AcDbEntity
  8
1
  6
CONTINUOUS
 62
7
100
AcDbLine
 10
267.7857142857106
 20
272.1747723646559
 30
0.000000000000000
 11
267.7857142857106
 21
268.9747725646559
 31
0.000000000000000
  0
LINE
  5
EB
100
AcDbEntity
  8
1
  6
CONTINUOUS
 62
7
100
AcDbLine
 10
185.7857142857105
 20
272.1747723646559
 30
0.000000000000000
 11
185.7857142857105
 21
268.9747725646559
 31
0.000000000000000
  0
LINE
  5
EC
100
AcDbEntity
  8
4
  6
CENTER
 62
1
100
AcDbLine
 10
76.78571428571058
 20
277.1747723646559
 30
0.000000000000000
 11
76.78571428571058
 21
188.1747723646559
 31
0.000000000000000
  0
ARC
  5
ED
100
AcDbEntity
  8
1
  6
CONTINUOUS
 62
7
100
AcDbCircle
 10
46.63958088571052
 20
270.1747723646559
 30
0.000000000000000
 40
5.000000000000000
100
AcDbArc
 50
193.8865199999970
 51
270.0000200000019
  0
ARC
  5
EE
100
AcDbEntity
  8
1
  6
CONTINUOUS
 62
7
100
AcDbCircle
 10
106.9318472857107
 20
270.1747723646559
 30
0.000000000000000
 40
5.000000000000000
100
AcDbArc
 50
270.0000200000019
 51
346.1134599999999
  0
LINE
  5
EF
100
AcDbEntity
  8
4
  6
CENTER
 62
1
100
AcDbLine
 10
39.30094561552891
 20
218.1747723646559
 30
0.000000000000000
 11
114.2704829558922
 21
218.1747723646557
 31
0.000000000000000
  0
ARC
  5
F0
100
AcDbEntity
  8
1
  6
CONTINUOUS
 62
7
100
AcDbCircle
 10
79.28571428571058
 20
227.6747723646558
 30
0.000000000000000
 40
20.00000000000000
100
AcDbArc
 50
46.58910861490588
 51
89.99998200000080
  0
ARC
  5
F1
100
AcDbEntity
  8
1
  6
CONTINUOUS
 62
7
100
AcDbCircle
 10
76.78571428571058
 20
93.17477236465595
 30
0.000000000000000
 40
150.0000000000000
100
AcDbArc
 50
84.10304201124460
 51
95.89695830875723
  0
LINE
  5
F2
100
AcDbEntity
  8
1
  6
CONTINUOUS
 62
7
100
AcDbLine
 10
55.28571428571058
 20
251.6747723646559
 30
0.000000000000000
 11
98.28571428571060
 21
251.6747723646559
 31
0.000000000000000
  0
LINE
  5
F3
100
AcDbEntity
  8
1
  6
CONTINUOUS
 62
7
100
AcDbLine
 10
55.28571428571058
 20
247.6747723646559
 30
0.000000000000000
 11
98.28571428571060
 21
247.6747723646559
 31
0.000000000000000
  0
LINE
  5
F4
100
AcDbEntity
  8
1
  6
CONTINUOUS
 62
7
100
AcDbLine
 10
47.84203448571043
 20
261.5747723646558
 30
0.000000000000000
 11
105.7293942857104
 21
261.5747723646558
 31
0.000000000000000
  0
LINE
  5
F5
100
AcDbEntity
  8
1
  6
CONTINUOUS
 62
7
100
AcDbLine
 10
46.63958088571052
 20
265.1747723646559
 30
0.000000000000000
 11
106.9318472857107
 21
265.1747723646559
 31
0.000000000000000
  0
ARC
  5
F6
100
AcDbEntity
  8
1
  6
CONTINUOUS
 62
7
100
AcDbCircle
 10
76.78571428571058
 20
343.1747723646559
 30
0.000000000000000
 40
150.0000000000000
100
AcDbArc
 50
264.1030416645779
 51
275.8969580687570
  0
LINE
  5
F7
100
AcDbEntity
  8
1
  6
CONTINUOUS
 62
7
100
AcDbLine
 10
46.18789778571044
 20
256.1747723646559
 30
0.000000000000000
 11
107.3835302857105
 21
256.1747723646559
 31
0.000000000000000
  0
LINE
  5
F8
100
AcDbEntity
  8
1
  6
CONTINUOUS
 62
7
100
AcDbLine
 10
55.28571428571058
 20
203.5718286665241
 30
0.000000000000000
 11
55.28571428571058
 21
232.7777153646558
 31
0.000000000000000
  0
LINE
  5
F9
100
AcDbEntity
  8
1
  6
CONTINUOUS
 62
7
100
AcDbLine
 10
54.78571428571058
 20
210.3747693646559
 30
0.000000000000000
 11
54.78571428571058
 21
225.9747713646557
 31
0.000000000000000
  0
LINE
  5
FA
100
AcDbEntity
  8
1
  6
CONTINUOUS
 62
7
100
AcDbLine
 10
57.78571428571058
 20
197.9473633646558
 30
0.000000000000000
 11
57.78571428571058
 21
238.4021813646558
 31
0.000000000000000
  0
ARC
  5
FB
100
AcDbEntity
  8
1
  6
CONTINUOUS
 62
7
100
AcDbCircle
 10
45.49858968571061
 20
225.5447183646558
 30
0.000000000000000
 40
4.787128000000000
100
AcDbArc
 50
333.5795800000011
 51
386.4204199999988
  0
LINE
  5
FC
100
AcDbEntity
  8
1
  6
CONTINUOUS
 62
7
100
AcDbLine
 10
45.78571428571058
 20
223.6491913646558
 30
0.000000000000000
 11
45.78571428571058
 21
221.9483663646558
 31
0.000000000000000
  0
LINE
  5
FD
100
AcDbEntity
  8
1
  6
CONTINUOUS
 62
7
100
AcDbLine
 10
45.78572148571061
 20
223.6491873646559
 30
0.000000000000000
 11
49.78571808571040
 21
223.4146633646560
 31
0.000000000000000
  0
LINE
  5
FE
100
AcDbEntity
  8
1
  6
CONTINUOUS
 62
7
100
AcDbLine
 10
50.28571428571058
 20
246.6747723646559
 30
0.000000000000000
 11
50.28571428571058
 21
206.1747723646558
 31
0.000000000000000
  0
LINE
  5
FF
100
AcDbEntity
  8
1
  6
CONTINUOUS
 62
7
100
AcDbLine
 10
54.28571428571058
 20
246.6747723646559
 30
0.000000000000000
 11
54.28571428571058
 21
206.1747723646558
 31
0.000000000000000
  0
LINE
  5
100
100
AcDbEntity
  8
1
  6
CONTINUOUS
 62
7
100
AcDbLine
 10
45.28571428571058
 20
209.6747723646559
 30
0.000000000000000
 11
45.28571428571058
 21
226.6747723646558
 31
0.000000000000000
  0
LINE
  5
101
100
AcDbEntity
  8
1
  6
CONTINUOUS
 62
7
100
AcDbLine
 10
43.68572348571023
 20
210.8747693646559
 30
0.000000000000000
 11
43.68572348571047
 21
225.4747713646557
 31
0.000000000000000
  0
LINE
  5
102
100
AcDbEntity
  8
1
  6
CONTINUOUS
 62
7
100
AcDbLine
 10
50.28571428571058
 20
206.1747723646558
 30
0.000000000000000
 11
54.28571428571058
 21
206.1747723646558
 31
0.000000000000000
  0
ARC
  5
103
100
AcDbEntity
  8
1
  6
CONTINUOUS
 62
7
100
AcDbCircle
 10
45.49858968571061
 20
210.8048233646558
 30
0.000000000000000
 40
4.787128000000000
100
AcDbArc
 50
333.5795800000011
 51
386.4204199999988
  0
LINE
  5
104
100
AcDbEntity
  8
1
  6
CONTINUOUS
 62
7
100
AcDbLine
 10
45.78570858571061
 20
212.7003533646559
 30
0.000000000000000
 11
49.78571328571071
 21
212.9348733646559
 31
0.000000000000000
  0
LINE
  5
105
100
AcDbEntity
  8
1
  6
CONTINUOUS
 62
7
100
AcDbLine
 10
45.78571428571058
 20
212.7003533646558
 30
0.000000000000000
 11
45.78571428571058
 21
214.4011783646558
 31
0.000000000000000
  0
ARC
  5
106
100
AcDbEntity
  8
1
  6
CONTINUOUS
 62
7
100
AcDbCircle
 10
49.09571948571056
 20
210.8135583646559
 30
0.000000000000000
 40
3.810005900000000
100
AcDbArc
 50
150.3156199999998
 51
209.6843800000002
  0
LINE
  5
107
100
AcDbEntity
  8
1
  6
CONTINUOUS
 62
7
100
AcDbLine
 10
45.78571808571041
 20
208.8747773646558
 30
0.000000000000000
 11
45.28571858571058
 21
209.6747723646560
 31
0.000000000000000
  0
ARC
  5
108
100
AcDbEntity
  8
1
  6
CONTINUOUS
 62
7
100
AcDbCircle
 10
44.88572038571056
 20
210.8747693646559
 30
0.000000000000000
 40
1.199999999999999
100
AcDbArc
 50
180.0000100000009
 51
270.0000000000000
  0
LINE
  5
109
100
AcDbEntity
  8
1
  6
CONTINUOUS
 62
7
100
AcDbLine
 10
44.88572038571056
 20
209.6747723646558
 30
0.000000000000000
 11
45.28571428571058
 21
209.6747723646558
 31
0.000000000000000
  0
LINE
  5
10A
100
AcDbEntity
  8
1
  6
CONTINUOUS
 62
7
100
AcDbLine
 10
45.78571428571060
 20
208.8747693646559
 30
0.000000000000000
 11
49.78571528571048
 21
208.6747723646560
 31
0.000000000000000
  0
LINE
  5
10B
100
AcDbEntity
  8
1
  6
CONTINUOUS
 62
7
100
AcDbLine
 10
49.78571528571047
 20
208.6747803646559
 30
0.000000000000000
 11
45.78570978571041
 21
208.9267633646559
 31
0.000000000000000
  0
LINE
  5
10C
100
AcDbEntity
  8
1
  6
CONTINUOUS
 62
7
100
AcDbLine
 10
45.78571428571058
 20
208.8747693646558
 30
0.000000000000000
 11
45.78571428571058
 21
208.9267633646559
 31
0.000000000000000
  0
LINE
  5
10D
100
AcDbEntity
  8
1
  6
CONTINUOUS
 62
7
100
AcDbLine
 10
50.28571528571044
 20
209.6747723646558
 30
0.000000000000000
 11
49.78571528571047
 21
208.6747723646558
 31
0.000000000000000
  0
ARC
  5
10E
100
AcDbEntity
  8
1
  6
CONTINUOUS
 62
7
100
AcDbCircle
 10
59.77571228571060
 20
218.1747723646559
 30
0.000000000000000
 40
14.49000000000000
100
AcDbArc
 50
164.9045800000001
 51
195.0954199999998
  0
LINE
  5
10F
100
AcDbEntity
  8
1
  6
CONTINUOUS
 62
7
100
AcDbLine
 10
43.53571428571058
 20
223.1747723646558
 30
0.000000000000000
 11
43.53571428571058
 21
213.1747723646559
 31
0.000000000000000
  0
LINE
  5
110
100
AcDbEntity
  8
1
  6
CONTINUOUS
 62
7
100
AcDbLine
 10
42.78571428571058
 20
222.4247723646558
 30
0.000000000000000
 11
42.78571428571058
 21
213.9247723646559
 31
0.000000000000000
  0
LINE
  5
111
100
AcDbEntity
  8
1
  6
CONTINUOUS
 62
7
100
AcDbLine
 10
43.53570268571045
 20
213.1747573646558
 30
0.000000000000000
 11
42.78570188571074
 21
213.9247613646558
 31
0.000000000000000
  0
LINE
  5
112
100
AcDbEntity
  8
1
  6
CONTINUOUS
 62
7
100
AcDbLine
 10
43.53571428571058
 20
213.1747723646559
 30
0.000000000000000
 11
43.68572348571071
 21
213.1747723646559
 31
0.000000000000000
  0
LINE
  5
113
100
AcDbEntity
  8
1
  6
CONTINUOUS
 62
7
100
AcDbLine
 10
42.78569920571044
 20
222.4247613646559
 30
0.000000000000000
 11
43.53570538571057
 21
223.1747683646559
 31
0.000000000000000
  0
LINE
  5
114
100
AcDbEntity
  8
1
  6
CONTINUOUS
 62
7
100
AcDbLine
 10
43.53571428571058
 20
223.1747723646558
 30
0.000000000000000
 11
43.68572348571071
 21
223.1747723646558
 31
0.000000000000000
  0
LINE
  5
115
100
AcDbEntity
  8
2
  6
CONTINUOUS
 62
4
100
AcDbLine
 10
42.78571428571024
 20
222.3627723646559
 30
0.000000000000000
 11
43.68572348571035
 21
222.3627723646559
 31
0.000000000000000
  0
LINE
  5
116
100
AcDbEntity
  8
1
  6
CONTINUOUS
 62
7
100
AcDbLine
 10
49.78571378571039
 20
222.4174103646558
 30
0.000000000000000
 11
45.78571618571048
 21
221.9483623646558
 31
0.000000000000000
  0
LINE
  5
117
100
AcDbEntity
  8
1
  6
CONTINUOUS
 62
7
100
AcDbLine
 10
49.78571098571047
 20
213.9321313646559
 30
0.000000000000000
 11
45.78571308571054
 21
214.4011783646558
 31
0.000000000000000
  0
ARC
  5
118
100
AcDbEntity
  8
1
  6
CONTINUOUS
 62
7
100
AcDbCircle
 10
32.03571428571058
 20
218.1747723646559
 30
0.000000000000000
 40
18.25000000000000
100
AcDbArc
 50
346.5572599999986
 51
373.4427389999990
  0
LINE
  5
119
100
AcDbEntity
  8
1
  6
CONTINUOUS
 62
7
100
AcDbLine
 10
49.78571428571058
 20
213.9321313646559
 30
0.000000000000000
 11
49.78571428571058
 21
212.9348813646558
 31
0.000000000000000
  0
LINE
  5
11A
100
AcDbEntity
  8
1
  6
CONTINUOUS
 62
7
100
AcDbLine
 10
49.78571428571058
 20
222.4174133646558
 30
0.000000000000000
 11
49.78571428571058
 21
223.4146673646558
 31
0.000000000000000
  0
ARC
  5
11B
100
AcDbEntity
  8
1
  6
CONTINUOUS
 62
7
100
AcDbCircle
 10
56.78571428571058
 20
201.3673003646558
 30
0.000000000000000
 40
1.000000000000000
100
AcDbArc
 50
0.000000000000000
 51
74.99998500000076
  0
ARC
  5
11C
100
AcDbEntity
  8
1
  6
CONTINUOUS
 62
7
100
AcDbCircle
 10
61.78571428571058
 20
197.9473633646558
 30
0.000000000000000
 40
4.000000000000000
100
AcDbArc
 50
179.9999899999989
 51
264.1030299999996
  0
LINE
  5
11D
100
AcDbEntity
  8
1
  6
CONTINUOUS
 62
7
100
AcDbLine
 10
54.78571428571058
 20
210.3747693646559
 30
0.000000000000000
 11
55.28571428571058
 21
210.3747693646559
 31
0.000000000000000
  0
LINE
  5
11E
100
AcDbEntity
  8
1
  6
CONTINUOUS
 62
7
100
AcDbLine
 10
54.28572228571055
 20
210.8747693646559
 30
0.000000000000000
 11
54.78571728571069
 21
210.3747773646558
 31
0.000000000000000
  0
ARC
  5
11F
100
AcDbEntity
  8
1
  6
CONTINUOUS
 62
7
100
AcDbCircle
 10
56.28571428571058
 20
203.5718293646558
 30
0.000000000000000
 40
1.000000000000000
100
AcDbArc
 50
180.0000399999975
 51
254.9999499999961
  0
LINE
  5
120
100
AcDbEntity
  8
1
  6
CONTINUOUS
 62
7
100
AcDbLine
 10
56.02689565630043
 20
202.6059084615185
 30
0.000000000000000
 11
57.04453628571035
 21
202.3332353646558
 31
0.000000000000000
  0
ARC
  5
121
100
AcDbEntity
  8
1
  6
CONTINUOUS
 62
7
100
AcDbCircle
 10
55.28571428571058
 20
246.6747723646559
 30
0.000000000000000
 40
5.000000000000000
100
AcDbArc
 50
89.99998200000080
 51
179.9999600000024
  0
LINE
  5
122
100
AcDbEntity
  8
1
  6
CONTINUOUS
 62
7
100
AcDbLine
 10
44.78620688571051
 20
252.7727583646559
 30
0.000000000000000
 11
44.41883718571034
 21
226.5802213646558
 31
0.000000000000000
  0
ARC
  5
123
100
AcDbEntity
  8
1
  6
CONTINUOUS
 62
7
100
AcDbCircle
 10
49.09571948571056
 20
225.5359863646558
 30
0.000000000000000
 40
3.810005900000000
100
AcDbArc
 50
150.3156199999998
 51
209.6843800000002
  0
LINE
  5
124
100
AcDbEntity
  8
1
  6
CONTINUOUS
 62
7
100
AcDbLine
 10
45.78571758571071
 20
227.4747753646557
 30
0.000000000000000
 11
45.28571378571039
 21
226.6747683646558
 31
0.000000000000000
  0
ARC
  5
125
100
AcDbEntity
  8
1
  6
CONTINUOUS
 62
7
100
AcDbCircle
 10
44.88572038571056
 20
225.4747713646557
 30
0.000000000000000
 40
1.199999999999999
100
AcDbArc
 50
90.00000299999770
 51
180.0000100000009
  0
LINE
  5
126
100
AcDbEntity
  8
1
  6
CONTINUOUS
 62
7
100
AcDbLine
 10
44.88572038571056
 20
226.6747723646558
 30
0.000000000000000
 11
45.28571428571058
 21
226.6747723646558
 31
0.000000000000000
  0
LINE
  5
127
100
AcDbEntity
  8
1
  6
CONTINUOUS
 62
7
100
AcDbLine
 10
49.78571618571050
 20
227.6747723646559
 30
0.000000000000000
 11
45.78571858571058
 21
227.4227883646559
 31
0.000000000000000
  0
LINE
  5
128
100
AcDbEntity
  8
1
  6
CONTINUOUS
 62
7
100
AcDbLine
 10
45.78571428571058
 20
227.4747713646557
 30
0.000000000000000
 11
49.78571428571059
 21
227.6747723646558
 31
0.000000000000000
  0
LINE
  5
129
100
AcDbEntity
  8
1
  6
CONTINUOUS
 62
7
100
AcDbLine
 10
45.78571428571058
 20
227.4747713646557
 30
0.000000000000000
 11
45.78571428571058
 21
227.4227853646558
 31
0.000000000000000
  0
LINE
  5
12A
100
AcDbEntity
  8
1
  6
CONTINUOUS
 62
7
100
AcDbLine
 10
50.28571138571057
 20
226.6747723646558
 30
0.000000000000000
 11
49.78571098571047
 21
227.6747723646558
 31
0.000000000000000
  0
ARC
  5
12B
100
AcDbEntity
  8
1
  6
CONTINUOUS
 62
7
100
AcDbCircle
 10
49.78571428571058
 20
252.7026363646558
 30
0.000000000000000
 40
5.000000000000000
100
AcDbArc
 50
131.8103335311536
 51
179.1964300000029
  0
ARC
  5
12C
100
AcDbEntity
  8
1
  6
CONTINUOUS
 62
7
100
AcDbCircle
 10
52.78571428571058
 20
258.1747723646559
 30
0.000000000000000
 40
6.000000000000000
100
AcDbArc
 50
145.4819099999973
 51
179.9999600000024
  0
ARC
  5
12D
100
AcDbEntity
  8
1
  6
CONTINUOUS
 62
7
100
AcDbCircle
 10
45.78571428571058
 20
257.1747723646559
 30
0.000000000000000
 40
1.000000000000000
100
AcDbArc
 50
311.8102200000010
 51
360.0000000000000
  0
LINE
  5
12E
100
AcDbEntity
  8
1
  6
CONTINUOUS
 62
7
100
AcDbLine
 10
46.78571428571058
 20
258.1747723646559
 30
0.000000000000000
 11
46.78571428571058
 21
257.1747723646559
 31
0.000000000000000
  0
LINE
  5
12F
100
AcDbEntity
  8
1
  6
CONTINUOUS
 62
7
100
AcDbLine
 10
46.78571188571051
 20
265.1747713646558
 30
0.000000000000000
 11
47.84202778571057
 21
261.5747723646559
 31
0.000000000000000
  0
ARC
  5
130
100
AcDbEntity
  8
1
  6
CONTINUOUS
 62
7
100
AcDbCircle
 10
74.28571428571058
 20
227.6747723646558
 30
0.000000000000000
 40
20.00000000000000
100
AcDbArc
 50
89.99998200000080
 51
133.4108913850940
  0
ARC
  5
131
100
AcDbEntity
  8
1
  6
CONTINUOUS
 62
7
100
AcDbCircle
 10
74.28571428571058
 20
227.6747723646558
 30
0.000000000000000
 40
20.00000000000000
100
AcDbArc
 50
145.3172027545873
 51
179.9999600000024
  0
ARC
  5
132
100
AcDbEntity
  8
1
  6
CONTINUOUS
 62
7
100
AcDbCircle
 10
56.78571428571058
 20
234.9822443646558
 30
0.000000000000000
 40
1.000000000000000
100
AcDbArc
 50
285.0000100000012
 51
360.0000000000000
  0
LINE
  5
133
100
AcDbEntity
  8
1
  6
CONTINUOUS
 62
7
100
AcDbLine
 10
54.78571428571058
 20
225.9747713646557
 30
0.000000000000000
 11
55.28571428571058
 21
225.9747713646557
 31
0.000000000000000
  0
LINE
  5
134
100
AcDbEntity
  8
1
  6
CONTINUOUS
 62
7
100
AcDbLine
 10
54.28572228571053
 20
225.4747753646560
 30
0.000000000000000
 11
54.78571728571066
 21
225.9747713646559
 31
0.000000000000000
  0
ARC
  5
135
100
AcDbEntity
  8
1
  6
CONTINUOUS
 62
7
100
AcDbCircle
 10
56.28571428571058
 20
232.7777153646558
 30
0.000000000000000
 40
1.000000000000000
100
AcDbArc
 50
105.0000500000038
 51
179.9999600000024
  0
LINE
  5
136
100
AcDbEntity
  8
1
  6
CONTINUOUS
 62
7
100
AcDbLine
 10
56.02689028571059
 20
233.7436433646558
 30
0.000000000000000
 11
57.04453428571059
 21
234.0163213646559
 31
0.000000000000000
  0
ARC
  5
137
100
AcDbEntity
  8
1
  6
CONTINUOUS
 62
7
100
AcDbCircle
 10
61.78571428571058
 20
238.4021813646558
 30
0.000000000000000
 40
4.000000000000000
100
AcDbArc
 50
95.89696900000344
 51
180.0000100000009
  0
ARC
  5
138
100
AcDbEntity
  8
1
  6
CONTINUOUS
 62
7
100
AcDbCircle
 10
55.28571428571058
 20
246.6747723646559
 30
0.000000000000000
 40
1.000000000000000
100
AcDbArc
 50
89.99998200000080
 51
179.9999600000024
  0
LINE
  5
139
100
AcDbEntity
  8
1
  6
CONTINUOUS
 62
7
100
AcDbLine
 10
108.2857142857105
 20
225.1747723646558
 30
0.000000000000000
 11
108.2857142857105
 21
211.1747723646559
 31
0.000000000000000
  0
LINE
  5
13A
100
AcDbEntity
  8
1
  6
CONTINUOUS
 62
7
100
AcDbLine
 10
108.7852182857104
 20
252.7727583646558
 30
0.000000000000000
 11
109.2851342857106
 21
217.1301743646558
 31
0.000000000000000
  0
LINE
  5
13B
100
AcDbEntity
  8
1
  6
CONTINUOUS
 62
7
100
AcDbLine
 10
98.78571428571058
 20
210.3747693646559
 30
0.000000000000000
 11
98.78571428571058
 21
225.9747713646557
 31
0.000000000000000
  0
LINE
  5
13C
100
AcDbEntity
  8
1
  6
CONTINUOUS
 62
7
100
AcDbLine
 10
98.28571428571060
 20
203.5718293646558
 30
0.000000000000000
 11
98.28571428571060
 21
232.7777153646558
 31
0.000000000000000
  0
LINE
  5
13D
100
AcDbEntity
  8
1
  6
CONTINUOUS
 62
7
100
AcDbLine
 10
107.2857142857105
 20
227.1747723646558
 30
0.000000000000000
 11
107.2857142857105
 21
209.1747723646559
 31
0.000000000000000
  0
LINE
  5
13E
100
AcDbEntity
  8
1
  6
CONTINUOUS
 62
7
100
AcDbLine
 10
95.78571428571057
 20
238.4021813646558
 30
0.000000000000000
 11
95.78571428571057
 21
218.1747723646559
 31
0.000000000000000
  0
LINE
  5
13F
100
AcDbEntity
  8
1
  6
CONTINUOUS
 62
7
100
AcDbLine
 10
103.2857142857105
 20
246.6747723646559
 30
0.000000000000000
 11
103.2857142857105
 21
206.1747723646558
 31
0.000000000000000
  0
LINE
  5
140
100
AcDbEntity
  8
1
  6
CONTINUOUS
 62
7
100
AcDbLine
 10
99.28571428571061
 20
246.6747723646559
 30
0.000000000000000
 11
99.28571428571061
 21
206.1747723646558
 31
0.000000000000000
  0
LINE
  5
141
100
AcDbEntity
  8
1
  6
CONTINUOUS
 62
7
100
AcDbLine
 10
95.78571428571057
 20
197.9473633646558
 30
0.000000000000000
 11
95.78571428571057
 21
218.1747723646559
 31
0.000000000000000
  0
ARC
  5
142
100
AcDbEntity
  8
1
  6
CONTINUOUS
 62
7
100
AcDbCircle
 10
96.78571428571061
 20
201.3673003646558
 30
0.000000000000000
 40
1.000000000000000
100
AcDbArc
 50
105.0000100000012
 51
180.0000100000009
  0
ARC
  5
143
100
AcDbEntity
  8
1
  6
CONTINUOUS
 62
7
100
AcDbCircle
 10
91.78571428571060
 20
197.9473633646558
 30
0.000000000000000
 40
4.000000000000000
100
AcDbArc
 50
275.8969599999999
 51
360.0000000000000
  0
LINE
  5
144
100
AcDbEntity
  8
1
  6
CONTINUOUS
 62
7
100
AcDbLine
 10
99.28571428571061
 20
206.1747723646558
 30
0.000000000000000
 11
103.2857142857105
 21
206.1747723646558
 31
0.000000000000000
  0
ARC
  5
145
100
AcDbEntity
  8
1
  6
CONTINUOUS
 62
7
100
AcDbCircle
 10
97.28571428571058
 20
203.5718293646558
 30
0.000000000000000
 40
1.000000000000000
100
AcDbArc
 50
285.0000400000001
 51
360.0000000000000
  0
LINE
  5
146
100
AcDbEntity
  8
1
  6
CONTINUOUS
 62
7
100
AcDbLine
 10
97.54453428571061
 20
202.6059013646559
 30
0.000000000000000
 11
96.52689828571054
 21
202.3332273646558
 31
0.000000000000000
  0
LINE
  5
147
100
AcDbEntity
  8
1
  6
CONTINUOUS
 62
7
100
AcDbLine
 10
98.78571428571058
 20
210.3747693646559
 30
0.000000000000000
 11
98.28571428571060
 21
210.3747693646559
 31
0.000000000000000
  0
LINE
  5
148
100
AcDbEntity
  8
1
  6
CONTINUOUS
 62
7
100
AcDbLine
 10
99.28571028571058
 20
210.8747773646558
 30
0.000000000000000
 11
98.78571828571053
 21
210.3747773646557
 31
0.000000000000000
  0
LINE
  5
149
100
AcDbEntity
  8
1
  6
CONTINUOUS
 62
7
100
AcDbLine
 10
107.2857142857105
 20
209.1747723646558
 30
0.000000000000000
 11
108.2857142857105
 21
211.1747723646558
 31
0.000000000000000
  0
LINE
  5
14A
100
AcDbEntity
  8
1
  6
CONTINUOUS
 62
7
100
AcDbLine
 10
103.2857142857105
 20
209.1747723646559
 30
0.000000000000000
 11
107.2857142857105
 21
209.1747723646559
 31
0.000000000000000
  0
ARC
  5
14B
100
AcDbEntity
  8
1
  6
CONTINUOUS
 62
7
100
AcDbCircle
 10
100.7859732857105
 20
217.0109693646559
 30
0.000000000000000
 40
8.500000000000000
100
AcDbArc
 50
287.1028199999968
 51
292.7937599999994
  0
ARC
  5
14C
100
AcDbEntity
  8
1
  6
CONTINUOUS
 62
7
100
AcDbCircle
 10
100.7859732857105
 20
217.0109693646559
 30
0.000000000000000
 40
8.500000000000000
100
AcDbArc
 50
331.9238199999986
 51
360.8035662599987
  0
ARC
  5
14D
100
AcDbEntity
  8
1
  6
CONTINUOUS
 62
7
100
AcDbCircle
 10
79.28571428571058
 20
227.6747723646558
 30
0.000000000000000
 40
20.00000000000000
100
AcDbArc
 50
0.000000000000000
 51
34.68279724541261
  0
ARC
  5
14E
100
AcDbEntity
  8
1
  6
CONTINUOUS
 62
7
100
AcDbCircle
 10
96.78571428571061
 20
234.9822443646558
 30
0.000000000000000
 40
1.000000000000000
100
AcDbArc
 50
179.9999899999989
 51
254.9999800000027
  0
LINE
  5
14F
100
AcDbEntity
  8
1
  6
CONTINUOUS
 62
7
100
AcDbLine
 10
98.78571428571058
 20
225.9747713646557
 30
0.000000000000000
 11
98.28571428571060
 21
225.9747713646557
 31
0.000000000000000
  0
LINE
  5
150
100
AcDbEntity
  8
1
  6
CONTINUOUS
 62
7
100
AcDbLine
 10
99.28571028571061
 20
225.4747753646558
 30
0.000000000000000
 11
98.78571828571056
 21
225.9747713646557
 31
0.000000000000000
  0
ARC
  5
151
100
AcDbEntity
  8
1
  6
CONTINUOUS
 62
7
100
AcDbCircle
 10
97.28571428571058
 20
232.7777153646558
 30
0.000000000000000
 40
1.000000000000000
100
AcDbArc
 50
0.000000000000000
 51
74.99996499999800
  0
LINE
  5
152
100
AcDbEntity
  8
1
  6
CONTINUOUS
 62
7
100
AcDbLine
 10
97.54453028571061
 20
233.7436393646557
 30
0.000000000000000
 11
96.52689428571058
 21
234.0163133646558
 31
0.000000000000000
  0
ARC
  5
153
100
AcDbEntity
  8
1
  6
CONTINUOUS
 62
7
100
AcDbCircle
 10
91.78571428571060
 20
238.4021813646558
 30
0.000000000000000
 40
4.000000000000000
100
AcDbArc
 50
0.000000000000000
 51
84.10304299999885
  0
LINE
  5
154
100
AcDbEntity
  8
1
  6
CONTINUOUS
 62
7
100
AcDbLine
 10
108.2857222857105
 20
225.1747803646558
 30
0.000000000000000
 11
107.2857222857105
 21
227.1747803646558
 31
0.000000000000000
  0
LINE
  5
155
100
AcDbEntity
  8
1
  6
CONTINUOUS
 62
7
100
AcDbLine
 10
103.2857142857105
 20
227.1747723646558
 30
0.000000000000000
 11
107.2857142857105
 21
227.1747723646558
 31
0.000000000000000
  0
ARC
  5
156
100
AcDbEntity
  8
1
  6
CONTINUOUS
 62
7
100
AcDbCircle
 10
98.28571428571060
 20
246.6747723646559
 30
0.000000000000000
 40
5.000000000000000
100
AcDbArc
 50
0.000000000000000
 51
89.99998200000080
  0
ARC
  5
157
100
AcDbEntity
  8
1
  6
CONTINUOUS
 62
7
100
AcDbCircle
 10
98.28571428571060
 20
246.6747723646559
 30
0.000000000000000
 40
1.000000000000000
100
AcDbArc
 50
0.000000000000000
 51
89.99998200000080
  0
ARC
  5
158
100
AcDbEntity
  8
1
  6
CONTINUOUS
 62
7
100
AcDbCircle
 10
103.7857142857105
 20
252.7026363646558
 30
0.000000000000000
 40
5.000000000000000
100
AcDbArc
 50
0.8035629499975824
 51
48.18968539070201
  0
ARC
  5
159
100
AcDbEntity
  8
1
  6
CONTINUOUS
 62
7
100
AcDbCircle
 10
100.7857142857105
 20
258.1747723646559
 30
0.000000000000000
 40
6.000000000000000
100
AcDbArc
 50
0.000000000000000
 51
34.51811999999963
  0
ARC
  5
15A
100
AcDbEntity
  8
1
  6
CONTINUOUS
 62
7
100
AcDbCircle
 10
107.7857142857105
 20
257.1747723646559
 30
0.000000000000000
 40
1.000000000000000
100
AcDbArc
 50
179.9999799999979
 51
228.1895899999990
  0
LINE
  5
15B
100
AcDbEntity
  8
1
  6
CONTINUOUS
 62
7
100
AcDbLine
 10
106.7857142857105
 20
258.1747723646559
 30
0.000000000000000
 11
106.7857142857105
 21
257.1747723646559
 31
0.000000000000000
  0
LINE
  5
15C
100
AcDbEntity
  8
1
  6
CONTINUOUS
 62
7
100
AcDbLine
 10
106.7857062857106
 20
265.1747773646560
 30
0.000000000000000
 11
105.7293822857104
 21
261.5747773646558
 31
0.000000000000000
  0
LINE
  5
15D
100
AcDbEntity
  8
1
  6
CONTINUOUS
 62
7
100
AcDbLine
 10
35.78571428571058
 20
268.9747725646559
 30
0.000000000000000
 11
117.7857142857105
 21
268.9747725646559
 31
0.000000000000000
  0
LINE
  5
15E
100
AcDbEntity
  8
1
  6
CONTINUOUS
 62
7
100
AcDbLine
 10
35.78571428571058
 20
272.1747723646559
 30
0.000000000000000
 11
117.7857142857105
 21
272.1747723646559
 31
0.000000000000000
  0
LINE
  5
15F
100
AcDbEntity
  8
1
  6
CONTINUOUS
 62
7
100
AcDbLine
 10
35.78571428571058
 20
272.1747723646559
 30
0.000000000000000
 11
35.78571428571058
 21
268.9747725646559
 31
0.000000000000000
  0
LINE
  5
160
100
AcDbEntity
  8
1
  6
CONTINUOUS
 62
7
100
AcDbLine
 10
117.7857142857105
 20
272.1747723646559
 30
0.000000000000000
 11
117.7857142857105
 21
268.9747725646559
 31
0.000000000000000
  0
LINE
  5
161
100
AcDbEntity
  8
1
  6
CONTINUOUS
 62
7
100
AcDbLine
 10
195.2857142857105
 20
114.1747723646575
 30
0.000000000000000
 11
258.2857142857104
 21
114.1747723646575
 31
0.000000000000000
  0
LINE
  5
162
100
AcDbEntity
  8
1
  6
CONTINUOUS
 62
7
100
AcDbLine
 10
195.2857142857105
 20
32.17477236465765
 30
0.000000000000000
 11
258.2857142857104
 21
32.17477236465765
 31
0.000000000000000
  0
LINE
  5
163
100
AcDbEntity
  8
4
  6
CENTER
 62
1
100
AcDbLine
 10
176.7857142857107
 20
73.17477236465776
 30
0.000000000000000
 11
276.7857142857105
 21
73.17477236465766
 31
0.000000000000000
  0
LINE
  5
164
100
AcDbEntity
  8
1
  6
CONTINUOUS
 62
7
100
AcDbLine
 10
185.7857142857105
 20
93.55129291091056
 30
0.000000000000000
 11
185.7857142857105
 21
92.09945109631457
 31
0.000000000000000
  0
LINE
  5
165
100
AcDbEntity
  8
1
  6
CONTINUOUS
 62
7
100
AcDbLine
 10
185.7857142857105
 20
104.6747723646575
 30
0.000000000000000
 11
185.7857142857105
 21
92.09945109631457
 31
0.000000000000000
  0
LINE
  5
166
100
AcDbEntity
  8
4
  6
CENTER
 62
1
100
AcDbLine
 10
226.7857142857105
 20
119.1747723646575
 30
0.000000000000000
 11
226.7857142857105
 21
27.17477236465765
 31
0.000000000000000
  0
ARC
  5
167
100
AcDbEntity
  8
1
  6
CONTINUOUS
 62
7
100
AcDbCircle
 10
195.2857142857105
 20
104.6747723646575
 30
0.000000000000000
 40
9.500000000000000
100
AcDbArc
 50
89.99998399999708
 51
179.9999640278219
  0
ARC
  5
168
100
AcDbEntity
  8
1
  6
CONTINUOUS
 62
7
100
AcDbCircle
 10
195.2857142857105
 20
41.67477236465765
 30
0.000000000000000
 40
9.500000000000000
100
AcDbArc
 50
179.9999776882001
 51
270.0000300000029
  0
LINE
  5
169
100
AcDbEntity
  8
1
  6
CONTINUOUS
 62
7
100
AcDbLine
 10
267.7857142857106
 20
104.6747723646575
 30
0.000000000000000
 11
267.7857142857106
 21
41.67477236465765
 31
0.000000000000000
  0
LINE
  5
16A
100
AcDbEntity
  8
4
  6
CENTER
 62
1
100
AcDbLine
 10
258.7857142857105
 20
98.77477226465749
 30
0.000000000000000
 11
258.7857142857105
 21
111.5747724646576
 31
0.000000000000000
  0
ARC
  5
16B
100
AcDbEntity
  8
1
  6
CONTINUOUS
 62
7
100
AcDbCircle
 10
258.2857142857104
 20
104.6747723646575
 30
0.000000000000000
 40
9.500000000000000
100
AcDbArc
 50
359.9999899999990
 51
449.9999839999971
  0
LINE
  5
16C
100
AcDbEntity
  8
4
  6
CENTER
 62
1
100
AcDbLine
 10
265.1857143857106
 20
105.1747723646575
 30
0.000000000000000
 11
252.3857141857105
 21
105.1747723646575
 31
0.000000000000000
  0
ARC
  5
16D
100
AcDbEntity
  8
1
  6
CONTINUOUS
 62
7
100
AcDbCircle
 10
258.2857142857104
 20
41.67477236465765
 30
0.000000000000000
 40
9.500000000000000
100
AcDbArc
 50
270.0000300000029
 51
360.0000100000010
  0
CIRCLE
  5
16E
100
AcDbEntity
  8
1
  6
CONTINUOUS
 62
7
100
AcDbCircle
 10
206.7857142857105
 20
218.1747723646559
 30
0.000000000000000
 40
9.000000000000000
  0
CIRCLE
  5
16F
100
AcDbEntity
  8
1
  6
CONTINUOUS
 62
7
100
AcDbCircle
 10
206.7857142857105
 20
218.1747723646559
 30
0.000000000000000
 40
3.000000000000000
  0
CIRCLE
  5
170
100
AcDbEntity
  8
1
  6
CONTINUOUS
 62
7
100
AcDbCircle
 10
206.7857142857105
 20
218.1747723646559
 30
0.000000000000000
 40
7.000000000000000
  0
LINE
  5
171
100
AcDbEntity
  8
2
  6
CONTINUOUS
 62
4
100
AcDbLine
 10
42.78571428571024
 20
213.9867723646559
 30
0.000000000000000
 11
43.68572348571035
 21
213.9867723646559
 31
0.000000000000000
  0
LINE
  5
172
100
AcDbEntity
  8
1
  6
CONTINUOUS
 62
7
100
AcDbLine
 10
417.7857142857106
 20
272.1747723646559
 30
0.000000000000000
 11
335.7857142857105
 21
272.1747723646559
 31
0.000000000000000
  0
LINE
  5
173
100
AcDbEntity
  8
1
  6
CONTINUOUS
 62
7
100
AcDbLine
 10
417.7857142857106
 20
268.9747725646559
 30
0.000000000000000
 11
335.7857142857105
 21
268.9747725646559
 31
0.000000000000000
  0
LINE
  5
174
100
AcDbEntity
  8
1
  6
CONTINUOUS
 62
7
100
AcDbLine
 10
403.2857142857105
 20
206.1747723646558
 30
0.000000000000000
 11
399.2857142857106
 21
206.1747723646558
 31
0.000000000000000
  0
LINE
  5
175
100
AcDbEntity
  8
1
  6
CONTINUOUS
 62
7
100
AcDbLine
 10
407.3835307857106
 20
256.1747723646559
 30
0.000000000000000
 11
346.1878982857106
 21
256.1747723646559
 31
0.000000000000000
  0
LINE
  5
176
100
AcDbEntity
  8
1
  6
CONTINUOUS
 62
7
100
AcDbLine
 10
406.9318476857105
 20
265.1747723646559
 30
0.000000000000000
 11
346.6395812857104
 21
265.1747723646559
 31
0.000000000000000
  0
LINE
  5
177
100
AcDbEntity
  8
1
  6
CONTINUOUS
 62
7
100
AcDbLine
 10
405.7293940857106
 20
261.5747723646558
 30
0.000000000000000
 11
347.8420342857106
 21
261.5747723646558
 31
0.000000000000000
  0
LINE
  5
178
100
AcDbEntity
  8
4
  6
CENTER
 62
1
100
AcDbLine
 10
414.2704829558922
 20
218.1747723646559
 30
0.000000000000000
 11
339.3009456155289
 21
218.1747723646557
 31
0.000000000000000
  0
ARC
  5
179
100
AcDbEntity
  8
1
  6
CONTINUOUS
 62
7
100
AcDbCircle
 10
406.9318476857105
 20
270.1747723646559
 30
0.000000000000000
 40
5.000000000000000
100
AcDbArc
 50
269.9999799999980
 51
346.1134800000030
  0
LINE
  5
17A
100
AcDbEntity
  8
1
  6
CONTINUOUS
 62
7
100
AcDbLine
 10
409.8857050857109
 20
210.8747693646559
 30
0.000000000000000
 11
409.8857050857105
 21
225.4747713646557
 31
0.000000000000000
  0
LINE
  5
17B
100
AcDbEntity
  8
1
  6
CONTINUOUS
 62
7
100
AcDbLine
 10
408.2857142857106
 20
209.6747723646559
 30
0.000000000000000
 11
408.2857142857105
 21
213.0104837775155
 31
0.000000000000000
  0
ARC
  5
17C
100
AcDbEntity
  8
1
  6
CONTINUOUS
 62
7
100
AcDbCircle
 10
408.0728388857105
 20
210.8048233646558
 30
0.000000000000000
 40
4.787128000000000
100
AcDbArc
 50
204.9597194037208
 51
206.4204199999988
  0
LINE
  5
17D
100
AcDbEntity
  8
1
  6
CONTINUOUS
 62
7
100
AcDbLine
 10
403.7315193178022
 20
208.7831603004723
 30
0.000000000000000
 11
403.7857132857106
 21
208.6747723646558
 31
0.000000000000000
  0
LINE
  5
17E
100
AcDbEntity
  8
1
  6
CONTINUOUS
 62
7
100
AcDbLine
 10
407.7857142857105
 20
208.8747693646558
 30
0.000000000000000
 11
407.7857142857105
 21
208.9267633646559
 31
0.000000000000000
  0
LINE
  5
17F
100
AcDbEntity
  8
1
  6
CONTINUOUS
 62
7
100
AcDbLine
 10
403.7857132857105
 20
208.6747803646558
 30
0.000000000000000
 11
407.7857187857105
 21
208.9267633646558
 31
0.000000000000000
  0
LINE
  5
180
100
AcDbEntity
  8
1
  6
CONTINUOUS
 62
7
100
AcDbLine
 10
407.7857142857106
 20
208.8747693646558
 30
0.000000000000000
 11
403.7857132857107
 21
208.6747723646559
 31
0.000000000000000
  0
LINE
  5
181
100
AcDbEntity
  8
1
  6
CONTINUOUS
 62
7
100
AcDbLine
 10
408.6857081857106
 20
209.6747723646558
 30
0.000000000000000
 11
408.2857142857106
 21
209.6747723646558
 31
0.000000000000000
  0
ARC
  5
182
100
AcDbEntity
  8
1
  6
CONTINUOUS
 62
7
100
AcDbCircle
 10
408.6857081857106
 20
210.8747693646559
 30
0.000000000000000
 40
1.199999999999999
100
AcDbArc
 50
270.0000000000000
 51
359.9999899999990
  0
LINE
  5
183
100
AcDbEntity
  8
1
  6
CONTINUOUS
 62
7
100
AcDbLine
 10
407.7857104857105
 20
208.8747773646558
 30
0.000000000000000
 11
408.2857099857106
 21
209.6747723646560
 31
0.000000000000000
  0
ARC
  5
184
100
AcDbEntity
  8
1
  6
CONTINUOUS
 62
7
100
AcDbCircle
 10
404.4757090857106
 20
210.8135583646559
 30
0.000000000000000
 40
3.810005900000000
100
AcDbArc
 50
330.3156199999997
 51
384.8028993184457
  0
LINE
  5
185
100
AcDbEntity
  8
2
  6
CONTINUOUS
 62
4
100
AcDbLine
 10
410.7857142857110
 20
213.9867723646559
 30
0.000000000000000
 11
409.8857050857109
 21
213.9867723646559
 31
0.000000000000000
  0
LINE
  5
186
100
AcDbEntity
  8
2
  6
CONTINUOUS
 62
4
100
AcDbLine
 10
410.7857142857110
 20
222.3627723646559
 30
0.000000000000000
 11
409.8857050857109
 21
222.3627723646559
 31
0.000000000000000
  0
LINE
  5
187
100
AcDbEntity
  8
1
  6
CONTINUOUS
 62
7
100
AcDbLine
 10
410.7857293657106
 20
222.4247613646559
 30
0.000000000000000
 11
410.0357231857105
 21
223.1747683646559
 31
0.000000000000000
  0
LINE
  5
188
100
AcDbEntity
  8
1
  6
CONTINUOUS
 62
7
100
AcDbLine
 10
410.0357258857107
 20
213.1747573646558
 30
0.000000000000000
 11
410.7857266857104
 21
213.9247613646558
 31
0.000000000000000
  0
LINE
  5
189
100
AcDbEntity
  8
1
  6
CONTINUOUS
 62
7
100
AcDbLine
 10
410.7857142857104
 20
222.4247723646558
 30
0.000000000000000
 11
410.7857142857104
 21
213.9247723646559
 31
0.000000000000000
  0
LINE
  5
18A
100
AcDbEntity
  8
1
  6
CONTINUOUS
 62
7
100
AcDbLine
 10
410.0357142857105
 20
223.1747723646558
 30
0.000000000000000
 11
409.8857050857104
 21
223.1747723646558
 31
0.000000000000000
  0
LINE
  5
18B
100
AcDbEntity
  8
1
  6
CONTINUOUS
 62
7
100
AcDbLine
 10
410.0357142857105
 20
213.1747723646559
 30
0.000000000000000
 11
409.8857050857104
 21
213.1747723646559
 31
0.000000000000000
  0
LINE
  5
18C
100
AcDbEntity
  8
1
  6
CONTINUOUS
 62
7
100
AcDbLine
 10
410.0357142857105
 20
223.1747723646558
 30
0.000000000000000
 11
410.0357142857105
 21
213.1747723646559
 31
0.000000000000000
  0
LINE
  5
18D
100
AcDbEntity
  8
1
  6
CONTINUOUS
 62
7
100
AcDbLine
 10
408.7852216857106
 20
252.7727583646558
 30
0.000000000000000
 11
409.2852188299822
 21
217.1242176678496
 31
0.000000000000000
  0
ARC
  5
18E
100
AcDbEntity
  8
1
  6
CONTINUOUS
 62
7
100
AcDbCircle
 10
408.6857081857106
 20
225.4747713646557
 30
0.000000000000000
 40
1.199999999999999
100
AcDbArc
 50
359.9999899999990
 51
427.1033971311234
  0
ARC
  5
18F
100
AcDbEntity
  8
1
  6
CONTINUOUS
 62
7
100
AcDbCircle
 10
403.7857142857105
 20
252.7026363646558
 30
0.000000000000000
 40
5.000000000000000
100
AcDbArc
 50
0.8035699999970253
 51
48.18966646884637
  0
LINE
  5
190
100
AcDbEntity
  8
1
  6
CONTINUOUS
 62
7
100
AcDbLine
 10
406.7857166857105
 20
265.1747713646558
 30
0.000000000000000
 11
405.7294007857105
 21
261.5747723646560
 31
0.000000000000000
  0
LINE
  5
191
100
AcDbEntity
  8
1
  6
CONTINUOUS
 62
7
100
AcDbLine
 10
406.7857142857105
 20
258.1747723646559
 30
0.000000000000000
 11
406.7857142857105
 21
257.1747723646559
 31
0.000000000000000
  0
ARC
  5
192
100
AcDbEntity
  8
1
  6
CONTINUOUS
 62
7
100
AcDbCircle
 10
407.7857142857105
 20
257.1747723646559
 30
0.000000000000000
 40
1.000000000000000
100
AcDbArc
 50
180.0000000000000
 51
228.1897799999989
  0
ARC
  5
193
100
AcDbEntity
  8
1
  6
CONTINUOUS
 62
7
100
AcDbCircle
 10
400.7857142857106
 20
258.1747723646559
 30
0.000000000000000
 40
6.000000000000000
100
AcDbArc
 50
3.999999751900000e-05
 51
34.51809000000270
  0
LINE
  5
194
100
AcDbEntity
  8
1
  6
CONTINUOUS
 62
7
100
AcDbLine
 10
417.7857142857106
 20
272.1747723646559
 30
0.000000000000000
 11
417.7857142857106
 21
268.9747725646559
 31
0.000000000000000
  0
ARC
  5
195
100
AcDbEntity
  8
1
  6
CONTINUOUS
 62
7
100
AcDbCircle
 10
346.6395812857104
 20
270.1747723646559
 30
0.000000000000000
 40
5.000000000000000
100
AcDbArc
 50
193.8865400000002
 51
269.9999799999980
  0
LINE
  5
196
100
AcDbEntity
  8
4
  6
CENTER
 62
1
100
AcDbLine
 10
376.7857142857105
 20
277.1747723646559
 30
0.000000000000000
 11
376.7857142857105
 21
188.1747723646559
 31
0.000000000000000
  0
LINE
  5
197
100
AcDbEntity
  8
1
  6
CONTINUOUS
 62
7
100
AcDbLine
 10
357.7857142857105
 20
238.4021813646558
 30
0.000000000000000
 11
357.7857142857105
 21
218.1747723646559
 31
0.000000000000000
  0
LINE
  5
198
100
AcDbEntity
  8
1
  6
CONTINUOUS
 62
7
100
AcDbLine
 10
355.2857142857106
 20
203.5718293646558
 30
0.000000000000000
 11
355.2857142857106
 21
232.7777153646558
 31
0.000000000000000
  0
LINE
  5
199
100
AcDbEntity
  8
1
  6
CONTINUOUS
 62
7
100
AcDbLine
 10
354.7857142857105
 20
210.3747693646559
 30
0.000000000000000
 11
354.7857142857105
 21
225.9747713646557
 31
0.000000000000000
  0
LINE
  5
19A
100
AcDbEntity
  8
1
  6
CONTINUOUS
 62
7
100
AcDbLine
 10
344.7862102857107
 20
252.7727583646558
 30
0.000000000000000
 11
344.2861927402014
 21
217.1229344596876
 31
0.000000000000000
  0
LINE
  5
19B
100
AcDbEntity
  8
1
  6
CONTINUOUS
 62
7
100
AcDbLine
 10
395.7857142857105
 20
197.9473633646558
 30
0.000000000000000
 11
395.7857142857105
 21
238.4021813646558
 31
0.000000000000000
  0
LINE
  5
19C
100
AcDbEntity
  8
1
  6
CONTINUOUS
 62
7
100
AcDbLine
 10
398.7857142857106
 20
210.3747693646559
 30
0.000000000000000
 11
398.7857142857106
 21
225.9747713646557
 31
0.000000000000000
  0
LINE
  5
19D
100
AcDbEntity
  8
1
  6
CONTINUOUS
 62
7
100
AcDbLine
 10
398.2857142857105
 20
203.5718286665241
 30
0.000000000000000
 11
398.2857142857105
 21
232.7777153646558
 31
0.000000000000000
  0
ARC
  5
19E
100
AcDbEntity
  8
1
  6
CONTINUOUS
 62
7
100
AcDbCircle
 10
376.7857142857105
 20
343.1747723646559
 30
0.000000000000000
 40
150.0000000000000
100
AcDbArc
 50
264.1030419312429
 51
275.8969583354220
  0
ARC
  5
19F
100
AcDbEntity
  8
1
  6
CONTINUOUS
 62
7
100
AcDbCircle
 10
396.7857142857106
 20
201.3673003646558
 30
0.000000000000000
 40
1.000000000000000
100
AcDbArc
 50
105.0000149999992
 51
180.0000000000000
  0
ARC
  5
1A0
100
AcDbEntity
  8
1
  6
CONTINUOUS
 62
7
100
AcDbCircle
 10
391.7857142857105
 20
197.9473633646558
 30
0.000000000000000
 40
4.000000000000000
100
AcDbArc
 50
275.8969700000004
 51
360.0000100000010
  0
LINE
  5
1A1
100
AcDbEntity
  8
1
  6
CONTINUOUS
 62
7
100
AcDbLine
 10
397.5445329151208
 20
202.6059084615185
 30
0.000000000000000
 11
396.5268922857109
 21
202.3332353646558
 31
0.000000000000000
  0
ARC
  5
1A2
100
AcDbEntity
  8
1
  6
CONTINUOUS
 62
7
100
AcDbCircle
 10
397.2857142857106
 20
203.5718293646558
 30
0.000000000000000
 40
1.000000000000000
100
AcDbArc
 50
285.0000500000039
 51
359.9999600000025
  0
LINE
  5
1A3
100
AcDbEntity
  8
1
  6
CONTINUOUS
 62
7
100
AcDbLine
 10
399.2857062857106
 20
210.8747693646559
 30
0.000000000000000
 11
398.7857112857105
 21
210.3747773646559
 31
0.000000000000000
  0
LINE
  5
1A4
100
AcDbEntity
  8
1
  6
CONTINUOUS
 62
7
100
AcDbLine
 10
398.7857142857106
 20
210.3747693646559
 30
0.000000000000000
 11
398.2857142857105
 21
210.3747693646559
 31
0.000000000000000
  0
ARC
  5
1A5
100
AcDbEntity
  8
1
  6
CONTINUOUS
 62
7
100
AcDbCircle
 10
356.7857142857105
 20
201.3673003646558
 30
0.000000000000000
 40
1.000000000000000
100
AcDbArc
 50
359.9999899999990
 51
434.9999899999987
  0
LINE
  5
1A6
100
AcDbEntity
  8
1
  6
CONTINUOUS
 62
7
100
AcDbLine
 10
357.7857142857105
 20
197.9473633646558
 30
0.000000000000000
 11
357.7857142857105
 21
218.1747723646559
 31
0.000000000000000
  0
ARC
  5
1A7
100
AcDbEntity
  8
1
  6
CONTINUOUS
 62
7
100
AcDbCircle
 10
361.7857142857106
 20
197.9473633646558
 30
0.000000000000000
 40
4.000000000000000
100
AcDbArc
 50
180.0000000000000
 51
264.1030400000000
  0
LINE
  5
1A8
100
AcDbEntity
  8
1
  6
CONTINUOUS
 62
7
100
AcDbLine
 10
356.0268942857106
 20
202.6059013646559
 30
0.000000000000000
 11
357.0445302857107
 21
202.3332273646559
 31
0.000000000000000
  0
LINE
  5
1A9
100
AcDbEntity
  8
1
  6
CONTINUOUS
 62
7
100
AcDbLine
 10
349.4150269587033
 20
209.1747723646559
 30
0.000000000000000
 11
346.2857142857105
 21
209.1747723646559
 31
0.000000000000000
  0
LINE
  5
1AA
100
AcDbEntity
  8
1
  6
CONTINUOUS
 62
7
100
AcDbLine
 10
354.2857182857105
 20
210.8747773646558
 30
0.000000000000000
 11
354.7857102857104
 21
210.3747773646557
 31
0.000000000000000
  0
LINE
  5
1AB
100
AcDbEntity
  8
1
  6
CONTINUOUS
 62
7
100
AcDbLine
 10
354.7857142857105
 20
210.3747693646559
 30
0.000000000000000
 11
355.2857142857106
 21
210.3747693646559
 31
0.000000000000000
  0
ARC
  5
1AC
100
AcDbEntity
  8
1
  6
CONTINUOUS
 62
7
100
AcDbCircle
 10
356.2857142857105
 20
203.5718293646558
 30
0.000000000000000
 40
1.000000000000000
100
AcDbArc
 50
180.0000000000000
 51
254.9999600000000
  0
LINE
  5
1AD
100
AcDbEntity
  8
1
  6
CONTINUOUS
 62
7
100
AcDbLine
 10
354.2857142857105
 20
206.1747723646558
 30
0.000000000000000
 11
350.2857142857105
 21
206.1747723646558
 31
0.000000000000000
  0
LINE
  5
1AE
100
AcDbEntity
  8
1
  6
CONTINUOUS
 62
7
100
AcDbLine
 10
346.2857142857105
 20
209.1747723646558
 30
0.000000000000000
 11
345.2857142857105
 21
211.1747723646558
 31
0.000000000000000
  0
ARC
  5
1AF
100
AcDbEntity
  8
1
  6
CONTINUOUS
 62
7
100
AcDbCircle
 10
376.7857142857105
 20
93.17477236465595
 30
0.000000000000000
 40
150.0000000000000
100
AcDbArc
 50
84.10304169124275
 51
95.89695798875540
  0
ARC
  5
1B0
100
AcDbEntity
  8
1
  6
CONTINUOUS
 62
7
100
AcDbCircle
 10
396.7857142857106
 20
234.9822443646558
 30
0.000000000000000
 40
1.000000000000000
100
AcDbArc
 50
180.0000000000000
 51
254.9999899999987
  0
LINE
  5
1B1
100
AcDbEntity
  8
1
  6
CONTINUOUS
 62
7
100
AcDbLine
 10
397.5445382857105
 20
233.7436433646558
 30
0.000000000000000
 11
396.5268942857105
 21
234.0163213646559
 31
0.000000000000000
  0
ARC
  5
1B2
100
AcDbEntity
  8
1
  6
CONTINUOUS
 62
7
100
AcDbCircle
 10
397.2857142857106
 20
232.7777153646558
 30
0.000000000000000
 40
1.000000000000000
100
AcDbArc
 50
3.999999751900000e-05
 51
74.99994999999613
  0
LINE
  5
1B3
100
AcDbEntity
  8
1
  6
CONTINUOUS
 62
7
100
AcDbLine
 10
399.2857062857106
 20
225.4747753646560
 30
0.000000000000000
 11
398.7857112857104
 21
225.9747713646559
 31
0.000000000000000
  0
LINE
  5
1B4
100
AcDbEntity
  8
1
  6
CONTINUOUS
 62
7
100
AcDbLine
 10
398.7857142857106
 20
225.9747713646557
 30
0.000000000000000
 11
398.2857142857105
 21
225.9747713646557
 31
0.000000000000000
  0
ARC
  5
1B5
100
AcDbEntity
  8
1
  6
CONTINUOUS
 62
7
100
AcDbCircle
 10
391.7857142857105
 20
238.4021813646558
 30
0.000000000000000
 40
4.000000000000000
100
AcDbArc
 50
359.9999899999990
 51
369.3991320405863
  0
LINE
  5
1B6
100
AcDbEntity
  8
1
  6
CONTINUOUS
 62
7
100
AcDbLine
 10
356.0268982857105
 20
233.7436393646557
 30
0.000000000000000
 11
357.0445342857107
 21
234.0163133646558
 31
0.000000000000000
  0
ARC
  5
1B7
100
AcDbEntity
  8
1
  6
CONTINUOUS
 62
7
100
AcDbCircle
 10
356.7857142857105
 20
234.9822443646558
 30
0.000000000000000
 40
1.000000000000000
100
AcDbArc
 50
285.0000199999972
 51
360.0000100000010
  0
ARC
  5
1B8
100
AcDbEntity
  8
1
  6
CONTINUOUS
 62
7
100
AcDbCircle
 10
361.7857142857106
 20
238.4021813646558
 30
0.000000000000000
 40
4.000000000000000
100
AcDbArc
 50
95.89695700000117
 51
108.1272261802696
  0
ARC
  5
1B9
100
AcDbEntity
  8
1
  6
CONTINUOUS
 62
7
100
AcDbCircle
 10
356.2857142857105
 20
232.7777153646558
 30
0.000000000000000
 40
1.000000000000000
100
AcDbArc
 50
105.0000350000020
 51
180.0000000000000
  0
LINE
  5
1BA
100
AcDbEntity
  8
1
  6
CONTINUOUS
 62
7
100
AcDbLine
 10
354.2857182857105
 20
225.4747753646558
 30
0.000000000000000
 11
354.7857102857105
 21
225.9747713646557
 31
0.000000000000000
  0
LINE
  5
1BB
100
AcDbEntity
  8
1
  6
CONTINUOUS
 62
7
100
AcDbLine
 10
354.7857142857105
 20
225.9747713646557
 30
0.000000000000000
 11
355.2857142857106
 21
225.9747713646557
 31
0.000000000000000
  0
ARC
  5
1BC
100
AcDbEntity
  8
1
  6
CONTINUOUS
 62
7
100
AcDbCircle
 10
349.7857142857105
 20
252.7026363646558
 30
0.000000000000000
 40
5.000000000000000
100
AcDbArc
 50
131.8103146092979
 51
179.1964370500024
  0
LINE
  5
1BD
100
AcDbEntity
  8
1
  6
CONTINUOUS
 62
7
100
AcDbLine
 10
346.7857222857105
 20
265.1747773646560
 30
0.000000000000000
 11
347.8420462857107
 21
261.5747773646558
 31
0.000000000000000
  0
LINE
  5
1BE
100
AcDbEntity
  8
1
  6
CONTINUOUS
 62
7
100
AcDbLine
 10
346.7857142857106
 20
258.1747723646559
 30
0.000000000000000
 11
346.7857142857106
 21
257.1747723646559
 31
0.000000000000000
  0
ARC
  5
1BF
100
AcDbEntity
  8
1
  6
CONTINUOUS
 62
7
100
AcDbCircle
 10
345.7857142857105
 20
257.1747723646559
 30
0.000000000000000
 40
1.000000000000000
100
AcDbArc
 50
311.8104100000010
 51
360.0000200000020
  0
ARC
  5
1C0
100
AcDbEntity
  8
1
  6
CONTINUOUS
 62
7
100
AcDbCircle
 10
352.7857142857105
 20
258.1747723646559
 30
0.000000000000000
 40
6.000000000000000
100
AcDbArc
 50
145.4818800000003
 51
180.0000000000000
  0
LINE
  5
1C1
100
AcDbEntity
  8
1
  6
CONTINUOUS
 62
7
100
AcDbLine
 10
335.7857142857105
 20
272.1747723646559
 30
0.000000000000000
 11
335.7857142857105
 21
268.9747725646559
 31
0.000000000000000
  0
CIRCLE
  5
1C2
100
AcDbEntity
  8
2
  6
CONTINUOUS
 62
4
100
AcDbCircle
 10
546.7857142857106
 20
218.1747723646559
 30
0.000000000000000
 40
4.187999999999998
  0
LINE
  5
1C3
100
AcDbEntity
  8
1
  6
CONTINUOUS
 62
7
100
AcDbLine
 10
399.2857142857106
 20
227.6747723646558
 30
0.000000000000000
 11
399.2857142857106
 21
206.1747723646558
 31
0.000000000000000
  0
LINE
  5
1C4
100
AcDbEntity
  8
1
  6
CONTINUOUS
 62
7
100
AcDbLine
 10
403.2852061302562
 20
207.5230186589330
 30
0.000000000000000
 11
403.2857142857106
 21
206.1747723646558
 31
0.000000000000000
  0
LINE
  5
1C5
100
AcDbEntity
  8
1
  6
CONTINUOUS
 62
7
100
AcDbLine
 10
354.2857142857069
 20
227.6747723646525
 30
0.000000000000000
 11
354.2857142857105
 21
206.1747723646558
 31
0.000000000000000
  0
LINE
  5
1C6
100
AcDbEntity
  8
1
  6
CONTINUOUS
 62
7
100
AcDbLine
 10
346.2857142857105
 20
211.5334364407094
 30
0.000000000000000
 11
346.2857142857105
 21
209.1747723646559
 31
0.000000000000000
  0
LINE
  5
1C7
100
AcDbEntity
  8
1
  6
CONTINUOUS
 62
7
100
AcDbLine
 10
345.2857142857106
 20
213.0104837775155
 30
0.000000000000000
 11
345.2857142857105
 21
211.1747723646559
 31
0.000000000000000
  0
LINE
  5
1C8
100
AcDbEntity
  8
1
  6
CONTINUOUS
 62
7
100
AcDbLine
 10
227.0131232857105
 20
92.17477236465777
 30
0.000000000000000
 11
206.7857142857107
 21
92.17477236465777
 31
0.000000000000000
  0
LINE
  5
1C9
100
AcDbEntity
  8
1
  6
CONTINUOUS
 62
7
100
AcDbLine
 10
186.5583052857106
 20
54.17477236465778
 30
0.000000000000000
 11
227.0131232857105
 21
54.17477236465778
 31
0.000000000000000
  0
LINE
  5
1CA
100
AcDbEntity
  8
1
  6
CONTINUOUS
 62
7
100
AcDbLine
 10
186.5583052857106
 20
92.17477236465777
 30
0.000000000000000
 11
206.7857142857107
 21
92.17477236465777
 31
0.000000000000000
  0
ARC
  5
1CB
100
AcDbEntity
  8
1
  6
CONTINUOUS
 62
7
100
AcDbCircle
 10
189.9782422857106
 20
93.17477236465780
 30
0.000000000000000
 40
1.000000000000000
100
AcDbArc
 50
269.9999899999990
 51
344.9999899999987
  0
ARC
  5
1CC
100
AcDbEntity
  8
1
  6
CONTINUOUS
 62
7
100
AcDbCircle
 10
223.5931862857105
 20
93.17477236465780
 30
0.000000000000000
 40
1.000000000000000
100
AcDbArc
 50
195.0000199999971
 51
270.0000100000010
  0
ARC
  5
1CD
100
AcDbEntity
  8
1
  6
CONTINUOUS
 62
7
100
AcDbCircle
 10
81.78571428571071
 20
73.17477236465781
 30
0.000000000000000
 40
150.0000000000000
100
AcDbArc
 50
354.1030416912425
 51
365.8969579887554
  0
ARC
  5
1CE
100
AcDbEntity
  8
1
  6
CONTINUOUS
 62
7
100
AcDbCircle
 10
227.0131232857105
 20
58.17477236465779
 30
0.000000000000000
 40
4.000000000000000
100
AcDbArc
 50
269.9999899999990
 51
354.1030309999964
  0
ARC
  5
1CF
100
AcDbEntity
  8
1
  6
CONTINUOUS
 62
7
100
AcDbCircle
 10
227.0131232857105
 20
88.17477236465780
 30
0.000000000000000
 40
4.000000000000000
100
AcDbArc
 50
5.896957000001147
 51
89.99999999999999
  0
ARC
  5
1D0
100
AcDbEntity
  8
1
  6
CONTINUOUS
 62
7
100
AcDbCircle
 10
331.7857142857107
 20
73.17477236465776
 30
0.000000000000000
 40
150.0000000000000
100
AcDbArc
 50
174.1030419312430
 51
185.8969583354219
  0
ARC
  5
1D1
100
AcDbEntity
  8
1
  6
CONTINUOUS
 62
7
100
AcDbCircle
 10
186.5583052857106
 20
58.17477236465779
 30
0.000000000000000
 40
4.000000000000000
100
AcDbArc
 50
185.8969700000004
 51
270.0000100000010
  0
ARC
  5
1D2
100
AcDbEntity
  8
1
  6
CONTINUOUS
 62
7
100
AcDbCircle
 10
186.5583052857106
 20
88.17477236465780
 30
0.000000000000000
 40
4.000000000000000
100
AcDbArc
 50
89.99999999999999
 51
174.1030400000000
  0
LINE
  5
1D3
100
AcDbEntity
  8
1
  6
CONTINUOUS
 62
7
100
AcDbLine
 10
191.2168432857106
 20
93.93359236465777
 30
0.000000000000000
 11
190.9441692857104
 21
92.91595636465776
 31
0.000000000000000
  0
ARC
  5
1D4
100
AcDbEntity
  8
1
  6
CONTINUOUS
 62
7
100
AcDbCircle
 10
192.1827712857106
 20
93.67477236465778
 30
0.000000000000000
 40
1.000000000000000
100
AcDbArc
 50
89.99999999999999
 51
164.9999600000000
  0
LINE
  5
1D5
100
AcDbEntity
  8
1
  6
CONTINUOUS
 62
7
100
AcDbLine
 10
192.1827712857106
 20
94.67477236465777
 30
0.000000000000000
 11
221.3886572857105
 21
94.67477236465777
 31
0.000000000000000
  0
LINE
  5
1D6
100
AcDbEntity
  8
1
  6
CONTINUOUS
 62
7
100
AcDbLine
 10
222.3545812857105
 20
93.93358836465779
 30
0.000000000000000
 11
222.6272552857106
 21
92.91595236465776
 31
0.000000000000000
  0
ARC
  5
1D7
100
AcDbEntity
  8
1
  6
CONTINUOUS
 62
7
100
AcDbCircle
 10
221.3886572857105
 20
93.67477236465778
 30
0.000000000000000
 40
1.000000000000000
100
AcDbArc
 50
15.00003500000199
 51
89.99999999999999
  0
LINE
  5
1D8
100
AcDbEntity
  8
1
  6
CONTINUOUS
 62
7
100
AcDbLine
 10
192.1827705875789
 20
51.67477236465778
 30
0.000000000000000
 11
221.3886572857105
 21
51.67477236465778
 31
0.000000000000000
  0
ARC
  5
1D9
100
AcDbEntity
  8
1
  6
CONTINUOUS
 62
7
100
AcDbCircle
 10
223.5931862857105
 20
53.17477236465779
 30
0.000000000000000
 40
1.000000000000000
100
AcDbArc
 50
89.99999999999999
 51
164.9999899999987
  0
LINE
  5
1DA
100
AcDbEntity
  8
1
  6
CONTINUOUS
 62
7
100
AcDbLine
 10
222.3545852857106
 20
52.41594836465774
 30
0.000000000000000
 11
222.6272632857106
 21
53.43359236465776
 31
0.000000000000000
  0
ARC
  5
1DB
100
AcDbEntity
  8
1
  6
CONTINUOUS
 62
7
100
AcDbCircle
 10
221.3886572857105
 20
52.67477236465779
 30
0.000000000000000
 40
1.000000000000000
100
AcDbArc
 50
270.0000399999975
 51
344.9999499999961
  0
ARC
  5
1DC
100
AcDbEntity
  8
1
  6
CONTINUOUS
 62
7
100
AcDbCircle
 10
192.1827712857106
 20
52.67477236465779
 30
0.000000000000000
 40
1.000000000000000
100
AcDbArc
 50
195.0000500000038
 51
269.9999600000024
  0
LINE
  5
1DD
100
AcDbEntity
  8
1
  6
CONTINUOUS
 62
7
100
AcDbLine
 10
191.2168503825732
 20
52.41595373524763
 30
0.000000000000000
 11
190.9441772857105
 21
53.43359436465754
 31
0.000000000000000
  0
ARC
  5
1DE
100
AcDbEntity
  8
1
  6
CONTINUOUS
 62
7
100
AcDbCircle
 10
189.9782422857106
 20
53.17477236465779
 30
0.000000000000000
 40
1.000000000000000
100
AcDbArc
 50
15.00001499999924
 51
89.99999999999999
  0
LINE
  5
1DF
100
AcDbEntity
  8
1
  6
CONTINUOUS
 62
7
100
AcDbLine
 10
198.9857112857106
 20
51.17477236465777
 30
0.000000000000000
 11
214.5857132857105
 21
51.17477236465777
 31
0.000000000000000
  0
LINE
  5
1E0
100
AcDbEntity
  8
1
  6
CONTINUOUS
 62
7
100
AcDbLine
 10
199.4857112857105
 20
50.67478036465772
 30
0.000000000000000
 11
198.9857192857106
 21
51.17477536465785
 31
0.000000000000000
  0
LINE
  5
1E1
100
AcDbEntity
  8
1
  6
CONTINUOUS
 62
7
100
AcDbLine
 10
198.9857112857106
 20
51.17477236465777
 30
0.000000000000000
 11
198.9857112857106
 21
51.67477236465778
 31
0.000000000000000
  0
LINE
  5
1E2
100
AcDbEntity
  8
1
  6
CONTINUOUS
 62
7
100
AcDbLine
 10
214.0857092856946
 20
50.67477236465770
 30
0.000000000000000
 11
214.5857132857105
 21
51.17477536465789
 31
0.000000000000000
  0
LINE
  5
1E3
100
AcDbEntity
  8
1
  6
CONTINUOUS
 62
7
100
AcDbLine
 10
214.5857132857105
 20
51.17477236465777
 30
0.000000000000000
 11
214.5857132857105
 21
51.67477236465778
 31
0.000000000000000
  0
LINE
  5
1E4
100
AcDbEntity
  8
1
  6
CONTINUOUS
 62
7
100
AcDbLine
 10
198.9857112857106
 20
95.17477236465778
 30
0.000000000000000
 11
214.5857132857105
 21
95.17477236465778
 31
0.000000000000000
  0
LINE
  5
1E5
100
AcDbEntity
  8
1
  6
CONTINUOUS
 62
7
100
AcDbLine
 10
199.4857192857106
 20
95.67476836465772
 30
0.000000000000000
 11
198.9857192857104
 21
95.17477636465773
 31
0.000000000000000
  0
LINE
  5
1E6
100
AcDbEntity
  8
1
  6
CONTINUOUS
 62
7
100
AcDbLine
 10
198.9857112857106
 20
95.17477236465778
 30
0.000000000000000
 11
198.9857112857106
 21
94.67477236465777
 31
0.000000000000000
  0
LINE
  5
1E7
100
AcDbEntity
  8
1
  6
CONTINUOUS
 62
7
100
AcDbLine
 10
214.0857132856786
 20
95.67477236465760
 30
0.000000000000000
 11
214.5857132857105
 21
95.17477636465775
 31
0.000000000000000
  0
LINE
  5
1E8
100
AcDbEntity
  8
1
  6
CONTINUOUS
 62
7
100
AcDbLine
 10
214.5857132857105
 20
95.17477236465778
 30
0.000000000000000
 11
214.5857132857105
 21
94.67477236465777
 31
0.000000000000000
  0
LINE
  5
1E9
100
AcDbEntity
  8
1
  6
CONTINUOUS
 62
7
100
AcDbLine
 10
211.0794540777586
 20
99.67477236465766
 30
0.000000000000000
 11
194.7857142857105
 21
99.67477236465766
 31
0.000000000000000
  0
LINE
  5
1EA
100
AcDbEntity
  8
1
  6
CONTINUOUS
 62
7
100
AcDbLine
 10
214.0857132856786
 20
95.67477236465761
 30
0.000000000000000
 11
194.7857142857105
 21
95.67477236465761
 31
0.000000000000000
  0
LINE
  5
1EB
100
AcDbEntity
  8
4
  6
CENTER
 62
1
100
AcDbLine
 10
206.7857142857107
 20
35.69000369447611
 30
0.000000000000000
 11
206.7857142857104
 21
110.6595410348394
 31
0.000000000000000
  0
ARC
  5
1EC
100
AcDbEntity
  8
1
  6
CONTINUOUS
 62
7
100
AcDbCircle
 10
226.7857170782372
 20
85.65547102258152
 30
0.000000000000000
 40
20.00000000000000
100
AcDbArc
 50
90.00000799999931
 51
134.1852003893688
  0
ARC
  5
1ED
100
AcDbEntity
  8
1
  6
CONTINUOUS
 62
7
100
AcDbCircle
 10
211.0794540777586
 20
104.6747723646576
 30
0.000000000000000
 40
5.000000000000000
100
AcDbArc
 50
270.0000000000000
 51
290.6913122988497
  0
LINE
  5
1EE
100
AcDbEntity
  8
1
  6
CONTINUOUS
 62
7
100
AcDbLine
 10
194.7857142857105
 20
99.67477236465766
 30
0.000000000000000
 11
194.7857142857105
 21
95.67477236465761
 31
0.000000000000000
  0
LINE
  5
1EF
100
AcDbEntity
  8
1
  6
CONTINUOUS
 62
7
100
AcDbLine
 10
214.0857092856947
 20
50.67477236465768
 30
0.000000000000000
 11
194.7857142857105
 21
50.67477236465768
 31
0.000000000000000
  0
LINE
  5
1F0
100
AcDbEntity
  8
1
  6
CONTINUOUS
 62
7
100
AcDbLine
 10
211.0794540777586
 20
46.67477236465765
 30
0.000000000000000
 11
194.7857142857105
 21
46.67477236465765
 31
0.000000000000000
  0
LINE
  5
1F1
100
AcDbEntity
  8
1
  6
CONTINUOUS
 62
7
100
AcDbLine
 10
194.7857142857105
 20
46.67477236465765
 30
0.000000000000000
 11
194.7857142857105
 21
50.67477236465768
 31
0.000000000000000
  0
ARC
  5
1F2
100
AcDbEntity
  8
1
  6
CONTINUOUS
 62
7
100
AcDbCircle
 10
226.7857142857105
 20
73.17477236465776
 30
0.000000000000000
 40
12.00000000000000
100
AcDbArc
 50
292.4868427080076
 51
427.5131572919923
  0
ARC
  5
1F3
100
AcDbEntity
  8
1
  6
CONTINUOUS
 62
7
100
AcDbCircle
 10
226.7857142857105
 20
73.17477236465776
 30
0.000000000000000
 40
23.56426999999985
100
AcDbArc
 50
245.8389123863113
 51
474.1610876136886
  0
ARC
  5
1F4
100
AcDbEntity
  8
1
  6
CONTINUOUS
 62
7
100
AcDbCircle
 10
226.7857142857105
 20
73.17477236465776
 30
0.000000000000000
 40
15.56426999999985
100
AcDbArc
 50
285.8498593771333
 51
434.1501406228666
  0
ARC
  5
1F5
100
AcDbEntity
  8
1
  6
CONTINUOUS
 62
7
100
AcDbCircle
 10
226.7857142857105
 20
73.17477236465776
 30
0.000000000000000
 40
7.500000000000000
100
AcDbArc
 50
310.7151504268500
 51
409.2848495731499
  0
ARC
  5
1F6
100
AcDbEntity
  8
1
  6
CONTINUOUS
 62
7
100
AcDbCircle
 10
211.0794540777586
 20
104.6747723646576
 30
0.000000000000000
 40
9.000000000000000
100
AcDbArc
 50
270.0000000000000
 51
297.0224906841098
  0
ARC
  5
1F7
100
AcDbEntity
  8
1
  6
CONTINUOUS
 62
7
100
AcDbCircle
 10
226.7857170782372
 20
85.65547102258152
 30
0.000000000000000
 40
16.00000000000000
100
AcDbArc
 50
89.56505242732187
 51
136.5583542089195
  0
ARC
  5
1F8
100
AcDbEntity
  8
1
  6
CONTINUOUS
 62
7
100
AcDbCircle
 10
226.7857170782372
 20
60.69407370673379
 30
0.000000000000000
 40
20.00000000000000
100
AcDbArc
 50
225.8147996106311
 51
269.9999920000005
  0
ARC
  5
1F9
100
AcDbEntity
  8
1
  6
CONTINUOUS
 62
7
100
AcDbCircle
 10
226.7857170782372
 20
60.69407370673379
 30
0.000000000000000
 40
16.00000000000000
100
AcDbArc
 50
223.4416457910804
 51
270.4349475726781
  0
ARC
  5
1FA
100
AcDbEntity
  8
1
  6
CONTINUOUS
 62
7
100
AcDbCircle
 10
211.0794540777586
 20
41.67477236465765
 30
0.000000000000000
 40
5.000000000000000
100
AcDbArc
 50
69.30868770115043
 51
90.00000000000006
  0
ARC
  5
1FB
100
AcDbEntity
  8
1
  6
CONTINUOUS
 62
7
100
AcDbCircle
 10
211.0794540777586
 20
41.67477236465765
 30
0.000000000000000
 40
9.000000000000000
100
AcDbArc
 50
62.97750931589021
 51
90.00000000000006
  0
LINE
  5
1FC
100
AcDbEntity
  8
1
  6
CONTINUOUS
 62
7
100
AcDbLine
 10
199.7857022857106
 20
104.6747803646577
 30
0.000000000000000
 11
197.7857022857106
 21
103.6747803646577
 31
0.000000000000000
  0
LINE
  5
1FD
100
AcDbEntity
  8
1
  6
CONTINUOUS
 62
7
100
AcDbLine
 10
197.7857102857105
 20
103.6747723646577
 30
0.000000000000000
 11
215.7857102857104
 21
103.6747723646577
 31
0.000000000000000
  0
LINE
  5
1FE
100
AcDbEntity
  8
1
  6
CONTINUOUS
 62
7
100
AcDbLine
 10
199.7857102857105
 20
104.6747723646577
 30
0.000000000000000
 11
213.7857102857104
 21
104.6747723646577
 31
0.000000000000000
  0
LINE
  5
1FF
100
AcDbEntity
  8
1
  6
CONTINUOUS
 62
7
100
AcDbLine
 10
215.7857102857105
 20
103.6747723646577
 30
0.000000000000000
 11
213.7857102857105
 21
104.6747723646577
 31
0.000000000000000
  0
LINE
  5
200
100
AcDbEntity
  8
1
  6
CONTINUOUS
 62
7
100
AcDbLine
 10
215.7857102857104
 20
102.3587596378322
 30
0.000000000000000
 11
215.7857102857104
 21
103.6747723646577
 31
0.000000000000000
  0
LINE
  5
201
100
AcDbEntity
  8
1
  6
CONTINUOUS
 62
7
100
AcDbLine
 10
197.7857102857105
 20
99.67477236465777
 30
0.000000000000000
 11
197.7857102857105
 21
103.6747723646577
 31
0.000000000000000
  0
LINE
  5
202
100
AcDbEntity
  8
4
  6
CENTER
 62
1
100
AcDbLine
 10
206.7857142857104
 20
333.1747723646540
 30
0.000000000000000
 11
206.7857142857104
 21
393.1747723646541
 31
0.000000000000000
  0
LINE
  5
203
100
AcDbEntity
  8
1
  6
CONTINUOUS
 62
7
100
AcDbLine
 10
185.7857142857105
 20
54.25009363300103
 30
0.000000000000000
 11
185.7857142857105
 21
41.67477236465765
 31
0.000000000000000
  0
LINE
  5
204
100
AcDbEntity
  8
1
  6
CONTINUOUS
 62
7
100
AcDbLine
 10
185.7857142857105
 20
54.25009363300104
 30
0.000000000000000
 11
185.7857142857105
 21
45.97220327957642
 31
0.000000000000000
  0
ARC
  5
205
100
AcDbEntity
  8
1
  6
CONTINUOUS
 62
7
100
AcDbCircle
 10
228.8064885333499
 20
73.17477236465766
 30
0.000000000000000
 40
32.54349879571597
100
AcDbArc
 50
266.4399534954372
 51
453.5600465045626
  0
ARC
  5
206
100
AcDbEntity
  8
1
  6
CONTINUOUS
 62
7
100
AcDbCircle
 10
228.8064885333499
 20
73.17477236465766
 30
0.000000000000000
 40
28.54349879571596
100
AcDbArc
 50
266.1846636853713
 51
453.8153363146286
  0
ARC
  5
207
100
AcDbEntity
  8
1
  6
CONTINUOUS
 62
7
100
AcDbCircle
 10
379.2857142857105
 20
227.6747723646558
 30
0.000000000000000
 40
20.00000000000000
100
AcDbArc
 50
0.000000000000000
 51
90.00000000000000
  0
ARC
  5
208
100
AcDbEntity
  8
1
  6
CONTINUOUS
 62
7
100
AcDbCircle
 10
400.7859732857103
 20
217.0109693646559
 30
0.000000000000000
 40
8.500000000000000
100
AcDbArc
 50
295.3722995165490
 51
384.2454282098029
  0
LINE
  5
209
100
AcDbEntity
  8
1
  6
CONTINUOUS
 62
7
100
AcDbLine
 10
379.2857142857105
 20
247.6747723646558
 30
0.000000000000000
 11
374.2857142857106
 21
247.6747723646558
 31
0.000000000000000
  0
ARC
  5
20A
100
AcDbEntity
  8
1
  6
CONTINUOUS
 62
7
100
AcDbCircle
 10
391.7857142857105
 20
238.4021813646558
 30
0.000000000000000
 40
4.000000000000000
100
AcDbArc
 50
71.87277381973034
 51
84.10303099999659
  0
ARC
  5
20B
100
AcDbEntity
  8
1
  6
CONTINUOUS
 62
7
100
AcDbCircle
 10
405.2852059882016
 20
207.5237724609950
 30
0.000000000000000
 40
2.000000000000000
100
AcDbArc
 50
115.3722995165496
 51
180.0215948388843
  0
ARC
  5
20C
100
AcDbEntity
  8
1
  6
CONTINUOUS
 62
7
100
AcDbCircle
 10
405.2852059882016
 20
207.5237724609950
 30
0.000000000000000
 40
6.000000000000000
100
AcDbArc
 50
115.3722995165496
 51
180.0215948388843
  0
ARC
  5
20D
100
AcDbEntity
  8
1
  6
CONTINUOUS
 62
7
100
AcDbCircle
 10
400.7859732857103
 20
217.0109693646559
 30
0.000000000000000
 40
4.500000000000000
100
AcDbArc
 50
295.3722995165490
 51
383.3901671594015
  0
LINE
  5
20E
100
AcDbEntity
  8
1
  6
CONTINUOUS
 62
7
100
AcDbLine
 10
404.9161757456712
 20
218.7974260922972
 30
0.000000000000000
 11
397.6421696633135
 21
235.6145800430615
 31
0.000000000000000
  0
LINE
  5
20F
100
AcDbEntity
  8
1
  6
CONTINUOUS
 62
7
100
AcDbLine
 10
374.2857142857106
 20
249.5693624471157
 30
0.000000000000000
 11
379.2857142857105
 21
249.5693624471157
 31
0.000000000000000
  0
ARC
  5
210
100
AcDbEntity
  8
1
  6
CONTINUOUS
 62
7
100
AcDbCircle
 10
379.2857142857105
 20
224.5693624471157
 30
0.000000000000000
 40
25.00000000000000
100
AcDbArc
 50
24.24542820980295
 51
90.00000000000000
  0
LINE
  5
211
100
AcDbEntity
  8
1
  6
CONTINUOUS
 62
7
100
AcDbLine
 10
408.5362291968763
 20
220.5014612084277
 30
0.000000000000000
 11
402.0805846126690
 21
234.8355149287976
 31
0.000000000000000
  0
ARC
  5
212
100
AcDbEntity
  8
1
  6
CONTINUOUS
 62
7
100
AcDbCircle
 10
374.2857142857106
 20
227.6747723646558
 30
0.000000000000000
 40
20.00000000000000
100
AcDbArc
 50
90.00000000000000
 51
180.0000000000000
  0
ARC
  5
213
100
AcDbEntity
  8
1
  6
CONTINUOUS
 62
7
100
AcDbCircle
 10
374.2857142857106
 20
224.5693624471157
 30
0.000000000000000
 40
25.00000000000000
100
AcDbArc
 50
90.00000000000000
 51
155.7545717901970
  0
ARC
  5
214
100
AcDbEntity
  8
1
  6
CONTINUOUS
 62
7
100
AcDbCircle
 10
211.0357134254166
 20
52.60477331465768
 30
0.000000000000000
 40
10.92999999999999
100
AcDbArc
 50
252.6026673009214
 51
287.3973033417409
  0
ARC
  5
215
100
AcDbEntity
  8
1
  6
CONTINUOUS
 62
7
100
AcDbCircle
 10
211.0357134254166
 20
32.92477333965740
 30
0.000000000000000
 40
13.75000000000000
100
AcDbArc
 50
89.54164263998022
 51
105.4987166043653
  0
LINE
  5
216
100
AcDbEntity
  8
1
  6
CONTINUOUS
 62
7
100
AcDbLine
 10
214.0857172857105
 20
40.07478251465733
 30
0.000000000000000
 11
199.4857152857106
 21
40.07478251465754
 31
0.000000000000000
  0
LINE
  5
217
100
AcDbEntity
  8
1
  6
CONTINUOUS
 62
7
100
AcDbLine
 10
215.2857142857105
 20
41.67477331465767
 30
0.000000000000000
 11
198.2857142857106
 21
41.67477331465767
 31
0.000000000000000
  0
LINE
  5
218
100
AcDbEntity
  8
1
  6
CONTINUOUS
 62
7
100
AcDbLine
 10
214.5757938320183
 20
44.85368942094559
 30
0.000000000000000
 11
214.3037383945192
 21
42.17477270097974
 31
0.000000000000000
  0
LINE
  5
219
100
AcDbEntity
  8
1
  6
CONTINUOUS
 62
7
100
AcDbLine
 10
215.2857142857106
 20
42.17477131466077
 30
0.000000000000000
 11
214.3037383945191
 21
42.17477270097972
 31
0.000000000000000
  0
LINE
  5
21A
100
AcDbEntity
  8
1
  6
CONTINUOUS
 62
7
100
AcDbLine
 10
215.2857142857106
 20
41.27477941465764
 30
0.000000000000000
 11
215.2857142857106
 21
44.33100749737434
 31
0.000000000000000
  0
ARC
  5
21B
100
AcDbEntity
  8
1
  6
CONTINUOUS
 62
7
100
AcDbCircle
 10
214.0857172857105
 20
41.27477941465764
 30
0.000000000000000
 40
1.199999999999999
100
AcDbArc
 50
270.0000100000009
 51
360.0000000000000
  0
ARC
  5
21C
100
AcDbEntity
  8
1
  6
CONTINUOUS
 62
7
100
AcDbCircle
 10
202.5357117048286
 20
32.92477333965740
 30
0.000000000000000
 40
13.75000000000000
100
AcDbArc
 50
74.50128339563462
 51
105.4987643342327
  0
ARC
  5
21D
100
AcDbEntity
  8
1
  6
CONTINUOUS
 62
7
100
AcDbCircle
 10
202.5357117048286
 20
52.60477331465768
 30
0.000000000000000
 40
10.92999999999999
100
AcDbArc
 50
252.6026966582590
 51
287.3973326990786
  0
LINE
  5
21E
100
AcDbEntity
  8
1
  6
CONTINUOUS
 62
7
100
AcDbLine
 10
202.5357142857106
 20
39.17477331465767
 30
0.000000000000000
 11
211.0357142857105
 21
39.17477331465767
 31
0.000000000000000
  0
LINE
  5
21F
100
AcDbEntity
  8
1
  6
CONTINUOUS
 62
7
100
AcDbLine
 10
201.7857142857106
 20
39.92477331465767
 30
0.000000000000000
 11
211.7857142857105
 21
39.92477331465767
 31
0.000000000000000
  0
LINE
  5
220
100
AcDbEntity
  8
1
  6
CONTINUOUS
 62
7
100
AcDbLine
 10
207.3614825465444
 20
46.17477437545897
 30
0.000000000000000
 11
206.2099425837007
 21
46.17477437545897
 31
0.000000000000000
  0
LINE
  5
221
100
AcDbEntity
  8
1
  6
CONTINUOUS
 62
7
100
AcDbLine
 10
205.8037420180774
 20
42.17477437545897
 30
0.000000000000000
 11
207.7676831121676
 21
42.17477437545897
 31
0.000000000000000
  0
LINE
  5
222
100
AcDbEntity
  8
1
  6
CONTINUOUS
 62
7
100
AcDbLine
 10
205.8037420180773
 20
42.17477437545892
 30
0.000000000000000
 11
206.2099425837006
 21
46.17477437545897
 31
0.000000000000000
  0
LINE
  5
223
100
AcDbEntity
  8
1
  6
CONTINUOUS
 62
7
100
AcDbLine
 10
207.7676831121679
 20
42.17477437545892
 30
0.000000000000000
 11
207.3614825465445
 21
46.17477437545899
 31
0.000000000000000
  0
LINE
  5
224
100
AcDbEntity
  8
2
  6
CONTINUOUS
 62
4
100
AcDbLine
 10
210.9737142857105
 20
39.17477331465732
 30
0.000000000000000
 11
210.9737142857105
 21
40.07478251465744
 31
0.000000000000000
  0
LINE
  5
225
100
AcDbEntity
  8
1
  6
CONTINUOUS
 62
7
100
AcDbLine
 10
211.7857142857105
 20
39.92477331465767
 30
0.000000000000000
 11
211.7857142857105
 21
40.07478251465778
 31
0.000000000000000
  0
LINE
  5
226
100
AcDbEntity
  8
1
  6
CONTINUOUS
 62
7
100
AcDbLine
 10
211.7857292857105
 20
39.92476171465756
 30
0.000000000000000
 11
211.0357252857105
 21
39.17476091465785
 31
0.000000000000000
  0
LINE
  5
227
100
AcDbEntity
  8
1
  6
CONTINUOUS
 62
7
100
AcDbLine
 10
198.8614697881326
 20
46.17477131466079
 30
0.000000000000000
 11
198.2857108445346
 21
46.17477131466079
 31
0.000000000000000
  0
LINE
  5
228
100
AcDbEntity
  8
1
  6
CONTINUOUS
 62
7
100
AcDbLine
 10
198.2857108445346
 20
42.17477131466077
 30
0.000000000000000
 11
199.2676867357258
 21
42.17477270097972
 31
0.000000000000000
  0
LINE
  5
229
100
AcDbEntity
  8
1
  6
CONTINUOUS
 62
7
100
AcDbLine
 10
198.8614697881326
 20
46.17477131466077
 30
0.000000000000000
 11
199.2676867357258
 21
42.17477270097972
 31
0.000000000000000
  0
LINE
  5
22A
100
AcDbEntity
  8
1
  6
CONTINUOUS
 62
7
100
AcDbLine
 10
198.2857142857106
 20
41.27477941465764
 30
0.000000000000000
 11
198.2857142857106
 21
46.67477041465764
 31
0.000000000000000
  0
LINE
  5
22B
100
AcDbEntity
  8
2
  6
CONTINUOUS
 62
4
100
AcDbLine
 10
202.5977142857105
 20
39.17477331465732
 30
0.000000000000000
 11
202.5977142857105
 21
40.07478251465744
 31
0.000000000000000
  0
LINE
  5
22C
100
AcDbEntity
  8
1
  6
CONTINUOUS
 62
7
100
AcDbLine
 10
201.7857142857106
 20
39.92477331465767
 30
0.000000000000000
 11
201.7857142857106
 21
40.07478251465778
 31
0.000000000000000
  0
LINE
  5
22D
100
AcDbEntity
  8
1
  6
CONTINUOUS
 62
7
100
AcDbLine
 10
202.5357252857105
 20
39.17475823465753
 30
0.000000000000000
 11
201.7857182857105
 21
39.92476441465767
 31
0.000000000000000
  0
ARC
  5
22E
100
AcDbEntity
  8
1
  6
CONTINUOUS
 62
7
100
AcDbCircle
 10
199.4857152857106
 20
41.27477941465764
 30
0.000000000000000
 40
1.199999999999999
100
AcDbArc
 50
180.0000029999976
 51
270.0000100000009
  0
LINE
  5
22F
100
AcDbEntity
  8
1
  6
CONTINUOUS
 62
7
100
AcDbLine
 10
348.6552528257500
 20
218.7974260922973
 30
0.000000000000000
 11
355.9292589081077
 21
235.6145800430616
 31
0.000000000000000
  0
LINE
  5
230
100
AcDbEntity
  8
1
  6
CONTINUOUS
 62
7
100
AcDbLine
 10
345.0351993745446
 20
220.5014612084277
 30
0.000000000000000
 11
351.4908439587520
 21
234.8355149287976
 31
0.000000000000000
  0
ARC
  5
231
100
AcDbEntity
  8
1
  6
CONTINUOUS
 62
7
100
AcDbCircle
 10
352.7854552857106
 20
217.0109693646559
 30
0.000000000000000
 40
4.500000000000000
100
AcDbArc
 50
156.6098328405985
 51
244.6277004834509
  0
ARC
  5
232
100
AcDbEntity
  8
1
  6
CONTINUOUS
 62
7
100
AcDbCircle
 10
352.7854552857106
 20
217.0109693646559
 30
0.000000000000000
 40
8.500000000000000
100
AcDbArc
 50
155.7545717901970
 51
244.6277004834509
  0
ARC
  5
233
100
AcDbEntity
  8
1
  6
CONTINUOUS
 62
7
100
AcDbCircle
 10
348.2862225832194
 20
207.5237724609950
 30
0.000000000000000
 40
6.000000000000000
100
AcDbArc
 50
359.9784051611156
 51
424.6277004834504
  0
ARC
  5
234
100
AcDbEntity
  8
1
  6
CONTINUOUS
 62
7
100
AcDbCircle
 10
348.2862225832194
 20
207.5237724609950
 30
0.000000000000000
 40
2.000000000000000
100
AcDbArc
 50
359.9784051611156
 51
424.6277004834504
  0
LINE
  5
235
100
AcDbEntity
  8
1
  6
CONTINUOUS
 62
7
100
AcDbLine
 10
350.2862224411650
 20
207.5230186589328
 30
0.000000000000000
 11
350.2857142857105
 21
206.1747723646558
 31
0.000000000000000
  0
ARC
  5
236
100
AcDbEntity
  8
1
  6
CONTINUOUS
 62
7
100
AcDbCircle
 10
361.7857142857106
 20
238.4021813646558
 30
0.000000000000000
 40
4.000000000000000
100
AcDbArc
 50
170.6008679594136
 51
180.0000000000000
  0
ARC
  5
237
100
AcDbEntity
  8
1
  6
CONTINUOUS
 62
7
100
AcDbCircle
 10
258.2857142857105
 20
104.6747723646574
 30
0.000000000000000
 40
4.400000099999998
100
AcDbArc
 50
134.9999999999992
 51
315.0000000000004
  0
ARC
  5
238
100
AcDbEntity
  8
1
  6
CONTINUOUS
 62
7
100
AcDbCircle
 10
258.7857142857105
 20
105.1747723646575
 30
0.000000000000000
 40
4.400000099999998
100
AcDbArc
 50
315.0000000000004
 51
494.9999999999992
  0
LINE
  5
239
100
AcDbEntity
  8
4
  6
CENTER
 62
1
100
AcDbLine
 10
265.1857143857106
 20
104.6747723646575
 30
0.000000000000000
 11
252.3857141857105
 21
104.6747723646575
 31
0.000000000000000
  0
LINE
  5
23A
100
AcDbEntity
  8
4
  6
CENTER
 62
1
100
AcDbLine
 10
258.2857142857105
 20
98.77477226465749
 30
0.000000000000000
 11
258.2857142857105
 21
111.5747724646576
 31
0.000000000000000
  0
LINE
  5
23B
100
AcDbEntity
  8
1
  6
CONTINUOUS
 62
7
100
AcDbLine
 10
255.6744443777790
 20
108.2860422725889
 30
0.000000000000000
 11
255.1744443777790
 21
107.7860422725890
 31
0.000000000000000
  0
LINE
  5
23C
100
AcDbEntity
  8
1
  6
CONTINUOUS
 62
7
100
AcDbLine
 10
261.8969841936421
 20
102.0635024567257
 30
0.000000000000000
 11
261.3969841936421
 21
101.5635024567258
 31
0.000000000000000
  0
LINE
  5
23D
100
AcDbEntity
  8
4
  6
CENTER
 62
1
100
AcDbLine
 10
258.7857142857105
 20
47.57477246465791
 30
0.000000000000000
 11
258.7857142857105
 21
34.77477226465780
 31
0.000000000000000
  0
LINE
  5
23E
100
AcDbEntity
  8
4
  6
CENTER
 62
1
100
AcDbLine
 10
265.1857143857105
 20
41.17477236465788
 30
0.000000000000000
 11
252.3857141857104
 21
41.17477236465790
 31
0.000000000000000
  0
ARC
  5
23F
100
AcDbEntity
  8
1
  6
CONTINUOUS
 62
7
100
AcDbCircle
 10
258.2857142857104
 20
41.67477236465795
 30
0.000000000000000
 40
4.400000099999998
100
AcDbArc
 50
44.99999999999950
 51
225.0000000000007
  0
ARC
  5
240
100
AcDbEntity
  8
1
  6
CONTINUOUS
 62
7
100
AcDbCircle
 10
258.7857142857105
 20
41.17477236465790
 30
0.000000000000000
 40
4.400000099999998
100
AcDbArc
 50
225.0000000000007
 51
404.9999999999994
  0
LINE
  5
241
100
AcDbEntity
  8
4
  6
CENTER
 62
1
100
AcDbLine
 10
265.1857143857105
 20
41.67477236465788
 30
0.000000000000000
 11
252.3857141857104
 21
41.67477236465790
 31
0.000000000000000
  0
LINE
  5
242
100
AcDbEntity
  8
4
  6
CENTER
 62
1
100
AcDbLine
 10
258.2857142857105
 20
47.57477246465791
 30
0.000000000000000
 11
258.2857142857105
 21
34.77477226465780
 31
0.000000000000000
  0
LINE
  5
243
100
AcDbEntity
  8
1
  6
CONTINUOUS
 62
7
100
AcDbLine
 10
255.6744443777789
 20
38.06350245672645
 30
0.000000000000000
 11
255.1744443777789
 21
38.56350245672643
 31
0.000000000000000
  0
LINE
  5
244
100
AcDbEntity
  8
1
  6
CONTINUOUS
 62
7
100
AcDbLine
 10
261.8969841936421
 20
44.28604227258964
 30
0.000000000000000
 11
261.3969841936421
 21
44.78604227258960
 31
0.000000000000000
  0
LINE
  5
245
100
AcDbEntity
  8
4
  6
CENTER
 62
1
100
AcDbLine
 10
194.7857142857104
 20
47.57477246465791
 30
0.000000000000000
 11
194.7857142857104
 21
34.77477226465780
 31
0.000000000000000
  0
LINE
  5
246
100
AcDbEntity
  8
4
  6
CENTER
 62
1
100
AcDbLine
 10
188.3857141857103
 20
41.17477236465788
 30
0.000000000000000
 11
201.1857143857104
 21
41.17477236465790
 31
0.000000000000000
  0
ARC
  5
247
100
AcDbEntity
  8
1
  6
CONTINUOUS
 62
7
100
AcDbCircle
 10
194.7857142857104
 20
41.17477236465790
 30
0.000000000000000
 40
4.400000099999998
100
AcDbArc
 50
135.0000000000005
 51
314.9999999999993
  0
LINE
  5
248
100
AcDbEntity
  8
4
  6
CENTER
 62
1
100
AcDbLine
 10
188.3857141857103
 20
41.67477236465788
 30
0.000000000000000
 11
201.1857143857104
 21
41.67477236465790
 31
0.000000000000000
  0
LINE
  5
249
100
AcDbEntity
  8
4
  6
CENTER
 62
1
100
AcDbLine
 10
195.2857142857104
 20
47.57477246465791
 30
0.000000000000000
 11
195.2857142857104
 21
34.77477226465780
 31
0.000000000000000
  0
LINE
  5
24A
100
AcDbEntity
  8
1
  6
CONTINUOUS
 62
7
100
AcDbLine
 10
197.8969841936420
 20
38.06350245672643
 30
0.000000000000000
 11
198.3969841936419
 21
38.56350245672640
 31
0.000000000000000
  0
LINE
  5
24B
100
AcDbEntity
  8
1
  6
CONTINUOUS
 62
7
100
AcDbLine
 10
191.6744443777788
 20
44.28604227258965
 30
0.000000000000000
 11
192.1744443777788
 21
44.78604227258960
 31
0.000000000000000
  0
ARC
  5
24C
100
AcDbEntity
  8
1
  6
CONTINUOUS
 62
7
100
AcDbCircle
 10
195.2857142857105
 20
41.67477236465795
 30
0.000000000000000
 40
4.400000099999998
100
AcDbArc
 50
314.9999999999993
 51
338.7342853829660
  0
ARC
  5
24D
100
AcDbEntity
  8
1
  6
CONTINUOUS
 62
7
100
AcDbCircle
 10
195.2857142857105
 20
41.67477236465795
 30
0.000000000000000
 40
4.400000099999998
100
AcDbArc
 50
47.01411513350700
 51
135.0000000000006
  0
LINE
  5
24E
100
AcDbEntity
  8
4
  6
CENTER
 62
1
100
AcDbLine
 10
194.7857142857104
 20
98.77477226465749
 30
0.000000000000000
 11
194.7857142857104
 21
111.5747724646576
 31
0.000000000000000
  0
LINE
  5
24F
100
AcDbEntity
  8
4
  6
CENTER
 62
1
100
AcDbLine
 10
188.3857141857103
 20
105.1747723646575
 30
0.000000000000000
 11
201.1857143857104
 21
105.1747723646575
 31
0.000000000000000
  0
ARC
  5
250
100
AcDbEntity
  8
1
  6
CONTINUOUS
 62
7
100
AcDbCircle
 10
194.7857142857104
 20
105.1747723646575
 30
0.000000000000000
 40
4.400000099999998
100
AcDbArc
 50
45.00000000000076
 51
224.9999999999996
  0
LINE
  5
251
100
AcDbEntity
  8
4
  6
CENTER
 62
1
100
AcDbLine
 10
188.3857141857103
 20
104.6747723646575
 30
0.000000000000000
 11
201.1857143857104
 21
104.6747723646575
 31
0.000000000000000
  0
LINE
  5
252
100
AcDbEntity
  8
4
  6
CENTER
 62
1
100
AcDbLine
 10
195.2857142857104
 20
98.77477226465749
 30
0.000000000000000
 11
195.2857142857104
 21
111.5747724646576
 31
0.000000000000000
  0
LINE
  5
253
100
AcDbEntity
  8
1
  6
CONTINUOUS
 62
7
100
AcDbLine
 10
197.8969841936419
 20
108.2860422725889
 30
0.000000000000000
 11
198.3969841936419
 21
107.7860422725889
 31
0.000000000000000
  0
LINE
  5
254
100
AcDbEntity
  8
1
  6
CONTINUOUS
 62
7
100
AcDbLine
 10
191.6744443777788
 20
102.0635024567257
 30
0.000000000000000
 11
192.1744443777787
 21
101.5635024567258
 31
0.000000000000000
  0
ARC
  5
255
100
AcDbEntity
  8
1
  6
CONTINUOUS
 62
7
100
AcDbCircle
 10
195.2857142857104
 20
104.6747723646574
 30
0.000000000000000
 40
4.400000099999998
100
AcDbArc
 50
224.9999999999996
 51
304.6234712833717
  0
ARC
  5
256
100
AcDbEntity
  8
1
  6
CONTINUOUS
 62
7
100
AcDbCircle
 10
195.2857142857104
 20
104.6747723646574
 30
0.000000000000000
 40
4.400000099999998
100
AcDbArc
 50
359.3472211649473
 51
405.0000000000007
  0
LINE
  5
257
100
AcDbEntity
  8
4
  6
CENTER
 62
1
100
AcDbLine
 10
258.7857142857105
 20
388.7747722646537
 30
0.000000000000000
 11
258.7857142857105
 21
401.5747724646538
 31
0.000000000000000
  0
LINE
  5
258
100
AcDbEntity
  8
4
  6
CENTER
 62
1
100
AcDbLine
 10
265.1857143857105
 20
395.1747723646537
 30
0.000000000000000
 11
252.3857141857105
 21
395.1747723646537
 31
0.000000000000000
  0
ARC
  5
259
100
AcDbEntity
  8
1
  6
CONTINUOUS
 62
7
100
AcDbCircle
 10
258.2857142857105
 20
394.6747723646536
 30
0.000000000000000
 40
4.400000099999998
100
AcDbArc
 50
134.9999999999992
 51
315.0000000000004
  0
ARC
  5
25A
100
AcDbEntity
  8
1
  6
CONTINUOUS
 62
7
100
AcDbCircle
 10
258.7857142857105
 20
395.1747723646537
 30
0.000000000000000
 40
4.400000099999998
100
AcDbArc
 50
315.0000000000004
 51
494.9999999999992
  0
LINE
  5
25B
100
AcDbEntity
  8
4
  6
CENTER
 62
1
100
AcDbLine
 10
265.1857143857105
 20
394.6747723646537
 30
0.000000000000000
 11
252.3857141857105
 21
394.6747723646537
 31
0.000000000000000
  0
LINE
  5
25C
100
AcDbEntity
  8
4
  6
CENTER
 62
1
100
AcDbLine
 10
258.2857142857105
 20
388.7747722646537
 30
0.000000000000000
 11
258.2857142857105
 21
401.5747724646538
 31
0.000000000000000
  0
LINE
  5
25D
100
AcDbEntity
  8
1
  6
CONTINUOUS
 62
7
100
AcDbLine
 10
255.6744443777790
 20
398.2860422725851
 30
0.000000000000000
 11
255.1744443777790
 21
397.7860422725851
 31
0.000000000000000
  0
LINE
  5
25E
100
AcDbEntity
  8
1
  6
CONTINUOUS
 62
7
100
AcDbLine
 10
261.8969841936421
 20
392.0635024567219
 30
0.000000000000000
 11
261.3969841936421
 21
391.5635024567219
 31
0.000000000000000
  0
LINE
  5
25F
100
AcDbEntity
  8
4
  6
CENTER
 62
1
100
AcDbLine
 10
258.7857142857106
 20
337.5747724646543
 30
0.000000000000000
 11
258.7857142857106
 21
324.7747722646542
 31
0.000000000000000
  0
LINE
  5
260
100
AcDbEntity
  8
4
  6
CENTER
 62
1
100
AcDbLine
 10
265.1857143857107
 20
331.1747723646543
 30
0.000000000000000
 11
252.3857141857106
 21
331.1747723646542
 31
0.000000000000000
  0
ARC
  5
261
100
AcDbEntity
  8
1
  6
CONTINUOUS
 62
7
100
AcDbCircle
 10
258.2857142857106
 20
331.6747723646544
 30
0.000000000000000
 40
4.400000099999998
100
AcDbArc
 50
44.99999999999985
 51
225.0000000000011
  0
ARC
  5
262
100
AcDbEntity
  8
1
  6
CONTINUOUS
 62
7
100
AcDbCircle
 10
258.7857142857106
 20
331.1747723646543
 30
0.000000000000000
 40
4.400000099999998
100
AcDbArc
 50
225.0000000000011
 51
404.9999999999998
  0
LINE
  5
263
100
AcDbEntity
  8
4
  6
CENTER
 62
1
100
AcDbLine
 10
265.1857143857106
 20
331.6747723646543
 30
0.000000000000000
 11
252.3857141857106
 21
331.6747723646542
 31
0.000000000000000
  0
LINE
  5
264
100
AcDbEntity
  8
4
  6
CENTER
 62
1
100
AcDbLine
 10
258.2857142857106
 20
337.5747724646543
 30
0.000000000000000
 11
258.2857142857106
 21
324.7747722646542
 31
0.000000000000000
  0
LINE
  5
265
100
AcDbEntity
  8
1
  6
CONTINUOUS
 62
7
100
AcDbLine
 10
255.6744443777791
 20
328.0635024567229
 30
0.000000000000000
 11
255.1744443777791
 21
328.5635024567229
 31
0.000000000000000
  0
LINE
  5
266
100
AcDbEntity
  8
1
  6
CONTINUOUS
 62
7
100
AcDbLine
 10
261.8969841936422
 20
334.2860422725861
 30
0.000000000000000
 11
261.3969841936423
 21
334.7860422725860
 31
0.000000000000000
  0
LINE
  5
267
100
AcDbEntity
  8
4
  6
CENTER
 62
1
100
AcDbLine
 10
194.7857142857105
 20
337.5747724646542
 30
0.000000000000000
 11
194.7857142857104
 21
324.7747722646541
 31
0.000000000000000
  0
LINE
  5
268
100
AcDbEntity
  8
4
  6
CENTER
 62
1
100
AcDbLine
 10
188.3857141857104
 20
331.1747723646543
 30
0.000000000000000
 11
201.1857143857104
 21
331.1747723646542
 31
0.000000000000000
  0
ARC
  5
269
100
AcDbEntity
  8
1
  6
CONTINUOUS
 62
7
100
AcDbCircle
 10
195.2857142857104
 20
331.6747723646544
 30
0.000000000000000
 40
4.400000099999998
100
AcDbArc
 50
314.9999999999989
 51
495.0000000000002
  0
ARC
  5
26A
100
AcDbEntity
  8
1
  6
CONTINUOUS
 62
7
100
AcDbCircle
 10
194.7857142857104
 20
331.1747723646543
 30
0.000000000000000
 40
4.400000099999998
100
AcDbArc
 50
135.0000000000002
 51
314.9999999999989
  0
LINE
  5
26B
100
AcDbEntity
  8
4
  6
CENTER
 62
1
100
AcDbLine
 10
188.3857141857104
 20
331.6747723646543
 30
0.000000000000000
 11
201.1857143857104
 21
331.6747723646542
 31
0.000000000000000
  0
LINE
  5
26C
100
AcDbEntity
  8
4
  6
CENTER
 62
1
100
AcDbLine
 10
195.2857142857105
 20
337.5747724646542
 30
0.000000000000000
 11
195.2857142857104
 21
324.7747722646541
 31
0.000000000000000
  0
LINE
  5
26D
100
AcDbEntity
  8
1
  6
CONTINUOUS
 62
7
100
AcDbLine
 10
197.8969841936420
 20
328.0635024567228
 30
0.000000000000000
 11
198.3969841936420
 21
328.5635024567229
 31
0.000000000000000
  0
LINE
  5
26E
100
AcDbEntity
  8
1
  6
CONTINUOUS
 62
7
100
AcDbLine
 10
191.6744443777789
 20
334.2860422725861
 30
0.000000000000000
 11
192.1744443777788
 21
334.7860422725860
 31
0.000000000000000
  0
LINE
  5
26F
100
AcDbEntity
  8
4
  6
CENTER
 62
1
100
AcDbLine
 10
194.7857142857104
 20
388.7747722646534
 30
0.000000000000000
 11
194.7857142857102
 21
401.5747724646535
 31
0.000000000000000
  0
LINE
  5
270
100
AcDbEntity
  8
4
  6
CENTER
 62
1
100
AcDbLine
 10
188.3857141857102
 20
395.1747723646533
 30
0.000000000000000
 11
201.1857143857103
 21
395.1747723646534
 31
0.000000000000000
  0
ARC
  5
271
100
AcDbEntity
  8
1
  6
CONTINUOUS
 62
7
100
AcDbCircle
 10
195.2857142857103
 20
394.6747723646533
 30
0.000000000000000
 40
4.400000099999998
100
AcDbArc
 50
225.0000000000001
 51
405.0000000000014
  0
ARC
  5
272
100
AcDbEntity
  8
1
  6
CONTINUOUS
 62
7
100
AcDbCircle
 10
194.7857142857103
 20
395.1747723646534
 30
0.000000000000000
 40
4.400000099999998
100
AcDbArc
 50
45.00000000000132
 51
225.0000000000001
  0
LINE
  5
273
100
AcDbEntity
  8
4
  6
CENTER
 62
1
100
AcDbLine
 10
188.3857141857102
 20
394.6747723646533
 30
0.000000000000000
 11
201.1857143857103
 21
394.6747723646534
 31
0.000000000000000
  0
LINE
  5
274
100
AcDbEntity
  8
4
  6
CENTER
 62
1
100
AcDbLine
 10
195.2857142857104
 20
388.7747722646534
 30
0.000000000000000
 11
195.2857142857102
 21
401.5747724646535
 31
0.000000000000000
  0
LINE
  5
275
100
AcDbEntity
  8
1
  6
CONTINUOUS
 62
7
100
AcDbLine
 10
197.8969841936418
 20
398.2860422725848
 30
0.000000000000000
 11
198.3969841936418
 21
397.7860422725848
 31
0.000000000000000
  0
LINE
  5
276
100
AcDbEntity
  8
1
  6
CONTINUOUS
 62
7
100
AcDbLine
 10
191.6744443777787
 20
392.0635024567216
 30
0.000000000000000
 11
192.1744443777787
 21
391.5635024567216
 31
0.000000000000000
  0
ENDSEC
  0
SECTION
  2
OBJECTS
  0
DICTIONARY
  5
29F
100
AcDbDictionary
  3
ACAD_GROUP
350
2A0
  3
ACAD_LAYOUT
350
2A1
  3
ACAD_MLINESTYLE
350
2A2
  0
DICTIONARY
  5
2A0
102
{ACAD_REACTORS
330
29F
102
}
330
29F
100
AcDbDictionary
  0
DICTIONARY
  5
2A1
102
{ACAD_REACTORS
330
29F
102
}
330
29F
100
AcDbDictionary
  3
Model
350
2A3
  3
ﾚｲｱｳﾄ1
350
2A4
  3
ﾚｲｱｳﾄ2
350
2A5
  0
DICTIONARY
  5
2A2
102
{ACAD_REACTORS
330
29F
102
}
330
29F
100
AcDbDictionary
  3
STANDARD
350
2A6
  0
LAYOUT
  5
2A3
102
{ACAD_REACTORS
330
2A1
102
}
330
2A1
100
AcDbPlotSettings
 70
11952
  4
A3
 44
297.000000
 45
420.000000
 73
  1
 72
  1
100
AcDbLayout
  1
Model
 71
0
330
296
  0
LAYOUT
  5
2A4
102
{ACAD_REACTORS
330
2A1
102
}
330
2A1
100
AcDbPlotSettings
100
AcDbLayout
  1
ﾚｲｱｳﾄ1
 71
1
330
297
  0
LAYOUT
  5
2A5
102
{ACAD_REACTORS
330
2A1
102
}
330
2A1
100
AcDbPlotSettings
100
AcDbLayout
  1
ﾚｲｱｳﾄ2
 71
2
330
298
  0
MLINESTYLE
  5
2A6
102
{ACAD_REACTORS
330
2A2
102
}
330
2A2
100
AcDbMlineStyle
  2
STANDARD
 70
     0
  3

 62
   256
 51
90.00
 52
90.00
 71
     2
 49
0.50
 62
   256
  6
BYLAYER
 49
-0.50
 62
   256
  6
BYLAYER
  0
ENDSEC
  0
EOF
