  0
SECTION
  2
HEADER
  9
$ACADVER
  1
AC1015
  9
$ACADMAINTVER
 70
    20
  9
$DWGCODEPAGE
  3
ANSI_932
  9
$INSBASE
 10
0.0
 20
0.0
 30
0.0
  9
$EXTMIN
 10
9.9999975266385
 20
10.0
 30
0.0
  9
$EXTMAX
 10
582.2857142857142
 20
483.1747733646541
 30
0.0
  9
$LIMMIN
 10
0.0000015376081137
 20
-0.0000001931533977
  9
$LIMMAX
 10
792.0000015376079
 20
545.9999998068465
  9
$ORTHOMODE
 70
     1
  9
$REGENMODE
 70
     1
  9
$FILLMODE
 70
     1
  9
$QTEXTMODE
 70
     0
  9
$MIRRTEXT
 70
     1
  9
$LTSCALE
 40
1.0
  9
$ATTMODE
 70
     1
  9
$TEXTSIZE
 40
2.5
  9
$TRACEWID
 40
1.0
  9
$TEXTSTYLE
  7
STANDARD
  9
$CLAYER
  8
0
  9
$CELTYPE
  6
BYLAYER
  9
$CECOLOR
 62
   256
  9
$CELTSCALE
 40
1.0
  9
$DISPSILH
 70
     0
  9
$DIMSCALE
 40
1.0
  9
$DIMASZ
 40
3.0
  9
$DIMEXO
 40
1.0
  9
$DIMDLI
 40
10.0
  9
$DIMRND
 40
0.0
  9
$DIMDLE
 40
0.0
  9
$DIMEXE
 40
1.0
  9
$DIMTP
 40
0.0
  9
$DIMTM
 40
0.0
  9
$DIMTXT
 40
3.2
  9
$DIMCEN
 40
0.0
  9
$DIMTSZ
 40
0.0
  9
$DIMTOL
 70
     0
  9
$DIMLIM
 70
     0
  9
$DIMTIH
 70
     0
  9
$DIMTOH
 70
     0
  9
$DIMSE1
 70
     0
  9
$DIMSE2
 70
     0
  9
$DIMTAD
 70
     3
  9
$DIMZIN
 70
     8
  9
$DIMBLK
  1

  9
$DIMASO
 70
     1
  9
$DIMSHO
 70
     1
  9
$DIMPOST
  1

  9
$DIMAPOST
  1

  9
$DIMALT
 70
     0
  9
$DIMALTD
 70
     2
  9
$DIMALTF
 40
25.4
  9
$DIMLFAC
 40
1.0
  9
$DIMTOFL
 70
     1
  9
$DIMTVP
 40
0.0
  9
$DIMTIX
 70
     0
  9
$DIMSOXD
 70
     0
  9
$DIMSAH
 70
     1
  9
$DIMBLK1
  1
OPEN
  9
$DIMBLK2
  1
OPEN
  9
$DIMSTYLE
  2
STANDARD
  9
$DIMCLRD
 70
     0
  9
$DIMCLRE
 70
     0
  9
$DIMCLRT
 70
     0
  9
$DIMTFAC
 40
1.0
  9
$DIMGAP
 40
1.0
  9
$DIMJUST
 70
     0
  9
$DIMSD1
 70
     0
  9
$DIMSD2
 70
     0
  9
$DIMTOLJ
 70
     1
  9
$DIMTZIN
 70
     0
  9
$DIMALTZ
 70
     0
  9
$DIMALTTZ
 70
     0
  9
$DIMUPT
 70
     0
  9
$DIMDEC
 70
     4
  9
$DIMTDEC
 70
     4
  9
$DIMALTU
 70
     2
  9
$DIMALTTD
 70
     2
  9
$DIMTXSTY
  7
STANDARD
  9
$DIMAUNIT
 70
     0
  9
$DIMADEC
 70
     0
  9
$DIMALTRND
 40
0.0
  9
$DIMAZIN
 70
     0
  9
$DIMDSEP
 70
    46
  9
$DIMATFIT
 70
     3
  9
$DIMFRAC
 70
     0
  9
$DIMLDRBLK
  1
OPEN
  9
$DIMLUNIT
 70
     2
  9
$DIMLWD
 70
    -2
  9
$DIMLWE
 70
    -2
  9
$DIMTMOVE
 70
     0
  9
$LUNITS
 70
     2
  9
$LUPREC
 70
     4
  9
$SKETCHINC
 40
1.0
  9
$FILLETRAD
 40
2.5
  9
$AUNITS
 70
     0
  9
$AUPREC
 70
     0
  9
$MENU
  1
.
  9
$ELEVATION
 40
0.0
  9
$PELEVATION
 40
0.0
  9
$THICKNESS
 40
0.0
  9
$LIMCHECK
 70
     0
  9
$CHAMFERA
 40
10.0
  9
$CHAMFERB
 40
10.0
  9
$CHAMFERC
 40
20.0
  9
$CHAMFERD
 40
0.0
  9
$SKPOLY
 70
     0
  9
$TDCREATE
 40
2452051.395592083
  9
$TDUCREATE
 40
2452051.020592084
  9
$TDUPDATE
 40
2457192.691055637
  9
$TDUUPDATE
 40
2457192.316055637
  9
$TDINDWG
 40
0.4169472454
  9
$TDUSRTIMER
 40
0.4169472222
  9
$USRTIMER
 70
     1
  9
$ANGBASE
 50
0.0
  9
$ANGDIR
 70
     0
  9
$PDMODE
 70
     0
  9
$PDSIZE
 40
0.0
  9
$PLINEWID
 40
0.0
  9
$SPLFRAME
 70
     0
  9
$SPLINETYPE
 70
     6
  9
$SPLINESEGS
 70
     8
  9
$HANDSEED
  5
36B7
  9
$SURFTAB1
 70
     6
  9
$SURFTAB2
 70
     6
  9
$SURFTYPE
 70
     6
  9
$SURFU
 70
     6
  9
$SURFV
 70
     6
  9
$UCSBASE
  2

  9
$UCSNAME
  2

  9
$UCSORG
 10
0.0
 20
0.0
 30
0.0
  9
$UCSXDIR
 10
1.0
 20
0.0
 30
0.0
  9
$UCSYDIR
 10
0.0
 20
1.0
 30
0.0
  9
$UCSORTHOREF
  2

  9
$UCSORTHOVIEW
 70
     0
  9
$UCSORGTOP
 10
0.0
 20
0.0
 30
0.0
  9
$UCSORGBOTTOM
 10
0.0
 20
0.0
 30
0.0
  9
$UCSORGLEFT
 10
0.0
 20
0.0
 30
0.0
  9
$UCSORGRIGHT
 10
0.0
 20
0.0
 30
0.0
  9
$UCSORGFRONT
 10
0.0
 20
0.0
 30
0.0
  9
$UCSORGBACK
 10
0.0
 20
0.0
 30
0.0
  9
$PUCSBASE
  2

  9
$PUCSNAME
  2

  9
$PUCSORG
 10
0.0
 20
0.0
 30
0.0
  9
$PUCSXDIR
 10
1.0
 20
0.0
 30
0.0
  9
$PUCSYDIR
 10
0.0
 20
1.0
 30
0.0
  9
$PUCSORTHOREF
  2

  9
$PUCSORTHOVIEW
 70
     0
  9
$PUCSORGTOP
 10
0.0
 20
0.0
 30
0.0
  9
$PUCSORGBOTTOM
 10
0.0
 20
0.0
 30
0.0
  9
$PUCSORGLEFT
 10
0.0
 20
0.0
 30
0.0
  9
$PUCSORGRIGHT
 10
0.0
 20
0.0
 30
0.0
  9
$PUCSORGFRONT
 10
0.0
 20
0.0
 30
0.0
  9
$PUCSORGBACK
 10
0.0
 20
0.0
 30
0.0
  9
$USERI1
 70
     0
  9
$USERI2
 70
     0
  9
$USERI3
 70
     0
  9
$USERI4
 70
     0
  9
$USERI5
 70
     0
  9
$USERR1
 40
0.0
  9
$USERR2
 40
0.0
  9
$USERR3
 40
0.0
  9
$USERR4
 40
0.0
  9
$USERR5
 40
0.0
  9
$WORLDVIEW
 70
     1
  9
$SHADEDGE
 70
     3
  9
$SHADEDIF
 70
    70
  9
$TILEMODE
 70
     1
  9
$MAXACTVP
 70
    48
  9
$PINSBASE
 10
0.0
 20
0.0
 30
0.0
  9
$PLIMCHECK
 70
     0
  9
$PEXTMIN
 10
1.000000000000000E+20
 20
1.000000000000000E+20
 30
1.000000000000000E+20
  9
$PEXTMAX
 10
-1.000000000000000E+20
 20
-1.000000000000000E+20
 30
-1.000000000000000E+20
  9
$PLIMMIN
 10
0.0
 20
0.0
  9
$PLIMMAX
 10
420.0
 20
297.0
  9
$UNITMODE
 70
     0
  9
$VISRETAIN
 70
     1
  9
$PLINEGEN
 70
     0
  9
$PSLTSCALE
 70
     1
  9
$TREEDEPTH
 70
  3020
  9
$CMLSTYLE
  2
STANDARD
  9
$CMLJUST
 70
     0
  9
$CMLSCALE
 40
20.0
  9
$PROXYGRAPHICS
 70
     1
  9
$MEASUREMENT
 70
     0
  9
$CELWEIGHT
370
    -1
  9
$ENDCAPS
280
     0
  9
$JOINSTYLE
280
     0
  9
$LWDISPLAY
290
     0
  9
$INSUNITS
 70
     0
  9
$HYPERLINKBASE
  1

  9
$STYLESHEET
  1

  9
$XEDIT
290
     1
  9
$CEPSNTYPE
380
     0
  9
$PSTYLEMODE
290
     1
  9
$FINGERPRINTGUID
  2
{65816548-C70E-4716-BAC3-DA3277A007F5}
  9
$VERSIONGUID
  2
{013E69BE-0B00-432E-9F0C-27BE625859E9}
  9
$EXTNAMES
290
     1
  9
$PSVPSCALE
 40
0.0
  9
$OLESTARTUP
290
     0
  0
ENDSEC
  0
SECTION
  2
CLASSES
  0
CLASS
  1
ACDBDICTIONARYWDFLT
  2
AcDbDictionaryWithDefault
  3
ObjectDBX Classes
 90
        0
280
     0
281
     0
  0
CLASS
  1
ACDBPLACEHOLDER
  2
AcDbPlaceHolder
  3
ObjectDBX Classes
 90
        0
280
     0
281
     0
  0
CLASS
  1
LAYOUT
  2
AcDbLayout
  3
ObjectDBX Classes
 90
        0
280
     0
281
     0
  0
CLASS
  1
DICTIONARYVAR
  2
AcDbDictionaryVar
  3
ObjectDBX Classes
 90
        0
280
     0
281
     0
  0
CLASS
  1
MATERIAL
  2
AcDbMaterial
  3
ObjectDBX Classes
 90
     1153
280
     0
281
     0
  0
CLASS
  1
VISUALSTYLE
  2
AcDbVisualStyle
  3
ObjectDBX Classes
 90
     4095
280
     0
281
     0
  0
CLASS
  1
TABLESTYLE
  2
AcDbTableStyle
  3
ObjectDBX Classes
 90
     4095
280
     0
281
     0
  0
CLASS
  1
SCALE
  2
AcDbScale
  3
ObjectDBX Classes
 90
     1153
280
     0
281
     0
  0
CLASS
  1
MLEADERSTYLE
  2
AcDbMLeaderStyle
  3
ACDB_MLEADERSTYLE_CLASS
 90
     4095
280
     0
281
     0
  0
CLASS
  1
ACDBSECTIONVIEWSTYLE
  2
AcDbSectionViewStyle
  3
ObjectDBX Classes
 90
     1025
280
     0
281
     0
  0
CLASS
  1
ACDBDETAILVIEWSTYLE
  2
AcDbDetailViewStyle
  3
ObjectDBX Classes
 90
     1025
280
     0
281
     0
  0
CLASS
  1
CELLSTYLEMAP
  2
AcDbCellStyleMap
  3
ObjectDBX Classes
 90
     1152
280
     0
281
     0
  0
ENDSEC
  0
SECTION
  2
TABLES
  0
TABLE
  2
VPORT
  5
8
330
0
100
AcDbSymbolTable
 70
     1
  0
VPORT
  5
3601
330
8
100
AcDbSymbolTableRecord
100
AcDbViewportTableRecord
  2
*ACTIVE
 70
     0
 10
0.0
 20
0.0
 11
1.0
 21
1.0
 12
490.8816083001057
 22
246.5897837621999
 13
0.0
 23
0.0
 14
10.0
 24
10.0
 15
10.0
 25
10.0
 16
0.0
 26
0.0
 36
1.0
 17
0.0
 27
0.0
 37
0.0
 40
476.8347244866768
 41
2.35006605019815
 42
50.0
 43
0.0
 44
0.0
 50
0.0
 51
0.0
 71
     0
 72
   100
 73
     1
 74
     0
 75
     0
 76
     0
 77
     0
 78
     0
281
     0
 65
     1
110
0.0
120
0.0
130
0.0
111
1.0
121
0.0
131
0.0
112
0.0
122
1.0
132
0.0
 79
     0
146
0.0
1001
ACAD_NAV_VCDISPLAY
1070
     3
  0
ENDTAB
  0
TABLE
  2
LTYPE
  5
5
330
0
100
AcDbSymbolTable
 70
     4
  0
LTYPE
  5
12
330
5
100
AcDbSymbolTableRecord
100
AcDbLinetypeTableRecord
  2
BYBLOCK
 70
     0
  3

 72
    65
 73
     0
 40
0.0
  0
LTYPE
  5
13
330
5
100
AcDbSymbolTableRecord
100
AcDbLinetypeTableRecord
  2
BYLAYER
 70
     0
  3

 72
    65
 73
     0
 40
0.0
  0
LTYPE
  5
14
330
5
100
AcDbSymbolTableRecord
100
AcDbLinetypeTableRecord
  2
CONTINUOUS
 70
     0
  3
Solid line
 72
    65
 73
     0
 40
0.0
  0
LTYPE
  5
4B
330
5
100
AcDbSymbolTableRecord
100
AcDbLinetypeTableRecord
  2
DASHED
 70
     0
  3
Dashed __ __ __ __ __ __ __ __ __ __ __ __ __ _
 72
    65
 73
     2
 40
19.04999999999999
 49
12.7
 74
     0
 49
-6.349999999999998
 74
     0
  0
LTYPE
  5
4C
330
5
100
AcDbSymbolTableRecord
100
AcDbLinetypeTableRecord
  2
CENTER
 70
     0
  3
Center ____ _ ____ _ ____ _ ____ _ ____ _ ____
 72
    65
 73
     4
 40
50.8
 49
31.75
 74
     0
 49
-6.349999999999998
 74
     0
 49
6.349999999999998
 74
     0
 49
-6.349999999999998
 74
     0
  0
LTYPE
  5
4D
330
5
100
AcDbSymbolTableRecord
100
AcDbLinetypeTableRecord
  2
PHANTOM
 70
     0
  3
Phantom ______  __  __  ______  __  __  ______
 72
    65
 73
     6
 40
63.5
 49
31.75
 74
     0
 49
-6.349999999999998
 74
     0
 49
6.349999999999998
 74
     0
 49
-6.349999999999998
 74
     0
 49
6.349999999999998
 74
     0
 49
-6.349999999999998
 74
     0
  0
ENDTAB
  0
TABLE
  2
LAYER
  5
2
330
0
100
AcDbSymbolTable
 70
     8
  0
LAYER
  5
E
102
{ACAD_XDICTIONARY
360
365B
102
}
330
2
100
AcDbSymbolTableRecord
100
AcDbLayerTableRecord
  2
0
 70
     0
 62
     7
  6
CONTINUOUS
370
    -3
390
360A
  0
LAYER
  5
4E
102
{ACAD_XDICTIONARY
360
365D
102
}
330
2
100
AcDbSymbolTableRecord
100
AcDbLayerTableRecord
  2
4
 70
     0
 62
     1
  6
CENTER
370
    -3
390
360A
  0
LAYER
  5
4F
102
{ACAD_XDICTIONARY
360
365F
102
}
330
2
100
AcDbSymbolTableRecord
100
AcDbLayerTableRecord
  2
5
 70
     0
 62
     6
  6
PHANTOM
370
    -3
390
360A
  0
LAYER
  5
50
102
{ACAD_XDICTIONARY
360
3661
102
}
330
2
100
AcDbSymbolTableRecord
100
AcDbLayerTableRecord
  2
1
 70
     0
 62
     7
  6
CONTINUOUS
370
    -3
390
360A
  0
LAYER
  5
51
102
{ACAD_XDICTIONARY
360
3663
102
}
330
2
100
AcDbSymbolTableRecord
100
AcDbLayerTableRecord
  2
2
 70
     0
 62
     4
  6
CONTINUOUS
370
    -3
390
360A
  0
LAYER
  5
52
102
{ACAD_XDICTIONARY
360
3665
102
}
330
2
100
AcDbSymbolTableRecord
100
AcDbLayerTableRecord
  2
3
 70
     0
 62
     2
  6
DASHED
370
    -3
390
360A
  0
LAYER
  5
53
102
{ACAD_XDICTIONARY
360
3667
102
}
330
2
100
AcDbSymbolTableRecord
100
AcDbLayerTableRecord
  2
6
 70
     0
 62
     5
  6
CONTINUOUS
370
    -3
390
360A
  0
LAYER
  5
54
102
{ACAD_XDICTIONARY
360
3669
102
}
330
2
100
AcDbSymbolTableRecord
100
AcDbLayerTableRecord
  2
7
 70
     0
 62
     3
  6
CONTINUOUS
370
    -3
390
360A
  0
ENDTAB
  0
TABLE
  2
STYLE
  5
3
330
0
100
AcDbSymbolTable
 70
     1
  0
STYLE
  5
F
330
3
100
AcDbSymbolTableRecord
100
AcDbTextStyleTableRecord
  2
STANDARD
 70
     0
 40
0.0
 41
1.0
 50
0.0
 71
     0
 42
2.5
  3
simplex.shx
  4

  0
ENDTAB
  0
TABLE
  2
VIEW
  5
6
330
0
100
AcDbSymbolTable
 70
     0
  0
ENDTAB
  0
TABLE
  2
UCS
  5
7
330
0
100
AcDbSymbolTable
 70
     0
  0
ENDTAB
  0
TABLE
  2
APPID
  5
9
330
0
100
AcDbSymbolTable
 70
     5
  0
APPID
  5
10
330
9
100
AcDbSymbolTableRecord
100
AcDbRegAppTableRecord
  2
ACAD
 70
     0
  0
APPID
  5
3E
330
9
100
AcDbSymbolTableRecord
100
AcDbRegAppTableRecord
  2
CONTENTTABDATA
 70
     0
  0
APPID
  5
3F
330
9
100
AcDbSymbolTableRecord
100
AcDbRegAppTableRecord
  2
CONTENTCURRENTTAB
 70
     0
  0
APPID
  5
3675
330
9
100
AcDbSymbolTableRecord
100
AcDbRegAppTableRecord
  2
ACAD_NAV_VCDISPLAY
 70
     0
  0
APPID
  5
36AE
330
9
100
AcDbSymbolTableRecord
100
AcDbRegAppTableRecord
  2
ACAD_MLEADERVER
 70
     0
  0
ENDTAB
  0
TABLE
  2
DIMSTYLE
  5
A
330
0
100
AcDbSymbolTable
 70
     1
100
AcDbDimStyleTable
 71
     0
  0
DIMSTYLE
105
1D
330
A
100
AcDbSymbolTableRecord
100
AcDbDimStyleTableRecord
  2
STANDARD
 70
     0
 41
3.0
 42
1.0
 43
10.0
 44
1.0
 73
     0
 74
     0
 77
     3
 78
     8
140
3.2
141
0.0
147
1.0
172
     1
173
     1
340
F
341
2E
343
2E
344
2E
  0
ENDTAB
  0
TABLE
  2
BLOCK_RECORD
  5
1
330
0
100
AcDbSymbolTable
 70
     1
  0
BLOCK_RECORD
  5
18
102
{ACAD_XDICTIONARY
360
3604
102
}
330
1
100
AcDbSymbolTableRecord
100
AcDbBlockTableRecord
  2
*MODEL_SPACE
340
3658
  0
BLOCK_RECORD
  5
15
102
{ACAD_XDICTIONARY
360
3602
102
}
330
1
100
AcDbSymbolTableRecord
100
AcDbBlockTableRecord
  2
*PAPER_SPACE
340
3659
  0
BLOCK_RECORD
  5
2E
330
1
100
AcDbSymbolTableRecord
100
AcDbBlockTableRecord
  2
_OPEN
340
0
  0
ENDTAB
  0
ENDSEC
  0
SECTION
  2
BLOCKS
  0
BLOCK
  5
19
330
18
100
AcDbEntity
  8
0
100
AcDbBlockBegin
  2
*MODEL_SPACE
 70
     0
 10
0.0
 20
0.0
 30
0.0
  3
*MODEL_SPACE
  1

  0
ENDBLK
  5
1A
330
18
100
AcDbEntity
  8
0
100
AcDbBlockEnd
  0
BLOCK
  5
16
330
15
100
AcDbEntity
 67
     1
  8
0
100
AcDbBlockBegin
  2
*PAPER_SPACE
 70
     0
 10
0.0
 20
0.0
 30
0.0
  3
*PAPER_SPACE
  1

  0
ENDBLK
  5
17
330
15
100
AcDbEntity
 67
     1
  8
0
100
AcDbBlockEnd
  0
BLOCK
  5
2F
330
2E
100
AcDbEntity
  8
0
100
AcDbBlockBegin
  2
_OPEN
 70
     0
 10
0.0
 20
0.0
 30
0.0
  3
_OPEN
  1

  0
LINE
  5
30
330
2E
100
AcDbEntity
  8
0
  6
ByBlock
 62
     0
100
AcDbLine
 10
-1.0
 20
0.1666666666666666
 30
0.0
 11
0.0
 21
0.0
 31
0.0
  0
LINE
  5
31
330
2E
100
AcDbEntity
  8
0
  6
ByBlock
 62
     0
100
AcDbLine
 10
0.0
 20
0.0
 30
0.0
 11
-1.0
 21
-0.1666666666666666
 31
0.0
  0
LINE
  5
32
330
2E
100
AcDbEntity
  8
0
  6
ByBlock
 62
     0
100
AcDbLine
 10
0.0
 20
0.0
 30
0.0
 11
-1.0
 21
0.0
 31
0.0
  0
ENDBLK
  5
33
330
2E
100
AcDbEntity
  8
0
100
AcDbBlockEnd
  0
ENDSEC
  0
SECTION
  2
ENTITIES
  0
TEXT
  5
63
330
18
100
AcDbEntity
  8
4
  6
CENTER
 48
0.25
100
AcDbText
 10
23.97950852663849
 20
10.0
 30
0.0
 40
1.399999999999999
  1
4
100
AcDbText
  0
TEXT
  5
64
330
18
100
AcDbEntity
  8
7
  6
Continuous
 48
0.25
100
AcDbText
 10
9.999997526638502
 20
26.0000007607689
 30
0.0
 40
3.0
  1
CODE No.9502
100
AcDbText
  0
TEXT
  5
65
330
18
100
AcDbEntity
  8
7
  6
Continuous
 48
0.25
100
AcDbText
 10
9.999997526638502
 20
18.00000076076889
 30
0.0
 40
3.0
  1
TYPE No.TCA-54NW-NRB65
100
AcDbText
  0
TEXT
  5
66
330
18
100
AcDbEntity
  8
1
  6
Continuous
 48
0.25
100
AcDbText
 10
9.999997526638502
 20
10.00000076076889
 30
0.0
 40
1.399999999999999
  1
LAYER
100
AcDbText
  0
TEXT
  5
67
330
18
100
AcDbEntity
  8
2
  6
Continuous
 48
0.25
100
AcDbText
 10
19.9795085266385
 20
10.0
 30
0.0
 40
1.399999999999999
  1
2
100
AcDbText
  0
TEXT
  5
68
330
18
100
AcDbEntity
  8
3
  6
DASHED
 48
0.25
100
AcDbText
 10
21.9795085266385
 20
10.0
 30
0.0
 40
1.399999999999999
  1
3
100
AcDbText
  0
TEXT
  5
69
330
18
100
AcDbEntity
  8
1
  6
Continuous
 48
0.25
100
AcDbText
 10
17.9795085266385
 20
10.0
 30
0.0
 40
1.399999999999999
  1
1
100
AcDbText
  0
TEXT
  5
6A
330
18
100
AcDbEntity
  8
5
  6
PHANTOM
 48
0.25
100
AcDbText
 10
25.9795085266385
 20
10.0
 30
0.0
 40
1.399999999999999
  1
5
100
AcDbText
  0
TEXT
  5
6B
330
18
100
AcDbEntity
  8
6
  6
Continuous
 48
0.25
100
AcDbText
 10
27.9795085266385
 20
10.0
 30
0.0
 40
1.399999999999999
  1
6
100
AcDbText
  0
TEXT
  5
6C
330
18
100
AcDbEntity
  8
7
  6
Continuous
 48
0.25
100
AcDbText
 10
29.9795085266385
 20
10.0
 30
0.0
 40
1.399999999999999
  1
7
100
AcDbText
  0
CIRCLE
  5
1DC
330
18
100
AcDbEntity
  8
1
  6
Continuous
100
AcDbCircle
 10
226.7857142857103
 20
428.174772364654
 30
0.0
 40
36.156345
  0
CIRCLE
  5
1DD
330
18
100
AcDbEntity
  8
1
  6
Continuous
100
AcDbCircle
 10
226.7857142857103
 20
428.174772364654
 30
0.0
 40
31.389542
  0
LINE
  5
1DE
330
18
100
AcDbEntity
  8
1
  6
Continuous
100
AcDbLine
 10
187.7857142857108
 20
378.174772364654
 30
0.0
 11
265.7857142857108
 21
378.174772364654
 31
0.0
  0
LINE
  5
1DF
330
18
100
AcDbEntity
  8
1
  6
Continuous
100
AcDbLine
 10
187.7857142857108
 20
478.1747733646541
 30
0.0
 11
265.7857142857108
 21
478.1747733646541
 31
0.0
  0
LINE
  5
1E0
330
18
100
AcDbEntity
  8
4
  6
CENTER
 48
0.2
100
AcDbLine
 10
171.7857142857108
 20
428.174772364654
 30
0.0
 11
281.7857142857107
 21
428.174772364654
 31
0.0
  0
CIRCLE
  5
1E1
330
18
100
AcDbEntity
  8
1
  6
Continuous
100
AcDbCircle
 10
226.7857142857103
 20
428.174772364654
 30
0.0
 40
13.427129
  0
CIRCLE
  5
1E2
330
18
100
AcDbEntity
  8
1
  6
Continuous
100
AcDbCircle
 10
226.7857142857103
 20
428.174772364654
 30
0.0
 40
12.0
  0
LINE
  5
1E3
330
18
100
AcDbEntity
  8
1
  6
Continuous
100
AcDbLine
 10
276.7857142857108
 20
389.174772364654
 30
0.0
 11
276.7857142857108
 21
467.1747723646539
 31
0.0
  0
CIRCLE
  5
1E4
330
18
100
AcDbEntity
  8
1
  6
Continuous
100
AcDbCircle
 10
265.7857142857103
 20
467.1747723646541
 30
0.0
 40
5.5
  0
LINE
  5
1E5
330
18
100
AcDbEntity
  8
4
  6
CENTER
 48
0.2
100
AcDbLine
 10
256.7062442857105
 20
467.1747723646539
 30
0.0
 11
274.8651842857108
 21
467.1747723646539
 31
0.0
  0
ARC
  5
1E6
330
18
100
AcDbEntity
  8
1
  6
Continuous
100
AcDbCircle
 10
265.7857142857103
 20
467.1747723646541
 30
0.0
 40
11.0
100
AcDbArc
 50
359.999989999999
 51
89.99999999999998
  0
LINE
  5
1E7
330
18
100
AcDbEntity
  8
4
  6
CENTER
 48
0.2
100
AcDbLine
 10
265.7857142857108
 20
459.2348863646542
 30
0.0
 11
265.7857142857108
 21
475.6003563646538
 31
0.0
  0
CIRCLE
  5
1E8
330
18
100
AcDbEntity
  8
1
  6
Continuous
100
AcDbCircle
 10
265.7857142857103
 20
389.174772364654
 30
0.0
 40
5.5
  0
ARC
  5
1EA
330
18
100
AcDbEntity
  8
1
  6
Continuous
100
AcDbCircle
 10
265.7857142857103
 20
389.174772364654
 30
0.0
 40
11.0
100
AcDbArc
 50
269.9999960000009
 51
0.0000099999977114
  0
LINE
  5
1EE
330
18
100
AcDbEntity
  8
1
  6
Continuous
100
AcDbLine
 10
176.7857142857108
 20
389.174772364654
 30
0.0
 11
176.7857142857108
 21
467.1747723646539
 31
0.0
  0
ARC
  5
1F0
330
18
100
AcDbEntity
  8
1
  6
Continuous
100
AcDbCircle
 10
187.7857142857105
 20
467.1747723646541
 30
0.0
 40
11.0
100
AcDbArc
 50
89.99999999999998
 51
180.0000086514213
  0
CIRCLE
  5
1F1
330
18
100
AcDbEntity
  8
1
  6
Continuous
100
AcDbCircle
 10
187.7857142857105
 20
467.1747723646541
 30
0.0
 40
5.5
  0
LINE
  5
1F2
330
18
100
AcDbEntity
  8
4
  6
CENTER
 48
0.2
100
AcDbLine
 10
187.7857142857108
 20
458.6747723646538
 30
0.0
 11
187.7857142857108
 21
475.6747723646538
 31
0.0
  0
LINE
  5
1F5
330
18
100
AcDbEntity
  8
4
  6
CENTER
 48
0.2
100
AcDbLine
 10
196.2857142857108
 20
467.1747723646539
 30
0.0
 11
179.2857142857108
 21
467.1747723646539
 31
0.0
  0
ARC
  5
1F9
330
18
100
AcDbEntity
  8
1
  6
Continuous
100
AcDbCircle
 10
187.7857142857103
 20
389.174772364654
 30
0.0
 40
11.0
100
AcDbArc
 50
179.9999899999989
 51
269.9999960000009
  0
LINE
  5
1FD
330
18
100
AcDbEntity
  8
4
  6
CENTER
 48
0.2
100
AcDbLine
 10
196.2857142857108
 20
389.174772364654
 30
0.0
 11
179.2857142857108
 21
389.174772364654
 31
0.0
  0
CIRCLE
  5
1FE
330
18
100
AcDbEntity
  8
1
  6
Continuous
100
AcDbCircle
 10
187.7857142857103
 20
389.174772364654
 30
0.0
 40
5.5
  0
LINE
  5
1FF
330
18
100
AcDbEntity
  8
4
  6
CENTER
 48
0.2
100
AcDbLine
 10
187.7857142857108
 20
397.6747723646539
 30
0.0
 11
187.7857142857108
 21
380.674772364654
 31
0.0
  0
LINE
  5
200
330
18
100
AcDbEntity
  8
1
  6
Continuous
100
AcDbLine
 10
476.7857142857141
 20
319.4747713646558
 30
0.0
 11
576.7857142857142
 21
319.4747713646558
 31
0.0
  0
ARC
  5
201
330
18
100
AcDbEntity
  8
1
  6
Continuous
100
AcDbCircle
 10
544.7857142857142
 20
258.1747723646558
 30
0.0
 40
12.27219399996108
100
AcDbArc
 50
219.3349064356194
 51
13.49230889066793
  0
ARC
  5
202
330
18
100
AcDbEntity
  8
1
  6
Continuous
100
AcDbCircle
 10
544.7857142857142
 20
258.1747723646558
 30
0.0
 40
22.5
100
AcDbArc
 50
182.7268333659861
 51
63.58578883025288
  0
ARC
  5
203
330
18
100
AcDbEntity
  8
1
  6
Continuous
100
AcDbCircle
 10
544.7857142857142
 20
258.1747723646558
 30
0.0
 40
18.27219399996107
100
AcDbArc
 50
192.0800271497724
 51
54.55961425842326
  0
ARC
  5
207
330
18
100
AcDbEntity
  8
1
  6
Continuous
100
AcDbCircle
 10
544.7857142857142
 20
258.1747723646558
 30
0.0
 40
32.5
100
AcDbArc
 50
169.0731899999993
 51
74.34680999999689
  0
ARC
  5
208
330
18
100
AcDbEntity
  8
1
  6
Continuous
100
AcDbCircle
 10
558.3230482857143
 20
308.3747753646557
 30
0.0
 40
1.5
100
AcDbArc
 50
181.5280700000002
 51
270.0
  0
ARC
  5
209
330
18
100
AcDbEntity
  8
1
  6
Continuous
100
AcDbCircle
 10
544.7857142857142
 20
259.7747783646558
 30
0.0
 40
12.0
100
AcDbArc
 50
253.1303899999998
 51
6.351147899998975
  0
ARC
  5
20A
330
18
100
AcDbEntity
  8
1
  6
Continuous
100
AcDbCircle
 10
550.8257152857143
 20
308.1747763646558
 30
0.0
 40
6.0
100
AcDbArc
 50
1.528072199999584
 51
27.57995700000045
  0
LINE
  5
20B
330
18
100
AcDbEntity
  8
1
  6
Continuous
100
AcDbLine
 10
559.5882542857141
 20
306.8747773646558
 30
0.0
 11
495.2786242857142
 21
306.8747773646558
 31
0.0
  0
LINE
  5
20C
330
18
100
AcDbEntity
  8
1
  6
Continuous
100
AcDbLine
 10
561.3355192857143
 20
312.0247723646558
 30
0.0
 11
492.235714285714
 21
312.0247723646558
 31
0.0
  0
LINE
  5
20D
330
18
100
AcDbEntity
  8
4
  6
CENTER
 48
0.2
100
AcDbLine
 10
582.2857142857142
 20
258.1747723646558
 30
0.0
 11
507.2857142857142
 21
258.1747723646558
 31
0.0
  0
LINE
  5
20E
330
18
100
AcDbEntity
  8
1
  6
Continuous
100
AcDbLine
 10
576.7857142857142
 20
322.6747723646558
 30
0.0
 11
476.7857142857141
 21
322.6747723646558
 31
0.0
  0
LINE
  5
20F
330
18
100
AcDbEntity
  8
1
  6
Continuous
100
AcDbLine
 10
562.818684285714
 20
298.1747803646558
 30
0.0
 11
554.8206802857142
 21
298.1747803646558
 31
0.0
  0
ARC
  5
210
330
18
100
AcDbEntity
  8
1
  6
Continuous
100
AcDbCircle
 10
519.5857142857142
 20
279.7747783646558
 30
0.0
 40
12.898982
100
AcDbArc
 50
54.46232300000063
 51
125.5376700000013
  0
ARC
  5
211
330
18
100
AcDbEntity
  8
1
  6
Continuous
100
AcDbCircle
 10
521.585714285714
 20
291.0995353646558
 30
0.0
 40
0.5
100
AcDbArc
 50
0.0
 51
79.98458900000014
  0
ARC
  5
212
330
18
100
AcDbEntity
  8
1
  6
Continuous
100
AcDbCircle
 10
516.8857242857143
 20
291.2617283646558
 30
0.0
 40
0.2
100
AcDbArc
 50
0.0
 51
103.2272300000002
  0
ARC
  5
213
330
18
100
AcDbEntity
  8
1
  6
Continuous
100
AcDbCircle
 10
521.285734285714
 20
291.4516773646558
 30
0.0
 40
0.2
100
AcDbArc
 50
81.71669699999922
 51
180.0000099999977
  0
ARC
  5
214
330
18
100
AcDbEntity
  8
1
  6
Continuous
100
AcDbCircle
 10
563.0679832857143
 20
320.0637343646558
 30
0.0
 40
75.0
100
AcDbArc
 50
197.8173799999987
 51
253.1303899999998
  0
LINE
  5
215
330
18
100
AcDbEntity
  8
1
  6
Continuous
100
AcDbLine
 10
552.8329552857142
 20
295.9535393646558
 30
0.0
 11
556.7120672857141
 21
261.1022393646557
 31
0.0
  0
LINE
  5
216
330
18
100
AcDbEntity
  8
1
  6
Continuous
100
AcDbLine
 10
518.085714285714
 20
291.6806583646558
 30
0.0
 11
518.085714285714
 21
284.6688973646558
 31
0.0
  0
LINE
  5
217
330
18
100
AcDbEntity
  8
1
  6
Continuous
100
AcDbLine
 10
519.085714285714
 20
291.7643603646558
 30
0.0
 11
519.085714285714
 21
284.5851993646558
 31
0.0
  0
LINE
  5
218
330
18
100
AcDbEntity
  8
1
  6
Continuous
100
AcDbLine
 10
520.0857142857142
 20
291.7643603646558
 30
0.0
 11
520.0857142857142
 21
284.5851993646558
 31
0.0
  0
LINE
  5
219
330
18
100
AcDbEntity
  8
1
  6
Continuous
100
AcDbLine
 10
543.3421562857144
 20
298.7614273646558
 30
0.0
 11
537.7999732857141
 21
267.3301603646558
 31
0.0
  0
LINE
  5
21A
330
18
100
AcDbEntity
  8
4
  6
CENTER
 48
0.2
100
AcDbLine
 10
544.7857142857142
 20
295.6747723646558
 30
0.0
 11
544.7857142857142
 21
220.6747723646558
 31
0.0
  0
ARC
  5
228
330
18
100
AcDbEntity
  8
1
  6
Continuous
100
AcDbCircle
 10
519.5857142857142
 20
296.5747773646558
 30
0.0
 40
12.898982
100
AcDbArc
 50
234.4623299999995
 51
307.7434100000021
  0
ARC
  5
229
330
18
100
AcDbEntity
  8
1
  6
Continuous
100
AcDbCircle
 10
519.5857142857142
 20
296.5747773646558
 30
0.0
 40
12.0
100
AcDbArc
 50
244.2285400000033
 51
246.5277399999983
  0
ARC
  5
22A
330
18
100
AcDbEntity
  8
1
  6
Continuous
100
AcDbCircle
 10
514.8857242857143
 20
285.7511923646558
 30
0.0
 40
0.2
100
AcDbArc
 50
246.5277399999983
 51
0.0
  0
ARC
  5
22B
330
18
100
AcDbEntity
  8
1
  6
Continuous
100
AcDbCircle
 10
513.585714285714
 20
288.1747763646558
 30
0.0
 40
2.576193299999999
100
AcDbArc
 50
125.5376700000013
 51
166.5320300000008
  0
ARC
  5
22C
330
18
100
AcDbEntity
  8
1
  6
Continuous
100
AcDbCircle
 10
513.585714285714
 20
288.1747763646558
 30
0.0
 40
2.576193299999999
100
AcDbArc
 50
179.9999899999989
 51
234.4623399999979
  0
ARC
  5
22D
330
18
100
AcDbEntity
  8
1
  6
Continuous
100
AcDbCircle
 10
519.5857142857142
 20
279.7747783646558
 30
0.0
 40
12.0
100
AcDbArc
 50
113.4722600000022
 51
115.7714599999973
  0
ARC
  5
22E
330
18
100
AcDbEntity
  8
1
  6
Continuous
100
AcDbCircle
 10
514.585714285714
 20
286.2186183646558
 30
0.0
 40
0.5
100
AcDbArc
 50
179.9999899999989
 51
244.2285500000024
  0
ARC
  5
22F
330
18
100
AcDbEntity
  8
1
  6
Continuous
100
AcDbCircle
 10
514.585714285714
 20
290.1309373646558
 30
0.0
 40
0.5
100
AcDbArc
 50
115.7714599999973
 51
180.0000099999977
  0
ARC
  5
230
330
18
100
AcDbEntity
  8
1
  6
Continuous
100
AcDbCircle
 10
514.8857242857143
 20
290.5983673646558
 30
0.0
 40
0.2
100
AcDbArc
 50
0.0
 51
113.4722600000022
  0
LINE
  5
231
330
18
100
AcDbEntity
  8
1
  6
Continuous
100
AcDbLine
 10
514.085714285714
 20
290.1309373646558
 30
0.0
 11
514.085714285714
 21
286.2186183646558
 31
0.0
  0
LINE
  5
232
330
18
100
AcDbEntity
  8
1
  6
Continuous
100
AcDbLine
 10
515.085714285714
 20
290.5983673646558
 30
0.0
 11
515.085714285714
 21
285.7511923646558
 31
0.0
  0
LINE
  5
233
330
18
100
AcDbEntity
  8
1
  6
Continuous
100
AcDbLine
 10
513.0857142857141
 20
290.9163153646558
 30
0.0
 11
513.0857142857141
 21
286.2505363646558
 31
0.0
  0
LINE
  5
234
330
18
100
AcDbEntity
  8
1
  6
Continuous
100
AcDbLine
 10
516.0857142857142
 20
290.8765813646558
 30
0.0
 11
516.0857142857142
 21
285.4729753646558
 31
0.0
  0
LINE
  5
235
330
18
100
AcDbEntity
  8
1
  6
Continuous
100
AcDbLine
 10
521.0857142857141
 20
291.4516773646558
 30
0.0
 11
521.0857142857141
 21
284.8978783646558
 31
0.0
  0
LINE
  5
236
330
18
100
AcDbEntity
  8
1
  6
Continuous
100
AcDbLine
 10
522.0857172857144
 20
288.1747833646557
 30
0.0
 11
522.0857172857144
 21
285.2500253646558
 31
0.0
  0
LINE
  5
237
330
18
100
AcDbEntity
  8
1
  6
Continuous
100
AcDbLine
 10
523.085717285714
 20
291.2530233646557
 30
0.0
 11
523.085717285714
 21
285.0965363646557
 31
0.0
  0
LINE
  5
238
330
18
100
AcDbEntity
  8
1
  6
Continuous
100
AcDbLine
 10
517.0857142857141
 20
286.9747793646558
 30
0.0
 11
517.0857142857141
 21
285.0878273646558
 31
0.0
  0
ARC
  5
239
330
18
100
AcDbEntity
  8
1
  6
Continuous
100
AcDbCircle
 10
519.5857142857142
 20
296.5747773646558
 30
0.0
 40
12.0
100
AcDbArc
 50
254.8783299999995
 51
256.7727700000001
  0
ARC
  5
23A
330
18
100
AcDbEntity
  8
1
  6
Continuous
100
AcDbCircle
 10
516.5857142857142
 20
285.4729753646558
 30
0.0
 40
0.5
100
AcDbArc
 50
179.9999899999989
 51
254.8783400000007
  0
ARC
  5
23B
330
18
100
AcDbEntity
  8
1
  6
Continuous
100
AcDbCircle
 10
516.8857242857143
 20
285.0878273646558
 30
0.0
 40
0.2
100
AcDbArc
 50
256.7727700000001
 51
0.0
  0
ARC
  5
23C
330
18
100
AcDbEntity
  8
1
  6
Continuous
100
AcDbCircle
 10
519.5857142857142
 20
296.5747773646558
 30
0.0
 40
12.0
100
AcDbArc
 50
278.2832999999989
 51
280.0154100000016
  0
ARC
  5
23D
330
18
100
AcDbEntity
  8
1
  6
Continuous
100
AcDbCircle
 10
521.585714285714
 20
285.2500253646558
 30
0.0
 40
0.5
100
AcDbArc
 50
280.0154100000016
 51
0.0
  0
ARC
  5
23E
330
18
100
AcDbEntity
  8
1
  6
Continuous
100
AcDbCircle
 10
521.285734285714
 20
284.8978783646558
 30
0.0
 40
0.2
100
AcDbArc
 50
179.9999899999989
 51
278.2832999999989
  0
ARC
  5
23F
330
18
100
AcDbEntity
  8
1
  6
Continuous
100
AcDbCircle
 10
519.5857142857142
 20
279.7747783646558
 30
0.0
 40
12.0
100
AcDbArc
 50
103.2272300000002
 51
105.1216699999999
  0
ARC
  5
240
330
18
100
AcDbEntity
  8
1
  6
Continuous
100
AcDbCircle
 10
516.5857142857142
 20
290.8765813646558
 30
0.0
 40
0.5
100
AcDbArc
 50
105.1216699999999
 51
180.0000099999977
  0
LINE
  5
241
330
18
100
AcDbEntity
  8
1
  6
Continuous
100
AcDbLine
 10
517.0857142857141
 20
291.2617283646558
 30
0.0
 11
517.0857142857141
 21
289.3747803646558
 31
0.0
  0
LINE
  5
242
330
18
100
AcDbEntity
  8
1
  6
Continuous
100
AcDbLine
 10
518.085714285714
 20
288.1747833646557
 30
0.0
 11
519.085714285714
 21
288.1747833646557
 31
0.0
  0
LINE
  5
243
330
18
100
AcDbEntity
  8
1
  6
Continuous
100
AcDbLine
 10
522.0857172857144
 20
291.0995353646558
 30
0.0
 11
522.0857172857144
 21
289.3747803646558
 31
0.0
  0
LINE
  5
244
330
18
100
AcDbEntity
  8
1
  6
Continuous
100
AcDbLine
 10
521.585714285714
 20
288.1747833646557
 30
0.0
 11
522.0857172857144
 21
288.1747833646557
 31
0.0
  0
ARC
  5
246
330
18
100
AcDbEntity
  8
1
  6
Continuous
100
AcDbCircle
 10
540.5107122857141
 20
254.4045773646558
 30
0.0
 40
0.30000001
100
AcDbArc
 50
221.4096199999987
 51
285.3642399999976
  0
ARC
  5
247
330
18
100
AcDbEntity
  8
1
  6
Continuous
100
AcDbCircle
 10
540.5107122857141
 20
261.9449673646558
 30
0.0
 40
0.30000001
100
AcDbArc
 50
74.63575799999775
 51
138.5903800000012
  0
CIRCLE
  5
248
330
18
100
AcDbEntity
  8
1
  6
Continuous
100
AcDbCircle
 10
544.7857142857142
 20
258.1747723646558
 30
0.0
 40
6.5
  0
CIRCLE
  5
249
330
18
100
AcDbEntity
  8
1
  6
Continuous
100
AcDbCircle
 10
544.7857142857142
 20
258.1747723646558
 30
0.0
 40
8.5
  0
CIRCLE
  5
24A
330
18
100
AcDbEntity
  8
1
  6
Continuous
100
AcDbCircle
 10
544.7857142857142
 20
258.1747723646558
 30
0.0
 40
5.0
  0
LINE
  5
24B
330
18
100
AcDbEntity
  8
1
  6
Continuous
100
AcDbLine
 10
536.8614822857141
 20
263.4146713646557
 30
0.0
 11
544.2099462857141
 21
267.6573083646557
 31
0.0
  0
LINE
  5
24C
330
18
100
AcDbEntity
  8
1
  6
Continuous
100
AcDbLine
 10
536.8614822857141
 20
252.9348733646557
 30
0.0
 11
544.209946285714
 21
248.6922363646557
 31
0.0
  0
ARC
  5
24D
330
18
100
AcDbEntity
  8
1
  6
Continuous
100
AcDbCircle
 10
544.7857142857142
 20
258.1747723646558
 30
0.0
 40
6.0
100
AcDbArc
 50
138.5903699999986
 51
221.4096300000012
  0
ARC
  5
24E
330
18
100
AcDbEntity
  8
1
  6
Continuous
100
AcDbCircle
 10
544.7857142857142
 20
260.1747723646558
 30
0.0
 40
10.0
100
AcDbArc
 50
134.3126900000017
 51
205.6872900000011
  0
LINE
  5
24F
330
18
100
AcDbEntity
  8
1
  6
Continuous
100
AcDbLine
 10
536.2857142857142
 20
262.4174103646558
 30
0.0
 11
536.2857142857142
 21
253.9321343646558
 31
0.0
  0
ARC
  5
250
330
18
100
AcDbEntity
  8
1
  6
Continuous
100
AcDbCircle
 10
544.7857142857142
 20
258.1747723646558
 30
0.0
 40
9.300000199999999
100
AcDbArc
 50
203.9389199999991
 51
216.0610700000008
  0
ARC
  5
251
330
18
100
AcDbEntity
  8
1
  6
Continuous
100
AcDbCircle
 10
544.7857142857142
 20
258.1747723646558
 30
0.0
 40
9.5
100
AcDbArc
 50
206.5253500000015
 51
213.4746400000002
  0
LINE
  5
252
330
18
100
AcDbEntity
  8
1
  6
Continuous
100
AcDbLine
 10
535.7739882857141
 20
255.8401853646557
 30
0.0
 11
534.9787832857141
 21
251.3303663646557
 31
0.0
  0
ARC
  5
253
330
18
100
AcDbEntity
  8
1
  6
Continuous
100
AcDbCircle
 10
544.7857142857142
 20
258.1747723646558
 30
0.0
 40
9.300000199999999
100
AcDbArc
 50
143.9389299999991
 51
156.0610800000008
  0
ARC
  5
254
330
18
100
AcDbEntity
  8
1
  6
Continuous
100
AcDbCircle
 10
544.7857142857142
 20
258.1747723646558
 30
0.0
 40
9.5
100
AcDbArc
 50
146.5253599999997
 51
153.4746499999984
  0
ARC
  5
255
330
18
100
AcDbEntity
  8
1
  6
Continuous
100
AcDbCircle
 10
544.7857142857142
 20
258.1747723646558
 30
0.0
 40
6.0
100
AcDbArc
 50
318.5903800000012
 51
41.40962400000026
  0
LINE
  5
257
330
18
100
AcDbEntity
  8
1
  6
Continuous
100
AcDbLine
 10
553.2857142857142
 20
262.4174103646558
 30
0.0
 11
553.2857142857142
 21
253.9321343646558
 31
0.0
  0
LINE
  5
258
330
18
100
AcDbEntity
  8
1
  6
Continuous
100
AcDbLine
 10
548.0357142857142
 20
254.3751053646558
 30
0.0
 11
548.9812322857142
 21
254.1153013646558
 31
0.0
  0
LINE
  5
259
330
18
100
AcDbEntity
  8
1
  6
Continuous
100
AcDbLine
 10
545.3614822857141
 20
248.6922363646557
 30
0.0
 11
552.709946285714
 21
252.9348733646557
 31
0.0
  0
ARC
  5
25A
330
18
100
AcDbEntity
  8
1
  6
Continuous
100
AcDbCircle
 10
544.7857142857142
 20
258.1747723646558
 30
0.0
 40
9.300000199999999
100
AcDbArc
 50
263.938920000002
 51
276.061069999997
  0
ARC
  5
25B
330
18
100
AcDbEntity
  8
1
  6
Continuous
100
AcDbCircle
 10
544.7857142857142
 20
258.1747723646558
 30
0.0
 40
9.5
100
AcDbArc
 50
266.5253499999991
 51
273.4746500000007
  0
LINE
  5
25D
330
18
100
AcDbEntity
  8
1
  6
Continuous
100
AcDbLine
 10
541.5357062857142
 20
254.3750973646557
 30
0.0
 11
540.5902032857142
 21
254.1153013646557
 31
0.0
  0
ARC
  5
25E
330
18
100
AcDbEntity
  8
1
  6
Continuous
100
AcDbCircle
 10
544.7857142857142
 20
258.1747723646558
 30
0.0
 40
9.300000199999999
100
AcDbArc
 50
323.9389199999997
 51
336.0610800000007
  0
ARC
  5
25F
330
18
100
AcDbEntity
  8
1
  6
Continuous
100
AcDbCircle
 10
549.0607162857143
 20
254.4045773646558
 30
0.0
 40
0.30000001
100
AcDbArc
 50
254.6357600000024
 51
318.5903800000012
  0
ARC
  5
260
330
18
100
AcDbEntity
  8
1
  6
Continuous
100
AcDbCircle
 10
544.7857142857142
 20
258.1747723646558
 30
0.0
 40
9.5
100
AcDbArc
 50
326.5253499999997
 51
333.4746499999984
  0
LINE
  5
261
330
18
100
AcDbEntity
  8
1
  6
Continuous
100
AcDbLine
 10
548.0357142857142
 20
261.9744393646556
 30
0.0
 11
548.9812252857141
 21
262.2342433646557
 31
0.0
  0
LINE
  5
262
330
18
100
AcDbEntity
  8
1
  6
Continuous
100
AcDbLine
 10
545.3614822857141
 20
267.6573083646558
 30
0.0
 11
552.7099462857143
 21
263.4146633646558
 31
0.0
  0
LINE
  5
263
330
18
100
AcDbEntity
  8
1
  6
Continuous
100
AcDbLine
 10
541.5357142857142
 20
261.9744393646556
 30
0.0
 11
540.5902032857142
 21
262.2342433646558
 31
0.0
  0
ARC
  5
264
330
18
100
AcDbEntity
  8
1
  6
Continuous
100
AcDbCircle
 10
544.7857142857142
 20
258.1747723646558
 30
0.0
 40
9.300000199999999
100
AcDbArc
 50
83.93892700000147
 51
96.06107799999913
  0
ARC
  5
265
330
18
100
AcDbEntity
  8
1
  6
Continuous
100
AcDbCircle
 10
544.7857142857142
 20
258.1747723646558
 30
0.0
 40
9.5
100
AcDbArc
 50
86.52534899999642
 51
93.47465000000076
  0
ARC
  5
266
330
18
100
AcDbEntity
  8
1
  6
Continuous
100
AcDbCircle
 10
544.7857142857142
 20
258.1747723646558
 30
0.0
 40
9.5
100
AcDbArc
 50
26.52535000000157
 51
33.47465100000091
  0
ARC
  5
267
330
18
100
AcDbEntity
  8
1
  6
Continuous
100
AcDbCircle
 10
544.7857142857142
 20
258.1747723646558
 30
0.0
 40
9.300000199999999
100
AcDbArc
 50
23.93892299999866
 51
36.06107699999943
  0
ARC
  5
268
330
18
100
AcDbEntity
  8
1
  6
Continuous
100
AcDbCircle
 10
549.0607162857143
 20
261.9449673646558
 30
0.0
 40
0.30000001
100
AcDbArc
 50
41.40961699999918
 51
105.3642399999971
  0
LINE
  5
269
330
18
100
AcDbEntity
  8
1
  6
Continuous
100
AcDbLine
 10
524.5857172857141
 20
287.8747803646558
 30
0.0
 11
524.5857172857141
 21
285.6660633646558
 31
0.0
  0
ARC
  5
26A
330
18
100
AcDbEntity
  8
1
  6
Continuous
100
AcDbCircle
 10
525.5857172857141
 20
288.1747763646558
 30
0.0
 40
2.576193299999999
100
AcDbArc
 50
332.2377599999999
 51
54.46232300000063
  0
LINE
  5
26B
330
18
100
AcDbEntity
  8
1
  6
Continuous
100
AcDbLine
 10
526.0963072857141
 20
288.1747833646557
 30
0.0
 11
528.1619192857141
 21
288.1747833646557
 31
0.0
  0
ARC
  5
26C
330
18
100
AcDbEntity
  8
1
  6
Continuous
100
AcDbCircle
 10
524.5857172857141
 20
288.3747803646558
 30
0.0
 40
0.5000003600000002
100
AcDbArc
 50
179.9999899999989
 51
0.0000100179106335
  0
LINE
  5
26D
330
18
100
AcDbEntity
  8
1
  6
Continuous
100
AcDbLine
 10
524.0857172857142
 20
290.8990803646558
 30
0.0
 11
524.0857172857142
 21
288.3747803646558
 31
0.0
  0
LINE
  5
26E
330
18
100
AcDbEntity
  8
1
  6
Continuous
100
AcDbLine
 10
525.0857172857141
 20
290.4401413646557
 30
0.0
 11
525.0857172857141
 21
288.3747803646558
 31
0.0
  0
LINE
  5
26F
330
18
100
AcDbEntity
  8
1
  6
Continuous
100
AcDbLine
 10
525.5582212857141
 20
286.1666513646558
 30
0.0
 11
526.7242672857141
 21
290.5183813646557
 31
0.0
  0
ARC
  5
270
330
18
100
AcDbEntity
  8
1
  6
Continuous
100
AcDbCircle
 10
492.1293742857141
 20
316.6864793646558
 30
0.0
 40
4.659999799999998
100
AcDbArc
 50
205.287649999998
 51
267.1471100000001
  0
LINE
  5
271
330
18
100
AcDbEntity
  8
1
  6
Continuous
100
AcDbLine
 10
476.7857142857141
 20
322.6747723646558
 30
0.0
 11
476.7857142857141
 21
319.4747713646558
 31
0.0
  0
LINE
  5
273
330
18
100
AcDbEntity
  8
1
  6
Continuous
100
AcDbLine
 10
487.9159142857141
 20
314.6958983646558
 30
0.0
 11
486.1994742857141
 21
318.3290973646557
 31
0.0
  0
ARC
  5
274
330
18
100
AcDbEntity
  8
1
  6
Continuous
100
AcDbCircle
 10
484.3911242857143
 20
317.4747713646558
 30
0.0
 40
2.0
100
AcDbArc
 50
25.28764999999804
 51
89.99999600000093
  0
LINE
  5
275
330
18
100
AcDbEntity
  8
1
  6
Continuous
100
AcDbLine
 10
556.1439062857141
 20
310.9526943646558
 30
0.0
 11
497.4275242857141
 21
310.9526943646558
 31
0.0
  0
LINE
  5
276
330
18
100
AcDbEntity
  8
1
  6
Continuous
100
AcDbLine
 10
491.665234285714
 20
297.1149353646558
 30
0.0
 11
492.8559842857141
 21
303.8680303646558
 31
0.0
  0
ARC
  5
277
330
18
100
AcDbEntity
  8
1
  6
Continuous
100
AcDbCircle
 10
502.7457142857143
 20
308.1747763646558
 30
0.0
 40
6.0
100
AcDbArc
 50
152.4199499999988
 51
178.4719299999997
  0
ARC
  5
278
330
18
100
AcDbEntity
  8
1
  6
Continuous
100
AcDbCircle
 10
496.795224285714
 20
303.1734353646557
 30
0.0
 40
4.0
100
AcDbArc
 50
112.2689499999993
 51
170.0000100000007
  0
ARC
  5
279
330
18
100
AcDbEntity
  8
1
  6
Continuous
100
AcDbCircle
 10
495.2483842857141
 20
308.3747753646557
 30
0.0
 40
1.5
100
AcDbArc
 50
271.1853000000002
 51
358.4719299999997
  0
ARC
  5
27A
330
18
100
AcDbEntity
  8
1
  6
Continuous
100
AcDbCircle
 10
492.235714285714
 20
319.6747723646558
 30
0.0
 40
7.650000099999998
100
AcDbArc
 50
267.4655600000008
 51
270.0
  0
LINE
  5
27B
330
18
100
AcDbEntity
  8
1
  6
Continuous
100
AcDbLine
 10
492.235714285714
 20
312.0247743646558
 30
0.0
 11
492.0707042857141
 21
312.0268513646558
 31
0.0
  0
LINE
  5
27C
330
18
100
AcDbEntity
  8
1
  6
Continuous
100
AcDbLine
 10
496.8160042857142
 20
312.0247743646558
 30
0.0
 11
497.4275342857143
 21
310.9527013646558
 31
0.0
  0
ARC
  5
27D
330
18
100
AcDbEntity
  8
1
  6
Continuous
100
AcDbCircle
 10
519.5857142857142
 20
279.7747783646558
 30
0.0
 40
12.0
100
AcDbArc
 50
79.98458900000014
 51
81.71669699999922
  0
LINE
  5
27E
330
18
100
AcDbEntity
  8
4
  6
CENTER
 48
0.2
100
AcDbLine
 10
526.7857142857142
 20
327.6747723646558
 30
0.0
 11
526.7857142857142
 21
301.8747773646558
 31
0.0
  0
ARC
  5
27F
330
18
100
AcDbEntity
  8
1
  6
Continuous
100
AcDbCircle
 10
554.8206802857142
 20
296.1747803646558
 30
0.0
 40
2.0
100
AcDbArc
 50
90.00000299999769
 51
186.3511500000024
  0
LINE
  5
280
330
18
100
AcDbEntity
  8
1
  6
Continuous
100
AcDbLine
 10
556.7554332857141
 20
312.0247723646558
 30
0.0
 11
556.1439062857141
 21
310.9526963646557
 31
0.0
  0
ARC
  5
284
330
18
100
AcDbEntity
  8
1
  6
Continuous
100
AcDbCircle
 10
561.4420592857141
 20
316.6864793646558
 30
0.0
 40
4.659999799999998
100
AcDbArc
 50
272.8528999999988
 51
334.7123500000019
  0
ARC
  5
285
330
18
100
AcDbEntity
  8
1
  6
Continuous
100
AcDbCircle
 10
559.585713285714
 20
302.8747773646558
 30
0.0
 40
4.0
100
AcDbArc
 50
349.9999999999981
 51
90.00001600000294
  0
LINE
  5
286
330
18
100
AcDbEntity
  8
1
  6
Continuous
100
AcDbLine
 10
563.5249452857142
 20
302.1801833646558
 30
0.0
 11
562.818684285714
 21
298.1747803646558
 31
0.0
  0
LINE
  5
287
330
18
100
AcDbEntity
  8
1
  6
Continuous
100
AcDbLine
 10
559.5857092857142
 20
306.8747783646557
 30
0.0
 11
558.3230482857143
 21
306.8747773646558
 31
0.0
  0
ARC
  5
288
330
18
100
AcDbEntity
  8
1
  6
Continuous
100
AcDbCircle
 10
561.335713285714
 20
319.6747723646558
 30
0.0
 40
7.650000099999998
100
AcDbArc
 50
270.0
 51
272.5344499999983
  0
LINE
  5
289
330
18
100
AcDbEntity
  8
1
  6
Continuous
100
AcDbLine
 10
561.3355232857143
 20
312.0247723646559
 30
0.0
 11
561.5007072857141
 21
312.0268513646558
 31
0.0
  0
ARC
  5
28B
330
18
100
AcDbEntity
  8
1
  6
Continuous
100
AcDbCircle
 10
569.1803102857143
 20
317.4747713646558
 30
0.0
 40
2.0
100
AcDbArc
 50
89.99999600000093
 51
154.7123500000019
  0
LINE
  5
28C
330
18
100
AcDbEntity
  8
1
  6
Continuous
100
AcDbLine
 10
565.6555182857141
 20
314.6959043646558
 30
0.0
 11
567.3719642857142
 21
318.3290983646558
 31
0.0
  0
LINE
  5
28E
330
18
100
AcDbEntity
  8
1
  6
Continuous
100
AcDbLine
 10
576.7857142857142
 20
322.6747723646558
 30
0.0
 11
576.7857142857142
 21
319.4747713646558
 31
0.0
  0
LINE
  5
28F
330
18
100
AcDbEntity
  8
1
  6
Continuous
100
AcDbLine
 10
109.4857152857141
 20
260.1639383646558
 30
0.0
 11
108.5000352857141
 21
304.7248153646557
 31
0.0
  0
LINE
  5
290
330
18
100
AcDbEntity
  8
1
  6
Continuous
100
AcDbLine
 10
44.22663728571433
 20
266.5341553646558
 30
0.0
 11
45.07140998571435
 21
304.7248133646557
 31
0.0
  0
LINE
  5
291
330
18
100
AcDbEntity
  8
1
  6
Continuous
100
AcDbLine
 10
103.2857142857142
 20
302.8747773646558
 30
0.0
 11
103.2857142857142
 21
247.7747783646558
 31
0.0
  0
LINE
  5
292
330
18
100
AcDbEntity
  8
1
  6
Continuous
100
AcDbLine
 10
50.28571428571421
 20
302.8747773646558
 30
0.0
 11
50.28571428571421
 21
247.7747783646558
 31
0.0
  0
LINE
  5
293
330
18
100
AcDbEntity
  8
1
  6
Continuous
100
AcDbLine
 10
54.28571428571421
 20
297.3421153584378
 30
0.0
 11
54.28571428571421
 21
247.7747783646558
 31
0.0
  0
LINE
  5
294
330
18
100
AcDbEntity
  8
1
  6
Continuous
100
AcDbLine
 10
99.285714285714
 20
297.3416960410552
 30
0.0
 11
99.285714285714
 21
247.7747783646557
 31
0.0
  0
LINE
  5
295
330
18
100
AcDbEntity
  8
4
  6
CENTER
 48
0.2
100
AcDbLine
 10
76.78571428571399
 20
327.6747723646558
 30
0.0
 11
76.78571428571399
 21
220.6747723646558
 31
0.0
  0
ARC
  5
296
330
18
100
AcDbEntity
  8
1
  6
Continuous
100
AcDbCircle
 10
76.78571428571422
 20
140.6747723646557
 30
0.0
 40
150.0
100
AcDbArc
 50
84.06222819847753
 51
95.9377740348585
  0
LINE
  5
298
330
18
100
AcDbEntity
  8
4
  6
CENTER
 48
0.2
100
AcDbLine
 10
37.78571428571422
 20
258.1747723646558
 30
0.0
 11
115.7857142857137
 21
258.1747723646558
 31
0.0
  0
LINE
  5
299
330
18
100
AcDbEntity
  8
1
  6
Continuous
100
AcDbLine
 10
55.28571428571421
 20
241.0718293646558
 30
0.0
 11
55.28571428571421
 21
275.2777153646558
 31
0.0
  0
LINE
  5
29A
330
18
100
AcDbEntity
  8
1
  6
Continuous
100
AcDbLine
 10
56.78571428571399
 20
231.4527223646557
 30
0.0
 11
56.78571428571421
 21
284.8968183646558
 31
0.0
  0
ARC
  5
29D
330
18
100
AcDbEntity
  8
1
  6
Continuous
100
AcDbCircle
 10
56.28571428571421
 20
241.0718293646558
 30
0.0
 40
1.0
100
AcDbArc
 50
179.9999799999979
 51
254.9998899999974
  0
LINE
  5
29E
330
18
100
AcDbEntity
  8
1
  6
Continuous
100
AcDbLine
 10
56.02689658571399
 20
240.1059013646557
 30
0.0
 11
56.78571928571409
 21
239.9025783646557
 31
0.0
  0
LINE
  5
29F
330
18
100
AcDbEntity
  8
1
  6
Continuous
100
AcDbLine
 10
50.28571428571421
 20
247.7747783646558
 30
0.0
 11
54.28571428571421
 21
247.7747783646558
 31
0.0
  0
ARC
  5
2A0
330
18
100
AcDbEntity
  8
1
  6
Continuous
100
AcDbCircle
 10
59.77571228571424
 20
258.1747723646558
 30
0.0
 40
14.49
100
AcDbArc
 50
164.9045800000001
 51
195.0954199999998
  0
ARC
  5
2A1
330
18
100
AcDbEntity
  8
1
  6
Continuous
100
AcDbCircle
 10
32.03571428571422
 20
258.1747723646558
 30
0.0
 40
18.25
100
AcDbArc
 50
346.5572600000017
 51
13.44273899999899
  0
LINE
  5
2A2
330
18
100
AcDbEntity
  8
1
  6
Continuous
100
AcDbLine
 10
45.28571428571421
 20
249.6747723646558
 30
0.0
 11
45.28571428571421
 21
266.6747723646558
 31
0.0
  0
LINE
  5
2A3
330
18
100
AcDbEntity
  8
1
  6
Continuous
100
AcDbLine
 10
43.68572348571411
 20
250.8747693646558
 30
0.0
 11
43.68572348571411
 21
265.4775029991959
 31
0.0
  0
LINE
  5
2A4
330
18
100
AcDbEntity
  8
1
  6
Continuous
100
AcDbLine
 10
43.53571428571421
 20
263.1747723646558
 30
0.0
 11
43.53571428571421
 21
253.1747723646558
 31
0.0
  0
LINE
  5
2A5
330
18
100
AcDbEntity
  8
1
  6
Continuous
100
AcDbLine
 10
42.78571428571422
 20
262.4247723646558
 30
0.0
 11
42.78571428571422
 21
253.9247723646558
 31
0.0
  0
ARC
  5
2A6
330
18
100
AcDbEntity
  8
1
  6
Continuous
100
AcDbCircle
 10
49.09571948571421
 20
250.8135583646558
 30
0.0
 40
3.8100059
100
AcDbArc
 50
150.3156199999998
 51
209.6843800000002
  0
ARC
  5
2A7
330
18
100
AcDbEntity
  8
1
  6
Continuous
100
AcDbCircle
 10
45.49858968571426
 20
250.8048233646558
 30
0.0
 40
4.787128
100
AcDbArc
 50
333.5795799999981
 51
26.42042000000174
  0
LINE
  5
2A8
330
18
100
AcDbEntity
  8
1
  6
Continuous
100
AcDbLine
 10
49.7857163857143
 20
248.6747723646558
 30
0.0
 11
45.78571038571431
 21
248.9267633646558
 31
0.0
  0
LINE
  5
2A9
330
18
100
AcDbEntity
  8
1
  6
Continuous
100
AcDbLine
 10
45.78571649571427
 20
248.8747773646557
 30
0.0
 11
49.78571718571425
 21
248.6747723646557
 31
0.0
  0
ARC
  5
2AA
330
18
100
AcDbEntity
  8
1
  6
Continuous
100
AcDbCircle
 10
44.88572038571418
 20
250.8747693646558
 30
0.0
 40
1.199999999999999
100
AcDbArc
 50
180.0000099999977
 51
270.0
  0
LINE
  5
2AB
330
18
100
AcDbEntity
  8
1
  6
Continuous
100
AcDbLine
 10
44.88572038571418
 20
249.6747723646558
 30
0.0
 11
45.28571428571421
 21
249.6747723646558
 31
0.0
  0
LINE
  5
2AC
330
18
100
AcDbEntity
  8
1
  6
Continuous
100
AcDbLine
 10
45.78572352571427
 20
248.8747693646558
 30
0.0
 11
45.28572378571425
 21
249.6747723646558
 31
0.0
  0
LINE
  5
2AD
330
18
100
AcDbEntity
  8
1
  6
Continuous
100
AcDbLine
 10
45.78571428571421
 20
248.8747693646558
 30
0.0
 11
45.78571428571421
 21
248.9267633646558
 31
0.0
  0
LINE
  5
2AE
330
18
100
AcDbEntity
  8
1
  6
Continuous
100
AcDbLine
 10
50.28572238571451
 20
249.6747723646558
 30
0.0
 11
49.78572218571435
 21
248.6747723646558
 31
0.0
  0
LINE
  5
2AF
330
18
100
AcDbEntity
  8
1
  6
Continuous
100
AcDbLine
 10
45.78571881571429
 20
252.7003463646558
 30
0.0
 11
49.78571618571415
 21
252.9348733646557
 31
0.0
  0
LINE
  5
2B0
330
18
100
AcDbEntity
  8
1
  6
Continuous
100
AcDbLine
 10
49.78571448571415
 20
253.9321343646558
 30
0.0
 11
45.78571672571434
 21
254.4011823646557
 31
0.0
  0
LINE
  5
2B1
330
18
100
AcDbEntity
  8
1
  6
Continuous
100
AcDbLine
 10
45.78571428571399
 20
252.7003533646557
 30
0.0
 11
45.78571428571399
 21
254.4011823646557
 31
0.0
  0
LINE
  5
2B2
330
18
100
AcDbEntity
  8
1
  6
Continuous
100
AcDbLine
 10
43.535699985714
 20
253.1747573646558
 30
0.0
 11
42.78569898571413
 21
253.9247573646558
 31
0.0
  0
LINE
  5
2B4
330
18
100
AcDbEntity
  8
1
  6
Continuous
100
AcDbLine
 10
43.53571428571421
 20
253.1747723646558
 30
0.0
 11
43.68572348571433
 21
253.1747723646558
 31
0.0
  0
LINE
  5
2B5
330
18
100
AcDbEntity
  8
1
  6
Continuous
100
AcDbLine
 10
49.78571428571421
 20
253.9321343646558
 30
0.0
 11
49.78571428571421
 21
252.9348813646558
 31
0.0
  0
LINE
  5
2B8
330
18
100
AcDbEntity
  8
1
  6
Continuous
100
AcDbLine
 10
49.78571428571421
 20
262.4174173646558
 30
0.0
 11
49.78571428571421
 21
263.4146713646558
 31
0.0
  0
LINE
  5
2B9
330
18
100
AcDbEntity
  8
1
  6
Continuous
100
AcDbLine
 10
45.78571428571399
 20
263.6491913646557
 30
0.0
 11
45.78571428571399
 21
261.9483623646557
 31
0.0
  0
LINE
  5
2BA
330
18
100
AcDbEntity
  8
1
  6
Continuous
100
AcDbLine
 10
42.78569898571413
 20
262.4247573646557
 30
0.0
 11
43.53571618571414
 21
263.1747723646557
 31
0.0
  0
LINE
  5
2BB
330
18
100
AcDbEntity
  8
1
  6
Continuous
100
AcDbLine
 10
49.78571238571429
 20
262.4174103646558
 30
0.0
 11
45.78572197571429
 21
261.9483623646558
 31
0.0
  0
LINE
  5
2BC
330
18
100
AcDbEntity
  8
2
  6
Continuous
100
AcDbLine
 10
42.78571428571399
 20
262.3627723646558
 30
0.0
 11
43.68572348571411
 21
262.3627723646558
 31
0.0
  0
LINE
  5
2BD
330
18
100
AcDbEntity
  8
1
  6
Continuous
100
AcDbLine
 10
45.78571238571429
 20
267.4747753646558
 30
0.0
 11
49.78571288571448
 21
267.6747723646558
 31
0.0
  0
LINE
  5
2BE
330
18
100
AcDbEntity
  8
1
  6
Continuous
100
AcDbLine
 10
49.78571498571432
 20
267.6747723646558
 30
0.0
 11
45.78571750571427
 21
267.4227883646558
 31
0.0
  0
LINE
  5
2BF
330
18
100
AcDbEntity
  8
1
  6
Continuous
100
AcDbLine
 10
45.78571108571417
 20
263.6491833646558
 30
0.0
 11
49.78570828571424
 21
263.4146553646558
 31
0.0
  0
ARC
  5
2C0
330
18
100
AcDbEntity
  8
1
  6
Continuous
100
AcDbCircle
 10
44.88572038571418
 20
265.4747753646558
 30
0.0
 40
1.199999999999999
100
AcDbArc
 50
90.00000299999769
 51
180.0000099999977
  0
ARC
  5
2C1
330
18
100
AcDbEntity
  8
1
  6
Continuous
100
AcDbCircle
 10
49.09571948571421
 20
265.5359863646558
 30
0.0
 40
3.8100059
100
AcDbArc
 50
150.3156199999998
 51
209.6843800000002
  0
LINE
  5
2C2
330
18
100
AcDbEntity
  8
1
  6
Continuous
100
AcDbLine
 10
45.78571428571421
 20
267.4747753646558
 30
0.0
 11
45.78571428571421
 21
267.4227883646558
 31
0.0
  0
LINE
  5
2C3
330
18
100
AcDbEntity
  8
1
  6
Continuous
100
AcDbLine
 10
45.78571368571418
 20
267.4747753646558
 30
0.0
 11
45.28571408571406
 21
266.6747723646557
 31
0.0
  0
LINE
  5
2C4
330
18
100
AcDbEntity
  8
1
  6
Continuous
100
AcDbLine
 10
44.88572038571418
 20
266.6747723646558
 30
0.0
 11
45.28571428571421
 21
266.6747723646558
 31
0.0
  0
LINE
  5
2C5
330
18
100
AcDbEntity
  8
1
  6
Continuous
100
AcDbLine
 10
43.53571428571421
 20
263.1747723646558
 30
0.0
 11
43.68572348571433
 21
263.1747723646558
 31
0.0
  0
ARC
  5
2C6
330
18
100
AcDbEntity
  8
1
  6
Continuous
100
AcDbCircle
 10
45.49858968571426
 20
265.5447213646558
 30
0.0
 40
4.787128
100
AcDbArc
 50
333.5795799999981
 51
26.42042000000174
  0
LINE
  5
2C7
330
18
100
AcDbEntity
  8
1
  6
Continuous
100
AcDbLine
 10
50.28571018571415
 20
266.6747723646558
 30
0.0
 11
49.78571018571415
 21
267.6747723646557
 31
0.0
  0
LINE
  5
2C8
330
18
100
AcDbEntity
  8
1
  6
Continuous
100
AcDbLine
 10
54.78571428571421
 20
250.3747773646558
 30
0.0
 11
54.78571428571421
 21
265.9747673646557
 31
0.0
  0
LINE
  5
2C9
330
18
100
AcDbEntity
  8
1
  6
Continuous
100
AcDbLine
 10
54.78571428571421
 20
250.3747693646558
 30
0.0
 11
55.28571428571421
 21
250.3747693646558
 31
0.0
  0
LINE
  5
2CA
330
18
100
AcDbEntity
  8
1
  6
Continuous
100
AcDbLine
 10
54.28571718571426
 20
250.8747613646558
 30
0.0
 11
54.78571188571415
 21
250.3747693646557
 31
0.0
  0
LINE
  5
2CB
330
18
100
AcDbEntity
  8
1
  6
Continuous
100
AcDbLine
 10
54.78571428571421
 20
265.9747753646558
 30
0.0
 11
55.28571428571421
 21
265.9747753646558
 31
0.0
  0
LINE
  5
2CC
330
18
100
AcDbEntity
  8
1
  6
Continuous
100
AcDbLine
 10
54.28571718571403
 20
265.4747833646557
 30
0.0
 11
54.78571188571415
 21
265.9747753646558
 31
0.0
  0
ARC
  5
2CD
330
18
100
AcDbEntity
  8
1
  6
Continuous
100
AcDbCircle
 10
56.28571428571421
 20
275.2777153646558
 30
0.0
 40
1.0
100
AcDbArc
 50
105.0001100000022
 51
180.0000199999987
  0
LINE
  5
2CE
330
18
100
AcDbEntity
  8
1
  6
Continuous
100
AcDbLine
 10
56.02689658571399
 20
276.2436393646558
 30
0.0
 11
56.78571928571409
 21
276.4469663646558
 31
0.0
  0
ARC
  5
2CF
330
18
100
AcDbEntity
  8
1
  6
Continuous
100
AcDbCircle
 10
61.78571428571421
 20
284.8968183646558
 30
0.0
 40
5.0
100
AcDbArc
 50
95.93781400000173
 51
180.0000199999987
  0
LINE
  5
2D0
330
18
100
AcDbEntity
  8
1
  6
Continuous
100
AcDbLine
 10
96.785714285714
 20
231.4527223646557
 30
0.0
 11
96.78571428571423
 21
284.8968183646558
 31
0.0
  0
LINE
  5
2D1
330
18
100
AcDbEntity
  8
1
  6
Continuous
100
AcDbLine
 10
98.28571428571422
 20
241.0718293646558
 30
0.0
 11
98.28571428571422
 21
275.2777153646558
 31
0.0
  0
ARC
  5
2D3
330
18
100
AcDbEntity
  8
1
  6
Continuous
100
AcDbCircle
 10
97.28571428571422
 20
241.0718293646558
 30
0.0
 40
1.0
100
AcDbArc
 50
284.9999800000009
 51
359.9999499999982
  0
LINE
  5
2D4
330
18
100
AcDbEntity
  8
1
  6
Continuous
100
AcDbLine
 10
97.54453028571424
 20
240.1059013646557
 30
0.0
 11
96.785714285714
 21
239.9025783646557
 31
0.0
  0
LINE
  5
2D5
330
18
100
AcDbEntity
  8
1
  6
Continuous
100
AcDbLine
 10
99.28571428571423
 20
247.7747783646558
 30
0.0
 11
103.2857142857142
 21
247.7747783646558
 31
0.0
  0
LINE
  5
2D6
330
18
100
AcDbEntity
  8
1
  6
Continuous
100
AcDbLine
 10
98.78571428571422
 20
258.1747723646558
 30
0.0
 11
98.78571428571422
 21
250.3747693646558
 31
0.0
  0
LINE
  5
2D7
330
18
100
AcDbEntity
  8
1
  6
Continuous
100
AcDbLine
 10
99.285714285714
 20
250.8747773646557
 30
0.0
 11
98.78572228571421
 21
250.3747773646557
 31
0.0
  0
LINE
  5
2D8
330
18
100
AcDbEntity
  8
1
  6
Continuous
100
AcDbLine
 10
98.78571428571422
 20
250.3747693646558
 30
0.0
 11
98.28571428571422
 21
250.3747693646558
 31
0.0
  0
LINE
  5
2D9
330
18
100
AcDbEntity
  8
1
  6
Continuous
100
AcDbLine
 10
98.78571428571422
 20
258.1747723646558
 30
0.0
 11
98.78571428571422
 21
265.9747753646558
 31
0.0
  0
LINE
  5
2DA
330
18
100
AcDbEntity
  8
1
  6
Continuous
100
AcDbLine
 10
98.78571428571422
 20
265.9747753646558
 30
0.0
 11
98.28571428571422
 21
265.9747753646558
 31
0.0
  0
LINE
  5
2DB
330
18
100
AcDbEntity
  8
1
  6
Continuous
100
AcDbLine
 10
99.285714285714
 20
265.4747673646557
 30
0.0
 11
98.78572228571421
 21
265.9747673646557
 31
0.0
  0
ARC
  5
2DC
330
18
100
AcDbEntity
  8
1
  6
Continuous
100
AcDbCircle
 10
101.4876722857143
 20
259.9870203646558
 30
0.0
 40
8.0
100
AcDbArc
 50
328.18506
 51
1.267185499999673
  0
LINE
  5
2DD
330
18
100
AcDbEntity
  8
1
  6
Continuous
100
AcDbLine
 10
108.2857142857142
 20
265.1747723646558
 30
0.0
 11
108.2857142857142
 21
251.1747723646558
 31
0.0
  0
LINE
  5
2DE
330
18
100
AcDbEntity
  8
1
  6
Continuous
100
AcDbLine
 10
107.2857142857142
 20
267.1747723646558
 30
0.0
 11
107.2857142857142
 21
249.1747723646558
 31
0.0
  0
LINE
  5
2DF
330
18
100
AcDbEntity
  8
1
  6
Continuous
100
AcDbLine
 10
107.2857142857142
 20
249.1747723646558
 30
0.0
 11
108.2857142857142
 21
251.1747723646558
 31
0.0
  0
LINE
  5
2E0
330
18
100
AcDbEntity
  8
1
  6
Continuous
100
AcDbLine
 10
103.2857142857142
 20
249.1747723646558
 30
0.0
 11
107.2857142857142
 21
249.1747723646558
 31
0.0
  0
LINE
  5
2E1
330
18
100
AcDbEntity
  8
1
  6
Continuous
100
AcDbLine
 10
108.2857182857139
 20
265.1747723646557
 30
0.0
 11
107.2857182857139
 21
267.1747723646557
 31
0.0
  0
LINE
  5
2E2
330
18
100
AcDbEntity
  8
1
  6
Continuous
100
AcDbLine
 10
103.2857142857142
 20
267.1747723646558
 30
0.0
 11
107.2857142857142
 21
267.1747723646558
 31
0.0
  0
ARC
  5
2E3
330
18
100
AcDbEntity
  8
1
  6
Continuous
100
AcDbCircle
 10
97.28571428571422
 20
275.2777153646558
 30
0.0
 40
1.0
100
AcDbArc
 50
0.0000546415133601
 51
75.00001899999687
  0
LINE
  5
2E4
330
18
100
AcDbEntity
  8
1
  6
Continuous
100
AcDbLine
 10
97.54453028571424
 20
276.2436433646558
 30
0.0
 11
96.78571828571399
 21
276.4469663646558
 31
0.0
  0
ARC
  5
2E5
330
18
100
AcDbEntity
  8
1
  6
Continuous
100
AcDbCircle
 10
91.78571428571421
 20
284.8968183646558
 30
0.0
 40
5.0
100
AcDbArc
 50
0.0000478113241901
 51
84.06225299999904
  0
LINE
  5
2E6
330
18
100
AcDbEntity
  8
1
  6
Continuous
100
AcDbLine
 10
26.78571428571422
 20
319.4747713646558
 30
0.0
 11
126.7857142857142
 21
319.4747713646558
 31
0.0
  0
ARC
  5
2E7
330
18
100
AcDbEntity
  8
1
  6
Continuous
100
AcDbCircle
 10
76.78319004871354
 20
26.44766252363751
 30
0.0
 40
271.8270424228844
100
AcDbArc
 50
84.40490226408838
 51
95.60557934623099
  0
LINE
  5
2E8
330
18
100
AcDbEntity
  8
1
  6
Continuous
100
AcDbLine
 10
47.42752184571418
 20
310.9526943646558
 30
0.0
 11
106.1439062857141
 21
310.9526943646558
 31
0.0
  0
LINE
  5
2E9
330
18
100
AcDbEntity
  8
1
  6
Continuous
100
AcDbLine
 10
26.78571428571422
 20
322.6747723646558
 30
0.0
 11
126.7857142857142
 21
322.6747723646558
 31
0.0
  0
LINE
  5
2EA
330
18
100
AcDbEntity
  8
1
  6
Continuous
100
AcDbLine
 10
47.14425768571413
 20
306.8747773646557
 30
0.0
 11
106.548402285714
 21
306.8747773646557
 31
0.0
  0
LINE
  5
2EB
330
18
100
AcDbEntity
  8
1
  6
Continuous
100
AcDbLine
 10
42.23590958571413
 20
312.0247723646558
 30
0.0
 11
111.3357172857142
 21
312.0247723646558
 31
0.0
  0
ARC
  5
2EC
330
18
100
AcDbEntity
  8
1
  6
Continuous
100
AcDbCircle
 10
54.28571428571421
 20
302.8747773646558
 30
0.0
 40
4.0
100
AcDbArc
 50
90.00000299999769
 51
180.0000099999977
  0
ARC
  5
2ED
330
18
100
AcDbEntity
  8
1
  6
Continuous
100
AcDbCircle
 10
42.12937268571431
 20
316.6864793646558
 30
0.0
 40
4.659999799999998
100
AcDbArc
 50
205.287649999998
 51
267.1471000000011
  0
ARC
  5
2F3
330
18
100
AcDbEntity
  8
1
  6
Continuous
100
AcDbCircle
 10
42.23571118571408
 20
319.6747723646558
 30
0.0
 40
7.650000099999998
100
AcDbArc
 50
267.4655500000016
 51
270.0
  0
LINE
  5
2F4
330
18
100
AcDbEntity
  8
1
  6
Continuous
100
AcDbLine
 10
42.23590198571446
 20
312.0247723646558
 30
0.0
 11
42.07071558571442
 21
312.0268513646558
 31
0.0
  0
ARC
  5
2F5
330
18
100
AcDbEntity
  8
1
  6
Continuous
100
AcDbCircle
 10
52.74571338571423
 20
308.1747763646558
 30
0.0
 40
6.0
100
AcDbArc
 50
152.42004
 51
178.4719299999997
  0
ARC
  5
2F6
330
18
100
AcDbEntity
  8
1
  6
Continuous
100
AcDbCircle
 10
45.24837598571411
 20
308.3747753646557
 30
0.0
 40
1.5
100
AcDbArc
 50
293.2789099999991
 51
358.4719299999997
  0
ARC
  5
2F7
330
18
100
AcDbEntity
  8
1
  6
Continuous
100
AcDbCircle
 10
49.07041278571433
 20
304.6363563646558
 30
0.0
 40
4.0
100
AcDbArc
 50
143.833579999997
 51
178.7328
  0
LINE
  5
2F8
330
18
100
AcDbEntity
  8
1
  6
Continuous
100
AcDbLine
 10
46.81599259071435
 20
312.0247703646558
 30
0.0
 11
47.42751957571431
 21
310.9526943646558
 31
0.0
  0
ARC
  5
2F9
330
18
100
AcDbEntity
  8
1
  6
Continuous
100
AcDbCircle
 10
34.39112228571412
 20
317.4747713646558
 30
0.0
 40
2.0
100
AcDbArc
 50
25.28764800000143
 51
90.00000299999769
  0
LINE
  5
2FB
330
18
100
AcDbEntity
  8
1
  6
Continuous
100
AcDbLine
 10
26.78571428571422
 20
322.6747723646558
 30
0.0
 11
26.78571428571422
 21
319.4747713646558
 31
0.0
  0
LINE
  5
2FE
330
18
100
AcDbEntity
  8
1
  6
Continuous
100
AcDbLine
 10
37.91591278571422
 20
314.6959023646558
 30
0.0
 11
36.19946628571415
 21
318.3291003646558
 31
0.0
  0
LINE
  5
2FF
330
18
100
AcDbEntity
  8
1
  6
Continuous
100
AcDbLine
 10
115.6555112857142
 20
314.6958963646557
 30
0.0
 11
117.3719572857141
 21
318.3290963646558
 31
0.0
  0
ARC
  5
300
330
18
100
AcDbEntity
  8
1
  6
Continuous
100
AcDbCircle
 10
111.442063285714
 20
316.6864793646558
 30
0.0
 40
4.659999799999998
100
AcDbArc
 50
272.8528899999997
 51
334.7123500000019
  0
ARC
  5
301
330
18
100
AcDbEntity
  8
1
  6
Continuous
100
AcDbCircle
 10
99.28571428571423
 20
302.8747773646558
 30
0.0
 40
4.0
100
AcDbArc
 50
0.0
 51
90.00000299999769
  0
ARC
  5
302
330
18
100
AcDbEntity
  8
1
  6
Continuous
100
AcDbCircle
 10
104.5010122857142
 20
304.6363563646558
 30
0.0
 40
4.0
100
AcDbArc
 50
1.267157500001142
 51
36.16637100000032
  0
ARC
  5
303
330
18
100
AcDbEntity
  8
1
  6
Continuous
100
AcDbCircle
 10
100.8257152857142
 20
308.1747763646558
 30
0.0
 40
6.0
100
AcDbArc
 50
1.528068900002329
 51
27.58004799999842
  0
ARC
  5
304
330
18
100
AcDbEntity
  8
1
  6
Continuous
100
AcDbCircle
 10
108.3230452857142
 20
308.3747753646557
 30
0.0
 40
1.5
100
AcDbArc
 50
181.5280700000002
 51
246.7213100000006
  0
LINE
  5
305
330
18
100
AcDbEntity
  8
1
  6
Continuous
100
AcDbLine
 10
106.7554292857141
 20
312.0247693646557
 30
0.0
 11
106.1439062857141
 21
310.9526993646558
 31
0.0
  0
ARC
  5
306
330
18
100
AcDbEntity
  8
1
  6
Continuous
100
AcDbCircle
 10
111.3357172857142
 20
319.6747723646558
 30
0.0
 40
7.650000099999998
100
AcDbArc
 50
270.0
 51
272.5344399999991
  0
LINE
  5
307
330
18
100
AcDbEntity
  8
1
  6
Continuous
100
AcDbLine
 10
111.3357092857143
 20
312.0247723646558
 30
0.0
 11
111.5007102857143
 21
312.0268493646558
 31
0.0
  0
ARC
  5
30B
330
18
100
AcDbEntity
  8
1
  6
Continuous
100
AcDbCircle
 10
119.1803142857142
 20
317.4747713646558
 30
0.0
 40
2.0
100
AcDbArc
 50
90.00000299999769
 51
154.7123500000019
  0
LINE
  5
30C
330
18
100
AcDbEntity
  8
1
  6
Continuous
100
AcDbLine
 10
126.7857142857142
 20
322.6747723646558
 30
0.0
 11
126.7857142857142
 21
319.4747713646558
 31
0.0
  0
ARC
  5
332
330
18
100
AcDbEntity
  8
1
  6
Continuous
100
AcDbCircle
 10
208.7857142857137
 20
258.1747723646558
 30
0.0
 40
32.5
100
AcDbArc
 50
105.6531900000031
 51
10.92681000000068
  0
ARC
  5
333
330
18
100
AcDbEntity
  8
1
  6
Continuous
100
AcDbCircle
 10
208.7857142857137
 20
258.1747723646558
 30
0.0
 40
22.5
100
AcDbArc
 50
116.4142111697471
 51
357.2731666340138
  0
LINE
  5
334
330
18
100
AcDbEntity
  8
1
  6
Continuous
100
AcDbLine
 10
197.4275222857138
 20
310.9526943646558
 30
0.0
 11
256.1439042857136
 21
310.9526943646558
 31
0.0
  0
LINE
  5
335
330
18
100
AcDbEntity
  8
1
  6
Continuous
100
AcDbLine
 10
192.2359092857135
 20
312.0247723646558
 30
0.0
 11
261.3369512173523
 21
312.0247723646558
 31
0.0
  0
LINE
  5
336
330
18
100
AcDbEntity
  8
1
  6
Continuous
100
AcDbLine
 10
193.9831742857138
 20
306.8747773646558
 30
0.0
 11
258.2928042857138
 21
306.8747773646558
 31
0.0
  0
ARC
  5
33F
330
18
100
AcDbEntity
  8
1
  6
Continuous
100
AcDbCircle
 10
208.7857142857137
 20
259.7747783646558
 30
0.0
 40
12.0
100
AcDbArc
 50
173.648852100001
 51
286.8696100000001
  0
ARC
  5
340
330
18
100
AcDbEntity
  8
1
  6
Continuous
100
AcDbCircle
 10
208.7857142857137
 20
258.1747723646558
 30
0.0
 40
18.27219399996107
100
AcDbArc
 50
125.4403857415767
 51
347.9199728502275
  0
ARC
  5
341
330
18
100
AcDbEntity
  8
1
  6
Continuous
100
AcDbCircle
 10
208.7857142857137
 20
258.1747723646558
 30
0.0
 40
12.27219399996108
100
AcDbArc
 50
166.507691109332
 51
320.6650935643805
  0
LINE
  5
342
330
18
100
AcDbEntity
  8
1
  6
Continuous
100
AcDbLine
 10
176.7857142857137
 20
322.6747723646558
 30
0.0
 11
276.7857142857137
 21
322.6747723646558
 31
0.0
  0
LINE
  5
343
330
18
100
AcDbEntity
  8
1
  6
Continuous
100
AcDbLine
 10
276.7857142857137
 20
319.4747713646558
 30
0.0
 11
176.7857142857137
 21
319.4747713646558
 31
0.0
  0
LINE
  5
344
330
18
100
AcDbEntity
  8
1
  6
Continuous
100
AcDbLine
 10
210.2292722857137
 20
298.7614273646558
 30
0.0
 11
215.7714552857137
 21
267.3301603646558
 31
0.0
  0
ARC
  5
348
330
18
100
AcDbEntity
  8
1
  6
Continuous
100
AcDbCircle
 10
190.5034452857137
 20
320.0637343646558
 30
0.0
 40
75.0
100
AcDbArc
 50
286.8696100000001
 51
342.1826200000012
  0
ARC
  5
34B
330
18
100
AcDbEntity
  8
1
  6
Continuous
100
AcDbCircle
 10
208.7857142857137
 20
260.1747723646558
 30
0.0
 40
10.0
100
AcDbArc
 50
334.3127099999989
 51
45.68730999999824
  0
LINE
  5
352
330
18
100
AcDbEntity
  8
1
  6
Continuous
100
AcDbLine
 10
217.7974402857137
 20
255.8401853646557
 30
0.0
 11
218.5926452857138
 21
251.3303663646557
 31
0.0
  0
ARC
  5
35F
330
18
100
AcDbEntity
  8
1
  6
Continuous
100
AcDbCircle
 10
258.3230442857138
 20
308.3747753646557
 30
0.0
 40
1.5
100
AcDbArc
 50
181.5280700000003
 51
268.8146999999998
  0
ARC
  5
360
330
18
100
AcDbEntity
  8
1
  6
Continuous
100
AcDbCircle
 10
256.7762042857139
 20
303.1734353646557
 30
0.0
 40
4.0
100
AcDbArc
 50
9.999989999999243
 51
67.73105000000061
  0
LINE
  5
361
330
18
100
AcDbEntity
  8
1
  6
Continuous
100
AcDbLine
 10
261.9061942857138
 20
297.1149353646558
 30
0.0
 11
260.7154442857138
 21
303.8680303646558
 31
0.0
  0
ARC
  5
362
330
18
100
AcDbEntity
  8
1
  6
Continuous
100
AcDbCircle
 10
269.1803042857136
 20
317.4747713646558
 30
0.0
 40
2.0
100
AcDbArc
 50
90.00000399999908
 51
154.7123500000019
  0
LINE
  5
364
330
18
100
AcDbEntity
  8
1
  6
Continuous
100
AcDbLine
 10
256.7554242857136
 20
312.0247743646558
 30
0.0
 11
256.1438942857137
 21
310.9527013646558
 31
0.0
  0
LINE
  5
365
330
18
100
AcDbEntity
  8
1
  6
Continuous
100
AcDbLine
 10
261.335714285714
 20
312.0247743646558
 30
0.0
 11
261.5007242857138
 21
312.0268513646558
 31
0.0
  0
ARC
  5
366
330
18
100
AcDbEntity
  8
1
  6
Continuous
100
AcDbCircle
 10
261.335714285714
 20
319.6747723646558
 30
0.0
 40
7.650000099999998
100
AcDbArc
 50
270.0
 51
272.5344399999991
  0
ARC
  5
367
330
18
100
AcDbEntity
  8
1
  6
Continuous
100
AcDbCircle
 10
250.8257142857137
 20
308.1747763646558
 30
0.0
 40
6.0
100
AcDbArc
 50
1.52807000000027
 51
27.58005000000113
  0
LINE
  5
368
330
18
100
AcDbEntity
  8
1
  6
Continuous
100
AcDbLine
 10
265.6555079499265
 20
314.6958999626896
 30
0.0
 11
267.3719549959936
 21
318.3290973249128
 31
0.0
  0
ARC
  5
369
330
18
100
AcDbEntity
  8
1
  6
Continuous
100
AcDbCircle
 10
261.4420542857137
 20
316.6864793646558
 30
0.0
 40
4.659999799999998
100
AcDbArc
 50
272.8528899999997
 51
334.7123500000019
  0
LINE
  5
36A
330
18
100
AcDbEntity
  8
1
  6
Continuous
100
AcDbLine
 10
276.7857142857137
 20
322.6747723646558
 30
0.0
 11
276.7857142857137
 21
319.4747713646558
 31
0.0
  0
LINE
  5
395
330
18
100
AcDbEntity
  8
1
  6
Continuous
100
AcDbLine
 10
200.7384732857137
 20
295.9535393646558
 30
0.0
 11
196.8593612857137
 21
261.1022393646557
 31
0.0
  0
ARC
  5
39C
330
18
100
AcDbEntity
  8
1
  6
Continuous
100
AcDbCircle
 10
195.2483802857136
 20
308.3747753646557
 30
0.0
 40
1.5
100
AcDbArc
 50
270.0
 51
358.4719299999997
  0
ARC
  5
39D
330
18
100
AcDbEntity
  8
1
  6
Continuous
100
AcDbCircle
 10
193.9857152857139
 20
302.8747773646558
 30
0.0
 40
4.0
100
AcDbArc
 50
89.99998399999709
 51
190.0000000000018
  0
ARC
  5
39E
330
18
100
AcDbEntity
  8
1
  6
Continuous
100
AcDbCircle
 10
198.7507482857138
 20
296.1747803646558
 30
0.0
 40
2.0
100
AcDbArc
 50
353.6488499999975
 51
89.99999700000229
  0
LINE
  5
39F
330
18
100
AcDbEntity
  8
1
  6
Continuous
100
AcDbLine
 10
190.7527442857137
 20
298.1747803646558
 30
0.0
 11
198.7507482857138
 21
298.1747803646558
 31
0.0
  0
LINE
  5
3A0
330
18
100
AcDbEntity
  8
1
  6
Continuous
100
AcDbLine
 10
193.9857192857136
 20
306.8747783646557
 30
0.0
 11
195.2483802857136
 21
306.8747773646558
 31
0.0
  0
LINE
  5
3A1
330
18
100
AcDbEntity
  8
1
  6
Continuous
100
AcDbLine
 10
190.0464832857137
 20
302.1801833646558
 30
0.0
 11
190.7527442857137
 21
298.1747803646558
 31
0.0
  0
ARC
  5
3A2
330
18
100
AcDbEntity
  8
1
  6
Continuous
100
AcDbCircle
 10
184.3911182857136
 20
317.4747713646558
 30
0.0
 40
2.0
100
AcDbArc
 50
25.28764999999804
 51
90.00000399999908
  0
ARC
  5
3A4
330
18
100
AcDbEntity
  8
1
  6
Continuous
100
AcDbCircle
 10
192.1293692857138
 20
316.6864793646558
 30
0.0
 40
4.659999799999998
100
AcDbArc
 50
205.287649999998
 51
267.1471000000011
  0
LINE
  5
3A5
330
18
100
AcDbEntity
  8
1
  6
Continuous
100
AcDbLine
 10
192.2359052857136
 20
312.0247723646559
 30
0.0
 11
192.0707212857137
 21
312.0268513646558
 31
0.0
  0
ARC
  5
3A6
330
18
100
AcDbEntity
  8
1
  6
Continuous
100
AcDbCircle
 10
192.2357152857139
 20
319.6747723646558
 30
0.0
 40
7.650000099999998
100
AcDbArc
 50
267.4655500000016
 51
270.0
  0
LINE
  5
3A7
330
18
100
AcDbEntity
  8
1
  6
Continuous
100
AcDbLine
 10
196.8159952857138
 20
312.0247723646558
 30
0.0
 11
197.4275222857138
 21
310.9526963646557
 31
0.0
  0
ARC
  5
3A8
330
18
100
AcDbEntity
  8
1
  6
Continuous
100
AcDbCircle
 10
202.7457132857136
 20
308.1747763646558
 30
0.0
 40
6.0
100
AcDbArc
 50
152.4200429999995
 51
178.4719278000004
  0
LINE
  5
3A9
330
18
100
AcDbEntity
  8
1
  6
Continuous
100
AcDbLine
 10
187.9159102857138
 20
314.6959043646558
 30
0.0
 11
186.1994642857137
 21
318.3290983646558
 31
0.0
  0
LINE
  5
3AA
330
18
100
AcDbEntity
  8
1
  6
Continuous
100
AcDbLine
 10
176.7857142857137
 20
322.6747723646558
 30
0.0
 11
176.7857142857137
 21
319.4747713646558
 31
0.0
  0
LINE
  5
467
330
18
100
AcDbEntity
  8
1
  6
Continuous
100
AcDbLine
 10
356.7857142857135
 20
231.4527223646557
 30
0.0
 11
356.7857142857131
 21
281.9548262656319
 31
0.0
  0
LINE
  5
469
330
18
100
AcDbEntity
  8
1
  6
Continuous
100
AcDbLine
 10
396.7857142857135
 20
231.4527223646557
 30
0.0
 11
396.785714285713
 21
280.8111036617898
 31
0.0
  0
LINE
  5
46F
330
18
100
AcDbEntity
  8
1
  6
Continuous
100
AcDbLine
 10
411.3355189857133
 20
312.0247723646558
 30
0.0
 11
342.2357112857132
 21
312.0247723646558
 31
0.0
  0
LINE
  5
470
330
18
100
AcDbEntity
  8
1
  6
Continuous
100
AcDbLine
 10
406.4271708857133
 20
306.8747773646557
 30
0.0
 11
347.0230262857135
 21
306.8747773646557
 31
0.0
  0
LINE
  5
471
330
18
100
AcDbEntity
  8
1
  6
Continuous
100
AcDbLine
 10
426.7857142857133
 20
322.6747723646558
 30
0.0
 11
326.7857142857133
 21
322.6747723646558
 31
0.0
  0
LINE
  5
472
330
18
100
AcDbEntity
  8
1
  6
Continuous
100
AcDbLine
 10
406.1439067257133
 20
310.9526943646558
 30
0.0
 11
347.4275222857134
 21
310.9526943646558
 31
0.0
  0
LINE
  5
473
330
18
100
AcDbEntity
  8
1
  6
Continuous
100
AcDbLine
 10
426.7857142857133
 20
319.4747713646558
 30
0.0
 11
326.7857142857133
 21
319.4747713646558
 31
0.0
  0
ARC
  5
475
330
18
100
AcDbEntity
  8
1
  6
Continuous
100
AcDbCircle
 10
376.7857142857134
 20
140.6747723646557
 30
0.0
 40
150.0
100
AcDbArc
 50
84.91137099388341
 51
95.22559742518549
  0
LINE
  5
477
330
18
100
AcDbEntity
  8
1
  6
Continuous
100
AcDbLine
 10
403.2857142857134
 20
250.4708345443274
 30
0.0
 11
403.2857142857134
 21
247.7747783646558
 31
0.0
  0
LINE
  5
478
330
18
100
AcDbEntity
  8
1
  6
Continuous
100
AcDbLine
 10
409.4856984038413
 20
260.1639973822902
 30
0.0
 11
408.5000185857131
 21
304.7248133646557
 31
0.0
  0
LINE
  5
479
330
18
100
AcDbEntity
  8
1
  6
Continuous
100
AcDbLine
 10
398.7857142857134
 20
250.3747773646558
 30
0.0
 11
398.7857142857134
 21
265.9747673646557
 31
0.0
  0
LINE
  5
47B
330
18
100
AcDbEntity
  8
1
  6
Continuous
100
AcDbLine
 10
409.8857050857133
 20
265.4747753646558
 30
0.0
 11
409.8857050857133
 21
258.1747723646557
 31
0.0
  0
LINE
  5
47C
330
18
100
AcDbEntity
  8
1
  6
Continuous
100
AcDbLine
 10
410.7857142857133
 20
262.4247723646558
 30
0.0
 11
410.7857142857133
 21
253.9247723646558
 31
0.0
  0
LINE
  5
47D
330
18
100
AcDbEntity
  8
1
  6
Continuous
100
AcDbLine
 10
410.0357142857133
 20
263.1747723646558
 30
0.0
 11
410.0357142857133
 21
253.1747723646558
 31
0.0
  0
ARC
  5
47F
330
18
100
AcDbEntity
  8
1
  6
Continuous
100
AcDbCircle
 10
393.7957162857133
 20
258.1747723646558
 30
0.0
 40
14.49
100
AcDbArc
 50
344.9045800000002
 51
348.7661639090408
  0
LINE
  5
480
330
18
100
AcDbEntity
  8
1
  6
Continuous
100
AcDbLine
 10
398.2857142857134
 20
241.0718293646558
 30
0.0
 11
398.2857142857134
 21
275.2777153646558
 31
0.0
  0
ARC
  5
481
330
18
100
AcDbEntity
  8
1
  6
Continuous
100
AcDbCircle
 10
408.6857081857133
 20
250.8747693646558
 30
0.0
 40
1.199999999999999
100
AcDbArc
 50
270.0
 51
359.9999900000022
  0
ARC
  5
482
330
18
100
AcDbEntity
  8
1
  6
Continuous
100
AcDbCircle
 10
408.0728388857131
 20
250.8048233646558
 30
0.0
 40
4.787128
100
AcDbArc
 50
182.4318089717868
 51
206.4204200000017
  0
ARC
  5
483
330
18
100
AcDbEntity
  8
1
  6
Continuous
100
AcDbCircle
 10
404.4757090857133
 20
250.8135583646558
 30
0.0
 40
3.8100059
100
AcDbArc
 50
330.3156199999997
 51
29.68438000000021
  0
LINE
  5
484
330
18
100
AcDbEntity
  8
1
  6
Continuous
100
AcDbLine
 10
408.2857142857132
 20
249.6747723646558
 30
0.0
 11
408.2857142857132
 21
255.7696011341021
 31
0.0
  0
LINE
  5
485
330
18
100
AcDbEntity
  8
1
  6
Continuous
100
AcDbLine
 10
407.7857120757133
 20
248.8747773646557
 30
0.0
 11
403.7857113857133
 21
248.6747723646557
 31
0.0
  0
LINE
  5
486
330
18
100
AcDbEntity
  8
1
  6
Continuous
100
AcDbLine
 10
403.7857121857132
 20
248.6747723646558
 30
0.0
 11
407.785718185713
 21
248.9267633646558
 31
0.0
  0
LINE
  5
487
330
18
100
AcDbEntity
  8
1
  6
Continuous
100
AcDbLine
 10
407.7857142857133
 20
248.8747693646558
 30
0.0
 11
407.7857142857133
 21
248.9267633646558
 31
0.0
  0
LINE
  5
488
330
18
100
AcDbEntity
  8
1
  6
Continuous
100
AcDbLine
 10
408.6857081857133
 20
249.6747723646558
 30
0.0
 11
408.2857142857132
 21
249.6747723646558
 31
0.0
  0
LINE
  5
489
330
18
100
AcDbEntity
  8
1
  6
Continuous
100
AcDbLine
 10
407.7857050457131
 20
248.8747693646558
 30
0.0
 11
408.2857047857133
 21
249.6747723646558
 31
0.0
  0
LINE
  5
48A
330
18
100
AcDbEntity
  8
1
  6
Continuous
100
AcDbLine
 10
397.5445319857135
 20
240.1059013646557
 30
0.0
 11
396.7857092857133
 21
239.9025783646557
 31
0.0
  0
ARC
  5
48B
330
18
100
AcDbEntity
  8
1
  6
Continuous
100
AcDbCircle
 10
397.2857142857134
 20
241.0718293646558
 30
0.0
 40
1.0
100
AcDbArc
 50
285.0001100000026
 51
0.0000200000020199
  0
LINE
  5
48C
330
18
100
AcDbEntity
  8
1
  6
Continuous
100
AcDbLine
 10
403.2857061857129
 20
249.6747723646558
 30
0.0
 11
403.785706385713
 21
248.6747723646558
 31
0.0
  0
LINE
  5
48E
330
18
100
AcDbEntity
  8
1
  6
Continuous
100
AcDbLine
 10
407.1397975955467
 20
254.3254411254376
 30
0.0
 11
407.7857118457131
 21
254.4011823646557
 31
0.0
  0
LINE
  5
48F
330
18
100
AcDbEntity
  8
1
  6
Continuous
100
AcDbLine
 10
407.7857097557131
 20
252.7003463646558
 30
0.0
 11
405.1155406140103
 21
252.8569031571659
 31
0.0
  0
LINE
  5
490
330
18
100
AcDbEntity
  8
1
  6
Continuous
100
AcDbLine
 10
407.7857142857134
 20
252.7003533646557
 30
0.0
 11
407.7857142857134
 21
254.4011823646557
 31
0.0
  0
LINE
  5
491
330
18
100
AcDbEntity
  8
1
  6
Continuous
100
AcDbLine
 10
410.0357142857133
 20
253.1747723646558
 30
0.0
 11
409.8857050857132
 21
253.1747723646558
 31
0.0
  0
LINE
  5
493
330
18
100
AcDbEntity
  8
1
  6
Continuous
100
AcDbLine
 10
410.0357285857135
 20
253.1747573646558
 30
0.0
 11
410.7857295857133
 21
253.9247573646558
 31
0.0
  0
LINE
  5
494
330
18
100
AcDbEntity
  8
1
  6
Continuous
100
AcDbLine
 10
409.8857050857133
 20
250.8747693646558
 30
0.0
 11
409.8857050857133
 21
258.1747723646557
 31
0.0
  0
LINE
  5
495
330
18
100
AcDbEntity
  8
1
  6
Continuous
100
AcDbLine
 10
399.2857113857132
 20
250.8747613646558
 30
0.0
 11
398.7857166857133
 21
250.3747693646557
 31
0.0
  0
LINE
  5
496
330
18
100
AcDbEntity
  8
1
  6
Continuous
100
AcDbLine
 10
398.7857142857134
 20
250.3747693646558
 30
0.0
 11
398.2857142857134
 21
250.3747693646558
 31
0.0
  0
LINE
  5
49E
330
18
100
AcDbEntity
  8
1
  6
Continuous
100
AcDbLine
 10
410.0357142857133
 20
263.1747723646558
 30
0.0
 11
409.8857050857132
 21
263.1747723646558
 31
0.0
  0
ARC
  5
4A0
330
18
100
AcDbEntity
  8
1
  6
Continuous
100
AcDbCircle
 10
408.6857081857133
 20
265.4747753646558
 30
0.0
 40
1.199999999999999
100
AcDbArc
 50
359.9999900000022
 51
56.61279711752971
  0
LINE
  5
4A1
330
18
100
AcDbEntity
  8
2
  6
Continuous
100
AcDbLine
 10
410.7857142857135
 20
262.3627723646558
 30
0.0
 11
409.8857050857133
 21
262.3627723646558
 31
0.0
  0
LINE
  5
4A2
330
18
100
AcDbEntity
  8
1
  6
Continuous
100
AcDbLine
 10
410.7857295857133
 20
262.4247573646557
 30
0.0
 11
410.0357123857133
 21
263.1747723646557
 31
0.0
  0
LINE
  5
4A5
330
18
100
AcDbEntity
  8
1
  6
Continuous
100
AcDbLine
 10
399.2857113857135
 20
265.4747833646557
 30
0.0
 11
398.7857166857133
 21
265.9747753646558
 31
0.0
  0
LINE
  5
4A6
330
18
100
AcDbEntity
  8
1
  6
Continuous
100
AcDbLine
 10
398.7857142857134
 20
265.9747753646558
 30
0.0
 11
398.2857142857134
 21
265.9747753646558
 31
0.0
  0
LINE
  5
4AA
330
18
100
AcDbEntity
  8
1
  6
Continuous
100
AcDbLine
 10
397.5445319857135
 20
276.2436393646558
 30
0.0
 11
396.7857092857133
 21
276.4469663646558
 31
0.0
  0
ARC
  5
4AB
330
18
100
AcDbEntity
  8
1
  6
Continuous
100
AcDbCircle
 10
397.2857142857134
 20
275.2777153646558
 30
0.0
 40
1.0
100
AcDbArc
 50
359.9999800000012
 51
74.99988999999782
  0
LINE
  5
4AC
330
18
100
AcDbEntity
  8
1
  6
Continuous
100
AcDbLine
 10
426.7857142857133
 20
322.6747723646558
 30
0.0
 11
426.7857142857133
 21
319.4747713646558
 31
0.0
  0
ARC
  5
4AD
330
18
100
AcDbEntity
  8
1
  6
Continuous
100
AcDbCircle
 10
408.3230525857133
 20
308.3747753646557
 30
0.0
 40
1.5
100
AcDbArc
 50
181.5280700000003
 51
246.7210900000007
  0
ARC
  5
4B0
330
18
100
AcDbEntity
  8
1
  6
Continuous
100
AcDbCircle
 10
404.5010157857132
 20
304.6363563646558
 30
0.0
 40
4.0
100
AcDbArc
 50
1.267199999999925
 51
36.16642000000292
  0
ARC
  5
4B2
330
18
100
AcDbEntity
  8
1
  6
Continuous
100
AcDbCircle
 10
419.1803062857133
 20
317.4747713646558
 30
0.0
 40
2.0
100
AcDbArc
 50
89.99999700000229
 51
154.7123519999985
  0
LINE
  5
4B3
330
18
100
AcDbEntity
  8
1
  6
Continuous
100
AcDbLine
 10
406.7554359807131
 20
312.0247703646558
 30
0.0
 11
406.1439089957132
 21
310.9526943646558
 31
0.0
  0
ARC
  5
4B4
330
18
100
AcDbEntity
  8
1
  6
Continuous
100
AcDbCircle
 10
400.8257151857133
 20
308.1747763646558
 30
0.0
 40
6.0
100
AcDbArc
 50
1.52807000000027
 51
27.57995999999999
  0
LINE
  5
4B5
330
18
100
AcDbEntity
  8
1
  6
Continuous
100
AcDbLine
 10
411.3355265857129
 20
312.0247723646558
 30
0.0
 11
411.5007129857131
 21
312.0268513646558
 31
0.0
  0
ARC
  5
4B6
330
18
100
AcDbEntity
  8
1
  6
Continuous
100
AcDbCircle
 10
411.3357173857133
 20
319.6747723646558
 30
0.0
 40
7.650000099999998
100
AcDbArc
 50
270.0
 51
272.5344499999983
  0
LINE
  5
4B7
330
18
100
AcDbEntity
  8
1
  6
Continuous
100
AcDbLine
 10
415.6555157857131
 20
314.6959023646558
 30
0.0
 11
417.3719622857133
 21
318.3291003646558
 31
0.0
  0
ARC
  5
4B8
330
18
100
AcDbEntity
  8
1
  6
Continuous
100
AcDbCircle
 10
411.4420558857132
 20
316.6864793646558
 30
0.0
 40
4.659999799999998
100
AcDbArc
 50
272.8528999999988
 51
334.7123500000019
  0
LINE
  5
4B9
330
18
100
AcDbEntity
  8
1
  6
Continuous
100
AcDbLine
 10
354.2857142857136
 20
277.7625267713954
 30
0.0
 11
354.2857142857135
 21
247.7747783646557
 31
0.0
  0
LINE
  5
4BA
330
18
100
AcDbEntity
  8
1
  6
Continuous
100
AcDbLine
 10
350.2857142857132
 20
250.4160989283017
 30
0.0
 11
350.2857142857134
 21
247.7747783646558
 31
0.0
  0
LINE
  5
4BB
330
18
100
AcDbEntity
  8
1
  6
Continuous
100
AcDbLine
 10
344.0857132857133
 20
260.1639383646558
 30
0.0
 11
345.0713932857133
 21
304.7248153646557
 31
0.0
  0
LINE
  5
4BC
330
18
100
AcDbEntity
  8
1
  6
Continuous
100
AcDbLine
 10
346.2857142857131
 20
254.4749691161427
 30
0.0
 11
346.2857142857134
 21
249.1747723646558
 31
0.0
  0
LINE
  5
4BD
330
18
100
AcDbEntity
  8
1
  6
Continuous
100
AcDbLine
 10
345.2857142857134
 20
255.7696011341031
 30
0.0
 11
345.2857142857134
 21
251.1747723646558
 31
0.0
  0
LINE
  5
4BE
330
18
100
AcDbEntity
  8
1
  6
Continuous
100
AcDbLine
 10
354.7857142857134
 20
258.1747723646558
 30
0.0
 11
354.7857142857134
 21
265.9747753646558
 31
0.0
  0
LINE
  5
4BF
330
18
100
AcDbEntity
  8
1
  6
Continuous
100
AcDbLine
 10
355.2857142857134
 20
241.0718293646558
 30
0.0
 11
355.2857142857134
 21
275.2777153646558
 31
0.0
  0
LINE
  5
4C0
330
18
100
AcDbEntity
  8
1
  6
Continuous
100
AcDbLine
 10
346.2857142857134
 20
249.1747723646558
 30
0.0
 11
345.2857142857134
 21
251.1747723646558
 31
0.0
  0
LINE
  5
4C1
330
18
100
AcDbEntity
  8
1
  6
Continuous
100
AcDbLine
 10
356.0268982857132
 20
240.1059013646557
 30
0.0
 11
356.7857142857135
 21
239.9025783646557
 31
0.0
  0
ARC
  5
4C2
330
18
100
AcDbEntity
  8
1
  6
Continuous
100
AcDbCircle
 10
356.2857142857134
 20
241.0718293646558
 30
0.0
 40
1.0
100
AcDbArc
 50
180.0000500000018
 51
255.0000199999991
  0
LINE
  5
4C3
330
18
100
AcDbEntity
  8
1
  6
Continuous
100
AcDbLine
 10
350.2857142857134
 20
249.1747723646558
 30
0.0
 11
346.2857142857134
 21
249.1747723646558
 31
0.0
  0
LINE
  5
4C5
330
18
100
AcDbEntity
  8
1
  6
Continuous
100
AcDbLine
 10
354.7857142857134
 20
250.3747693646558
 30
0.0
 11
355.2857142857134
 21
250.3747693646558
 31
0.0
  0
ARC
  5
4C6
330
18
100
AcDbEntity
  8
1
  6
Continuous
100
AcDbCircle
 10
352.0837562857132
 20
259.9870203646558
 30
0.0
 40
8.0
100
AcDbArc
 50
164.2684830990739
 51
245.7719976713652
  0
LINE
  5
4C7
330
18
100
AcDbEntity
  8
1
  6
Continuous
100
AcDbLine
 10
354.2857142857135
 20
250.8747773646557
 30
0.0
 11
354.7857062857133
 21
250.3747773646557
 31
0.0
  0
LINE
  5
4C8
330
18
100
AcDbEntity
  8
1
  6
Continuous
100
AcDbLine
 10
354.7857142857134
 20
258.1747723646558
 30
0.0
 11
354.7857142857134
 21
250.3747693646558
 31
0.0
  0
LINE
  5
4C9
330
18
100
AcDbEntity
  8
1
  6
Continuous
100
AcDbLine
 10
354.7857142857134
 20
265.9747753646558
 30
0.0
 11
355.2857142857134
 21
265.9747753646558
 31
0.0
  0
LINE
  5
4CC
330
18
100
AcDbEntity
  8
1
  6
Continuous
100
AcDbLine
 10
354.2857142857135
 20
265.4747673646557
 30
0.0
 11
354.7857062857133
 21
265.9747673646557
 31
0.0
  0
LINE
  5
4CD
330
18
100
AcDbEntity
  8
1
  6
Continuous
100
AcDbLine
 10
356.0268982857132
 20
276.2436433646558
 30
0.0
 11
356.7857102857135
 21
276.4469663646558
 31
0.0
  0
ARC
  5
4CE
330
18
100
AcDbEntity
  8
1
  6
Continuous
100
AcDbCircle
 10
356.2857142857134
 20
275.2777153646558
 30
0.0
 40
1.0
100
AcDbArc
 50
104.9999810000031
 51
179.9999453584866
  0
ARC
  5
4CF
330
18
100
AcDbEntity
  8
1
  6
Continuous
100
AcDbCircle
 10
345.2483832857134
 20
308.3747753646557
 30
0.0
 40
1.5
100
AcDbArc
 50
293.2786899999992
 51
358.4719299999997
  0
ARC
  5
4D2
330
18
100
AcDbEntity
  8
1
  6
Continuous
100
AcDbCircle
 10
349.0704162857132
 20
304.6363563646558
 30
0.0
 40
4.0
100
AcDbArc
 50
143.8336289999996
 51
178.7328424999988
  0
LINE
  5
4D3
330
18
100
AcDbEntity
  8
1
  6
Continuous
100
AcDbLine
 10
342.2357192857132
 20
312.0247723646558
 30
0.0
 11
342.0707182857131
 21
312.0268493646558
 31
0.0
  0
ARC
  5
4D4
330
18
100
AcDbEntity
  8
1
  6
Continuous
100
AcDbCircle
 10
342.2357112857132
 20
319.6747723646558
 30
0.0
 40
7.650000099999998
100
AcDbArc
 50
267.4655600000008
 51
270.0
  0
LINE
  5
4D5
330
18
100
AcDbEntity
  8
1
  6
Continuous
100
AcDbLine
 10
346.8159992857134
 20
312.0247693646557
 30
0.0
 11
347.4275222857134
 21
310.9526993646558
 31
0.0
  0
ARC
  5
4D6
330
18
100
AcDbEntity
  8
1
  6
Continuous
100
AcDbCircle
 10
352.7457132857132
 20
308.1747763646558
 30
0.0
 40
6.0
100
AcDbArc
 50
152.4199520000015
 51
178.4719310999976
  0
ARC
  5
4D7
330
18
100
AcDbEntity
  8
1
  6
Continuous
100
AcDbCircle
 10
334.3911142857132
 20
317.4747713646558
 30
0.0
 40
2.0
100
AcDbArc
 50
25.28764999999804
 51
89.99999700000229
  0
LINE
  5
4D9
330
18
100
AcDbEntity
  8
1
  6
Continuous
100
AcDbLine
 10
337.9159172857132
 20
314.6958963646557
 30
0.0
 11
336.1994712857133
 21
318.3290963646558
 31
0.0
  0
ARC
  5
4DA
330
18
100
AcDbEntity
  8
1
  6
Continuous
100
AcDbCircle
 10
342.1293652857134
 20
316.6864793646558
 30
0.0
 40
4.659999799999998
100
AcDbArc
 50
205.287649999998
 51
267.1471100000001
  0
LINE
  5
4DB
330
18
100
AcDbEntity
  8
1
  6
Continuous
100
AcDbLine
 10
326.7857142857133
 20
322.6747723646558
 30
0.0
 11
326.7857142857133
 21
319.4747713646558
 31
0.0
  0
ARC
  5
AA6
330
18
100
AcDbEntity
  8
1
  6
Continuous
100
AcDbCircle
 10
376.7857142857134
 20
278.1259702546408
 30
0.0
 40
18.98895599999992
100
AcDbArc
 50
51.82010194238809
 51
128.1798980576116
  0
ARC
  5
AA7
330
18
100
AcDbEntity
  8
1
  6
Continuous
100
AcDbCircle
 10
76.78571428571399
 20
281.1149262546407
 30
0.0
 40
16.0
100
AcDbArc
 50
46.58513538156713
 51
133.4148646184329
  0
LINE
  5
AAC
330
18
100
AcDbEntity
  8
1
  6
Continuous
100
AcDbLine
 10
350.2857142857134
 20
247.7747783646558
 30
0.0
 11
350.2857142857134
 21
249.9568843646559
 31
0.0
  0
LINE
  5
AAD
330
18
100
AcDbEntity
  8
1
  6
Continuous
100
AcDbLine
 10
354.2857142857135
 20
247.7747783646558
 30
0.0
 11
350.2857142857134
 21
247.7747783646558
 31
0.0
  0
LINE
  5
AB2
330
18
100
AcDbEntity
  8
1
  6
Continuous
100
AcDbLine
 10
403.2857142857134
 20
247.7747783646558
 30
0.0
 11
403.2857142857134
 21
249.9568843646559
 31
0.0
  0
CIRCLE
  5
AB6
330
18
100
AcDbEntity
  8
1
  6
Continuous
100
AcDbCircle
 10
208.7857142857137
 20
258.1747723646558
 30
0.0
 40
9.0
  0
CIRCLE
  5
AB8
330
18
100
AcDbEntity
  8
1
  6
Continuous
100
AcDbCircle
 10
208.7857142857137
 20
258.1747723646558
 30
0.0
 40
3.0
  0
CIRCLE
  5
AD3
330
18
100
AcDbEntity
  8
1
  6
Continuous
100
AcDbCircle
 10
208.7857142857137
 20
258.1747723646558
 30
0.0
 40
7.0
  0
ARC
  5
ADF
330
18
100
AcDbEntity
  8
1
  6
Continuous
100
AcDbCircle
 10
347.6588762571044
 20
250.3235938172674
 30
0.0
 40
6.628466325466817
100
AcDbArc
 50
1.270008964120757
 51
65.17065955519207
  0
ARC
  5
AF3
330
18
100
AcDbEntity
  8
1
  6
Continuous
100
AcDbCircle
 10
347.6588762571044
 20
250.3235938172674
 30
0.0
 40
2.628466325466818
100
AcDbArc
 50
1.270008964120757
 51
65.17065955519207
  0
ARC
  5
AF5
330
18
100
AcDbEntity
  8
1
  6
Continuous
100
AcDbCircle
 10
352.0837562857132
 20
259.9870203646558
 30
0.0
 40
4.0
100
AcDbArc
 50
168.8454592108641
 51
245.7719976713652
  0
LINE
  5
B38
330
18
100
AcDbEntity
  8
4
  6
CENTER
 48
0.1
100
AcDbLine
 10
487.785714285714
 20
324.6747723646558
 30
0.0
 11
487.785714285714
 21
317.4747713646558
 31
0.0
  0
LINE
  5
B39
330
18
100
AcDbEntity
  8
4
  6
CENTER
 48
0.1
100
AcDbLine
 10
565.7857142857142
 20
324.6747723646558
 30
0.0
 11
565.7857142857142
 21
317.4747713646558
 31
0.0
  0
LINE
  5
B3B
330
18
100
AcDbEntity
  8
4
  6
CENTER
 48
0.1
100
AcDbLine
 10
265.7857142857139
 20
324.6747723646558
 30
0.0
 11
265.7857142857139
 21
317.4747713646558
 31
0.0
  0
LINE
  5
B3C
330
18
100
AcDbEntity
  8
4
  6
CENTER
 48
0.2
100
AcDbLine
 10
226.7857142857137
 20
327.6747723646558
 30
0.0
 11
226.7857142857137
 21
301.8747773646558
 31
0.0
  0
LINE
  5
B3D
330
18
100
AcDbEntity
  8
4
  6
CENTER
 48
0.1
100
AcDbLine
 10
187.7857142857137
 20
324.6747723646558
 30
0.0
 11
187.7857142857137
 21
317.4747713646558
 31
0.0
  0
LINE
  5
B3E
330
18
100
AcDbEntity
  8
4
  6
CENTER
 48
0.2
100
AcDbLine
 10
208.7857142857137
 20
295.6747723646558
 30
0.0
 11
208.7857142857137
 21
220.6747723646558
 31
0.0
  0
LINE
  5
B3F
330
18
100
AcDbEntity
  8
4
  6
CENTER
 48
0.2
100
AcDbLine
 10
171.2857142857137
 20
258.1747723646558
 30
0.0
 11
246.2857142857137
 21
258.1747723646558
 31
0.0
  0
LINE
  5
B42
330
18
100
AcDbEntity
  8
4
  6
CENTER
 48
0.1
100
AcDbLine
 10
37.78571428571376
 20
324.6747723646558
 30
0.0
 11
37.78571428571376
 21
317.4747713646558
 31
0.0
  0
LINE
  5
B43
330
18
100
AcDbEntity
  8
4
  6
CENTER
 48
0.1
100
AcDbLine
 10
115.785714285714
 20
324.6747723646558
 30
0.0
 11
115.785714285714
 21
317.4747713646558
 31
0.0
  0
LINE
  5
B46
330
18
100
AcDbEntity
  8
4
  6
CENTER
 48
0.2
100
AcDbLine
 10
376.7857142857135
 20
327.6747723646558
 30
0.0
 11
376.7857142857135
 21
220.6747723646558
 31
0.0
  0
LINE
  5
B47
330
18
100
AcDbEntity
  8
4
  6
CENTER
 48
0.2
100
AcDbLine
 10
337.7857142857137
 20
258.1747723646558
 30
0.0
 11
415.7857142857134
 21
258.1747723646558
 31
0.0
  0
LINE
  5
B48
330
18
100
AcDbEntity
  8
4
  6
CENTER
 48
0.1
100
AcDbLine
 10
337.7857142857133
 20
324.6747723646558
 30
0.0
 11
337.7857142857133
 21
317.4747713646558
 31
0.0
  0
LINE
  5
B49
330
18
100
AcDbEntity
  8
4
  6
CENTER
 48
0.1
100
AcDbLine
 10
415.7857142857134
 20
324.6747723646558
 30
0.0
 11
415.7857142857134
 21
317.4747713646558
 31
0.0
  0
LINE
  5
B4A
330
18
100
AcDbEntity
  8
4
  6
CENTER
 48
0.2
100
AcDbLine
 10
226.7857142857105
 20
483.1747733646541
 30
0.0
 11
226.7857142857105
 21
373.174772364654
 31
0.0
  0
LINE
  5
E9D
330
18
100
AcDbEntity
  8
4
  6
CENTER
 48
0.2
100
AcDbLine
 10
208.7857142857105
 20
465.674772364654
 30
0.0
 11
208.7857142857105
 21
390.674772364654
 31
0.0
  0
CIRCLE
  5
EEC
330
18
100
AcDbEntity
  8
2
  6
Continuous
100
AcDbCircle
 10
544.7857142857142
 20
258.174772364656
 30
0.0
 40
4.187999999999998
  0
LINE
  5
F11
330
18
100
AcDbEntity
  8
2
  6
Continuous
100
AcDbLine
 10
42.78571428571399
 20
253.9867723646556
 30
0.0
 11
43.68572348571411
 21
253.9867723646556
 31
0.0
  0
LINE
  5
F36
330
18
100
AcDbEntity
  8
2
  6
Continuous
100
AcDbLine
 10
410.7857142857135
 20
253.9867723646556
 30
0.0
 11
409.8857050857133
 21
253.9867723646556
 31
0.0
  0
ARC
  5
1040
330
18
100
AcDbEntity
  8
1
  6
Continuous
100
AcDbCircle
 10
326.2857142856744
 20
428.1747723646541
 30
0.0
 40
150.0
100
AcDbArc
 50
175.3205187221703
 51
184.6794812778296
  0
ARC
  5
1041
330
18
100
AcDbEntity
  8
1
  6
Continuous
100
AcDbCircle
 10
91.78571428571421
 20
231.4527263646558
 30
0.0
 40
5.0
100
AcDbArc
 50
275.9377470000009
 51
359.9999521886758
  0
ARC
  5
1042
330
18
100
AcDbEntity
  8
1
  6
Continuous
100
AcDbCircle
 10
61.78571428571421
 20
231.4527263646558
 30
0.0
 40
5.0
100
AcDbArc
 50
179.9999800000012
 51
264.0621859999984
  0
ARC
  5
1043
330
18
100
AcDbEntity
  8
1
  6
Continuous
100
AcDbCircle
 10
76.78571428571422
 20
375.6747723646558
 30
0.0
 40
150.0
100
AcDbArc
 50
264.0622259651414
 51
275.9377718015224
  0
ARC
  5
1045
330
18
100
AcDbEntity
  8
1
  6
Continuous
100
AcDbCircle
 10
376.7857142857137
 20
375.6747723646558
 30
0.0
 40
150.0
100
AcDbArc
 50
264.0622259651414
 51
275.9377718015224
  0
ARC
  5
1046
330
18
100
AcDbEntity
  8
1
  6
Continuous
100
AcDbCircle
 10
361.7857142857137
 20
231.4527263646558
 30
0.0
 40
5.0
100
AcDbArc
 50
179.9999800000012
 51
264.0621859999984
  0
ARC
  5
1047
330
18
100
AcDbEntity
  8
1
  6
Continuous
100
AcDbCircle
 10
391.7857142857137
 20
231.4527263646558
 30
0.0
 40
5.0
100
AcDbArc
 50
275.9377470000009
 51
359.9999521886758
  0
LINE
  5
1A79
330
18
100
AcDbEntity
  8
1
  6
Continuous
100
AcDbLine
 10
187.7857142857108
 20
138.1747723646576
 30
0.0
 11
265.7857142857108
 21
138.1747723646576
 31
0.0
  0
LINE
  5
1A7A
330
18
100
AcDbEntity
  8
1
  6
Continuous
100
AcDbLine
 10
187.7857142857108
 20
38.17477136465754
 30
0.0
 11
265.7857142857108
 21
38.17477136465754
 31
0.0
  0
LINE
  5
1A7B
330
18
100
AcDbEntity
  8
4
  6
CENTER
 48
0.2
100
AcDbLine
 10
171.7857142857108
 20
88.17477236465766
 30
0.0
 11
281.7857142857107
 21
88.17477236465766
 31
0.0
  0
LINE
  5
1A82
330
18
100
AcDbEntity
  8
1
  6
Continuous
100
AcDbLine
 10
176.7857142857108
 20
127.1747723646576
 30
0.0
 11
176.7857142857108
 21
100.4120106151807
 31
0.0
  0
LINE
  5
1A85
330
18
100
AcDbEntity
  8
4
  6
CENTER
 48
0.2
100
AcDbLine
 10
208.7857142857105
 20
50.67477236465766
 30
0.0
 11
208.7857142857105
 21
125.6747723646576
 31
0.0
  0
LINE
  5
1A86
330
18
100
AcDbEntity
  8
4
  6
CENTER
 48
0.2
100
AcDbLine
 10
196.2857142857108
 20
127.1747723646576
 30
0.0
 11
179.2857142857108
 21
127.1747723646576
 31
0.0
  0
CIRCLE
  5
1A87
330
18
100
AcDbEntity
  8
1
  6
Continuous
100
AcDbCircle
 10
187.7857142857103
 20
127.1747723646576
 30
0.0
 40
5.5
  0
ARC
  5
1A88
330
18
100
AcDbEntity
  8
1
  6
Continuous
100
AcDbCircle
 10
187.7857142857103
 20
127.1747723646576
 30
0.0
 40
11.0
100
AcDbArc
 50
90.00000399999908
 51
180.0000100000009
  0
LINE
  5
1A89
330
18
100
AcDbEntity
  8
4
  6
CENTER
 48
0.2
100
AcDbLine
 10
187.7857142857108
 20
118.6747723646576
 30
0.0
 11
187.7857142857108
 21
135.6747723646576
 31
0.0
  0
CIRCLE
  5
1A8C
330
18
100
AcDbEntity
  8
1
  6
Continuous
100
AcDbCircle
 10
187.7857142857105
 20
49.17477236465742
 30
0.0
 40
5.5
  0
LINE
  5
1A8D
330
18
100
AcDbEntity
  8
4
  6
CENTER
 48
0.2
100
AcDbLine
 10
196.2857142857108
 20
49.17477236465765
 30
0.0
 11
179.2857142857108
 21
49.17477236465765
 31
0.0
  0
ARC
  5
1A8E
330
18
100
AcDbEntity
  8
1
  6
Continuous
100
AcDbCircle
 10
187.7857142857105
 20
49.17477236465742
 30
0.0
 40
11.0
100
AcDbArc
 50
179.9999913485786
 51
270.0
  0
LINE
  5
1A8F
330
18
100
AcDbEntity
  8
4
  6
CENTER
 48
0.2
100
AcDbLine
 10
187.7857142857108
 20
57.67477236465765
 30
0.0
 11
187.7857142857108
 21
40.67477236465765
 31
0.0
  0
LINE
  5
1A90
330
18
100
AcDbEntity
  8
1
  6
Continuous
100
AcDbLine
 10
276.7857142857108
 20
127.1747723646576
 30
0.0
 11
276.7857142857108
 21
49.17477236465765
 31
0.0
  0
LINE
  5
1A91
330
18
100
AcDbEntity
  8
4
  6
CENTER
 48
0.2
100
AcDbLine
 10
226.7857142857105
 20
33.17477136465754
 30
0.0
 11
226.7857142857105
 21
143.1747723646576
 31
0.0
  0
ARC
  5
1A92
330
18
100
AcDbEntity
  8
1
  6
Continuous
100
AcDbCircle
 10
265.7857142857103
 20
127.1747723646576
 30
0.0
 40
11.0
100
AcDbArc
 50
359.9999900000022
 51
90.00000399999908
  0
CIRCLE
  5
1A95
330
18
100
AcDbEntity
  8
1
  6
Continuous
100
AcDbCircle
 10
265.7857142857103
 20
127.1747723646576
 30
0.0
 40
5.5
  0
CIRCLE
  5
1A96
330
18
100
AcDbEntity
  8
1
  6
Continuous
100
AcDbCircle
 10
265.7857142857103
 20
49.17477236465742
 30
0.0
 40
5.5
  0
ARC
  5
1A97
330
18
100
AcDbEntity
  8
1
  6
Continuous
100
AcDbCircle
 10
265.7857142857103
 20
49.17477236465742
 30
0.0
 40
11.0
100
AcDbArc
 50
270.0
 51
0.0000100000010205
  0
ARC
  5
2474
330
18
100
AcDbEntity
  8
1
  6
Continuous
100
AcDbCircle
 10
326.2857142857106
 20
88.17477236465744
 30
0.0
 40
150.0
100
AcDbArc
 50
174.0622259651414
 51
185.9377718015224
  0
ARC
  5
2475
330
18
100
AcDbEntity
  8
1
  6
Continuous
100
AcDbCircle
 10
182.0636682857106
 20
103.1747723646574
 30
0.0
 40
5.0
100
AcDbArc
 50
89.99998000000124
 51
174.0621859999982
  0
ARC
  5
2476
330
18
100
AcDbEntity
  8
1
  6
Continuous
100
AcDbCircle
 10
182.0636682857106
 20
73.17477236465747
 30
0.0
 40
5.0
100
AcDbArc
 50
185.9377470000009
 51
269.9999521886758
  0
ARC
  5
2477
330
18
100
AcDbEntity
  8
1
  6
Continuous
100
AcDbCircle
 10
235.5077602857105
 20
103.1747723646574
 30
0.0
 40
5.0
100
AcDbArc
 50
5.93781400000173
 51
90.00001999999879
  0
ARC
  5
2478
330
18
100
AcDbEntity
  8
1
  6
Continuous
100
AcDbCircle
 10
235.5077602857105
 20
73.17477236465747
 30
0.0
 40
5.0
100
AcDbArc
 50
270.0000478113242
 51
354.062252999999
  0
ARC
  5
2479
330
18
100
AcDbEntity
  8
1
  6
Continuous
100
AcDbCircle
 10
91.28571428571058
 20
88.17477236465744
 30
0.0
 40
150.0
100
AcDbArc
 50
354.0622281984775
 51
5.937774034858517
  0
LINE
  5
247A
330
18
100
AcDbEntity
  8
1
  6
Continuous
100
AcDbLine
 10
182.0636700310395
 20
108.1747723646571
 30
0.0
 11
235.5077585403814
 21
108.1747723646571
 31
0.0
  0
LINE
  5
247B
330
18
100
AcDbEntity
  8
1
  6
Continuous
100
AcDbLine
 10
182.0636641133854
 20
68.17477236465922
 30
0.0
 11
235.5077644580357
 21
68.17477236465922
 31
0.0
  0
LINE
  5
2494
330
18
100
AcDbEntity
  8
1
  6
Continuous
100
AcDbLine
 10
176.7857142857108
 20
75.93753411413421
 30
0.0
 11
176.7857142857108
 21
49.17477236465765
 31
0.0
  0
LINE
  5
24DF
330
18
100
AcDbEntity
  8
1
  6
Continuous
100
AcDbLine
 10
199.7857142857105
 20
118.6747723646578
 30
0.0
 11
217.7857142857106
 21
118.6747723646578
 31
0.0
  0
LINE
  5
24E1
330
18
100
AcDbEntity
  8
1
  6
Continuous
100
AcDbLine
 10
201.7857142857105
 20
119.6747723646578
 30
0.0
 11
215.7857142857106
 21
119.6747723646578
 31
0.0
  0
LINE
  5
24E2
330
18
100
AcDbEntity
  8
1
  6
Continuous
100
AcDbLine
 10
217.7857142857106
 20
118.6747723646578
 30
0.0
 11
215.7857142857106
 21
119.6747723646578
 31
0.0
  0
LINE
  5
24E3
330
18
100
AcDbEntity
  8
1
  6
Continuous
100
AcDbLine
 10
217.7857142857106
 20
114.6750265085414
 30
0.0
 11
217.7857142857106
 21
118.6747723646578
 31
0.0
  0
LINE
  5
24E4
330
18
100
AcDbEntity
  8
1
  6
Continuous
100
AcDbLine
 10
201.7857142857106
 20
119.6747763646576
 30
0.0
 11
199.7857142857107
 21
118.6747763646576
 31
0.0
  0
LINE
  5
24E5
330
18
100
AcDbEntity
  8
1
  6
Continuous
100
AcDbLine
 10
199.7857142857105
 20
114.6747723646578
 30
0.0
 11
199.7857142857105
 21
118.6747723646578
 31
0.0
  0
LINE
  5
2548
330
18
100
AcDbEntity
  8
1
  6
Continuous
100
AcDbLine
 10
196.7857142857137
 20
114.6747723646578
 30
0.0
 11
196.7857142857137
 21
110.6747723646576
 31
0.0
  0
LINE
  5
2551
330
18
100
AcDbEntity
  8
1
  6
Continuous
100
AcDbLine
 10
196.7857142857137
 20
65.67477236465764
 30
0.0
 11
196.7857142857137
 21
61.67477236465744
 31
0.0
  0
LINE
  5
2562
330
18
100
AcDbEntity
  8
1
  6
Continuous
100
AcDbLine
 10
217.7500680400555
 20
114.6747723646578
 30
0.0
 11
196.7857142857137
 21
114.6747723646578
 31
0.0
  0
LINE
  5
2563
330
18
100
AcDbEntity
  8
1
  6
Continuous
100
AcDbLine
 10
217.7500680400555
 20
110.6747723646576
 30
0.0
 11
196.7857142857137
 21
110.6747723646576
 31
0.0
  0
LINE
  5
2568
330
18
100
AcDbEntity
  8
1
  6
Continuous
100
AcDbLine
 10
217.7500680400556
 20
61.67477236465746
 30
0.0
 11
196.7857142857137
 21
61.67477236465744
 31
0.0
  0
LINE
  5
2569
330
18
100
AcDbEntity
  8
1
  6
Continuous
100
AcDbLine
 10
217.7500680400556
 20
65.67477236465766
 30
0.0
 11
196.7857142857137
 21
65.67477236465764
 31
0.0
  0
LINE
  5
2570
330
18
100
AcDbEntity
  8
1
  6
Continuous
100
AcDbLine
 10
191.6827712857106
 20
109.6747723646579
 30
0.0
 11
225.8886572857105
 21
109.6747723646579
 31
0.0
  0
LINE
  5
2571
330
18
100
AcDbEntity
  8
1
  6
Continuous
100
AcDbLine
 10
190.7168432857105
 20
108.9335883646579
 30
0.0
 11
190.5135202857105
 21
108.1747723646576
 31
0.0
  0
ARC
  5
2572
330
18
100
AcDbEntity
  8
1
  6
Continuous
100
AcDbCircle
 10
191.6827712857106
 20
108.6747723646579
 30
0.0
 40
1.0
100
AcDbArc
 50
90.00005000000179
 51
165.000019999999
  0
ARC
  5
2573
330
18
100
AcDbEntity
  8
1
  6
Continuous
100
AcDbCircle
 10
225.8886572857105
 20
108.6747723646579
 30
0.0
 40
1.0
100
AcDbArc
 50
14.9999810000031
 51
89.99994535848662
  0
LINE
  5
2574
330
18
100
AcDbEntity
  8
1
  6
Continuous
100
AcDbLine
 10
226.8545852857106
 20
108.9335883646579
 30
0.0
 11
227.0579082857106
 21
108.1747763646576
 31
0.0
  0
LINE
  5
2575
330
18
100
AcDbEntity
  8
1
  6
Continuous
100
AcDbLine
 10
208.7857142857105
 20
110.1747723646578
 30
0.0
 11
200.9857112857106
 21
110.1747723646578
 31
0.0
  0
LINE
  5
2576
330
18
100
AcDbEntity
  8
1
  6
Continuous
100
AcDbLine
 10
201.4857192857105
 20
110.6747723646576
 30
0.0
 11
200.9857192857105
 21
110.1747803646578
 31
0.0
  0
LINE
  5
2577
330
18
100
AcDbEntity
  8
1
  6
Continuous
100
AcDbLine
 10
200.9857112857106
 20
110.1747723646578
 30
0.0
 11
200.9857112857106
 21
109.6747723646579
 31
0.0
  0
LINE
  5
2578
330
18
100
AcDbEntity
  8
1
  6
Continuous
100
AcDbLine
 10
208.7857142857105
 20
110.1747723646578
 30
0.0
 11
216.5857172857106
 21
110.1747723646578
 31
0.0
  0
LINE
  5
2579
330
18
100
AcDbEntity
  8
1
  6
Continuous
100
AcDbLine
 10
216.0857092857105
 20
110.6747723646576
 30
0.0
 11
216.5857092857105
 21
110.1747803646578
 31
0.0
  0
LINE
  5
257A
330
18
100
AcDbEntity
  8
1
  6
Continuous
100
AcDbLine
 10
216.5857172857106
 20
110.1747723646578
 30
0.0
 11
216.5857172857106
 21
109.6747723646579
 31
0.0
  0
LINE
  5
257B
330
18
100
AcDbEntity
  8
1
  6
Continuous
100
AcDbLine
 10
191.6827712857106
 20
66.67477236465789
 30
0.0
 11
225.8886572857105
 21
66.67477236465789
 31
0.0
  0
LINE
  5
257C
330
18
100
AcDbEntity
  8
1
  6
Continuous
100
AcDbLine
 10
200.9857192857106
 20
66.1747723646579
 30
0.0
 11
216.5857092857105
 21
66.1747723646579
 31
0.0
  0
LINE
  5
257D
330
18
100
AcDbEntity
  8
1
  6
Continuous
100
AcDbLine
 10
190.7168432857105
 20
67.41595466465766
 30
0.0
 11
190.5135202857105
 21
68.17477736465777
 31
0.0
  0
ARC
  5
257E
330
18
100
AcDbEntity
  8
1
  6
Continuous
100
AcDbCircle
 10
191.6827712857106
 20
67.67477236465793
 30
0.0
 40
1.0
100
AcDbArc
 50
195.0001100000025
 51
270.0000200000019
  0
LINE
  5
257F
330
18
100
AcDbEntity
  8
1
  6
Continuous
100
AcDbLine
 10
200.9857112857106
 20
66.1747723646579
 30
0.0
 11
200.9857112857106
 21
66.67477236465789
 31
0.0
  0
LINE
  5
2580
330
18
100
AcDbEntity
  8
1
  6
Continuous
100
AcDbLine
 10
216.5857172857106
 20
66.1747723646579
 30
0.0
 11
216.5857172857106
 21
66.67477236465789
 31
0.0
  0
ARC
  5
2581
330
18
100
AcDbEntity
  8
1
  6
Continuous
100
AcDbCircle
 10
225.8886572857105
 20
67.67477236465793
 30
0.0
 40
1.0
100
AcDbArc
 50
269.9999800000012
 51
344.9998899999977
  0
LINE
  5
2582
330
18
100
AcDbEntity
  8
1
  6
Continuous
100
AcDbLine
 10
226.8545812857106
 20
67.41595466465766
 30
0.0
 11
227.0579082857106
 21
68.17477736465777
 31
0.0
  0
LINE
  5
2583
330
18
100
AcDbEntity
  8
1
  6
Continuous
100
AcDbLine
 10
201.4857032857105
 20
65.67477526465792
 30
0.0
 11
200.9857112857105
 21
66.17476996465781
 31
0.0
  0
LINE
  5
2584
330
18
100
AcDbEntity
  8
1
  6
Continuous
100
AcDbLine
 10
216.0857252857105
 20
65.67477526465768
 30
0.0
 11
216.5857172857106
 21
66.17476996465781
 31
0.0
  0
ARC
  5
258C
330
18
100
AcDbEntity
  8
1
  6
Continuous
100
AcDbCircle
 10
226.7857142857171
 20
88.17477236465766
 30
0.0
 40
24.15090979177813
100
AcDbArc
 50
245.0173238102067
 51
248.7301543634341
  0
ARC
  5
258D
330
18
100
AcDbEntity
  8
1
  6
Continuous
100
AcDbCircle
 10
226.7857142857171
 20
88.17477236465766
 30
0.0
 40
19.15090979177813
100
AcDbArc
 50
316.6344804363546
 51
43.36551956364562
  0
ARC
  5
25A6
330
18
100
AcDbEntity
  8
1
  6
Continuous
100
AcDbCircle
 10
226.7857142857171
 20
88.17477236465766
 30
0.0
 40
24.15090979177813
100
AcDbArc
 50
111.2698456365661
 51
114.9826761897932
  0
ARC
  5
25A9
330
18
100
AcDbEntity
  8
1
  6
Continuous
100
AcDbCircle
 10
226.7857142857171
 20
88.17477236465766
 30
0.0
 40
24.15090979177813
100
AcDbArc
 50
256.6584921819316
 51
103.3415078180682
  0
ARC
  5
26A1
330
18
100
AcDbEntity
  8
1
  6
Continuous
100
AcDbCircle
 10
226.7857142857105
 20
88.17477236465766
 30
0.0
 40
35.14139028525249
100
AcDbArc
 50
305.720192038519
 51
54.27980796148089
  0
ARC
  5
26A2
330
18
100
AcDbEntity
  8
1
  6
Continuous
100
AcDbCircle
 10
234.233137123377
 20
98.53125409280199
 30
0.0
 40
22.38518314094886
100
AcDbArc
 50
54.27980796148089
 51
131.4804753945775
  0
ARC
  5
26A3
330
18
100
AcDbEntity
  8
1
  6
Continuous
100
AcDbCircle
 10
234.233137123377
 20
77.81829063651331
 30
0.0
 40
22.38518314094886
100
AcDbArc
 50
228.5195246054225
 51
305.720192038519
  0
ARC
  5
26A6
330
18
100
AcDbEntity
  8
1
  6
Continuous
100
AcDbCircle
 10
217.7500680400555
 20
117.1747723646578
 30
0.0
 40
2.5
100
AcDbArc
 50
270.0
 51
311.4804753945778
  0
ARC
  5
26A7
330
18
100
AcDbEntity
  8
1
  6
Continuous
100
AcDbCircle
 10
217.7500680400555
 20
117.1747723646578
 30
0.0
 40
6.5
100
AcDbArc
 50
270.0
 51
311.4804753945778
  0
ARC
  5
26A8
330
18
100
AcDbEntity
  8
1
  6
Continuous
100
AcDbCircle
 10
226.7857142857105
 20
88.17477236465766
 30
0.0
 40
31.14139028525249
100
AcDbArc
 50
305.720192038519
 51
54.27980796148089
  0
ARC
  5
26A9
330
18
100
AcDbEntity
  8
1
  6
Continuous
100
AcDbCircle
 10
234.233137123377
 20
98.53125409280199
 30
0.0
 40
18.38518314094885
100
AcDbArc
 50
54.27980796148089
 51
131.4804753945775
  0
ARC
  5
26AA
330
18
100
AcDbEntity
  8
1
  6
Continuous
100
AcDbCircle
 10
234.233137123377
 20
77.81829063651331
 30
0.0
 40
18.38518314094885
100
AcDbArc
 50
228.5195246054225
 51
305.720192038519
  0
ARC
  5
26AB
330
18
100
AcDbEntity
  8
1
  6
Continuous
100
AcDbCircle
 10
217.7500680400556
 20
59.17477236465746
 30
0.0
 40
2.5
100
AcDbArc
 50
48.51952460542311
 51
90.0
  0
ARC
  5
26AC
330
18
100
AcDbEntity
  8
1
  6
Continuous
100
AcDbCircle
 10
217.7500680400556
 20
59.17477236465746
 30
0.0
 40
6.5
100
AcDbArc
 50
48.51952460542311
 51
90.0
  0
ARC
  5
26B3
330
18
100
AcDbEntity
  8
1
  6
Continuous
100
AcDbCircle
 10
402.1359793170009
 20
245.8882626312159
 30
0.0
 40
60.0
100
AcDbArc
 50
128.1798980576115
 51
164.2684830990738
  0
ARC
  5
26B5
330
18
100
AcDbEntity
  8
1
  6
Continuous
100
AcDbCircle
 10
407.0258577442237
 20
249.153485054208
 30
0.0
 40
60.0
100
AcDbArc
 50
133.4148646184328
 51
168.8454592108636
  0
ARC
  5
26C1
330
18
100
AcDbEntity
  8
1
  6
Continuous
100
AcDbCircle
 10
107.0258577442243
 20
249.153485054208
 30
0.0
 40
60.0
100
AcDbArc
 50
133.4148646184328
 51
137.0287749096528
  0
ARC
  5
26F9
330
18
100
AcDbEntity
  8
1
  6
Continuous
100
AcDbCircle
 10
107.0258577442243
 20
249.153485054208
 30
0.0
 40
60.0
100
AcDbArc
 50
146.8598389032505
 51
151.5222556204525
  0
ARC
  5
26FA
330
18
100
AcDbEntity
  8
1
  6
Continuous
100
AcDbCircle
 10
46.5455708272036
 20
249.153485054208
 30
0.0
 40
60.0
100
AcDbArc
 50
42.97122509034717
 51
46.5851353815671
  0
ARC
  5
26FB
330
18
100
AcDbEntity
  8
1
  6
Continuous
100
AcDbCircle
 10
46.5455708272036
 20
249.153485054208
 30
0.0
 40
60.0
100
AcDbArc
 50
28.4777443795475
 51
33.1401610967494
  0
ARC
  5
2701
330
18
100
AcDbEntity
  8
1
  6
Continuous
100
AcDbCircle
 10
234.2331367992047
 20
71.63920873610067
 30
0.0
 40
49.27722849765018
100
AcDbArc
 50
89.99999930932366
 51
109.4979593999622
  0
ARC
  5
2705
330
18
100
AcDbEntity
  8
1
  6
Continuous
100
AcDbCircle
 10
234.2331367992047
 20
104.7103359932145
 30
0.0
 40
49.27722849765018
100
AcDbArc
 50
249.884119873358
 51
270.0000006906762
  0
ARC
  5
2706
330
18
100
AcDbEntity
  8
1
  6
Continuous
100
AcDbCircle
 10
351.4354492544261
 20
245.8882626312159
 30
0.0
 40
60.0
100
AcDbArc
 50
15.73151690092621
 51
51.82010194238847
  0
ARC
  5
2707
330
18
100
AcDbEntity
  8
1
  6
Continuous
100
AcDbCircle
 10
346.5455708272032
 20
249.153485054208
 30
0.0
 40
60.0
100
AcDbArc
 50
11.15454078913636
 51
46.5851353815671
  0
ARC
  5
2708
330
18
100
AcDbEntity
  8
1
  6
Continuous
100
AcDbCircle
 10
401.4876722857137
 20
259.9870203646558
 30
0.0
 40
4.0
100
AcDbArc
 50
294.2280023286347
 51
11.1545407891359
  0
LINE
  5
2709
330
18
100
AcDbEntity
  8
1
  6
Continuous
100
AcDbLine
 10
403.2857142857136
 20
247.7747783646558
 30
0.0
 11
403.2857142857136
 21
249.9568843646559
 31
0.0
  0
LINE
  5
270A
330
18
100
AcDbEntity
  8
1
  6
Continuous
100
AcDbLine
 10
403.285714285714
 20
250.4160989283017
 30
0.0
 11
403.2857142857136
 21
247.7747783646558
 31
0.0
  0
LINE
  5
270B
330
18
100
AcDbEntity
  8
1
  6
Continuous
100
AcDbLine
 10
399.2857142857135
 20
247.7747783646558
 30
0.0
 11
403.2857142857136
 21
247.7747783646558
 31
0.0
  0
ARC
  5
270C
330
18
100
AcDbEntity
  8
1
  6
Continuous
100
AcDbCircle
 10
405.9125523143227
 20
250.3235938172674
 30
0.0
 40
2.628466325466818
100
AcDbArc
 50
114.8293404448079
 51
178.7299910358792
  0
ARC
  5
270D
330
18
100
AcDbEntity
  8
1
  6
Continuous
100
AcDbCircle
 10
405.9125523143227
 20
250.3235938172674
 30
0.0
 40
6.628466325466817
100
AcDbArc
 50
114.8293404448079
 51
178.7299910358792
  0
ARC
  5
270E
330
18
100
AcDbEntity
  8
1
  6
Continuous
100
AcDbCircle
 10
401.4876722857137
 20
259.9870203646558
 30
0.0
 40
8.0
100
AcDbArc
 50
294.2280023286347
 51
15.73151690092606
  0
LINE
  5
270F
330
18
100
AcDbEntity
  8
1
  6
Continuous
100
AcDbLine
 10
399.2857142857134
 20
277.7625267713954
 30
0.0
 11
399.2857142857135
 21
247.7747783646557
 31
0.0
  0
ARC
  5
2715
330
18
100
AcDbEntity
  8
1
  6
Continuous
100
AcDbCircle
 10
376.7857142857135
 20
279.1049040010627
 30
0.0
 40
17.51463738137858
100
AcDbArc
 50
51.10895043874077
 51
128.8910495612592
  0
ARC
  5
271B
330
18
100
AcDbEntity
  8
1
  6
Continuous
100
AcDbCircle
 10
226.7857142857171
 20
88.17477236465766
 30
0.0
 40
41.12749546226321
100
AcDbArc
 50
211.5178808702657
 51
229.8839557716998
  0
ARC
  5
2C6C
330
18
100
AcDbEntity
  8
1
  6
Continuous
100
AcDbCircle
 10
204.5357117048284
 20
47.92477333965719
 30
0.0
 40
13.75
100
AcDbArc
 50
74.50128339563367
 51
105.4987643342342
  0
ARC
  5
2C6D
330
18
100
AcDbEntity
  8
1
  6
Continuous
100
AcDbCircle
 10
204.5357117048284
 20
67.60477331465748
 30
0.0
 40
10.92999999999999
100
AcDbArc
 50
252.6026966582582
 51
287.3973326990793
  0
LINE
  5
2C6F
330
18
100
AcDbEntity
  8
1
  6
Continuous
100
AcDbLine
 10
217.2857142857104
 20
56.67477331465747
 30
0.0
 11
200.2857142857105
 21
56.67477331465747
 31
0.0
  0
LINE
  5
2C70
330
18
100
AcDbEntity
  8
1
  6
Continuous
100
AcDbLine
 10
216.0857172857105
 20
55.07478251465713
 30
0.0
 11
201.4857152857106
 21
55.07478251465736
 31
0.0
  0
LINE
  5
2C71
330
18
100
AcDbEntity
  8
1
  6
Continuous
100
AcDbLine
 10
203.7857142857105
 20
54.92477331465747
 30
0.0
 11
213.7857142857104
 21
54.92477331465747
 31
0.0
  0
LINE
  5
2C72
330
18
100
AcDbEntity
  8
1
  6
Continuous
100
AcDbLine
 10
204.5357142857105
 20
54.17477331465747
 30
0.0
 11
213.0357142857104
 21
54.17477331465747
 31
0.0
  0
ARC
  5
2C73
330
18
100
AcDbEntity
  8
1
  6
Continuous
100
AcDbCircle
 10
213.0357134254166
 20
67.60477331465748
 30
0.0
 40
10.92999999999999
100
AcDbArc
 50
252.6026673009206
 51
287.3973033417417
  0
ARC
  5
2C74
330
18
100
AcDbEntity
  8
1
  6
Continuous
100
AcDbCircle
 10
213.0357134254166
 20
47.92477333965719
 30
0.0
 40
13.75
100
AcDbArc
 50
74.50123566576576
 51
105.4987166043663
  0
LINE
  5
2C75
330
18
100
AcDbEntity
  8
1
  6
Continuous
100
AcDbLine
 10
216.7099553421124
 20
61.1747713146606
 30
0.0
 11
217.2857142857105
 21
61.1747713146606
 31
0.0
  0
LINE
  5
2C76
330
18
100
AcDbEntity
  8
1
  6
Continuous
100
AcDbLine
 10
217.2857142857105
 20
57.17477131466059
 30
0.0
 11
216.3037383945192
 21
57.17477270097957
 31
0.0
  0
LINE
  5
2C77
330
18
100
AcDbEntity
  8
1
  6
Continuous
100
AcDbLine
 10
216.7099553421124
 20
61.1747713146606
 30
0.0
 11
216.3037383945192
 21
57.17477270097957
 31
0.0
  0
ARC
  5
2C78
330
18
100
AcDbEntity
  8
1
  6
Continuous
100
AcDbCircle
 10
216.0857172857105
 20
56.27477941465745
 30
0.0
 40
1.199999999999999
100
AcDbArc
 50
270.000010000001
 51
0.0
  0
LINE
  5
2C79
330
18
100
AcDbEntity
  8
1
  6
Continuous
100
AcDbLine
 10
217.2857142857105
 20
56.27477941465745
 30
0.0
 11
217.2857142857105
 21
61.67477431465735
 31
0.0
  0
LINE
  5
2C7A
330
18
100
AcDbEntity
  8
1
  6
Continuous
100
AcDbLine
 10
209.3614825465443
 20
61.17477437545878
 30
0.0
 11
208.2099425837006
 21
61.17477437545878
 31
0.0
  0
LINE
  5
2C7B
330
18
100
AcDbEntity
  8
1
  6
Continuous
100
AcDbLine
 10
207.8037420180773
 20
57.17477437545873
 30
0.0
 11
208.2099425837006
 21
61.17477437545878
 31
0.0
  0
LINE
  5
2C7C
330
18
100
AcDbEntity
  8
1
  6
Continuous
100
AcDbLine
 10
209.7676831121676
 20
57.17477437545873
 30
0.0
 11
209.3614825465443
 21
61.17477437545878
 31
0.0
  0
LINE
  5
2C7D
330
18
100
AcDbEntity
  8
1
  6
Continuous
100
AcDbLine
 10
207.8037420180773
 20
57.17477437545878
 30
0.0
 11
209.7676831121676
 21
57.17477437545878
 31
0.0
  0
LINE
  5
2C7E
330
18
100
AcDbEntity
  8
1
  6
Continuous
100
AcDbLine
 10
213.7857292857105
 20
54.92476171465736
 30
0.0
 11
213.0357252857105
 21
54.17476091465764
 31
0.0
  0
LINE
  5
2C7F
330
18
100
AcDbEntity
  8
1
  6
Continuous
100
AcDbLine
 10
213.7857142857104
 20
54.92477331465747
 30
0.0
 11
213.7857142857104
 21
55.07478251465759
 31
0.0
  0
LINE
  5
2C80
330
18
100
AcDbEntity
  8
2
  6
Continuous
100
AcDbLine
 10
212.9737142857104
 20
54.17477331465714
 30
0.0
 11
212.9737142857104
 21
55.07478251465723
 31
0.0
  0
LINE
  5
2C81
330
18
100
AcDbEntity
  8
1
  6
Continuous
100
AcDbLine
 10
200.8614697881325
 20
61.1747713146606
 30
0.0
 11
200.2857108445344
 21
61.1747713146606
 31
0.0
  0
LINE
  5
2C82
330
18
100
AcDbEntity
  8
1
  6
Continuous
100
AcDbLine
 10
200.2857108445344
 20
57.17477131466059
 30
0.0
 11
201.2676867357259
 21
57.17477270097957
 31
0.0
  0
LINE
  5
2C83
330
18
100
AcDbEntity
  8
1
  6
Continuous
100
AcDbLine
 10
200.8614697881325
 20
61.1747713146606
 30
0.0
 11
201.2676867357259
 21
57.17477270097957
 31
0.0
  0
LINE
  5
2C84
330
18
100
AcDbEntity
  8
1
  6
Continuous
100
AcDbLine
 10
204.5357252857104
 20
54.17475823465732
 30
0.0
 11
203.7857182857104
 21
54.92476441465746
 31
0.0
  0
LINE
  5
2C85
330
18
100
AcDbEntity
  8
1
  6
Continuous
100
AcDbLine
 10
203.7857142857105
 20
54.92477331465747
 30
0.0
 11
203.7857142857105
 21
55.07478251465759
 31
0.0
  0
LINE
  5
2C86
330
18
100
AcDbEntity
  8
2
  6
Continuous
100
AcDbLine
 10
204.5977142857104
 20
54.17477331465714
 30
0.0
 11
204.5977142857104
 21
55.07478251465723
 31
0.0
  0
ARC
  5
2C87
330
18
100
AcDbEntity
  8
1
  6
Continuous
100
AcDbCircle
 10
201.4857152857106
 20
56.27477941465745
 30
0.0
 40
1.199999999999999
100
AcDbArc
 50
180.0000029999976
 51
270.000010000001
  0
LINE
  5
2C88
330
18
100
AcDbEntity
  8
1
  6
Continuous
100
AcDbLine
 10
200.2857142857105
 20
56.27477941465745
 30
0.0
 11
200.2857142857105
 21
61.67477041465744
 31
0.0
  0
ARC
  5
2C89
330
18
100
AcDbEntity
  8
1
  6
Continuous
100
AcDbCircle
 10
226.7857142857171
 20
88.17477236465766
 30
0.0
 40
41.12749546226321
100
AcDbArc
 50
233.5923095272939
 51
148.4821191297334
  0
LINE
  5
2C8A
330
18
100
AcDbEntity
  8
4
  6
CENTER
 48
0.2
100
AcDbLine
 10
274.2857142857108
 20
389.174772364654
 30
0.0
 11
257.2857142857108
 21
389.174772364654
 31
0.0
  0
LINE
  5
2C8B
330
18
100
AcDbEntity
  8
4
  6
CENTER
 48
0.2
100
AcDbLine
 10
265.7857142857108
 20
397.6747723646539
 30
0.0
 11
265.7857142857108
 21
380.674772364654
 31
0.0
  0
LINE
  5
2C8C
330
18
100
AcDbEntity
  8
4
  6
CENTER
 48
0.2
100
AcDbLine
 10
274.2857142857106
 20
127.1747723646576
 30
0.0
 11
257.2857142857106
 21
127.1747723646576
 31
0.0
  0
LINE
  5
2C8D
330
18
100
AcDbEntity
  8
4
  6
CENTER
 48
0.2
100
AcDbLine
 10
265.7857142857106
 20
118.6747723646576
 30
0.0
 11
265.7857142857106
 21
135.6747723646576
 31
0.0
  0
LINE
  5
2C8E
330
18
100
AcDbEntity
  8
4
  6
CENTER
 48
0.2
100
AcDbLine
 10
265.7857142857106
 20
57.67477236465765
 30
0.0
 11
265.7857142857106
 21
40.67477236465765
 31
0.0
  0
LINE
  5
2C8F
330
18
100
AcDbEntity
  8
4
  6
CENTER
 48
0.2
100
AcDbLine
 10
274.2857142857106
 20
49.17477236465765
 30
0.0
 11
257.2857142857106
 21
49.17477236465765
 31
0.0
  0
ENDSEC
  0
SECTION
  2
OBJECTS
  0
DICTIONARY
  5
C
330
0
100
AcDbDictionary
281
     1
  3
ACAD_CIP_PREVIOUS_PRODUCT_INFO
350
365A
  3
ACAD_COLOR
350
363D
  3
ACAD_DETAILVIEWSTYLE
350
3656
  3
ACAD_GROUP
350
D
  3
ACAD_LAYOUT
350
94
  3
ACAD_MATERIAL
350
360B
  3
ACAD_MLEADERSTYLE
350
3652
  3
ACAD_MLINESTYLE
350
1B
  3
ACAD_PLOTSETTINGS
350
95
  3
ACAD_PLOTSTYLENAME
350
3609
  3
ACAD_SCALELIST
350
3640
  3
ACAD_SECTIONVIEWSTYLE
350
3654
  3
ACAD_TABLESTYLE
350
363E
  3
ACAD_VISUALSTYLE
350
3624
  3
ACDB_RECOMPOSE_DATA
350
3678
  3
AcDbVariableDictionary
350
366B
  3
CONTENTDICTIONARY
350
3D
  3
DWGPROPS
350
3679
  0
DICTIONARY
  5
365B
330
E
100
AcDbDictionary
280
     1
281
     1
  3
ADSK_XREC_LAYER_RECONCILED
360
365C
  0
DICTIONARY
  5
365D
330
4E
100
AcDbDictionary
280
     1
281
     1
  3
ADSK_XREC_LAYER_RECONCILED
360
365E
  0
DICTIONARY
  5
365F
330
4F
100
AcDbDictionary
280
     1
281
     1
  3
ADSK_XREC_LAYER_RECONCILED
360
3660
  0
DICTIONARY
  5
3661
330
50
100
AcDbDictionary
280
     1
281
     1
  3
ADSK_XREC_LAYER_RECONCILED
360
3662
  0
DICTIONARY
  5
3663
330
51
100
AcDbDictionary
280
     1
281
     1
  3
ADSK_XREC_LAYER_RECONCILED
360
3664
  0
DICTIONARY
  5
3665
330
52
100
AcDbDictionary
280
     1
281
     1
  3
ADSK_XREC_LAYER_RECONCILED
360
3666
  0
DICTIONARY
  5
3667
330
53
100
AcDbDictionary
280
     1
281
     1
  3
ADSK_XREC_LAYER_RECONCILED
360
3668
  0
DICTIONARY
  5
3669
330
54
100
AcDbDictionary
280
     1
281
     1
  3
ADSK_XREC_LAYER_RECONCILED
360
366A
  0
DICTIONARY
  5
3604
330
18
100
AcDbDictionary
281
     1
  3
ACAD_LAYOUTSELFREF
350
3605
  0
DICTIONARY
  5
3602
330
15
100
AcDbDictionary
281
     1
  3
ACAD_LAYOUTSELFREF
350
3603
  0
XRECORD
  5
365A
102
{ACAD_REACTORS
330
C
102
}
330
C
100
AcDbXrecord
280
     1
300
ACDLT
300
2014
300
ACDLT_F_S
  0
DICTIONARY
  5
363D
102
{ACAD_REACTORS
330
C
102
}
330
C
100
AcDbDictionary
281
     1
  0
DICTIONARY
  5
3656
102
{ACAD_REACTORS
330
C
102
}
330
C
100
AcDbDictionary
281
     1
  3
Imperial24
350
3657
  0
DICTIONARY
  5
D
102
{ACAD_REACTORS
330
C
102
}
330
C
100
AcDbDictionary
281
     1
  0
DICTIONARY
  5
94
102
{ACAD_REACTORS
330
C
102
}
330
C
100
AcDbDictionary
281
     1
  3
Model
350
3658
  3
レイアウト1
350
3659
  0
DICTIONARY
  5
360B
102
{ACAD_REACTORS
330
C
102
}
330
C
100
AcDbDictionary
281
     1
  3
ByBlock
350
3614
  3
ByLayer
350
360C
  3
Global
350
361C
  0
DICTIONARY
  5
3652
102
{ACAD_REACTORS
330
C
102
}
330
C
100
AcDbDictionary
281
     1
  3
Standard
350
3653
  0
DICTIONARY
  5
1B
102
{ACAD_REACTORS
330
C
102
}
330
C
100
AcDbDictionary
281
     1
  3
STANDARD
350
1C
  0
DICTIONARY
  5
95
102
{ACAD_REACTORS
330
C
102
}
330
C
100
AcDbDictionary
281
     1
  0
ACDBDICTIONARYWDFLT
  5
3609
102
{ACAD_REACTORS
330
C
102
}
330
C
100
AcDbDictionary
281
     1
  3
Normal
350
360A
100
AcDbDictionaryWithDefault
340
360A
  0
DICTIONARY
  5
3640
102
{ACAD_REACTORS
330
C
102
}
330
C
100
AcDbDictionary
281
     1
  3
A0
350
3641
  3
A1
350
3642
  3
A2
350
3643
  3
A3
350
3644
  3
A4
350
3645
  3
A5
350
3646
  3
A6
350
3647
  3
A7
350
3648
  3
A8
350
3649
  3
A9
350
364A
  3
B0
350
364B
  3
B1
350
364C
  3
B2
350
364D
  3
B3
350
364E
  3
B4
350
364F
  3
B5
350
3650
  3
B6
350
3651
  0
DICTIONARY
  5
3654
102
{ACAD_REACTORS
330
C
102
}
330
C
100
AcDbDictionary
281
     1
  3
Imperial24
350
3655
  0
DICTIONARY
  5
363E
102
{ACAD_REACTORS
330
C
102
}
330
C
100
AcDbDictionary
281
     1
  3
Standard
350
363F
  0
DICTIONARY
  5
3624
102
{ACAD_REACTORS
330
C
102
}
330
C
100
AcDbDictionary
281
     1
  3
2dWireframe
350
362A
  3
Basic
350
3629
  3
Brighten
350
3630
  3
ColorChange
350
3634
  3
Conceptual
350
362D
  3
Dim
350
362F
  3
EdgeColorOff
350
363C
  3
Facepattern
350
3633
  3
Flat
350
3625
  3
FlatWithEdges
350
3626
  3
Gouraud
350
3627
  3
GouraudWithEdges
350
3628
  3
Hidden
350
362C
  3
JitterOff
350
363A
  3
Linepattern
350
3632
  3
OverhangOff
350
363B
  3
Realistic
350
362E
  3
Shaded
350
3639
  3
Shaded with edges
350
3638
  3
Shades of Gray
350
3635
  3
Sketchy
350
3636
  3
Thicken
350
3631
  3
Wireframe
350
362B
  3
X-Ray
350
3637
  0
XRECORD
  5
3678
102
{ACAD_REACTORS
330
C
102
}
330
C
100
AcDbXrecord
280
     1
 90
        1
330
363F
  0
DICTIONARY
  5
366B
102
{ACAD_REACTORS
330
C
102
}
330
C
100
AcDbDictionary
281
     1
  3
CANNOSCALE
350
3670
  3
CMLEADERSTYLE
350
366D
  3
CTABLESTYLE
350
366C
  3
CVIEWDETAILSTYLE
350
366E
  3
CVIEWSECTIONSTYLE
350
366F
  3
DIMASSOC
350
3673
  3
INDEXCTL
350
3672
  3
SORTENTS
350
3671
  3
XCLIPFRAME
350
3674
  0
DICTIONARY
  5
3D
102
{ACAD_REACTORS
330
C
102
}
330
C
100
AcDbDictionary
281
     1
  0
XRECORD
  5
3679
102
{ACAD_REACTORS
330
C
102
}
330
C
100
AcDbXrecord
280
     1
  1
DWGPROPS COOKIE
  2

  3

  4

  6

  7

  8
Yoshitsune
  9

300
=
301
=
302
=
303
=
304
=
305
=
306
=
307
=
308
=
309
=
 40
0.4169465625
 41
2452051.395592083
 42
2457192.691055637
  1

 90
        0
  0
XRECORD
  5
365C
102
{ACAD_REACTORS
330
365B
102
}
330
365B
100
AcDbXrecord
280
     1
290
     1
  0
XRECORD
  5
365E
102
{ACAD_REACTORS
330
365D
102
}
330
365D
100
AcDbXrecord
280
     1
290
     1
  0
XRECORD
  5
3660
102
{ACAD_REACTORS
330
365F
102
}
330
365F
100
AcDbXrecord
280
     1
290
     1
  0
XRECORD
  5
3662
102
{ACAD_REACTORS
330
3661
102
}
330
3661
100
AcDbXrecord
280
     1
290
     1
  0
XRECORD
  5
3664
102
{ACAD_REACTORS
330
3663
102
}
330
3663
100
AcDbXrecord
280
     1
290
     1
  0
XRECORD
  5
3666
102
{ACAD_REACTORS
330
3665
102
}
330
3665
100
AcDbXrecord
280
     1
290
     1
  0
XRECORD
  5
3668
102
{ACAD_REACTORS
330
3667
102
}
330
3667
100
AcDbXrecord
280
     1
290
     1
  0
XRECORD
  5
366A
102
{ACAD_REACTORS
330
3669
102
}
330
3669
100
AcDbXrecord
280
     1
290
     1
  0
XRECORD
  5
3605
102
{ACAD_REACTORS
330
3604
102
}
330
3604
100
AcDbXrecord
280
     1
340
18
  0
XRECORD
  5
3603
102
{ACAD_REACTORS
330
3602
102
}
330
3602
100
AcDbXrecord
280
     1
340
15
  0
ACDBDETAILVIEWSTYLE
  5
3657
102
{ACAD_XDICTIONARY
360
36B1
102
}
102
{ACAD_REACTORS
330
3656
102
}
330
3656
100
AcDbModelDocViewStyle
 70
     0
  3
Imperial24
290
     0
100
AcDbDetailViewStyle
 70
     0
 71
     0
 90
        3
 71
     1
340
F
 40
0.24
340
0
 40
0.24
300

 40
0.36
280
     3
 71
     2
340
14
 90
       25
 71
     3
340
F
 40
0.24
 90
        1
 40
0.75
 90
        1
300
%<\AcVar ViewType \f "%tc1">% %<\AcVar ViewDetailId>%\PSCALE %<\AcVar ViewScale \f "%sn">%
 71
     4
340
14
 90
       25
340
14
 90
       25
280
     0
  0
LAYOUT
  5
3658
102
{ACAD_XDICTIONARY
360
36B3
102
}
102
{ACAD_REACTORS
330
94
102
}
330
94
100
AcDbPlotSettings
  1

  2
Canon LBP9100C
  4

  6

 40
0.0
 41
0.0
 42
0.0
 43
0.0
 44
0.0
 45
0.0
 46
0.0
 47
0.0
 48
0.0
 49
0.0
140
0.0
141
0.0
142
1.0
143
1.0
 70
  1712
 72
     0
 73
     0
 74
     0
  7

 75
     0
147
1.0
148
0.0
149
0.0
100
AcDbLayout
  1
Model
 70
     1
 71
     0
 10
0.0
 20
0.0
 11
12.0
 21
9.0
 12
0.0
 22
0.0
 32
0.0
 14
0.0
 24
0.0
 34
0.0
 15
0.0
 25
0.0
 35
0.0
146
0.0
 13
0.0
 23
0.0
 33
0.0
 16
1.0
 26
0.0
 36
0.0
 17
0.0
 27
1.0
 37
0.0
 76
     0
330
18
331
3601
  0
LAYOUT
  5
3659
102
{ACAD_XDICTIONARY
360
36B5
102
}
102
{ACAD_REACTORS
330
94
102
}
330
94
100
AcDbPlotSettings
  1

  2
Canon LBP9100C
  4

  6

 40
0.0
 41
0.0
 42
0.0
 43
0.0
 44
0.0
 45
0.0
 46
0.0
 47
0.0
 48
0.0
 49
0.0
140
0.0
141
0.0
142
1.0
143
1.0
 70
   688
 72
     0
 73
     0
 74
     5
  7

 75
    16
147
1.0
148
0.0
149
0.0
100
AcDbLayout
  1
レイアウト1
 70
     1
 71
     1
 10
0.0
 20
0.0
 11
420.0
 21
297.0
 12
0.0
 22
0.0
 32
0.0
 14
1.000000000000000E+20
 24
1.000000000000000E+20
 34
1.000000000000000E+20
 15
-1.000000000000000E+20
 25
-1.000000000000000E+20
 35
-1.000000000000000E+20
146
0.0
 13
0.0
 23
0.0
 33
0.0
 16
1.0
 26
0.0
 36
0.0
 17
0.0
 27
1.0
 37
0.0
 76
     0
330
15
  0
MATERIAL
  5
3614
102
{ACAD_XDICTIONARY
360
3615
102
}
102
{ACAD_REACTORS
330
360B
102
}
330
360B
100
AcDbMaterial
  1
ByBlock
 72
     0
 43
0.0208333333333333
 43
0.0
 43
0.0
 43
0.0
 43
0.0
 43
0.0208333333333333
 43
0.0
 43
0.0
 43
0.0
 43
0.0
 43
1.0
 43
0.0
 43
0.0
 43
0.0
 43
0.0
 43
1.0
 77
     0
 47
0.0208333333333333
 47
0.0
 47
0.0
 47
0.0
 47
0.0
 47
0.0208333333333333
 47
0.0
 47
0.0
 47
0.0
 47
0.0
 47
1.0
 47
0.0
 47
0.0
 47
0.0
 47
0.0
 47
1.0
171
     0
 49
0.0208333333333333
 49
0.0
 49
0.0
 49
0.0
 49
0.0
 49
0.0208333333333333
 49
0.0
 49
0.0
 49
0.0
 49
0.0
 49
1.0
 49
0.0
 49
0.0
 49
0.0
 49
0.0
 49
1.0
175
     0
142
0.0208333333333333
142
0.0
142
0.0
142
0.0
142
0.0
142
0.0208333333333333
142
0.0
142
0.0
142
0.0
142
0.0
142
1.0
142
0.0
142
0.0
142
0.0
142
0.0
142
1.0
179
     0
144
0.0208333333333333
144
0.0
144
0.0
144
0.0
144
0.0
144
0.0208333333333333
144
0.0
144
0.0
144
0.0
144
0.0
144
1.0
144
0.0
144
0.0
144
0.0
144
0.0
144
1.0
147
0.0208333333333333
147
0.0
147
0.0
147
0.0
147
0.0
147
0.0208333333333333
147
0.0
147
0.0
147
0.0
147
0.0
147
1.0
147
0.0
147
0.0
147
0.0
147
0.0
147
1.0
  0
MATERIAL
  5
360C
102
{ACAD_XDICTIONARY
360
360D
102
}
102
{ACAD_REACTORS
330
360B
102
}
330
360B
100
AcDbMaterial
  1
ByLayer
 72
     0
 43
0.0208333333333333
 43
0.0
 43
0.0
 43
0.0
 43
0.0
 43
0.0208333333333333
 43
0.0
 43
0.0
 43
0.0
 43
0.0
 43
1.0
 43
0.0
 43
0.0
 43
0.0
 43
0.0
 43
1.0
 77
     0
 47
0.0208333333333333
 47
0.0
 47
0.0
 47
0.0
 47
0.0
 47
0.0208333333333333
 47
0.0
 47
0.0
 47
0.0
 47
0.0
 47
1.0
 47
0.0
 47
0.0
 47
0.0
 47
0.0
 47
1.0
171
     0
 49
0.0208333333333333
 49
0.0
 49
0.0
 49
0.0
 49
0.0
 49
0.0208333333333333
 49
0.0
 49
0.0
 49
0.0
 49
0.0
 49
1.0
 49
0.0
 49
0.0
 49
0.0
 49
0.0
 49
1.0
175
     0
142
0.0208333333333333
142
0.0
142
0.0
142
0.0
142
0.0
142
0.0208333333333333
142
0.0
142
0.0
142
0.0
142
0.0
142
1.0
142
0.0
142
0.0
142
0.0
142
0.0
142
1.0
179
     0
144
0.0208333333333333
144
0.0
144
0.0
144
0.0
144
0.0
144
0.0208333333333333
144
0.0
144
0.0
144
0.0
144
0.0
144
1.0
144
0.0
144
0.0
144
0.0
144
0.0
144
1.0
147
0.0208333333333333
147
0.0
147
0.0
147
0.0
147
0.0
147
0.0208333333333333
147
0.0
147
0.0
147
0.0
147
0.0
147
1.0
147
0.0
147
0.0
147
0.0
147
0.0
147
1.0
  0
MATERIAL
  5
361C
102
{ACAD_XDICTIONARY
360
361D
102
}
102
{ACAD_REACTORS
330
360B
102
}
330
360B
100
AcDbMaterial
  1
Global
 72
     0
 43
0.0208333333333333
 43
0.0
 43
0.0
 43
0.0
 43
0.0
 43
0.0208333333333333
 43
0.0
 43
0.0
 43
0.0
 43
0.0
 43
1.0
 43
0.0
 43
0.0
 43
0.0
 43
0.0
 43
1.0
 77
     0
 47
0.0208333333333333
 47
0.0
 47
0.0
 47
0.0
 47
0.0
 47
0.0208333333333333
 47
0.0
 47
0.0
 47
0.0
 47
0.0
 47
1.0
 47
0.0
 47
0.0
 47
0.0
 47
0.0
 47
1.0
171
     0
 49
0.0208333333333333
 49
0.0
 49
0.0
 49
0.0
 49
0.0
 49
0.0208333333333333
 49
0.0
 49
0.0
 49
0.0
 49
0.0
 49
1.0
 49
0.0
 49
0.0
 49
0.0
 49
0.0
 49
1.0
175
     0
142
0.0208333333333333
142
0.0
142
0.0
142
0.0
142
0.0
142
0.0208333333333333
142
0.0
142
0.0
142
0.0
142
0.0
142
1.0
142
0.0
142
0.0
142
0.0
142
0.0
142
1.0
179
     0
144
0.0208333333333333
144
0.0
144
0.0
144
0.0
144
0.0
144
0.0208333333333333
144
0.0
144
0.0
144
0.0
144
0.0
144
1.0
144
0.0
144
0.0
144
0.0
144
0.0
144
1.0
147
0.0208333333333333
147
0.0
147
0.0
147
0.0
147
0.0
147
0.0208333333333333
147
0.0
147
0.0
147
0.0
147
0.0
147
1.0
147
0.0
147
0.0
147
0.0
147
0.0
147
1.0
  0
MLEADERSTYLE
  5
3653
102
{ACAD_REACTORS
330
3652
102
}
330
3652
100
AcDbMLeaderStyle
170
     2
171
     1
172
     0
 90
        2
 40
0.0
 41
0.0
173
     1
 91
-1056964608
340
12
 92
       -2
290
     1
 42
0.09
291
     1
 43
0.36
  3
Standard
 44
0.18
300

342
F
174
     1
178
     6
175
     1
176
     0
 93
-1056964608
 45
0.18
292
     0
297
     0
 46
0.18
 94
-1056964608
 47
1.0
 49
1.0
140
1.0
293
     1
141
0.0
294
     1
177
     0
142
1.0
295
     0
296
     0
143
0.125
1001
ACAD_MLEADERVER
1070
     2
  0
MLINESTYLE
  5
1C
102
{ACAD_REACTORS
330
1B
102
}
330
1B
100
AcDbMlineStyle
  2
STANDARD
 70
     0
  3

 62
   256
 51
90.0
 52
90.0
 71
     2
 49
0.5
 62
   256
  6
BYLAYER
 49
-0.5
 62
   256
  6
BYLAYER
  0
ACDBPLACEHOLDER
  5
360A
102
{ACAD_REACTORS
330
3609
102
}
330
3609
  0
SCALE
  5
3641
102
{ACAD_REACTORS
330
3640
102
}
330
3640
100
AcDbScale
 70
     0
300
1:1
140
1.0
141
1.0
290
     1
  0
SCALE
  5
3642
102
{ACAD_REACTORS
330
3640
102
}
330
3640
100
AcDbScale
 70
     0
300
1/128" = 1'-0"
140
0.0078125
141
12.0
290
     0
  0
SCALE
  5
3643
102
{ACAD_REACTORS
330
3640
102
}
330
3640
100
AcDbScale
 70
     0
300
1/64" = 1'-0"
140
0.015625
141
12.0
290
     0
  0
SCALE
  5
3644
102
{ACAD_REACTORS
330
3640
102
}
330
3640
100
AcDbScale
 70
     0
300
1/32" = 1'-0"
140
0.03125
141
12.0
290
     0
  0
SCALE
  5
3645
102
{ACAD_REACTORS
330
3640
102
}
330
3640
100
AcDbScale
 70
     0
300
1/16" = 1'-0"
140
0.0625
141
12.0
290
     0
  0
SCALE
  5
3646
102
{ACAD_REACTORS
330
3640
102
}
330
3640
100
AcDbScale
 70
     0
300
3/32" = 1'-0"
140
0.09375
141
12.0
290
     0
  0
SCALE
  5
3647
102
{ACAD_REACTORS
330
3640
102
}
330
3640
100
AcDbScale
 70
     0
300
1/8" = 1'-0"
140
0.125
141
12.0
290
     0
  0
SCALE
  5
3648
102
{ACAD_REACTORS
330
3640
102
}
330
3640
100
AcDbScale
 70
     0
300
3/16" = 1'-0"
140
0.1875
141
12.0
290
     0
  0
SCALE
  5
3649
102
{ACAD_REACTORS
330
3640
102
}
330
3640
100
AcDbScale
 70
     0
300
1/4" = 1'-0"
140
0.25
141
12.0
290
     0
  0
SCALE
  5
364A
102
{ACAD_REACTORS
330
3640
102
}
330
3640
100
AcDbScale
 70
     0
300
3/8" = 1'-0"
140
0.375
141
12.0
290
     0
  0
SCALE
  5
364B
102
{ACAD_REACTORS
330
3640
102
}
330
3640
100
AcDbScale
 70
     0
300
1/2" = 1'-0"
140
0.5
141
12.0
290
     0
  0
SCALE
  5
364C
102
{ACAD_REACTORS
330
3640
102
}
330
3640
100
AcDbScale
 70
     0
300
3/4" = 1'-0"
140
0.75
141
12.0
290
     0
  0
SCALE
  5
364D
102
{ACAD_REACTORS
330
3640
102
}
330
3640
100
AcDbScale
 70
     0
300
1" = 1'-0"
140
1.0
141
12.0
290
     0
  0
SCALE
  5
364E
102
{ACAD_REACTORS
330
3640
102
}
330
3640
100
AcDbScale
 70
     0
300
1-1/2" = 1'-0"
140
1.5
141
12.0
290
     0
  0
SCALE
  5
364F
102
{ACAD_REACTORS
330
3640
102
}
330
3640
100
AcDbScale
 70
     0
300
3" = 1'-0"
140
3.0
141
12.0
290
     0
  0
SCALE
  5
3650
102
{ACAD_REACTORS
330
3640
102
}
330
3640
100
AcDbScale
 70
     0
300
6" = 1'-0"
140
6.0
141
12.0
290
     0
  0
SCALE
  5
3651
102
{ACAD_REACTORS
330
3640
102
}
330
3640
100
AcDbScale
 70
     0
300
1'-0" = 1'-0"
140
12.0
141
12.0
290
     0
  0
ACDBSECTIONVIEWSTYLE
  5
3655
102
{ACAD_XDICTIONARY
360
36AF
102
}
102
{ACAD_REACTORS
330
3654
102
}
330
3654
100
AcDbModelDocViewStyle
 70
     0
  3
Imperial24
290
     0
100
AcDbSectionViewStyle
 70
     0
 71
     0
 90
       78
 71
     1
340
F
 40
0.24
340
0
340
0
 40
0.24
300
I, O, Q, S, X, Z
 40
0.48
 90
        3
 40
0.18
 90
        1
 71
     2
340
14
 90
       25
340
14
 90
       50
 40
0.24
 40
0.0
 40
0.24
 71
     3
340
F
 40
0.24
 90
        1
 40
0.75
 90
        1
300
%<\AcVar ViewType \f "%tc1">% %<\AcVar ViewSectionStartId>%-%<\AcVar ViewSectionEndId>%\PSCALE %<\AcVar ViewScale \f "%sn">%
 71
     4
300
ANSI31
 40
1.0
 90
        0
290
     0
290
     0
 90
        6
 40
0.0
 40
1.570796326794896
 40
0.2617993877991494
 40
1.308996938995747
 40
-0.2617993877991494
 40
1.832595714594046
  0
TABLESTYLE
  5
363F
102
{ACAD_XDICTIONARY
360
3676
102
}
102
{ACAD_REACTORS
330
363E
102
}
330
363E
100
AcDbTableStyle
  3
Standard
 70
     0
 71
     0
 40
0.06
 41
0.06
280
     0
281
     0
  7
STANDARD
140
0.18
170
     2
 62
     0
 63
     7
283
     0
274
    -2
284
     1
 64
     0
275
    -2
285
     1
 65
     0
276
    -2
286
     1
 66
     0
277
    -2
287
     1
 67
     0
278
    -2
288
     1
 68
     0
279
    -2
289
     1
 69
     0
  7
STANDARD
140
0.25
170
     5
 62
     0
 63
     7
283
     0
274
    -2
284
     1
 64
     0
275
    -2
285
     1
 65
     0
276
    -2
286
     1
 66
     0
277
    -2
287
     1
 67
     0
278
    -2
288
     1
 68
     0
279
    -2
289
     1
 69
     0
  7
STANDARD
140
0.18
170
     5
 62
     0
 63
     7
283
     0
274
    -2
284
     1
 64
     0
275
    -2
285
     1
 65
     0
276
    -2
286
     1
 66
     0
277
    -2
287
     1
 67
     0
278
    -2
288
     1
 68
     0
279
    -2
289
     1
 69
     0
  0
VISUALSTYLE
  5
362A
102
{ACAD_XDICTIONARY
360
3687
102
}
102
{ACAD_REACTORS
330
3624
102
}
330
3624
100
AcDbVisualStyle
  2
2dWireframe
 70
     4
 71
     0
 72
     2
 73
     0
 90
        0
 40
-0.6
 41
-30.0
 62
     5
 63
     7
 74
     1
 91
        4
 64
     7
 65
   257
 75
     1
175
     1
 42
1.0
 92
        0
 66
   257
 43
1.0
 76
     1
 77
     6
 78
     2
 67
     7
 79
     5
170
     0
171
     0
290
     0
174
     0
 93
        1
 44
0.0
173
     0
291
     0
 45
0.0
1001
ACAD
1000
AcDbSavedByObjectVersion
1070
     0
  0
VISUALSTYLE
  5
3629
102
{ACAD_XDICTIONARY
360
3685
102
}
102
{ACAD_REACTORS
330
3624
102
}
330
3624
100
AcDbVisualStyle
  2
Basic
 70
     7
 71
     1
 72
     0
 73
     1
 90
        0
 40
-0.6
 41
-30.0
 62
     5
 63
     7
 74
     0
 91
        4
 64
     7
 65
   257
 75
     1
175
     1
 42
1.0
 92
        8
 66
     7
 43
1.0
 76
     1
 77
     6
 78
     2
 67
     7
 79
     5
170
     0
171
     0
290
     0
174
     0
 93
        1
 44
0.0
173
     0
291
     1
 45
0.0
1001
ACAD
1000
AcDbSavedByObjectVersion
1070
     0
  0
VISUALSTYLE
  5
3630
102
{ACAD_XDICTIONARY
360
3693
102
}
102
{ACAD_REACTORS
330
3624
102
}
330
3624
100
AcDbVisualStyle
  2
Brighten
 70
    12
 71
     2
 72
     2
 73
     0
 90
        0
 40
-0.6
 41
-30.0
 62
     5
 63
     7
 74
     1
 91
        4
 64
     7
 65
   257
 75
     1
175
     1
 42
1.0
 92
        8
 66
     7
 43
1.0
 76
     1
 77
     6
 78
     2
 67
     7
 79
     5
170
     0
171
     0
290
     0
174
     0
 93
        1
 44
50.0
173
     0
291
     1
 45
0.0
1001
ACAD
1000
AcDbSavedByObjectVersion
1070
     0
  0
VISUALSTYLE
  5
3634
102
{ACAD_XDICTIONARY
360
369B
102
}
102
{ACAD_REACTORS
330
3624
102
}
330
3624
100
AcDbVisualStyle
  2
ColorChange
 70
    16
 71
     2
 72
     2
 73
     3
 90
        0
 40
-0.6
 41
-30.0
 62
     5
 63
     8
 74
     1
 91
        4
 64
     7
 65
   257
 75
     1
175
     1
 42
1.0
 92
        8
 66
     8
 43
1.0
 76
     1
 77
     6
 78
     2
 67
     7
 79
     5
170
     0
171
     0
290
     0
174
     0
 93
        1
 44
0.0
173
     0
291
     1
 45
0.0
1001
ACAD
1000
AcDbSavedByObjectVersion
1070
     0
  0
VISUALSTYLE
  5
362D
102
{ACAD_XDICTIONARY
360
368D
102
}
102
{ACAD_REACTORS
330
3624
102
}
330
3624
100
AcDbVisualStyle
  2
Conceptual
 70
     9
 71
     3
 72
     2
 73
     0
 90
        0
 40
-0.6
 41
-30.0
 62
     5
 63
     7
 74
     2
 91
        2
 64
     7
 65
   257
 75
     1
175
     1
 42
179.0
 92
        8
 66
     7
 43
1.0
 76
     1
 77
     6
 78
     2
 67
     7
 79
     3
170
     0
171
     0
290
     0
174
     0
 93
        1
 44
0.0
173
     0
291
     0
 45
0.0
1001
ACAD
1000
AcDbSavedByObjectVersion
1070
     0
  0
VISUALSTYLE
  5
362F
102
{ACAD_XDICTIONARY
360
3691
102
}
102
{ACAD_REACTORS
330
3624
102
}
330
3624
100
AcDbVisualStyle
  2
Dim
 70
    11
 71
     2
 72
     2
 73
     0
 90
        0
 40
-0.6
 41
-30.0
 62
     5
 63
     7
 74
     1
 91
        4
 64
     7
 65
   257
 75
     1
175
     1
 42
1.0
 92
        8
 66
     7
 43
1.0
 76
     1
 77
     6
 78
     2
 67
     7
 79
     5
170
     0
171
     0
290
     0
174
     0
 93
        1
 44
-50.0
173
     0
291
     1
 45
0.0
1001
ACAD
1000
AcDbSavedByObjectVersion
1070
     0
  0
VISUALSTYLE
  5
363C
102
{ACAD_XDICTIONARY
360
36AB
102
}
102
{ACAD_REACTORS
330
3624
102
}
330
3624
100
AcDbVisualStyle
  2
EdgeColorOff
 70
    22
 71
     2
 72
     2
 73
     0
 90
        0
 40
-0.6
 41
-30.0
 62
     5
 63
     7
 74
     1
 91
        4
 64
     7
 65
   257
 75
     1
175
     1
 42
1.0
 92
        8
 66
     7
 43
1.0
 76
     1
 77
     6
 78
     2
 67
     7
 79
     5
170
     0
171
     0
290
     0
174
     0
 93
        1
 44
0.0
173
     0
291
     1
 45
0.0
1001
ACAD
1000
AcDbSavedByObjectVersion
1070
     0
  0
VISUALSTYLE
  5
3633
102
{ACAD_XDICTIONARY
360
3699
102
}
102
{ACAD_REACTORS
330
3624
102
}
330
3624
100
AcDbVisualStyle
  2
Facepattern
 70
    15
 71
     2
 72
     2
 73
     0
 90
        0
 40
-0.6
 41
-30.0
 62
     5
 63
     7
 74
     1
 91
        4
 64
     7
 65
   257
 75
     1
175
     1
 42
1.0
 92
        8
 66
     7
 43
1.0
 76
     1
 77
     6
 78
     2
 67
     7
 79
     5
170
     0
171
     0
290
     0
174
     0
 93
        1
 44
0.0
173
     0
291
     1
 45
0.0
1001
ACAD
1000
AcDbSavedByObjectVersion
1070
     0
  0
VISUALSTYLE
  5
3625
102
{ACAD_XDICTIONARY
360
367D
102
}
102
{ACAD_REACTORS
330
3624
102
}
330
3624
100
AcDbVisualStyle
  2
Flat
 70
     0
 71
     2
 72
     1
 73
     1
 90
        2
 40
-0.6
 41
30.0
 62
     5
 63
     7
 74
     0
 91
        0
 64
     7
 65
   257
 75
     1
175
     1
 42
1.0
 92
        8
 66
     7
 43
1.0
 76
     1
 77
     6
 78
     2
 67
     7
 79
     5
170
     0
171
     0
290
     0
174
     0
 93
       13
 44
0.0
173
     0
291
     1
 45
0.0
1001
ACAD
1000
AcDbSavedByObjectVersion
1070
     0
  0
VISUALSTYLE
  5
3626
102
{ACAD_XDICTIONARY
360
367F
102
}
102
{ACAD_REACTORS
330
3624
102
}
330
3624
100
AcDbVisualStyle
  2
FlatWithEdges
 70
     1
 71
     2
 72
     1
 73
     1
 90
        2
 40
-0.6
 41
30.0
 62
     5
 63
     7
 74
     1
 91
        0
 64
     7
 65
   257
 75
     1
175
     1
 42
1.0
 92
        0
 66
   257
 43
1.0
 76
     1
 77
     6
 78
     2
 67
     7
 79
     5
170
     0
171
     0
290
     0
174
     0
 93
       13
 44
0.0
173
     0
291
     1
 45
0.0
1001
ACAD
1000
AcDbSavedByObjectVersion
1070
     0
  0
VISUALSTYLE
  5
3627
102
{ACAD_XDICTIONARY
360
3681
102
}
102
{ACAD_REACTORS
330
3624
102
}
330
3624
100
AcDbVisualStyle
  2
Gouraud
 70
     2
 71
     2
 72
     2
 73
     1
 90
        2
 40
-0.6
 41
30.0
 62
     5
 63
     7
 74
     0
 91
        0
 64
     7
 65
   257
 75
     1
175
     1
 42
1.0
 92
        0
 66
     7
 43
1.0
 76
     1
 77
     6
 78
     2
 67
     7
 79
     5
170
     0
171
     0
290
     0
174
     0
 93
       13
 44
0.0
173
     0
291
     1
 45
0.0
1001
ACAD
1000
AcDbSavedByObjectVersion
1070
     0
  0
VISUALSTYLE
  5
3628
102
{ACAD_XDICTIONARY
360
3683
102
}
102
{ACAD_REACTORS
330
3624
102
}
330
3624
100
AcDbVisualStyle
  2
GouraudWithEdges
 70
     3
 71
     2
 72
     2
 73
     1
 90
        2
 40
-0.6
 41
30.0
 62
     5
 63
     7
 74
     1
 91
        0
 64
     7
 65
   257
 75
     1
175
     1
 42
1.0
 92
        0
 66
   257
 43
1.0
 76
     1
 77
     6
 78
     2
 67
     7
 79
     5
170
     0
171
     0
290
     0
174
     0
 93
       13
 44
0.0
173
     0
291
     1
 45
0.0
1001
ACAD
1000
AcDbSavedByObjectVersion
1070
     0
  0
VISUALSTYLE
  5
362C
102
{ACAD_XDICTIONARY
360
368B
102
}
102
{ACAD_REACTORS
330
3624
102
}
330
3624
100
AcDbVisualStyle
  2
Hidden
 70
     6
 71
     1
 72
     2
 73
     2
 90
        0
 40
-0.6
 41
-30.0
 62
     5
 63
     7
 74
     2
 91
        2
 64
     7
 65
   257
 75
     2
175
     1
 42
40.0
 92
        0
 66
   257
 43
1.0
 76
     1
 77
     6
 78
     2
 67
     7
 79
     3
170
     0
171
     0
290
     0
174
     0
 93
        1
 44
0.0
173
     0
291
     0
 45
0.0
1001
ACAD
1000
AcDbSavedByObjectVersion
1070
     0
  0
VISUALSTYLE
  5
363A
102
{ACAD_XDICTIONARY
360
36A7
102
}
102
{ACAD_REACTORS
330
3624
102
}
330
3624
100
AcDbVisualStyle
  2
JitterOff
 70
    20
 71
     2
 72
     2
 73
     0
 90
        0
 40
-0.6
 41
-30.0
 62
     5
 63
     7
 74
     1
 91
        4
 64
     7
 65
   257
 75
     1
175
     1
 42
1.0
 92
       10
 66
     7
 43
1.0
 76
     1
 77
     6
 78
     2
 67
     7
 79
     5
170
     0
171
     0
290
     0
174
     0
 93
        1
 44
0.0
173
     0
291
     1
 45
0.0
1001
ACAD
1000
AcDbSavedByObjectVersion
1070
     0
  0
VISUALSTYLE
  5
3632
102
{ACAD_XDICTIONARY
360
3697
102
}
102
{ACAD_REACTORS
330
3624
102
}
330
3624
100
AcDbVisualStyle
  2
Linepattern
 70
    14
 71
     2
 72
     2
 73
     0
 90
        0
 40
-0.6
 41
-30.0
 62
     5
 63
     7
 74
     1
 91
        4
 64
     7
 65
   257
 75
     7
175
     7
 42
1.0
 92
        8
 66
     7
 43
1.0
 76
     1
 77
     6
 78
     2
 67
     7
 79
     5
170
     0
171
     0
290
     0
174
     0
 93
        1
 44
0.0
173
     0
291
     1
 45
0.0
1001
ACAD
1000
AcDbSavedByObjectVersion
1070
     0
  0
VISUALSTYLE
  5
363B
102
{ACAD_XDICTIONARY
360
36A9
102
}
102
{ACAD_REACTORS
330
3624
102
}
330
3624
100
AcDbVisualStyle
  2
OverhangOff
 70
    21
 71
     2
 72
     2
 73
     0
 90
        0
 40
-0.6
 41
-30.0
 62
     5
 63
     7
 74
     1
 91
        4
 64
     7
 65
   257
 75
     1
175
     1
 42
1.0
 92
        9
 66
     7
 43
1.0
 76
     1
 77
     6
 78
     2
 67
     7
 79
     5
170
     0
171
     0
290
     0
174
     0
 93
        1
 44
0.0
173
     0
291
     1
 45
0.0
1001
ACAD
1000
AcDbSavedByObjectVersion
1070
     0
  0
VISUALSTYLE
  5
362E
102
{ACAD_XDICTIONARY
360
368F
102
}
102
{ACAD_REACTORS
330
3624
102
}
330
3624
100
AcDbVisualStyle
  2
Realistic
 70
     8
 71
     2
 72
     3
 73
     0
 90
        2
 40
-0.6
 41
30.0
 62
     5
 63
     7
 74
     0
 91
        0
 64
     7
 65
   257
 75
     1
175
     1
 42
1.0
 92
        8
 66
   257
 43
1.0
 76
     1
 77
     6
 78
     2
 67
     7
 79
     3
170
     0
171
     0
290
     0
174
     0
 93
       13
 44
0.0
173
     0
291
     0
 45
0.0
1001
ACAD
1000
AcDbSavedByObjectVersion
1070
     0
  0
VISUALSTYLE
  5
3639
102
{ACAD_XDICTIONARY
360
36A5
102
}
102
{ACAD_REACTORS
330
3624
102
}
330
3624
100
AcDbVisualStyle
  2
Shaded
 70
    27
 71
     2
 72
     2
 73
     1
 90
        2
 40
-0.6
 41
30.0
 62
     5
 63
     7
 74
     0
 91
        4
 64
     7
 65
   257
 75
     1
175
     1
 42
1.0
 92
        8
 66
   257
 43
1.0
 76
     1
 77
     6
 78
     2
 67
     8
 79
     3
170
     0
171
     0
290
     0
174
     0
 93
        5
 44
0.0
173
     0
291
     0
 45
0.0
1001
ACAD
1000
AcDbSavedByObjectVersion
1070
     0
  0
VISUALSTYLE
  5
3638
102
{ACAD_XDICTIONARY
360
36A3
102
}
102
{ACAD_REACTORS
330
3624
102
}
330
3624
100
AcDbVisualStyle
  2
Shaded with edges
 70
    26
 71
     2
 72
     2
 73
     1
 90
        2
 40
-0.6
 41
30.0
 62
     5
 63
     7
 74
     1
 91
       10
 64
     7
 65
   257
 75
     2
175
     1
 42
1.0
 92
        8
 66
   257
 43
1.0
 76
     1
 77
     6
 78
     2
 67
     7
 79
     3
170
     0
171
     0
290
     0
174
     0
 93
        5
 44
0.0
173
     0
291
     0
 45
0.0
1001
ACAD
1000
AcDbSavedByObjectVersion
1070
     0
  0
VISUALSTYLE
  5
3635
102
{ACAD_XDICTIONARY
360
369D
102
}
102
{ACAD_REACTORS
330
3624
102
}
330
3624
100
AcDbVisualStyle
  2
Shades of Gray
 70
    23
 71
     2
 72
     2
 73
     3
 90
        0
 40
-0.6
 41
-30.0
 62
     5
 63
     7
 74
     2
 91
        2
 64
     7
 65
     7
 75
     1
175
     1
 42
40.0
 92
        8
 66
     7
 43
1.0
 76
     1
 77
     6
 78
     2
 67
     7
 79
     3
170
     0
171
     0
290
     0
174
     0
 93
        1
 44
0.0
173
     0
291
     0
 45
0.0
1001
ACAD
1000
AcDbSavedByObjectVersion
1070
     0
  0
VISUALSTYLE
  5
3636
102
{ACAD_XDICTIONARY
360
369F
102
}
102
{ACAD_REACTORS
330
3624
102
}
330
3624
100
AcDbVisualStyle
  2
Sketchy
 70
    24
 71
     1
 72
     2
 73
     2
 90
        0
 40
-0.6
 41
-30.0
 62
     5
 63
     7
 74
     2
 91
        2
 64
     7
 65
     7
 75
     1
175
     1
 42
40.0
 92
       11
 66
     7
 43
1.0
 76
     1
 77
     6
 78
     2
 67
     7
 79
     6
170
     0
171
     0
290
     0
174
     0
 93
        1
 44
0.0
173
     0
291
     0
 45
0.0
1001
ACAD
1000
AcDbSavedByObjectVersion
1070
     0
  0
VISUALSTYLE
  5
3631
102
{ACAD_XDICTIONARY
360
3695
102
}
102
{ACAD_REACTORS
330
3624
102
}
330
3624
100
AcDbVisualStyle
  2
Thicken
 70
    13
 71
     2
 72
     2
 73
     0
 90
        0
 40
-0.6
 41
-30.0
 62
     5
 63
     7
 74
     1
 91
        4
 64
     7
 65
   257
 75
     1
175
     1
 42
1.0
 92
       12
 66
     7
 43
1.0
 76
     1
 77
     6
 78
     2
 67
     7
 79
     5
170
     0
171
     0
290
     0
174
     0
 93
        1
 44
0.0
173
     0
291
     1
 45
0.0
1001
ACAD
1000
AcDbSavedByObjectVersion
1070
     0
  0
VISUALSTYLE
  5
362B
102
{ACAD_XDICTIONARY
360
3689
102
}
102
{ACAD_REACTORS
330
3624
102
}
330
3624
100
AcDbVisualStyle
  2
Wireframe
 70
     5
 71
     0
 72
     2
 73
     0
 90
        0
 40
-0.6
 41
-30.0
 62
     5
 63
     7
 74
     1
 91
        4
 64
     7
 65
   257
 75
     1
175
     1
 42
1.0
 92
        0
 66
   257
 43
1.0
 76
     1
 77
     6
 78
     2
 67
     7
 79
     3
170
     0
171
     0
290
     0
174
     0
 93
        1
 44
0.0
173
     0
291
     0
 45
0.0
1001
ACAD
1000
AcDbSavedByObjectVersion
1070
     0
  0
VISUALSTYLE
  5
3637
102
{ACAD_XDICTIONARY
360
36A1
102
}
102
{ACAD_REACTORS
330
3624
102
}
330
3624
100
AcDbVisualStyle
  2
X-Ray
 70
    25
 71
     2
 72
     2
 73
     1
 90
        1
 40
0.5
 41
-30.0
 62
     5
 63
     7
 74
     1
 91
        0
 64
     7
 65
   257
 75
     1
175
     1
 42
1.0
 92
        8
 66
     7
 43
1.0
 76
     1
 77
     6
 78
     2
 67
     7
 79
     3
170
     0
171
     0
290
     0
174
     0
 93
       13
 44
0.0
173
     0
291
     0
 45
0.0
1001
ACAD
1000
AcDbSavedByObjectVersion
1070
     0
  0
DICTIONARYVAR
  5
3670
102
{ACAD_REACTORS
330
366B
102
}
330
366B
100
DictionaryVariables
280
     0
  1
1:1
  0
DICTIONARYVAR
  5
366D
102
{ACAD_REACTORS
330
366B
102
}
330
366B
100
DictionaryVariables
280
     0
  1
STANDARD
  0
DICTIONARYVAR
  5
366C
102
{ACAD_REACTORS
330
366B
102
}
330
366B
100
DictionaryVariables
280
     0
  1
STANDARD
  0
DICTIONARYVAR
  5
366E
102
{ACAD_REACTORS
330
366B
102
}
330
366B
100
DictionaryVariables
280
     0
  1
Imperial24
  0
DICTIONARYVAR
  5
366F
102
{ACAD_REACTORS
330
366B
102
}
330
366B
100
DictionaryVariables
280
     0
  1
Imperial24
  0
DICTIONARYVAR
  5
3673
102
{ACAD_REACTORS
330
366B
102
}
330
366B
100
DictionaryVariables
280
     0
  1
1
  0
DICTIONARYVAR
  5
3672
102
{ACAD_REACTORS
330
366B
102
}
330
366B
100
DictionaryVariables
280
     0
  1
0
  0
DICTIONARYVAR
  5
3671
102
{ACAD_REACTORS
330
366B
102
}
330
366B
100
DictionaryVariables
280
     0
  1
127
  0
DICTIONARYVAR
  5
3674
102
{ACAD_REACTORS
330
366B
102
}
330
366B
100
DictionaryVariables
280
     0
  1
2
  0
DICTIONARY
  5
36B1
330
3657
100
AcDbDictionary
280
     1
281
     1
  3
ACAD_XREC_ROUNDTRIP
360
36B2
  0
DICTIONARY
  5
36B3
330
3658
100
AcDbDictionary
280
     1
281
     1
  3
ACAD_XREC_ROUNDTRIP
360
36B4
  0
DICTIONARY
  5
36B5
330
3659
100
AcDbDictionary
280
     1
281
     1
  3
ACAD_XREC_ROUNDTRIP
360
36B6
  0
DICTIONARY
  5
3615
330
3614
100
AcDbDictionary
280
     1
281
     1
  3
ACAD_XREC_ROUNDTRIP
360
367B
  3
BUMPTILE
360
3617
  3
DIFFUSETILE
360
3616
  3
OPACITYTILE
360
361A
  3
REFLECTIONTILE
360
3619
  3
REFRACTIONTILE
360
361B
  3
SPECULARTILE
360
3618
  0
DICTIONARY
  5
360D
330
360C
100
AcDbDictionary
280
     1
281
     1
  3
ACAD_XREC_ROUNDTRIP
360
367A
  3
BUMPTILE
360
360F
  3
DIFFUSETILE
360
360E
  3
OPACITYTILE
360
3612
  3
REFLECTIONTILE
360
3611
  3
REFRACTIONTILE
360
3613
  3
SPECULARTILE
360
3610
  0
DICTIONARY
  5
361D
330
361C
100
AcDbDictionary
280
     1
281
     1
  3
ACAD_XREC_ROUNDTRIP
360
367C
  3
BUMPTILE
360
361F
  3
DIFFUSETILE
360
361E
  3
OPACITYTILE
360
3622
  3
REFLECTIONTILE
360
3621
  3
REFRACTIONTILE
360
3623
  3
SPECULARTILE
360
3620
  0
DICTIONARY
  5
36AF
330
3655
100
AcDbDictionary
280
     1
281
     1
  3
ACAD_XREC_ROUNDTRIP
360
36B0
  0
DICTIONARY
  5
3676
330
363F
100
AcDbDictionary
280
     1
281
     1
  3
ACAD_ROUNDTRIP_2008_TABLESTYLE_CELLSTYLEMAP
360
3677
  3
ACAD_XREC_ROUNDTRIP
360
36AD
  0
DICTIONARY
  5
3687
330
362A
100
AcDbDictionary
280
     1
281
     1
  3
ACAD_XREC_ROUNDTRIP
360
3688
  0
DICTIONARY
  5
3685
330
3629
100
AcDbDictionary
280
     1
281
     1
  3
ACAD_XREC_ROUNDTRIP
360
3686
  0
DICTIONARY
  5
3693
330
3630
100
AcDbDictionary
280
     1
281
     1
  3
ACAD_XREC_ROUNDTRIP
360
3694
  0
DICTIONARY
  5
369B
330
3634
100
AcDbDictionary
280
     1
281
     1
  3
ACAD_XREC_ROUNDTRIP
360
369C
  0
DICTIONARY
  5
368D
330
362D
100
AcDbDictionary
280
     1
281
     1
  3
ACAD_XREC_ROUNDTRIP
360
368E
  0
DICTIONARY
  5
3691
330
362F
100
AcDbDictionary
280
     1
281
     1
  3
ACAD_XREC_ROUNDTRIP
360
3692
  0
DICTIONARY
  5
36AB
330
363C
100
AcDbDictionary
280
     1
281
     1
  3
ACAD_XREC_ROUNDTRIP
360
36AC
  0
DICTIONARY
  5
3699
330
3633
100
AcDbDictionary
280
     1
281
     1
  3
ACAD_XREC_ROUNDTRIP
360
369A
  0
DICTIONARY
  5
367D
330
3625
100
AcDbDictionary
280
     1
281
     1
  3
ACAD_XREC_ROUNDTRIP
360
367E
  0
DICTIONARY
  5
367F
330
3626
100
AcDbDictionary
280
     1
281
     1
  3
ACAD_XREC_ROUNDTRIP
360
3680
  0
DICTIONARY
  5
3681
330
3627
100
AcDbDictionary
280
     1
281
     1
  3
ACAD_XREC_ROUNDTRIP
360
3682
  0
DICTIONARY
  5
3683
330
3628
100
AcDbDictionary
280
     1
281
     1
  3
ACAD_XREC_ROUNDTRIP
360
3684
  0
DICTIONARY
  5
368B
330
362C
100
AcDbDictionary
280
     1
281
     1
  3
ACAD_XREC_ROUNDTRIP
360
368C
  0
DICTIONARY
  5
36A7
330
363A
100
AcDbDictionary
280
     1
281
     1
  3
ACAD_XREC_ROUNDTRIP
360
36A8
  0
DICTIONARY
  5
3697
330
3632
100
AcDbDictionary
280
     1
281
     1
  3
ACAD_XREC_ROUNDTRIP
360
3698
  0
DICTIONARY
  5
36A9
330
363B
100
AcDbDictionary
280
     1
281
     1
  3
ACAD_XREC_ROUNDTRIP
360
36AA
  0
DICTIONARY
  5
368F
330
362E
100
AcDbDictionary
280
     1
281
     1
  3
ACAD_XREC_ROUNDTRIP
360
3690
  0
DICTIONARY
  5
36A5
330
3639
100
AcDbDictionary
280
     1
281
     1
  3
ACAD_XREC_ROUNDTRIP
360
36A6
  0
DICTIONARY
  5
36A3
330
3638
100
AcDbDictionary
280
     1
281
     1
  3
ACAD_XREC_ROUNDTRIP
360
36A4
  0
DICTIONARY
  5
369D
330
3635
100
AcDbDictionary
280
     1
281
     1
  3
ACAD_XREC_ROUNDTRIP
360
369E
  0
DICTIONARY
  5
369F
330
3636
100
AcDbDictionary
280
     1
281
     1
  3
ACAD_XREC_ROUNDTRIP
360
36A0
  0
DICTIONARY
  5
3695
330
3631
100
AcDbDictionary
280
     1
281
     1
  3
ACAD_XREC_ROUNDTRIP
360
3696
  0
DICTIONARY
  5
3689
330
362B
100
AcDbDictionary
280
     1
281
     1
  3
ACAD_XREC_ROUNDTRIP
360
368A
  0
DICTIONARY
  5
36A1
330
3637
100
AcDbDictionary
280
     1
281
     1
  3
ACAD_XREC_ROUNDTRIP
360
36A2
  0
XRECORD
  5
36B2
102
{ACAD_REACTORS
330
36B1
102
}
330
36B1
100
AcDbXrecord
280
     1
102
DISPLAYNAME
  1
Imperial24
102
FLAGS
 90
        0
  0
XRECORD
  5
36B4
102
{ACAD_REACTORS
330
36B3
102
}
330
36B3
100
AcDbXrecord
280
     1
102
SHADEPLOT
 70
     0
102
SHADEPLOTRESLEVEL
 70
     2
102
SHADEPLOTCUSTOMDPI
 70
   300
  0
XRECORD
  5
36B6
102
{ACAD_REACTORS
330
36B5
102
}
330
36B5
100
AcDbXrecord
280
     1
102
SHADEPLOT
 70
     0
102
SHADEPLOTRESLEVEL
 70
     2
102
SHADEPLOTCUSTOMDPI
 70
   300
  0
XRECORD
  5
367B
102
{ACAD_REACTORS
330
3615
102
}
330
3615
100
AcDbXrecord
280
     1
102
MATERIAL
148
0.0
149
0.0
149
0.0
 93
        0
 94
      127
282
     0
 72
     0
 77
     0
171
     0
175
     0
179
     0
273
     0
  0
XRECORD
  5
3617
102
{ACAD_REACTORS
330
3615
102
}
330
3615
100
AcDbXrecord
280
     1
270
     1
271
     1
  0
XRECORD
  5
3616
102
{ACAD_REACTORS
330
3615
102
}
330
3615
100
AcDbXrecord
280
     1
270
     1
271
     1
  0
XRECORD
  5
361A
102
{ACAD_REACTORS
330
3615
102
}
330
3615
100
AcDbXrecord
280
     1
270
     1
271
     1
  0
XRECORD
  5
3619
102
{ACAD_REACTORS
330
3615
102
}
330
3615
100
AcDbXrecord
280
     1
270
     1
271
     1
  0
XRECORD
  5
361B
102
{ACAD_REACTORS
330
3615
102
}
330
3615
100
AcDbXrecord
280
     1
270
     1
271
     1
  0
XRECORD
  5
3618
102
{ACAD_REACTORS
330
3615
102
}
330
3615
100
AcDbXrecord
280
     1
270
     1
271
     1
  0
XRECORD
  5
367A
102
{ACAD_REACTORS
330
360D
102
}
330
360D
100
AcDbXrecord
280
     1
102
MATERIAL
148
0.0
149
0.0
149
0.0
 93
        0
 94
      127
282
     0
 72
     0
 77
     0
171
     0
175
     0
179
     0
273
     0
  0
XRECORD
  5
360F
102
{ACAD_REACTORS
330
360D
102
}
330
360D
100
AcDbXrecord
280
     1
270
     1
271
     1
  0
XRECORD
  5
360E
102
{ACAD_REACTORS
330
360D
102
}
330
360D
100
AcDbXrecord
280
     1
270
     1
271
     1
  0
XRECORD
  5
3612
102
{ACAD_REACTORS
330
360D
102
}
330
360D
100
AcDbXrecord
280
     1
270
     1
271
     1
  0
XRECORD
  5
3611
102
{ACAD_REACTORS
330
360D
102
}
330
360D
100
AcDbXrecord
280
     1
270
     1
271
     1
  0
XRECORD
  5
3613
102
{ACAD_REACTORS
330
360D
102
}
330
360D
100
AcDbXrecord
280
     1
270
     1
271
     1
  0
XRECORD
  5
3610
102
{ACAD_REACTORS
330
360D
102
}
330
360D
100
AcDbXrecord
280
     1
270
     1
271
     1
  0
XRECORD
  5
367C
102
{ACAD_REACTORS
330
361D
102
}
330
361D
100
AcDbXrecord
280
     1
102
MATERIAL
148
0.0
149
0.0
149
0.0
 93
        0
 94
      127
282
     0
 72
     0
 77
     0
171
     0
175
     0
179
     0
273
     0
  0
XRECORD
  5
361F
102
{ACAD_REACTORS
330
361D
102
}
330
361D
100
AcDbXrecord
280
     1
270
     1
271
     1
  0
XRECORD
  5
361E
102
{ACAD_REACTORS
330
361D
102
}
330
361D
100
AcDbXrecord
280
     1
270
     1
271
     1
  0
XRECORD
  5
3622
102
{ACAD_REACTORS
330
361D
102
}
330
361D
100
AcDbXrecord
280
     1
270
     1
271
     1
  0
XRECORD
  5
3621
102
{ACAD_REACTORS
330
361D
102
}
330
361D
100
AcDbXrecord
280
     1
270
     1
271
     1
  0
XRECORD
  5
3623
102
{ACAD_REACTORS
330
361D
102
}
330
361D
100
AcDbXrecord
280
     1
270
     1
271
     1
  0
XRECORD
  5
3620
102
{ACAD_REACTORS
330
361D
102
}
330
361D
100
AcDbXrecord
280
     1
270
     1
271
     1
  0
XRECORD
  5
36B0
102
{ACAD_REACTORS
330
36AF
102
}
330
36AF
100
AcDbXrecord
280
     1
102
DISPLAYNAME
  1
Imperial24
102
FLAGS
 90
        0
  0
CELLSTYLEMAP
  5
3677
102
{ACAD_REACTORS
330
3676
102
}
330
3676
100
AcDbCellStyleMap
 90
        3
300
CELLSTYLE
  1
TABLEFORMAT_BEGIN
 90
        5
170
     1
 91
        0
 92
    32768
 62
   257
 93
        1
300
CONTENTFORMAT
  1
CONTENTFORMAT_BEGIN
 90
        0
 91
        0
 92
      512
 93
        0
300

 40
0.0
140
1.0
 94
        5
 62
     0
340
F
144
0.25
309
CONTENTFORMAT_END
171
     0
 94
        0
309
TABLEFORMAT_END
  1
CELLSTYLE_BEGIN
 90
        1
 91
        1
300
_TITLE
309
CELLSTYLE_END
300
CELLSTYLE
  1
TABLEFORMAT_BEGIN
 90
        5
170
     1
 91
        0
 92
        0
 62
   257
 93
        1
300
CONTENTFORMAT
  1
CONTENTFORMAT_BEGIN
 90
        0
 91
        0
 92
      512
 93
        0
300

 40
0.0
140
1.0
 94
        5
 62
     0
340
F
144
0.18
309
CONTENTFORMAT_END
171
     0
 94
        0
309
TABLEFORMAT_END
  1
CELLSTYLE_BEGIN
 90
        2
 91
        1
300
_HEADER
309
CELLSTYLE_END
300
CELLSTYLE
  1
TABLEFORMAT_BEGIN
 90
        5
170
     1
 91
        0
 92
        0
 62
   257
 93
        1
300
CONTENTFORMAT
  1
CONTENTFORMAT_BEGIN
 90
        0
 91
        0
 92
      512
 93
        0
300

 40
0.0
140
1.0
 94
        2
 62
     0
340
F
144
0.18
309
CONTENTFORMAT_END
171
     0
 94
        0
309
TABLEFORMAT_END
  1
CELLSTYLE_BEGIN
 90
        3
 91
        2
300
_DATA
309
CELLSTYLE_END
  0
XRECORD
  5
36AD
102
{ACAD_REACTORS
330
3676
102
}
330
3676
100
AcDbXrecord
280
     1
102
ACAD_ROUNDTRIP_PRE2007_TABLESTYLE
 90
      512
 91
        0
  1

 92
      512
 93
        0
  2

 94
      512
 95
        0
  3

  0
XRECORD
  5
3688
102
{ACAD_REACTORS
330
3687
102
}
330
3687
100
AcDbXrecord
280
     1
102
RTVSPost2010Prop28
280
     1
102
RTVSPost2010PropOp28
 70
     1
102
RTVSPost2010Prop29
280
     1
102
RTVSPost2010PropOp29
 70
     1
102
RTVSPost2010Prop30
280
     0
102
RTVSPost2010PropOp30
 70
     1
102
RTVSPost2010Prop31
280
     0
102
RTVSPost2010PropOp31
 70
     1
102
RTVSPost2010Prop32
280
     0
102
RTVSPost2010PropOp32
 70
     1
102
RTVSPost2010Prop33
280
     0
102
RTVSPost2010PropOp33
 70
     1
102
RTVSPost2010Prop34
280
     0
102
RTVSPost2010PropOp34
 70
     1
102
RTVSPost2010Prop35
280
     0
102
RTVSPost2010PropOp35
 70
     1
102
RTVSPost2010Prop36
280
     0
102
RTVSPost2010PropOp36
 70
     1
102
RTVSPost2010Prop37
 90
       50
102
RTVSPost2010PropOp37
 70
     1
102
RTVSPost2010Prop38
140
0.0
102
RTVSPost2010PropOp38
 70
     1
102
RTVSPost2010Prop39
140
1.0
102
RTVSPost2010PropOp39
 70
     1
102
RTVSPost2010Prop40
 90
        0
102
RTVSPost2010PropOp40
 70
     1
102
RTVSPost2010Prop41ColorIndex
 90
       18
102
RTVSPost2010Prop41ColorRGB
 90
        0
102
RTVSPost2010PropOp41
 70
     1
102
RTVSPost2010Prop42
 90
       50
102
RTVSPost2010PropOp42
 70
     1
102
RTVSPost2010Prop43
 90
        3
102
RTVSPost2010PropOp43
 70
     1
102
RTVSPost2010Prop44ColorIndex
 90
        5
102
RTVSPost2010Prop44ColorRGB
 90
      255
102
RTVSPost2010PropOp44
 70
     1
102
RTVSPost2010Prop45
280
     0
102
RTVSPost2010PropOp45
 70
     1
102
RTVSPost2010Prop46
 90
       50
102
RTVSPost2010PropOp46
 70
     1
102
RTVSPost2010Prop47
 90
       50
102
RTVSPost2010PropOp47
 70
     1
102
RTVSPost2010Prop48
 90
       50
102
RTVSPost2010PropOp48
 70
     1
102
RTVSPost2010Prop49
280
     0
102
RTVSPost2010PropOp49
 70
     1
102
RTVSPost2010Prop50
 90
       50
102
RTVSPost2010PropOp50
 70
     1
102
RTVSPost2010Prop51ColorIndex
 90
      256
102
RTVSPost2010Prop51ColorRGB
 90
-16777216
102
RTVSPost2010PropOp51
 70
     0
102
RTVSPost2010Prop52
140
1.0
102
RTVSPost2010PropOp52
 70
     0
102
RTVSPost2010Prop53
 90
        2
102
RTVSPost2010PropOp53
 70
     1
102
RTVSPost2010Prop54
  1
strokes_ogs.tif
102
RTVSPost2010PropOp54
 70
     1
102
RTVSPost2010Prop55
280
     0
102
RTVSPost2010PropOp55
 70
     1
102
RTVSPost2010Prop56
140
1.0
102
RTVSPost2010PropOp56
 70
     1
102
RTVSPost2010Prop57
140
1.0
102
RTVSPost2010PropOp57
 70
     1
102
RTVSPropertyOp0
 70
     1
102
RTVSPropertyOp1
 70
     1
102
RTVSPropertyOp2
 70
     1
102
RTVSPropertyOp3
 70
     1
102
RTVSPropertyOp4
 70
     1
102
RTVSPropertyOp5
 70
     1
102
RTVSPropertyOp6
 70
     1
102
RTVSPropertyOp7
 70
     1
102
RTVSPropertyOp8
 70
     1
102
RTVSPropertyOp9
 70
     1
102
RTVSPropertyOp10
 70
     1
102
RTVSPropertyOp11
 70
     1
102
RTVSPropertyOp12
 70
     1
102
RTVSPropertyOp13
 70
     1
102
RTVSPropertyOp14
 70
     1
102
RTVSPropertyOp15
 70
     1
102
RTVSPropertyOp16
 70
     1
102
RTVSPropertyOp17
 70
     1
102
RTVSPropertyOp18
 70
     1
102
RTVSPropertyOp19
 70
     1
102
RTVSPropertyOp20
 70
     1
102
RTVSPropertyOp21
 70
     1
102
RTVSPropertyOp22
 70
     1
102
RTVSPropertyOp23
 70
     1
102
RTVSPropertyOp24
 70
     1
102
RTVSPropertyOp25
 70
     1
102
RTVSPropertyOp26
 70
     1
102
RTVSPropertyOp27
 70
     1
102
RTVSPropertyOp28
 70
     1
102
RTVSPropertyOp29
 70
     1
102
RTVSPropertyOp30
 70
     1
102
RTVSPropertyOp31
 70
     1
102
RTVSPropertyOp32
 70
     1
102
RTVSPropertyOp33
 70
     1
102
RTVSPropertyOp34
 70
     1
102
RTVSPropertyOp35
 70
     1
102
RTVSPropertyOp36
 70
     1
102
RTVSPropertyOp37
 70
     1
102
RTVSPropertyOp38
 70
     1
102
RTVSPropertyOp39
 70
     1
102
RTVSPropertyOp40
 70
     1
102
RTVSPropertyOp41
 70
     1
102
RTVSPropertyOp42
 70
     1
102
RTVSPropertyOp43
 70
     1
102
RTVSPropertyOp44
 70
     1
102
RTVSPropertyOp45
 70
     1
102
RTVSPropertyOp46
 70
     1
102
RTVSPropertyOp47
 70
     1
102
RTVSPropertyOp48
 70
     1
102
RTVSPropertyOp49
 70
     1
102
RTVSPropertyOp50
 70
     1
102
RTVSPropertyOp51
 70
     0
102
RTVSPropertyOp52
 70
     0
102
RTVSPropertyOp53
 70
     1
102
RTVSPropertyOp54
 70
     1
102
RTVSPropertyOp55
 70
     1
102
RTVSPropertyOp56
 70
     1
102
RTVSPropertyOp57
 70
     1
102
RTVSPropertyOp58
 70
     1
102
RTVSPropertyOp59
 70
     1
102
RTVSPropertyOp60
 70
     1
102
RTVSPropertyOp61
 70
     1
102
RTVSPropertyOp62
 70
     1
  0
XRECORD
  5
3686
102
{ACAD_REACTORS
330
3685
102
}
330
3685
100
AcDbXrecord
280
     1
102
RTVSPost2010Prop28
280
     0
102
RTVSPost2010PropOp28
 70
     1
102
RTVSPost2010Prop29
280
     1
102
RTVSPost2010PropOp29
 70
     1
102
RTVSPost2010Prop30
280
     1
102
RTVSPost2010PropOp30
 70
     1
102
RTVSPost2010Prop31
280
     0
102
RTVSPost2010PropOp31
 70
     1
102
RTVSPost2010Prop32
280
     0
102
RTVSPost2010PropOp32
 70
     1
102
RTVSPost2010Prop33
280
     0
102
RTVSPost2010PropOp33
 70
     1
102
RTVSPost2010Prop34
280
     0
102
RTVSPost2010PropOp34
 70
     1
102
RTVSPost2010Prop35
280
     0
102
RTVSPost2010PropOp35
 70
     1
102
RTVSPost2010Prop36
280
     0
102
RTVSPost2010PropOp36
 70
     1
102
RTVSPost2010Prop37
 90
       50
102
RTVSPost2010PropOp37
 70
     1
102
RTVSPost2010Prop38
140
0.0
102
RTVSPost2010PropOp38
 70
     1
102
RTVSPost2010Prop39
140
1.0
102
RTVSPost2010PropOp39
 70
     1
102
RTVSPost2010Prop40
 90
        0
102
RTVSPost2010PropOp40
 70
     1
102
RTVSPost2010Prop41ColorIndex
 90
       18
102
RTVSPost2010Prop41ColorRGB
 90
        0
102
RTVSPost2010PropOp41
 70
     1
102
RTVSPost2010Prop42
 90
       50
102
RTVSPost2010PropOp42
 70
     1
102
RTVSPost2010Prop43
 90
        3
102
RTVSPost2010PropOp43
 70
     1
102
RTVSPost2010Prop44ColorIndex
 90
        5
102
RTVSPost2010Prop44ColorRGB
 90
      255
102
RTVSPost2010PropOp44
 70
     1
102
RTVSPost2010Prop45
280
     0
102
RTVSPost2010PropOp45
 70
     1
102
RTVSPost2010Prop46
 90
       50
102
RTVSPost2010PropOp46
 70
     1
102
RTVSPost2010Prop47
 90
       50
102
RTVSPost2010PropOp47
 70
     1
102
RTVSPost2010Prop48
 90
       50
102
RTVSPost2010PropOp48
 70
     1
102
RTVSPost2010Prop49
280
     0
102
RTVSPost2010PropOp49
 70
     1
102
RTVSPost2010Prop50
 90
       50
102
RTVSPost2010PropOp50
 70
     1
102
RTVSPost2010Prop51ColorIndex
 90
      256
102
RTVSPost2010Prop51ColorRGB
 90
-16777216
102
RTVSPost2010PropOp51
 70
     0
102
RTVSPost2010Prop52
140
1.0
102
RTVSPost2010PropOp52
 70
     0
102
RTVSPost2010Prop53
 90
        2
102
RTVSPost2010PropOp53
 70
     1
102
RTVSPost2010Prop54
  1
strokes_ogs.tif
102
RTVSPost2010PropOp54
 70
     1
102
RTVSPost2010Prop55
280
     0
102
RTVSPost2010PropOp55
 70
     1
102
RTVSPost2010Prop56
140
1.0
102
RTVSPost2010PropOp56
 70
     1
102
RTVSPost2010Prop57
140
1.0
102
RTVSPost2010PropOp57
 70
     1
102
RTVSPropertyOp0
 70
     1
102
RTVSPropertyOp1
 70
     1
102
RTVSPropertyOp2
 70
     1
102
RTVSPropertyOp3
 70
     1
102
RTVSPropertyOp4
 70
     1
102
RTVSPropertyOp5
 70
     1
102
RTVSPropertyOp6
 70
     1
102
RTVSPropertyOp7
 70
     1
102
RTVSPropertyOp8
 70
     1
102
RTVSPropertyOp9
 70
     1
102
RTVSPropertyOp10
 70
     1
102
RTVSPropertyOp11
 70
     1
102
RTVSPropertyOp12
 70
     1
102
RTVSPropertyOp13
 70
     1
102
RTVSPropertyOp14
 70
     1
102
RTVSPropertyOp15
 70
     1
102
RTVSPropertyOp16
 70
     1
102
RTVSPropertyOp17
 70
     1
102
RTVSPropertyOp18
 70
     1
102
RTVSPropertyOp19
 70
     1
102
RTVSPropertyOp20
 70
     1
102
RTVSPropertyOp21
 70
     1
102
RTVSPropertyOp22
 70
     1
102
RTVSPropertyOp23
 70
     1
102
RTVSPropertyOp24
 70
     1
102
RTVSPropertyOp25
 70
     1
102
RTVSPropertyOp26
 70
     1
102
RTVSPropertyOp27
 70
     1
102
RTVSPropertyOp28
 70
     1
102
RTVSPropertyOp29
 70
     1
102
RTVSPropertyOp30
 70
     1
102
RTVSPropertyOp31
 70
     1
102
RTVSPropertyOp32
 70
     1
102
RTVSPropertyOp33
 70
     1
102
RTVSPropertyOp34
 70
     1
102
RTVSPropertyOp35
 70
     1
102
RTVSPropertyOp36
 70
     1
102
RTVSPropertyOp37
 70
     1
102
RTVSPropertyOp38
 70
     1
102
RTVSPropertyOp39
 70
     1
102
RTVSPropertyOp40
 70
     1
102
RTVSPropertyOp41
 70
     1
102
RTVSPropertyOp42
 70
     1
102
RTVSPropertyOp43
 70
     1
102
RTVSPropertyOp44
 70
     1
102
RTVSPropertyOp45
 70
     1
102
RTVSPropertyOp46
 70
     1
102
RTVSPropertyOp47
 70
     1
102
RTVSPropertyOp48
 70
     1
102
RTVSPropertyOp49
 70
     1
102
RTVSPropertyOp50
 70
     1
102
RTVSPropertyOp51
 70
     0
102
RTVSPropertyOp52
 70
     0
102
RTVSPropertyOp53
 70
     1
102
RTVSPropertyOp54
 70
     1
102
RTVSPropertyOp55
 70
     1
102
RTVSPropertyOp56
 70
     1
102
RTVSPropertyOp57
 70
     1
102
RTVSPropertyOp58
 70
     1
102
RTVSPropertyOp59
 70
     1
102
RTVSPropertyOp60
 70
     1
102
RTVSPropertyOp61
 70
     1
102
RTVSPropertyOp62
 70
     1
  0
XRECORD
  5
3694
102
{ACAD_REACTORS
330
3693
102
}
330
3693
100
AcDbXrecord
280
     1
102
RTVSPost2010Prop28
280
     0
102
RTVSPost2010PropOp28
 70
     1
102
RTVSPost2010Prop29
280
     1
102
RTVSPost2010PropOp29
 70
     1
102
RTVSPost2010Prop30
280
     1
102
RTVSPost2010PropOp30
 70
     1
102
RTVSPost2010Prop31
280
     0
102
RTVSPost2010PropOp31
 70
     1
102
RTVSPost2010Prop32
280
     0
102
RTVSPost2010PropOp32
 70
     1
102
RTVSPost2010Prop33
280
     0
102
RTVSPost2010PropOp33
 70
     1
102
RTVSPost2010Prop34
280
     0
102
RTVSPost2010PropOp34
 70
     1
102
RTVSPost2010Prop35
280
     0
102
RTVSPost2010PropOp35
 70
     1
102
RTVSPost2010Prop36
280
     0
102
RTVSPost2010PropOp36
 70
     1
102
RTVSPost2010Prop37
 90
       50
102
RTVSPost2010PropOp37
 70
     1
102
RTVSPost2010Prop38
140
0.0
102
RTVSPost2010PropOp38
 70
     1
102
RTVSPost2010Prop39
140
1.0
102
RTVSPost2010PropOp39
 70
     1
102
RTVSPost2010Prop40
 90
        0
102
RTVSPost2010PropOp40
 70
     1
102
RTVSPost2010Prop41ColorIndex
 90
       18
102
RTVSPost2010Prop41ColorRGB
 90
        0
102
RTVSPost2010PropOp41
 70
     1
102
RTVSPost2010Prop42
 90
       50
102
RTVSPost2010PropOp42
 70
     1
102
RTVSPost2010Prop43
 90
        3
102
RTVSPost2010PropOp43
 70
     1
102
RTVSPost2010Prop44ColorIndex
 90
        5
102
RTVSPost2010Prop44ColorRGB
 90
      255
102
RTVSPost2010PropOp44
 70
     1
102
RTVSPost2010Prop45
280
     0
102
RTVSPost2010PropOp45
 70
     1
102
RTVSPost2010Prop46
 90
       50
102
RTVSPost2010PropOp46
 70
     1
102
RTVSPost2010Prop47
 90
       50
102
RTVSPost2010PropOp47
 70
     1
102
RTVSPost2010Prop48
 90
       50
102
RTVSPost2010PropOp48
 70
     1
102
RTVSPost2010Prop49
280
     0
102
RTVSPost2010PropOp49
 70
     1
102
RTVSPost2010Prop50
 90
       50
102
RTVSPost2010PropOp50
 70
     1
102
RTVSPost2010Prop51ColorIndex
 90
      256
102
RTVSPost2010Prop51ColorRGB
 90
-16777216
102
RTVSPost2010PropOp51
 70
     0
102
RTVSPost2010Prop52
140
1.0
102
RTVSPost2010PropOp52
 70
     0
102
RTVSPost2010Prop53
 90
        2
102
RTVSPost2010PropOp53
 70
     1
102
RTVSPost2010Prop54
  1
strokes_ogs.tif
102
RTVSPost2010PropOp54
 70
     1
102
RTVSPost2010Prop55
280
     0
102
RTVSPost2010PropOp55
 70
     1
102
RTVSPost2010Prop56
140
1.0
102
RTVSPost2010PropOp56
 70
     1
102
RTVSPost2010Prop57
140
1.0
102
RTVSPost2010PropOp57
 70
     1
102
RTVSPropertyOp0
 70
     1
102
RTVSPropertyOp1
 70
     1
102
RTVSPropertyOp2
 70
     1
102
RTVSPropertyOp3
 70
     1
102
RTVSPropertyOp4
 70
     1
102
RTVSPropertyOp5
 70
     1
102
RTVSPropertyOp6
 70
     1
102
RTVSPropertyOp7
 70
     1
102
RTVSPropertyOp8
 70
     1
102
RTVSPropertyOp9
 70
     1
102
RTVSPropertyOp10
 70
     1
102
RTVSPropertyOp11
 70
     1
102
RTVSPropertyOp12
 70
     1
102
RTVSPropertyOp13
 70
     1
102
RTVSPropertyOp14
 70
     1
102
RTVSPropertyOp15
 70
     1
102
RTVSPropertyOp16
 70
     1
102
RTVSPropertyOp17
 70
     1
102
RTVSPropertyOp18
 70
     1
102
RTVSPropertyOp19
 70
     1
102
RTVSPropertyOp20
 70
     1
102
RTVSPropertyOp21
 70
     1
102
RTVSPropertyOp22
 70
     1
102
RTVSPropertyOp23
 70
     1
102
RTVSPropertyOp24
 70
     1
102
RTVSPropertyOp25
 70
     1
102
RTVSPropertyOp26
 70
     1
102
RTVSPropertyOp27
 70
     1
102
RTVSPropertyOp28
 70
     1
102
RTVSPropertyOp29
 70
     1
102
RTVSPropertyOp30
 70
     1
102
RTVSPropertyOp31
 70
     1
102
RTVSPropertyOp32
 70
     1
102
RTVSPropertyOp33
 70
     1
102
RTVSPropertyOp34
 70
     1
102
RTVSPropertyOp35
 70
     1
102
RTVSPropertyOp36
 70
     1
102
RTVSPropertyOp37
 70
     1
102
RTVSPropertyOp38
 70
     1
102
RTVSPropertyOp39
 70
     1
102
RTVSPropertyOp40
 70
     1
102
RTVSPropertyOp41
 70
     1
102
RTVSPropertyOp42
 70
     1
102
RTVSPropertyOp43
 70
     1
102
RTVSPropertyOp44
 70
     1
102
RTVSPropertyOp45
 70
     1
102
RTVSPropertyOp46
 70
     1
102
RTVSPropertyOp47
 70
     1
102
RTVSPropertyOp48
 70
     1
102
RTVSPropertyOp49
 70
     1
102
RTVSPropertyOp50
 70
     1
102
RTVSPropertyOp51
 70
     0
102
RTVSPropertyOp52
 70
     0
102
RTVSPropertyOp53
 70
     1
102
RTVSPropertyOp54
 70
     1
102
RTVSPropertyOp55
 70
     1
102
RTVSPropertyOp56
 70
     1
102
RTVSPropertyOp57
 70
     1
102
RTVSPropertyOp58
 70
     1
102
RTVSPropertyOp59
 70
     1
102
RTVSPropertyOp60
 70
     1
102
RTVSPropertyOp61
 70
     1
102
RTVSPropertyOp62
 70
     1
  0
XRECORD
  5
369C
102
{ACAD_REACTORS
330
369B
102
}
330
369B
100
AcDbXrecord
280
     1
102
RTVSPost2010Prop28
280
     0
102
RTVSPost2010PropOp28
 70
     1
102
RTVSPost2010Prop29
280
     1
102
RTVSPost2010PropOp29
 70
     1
102
RTVSPost2010Prop30
280
     1
102
RTVSPost2010PropOp30
 70
     1
102
RTVSPost2010Prop31
280
     0
102
RTVSPost2010PropOp31
 70
     1
102
RTVSPost2010Prop32
280
     0
102
RTVSPost2010PropOp32
 70
     1
102
RTVSPost2010Prop33
280
     0
102
RTVSPost2010PropOp33
 70
     1
102
RTVSPost2010Prop34
280
     0
102
RTVSPost2010PropOp34
 70
     1
102
RTVSPost2010Prop35
280
     0
102
RTVSPost2010PropOp35
 70
     1
102
RTVSPost2010Prop36
280
     0
102
RTVSPost2010PropOp36
 70
     1
102
RTVSPost2010Prop37
 90
       50
102
RTVSPost2010PropOp37
 70
     1
102
RTVSPost2010Prop38
140
0.0
102
RTVSPost2010PropOp38
 70
     1
102
RTVSPost2010Prop39
140
1.0
102
RTVSPost2010PropOp39
 70
     1
102
RTVSPost2010Prop40
 90
        0
102
RTVSPost2010PropOp40
 70
     1
102
RTVSPost2010Prop41ColorIndex
 90
       18
102
RTVSPost2010Prop41ColorRGB
 90
        0
102
RTVSPost2010PropOp41
 70
     1
102
RTVSPost2010Prop42
 90
       50
102
RTVSPost2010PropOp42
 70
     1
102
RTVSPost2010Prop43
 90
        3
102
RTVSPost2010PropOp43
 70
     1
102
RTVSPost2010Prop44ColorIndex
 90
        5
102
RTVSPost2010Prop44ColorRGB
 90
      255
102
RTVSPost2010PropOp44
 70
     1
102
RTVSPost2010Prop45
280
     0
102
RTVSPost2010PropOp45
 70
     1
102
RTVSPost2010Prop46
 90
       50
102
RTVSPost2010PropOp46
 70
     1
102
RTVSPost2010Prop47
 90
       50
102
RTVSPost2010PropOp47
 70
     1
102
RTVSPost2010Prop48
 90
       50
102
RTVSPost2010PropOp48
 70
     1
102
RTVSPost2010Prop49
280
     0
102
RTVSPost2010PropOp49
 70
     1
102
RTVSPost2010Prop50
 90
       50
102
RTVSPost2010PropOp50
 70
     1
102
RTVSPost2010Prop51ColorIndex
 90
      256
102
RTVSPost2010Prop51ColorRGB
 90
-16777216
102
RTVSPost2010PropOp51
 70
     0
102
RTVSPost2010Prop52
140
1.0
102
RTVSPost2010PropOp52
 70
     0
102
RTVSPost2010Prop53
 90
        2
102
RTVSPost2010PropOp53
 70
     1
102
RTVSPost2010Prop54
  1
strokes_ogs.tif
102
RTVSPost2010PropOp54
 70
     1
102
RTVSPost2010Prop55
280
     0
102
RTVSPost2010PropOp55
 70
     1
102
RTVSPost2010Prop56
140
1.0
102
RTVSPost2010PropOp56
 70
     1
102
RTVSPost2010Prop57
140
1.0
102
RTVSPost2010PropOp57
 70
     1
102
RTVSPropertyOp0
 70
     1
102
RTVSPropertyOp1
 70
     1
102
RTVSPropertyOp2
 70
     1
102
RTVSPropertyOp3
 70
     1
102
RTVSPropertyOp4
 70
     1
102
RTVSPropertyOp5
 70
     1
102
RTVSPropertyOp6
 70
     1
102
RTVSPropertyOp7
 70
     1
102
RTVSPropertyOp8
 70
     1
102
RTVSPropertyOp9
 70
     1
102
RTVSPropertyOp10
 70
     1
102
RTVSPropertyOp11
 70
     1
102
RTVSPropertyOp12
 70
     1
102
RTVSPropertyOp13
 70
     1
102
RTVSPropertyOp14
 70
     1
102
RTVSPropertyOp15
 70
     1
102
RTVSPropertyOp16
 70
     1
102
RTVSPropertyOp17
 70
     1
102
RTVSPropertyOp18
 70
     1
102
RTVSPropertyOp19
 70
     1
102
RTVSPropertyOp20
 70
     1
102
RTVSPropertyOp21
 70
     1
102
RTVSPropertyOp22
 70
     1
102
RTVSPropertyOp23
 70
     1
102
RTVSPropertyOp24
 70
     1
102
RTVSPropertyOp25
 70
     1
102
RTVSPropertyOp26
 70
     1
102
RTVSPropertyOp27
 70
     1
102
RTVSPropertyOp28
 70
     1
102
RTVSPropertyOp29
 70
     1
102
RTVSPropertyOp30
 70
     1
102
RTVSPropertyOp31
 70
     1
102
RTVSPropertyOp32
 70
     1
102
RTVSPropertyOp33
 70
     1
102
RTVSPropertyOp34
 70
     1
102
RTVSPropertyOp35
 70
     1
102
RTVSPropertyOp36
 70
     1
102
RTVSPropertyOp37
 70
     1
102
RTVSPropertyOp38
 70
     1
102
RTVSPropertyOp39
 70
     1
102
RTVSPropertyOp40
 70
     1
102
RTVSPropertyOp41
 70
     1
102
RTVSPropertyOp42
 70
     1
102
RTVSPropertyOp43
 70
     1
102
RTVSPropertyOp44
 70
     1
102
RTVSPropertyOp45
 70
     1
102
RTVSPropertyOp46
 70
     1
102
RTVSPropertyOp47
 70
     1
102
RTVSPropertyOp48
 70
     1
102
RTVSPropertyOp49
 70
     1
102
RTVSPropertyOp50
 70
     1
102
RTVSPropertyOp51
 70
     0
102
RTVSPropertyOp52
 70
     0
102
RTVSPropertyOp53
 70
     1
102
RTVSPropertyOp54
 70
     1
102
RTVSPropertyOp55
 70
     1
102
RTVSPropertyOp56
 70
     1
102
RTVSPropertyOp57
 70
     1
102
RTVSPropertyOp58
 70
     1
102
RTVSPropertyOp59
 70
     1
102
RTVSPropertyOp60
 70
     1
102
RTVSPropertyOp61
 70
     1
102
RTVSPropertyOp62
 70
     1
  0
XRECORD
  5
368E
102
{ACAD_REACTORS
330
368D
102
}
330
368D
100
AcDbXrecord
280
     1
102
RTVSPost2010Prop28
280
     0
102
RTVSPost2010PropOp28
 70
     1
102
RTVSPost2010Prop29
280
     1
102
RTVSPost2010PropOp29
 70
     1
102
RTVSPost2010Prop30
280
     1
102
RTVSPost2010PropOp30
 70
     1
102
RTVSPost2010Prop31
280
     0
102
RTVSPost2010PropOp31
 70
     1
102
RTVSPost2010Prop32
280
     0
102
RTVSPost2010PropOp32
 70
     1
102
RTVSPost2010Prop33
280
     0
102
RTVSPost2010PropOp33
 70
     1
102
RTVSPost2010Prop34
280
     0
102
RTVSPost2010PropOp34
 70
     1
102
RTVSPost2010Prop35
280
     0
102
RTVSPost2010PropOp35
 70
     1
102
RTVSPost2010Prop36
280
     0
102
RTVSPost2010PropOp36
 70
     1
102
RTVSPost2010Prop37
 90
       50
102
RTVSPost2010PropOp37
 70
     1
102
RTVSPost2010Prop38
140
0.0
102
RTVSPost2010PropOp38
 70
     1
102
RTVSPost2010Prop39
140
1.0
102
RTVSPost2010PropOp39
 70
     1
102
RTVSPost2010Prop40
 90
        0
102
RTVSPost2010PropOp40
 70
     1
102
RTVSPost2010Prop41ColorIndex
 90
       18
102
RTVSPost2010Prop41ColorRGB
 90
        0
102
RTVSPost2010PropOp41
 70
     1
102
RTVSPost2010Prop42
 90
       50
102
RTVSPost2010PropOp42
 70
     1
102
RTVSPost2010Prop43
 90
        3
102
RTVSPost2010PropOp43
 70
     1
102
RTVSPost2010Prop44ColorIndex
 90
        5
102
RTVSPost2010Prop44ColorRGB
 90
      255
102
RTVSPost2010PropOp44
 70
     1
102
RTVSPost2010Prop45
280
     0
102
RTVSPost2010PropOp45
 70
     1
102
RTVSPost2010Prop46
 90
       50
102
RTVSPost2010PropOp46
 70
     1
102
RTVSPost2010Prop47
 90
       50
102
RTVSPost2010PropOp47
 70
     1
102
RTVSPost2010Prop48
 90
       50
102
RTVSPost2010PropOp48
 70
     1
102
RTVSPost2010Prop49
280
     0
102
RTVSPost2010PropOp49
 70
     1
102
RTVSPost2010Prop50
 90
       50
102
RTVSPost2010PropOp50
 70
     1
102
RTVSPost2010Prop51ColorIndex
 90
      256
102
RTVSPost2010Prop51ColorRGB
 90
-16777216
102
RTVSPost2010PropOp51
 70
     0
102
RTVSPost2010Prop52
140
1.0
102
RTVSPost2010PropOp52
 70
     0
102
RTVSPost2010Prop53
 90
        2
102
RTVSPost2010PropOp53
 70
     1
102
RTVSPost2010Prop54
  1
strokes_ogs.tif
102
RTVSPost2010PropOp54
 70
     1
102
RTVSPost2010Prop55
280
     0
102
RTVSPost2010PropOp55
 70
     1
102
RTVSPost2010Prop56
140
1.0
102
RTVSPost2010PropOp56
 70
     1
102
RTVSPost2010Prop57
140
1.0
102
RTVSPost2010PropOp57
 70
     1
102
RTVSPropertyOp0
 70
     1
102
RTVSPropertyOp1
 70
     1
102
RTVSPropertyOp2
 70
     1
102
RTVSPropertyOp3
 70
     1
102
RTVSPropertyOp4
 70
     1
102
RTVSPropertyOp5
 70
     1
102
RTVSPropertyOp6
 70
     1
102
RTVSPropertyOp7
 70
     1
102
RTVSPropertyOp8
 70
     1
102
RTVSPropertyOp9
 70
     1
102
RTVSPropertyOp10
 70
     1
102
RTVSPropertyOp11
 70
     1
102
RTVSPropertyOp12
 70
     1
102
RTVSPropertyOp13
 70
     1
102
RTVSPropertyOp14
 70
     1
102
RTVSPropertyOp15
 70
     1
102
RTVSPropertyOp16
 70
     1
102
RTVSPropertyOp17
 70
     1
102
RTVSPropertyOp18
 70
     1
102
RTVSPropertyOp19
 70
     1
102
RTVSPropertyOp20
 70
     1
102
RTVSPropertyOp21
 70
     1
102
RTVSPropertyOp22
 70
     1
102
RTVSPropertyOp23
 70
     1
102
RTVSPropertyOp24
 70
     1
102
RTVSPropertyOp25
 70
     1
102
RTVSPropertyOp26
 70
     1
102
RTVSPropertyOp27
 70
     1
102
RTVSPropertyOp28
 70
     1
102
RTVSPropertyOp29
 70
     1
102
RTVSPropertyOp30
 70
     1
102
RTVSPropertyOp31
 70
     1
102
RTVSPropertyOp32
 70
     1
102
RTVSPropertyOp33
 70
     1
102
RTVSPropertyOp34
 70
     1
102
RTVSPropertyOp35
 70
     1
102
RTVSPropertyOp36
 70
     1
102
RTVSPropertyOp37
 70
     1
102
RTVSPropertyOp38
 70
     1
102
RTVSPropertyOp39
 70
     1
102
RTVSPropertyOp40
 70
     1
102
RTVSPropertyOp41
 70
     1
102
RTVSPropertyOp42
 70
     1
102
RTVSPropertyOp43
 70
     1
102
RTVSPropertyOp44
 70
     1
102
RTVSPropertyOp45
 70
     1
102
RTVSPropertyOp46
 70
     1
102
RTVSPropertyOp47
 70
     1
102
RTVSPropertyOp48
 70
     1
102
RTVSPropertyOp49
 70
     1
102
RTVSPropertyOp50
 70
     1
102
RTVSPropertyOp51
 70
     0
102
RTVSPropertyOp52
 70
     0
102
RTVSPropertyOp53
 70
     1
102
RTVSPropertyOp54
 70
     1
102
RTVSPropertyOp55
 70
     1
102
RTVSPropertyOp56
 70
     1
102
RTVSPropertyOp57
 70
     1
102
RTVSPropertyOp58
 70
     1
102
RTVSPropertyOp59
 70
     1
102
RTVSPropertyOp60
 70
     1
102
RTVSPropertyOp61
 70
     1
102
RTVSPropertyOp62
 70
     1
  0
XRECORD
  5
3692
102
{ACAD_REACTORS
330
3691
102
}
330
3691
100
AcDbXrecord
280
     1
102
RTVSPost2010Prop28
280
     0
102
RTVSPost2010PropOp28
 70
     1
102
RTVSPost2010Prop29
280
     1
102
RTVSPost2010PropOp29
 70
     1
102
RTVSPost2010Prop30
280
     1
102
RTVSPost2010PropOp30
 70
     1
102
RTVSPost2010Prop31
280
     0
102
RTVSPost2010PropOp31
 70
     1
102
RTVSPost2010Prop32
280
     0
102
RTVSPost2010PropOp32
 70
     1
102
RTVSPost2010Prop33
280
     0
102
RTVSPost2010PropOp33
 70
     1
102
RTVSPost2010Prop34
280
     0
102
RTVSPost2010PropOp34
 70
     1
102
RTVSPost2010Prop35
280
     0
102
RTVSPost2010PropOp35
 70
     1
102
RTVSPost2010Prop36
280
     0
102
RTVSPost2010PropOp36
 70
     1
102
RTVSPost2010Prop37
 90
       50
102
RTVSPost2010PropOp37
 70
     1
102
RTVSPost2010Prop38
140
0.0
102
RTVSPost2010PropOp38
 70
     1
102
RTVSPost2010Prop39
140
1.0
102
RTVSPost2010PropOp39
 70
     1
102
RTVSPost2010Prop40
 90
        0
102
RTVSPost2010PropOp40
 70
     1
102
RTVSPost2010Prop41ColorIndex
 90
       18
102
RTVSPost2010Prop41ColorRGB
 90
        0
102
RTVSPost2010PropOp41
 70
     1
102
RTVSPost2010Prop42
 90
       50
102
RTVSPost2010PropOp42
 70
     1
102
RTVSPost2010Prop43
 90
        3
102
RTVSPost2010PropOp43
 70
     1
102
RTVSPost2010Prop44ColorIndex
 90
        5
102
RTVSPost2010Prop44ColorRGB
 90
      255
102
RTVSPost2010PropOp44
 70
     1
102
RTVSPost2010Prop45
280
     0
102
RTVSPost2010PropOp45
 70
     1
102
RTVSPost2010Prop46
 90
       50
102
RTVSPost2010PropOp46
 70
     1
102
RTVSPost2010Prop47
 90
       50
102
RTVSPost2010PropOp47
 70
     1
102
RTVSPost2010Prop48
 90
       50
102
RTVSPost2010PropOp48
 70
     1
102
RTVSPost2010Prop49
280
     0
102
RTVSPost2010PropOp49
 70
     1
102
RTVSPost2010Prop50
 90
       50
102
RTVSPost2010PropOp50
 70
     1
102
RTVSPost2010Prop51ColorIndex
 90
      256
102
RTVSPost2010Prop51ColorRGB
 90
-16777216
102
RTVSPost2010PropOp51
 70
     0
102
RTVSPost2010Prop52
140
1.0
102
RTVSPost2010PropOp52
 70
     0
102
RTVSPost2010Prop53
 90
        2
102
RTVSPost2010PropOp53
 70
     1
102
RTVSPost2010Prop54
  1
strokes_ogs.tif
102
RTVSPost2010PropOp54
 70
     1
102
RTVSPost2010Prop55
280
     0
102
RTVSPost2010PropOp55
 70
     1
102
RTVSPost2010Prop56
140
1.0
102
RTVSPost2010PropOp56
 70
     1
102
RTVSPost2010Prop57
140
1.0
102
RTVSPost2010PropOp57
 70
     1
102
RTVSPropertyOp0
 70
     1
102
RTVSPropertyOp1
 70
     1
102
RTVSPropertyOp2
 70
     1
102
RTVSPropertyOp3
 70
     1
102
RTVSPropertyOp4
 70
     1
102
RTVSPropertyOp5
 70
     1
102
RTVSPropertyOp6
 70
     1
102
RTVSPropertyOp7
 70
     1
102
RTVSPropertyOp8
 70
     1
102
RTVSPropertyOp9
 70
     1
102
RTVSPropertyOp10
 70
     1
102
RTVSPropertyOp11
 70
     1
102
RTVSPropertyOp12
 70
     1
102
RTVSPropertyOp13
 70
     1
102
RTVSPropertyOp14
 70
     1
102
RTVSPropertyOp15
 70
     1
102
RTVSPropertyOp16
 70
     1
102
RTVSPropertyOp17
 70
     1
102
RTVSPropertyOp18
 70
     1
102
RTVSPropertyOp19
 70
     1
102
RTVSPropertyOp20
 70
     1
102
RTVSPropertyOp21
 70
     1
102
RTVSPropertyOp22
 70
     1
102
RTVSPropertyOp23
 70
     1
102
RTVSPropertyOp24
 70
     1
102
RTVSPropertyOp25
 70
     1
102
RTVSPropertyOp26
 70
     1
102
RTVSPropertyOp27
 70
     1
102
RTVSPropertyOp28
 70
     1
102
RTVSPropertyOp29
 70
     1
102
RTVSPropertyOp30
 70
     1
102
RTVSPropertyOp31
 70
     1
102
RTVSPropertyOp32
 70
     1
102
RTVSPropertyOp33
 70
     1
102
RTVSPropertyOp34
 70
     1
102
RTVSPropertyOp35
 70
     1
102
RTVSPropertyOp36
 70
     1
102
RTVSPropertyOp37
 70
     1
102
RTVSPropertyOp38
 70
     1
102
RTVSPropertyOp39
 70
     1
102
RTVSPropertyOp40
 70
     1
102
RTVSPropertyOp41
 70
     1
102
RTVSPropertyOp42
 70
     1
102
RTVSPropertyOp43
 70
     1
102
RTVSPropertyOp44
 70
     1
102
RTVSPropertyOp45
 70
     1
102
RTVSPropertyOp46
 70
     1
102
RTVSPropertyOp47
 70
     1
102
RTVSPropertyOp48
 70
     1
102
RTVSPropertyOp49
 70
     1
102
RTVSPropertyOp50
 70
     1
102
RTVSPropertyOp51
 70
     0
102
RTVSPropertyOp52
 70
     0
102
RTVSPropertyOp53
 70
     1
102
RTVSPropertyOp54
 70
     1
102
RTVSPropertyOp55
 70
     1
102
RTVSPropertyOp56
 70
     1
102
RTVSPropertyOp57
 70
     1
102
RTVSPropertyOp58
 70
     1
102
RTVSPropertyOp59
 70
     1
102
RTVSPropertyOp60
 70
     1
102
RTVSPropertyOp61
 70
     1
102
RTVSPropertyOp62
 70
     1
  0
XRECORD
  5
36AC
102
{ACAD_REACTORS
330
36AB
102
}
330
36AB
100
AcDbXrecord
280
     1
102
RTVSPost2010Prop28
280
     0
102
RTVSPost2010PropOp28
 70
     1
102
RTVSPost2010Prop29
280
     1
102
RTVSPost2010PropOp29
 70
     1
102
RTVSPost2010Prop30
280
     1
102
RTVSPost2010PropOp30
 70
     1
102
RTVSPost2010Prop31
280
     0
102
RTVSPost2010PropOp31
 70
     1
102
RTVSPost2010Prop32
280
     0
102
RTVSPost2010PropOp32
 70
     1
102
RTVSPost2010Prop33
280
     0
102
RTVSPost2010PropOp33
 70
     1
102
RTVSPost2010Prop34
280
     0
102
RTVSPost2010PropOp34
 70
     1
102
RTVSPost2010Prop35
280
     0
102
RTVSPost2010PropOp35
 70
     1
102
RTVSPost2010Prop36
280
     0
102
RTVSPost2010PropOp36
 70
     1
102
RTVSPost2010Prop37
 90
       50
102
RTVSPost2010PropOp37
 70
     0
102
RTVSPost2010Prop38
140
0.0
102
RTVSPost2010PropOp38
 70
     0
102
RTVSPost2010Prop39
140
1.0
102
RTVSPost2010PropOp39
 70
     0
102
RTVSPost2010Prop40
 90
        0
102
RTVSPost2010PropOp40
 70
     0
102
RTVSPost2010Prop41ColorIndex
 90
       18
102
RTVSPost2010Prop41ColorRGB
 90
        0
102
RTVSPost2010PropOp41
 70
     0
102
RTVSPost2010Prop42
 90
       50
102
RTVSPost2010PropOp42
 70
     0
102
RTVSPost2010Prop43
 90
        3
102
RTVSPost2010PropOp43
 70
     0
102
RTVSPost2010Prop44ColorIndex
 90
        5
102
RTVSPost2010Prop44ColorRGB
 90
      255
102
RTVSPost2010PropOp44
 70
     0
102
RTVSPost2010Prop45
280
     0
102
RTVSPost2010PropOp45
 70
     1
102
RTVSPost2010Prop46
 90
       50
102
RTVSPost2010PropOp46
 70
     0
102
RTVSPost2010Prop47
 90
       50
102
RTVSPost2010PropOp47
 70
     0
102
RTVSPost2010Prop48
 90
       50
102
RTVSPost2010PropOp48
 70
     0
102
RTVSPost2010Prop49
280
     0
102
RTVSPost2010PropOp49
 70
     1
102
RTVSPost2010Prop50
 90
       50
102
RTVSPost2010PropOp50
 70
     0
102
RTVSPost2010Prop51ColorIndex
 90
      256
102
RTVSPost2010Prop51ColorRGB
 90
-16777216
102
RTVSPost2010PropOp51
 70
     0
102
RTVSPost2010Prop52
140
1.0
102
RTVSPost2010PropOp52
 70
     0
102
RTVSPost2010Prop53
 90
        2
102
RTVSPost2010PropOp53
 70
     0
102
RTVSPost2010Prop54
  1
strokes_ogs.tif
102
RTVSPost2010PropOp54
 70
     0
102
RTVSPost2010Prop55
280
     0
102
RTVSPost2010PropOp55
 70
     1
102
RTVSPost2010Prop56
140
1.0
102
RTVSPost2010PropOp56
 70
     0
102
RTVSPost2010Prop57
140
1.0
102
RTVSPost2010PropOp57
 70
     0
102
RTVSPropertyOp0
 70
     0
102
RTVSPropertyOp1
 70
     0
102
RTVSPropertyOp2
 70
     0
102
RTVSPropertyOp3
 70
     0
102
RTVSPropertyOp4
 70
     0
102
RTVSPropertyOp5
 70
     0
102
RTVSPropertyOp6
 70
     0
102
RTVSPropertyOp7
 70
     0
102
RTVSPropertyOp8
 70
     0
102
RTVSPropertyOp9
 70
     0
102
RTVSPropertyOp10
 70
     0
102
RTVSPropertyOp11
 70
     0
102
RTVSPropertyOp12
 70
     0
102
RTVSPropertyOp13
 70
     0
102
RTVSPropertyOp14
 70
     2
102
RTVSPropertyOp15
 70
     0
102
RTVSPropertyOp16
 70
     0
102
RTVSPropertyOp17
 70
     0
102
RTVSPropertyOp18
 70
     0
102
RTVSPropertyOp19
 70
     0
102
RTVSPropertyOp20
 70
     0
102
RTVSPropertyOp21
 70
     0
102
RTVSPropertyOp22
 70
     0
102
RTVSPropertyOp23
 70
     0
102
RTVSPropertyOp24
 70
     0
102
RTVSPropertyOp25
 70
     0
102
RTVSPropertyOp26
 70
     0
102
RTVSPropertyOp27
 70
     0
102
RTVSPropertyOp28
 70
     1
102
RTVSPropertyOp29
 70
     1
102
RTVSPropertyOp30
 70
     1
102
RTVSPropertyOp31
 70
     1
102
RTVSPropertyOp32
 70
     1
102
RTVSPropertyOp33
 70
     1
102
RTVSPropertyOp34
 70
     1
102
RTVSPropertyOp35
 70
     1
102
RTVSPropertyOp36
 70
     1
102
RTVSPropertyOp37
 70
     0
102
RTVSPropertyOp38
 70
     0
102
RTVSPropertyOp39
 70
     0
102
RTVSPropertyOp40
 70
     0
102
RTVSPropertyOp41
 70
     0
102
RTVSPropertyOp42
 70
     0
102
RTVSPropertyOp43
 70
     0
102
RTVSPropertyOp44
 70
     0
102
RTVSPropertyOp45
 70
     1
102
RTVSPropertyOp46
 70
     0
102
RTVSPropertyOp47
 70
     0
102
RTVSPropertyOp48
 70
     0
102
RTVSPropertyOp49
 70
     1
102
RTVSPropertyOp50
 70
     0
102
RTVSPropertyOp51
 70
     0
102
RTVSPropertyOp52
 70
     0
102
RTVSPropertyOp53
 70
     0
102
RTVSPropertyOp54
 70
     0
102
RTVSPropertyOp55
 70
     1
102
RTVSPropertyOp56
 70
     0
102
RTVSPropertyOp57
 70
     0
102
RTVSPropertyOp58
 70
     0
102
RTVSPropertyOp59
 70
     0
102
RTVSPropertyOp60
 70
     0
102
RTVSPropertyOp61
 70
     0
102
RTVSPropertyOp62
 70
     0
  0
XRECORD
  5
369A
102
{ACAD_REACTORS
330
3699
102
}
330
3699
100
AcDbXrecord
280
     1
102
RTVSPost2010Prop28
280
     0
102
RTVSPost2010PropOp28
 70
     1
102
RTVSPost2010Prop29
280
     1
102
RTVSPost2010PropOp29
 70
     1
102
RTVSPost2010Prop30
280
     1
102
RTVSPost2010PropOp30
 70
     1
102
RTVSPost2010Prop31
280
     0
102
RTVSPost2010PropOp31
 70
     1
102
RTVSPost2010Prop32
280
     0
102
RTVSPost2010PropOp32
 70
     1
102
RTVSPost2010Prop33
280
     0
102
RTVSPost2010PropOp33
 70
     1
102
RTVSPost2010Prop34
280
     0
102
RTVSPost2010PropOp34
 70
     1
102
RTVSPost2010Prop35
280
     0
102
RTVSPost2010PropOp35
 70
     1
102
RTVSPost2010Prop36
280
     0
102
RTVSPost2010PropOp36
 70
     1
102
RTVSPost2010Prop37
 90
       50
102
RTVSPost2010PropOp37
 70
     1
102
RTVSPost2010Prop38
140
0.0
102
RTVSPost2010PropOp38
 70
     1
102
RTVSPost2010Prop39
140
1.0
102
RTVSPost2010PropOp39
 70
     1
102
RTVSPost2010Prop40
 90
        0
102
RTVSPost2010PropOp40
 70
     1
102
RTVSPost2010Prop41ColorIndex
 90
       18
102
RTVSPost2010Prop41ColorRGB
 90
        0
102
RTVSPost2010PropOp41
 70
     1
102
RTVSPost2010Prop42
 90
       50
102
RTVSPost2010PropOp42
 70
     1
102
RTVSPost2010Prop43
 90
        3
102
RTVSPost2010PropOp43
 70
     1
102
RTVSPost2010Prop44ColorIndex
 90
        5
102
RTVSPost2010Prop44ColorRGB
 90
      255
102
RTVSPost2010PropOp44
 70
     1
102
RTVSPost2010Prop45
280
     0
102
RTVSPost2010PropOp45
 70
     1
102
RTVSPost2010Prop46
 90
       50
102
RTVSPost2010PropOp46
 70
     1
102
RTVSPost2010Prop47
 90
       50
102
RTVSPost2010PropOp47
 70
     1
102
RTVSPost2010Prop48
 90
       50
102
RTVSPost2010PropOp48
 70
     1
102
RTVSPost2010Prop49
280
     0
102
RTVSPost2010PropOp49
 70
     1
102
RTVSPost2010Prop50
 90
       50
102
RTVSPost2010PropOp50
 70
     1
102
RTVSPost2010Prop51ColorIndex
 90
      256
102
RTVSPost2010Prop51ColorRGB
 90
-16777216
102
RTVSPost2010PropOp51
 70
     0
102
RTVSPost2010Prop52
140
1.0
102
RTVSPost2010PropOp52
 70
     0
102
RTVSPost2010Prop53
 90
        2
102
RTVSPost2010PropOp53
 70
     1
102
RTVSPost2010Prop54
  1
strokes_ogs.tif
102
RTVSPost2010PropOp54
 70
     1
102
RTVSPost2010Prop55
280
     0
102
RTVSPost2010PropOp55
 70
     1
102
RTVSPost2010Prop56
140
1.0
102
RTVSPost2010PropOp56
 70
     1
102
RTVSPost2010Prop57
140
1.0
102
RTVSPost2010PropOp57
 70
     1
102
RTVSPropertyOp0
 70
     1
102
RTVSPropertyOp1
 70
     1
102
RTVSPropertyOp2
 70
     1
102
RTVSPropertyOp3
 70
     1
102
RTVSPropertyOp4
 70
     1
102
RTVSPropertyOp5
 70
     1
102
RTVSPropertyOp6
 70
     1
102
RTVSPropertyOp7
 70
     1
102
RTVSPropertyOp8
 70
     1
102
RTVSPropertyOp9
 70
     1
102
RTVSPropertyOp10
 70
     1
102
RTVSPropertyOp11
 70
     1
102
RTVSPropertyOp12
 70
     1
102
RTVSPropertyOp13
 70
     1
102
RTVSPropertyOp14
 70
     1
102
RTVSPropertyOp15
 70
     1
102
RTVSPropertyOp16
 70
     1
102
RTVSPropertyOp17
 70
     1
102
RTVSPropertyOp18
 70
     1
102
RTVSPropertyOp19
 70
     1
102
RTVSPropertyOp20
 70
     1
102
RTVSPropertyOp21
 70
     1
102
RTVSPropertyOp22
 70
     1
102
RTVSPropertyOp23
 70
     1
102
RTVSPropertyOp24
 70
     1
102
RTVSPropertyOp25
 70
     1
102
RTVSPropertyOp26
 70
     1
102
RTVSPropertyOp27
 70
     1
102
RTVSPropertyOp28
 70
     1
102
RTVSPropertyOp29
 70
     1
102
RTVSPropertyOp30
 70
     1
102
RTVSPropertyOp31
 70
     1
102
RTVSPropertyOp32
 70
     1
102
RTVSPropertyOp33
 70
     1
102
RTVSPropertyOp34
 70
     1
102
RTVSPropertyOp35
 70
     1
102
RTVSPropertyOp36
 70
     1
102
RTVSPropertyOp37
 70
     1
102
RTVSPropertyOp38
 70
     1
102
RTVSPropertyOp39
 70
     1
102
RTVSPropertyOp40
 70
     1
102
RTVSPropertyOp41
 70
     1
102
RTVSPropertyOp42
 70
     1
102
RTVSPropertyOp43
 70
     1
102
RTVSPropertyOp44
 70
     1
102
RTVSPropertyOp45
 70
     1
102
RTVSPropertyOp46
 70
     1
102
RTVSPropertyOp47
 70
     1
102
RTVSPropertyOp48
 70
     1
102
RTVSPropertyOp49
 70
     1
102
RTVSPropertyOp50
 70
     1
102
RTVSPropertyOp51
 70
     0
102
RTVSPropertyOp52
 70
     0
102
RTVSPropertyOp53
 70
     1
102
RTVSPropertyOp54
 70
     1
102
RTVSPropertyOp55
 70
     1
102
RTVSPropertyOp56
 70
     1
102
RTVSPropertyOp57
 70
     1
102
RTVSPropertyOp58
 70
     1
102
RTVSPropertyOp59
 70
     1
102
RTVSPropertyOp60
 70
     1
102
RTVSPropertyOp61
 70
     1
102
RTVSPropertyOp62
 70
     1
  0
XRECORD
  5
367E
102
{ACAD_REACTORS
330
367D
102
}
330
367D
100
AcDbXrecord
280
     1
102
RTVSPost2010Prop28
280
     0
102
RTVSPost2010PropOp28
 70
     1
102
RTVSPost2010Prop29
280
     1
102
RTVSPost2010PropOp29
 70
     1
102
RTVSPost2010Prop30
280
     1
102
RTVSPost2010PropOp30
 70
     1
102
RTVSPost2010Prop31
280
     0
102
RTVSPost2010PropOp31
 70
     1
102
RTVSPost2010Prop32
280
     0
102
RTVSPost2010PropOp32
 70
     1
102
RTVSPost2010Prop33
280
     0
102
RTVSPost2010PropOp33
 70
     1
102
RTVSPost2010Prop34
280
     0
102
RTVSPost2010PropOp34
 70
     1
102
RTVSPost2010Prop35
280
     0
102
RTVSPost2010PropOp35
 70
     1
102
RTVSPost2010Prop36
280
     0
102
RTVSPost2010PropOp36
 70
     1
102
RTVSPost2010Prop37
 90
       50
102
RTVSPost2010PropOp37
 70
     1
102
RTVSPost2010Prop38
140
0.0
102
RTVSPost2010PropOp38
 70
     1
102
RTVSPost2010Prop39
140
1.0
102
RTVSPost2010PropOp39
 70
     1
102
RTVSPost2010Prop40
 90
        0
102
RTVSPost2010PropOp40
 70
     1
102
RTVSPost2010Prop41ColorIndex
 90
       18
102
RTVSPost2010Prop41ColorRGB
 90
        0
102
RTVSPost2010PropOp41
 70
     1
102
RTVSPost2010Prop42
 90
       50
102
RTVSPost2010PropOp42
 70
     1
102
RTVSPost2010Prop43
 90
        3
102
RTVSPost2010PropOp43
 70
     1
102
RTVSPost2010Prop44ColorIndex
 90
        5
102
RTVSPost2010Prop44ColorRGB
 90
      255
102
RTVSPost2010PropOp44
 70
     1
102
RTVSPost2010Prop45
280
     0
102
RTVSPost2010PropOp45
 70
     1
102
RTVSPost2010Prop46
 90
       50
102
RTVSPost2010PropOp46
 70
     1
102
RTVSPost2010Prop47
 90
       50
102
RTVSPost2010PropOp47
 70
     1
102
RTVSPost2010Prop48
 90
       50
102
RTVSPost2010PropOp48
 70
     1
102
RTVSPost2010Prop49
280
     0
102
RTVSPost2010PropOp49
 70
     1
102
RTVSPost2010Prop50
 90
       50
102
RTVSPost2010PropOp50
 70
     1
102
RTVSPost2010Prop51ColorIndex
 90
      256
102
RTVSPost2010Prop51ColorRGB
 90
-16777216
102
RTVSPost2010PropOp51
 70
     0
102
RTVSPost2010Prop52
140
1.0
102
RTVSPost2010PropOp52
 70
     0
102
RTVSPost2010Prop53
 90
        2
102
RTVSPost2010PropOp53
 70
     1
102
RTVSPost2010Prop54
  1
strokes_ogs.tif
102
RTVSPost2010PropOp54
 70
     1
102
RTVSPost2010Prop55
280
     0
102
RTVSPost2010PropOp55
 70
     1
102
RTVSPost2010Prop56
140
1.0
102
RTVSPost2010PropOp56
 70
     1
102
RTVSPost2010Prop57
140
1.0
102
RTVSPost2010PropOp57
 70
     1
102
RTVSPropertyOp0
 70
     1
102
RTVSPropertyOp1
 70
     1
102
RTVSPropertyOp2
 70
     1
102
RTVSPropertyOp3
 70
     1
102
RTVSPropertyOp4
 70
     1
102
RTVSPropertyOp5
 70
     1
102
RTVSPropertyOp6
 70
     1
102
RTVSPropertyOp7
 70
     1
102
RTVSPropertyOp8
 70
     1
102
RTVSPropertyOp9
 70
     1
102
RTVSPropertyOp10
 70
     1
102
RTVSPropertyOp11
 70
     1
102
RTVSPropertyOp12
 70
     1
102
RTVSPropertyOp13
 70
     1
102
RTVSPropertyOp14
 70
     1
102
RTVSPropertyOp15
 70
     1
102
RTVSPropertyOp16
 70
     1
102
RTVSPropertyOp17
 70
     1
102
RTVSPropertyOp18
 70
     1
102
RTVSPropertyOp19
 70
     1
102
RTVSPropertyOp20
 70
     1
102
RTVSPropertyOp21
 70
     1
102
RTVSPropertyOp22
 70
     1
102
RTVSPropertyOp23
 70
     1
102
RTVSPropertyOp24
 70
     1
102
RTVSPropertyOp25
 70
     1
102
RTVSPropertyOp26
 70
     1
102
RTVSPropertyOp27
 70
     1
102
RTVSPropertyOp28
 70
     1
102
RTVSPropertyOp29
 70
     1
102
RTVSPropertyOp30
 70
     1
102
RTVSPropertyOp31
 70
     1
102
RTVSPropertyOp32
 70
     1
102
RTVSPropertyOp33
 70
     1
102
RTVSPropertyOp34
 70
     1
102
RTVSPropertyOp35
 70
     1
102
RTVSPropertyOp36
 70
     1
102
RTVSPropertyOp37
 70
     1
102
RTVSPropertyOp38
 70
     1
102
RTVSPropertyOp39
 70
     1
102
RTVSPropertyOp40
 70
     1
102
RTVSPropertyOp41
 70
     1
102
RTVSPropertyOp42
 70
     1
102
RTVSPropertyOp43
 70
     1
102
RTVSPropertyOp44
 70
     1
102
RTVSPropertyOp45
 70
     1
102
RTVSPropertyOp46
 70
     1
102
RTVSPropertyOp47
 70
     1
102
RTVSPropertyOp48
 70
     1
102
RTVSPropertyOp49
 70
     1
102
RTVSPropertyOp50
 70
     1
102
RTVSPropertyOp51
 70
     0
102
RTVSPropertyOp52
 70
     0
102
RTVSPropertyOp53
 70
     1
102
RTVSPropertyOp54
 70
     1
102
RTVSPropertyOp55
 70
     1
102
RTVSPropertyOp56
 70
     1
102
RTVSPropertyOp57
 70
     1
102
RTVSPropertyOp58
 70
     1
102
RTVSPropertyOp59
 70
     1
102
RTVSPropertyOp60
 70
     1
102
RTVSPropertyOp61
 70
     1
102
RTVSPropertyOp62
 70
     1
  0
XRECORD
  5
3680
102
{ACAD_REACTORS
330
367F
102
}
330
367F
100
AcDbXrecord
280
     1
102
RTVSPost2010Prop28
280
     0
102
RTVSPost2010PropOp28
 70
     1
102
RTVSPost2010Prop29
280
     1
102
RTVSPost2010PropOp29
 70
     1
102
RTVSPost2010Prop30
280
     1
102
RTVSPost2010PropOp30
 70
     1
102
RTVSPost2010Prop31
280
     0
102
RTVSPost2010PropOp31
 70
     1
102
RTVSPost2010Prop32
280
     0
102
RTVSPost2010PropOp32
 70
     1
102
RTVSPost2010Prop33
280
     0
102
RTVSPost2010PropOp33
 70
     1
102
RTVSPost2010Prop34
280
     0
102
RTVSPost2010PropOp34
 70
     1
102
RTVSPost2010Prop35
280
     0
102
RTVSPost2010PropOp35
 70
     1
102
RTVSPost2010Prop36
280
     0
102
RTVSPost2010PropOp36
 70
     1
102
RTVSPost2010Prop37
 90
       50
102
RTVSPost2010PropOp37
 70
     1
102
RTVSPost2010Prop38
140
0.0
102
RTVSPost2010PropOp38
 70
     1
102
RTVSPost2010Prop39
140
1.0
102
RTVSPost2010PropOp39
 70
     1
102
RTVSPost2010Prop40
 90
        0
102
RTVSPost2010PropOp40
 70
     1
102
RTVSPost2010Prop41ColorIndex
 90
       18
102
RTVSPost2010Prop41ColorRGB
 90
        0
102
RTVSPost2010PropOp41
 70
     1
102
RTVSPost2010Prop42
 90
       50
102
RTVSPost2010PropOp42
 70
     1
102
RTVSPost2010Prop43
 90
        3
102
RTVSPost2010PropOp43
 70
     1
102
RTVSPost2010Prop44ColorIndex
 90
        5
102
RTVSPost2010Prop44ColorRGB
 90
      255
102
RTVSPost2010PropOp44
 70
     1
102
RTVSPost2010Prop45
280
     0
102
RTVSPost2010PropOp45
 70
     1
102
RTVSPost2010Prop46
 90
       50
102
RTVSPost2010PropOp46
 70
     1
102
RTVSPost2010Prop47
 90
       50
102
RTVSPost2010PropOp47
 70
     1
102
RTVSPost2010Prop48
 90
       50
102
RTVSPost2010PropOp48
 70
     1
102
RTVSPost2010Prop49
280
     0
102
RTVSPost2010PropOp49
 70
     1
102
RTVSPost2010Prop50
 90
       50
102
RTVSPost2010PropOp50
 70
     1
102
RTVSPost2010Prop51ColorIndex
 90
      256
102
RTVSPost2010Prop51ColorRGB
 90
-16777216
102
RTVSPost2010PropOp51
 70
     0
102
RTVSPost2010Prop52
140
1.0
102
RTVSPost2010PropOp52
 70
     0
102
RTVSPost2010Prop53
 90
        2
102
RTVSPost2010PropOp53
 70
     1
102
RTVSPost2010Prop54
  1
strokes_ogs.tif
102
RTVSPost2010PropOp54
 70
     1
102
RTVSPost2010Prop55
280
     0
102
RTVSPost2010PropOp55
 70
     1
102
RTVSPost2010Prop56
140
1.0
102
RTVSPost2010PropOp56
 70
     1
102
RTVSPost2010Prop57
140
1.0
102
RTVSPost2010PropOp57
 70
     1
102
RTVSPropertyOp0
 70
     1
102
RTVSPropertyOp1
 70
     1
102
RTVSPropertyOp2
 70
     1
102
RTVSPropertyOp3
 70
     1
102
RTVSPropertyOp4
 70
     1
102
RTVSPropertyOp5
 70
     1
102
RTVSPropertyOp6
 70
     1
102
RTVSPropertyOp7
 70
     1
102
RTVSPropertyOp8
 70
     1
102
RTVSPropertyOp9
 70
     1
102
RTVSPropertyOp10
 70
     1
102
RTVSPropertyOp11
 70
     1
102
RTVSPropertyOp12
 70
     1
102
RTVSPropertyOp13
 70
     1
102
RTVSPropertyOp14
 70
     1
102
RTVSPropertyOp15
 70
     1
102
RTVSPropertyOp16
 70
     1
102
RTVSPropertyOp17
 70
     1
102
RTVSPropertyOp18
 70
     1
102
RTVSPropertyOp19
 70
     1
102
RTVSPropertyOp20
 70
     1
102
RTVSPropertyOp21
 70
     1
102
RTVSPropertyOp22
 70
     1
102
RTVSPropertyOp23
 70
     1
102
RTVSPropertyOp24
 70
     1
102
RTVSPropertyOp25
 70
     1
102
RTVSPropertyOp26
 70
     1
102
RTVSPropertyOp27
 70
     1
102
RTVSPropertyOp28
 70
     1
102
RTVSPropertyOp29
 70
     1
102
RTVSPropertyOp30
 70
     1
102
RTVSPropertyOp31
 70
     1
102
RTVSPropertyOp32
 70
     1
102
RTVSPropertyOp33
 70
     1
102
RTVSPropertyOp34
 70
     1
102
RTVSPropertyOp35
 70
     1
102
RTVSPropertyOp36
 70
     1
102
RTVSPropertyOp37
 70
     1
102
RTVSPropertyOp38
 70
     1
102
RTVSPropertyOp39
 70
     1
102
RTVSPropertyOp40
 70
     1
102
RTVSPropertyOp41
 70
     1
102
RTVSPropertyOp42
 70
     1
102
RTVSPropertyOp43
 70
     1
102
RTVSPropertyOp44
 70
     1
102
RTVSPropertyOp45
 70
     1
102
RTVSPropertyOp46
 70
     1
102
RTVSPropertyOp47
 70
     1
102
RTVSPropertyOp48
 70
     1
102
RTVSPropertyOp49
 70
     1
102
RTVSPropertyOp50
 70
     1
102
RTVSPropertyOp51
 70
     0
102
RTVSPropertyOp52
 70
     0
102
RTVSPropertyOp53
 70
     1
102
RTVSPropertyOp54
 70
     1
102
RTVSPropertyOp55
 70
     1
102
RTVSPropertyOp56
 70
     1
102
RTVSPropertyOp57
 70
     1
102
RTVSPropertyOp58
 70
     1
102
RTVSPropertyOp59
 70
     1
102
RTVSPropertyOp60
 70
     1
102
RTVSPropertyOp61
 70
     1
102
RTVSPropertyOp62
 70
     1
  0
XRECORD
  5
3682
102
{ACAD_REACTORS
330
3681
102
}
330
3681
100
AcDbXrecord
280
     1
102
RTVSPost2010Prop28
280
     0
102
RTVSPost2010PropOp28
 70
     1
102
RTVSPost2010Prop29
280
     1
102
RTVSPost2010PropOp29
 70
     1
102
RTVSPost2010Prop30
280
     1
102
RTVSPost2010PropOp30
 70
     1
102
RTVSPost2010Prop31
280
     0
102
RTVSPost2010PropOp31
 70
     1
102
RTVSPost2010Prop32
280
     0
102
RTVSPost2010PropOp32
 70
     1
102
RTVSPost2010Prop33
280
     0
102
RTVSPost2010PropOp33
 70
     1
102
RTVSPost2010Prop34
280
     0
102
RTVSPost2010PropOp34
 70
     1
102
RTVSPost2010Prop35
280
     0
102
RTVSPost2010PropOp35
 70
     1
102
RTVSPost2010Prop36
280
     0
102
RTVSPost2010PropOp36
 70
     1
102
RTVSPost2010Prop37
 90
       50
102
RTVSPost2010PropOp37
 70
     1
102
RTVSPost2010Prop38
140
0.0
102
RTVSPost2010PropOp38
 70
     1
102
RTVSPost2010Prop39
140
1.0
102
RTVSPost2010PropOp39
 70
     1
102
RTVSPost2010Prop40
 90
        0
102
RTVSPost2010PropOp40
 70
     1
102
RTVSPost2010Prop41ColorIndex
 90
       18
102
RTVSPost2010Prop41ColorRGB
 90
        0
102
RTVSPost2010PropOp41
 70
     1
102
RTVSPost2010Prop42
 90
       50
102
RTVSPost2010PropOp42
 70
     1
102
RTVSPost2010Prop43
 90
        3
102
RTVSPost2010PropOp43
 70
     1
102
RTVSPost2010Prop44ColorIndex
 90
        5
102
RTVSPost2010Prop44ColorRGB
 90
      255
102
RTVSPost2010PropOp44
 70
     1
102
RTVSPost2010Prop45
280
     0
102
RTVSPost2010PropOp45
 70
     1
102
RTVSPost2010Prop46
 90
       50
102
RTVSPost2010PropOp46
 70
     1
102
RTVSPost2010Prop47
 90
       50
102
RTVSPost2010PropOp47
 70
     1
102
RTVSPost2010Prop48
 90
       50
102
RTVSPost2010PropOp48
 70
     1
102
RTVSPost2010Prop49
280
     0
102
RTVSPost2010PropOp49
 70
     1
102
RTVSPost2010Prop50
 90
       50
102
RTVSPost2010PropOp50
 70
     1
102
RTVSPost2010Prop51ColorIndex
 90
      256
102
RTVSPost2010Prop51ColorRGB
 90
-16777216
102
RTVSPost2010PropOp51
 70
     0
102
RTVSPost2010Prop52
140
1.0
102
RTVSPost2010PropOp52
 70
     0
102
RTVSPost2010Prop53
 90
        2
102
RTVSPost2010PropOp53
 70
     1
102
RTVSPost2010Prop54
  1
strokes_ogs.tif
102
RTVSPost2010PropOp54
 70
     1
102
RTVSPost2010Prop55
280
     0
102
RTVSPost2010PropOp55
 70
     1
102
RTVSPost2010Prop56
140
1.0
102
RTVSPost2010PropOp56
 70
     1
102
RTVSPost2010Prop57
140
1.0
102
RTVSPost2010PropOp57
 70
     1
102
RTVSPropertyOp0
 70
     1
102
RTVSPropertyOp1
 70
     1
102
RTVSPropertyOp2
 70
     1
102
RTVSPropertyOp3
 70
     1
102
RTVSPropertyOp4
 70
     1
102
RTVSPropertyOp5
 70
     1
102
RTVSPropertyOp6
 70
     1
102
RTVSPropertyOp7
 70
     1
102
RTVSPropertyOp8
 70
     1
102
RTVSPropertyOp9
 70
     1
102
RTVSPropertyOp10
 70
     1
102
RTVSPropertyOp11
 70
     1
102
RTVSPropertyOp12
 70
     1
102
RTVSPropertyOp13
 70
     1
102
RTVSPropertyOp14
 70
     1
102
RTVSPropertyOp15
 70
     1
102
RTVSPropertyOp16
 70
     1
102
RTVSPropertyOp17
 70
     1
102
RTVSPropertyOp18
 70
     1
102
RTVSPropertyOp19
 70
     1
102
RTVSPropertyOp20
 70
     1
102
RTVSPropertyOp21
 70
     1
102
RTVSPropertyOp22
 70
     1
102
RTVSPropertyOp23
 70
     1
102
RTVSPropertyOp24
 70
     1
102
RTVSPropertyOp25
 70
     1
102
RTVSPropertyOp26
 70
     1
102
RTVSPropertyOp27
 70
     1
102
RTVSPropertyOp28
 70
     1
102
RTVSPropertyOp29
 70
     1
102
RTVSPropertyOp30
 70
     1
102
RTVSPropertyOp31
 70
     1
102
RTVSPropertyOp32
 70
     1
102
RTVSPropertyOp33
 70
     1
102
RTVSPropertyOp34
 70
     1
102
RTVSPropertyOp35
 70
     1
102
RTVSPropertyOp36
 70
     1
102
RTVSPropertyOp37
 70
     1
102
RTVSPropertyOp38
 70
     1
102
RTVSPropertyOp39
 70
     1
102
RTVSPropertyOp40
 70
     1
102
RTVSPropertyOp41
 70
     1
102
RTVSPropertyOp42
 70
     1
102
RTVSPropertyOp43
 70
     1
102
RTVSPropertyOp44
 70
     1
102
RTVSPropertyOp45
 70
     1
102
RTVSPropertyOp46
 70
     1
102
RTVSPropertyOp47
 70
     1
102
RTVSPropertyOp48
 70
     1
102
RTVSPropertyOp49
 70
     1
102
RTVSPropertyOp50
 70
     1
102
RTVSPropertyOp51
 70
     0
102
RTVSPropertyOp52
 70
     0
102
RTVSPropertyOp53
 70
     1
102
RTVSPropertyOp54
 70
     1
102
RTVSPropertyOp55
 70
     1
102
RTVSPropertyOp56
 70
     1
102
RTVSPropertyOp57
 70
     1
102
RTVSPropertyOp58
 70
     1
102
RTVSPropertyOp59
 70
     1
102
RTVSPropertyOp60
 70
     1
102
RTVSPropertyOp61
 70
     1
102
RTVSPropertyOp62
 70
     1
  0
XRECORD
  5
3684
102
{ACAD_REACTORS
330
3683
102
}
330
3683
100
AcDbXrecord
280
     1
102
RTVSPost2010Prop28
280
     0
102
RTVSPost2010PropOp28
 70
     1
102
RTVSPost2010Prop29
280
     1
102
RTVSPost2010PropOp29
 70
     1
102
RTVSPost2010Prop30
280
     1
102
RTVSPost2010PropOp30
 70
     1
102
RTVSPost2010Prop31
280
     0
102
RTVSPost2010PropOp31
 70
     1
102
RTVSPost2010Prop32
280
     0
102
RTVSPost2010PropOp32
 70
     1
102
RTVSPost2010Prop33
280
     0
102
RTVSPost2010PropOp33
 70
     1
102
RTVSPost2010Prop34
280
     0
102
RTVSPost2010PropOp34
 70
     1
102
RTVSPost2010Prop35
280
     0
102
RTVSPost2010PropOp35
 70
     1
102
RTVSPost2010Prop36
280
     0
102
RTVSPost2010PropOp36
 70
     1
102
RTVSPost2010Prop37
 90
       50
102
RTVSPost2010PropOp37
 70
     1
102
RTVSPost2010Prop38
140
0.0
102
RTVSPost2010PropOp38
 70
     1
102
RTVSPost2010Prop39
140
1.0
102
RTVSPost2010PropOp39
 70
     1
102
RTVSPost2010Prop40
 90
        0
102
RTVSPost2010PropOp40
 70
     1
102
RTVSPost2010Prop41ColorIndex
 90
       18
102
RTVSPost2010Prop41ColorRGB
 90
        0
102
RTVSPost2010PropOp41
 70
     1
102
RTVSPost2010Prop42
 90
       50
102
RTVSPost2010PropOp42
 70
     1
102
RTVSPost2010Prop43
 90
        3
102
RTVSPost2010PropOp43
 70
     1
102
RTVSPost2010Prop44ColorIndex
 90
        5
102
RTVSPost2010Prop44ColorRGB
 90
      255
102
RTVSPost2010PropOp44
 70
     1
102
RTVSPost2010Prop45
280
     0
102
RTVSPost2010PropOp45
 70
     1
102
RTVSPost2010Prop46
 90
       50
102
RTVSPost2010PropOp46
 70
     1
102
RTVSPost2010Prop47
 90
       50
102
RTVSPost2010PropOp47
 70
     1
102
RTVSPost2010Prop48
 90
       50
102
RTVSPost2010PropOp48
 70
     1
102
RTVSPost2010Prop49
280
     0
102
RTVSPost2010PropOp49
 70
     1
102
RTVSPost2010Prop50
 90
       50
102
RTVSPost2010PropOp50
 70
     1
102
RTVSPost2010Prop51ColorIndex
 90
      256
102
RTVSPost2010Prop51ColorRGB
 90
-16777216
102
RTVSPost2010PropOp51
 70
     0
102
RTVSPost2010Prop52
140
1.0
102
RTVSPost2010PropOp52
 70
     0
102
RTVSPost2010Prop53
 90
        2
102
RTVSPost2010PropOp53
 70
     1
102
RTVSPost2010Prop54
  1
strokes_ogs.tif
102
RTVSPost2010PropOp54
 70
     1
102
RTVSPost2010Prop55
280
     0
102
RTVSPost2010PropOp55
 70
     1
102
RTVSPost2010Prop56
140
1.0
102
RTVSPost2010PropOp56
 70
     1
102
RTVSPost2010Prop57
140
1.0
102
RTVSPost2010PropOp57
 70
     1
102
RTVSPropertyOp0
 70
     1
102
RTVSPropertyOp1
 70
     1
102
RTVSPropertyOp2
 70
     1
102
RTVSPropertyOp3
 70
     1
102
RTVSPropertyOp4
 70
     1
102
RTVSPropertyOp5
 70
     1
102
RTVSPropertyOp6
 70
     1
102
RTVSPropertyOp7
 70
     1
102
RTVSPropertyOp8
 70
     1
102
RTVSPropertyOp9
 70
     1
102
RTVSPropertyOp10
 70
     1
102
RTVSPropertyOp11
 70
     1
102
RTVSPropertyOp12
 70
     1
102
RTVSPropertyOp13
 70
     1
102
RTVSPropertyOp14
 70
     1
102
RTVSPropertyOp15
 70
     1
102
RTVSPropertyOp16
 70
     1
102
RTVSPropertyOp17
 70
     1
102
RTVSPropertyOp18
 70
     1
102
RTVSPropertyOp19
 70
     1
102
RTVSPropertyOp20
 70
     1
102
RTVSPropertyOp21
 70
     1
102
RTVSPropertyOp22
 70
     1
102
RTVSPropertyOp23
 70
     1
102
RTVSPropertyOp24
 70
     1
102
RTVSPropertyOp25
 70
     1
102
RTVSPropertyOp26
 70
     1
102
RTVSPropertyOp27
 70
     1
102
RTVSPropertyOp28
 70
     1
102
RTVSPropertyOp29
 70
     1
102
RTVSPropertyOp30
 70
     1
102
RTVSPropertyOp31
 70
     1
102
RTVSPropertyOp32
 70
     1
102
RTVSPropertyOp33
 70
     1
102
RTVSPropertyOp34
 70
     1
102
RTVSPropertyOp35
 70
     1
102
RTVSPropertyOp36
 70
     1
102
RTVSPropertyOp37
 70
     1
102
RTVSPropertyOp38
 70
     1
102
RTVSPropertyOp39
 70
     1
102
RTVSPropertyOp40
 70
     1
102
RTVSPropertyOp41
 70
     1
102
RTVSPropertyOp42
 70
     1
102
RTVSPropertyOp43
 70
     1
102
RTVSPropertyOp44
 70
     1
102
RTVSPropertyOp45
 70
     1
102
RTVSPropertyOp46
 70
     1
102
RTVSPropertyOp47
 70
     1
102
RTVSPropertyOp48
 70
     1
102
RTVSPropertyOp49
 70
     1
102
RTVSPropertyOp50
 70
     1
102
RTVSPropertyOp51
 70
     0
102
RTVSPropertyOp52
 70
     0
102
RTVSPropertyOp53
 70
     1
102
RTVSPropertyOp54
 70
     1
102
RTVSPropertyOp55
 70
     1
102
RTVSPropertyOp56
 70
     1
102
RTVSPropertyOp57
 70
     1
102
RTVSPropertyOp58
 70
     1
102
RTVSPropertyOp59
 70
     1
102
RTVSPropertyOp60
 70
     1
102
RTVSPropertyOp61
 70
     1
102
RTVSPropertyOp62
 70
     1
  0
XRECORD
  5
368C
102
{ACAD_REACTORS
330
368B
102
}
330
368B
100
AcDbXrecord
280
     1
102
RTVSPost2010Prop28
280
     0
102
RTVSPost2010PropOp28
 70
     1
102
RTVSPost2010Prop29
280
     1
102
RTVSPost2010PropOp29
 70
     1
102
RTVSPost2010Prop30
280
     1
102
RTVSPost2010PropOp30
 70
     1
102
RTVSPost2010Prop31
280
     0
102
RTVSPost2010PropOp31
 70
     1
102
RTVSPost2010Prop32
280
     0
102
RTVSPost2010PropOp32
 70
     1
102
RTVSPost2010Prop33
280
     0
102
RTVSPost2010PropOp33
 70
     1
102
RTVSPost2010Prop34
280
     0
102
RTVSPost2010PropOp34
 70
     1
102
RTVSPost2010Prop35
280
     0
102
RTVSPost2010PropOp35
 70
     1
102
RTVSPost2010Prop36
280
     0
102
RTVSPost2010PropOp36
 70
     1
102
RTVSPost2010Prop37
 90
       50
102
RTVSPost2010PropOp37
 70
     1
102
RTVSPost2010Prop38
140
0.0
102
RTVSPost2010PropOp38
 70
     1
102
RTVSPost2010Prop39
140
1.0
102
RTVSPost2010PropOp39
 70
     1
102
RTVSPost2010Prop40
 90
        0
102
RTVSPost2010PropOp40
 70
     1
102
RTVSPost2010Prop41ColorIndex
 90
       18
102
RTVSPost2010Prop41ColorRGB
 90
        0
102
RTVSPost2010PropOp41
 70
     1
102
RTVSPost2010Prop42
 90
       50
102
RTVSPost2010PropOp42
 70
     1
102
RTVSPost2010Prop43
 90
        3
102
RTVSPost2010PropOp43
 70
     1
102
RTVSPost2010Prop44ColorIndex
 90
        5
102
RTVSPost2010Prop44ColorRGB
 90
      255
102
RTVSPost2010PropOp44
 70
     1
102
RTVSPost2010Prop45
280
     0
102
RTVSPost2010PropOp45
 70
     1
102
RTVSPost2010Prop46
 90
       50
102
RTVSPost2010PropOp46
 70
     1
102
RTVSPost2010Prop47
 90
       50
102
RTVSPost2010PropOp47
 70
     1
102
RTVSPost2010Prop48
 90
       50
102
RTVSPost2010PropOp48
 70
     1
102
RTVSPost2010Prop49
280
     0
102
RTVSPost2010PropOp49
 70
     1
102
RTVSPost2010Prop50
 90
       50
102
RTVSPost2010PropOp50
 70
     1
102
RTVSPost2010Prop51ColorIndex
 90
      256
102
RTVSPost2010Prop51ColorRGB
 90
-16777216
102
RTVSPost2010PropOp51
 70
     0
102
RTVSPost2010Prop52
140
1.0
102
RTVSPost2010PropOp52
 70
     0
102
RTVSPost2010Prop53
 90
        2
102
RTVSPost2010PropOp53
 70
     1
102
RTVSPost2010Prop54
  1
strokes_ogs.tif
102
RTVSPost2010PropOp54
 70
     1
102
RTVSPost2010Prop55
280
     0
102
RTVSPost2010PropOp55
 70
     1
102
RTVSPost2010Prop56
140
1.0
102
RTVSPost2010PropOp56
 70
     1
102
RTVSPost2010Prop57
140
1.0
102
RTVSPost2010PropOp57
 70
     1
102
RTVSPropertyOp0
 70
     1
102
RTVSPropertyOp1
 70
     1
102
RTVSPropertyOp2
 70
     1
102
RTVSPropertyOp3
 70
     1
102
RTVSPropertyOp4
 70
     1
102
RTVSPropertyOp5
 70
     1
102
RTVSPropertyOp6
 70
     1
102
RTVSPropertyOp7
 70
     1
102
RTVSPropertyOp8
 70
     1
102
RTVSPropertyOp9
 70
     1
102
RTVSPropertyOp10
 70
     1
102
RTVSPropertyOp11
 70
     1
102
RTVSPropertyOp12
 70
     1
102
RTVSPropertyOp13
 70
     1
102
RTVSPropertyOp14
 70
     1
102
RTVSPropertyOp15
 70
     1
102
RTVSPropertyOp16
 70
     1
102
RTVSPropertyOp17
 70
     1
102
RTVSPropertyOp18
 70
     1
102
RTVSPropertyOp19
 70
     1
102
RTVSPropertyOp20
 70
     1
102
RTVSPropertyOp21
 70
     1
102
RTVSPropertyOp22
 70
     1
102
RTVSPropertyOp23
 70
     1
102
RTVSPropertyOp24
 70
     1
102
RTVSPropertyOp25
 70
     1
102
RTVSPropertyOp26
 70
     1
102
RTVSPropertyOp27
 70
     1
102
RTVSPropertyOp28
 70
     1
102
RTVSPropertyOp29
 70
     1
102
RTVSPropertyOp30
 70
     1
102
RTVSPropertyOp31
 70
     1
102
RTVSPropertyOp32
 70
     1
102
RTVSPropertyOp33
 70
     1
102
RTVSPropertyOp34
 70
     1
102
RTVSPropertyOp35
 70
     1
102
RTVSPropertyOp36
 70
     1
102
RTVSPropertyOp37
 70
     1
102
RTVSPropertyOp38
 70
     1
102
RTVSPropertyOp39
 70
     1
102
RTVSPropertyOp40
 70
     1
102
RTVSPropertyOp41
 70
     1
102
RTVSPropertyOp42
 70
     1
102
RTVSPropertyOp43
 70
     1
102
RTVSPropertyOp44
 70
     1
102
RTVSPropertyOp45
 70
     1
102
RTVSPropertyOp46
 70
     1
102
RTVSPropertyOp47
 70
     1
102
RTVSPropertyOp48
 70
     1
102
RTVSPropertyOp49
 70
     1
102
RTVSPropertyOp50
 70
     1
102
RTVSPropertyOp51
 70
     0
102
RTVSPropertyOp52
 70
     0
102
RTVSPropertyOp53
 70
     1
102
RTVSPropertyOp54
 70
     1
102
RTVSPropertyOp55
 70
     1
102
RTVSPropertyOp56
 70
     1
102
RTVSPropertyOp57
 70
     1
102
RTVSPropertyOp58
 70
     1
102
RTVSPropertyOp59
 70
     1
102
RTVSPropertyOp60
 70
     1
102
RTVSPropertyOp61
 70
     1
102
RTVSPropertyOp62
 70
     1
  0
XRECORD
  5
36A8
102
{ACAD_REACTORS
330
36A7
102
}
330
36A7
100
AcDbXrecord
280
     1
102
RTVSPost2010Prop28
280
     0
102
RTVSPost2010PropOp28
 70
     1
102
RTVSPost2010Prop29
280
     1
102
RTVSPost2010PropOp29
 70
     1
102
RTVSPost2010Prop30
280
     1
102
RTVSPost2010PropOp30
 70
     1
102
RTVSPost2010Prop31
280
     0
102
RTVSPost2010PropOp31
 70
     1
102
RTVSPost2010Prop32
280
     0
102
RTVSPost2010PropOp32
 70
     1
102
RTVSPost2010Prop33
280
     0
102
RTVSPost2010PropOp33
 70
     1
102
RTVSPost2010Prop34
280
     0
102
RTVSPost2010PropOp34
 70
     1
102
RTVSPost2010Prop35
280
     0
102
RTVSPost2010PropOp35
 70
     1
102
RTVSPost2010Prop36
280
     0
102
RTVSPost2010PropOp36
 70
     1
102
RTVSPost2010Prop37
 90
       50
102
RTVSPost2010PropOp37
 70
     0
102
RTVSPost2010Prop38
140
0.0
102
RTVSPost2010PropOp38
 70
     0
102
RTVSPost2010Prop39
140
1.0
102
RTVSPost2010PropOp39
 70
     0
102
RTVSPost2010Prop40
 90
        0
102
RTVSPost2010PropOp40
 70
     0
102
RTVSPost2010Prop41ColorIndex
 90
       18
102
RTVSPost2010Prop41ColorRGB
 90
        0
102
RTVSPost2010PropOp41
 70
     0
102
RTVSPost2010Prop42
 90
       50
102
RTVSPost2010PropOp42
 70
     0
102
RTVSPost2010Prop43
 90
        3
102
RTVSPost2010PropOp43
 70
     0
102
RTVSPost2010Prop44ColorIndex
 90
        5
102
RTVSPost2010Prop44ColorRGB
 90
      255
102
RTVSPost2010PropOp44
 70
     0
102
RTVSPost2010Prop45
280
     0
102
RTVSPost2010PropOp45
 70
     1
102
RTVSPost2010Prop46
 90
       50
102
RTVSPost2010PropOp46
 70
     0
102
RTVSPost2010Prop47
 90
       50
102
RTVSPost2010PropOp47
 70
     0
102
RTVSPost2010Prop48
 90
       50
102
RTVSPost2010PropOp48
 70
     0
102
RTVSPost2010Prop49
280
     0
102
RTVSPost2010PropOp49
 70
     1
102
RTVSPost2010Prop50
 90
       50
102
RTVSPost2010PropOp50
 70
     0
102
RTVSPost2010Prop51ColorIndex
 90
      256
102
RTVSPost2010Prop51ColorRGB
 90
-16777216
102
RTVSPost2010PropOp51
 70
     0
102
RTVSPost2010Prop52
140
1.0
102
RTVSPost2010PropOp52
 70
     0
102
RTVSPost2010Prop53
 90
        2
102
RTVSPost2010PropOp53
 70
     0
102
RTVSPost2010Prop54
  1
strokes_ogs.tif
102
RTVSPost2010PropOp54
 70
     0
102
RTVSPost2010Prop55
280
     0
102
RTVSPost2010PropOp55
 70
     1
102
RTVSPost2010Prop56
140
1.0
102
RTVSPost2010PropOp56
 70
     0
102
RTVSPost2010Prop57
140
1.0
102
RTVSPost2010PropOp57
 70
     0
102
RTVSPropertyOp0
 70
     0
102
RTVSPropertyOp1
 70
     0
102
RTVSPropertyOp2
 70
     0
102
RTVSPropertyOp3
 70
     0
102
RTVSPropertyOp4
 70
     0
102
RTVSPropertyOp5
 70
     0
102
RTVSPropertyOp6
 70
     0
102
RTVSPropertyOp7
 70
     0
102
RTVSPropertyOp8
 70
     0
102
RTVSPropertyOp9
 70
     0
102
RTVSPropertyOp10
 70
     0
102
RTVSPropertyOp11
 70
     0
102
RTVSPropertyOp12
 70
     0
102
RTVSPropertyOp13
 70
     0
102
RTVSPropertyOp14
 70
     2
102
RTVSPropertyOp15
 70
     0
102
RTVSPropertyOp16
 70
     0
102
RTVSPropertyOp17
 70
     0
102
RTVSPropertyOp18
 70
     0
102
RTVSPropertyOp19
 70
     0
102
RTVSPropertyOp20
 70
     0
102
RTVSPropertyOp21
 70
     0
102
RTVSPropertyOp22
 70
     0
102
RTVSPropertyOp23
 70
     0
102
RTVSPropertyOp24
 70
     0
102
RTVSPropertyOp25
 70
     0
102
RTVSPropertyOp26
 70
     0
102
RTVSPropertyOp27
 70
     0
102
RTVSPropertyOp28
 70
     1
102
RTVSPropertyOp29
 70
     1
102
RTVSPropertyOp30
 70
     1
102
RTVSPropertyOp31
 70
     1
102
RTVSPropertyOp32
 70
     1
102
RTVSPropertyOp33
 70
     1
102
RTVSPropertyOp34
 70
     1
102
RTVSPropertyOp35
 70
     1
102
RTVSPropertyOp36
 70
     1
102
RTVSPropertyOp37
 70
     0
102
RTVSPropertyOp38
 70
     0
102
RTVSPropertyOp39
 70
     0
102
RTVSPropertyOp40
 70
     0
102
RTVSPropertyOp41
 70
     0
102
RTVSPropertyOp42
 70
     0
102
RTVSPropertyOp43
 70
     0
102
RTVSPropertyOp44
 70
     0
102
RTVSPropertyOp45
 70
     1
102
RTVSPropertyOp46
 70
     0
102
RTVSPropertyOp47
 70
     0
102
RTVSPropertyOp48
 70
     0
102
RTVSPropertyOp49
 70
     1
102
RTVSPropertyOp50
 70
     0
102
RTVSPropertyOp51
 70
     0
102
RTVSPropertyOp52
 70
     0
102
RTVSPropertyOp53
 70
     0
102
RTVSPropertyOp54
 70
     0
102
RTVSPropertyOp55
 70
     1
102
RTVSPropertyOp56
 70
     0
102
RTVSPropertyOp57
 70
     0
102
RTVSPropertyOp58
 70
     0
102
RTVSPropertyOp59
 70
     0
102
RTVSPropertyOp60
 70
     0
102
RTVSPropertyOp61
 70
     0
102
RTVSPropertyOp62
 70
     0
  0
XRECORD
  5
3698
102
{ACAD_REACTORS
330
3697
102
}
330
3697
100
AcDbXrecord
280
     1
102
RTVSPost2010Prop28
280
     0
102
RTVSPost2010PropOp28
 70
     1
102
RTVSPost2010Prop29
280
     1
102
RTVSPost2010PropOp29
 70
     1
102
RTVSPost2010Prop30
280
     1
102
RTVSPost2010PropOp30
 70
     1
102
RTVSPost2010Prop31
280
     0
102
RTVSPost2010PropOp31
 70
     1
102
RTVSPost2010Prop32
280
     0
102
RTVSPost2010PropOp32
 70
     1
102
RTVSPost2010Prop33
280
     0
102
RTVSPost2010PropOp33
 70
     1
102
RTVSPost2010Prop34
280
     0
102
RTVSPost2010PropOp34
 70
     1
102
RTVSPost2010Prop35
280
     0
102
RTVSPost2010PropOp35
 70
     1
102
RTVSPost2010Prop36
280
     0
102
RTVSPost2010PropOp36
 70
     1
102
RTVSPost2010Prop37
 90
       50
102
RTVSPost2010PropOp37
 70
     1
102
RTVSPost2010Prop38
140
0.0
102
RTVSPost2010PropOp38
 70
     1
102
RTVSPost2010Prop39
140
1.0
102
RTVSPost2010PropOp39
 70
     1
102
RTVSPost2010Prop40
 90
        0
102
RTVSPost2010PropOp40
 70
     1
102
RTVSPost2010Prop41ColorIndex
 90
       18
102
RTVSPost2010Prop41ColorRGB
 90
        0
102
RTVSPost2010PropOp41
 70
     1
102
RTVSPost2010Prop42
 90
       50
102
RTVSPost2010PropOp42
 70
     1
102
RTVSPost2010Prop43
 90
        3
102
RTVSPost2010PropOp43
 70
     1
102
RTVSPost2010Prop44ColorIndex
 90
        5
102
RTVSPost2010Prop44ColorRGB
 90
      255
102
RTVSPost2010PropOp44
 70
     1
102
RTVSPost2010Prop45
280
     0
102
RTVSPost2010PropOp45
 70
     1
102
RTVSPost2010Prop46
 90
       50
102
RTVSPost2010PropOp46
 70
     1
102
RTVSPost2010Prop47
 90
       50
102
RTVSPost2010PropOp47
 70
     1
102
RTVSPost2010Prop48
 90
       50
102
RTVSPost2010PropOp48
 70
     1
102
RTVSPost2010Prop49
280
     0
102
RTVSPost2010PropOp49
 70
     1
102
RTVSPost2010Prop50
 90
       50
102
RTVSPost2010PropOp50
 70
     1
102
RTVSPost2010Prop51ColorIndex
 90
      256
102
RTVSPost2010Prop51ColorRGB
 90
-16777216
102
RTVSPost2010PropOp51
 70
     0
102
RTVSPost2010Prop52
140
1.0
102
RTVSPost2010PropOp52
 70
     0
102
RTVSPost2010Prop53
 90
        2
102
RTVSPost2010PropOp53
 70
     1
102
RTVSPost2010Prop54
  1
strokes_ogs.tif
102
RTVSPost2010PropOp54
 70
     1
102
RTVSPost2010Prop55
280
     0
102
RTVSPost2010PropOp55
 70
     1
102
RTVSPost2010Prop56
140
1.0
102
RTVSPost2010PropOp56
 70
     1
102
RTVSPost2010Prop57
140
1.0
102
RTVSPost2010PropOp57
 70
     1
102
RTVSPropertyOp0
 70
     1
102
RTVSPropertyOp1
 70
     1
102
RTVSPropertyOp2
 70
     1
102
RTVSPropertyOp3
 70
     1
102
RTVSPropertyOp4
 70
     1
102
RTVSPropertyOp5
 70
     1
102
RTVSPropertyOp6
 70
     1
102
RTVSPropertyOp7
 70
     1
102
RTVSPropertyOp8
 70
     1
102
RTVSPropertyOp9
 70
     1
102
RTVSPropertyOp10
 70
     1
102
RTVSPropertyOp11
 70
     1
102
RTVSPropertyOp12
 70
     1
102
RTVSPropertyOp13
 70
     1
102
RTVSPropertyOp14
 70
     1
102
RTVSPropertyOp15
 70
     1
102
RTVSPropertyOp16
 70
     1
102
RTVSPropertyOp17
 70
     1
102
RTVSPropertyOp18
 70
     1
102
RTVSPropertyOp19
 70
     1
102
RTVSPropertyOp20
 70
     1
102
RTVSPropertyOp21
 70
     1
102
RTVSPropertyOp22
 70
     1
102
RTVSPropertyOp23
 70
     1
102
RTVSPropertyOp24
 70
     1
102
RTVSPropertyOp25
 70
     1
102
RTVSPropertyOp26
 70
     1
102
RTVSPropertyOp27
 70
     1
102
RTVSPropertyOp28
 70
     1
102
RTVSPropertyOp29
 70
     1
102
RTVSPropertyOp30
 70
     1
102
RTVSPropertyOp31
 70
     1
102
RTVSPropertyOp32
 70
     1
102
RTVSPropertyOp33
 70
     1
102
RTVSPropertyOp34
 70
     1
102
RTVSPropertyOp35
 70
     1
102
RTVSPropertyOp36
 70
     1
102
RTVSPropertyOp37
 70
     1
102
RTVSPropertyOp38
 70
     1
102
RTVSPropertyOp39
 70
     1
102
RTVSPropertyOp40
 70
     1
102
RTVSPropertyOp41
 70
     1
102
RTVSPropertyOp42
 70
     1
102
RTVSPropertyOp43
 70
     1
102
RTVSPropertyOp44
 70
     1
102
RTVSPropertyOp45
 70
     1
102
RTVSPropertyOp46
 70
     1
102
RTVSPropertyOp47
 70
     1
102
RTVSPropertyOp48
 70
     1
102
RTVSPropertyOp49
 70
     1
102
RTVSPropertyOp50
 70
     1
102
RTVSPropertyOp51
 70
     0
102
RTVSPropertyOp52
 70
     0
102
RTVSPropertyOp53
 70
     1
102
RTVSPropertyOp54
 70
     1
102
RTVSPropertyOp55
 70
     1
102
RTVSPropertyOp56
 70
     1
102
RTVSPropertyOp57
 70
     1
102
RTVSPropertyOp58
 70
     1
102
RTVSPropertyOp59
 70
     1
102
RTVSPropertyOp60
 70
     1
102
RTVSPropertyOp61
 70
     1
102
RTVSPropertyOp62
 70
     1
  0
XRECORD
  5
36AA
102
{ACAD_REACTORS
330
36A9
102
}
330
36A9
100
AcDbXrecord
280
     1
102
RTVSPost2010Prop28
280
     0
102
RTVSPost2010PropOp28
 70
     1
102
RTVSPost2010Prop29
280
     1
102
RTVSPost2010PropOp29
 70
     1
102
RTVSPost2010Prop30
280
     1
102
RTVSPost2010PropOp30
 70
     1
102
RTVSPost2010Prop31
280
     0
102
RTVSPost2010PropOp31
 70
     1
102
RTVSPost2010Prop32
280
     0
102
RTVSPost2010PropOp32
 70
     1
102
RTVSPost2010Prop33
280
     0
102
RTVSPost2010PropOp33
 70
     1
102
RTVSPost2010Prop34
280
     0
102
RTVSPost2010PropOp34
 70
     1
102
RTVSPost2010Prop35
280
     0
102
RTVSPost2010PropOp35
 70
     1
102
RTVSPost2010Prop36
280
     0
102
RTVSPost2010PropOp36
 70
     1
102
RTVSPost2010Prop37
 90
       50
102
RTVSPost2010PropOp37
 70
     0
102
RTVSPost2010Prop38
140
0.0
102
RTVSPost2010PropOp38
 70
     0
102
RTVSPost2010Prop39
140
1.0
102
RTVSPost2010PropOp39
 70
     0
102
RTVSPost2010Prop40
 90
        0
102
RTVSPost2010PropOp40
 70
     0
102
RTVSPost2010Prop41ColorIndex
 90
       18
102
RTVSPost2010Prop41ColorRGB
 90
        0
102
RTVSPost2010PropOp41
 70
     0
102
RTVSPost2010Prop42
 90
       50
102
RTVSPost2010PropOp42
 70
     0
102
RTVSPost2010Prop43
 90
        3
102
RTVSPost2010PropOp43
 70
     0
102
RTVSPost2010Prop44ColorIndex
 90
        5
102
RTVSPost2010Prop44ColorRGB
 90
      255
102
RTVSPost2010PropOp44
 70
     0
102
RTVSPost2010Prop45
280
     0
102
RTVSPost2010PropOp45
 70
     1
102
RTVSPost2010Prop46
 90
       50
102
RTVSPost2010PropOp46
 70
     0
102
RTVSPost2010Prop47
 90
       50
102
RTVSPost2010PropOp47
 70
     0
102
RTVSPost2010Prop48
 90
       50
102
RTVSPost2010PropOp48
 70
     0
102
RTVSPost2010Prop49
280
     0
102
RTVSPost2010PropOp49
 70
     1
102
RTVSPost2010Prop50
 90
       50
102
RTVSPost2010PropOp50
 70
     0
102
RTVSPost2010Prop51ColorIndex
 90
      256
102
RTVSPost2010Prop51ColorRGB
 90
-16777216
102
RTVSPost2010PropOp51
 70
     0
102
RTVSPost2010Prop52
140
1.0
102
RTVSPost2010PropOp52
 70
     0
102
RTVSPost2010Prop53
 90
        2
102
RTVSPost2010PropOp53
 70
     0
102
RTVSPost2010Prop54
  1
strokes_ogs.tif
102
RTVSPost2010PropOp54
 70
     0
102
RTVSPost2010Prop55
280
     0
102
RTVSPost2010PropOp55
 70
     1
102
RTVSPost2010Prop56
140
1.0
102
RTVSPost2010PropOp56
 70
     0
102
RTVSPost2010Prop57
140
1.0
102
RTVSPost2010PropOp57
 70
     0
102
RTVSPropertyOp0
 70
     0
102
RTVSPropertyOp1
 70
     0
102
RTVSPropertyOp2
 70
     0
102
RTVSPropertyOp3
 70
     0
102
RTVSPropertyOp4
 70
     0
102
RTVSPropertyOp5
 70
     0
102
RTVSPropertyOp6
 70
     0
102
RTVSPropertyOp7
 70
     0
102
RTVSPropertyOp8
 70
     0
102
RTVSPropertyOp9
 70
     0
102
RTVSPropertyOp10
 70
     0
102
RTVSPropertyOp11
 70
     0
102
RTVSPropertyOp12
 70
     0
102
RTVSPropertyOp13
 70
     0
102
RTVSPropertyOp14
 70
     2
102
RTVSPropertyOp15
 70
     0
102
RTVSPropertyOp16
 70
     0
102
RTVSPropertyOp17
 70
     0
102
RTVSPropertyOp18
 70
     0
102
RTVSPropertyOp19
 70
     0
102
RTVSPropertyOp20
 70
     0
102
RTVSPropertyOp21
 70
     0
102
RTVSPropertyOp22
 70
     0
102
RTVSPropertyOp23
 70
     0
102
RTVSPropertyOp24
 70
     0
102
RTVSPropertyOp25
 70
     0
102
RTVSPropertyOp26
 70
     0
102
RTVSPropertyOp27
 70
     0
102
RTVSPropertyOp28
 70
     1
102
RTVSPropertyOp29
 70
     1
102
RTVSPropertyOp30
 70
     1
102
RTVSPropertyOp31
 70
     1
102
RTVSPropertyOp32
 70
     1
102
RTVSPropertyOp33
 70
     1
102
RTVSPropertyOp34
 70
     1
102
RTVSPropertyOp35
 70
     1
102
RTVSPropertyOp36
 70
     1
102
RTVSPropertyOp37
 70
     0
102
RTVSPropertyOp38
 70
     0
102
RTVSPropertyOp39
 70
     0
102
RTVSPropertyOp40
 70
     0
102
RTVSPropertyOp41
 70
     0
102
RTVSPropertyOp42
 70
     0
102
RTVSPropertyOp43
 70
     0
102
RTVSPropertyOp44
 70
     0
102
RTVSPropertyOp45
 70
     1
102
RTVSPropertyOp46
 70
     0
102
RTVSPropertyOp47
 70
     0
102
RTVSPropertyOp48
 70
     0
102
RTVSPropertyOp49
 70
     1
102
RTVSPropertyOp50
 70
     0
102
RTVSPropertyOp51
 70
     0
102
RTVSPropertyOp52
 70
     0
102
RTVSPropertyOp53
 70
     0
102
RTVSPropertyOp54
 70
     0
102
RTVSPropertyOp55
 70
     1
102
RTVSPropertyOp56
 70
     0
102
RTVSPropertyOp57
 70
     0
102
RTVSPropertyOp58
 70
     0
102
RTVSPropertyOp59
 70
     0
102
RTVSPropertyOp60
 70
     0
102
RTVSPropertyOp61
 70
     0
102
RTVSPropertyOp62
 70
     0
  0
XRECORD
  5
3690
102
{ACAD_REACTORS
330
368F
102
}
330
368F
100
AcDbXrecord
280
     1
102
RTVSPost2010Prop28
280
     0
102
RTVSPost2010PropOp28
 70
     1
102
RTVSPost2010Prop29
280
     1
102
RTVSPost2010PropOp29
 70
     1
102
RTVSPost2010Prop30
280
     1
102
RTVSPost2010PropOp30
 70
     1
102
RTVSPost2010Prop31
280
     0
102
RTVSPost2010PropOp31
 70
     1
102
RTVSPost2010Prop32
280
     0
102
RTVSPost2010PropOp32
 70
     1
102
RTVSPost2010Prop33
280
     0
102
RTVSPost2010PropOp33
 70
     1
102
RTVSPost2010Prop34
280
     0
102
RTVSPost2010PropOp34
 70
     1
102
RTVSPost2010Prop35
280
     0
102
RTVSPost2010PropOp35
 70
     1
102
RTVSPost2010Prop36
280
     0
102
RTVSPost2010PropOp36
 70
     1
102
RTVSPost2010Prop37
 90
       50
102
RTVSPost2010PropOp37
 70
     1
102
RTVSPost2010Prop38
140
0.0
102
RTVSPost2010PropOp38
 70
     1
102
RTVSPost2010Prop39
140
1.0
102
RTVSPost2010PropOp39
 70
     1
102
RTVSPost2010Prop40
 90
        0
102
RTVSPost2010PropOp40
 70
     1
102
RTVSPost2010Prop41ColorIndex
 90
       18
102
RTVSPost2010Prop41ColorRGB
 90
        0
102
RTVSPost2010PropOp41
 70
     1
102
RTVSPost2010Prop42
 90
       50
102
RTVSPost2010PropOp42
 70
     1
102
RTVSPost2010Prop43
 90
        3
102
RTVSPost2010PropOp43
 70
     1
102
RTVSPost2010Prop44ColorIndex
 90
        5
102
RTVSPost2010Prop44ColorRGB
 90
      255
102
RTVSPost2010PropOp44
 70
     1
102
RTVSPost2010Prop45
280
     0
102
RTVSPost2010PropOp45
 70
     1
102
RTVSPost2010Prop46
 90
       50
102
RTVSPost2010PropOp46
 70
     1
102
RTVSPost2010Prop47
 90
       50
102
RTVSPost2010PropOp47
 70
     1
102
RTVSPost2010Prop48
 90
       50
102
RTVSPost2010PropOp48
 70
     1
102
RTVSPost2010Prop49
280
     0
102
RTVSPost2010PropOp49
 70
     1
102
RTVSPost2010Prop50
 90
       50
102
RTVSPost2010PropOp50
 70
     1
102
RTVSPost2010Prop51ColorIndex
 90
      256
102
RTVSPost2010Prop51ColorRGB
 90
-16777216
102
RTVSPost2010PropOp51
 70
     0
102
RTVSPost2010Prop52
140
1.0
102
RTVSPost2010PropOp52
 70
     0
102
RTVSPost2010Prop53
 90
        2
102
RTVSPost2010PropOp53
 70
     1
102
RTVSPost2010Prop54
  1
strokes_ogs.tif
102
RTVSPost2010PropOp54
 70
     1
102
RTVSPost2010Prop55
280
     0
102
RTVSPost2010PropOp55
 70
     1
102
RTVSPost2010Prop56
140
1.0
102
RTVSPost2010PropOp56
 70
     1
102
RTVSPost2010Prop57
140
1.0
102
RTVSPost2010PropOp57
 70
     1
102
RTVSPropertyOp0
 70
     1
102
RTVSPropertyOp1
 70
     1
102
RTVSPropertyOp2
 70
     1
102
RTVSPropertyOp3
 70
     1
102
RTVSPropertyOp4
 70
     1
102
RTVSPropertyOp5
 70
     1
102
RTVSPropertyOp6
 70
     1
102
RTVSPropertyOp7
 70
     1
102
RTVSPropertyOp8
 70
     1
102
RTVSPropertyOp9
 70
     1
102
RTVSPropertyOp10
 70
     1
102
RTVSPropertyOp11
 70
     1
102
RTVSPropertyOp12
 70
     1
102
RTVSPropertyOp13
 70
     1
102
RTVSPropertyOp14
 70
     1
102
RTVSPropertyOp15
 70
     1
102
RTVSPropertyOp16
 70
     1
102
RTVSPropertyOp17
 70
     1
102
RTVSPropertyOp18
 70
     1
102
RTVSPropertyOp19
 70
     1
102
RTVSPropertyOp20
 70
     1
102
RTVSPropertyOp21
 70
     1
102
RTVSPropertyOp22
 70
     1
102
RTVSPropertyOp23
 70
     1
102
RTVSPropertyOp24
 70
     1
102
RTVSPropertyOp25
 70
     1
102
RTVSPropertyOp26
 70
     1
102
RTVSPropertyOp27
 70
     1
102
RTVSPropertyOp28
 70
     1
102
RTVSPropertyOp29
 70
     1
102
RTVSPropertyOp30
 70
     1
102
RTVSPropertyOp31
 70
     1
102
RTVSPropertyOp32
 70
     1
102
RTVSPropertyOp33
 70
     1
102
RTVSPropertyOp34
 70
     1
102
RTVSPropertyOp35
 70
     1
102
RTVSPropertyOp36
 70
     1
102
RTVSPropertyOp37
 70
     1
102
RTVSPropertyOp38
 70
     1
102
RTVSPropertyOp39
 70
     1
102
RTVSPropertyOp40
 70
     1
102
RTVSPropertyOp41
 70
     1
102
RTVSPropertyOp42
 70
     1
102
RTVSPropertyOp43
 70
     1
102
RTVSPropertyOp44
 70
     1
102
RTVSPropertyOp45
 70
     1
102
RTVSPropertyOp46
 70
     1
102
RTVSPropertyOp47
 70
     1
102
RTVSPropertyOp48
 70
     1
102
RTVSPropertyOp49
 70
     1
102
RTVSPropertyOp50
 70
     1
102
RTVSPropertyOp51
 70
     0
102
RTVSPropertyOp52
 70
     0
102
RTVSPropertyOp53
 70
     1
102
RTVSPropertyOp54
 70
     1
102
RTVSPropertyOp55
 70
     1
102
RTVSPropertyOp56
 70
     1
102
RTVSPropertyOp57
 70
     1
102
RTVSPropertyOp58
 70
     1
102
RTVSPropertyOp59
 70
     1
102
RTVSPropertyOp60
 70
     1
102
RTVSPropertyOp61
 70
     1
102
RTVSPropertyOp62
 70
     1
  0
XRECORD
  5
36A6
102
{ACAD_REACTORS
330
36A5
102
}
330
36A5
100
AcDbXrecord
280
     1
102
RTVSPost2010Prop28
280
     0
102
RTVSPost2010PropOp28
 70
     1
102
RTVSPost2010Prop29
280
     1
102
RTVSPost2010PropOp29
 70
     1
102
RTVSPost2010Prop30
280
     1
102
RTVSPost2010PropOp30
 70
     1
102
RTVSPost2010Prop31
280
     0
102
RTVSPost2010PropOp31
 70
     1
102
RTVSPost2010Prop32
280
     0
102
RTVSPost2010PropOp32
 70
     1
102
RTVSPost2010Prop33
280
     0
102
RTVSPost2010PropOp33
 70
     1
102
RTVSPost2010Prop34
280
     0
102
RTVSPost2010PropOp34
 70
     1
102
RTVSPost2010Prop35
280
     0
102
RTVSPost2010PropOp35
 70
     1
102
RTVSPost2010Prop36
280
     0
102
RTVSPost2010PropOp36
 70
     1
102
RTVSPost2010Prop37
 90
       50
102
RTVSPost2010PropOp37
 70
     1
102
RTVSPost2010Prop38
140
0.0
102
RTVSPost2010PropOp38
 70
     1
102
RTVSPost2010Prop39
140
1.0
102
RTVSPost2010PropOp39
 70
     1
102
RTVSPost2010Prop40
 90
        0
102
RTVSPost2010PropOp40
 70
     1
102
RTVSPost2010Prop41ColorIndex
 90
       18
102
RTVSPost2010Prop41ColorRGB
 90
        0
102
RTVSPost2010PropOp41
 70
     1
102
RTVSPost2010Prop42
 90
       50
102
RTVSPost2010PropOp42
 70
     1
102
RTVSPost2010Prop43
 90
        3
102
RTVSPost2010PropOp43
 70
     1
102
RTVSPost2010Prop44ColorIndex
 90
        5
102
RTVSPost2010Prop44ColorRGB
 90
      255
102
RTVSPost2010PropOp44
 70
     1
102
RTVSPost2010Prop45
280
     0
102
RTVSPost2010PropOp45
 70
     1
102
RTVSPost2010Prop46
 90
       50
102
RTVSPost2010PropOp46
 70
     1
102
RTVSPost2010Prop47
 90
       50
102
RTVSPost2010PropOp47
 70
     1
102
RTVSPost2010Prop48
 90
       50
102
RTVSPost2010PropOp48
 70
     1
102
RTVSPost2010Prop49
280
     0
102
RTVSPost2010PropOp49
 70
     1
102
RTVSPost2010Prop50
 90
       50
102
RTVSPost2010PropOp50
 70
     1
102
RTVSPost2010Prop51ColorIndex
 90
      256
102
RTVSPost2010Prop51ColorRGB
 90
-16777216
102
RTVSPost2010PropOp51
 70
     0
102
RTVSPost2010Prop52
140
1.0
102
RTVSPost2010PropOp52
 70
     0
102
RTVSPost2010Prop53
 90
        2
102
RTVSPost2010PropOp53
 70
     1
102
RTVSPost2010Prop54
  1
strokes_ogs.tif
102
RTVSPost2010PropOp54
 70
     1
102
RTVSPost2010Prop55
280
     0
102
RTVSPost2010PropOp55
 70
     1
102
RTVSPost2010Prop56
140
1.0
102
RTVSPost2010PropOp56
 70
     1
102
RTVSPost2010Prop57
140
1.0
102
RTVSPost2010PropOp57
 70
     1
102
RTVSPropertyOp0
 70
     1
102
RTVSPropertyOp1
 70
     1
102
RTVSPropertyOp2
 70
     1
102
RTVSPropertyOp3
 70
     1
102
RTVSPropertyOp4
 70
     1
102
RTVSPropertyOp5
 70
     1
102
RTVSPropertyOp6
 70
     1
102
RTVSPropertyOp7
 70
     1
102
RTVSPropertyOp8
 70
     1
102
RTVSPropertyOp9
 70
     1
102
RTVSPropertyOp10
 70
     1
102
RTVSPropertyOp11
 70
     1
102
RTVSPropertyOp12
 70
     1
102
RTVSPropertyOp13
 70
     1
102
RTVSPropertyOp14
 70
     1
102
RTVSPropertyOp15
 70
     1
102
RTVSPropertyOp16
 70
     1
102
RTVSPropertyOp17
 70
     1
102
RTVSPropertyOp18
 70
     1
102
RTVSPropertyOp19
 70
     1
102
RTVSPropertyOp20
 70
     1
102
RTVSPropertyOp21
 70
     1
102
RTVSPropertyOp22
 70
     1
102
RTVSPropertyOp23
 70
     1
102
RTVSPropertyOp24
 70
     1
102
RTVSPropertyOp25
 70
     1
102
RTVSPropertyOp26
 70
     1
102
RTVSPropertyOp27
 70
     1
102
RTVSPropertyOp28
 70
     1
102
RTVSPropertyOp29
 70
     1
102
RTVSPropertyOp30
 70
     1
102
RTVSPropertyOp31
 70
     1
102
RTVSPropertyOp32
 70
     1
102
RTVSPropertyOp33
 70
     1
102
RTVSPropertyOp34
 70
     1
102
RTVSPropertyOp35
 70
     1
102
RTVSPropertyOp36
 70
     1
102
RTVSPropertyOp37
 70
     1
102
RTVSPropertyOp38
 70
     1
102
RTVSPropertyOp39
 70
     1
102
RTVSPropertyOp40
 70
     1
102
RTVSPropertyOp41
 70
     1
102
RTVSPropertyOp42
 70
     1
102
RTVSPropertyOp43
 70
     1
102
RTVSPropertyOp44
 70
     1
102
RTVSPropertyOp45
 70
     1
102
RTVSPropertyOp46
 70
     1
102
RTVSPropertyOp47
 70
     1
102
RTVSPropertyOp48
 70
     1
102
RTVSPropertyOp49
 70
     1
102
RTVSPropertyOp50
 70
     1
102
RTVSPropertyOp51
 70
     0
102
RTVSPropertyOp52
 70
     0
102
RTVSPropertyOp53
 70
     1
102
RTVSPropertyOp54
 70
     1
102
RTVSPropertyOp55
 70
     1
102
RTVSPropertyOp56
 70
     1
102
RTVSPropertyOp57
 70
     1
102
RTVSPropertyOp58
 70
     1
102
RTVSPropertyOp59
 70
     1
102
RTVSPropertyOp60
 70
     1
102
RTVSPropertyOp61
 70
     1
102
RTVSPropertyOp62
 70
     1
  0
XRECORD
  5
36A4
102
{ACAD_REACTORS
330
36A3
102
}
330
36A3
100
AcDbXrecord
280
     1
102
RTVSPost2010Prop28
280
     0
102
RTVSPost2010PropOp28
 70
     1
102
RTVSPost2010Prop29
280
     1
102
RTVSPost2010PropOp29
 70
     1
102
RTVSPost2010Prop30
280
     1
102
RTVSPost2010PropOp30
 70
     1
102
RTVSPost2010Prop31
280
     0
102
RTVSPost2010PropOp31
 70
     1
102
RTVSPost2010Prop32
280
     0
102
RTVSPost2010PropOp32
 70
     1
102
RTVSPost2010Prop33
280
     0
102
RTVSPost2010PropOp33
 70
     1
102
RTVSPost2010Prop34
280
     0
102
RTVSPost2010PropOp34
 70
     1
102
RTVSPost2010Prop35
280
     0
102
RTVSPost2010PropOp35
 70
     1
102
RTVSPost2010Prop36
280
     0
102
RTVSPost2010PropOp36
 70
     1
102
RTVSPost2010Prop37
 90
       50
102
RTVSPost2010PropOp37
 70
     1
102
RTVSPost2010Prop38
140
0.0
102
RTVSPost2010PropOp38
 70
     1
102
RTVSPost2010Prop39
140
1.0
102
RTVSPost2010PropOp39
 70
     1
102
RTVSPost2010Prop40
 90
        0
102
RTVSPost2010PropOp40
 70
     1
102
RTVSPost2010Prop41ColorIndex
 90
       18
102
RTVSPost2010Prop41ColorRGB
 90
        0
102
RTVSPost2010PropOp41
 70
     1
102
RTVSPost2010Prop42
 90
       50
102
RTVSPost2010PropOp42
 70
     1
102
RTVSPost2010Prop43
 90
        3
102
RTVSPost2010PropOp43
 70
     1
102
RTVSPost2010Prop44ColorIndex
 90
        5
102
RTVSPost2010Prop44ColorRGB
 90
      255
102
RTVSPost2010PropOp44
 70
     1
102
RTVSPost2010Prop45
280
     0
102
RTVSPost2010PropOp45
 70
     1
102
RTVSPost2010Prop46
 90
       50
102
RTVSPost2010PropOp46
 70
     1
102
RTVSPost2010Prop47
 90
       50
102
RTVSPost2010PropOp47
 70
     1
102
RTVSPost2010Prop48
 90
       50
102
RTVSPost2010PropOp48
 70
     1
102
RTVSPost2010Prop49
280
     0
102
RTVSPost2010PropOp49
 70
     1
102
RTVSPost2010Prop50
 90
       50
102
RTVSPost2010PropOp50
 70
     1
102
RTVSPost2010Prop51ColorIndex
 90
      256
102
RTVSPost2010Prop51ColorRGB
 90
-16777216
102
RTVSPost2010PropOp51
 70
     0
102
RTVSPost2010Prop52
140
1.0
102
RTVSPost2010PropOp52
 70
     0
102
RTVSPost2010Prop53
 90
        2
102
RTVSPost2010PropOp53
 70
     1
102
RTVSPost2010Prop54
  1
strokes_ogs.tif
102
RTVSPost2010PropOp54
 70
     1
102
RTVSPost2010Prop55
280
     0
102
RTVSPost2010PropOp55
 70
     1
102
RTVSPost2010Prop56
140
1.0
102
RTVSPost2010PropOp56
 70
     1
102
RTVSPost2010Prop57
140
1.0
102
RTVSPost2010PropOp57
 70
     1
102
RTVSPropertyOp0
 70
     1
102
RTVSPropertyOp1
 70
     1
102
RTVSPropertyOp2
 70
     1
102
RTVSPropertyOp3
 70
     1
102
RTVSPropertyOp4
 70
     1
102
RTVSPropertyOp5
 70
     1
102
RTVSPropertyOp6
 70
     1
102
RTVSPropertyOp7
 70
     1
102
RTVSPropertyOp8
 70
     1
102
RTVSPropertyOp9
 70
     1
102
RTVSPropertyOp10
 70
     1
102
RTVSPropertyOp11
 70
     1
102
RTVSPropertyOp12
 70
     1
102
RTVSPropertyOp13
 70
     1
102
RTVSPropertyOp14
 70
     1
102
RTVSPropertyOp15
 70
     1
102
RTVSPropertyOp16
 70
     1
102
RTVSPropertyOp17
 70
     1
102
RTVSPropertyOp18
 70
     1
102
RTVSPropertyOp19
 70
     1
102
RTVSPropertyOp20
 70
     1
102
RTVSPropertyOp21
 70
     1
102
RTVSPropertyOp22
 70
     1
102
RTVSPropertyOp23
 70
     1
102
RTVSPropertyOp24
 70
     1
102
RTVSPropertyOp25
 70
     1
102
RTVSPropertyOp26
 70
     1
102
RTVSPropertyOp27
 70
     1
102
RTVSPropertyOp28
 70
     1
102
RTVSPropertyOp29
 70
     1
102
RTVSPropertyOp30
 70
     1
102
RTVSPropertyOp31
 70
     1
102
RTVSPropertyOp32
 70
     1
102
RTVSPropertyOp33
 70
     1
102
RTVSPropertyOp34
 70
     1
102
RTVSPropertyOp35
 70
     1
102
RTVSPropertyOp36
 70
     1
102
RTVSPropertyOp37
 70
     1
102
RTVSPropertyOp38
 70
     1
102
RTVSPropertyOp39
 70
     1
102
RTVSPropertyOp40
 70
     1
102
RTVSPropertyOp41
 70
     1
102
RTVSPropertyOp42
 70
     1
102
RTVSPropertyOp43
 70
     1
102
RTVSPropertyOp44
 70
     1
102
RTVSPropertyOp45
 70
     1
102
RTVSPropertyOp46
 70
     1
102
RTVSPropertyOp47
 70
     1
102
RTVSPropertyOp48
 70
     1
102
RTVSPropertyOp49
 70
     1
102
RTVSPropertyOp50
 70
     1
102
RTVSPropertyOp51
 70
     0
102
RTVSPropertyOp52
 70
     0
102
RTVSPropertyOp53
 70
     1
102
RTVSPropertyOp54
 70
     1
102
RTVSPropertyOp55
 70
     1
102
RTVSPropertyOp56
 70
     1
102
RTVSPropertyOp57
 70
     1
102
RTVSPropertyOp58
 70
     1
102
RTVSPropertyOp59
 70
     1
102
RTVSPropertyOp60
 70
     1
102
RTVSPropertyOp61
 70
     1
102
RTVSPropertyOp62
 70
     1
  0
XRECORD
  5
369E
102
{ACAD_REACTORS
330
369D
102
}
330
369D
100
AcDbXrecord
280
     1
102
RTVSPost2010Prop28
280
     0
102
RTVSPost2010PropOp28
 70
     1
102
RTVSPost2010Prop29
280
     1
102
RTVSPost2010PropOp29
 70
     1
102
RTVSPost2010Prop30
280
     1
102
RTVSPost2010PropOp30
 70
     1
102
RTVSPost2010Prop31
280
     0
102
RTVSPost2010PropOp31
 70
     1
102
RTVSPost2010Prop32
280
     0
102
RTVSPost2010PropOp32
 70
     1
102
RTVSPost2010Prop33
280
     0
102
RTVSPost2010PropOp33
 70
     1
102
RTVSPost2010Prop34
280
     0
102
RTVSPost2010PropOp34
 70
     1
102
RTVSPost2010Prop35
280
     0
102
RTVSPost2010PropOp35
 70
     1
102
RTVSPost2010Prop36
280
     0
102
RTVSPost2010PropOp36
 70
     1
102
RTVSPost2010Prop37
 90
       50
102
RTVSPost2010PropOp37
 70
     1
102
RTVSPost2010Prop38
140
0.0
102
RTVSPost2010PropOp38
 70
     1
102
RTVSPost2010Prop39
140
1.0
102
RTVSPost2010PropOp39
 70
     1
102
RTVSPost2010Prop40
 90
        0
102
RTVSPost2010PropOp40
 70
     1
102
RTVSPost2010Prop41ColorIndex
 90
       18
102
RTVSPost2010Prop41ColorRGB
 90
        0
102
RTVSPost2010PropOp41
 70
     1
102
RTVSPost2010Prop42
 90
       50
102
RTVSPost2010PropOp42
 70
     1
102
RTVSPost2010Prop43
 90
        3
102
RTVSPost2010PropOp43
 70
     1
102
RTVSPost2010Prop44ColorIndex
 90
        5
102
RTVSPost2010Prop44ColorRGB
 90
      255
102
RTVSPost2010PropOp44
 70
     1
102
RTVSPost2010Prop45
280
     0
102
RTVSPost2010PropOp45
 70
     1
102
RTVSPost2010Prop46
 90
       50
102
RTVSPost2010PropOp46
 70
     1
102
RTVSPost2010Prop47
 90
       50
102
RTVSPost2010PropOp47
 70
     1
102
RTVSPost2010Prop48
 90
       50
102
RTVSPost2010PropOp48
 70
     1
102
RTVSPost2010Prop49
280
     0
102
RTVSPost2010PropOp49
 70
     1
102
RTVSPost2010Prop50
 90
       50
102
RTVSPost2010PropOp50
 70
     1
102
RTVSPost2010Prop51ColorIndex
 90
      256
102
RTVSPost2010Prop51ColorRGB
 90
-16777216
102
RTVSPost2010PropOp51
 70
     0
102
RTVSPost2010Prop52
140
1.0
102
RTVSPost2010PropOp52
 70
     0
102
RTVSPost2010Prop53
 90
        2
102
RTVSPost2010PropOp53
 70
     1
102
RTVSPost2010Prop54
  1
strokes_ogs.tif
102
RTVSPost2010PropOp54
 70
     1
102
RTVSPost2010Prop55
280
     0
102
RTVSPost2010PropOp55
 70
     1
102
RTVSPost2010Prop56
140
1.0
102
RTVSPost2010PropOp56
 70
     1
102
RTVSPost2010Prop57
140
1.0
102
RTVSPost2010PropOp57
 70
     1
102
RTVSPropertyOp0
 70
     1
102
RTVSPropertyOp1
 70
     1
102
RTVSPropertyOp2
 70
     1
102
RTVSPropertyOp3
 70
     1
102
RTVSPropertyOp4
 70
     1
102
RTVSPropertyOp5
 70
     1
102
RTVSPropertyOp6
 70
     1
102
RTVSPropertyOp7
 70
     1
102
RTVSPropertyOp8
 70
     1
102
RTVSPropertyOp9
 70
     1
102
RTVSPropertyOp10
 70
     1
102
RTVSPropertyOp11
 70
     1
102
RTVSPropertyOp12
 70
     1
102
RTVSPropertyOp13
 70
     1
102
RTVSPropertyOp14
 70
     1
102
RTVSPropertyOp15
 70
     1
102
RTVSPropertyOp16
 70
     1
102
RTVSPropertyOp17
 70
     1
102
RTVSPropertyOp18
 70
     1
102
RTVSPropertyOp19
 70
     1
102
RTVSPropertyOp20
 70
     1
102
RTVSPropertyOp21
 70
     1
102
RTVSPropertyOp22
 70
     1
102
RTVSPropertyOp23
 70
     1
102
RTVSPropertyOp24
 70
     1
102
RTVSPropertyOp25
 70
     1
102
RTVSPropertyOp26
 70
     1
102
RTVSPropertyOp27
 70
     1
102
RTVSPropertyOp28
 70
     1
102
RTVSPropertyOp29
 70
     1
102
RTVSPropertyOp30
 70
     1
102
RTVSPropertyOp31
 70
     1
102
RTVSPropertyOp32
 70
     1
102
RTVSPropertyOp33
 70
     1
102
RTVSPropertyOp34
 70
     1
102
RTVSPropertyOp35
 70
     1
102
RTVSPropertyOp36
 70
     1
102
RTVSPropertyOp37
 70
     1
102
RTVSPropertyOp38
 70
     1
102
RTVSPropertyOp39
 70
     1
102
RTVSPropertyOp40
 70
     1
102
RTVSPropertyOp41
 70
     1
102
RTVSPropertyOp42
 70
     1
102
RTVSPropertyOp43
 70
     1
102
RTVSPropertyOp44
 70
     1
102
RTVSPropertyOp45
 70
     1
102
RTVSPropertyOp46
 70
     1
102
RTVSPropertyOp47
 70
     1
102
RTVSPropertyOp48
 70
     1
102
RTVSPropertyOp49
 70
     1
102
RTVSPropertyOp50
 70
     1
102
RTVSPropertyOp51
 70
     0
102
RTVSPropertyOp52
 70
     0
102
RTVSPropertyOp53
 70
     1
102
RTVSPropertyOp54
 70
     1
102
RTVSPropertyOp55
 70
     1
102
RTVSPropertyOp56
 70
     1
102
RTVSPropertyOp57
 70
     1
102
RTVSPropertyOp58
 70
     1
102
RTVSPropertyOp59
 70
     1
102
RTVSPropertyOp60
 70
     1
102
RTVSPropertyOp61
 70
     1
102
RTVSPropertyOp62
 70
     1
  0
XRECORD
  5
36A0
102
{ACAD_REACTORS
330
369F
102
}
330
369F
100
AcDbXrecord
280
     1
102
RTVSPost2010Prop28
280
     0
102
RTVSPost2010PropOp28
 70
     1
102
RTVSPost2010Prop29
280
     1
102
RTVSPost2010PropOp29
 70
     1
102
RTVSPost2010Prop30
280
     1
102
RTVSPost2010PropOp30
 70
     1
102
RTVSPost2010Prop31
280
     0
102
RTVSPost2010PropOp31
 70
     1
102
RTVSPost2010Prop32
280
     0
102
RTVSPost2010PropOp32
 70
     1
102
RTVSPost2010Prop33
280
     0
102
RTVSPost2010PropOp33
 70
     1
102
RTVSPost2010Prop34
280
     0
102
RTVSPost2010PropOp34
 70
     1
102
RTVSPost2010Prop35
280
     0
102
RTVSPost2010PropOp35
 70
     1
102
RTVSPost2010Prop36
280
     0
102
RTVSPost2010PropOp36
 70
     1
102
RTVSPost2010Prop37
 90
       50
102
RTVSPost2010PropOp37
 70
     1
102
RTVSPost2010Prop38
140
0.0
102
RTVSPost2010PropOp38
 70
     1
102
RTVSPost2010Prop39
140
1.0
102
RTVSPost2010PropOp39
 70
     1
102
RTVSPost2010Prop40
 90
        0
102
RTVSPost2010PropOp40
 70
     1
102
RTVSPost2010Prop41ColorIndex
 90
       18
102
RTVSPost2010Prop41ColorRGB
 90
        0
102
RTVSPost2010PropOp41
 70
     1
102
RTVSPost2010Prop42
 90
       50
102
RTVSPost2010PropOp42
 70
     1
102
RTVSPost2010Prop43
 90
        3
102
RTVSPost2010PropOp43
 70
     1
102
RTVSPost2010Prop44ColorIndex
 90
        5
102
RTVSPost2010Prop44ColorRGB
 90
      255
102
RTVSPost2010PropOp44
 70
     1
102
RTVSPost2010Prop45
280
     0
102
RTVSPost2010PropOp45
 70
     1
102
RTVSPost2010Prop46
 90
       50
102
RTVSPost2010PropOp46
 70
     1
102
RTVSPost2010Prop47
 90
       50
102
RTVSPost2010PropOp47
 70
     1
102
RTVSPost2010Prop48
 90
       50
102
RTVSPost2010PropOp48
 70
     1
102
RTVSPost2010Prop49
280
     0
102
RTVSPost2010PropOp49
 70
     1
102
RTVSPost2010Prop50
 90
       50
102
RTVSPost2010PropOp50
 70
     1
102
RTVSPost2010Prop51ColorIndex
 90
      256
102
RTVSPost2010Prop51ColorRGB
 90
-16777216
102
RTVSPost2010PropOp51
 70
     0
102
RTVSPost2010Prop52
140
1.0
102
RTVSPost2010PropOp52
 70
     0
102
RTVSPost2010Prop53
 90
        2
102
RTVSPost2010PropOp53
 70
     1
102
RTVSPost2010Prop54
  1
strokes_ogs.tif
102
RTVSPost2010PropOp54
 70
     1
102
RTVSPost2010Prop55
280
     0
102
RTVSPost2010PropOp55
 70
     1
102
RTVSPost2010Prop56
140
1.0
102
RTVSPost2010PropOp56
 70
     1
102
RTVSPost2010Prop57
140
1.0
102
RTVSPost2010PropOp57
 70
     1
102
RTVSPropertyOp0
 70
     1
102
RTVSPropertyOp1
 70
     1
102
RTVSPropertyOp2
 70
     1
102
RTVSPropertyOp3
 70
     1
102
RTVSPropertyOp4
 70
     1
102
RTVSPropertyOp5
 70
     1
102
RTVSPropertyOp6
 70
     1
102
RTVSPropertyOp7
 70
     1
102
RTVSPropertyOp8
 70
     1
102
RTVSPropertyOp9
 70
     1
102
RTVSPropertyOp10
 70
     1
102
RTVSPropertyOp11
 70
     1
102
RTVSPropertyOp12
 70
     1
102
RTVSPropertyOp13
 70
     1
102
RTVSPropertyOp14
 70
     1
102
RTVSPropertyOp15
 70
     1
102
RTVSPropertyOp16
 70
     1
102
RTVSPropertyOp17
 70
     1
102
RTVSPropertyOp18
 70
     1
102
RTVSPropertyOp19
 70
     1
102
RTVSPropertyOp20
 70
     1
102
RTVSPropertyOp21
 70
     1
102
RTVSPropertyOp22
 70
     1
102
RTVSPropertyOp23
 70
     1
102
RTVSPropertyOp24
 70
     1
102
RTVSPropertyOp25
 70
     1
102
RTVSPropertyOp26
 70
     1
102
RTVSPropertyOp27
 70
     1
102
RTVSPropertyOp28
 70
     1
102
RTVSPropertyOp29
 70
     1
102
RTVSPropertyOp30
 70
     1
102
RTVSPropertyOp31
 70
     1
102
RTVSPropertyOp32
 70
     1
102
RTVSPropertyOp33
 70
     1
102
RTVSPropertyOp34
 70
     1
102
RTVSPropertyOp35
 70
     1
102
RTVSPropertyOp36
 70
     1
102
RTVSPropertyOp37
 70
     1
102
RTVSPropertyOp38
 70
     1
102
RTVSPropertyOp39
 70
     1
102
RTVSPropertyOp40
 70
     1
102
RTVSPropertyOp41
 70
     1
102
RTVSPropertyOp42
 70
     1
102
RTVSPropertyOp43
 70
     1
102
RTVSPropertyOp44
 70
     1
102
RTVSPropertyOp45
 70
     1
102
RTVSPropertyOp46
 70
     1
102
RTVSPropertyOp47
 70
     1
102
RTVSPropertyOp48
 70
     1
102
RTVSPropertyOp49
 70
     1
102
RTVSPropertyOp50
 70
     1
102
RTVSPropertyOp51
 70
     0
102
RTVSPropertyOp52
 70
     0
102
RTVSPropertyOp53
 70
     1
102
RTVSPropertyOp54
 70
     1
102
RTVSPropertyOp55
 70
     1
102
RTVSPropertyOp56
 70
     1
102
RTVSPropertyOp57
 70
     1
102
RTVSPropertyOp58
 70
     1
102
RTVSPropertyOp59
 70
     1
102
RTVSPropertyOp60
 70
     1
102
RTVSPropertyOp61
 70
     1
102
RTVSPropertyOp62
 70
     1
  0
XRECORD
  5
3696
102
{ACAD_REACTORS
330
3695
102
}
330
3695
100
AcDbXrecord
280
     1
102
RTVSPost2010Prop28
280
     0
102
RTVSPost2010PropOp28
 70
     1
102
RTVSPost2010Prop29
280
     1
102
RTVSPost2010PropOp29
 70
     1
102
RTVSPost2010Prop30
280
     1
102
RTVSPost2010PropOp30
 70
     1
102
RTVSPost2010Prop31
280
     0
102
RTVSPost2010PropOp31
 70
     1
102
RTVSPost2010Prop32
280
     0
102
RTVSPost2010PropOp32
 70
     1
102
RTVSPost2010Prop33
280
     0
102
RTVSPost2010PropOp33
 70
     1
102
RTVSPost2010Prop34
280
     0
102
RTVSPost2010PropOp34
 70
     1
102
RTVSPost2010Prop35
280
     0
102
RTVSPost2010PropOp35
 70
     1
102
RTVSPost2010Prop36
280
     0
102
RTVSPost2010PropOp36
 70
     1
102
RTVSPost2010Prop37
 90
       50
102
RTVSPost2010PropOp37
 70
     1
102
RTVSPost2010Prop38
140
0.0
102
RTVSPost2010PropOp38
 70
     1
102
RTVSPost2010Prop39
140
1.0
102
RTVSPost2010PropOp39
 70
     1
102
RTVSPost2010Prop40
 90
        0
102
RTVSPost2010PropOp40
 70
     1
102
RTVSPost2010Prop41ColorIndex
 90
       18
102
RTVSPost2010Prop41ColorRGB
 90
        0
102
RTVSPost2010PropOp41
 70
     1
102
RTVSPost2010Prop42
 90
       50
102
RTVSPost2010PropOp42
 70
     1
102
RTVSPost2010Prop43
 90
        3
102
RTVSPost2010PropOp43
 70
     1
102
RTVSPost2010Prop44ColorIndex
 90
        5
102
RTVSPost2010Prop44ColorRGB
 90
      255
102
RTVSPost2010PropOp44
 70
     1
102
RTVSPost2010Prop45
280
     0
102
RTVSPost2010PropOp45
 70
     1
102
RTVSPost2010Prop46
 90
       50
102
RTVSPost2010PropOp46
 70
     1
102
RTVSPost2010Prop47
 90
       50
102
RTVSPost2010PropOp47
 70
     1
102
RTVSPost2010Prop48
 90
       50
102
RTVSPost2010PropOp48
 70
     1
102
RTVSPost2010Prop49
280
     0
102
RTVSPost2010PropOp49
 70
     1
102
RTVSPost2010Prop50
 90
       50
102
RTVSPost2010PropOp50
 70
     1
102
RTVSPost2010Prop51ColorIndex
 90
      256
102
RTVSPost2010Prop51ColorRGB
 90
-16777216
102
RTVSPost2010PropOp51
 70
     0
102
RTVSPost2010Prop52
140
1.0
102
RTVSPost2010PropOp52
 70
     0
102
RTVSPost2010Prop53
 90
        2
102
RTVSPost2010PropOp53
 70
     1
102
RTVSPost2010Prop54
  1
strokes_ogs.tif
102
RTVSPost2010PropOp54
 70
     1
102
RTVSPost2010Prop55
280
     0
102
RTVSPost2010PropOp55
 70
     1
102
RTVSPost2010Prop56
140
1.0
102
RTVSPost2010PropOp56
 70
     1
102
RTVSPost2010Prop57
140
1.0
102
RTVSPost2010PropOp57
 70
     1
102
RTVSPropertyOp0
 70
     1
102
RTVSPropertyOp1
 70
     1
102
RTVSPropertyOp2
 70
     1
102
RTVSPropertyOp3
 70
     1
102
RTVSPropertyOp4
 70
     1
102
RTVSPropertyOp5
 70
     1
102
RTVSPropertyOp6
 70
     1
102
RTVSPropertyOp7
 70
     1
102
RTVSPropertyOp8
 70
     1
102
RTVSPropertyOp9
 70
     1
102
RTVSPropertyOp10
 70
     1
102
RTVSPropertyOp11
 70
     1
102
RTVSPropertyOp12
 70
     1
102
RTVSPropertyOp13
 70
     1
102
RTVSPropertyOp14
 70
     1
102
RTVSPropertyOp15
 70
     1
102
RTVSPropertyOp16
 70
     1
102
RTVSPropertyOp17
 70
     1
102
RTVSPropertyOp18
 70
     1
102
RTVSPropertyOp19
 70
     1
102
RTVSPropertyOp20
 70
     1
102
RTVSPropertyOp21
 70
     1
102
RTVSPropertyOp22
 70
     1
102
RTVSPropertyOp23
 70
     1
102
RTVSPropertyOp24
 70
     1
102
RTVSPropertyOp25
 70
     1
102
RTVSPropertyOp26
 70
     1
102
RTVSPropertyOp27
 70
     1
102
RTVSPropertyOp28
 70
     1
102
RTVSPropertyOp29
 70
     1
102
RTVSPropertyOp30
 70
     1
102
RTVSPropertyOp31
 70
     1
102
RTVSPropertyOp32
 70
     1
102
RTVSPropertyOp33
 70
     1
102
RTVSPropertyOp34
 70
     1
102
RTVSPropertyOp35
 70
     1
102
RTVSPropertyOp36
 70
     1
102
RTVSPropertyOp37
 70
     1
102
RTVSPropertyOp38
 70
     1
102
RTVSPropertyOp39
 70
     1
102
RTVSPropertyOp40
 70
     1
102
RTVSPropertyOp41
 70
     1
102
RTVSPropertyOp42
 70
     1
102
RTVSPropertyOp43
 70
     1
102
RTVSPropertyOp44
 70
     1
102
RTVSPropertyOp45
 70
     1
102
RTVSPropertyOp46
 70
     1
102
RTVSPropertyOp47
 70
     1
102
RTVSPropertyOp48
 70
     1
102
RTVSPropertyOp49
 70
     1
102
RTVSPropertyOp50
 70
     1
102
RTVSPropertyOp51
 70
     0
102
RTVSPropertyOp52
 70
     0
102
RTVSPropertyOp53
 70
     1
102
RTVSPropertyOp54
 70
     1
102
RTVSPropertyOp55
 70
     1
102
RTVSPropertyOp56
 70
     1
102
RTVSPropertyOp57
 70
     1
102
RTVSPropertyOp58
 70
     1
102
RTVSPropertyOp59
 70
     1
102
RTVSPropertyOp60
 70
     1
102
RTVSPropertyOp61
 70
     1
102
RTVSPropertyOp62
 70
     1
  0
XRECORD
  5
368A
102
{ACAD_REACTORS
330
3689
102
}
330
3689
100
AcDbXrecord
280
     1
102
RTVSPost2010Prop28
280
     0
102
RTVSPost2010PropOp28
 70
     1
102
RTVSPost2010Prop29
280
     1
102
RTVSPost2010PropOp29
 70
     1
102
RTVSPost2010Prop30
280
     1
102
RTVSPost2010PropOp30
 70
     1
102
RTVSPost2010Prop31
280
     0
102
RTVSPost2010PropOp31
 70
     1
102
RTVSPost2010Prop32
280
     0
102
RTVSPost2010PropOp32
 70
     1
102
RTVSPost2010Prop33
280
     0
102
RTVSPost2010PropOp33
 70
     1
102
RTVSPost2010Prop34
280
     0
102
RTVSPost2010PropOp34
 70
     1
102
RTVSPost2010Prop35
280
     0
102
RTVSPost2010PropOp35
 70
     1
102
RTVSPost2010Prop36
280
     0
102
RTVSPost2010PropOp36
 70
     1
102
RTVSPost2010Prop37
 90
       50
102
RTVSPost2010PropOp37
 70
     1
102
RTVSPost2010Prop38
140
0.0
102
RTVSPost2010PropOp38
 70
     1
102
RTVSPost2010Prop39
140
1.0
102
RTVSPost2010PropOp39
 70
     1
102
RTVSPost2010Prop40
 90
        0
102
RTVSPost2010PropOp40
 70
     1
102
RTVSPost2010Prop41ColorIndex
 90
       18
102
RTVSPost2010Prop41ColorRGB
 90
        0
102
RTVSPost2010PropOp41
 70
     1
102
RTVSPost2010Prop42
 90
       50
102
RTVSPost2010PropOp42
 70
     1
102
RTVSPost2010Prop43
 90
        3
102
RTVSPost2010PropOp43
 70
     1
102
RTVSPost2010Prop44ColorIndex
 90
        5
102
RTVSPost2010Prop44ColorRGB
 90
      255
102
RTVSPost2010PropOp44
 70
     1
102
RTVSPost2010Prop45
280
     0
102
RTVSPost2010PropOp45
 70
     1
102
RTVSPost2010Prop46
 90
       50
102
RTVSPost2010PropOp46
 70
     1
102
RTVSPost2010Prop47
 90
       50
102
RTVSPost2010PropOp47
 70
     1
102
RTVSPost2010Prop48
 90
       50
102
RTVSPost2010PropOp48
 70
     1
102
RTVSPost2010Prop49
280
     0
102
RTVSPost2010PropOp49
 70
     1
102
RTVSPost2010Prop50
 90
       50
102
RTVSPost2010PropOp50
 70
     1
102
RTVSPost2010Prop51ColorIndex
 90
      256
102
RTVSPost2010Prop51ColorRGB
 90
-16777216
102
RTVSPost2010PropOp51
 70
     0
102
RTVSPost2010Prop52
140
1.0
102
RTVSPost2010PropOp52
 70
     0
102
RTVSPost2010Prop53
 90
        2
102
RTVSPost2010PropOp53
 70
     1
102
RTVSPost2010Prop54
  1
strokes_ogs.tif
102
RTVSPost2010PropOp54
 70
     1
102
RTVSPost2010Prop55
280
     0
102
RTVSPost2010PropOp55
 70
     1
102
RTVSPost2010Prop56
140
1.0
102
RTVSPost2010PropOp56
 70
     1
102
RTVSPost2010Prop57
140
1.0
102
RTVSPost2010PropOp57
 70
     1
102
RTVSPropertyOp0
 70
     1
102
RTVSPropertyOp1
 70
     1
102
RTVSPropertyOp2
 70
     1
102
RTVSPropertyOp3
 70
     1
102
RTVSPropertyOp4
 70
     1
102
RTVSPropertyOp5
 70
     1
102
RTVSPropertyOp6
 70
     1
102
RTVSPropertyOp7
 70
     1
102
RTVSPropertyOp8
 70
     1
102
RTVSPropertyOp9
 70
     1
102
RTVSPropertyOp10
 70
     1
102
RTVSPropertyOp11
 70
     1
102
RTVSPropertyOp12
 70
     1
102
RTVSPropertyOp13
 70
     1
102
RTVSPropertyOp14
 70
     1
102
RTVSPropertyOp15
 70
     1
102
RTVSPropertyOp16
 70
     1
102
RTVSPropertyOp17
 70
     1
102
RTVSPropertyOp18
 70
     1
102
RTVSPropertyOp19
 70
     1
102
RTVSPropertyOp20
 70
     1
102
RTVSPropertyOp21
 70
     1
102
RTVSPropertyOp22
 70
     1
102
RTVSPropertyOp23
 70
     1
102
RTVSPropertyOp24
 70
     1
102
RTVSPropertyOp25
 70
     1
102
RTVSPropertyOp26
 70
     1
102
RTVSPropertyOp27
 70
     1
102
RTVSPropertyOp28
 70
     1
102
RTVSPropertyOp29
 70
     1
102
RTVSPropertyOp30
 70
     1
102
RTVSPropertyOp31
 70
     1
102
RTVSPropertyOp32
 70
     1
102
RTVSPropertyOp33
 70
     1
102
RTVSPropertyOp34
 70
     1
102
RTVSPropertyOp35
 70
     1
102
RTVSPropertyOp36
 70
     1
102
RTVSPropertyOp37
 70
     1
102
RTVSPropertyOp38
 70
     1
102
RTVSPropertyOp39
 70
     1
102
RTVSPropertyOp40
 70
     1
102
RTVSPropertyOp41
 70
     1
102
RTVSPropertyOp42
 70
     1
102
RTVSPropertyOp43
 70
     1
102
RTVSPropertyOp44
 70
     1
102
RTVSPropertyOp45
 70
     1
102
RTVSPropertyOp46
 70
     1
102
RTVSPropertyOp47
 70
     1
102
RTVSPropertyOp48
 70
     1
102
RTVSPropertyOp49
 70
     1
102
RTVSPropertyOp50
 70
     1
102
RTVSPropertyOp51
 70
     0
102
RTVSPropertyOp52
 70
     0
102
RTVSPropertyOp53
 70
     1
102
RTVSPropertyOp54
 70
     1
102
RTVSPropertyOp55
 70
     1
102
RTVSPropertyOp56
 70
     1
102
RTVSPropertyOp57
 70
     1
102
RTVSPropertyOp58
 70
     1
102
RTVSPropertyOp59
 70
     1
102
RTVSPropertyOp60
 70
     1
102
RTVSPropertyOp61
 70
     1
102
RTVSPropertyOp62
 70
     1
  0
XRECORD
  5
36A2
102
{ACAD_REACTORS
330
36A1
102
}
330
36A1
100
AcDbXrecord
280
     1
102
RTVSPost2010Prop28
280
     0
102
RTVSPost2010PropOp28
 70
     1
102
RTVSPost2010Prop29
280
     1
102
RTVSPost2010PropOp29
 70
     1
102
RTVSPost2010Prop30
280
     1
102
RTVSPost2010PropOp30
 70
     1
102
RTVSPost2010Prop31
280
     0
102
RTVSPost2010PropOp31
 70
     1
102
RTVSPost2010Prop32
280
     0
102
RTVSPost2010PropOp32
 70
     1
102
RTVSPost2010Prop33
280
     0
102
RTVSPost2010PropOp33
 70
     1
102
RTVSPost2010Prop34
280
     0
102
RTVSPost2010PropOp34
 70
     1
102
RTVSPost2010Prop35
280
     0
102
RTVSPost2010PropOp35
 70
     1
102
RTVSPost2010Prop36
280
     0
102
RTVSPost2010PropOp36
 70
     1
102
RTVSPost2010Prop37
 90
       50
102
RTVSPost2010PropOp37
 70
     1
102
RTVSPost2010Prop38
140
0.0
102
RTVSPost2010PropOp38
 70
     1
102
RTVSPost2010Prop39
140
1.0
102
RTVSPost2010PropOp39
 70
     1
102
RTVSPost2010Prop40
 90
        0
102
RTVSPost2010PropOp40
 70
     1
102
RTVSPost2010Prop41ColorIndex
 90
       18
102
RTVSPost2010Prop41ColorRGB
 90
        0
102
RTVSPost2010PropOp41
 70
     1
102
RTVSPost2010Prop42
 90
       50
102
RTVSPost2010PropOp42
 70
     1
102
RTVSPost2010Prop43
 90
        3
102
RTVSPost2010PropOp43
 70
     1
102
RTVSPost2010Prop44ColorIndex
 90
        5
102
RTVSPost2010Prop44ColorRGB
 90
      255
102
RTVSPost2010PropOp44
 70
     1
102
RTVSPost2010Prop45
280
     0
102
RTVSPost2010PropOp45
 70
     1
102
RTVSPost2010Prop46
 90
       50
102
RTVSPost2010PropOp46
 70
     1
102
RTVSPost2010Prop47
 90
       50
102
RTVSPost2010PropOp47
 70
     1
102
RTVSPost2010Prop48
 90
       50
102
RTVSPost2010PropOp48
 70
     1
102
RTVSPost2010Prop49
280
     0
102
RTVSPost2010PropOp49
 70
     1
102
RTVSPost2010Prop50
 90
       50
102
RTVSPost2010PropOp50
 70
     1
102
RTVSPost2010Prop51ColorIndex
 90
      256
102
RTVSPost2010Prop51ColorRGB
 90
-16777216
102
RTVSPost2010PropOp51
 70
     0
102
RTVSPost2010Prop52
140
1.0
102
RTVSPost2010PropOp52
 70
     0
102
RTVSPost2010Prop53
 90
        2
102
RTVSPost2010PropOp53
 70
     1
102
RTVSPost2010Prop54
  1
strokes_ogs.tif
102
RTVSPost2010PropOp54
 70
     1
102
RTVSPost2010Prop55
280
     0
102
RTVSPost2010PropOp55
 70
     1
102
RTVSPost2010Prop56
140
1.0
102
RTVSPost2010PropOp56
 70
     1
102
RTVSPost2010Prop57
140
1.0
102
RTVSPost2010PropOp57
 70
     1
102
RTVSPropertyOp0
 70
     1
102
RTVSPropertyOp1
 70
     1
102
RTVSPropertyOp2
 70
     1
102
RTVSPropertyOp3
 70
     1
102
RTVSPropertyOp4
 70
     1
102
RTVSPropertyOp5
 70
     1
102
RTVSPropertyOp6
 70
     1
102
RTVSPropertyOp7
 70
     1
102
RTVSPropertyOp8
 70
     1
102
RTVSPropertyOp9
 70
     1
102
RTVSPropertyOp10
 70
     1
102
RTVSPropertyOp11
 70
     1
102
RTVSPropertyOp12
 70
     1
102
RTVSPropertyOp13
 70
     1
102
RTVSPropertyOp14
 70
     1
102
RTVSPropertyOp15
 70
     1
102
RTVSPropertyOp16
 70
     1
102
RTVSPropertyOp17
 70
     1
102
RTVSPropertyOp18
 70
     1
102
RTVSPropertyOp19
 70
     1
102
RTVSPropertyOp20
 70
     1
102
RTVSPropertyOp21
 70
     1
102
RTVSPropertyOp22
 70
     1
102
RTVSPropertyOp23
 70
     1
102
RTVSPropertyOp24
 70
     1
102
RTVSPropertyOp25
 70
     1
102
RTVSPropertyOp26
 70
     1
102
RTVSPropertyOp27
 70
     1
102
RTVSPropertyOp28
 70
     1
102
RTVSPropertyOp29
 70
     1
102
RTVSPropertyOp30
 70
     1
102
RTVSPropertyOp31
 70
     1
102
RTVSPropertyOp32
 70
     1
102
RTVSPropertyOp33
 70
     1
102
RTVSPropertyOp34
 70
     1
102
RTVSPropertyOp35
 70
     1
102
RTVSPropertyOp36
 70
     1
102
RTVSPropertyOp37
 70
     1
102
RTVSPropertyOp38
 70
     1
102
RTVSPropertyOp39
 70
     1
102
RTVSPropertyOp40
 70
     1
102
RTVSPropertyOp41
 70
     1
102
RTVSPropertyOp42
 70
     1
102
RTVSPropertyOp43
 70
     1
102
RTVSPropertyOp44
 70
     1
102
RTVSPropertyOp45
 70
     1
102
RTVSPropertyOp46
 70
     1
102
RTVSPropertyOp47
 70
     1
102
RTVSPropertyOp48
 70
     1
102
RTVSPropertyOp49
 70
     1
102
RTVSPropertyOp50
 70
     1
102
RTVSPropertyOp51
 70
     0
102
RTVSPropertyOp52
 70
     0
102
RTVSPropertyOp53
 70
     1
102
RTVSPropertyOp54
 70
     1
102
RTVSPropertyOp55
 70
     1
102
RTVSPropertyOp56
 70
     1
102
RTVSPropertyOp57
 70
     1
102
RTVSPropertyOp58
 70
     1
102
RTVSPropertyOp59
 70
     1
102
RTVSPropertyOp60
 70
     1
102
RTVSPropertyOp61
 70
     1
102
RTVSPropertyOp62
 70
     1
  0
ENDSEC
  0
EOF
