  0
SECTION
  2
HEADER
  9
$ACADVER
  1
AC1015
  9
$ACADMAINTVER
 70
    20
  9
$DWGCODEPAGE
  3
ANSI_932
  9
$INSBASE
 10
0.0
 20
0.0
 30
0.0
  9
$EXTMIN
 10
9.9999975266385
 20
10.0
 30
0.0
  9
$EXTMAX
 10
557.2857142857136
 20
485.6747723646558
 30
0.0
  9
$LIMMIN
 10
0.0000015376081137
 20
-0.0000001931533977
  9
$LIMMAX
 10
792.0000015376079
 20
545.9999998068465
  9
$ORTHOMODE
 70
     1
  9
$REGENMODE
 70
     1
  9
$FILLMODE
 70
     1
  9
$QTEXTMODE
 70
     0
  9
$MIRRTEXT
 70
     1
  9
$LTSCALE
 40
1.0
  9
$ATTMODE
 70
     1
  9
$TEXTSIZE
 40
2.5
  9
$TRACEWID
 40
1.0
  9
$TEXTSTYLE
  7
STANDARD
  9
$CLAYER
  8
0
  9
$CELTYPE
  6
BYLAYER
  9
$CECOLOR
 62
   256
  9
$CELTSCALE
 40
1.0
  9
$DISPSILH
 70
     0
  9
$DIMSCALE
 40
1.0
  9
$DIMASZ
 40
3.0
  9
$DIMEXO
 40
1.0
  9
$DIMDLI
 40
10.0
  9
$DIMRND
 40
0.0
  9
$DIMDLE
 40
0.0
  9
$DIMEXE
 40
1.0
  9
$DIMTP
 40
0.0
  9
$DIMTM
 40
0.0
  9
$DIMTXT
 40
3.2
  9
$DIMCEN
 40
0.0
  9
$DIMTSZ
 40
0.0
  9
$DIMTOL
 70
     0
  9
$DIMLIM
 70
     0
  9
$DIMTIH
 70
     0
  9
$DIMTOH
 70
     0
  9
$DIMSE1
 70
     0
  9
$DIMSE2
 70
     0
  9
$DIMTAD
 70
     3
  9
$DIMZIN
 70
     8
  9
$DIMBLK
  1

  9
$DIMASO
 70
     1
  9
$DIMSHO
 70
     1
  9
$DIMPOST
  1

  9
$DIMAPOST
  1

  9
$DIMALT
 70
     0
  9
$DIMALTD
 70
     2
  9
$DIMALTF
 40
25.4
  9
$DIMLFAC
 40
1.0
  9
$DIMTOFL
 70
     1
  9
$DIMTVP
 40
0.0
  9
$DIMTIX
 70
     0
  9
$DIMSOXD
 70
     0
  9
$DIMSAH
 70
     1
  9
$DIMBLK1
  1
OPEN
  9
$DIMBLK2
  1
OPEN
  9
$DIMSTYLE
  2
STANDARD
  9
$DIMCLRD
 70
     0
  9
$DIMCLRE
 70
     0
  9
$DIMCLRT
 70
     0
  9
$DIMTFAC
 40
1.0
  9
$DIMGAP
 40
1.0
  9
$DIMJUST
 70
     0
  9
$DIMSD1
 70
     0
  9
$DIMSD2
 70
     0
  9
$DIMTOLJ
 70
     1
  9
$DIMTZIN
 70
     0
  9
$DIMALTZ
 70
     0
  9
$DIMALTTZ
 70
     0
  9
$DIMUPT
 70
     0
  9
$DIMDEC
 70
     4
  9
$DIMTDEC
 70
     4
  9
$DIMALTU
 70
     2
  9
$DIMALTTD
 70
     2
  9
$DIMTXSTY
  7
STANDARD
  9
$DIMAUNIT
 70
     0
  9
$DIMADEC
 70
     0
  9
$DIMALTRND
 40
0.0
  9
$DIMAZIN
 70
     0
  9
$DIMDSEP
 70
    46
  9
$DIMATFIT
 70
     3
  9
$DIMFRAC
 70
     0
  9
$DIMLDRBLK
  1
OPEN
  9
$DIMLUNIT
 70
     2
  9
$DIMLWD
 70
    -2
  9
$DIMLWE
 70
    -2
  9
$DIMTMOVE
 70
     0
  9
$LUNITS
 70
     2
  9
$LUPREC
 70
     4
  9
$SKETCHINC
 40
1.0
  9
$FILLETRAD
 40
0.0
  9
$AUNITS
 70
     0
  9
$AUPREC
 70
     0
  9
$MENU
  1
.
  9
$ELEVATION
 40
0.0
  9
$PELEVATION
 40
0.0
  9
$THICKNESS
 40
0.0
  9
$LIMCHECK
 70
     0
  9
$CHAMFERA
 40
10.0
  9
$CHAMFERB
 40
10.0
  9
$CHAMFERC
 40
20.0
  9
$CHAMFERD
 40
0.0
  9
$SKPOLY
 70
     0
  9
$TDCREATE
 40
2452051.395592083
  9
$TDUCREATE
 40
2452051.020592084
  9
$TDUPDATE
 40
2457192.691064699
  9
$TDUUPDATE
 40
2457192.316064699
  9
$TDINDWG
 40
0.4506620139
  9
$TDUSRTIMER
 40
0.4506619907
  9
$USRTIMER
 70
     1
  9
$ANGBASE
 50
0.0
  9
$ANGDIR
 70
     0
  9
$PDMODE
 70
     0
  9
$PDSIZE
 40
0.0
  9
$PLINEWID
 40
0.0
  9
$SPLFRAME
 70
     0
  9
$SPLINETYPE
 70
     6
  9
$SPLINESEGS
 70
     8
  9
$HANDSEED
  5
3E48
  9
$SURFTAB1
 70
     6
  9
$SURFTAB2
 70
     6
  9
$SURFTYPE
 70
     6
  9
$SURFU
 70
     6
  9
$SURFV
 70
     6
  9
$UCSBASE
  2

  9
$UCSNAME
  2

  9
$UCSORG
 10
0.0
 20
0.0
 30
0.0
  9
$UCSXDIR
 10
1.0
 20
0.0
 30
0.0
  9
$UCSYDIR
 10
0.0
 20
1.0
 30
0.0
  9
$UCSORTHOREF
  2

  9
$UCSORTHOVIEW
 70
     0
  9
$UCSORGTOP
 10
0.0
 20
0.0
 30
0.0
  9
$UCSORGBOTTOM
 10
0.0
 20
0.0
 30
0.0
  9
$UCSORGLEFT
 10
0.0
 20
0.0
 30
0.0
  9
$UCSORGRIGHT
 10
0.0
 20
0.0
 30
0.0
  9
$UCSORGFRONT
 10
0.0
 20
0.0
 30
0.0
  9
$UCSORGBACK
 10
0.0
 20
0.0
 30
0.0
  9
$PUCSBASE
  2

  9
$PUCSNAME
  2

  9
$PUCSORG
 10
0.0
 20
0.0
 30
0.0
  9
$PUCSXDIR
 10
1.0
 20
0.0
 30
0.0
  9
$PUCSYDIR
 10
0.0
 20
1.0
 30
0.0
  9
$PUCSORTHOREF
  2

  9
$PUCSORTHOVIEW
 70
     0
  9
$PUCSORGTOP
 10
0.0
 20
0.0
 30
0.0
  9
$PUCSORGBOTTOM
 10
0.0
 20
0.0
 30
0.0
  9
$PUCSORGLEFT
 10
0.0
 20
0.0
 30
0.0
  9
$PUCSORGRIGHT
 10
0.0
 20
0.0
 30
0.0
  9
$PUCSORGFRONT
 10
0.0
 20
0.0
 30
0.0
  9
$PUCSORGBACK
 10
0.0
 20
0.0
 30
0.0
  9
$USERI1
 70
     0
  9
$USERI2
 70
     0
  9
$USERI3
 70
     0
  9
$USERI4
 70
     0
  9
$USERI5
 70
     0
  9
$USERR1
 40
0.0
  9
$USERR2
 40
0.0
  9
$USERR3
 40
0.0
  9
$USERR4
 40
0.0
  9
$USERR5
 40
0.0
  9
$WORLDVIEW
 70
     1
  9
$SHADEDGE
 70
     3
  9
$SHADEDIF
 70
    70
  9
$TILEMODE
 70
     1
  9
$MAXACTVP
 70
    48
  9
$PINSBASE
 10
0.0
 20
0.0
 30
0.0
  9
$PLIMCHECK
 70
     0
  9
$PEXTMIN
 10
1.000000000000000E+20
 20
1.000000000000000E+20
 30
1.000000000000000E+20
  9
$PEXTMAX
 10
-1.000000000000000E+20
 20
-1.000000000000000E+20
 30
-1.000000000000000E+20
  9
$PLIMMIN
 10
0.0
 20
0.0
  9
$PLIMMAX
 10
420.0
 20
297.0
  9
$UNITMODE
 70
     0
  9
$VISRETAIN
 70
     1
  9
$PLINEGEN
 70
     0
  9
$PSLTSCALE
 70
     1
  9
$TREEDEPTH
 70
  3020
  9
$CMLSTYLE
  2
STANDARD
  9
$CMLJUST
 70
     0
  9
$CMLSCALE
 40
20.0
  9
$PROXYGRAPHICS
 70
     1
  9
$MEASUREMENT
 70
     0
  9
$CELWEIGHT
370
    -1
  9
$ENDCAPS
280
     0
  9
$JOINSTYLE
280
     0
  9
$LWDISPLAY
290
     0
  9
$INSUNITS
 70
     0
  9
$HYPERLINKBASE
  1

  9
$STYLESHEET
  1

  9
$XEDIT
290
     1
  9
$CEPSNTYPE
380
     0
  9
$PSTYLEMODE
290
     1
  9
$FINGERPRINTGUID
  2
{8EE3FC2B-2069-4DA5-B4C1-B13CD0B208B0}
  9
$VERSIONGUID
  2
{EB1625DE-8ACF-4A19-8209-29499C5F8D8C}
  9
$EXTNAMES
290
     1
  9
$PSVPSCALE
 40
0.0
  9
$OLESTARTUP
290
     0
  0
ENDSEC
  0
SECTION
  2
CLASSES
  0
CLASS
  1
ACDBDICTIONARYWDFLT
  2
AcDbDictionaryWithDefault
  3
ObjectDBX Classes
 90
        0
280
     0
281
     0
  0
CLASS
  1
ACDBPLACEHOLDER
  2
AcDbPlaceHolder
  3
ObjectDBX Classes
 90
        0
280
     0
281
     0
  0
CLASS
  1
LAYOUT
  2
AcDbLayout
  3
ObjectDBX Classes
 90
        0
280
     0
281
     0
  0
CLASS
  1
DICTIONARYVAR
  2
AcDbDictionaryVar
  3
ObjectDBX Classes
 90
        0
280
     0
281
     0
  0
CLASS
  1
MATERIAL
  2
AcDbMaterial
  3
ObjectDBX Classes
 90
     1153
280
     0
281
     0
  0
CLASS
  1
VISUALSTYLE
  2
AcDbVisualStyle
  3
ObjectDBX Classes
 90
     4095
280
     0
281
     0
  0
CLASS
  1
TABLESTYLE
  2
AcDbTableStyle
  3
ObjectDBX Classes
 90
     4095
280
     0
281
     0
  0
CLASS
  1
SCALE
  2
AcDbScale
  3
ObjectDBX Classes
 90
     1153
280
     0
281
     0
  0
CLASS
  1
MLEADERSTYLE
  2
AcDbMLeaderStyle
  3
ACDB_MLEADERSTYLE_CLASS
 90
     4095
280
     0
281
     0
  0
CLASS
  1
ACDBSECTIONVIEWSTYLE
  2
AcDbSectionViewStyle
  3
ObjectDBX Classes
 90
     1025
280
     0
281
     0
  0
CLASS
  1
ACDBDETAILVIEWSTYLE
  2
AcDbDetailViewStyle
  3
ObjectDBX Classes
 90
     1025
280
     0
281
     0
  0
CLASS
  1
CELLSTYLEMAP
  2
AcDbCellStyleMap
  3
ObjectDBX Classes
 90
     1152
280
     0
281
     0
  0
ENDSEC
  0
SECTION
  2
TABLES
  0
TABLE
  2
VPORT
  5
8
330
0
100
AcDbSymbolTable
 70
     1
  0
VPORT
  5
3D92
330
8
100
AcDbSymbolTableRecord
100
AcDbViewportTableRecord
  2
*ACTIVE
 70
     0
 10
0.0
 20
0.0
 11
1.0
 21
1.0
 12
479.4325681991856
 22
247.8394785878736
 13
0.0
 23
0.0
 14
10.0
 24
10.0
 15
10.0
 25
10.0
 16
0.0
 26
0.0
 36
1.0
 17
0.0
 27
0.0
 37
0.0
 40
479.3532177531935
 41
2.35006605019815
 42
50.0
 43
0.0
 44
0.0
 50
0.0
 51
0.0
 71
     0
 72
   100
 73
     1
 74
     0
 75
     0
 76
     0
 77
     0
 78
     0
281
     0
 65
     1
110
0.0
120
0.0
130
0.0
111
1.0
121
0.0
131
0.0
112
0.0
122
1.0
132
0.0
 79
     0
146
0.0
1001
ACAD_NAV_VCDISPLAY
1070
     3
  0
ENDTAB
  0
TABLE
  2
LTYPE
  5
5
330
0
100
AcDbSymbolTable
 70
     4
  0
LTYPE
  5
12
330
5
100
AcDbSymbolTableRecord
100
AcDbLinetypeTableRecord
  2
BYBLOCK
 70
     0
  3

 72
    65
 73
     0
 40
0.0
  0
LTYPE
  5
13
330
5
100
AcDbSymbolTableRecord
100
AcDbLinetypeTableRecord
  2
BYLAYER
 70
     0
  3

 72
    65
 73
     0
 40
0.0
  0
LTYPE
  5
14
330
5
100
AcDbSymbolTableRecord
100
AcDbLinetypeTableRecord
  2
CONTINUOUS
 70
     0
  3
Solid line
 72
    65
 73
     0
 40
0.0
  0
LTYPE
  5
4B
330
5
100
AcDbSymbolTableRecord
100
AcDbLinetypeTableRecord
  2
DASHED
 70
     0
  3
Dashed __ __ __ __ __ __ __ __ __ __ __ __ __ _
 72
    65
 73
     2
 40
19.04999999999999
 49
12.7
 74
     0
 49
-6.349999999999998
 74
     0
  0
LTYPE
  5
4C
330
5
100
AcDbSymbolTableRecord
100
AcDbLinetypeTableRecord
  2
CENTER
 70
     0
  3
Center ____ _ ____ _ ____ _ ____ _ ____ _ ____
 72
    65
 73
     4
 40
50.8
 49
31.75
 74
     0
 49
-6.349999999999998
 74
     0
 49
6.349999999999998
 74
     0
 49
-6.349999999999998
 74
     0
  0
LTYPE
  5
4D
330
5
100
AcDbSymbolTableRecord
100
AcDbLinetypeTableRecord
  2
PHANTOM
 70
     0
  3
Phantom ______  __  __  ______  __  __  ______
 72
    65
 73
     6
 40
63.5
 49
31.75
 74
     0
 49
-6.349999999999998
 74
     0
 49
6.349999999999998
 74
     0
 49
-6.349999999999998
 74
     0
 49
6.349999999999998
 74
     0
 49
-6.349999999999998
 74
     0
  0
ENDTAB
  0
TABLE
  2
LAYER
  5
2
330
0
100
AcDbSymbolTable
 70
     8
  0
LAYER
  5
E
102
{ACAD_XDICTIONARY
360
3DEC
102
}
330
2
100
AcDbSymbolTableRecord
100
AcDbLayerTableRecord
  2
0
 70
     0
 62
     7
  6
CONTINUOUS
370
    -3
390
3D9B
  0
LAYER
  5
4E
102
{ACAD_XDICTIONARY
360
3DEE
102
}
330
2
100
AcDbSymbolTableRecord
100
AcDbLayerTableRecord
  2
4
 70
     0
 62
     1
  6
CENTER
370
    -3
390
3D9B
  0
LAYER
  5
4F
102
{ACAD_XDICTIONARY
360
3DF0
102
}
330
2
100
AcDbSymbolTableRecord
100
AcDbLayerTableRecord
  2
5
 70
     0
 62
     6
  6
PHANTOM
370
    -3
390
3D9B
  0
LAYER
  5
50
102
{ACAD_XDICTIONARY
360
3DF2
102
}
330
2
100
AcDbSymbolTableRecord
100
AcDbLayerTableRecord
  2
1
 70
     0
 62
     7
  6
CONTINUOUS
370
    -3
390
3D9B
  0
LAYER
  5
51
102
{ACAD_XDICTIONARY
360
3DF4
102
}
330
2
100
AcDbSymbolTableRecord
100
AcDbLayerTableRecord
  2
2
 70
     0
 62
     4
  6
CONTINUOUS
370
    -3
390
3D9B
  0
LAYER
  5
52
102
{ACAD_XDICTIONARY
360
3DF6
102
}
330
2
100
AcDbSymbolTableRecord
100
AcDbLayerTableRecord
  2
3
 70
     0
 62
     2
  6
DASHED
370
    -3
390
3D9B
  0
LAYER
  5
53
102
{ACAD_XDICTIONARY
360
3DF8
102
}
330
2
100
AcDbSymbolTableRecord
100
AcDbLayerTableRecord
  2
6
 70
     0
 62
     5
  6
CONTINUOUS
370
    -3
390
3D9B
  0
LAYER
  5
54
102
{ACAD_XDICTIONARY
360
3DFA
102
}
330
2
100
AcDbSymbolTableRecord
100
AcDbLayerTableRecord
  2
7
 70
     0
 62
     3
  6
CONTINUOUS
370
    -3
390
3D9B
  0
ENDTAB
  0
TABLE
  2
STYLE
  5
3
330
0
100
AcDbSymbolTable
 70
     1
  0
STYLE
  5
F
330
3
100
AcDbSymbolTableRecord
100
AcDbTextStyleTableRecord
  2
STANDARD
 70
     0
 40
0.0
 41
1.0
 50
0.0
 71
     0
 42
2.5
  3
simplex.shx
  4

  0
ENDTAB
  0
TABLE
  2
VIEW
  5
6
330
0
100
AcDbSymbolTable
 70
     0
  0
ENDTAB
  0
TABLE
  2
UCS
  5
7
330
0
100
AcDbSymbolTable
 70
     0
  0
ENDTAB
  0
TABLE
  2
APPID
  5
9
330
0
100
AcDbSymbolTable
 70
     5
  0
APPID
  5
10
330
9
100
AcDbSymbolTableRecord
100
AcDbRegAppTableRecord
  2
ACAD
 70
     0
  0
APPID
  5
3E
330
9
100
AcDbSymbolTableRecord
100
AcDbRegAppTableRecord
  2
CONTENTTABDATA
 70
     0
  0
APPID
  5
3F
330
9
100
AcDbSymbolTableRecord
100
AcDbRegAppTableRecord
  2
CONTENTCURRENTTAB
 70
     0
  0
APPID
  5
3E06
330
9
100
AcDbSymbolTableRecord
100
AcDbRegAppTableRecord
  2
ACAD_NAV_VCDISPLAY
 70
     0
  0
APPID
  5
3E3F
330
9
100
AcDbSymbolTableRecord
100
AcDbRegAppTableRecord
  2
ACAD_MLEADERVER
 70
     0
  0
ENDTAB
  0
TABLE
  2
DIMSTYLE
  5
A
330
0
100
AcDbSymbolTable
 70
     1
100
AcDbDimStyleTable
 71
     0
  0
DIMSTYLE
105
1D
330
A
100
AcDbSymbolTableRecord
100
AcDbDimStyleTableRecord
  2
STANDARD
 70
     0
 41
3.0
 42
1.0
 43
10.0
 44
1.0
 73
     0
 74
     0
 77
     3
 78
     8
140
3.2
141
0.0
147
1.0
172
     1
173
     1
340
F
341
2E
343
2E
344
2E
  0
ENDTAB
  0
TABLE
  2
BLOCK_RECORD
  5
1
330
0
100
AcDbSymbolTable
 70
     1
  0
BLOCK_RECORD
  5
18
102
{ACAD_XDICTIONARY
360
3D95
102
}
330
1
100
AcDbSymbolTableRecord
100
AcDbBlockTableRecord
  2
*MODEL_SPACE
340
3DE9
  0
BLOCK_RECORD
  5
15
102
{ACAD_XDICTIONARY
360
3D93
102
}
330
1
100
AcDbSymbolTableRecord
100
AcDbBlockTableRecord
  2
*PAPER_SPACE
340
3DEA
  0
BLOCK_RECORD
  5
2E
330
1
100
AcDbSymbolTableRecord
100
AcDbBlockTableRecord
  2
_OPEN
340
0
  0
ENDTAB
  0
ENDSEC
  0
SECTION
  2
BLOCKS
  0
BLOCK
  5
19
330
18
100
AcDbEntity
  8
0
100
AcDbBlockBegin
  2
*MODEL_SPACE
 70
     0
 10
0.0
 20
0.0
 30
0.0
  3
*MODEL_SPACE
  1

  0
ENDBLK
  5
1A
330
18
100
AcDbEntity
  8
0
100
AcDbBlockEnd
  0
BLOCK
  5
16
330
15
100
AcDbEntity
 67
     1
  8
0
100
AcDbBlockBegin
  2
*PAPER_SPACE
 70
     0
 10
0.0
 20
0.0
 30
0.0
  3
*PAPER_SPACE
  1

  0
ENDBLK
  5
17
330
15
100
AcDbEntity
 67
     1
  8
0
100
AcDbBlockEnd
  0
BLOCK
  5
2F
330
2E
100
AcDbEntity
  8
0
100
AcDbBlockBegin
  2
_OPEN
 70
     0
 10
0.0
 20
0.0
 30
0.0
  3
_OPEN
  1

  0
LINE
  5
30
330
2E
100
AcDbEntity
  8
0
  6
ByBlock
 62
     0
100
AcDbLine
 10
-1.0
 20
0.1666666666666666
 30
0.0
 11
0.0
 21
0.0
 31
0.0
  0
LINE
  5
31
330
2E
100
AcDbEntity
  8
0
  6
ByBlock
 62
     0
100
AcDbLine
 10
0.0
 20
0.0
 30
0.0
 11
-1.0
 21
-0.1666666666666666
 31
0.0
  0
LINE
  5
32
330
2E
100
AcDbEntity
  8
0
  6
ByBlock
 62
     0
100
AcDbLine
 10
0.0
 20
0.0
 30
0.0
 11
-1.0
 21
0.0
 31
0.0
  0
ENDBLK
  5
33
330
2E
100
AcDbEntity
  8
0
100
AcDbBlockEnd
  0
ENDSEC
  0
SECTION
  2
ENTITIES
  0
TEXT
  5
63
330
18
100
AcDbEntity
  8
4
  6
CENTER
 48
0.25
100
AcDbText
 10
23.97950852663849
 20
10.0
 30
0.0
 40
1.399999999999999
  1
4
100
AcDbText
  0
TEXT
  5
64
330
18
100
AcDbEntity
  8
7
  6
Continuous
 48
0.25
100
AcDbText
 10
9.999997526638502
 20
26.0000007607689
 30
0.0
 40
3.0
  1
CODE No.9503
100
AcDbText
  0
TEXT
  5
65
330
18
100
AcDbEntity
  8
7
  6
Continuous
 48
0.25
100
AcDbText
 10
9.999997526638502
 20
18.00000076076889
 30
0.0
 40
3.0
  1
TYPE No.TCA-54NW-NRB75
100
AcDbText
  0
TEXT
  5
66
330
18
100
AcDbEntity
  8
1
  6
Continuous
 48
0.25
100
AcDbText
 10
9.999997526638502
 20
10.00000076076889
 30
0.0
 40
1.399999999999999
  1
LAYER
100
AcDbText
  0
TEXT
  5
67
330
18
100
AcDbEntity
  8
2
  6
Continuous
 48
0.25
100
AcDbText
 10
19.9795085266385
 20
10.0
 30
0.0
 40
1.399999999999999
  1
2
100
AcDbText
  0
TEXT
  5
68
330
18
100
AcDbEntity
  8
3
  6
DASHED
 48
0.25
100
AcDbText
 10
21.9795085266385
 20
10.0
 30
0.0
 40
1.399999999999999
  1
3
100
AcDbText
  0
TEXT
  5
69
330
18
100
AcDbEntity
  8
1
  6
Continuous
 48
0.25
100
AcDbText
 10
17.9795085266385
 20
10.0
 30
0.0
 40
1.399999999999999
  1
1
100
AcDbText
  0
TEXT
  5
6A
330
18
100
AcDbEntity
  8
5
  6
PHANTOM
 48
0.25
100
AcDbText
 10
25.9795085266385
 20
10.0
 30
0.0
 40
1.399999999999999
  1
5
100
AcDbText
  0
TEXT
  5
6B
330
18
100
AcDbEntity
  8
6
  6
Continuous
 48
0.25
100
AcDbText
 10
27.9795085266385
 20
10.0
 30
0.0
 40
1.399999999999999
  1
6
100
AcDbText
  0
TEXT
  5
6C
330
18
100
AcDbEntity
  8
7
  6
Continuous
 48
0.25
100
AcDbText
 10
29.9795085266385
 20
10.0
 30
0.0
 40
1.399999999999999
  1
7
100
AcDbText
  0
LINE
  5
1A53
330
18
100
AcDbEntity
  8
4
  6
CENTER
 48
0.2
100
AcDbLine
 10
557.2857142857136
 20
260.6747723646558
 30
0.0
 11
472.2857142857136
 21
260.6747723646558
 31
0.0
  0
ARC
  5
1A55
330
18
100
AcDbEntity
  8
1
  6
Continuous
100
AcDbCircle
 10
514.7857142857136
 20
260.6747723646558
 30
0.0
 40
26.65469400011823
100
AcDbArc
 50
174.998898610291
 51
62.79770973722162
  0
ARC
  5
1A56
330
18
100
AcDbEntity
  8
1
  6
Continuous
100
AcDbCircle
 10
514.7857142857136
 20
260.6747723646558
 30
0.0
 40
21.65469400011823
100
AcDbArc
 50
184.8186284376532
 51
55.75837167181092
  0
ARC
  5
1A58
330
18
100
AcDbEntity
  8
1
  6
Continuous
100
AcDbCircle
 10
514.7857142857136
 20
260.6747723646558
 30
0.0
 40
37.5
100
AcDbArc
 50
162.0459000000015
 51
70.73161899999698
  0
ARC
  5
1A59
330
18
100
AcDbEntity
  8
1
  6
Continuous
100
AcDbCircle
 10
554.6754692857139
 20
337.7334648646558
 30
0.0
 40
100.0
100
AcDbArc
 50
201.4477899999994
 51
242.0116899999987
  0
ARC
  5
1A5A
330
18
100
AcDbEntity
  8
1
  6
Continuous
100
AcDbCircle
 10
514.7857142857136
 20
262.6747723646558
 30
0.0
 40
15.0
100
AcDbArc
 50
90.00000299999769
 51
180.0000099999993
  0
LINE
  5
1A5B
330
18
100
AcDbEntity
  8
1
  6
Continuous
100
AcDbLine
 10
526.9704672857137
 20
294.1340623646557
 30
0.0
 11
526.9704672857137
 21
277.6747723646558
 31
0.0
  0
ARC
  5
1A5F
330
18
100
AcDbEntity
  8
1
  6
Continuous
100
AcDbCircle
 10
514.7857142857136
 20
260.6747723646558
 30
0.0
 40
15.65469400011824
100
AcDbArc
 50
207.6411373657633
 51
21.97177164900813
  0
CIRCLE
  5
1A60
330
18
100
AcDbEntity
  8
1
  6
Continuous
100
AcDbCircle
 10
514.7857142857136
 20
260.6747723646558
 30
0.0
 40
9.25
  0
ARC
  5
1A61
330
18
100
AcDbEntity
  8
1
  6
Continuous
100
AcDbCircle
 10
519.9064032857138
 20
256.2769303646557
 30
0.0
 40
0.5
100
AcDbArc
 50
217.4033299999976
 51
319.3427500000006
  0
ARC
  5
1A62
330
18
100
AcDbEntity
  8
1
  6
Continuous
100
AcDbCircle
 10
519.9064032857138
 20
265.0726143646557
 30
0.0
 40
0.5
100
AcDbArc
 50
40.65724700000143
 51
142.5966700000024
  0
CIRCLE
  5
1A63
330
18
100
AcDbEntity
  8
1
  6
Continuous
100
AcDbCircle
 10
514.7857142857136
 20
260.6747723646558
 30
0.0
 40
7.5
  0
CIRCLE
  5
1A64
330
18
100
AcDbEntity
  8
1
  6
Continuous
100
AcDbCircle
 10
514.7857142857136
 20
260.6747723646558
 30
0.0
 40
6.0
  0
ARC
  5
1A66
330
18
100
AcDbEntity
  8
1
  6
Continuous
100
AcDbCircle
 10
514.7857142857136
 20
262.6747723646558
 30
0.0
 40
15.0
100
AcDbArc
 50
242.0116899999987
 51
11.82491000000055
  0
LINE
  5
1A67
330
18
100
AcDbEntity
  8
1
  6
Continuous
100
AcDbLine
 10
515.4635552857139
 20
271.2530803646558
 30
0.0
 11
523.6078732857138
 21
266.5509473646558
 31
0.0
  0
LINE
  5
1A68
330
18
100
AcDbEntity
  8
1
  6
Continuous
100
AcDbLine
 10
515.4635552857139
 20
250.0964643646557
 30
0.0
 11
523.6078732857138
 21
254.7985893646557
 31
0.0
  0
ARC
  5
1A69
330
18
100
AcDbEntity
  8
1
  6
Continuous
100
AcDbCircle
 10
514.7857142857136
 20
260.6747723646558
 30
0.0
 40
10.6
100
AcDbArc
 50
206.3336000000006
 51
213.6663900000003
  0
LINE
  5
1A6A
330
18
100
AcDbEntity
  8
1
  6
Continuous
100
AcDbLine
 10
505.9635552857138
 20
254.7985973646558
 30
0.0
 11
514.1078732857137
 21
250.0964643646558
 31
0.0
  0
ARC
  5
1A6B
330
18
100
AcDbEntity
  8
1
  6
Continuous
100
AcDbCircle
 10
514.7857142857136
 20
260.6747723646558
 30
0.0
 40
10.6
100
AcDbArc
 50
266.3336099999968
 51
273.6663999999982
  0
LINE
  5
1A6C
330
18
100
AcDbEntity
  8
1
  6
Continuous
100
AcDbLine
 10
499.7857142857136
 20
262.6747723646558
 30
0.0
 11
499.7857142857136
 21
258.4369713646558
 31
0.0
  0
LINE
  5
1A6D
330
18
100
AcDbEntity
  8
1
  6
Continuous
100
AcDbLine
 10
505.9635552857138
 20
266.5509553646558
 30
0.0
 11
514.1078732857137
 21
271.2530803646558
 31
0.0
  0
ARC
  5
1A6E
330
18
100
AcDbEntity
  8
1
  6
Continuous
100
AcDbCircle
 10
514.7857142857136
 20
260.6747723646558
 30
0.0
 40
7.25
100
AcDbArc
 50
139.3427600000016
 51
220.6572499999992
  0
LINE
  5
1A6F
330
18
100
AcDbEntity
  8
1
  6
Continuous
100
AcDbLine
 10
505.2857142857138
 20
265.3768983646557
 30
0.0
 11
505.2857142857138
 21
255.9726463646558
 31
0.0
  0
ARC
  5
1A70
330
18
100
AcDbEntity
  8
1
  6
Continuous
100
AcDbCircle
 10
509.6650252857139
 20
256.2769303646557
 30
0.0
 40
0.5
100
AcDbArc
 50
220.6572399999983
 51
322.5966700000023
  0
LINE
  5
1A71
330
18
100
AcDbEntity
  8
1
  6
Continuous
100
AcDbLine
 10
510.469987285714
 20
256.5064983646558
 30
0.0
 11
510.0622112857138
 21
255.9732113646558
 31
0.0
  0
ARC
  5
1A72
330
18
100
AcDbEntity
  8
1
  6
Continuous
100
AcDbCircle
 10
514.7857142857136
 20
260.6747723646558
 30
0.0
 40
10.6
100
AcDbArc
 50
146.3336099999996
 51
153.6663999999993
  0
ARC
  5
1A73
330
18
100
AcDbEntity
  8
1
  6
Continuous
100
AcDbCircle
 10
509.6650252857139
 20
265.0726143646557
 30
0.0
 40
0.5
100
AcDbArc
 50
37.40332800000192
 51
139.3427600000016
  0
LINE
  5
1A74
330
18
100
AcDbEntity
  8
1
  6
Continuous
100
AcDbLine
 10
510.4699872857137
 20
264.8430463646558
 30
0.0
 11
510.0622192857136
 21
265.3763253646558
 31
0.0
  0
LINE
  5
1A75
330
18
100
AcDbEntity
  8
1
  6
Continuous
100
AcDbLine
 10
519.1014412857139
 20
256.5064983646558
 30
0.0
 11
519.5092172857139
 21
255.9732193646558
 31
0.0
  0
LINE
  5
1A76
330
18
100
AcDbEntity
  8
1
  6
Continuous
100
AcDbLine
 10
519.1014412857139
 20
264.8430463646558
 30
0.0
 11
519.5092092857138
 21
265.3763253646558
 31
0.0
  0
ARC
  5
1A77
330
18
100
AcDbEntity
  8
1
  6
Continuous
100
AcDbCircle
 10
514.7857142857136
 20
260.6747723646558
 30
0.0
 40
10.6
100
AcDbArc
 50
86.33360500000256
 51
93.66639299999842
  0
LINE
  5
1A78
330
18
100
AcDbEntity
  8
1
  6
Continuous
100
AcDbLine
 10
514.7857142857136
 20
277.6747723646558
 30
0.0
 11
519.2095572857136
 21
277.6747723646558
 31
0.0
  0
ARC
  5
1A79
330
18
100
AcDbEntity
  8
1
  6
Continuous
100
AcDbCircle
 10
514.7857142857136
 20
260.6747723646558
 30
0.0
 40
10.6
100
AcDbArc
 50
326.3336000000012
 51
333.6663999999994
  0
LINE
  5
1A7A
330
18
100
AcDbEntity
  8
1
  6
Continuous
100
AcDbLine
 10
526.9704672857137
 20
277.6747723646558
 30
0.0
 11
529.4673932857136
 21
265.7485943646558
 31
0.0
  0
ARC
  5
1A7B
330
18
100
AcDbEntity
  8
1
  6
Continuous
100
AcDbCircle
 10
514.7857142857136
 20
260.6747723646558
 30
0.0
 40
7.25
100
AcDbArc
 50
319.3427500000006
 51
40.65724700000143
  0
LINE
  5
1A7C
330
18
100
AcDbEntity
  8
1
  6
Continuous
100
AcDbLine
 10
524.2857142857136
 20
265.3768983646557
 30
0.0
 11
524.2857142857136
 21
255.9726463646558
 31
0.0
  0
ARC
  5
1A7D
330
18
100
AcDbEntity
  8
1
  6
Continuous
100
AcDbCircle
 10
514.7857142857136
 20
260.6747723646558
 30
0.0
 40
10.6
100
AcDbArc
 50
26.33360500000049
 51
33.66639500000025
  0
LINE
  5
1A7E
330
18
100
AcDbEntity
  8
1
  6
Continuous
100
AcDbLine
 10
534.4919292857139
 20
316.4452023646558
 30
0.0
 11
463.0795042857139
 21
316.4452023646558
 31
0.0
  0
LINE
  5
1A7F
330
18
100
AcDbEntity
  8
1
  6
Continuous
100
AcDbLine
 10
460.1751342857136
 20
320.1747723646557
 30
0.0
 11
537.3962912857138
 21
320.1747723646557
 31
0.0
  0
LINE
  5
1A80
330
18
100
AcDbEntity
  8
1
  6
Continuous
100
AcDbLine
 10
548.7857142857136
 20
326.6747723646556
 30
0.0
 11
448.7857142857136
 21
326.6747723646556
 31
0.0
  0
LINE
  5
1A81
330
18
100
AcDbEntity
  8
1
  6
Continuous
100
AcDbLine
 10
448.7857142857136
 20
330.1747723646557
 30
0.0
 11
548.7857142857136
 21
330.1747723646557
 31
0.0
  0
LINE
  5
1A82
330
18
100
AcDbEntity
  8
4
  6
CENTER
 48
0.1
100
AcDbLine
 10
459.7857142857136
 20
332.1747723646558
 30
0.0
 11
459.7857142857136
 21
324.6747723646557
 31
0.0
  0
LINE
  5
1A83
330
18
100
AcDbEntity
  8
1
  6
Continuous
100
AcDbLine
 10
455.3097042857139
 20
325.5450633646558
 30
0.0
 11
455.8144042857137
 21
323.5638893646556
 31
0.0
  0
ARC
  5
1A84
330
18
100
AcDbEntity
  8
1
  6
Continuous
100
AcDbCircle
 10
452.2928442857137
 20
297.5116103646558
 30
0.0
 40
10.0
100
AcDbArc
 50
21.44778600000114
 51
41.47134800000145
  0
LINE
  5
1A85
330
18
100
AcDbEntity
  8
1
  6
Continuous
100
AcDbLine
 10
463.2015642857139
 20
316.4452023646557
 30
0.0
 11
460.6899542857138
 21
312.8582443646557
 31
0.0
  0
LINE
  5
1A86
330
18
100
AcDbEntity
  8
1
  6
Continuous
100
AcDbLine
 10
459.7857142857136
 20
309.9903623646558
 30
0.0
 11
459.7857142857136
 21
304.1340623646557
 31
0.0
  0
ARC
  5
1A87
330
18
100
AcDbEntity
  8
1
  6
Continuous
100
AcDbCircle
 10
464.7857142857136
 20
309.9903623646558
 30
0.0
 40
5.0
100
AcDbArc
 50
145.0000000000013
 51
180.0000099999993
  0
LINE
  5
1A88
330
18
100
AcDbEntity
  8
1
  6
Continuous
100
AcDbLine
 10
460.9262342857136
 20
320.1747703646557
 30
0.0
 11
463.0794942857137
 21
316.4451963646556
 31
0.0
  0
ARC
  5
1A89
330
18
100
AcDbEntity
  8
1
  6
Continuous
100
AcDbCircle
 10
460.1751342857136
 20
324.6747723646557
 30
0.0
 40
4.5
100
AcDbArc
 50
194.291870000001
 51
270.0
  0
ARC
  5
1A8A
330
18
100
AcDbEntity
  8
1
  6
Continuous
100
AcDbCircle
 10
453.8561442857139
 20
325.1747723646557
 30
0.0
 40
1.5
100
AcDbArc
 50
14.2918650000004
 51
89.99999600000093
  0
LINE
  5
1A8B
330
18
100
AcDbEntity
  8
1
  6
Continuous
100
AcDbLine
 10
448.7857142857136
 20
330.1747723646557
 30
0.0
 11
448.7857142857136
 21
326.6747723646556
 31
0.0
  0
LINE
  5
1A8C
330
18
100
AcDbEntity
  8
4
  6
CENTER
 48
0.2
100
AcDbLine
 10
498.7857142857136
 20
335.1747723646557
 30
0.0
 11
498.785714285714
 21
311.4452023646558
 31
0.0
  0
LINE
  5
1A8D
330
18
100
AcDbEntity
  8
4
  6
CENTER
 48
0.1
100
AcDbLine
 10
537.7857142857136
 20
332.1747723646558
 30
0.0
 11
537.7857142857136
 21
324.6747723646557
 31
0.0
  0
LINE
  5
1A8E
330
18
100
AcDbEntity
  8
1
  6
Continuous
100
AcDbLine
 10
542.2617162857139
 20
325.5450623646555
 30
0.0
 11
541.7570202857139
 21
323.5638943646556
 31
0.0
  0
ARC
  5
1A91
330
18
100
AcDbEntity
  8
1
  6
Continuous
100
AcDbCircle
 10
496.9857112857138
 20
288.5452023646557
 30
0.0
 40
12.898982
100
AcDbArc
 50
54.46232299999969
 51
125.5376700000003
  0
ARC
  5
1A92
330
18
100
AcDbEntity
  8
1
  6
Continuous
100
AcDbCircle
 10
496.9857112857138
 20
305.3452033646558
 30
0.0
 40
12.898982
100
AcDbArc
 50
234.4623299999995
 51
307.7434100000021
  0
LINE
  5
1A93
330
18
100
AcDbEntity
  8
1
  6
Continuous
100
AcDbLine
 10
502.9582222857138
 20
294.9370783646557
 30
0.0
 11
504.1242682857138
 21
299.2888053646558
 31
0.0
  0
ARC
  5
1A95
330
18
100
AcDbEntity
  8
1
  6
Continuous
100
AcDbCircle
 10
490.9857142857138
 20
296.9452043646557
 30
0.0
 40
2.576193299999999
100
AcDbArc
 50
179.9999900000006
 51
234.4623399999979
  0
LINE
  5
1A96
330
18
100
AcDbEntity
  8
1
  6
Continuous
100
AcDbLine
 10
491.4857142857138
 20
298.9013653646558
 30
0.0
 11
491.4857142857138
 21
294.9890423646558
 31
0.0
  0
LINE
  5
1A97
330
18
100
AcDbEntity
  8
1
  6
Continuous
100
AcDbLine
 10
492.4857142857136
 20
299.3687953646558
 30
0.0
 11
492.4857142857136
 21
294.5216203646557
 31
0.0
  0
LINE
  5
1A98
330
18
100
AcDbEntity
  8
1
  6
Continuous
100
AcDbLine
 10
493.4857142857138
 20
299.6470093646557
 30
0.0
 11
493.4857142857138
 21
294.2433983646558
 31
0.0
  0
LINE
  5
1A99
330
18
100
AcDbEntity
  8
1
  6
Continuous
100
AcDbLine
 10
490.4857142857138
 20
299.6867433646557
 30
0.0
 11
490.4857142857138
 21
295.0209633646557
 31
0.0
  0
ARC
  5
1A9A
330
18
100
AcDbEntity
  8
1
  6
Continuous
100
AcDbCircle
 10
496.9857112857138
 20
305.3452033646558
 30
0.0
 40
12.0
100
AcDbArc
 50
244.2285400000033
 51
246.5277399999983
  0
ARC
  5
1A9B
330
18
100
AcDbEntity
  8
1
  6
Continuous
100
AcDbCircle
 10
491.9857142857138
 20
294.9890423646558
 30
0.0
 40
0.5
100
AcDbArc
 50
179.9999900000006
 51
244.2285500000024
  0
ARC
  5
1A9C
330
18
100
AcDbEntity
  8
1
  6
Continuous
100
AcDbCircle
 10
496.9857112857138
 20
305.3452033646558
 30
0.0
 40
12.0
100
AcDbArc
 50
254.8783299999995
 51
256.7727700000001
  0
ARC
  5
1A9D
330
18
100
AcDbEntity
  8
1
  6
Continuous
100
AcDbCircle
 10
493.9857112857138
 20
294.2433983646558
 30
0.0
 40
0.5
100
AcDbArc
 50
179.9999900000006
 51
254.8783400000007
  0
ARC
  5
1A9E
330
18
100
AcDbEntity
  8
1
  6
Continuous
100
AcDbCircle
 10
492.2857142857138
 20
294.5216203646557
 30
0.0
 40
0.2
100
AcDbArc
 50
246.5277399999983
 51
0.0
  0
ARC
  5
1A9F
330
18
100
AcDbEntity
  8
1
  6
Continuous
100
AcDbCircle
 10
494.2857142857136
 20
293.8582513646558
 30
0.0
 40
0.2
100
AcDbArc
 50
256.7727700000001
 51
0.0
  0
LINE
  5
1AA0
330
18
100
AcDbEntity
  8
1
  6
Continuous
100
AcDbLine
 10
494.4857112857138
 20
295.7452073646558
 30
0.0
 11
494.4857112857138
 21
293.8582513646558
 31
0.0
  0
ARC
  5
1AA1
330
18
100
AcDbEntity
  8
1
  6
Continuous
100
AcDbCircle
 10
490.9857142857138
 20
296.9452043646557
 30
0.0
 40
2.576193299999999
100
AcDbArc
 50
125.5376700000003
 51
166.5320299999991
  0
ARC
  5
1AA2
330
18
100
AcDbEntity
  8
1
  6
Continuous
100
AcDbCircle
 10
496.9857112857138
 20
288.5452023646557
 30
0.0
 40
12.0
100
AcDbArc
 50
113.4722600000016
 51
115.7714599999966
  0
ARC
  5
1AA3
330
18
100
AcDbEntity
  8
1
  6
Continuous
100
AcDbCircle
 10
491.9857142857138
 20
298.9013653646558
 30
0.0
 40
0.5
100
AcDbArc
 50
115.7714599999966
 51
180.0000099999993
  0
ARC
  5
1AA4
330
18
100
AcDbEntity
  8
1
  6
Continuous
100
AcDbCircle
 10
496.9857112857138
 20
288.5452023646557
 30
0.0
 40
12.0
100
AcDbArc
 50
103.2272299999998
 51
105.1216700000003
  0
ARC
  5
1AA5
330
18
100
AcDbEntity
  8
1
  6
Continuous
100
AcDbCircle
 10
493.9857112857138
 20
299.6470093646557
 30
0.0
 40
0.5
100
AcDbArc
 50
105.1216700000003
 51
180.0000099999993
  0
ARC
  5
1AA6
330
18
100
AcDbEntity
  8
1
  6
Continuous
100
AcDbCircle
 10
492.2857142857138
 20
299.3687953646558
 30
0.0
 40
0.2
100
AcDbArc
 50
0.0
 51
113.4722600000016
  0
ARC
  5
1AA7
330
18
100
AcDbEntity
  8
1
  6
Continuous
100
AcDbCircle
 10
494.2857142857136
 20
300.0321563646557
 30
0.0
 40
0.2
100
AcDbArc
 50
0.0
 51
103.2272299999998
  0
LINE
  5
1AA8
330
18
100
AcDbEntity
  8
1
  6
Continuous
100
AcDbLine
 10
494.4857112857138
 20
300.0321563646557
 30
0.0
 11
494.4857112857138
 21
298.1452083646558
 31
0.0
  0
LINE
  5
1AA9
330
18
100
AcDbEntity
  8
1
  6
Continuous
100
AcDbLine
 10
495.4857112857136
 20
300.4510863646557
 30
0.0
 11
495.4857112857136
 21
293.4393213646556
 31
0.0
  0
LINE
  5
1AAA
330
18
100
AcDbEntity
  8
1
  6
Continuous
100
AcDbLine
 10
496.4857112857139
 20
300.5347883646558
 30
0.0
 11
496.4857112857139
 21
293.3556273646558
 31
0.0
  0
LINE
  5
1AAB
330
18
100
AcDbEntity
  8
1
  6
Continuous
100
AcDbLine
 10
497.4857112857138
 20
300.5347883646558
 30
0.0
 11
497.4857112857138
 21
293.3556273646558
 31
0.0
  0
LINE
  5
1AAC
330
18
100
AcDbEntity
  8
1
  6
Continuous
100
AcDbLine
 10
498.4857112857138
 20
300.2221053646558
 30
0.0
 11
498.4857112857138
 21
293.6683023646557
 31
0.0
  0
LINE
  5
1AAD
330
18
100
AcDbEntity
  8
1
  6
Continuous
100
AcDbLine
 10
499.4857112857139
 20
296.9452113646557
 30
0.0
 11
499.4857112857139
 21
294.0204523646558
 31
0.0
  0
LINE
  5
1AAE
330
18
100
AcDbEntity
  8
1
  6
Continuous
100
AcDbLine
 10
500.4857112857136
 20
300.0234513646557
 30
0.0
 11
500.4857112857136
 21
293.8669643646557
 31
0.0
  0
LINE
  5
1AAF
330
18
100
AcDbEntity
  8
1
  6
Continuous
100
AcDbLine
 10
501.9857112857138
 20
296.6452083646558
 30
0.0
 11
501.9857112857138
 21
294.4364913646558
 31
0.0
  0
ARC
  5
1AB0
330
18
100
AcDbEntity
  8
1
  6
Continuous
100
AcDbCircle
 10
498.9857112857138
 20
294.0204523646558
 30
0.0
 40
0.5
100
AcDbArc
 50
280.0154100000016
 51
0.0
  0
ARC
  5
1AB1
330
18
100
AcDbEntity
  8
1
  6
Continuous
100
AcDbCircle
 10
496.9857112857138
 20
305.3452033646558
 30
0.0
 40
12.0
100
AcDbArc
 50
278.2832999999989
 51
280.0154100000016
  0
ARC
  5
1AB2
330
18
100
AcDbEntity
  8
1
  6
Continuous
100
AcDbCircle
 10
498.6857232857136
 20
293.6683023646557
 30
0.0
 40
0.2
100
AcDbArc
 50
179.9999900000006
 51
278.2832999999989
  0
ARC
  5
1AB3
330
18
100
AcDbEntity
  8
1
  6
Continuous
100
AcDbCircle
 10
498.9857112857138
 20
299.8699623646557
 30
0.0
 40
0.5
100
AcDbArc
 50
0.0
 51
79.98458900000014
  0
LINE
  5
1AB4
330
18
100
AcDbEntity
  8
1
  6
Continuous
100
AcDbLine
 10
498.9857112857138
 20
296.9452113646557
 30
0.0
 11
499.4857112857139
 21
296.9452113646557
 31
0.0
  0
ARC
  5
1AB5
330
18
100
AcDbEntity
  8
1
  6
Continuous
100
AcDbCircle
 10
496.9857112857138
 20
288.5452023646557
 30
0.0
 40
12.0
100
AcDbArc
 50
79.98458900000014
 51
81.71669699999899
  0
ARC
  5
1AB6
330
18
100
AcDbEntity
  8
1
  6
Continuous
100
AcDbCircle
 10
498.6857232857136
 20
300.2221053646558
 30
0.0
 40
0.2
100
AcDbArc
 50
81.71669699999899
 51
180.0000099999993
  0
LINE
  5
1AB7
330
18
100
AcDbEntity
  8
1
  6
Continuous
100
AcDbLine
 10
495.4857112857139
 20
296.9452113646557
 30
0.0
 11
496.4857112857139
 21
296.9452113646557
 31
0.0
  0
ARC
  5
1AB8
330
18
100
AcDbEntity
  8
1
  6
Continuous
100
AcDbCircle
 10
501.9857112857138
 20
297.1452083646557
 30
0.0
 40
0.5000003600000002
100
AcDbArc
 50
179.9999900000006
 51
0.000010017912262
  0
LINE
  5
1AB9
330
18
100
AcDbEntity
  8
1
  6
Continuous
100
AcDbLine
 10
499.4857112857139
 20
299.8699623646557
 30
0.0
 11
499.4857112857139
 21
298.1452083646558
 31
0.0
  0
LINE
  5
1ABA
330
18
100
AcDbEntity
  8
1
  6
Continuous
100
AcDbLine
 10
501.4857112857138
 20
299.6695083646558
 30
0.0
 11
501.4857112857138
 21
297.1452083646557
 31
0.0
  0
LINE
  5
1ABB
330
18
100
AcDbEntity
  8
1
  6
Continuous
100
AcDbLine
 10
502.4857112857138
 20
299.2105693646557
 30
0.0
 11
502.4857112857138
 21
297.1452083646557
 31
0.0
  0
ARC
  5
1ABC
330
18
100
AcDbEntity
  8
1
  6
Continuous
100
AcDbCircle
 10
502.9857112857138
 20
296.9452043646557
 30
0.0
 40
2.576193299999999
100
AcDbArc
 50
332.2377599999985
 51
54.46232299999969
  0
LINE
  5
1ABD
330
18
100
AcDbEntity
  8
1
  6
Continuous
100
AcDbLine
 10
503.4963012857136
 20
296.9452113646557
 30
0.0
 11
505.5619132857137
 21
296.9452113646557
 31
0.0
  0
ARC
  5
1ABE
330
18
100
AcDbEntity
  8
1
  6
Continuous
100
AcDbCircle
 10
536.9704672857136
 20
294.1340623646557
 30
0.0
 40
10.0
100
AcDbArc
 50
90.00000299999769
 51
180.0000099999993
  0
LINE
  5
1AC1
330
18
100
AcDbEntity
  8
1
  6
Continuous
100
AcDbLine
 10
534.369851285714
 20
316.4452023646558
 30
0.0
 11
536.8814712857138
 21
312.8582403646557
 31
0.0
  0
LINE
  5
1AC2
330
18
100
AcDbEntity
  8
1
  6
Continuous
100
AcDbLine
 10
536.6452002857138
 20
320.1747743646557
 30
0.0
 11
534.4919292857139
 21
316.4452043646557
 31
0.0
  0
LINE
  5
1AC3
330
18
100
AcDbEntity
  8
1
  6
Continuous
100
AcDbLine
 10
537.7857142857136
 20
309.9903623646558
 30
0.0
 11
537.7857142857136
 21
304.1340623646557
 31
0.0
  0
LINE
  5
1AC4
330
18
100
AcDbEntity
  8
1
  6
Continuous
100
AcDbLine
 10
537.7857142857136
 20
304.1340623646557
 30
0.0
 11
536.9704672857136
 21
304.1340623646557
 31
0.0
  0
ARC
  5
1AC5
330
18
100
AcDbEntity
  8
1
  6
Continuous
100
AcDbCircle
 10
532.7857142857136
 20
309.9903623646558
 30
0.0
 40
5.0
100
AcDbArc
 50
359.9999900000006
 51
35.0000030000006
  0
ARC
  5
1AC6
330
18
100
AcDbEntity
  8
1
  6
Continuous
100
AcDbCircle
 10
537.3962912857138
 20
324.6747723646557
 30
0.0
 40
4.5
100
AcDbArc
 50
270.0
 51
345.7081299999988
  0
ARC
  5
1AC8
330
18
100
AcDbEntity
  8
1
  6
Continuous
100
AcDbCircle
 10
543.7152912857137
 20
325.1747723646557
 30
0.0
 40
1.5
100
AcDbArc
 50
90.00000299999769
 51
165.7081299999988
  0
LINE
  5
1AC9
330
18
100
AcDbEntity
  8
1
  6
Continuous
100
AcDbLine
 10
548.7857142857136
 20
330.1747723646557
 30
0.0
 11
548.7857142857136
 21
326.6747723646556
 31
0.0
  0
ARC
  5
1AFF
330
18
100
AcDbEntity
  8
1
  6
Continuous
100
AcDbCircle
 10
78.78571428571376
 20
98.17477236465572
 30
0.0
 40
200.0
100
AcDbArc
 50
84.85114600000072
 51
95.14885900000207
  0
ARC
  5
1B00
330
18
100
AcDbEntity
  8
1
  6
Continuous
100
AcDbCircle
 10
78.78571428571376
 20
423.1747723646556
 30
0.0
 40
200.0
100
AcDbArc
 50
264.8511399999999
 51
275.1488500000009
  0
LINE
  5
1B01
330
18
100
AcDbEntity
  8
1
  6
Continuous
100
AcDbLine
 10
59.78571428571378
 20
304.1340623646557
 30
0.0
 11
97.78571428571376
 21
304.1340623646557
 31
0.0
  0
LINE
  5
1B02
330
18
100
AcDbEntity
  8
1
  6
Continuous
100
AcDbLine
 10
40.17513388571386
 20
320.1747723646557
 30
0.0
 11
117.3962942857137
 21
320.1747723646557
 31
0.0
  0
LINE
  5
1B03
330
18
100
AcDbEntity
  8
1
  6
Continuous
100
AcDbLine
 10
128.7857142857137
 20
330.1747723646557
 30
0.0
 11
28.78571428571376
 21
330.1747723646557
 31
0.0
  0
LINE
  5
1B04
330
18
100
AcDbEntity
  8
1
  6
Continuous
100
AcDbLine
 10
43.0794993857139
 20
316.4452023646557
 30
0.0
 11
114.4919372857138
 21
316.4452023646557
 31
0.0
  0
LINE
  5
1B05
330
18
100
AcDbEntity
  8
1
  6
Continuous
100
AcDbLine
 10
128.7857142857137
 20
326.6747723646556
 30
0.0
 11
28.78571428571376
 21
326.6747723646556
 31
0.0
  0
LINE
  5
1B06
330
18
100
AcDbEntity
  8
4
  6
CENTER
 48
0.2
100
AcDbLine
 10
33.78571428571377
 20
260.6747723646557
 30
0.0
 11
123.7857142857139
 21
260.6747723646557
 31
0.0
  0
LINE
  5
1B0C
330
18
100
AcDbEntity
  8
1
  6
Continuous
100
AcDbLine
 10
55.28571428571376
 20
239.8860993646557
 30
0.0
 11
55.28571428571376
 21
281.4634453646557
 31
0.0
  0
LINE
  5
1B0D
330
18
100
AcDbEntity
  8
1
  6
Continuous
100
AcDbLine
 10
56.28571428571376
 20
228.9616123646557
 30
0.0
 11
56.28571428571376
 21
292.3879303646557
 31
0.0
  0
ARC
  5
1B0E
330
18
100
AcDbEntity
  8
1
  6
Continuous
100
AcDbCircle
 10
69.32624128571386
 20
278.7898923646557
 30
0.0
 40
30.0
100
AcDbArc
 50
179.1512599999998
 51
190.4149200000009
  0
LINE
  5
1B0F
330
18
100
AcDbEntity
  8
1
  6
Continuous
100
AcDbLine
 10
50.28571738571372
 20
284.6747723646556
 30
0.0
 11
48.78571696146195
 21
277.6747683646556
 31
0.0
  0
LINE
  5
1B10
330
18
100
AcDbEntity
  8
1
  6
Continuous
100
AcDbLine
 10
53.78571428571376
 20
284.6747723646558
 30
0.0
 11
53.78571428571376
 21
247.6747723646557
 31
0.0
  0
ARC
  5
1B11
330
18
100
AcDbEntity
  8
1
  6
Continuous
100
AcDbCircle
 10
61.28571428571376
 20
228.9616123646557
 30
0.0
 40
5.0
100
AcDbArc
 50
179.9999900000006
 51
264.8511300000005
  0
LINE
  5
1B12
330
18
100
AcDbEntity
  8
1
  6
Continuous
100
AcDbLine
 10
39.28571528571387
 20
255.5497723646557
 30
0.0
 11
40.16071618571389
 21
254.6747723646556
 31
0.0
  0
LINE
  5
1B14
330
18
100
AcDbEntity
  8
1
  6
Continuous
100
AcDbLine
 10
40.28571428571376
 20
268.6747723646557
 30
0.0
 11
40.28571428571376
 21
252.6747723646557
 31
0.0
  0
LINE
  5
1B15
330
18
100
AcDbEntity
  8
1
  6
Continuous
100
AcDbLine
 10
42.28571428571377
 20
269.9247723646557
 30
0.0
 11
42.28571428571377
 21
251.4247723646557
 31
0.0
  0
LINE
  5
1B16
330
18
100
AcDbEntity
  8
1
  6
Continuous
100
AcDbLine
 10
43.28571428571375
 20
256.2026353646557
 30
0.0
 11
43.28571428571375
 21
254.6835993646557
 31
0.0
  0
LINE
  5
1B17
330
18
100
AcDbEntity
  8
1
  6
Continuous
100
AcDbLine
 10
47.98571123571377
 20
256.2026353646557
 30
0.0
 11
47.98571123571377
 21
254.6835993646557
 31
0.0
  0
LINE
  5
1B18
330
18
100
AcDbEntity
  8
1
  6
Continuous
100
AcDbLine
 10
48.78571428571376
 20
277.6747723646557
 30
0.0
 11
48.78571428571376
 21
247.6747723646557
 31
0.0
  0
LINE
  5
1B19
330
18
100
AcDbEntity
  8
1
  6
Continuous
100
AcDbLine
 10
48.78571428571376
 20
247.6747723646557
 30
0.0
 11
53.78571428571376
 21
247.6747723646557
 31
0.0
  0
LINE
  5
1B1A
330
18
100
AcDbEntity
  8
1
  6
Continuous
100
AcDbLine
 10
43.28571428571375
 20
250.1747723646557
 30
0.0
 11
47.98571123571377
 21
250.1747723646557
 31
0.0
  0
LINE
  5
1B1B
330
18
100
AcDbEntity
  8
1
  6
Continuous
100
AcDbLine
 10
43.71665298571382
 20
254.6835993646557
 30
0.0
 11
47.45972548571399
 21
254.6835993646557
 31
0.0
  0
ARC
  5
1B1C
330
18
100
AcDbEntity
  8
1
  6
Continuous
100
AcDbCircle
 10
41.53571428571376
 20
252.6747723646557
 30
0.0
 40
1.25
100
AcDbArc
 50
179.9999900000006
 51
270.0
  0
LINE
  5
1B1D
330
18
100
AcDbEntity
  8
1
  6
Continuous
100
AcDbLine
 10
40.28571428571376
 20
254.6747723646557
 30
0.0
 11
40.16071428571375
 21
254.6747723646557
 31
0.0
  0
ARC
  5
1B1E
330
18
100
AcDbEntity
  8
1
  6
Continuous
100
AcDbCircle
 10
43.71665298571382
 20
253.6835993646557
 30
0.0
 40
1.0
100
AcDbArc
 50
90.00000299999769
 51
142.0807500000005
  0
ARC
  5
1B1F
330
18
100
AcDbEntity
  8
1
  6
Continuous
100
AcDbCircle
 10
45.32690538571386
 20
252.4291823646557
 30
0.0
 40
3.041187499999998
100
AcDbArc
 50
142.0807500000005
 51
209.4779000000002
  0
LINE
  5
1B20
330
18
100
AcDbEntity
  8
1
  6
Continuous
100
AcDbLine
 10
41.53571428571376
 20
251.4247723646557
 30
0.0
 11
42.28571428571377
 21
251.4247723646557
 31
0.0
  0
LINE
  5
1B21
330
18
100
AcDbEntity
  8
1
  6
Continuous
100
AcDbLine
 10
42.28571618571391
 20
251.4247723646557
 30
0.0
 11
43.28571568571397
 21
250.1747723646557
 31
0.0
  0
ARC
  5
1B22
330
18
100
AcDbEntity
  8
1
  6
Continuous
100
AcDbCircle
 10
45.20922958571373
 20
252.4291823646557
 30
0.0
 40
3.576484399999999
100
AcDbArc
 50
342.9304699999984
 51
29.13504600000024
  0
LINE
  5
1B23
330
18
100
AcDbEntity
  8
1
  6
Continuous
100
AcDbLine
 10
48.78571443384885
 20
251.6747643646557
 30
0.0
 11
47.98571588571394
 21
250.1747643646557
 31
0.0
  0
ARC
  5
1B24
330
18
100
AcDbEntity
  8
1
  6
Continuous
100
AcDbCircle
 10
47.45972548571399
 20
253.6835993646557
 30
0.0
 40
1.0
100
AcDbArc
 50
29.13504600000024
 51
90.00000299999769
  0
ARC
  5
1B25
330
18
100
AcDbEntity
  8
1
  6
Continuous
100
AcDbCircle
 10
55.78571428571375
 20
239.8860993646557
 30
0.0
 40
0.5
100
AcDbArc
 50
179.9999900000006
 51
240.0000099999997
  0
LINE
  5
1B26
330
18
100
AcDbEntity
  8
1
  6
Continuous
100
AcDbLine
 10
55.53571288571379
 20
239.4530923646557
 30
0.0
 11
56.28571478571394
 21
239.0200783646557
 31
0.0
  0
ARC
  5
1B27
330
18
100
AcDbEntity
  8
1
  6
Continuous
100
AcDbCircle
 10
53.98571118571386
 20
251.7747703646557
 30
0.0
 40
0.2
100
AcDbArc
 50
179.9999900000006
 51
270.0
  0
LINE
  5
1B28
330
18
100
AcDbEntity
  8
1
  6
Continuous
100
AcDbLine
 10
53.98571118571386
 20
251.5747743646557
 30
0.0
 11
55.28571428571376
 21
251.5747743646557
 31
0.0
  0
ARC
  5
1B29
330
18
100
AcDbEntity
  8
1
  6
Continuous
100
AcDbCircle
 10
43.71665298571382
 20
267.6659453646557
 30
0.0
 40
1.0
100
AcDbArc
 50
217.9192400000006
 51
270.0
  0
ARC
  5
1B2A
330
18
100
AcDbEntity
  8
1
  6
Continuous
100
AcDbCircle
 10
47.45972548571399
 20
267.6659453646557
 30
0.0
 40
1.0
100
AcDbArc
 50
270.0
 51
330.8649600000003
  0
LINE
  5
1B2B
330
18
100
AcDbEntity
  8
1
  6
Continuous
100
AcDbLine
 10
43.94296378571379
 20
265.1469093646557
 30
0.0
 11
47.26790728571382
 21
265.1469093646557
 31
0.0
  0
LINE
  5
1B2C
330
18
100
AcDbEntity
  8
1
  6
Continuous
100
AcDbLine
 10
43.71665298571382
 20
266.6659453646557
 30
0.0
 11
47.45972548571399
 21
266.6659453646557
 31
0.0
  0
LINE
  5
1B2D
330
18
100
AcDbEntity
  8
1
  6
Continuous
100
AcDbLine
 10
43.94296378571379
 20
256.2026353646557
 30
0.0
 11
47.26790728571382
 21
256.2026353646557
 31
0.0
  0
ARC
  5
1B2E
330
18
100
AcDbEntity
  8
1
  6
Continuous
100
AcDbCircle
 10
52.78571428571376
 20
260.6747723646557
 30
0.0
 40
10.5
100
AcDbArc
 50
158.5623799999995
 51
201.4376200000004
  0
LINE
  5
1B2F
330
18
100
AcDbEntity
  8
1
  6
Continuous
100
AcDbLine
 10
39.28571428571376
 20
265.7997723646557
 30
0.0
 11
39.28571428571376
 21
255.5497723646557
 31
0.0
  0
ARC
  5
1B31
330
18
100
AcDbEntity
  8
1
  6
Continuous
100
AcDbCircle
 10
43.94296378571379
 20
257.2026353646557
 30
0.0
 40
1.0
100
AcDbArc
 50
201.4376200000004
 51
270.0
  0
LINE
  5
1B32
330
18
100
AcDbEntity
  8
2
  6
Continuous
100
AcDbLine
 10
40.28571428571376
 20
265.7277723646557
 30
0.0
 11
39.28571428571376
 21
265.7277723646557
 31
0.0
  0
LINE
  5
1B33
330
18
100
AcDbEntity
  8
1
  6
Continuous
100
AcDbLine
 10
40.28571428571376
 20
266.6747723646557
 30
0.0
 11
40.16071428571375
 21
266.6747723646557
 31
0.0
  0
LINE
  5
1B34
330
18
100
AcDbEntity
  8
1
  6
Continuous
100
AcDbLine
 10
39.28570948571382
 20
265.7997643646556
 30
0.0
 11
40.16071238571385
 21
266.6747723646557
 31
0.0
  0
ARC
  5
1B35
330
18
100
AcDbEntity
  8
1
  6
Continuous
100
AcDbCircle
 10
43.94296378571379
 20
264.1469093646557
 30
0.0
 40
1.0
100
AcDbArc
 50
90.00000299999769
 51
158.5623799999995
  0
LINE
  5
1B36
330
18
100
AcDbEntity
  8
1
  6
Continuous
100
AcDbLine
 10
43.28571428571375
 20
266.6659453646557
 30
0.0
 11
43.28571428571375
 21
265.1469093646557
 31
0.0
  0
ARC
  5
1B37
330
18
100
AcDbEntity
  8
1
  6
Continuous
100
AcDbCircle
 10
35.88572028571388
 20
260.6747723646557
 30
0.0
 40
12.9
100
AcDbArc
 50
343.0356799999991
 51
16.96432000000079
  0
ARC
  5
1B38
330
18
100
AcDbEntity
  8
1
  6
Continuous
100
AcDbCircle
 10
47.26790728571382
 20
257.2026353646557
 30
0.0
 40
1.0
100
AcDbArc
 50
270.0
 51
343.0356799999991
  0
ARC
  5
1B39
330
18
100
AcDbEntity
  8
1
  6
Continuous
100
AcDbCircle
 10
47.26790728571382
 20
264.1469093646557
 30
0.0
 40
1.0
100
AcDbArc
 50
16.96432000000079
 51
90.00000299999769
  0
LINE
  5
1B3A
330
18
100
AcDbEntity
  8
1
  6
Continuous
100
AcDbLine
 10
47.98571123571377
 20
266.6659453646557
 30
0.0
 11
47.98571123571377
 21
265.1469093646557
 31
0.0
  0
LINE
  5
1B3B
330
18
100
AcDbEntity
  8
1
  6
Continuous
100
AcDbLine
 10
43.28571428571375
 20
271.1747723646557
 30
0.0
 11
47.98571123571377
 21
271.1747723646557
 31
0.0
  0
LINE
  5
1B3C
330
18
100
AcDbEntity
  8
1
  6
Continuous
100
AcDbLine
 10
40.54321488571395
 20
269.4346673646557
 30
0.0
 11
39.82050618571383
 21
273.3666283646557
 31
0.0
  0
ARC
  5
1B3D
330
18
100
AcDbEntity
  8
1
  6
Continuous
100
AcDbCircle
 10
41.53571428571376
 20
268.6747723646557
 30
0.0
 40
1.25
100
AcDbArc
 50
90.00000299999769
 51
180.0000099999993
  0
ARC
  5
1B3E
330
18
100
AcDbEntity
  8
1
  6
Continuous
100
AcDbCircle
 10
45.32690538571386
 20
268.9203623646557
 30
0.0
 40
3.041188499999999
100
AcDbArc
 50
150.5220799999985
 51
217.9192499999994
  0
LINE
  5
1B3F
330
18
100
AcDbEntity
  8
1
  6
Continuous
100
AcDbLine
 10
41.53571428571376
 20
269.9247723646557
 30
0.0
 11
42.28571428571377
 21
269.9247723646557
 31
0.0
  0
LINE
  5
1B40
330
18
100
AcDbEntity
  8
1
  6
Continuous
100
AcDbLine
 10
42.28571428571377
 20
269.9247723646557
 30
0.0
 11
43.2857161857139
 21
271.1747723646557
 31
0.0
  0
ARC
  5
1B41
330
18
100
AcDbEntity
  8
1
  6
Continuous
100
AcDbCircle
 10
45.20922958571373
 20
268.9203623646557
 30
0.0
 40
3.576485599999998
100
AcDbArc
 50
330.8649600000003
 51
17.06953699999963
  0
LINE
  5
1B42
330
18
100
AcDbEntity
  8
1
  6
Continuous
100
AcDbLine
 10
47.98571659571371
 20
271.1747723646556
 30
0.0
 11
48.78571697405845
 21
269.6747723646556
 31
0.0
  0
ARC
  5
1B43
330
18
100
AcDbEntity
  8
1
  6
Continuous
100
AcDbCircle
 10
53.98571118571386
 20
269.5747743646557
 30
0.0
 40
0.2
100
AcDbArc
 50
90.00000299999769
 51
180.0000099999993
  0
LINE
  5
1B44
330
18
100
AcDbEntity
  8
1
  6
Continuous
100
AcDbLine
 10
53.98571118571386
 20
269.7747703646557
 30
0.0
 11
55.28571428571376
 21
269.7747703646557
 31
0.0
  0
LINE
  5
1B45
330
18
100
AcDbEntity
  8
4
  6
CENTER
 48
0.1
100
AcDbLine
 10
39.78571428571376
 20
332.1747723646557
 30
0.0
 11
39.78571428571376
 21
324.6747723646557
 31
0.0
  0
LINE
  5
1B46
330
18
100
AcDbEntity
  8
1
  6
Continuous
100
AcDbLine
 10
35.30971628571387
 20
325.5450603646557
 30
0.0
 11
35.81441028571362
 21
323.5638923646557
 31
0.0
  0
ARC
  5
1B47
330
18
100
AcDbEntity
  8
1
  6
Continuous
100
AcDbCircle
 10
40.17513388571386
 20
324.6747723646557
 30
0.0
 40
4.5
100
AcDbArc
 50
194.291870000001
 51
270.0
  0
ARC
  5
1B48
330
18
100
AcDbEntity
  8
1
  6
Continuous
100
AcDbCircle
 10
64.28571428571378
 20
294.1340623646557
 30
0.0
 40
11.0
100
AcDbArc
 50
114.6199700000002
 51
180.0000099999993
  0
ARC
  5
1B49
330
18
100
AcDbEntity
  8
1
  6
Continuous
100
AcDbCircle
 10
59.78571428571378
 20
294.1340623646557
 30
0.0
 40
10.0
100
AcDbArc
 50
90.00000299999769
 51
180.0000099999993
  0
LINE
  5
1B4A
330
18
100
AcDbEntity
  8
1
  6
Continuous
100
AcDbLine
 10
39.32952798571387
 20
279.2342703646557
 30
0.0
 11
39.78625598571375
 21
310.0644243646556
 31
0.0
  0
LINE
  5
1B4D
330
18
100
AcDbEntity
  8
1
  6
Continuous
100
AcDbLine
 10
49.78571428571378
 20
294.1340623646557
 30
0.0
 11
49.78571428571378
 21
287.1747723646556
 31
0.0
  0
LINE
  5
1B4E
330
18
100
AcDbEntity
  8
1
  6
Continuous
100
AcDbLine
 10
49.78571538571396
 20
287.1747723646556
 30
0.0
 11
50.28571558571389
 21
284.6747723646556
 31
0.0
  0
LINE
  5
1B4F
330
18
100
AcDbEntity
  8
1
  6
Continuous
100
AcDbLine
 10
53.28571428571375
 20
294.1340623646557
 30
0.0
 11
53.28571428571375
 21
287.1747723646556
 31
0.0
  0
ARC
  5
1B50
330
18
100
AcDbEntity
  8
1
  6
Continuous
100
AcDbCircle
 10
55.78571428571375
 20
281.4634453646557
 30
0.0
 40
0.5
100
AcDbArc
 50
119.9999900000002
 51
180.0000099999993
  0
LINE
  5
1B51
330
18
100
AcDbEntity
  8
1
  6
Continuous
100
AcDbLine
 10
55.53571238571385
 20
281.8964563646557
 30
0.0
 11
56.28571478571394
 21
282.3294693646557
 31
0.0
  0
LINE
  5
1B52
330
18
100
AcDbEntity
  8
1
  6
Continuous
100
AcDbLine
 10
53.78571238571385
 20
284.6747723646558
 30
0.0
 11
53.28571288571403
 21
287.1747723646556
 31
0.0
  0
ARC
  5
1B53
330
18
100
AcDbEntity
  8
1
  6
Continuous
100
AcDbCircle
 10
61.28571428571376
 20
292.3879303646557
 30
0.0
 40
5.0
100
AcDbArc
 50
95.14887200000185
 51
180.0000099999993
  0
LINE
  5
1B54
330
18
100
AcDbEntity
  8
1
  6
Continuous
100
AcDbLine
 10
43.20157918571385
 20
316.4452023646557
 30
0.0
 11
40.6899586857139
 21
312.8582363646557
 31
0.0
  0
ARC
  5
1B55
330
18
100
AcDbEntity
  8
1
  6
Continuous
100
AcDbCircle
 10
44.78571428571378
 20
309.9903623646557
 30
0.0
 40
5.0
100
AcDbArc
 50
145.0000000000013
 51
180.0000099999993
  0
LINE
  5
1B56
330
18
100
AcDbEntity
  8
1
  6
Continuous
100
AcDbLine
 10
40.92623008571377
 20
320.1747733646556
 30
0.0
 11
43.07949888571374
 21
316.4452023646556
 31
0.0
  0
LINE
  5
1B57
330
18
100
AcDbEntity
  8
1
  6
Continuous
100
AcDbLine
 10
28.78571428571376
 20
330.1747723646557
 30
0.0
 11
28.78571428571376
 21
326.6747723646556
 31
0.0
  0
ARC
  5
1B58
330
18
100
AcDbEntity
  8
1
  6
Continuous
100
AcDbCircle
 10
33.8561332857139
 20
325.1747723646557
 30
0.0
 40
1.5
100
AcDbArc
 50
14.2918650000004
 51
89.99999600000093
  0
LINE
  5
1B59
330
18
100
AcDbEntity
  8
1
  6
Continuous
100
AcDbLine
 10
102.2857142857137
 20
239.8860993646557
 30
0.0
 11
102.2857142857137
 21
281.4634453646557
 31
0.0
  0
ARC
  5
1B5A
330
18
100
AcDbEntity
  8
1
  6
Continuous
100
AcDbCircle
 10
88.24518728571389
 20
278.7898923646557
 30
0.0
 40
30.0
100
AcDbArc
 50
349.5850700000008
 51
0.8487352599996922
  0
LINE
  5
1B5B
330
18
100
AcDbEntity
  8
1
  6
Continuous
100
AcDbLine
 10
101.2857142857137
 20
292.3879303646557
 30
0.0
 11
101.2857142857137
 21
260.6747723646557
 31
0.0
  0
LINE
  5
1B5C
330
18
100
AcDbEntity
  8
1
  6
Continuous
100
AcDbLine
 10
107.2857102857137
 20
284.6747723646556
 30
0.0
 11
108.7857102857137
 21
277.6747723646556
 31
0.0
  0
LINE
  5
1B5D
330
18
100
AcDbEntity
  8
1
  6
Continuous
100
AcDbLine
 10
103.7857142857137
 20
284.6747723646558
 30
0.0
 11
103.7857142857137
 21
247.6747723646557
 31
0.0
  0
LINE
  5
1B5E
330
18
100
AcDbEntity
  8
4
  6
CENTER
 48
0.2
100
AcDbLine
 10
78.78571428571376
 20
335.1747723646557
 30
0.0
 11
78.78571428571376
 21
218.1747723646557
 31
0.0
  0
LINE
  5
1B5F
330
18
100
AcDbEntity
  8
1
  6
Continuous
100
AcDbLine
 10
101.2857142857137
 20
228.9616123646557
 30
0.0
 11
101.2857142857137
 21
260.6747723646557
 31
0.0
  0
ARC
  5
1B60
330
18
100
AcDbEntity
  8
1
  6
Continuous
100
AcDbCircle
 10
96.28571428571376
 20
228.9616123646557
 30
0.0
 40
5.0
100
AcDbArc
 50
275.1488500000009
 51
0.0
  0
LINE
  5
1B61
330
18
100
AcDbEntity
  8
1
  6
Continuous
100
AcDbLine
 10
102.0357062857137
 20
239.4530853646557
 30
0.0
 11
101.2857062857137
 21
239.0200713646557
 31
0.0
  0
LINE
  5
1B62
330
18
100
AcDbEntity
  8
1
  6
Continuous
100
AcDbLine
 10
114.2857142857137
 20
269.1747723646557
 30
0.0
 11
114.2857142857137
 21
252.1747723646557
 31
0.0
  0
LINE
  5
1B63
330
18
100
AcDbEntity
  8
1
  6
Continuous
100
AcDbLine
 10
112.2857142857137
 20
271.1747723646557
 30
0.0
 11
112.2857142857137
 21
250.1747723646557
 31
0.0
  0
LINE
  5
1B64
330
18
100
AcDbEntity
  8
1
  6
Continuous
100
AcDbLine
 10
108.7857142857137
 20
277.6747723646557
 30
0.0
 11
108.7857142857137
 21
247.6747723646557
 31
0.0
  0
ARC
  5
1B65
330
18
100
AcDbEntity
  8
1
  6
Continuous
100
AcDbCircle
 10
101.7857142857137
 20
239.8860993646557
 30
0.0
 40
0.5
100
AcDbArc
 50
299.9999999999997
 51
0.0
  0
LINE
  5
1B66
330
18
100
AcDbEntity
  8
1
  6
Continuous
100
AcDbLine
 10
112.2857142857137
 20
250.1747723646557
 30
0.0
 11
108.7857142857137
 21
250.1747723646557
 31
0.0
  0
LINE
  5
1B67
330
18
100
AcDbEntity
  8
1
  6
Continuous
100
AcDbLine
 10
108.7857142857137
 20
247.6747723646557
 30
0.0
 11
103.7857142857137
 21
247.6747723646557
 31
0.0
  0
ARC
  5
1B68
330
18
100
AcDbEntity
  8
1
  6
Continuous
100
AcDbCircle
 10
103.5857092857138
 20
251.7747703646557
 30
0.0
 40
0.2
100
AcDbArc
 50
270.0
 51
0.0
  0
LINE
  5
1B69
330
18
100
AcDbEntity
  8
1
  6
Continuous
100
AcDbLine
 10
103.5857092857138
 20
251.5747743646557
 30
0.0
 11
102.2857142857137
 21
251.5747743646557
 31
0.0
  0
LINE
  5
1B6A
330
18
100
AcDbEntity
  8
1
  6
Continuous
100
AcDbLine
 10
114.2857142857137
 20
252.1747723646556
 30
0.0
 11
112.2857142857137
 21
250.1747723646557
 31
0.0
  0
LINE
  5
1B6B
330
18
100
AcDbEntity
  8
1
  6
Continuous
100
AcDbLine
 10
114.7857142857137
 20
268.6747723646557
 30
0.0
 11
114.7857142857137
 21
263.6747723646557
 31
0.0
  0
LINE
  5
1B6C
330
18
100
AcDbEntity
  8
1
  6
Continuous
100
AcDbLine
 10
116.0191202857138
 20
263.9446163646557
 30
0.0
 11
117.7509162857138
 21
273.3666283646557
 31
0.0
  0
ARC
  5
1B6D
330
18
100
AcDbEntity
  8
1
  6
Continuous
100
AcDbCircle
 10
111.101495285714
 20
264.8484933646557
 30
0.0
 40
5.0
100
AcDbArc
 50
309.5568699999997
 51
349.5850700000008
  0
LINE
  5
1B6E
330
18
100
AcDbEntity
  8
1
  6
Continuous
100
AcDbLine
 10
114.2857142857137
 20
259.9993439174941
 30
0.0
 11
114.7857142857137
 21
259.5453489174941
 31
0.0
  0
LINE
  5
1B6F
330
18
100
AcDbEntity
  8
1
  6
Continuous
100
AcDbLine
 10
114.7857142857137
 20
259.5453489174941
 30
0.0
 11
114.7857142857137
 21
256.4674817563485
 31
0.0
  0
LINE
  5
1B70
330
18
100
AcDbEntity
  8
1
  6
Continuous
100
AcDbLine
 10
114.7857142857137
 20
256.4674817563485
 30
0.0
 11
114.2857142857137
 21
255.7918297563485
 31
0.0
  0
LINE
  5
1B71
330
18
100
AcDbEntity
  8
1
  6
Continuous
100
AcDbLine
 10
114.7857142857137
 20
263.6747723646557
 30
0.0
 11
114.2857142857137
 21
263.3246673646557
 31
0.0
  0
LINE
  5
1B72
330
18
100
AcDbEntity
  8
1
  6
Continuous
100
AcDbLine
 10
112.2857142857137
 20
271.1747723646557
 30
0.0
 11
108.7857142857137
 21
271.1747723646557
 31
0.0
  0
ARC
  5
1B73
330
18
100
AcDbEntity
  8
1
  6
Continuous
100
AcDbCircle
 10
103.5857092857138
 20
269.5747743646557
 30
0.0
 40
0.2
100
AcDbArc
 50
0.0
 51
90.00000299999769
  0
LINE
  5
1B74
330
18
100
AcDbEntity
  8
1
  6
Continuous
100
AcDbLine
 10
103.5857092857138
 20
269.7747703646557
 30
0.0
 11
102.2857142857137
 21
269.7747703646557
 31
0.0
  0
LINE
  5
1B75
330
18
100
AcDbEntity
  8
1
  6
Continuous
100
AcDbLine
 10
114.7857142857137
 20
268.6747723646556
 30
0.0
 11
112.2857142857137
 21
271.1747723646556
 31
0.0
  0
LINE
  5
1B76
330
18
100
AcDbEntity
  8
4
  6
CENTER
 48
0.1
100
AcDbLine
 10
117.7857142857137
 20
332.1747723646557
 30
0.0
 11
117.7857142857137
 21
324.6747723646557
 31
0.0
  0
LINE
  5
1B77
330
18
100
AcDbEntity
  8
1
  6
Continuous
100
AcDbLine
 10
122.2617202857136
 20
325.5450643646556
 30
0.0
 11
121.7570202857136
 21
323.5638913646556
 31
0.0
  0
ARC
  5
1B78
330
18
100
AcDbEntity
  8
1
  6
Continuous
100
AcDbCircle
 10
96.28571428571376
 20
292.3879303646557
 30
0.0
 40
5.0
100
AcDbArc
 50
0.0
 51
84.85114600000072
  0
ARC
  5
1B79
330
18
100
AcDbEntity
  8
1
  6
Continuous
100
AcDbCircle
 10
93.28571428571377
 20
294.1340623646557
 30
0.0
 40
11.0
100
AcDbArc
 50
0.0
 51
65.38002600000186
  0
ARC
  5
1B7A
330
18
100
AcDbEntity
  8
1
  6
Continuous
100
AcDbCircle
 10
97.78571428571376
 20
294.1340623646557
 30
0.0
 40
10.0
100
AcDbArc
 50
0.0
 51
90.00000299999769
  0
LINE
  5
1B7B
330
18
100
AcDbEntity
  8
1
  6
Continuous
100
AcDbLine
 10
102.035710285714
 20
281.8964593646557
 30
0.0
 11
101.2857062857137
 21
282.3294733646557
 31
0.0
  0
LINE
  5
1B85
330
18
100
AcDbEntity
  8
1
  6
Continuous
100
AcDbLine
 10
118.2418912857137
 20
279.2342743646557
 30
0.0
 11
117.7851652857138
 21
310.0644263646557
 31
0.0
  0
LINE
  5
1B86
330
18
100
AcDbEntity
  8
1
  6
Continuous
100
AcDbLine
 10
107.7857142857137
 20
294.1340623646557
 30
0.0
 11
107.7857142857137
 21
287.1747723646556
 31
0.0
  0
LINE
  5
1B87
330
18
100
AcDbEntity
  8
1
  6
Continuous
100
AcDbLine
 10
104.2857142857137
 20
294.1340623646557
 30
0.0
 11
104.2857142857137
 21
287.1747723646556
 31
0.0
  0
ARC
  5
1B88
330
18
100
AcDbEntity
  8
1
  6
Continuous
100
AcDbCircle
 10
101.7857142857137
 20
281.4634453646557
 30
0.0
 40
0.5
100
AcDbArc
 50
0.0
 51
60.0000020000013
  0
LINE
  5
1B89
330
18
100
AcDbEntity
  8
1
  6
Continuous
100
AcDbLine
 10
103.7857102857137
 20
284.6747763646557
 30
0.0
 11
104.2857102857137
 21
287.1747723646559
 31
0.0
  0
LINE
  5
1B8A
330
18
100
AcDbEntity
  8
1
  6
Continuous
100
AcDbLine
 10
107.7857142857137
 20
287.1747723646556
 30
0.0
 11
107.2857142857137
 21
284.6747723646558
 31
0.0
  0
ARC
  5
1B8B
330
18
100
AcDbEntity
  8
1
  6
Continuous
100
AcDbCircle
 10
117.3962942857137
 20
324.6747723646557
 30
0.0
 40
4.5
100
AcDbArc
 50
270.0
 51
345.7081299999988
  0
LINE
  5
1B8C
330
18
100
AcDbEntity
  8
1
  6
Continuous
100
AcDbLine
 10
114.369859285714
 20
316.4452043646557
 30
0.0
 11
116.8814782857139
 21
312.8582443646557
 31
0.0
  0
ARC
  5
1B8D
330
18
100
AcDbEntity
  8
1
  6
Continuous
100
AcDbCircle
 10
112.7857142857137
 20
309.9903623646557
 30
0.0
 40
5.0
100
AcDbArc
 50
359.9999900000006
 51
35.0000030000006
  0
LINE
  5
1B8E
330
18
100
AcDbEntity
  8
1
  6
Continuous
100
AcDbLine
 10
116.6451962857138
 20
320.1747743646557
 30
0.0
 11
114.4919292857139
 21
316.4452003646557
 31
0.0
  0
ARC
  5
1B90
330
18
100
AcDbEntity
  8
1
  6
Continuous
100
AcDbCircle
 10
123.7152952857138
 20
325.1747723646557
 30
0.0
 40
1.5
100
AcDbArc
 50
90.00000299999769
 51
165.7081299999988
  0
LINE
  5
1B91
330
18
100
AcDbEntity
  8
1
  6
Continuous
100
AcDbLine
 10
128.7857142857137
 20
330.1747723646557
 30
0.0
 11
128.7857142857137
 21
326.6747723646556
 31
0.0
  0
ARC
  5
1BAF
330
18
100
AcDbEntity
  8
1
  6
Continuous
100
AcDbCircle
 10
171.0725542857135
 20
413.174772364656
 30
0.0
 40
5.0
100
AcDbArc
 50
185.1488699999991
 51
242.7826006716375
  0
LINE
  5
1BB0
330
18
100
AcDbEntity
  8
1
  6
Continuous
100
AcDbLine
 10
268.7857142857137
 20
469.6747723646558
 30
0.0
 11
268.7857142857137
 21
391.6747723646559
 31
0.0
  0
LINE
  5
1BB1
330
18
100
AcDbEntity
  8
1
  6
Continuous
100
AcDbLine
 10
168.7857142857137
 20
469.6747723646558
 30
0.0
 11
168.7857142857137
 21
391.6747723646559
 31
0.0
  0
LINE
  5
1BB2
330
18
100
AcDbEntity
  8
4
  6
CENTER
 48
0.2
100
AcDbLine
 10
218.7857142857137
 20
485.6747723646558
 30
0.0
 11
218.7857142857135
 21
375.6747713646559
 31
0.0
  0
CIRCLE
  5
1BB3
330
18
100
AcDbEntity
  8
1
  6
Continuous
100
AcDbCircle
 10
218.7857142857137
 20
430.6747723646558
 30
0.0
 40
36.645
  0
CIRCLE
  5
1BB4
330
18
100
AcDbEntity
  8
1
  6
Continuous
100
AcDbCircle
 10
218.7857142857137
 20
430.6747723646558
 30
0.0
 40
39.61000099999999
  0
LINE
  5
1C1E
330
18
100
AcDbEntity
  8
1
  6
Continuous
100
AcDbLine
 10
179.7857142857137
 20
380.6747713646558
 30
0.0
 11
257.7857142857137
 21
380.6747713646558
 31
0.0
  0
ARC
  5
1C21
330
18
100
AcDbEntity
  8
1
  6
Continuous
100
AcDbCircle
 10
257.7857142857137
 20
391.6747723646559
 30
0.0
 40
11.0
100
AcDbArc
 50
270.0
 51
0.000009999999385
  0
ARC
  5
1C26
330
18
100
AcDbEntity
  8
1
  6
Continuous
100
AcDbCircle
 10
179.7857142857137
 20
391.6747723646559
 30
0.0
 40
11.0
100
AcDbArc
 50
179.9999913485786
 51
270.0
  0
LINE
  5
1C2F
330
18
100
AcDbEntity
  8
4
  6
CENTER
 48
0.2
100
AcDbLine
 10
163.7857142857137
 20
430.6747723646558
 30
0.0
 11
273.7857142857137
 21
430.6747723646558
 31
0.0
  0
CIRCLE
  5
1C30
330
18
100
AcDbEntity
  8
1
  6
Continuous
100
AcDbCircle
 10
218.7857142857137
 20
430.6747723646558
 30
0.0
 40
18.0
  0
CIRCLE
  5
1C31
330
18
100
AcDbEntity
  8
1
  6
Continuous
100
AcDbCircle
 10
218.7857142857137
 20
430.6747723646558
 30
0.0
 40
15.0
  0
ARC
  5
1C32
330
18
100
AcDbEntity
  8
1
  6
Continuous
100
AcDbCircle
 10
365.2857142857135
 20
430.674772364656
 30
0.0
 40
200.0
100
AcDbArc
 50
174.8511500000006
 51
185.14886
  0
ARC
  5
1C34
330
18
100
AcDbEntity
  8
1
  6
Continuous
100
AcDbCircle
 10
171.0725542857135
 20
448.1747723646559
 30
0.0
 40
5.0
100
AcDbArc
 50
117.2173993283624
 51
174.8511500000006
  0
LINE
  5
1C36
330
18
100
AcDbEntity
  8
1
  6
Continuous
100
AcDbLine
 10
179.7857142857137
 20
480.6747723646558
 30
0.0
 11
257.7857142857137
 21
480.6747723646558
 31
0.0
  0
ARC
  5
1C37
330
18
100
AcDbEntity
  8
1
  6
Continuous
100
AcDbCircle
 10
257.7857142857137
 20
469.6747723646558
 30
0.0
 40
11.0
100
AcDbArc
 50
359.9999900000006
 51
90.00000399999908
  0
ARC
  5
1C3B
330
18
100
AcDbEntity
  8
1
  6
Continuous
100
AcDbCircle
 10
179.7857142857137
 20
469.6747723646558
 30
0.0
 40
11.0
100
AcDbArc
 50
90.00000399999908
 51
180.0000099999993
  0
LINE
  5
1C3C
330
18
100
AcDbEntity
  8
4
  6
CENTER
 48
0.2
100
AcDbLine
 10
179.7857142857137
 20
462.1747723646558
 30
0.0
 11
179.7857142857137
 21
477.1747723646558
 31
0.0
  0
CIRCLE
  5
1C3D
330
18
100
AcDbEntity
  8
1
  6
Continuous
100
AcDbCircle
 10
179.7857142857137
 20
469.6747723646558
 30
0.0
 40
5.5
  0
LINE
  5
1C3E
330
18
100
AcDbEntity
  8
4
  6
CENTER
 48
0.2
100
AcDbLine
 10
187.2857142857137
 20
469.6747723646558
 30
0.0
 11
172.2857142857137
 21
469.6747723646558
 31
0.0
  0
LINE
  5
1C41
330
18
100
AcDbEntity
  8
4
  6
CENTER
 48
0.2
100
AcDbLine
 10
514.7857142857136
 20
303.1747723646558
 30
0.0
 11
514.7857142857136
 21
218.1747723646558
 31
0.0
  0
LINE
  5
1C43
330
18
100
AcDbEntity
  8
4
  6
CENTER
 48
0.2
100
AcDbLine
 10
257.7857142857137
 20
462.1747723646558
 30
0.0
 11
257.7857142857137
 21
477.1747723646558
 31
0.0
  0
CIRCLE
  5
1C44
330
18
100
AcDbEntity
  8
1
  6
Continuous
100
AcDbCircle
 10
257.7857142857137
 20
469.6747723646558
 30
0.0
 40
5.5
  0
LINE
  5
1C45
330
18
100
AcDbEntity
  8
4
  6
CENTER
 48
0.2
100
AcDbLine
 10
250.2857142857137
 20
469.6747723646558
 30
0.0
 11
265.2857142857137
 21
469.6747723646558
 31
0.0
  0
CIRCLE
  5
1C46
330
18
100
AcDbEntity
  8
1
  6
Continuous
100
AcDbCircle
 10
257.7857142857137
 20
391.6747723646559
 30
0.0
 40
5.5
  0
LINE
  5
1C47
330
18
100
AcDbEntity
  8
4
  6
CENTER
 48
0.2
100
AcDbLine
 10
257.7857142857137
 20
399.1747723646558
 30
0.0
 11
257.7857142857137
 21
384.1747723646559
 31
0.0
  0
LINE
  5
1C48
330
18
100
AcDbEntity
  8
4
  6
CENTER
 48
0.2
100
AcDbLine
 10
250.2857142857137
 20
391.6747723646559
 30
0.0
 11
265.2857142857137
 21
391.6747723646559
 31
0.0
  0
LINE
  5
1C49
330
18
100
AcDbEntity
  8
4
  6
CENTER
 48
0.2
100
AcDbLine
 10
179.7857142857137
 20
399.1747723646558
 30
0.0
 11
179.7857142857137
 21
384.1747723646559
 31
0.0
  0
CIRCLE
  5
1C4A
330
18
100
AcDbEntity
  8
1
  6
Continuous
100
AcDbCircle
 10
179.7857142857137
 20
391.6747723646559
 30
0.0
 40
5.5
  0
LINE
  5
1C4B
330
18
100
AcDbEntity
  8
4
  6
CENTER
 48
0.2
100
AcDbLine
 10
187.2857142857137
 20
391.6747723646559
 30
0.0
 11
172.2857142857137
 21
391.6747723646559
 31
0.0
  0
LINE
  5
1C89
330
18
100
AcDbEntity
  8
4
  6
CENTER
 48
0.2
100
AcDbLine
 10
160.2857142857136
 20
260.6747723646558
 30
0.0
 11
245.2857142857137
 21
260.6747723646558
 31
0.0
  0
LINE
  5
1C8A
330
18
100
AcDbEntity
  8
4
  6
CENTER
 48
0.2
100
AcDbLine
 10
202.7857142857137
 20
303.1747723646558
 30
0.0
 11
202.7857142857137
 21
218.1747723646558
 31
0.0
  0
LINE
  5
1C8F
330
18
100
AcDbEntity
  8
1
  6
Continuous
100
AcDbLine
 10
217.7857142857137
 20
262.6747723646558
 30
0.0
 11
217.7857142857137
 21
258.4369713646558
 31
0.0
  0
ARC
  5
1C90
330
18
100
AcDbEntity
  8
1
  6
Continuous
100
AcDbCircle
 10
202.7857142857137
 20
262.6747723646558
 30
0.0
 40
15.0
100
AcDbArc
 50
168.1750899999994
 51
297.9883100000013
  0
ARC
  5
1C95
330
18
100
AcDbEntity
  8
1
  6
Continuous
100
AcDbCircle
 10
202.7857142857137
 20
260.6747723646558
 30
0.0
 40
15.65469400011824
100
AcDbArc
 50
158.0282283509918
 51
332.3588626342367
  0
ARC
  5
1C96
330
18
100
AcDbEntity
  8
1
  6
Continuous
100
AcDbCircle
 10
162.8959592857136
 20
337.7334648646558
 30
0.0
 40
100.0
100
AcDbArc
 50
297.9883100000013
 51
338.5522100000005
  0
ARC
  5
1C97
330
18
100
AcDbEntity
  8
1
  6
Continuous
100
AcDbCircle
 10
202.7857142857137
 20
260.6747723646558
 30
0.0
 40
37.5
100
AcDbArc
 50
109.268381000003
 51
17.95409999999846
  0
ARC
  5
1C98
330
18
100
AcDbEntity
  8
1
  6
Continuous
100
AcDbCircle
 10
202.7857142857137
 20
260.6747723646558
 30
0.0
 40
21.65469400011823
100
AcDbArc
 50
124.241628328189
 51
355.1813715623467
  0
ARC
  5
1C99
330
18
100
AcDbEntity
  8
1
  6
Continuous
100
AcDbCircle
 10
202.7857142857137
 20
260.6747723646558
 30
0.0
 40
26.65469400011823
100
AcDbArc
 50
117.2022902627783
 51
5.001101389708941
  0
LINE
  5
1CA3
330
18
100
AcDbEntity
  8
1
  6
Continuous
100
AcDbLine
 10
179.7857142857137
 20
309.9903623646558
 30
0.0
 11
179.7857142857137
 21
304.1340623646557
 31
0.0
  0
LINE
  5
1CA4
330
18
100
AcDbEntity
  8
1
  6
Continuous
100
AcDbLine
 10
257.7857142857137
 20
309.9903623646558
 30
0.0
 11
257.7857142857137
 21
304.1340623646557
 31
0.0
  0
ARC
  5
1CA5
330
18
100
AcDbEntity
  8
1
  6
Continuous
100
AcDbCircle
 10
265.2785842857138
 20
297.5116103646558
 30
0.0
 40
10.0
100
AcDbArc
 50
138.5286519999985
 51
158.5522139999988
  0
LINE
  5
1CA6
330
18
100
AcDbEntity
  8
1
  6
Continuous
100
AcDbLine
 10
190.6009612857137
 20
294.1340623646557
 30
0.0
 11
190.6009612857137
 21
277.6747723646558
 31
0.0
  0
LINE
  5
1CA7
330
18
100
AcDbEntity
  8
1
  6
Continuous
100
AcDbLine
 10
202.7857142857137
 20
277.6747723646558
 30
0.0
 11
198.3618712857137
 21
277.6747723646558
 31
0.0
  0
ARC
  5
1CA9
330
18
100
AcDbEntity
  8
1
  6
Continuous
100
AcDbCircle
 10
202.7857142857137
 20
262.6747723646558
 30
0.0
 40
15.0
100
AcDbArc
 50
359.9999900000006
 51
89.99999700000229
  0
LINE
  5
1CAF
330
18
100
AcDbEntity
  8
1
  6
Continuous
100
AcDbLine
 10
190.6009612857137
 20
277.6747723646558
 30
0.0
 11
188.1040352857137
 21
265.7485943646558
 31
0.0
  0
ARC
  5
1CDF
330
18
100
AcDbEntity
  8
1
  6
Continuous
100
AcDbCircle
 10
180.6009612857137
 20
294.1340623646557
 30
0.0
 40
10.0
100
AcDbArc
 50
359.9999900000006
 51
89.99999700000229
  0
LINE
  5
1CE0
330
18
100
AcDbEntity
  8
1
  6
Continuous
100
AcDbLine
 10
179.7857142857137
 20
304.1340623646557
 30
0.0
 11
180.6009612857137
 21
304.1340623646557
 31
0.0
  0
LINE
  5
1CE1
330
18
100
AcDbEntity
  8
1
  6
Continuous
100
AcDbLine
 10
257.3962942857138
 20
320.1747723646557
 30
0.0
 11
180.1751372857136
 21
320.1747723646557
 31
0.0
  0
LINE
  5
1CE2
330
18
100
AcDbEntity
  8
1
  6
Continuous
100
AcDbLine
 10
268.7857142857137
 20
330.1747723646557
 30
0.0
 11
168.7857142857137
 21
330.1747723646557
 31
0.0
  0
LINE
  5
1CE3
330
18
100
AcDbEntity
  8
1
  6
Continuous
100
AcDbLine
 10
183.0794992857136
 20
316.4452023646558
 30
0.0
 11
254.4919242857135
 21
316.4452023646558
 31
0.0
  0
LINE
  5
1CE4
330
18
100
AcDbEntity
  8
1
  6
Continuous
100
AcDbLine
 10
168.7857142857137
 20
326.6747723646556
 30
0.0
 11
268.7857142857137
 21
326.6747723646556
 31
0.0
  0
LINE
  5
1CE5
330
18
100
AcDbEntity
  8
4
  6
CENTER
 48
0.1
100
AcDbLine
 10
257.7857142857137
 20
332.1747723646558
 30
0.0
 11
257.7857142857137
 21
324.6747723646557
 31
0.0
  0
ARC
  5
1CE6
330
18
100
AcDbEntity
  8
1
  6
Continuous
100
AcDbCircle
 10
257.3962942857138
 20
324.6747723646557
 30
0.0
 40
4.5
100
AcDbArc
 50
270.0
 51
345.7081299999988
  0
LINE
  5
1CE7
330
18
100
AcDbEntity
  8
1
  6
Continuous
100
AcDbLine
 10
256.6451942857138
 20
320.1747703646557
 30
0.0
 11
254.4919342857137
 21
316.4451963646556
 31
0.0
  0
ARC
  5
1CE8
330
18
100
AcDbEntity
  8
1
  6
Continuous
100
AcDbCircle
 10
252.7857142857137
 20
309.9903623646558
 30
0.0
 40
5.0
100
AcDbArc
 50
359.9999900000006
 51
34.99999999999869
  0
LINE
  5
1CE9
330
18
100
AcDbEntity
  8
1
  6
Continuous
100
AcDbLine
 10
254.3698642857136
 20
316.4452023646557
 30
0.0
 11
256.8814742857136
 21
312.8582443646557
 31
0.0
  0
LINE
  5
1CEA
330
18
100
AcDbEntity
  8
1
  6
Continuous
100
AcDbLine
 10
268.7857142857137
 20
330.1747723646557
 30
0.0
 11
268.7857142857137
 21
326.6747723646556
 31
0.0
  0
ARC
  5
1CEB
330
18
100
AcDbEntity
  8
1
  6
Continuous
100
AcDbCircle
 10
263.7152842857135
 20
325.1747723646557
 30
0.0
 40
1.5
100
AcDbArc
 50
90.00000399999908
 51
165.7081349999996
  0
LINE
  5
1CEC
330
18
100
AcDbEntity
  8
1
  6
Continuous
100
AcDbLine
 10
262.2617242857136
 20
325.5450633646558
 30
0.0
 11
261.7570242857135
 21
323.5638893646556
 31
0.0
  0
LINE
  5
1CED
330
18
100
AcDbEntity
  8
4
  6
CENTER
 48
0.1
100
AcDbLine
 10
179.7857142857137
 20
332.1747723646558
 30
0.0
 11
179.7857142857137
 21
324.6747723646557
 31
0.0
  0
LINE
  5
1CEE
330
18
100
AcDbEntity
  8
4
  6
CENTER
 48
0.2
100
AcDbLine
 10
218.7857142857137
 20
335.1747723646557
 30
0.0
 11
218.7857142857135
 21
311.4452023646558
 31
0.0
  0
ARC
  5
1CEF
330
18
100
AcDbEntity
  8
1
  6
Continuous
100
AcDbCircle
 10
180.1751372857136
 20
324.6747723646557
 30
0.0
 40
4.5
100
AcDbArc
 50
194.291870000001
 51
270.0
  0
LINE
  5
1CF0
330
18
100
AcDbEntity
  8
1
  6
Continuous
100
AcDbLine
 10
180.9262282857137
 20
320.1747743646557
 30
0.0
 11
183.0794992857136
 21
316.4452043646557
 31
0.0
  0
LINE
  5
1CF1
330
18
100
AcDbEntity
  8
1
  6
Continuous
100
AcDbLine
 10
183.2015772857134
 20
316.4452023646558
 30
0.0
 11
180.6899572857137
 21
312.8582403646557
 31
0.0
  0
ARC
  5
1CF2
330
18
100
AcDbEntity
  8
1
  6
Continuous
100
AcDbCircle
 10
184.7857142857137
 20
309.9903623646558
 30
0.0
 40
5.0
100
AcDbArc
 50
144.9999969999993
 51
180.0000099999993
  0
LINE
  5
1CF3
330
18
100
AcDbEntity
  8
1
  6
Continuous
100
AcDbLine
 10
168.7857142857137
 20
330.1747723646557
 30
0.0
 11
168.7857142857137
 21
326.6747723646556
 31
0.0
  0
ARC
  5
1CF4
330
18
100
AcDbEntity
  8
1
  6
Continuous
100
AcDbCircle
 10
173.8561372857136
 20
325.1747723646557
 30
0.0
 40
1.5
100
AcDbArc
 50
14.2918700000011
 51
89.99999700000229
  0
LINE
  5
1CF5
330
18
100
AcDbEntity
  8
1
  6
Continuous
100
AcDbLine
 10
175.3097122857135
 20
325.5450623646555
 30
0.0
 11
175.8144082857135
 21
323.5638943646556
 31
0.0
  0
LINE
  5
1CF6
330
18
100
AcDbEntity
  8
1
  6
Continuous
100
AcDbLine
 10
382.2857142857137
 20
239.8860993646558
 30
0.0
 11
382.2857142857137
 21
281.4634453646558
 31
0.0
  0
LINE
  5
1CF7
330
18
100
AcDbEntity
  8
1
  6
Continuous
100
AcDbLine
 10
381.2857142857136
 20
228.9616123646558
 30
0.0
 11
381.2857142857136
 21
289.1216564213237
 31
0.0
  0
LINE
  5
1CF8
330
18
100
AcDbEntity
  8
1
  6
Continuous
100
AcDbLine
 10
383.7857142857136
 20
285.5131066710026
 30
0.0
 11
383.7857142857136
 21
247.6747723646558
 31
0.0
  0
LINE
  5
1CF9
330
18
100
AcDbEntity
  8
1
  6
Continuous
100
AcDbLine
 10
397.2857142857137
 20
266.6747723646558
 30
0.0
 11
397.2857142857137
 21
254.6747723646558
 31
0.0
  0
LINE
  5
1CFA
330
18
100
AcDbEntity
  8
1
  6
Continuous
100
AcDbLine
 10
397.2857142857137
 20
268.6747723646558
 30
0.0
 11
397.2857142857137
 21
252.6747723646558
 31
0.0
  0
LINE
  5
1CFC
330
18
100
AcDbEntity
  8
1
  6
Continuous
100
AcDbLine
 10
388.7857142857137
 20
253.0711568623081
 30
0.0
 11
388.7857142857137
 21
247.6747723646558
 31
0.0
  0
LINE
  5
1CFE
330
18
100
AcDbEntity
  8
1
  6
Continuous
100
AcDbLine
 10
398.2857142857136
 20
265.7997723646558
 30
0.0
 11
398.2857142857136
 21
255.5497723646558
 31
0.0
  0
LINE
  5
1D00
330
18
100
AcDbEntity
  8
1
  6
Continuous
100
AcDbLine
 10
335.2857142857137
 20
239.8860993646558
 30
0.0
 11
335.2857142857137
 21
281.4634453646558
 31
0.0
  0
LINE
  5
1D01
330
18
100
AcDbEntity
  8
1
  6
Continuous
100
AcDbLine
 10
336.2857142857137
 20
289.1216564213237
 30
0.0
 11
336.2857142857137
 21
260.6747723646558
 31
0.0
  0
LINE
  5
1D02
330
18
100
AcDbEntity
  8
1
  6
Continuous
100
AcDbLine
 10
333.7857142857137
 20
285.5131066710026
 30
0.0
 11
333.7857142857137
 21
247.6747723646558
 31
0.0
  0
LINE
  5
1D03
330
18
100
AcDbEntity
  8
1
  6
Continuous
100
AcDbLine
 10
323.2857142857137
 20
260.8468566864901
 30
0.0
 11
323.2857142857137
 21
252.1747723646558
 31
0.0
  0
LINE
  5
1D04
330
18
100
AcDbEntity
  8
1
  6
Continuous
100
AcDbLine
 10
325.2857142857137
 20
258.4096366194103
 30
0.0
 11
325.2857142857137
 21
250.1747723646558
 31
0.0
  0
LINE
  5
1D05
330
18
100
AcDbEntity
  8
1
  6
Continuous
100
AcDbLine
 10
328.7857142857137
 20
253.0711568623081
 30
0.0
 11
328.7857142857137
 21
247.6747723646558
 31
0.0
  0
LINE
  5
1D07
330
18
100
AcDbEntity
  8
4
  6
CENTER
 48
0.2
100
AcDbLine
 10
358.7857142857136
 20
335.1747723646558
 30
0.0
 11
358.7857142857136
 21
218.1747723646558
 31
0.0
  0
ARC
  5
1D08
330
18
100
AcDbEntity
  8
1
  6
Continuous
100
AcDbCircle
 10
358.7857142857136
 20
423.1747723646556
 30
0.0
 40
200.0
100
AcDbArc
 50
264.851149999999
 51
275.14886
  0
LINE
  5
1D09
330
18
100
AcDbEntity
  8
4
  6
CENTER
 48
0.2
100
AcDbLine
 10
403.7857142857136
 20
260.6747723646558
 30
0.0
 11
313.7857142857135
 21
260.6747723646558
 31
0.0
  0
ARC
  5
1D0A
330
18
100
AcDbEntity
  8
1
  6
Continuous
100
AcDbCircle
 10
381.7857142857136
 20
239.8860993646557
 30
0.0
 40
0.5
100
AcDbArc
 50
299.9999900000003
 51
0.0000099999993886
  0
LINE
  5
1D0B
330
18
100
AcDbEntity
  8
1
  6
Continuous
100
AcDbLine
 10
382.0357156857136
 20
239.4530923646557
 30
0.0
 11
381.2857137857136
 21
239.0200783646557
 31
0.0
  0
ARC
  5
1D0C
330
18
100
AcDbEntity
  8
1
  6
Continuous
100
AcDbCircle
 10
376.2857142857137
 20
228.9616123646557
 30
0.0
 40
5.0
100
AcDbArc
 50
275.1488699999994
 51
0.0000099999993886
  0
LINE
  5
1D0D
330
18
100
AcDbEntity
  8
1
  6
Continuous
100
AcDbLine
 10
388.7857142857137
 20
247.6747723646558
 30
0.0
 11
383.7857142857136
 21
247.6747723646558
 31
0.0
  0
LINE
  5
1D12
330
18
100
AcDbEntity
  8
1
  6
Continuous
100
AcDbLine
 10
398.2857132857136
 20
255.5497723646558
 30
0.0
 11
397.4107123857137
 21
254.6747723646556
 31
0.0
  0
ARC
  5
1D16
330
18
100
AcDbEntity
  8
1
  6
Continuous
100
AcDbCircle
 10
396.0357142857136
 20
252.6747723646557
 30
0.0
 40
1.25
100
AcDbArc
 50
270.0
 51
0.0000099999993886
  0
LINE
  5
1D17
330
18
100
AcDbEntity
  8
1
  6
Continuous
100
AcDbLine
 10
397.2857142857137
 20
254.6747723646558
 30
0.0
 11
397.4107142857136
 21
254.6747723646558
 31
0.0
  0
LINE
  5
1D19
330
18
100
AcDbEntity
  8
1
  6
Continuous
100
AcDbLine
 10
396.0357142857136
 20
251.4247723646558
 30
0.0
 11
395.2857142857137
 21
251.4247723646558
 31
0.0
  0
ARC
  5
1D20
330
18
100
AcDbEntity
  8
1
  6
Continuous
100
AcDbCircle
 10
383.5857173857137
 20
251.7747703646556
 30
0.0
 40
0.2
100
AcDbArc
 50
270.0
 51
0.0000099999993886
  0
LINE
  5
1D21
330
18
100
AcDbEntity
  8
1
  6
Continuous
100
AcDbLine
 10
383.5857173857137
 20
251.5747743646556
 30
0.0
 11
382.2857142857137
 21
251.5747743646556
 31
0.0
  0
LINE
  5
1D22
330
18
100
AcDbEntity
  8
1
  6
Continuous
100
AcDbLine
 10
336.2857142857137
 20
228.9616123646558
 30
0.0
 11
336.2857142857137
 21
260.6747723646558
 31
0.0
  0
LINE
  5
1D23
330
18
100
AcDbEntity
  8
1
  6
Continuous
100
AcDbLine
 10
335.5357222857137
 20
239.4530853646558
 30
0.0
 11
336.2857222857137
 21
239.0200713646556
 31
0.0
  0
ARC
  5
1D24
330
18
100
AcDbEntity
  8
1
  6
Continuous
100
AcDbCircle
 10
335.7857142857137
 20
239.8860993646557
 30
0.0
 40
0.5
100
AcDbArc
 50
180.0
 51
240.0000000000003
  0
ARC
  5
1D25
330
18
100
AcDbEntity
  8
1
  6
Continuous
100
AcDbCircle
 10
341.2857142857137
 20
228.9616123646557
 30
0.0
 40
5.0
100
AcDbArc
 50
180.0
 51
264.851149999999
  0
LINE
  5
1D26
330
18
100
AcDbEntity
  8
1
  6
Continuous
100
AcDbLine
 10
323.2857142857137
 20
252.1747723646555
 30
0.0
 11
325.2857142857137
 21
250.1747723646558
 31
0.0
  0
LINE
  5
1D27
330
18
100
AcDbEntity
  8
1
  6
Continuous
100
AcDbLine
 10
325.2857142857137
 20
250.1747723646558
 30
0.0
 11
328.7857142857137
 21
250.1747723646558
 31
0.0
  0
LINE
  5
1D28
330
18
100
AcDbEntity
  8
1
  6
Continuous
100
AcDbLine
 10
328.7857142857137
 20
247.6747723646558
 30
0.0
 11
333.7857142857137
 21
247.6747723646558
 31
0.0
  0
ARC
  5
1D29
330
18
100
AcDbEntity
  8
1
  6
Continuous
100
AcDbCircle
 10
333.9857192857136
 20
251.7747703646556
 30
0.0
 40
0.2
100
AcDbArc
 50
180.0
 51
270.0
  0
LINE
  5
1D2A
330
18
100
AcDbEntity
  8
1
  6
Continuous
100
AcDbLine
 10
333.9857192857136
 20
251.5747743646556
 30
0.0
 11
335.2857142857137
 21
251.5747743646556
 31
0.0
  0
ARC
  5
1D2E
330
18
100
AcDbEntity
  8
1
  6
Continuous
100
AcDbCircle
 10
358.7857142857136
 20
98.17477236465572
 30
0.0
 40
200.0
100
AcDbArc
 50
85.92010363522526
 51
94.07989636477472
  0
LINE
  5
1D2F
330
18
100
AcDbEntity
  8
1
  6
Continuous
100
AcDbLine
 10
394.4919291857137
 20
316.4452023646558
 30
0.0
 11
323.0794912857136
 21
316.4452023646558
 31
0.0
  0
LINE
  5
1D30
330
18
100
AcDbEntity
  8
1
  6
Continuous
100
AcDbLine
 10
308.7857142857137
 20
330.1747723646558
 30
0.0
 11
408.7857142857136
 21
330.1747723646558
 31
0.0
  0
LINE
  5
1D32
330
18
100
AcDbEntity
  8
1
  6
Continuous
100
AcDbLine
 10
397.3962946857136
 20
320.1747723646558
 30
0.0
 11
320.1751342857137
 21
320.1747723646558
 31
0.0
  0
LINE
  5
1D33
330
18
100
AcDbEntity
  8
1
  6
Continuous
100
AcDbLine
 10
308.7857142857137
 20
326.6747723646558
 30
0.0
 11
408.7857142857136
 21
326.6747723646558
 31
0.0
  0
LINE
  5
1D34
330
18
100
AcDbEntity
  8
1
  6
Continuous
100
AcDbLine
 10
398.2419005857137
 20
279.2342703646557
 30
0.0
 11
397.7851725857137
 21
310.0644243646556
 31
0.0
  0
ARC
  5
1D37
330
18
100
AcDbEntity
  8
1
  6
Continuous
100
AcDbCircle
 10
368.2451872857137
 20
278.7898923646556
 30
0.0
 40
30.0
100
AcDbArc
 50
349.585079999999
 51
0.8487400000001166
  0
LINE
  5
1D3D
330
18
100
AcDbEntity
  8
1
  6
Continuous
100
AcDbLine
 10
397.2857142857137
 20
266.6747723646558
 30
0.0
 11
397.4107142857136
 21
266.6747723646558
 31
0.0
  0
LINE
  5
1D3E
330
18
100
AcDbEntity
  8
1
  6
Continuous
100
AcDbLine
 10
398.2857190857136
 20
265.7997643646556
 30
0.0
 11
397.4107161857137
 21
266.6747723646558
 31
0.0
  0
ARC
  5
1D45
330
18
100
AcDbEntity
  8
1
  6
Continuous
100
AcDbCircle
 10
396.0357142857136
 20
268.6747723646557
 30
0.0
 40
1.25
100
AcDbArc
 50
359.9999900000006
 51
37.43910701788689
  0
ARC
  5
1D4C
330
18
100
AcDbEntity
  8
1
  6
Continuous
100
AcDbCircle
 10
383.5857173857137
 20
269.5747743646555
 30
0.0
 40
0.2
100
AcDbArc
 50
359.9999900000006
 51
89.99999700000229
  0
LINE
  5
1D4D
330
18
100
AcDbEntity
  8
1
  6
Continuous
100
AcDbLine
 10
383.5857173857137
 20
269.7747703646557
 30
0.0
 11
382.2857142857137
 21
269.7747703646557
 31
0.0
  0
ARC
  5
1D4E
330
18
100
AcDbEntity
  8
1
  6
Continuous
100
AcDbCircle
 10
381.7857142857136
 20
281.4634453646557
 30
0.0
 40
0.5
100
AcDbArc
 50
359.9999900000006
 51
60.00000999999973
  0
LINE
  5
1D4F
330
18
100
AcDbEntity
  8
1
  6
Continuous
100
AcDbLine
 10
382.0357161857137
 20
281.8964563646557
 30
0.0
 11
381.2857137857136
 21
282.3294693646557
 31
0.0
  0
LINE
  5
1D55
330
18
100
AcDbEntity
  8
4
  6
CENTER
 48
0.1
100
AcDbLine
 10
397.7857142857136
 20
332.1747723646558
 30
0.0
 11
397.7857142857136
 21
324.6747723646558
 31
0.0
  0
ARC
  5
1D56
330
18
100
AcDbEntity
  8
1
  6
Continuous
100
AcDbCircle
 10
397.3962946857136
 20
324.6747723646557
 30
0.0
 40
4.5
100
AcDbArc
 50
270.0
 51
345.7081299999988
  0
LINE
  5
1D57
330
18
100
AcDbEntity
  8
1
  6
Continuous
100
AcDbLine
 10
394.3698493857137
 20
316.4452023646558
 30
0.0
 11
396.8814698857137
 21
312.8582363646557
 31
0.0
  0
ARC
  5
1D58
330
18
100
AcDbEntity
  8
1
  6
Continuous
100
AcDbCircle
 10
392.7857142857137
 20
309.9903623646556
 30
0.0
 40
5.0
100
AcDbArc
 50
359.9999900000006
 51
34.99999999999868
  0
LINE
  5
1D59
330
18
100
AcDbEntity
  8
1
  6
Continuous
100
AcDbLine
 10
396.6451984857136
 20
320.1747733646556
 30
0.0
 11
394.4919296857138
 21
316.4452023646556
 31
0.0
  0
LINE
  5
1D5A
330
18
100
AcDbEntity
  8
1
  6
Continuous
100
AcDbLine
 10
408.7857142857136
 20
330.1747723646558
 30
0.0
 11
408.7857142857136
 21
326.6747723646558
 31
0.0
  0
LINE
  5
1D5B
330
18
100
AcDbEntity
  8
1
  6
Continuous
100
AcDbLine
 10
402.2617122857136
 20
325.5450603646556
 30
0.0
 11
401.7570182857138
 21
323.5638923646556
 31
0.0
  0
ARC
  5
1D5C
330
18
100
AcDbEntity
  8
1
  6
Continuous
100
AcDbCircle
 10
403.7152952857136
 20
325.1747723646557
 30
0.0
 40
1.5
100
AcDbArc
 50
90.00000399999908
 51
165.7081349999996
  0
LINE
  5
1D5D
330
18
100
AcDbEntity
  8
1
  6
Continuous
100
AcDbLine
 10
319.3295372857137
 20
279.2342743646556
 30
0.0
 11
319.7862632857136
 21
310.0644263646556
 31
0.0
  0
ARC
  5
1D60
330
18
100
AcDbEntity
  8
1
  6
Continuous
100
AcDbCircle
 10
349.3262412857137
 20
278.7898923646556
 30
0.0
 40
30.0
100
AcDbArc
 50
179.1512647400002
 51
190.4149299999991
  0
ARC
  5
1D62
330
18
100
AcDbEntity
  8
1
  6
Continuous
100
AcDbCircle
 10
333.9857192857136
 20
269.5747743646555
 30
0.0
 40
0.2
100
AcDbArc
 50
89.99999700000229
 51
180.0
  0
LINE
  5
1D63
330
18
100
AcDbEntity
  8
1
  6
Continuous
100
AcDbLine
 10
333.9857192857136
 20
269.7747703646557
 30
0.0
 11
335.2857142857137
 21
269.7747703646557
 31
0.0
  0
LINE
  5
1D69
330
18
100
AcDbEntity
  8
1
  6
Continuous
100
AcDbLine
 10
335.5357182857135
 20
281.8964593646558
 30
0.0
 11
336.2857222857137
 21
282.3294733646557
 31
0.0
  0
ARC
  5
1D6A
330
18
100
AcDbEntity
  8
1
  6
Continuous
100
AcDbCircle
 10
335.7857142857137
 20
281.4634453646557
 30
0.0
 40
0.5
100
AcDbArc
 50
119.9999979999986
 51
180.0
  0
LINE
  5
1D70
330
18
100
AcDbEntity
  8
4
  6
CENTER
 48
0.1
100
AcDbLine
 10
319.7857142857137
 20
332.1747723646558
 30
0.0
 11
319.7857142857137
 21
324.6747723646558
 31
0.0
  0
ARC
  5
1D71
330
18
100
AcDbEntity
  8
1
  6
Continuous
100
AcDbCircle
 10
320.1751342857137
 20
324.6747723646557
 30
0.0
 40
4.5
100
AcDbArc
 50
194.291870000001
 51
270.0
  0
ARC
  5
1D72
330
18
100
AcDbEntity
  8
1
  6
Continuous
100
AcDbCircle
 10
324.7857142857137
 20
309.9903623646556
 30
0.0
 40
5.0
100
AcDbArc
 50
144.9999969999993
 51
180.0000099999993
  0
LINE
  5
1D73
330
18
100
AcDbEntity
  8
1
  6
Continuous
100
AcDbLine
 10
320.9262322857136
 20
320.1747743646556
 30
0.0
 11
323.0794992857136
 21
316.4452003646556
 31
0.0
  0
LINE
  5
1D74
330
18
100
AcDbEntity
  8
1
  6
Continuous
100
AcDbLine
 10
323.2015692857135
 20
316.4452043646556
 30
0.0
 11
320.6899502857136
 21
312.8582443646557
 31
0.0
  0
LINE
  5
1D75
330
18
100
AcDbEntity
  8
1
  6
Continuous
100
AcDbLine
 10
315.3097082857139
 20
325.5450643646556
 30
0.0
 11
315.8144082857138
 21
323.5638913646557
 31
0.0
  0
ARC
  5
1D76
330
18
100
AcDbEntity
  8
1
  6
Continuous
100
AcDbCircle
 10
313.8561332857136
 20
325.1747723646557
 30
0.0
 40
1.5
100
AcDbArc
 50
14.29187000000109
 51
89.99999700000229
  0
LINE
  5
1D77
330
18
100
AcDbEntity
  8
1
  6
Continuous
100
AcDbLine
 10
308.7857142857137
 20
330.1747723646558
 30
0.0
 11
308.7857142857137
 21
326.6747723646558
 31
0.0
  0
CIRCLE
  5
1D95
330
18
100
AcDbEntity
  8
1
  6
Continuous
100
AcDbCircle
 10
202.7857142857137
 20
260.6747723646558
 30
0.0
 40
10.5
  0
CIRCLE
  5
1D96
330
18
100
AcDbEntity
  8
1
  6
Continuous
100
AcDbCircle
 10
202.7857142857137
 20
260.6747723646558
 30
0.0
 40
8.5
  0
LINE
  5
1D99
330
18
100
AcDbEntity
  8
1
  6
Continuous
100
AcDbLine
 10
203.5357142857137
 20
269.1416194755938
 30
0.0
 11
203.5357142857137
 21
263.3246673646557
 31
0.0
  0
LINE
  5
1D9A
330
18
100
AcDbEntity
  8
1
  6
Continuous
100
AcDbLine
 10
203.5357142857137
 20
263.3246673646557
 30
0.0
 11
202.0357142857137
 21
263.3246673646557
 31
0.0
  0
LINE
  5
1D9B
330
18
100
AcDbEntity
  8
1
  6
Continuous
100
AcDbLine
 10
202.0357142857137
 20
263.3246673646557
 30
0.0
 11
202.0357142857137
 21
269.1416194755938
 31
0.0
  0
CIRCLE
  5
1DB8
330
18
100
AcDbEntity
  8
1
  6
Continuous
100
AcDbCircle
 10
202.7857142857137
 20
260.6747723646558
 30
0.0
 40
2.649894999999958
  0
LINE
  5
1DBC
330
18
100
AcDbEntity
  8
1
  6
Continuous
100
AcDbLine
 10
195.0782095976824
 20
257.0908678620251
 30
0.0
 11
200.1158378983523
 21
259.9993439174941
 31
0.0
  0
LINE
  5
1DBD
330
18
100
AcDbEntity
  8
1
  6
Continuous
100
AcDbLine
 10
200.8658378983523
 20
258.7003058118175
 30
0.0
 11
195.8282095976824
 21
255.7918297563485
 31
0.0
  0
LINE
  5
1DBE
330
18
100
AcDbEntity
  8
1
  6
Continuous
100
AcDbLine
 10
200.1158378983523
 20
259.9993439174941
 30
0.0
 11
200.8658378983523
 21
258.7003058118175
 31
0.0
  0
LINE
  5
1DBF
330
18
100
AcDbEntity
  8
1
  6
Continuous
100
AcDbLine
 10
209.7432189737448
 20
255.7918297563485
 30
0.0
 11
204.7055906730749
 21
258.7003058118175
 31
0.0
  0
LINE
  5
1DC0
330
18
100
AcDbEntity
  8
1
  6
Continuous
100
AcDbLine
 10
205.455590673075
 20
259.9993439174941
 30
0.0
 11
210.4932189737449
 21
257.0908678620251
 31
0.0
  0
LINE
  5
1DC1
330
18
100
AcDbEntity
  8
1
  6
Continuous
100
AcDbLine
 10
204.7055906730749
 20
258.7003058118175
 30
0.0
 11
205.455590673075
 21
259.9993439174941
 31
0.0
  0
CIRCLE
  5
1DC2
330
18
100
AcDbEntity
  8
1
  6
Continuous
100
AcDbCircle
 10
202.7857142857137
 20
254.1747723646558
 30
0.0
 40
0.5
  0
LINE
  5
1DD4
330
18
100
AcDbEntity
  8
1
  6
Continuous
100
AcDbLine
 10
322.7857142857137
 20
256.4674817563486
 30
0.0
 11
323.2857142857137
 21
255.7918297563485
 31
0.0
  0
LINE
  5
1DD5
330
18
100
AcDbEntity
  8
1
  6
Continuous
100
AcDbLine
 10
322.7857142857137
 20
259.5453489174942
 30
0.0
 11
322.7857142857137
 21
256.4674817563486
 31
0.0
  0
LINE
  5
1DD6
330
18
100
AcDbEntity
  8
1
  6
Continuous
100
AcDbLine
 10
323.2857142857137
 20
259.9993439174943
 30
0.0
 11
322.7857142857137
 21
259.5453489174942
 31
0.0
  0
ARC
  5
1E22
330
18
100
AcDbEntity
  8
1
  6
Continuous
100
AcDbCircle
 10
358.7857142857136
 20
288.1340623646551
 30
0.0
 40
16.0
100
AcDbArc
 50
59.39388229963453
 51
142.1472459999994
  0
ARC
  5
1E23
330
18
100
AcDbEntity
  8
1
  6
Continuous
100
AcDbCircle
 10
358.7857142857136
 20
285.1451063646553
 30
0.0
 40
18.98895599999998
100
AcDbArc
 50
59.94025288880428
 51
134.9248240000004
  0
LINE
  5
202A
330
18
100
AcDbEntity
  8
1
  6
Continuous
100
AcDbLine
 10
168.7857142857137
 20
51.67477236465582
 30
0.0
 11
168.7857142857137
 21
68.72838475060311
 31
0.0
  0
LINE
  5
202B
330
18
100
AcDbEntity
  8
1
  6
Continuous
100
AcDbLine
 10
268.7857142857137
 20
51.67477236465582
 30
0.0
 11
268.7857142857137
 21
129.6747723646558
 31
0.0
  0
LINE
  5
202C
330
18
100
AcDbEntity
  8
4
  6
CENTER
 48
0.2
100
AcDbLine
 10
257.7857142857137
 20
122.1747723646557
 30
0.0
 11
257.7857142857137
 21
137.1747723646557
 31
0.0
  0
LINE
  5
202D
330
18
100
AcDbEntity
  8
4
  6
CENTER
 48
0.2
100
AcDbLine
 10
179.7857142857137
 20
122.1747723646557
 30
0.0
 11
179.7857142857137
 21
137.1747723646557
 31
0.0
  0
LINE
  5
202E
330
18
100
AcDbEntity
  8
4
  6
CENTER
 48
0.2
100
AcDbLine
 10
218.7857142857137
 20
35.67477236465583
 30
0.0
 11
218.7857142857135
 21
145.6747733646558
 31
0.0
  0
LINE
  5
2031
330
18
100
AcDbEntity
  8
1
  6
Continuous
100
AcDbLine
 10
179.7857142857137
 20
140.6747733646558
 30
0.0
 11
257.7857142857137
 21
140.6747733646558
 31
0.0
  0
CIRCLE
  5
2032
330
18
100
AcDbEntity
  8
1
  6
Continuous
100
AcDbCircle
 10
179.7857142857137
 20
129.6747723646557
 30
0.0
 40
5.5
  0
ARC
  5
2033
330
18
100
AcDbEntity
  8
1
  6
Continuous
100
AcDbCircle
 10
179.7857142857137
 20
129.6747723646558
 30
0.0
 40
11.0
100
AcDbArc
 50
90.00000000000005
 51
180.0000086514213
  0
LINE
  5
2034
330
18
100
AcDbEntity
  8
4
  6
CENTER
 48
0.2
100
AcDbLine
 10
187.2857142857137
 20
129.6747723646557
 30
0.0
 11
172.2857142857137
 21
129.6747723646557
 31
0.0
  0
ARC
  5
2035
330
18
100
AcDbEntity
  8
1
  6
Continuous
100
AcDbCircle
 10
257.7857142857137
 20
129.6747723646558
 30
0.0
 40
11.0
100
AcDbArc
 50
359.9999900000006
 51
90.00000000000005
  0
CIRCLE
  5
2036
330
18
100
AcDbEntity
  8
1
  6
Continuous
100
AcDbCircle
 10
257.7857142857137
 20
129.6747723646557
 30
0.0
 40
5.5
  0
LINE
  5
2037
330
18
100
AcDbEntity
  8
4
  6
CENTER
 48
0.2
100
AcDbLine
 10
250.2857142857137
 20
129.6747723646557
 30
0.0
 11
265.2857142857137
 21
129.6747723646557
 31
0.0
  0
LINE
  5
2039
330
18
100
AcDbEntity
  8
1
  6
Continuous
100
AcDbLine
 10
179.7857142857137
 20
40.67477236465584
 30
0.0
 11
257.7857142857137
 21
40.67477236465584
 31
0.0
  0
LINE
  5
203A
330
18
100
AcDbEntity
  8
4
  6
CENTER
 48
0.2
100
AcDbLine
 10
163.7857142857137
 20
90.67477236465583
 30
0.0
 11
273.7857142857137
 21
90.67477236465583
 31
0.0
  0
ARC
  5
203C
330
18
100
AcDbEntity
  8
1
  6
Continuous
100
AcDbCircle
 10
365.2857142857135
 20
90.67477236465562
 30
0.0
 40
200.0
100
AcDbArc
 50
174.8511399999999
 51
185.1488499999993
  0
CIRCLE
  5
203E
330
18
100
AcDbEntity
  8
1
  6
Continuous
100
AcDbCircle
 10
179.7857142857137
 20
51.67477236465582
 30
0.0
 40
5.5
  0
LINE
  5
203F
330
18
100
AcDbEntity
  8
4
  6
CENTER
 48
0.2
100
AcDbLine
 10
179.7857142857137
 20
59.17477236465582
 30
0.0
 11
179.7857142857137
 21
44.17477236465582
 31
0.0
  0
ARC
  5
2041
330
18
100
AcDbEntity
  8
1
  6
Continuous
100
AcDbCircle
 10
179.7857142857137
 20
51.67477236465582
 30
0.0
 40
11.0
100
AcDbArc
 50
179.9999900000006
 51
269.9999960000009
  0
LINE
  5
2042
330
18
100
AcDbEntity
  8
4
  6
CENTER
 48
0.2
100
AcDbLine
 10
187.2857142857137
 20
51.67477236465582
 30
0.0
 11
172.2857142857137
 21
51.67477236465582
 31
0.0
  0
ARC
  5
2045
330
18
100
AcDbEntity
  8
1
  6
Continuous
100
AcDbCircle
 10
257.7857142857137
 20
51.67477236465582
 30
0.0
 40
11.0
100
AcDbArc
 50
269.9999960000009
 51
0.000009999999392
  0
CIRCLE
  5
2046
330
18
100
AcDbEntity
  8
1
  6
Continuous
100
AcDbCircle
 10
257.7857142857137
 20
51.67477236465582
 30
0.0
 40
5.5
  0
LINE
  5
2047
330
18
100
AcDbEntity
  8
4
  6
CENTER
 48
0.2
100
AcDbLine
 10
257.7857142857137
 20
59.17477236465582
 30
0.0
 11
257.7857142857137
 21
44.17477236465582
 31
0.0
  0
LINE
  5
2048
330
18
100
AcDbEntity
  8
4
  6
CENTER
 48
0.2
100
AcDbLine
 10
250.2857142857137
 20
51.67477236465582
 30
0.0
 11
265.2857142857137
 21
51.67477236465582
 31
0.0
  0
ARC
  5
2087
330
18
100
AcDbEntity
  8
1
  6
Continuous
100
AcDbCircle
 10
171.0725542857135
 20
108.1747723646557
 30
0.0
 40
5.0
100
AcDbArc
 50
89.99999999999998
 51
174.851149999999
  0
ARC
  5
2088
330
18
100
AcDbEntity
  8
1
  6
Continuous
100
AcDbCircle
 10
171.0725542857135
 20
73.17477236465581
 30
0.0
 40
5.0
100
AcDbArc
 50
185.1488699999994
 51
270.0000099999993
  0
ARC
  5
2089
330
18
100
AcDbEntity
  8
1
  6
Continuous
100
AcDbCircle
 10
40.28571428571376
 20
90.67477236465562
 30
0.0
 40
200.0
100
AcDbArc
 50
354.8511500000007
 51
5.148860000000088
  0
ARC
  5
208A
330
18
100
AcDbEntity
  8
1
  6
Continuous
100
AcDbCircle
 10
234.4988742857137
 20
73.17477236465581
 30
0.0
 40
5.0
100
AcDbArc
 50
269.9999900000006
 51
354.8511300000005
  0
ARC
  5
208B
330
18
100
AcDbEntity
  8
1
  6
Continuous
100
AcDbCircle
 10
234.4988742857137
 20
108.1747723646557
 30
0.0
 40
5.0
100
AcDbArc
 50
5.14885000000094
 51
90.00000000000005
  0
LINE
  5
208D
330
18
100
AcDbEntity
  8
1
  6
Continuous
100
AcDbLine
 10
171.0725542857135
 20
113.1747723646557
 30
0.0
 11
234.4988742857137
 21
113.1747723646557
 31
0.0
  0
LINE
  5
208E
330
18
100
AcDbEntity
  8
1
  6
Continuous
100
AcDbLine
 10
171.072555158378
 20
68.17477236465589
 30
0.0
 11
234.4988734130493
 21
68.17477236465589
 31
0.0
  0
LINE
  5
208F
330
18
100
AcDbEntity
  8
1
  6
Continuous
100
AcDbLine
 10
181.9970412857135
 20
114.1747723646558
 30
0.0
 11
223.5743872857135
 21
114.1747723646558
 31
0.0
  0
LINE
  5
2090
330
18
100
AcDbEntity
  8
1
  6
Continuous
100
AcDbLine
 10
225.292885533461
 20
113.1747723646558
 30
0.0
 11
202.7857142857135
 21
113.1747723646558
 31
0.0
  0
LINE
  5
2091
330
18
100
AcDbEntity
  8
1
  6
Continuous
100
AcDbLine
 10
215.3974107834335
 20
115.6747723646558
 30
0.0
 11
187.7857142857135
 21
115.6747723646558
 31
0.0
  0
LINE
  5
2092
330
18
100
AcDbEntity
  8
1
  6
Continuous
100
AcDbLine
 10
181.5640272857135
 20
113.9247643646558
 30
0.0
 11
181.1310132857133
 21
113.1747643646558
 31
0.0
  0
ARC
  5
2093
330
18
100
AcDbEntity
  8
1
  6
Continuous
100
AcDbCircle
 10
181.9970412857135
 20
113.6747723646557
 30
0.0
 40
0.5
100
AcDbArc
 50
89.99999999999998
 51
150.0000000000003
  0
LINE
  5
2095
330
18
100
AcDbEntity
  8
1
  6
Continuous
100
AcDbLine
 10
193.6857162857134
 20
115.4747673646559
 30
0.0
 11
193.6857162857134
 21
114.1747723646558
 31
0.0
  0
ARC
  5
2096
330
18
100
AcDbEntity
  8
1
  6
Continuous
100
AcDbCircle
 10
211.6857162857133
 20
115.4747673646558
 30
0.0
 40
0.2
100
AcDbArc
 50
359.9999970000022
 51
89.99999999999998
  0
LINE
  5
2097
330
18
100
AcDbEntity
  8
1
  6
Continuous
100
AcDbLine
 10
211.8857122857134
 20
115.4747673646559
 30
0.0
 11
211.8857122857134
 21
114.1747723646558
 31
0.0
  0
LINE
  5
2098
330
18
100
AcDbEntity
  8
1
  6
Continuous
100
AcDbLine
 10
224.0074012857135
 20
113.924768364656
 30
0.0
 11
224.4404152857134
 21
113.1747643646558
 31
0.0
  0
ARC
  5
2099
330
18
100
AcDbEntity
  8
1
  6
Continuous
100
AcDbCircle
 10
223.5743872857135
 20
113.6747723646557
 30
0.0
 40
0.5
100
AcDbArc
 50
29.99999799999869
 51
89.99999999999998
  0
LINE
  5
20A8
330
18
100
AcDbEntity
  8
1
  6
Continuous
100
AcDbLine
 10
192.2857142857137
 20
124.1747723646558
 30
0.0
 11
213.2857142857137
 21
124.1747723646558
 31
0.0
  0
LINE
  5
20A9
330
18
100
AcDbEntity
  8
1
  6
Continuous
100
AcDbLine
 10
194.2857142857137
 20
126.1747723646558
 30
0.0
 11
211.2857142857137
 21
126.1747723646558
 31
0.0
  0
LINE
  5
20D5
330
18
100
AcDbEntity
  8
1
  6
Continuous
100
AcDbLine
 10
210.7857142857137
 20
126.6747723646558
 30
0.0
 11
213.2857142857137
 21
124.1747723646558
 31
0.0
  0
LINE
  5
20D6
330
18
100
AcDbEntity
  8
1
  6
Continuous
100
AcDbLine
 10
213.2857142857137
 20
124.1747723646558
 30
0.0
 11
213.2857142857137
 21
120.6747723646558
 31
0.0
  0
LINE
  5
20FB
330
18
100
AcDbEntity
  8
1
  6
Continuous
100
AcDbLine
 10
192.2857142857137
 20
124.1747723646558
 30
0.0
 11
192.2857142857137
 21
120.6747723646558
 31
0.0
  0
LINE
  5
20FE
330
18
100
AcDbEntity
  8
1
  6
Continuous
100
AcDbLine
 10
194.7857142857137
 20
126.6747723646558
 30
0.0
 11
192.2857142857137
 21
124.1747723646558
 31
0.0
  0
LINE
  5
20FF
330
18
100
AcDbEntity
  8
1
  6
Continuous
100
AcDbLine
 10
199.7857142857137
 20
126.6747723646558
 30
0.0
 11
200.1358192857137
 21
126.1747723646558
 31
0.0
  0
LINE
  5
2101
330
18
100
AcDbEntity
  8
1
  6
Continuous
100
AcDbLine
 10
194.7857142857137
 20
126.6747723646558
 30
0.0
 11
199.7857142857137
 21
126.6747723646558
 31
0.0
  0
LINE
  5
2108
330
18
100
AcDbEntity
  8
1
  6
Continuous
100
AcDbLine
 10
187.7857142857137
 20
120.6747723646558
 30
0.0
 11
215.3974107834335
 21
120.6747723646559
 31
0.0
  0
LINE
  5
2110
330
18
100
AcDbEntity
  8
1
  6
Continuous
100
AcDbLine
 10
222.9667423615544
 20
127.0874296029578
 30
0.0
 11
219.2866499682702
 21
122.5325090779259
 31
0.0
  0
LINE
  5
211E
330
18
100
AcDbEntity
  8
1
  6
Continuous
100
AcDbLine
 10
226.8559815463911
 20
123.9451663162279
 30
0.0
 11
223.1758891531072
 21
119.3902457911961
 31
0.0
  0
ARC
  5
2122
330
18
100
AcDbEntity
  8
1
  6
Continuous
100
AcDbCircle
 10
193.8857122857132
 20
115.4747673646558
 30
0.0
 40
0.2
100
AcDbArc
 50
90.00000000000005
 51
180.0000029999976
  0
LINE
  5
2124
330
18
100
AcDbEntity
  8
1
  6
Continuous
100
AcDbLine
 10
181.9970412857135
 20
67.17477236465582
 30
0.0
 11
223.5743872857135
 21
67.17477236465582
 31
0.0
  0
ARC
  5
2125
330
18
100
AcDbEntity
  8
1
  6
Continuous
100
AcDbCircle
 10
181.9970412857135
 20
67.67477236465589
 30
0.0
 40
0.5
100
AcDbArc
 50
209.9999999999996
 51
270.0
  0
LINE
  5
2126
330
18
100
AcDbEntity
  8
1
  6
Continuous
100
AcDbLine
 10
181.5640272857135
 20
67.4247803646558
 30
0.0
 11
181.1310132857133
 21
68.17478036465582
 31
0.0
  0
LINE
  5
2127
330
18
100
AcDbEntity
  8
1
  6
Continuous
100
AcDbLine
 10
225.292885533461
 20
68.17477236465585
 30
0.0
 11
202.7857142857135
 21
68.17477236465585
 31
0.0
  0
ARC
  5
2128
330
18
100
AcDbEntity
  8
1
  6
Continuous
100
AcDbCircle
 10
193.8857122857132
 20
65.87477736465581
 30
0.0
 40
0.2
100
AcDbArc
 50
179.9999970000022
 51
270.0
  0
LINE
  5
2129
330
18
100
AcDbEntity
  8
1
  6
Continuous
100
AcDbLine
 10
193.6857162857134
 20
65.87477736465576
 30
0.0
 11
193.6857162857134
 21
67.17477236465582
 31
0.0
  0
ARC
  5
212A
330
18
100
AcDbEntity
  8
1
  6
Continuous
100
AcDbCircle
 10
223.5743872857135
 20
67.67477236465589
 30
0.0
 40
0.5
100
AcDbArc
 50
270.0
 51
330.0000020000013
  0
LINE
  5
212B
330
18
100
AcDbEntity
  8
1
  6
Continuous
100
AcDbLine
 10
224.0074012857135
 20
67.4247763646556
 30
0.0
 11
224.4404152857134
 21
68.17478036465582
 31
0.0
  0
LINE
  5
212C
330
18
100
AcDbEntity
  8
1
  6
Continuous
100
AcDbLine
 10
211.8857122857134
 20
65.87477736465576
 30
0.0
 11
211.8857122857134
 21
67.17477236465582
 31
0.0
  0
ARC
  5
212D
330
18
100
AcDbEntity
  8
1
  6
Continuous
100
AcDbCircle
 10
211.6857162857133
 20
65.87477736465581
 30
0.0
 40
0.2
100
AcDbArc
 50
270.0
 51
0.0000029999977105
  0
LINE
  5
2137
330
18
100
AcDbEntity
  8
1
  6
Continuous
100
AcDbLine
 10
187.7857142857137
 20
120.6747723646558
 30
0.0
 11
187.7857142857135
 21
115.6747723646558
 31
0.0
  0
LINE
  5
2138
330
18
100
AcDbEntity
  8
1
  6
Continuous
100
AcDbLine
 10
187.7857142857135
 20
65.67477236465585
 30
0.0
 11
187.7857142857137
 21
60.67477236465585
 31
0.0
  0
ARC
  5
2145
330
18
100
AcDbEntity
  8
1
  6
Continuous
100
AcDbCircle
 10
228.696531861907
 20
122.1362018536687
 30
0.0
 40
8.0
100
AcDbArc
 50
50.60418511065611
 51
88.01592709997207
  0
ARC
  5
2149
330
18
100
AcDbEntity
  8
1
  6
Continuous
100
AcDbCircle
 10
206.9729478455581
 20
83.52976272410034
 30
0.0
 40
47.20196812452797
100
AcDbArc
 50
19.13956766258973
 51
61.5804947891825
  0
ARC
  5
2151
330
18
100
AcDbEntity
  8
1
  6
Continuous
100
AcDbCircle
 10
228.7648581595049
 20
88.55518280355772
 30
0.0
 40
41.57674650520967
100
AcDbArc
 50
89.71246781316862
 51
114.9686707811389
  0
ARC
  5
2152
330
18
100
AcDbEntity
  8
1
  6
Continuous
100
AcDbCircle
 10
206.3987019123726
 20
82.8541145309718
 30
0.0
 40
53.06983906085649
100
AcDbArc
 50
24.28715801341656
 51
58.9467891221644
  0
LINE
  5
215F
330
18
100
AcDbEntity
  8
1
  6
Continuous
100
AcDbLine
 10
187.7857142857137
 20
60.67477236465585
 30
0.0
 11
215.3974107834335
 21
60.67477236465578
 31
0.0
  0
LINE
  5
2160
330
18
100
AcDbEntity
  8
1
  6
Continuous
100
AcDbLine
 10
215.3974107834335
 20
65.67477236465585
 30
0.0
 11
187.7857142857135
 21
65.67477236465585
 31
0.0
  0
LINE
  5
2161
330
18
100
AcDbEntity
  8
1
  6
Continuous
100
AcDbLine
 10
168.7857142857135
 20
112.6211599787083
 30
0.0
 11
168.7857142857137
 21
129.6747723646558
 31
0.0
  0
ARC
  5
216B
330
18
100
AcDbEntity
  8
1
  6
Continuous
100
AcDbCircle
 10
218.7857142857137
 20
90.67477236465583
 30
0.0
 40
29.99999999999909
100
AcDbArc
 50
279.7455980565765
 51
80.25440194342344
  0
ARC
  5
216C
330
18
100
AcDbEntity
  8
1
  6
Continuous
100
AcDbCircle
 10
218.7857142857137
 20
90.67477236465583
 30
0.0
 40
27.99999999999909
100
AcDbArc
 50
277.4346581981832
 51
306.9652869451938
  0
ARC
  5
216D
330
18
100
AcDbEntity
  8
1
  6
Continuous
100
AcDbCircle
 10
218.7857142857137
 20
90.67477236465583
 30
0.0
 40
27.99999999999909
100
AcDbArc
 50
53.03471305480556
 51
82.56534180181668
  0
ARC
  5
216E
330
18
100
AcDbEntity
  8
1
  6
Continuous
100
AcDbCircle
 10
218.7857142857137
 20
90.67477236465583
 30
0.0
 40
27.99999999999909
100
AcDbArc
 50
316.8757213237281
 51
43.1242786762718
  0
LINE
  5
216F
330
18
100
AcDbEntity
  8
1
  6
Continuous
100
AcDbLine
 10
210.7857142857137
 20
126.6747723646558
 30
0.0
 11
205.7857142857137
 21
126.6747723646558
 31
0.0
  0
LINE
  5
2170
330
18
100
AcDbEntity
  8
1
  6
Continuous
100
AcDbLine
 10
205.7857142857137
 20
126.6747723646558
 30
0.0
 11
205.4356092857137
 21
126.1747723646558
 31
0.0
  0
LINE
  5
2172
330
18
100
AcDbEntity
  8
4
  6
CENTER
 48
0.2
100
AcDbLine
 10
202.7857142857137
 20
473.1747723646558
 30
0.0
 11
202.7857142857137
 21
388.1747723646558
 31
0.0
  0
LINE
  5
2173
330
18
100
AcDbEntity
  8
4
  6
CENTER
 48
0.2
100
AcDbLine
 10
202.7857142857137
 20
133.1747723646558
 30
0.0
 11
202.7857142857137
 21
48.17477236465585
 31
0.0
  0
LINE
  5
2202
330
18
100
AcDbEntity
  8
2
  6
Continuous
100
AcDbLine
 10
40.28571428571376
 20
255.6217723646557
 30
0.0
 11
39.28571428571376
 21
255.6217723646557
 31
0.0
  0
LINE
  5
2514
330
18
100
AcDbEntity
  8
2
  6
Continuous
100
AcDbLine
 10
397.2857142857137
 20
255.6217723646558
 30
0.0
 11
398.2857142857136
 21
255.6217723646558
 31
0.0
  0
LINE
  5
2517
330
18
100
AcDbEntity
  8
2
  6
Continuous
100
AcDbLine
 10
397.2857142857137
 20
265.7277723646558
 30
0.0
 11
398.2857142857136
 21
265.7277723646558
 31
0.0
  0
CIRCLE
  5
2601
330
18
100
AcDbEntity
  8
2
  6
Continuous
100
AcDbCircle
 10
514.785714285714
 20
260.6747723646558
 30
0.0
 40
5.052999999999999
  0
ARC
  5
300C
330
18
100
AcDbEntity
  8
1
  6
Continuous
100
AcDbCircle
 10
215.3974107834335
 20
125.6747723646559
 30
0.0
 40
5.0
100
AcDbArc
 50
270.0000000000001
 51
321.0639455589616
  0
ARC
  5
300D
330
18
100
AcDbEntity
  8
1
  6
Continuous
100
AcDbCircle
 10
215.3974107834335
 20
125.6747723646559
 30
0.0
 40
10.0
100
AcDbArc
 50
270.0000000000001
 51
321.0639455589616
  0
ARC
  5
322A
330
18
100
AcDbEntity
  8
1
  6
Continuous
100
AcDbCircle
 10
229.2504788116827
 20
122.1362018536687
 30
0.0
 40
8.0
100
AcDbArc
 50
91.98407290002787
 51
141.7638959109195
  0
ARC
  5
322E
330
18
100
AcDbEntity
  8
1
  6
Continuous
100
AcDbCircle
 10
229.2504788116827
 20
122.1362018536687
 30
0.0
 40
3.0
100
AcDbArc
 50
95.29734756994853
 51
141.7638959109195
  0
ARC
  5
322F
330
18
100
AcDbEntity
  8
1
  6
Continuous
100
AcDbCircle
 10
228.696531861907
 20
122.1362018536687
 30
0.0
 40
3.0
100
AcDbArc
 50
75.70095689629228
 51
84.70265243005147
  0
ARC
  5
3232
330
18
100
AcDbEntity
  8
1
  6
Continuous
100
AcDbCircle
 10
215.3974107834335
 20
55.67477236465575
 30
0.0
 40
10.0
100
AcDbArc
 50
38.93605444103835
 51
89.99999999999991
  0
ARC
  5
3233
330
18
100
AcDbEntity
  8
1
  6
Continuous
100
AcDbCircle
 10
215.3974107834335
 20
55.67477236465575
 30
0.0
 40
5.0
100
AcDbArc
 50
38.93605444103835
 51
89.99999999999991
  0
LINE
  5
3234
330
18
100
AcDbEntity
  8
1
  6
Continuous
100
AcDbLine
 10
222.9667423615544
 20
54.26211512635386
 30
0.0
 11
219.2866499682702
 21
58.81703565138571
 31
0.0
  0
ARC
  5
3235
330
18
100
AcDbEntity
  8
1
  6
Continuous
100
AcDbCircle
 10
229.2504788116827
 20
59.21334287564292
 30
0.0
 40
3.0
100
AcDbArc
 50
218.2361040890805
 51
264.7026524300514
  0
ARC
  5
3236
330
18
100
AcDbEntity
  8
1
  6
Continuous
100
AcDbCircle
 10
229.2504788116827
 20
59.21334287564292
 30
0.0
 40
8.0
100
AcDbArc
 50
218.2361040890805
 51
268.0159270999721
  0
ARC
  5
3237
330
18
100
AcDbEntity
  8
1
  6
Continuous
100
AcDbCircle
 10
228.696531861907
 20
59.21334287564292
 30
0.0
 40
3.0
100
AcDbArc
 50
275.2973475699485
 51
284.2990431037076
  0
ARC
  5
3238
330
18
100
AcDbEntity
  8
1
  6
Continuous
100
AcDbCircle
 10
228.7648581595049
 20
92.79436192575394
 30
0.0
 40
41.57674650520967
100
AcDbArc
 50
246.6495000372499
 51
270.2875321868313
  0
ARC
  5
3239
330
18
100
AcDbEntity
  8
1
  6
Continuous
100
AcDbCircle
 10
228.696531861907
 20
59.21334287564292
 30
0.0
 40
8.0
100
AcDbArc
 50
271.9840729000279
 51
309.3958148893438
  0
ARC
  5
323A
330
18
100
AcDbEntity
  8
1
  6
Continuous
100
AcDbCircle
 10
206.9729478455581
 20
97.8197820052113
 30
0.0
 40
47.20196812452797
100
AcDbArc
 50
298.4195052108175
 51
340.8604323374102
  0
LINE
  5
323B
330
18
100
AcDbEntity
  8
1
  6
Continuous
100
AcDbLine
 10
226.8559815463911
 20
57.40437841308371
 30
0.0
 11
223.1758891531072
 21
61.95929893811549
 31
0.0
  0
ARC
  5
323C
330
18
100
AcDbEntity
  8
1
  6
Continuous
100
AcDbCircle
 10
206.3987019123726
 20
98.49543019833987
 30
0.0
 40
53.06983906085649
100
AcDbArc
 50
301.0532108778356
 51
335.7128419865834
  0
LINE
  5
324E
330
18
100
AcDbEntity
  8
1
  6
Continuous
100
AcDbLine
 10
396.0191202857138
 20
263.9446163646558
 30
0.0
 11
397.7509162857138
 21
273.3666283646558
 31
0.0
  0
ARC
  5
324F
330
18
100
AcDbEntity
  8
1
  6
Continuous
100
AcDbCircle
 10
391.101495285714
 20
264.8484933646558
 30
0.0
 40
5.0
100
AcDbArc
 50
320.6274558347275
 51
16.04176697678494
  0
LINE
  5
3251
330
18
100
AcDbEntity
  8
1
  6
Continuous
100
AcDbLine
 10
389.4666013528961
 20
254.9742373137966
 30
0.0
 11
394.9666835070767
 21
261.6766926121748
 31
0.0
  0
ARC
  5
3254
330
18
100
AcDbEntity
  8
1
  6
Continuous
100
AcDbCircle
 10
392.3621989857138
 20
252.4291823646558
 30
0.0
 40
3.576484399999999
100
AcDbArc
 50
150.8649539999997
 51
197.0695300000016
  0
ARC
  5
3255
330
18
100
AcDbEntity
  8
1
  6
Continuous
100
AcDbCircle
 10
392.2445231857137
 20
252.4291823646558
 30
0.0
 40
3.041187499999998
100
AcDbArc
 50
330.5220999999998
 51
37.91924999999944
  0
LINE
  5
3256
330
18
100
AcDbEntity
  8
1
  6
Continuous
100
AcDbLine
 10
395.2857142857137
 20
262.1112846842587
 30
0.0
 11
395.2857142857137
 21
251.4247723646558
 31
0.0
  0
LINE
  5
3257
330
18
100
AcDbEntity
  8
1
  6
Continuous
100
AcDbLine
 10
394.2857142857136
 20
250.1747723646558
 30
0.0
 11
389.5857173357136
 21
250.1747723646558
 31
0.0
  0
LINE
  5
3258
330
18
100
AcDbEntity
  8
1
  6
Continuous
100
AcDbLine
 10
395.2857123857137
 20
251.4247723646558
 30
0.0
 11
394.2857128857135
 21
250.1747723646558
 31
0.0
  0
LINE
  5
3259
330
18
100
AcDbEntity
  8
1
  6
Continuous
100
AcDbLine
 10
388.7857141375787
 20
251.6747643646557
 30
0.0
 11
389.5857126857135
 21
250.1747643646558
 31
0.0
  0
ARC
  5
325B
330
18
100
AcDbEntity
  8
1
  6
Continuous
100
AcDbCircle
 10
384.7857142857137
 20
260.6747723646558
 30
0.0
 40
10.5
100
AcDbArc
 50
338.5623799999995
 51
7.190428882828745
  0
ARC
  5
325C
330
18
100
AcDbEntity
  8
1
  6
Continuous
100
AcDbCircle
 10
393.6284647857137
 20
257.2026353646557
 30
0.0
 40
1.0
100
AcDbArc
 50
270.0
 51
338.5623799999995
  0
ARC
  5
325D
330
18
100
AcDbEntity
  8
1
  6
Continuous
100
AcDbCircle
 10
393.8547755857137
 20
253.6835993646558
 30
0.0
 40
1.0
100
AcDbArc
 50
37.91924999999944
 51
89.99999700000229
  0
LINE
  5
325E
330
18
100
AcDbEntity
  8
1
  6
Continuous
100
AcDbLine
 10
394.2857142857136
 20
256.2026353646558
 30
0.0
 11
394.2857142857136
 21
254.6835993646558
 31
0.0
  0
LINE
  5
3260
330
18
100
AcDbEntity
  8
1
  6
Continuous
100
AcDbLine
 10
393.6284647857137
 20
256.2026353646558
 30
0.0
 11
390.4746334690365
 21
256.2026353646558
 31
0.0
  0
ARC
  5
3261
330
18
100
AcDbEntity
  8
1
  6
Continuous
100
AcDbCircle
 10
390.1117030857135
 20
253.6835993646558
 30
0.0
 40
1.0
100
AcDbArc
 50
89.99999700000229
 51
150.8649539999997
  0
LINE
  5
3262
330
18
100
AcDbEntity
  8
1
  6
Continuous
100
AcDbLine
 10
393.8547755857137
 20
254.6835993646558
 30
0.0
 11
390.1117030857135
 21
254.6835993646558
 31
0.0
  0
ARC
  5
3271
330
18
100
AcDbEntity
  8
1
  6
Continuous
100
AcDbCircle
 10
391.7857142857137
 20
253.0711568623081
 30
0.0
 40
3.0
100
AcDbArc
 50
140.6274558347277
 51
180.0
  0
ARC
  5
3272
330
18
100
AcDbEntity
  8
1
  6
Continuous
100
AcDbCircle
 10
391.7857142857137
 20
253.0711568623081
 30
0.0
 40
8.0
100
AcDbArc
 50
136.9597506303481
 51
180.0
  0
ARC
  5
3276
330
18
100
AcDbEntity
  8
1
  6
Continuous
100
AcDbCircle
 10
338.2431672996357
 20
249.6499025577364
 30
0.0
 40
60.0
100
AcDbArc
 50
16.04176697678489
 51
59.94025288880429
  0
ARC
  5
3283
330
18
100
AcDbEntity
  8
1
  6
Continuous
100
AcDbCircle
 10
389.1014952857142
 20
264.8484933646558
 30
0.0
 40
2.0
100
AcDbArc
 50
316.9597506303478
 51
7.154061942338193
  0
LINE
  5
3284
330
18
100
AcDbEntity
  8
1
  6
Continuous
100
AcDbLine
 10
385.9387188596992
 20
258.5312525105696
 30
0.0
 11
390.5632441422178
 21
263.4834694525904
 31
0.0
  0
ARC
  5
3288
330
18
100
AcDbEntity
  8
1
  6
Continuous
100
AcDbCircle
 10
341.4751814829022
 20
258.8706815947785
 30
0.0
 40
50.0
100
AcDbArc
 50
7.154061942338339
 51
59.39388229963459
  0
ARC
  5
3298
330
18
100
AcDbEntity
  8
1
  6
Continuous
100
AcDbCircle
 10
223.7298951799673
 20
90.67477236465583
 30
0.0
 40
34.05581925887136
100
AcDbArc
 50
335.7128419865834
 51
24.28715801341656
  0
ARC
  5
3299
330
18
100
AcDbEntity
  8
1
  6
Continuous
100
AcDbCircle
 10
223.7298951799673
 20
90.67477236465583
 30
0.0
 40
29.05581925887137
100
AcDbArc
 50
343.3378305951549
 51
16.66216940484511
  0
ARC
  5
32A1
330
18
100
AcDbEntity
  8
1
  6
Continuous
100
AcDbCircle
 10
218.7857142857136
 20
90.67477236465583
 30
0.0
 40
44.00909133603227
100
AcDbArc
 50
210.7476608464983
 51
234.5898355359024
  0
ARC
  5
32E0
330
18
100
AcDbEntity
  8
1
  6
Continuous
100
AcDbCircle
 10
376.0962470885252
 20
258.8706815947785
 30
0.0
 40
50.0
100
AcDbArc
 50
120.6061177003654
 51
172.8459380576616
  0
ARC
  5
32E1
330
18
100
AcDbEntity
  8
1
  6
Continuous
100
AcDbCircle
 10
379.3282612717919
 20
249.6499025577364
 30
0.0
 40
60.0
100
AcDbArc
 50
120.0597471111957
 51
163.958233023215
  0
LINE
  5
32E2
330
18
100
AcDbEntity
  8
1
  6
Continuous
100
AcDbLine
 10
321.5523082857137
 20
263.9446163646558
 30
0.0
 11
319.8205122857136
 21
273.3666283646558
 31
0.0
  0
LINE
  5
32E3
330
18
100
AcDbEntity
  8
1
  6
Continuous
100
AcDbLine
 10
328.1048272185314
 20
254.9742373137966
 30
0.0
 11
322.6047450643508
 21
261.6766926121748
 31
0.0
  0
ARC
  5
32E4
330
18
100
AcDbEntity
  8
1
  6
Continuous
100
AcDbCircle
 10
326.4699332857135
 20
264.8484933646558
 30
0.0
 40
5.0
100
AcDbArc
 50
163.958233023215
 51
219.3725441652725
  0
LINE
  5
32E5
330
18
100
AcDbEntity
  8
1
  6
Continuous
100
AcDbLine
 10
331.6327097117282
 20
258.5312525105696
 30
0.0
 11
327.0081844292096
 21
263.4834694525904
 31
0.0
  0
ARC
  5
32E6
330
18
100
AcDbEntity
  8
1
  6
Continuous
100
AcDbCircle
 10
328.4699332857133
 20
264.8484933646558
 30
0.0
 40
2.0
100
AcDbArc
 50
172.8459380576618
 51
223.0402493696521
  0
ARC
  5
32E7
330
18
100
AcDbEntity
  8
1
  6
Continuous
100
AcDbCircle
 10
325.7857142857137
 20
253.0711568623081
 30
0.0
 40
8.0
100
AcDbArc
 50
0.000000000000007
 51
43.04024936965183
  0
ARC
  5
32E8
330
18
100
AcDbEntity
  8
1
  6
Continuous
100
AcDbCircle
 10
325.7857142857137
 20
253.0711568623081
 30
0.0
 40
3.0
100
AcDbArc
 50
0.000000000000007
 51
39.37254416527228
  0
ARC
  5
33D9
330
18
100
AcDbEntity
  8
1
  6
Continuous
100
AcDbCircle
 10
207.8746381741938
 20
64.67462785206993
 30
0.0
 40
10.5
100
AcDbArc
 50
248.5623799999971
 51
291.4376200000028
  0
ARC
  5
33DA
330
18
100
AcDbEntity
  8
1
  6
Continuous
100
AcDbCircle
 10
207.8746381741938
 20
47.77463385207004
 30
0.0
 40
12.9
100
AcDbArc
 50
73.03567999999656
 51
106.9643200000034
  0
LINE
  5
33DB
330
18
100
AcDbEntity
  8
1
  6
Continuous
100
AcDbLine
 10
193.5357126671588
 20
54.17477236465578
 30
0.0
 11
212.0357126671588
 21
54.17477236465578
 31
0.0
  0
LINE
  5
33DD
330
18
100
AcDbEntity
  8
1
  6
Continuous
100
AcDbLine
 10
197.6607126671588
 20
51.17477236465578
 30
0.0
 11
207.9107126671587
 21
51.17477236465578
 31
0.0
  0
LINE
  5
33DE
330
18
100
AcDbEntity
  8
1
  6
Continuous
100
AcDbLine
 10
194.7857126671588
 20
52.17477236465578
 30
0.0
 11
210.7857126671587
 21
52.17477236465578
 31
0.0
  0
ARC
  5
33DF
330
18
100
AcDbEntity
  8
1
  6
Continuous
100
AcDbCircle
 10
197.6967890101714
 20
64.67462785206993
 30
0.0
 40
10.5
100
AcDbArc
 50
248.5623799999971
 51
291.4376200000028
  0
ARC
  5
33E0
330
18
100
AcDbEntity
  8
1
  6
Continuous
100
AcDbCircle
 10
197.6967890101714
 20
47.77463385207004
 30
0.0
 40
12.9
100
AcDbArc
 50
73.03567999999656
 51
106.9643200000034
  0
ARC
  5
33E1
330
18
100
AcDbEntity
  8
1
  6
Continuous
100
AcDbCircle
 10
194.2246520101713
 20
55.83187735206997
 30
0.0
 40
1.0
100
AcDbArc
 50
200.1258109327277
 51
248.5623799999971
  0
ARC
  5
33E2
330
18
100
AcDbEntity
  8
1
  6
Continuous
100
AcDbCircle
 10
194.2246520101713
 20
59.15682085206999
 30
0.0
 40
1.0
100
AcDbArc
 50
106.9643200000034
 51
159.8741890672721
  0
LINE
  5
33E3
330
18
100
AcDbEntity
  8
1
  6
Continuous
100
AcDbLine
 10
193.2857126671585
 20
60.40810826021875
 30
0.0
 11
193.2857126671585
 21
54.374772744656
 31
0.0
  0
LINE
  5
33E4
330
18
100
AcDbEntity
  8
1
  6
Continuous
100
AcDbLine
 10
193.5357126671588
 20
54.17477236465578
 30
0.0
 11
193.2857126671585
 21
54.374772744656
 31
0.0
  0
LINE
  5
33E5
330
18
100
AcDbEntity
  8
1
  6
Continuous
100
AcDbLine
 10
193.2857126671585
 20
60.40810826021875
 30
0.0
 11
193.7857126671589
 21
60.67477505300047
 31
0.0
  0
ARC
  5
33E6
330
18
100
AcDbEntity
  8
1
  6
Continuous
100
AcDbCircle
 10
194.7857126671586
 20
53.42477236465583
 30
0.0
 40
1.25
100
AcDbArc
 50
180.0000029999976
 51
270.000010000001
  0
LINE
  5
33E7
330
18
100
AcDbEntity
  8
1
  6
Continuous
100
AcDbLine
 10
197.6607206671588
 20
51.17476756465585
 30
0.0
 11
196.7857126671588
 21
52.04977046465586
 31
0.0
  0
LINE
  5
33E8
330
18
100
AcDbEntity
  8
1
  6
Continuous
100
AcDbLine
 10
196.7857126671588
 20
52.17477236465578
 30
0.0
 11
196.7857126671588
 21
52.04977236465578
 31
0.0
  0
LINE
  5
33E9
330
18
100
AcDbEntity
  8
2
  6
Continuous
100
AcDbLine
 10
197.7327126671588
 20
52.17477236465578
 30
0.0
 11
197.7327126671588
 21
51.17477236465578
 31
0.0
  0
LINE
  5
33EA
330
18
100
AcDbEntity
  8
1
  6
Continuous
100
AcDbLine
 10
193.5357126671588
 20
53.42477236465578
 30
0.0
 11
193.5357126671588
 21
54.17477236465578
 31
0.0
  0
LINE
  5
33EB
330
18
100
AcDbEntity
  8
1
  6
Continuous
100
AcDbLine
 10
202.1078653531842
 20
54.97477236465579
 30
0.0
 11
203.4635618311809
 21
54.97477236465579
 31
0.0
  0
LINE
  5
33EC
330
18
100
AcDbEntity
  8
1
  6
Continuous
100
AcDbLine
 10
202.1078653531842
 20
59.87477236465579
 30
0.0
 11
203.4635618311809
 21
59.87477236465579
 31
0.0
  0
ARC
  5
33ED
330
18
100
AcDbEntity
  8
1
  6
Continuous
100
AcDbCircle
 10
204.4025011741937
 20
55.83187735206997
 30
0.0
 40
1.0
100
AcDbArc
 50
200.1258109327461
 51
248.5623799999971
  0
LINE
  5
33EE
330
18
100
AcDbEntity
  8
1
  6
Continuous
100
AcDbLine
 10
203.4635618311809
 20
55.48779464378208
 30
0.0
 11
203.4635618311809
 21
59.50090356035794
 31
0.0
  0
ARC
  5
33EF
330
18
100
AcDbEntity
  8
1
  6
Continuous
100
AcDbCircle
 10
204.4025011741937
 20
59.15682085206999
 30
0.0
 40
1.0
100
AcDbArc
 50
106.9643200000034
 51
159.8741890672538
  0
LINE
  5
33F0
330
18
100
AcDbEntity
  8
1
  6
Continuous
100
AcDbLine
 10
202.1078653531842
 20
55.48779464378208
 30
0.0
 11
202.1078653531842
 21
59.50090356035794
 31
0.0
  0
ARC
  5
33F1
330
18
100
AcDbEntity
  8
1
  6
Continuous
100
AcDbCircle
 10
201.1689260101714
 20
59.15682085206999
 30
0.0
 40
1.0
100
AcDbArc
 50
20.12581093274611
 51
73.03567999999656
  0
ARC
  5
33F2
330
18
100
AcDbEntity
  8
1
  6
Continuous
100
AcDbCircle
 10
201.1689260101714
 20
55.83187735206997
 30
0.0
 40
1.0
100
AcDbArc
 50
291.4376200000028
 51
339.8741890672539
  0
ARC
  5
33F3
330
18
100
AcDbEntity
  8
1
  6
Continuous
100
AcDbCircle
 10
211.3467751741938
 20
55.83187735206997
 30
0.0
 40
1.0
100
AcDbArc
 50
291.4376200000028
 51
339.8741890672721
  0
ARC
  5
33F4
330
18
100
AcDbEntity
  8
1
  6
Continuous
100
AcDbCircle
 10
211.3467751741938
 20
59.15682085206999
 30
0.0
 40
1.0
100
AcDbArc
 50
20.12581093272781
 51
73.03567999999656
  0
LINE
  5
33F5
330
18
100
AcDbEntity
  8
1
  6
Continuous
100
AcDbLine
 10
212.2857126671585
 20
60.40811059673828
 30
0.0
 11
212.2857126671585
 21
54.37477416465577
 31
0.0
  0
LINE
  5
33F6
330
18
100
AcDbEntity
  8
1
  6
Continuous
100
AcDbLine
 10
212.0357126671588
 20
54.17477426465592
 30
0.0
 11
212.2857126671585
 21
54.37477416465577
 31
0.0
  0
LINE
  5
33F7
330
18
100
AcDbEntity
  8
1
  6
Continuous
100
AcDbLine
 10
211.7857206671587
 20
60.67477251279086
 30
0.0
 11
212.2857126671585
 21
60.40811059673828
 31
0.0
  0
ARC
  5
33F8
330
18
100
AcDbEntity
  8
1
  6
Continuous
100
AcDbCircle
 10
210.7857126671587
 20
53.42477236465583
 30
0.0
 40
1.25
100
AcDbArc
 50
269.999989999999
 51
0.0
  0
LINE
  5
33F9
330
18
100
AcDbEntity
  8
1
  6
Continuous
100
AcDbLine
 10
207.9107126671587
 20
51.1747733646559
 30
0.0
 11
208.7857126671589
 21
52.04977426465593
 31
0.0
  0
LINE
  5
33FA
330
18
100
AcDbEntity
  8
2
  6
Continuous
100
AcDbLine
 10
207.8387126671588
 20
52.17477236465578
 30
0.0
 11
207.8387126671588
 21
51.17477236465578
 31
0.0
  0
LINE
  5
33FB
330
18
100
AcDbEntity
  8
1
  6
Continuous
100
AcDbLine
 10
208.7857126671587
 20
52.17477236465578
 30
0.0
 11
208.7857126671587
 21
52.04977236465578
 31
0.0
  0
LINE
  5
33FC
330
18
100
AcDbEntity
  8
1
  6
Continuous
100
AcDbLine
 10
212.0357126671588
 20
53.42477236465578
 30
0.0
 11
212.0357126671588
 21
54.17477236465578
 31
0.0
  0
ARC
  5
33FD
330
18
100
AcDbEntity
  8
1
  6
Continuous
100
AcDbCircle
 10
218.7857142857136
 20
90.67477236465583
 30
0.0
 40
44.00909133603227
100
AcDbArc
 50
243.8368085782946
 51
149.2523391535016
  0
ENDSEC
  0
SECTION
  2
OBJECTS
  0
DICTIONARY
  5
C
330
0
100
AcDbDictionary
281
     1
  3
ACAD_CIP_PREVIOUS_PRODUCT_INFO
350
3DEB
  3
ACAD_COLOR
350
3DCE
  3
ACAD_DETAILVIEWSTYLE
350
3DE7
  3
ACAD_GROUP
350
D
  3
ACAD_LAYOUT
350
94
  3
ACAD_MATERIAL
350
3D9C
  3
ACAD_MLEADERSTYLE
350
3DE3
  3
ACAD_MLINESTYLE
350
1B
  3
ACAD_PLOTSETTINGS
350
95
  3
ACAD_PLOTSTYLENAME
350
3D9A
  3
ACAD_SCALELIST
350
3DD1
  3
ACAD_SECTIONVIEWSTYLE
350
3DE5
  3
ACAD_TABLESTYLE
350
3DCF
  3
ACAD_VISUALSTYLE
350
3DB5
  3
ACDB_RECOMPOSE_DATA
350
3E09
  3
AcDbVariableDictionary
350
3DFC
  3
CONTENTDICTIONARY
350
3D
  3
DWGPROPS
350
3E0A
  0
DICTIONARY
  5
3DEC
330
E
100
AcDbDictionary
280
     1
281
     1
  3
ADSK_XREC_LAYER_RECONCILED
360
3DED
  0
DICTIONARY
  5
3DEE
330
4E
100
AcDbDictionary
280
     1
281
     1
  3
ADSK_XREC_LAYER_RECONCILED
360
3DEF
  0
DICTIONARY
  5
3DF0
330
4F
100
AcDbDictionary
280
     1
281
     1
  3
ADSK_XREC_LAYER_RECONCILED
360
3DF1
  0
DICTIONARY
  5
3DF2
330
50
100
AcDbDictionary
280
     1
281
     1
  3
ADSK_XREC_LAYER_RECONCILED
360
3DF3
  0
DICTIONARY
  5
3DF4
330
51
100
AcDbDictionary
280
     1
281
     1
  3
ADSK_XREC_LAYER_RECONCILED
360
3DF5
  0
DICTIONARY
  5
3DF6
330
52
100
AcDbDictionary
280
     1
281
     1
  3
ADSK_XREC_LAYER_RECONCILED
360
3DF7
  0
DICTIONARY
  5
3DF8
330
53
100
AcDbDictionary
280
     1
281
     1
  3
ADSK_XREC_LAYER_RECONCILED
360
3DF9
  0
DICTIONARY
  5
3DFA
330
54
100
AcDbDictionary
280
     1
281
     1
  3
ADSK_XREC_LAYER_RECONCILED
360
3DFB
  0
DICTIONARY
  5
3D95
330
18
100
AcDbDictionary
281
     1
  3
ACAD_LAYOUTSELFREF
350
3D96
  0
DICTIONARY
  5
3D93
330
15
100
AcDbDictionary
281
     1
  3
ACAD_LAYOUTSELFREF
350
3D94
  0
XRECORD
  5
3DEB
102
{ACAD_REACTORS
330
C
102
}
330
C
100
AcDbXrecord
280
     1
300
ACDLT
300
2014
300
ACDLT_F_S
  0
DICTIONARY
  5
3DCE
102
{ACAD_REACTORS
330
C
102
}
330
C
100
AcDbDictionary
281
     1
  0
DICTIONARY
  5
3DE7
102
{ACAD_REACTORS
330
C
102
}
330
C
100
AcDbDictionary
281
     1
  3
Imperial24
350
3DE8
  0
DICTIONARY
  5
D
102
{ACAD_REACTORS
330
C
102
}
330
C
100
AcDbDictionary
281
     1
  0
DICTIONARY
  5
94
102
{ACAD_REACTORS
330
C
102
}
330
C
100
AcDbDictionary
281
     1
  3
Model
350
3DE9
  3
レイアウト1
350
3DEA
  0
DICTIONARY
  5
3D9C
102
{ACAD_REACTORS
330
C
102
}
330
C
100
AcDbDictionary
281
     1
  3
ByBlock
350
3DA5
  3
ByLayer
350
3D9D
  3
Global
350
3DAD
  0
DICTIONARY
  5
3DE3
102
{ACAD_REACTORS
330
C
102
}
330
C
100
AcDbDictionary
281
     1
  3
Standard
350
3DE4
  0
DICTIONARY
  5
1B
102
{ACAD_REACTORS
330
C
102
}
330
C
100
AcDbDictionary
281
     1
  3
STANDARD
350
1C
  0
DICTIONARY
  5
95
102
{ACAD_REACTORS
330
C
102
}
330
C
100
AcDbDictionary
281
     1
  0
ACDBDICTIONARYWDFLT
  5
3D9A
102
{ACAD_REACTORS
330
C
102
}
330
C
100
AcDbDictionary
281
     1
  3
Normal
350
3D9B
100
AcDbDictionaryWithDefault
340
3D9B
  0
DICTIONARY
  5
3DD1
102
{ACAD_REACTORS
330
C
102
}
330
C
100
AcDbDictionary
281
     1
  3
A0
350
3DD2
  3
A1
350
3DD3
  3
A2
350
3DD4
  3
A3
350
3DD5
  3
A4
350
3DD6
  3
A5
350
3DD7
  3
A6
350
3DD8
  3
A7
350
3DD9
  3
A8
350
3DDA
  3
A9
350
3DDB
  3
B0
350
3DDC
  3
B1
350
3DDD
  3
B2
350
3DDE
  3
B3
350
3DDF
  3
B4
350
3DE0
  3
B5
350
3DE1
  3
B6
350
3DE2
  0
DICTIONARY
  5
3DE5
102
{ACAD_REACTORS
330
C
102
}
330
C
100
AcDbDictionary
281
     1
  3
Imperial24
350
3DE6
  0
DICTIONARY
  5
3DCF
102
{ACAD_REACTORS
330
C
102
}
330
C
100
AcDbDictionary
281
     1
  3
Standard
350
3DD0
  0
DICTIONARY
  5
3DB5
102
{ACAD_REACTORS
330
C
102
}
330
C
100
AcDbDictionary
281
     1
  3
2dWireframe
350
3DBB
  3
Basic
350
3DBA
  3
Brighten
350
3DC1
  3
ColorChange
350
3DC5
  3
Conceptual
350
3DBE
  3
Dim
350
3DC0
  3
EdgeColorOff
350
3DCD
  3
Facepattern
350
3DC4
  3
Flat
350
3DB6
  3
FlatWithEdges
350
3DB7
  3
Gouraud
350
3DB8
  3
GouraudWithEdges
350
3DB9
  3
Hidden
350
3DBD
  3
JitterOff
350
3DCB
  3
Linepattern
350
3DC3
  3
OverhangOff
350
3DCC
  3
Realistic
350
3DBF
  3
Shaded
350
3DCA
  3
Shaded with edges
350
3DC9
  3
Shades of Gray
350
3DC6
  3
Sketchy
350
3DC7
  3
Thicken
350
3DC2
  3
Wireframe
350
3DBC
  3
X-Ray
350
3DC8
  0
XRECORD
  5
3E09
102
{ACAD_REACTORS
330
C
102
}
330
C
100
AcDbXrecord
280
     1
 90
        1
330
3DD0
  0
DICTIONARY
  5
3DFC
102
{ACAD_REACTORS
330
C
102
}
330
C
100
AcDbDictionary
281
     1
  3
CANNOSCALE
350
3E01
  3
CMLEADERSTYLE
350
3DFE
  3
CTABLESTYLE
350
3DFD
  3
CVIEWDETAILSTYLE
350
3DFF
  3
CVIEWSECTIONSTYLE
350
3E00
  3
DIMASSOC
350
3E04
  3
INDEXCTL
350
3E03
  3
SORTENTS
350
3E02
  3
XCLIPFRAME
350
3E05
  0
DICTIONARY
  5
3D
102
{ACAD_REACTORS
330
C
102
}
330
C
100
AcDbDictionary
281
     1
  0
XRECORD
  5
3E0A
102
{ACAD_REACTORS
330
C
102
}
330
C
100
AcDbXrecord
280
     1
  1
DWGPROPS COOKIE
  2

  3

  4

  6

  7

  8
Yoshitsune
  9

300
=
301
=
302
=
303
=
304
=
305
=
306
=
307
=
308
=
309
=
 40
0.4506613425925927
 41
2452051.395592083
 42
2457192.691064699
  1

 90
        0
  0
XRECORD
  5
3DED
102
{ACAD_REACTORS
330
3DEC
102
}
330
3DEC
100
AcDbXrecord
280
     1
290
     1
  0
XRECORD
  5
3DEF
102
{ACAD_REACTORS
330
3DEE
102
}
330
3DEE
100
AcDbXrecord
280
     1
290
     1
  0
XRECORD
  5
3DF1
102
{ACAD_REACTORS
330
3DF0
102
}
330
3DF0
100
AcDbXrecord
280
     1
290
     1
  0
XRECORD
  5
3DF3
102
{ACAD_REACTORS
330
3DF2
102
}
330
3DF2
100
AcDbXrecord
280
     1
290
     1
  0
XRECORD
  5
3DF5
102
{ACAD_REACTORS
330
3DF4
102
}
330
3DF4
100
AcDbXrecord
280
     1
290
     1
  0
XRECORD
  5
3DF7
102
{ACAD_REACTORS
330
3DF6
102
}
330
3DF6
100
AcDbXrecord
280
     1
290
     1
  0
XRECORD
  5
3DF9
102
{ACAD_REACTORS
330
3DF8
102
}
330
3DF8
100
AcDbXrecord
280
     1
290
     1
  0
XRECORD
  5
3DFB
102
{ACAD_REACTORS
330
3DFA
102
}
330
3DFA
100
AcDbXrecord
280
     1
290
     1
  0
XRECORD
  5
3D96
102
{ACAD_REACTORS
330
3D95
102
}
330
3D95
100
AcDbXrecord
280
     1
340
18
  0
XRECORD
  5
3D94
102
{ACAD_REACTORS
330
3D93
102
}
330
3D93
100
AcDbXrecord
280
     1
340
15
  0
ACDBDETAILVIEWSTYLE
  5
3DE8
102
{ACAD_XDICTIONARY
360
3E42
102
}
102
{ACAD_REACTORS
330
3DE7
102
}
330
3DE7
100
AcDbModelDocViewStyle
 70
     0
  3
Imperial24
290
     0
100
AcDbDetailViewStyle
 70
     0
 71
     0
 90
        3
 71
     1
340
F
 40
0.24
340
0
 40
0.24
300

 40
0.36
280
     3
 71
     2
340
14
 90
       25
 71
     3
340
F
 40
0.24
 90
        1
 40
0.75
 90
        1
300
%<\AcVar ViewType \f "%tc1">% %<\AcVar ViewDetailId>%\PSCALE %<\AcVar ViewScale \f "%sn">%
 71
     4
340
14
 90
       25
340
14
 90
       25
280
     0
  0
LAYOUT
  5
3DE9
102
{ACAD_XDICTIONARY
360
3E44
102
}
102
{ACAD_REACTORS
330
94
102
}
330
94
100
AcDbPlotSettings
  1

  2
Canon LBP9100C
  4

  6

 40
0.0
 41
0.0
 42
0.0
 43
0.0
 44
0.0
 45
0.0
 46
0.0
 47
0.0
 48
0.0
 49
0.0
140
0.0
141
0.0
142
1.0
143
1.0
 70
  1712
 72
     0
 73
     0
 74
     0
  7

 75
     0
147
1.0
148
0.0
149
0.0
100
AcDbLayout
  1
Model
 70
     1
 71
     0
 10
0.0
 20
0.0
 11
12.0
 21
9.0
 12
0.0
 22
0.0
 32
0.0
 14
0.0
 24
0.0
 34
0.0
 15
0.0
 25
0.0
 35
0.0
146
0.0
 13
0.0
 23
0.0
 33
0.0
 16
1.0
 26
0.0
 36
0.0
 17
0.0
 27
1.0
 37
0.0
 76
     0
330
18
331
3D92
  0
LAYOUT
  5
3DEA
102
{ACAD_XDICTIONARY
360
3E46
102
}
102
{ACAD_REACTORS
330
94
102
}
330
94
100
AcDbPlotSettings
  1

  2
Canon LBP9100C
  4

  6

 40
0.0
 41
0.0
 42
0.0
 43
0.0
 44
0.0
 45
0.0
 46
0.0
 47
0.0
 48
0.0
 49
0.0
140
0.0
141
0.0
142
1.0
143
1.0
 70
   688
 72
     0
 73
     0
 74
     5
  7

 75
    16
147
1.0
148
0.0
149
0.0
100
AcDbLayout
  1
レイアウト1
 70
     1
 71
     1
 10
0.0
 20
0.0
 11
420.0
 21
297.0
 12
0.0
 22
0.0
 32
0.0
 14
1.000000000000000E+20
 24
1.000000000000000E+20
 34
1.000000000000000E+20
 15
-1.000000000000000E+20
 25
-1.000000000000000E+20
 35
-1.000000000000000E+20
146
0.0
 13
0.0
 23
0.0
 33
0.0
 16
1.0
 26
0.0
 36
0.0
 17
0.0
 27
1.0
 37
0.0
 76
     0
330
15
  0
MATERIAL
  5
3DA5
102
{ACAD_XDICTIONARY
360
3DA6
102
}
102
{ACAD_REACTORS
330
3D9C
102
}
330
3D9C
100
AcDbMaterial
  1
ByBlock
 72
     0
 43
0.0208333333333333
 43
0.0
 43
0.0
 43
0.0
 43
0.0
 43
0.0208333333333333
 43
0.0
 43
0.0
 43
0.0
 43
0.0
 43
1.0
 43
0.0
 43
0.0
 43
0.0
 43
0.0
 43
1.0
 77
     0
 47
0.0208333333333333
 47
0.0
 47
0.0
 47
0.0
 47
0.0
 47
0.0208333333333333
 47
0.0
 47
0.0
 47
0.0
 47
0.0
 47
1.0
 47
0.0
 47
0.0
 47
0.0
 47
0.0
 47
1.0
171
     0
 49
0.0208333333333333
 49
0.0
 49
0.0
 49
0.0
 49
0.0
 49
0.0208333333333333
 49
0.0
 49
0.0
 49
0.0
 49
0.0
 49
1.0
 49
0.0
 49
0.0
 49
0.0
 49
0.0
 49
1.0
175
     0
142
0.0208333333333333
142
0.0
142
0.0
142
0.0
142
0.0
142
0.0208333333333333
142
0.0
142
0.0
142
0.0
142
0.0
142
1.0
142
0.0
142
0.0
142
0.0
142
0.0
142
1.0
179
     0
144
0.0208333333333333
144
0.0
144
0.0
144
0.0
144
0.0
144
0.0208333333333333
144
0.0
144
0.0
144
0.0
144
0.0
144
1.0
144
0.0
144
0.0
144
0.0
144
0.0
144
1.0
147
0.0208333333333333
147
0.0
147
0.0
147
0.0
147
0.0
147
0.0208333333333333
147
0.0
147
0.0
147
0.0
147
0.0
147
1.0
147
0.0
147
0.0
147
0.0
147
0.0
147
1.0
  0
MATERIAL
  5
3D9D
102
{ACAD_XDICTIONARY
360
3D9E
102
}
102
{ACAD_REACTORS
330
3D9C
102
}
330
3D9C
100
AcDbMaterial
  1
ByLayer
 72
     0
 43
0.0208333333333333
 43
0.0
 43
0.0
 43
0.0
 43
0.0
 43
0.0208333333333333
 43
0.0
 43
0.0
 43
0.0
 43
0.0
 43
1.0
 43
0.0
 43
0.0
 43
0.0
 43
0.0
 43
1.0
 77
     0
 47
0.0208333333333333
 47
0.0
 47
0.0
 47
0.0
 47
0.0
 47
0.0208333333333333
 47
0.0
 47
0.0
 47
0.0
 47
0.0
 47
1.0
 47
0.0
 47
0.0
 47
0.0
 47
0.0
 47
1.0
171
     0
 49
0.0208333333333333
 49
0.0
 49
0.0
 49
0.0
 49
0.0
 49
0.0208333333333333
 49
0.0
 49
0.0
 49
0.0
 49
0.0
 49
1.0
 49
0.0
 49
0.0
 49
0.0
 49
0.0
 49
1.0
175
     0
142
0.0208333333333333
142
0.0
142
0.0
142
0.0
142
0.0
142
0.0208333333333333
142
0.0
142
0.0
142
0.0
142
0.0
142
1.0
142
0.0
142
0.0
142
0.0
142
0.0
142
1.0
179
     0
144
0.0208333333333333
144
0.0
144
0.0
144
0.0
144
0.0
144
0.0208333333333333
144
0.0
144
0.0
144
0.0
144
0.0
144
1.0
144
0.0
144
0.0
144
0.0
144
0.0
144
1.0
147
0.0208333333333333
147
0.0
147
0.0
147
0.0
147
0.0
147
0.0208333333333333
147
0.0
147
0.0
147
0.0
147
0.0
147
1.0
147
0.0
147
0.0
147
0.0
147
0.0
147
1.0
  0
MATERIAL
  5
3DAD
102
{ACAD_XDICTIONARY
360
3DAE
102
}
102
{ACAD_REACTORS
330
3D9C
102
}
330
3D9C
100
AcDbMaterial
  1
Global
 72
     0
 43
0.0208333333333333
 43
0.0
 43
0.0
 43
0.0
 43
0.0
 43
0.0208333333333333
 43
0.0
 43
0.0
 43
0.0
 43
0.0
 43
1.0
 43
0.0
 43
0.0
 43
0.0
 43
0.0
 43
1.0
 77
     0
 47
0.0208333333333333
 47
0.0
 47
0.0
 47
0.0
 47
0.0
 47
0.0208333333333333
 47
0.0
 47
0.0
 47
0.0
 47
0.0
 47
1.0
 47
0.0
 47
0.0
 47
0.0
 47
0.0
 47
1.0
171
     0
 49
0.0208333333333333
 49
0.0
 49
0.0
 49
0.0
 49
0.0
 49
0.0208333333333333
 49
0.0
 49
0.0
 49
0.0
 49
0.0
 49
1.0
 49
0.0
 49
0.0
 49
0.0
 49
0.0
 49
1.0
175
     0
142
0.0208333333333333
142
0.0
142
0.0
142
0.0
142
0.0
142
0.0208333333333333
142
0.0
142
0.0
142
0.0
142
0.0
142
1.0
142
0.0
142
0.0
142
0.0
142
0.0
142
1.0
179
     0
144
0.0208333333333333
144
0.0
144
0.0
144
0.0
144
0.0
144
0.0208333333333333
144
0.0
144
0.0
144
0.0
144
0.0
144
1.0
144
0.0
144
0.0
144
0.0
144
0.0
144
1.0
147
0.0208333333333333
147
0.0
147
0.0
147
0.0
147
0.0
147
0.0208333333333333
147
0.0
147
0.0
147
0.0
147
0.0
147
1.0
147
0.0
147
0.0
147
0.0
147
0.0
147
1.0
  0
MLEADERSTYLE
  5
3DE4
102
{ACAD_REACTORS
330
3DE3
102
}
330
3DE3
100
AcDbMLeaderStyle
170
     2
171
     1
172
     0
 90
        2
 40
0.0
 41
0.0
173
     1
 91
-1056964608
340
12
 92
       -2
290
     1
 42
0.09
291
     1
 43
0.36
  3
Standard
 44
0.18
300

342
F
174
     1
178
     6
175
     1
176
     0
 93
-1056964608
 45
0.18
292
     0
297
     0
 46
0.18
 94
-1056964608
 47
1.0
 49
1.0
140
1.0
293
     1
141
0.0
294
     1
177
     0
142
1.0
295
     0
296
     0
143
0.125
1001
ACAD_MLEADERVER
1070
     2
  0
MLINESTYLE
  5
1C
102
{ACAD_REACTORS
330
1B
102
}
330
1B
100
AcDbMlineStyle
  2
STANDARD
 70
     0
  3

 62
   256
 51
90.0
 52
90.0
 71
     2
 49
0.5
 62
   256
  6
BYLAYER
 49
-0.5
 62
   256
  6
BYLAYER
  0
ACDBPLACEHOLDER
  5
3D9B
102
{ACAD_REACTORS
330
3D9A
102
}
330
3D9A
  0
SCALE
  5
3DD2
102
{ACAD_REACTORS
330
3DD1
102
}
330
3DD1
100
AcDbScale
 70
     0
300
1:1
140
1.0
141
1.0
290
     1
  0
SCALE
  5
3DD3
102
{ACAD_REACTORS
330
3DD1
102
}
330
3DD1
100
AcDbScale
 70
     0
300
1/128" = 1'-0"
140
0.0078125
141
12.0
290
     0
  0
SCALE
  5
3DD4
102
{ACAD_REACTORS
330
3DD1
102
}
330
3DD1
100
AcDbScale
 70
     0
300
1/64" = 1'-0"
140
0.015625
141
12.0
290
     0
  0
SCALE
  5
3DD5
102
{ACAD_REACTORS
330
3DD1
102
}
330
3DD1
100
AcDbScale
 70
     0
300
1/32" = 1'-0"
140
0.03125
141
12.0
290
     0
  0
SCALE
  5
3DD6
102
{ACAD_REACTORS
330
3DD1
102
}
330
3DD1
100
AcDbScale
 70
     0
300
1/16" = 1'-0"
140
0.0625
141
12.0
290
     0
  0
SCALE
  5
3DD7
102
{ACAD_REACTORS
330
3DD1
102
}
330
3DD1
100
AcDbScale
 70
     0
300
3/32" = 1'-0"
140
0.09375
141
12.0
290
     0
  0
SCALE
  5
3DD8
102
{ACAD_REACTORS
330
3DD1
102
}
330
3DD1
100
AcDbScale
 70
     0
300
1/8" = 1'-0"
140
0.125
141
12.0
290
     0
  0
SCALE
  5
3DD9
102
{ACAD_REACTORS
330
3DD1
102
}
330
3DD1
100
AcDbScale
 70
     0
300
3/16" = 1'-0"
140
0.1875
141
12.0
290
     0
  0
SCALE
  5
3DDA
102
{ACAD_REACTORS
330
3DD1
102
}
330
3DD1
100
AcDbScale
 70
     0
300
1/4" = 1'-0"
140
0.25
141
12.0
290
     0
  0
SCALE
  5
3DDB
102
{ACAD_REACTORS
330
3DD1
102
}
330
3DD1
100
AcDbScale
 70
     0
300
3/8" = 1'-0"
140
0.375
141
12.0
290
     0
  0
SCALE
  5
3DDC
102
{ACAD_REACTORS
330
3DD1
102
}
330
3DD1
100
AcDbScale
 70
     0
300
1/2" = 1'-0"
140
0.5
141
12.0
290
     0
  0
SCALE
  5
3DDD
102
{ACAD_REACTORS
330
3DD1
102
}
330
3DD1
100
AcDbScale
 70
     0
300
3/4" = 1'-0"
140
0.75
141
12.0
290
     0
  0
SCALE
  5
3DDE
102
{ACAD_REACTORS
330
3DD1
102
}
330
3DD1
100
AcDbScale
 70
     0
300
1" = 1'-0"
140
1.0
141
12.0
290
     0
  0
SCALE
  5
3DDF
102
{ACAD_REACTORS
330
3DD1
102
}
330
3DD1
100
AcDbScale
 70
     0
300
1-1/2" = 1'-0"
140
1.5
141
12.0
290
     0
  0
SCALE
  5
3DE0
102
{ACAD_REACTORS
330
3DD1
102
}
330
3DD1
100
AcDbScale
 70
     0
300
3" = 1'-0"
140
3.0
141
12.0
290
     0
  0
SCALE
  5
3DE1
102
{ACAD_REACTORS
330
3DD1
102
}
330
3DD1
100
AcDbScale
 70
     0
300
6" = 1'-0"
140
6.0
141
12.0
290
     0
  0
SCALE
  5
3DE2
102
{ACAD_REACTORS
330
3DD1
102
}
330
3DD1
100
AcDbScale
 70
     0
300
1'-0" = 1'-0"
140
12.0
141
12.0
290
     0
  0
ACDBSECTIONVIEWSTYLE
  5
3DE6
102
{ACAD_XDICTIONARY
360
3E40
102
}
102
{ACAD_REACTORS
330
3DE5
102
}
330
3DE5
100
AcDbModelDocViewStyle
 70
     0
  3
Imperial24
290
     0
100
AcDbSectionViewStyle
 70
     0
 71
     0
 90
       78
 71
     1
340
F
 40
0.24
340
0
340
0
 40
0.24
300
I, O, Q, S, X, Z
 40
0.48
 90
        3
 40
0.18
 90
        1
 71
     2
340
14
 90
       25
340
14
 90
       50
 40
0.24
 40
0.0
 40
0.24
 71
     3
340
F
 40
0.24
 90
        1
 40
0.75
 90
        1
300
%<\AcVar ViewType \f "%tc1">% %<\AcVar ViewSectionStartId>%-%<\AcVar ViewSectionEndId>%\PSCALE %<\AcVar ViewScale \f "%sn">%
 71
     4
300
ANSI31
 40
1.0
 90
        0
290
     0
290
     0
 90
        6
 40
0.0
 40
1.570796326794896
 40
0.2617993877991494
 40
1.308996938995747
 40
-0.2617993877991494
 40
1.832595714594046
  0
TABLESTYLE
  5
3DD0
102
{ACAD_XDICTIONARY
360
3E07
102
}
102
{ACAD_REACTORS
330
3DCF
102
}
330
3DCF
100
AcDbTableStyle
  3
Standard
 70
     0
 71
     0
 40
0.06
 41
0.06
280
     0
281
     0
  7
STANDARD
140
0.18
170
     2
 62
     0
 63
     7
283
     0
274
    -2
284
     1
 64
     0
275
    -2
285
     1
 65
     0
276
    -2
286
     1
 66
     0
277
    -2
287
     1
 67
     0
278
    -2
288
     1
 68
     0
279
    -2
289
     1
 69
     0
  7
STANDARD
140
0.25
170
     5
 62
     0
 63
     7
283
     0
274
    -2
284
     1
 64
     0
275
    -2
285
     1
 65
     0
276
    -2
286
     1
 66
     0
277
    -2
287
     1
 67
     0
278
    -2
288
     1
 68
     0
279
    -2
289
     1
 69
     0
  7
STANDARD
140
0.18
170
     5
 62
     0
 63
     7
283
     0
274
    -2
284
     1
 64
     0
275
    -2
285
     1
 65
     0
276
    -2
286
     1
 66
     0
277
    -2
287
     1
 67
     0
278
    -2
288
     1
 68
     0
279
    -2
289
     1
 69
     0
  0
VISUALSTYLE
  5
3DBB
102
{ACAD_XDICTIONARY
360
3E18
102
}
102
{ACAD_REACTORS
330
3DB5
102
}
330
3DB5
100
AcDbVisualStyle
  2
2dWireframe
 70
     4
 71
     0
 72
     2
 73
     0
 90
        0
 40
-0.6
 41
-30.0
 62
     5
 63
     7
 74
     1
 91
        4
 64
     7
 65
   257
 75
     1
175
     1
 42
1.0
 92
        0
 66
   257
 43
1.0
 76
     1
 77
     6
 78
     2
 67
     7
 79
     5
170
     0
171
     0
290
     0
174
     0
 93
        1
 44
0.0
173
     0
291
     0
 45
0.0
1001
ACAD
1000
AcDbSavedByObjectVersion
1070
     0
  0
VISUALSTYLE
  5
3DBA
102
{ACAD_XDICTIONARY
360
3E16
102
}
102
{ACAD_REACTORS
330
3DB5
102
}
330
3DB5
100
AcDbVisualStyle
  2
Basic
 70
     7
 71
     1
 72
     0
 73
     1
 90
        0
 40
-0.6
 41
-30.0
 62
     5
 63
     7
 74
     0
 91
        4
 64
     7
 65
   257
 75
     1
175
     1
 42
1.0
 92
        8
 66
     7
 43
1.0
 76
     1
 77
     6
 78
     2
 67
     7
 79
     5
170
     0
171
     0
290
     0
174
     0
 93
        1
 44
0.0
173
     0
291
     1
 45
0.0
1001
ACAD
1000
AcDbSavedByObjectVersion
1070
     0
  0
VISUALSTYLE
  5
3DC1
102
{ACAD_XDICTIONARY
360
3E24
102
}
102
{ACAD_REACTORS
330
3DB5
102
}
330
3DB5
100
AcDbVisualStyle
  2
Brighten
 70
    12
 71
     2
 72
     2
 73
     0
 90
        0
 40
-0.6
 41
-30.0
 62
     5
 63
     7
 74
     1
 91
        4
 64
     7
 65
   257
 75
     1
175
     1
 42
1.0
 92
        8
 66
     7
 43
1.0
 76
     1
 77
     6
 78
     2
 67
     7
 79
     5
170
     0
171
     0
290
     0
174
     0
 93
        1
 44
50.0
173
     0
291
     1
 45
0.0
1001
ACAD
1000
AcDbSavedByObjectVersion
1070
     0
  0
VISUALSTYLE
  5
3DC5
102
{ACAD_XDICTIONARY
360
3E2C
102
}
102
{ACAD_REACTORS
330
3DB5
102
}
330
3DB5
100
AcDbVisualStyle
  2
ColorChange
 70
    16
 71
     2
 72
     2
 73
     3
 90
        0
 40
-0.6
 41
-30.0
 62
     5
 63
     8
 74
     1
 91
        4
 64
     7
 65
   257
 75
     1
175
     1
 42
1.0
 92
        8
 66
     8
 43
1.0
 76
     1
 77
     6
 78
     2
 67
     7
 79
     5
170
     0
171
     0
290
     0
174
     0
 93
        1
 44
0.0
173
     0
291
     1
 45
0.0
1001
ACAD
1000
AcDbSavedByObjectVersion
1070
     0
  0
VISUALSTYLE
  5
3DBE
102
{ACAD_XDICTIONARY
360
3E1E
102
}
102
{ACAD_REACTORS
330
3DB5
102
}
330
3DB5
100
AcDbVisualStyle
  2
Conceptual
 70
     9
 71
     3
 72
     2
 73
     0
 90
        0
 40
-0.6
 41
-30.0
 62
     5
 63
     7
 74
     2
 91
        2
 64
     7
 65
   257
 75
     1
175
     1
 42
179.0
 92
        8
 66
     7
 43
1.0
 76
     1
 77
     6
 78
     2
 67
     7
 79
     3
170
     0
171
     0
290
     0
174
     0
 93
        1
 44
0.0
173
     0
291
     0
 45
0.0
1001
ACAD
1000
AcDbSavedByObjectVersion
1070
     0
  0
VISUALSTYLE
  5
3DC0
102
{ACAD_XDICTIONARY
360
3E22
102
}
102
{ACAD_REACTORS
330
3DB5
102
}
330
3DB5
100
AcDbVisualStyle
  2
Dim
 70
    11
 71
     2
 72
     2
 73
     0
 90
        0
 40
-0.6
 41
-30.0
 62
     5
 63
     7
 74
     1
 91
        4
 64
     7
 65
   257
 75
     1
175
     1
 42
1.0
 92
        8
 66
     7
 43
1.0
 76
     1
 77
     6
 78
     2
 67
     7
 79
     5
170
     0
171
     0
290
     0
174
     0
 93
        1
 44
-50.0
173
     0
291
     1
 45
0.0
1001
ACAD
1000
AcDbSavedByObjectVersion
1070
     0
  0
VISUALSTYLE
  5
3DCD
102
{ACAD_XDICTIONARY
360
3E3C
102
}
102
{ACAD_REACTORS
330
3DB5
102
}
330
3DB5
100
AcDbVisualStyle
  2
EdgeColorOff
 70
    22
 71
     2
 72
     2
 73
     0
 90
        0
 40
-0.6
 41
-30.0
 62
     5
 63
     7
 74
     1
 91
        4
 64
     7
 65
   257
 75
     1
175
     1
 42
1.0
 92
        8
 66
     7
 43
1.0
 76
     1
 77
     6
 78
     2
 67
     7
 79
     5
170
     0
171
     0
290
     0
174
     0
 93
        1
 44
0.0
173
     0
291
     1
 45
0.0
1001
ACAD
1000
AcDbSavedByObjectVersion
1070
     0
  0
VISUALSTYLE
  5
3DC4
102
{ACAD_XDICTIONARY
360
3E2A
102
}
102
{ACAD_REACTORS
330
3DB5
102
}
330
3DB5
100
AcDbVisualStyle
  2
Facepattern
 70
    15
 71
     2
 72
     2
 73
     0
 90
        0
 40
-0.6
 41
-30.0
 62
     5
 63
     7
 74
     1
 91
        4
 64
     7
 65
   257
 75
     1
175
     1
 42
1.0
 92
        8
 66
     7
 43
1.0
 76
     1
 77
     6
 78
     2
 67
     7
 79
     5
170
     0
171
     0
290
     0
174
     0
 93
        1
 44
0.0
173
     0
291
     1
 45
0.0
1001
ACAD
1000
AcDbSavedByObjectVersion
1070
     0
  0
VISUALSTYLE
  5
3DB6
102
{ACAD_XDICTIONARY
360
3E0E
102
}
102
{ACAD_REACTORS
330
3DB5
102
}
330
3DB5
100
AcDbVisualStyle
  2
Flat
 70
     0
 71
     2
 72
     1
 73
     1
 90
        2
 40
-0.6
 41
30.0
 62
     5
 63
     7
 74
     0
 91
        0
 64
     7
 65
   257
 75
     1
175
     1
 42
1.0
 92
        8
 66
     7
 43
1.0
 76
     1
 77
     6
 78
     2
 67
     7
 79
     5
170
     0
171
     0
290
     0
174
     0
 93
       13
 44
0.0
173
     0
291
     1
 45
0.0
1001
ACAD
1000
AcDbSavedByObjectVersion
1070
     0
  0
VISUALSTYLE
  5
3DB7
102
{ACAD_XDICTIONARY
360
3E10
102
}
102
{ACAD_REACTORS
330
3DB5
102
}
330
3DB5
100
AcDbVisualStyle
  2
FlatWithEdges
 70
     1
 71
     2
 72
     1
 73
     1
 90
        2
 40
-0.6
 41
30.0
 62
     5
 63
     7
 74
     1
 91
        0
 64
     7
 65
   257
 75
     1
175
     1
 42
1.0
 92
        0
 66
   257
 43
1.0
 76
     1
 77
     6
 78
     2
 67
     7
 79
     5
170
     0
171
     0
290
     0
174
     0
 93
       13
 44
0.0
173
     0
291
     1
 45
0.0
1001
ACAD
1000
AcDbSavedByObjectVersion
1070
     0
  0
VISUALSTYLE
  5
3DB8
102
{ACAD_XDICTIONARY
360
3E12
102
}
102
{ACAD_REACTORS
330
3DB5
102
}
330
3DB5
100
AcDbVisualStyle
  2
Gouraud
 70
     2
 71
     2
 72
     2
 73
     1
 90
        2
 40
-0.6
 41
30.0
 62
     5
 63
     7
 74
     0
 91
        0
 64
     7
 65
   257
 75
     1
175
     1
 42
1.0
 92
        0
 66
     7
 43
1.0
 76
     1
 77
     6
 78
     2
 67
     7
 79
     5
170
     0
171
     0
290
     0
174
     0
 93
       13
 44
0.0
173
     0
291
     1
 45
0.0
1001
ACAD
1000
AcDbSavedByObjectVersion
1070
     0
  0
VISUALSTYLE
  5
3DB9
102
{ACAD_XDICTIONARY
360
3E14
102
}
102
{ACAD_REACTORS
330
3DB5
102
}
330
3DB5
100
AcDbVisualStyle
  2
GouraudWithEdges
 70
     3
 71
     2
 72
     2
 73
     1
 90
        2
 40
-0.6
 41
30.0
 62
     5
 63
     7
 74
     1
 91
        0
 64
     7
 65
   257
 75
     1
175
     1
 42
1.0
 92
        0
 66
   257
 43
1.0
 76
     1
 77
     6
 78
     2
 67
     7
 79
     5
170
     0
171
     0
290
     0
174
     0
 93
       13
 44
0.0
173
     0
291
     1
 45
0.0
1001
ACAD
1000
AcDbSavedByObjectVersion
1070
     0
  0
VISUALSTYLE
  5
3DBD
102
{ACAD_XDICTIONARY
360
3E1C
102
}
102
{ACAD_REACTORS
330
3DB5
102
}
330
3DB5
100
AcDbVisualStyle
  2
Hidden
 70
     6
 71
     1
 72
     2
 73
     2
 90
        0
 40
-0.6
 41
-30.0
 62
     5
 63
     7
 74
     2
 91
        2
 64
     7
 65
   257
 75
     2
175
     1
 42
40.0
 92
        0
 66
   257
 43
1.0
 76
     1
 77
     6
 78
     2
 67
     7
 79
     3
170
     0
171
     0
290
     0
174
     0
 93
        1
 44
0.0
173
     0
291
     0
 45
0.0
1001
ACAD
1000
AcDbSavedByObjectVersion
1070
     0
  0
VISUALSTYLE
  5
3DCB
102
{ACAD_XDICTIONARY
360
3E38
102
}
102
{ACAD_REACTORS
330
3DB5
102
}
330
3DB5
100
AcDbVisualStyle
  2
JitterOff
 70
    20
 71
     2
 72
     2
 73
     0
 90
        0
 40
-0.6
 41
-30.0
 62
     5
 63
     7
 74
     1
 91
        4
 64
     7
 65
   257
 75
     1
175
     1
 42
1.0
 92
       10
 66
     7
 43
1.0
 76
     1
 77
     6
 78
     2
 67
     7
 79
     5
170
     0
171
     0
290
     0
174
     0
 93
        1
 44
0.0
173
     0
291
     1
 45
0.0
1001
ACAD
1000
AcDbSavedByObjectVersion
1070
     0
  0
VISUALSTYLE
  5
3DC3
102
{ACAD_XDICTIONARY
360
3E28
102
}
102
{ACAD_REACTORS
330
3DB5
102
}
330
3DB5
100
AcDbVisualStyle
  2
Linepattern
 70
    14
 71
     2
 72
     2
 73
     0
 90
        0
 40
-0.6
 41
-30.0
 62
     5
 63
     7
 74
     1
 91
        4
 64
     7
 65
   257
 75
     7
175
     7
 42
1.0
 92
        8
 66
     7
 43
1.0
 76
     1
 77
     6
 78
     2
 67
     7
 79
     5
170
     0
171
     0
290
     0
174
     0
 93
        1
 44
0.0
173
     0
291
     1
 45
0.0
1001
ACAD
1000
AcDbSavedByObjectVersion
1070
     0
  0
VISUALSTYLE
  5
3DCC
102
{ACAD_XDICTIONARY
360
3E3A
102
}
102
{ACAD_REACTORS
330
3DB5
102
}
330
3DB5
100
AcDbVisualStyle
  2
OverhangOff
 70
    21
 71
     2
 72
     2
 73
     0
 90
        0
 40
-0.6
 41
-30.0
 62
     5
 63
     7
 74
     1
 91
        4
 64
     7
 65
   257
 75
     1
175
     1
 42
1.0
 92
        9
 66
     7
 43
1.0
 76
     1
 77
     6
 78
     2
 67
     7
 79
     5
170
     0
171
     0
290
     0
174
     0
 93
        1
 44
0.0
173
     0
291
     1
 45
0.0
1001
ACAD
1000
AcDbSavedByObjectVersion
1070
     0
  0
VISUALSTYLE
  5
3DBF
102
{ACAD_XDICTIONARY
360
3E20
102
}
102
{ACAD_REACTORS
330
3DB5
102
}
330
3DB5
100
AcDbVisualStyle
  2
Realistic
 70
     8
 71
     2
 72
     3
 73
     0
 90
        2
 40
-0.6
 41
30.0
 62
     5
 63
     7
 74
     0
 91
        0
 64
     7
 65
   257
 75
     1
175
     1
 42
1.0
 92
        8
 66
   257
 43
1.0
 76
     1
 77
     6
 78
     2
 67
     7
 79
     3
170
     0
171
     0
290
     0
174
     0
 93
       13
 44
0.0
173
     0
291
     0
 45
0.0
1001
ACAD
1000
AcDbSavedByObjectVersion
1070
     0
  0
VISUALSTYLE
  5
3DCA
102
{ACAD_XDICTIONARY
360
3E36
102
}
102
{ACAD_REACTORS
330
3DB5
102
}
330
3DB5
100
AcDbVisualStyle
  2
Shaded
 70
    27
 71
     2
 72
     2
 73
     1
 90
        2
 40
-0.6
 41
30.0
 62
     5
 63
     7
 74
     0
 91
        4
 64
     7
 65
   257
 75
     1
175
     1
 42
1.0
 92
        8
 66
   257
 43
1.0
 76
     1
 77
     6
 78
     2
 67
     8
 79
     3
170
     0
171
     0
290
     0
174
     0
 93
        5
 44
0.0
173
     0
291
     0
 45
0.0
1001
ACAD
1000
AcDbSavedByObjectVersion
1070
     0
  0
VISUALSTYLE
  5
3DC9
102
{ACAD_XDICTIONARY
360
3E34
102
}
102
{ACAD_REACTORS
330
3DB5
102
}
330
3DB5
100
AcDbVisualStyle
  2
Shaded with edges
 70
    26
 71
     2
 72
     2
 73
     1
 90
        2
 40
-0.6
 41
30.0
 62
     5
 63
     7
 74
     1
 91
       10
 64
     7
 65
   257
 75
     2
175
     1
 42
1.0
 92
        8
 66
   257
 43
1.0
 76
     1
 77
     6
 78
     2
 67
     7
 79
     3
170
     0
171
     0
290
     0
174
     0
 93
        5
 44
0.0
173
     0
291
     0
 45
0.0
1001
ACAD
1000
AcDbSavedByObjectVersion
1070
     0
  0
VISUALSTYLE
  5
3DC6
102
{ACAD_XDICTIONARY
360
3E2E
102
}
102
{ACAD_REACTORS
330
3DB5
102
}
330
3DB5
100
AcDbVisualStyle
  2
Shades of Gray
 70
    23
 71
     2
 72
     2
 73
     3
 90
        0
 40
-0.6
 41
-30.0
 62
     5
 63
     7
 74
     2
 91
        2
 64
     7
 65
     7
 75
     1
175
     1
 42
40.0
 92
        8
 66
     7
 43
1.0
 76
     1
 77
     6
 78
     2
 67
     7
 79
     3
170
     0
171
     0
290
     0
174
     0
 93
        1
 44
0.0
173
     0
291
     0
 45
0.0
1001
ACAD
1000
AcDbSavedByObjectVersion
1070
     0
  0
VISUALSTYLE
  5
3DC7
102
{ACAD_XDICTIONARY
360
3E30
102
}
102
{ACAD_REACTORS
330
3DB5
102
}
330
3DB5
100
AcDbVisualStyle
  2
Sketchy
 70
    24
 71
     1
 72
     2
 73
     2
 90
        0
 40
-0.6
 41
-30.0
 62
     5
 63
     7
 74
     2
 91
        2
 64
     7
 65
     7
 75
     1
175
     1
 42
40.0
 92
       11
 66
     7
 43
1.0
 76
     1
 77
     6
 78
     2
 67
     7
 79
     6
170
     0
171
     0
290
     0
174
     0
 93
        1
 44
0.0
173
     0
291
     0
 45
0.0
1001
ACAD
1000
AcDbSavedByObjectVersion
1070
     0
  0
VISUALSTYLE
  5
3DC2
102
{ACAD_XDICTIONARY
360
3E26
102
}
102
{ACAD_REACTORS
330
3DB5
102
}
330
3DB5
100
AcDbVisualStyle
  2
Thicken
 70
    13
 71
     2
 72
     2
 73
     0
 90
        0
 40
-0.6
 41
-30.0
 62
     5
 63
     7
 74
     1
 91
        4
 64
     7
 65
   257
 75
     1
175
     1
 42
1.0
 92
       12
 66
     7
 43
1.0
 76
     1
 77
     6
 78
     2
 67
     7
 79
     5
170
     0
171
     0
290
     0
174
     0
 93
        1
 44
0.0
173
     0
291
     1
 45
0.0
1001
ACAD
1000
AcDbSavedByObjectVersion
1070
     0
  0
VISUALSTYLE
  5
3DBC
102
{ACAD_XDICTIONARY
360
3E1A
102
}
102
{ACAD_REACTORS
330
3DB5
102
}
330
3DB5
100
AcDbVisualStyle
  2
Wireframe
 70
     5
 71
     0
 72
     2
 73
     0
 90
        0
 40
-0.6
 41
-30.0
 62
     5
 63
     7
 74
     1
 91
        4
 64
     7
 65
   257
 75
     1
175
     1
 42
1.0
 92
        0
 66
   257
 43
1.0
 76
     1
 77
     6
 78
     2
 67
     7
 79
     3
170
     0
171
     0
290
     0
174
     0
 93
        1
 44
0.0
173
     0
291
     0
 45
0.0
1001
ACAD
1000
AcDbSavedByObjectVersion
1070
     0
  0
VISUALSTYLE
  5
3DC8
102
{ACAD_XDICTIONARY
360
3E32
102
}
102
{ACAD_REACTORS
330
3DB5
102
}
330
3DB5
100
AcDbVisualStyle
  2
X-Ray
 70
    25
 71
     2
 72
     2
 73
     1
 90
        1
 40
0.5
 41
-30.0
 62
     5
 63
     7
 74
     1
 91
        0
 64
     7
 65
   257
 75
     1
175
     1
 42
1.0
 92
        8
 66
     7
 43
1.0
 76
     1
 77
     6
 78
     2
 67
     7
 79
     3
170
     0
171
     0
290
     0
174
     0
 93
       13
 44
0.0
173
     0
291
     0
 45
0.0
1001
ACAD
1000
AcDbSavedByObjectVersion
1070
     0
  0
DICTIONARYVAR
  5
3E01
102
{ACAD_REACTORS
330
3DFC
102
}
330
3DFC
100
DictionaryVariables
280
     0
  1
1:1
  0
DICTIONARYVAR
  5
3DFE
102
{ACAD_REACTORS
330
3DFC
102
}
330
3DFC
100
DictionaryVariables
280
     0
  1
STANDARD
  0
DICTIONARYVAR
  5
3DFD
102
{ACAD_REACTORS
330
3DFC
102
}
330
3DFC
100
DictionaryVariables
280
     0
  1
STANDARD
  0
DICTIONARYVAR
  5
3DFF
102
{ACAD_REACTORS
330
3DFC
102
}
330
3DFC
100
DictionaryVariables
280
     0
  1
Imperial24
  0
DICTIONARYVAR
  5
3E00
102
{ACAD_REACTORS
330
3DFC
102
}
330
3DFC
100
DictionaryVariables
280
     0
  1
Imperial24
  0
DICTIONARYVAR
  5
3E04
102
{ACAD_REACTORS
330
3DFC
102
}
330
3DFC
100
DictionaryVariables
280
     0
  1
1
  0
DICTIONARYVAR
  5
3E03
102
{ACAD_REACTORS
330
3DFC
102
}
330
3DFC
100
DictionaryVariables
280
     0
  1
0
  0
DICTIONARYVAR
  5
3E02
102
{ACAD_REACTORS
330
3DFC
102
}
330
3DFC
100
DictionaryVariables
280
     0
  1
127
  0
DICTIONARYVAR
  5
3E05
102
{ACAD_REACTORS
330
3DFC
102
}
330
3DFC
100
DictionaryVariables
280
     0
  1
2
  0
DICTIONARY
  5
3E42
330
3DE8
100
AcDbDictionary
280
     1
281
     1
  3
ACAD_XREC_ROUNDTRIP
360
3E43
  0
DICTIONARY
  5
3E44
330
3DE9
100
AcDbDictionary
280
     1
281
     1
  3
ACAD_XREC_ROUNDTRIP
360
3E45
  0
DICTIONARY
  5
3E46
330
3DEA
100
AcDbDictionary
280
     1
281
     1
  3
ACAD_XREC_ROUNDTRIP
360
3E47
  0
DICTIONARY
  5
3DA6
330
3DA5
100
AcDbDictionary
280
     1
281
     1
  3
ACAD_XREC_ROUNDTRIP
360
3E0C
  3
BUMPTILE
360
3DA8
  3
DIFFUSETILE
360
3DA7
  3
OPACITYTILE
360
3DAB
  3
REFLECTIONTILE
360
3DAA
  3
REFRACTIONTILE
360
3DAC
  3
SPECULARTILE
360
3DA9
  0
DICTIONARY
  5
3D9E
330
3D9D
100
AcDbDictionary
280
     1
281
     1
  3
ACAD_XREC_ROUNDTRIP
360
3E0B
  3
BUMPTILE
360
3DA0
  3
DIFFUSETILE
360
3D9F
  3
OPACITYTILE
360
3DA3
  3
REFLECTIONTILE
360
3DA2
  3
REFRACTIONTILE
360
3DA4
  3
SPECULARTILE
360
3DA1
  0
DICTIONARY
  5
3DAE
330
3DAD
100
AcDbDictionary
280
     1
281
     1
  3
ACAD_XREC_ROUNDTRIP
360
3E0D
  3
BUMPTILE
360
3DB0
  3
DIFFUSETILE
360
3DAF
  3
OPACITYTILE
360
3DB3
  3
REFLECTIONTILE
360
3DB2
  3
REFRACTIONTILE
360
3DB4
  3
SPECULARTILE
360
3DB1
  0
DICTIONARY
  5
3E40
330
3DE6
100
AcDbDictionary
280
     1
281
     1
  3
ACAD_XREC_ROUNDTRIP
360
3E41
  0
DICTIONARY
  5
3E07
330
3DD0
100
AcDbDictionary
280
     1
281
     1
  3
ACAD_ROUNDTRIP_2008_TABLESTYLE_CELLSTYLEMAP
360
3E08
  3
ACAD_XREC_ROUNDTRIP
360
3E3E
  0
DICTIONARY
  5
3E18
330
3DBB
100
AcDbDictionary
280
     1
281
     1
  3
ACAD_XREC_ROUNDTRIP
360
3E19
  0
DICTIONARY
  5
3E16
330
3DBA
100
AcDbDictionary
280
     1
281
     1
  3
ACAD_XREC_ROUNDTRIP
360
3E17
  0
DICTIONARY
  5
3E24
330
3DC1
100
AcDbDictionary
280
     1
281
     1
  3
ACAD_XREC_ROUNDTRIP
360
3E25
  0
DICTIONARY
  5
3E2C
330
3DC5
100
AcDbDictionary
280
     1
281
     1
  3
ACAD_XREC_ROUNDTRIP
360
3E2D
  0
DICTIONARY
  5
3E1E
330
3DBE
100
AcDbDictionary
280
     1
281
     1
  3
ACAD_XREC_ROUNDTRIP
360
3E1F
  0
DICTIONARY
  5
3E22
330
3DC0
100
AcDbDictionary
280
     1
281
     1
  3
ACAD_XREC_ROUNDTRIP
360
3E23
  0
DICTIONARY
  5
3E3C
330
3DCD
100
AcDbDictionary
280
     1
281
     1
  3
ACAD_XREC_ROUNDTRIP
360
3E3D
  0
DICTIONARY
  5
3E2A
330
3DC4
100
AcDbDictionary
280
     1
281
     1
  3
ACAD_XREC_ROUNDTRIP
360
3E2B
  0
DICTIONARY
  5
3E0E
330
3DB6
100
AcDbDictionary
280
     1
281
     1
  3
ACAD_XREC_ROUNDTRIP
360
3E0F
  0
DICTIONARY
  5
3E10
330
3DB7
100
AcDbDictionary
280
     1
281
     1
  3
ACAD_XREC_ROUNDTRIP
360
3E11
  0
DICTIONARY
  5
3E12
330
3DB8
100
AcDbDictionary
280
     1
281
     1
  3
ACAD_XREC_ROUNDTRIP
360
3E13
  0
DICTIONARY
  5
3E14
330
3DB9
100
AcDbDictionary
280
     1
281
     1
  3
ACAD_XREC_ROUNDTRIP
360
3E15
  0
DICTIONARY
  5
3E1C
330
3DBD
100
AcDbDictionary
280
     1
281
     1
  3
ACAD_XREC_ROUNDTRIP
360
3E1D
  0
DICTIONARY
  5
3E38
330
3DCB
100
AcDbDictionary
280
     1
281
     1
  3
ACAD_XREC_ROUNDTRIP
360
3E39
  0
DICTIONARY
  5
3E28
330
3DC3
100
AcDbDictionary
280
     1
281
     1
  3
ACAD_XREC_ROUNDTRIP
360
3E29
  0
DICTIONARY
  5
3E3A
330
3DCC
100
AcDbDictionary
280
     1
281
     1
  3
ACAD_XREC_ROUNDTRIP
360
3E3B
  0
DICTIONARY
  5
3E20
330
3DBF
100
AcDbDictionary
280
     1
281
     1
  3
ACAD_XREC_ROUNDTRIP
360
3E21
  0
DICTIONARY
  5
3E36
330
3DCA
100
AcDbDictionary
280
     1
281
     1
  3
ACAD_XREC_ROUNDTRIP
360
3E37
  0
DICTIONARY
  5
3E34
330
3DC9
100
AcDbDictionary
280
     1
281
     1
  3
ACAD_XREC_ROUNDTRIP
360
3E35
  0
DICTIONARY
  5
3E2E
330
3DC6
100
AcDbDictionary
280
     1
281
     1
  3
ACAD_XREC_ROUNDTRIP
360
3E2F
  0
DICTIONARY
  5
3E30
330
3DC7
100
AcDbDictionary
280
     1
281
     1
  3
ACAD_XREC_ROUNDTRIP
360
3E31
  0
DICTIONARY
  5
3E26
330
3DC2
100
AcDbDictionary
280
     1
281
     1
  3
ACAD_XREC_ROUNDTRIP
360
3E27
  0
DICTIONARY
  5
3E1A
330
3DBC
100
AcDbDictionary
280
     1
281
     1
  3
ACAD_XREC_ROUNDTRIP
360
3E1B
  0
DICTIONARY
  5
3E32
330
3DC8
100
AcDbDictionary
280
     1
281
     1
  3
ACAD_XREC_ROUNDTRIP
360
3E33
  0
XRECORD
  5
3E43
102
{ACAD_REACTORS
330
3E42
102
}
330
3E42
100
AcDbXrecord
280
     1
102
DISPLAYNAME
  1
Imperial24
102
FLAGS
 90
        0
  0
XRECORD
  5
3E45
102
{ACAD_REACTORS
330
3E44
102
}
330
3E44
100
AcDbXrecord
280
     1
102
SHADEPLOT
 70
     0
102
SHADEPLOTRESLEVEL
 70
     2
102
SHADEPLOTCUSTOMDPI
 70
   300
  0
XRECORD
  5
3E47
102
{ACAD_REACTORS
330
3E46
102
}
330
3E46
100
AcDbXrecord
280
     1
102
SHADEPLOT
 70
     0
102
SHADEPLOTRESLEVEL
 70
     2
102
SHADEPLOTCUSTOMDPI
 70
   300
  0
XRECORD
  5
3E0C
102
{ACAD_REACTORS
330
3DA6
102
}
330
3DA6
100
AcDbXrecord
280
     1
102
MATERIAL
148
0.0
149
0.0
149
0.0
 93
        0
 94
      127
282
     0
 72
     0
 77
     0
171
     0
175
     0
179
     0
273
     0
  0
XRECORD
  5
3DA8
102
{ACAD_REACTORS
330
3DA6
102
}
330
3DA6
100
AcDbXrecord
280
     1
270
     1
271
     1
  0
XRECORD
  5
3DA7
102
{ACAD_REACTORS
330
3DA6
102
}
330
3DA6
100
AcDbXrecord
280
     1
270
     1
271
     1
  0
XRECORD
  5
3DAB
102
{ACAD_REACTORS
330
3DA6
102
}
330
3DA6
100
AcDbXrecord
280
     1
270
     1
271
     1
  0
XRECORD
  5
3DAA
102
{ACAD_REACTORS
330
3DA6
102
}
330
3DA6
100
AcDbXrecord
280
     1
270
     1
271
     1
  0
XRECORD
  5
3DAC
102
{ACAD_REACTORS
330
3DA6
102
}
330
3DA6
100
AcDbXrecord
280
     1
270
     1
271
     1
  0
XRECORD
  5
3DA9
102
{ACAD_REACTORS
330
3DA6
102
}
330
3DA6
100
AcDbXrecord
280
     1
270
     1
271
     1
  0
XRECORD
  5
3E0B
102
{ACAD_REACTORS
330
3D9E
102
}
330
3D9E
100
AcDbXrecord
280
     1
102
MATERIAL
148
0.0
149
0.0
149
0.0
 93
        0
 94
      127
282
     0
 72
     0
 77
     0
171
     0
175
     0
179
     0
273
     0
  0
XRECORD
  5
3DA0
102
{ACAD_REACTORS
330
3D9E
102
}
330
3D9E
100
AcDbXrecord
280
     1
270
     1
271
     1
  0
XRECORD
  5
3D9F
102
{ACAD_REACTORS
330
3D9E
102
}
330
3D9E
100
AcDbXrecord
280
     1
270
     1
271
     1
  0
XRECORD
  5
3DA3
102
{ACAD_REACTORS
330
3D9E
102
}
330
3D9E
100
AcDbXrecord
280
     1
270
     1
271
     1
  0
XRECORD
  5
3DA2
102
{ACAD_REACTORS
330
3D9E
102
}
330
3D9E
100
AcDbXrecord
280
     1
270
     1
271
     1
  0
XRECORD
  5
3DA4
102
{ACAD_REACTORS
330
3D9E
102
}
330
3D9E
100
AcDbXrecord
280
     1
270
     1
271
     1
  0
XRECORD
  5
3DA1
102
{ACAD_REACTORS
330
3D9E
102
}
330
3D9E
100
AcDbXrecord
280
     1
270
     1
271
     1
  0
XRECORD
  5
3E0D
102
{ACAD_REACTORS
330
3DAE
102
}
330
3DAE
100
AcDbXrecord
280
     1
102
MATERIAL
148
0.0
149
0.0
149
0.0
 93
        0
 94
      127
282
     0
 72
     0
 77
     0
171
     0
175
     0
179
     0
273
     0
  0
XRECORD
  5
3DB0
102
{ACAD_REACTORS
330
3DAE
102
}
330
3DAE
100
AcDbXrecord
280
     1
270
     1
271
     1
  0
XRECORD
  5
3DAF
102
{ACAD_REACTORS
330
3DAE
102
}
330
3DAE
100
AcDbXrecord
280
     1
270
     1
271
     1
  0
XRECORD
  5
3DB3
102
{ACAD_REACTORS
330
3DAE
102
}
330
3DAE
100
AcDbXrecord
280
     1
270
     1
271
     1
  0
XRECORD
  5
3DB2
102
{ACAD_REACTORS
330
3DAE
102
}
330
3DAE
100
AcDbXrecord
280
     1
270
     1
271
     1
  0
XRECORD
  5
3DB4
102
{ACAD_REACTORS
330
3DAE
102
}
330
3DAE
100
AcDbXrecord
280
     1
270
     1
271
     1
  0
XRECORD
  5
3DB1
102
{ACAD_REACTORS
330
3DAE
102
}
330
3DAE
100
AcDbXrecord
280
     1
270
     1
271
     1
  0
XRECORD
  5
3E41
102
{ACAD_REACTORS
330
3E40
102
}
330
3E40
100
AcDbXrecord
280
     1
102
DISPLAYNAME
  1
Imperial24
102
FLAGS
 90
        0
  0
CELLSTYLEMAP
  5
3E08
102
{ACAD_REACTORS
330
3E07
102
}
330
3E07
100
AcDbCellStyleMap
 90
        3
300
CELLSTYLE
  1
TABLEFORMAT_BEGIN
 90
        5
170
     1
 91
        0
 92
    32768
 62
   257
 93
        1
300
CONTENTFORMAT
  1
CONTENTFORMAT_BEGIN
 90
        0
 91
        0
 92
      512
 93
        0
300

 40
0.0
140
1.0
 94
        5
 62
     0
340
F
144
0.25
309
CONTENTFORMAT_END
171
     0
 94
        0
309
TABLEFORMAT_END
  1
CELLSTYLE_BEGIN
 90
        1
 91
        1
300
_TITLE
309
CELLSTYLE_END
300
CELLSTYLE
  1
TABLEFORMAT_BEGIN
 90
        5
170
     1
 91
        0
 92
        0
 62
   257
 93
        1
300
CONTENTFORMAT
  1
CONTENTFORMAT_BEGIN
 90
        0
 91
        0
 92
      512
 93
        0
300

 40
0.0
140
1.0
 94
        5
 62
     0
340
F
144
0.18
309
CONTENTFORMAT_END
171
     0
 94
        0
309
TABLEFORMAT_END
  1
CELLSTYLE_BEGIN
 90
        2
 91
        1
300
_HEADER
309
CELLSTYLE_END
300
CELLSTYLE
  1
TABLEFORMAT_BEGIN
 90
        5
170
     1
 91
        0
 92
        0
 62
   257
 93
        1
300
CONTENTFORMAT
  1
CONTENTFORMAT_BEGIN
 90
        0
 91
        0
 92
      512
 93
        0
300

 40
0.0
140
1.0
 94
        2
 62
     0
340
F
144
0.18
309
CONTENTFORMAT_END
171
     0
 94
        0
309
TABLEFORMAT_END
  1
CELLSTYLE_BEGIN
 90
        3
 91
        2
300
_DATA
309
CELLSTYLE_END
  0
XRECORD
  5
3E3E
102
{ACAD_REACTORS
330
3E07
102
}
330
3E07
100
AcDbXrecord
280
     1
102
ACAD_ROUNDTRIP_PRE2007_TABLESTYLE
 90
      512
 91
        0
  1

 92
      512
 93
        0
  2

 94
      512
 95
        0
  3

  0
XRECORD
  5
3E19
102
{ACAD_REACTORS
330
3E18
102
}
330
3E18
100
AcDbXrecord
280
     1
102
RTVSPost2010Prop28
280
     1
102
RTVSPost2010PropOp28
 70
     1
102
RTVSPost2010Prop29
280
     1
102
RTVSPost2010PropOp29
 70
     1
102
RTVSPost2010Prop30
280
     0
102
RTVSPost2010PropOp30
 70
     1
102
RTVSPost2010Prop31
280
     0
102
RTVSPost2010PropOp31
 70
     1
102
RTVSPost2010Prop32
280
     0
102
RTVSPost2010PropOp32
 70
     1
102
RTVSPost2010Prop33
280
     0
102
RTVSPost2010PropOp33
 70
     1
102
RTVSPost2010Prop34
280
     0
102
RTVSPost2010PropOp34
 70
     1
102
RTVSPost2010Prop35
280
     0
102
RTVSPost2010PropOp35
 70
     1
102
RTVSPost2010Prop36
280
     0
102
RTVSPost2010PropOp36
 70
     1
102
RTVSPost2010Prop37
 90
       50
102
RTVSPost2010PropOp37
 70
     1
102
RTVSPost2010Prop38
140
0.0
102
RTVSPost2010PropOp38
 70
     1
102
RTVSPost2010Prop39
140
1.0
102
RTVSPost2010PropOp39
 70
     1
102
RTVSPost2010Prop40
 90
        0
102
RTVSPost2010PropOp40
 70
     1
102
RTVSPost2010Prop41ColorIndex
 90
       18
102
RTVSPost2010Prop41ColorRGB
 90
        0
102
RTVSPost2010PropOp41
 70
     1
102
RTVSPost2010Prop42
 90
       50
102
RTVSPost2010PropOp42
 70
     1
102
RTVSPost2010Prop43
 90
        3
102
RTVSPost2010PropOp43
 70
     1
102
RTVSPost2010Prop44ColorIndex
 90
        5
102
RTVSPost2010Prop44ColorRGB
 90
      255
102
RTVSPost2010PropOp44
 70
     1
102
RTVSPost2010Prop45
280
     0
102
RTVSPost2010PropOp45
 70
     1
102
RTVSPost2010Prop46
 90
       50
102
RTVSPost2010PropOp46
 70
     1
102
RTVSPost2010Prop47
 90
       50
102
RTVSPost2010PropOp47
 70
     1
102
RTVSPost2010Prop48
 90
       50
102
RTVSPost2010PropOp48
 70
     1
102
RTVSPost2010Prop49
280
     0
102
RTVSPost2010PropOp49
 70
     1
102
RTVSPost2010Prop50
 90
       50
102
RTVSPost2010PropOp50
 70
     1
102
RTVSPost2010Prop51ColorIndex
 90
      256
102
RTVSPost2010Prop51ColorRGB
 90
-16777216
102
RTVSPost2010PropOp51
 70
     0
102
RTVSPost2010Prop52
140
1.0
102
RTVSPost2010PropOp52
 70
     0
102
RTVSPost2010Prop53
 90
        2
102
RTVSPost2010PropOp53
 70
     1
102
RTVSPost2010Prop54
  1
strokes_ogs.tif
102
RTVSPost2010PropOp54
 70
     1
102
RTVSPost2010Prop55
280
     0
102
RTVSPost2010PropOp55
 70
     1
102
RTVSPost2010Prop56
140
1.0
102
RTVSPost2010PropOp56
 70
     1
102
RTVSPost2010Prop57
140
1.0
102
RTVSPost2010PropOp57
 70
     1
102
RTVSPropertyOp0
 70
     1
102
RTVSPropertyOp1
 70
     1
102
RTVSPropertyOp2
 70
     1
102
RTVSPropertyOp3
 70
     1
102
RTVSPropertyOp4
 70
     1
102
RTVSPropertyOp5
 70
     1
102
RTVSPropertyOp6
 70
     1
102
RTVSPropertyOp7
 70
     1
102
RTVSPropertyOp8
 70
     1
102
RTVSPropertyOp9
 70
     1
102
RTVSPropertyOp10
 70
     1
102
RTVSPropertyOp11
 70
     1
102
RTVSPropertyOp12
 70
     1
102
RTVSPropertyOp13
 70
     1
102
RTVSPropertyOp14
 70
     1
102
RTVSPropertyOp15
 70
     1
102
RTVSPropertyOp16
 70
     1
102
RTVSPropertyOp17
 70
     1
102
RTVSPropertyOp18
 70
     1
102
RTVSPropertyOp19
 70
     1
102
RTVSPropertyOp20
 70
     1
102
RTVSPropertyOp21
 70
     1
102
RTVSPropertyOp22
 70
     1
102
RTVSPropertyOp23
 70
     1
102
RTVSPropertyOp24
 70
     1
102
RTVSPropertyOp25
 70
     1
102
RTVSPropertyOp26
 70
     1
102
RTVSPropertyOp27
 70
     1
102
RTVSPropertyOp28
 70
     1
102
RTVSPropertyOp29
 70
     1
102
RTVSPropertyOp30
 70
     1
102
RTVSPropertyOp31
 70
     1
102
RTVSPropertyOp32
 70
     1
102
RTVSPropertyOp33
 70
     1
102
RTVSPropertyOp34
 70
     1
102
RTVSPropertyOp35
 70
     1
102
RTVSPropertyOp36
 70
     1
102
RTVSPropertyOp37
 70
     1
102
RTVSPropertyOp38
 70
     1
102
RTVSPropertyOp39
 70
     1
102
RTVSPropertyOp40
 70
     1
102
RTVSPropertyOp41
 70
     1
102
RTVSPropertyOp42
 70
     1
102
RTVSPropertyOp43
 70
     1
102
RTVSPropertyOp44
 70
     1
102
RTVSPropertyOp45
 70
     1
102
RTVSPropertyOp46
 70
     1
102
RTVSPropertyOp47
 70
     1
102
RTVSPropertyOp48
 70
     1
102
RTVSPropertyOp49
 70
     1
102
RTVSPropertyOp50
 70
     1
102
RTVSPropertyOp51
 70
     0
102
RTVSPropertyOp52
 70
     0
102
RTVSPropertyOp53
 70
     1
102
RTVSPropertyOp54
 70
     1
102
RTVSPropertyOp55
 70
     1
102
RTVSPropertyOp56
 70
     1
102
RTVSPropertyOp57
 70
     1
102
RTVSPropertyOp58
 70
     1
102
RTVSPropertyOp59
 70
     1
102
RTVSPropertyOp60
 70
     1
102
RTVSPropertyOp61
 70
     1
102
RTVSPropertyOp62
 70
     1
  0
XRECORD
  5
3E17
102
{ACAD_REACTORS
330
3E16
102
}
330
3E16
100
AcDbXrecord
280
     1
102
RTVSPost2010Prop28
280
     0
102
RTVSPost2010PropOp28
 70
     1
102
RTVSPost2010Prop29
280
     1
102
RTVSPost2010PropOp29
 70
     1
102
RTVSPost2010Prop30
280
     1
102
RTVSPost2010PropOp30
 70
     1
102
RTVSPost2010Prop31
280
     0
102
RTVSPost2010PropOp31
 70
     1
102
RTVSPost2010Prop32
280
     0
102
RTVSPost2010PropOp32
 70
     1
102
RTVSPost2010Prop33
280
     0
102
RTVSPost2010PropOp33
 70
     1
102
RTVSPost2010Prop34
280
     0
102
RTVSPost2010PropOp34
 70
     1
102
RTVSPost2010Prop35
280
     0
102
RTVSPost2010PropOp35
 70
     1
102
RTVSPost2010Prop36
280
     0
102
RTVSPost2010PropOp36
 70
     1
102
RTVSPost2010Prop37
 90
       50
102
RTVSPost2010PropOp37
 70
     1
102
RTVSPost2010Prop38
140
0.0
102
RTVSPost2010PropOp38
 70
     1
102
RTVSPost2010Prop39
140
1.0
102
RTVSPost2010PropOp39
 70
     1
102
RTVSPost2010Prop40
 90
        0
102
RTVSPost2010PropOp40
 70
     1
102
RTVSPost2010Prop41ColorIndex
 90
       18
102
RTVSPost2010Prop41ColorRGB
 90
        0
102
RTVSPost2010PropOp41
 70
     1
102
RTVSPost2010Prop42
 90
       50
102
RTVSPost2010PropOp42
 70
     1
102
RTVSPost2010Prop43
 90
        3
102
RTVSPost2010PropOp43
 70
     1
102
RTVSPost2010Prop44ColorIndex
 90
        5
102
RTVSPost2010Prop44ColorRGB
 90
      255
102
RTVSPost2010PropOp44
 70
     1
102
RTVSPost2010Prop45
280
     0
102
RTVSPost2010PropOp45
 70
     1
102
RTVSPost2010Prop46
 90
       50
102
RTVSPost2010PropOp46
 70
     1
102
RTVSPost2010Prop47
 90
       50
102
RTVSPost2010PropOp47
 70
     1
102
RTVSPost2010Prop48
 90
       50
102
RTVSPost2010PropOp48
 70
     1
102
RTVSPost2010Prop49
280
     0
102
RTVSPost2010PropOp49
 70
     1
102
RTVSPost2010Prop50
 90
       50
102
RTVSPost2010PropOp50
 70
     1
102
RTVSPost2010Prop51ColorIndex
 90
      256
102
RTVSPost2010Prop51ColorRGB
 90
-16777216
102
RTVSPost2010PropOp51
 70
     0
102
RTVSPost2010Prop52
140
1.0
102
RTVSPost2010PropOp52
 70
     0
102
RTVSPost2010Prop53
 90
        2
102
RTVSPost2010PropOp53
 70
     1
102
RTVSPost2010Prop54
  1
strokes_ogs.tif
102
RTVSPost2010PropOp54
 70
     1
102
RTVSPost2010Prop55
280
     0
102
RTVSPost2010PropOp55
 70
     1
102
RTVSPost2010Prop56
140
1.0
102
RTVSPost2010PropOp56
 70
     1
102
RTVSPost2010Prop57
140
1.0
102
RTVSPost2010PropOp57
 70
     1
102
RTVSPropertyOp0
 70
     1
102
RTVSPropertyOp1
 70
     1
102
RTVSPropertyOp2
 70
     1
102
RTVSPropertyOp3
 70
     1
102
RTVSPropertyOp4
 70
     1
102
RTVSPropertyOp5
 70
     1
102
RTVSPropertyOp6
 70
     1
102
RTVSPropertyOp7
 70
     1
102
RTVSPropertyOp8
 70
     1
102
RTVSPropertyOp9
 70
     1
102
RTVSPropertyOp10
 70
     1
102
RTVSPropertyOp11
 70
     1
102
RTVSPropertyOp12
 70
     1
102
RTVSPropertyOp13
 70
     1
102
RTVSPropertyOp14
 70
     1
102
RTVSPropertyOp15
 70
     1
102
RTVSPropertyOp16
 70
     1
102
RTVSPropertyOp17
 70
     1
102
RTVSPropertyOp18
 70
     1
102
RTVSPropertyOp19
 70
     1
102
RTVSPropertyOp20
 70
     1
102
RTVSPropertyOp21
 70
     1
102
RTVSPropertyOp22
 70
     1
102
RTVSPropertyOp23
 70
     1
102
RTVSPropertyOp24
 70
     1
102
RTVSPropertyOp25
 70
     1
102
RTVSPropertyOp26
 70
     1
102
RTVSPropertyOp27
 70
     1
102
RTVSPropertyOp28
 70
     1
102
RTVSPropertyOp29
 70
     1
102
RTVSPropertyOp30
 70
     1
102
RTVSPropertyOp31
 70
     1
102
RTVSPropertyOp32
 70
     1
102
RTVSPropertyOp33
 70
     1
102
RTVSPropertyOp34
 70
     1
102
RTVSPropertyOp35
 70
     1
102
RTVSPropertyOp36
 70
     1
102
RTVSPropertyOp37
 70
     1
102
RTVSPropertyOp38
 70
     1
102
RTVSPropertyOp39
 70
     1
102
RTVSPropertyOp40
 70
     1
102
RTVSPropertyOp41
 70
     1
102
RTVSPropertyOp42
 70
     1
102
RTVSPropertyOp43
 70
     1
102
RTVSPropertyOp44
 70
     1
102
RTVSPropertyOp45
 70
     1
102
RTVSPropertyOp46
 70
     1
102
RTVSPropertyOp47
 70
     1
102
RTVSPropertyOp48
 70
     1
102
RTVSPropertyOp49
 70
     1
102
RTVSPropertyOp50
 70
     1
102
RTVSPropertyOp51
 70
     0
102
RTVSPropertyOp52
 70
     0
102
RTVSPropertyOp53
 70
     1
102
RTVSPropertyOp54
 70
     1
102
RTVSPropertyOp55
 70
     1
102
RTVSPropertyOp56
 70
     1
102
RTVSPropertyOp57
 70
     1
102
RTVSPropertyOp58
 70
     1
102
RTVSPropertyOp59
 70
     1
102
RTVSPropertyOp60
 70
     1
102
RTVSPropertyOp61
 70
     1
102
RTVSPropertyOp62
 70
     1
  0
XRECORD
  5
3E25
102
{ACAD_REACTORS
330
3E24
102
}
330
3E24
100
AcDbXrecord
280
     1
102
RTVSPost2010Prop28
280
     0
102
RTVSPost2010PropOp28
 70
     1
102
RTVSPost2010Prop29
280
     1
102
RTVSPost2010PropOp29
 70
     1
102
RTVSPost2010Prop30
280
     1
102
RTVSPost2010PropOp30
 70
     1
102
RTVSPost2010Prop31
280
     0
102
RTVSPost2010PropOp31
 70
     1
102
RTVSPost2010Prop32
280
     0
102
RTVSPost2010PropOp32
 70
     1
102
RTVSPost2010Prop33
280
     0
102
RTVSPost2010PropOp33
 70
     1
102
RTVSPost2010Prop34
280
     0
102
RTVSPost2010PropOp34
 70
     1
102
RTVSPost2010Prop35
280
     0
102
RTVSPost2010PropOp35
 70
     1
102
RTVSPost2010Prop36
280
     0
102
RTVSPost2010PropOp36
 70
     1
102
RTVSPost2010Prop37
 90
       50
102
RTVSPost2010PropOp37
 70
     1
102
RTVSPost2010Prop38
140
0.0
102
RTVSPost2010PropOp38
 70
     1
102
RTVSPost2010Prop39
140
1.0
102
RTVSPost2010PropOp39
 70
     1
102
RTVSPost2010Prop40
 90
        0
102
RTVSPost2010PropOp40
 70
     1
102
RTVSPost2010Prop41ColorIndex
 90
       18
102
RTVSPost2010Prop41ColorRGB
 90
        0
102
RTVSPost2010PropOp41
 70
     1
102
RTVSPost2010Prop42
 90
       50
102
RTVSPost2010PropOp42
 70
     1
102
RTVSPost2010Prop43
 90
        3
102
RTVSPost2010PropOp43
 70
     1
102
RTVSPost2010Prop44ColorIndex
 90
        5
102
RTVSPost2010Prop44ColorRGB
 90
      255
102
RTVSPost2010PropOp44
 70
     1
102
RTVSPost2010Prop45
280
     0
102
RTVSPost2010PropOp45
 70
     1
102
RTVSPost2010Prop46
 90
       50
102
RTVSPost2010PropOp46
 70
     1
102
RTVSPost2010Prop47
 90
       50
102
RTVSPost2010PropOp47
 70
     1
102
RTVSPost2010Prop48
 90
       50
102
RTVSPost2010PropOp48
 70
     1
102
RTVSPost2010Prop49
280
     0
102
RTVSPost2010PropOp49
 70
     1
102
RTVSPost2010Prop50
 90
       50
102
RTVSPost2010PropOp50
 70
     1
102
RTVSPost2010Prop51ColorIndex
 90
      256
102
RTVSPost2010Prop51ColorRGB
 90
-16777216
102
RTVSPost2010PropOp51
 70
     0
102
RTVSPost2010Prop52
140
1.0
102
RTVSPost2010PropOp52
 70
     0
102
RTVSPost2010Prop53
 90
        2
102
RTVSPost2010PropOp53
 70
     1
102
RTVSPost2010Prop54
  1
strokes_ogs.tif
102
RTVSPost2010PropOp54
 70
     1
102
RTVSPost2010Prop55
280
     0
102
RTVSPost2010PropOp55
 70
     1
102
RTVSPost2010Prop56
140
1.0
102
RTVSPost2010PropOp56
 70
     1
102
RTVSPost2010Prop57
140
1.0
102
RTVSPost2010PropOp57
 70
     1
102
RTVSPropertyOp0
 70
     1
102
RTVSPropertyOp1
 70
     1
102
RTVSPropertyOp2
 70
     1
102
RTVSPropertyOp3
 70
     1
102
RTVSPropertyOp4
 70
     1
102
RTVSPropertyOp5
 70
     1
102
RTVSPropertyOp6
 70
     1
102
RTVSPropertyOp7
 70
     1
102
RTVSPropertyOp8
 70
     1
102
RTVSPropertyOp9
 70
     1
102
RTVSPropertyOp10
 70
     1
102
RTVSPropertyOp11
 70
     1
102
RTVSPropertyOp12
 70
     1
102
RTVSPropertyOp13
 70
     1
102
RTVSPropertyOp14
 70
     1
102
RTVSPropertyOp15
 70
     1
102
RTVSPropertyOp16
 70
     1
102
RTVSPropertyOp17
 70
     1
102
RTVSPropertyOp18
 70
     1
102
RTVSPropertyOp19
 70
     1
102
RTVSPropertyOp20
 70
     1
102
RTVSPropertyOp21
 70
     1
102
RTVSPropertyOp22
 70
     1
102
RTVSPropertyOp23
 70
     1
102
RTVSPropertyOp24
 70
     1
102
RTVSPropertyOp25
 70
     1
102
RTVSPropertyOp26
 70
     1
102
RTVSPropertyOp27
 70
     1
102
RTVSPropertyOp28
 70
     1
102
RTVSPropertyOp29
 70
     1
102
RTVSPropertyOp30
 70
     1
102
RTVSPropertyOp31
 70
     1
102
RTVSPropertyOp32
 70
     1
102
RTVSPropertyOp33
 70
     1
102
RTVSPropertyOp34
 70
     1
102
RTVSPropertyOp35
 70
     1
102
RTVSPropertyOp36
 70
     1
102
RTVSPropertyOp37
 70
     1
102
RTVSPropertyOp38
 70
     1
102
RTVSPropertyOp39
 70
     1
102
RTVSPropertyOp40
 70
     1
102
RTVSPropertyOp41
 70
     1
102
RTVSPropertyOp42
 70
     1
102
RTVSPropertyOp43
 70
     1
102
RTVSPropertyOp44
 70
     1
102
RTVSPropertyOp45
 70
     1
102
RTVSPropertyOp46
 70
     1
102
RTVSPropertyOp47
 70
     1
102
RTVSPropertyOp48
 70
     1
102
RTVSPropertyOp49
 70
     1
102
RTVSPropertyOp50
 70
     1
102
RTVSPropertyOp51
 70
     0
102
RTVSPropertyOp52
 70
     0
102
RTVSPropertyOp53
 70
     1
102
RTVSPropertyOp54
 70
     1
102
RTVSPropertyOp55
 70
     1
102
RTVSPropertyOp56
 70
     1
102
RTVSPropertyOp57
 70
     1
102
RTVSPropertyOp58
 70
     1
102
RTVSPropertyOp59
 70
     1
102
RTVSPropertyOp60
 70
     1
102
RTVSPropertyOp61
 70
     1
102
RTVSPropertyOp62
 70
     1
  0
XRECORD
  5
3E2D
102
{ACAD_REACTORS
330
3E2C
102
}
330
3E2C
100
AcDbXrecord
280
     1
102
RTVSPost2010Prop28
280
     0
102
RTVSPost2010PropOp28
 70
     1
102
RTVSPost2010Prop29
280
     1
102
RTVSPost2010PropOp29
 70
     1
102
RTVSPost2010Prop30
280
     1
102
RTVSPost2010PropOp30
 70
     1
102
RTVSPost2010Prop31
280
     0
102
RTVSPost2010PropOp31
 70
     1
102
RTVSPost2010Prop32
280
     0
102
RTVSPost2010PropOp32
 70
     1
102
RTVSPost2010Prop33
280
     0
102
RTVSPost2010PropOp33
 70
     1
102
RTVSPost2010Prop34
280
     0
102
RTVSPost2010PropOp34
 70
     1
102
RTVSPost2010Prop35
280
     0
102
RTVSPost2010PropOp35
 70
     1
102
RTVSPost2010Prop36
280
     0
102
RTVSPost2010PropOp36
 70
     1
102
RTVSPost2010Prop37
 90
       50
102
RTVSPost2010PropOp37
 70
     1
102
RTVSPost2010Prop38
140
0.0
102
RTVSPost2010PropOp38
 70
     1
102
RTVSPost2010Prop39
140
1.0
102
RTVSPost2010PropOp39
 70
     1
102
RTVSPost2010Prop40
 90
        0
102
RTVSPost2010PropOp40
 70
     1
102
RTVSPost2010Prop41ColorIndex
 90
       18
102
RTVSPost2010Prop41ColorRGB
 90
        0
102
RTVSPost2010PropOp41
 70
     1
102
RTVSPost2010Prop42
 90
       50
102
RTVSPost2010PropOp42
 70
     1
102
RTVSPost2010Prop43
 90
        3
102
RTVSPost2010PropOp43
 70
     1
102
RTVSPost2010Prop44ColorIndex
 90
        5
102
RTVSPost2010Prop44ColorRGB
 90
      255
102
RTVSPost2010PropOp44
 70
     1
102
RTVSPost2010Prop45
280
     0
102
RTVSPost2010PropOp45
 70
     1
102
RTVSPost2010Prop46
 90
       50
102
RTVSPost2010PropOp46
 70
     1
102
RTVSPost2010Prop47
 90
       50
102
RTVSPost2010PropOp47
 70
     1
102
RTVSPost2010Prop48
 90
       50
102
RTVSPost2010PropOp48
 70
     1
102
RTVSPost2010Prop49
280
     0
102
RTVSPost2010PropOp49
 70
     1
102
RTVSPost2010Prop50
 90
       50
102
RTVSPost2010PropOp50
 70
     1
102
RTVSPost2010Prop51ColorIndex
 90
      256
102
RTVSPost2010Prop51ColorRGB
 90
-16777216
102
RTVSPost2010PropOp51
 70
     0
102
RTVSPost2010Prop52
140
1.0
102
RTVSPost2010PropOp52
 70
     0
102
RTVSPost2010Prop53
 90
        2
102
RTVSPost2010PropOp53
 70
     1
102
RTVSPost2010Prop54
  1
strokes_ogs.tif
102
RTVSPost2010PropOp54
 70
     1
102
RTVSPost2010Prop55
280
     0
102
RTVSPost2010PropOp55
 70
     1
102
RTVSPost2010Prop56
140
1.0
102
RTVSPost2010PropOp56
 70
     1
102
RTVSPost2010Prop57
140
1.0
102
RTVSPost2010PropOp57
 70
     1
102
RTVSPropertyOp0
 70
     1
102
RTVSPropertyOp1
 70
     1
102
RTVSPropertyOp2
 70
     1
102
RTVSPropertyOp3
 70
     1
102
RTVSPropertyOp4
 70
     1
102
RTVSPropertyOp5
 70
     1
102
RTVSPropertyOp6
 70
     1
102
RTVSPropertyOp7
 70
     1
102
RTVSPropertyOp8
 70
     1
102
RTVSPropertyOp9
 70
     1
102
RTVSPropertyOp10
 70
     1
102
RTVSPropertyOp11
 70
     1
102
RTVSPropertyOp12
 70
     1
102
RTVSPropertyOp13
 70
     1
102
RTVSPropertyOp14
 70
     1
102
RTVSPropertyOp15
 70
     1
102
RTVSPropertyOp16
 70
     1
102
RTVSPropertyOp17
 70
     1
102
RTVSPropertyOp18
 70
     1
102
RTVSPropertyOp19
 70
     1
102
RTVSPropertyOp20
 70
     1
102
RTVSPropertyOp21
 70
     1
102
RTVSPropertyOp22
 70
     1
102
RTVSPropertyOp23
 70
     1
102
RTVSPropertyOp24
 70
     1
102
RTVSPropertyOp25
 70
     1
102
RTVSPropertyOp26
 70
     1
102
RTVSPropertyOp27
 70
     1
102
RTVSPropertyOp28
 70
     1
102
RTVSPropertyOp29
 70
     1
102
RTVSPropertyOp30
 70
     1
102
RTVSPropertyOp31
 70
     1
102
RTVSPropertyOp32
 70
     1
102
RTVSPropertyOp33
 70
     1
102
RTVSPropertyOp34
 70
     1
102
RTVSPropertyOp35
 70
     1
102
RTVSPropertyOp36
 70
     1
102
RTVSPropertyOp37
 70
     1
102
RTVSPropertyOp38
 70
     1
102
RTVSPropertyOp39
 70
     1
102
RTVSPropertyOp40
 70
     1
102
RTVSPropertyOp41
 70
     1
102
RTVSPropertyOp42
 70
     1
102
RTVSPropertyOp43
 70
     1
102
RTVSPropertyOp44
 70
     1
102
RTVSPropertyOp45
 70
     1
102
RTVSPropertyOp46
 70
     1
102
RTVSPropertyOp47
 70
     1
102
RTVSPropertyOp48
 70
     1
102
RTVSPropertyOp49
 70
     1
102
RTVSPropertyOp50
 70
     1
102
RTVSPropertyOp51
 70
     0
102
RTVSPropertyOp52
 70
     0
102
RTVSPropertyOp53
 70
     1
102
RTVSPropertyOp54
 70
     1
102
RTVSPropertyOp55
 70
     1
102
RTVSPropertyOp56
 70
     1
102
RTVSPropertyOp57
 70
     1
102
RTVSPropertyOp58
 70
     1
102
RTVSPropertyOp59
 70
     1
102
RTVSPropertyOp60
 70
     1
102
RTVSPropertyOp61
 70
     1
102
RTVSPropertyOp62
 70
     1
  0
XRECORD
  5
3E1F
102
{ACAD_REACTORS
330
3E1E
102
}
330
3E1E
100
AcDbXrecord
280
     1
102
RTVSPost2010Prop28
280
     0
102
RTVSPost2010PropOp28
 70
     1
102
RTVSPost2010Prop29
280
     1
102
RTVSPost2010PropOp29
 70
     1
102
RTVSPost2010Prop30
280
     1
102
RTVSPost2010PropOp30
 70
     1
102
RTVSPost2010Prop31
280
     0
102
RTVSPost2010PropOp31
 70
     1
102
RTVSPost2010Prop32
280
     0
102
RTVSPost2010PropOp32
 70
     1
102
RTVSPost2010Prop33
280
     0
102
RTVSPost2010PropOp33
 70
     1
102
RTVSPost2010Prop34
280
     0
102
RTVSPost2010PropOp34
 70
     1
102
RTVSPost2010Prop35
280
     0
102
RTVSPost2010PropOp35
 70
     1
102
RTVSPost2010Prop36
280
     0
102
RTVSPost2010PropOp36
 70
     1
102
RTVSPost2010Prop37
 90
       50
102
RTVSPost2010PropOp37
 70
     1
102
RTVSPost2010Prop38
140
0.0
102
RTVSPost2010PropOp38
 70
     1
102
RTVSPost2010Prop39
140
1.0
102
RTVSPost2010PropOp39
 70
     1
102
RTVSPost2010Prop40
 90
        0
102
RTVSPost2010PropOp40
 70
     1
102
RTVSPost2010Prop41ColorIndex
 90
       18
102
RTVSPost2010Prop41ColorRGB
 90
        0
102
RTVSPost2010PropOp41
 70
     1
102
RTVSPost2010Prop42
 90
       50
102
RTVSPost2010PropOp42
 70
     1
102
RTVSPost2010Prop43
 90
        3
102
RTVSPost2010PropOp43
 70
     1
102
RTVSPost2010Prop44ColorIndex
 90
        5
102
RTVSPost2010Prop44ColorRGB
 90
      255
102
RTVSPost2010PropOp44
 70
     1
102
RTVSPost2010Prop45
280
     0
102
RTVSPost2010PropOp45
 70
     1
102
RTVSPost2010Prop46
 90
       50
102
RTVSPost2010PropOp46
 70
     1
102
RTVSPost2010Prop47
 90
       50
102
RTVSPost2010PropOp47
 70
     1
102
RTVSPost2010Prop48
 90
       50
102
RTVSPost2010PropOp48
 70
     1
102
RTVSPost2010Prop49
280
     0
102
RTVSPost2010PropOp49
 70
     1
102
RTVSPost2010Prop50
 90
       50
102
RTVSPost2010PropOp50
 70
     1
102
RTVSPost2010Prop51ColorIndex
 90
      256
102
RTVSPost2010Prop51ColorRGB
 90
-16777216
102
RTVSPost2010PropOp51
 70
     0
102
RTVSPost2010Prop52
140
1.0
102
RTVSPost2010PropOp52
 70
     0
102
RTVSPost2010Prop53
 90
        2
102
RTVSPost2010PropOp53
 70
     1
102
RTVSPost2010Prop54
  1
strokes_ogs.tif
102
RTVSPost2010PropOp54
 70
     1
102
RTVSPost2010Prop55
280
     0
102
RTVSPost2010PropOp55
 70
     1
102
RTVSPost2010Prop56
140
1.0
102
RTVSPost2010PropOp56
 70
     1
102
RTVSPost2010Prop57
140
1.0
102
RTVSPost2010PropOp57
 70
     1
102
RTVSPropertyOp0
 70
     1
102
RTVSPropertyOp1
 70
     1
102
RTVSPropertyOp2
 70
     1
102
RTVSPropertyOp3
 70
     1
102
RTVSPropertyOp4
 70
     1
102
RTVSPropertyOp5
 70
     1
102
RTVSPropertyOp6
 70
     1
102
RTVSPropertyOp7
 70
     1
102
RTVSPropertyOp8
 70
     1
102
RTVSPropertyOp9
 70
     1
102
RTVSPropertyOp10
 70
     1
102
RTVSPropertyOp11
 70
     1
102
RTVSPropertyOp12
 70
     1
102
RTVSPropertyOp13
 70
     1
102
RTVSPropertyOp14
 70
     1
102
RTVSPropertyOp15
 70
     1
102
RTVSPropertyOp16
 70
     1
102
RTVSPropertyOp17
 70
     1
102
RTVSPropertyOp18
 70
     1
102
RTVSPropertyOp19
 70
     1
102
RTVSPropertyOp20
 70
     1
102
RTVSPropertyOp21
 70
     1
102
RTVSPropertyOp22
 70
     1
102
RTVSPropertyOp23
 70
     1
102
RTVSPropertyOp24
 70
     1
102
RTVSPropertyOp25
 70
     1
102
RTVSPropertyOp26
 70
     1
102
RTVSPropertyOp27
 70
     1
102
RTVSPropertyOp28
 70
     1
102
RTVSPropertyOp29
 70
     1
102
RTVSPropertyOp30
 70
     1
102
RTVSPropertyOp31
 70
     1
102
RTVSPropertyOp32
 70
     1
102
RTVSPropertyOp33
 70
     1
102
RTVSPropertyOp34
 70
     1
102
RTVSPropertyOp35
 70
     1
102
RTVSPropertyOp36
 70
     1
102
RTVSPropertyOp37
 70
     1
102
RTVSPropertyOp38
 70
     1
102
RTVSPropertyOp39
 70
     1
102
RTVSPropertyOp40
 70
     1
102
RTVSPropertyOp41
 70
     1
102
RTVSPropertyOp42
 70
     1
102
RTVSPropertyOp43
 70
     1
102
RTVSPropertyOp44
 70
     1
102
RTVSPropertyOp45
 70
     1
102
RTVSPropertyOp46
 70
     1
102
RTVSPropertyOp47
 70
     1
102
RTVSPropertyOp48
 70
     1
102
RTVSPropertyOp49
 70
     1
102
RTVSPropertyOp50
 70
     1
102
RTVSPropertyOp51
 70
     0
102
RTVSPropertyOp52
 70
     0
102
RTVSPropertyOp53
 70
     1
102
RTVSPropertyOp54
 70
     1
102
RTVSPropertyOp55
 70
     1
102
RTVSPropertyOp56
 70
     1
102
RTVSPropertyOp57
 70
     1
102
RTVSPropertyOp58
 70
     1
102
RTVSPropertyOp59
 70
     1
102
RTVSPropertyOp60
 70
     1
102
RTVSPropertyOp61
 70
     1
102
RTVSPropertyOp62
 70
     1
  0
XRECORD
  5
3E23
102
{ACAD_REACTORS
330
3E22
102
}
330
3E22
100
AcDbXrecord
280
     1
102
RTVSPost2010Prop28
280
     0
102
RTVSPost2010PropOp28
 70
     1
102
RTVSPost2010Prop29
280
     1
102
RTVSPost2010PropOp29
 70
     1
102
RTVSPost2010Prop30
280
     1
102
RTVSPost2010PropOp30
 70
     1
102
RTVSPost2010Prop31
280
     0
102
RTVSPost2010PropOp31
 70
     1
102
RTVSPost2010Prop32
280
     0
102
RTVSPost2010PropOp32
 70
     1
102
RTVSPost2010Prop33
280
     0
102
RTVSPost2010PropOp33
 70
     1
102
RTVSPost2010Prop34
280
     0
102
RTVSPost2010PropOp34
 70
     1
102
RTVSPost2010Prop35
280
     0
102
RTVSPost2010PropOp35
 70
     1
102
RTVSPost2010Prop36
280
     0
102
RTVSPost2010PropOp36
 70
     1
102
RTVSPost2010Prop37
 90
       50
102
RTVSPost2010PropOp37
 70
     1
102
RTVSPost2010Prop38
140
0.0
102
RTVSPost2010PropOp38
 70
     1
102
RTVSPost2010Prop39
140
1.0
102
RTVSPost2010PropOp39
 70
     1
102
RTVSPost2010Prop40
 90
        0
102
RTVSPost2010PropOp40
 70
     1
102
RTVSPost2010Prop41ColorIndex
 90
       18
102
RTVSPost2010Prop41ColorRGB
 90
        0
102
RTVSPost2010PropOp41
 70
     1
102
RTVSPost2010Prop42
 90
       50
102
RTVSPost2010PropOp42
 70
     1
102
RTVSPost2010Prop43
 90
        3
102
RTVSPost2010PropOp43
 70
     1
102
RTVSPost2010Prop44ColorIndex
 90
        5
102
RTVSPost2010Prop44ColorRGB
 90
      255
102
RTVSPost2010PropOp44
 70
     1
102
RTVSPost2010Prop45
280
     0
102
RTVSPost2010PropOp45
 70
     1
102
RTVSPost2010Prop46
 90
       50
102
RTVSPost2010PropOp46
 70
     1
102
RTVSPost2010Prop47
 90
       50
102
RTVSPost2010PropOp47
 70
     1
102
RTVSPost2010Prop48
 90
       50
102
RTVSPost2010PropOp48
 70
     1
102
RTVSPost2010Prop49
280
     0
102
RTVSPost2010PropOp49
 70
     1
102
RTVSPost2010Prop50
 90
       50
102
RTVSPost2010PropOp50
 70
     1
102
RTVSPost2010Prop51ColorIndex
 90
      256
102
RTVSPost2010Prop51ColorRGB
 90
-16777216
102
RTVSPost2010PropOp51
 70
     0
102
RTVSPost2010Prop52
140
1.0
102
RTVSPost2010PropOp52
 70
     0
102
RTVSPost2010Prop53
 90
        2
102
RTVSPost2010PropOp53
 70
     1
102
RTVSPost2010Prop54
  1
strokes_ogs.tif
102
RTVSPost2010PropOp54
 70
     1
102
RTVSPost2010Prop55
280
     0
102
RTVSPost2010PropOp55
 70
     1
102
RTVSPost2010Prop56
140
1.0
102
RTVSPost2010PropOp56
 70
     1
102
RTVSPost2010Prop57
140
1.0
102
RTVSPost2010PropOp57
 70
     1
102
RTVSPropertyOp0
 70
     1
102
RTVSPropertyOp1
 70
     1
102
RTVSPropertyOp2
 70
     1
102
RTVSPropertyOp3
 70
     1
102
RTVSPropertyOp4
 70
     1
102
RTVSPropertyOp5
 70
     1
102
RTVSPropertyOp6
 70
     1
102
RTVSPropertyOp7
 70
     1
102
RTVSPropertyOp8
 70
     1
102
RTVSPropertyOp9
 70
     1
102
RTVSPropertyOp10
 70
     1
102
RTVSPropertyOp11
 70
     1
102
RTVSPropertyOp12
 70
     1
102
RTVSPropertyOp13
 70
     1
102
RTVSPropertyOp14
 70
     1
102
RTVSPropertyOp15
 70
     1
102
RTVSPropertyOp16
 70
     1
102
RTVSPropertyOp17
 70
     1
102
RTVSPropertyOp18
 70
     1
102
RTVSPropertyOp19
 70
     1
102
RTVSPropertyOp20
 70
     1
102
RTVSPropertyOp21
 70
     1
102
RTVSPropertyOp22
 70
     1
102
RTVSPropertyOp23
 70
     1
102
RTVSPropertyOp24
 70
     1
102
RTVSPropertyOp25
 70
     1
102
RTVSPropertyOp26
 70
     1
102
RTVSPropertyOp27
 70
     1
102
RTVSPropertyOp28
 70
     1
102
RTVSPropertyOp29
 70
     1
102
RTVSPropertyOp30
 70
     1
102
RTVSPropertyOp31
 70
     1
102
RTVSPropertyOp32
 70
     1
102
RTVSPropertyOp33
 70
     1
102
RTVSPropertyOp34
 70
     1
102
RTVSPropertyOp35
 70
     1
102
RTVSPropertyOp36
 70
     1
102
RTVSPropertyOp37
 70
     1
102
RTVSPropertyOp38
 70
     1
102
RTVSPropertyOp39
 70
     1
102
RTVSPropertyOp40
 70
     1
102
RTVSPropertyOp41
 70
     1
102
RTVSPropertyOp42
 70
     1
102
RTVSPropertyOp43
 70
     1
102
RTVSPropertyOp44
 70
     1
102
RTVSPropertyOp45
 70
     1
102
RTVSPropertyOp46
 70
     1
102
RTVSPropertyOp47
 70
     1
102
RTVSPropertyOp48
 70
     1
102
RTVSPropertyOp49
 70
     1
102
RTVSPropertyOp50
 70
     1
102
RTVSPropertyOp51
 70
     0
102
RTVSPropertyOp52
 70
     0
102
RTVSPropertyOp53
 70
     1
102
RTVSPropertyOp54
 70
     1
102
RTVSPropertyOp55
 70
     1
102
RTVSPropertyOp56
 70
     1
102
RTVSPropertyOp57
 70
     1
102
RTVSPropertyOp58
 70
     1
102
RTVSPropertyOp59
 70
     1
102
RTVSPropertyOp60
 70
     1
102
RTVSPropertyOp61
 70
     1
102
RTVSPropertyOp62
 70
     1
  0
XRECORD
  5
3E3D
102
{ACAD_REACTORS
330
3E3C
102
}
330
3E3C
100
AcDbXrecord
280
     1
102
RTVSPost2010Prop28
280
     0
102
RTVSPost2010PropOp28
 70
     1
102
RTVSPost2010Prop29
280
     1
102
RTVSPost2010PropOp29
 70
     1
102
RTVSPost2010Prop30
280
     1
102
RTVSPost2010PropOp30
 70
     1
102
RTVSPost2010Prop31
280
     0
102
RTVSPost2010PropOp31
 70
     1
102
RTVSPost2010Prop32
280
     0
102
RTVSPost2010PropOp32
 70
     1
102
RTVSPost2010Prop33
280
     0
102
RTVSPost2010PropOp33
 70
     1
102
RTVSPost2010Prop34
280
     0
102
RTVSPost2010PropOp34
 70
     1
102
RTVSPost2010Prop35
280
     0
102
RTVSPost2010PropOp35
 70
     1
102
RTVSPost2010Prop36
280
     0
102
RTVSPost2010PropOp36
 70
     1
102
RTVSPost2010Prop37
 90
       50
102
RTVSPost2010PropOp37
 70
     0
102
RTVSPost2010Prop38
140
0.0
102
RTVSPost2010PropOp38
 70
     0
102
RTVSPost2010Prop39
140
1.0
102
RTVSPost2010PropOp39
 70
     0
102
RTVSPost2010Prop40
 90
        0
102
RTVSPost2010PropOp40
 70
     0
102
RTVSPost2010Prop41ColorIndex
 90
       18
102
RTVSPost2010Prop41ColorRGB
 90
        0
102
RTVSPost2010PropOp41
 70
     0
102
RTVSPost2010Prop42
 90
       50
102
RTVSPost2010PropOp42
 70
     0
102
RTVSPost2010Prop43
 90
        3
102
RTVSPost2010PropOp43
 70
     0
102
RTVSPost2010Prop44ColorIndex
 90
        5
102
RTVSPost2010Prop44ColorRGB
 90
      255
102
RTVSPost2010PropOp44
 70
     0
102
RTVSPost2010Prop45
280
     0
102
RTVSPost2010PropOp45
 70
     1
102
RTVSPost2010Prop46
 90
       50
102
RTVSPost2010PropOp46
 70
     0
102
RTVSPost2010Prop47
 90
       50
102
RTVSPost2010PropOp47
 70
     0
102
RTVSPost2010Prop48
 90
       50
102
RTVSPost2010PropOp48
 70
     0
102
RTVSPost2010Prop49
280
     0
102
RTVSPost2010PropOp49
 70
     1
102
RTVSPost2010Prop50
 90
       50
102
RTVSPost2010PropOp50
 70
     0
102
RTVSPost2010Prop51ColorIndex
 90
      256
102
RTVSPost2010Prop51ColorRGB
 90
-16777216
102
RTVSPost2010PropOp51
 70
     0
102
RTVSPost2010Prop52
140
1.0
102
RTVSPost2010PropOp52
 70
     0
102
RTVSPost2010Prop53
 90
        2
102
RTVSPost2010PropOp53
 70
     0
102
RTVSPost2010Prop54
  1
strokes_ogs.tif
102
RTVSPost2010PropOp54
 70
     0
102
RTVSPost2010Prop55
280
     0
102
RTVSPost2010PropOp55
 70
     1
102
RTVSPost2010Prop56
140
1.0
102
RTVSPost2010PropOp56
 70
     0
102
RTVSPost2010Prop57
140
1.0
102
RTVSPost2010PropOp57
 70
     0
102
RTVSPropertyOp0
 70
     0
102
RTVSPropertyOp1
 70
     0
102
RTVSPropertyOp2
 70
     0
102
RTVSPropertyOp3
 70
     0
102
RTVSPropertyOp4
 70
     0
102
RTVSPropertyOp5
 70
     0
102
RTVSPropertyOp6
 70
     0
102
RTVSPropertyOp7
 70
     0
102
RTVSPropertyOp8
 70
     0
102
RTVSPropertyOp9
 70
     0
102
RTVSPropertyOp10
 70
     0
102
RTVSPropertyOp11
 70
     0
102
RTVSPropertyOp12
 70
     0
102
RTVSPropertyOp13
 70
     0
102
RTVSPropertyOp14
 70
     2
102
RTVSPropertyOp15
 70
     0
102
RTVSPropertyOp16
 70
     0
102
RTVSPropertyOp17
 70
     0
102
RTVSPropertyOp18
 70
     0
102
RTVSPropertyOp19
 70
     0
102
RTVSPropertyOp20
 70
     0
102
RTVSPropertyOp21
 70
     0
102
RTVSPropertyOp22
 70
     0
102
RTVSPropertyOp23
 70
     0
102
RTVSPropertyOp24
 70
     0
102
RTVSPropertyOp25
 70
     0
102
RTVSPropertyOp26
 70
     0
102
RTVSPropertyOp27
 70
     0
102
RTVSPropertyOp28
 70
     1
102
RTVSPropertyOp29
 70
     1
102
RTVSPropertyOp30
 70
     1
102
RTVSPropertyOp31
 70
     1
102
RTVSPropertyOp32
 70
     1
102
RTVSPropertyOp33
 70
     1
102
RTVSPropertyOp34
 70
     1
102
RTVSPropertyOp35
 70
     1
102
RTVSPropertyOp36
 70
     1
102
RTVSPropertyOp37
 70
     0
102
RTVSPropertyOp38
 70
     0
102
RTVSPropertyOp39
 70
     0
102
RTVSPropertyOp40
 70
     0
102
RTVSPropertyOp41
 70
     0
102
RTVSPropertyOp42
 70
     0
102
RTVSPropertyOp43
 70
     0
102
RTVSPropertyOp44
 70
     0
102
RTVSPropertyOp45
 70
     1
102
RTVSPropertyOp46
 70
     0
102
RTVSPropertyOp47
 70
     0
102
RTVSPropertyOp48
 70
     0
102
RTVSPropertyOp49
 70
     1
102
RTVSPropertyOp50
 70
     0
102
RTVSPropertyOp51
 70
     0
102
RTVSPropertyOp52
 70
     0
102
RTVSPropertyOp53
 70
     0
102
RTVSPropertyOp54
 70
     0
102
RTVSPropertyOp55
 70
     1
102
RTVSPropertyOp56
 70
     0
102
RTVSPropertyOp57
 70
     0
102
RTVSPropertyOp58
 70
     0
102
RTVSPropertyOp59
 70
     0
102
RTVSPropertyOp60
 70
     0
102
RTVSPropertyOp61
 70
     0
102
RTVSPropertyOp62
 70
     0
  0
XRECORD
  5
3E2B
102
{ACAD_REACTORS
330
3E2A
102
}
330
3E2A
100
AcDbXrecord
280
     1
102
RTVSPost2010Prop28
280
     0
102
RTVSPost2010PropOp28
 70
     1
102
RTVSPost2010Prop29
280
     1
102
RTVSPost2010PropOp29
 70
     1
102
RTVSPost2010Prop30
280
     1
102
RTVSPost2010PropOp30
 70
     1
102
RTVSPost2010Prop31
280
     0
102
RTVSPost2010PropOp31
 70
     1
102
RTVSPost2010Prop32
280
     0
102
RTVSPost2010PropOp32
 70
     1
102
RTVSPost2010Prop33
280
     0
102
RTVSPost2010PropOp33
 70
     1
102
RTVSPost2010Prop34
280
     0
102
RTVSPost2010PropOp34
 70
     1
102
RTVSPost2010Prop35
280
     0
102
RTVSPost2010PropOp35
 70
     1
102
RTVSPost2010Prop36
280
     0
102
RTVSPost2010PropOp36
 70
     1
102
RTVSPost2010Prop37
 90
       50
102
RTVSPost2010PropOp37
 70
     1
102
RTVSPost2010Prop38
140
0.0
102
RTVSPost2010PropOp38
 70
     1
102
RTVSPost2010Prop39
140
1.0
102
RTVSPost2010PropOp39
 70
     1
102
RTVSPost2010Prop40
 90
        0
102
RTVSPost2010PropOp40
 70
     1
102
RTVSPost2010Prop41ColorIndex
 90
       18
102
RTVSPost2010Prop41ColorRGB
 90
        0
102
RTVSPost2010PropOp41
 70
     1
102
RTVSPost2010Prop42
 90
       50
102
RTVSPost2010PropOp42
 70
     1
102
RTVSPost2010Prop43
 90
        3
102
RTVSPost2010PropOp43
 70
     1
102
RTVSPost2010Prop44ColorIndex
 90
        5
102
RTVSPost2010Prop44ColorRGB
 90
      255
102
RTVSPost2010PropOp44
 70
     1
102
RTVSPost2010Prop45
280
     0
102
RTVSPost2010PropOp45
 70
     1
102
RTVSPost2010Prop46
 90
       50
102
RTVSPost2010PropOp46
 70
     1
102
RTVSPost2010Prop47
 90
       50
102
RTVSPost2010PropOp47
 70
     1
102
RTVSPost2010Prop48
 90
       50
102
RTVSPost2010PropOp48
 70
     1
102
RTVSPost2010Prop49
280
     0
102
RTVSPost2010PropOp49
 70
     1
102
RTVSPost2010Prop50
 90
       50
102
RTVSPost2010PropOp50
 70
     1
102
RTVSPost2010Prop51ColorIndex
 90
      256
102
RTVSPost2010Prop51ColorRGB
 90
-16777216
102
RTVSPost2010PropOp51
 70
     0
102
RTVSPost2010Prop52
140
1.0
102
RTVSPost2010PropOp52
 70
     0
102
RTVSPost2010Prop53
 90
        2
102
RTVSPost2010PropOp53
 70
     1
102
RTVSPost2010Prop54
  1
strokes_ogs.tif
102
RTVSPost2010PropOp54
 70
     1
102
RTVSPost2010Prop55
280
     0
102
RTVSPost2010PropOp55
 70
     1
102
RTVSPost2010Prop56
140
1.0
102
RTVSPost2010PropOp56
 70
     1
102
RTVSPost2010Prop57
140
1.0
102
RTVSPost2010PropOp57
 70
     1
102
RTVSPropertyOp0
 70
     1
102
RTVSPropertyOp1
 70
     1
102
RTVSPropertyOp2
 70
     1
102
RTVSPropertyOp3
 70
     1
102
RTVSPropertyOp4
 70
     1
102
RTVSPropertyOp5
 70
     1
102
RTVSPropertyOp6
 70
     1
102
RTVSPropertyOp7
 70
     1
102
RTVSPropertyOp8
 70
     1
102
RTVSPropertyOp9
 70
     1
102
RTVSPropertyOp10
 70
     1
102
RTVSPropertyOp11
 70
     1
102
RTVSPropertyOp12
 70
     1
102
RTVSPropertyOp13
 70
     1
102
RTVSPropertyOp14
 70
     1
102
RTVSPropertyOp15
 70
     1
102
RTVSPropertyOp16
 70
     1
102
RTVSPropertyOp17
 70
     1
102
RTVSPropertyOp18
 70
     1
102
RTVSPropertyOp19
 70
     1
102
RTVSPropertyOp20
 70
     1
102
RTVSPropertyOp21
 70
     1
102
RTVSPropertyOp22
 70
     1
102
RTVSPropertyOp23
 70
     1
102
RTVSPropertyOp24
 70
     1
102
RTVSPropertyOp25
 70
     1
102
RTVSPropertyOp26
 70
     1
102
RTVSPropertyOp27
 70
     1
102
RTVSPropertyOp28
 70
     1
102
RTVSPropertyOp29
 70
     1
102
RTVSPropertyOp30
 70
     1
102
RTVSPropertyOp31
 70
     1
102
RTVSPropertyOp32
 70
     1
102
RTVSPropertyOp33
 70
     1
102
RTVSPropertyOp34
 70
     1
102
RTVSPropertyOp35
 70
     1
102
RTVSPropertyOp36
 70
     1
102
RTVSPropertyOp37
 70
     1
102
RTVSPropertyOp38
 70
     1
102
RTVSPropertyOp39
 70
     1
102
RTVSPropertyOp40
 70
     1
102
RTVSPropertyOp41
 70
     1
102
RTVSPropertyOp42
 70
     1
102
RTVSPropertyOp43
 70
     1
102
RTVSPropertyOp44
 70
     1
102
RTVSPropertyOp45
 70
     1
102
RTVSPropertyOp46
 70
     1
102
RTVSPropertyOp47
 70
     1
102
RTVSPropertyOp48
 70
     1
102
RTVSPropertyOp49
 70
     1
102
RTVSPropertyOp50
 70
     1
102
RTVSPropertyOp51
 70
     0
102
RTVSPropertyOp52
 70
     0
102
RTVSPropertyOp53
 70
     1
102
RTVSPropertyOp54
 70
     1
102
RTVSPropertyOp55
 70
     1
102
RTVSPropertyOp56
 70
     1
102
RTVSPropertyOp57
 70
     1
102
RTVSPropertyOp58
 70
     1
102
RTVSPropertyOp59
 70
     1
102
RTVSPropertyOp60
 70
     1
102
RTVSPropertyOp61
 70
     1
102
RTVSPropertyOp62
 70
     1
  0
XRECORD
  5
3E0F
102
{ACAD_REACTORS
330
3E0E
102
}
330
3E0E
100
AcDbXrecord
280
     1
102
RTVSPost2010Prop28
280
     0
102
RTVSPost2010PropOp28
 70
     1
102
RTVSPost2010Prop29
280
     1
102
RTVSPost2010PropOp29
 70
     1
102
RTVSPost2010Prop30
280
     1
102
RTVSPost2010PropOp30
 70
     1
102
RTVSPost2010Prop31
280
     0
102
RTVSPost2010PropOp31
 70
     1
102
RTVSPost2010Prop32
280
     0
102
RTVSPost2010PropOp32
 70
     1
102
RTVSPost2010Prop33
280
     0
102
RTVSPost2010PropOp33
 70
     1
102
RTVSPost2010Prop34
280
     0
102
RTVSPost2010PropOp34
 70
     1
102
RTVSPost2010Prop35
280
     0
102
RTVSPost2010PropOp35
 70
     1
102
RTVSPost2010Prop36
280
     0
102
RTVSPost2010PropOp36
 70
     1
102
RTVSPost2010Prop37
 90
       50
102
RTVSPost2010PropOp37
 70
     1
102
RTVSPost2010Prop38
140
0.0
102
RTVSPost2010PropOp38
 70
     1
102
RTVSPost2010Prop39
140
1.0
102
RTVSPost2010PropOp39
 70
     1
102
RTVSPost2010Prop40
 90
        0
102
RTVSPost2010PropOp40
 70
     1
102
RTVSPost2010Prop41ColorIndex
 90
       18
102
RTVSPost2010Prop41ColorRGB
 90
        0
102
RTVSPost2010PropOp41
 70
     1
102
RTVSPost2010Prop42
 90
       50
102
RTVSPost2010PropOp42
 70
     1
102
RTVSPost2010Prop43
 90
        3
102
RTVSPost2010PropOp43
 70
     1
102
RTVSPost2010Prop44ColorIndex
 90
        5
102
RTVSPost2010Prop44ColorRGB
 90
      255
102
RTVSPost2010PropOp44
 70
     1
102
RTVSPost2010Prop45
280
     0
102
RTVSPost2010PropOp45
 70
     1
102
RTVSPost2010Prop46
 90
       50
102
RTVSPost2010PropOp46
 70
     1
102
RTVSPost2010Prop47
 90
       50
102
RTVSPost2010PropOp47
 70
     1
102
RTVSPost2010Prop48
 90
       50
102
RTVSPost2010PropOp48
 70
     1
102
RTVSPost2010Prop49
280
     0
102
RTVSPost2010PropOp49
 70
     1
102
RTVSPost2010Prop50
 90
       50
102
RTVSPost2010PropOp50
 70
     1
102
RTVSPost2010Prop51ColorIndex
 90
      256
102
RTVSPost2010Prop51ColorRGB
 90
-16777216
102
RTVSPost2010PropOp51
 70
     0
102
RTVSPost2010Prop52
140
1.0
102
RTVSPost2010PropOp52
 70
     0
102
RTVSPost2010Prop53
 90
        2
102
RTVSPost2010PropOp53
 70
     1
102
RTVSPost2010Prop54
  1
strokes_ogs.tif
102
RTVSPost2010PropOp54
 70
     1
102
RTVSPost2010Prop55
280
     0
102
RTVSPost2010PropOp55
 70
     1
102
RTVSPost2010Prop56
140
1.0
102
RTVSPost2010PropOp56
 70
     1
102
RTVSPost2010Prop57
140
1.0
102
RTVSPost2010PropOp57
 70
     1
102
RTVSPropertyOp0
 70
     1
102
RTVSPropertyOp1
 70
     1
102
RTVSPropertyOp2
 70
     1
102
RTVSPropertyOp3
 70
     1
102
RTVSPropertyOp4
 70
     1
102
RTVSPropertyOp5
 70
     1
102
RTVSPropertyOp6
 70
     1
102
RTVSPropertyOp7
 70
     1
102
RTVSPropertyOp8
 70
     1
102
RTVSPropertyOp9
 70
     1
102
RTVSPropertyOp10
 70
     1
102
RTVSPropertyOp11
 70
     1
102
RTVSPropertyOp12
 70
     1
102
RTVSPropertyOp13
 70
     1
102
RTVSPropertyOp14
 70
     1
102
RTVSPropertyOp15
 70
     1
102
RTVSPropertyOp16
 70
     1
102
RTVSPropertyOp17
 70
     1
102
RTVSPropertyOp18
 70
     1
102
RTVSPropertyOp19
 70
     1
102
RTVSPropertyOp20
 70
     1
102
RTVSPropertyOp21
 70
     1
102
RTVSPropertyOp22
 70
     1
102
RTVSPropertyOp23
 70
     1
102
RTVSPropertyOp24
 70
     1
102
RTVSPropertyOp25
 70
     1
102
RTVSPropertyOp26
 70
     1
102
RTVSPropertyOp27
 70
     1
102
RTVSPropertyOp28
 70
     1
102
RTVSPropertyOp29
 70
     1
102
RTVSPropertyOp30
 70
     1
102
RTVSPropertyOp31
 70
     1
102
RTVSPropertyOp32
 70
     1
102
RTVSPropertyOp33
 70
     1
102
RTVSPropertyOp34
 70
     1
102
RTVSPropertyOp35
 70
     1
102
RTVSPropertyOp36
 70
     1
102
RTVSPropertyOp37
 70
     1
102
RTVSPropertyOp38
 70
     1
102
RTVSPropertyOp39
 70
     1
102
RTVSPropertyOp40
 70
     1
102
RTVSPropertyOp41
 70
     1
102
RTVSPropertyOp42
 70
     1
102
RTVSPropertyOp43
 70
     1
102
RTVSPropertyOp44
 70
     1
102
RTVSPropertyOp45
 70
     1
102
RTVSPropertyOp46
 70
     1
102
RTVSPropertyOp47
 70
     1
102
RTVSPropertyOp48
 70
     1
102
RTVSPropertyOp49
 70
     1
102
RTVSPropertyOp50
 70
     1
102
RTVSPropertyOp51
 70
     0
102
RTVSPropertyOp52
 70
     0
102
RTVSPropertyOp53
 70
     1
102
RTVSPropertyOp54
 70
     1
102
RTVSPropertyOp55
 70
     1
102
RTVSPropertyOp56
 70
     1
102
RTVSPropertyOp57
 70
     1
102
RTVSPropertyOp58
 70
     1
102
RTVSPropertyOp59
 70
     1
102
RTVSPropertyOp60
 70
     1
102
RTVSPropertyOp61
 70
     1
102
RTVSPropertyOp62
 70
     1
  0
XRECORD
  5
3E11
102
{ACAD_REACTORS
330
3E10
102
}
330
3E10
100
AcDbXrecord
280
     1
102
RTVSPost2010Prop28
280
     0
102
RTVSPost2010PropOp28
 70
     1
102
RTVSPost2010Prop29
280
     1
102
RTVSPost2010PropOp29
 70
     1
102
RTVSPost2010Prop30
280
     1
102
RTVSPost2010PropOp30
 70
     1
102
RTVSPost2010Prop31
280
     0
102
RTVSPost2010PropOp31
 70
     1
102
RTVSPost2010Prop32
280
     0
102
RTVSPost2010PropOp32
 70
     1
102
RTVSPost2010Prop33
280
     0
102
RTVSPost2010PropOp33
 70
     1
102
RTVSPost2010Prop34
280
     0
102
RTVSPost2010PropOp34
 70
     1
102
RTVSPost2010Prop35
280
     0
102
RTVSPost2010PropOp35
 70
     1
102
RTVSPost2010Prop36
280
     0
102
RTVSPost2010PropOp36
 70
     1
102
RTVSPost2010Prop37
 90
       50
102
RTVSPost2010PropOp37
 70
     1
102
RTVSPost2010Prop38
140
0.0
102
RTVSPost2010PropOp38
 70
     1
102
RTVSPost2010Prop39
140
1.0
102
RTVSPost2010PropOp39
 70
     1
102
RTVSPost2010Prop40
 90
        0
102
RTVSPost2010PropOp40
 70
     1
102
RTVSPost2010Prop41ColorIndex
 90
       18
102
RTVSPost2010Prop41ColorRGB
 90
        0
102
RTVSPost2010PropOp41
 70
     1
102
RTVSPost2010Prop42
 90
       50
102
RTVSPost2010PropOp42
 70
     1
102
RTVSPost2010Prop43
 90
        3
102
RTVSPost2010PropOp43
 70
     1
102
RTVSPost2010Prop44ColorIndex
 90
        5
102
RTVSPost2010Prop44ColorRGB
 90
      255
102
RTVSPost2010PropOp44
 70
     1
102
RTVSPost2010Prop45
280
     0
102
RTVSPost2010PropOp45
 70
     1
102
RTVSPost2010Prop46
 90
       50
102
RTVSPost2010PropOp46
 70
     1
102
RTVSPost2010Prop47
 90
       50
102
RTVSPost2010PropOp47
 70
     1
102
RTVSPost2010Prop48
 90
       50
102
RTVSPost2010PropOp48
 70
     1
102
RTVSPost2010Prop49
280
     0
102
RTVSPost2010PropOp49
 70
     1
102
RTVSPost2010Prop50
 90
       50
102
RTVSPost2010PropOp50
 70
     1
102
RTVSPost2010Prop51ColorIndex
 90
      256
102
RTVSPost2010Prop51ColorRGB
 90
-16777216
102
RTVSPost2010PropOp51
 70
     0
102
RTVSPost2010Prop52
140
1.0
102
RTVSPost2010PropOp52
 70
     0
102
RTVSPost2010Prop53
 90
        2
102
RTVSPost2010PropOp53
 70
     1
102
RTVSPost2010Prop54
  1
strokes_ogs.tif
102
RTVSPost2010PropOp54
 70
     1
102
RTVSPost2010Prop55
280
     0
102
RTVSPost2010PropOp55
 70
     1
102
RTVSPost2010Prop56
140
1.0
102
RTVSPost2010PropOp56
 70
     1
102
RTVSPost2010Prop57
140
1.0
102
RTVSPost2010PropOp57
 70
     1
102
RTVSPropertyOp0
 70
     1
102
RTVSPropertyOp1
 70
     1
102
RTVSPropertyOp2
 70
     1
102
RTVSPropertyOp3
 70
     1
102
RTVSPropertyOp4
 70
     1
102
RTVSPropertyOp5
 70
     1
102
RTVSPropertyOp6
 70
     1
102
RTVSPropertyOp7
 70
     1
102
RTVSPropertyOp8
 70
     1
102
RTVSPropertyOp9
 70
     1
102
RTVSPropertyOp10
 70
     1
102
RTVSPropertyOp11
 70
     1
102
RTVSPropertyOp12
 70
     1
102
RTVSPropertyOp13
 70
     1
102
RTVSPropertyOp14
 70
     1
102
RTVSPropertyOp15
 70
     1
102
RTVSPropertyOp16
 70
     1
102
RTVSPropertyOp17
 70
     1
102
RTVSPropertyOp18
 70
     1
102
RTVSPropertyOp19
 70
     1
102
RTVSPropertyOp20
 70
     1
102
RTVSPropertyOp21
 70
     1
102
RTVSPropertyOp22
 70
     1
102
RTVSPropertyOp23
 70
     1
102
RTVSPropertyOp24
 70
     1
102
RTVSPropertyOp25
 70
     1
102
RTVSPropertyOp26
 70
     1
102
RTVSPropertyOp27
 70
     1
102
RTVSPropertyOp28
 70
     1
102
RTVSPropertyOp29
 70
     1
102
RTVSPropertyOp30
 70
     1
102
RTVSPropertyOp31
 70
     1
102
RTVSPropertyOp32
 70
     1
102
RTVSPropertyOp33
 70
     1
102
RTVSPropertyOp34
 70
     1
102
RTVSPropertyOp35
 70
     1
102
RTVSPropertyOp36
 70
     1
102
RTVSPropertyOp37
 70
     1
102
RTVSPropertyOp38
 70
     1
102
RTVSPropertyOp39
 70
     1
102
RTVSPropertyOp40
 70
     1
102
RTVSPropertyOp41
 70
     1
102
RTVSPropertyOp42
 70
     1
102
RTVSPropertyOp43
 70
     1
102
RTVSPropertyOp44
 70
     1
102
RTVSPropertyOp45
 70
     1
102
RTVSPropertyOp46
 70
     1
102
RTVSPropertyOp47
 70
     1
102
RTVSPropertyOp48
 70
     1
102
RTVSPropertyOp49
 70
     1
102
RTVSPropertyOp50
 70
     1
102
RTVSPropertyOp51
 70
     0
102
RTVSPropertyOp52
 70
     0
102
RTVSPropertyOp53
 70
     1
102
RTVSPropertyOp54
 70
     1
102
RTVSPropertyOp55
 70
     1
102
RTVSPropertyOp56
 70
     1
102
RTVSPropertyOp57
 70
     1
102
RTVSPropertyOp58
 70
     1
102
RTVSPropertyOp59
 70
     1
102
RTVSPropertyOp60
 70
     1
102
RTVSPropertyOp61
 70
     1
102
RTVSPropertyOp62
 70
     1
  0
XRECORD
  5
3E13
102
{ACAD_REACTORS
330
3E12
102
}
330
3E12
100
AcDbXrecord
280
     1
102
RTVSPost2010Prop28
280
     0
102
RTVSPost2010PropOp28
 70
     1
102
RTVSPost2010Prop29
280
     1
102
RTVSPost2010PropOp29
 70
     1
102
RTVSPost2010Prop30
280
     1
102
RTVSPost2010PropOp30
 70
     1
102
RTVSPost2010Prop31
280
     0
102
RTVSPost2010PropOp31
 70
     1
102
RTVSPost2010Prop32
280
     0
102
RTVSPost2010PropOp32
 70
     1
102
RTVSPost2010Prop33
280
     0
102
RTVSPost2010PropOp33
 70
     1
102
RTVSPost2010Prop34
280
     0
102
RTVSPost2010PropOp34
 70
     1
102
RTVSPost2010Prop35
280
     0
102
RTVSPost2010PropOp35
 70
     1
102
RTVSPost2010Prop36
280
     0
102
RTVSPost2010PropOp36
 70
     1
102
RTVSPost2010Prop37
 90
       50
102
RTVSPost2010PropOp37
 70
     1
102
RTVSPost2010Prop38
140
0.0
102
RTVSPost2010PropOp38
 70
     1
102
RTVSPost2010Prop39
140
1.0
102
RTVSPost2010PropOp39
 70
     1
102
RTVSPost2010Prop40
 90
        0
102
RTVSPost2010PropOp40
 70
     1
102
RTVSPost2010Prop41ColorIndex
 90
       18
102
RTVSPost2010Prop41ColorRGB
 90
        0
102
RTVSPost2010PropOp41
 70
     1
102
RTVSPost2010Prop42
 90
       50
102
RTVSPost2010PropOp42
 70
     1
102
RTVSPost2010Prop43
 90
        3
102
RTVSPost2010PropOp43
 70
     1
102
RTVSPost2010Prop44ColorIndex
 90
        5
102
RTVSPost2010Prop44ColorRGB
 90
      255
102
RTVSPost2010PropOp44
 70
     1
102
RTVSPost2010Prop45
280
     0
102
RTVSPost2010PropOp45
 70
     1
102
RTVSPost2010Prop46
 90
       50
102
RTVSPost2010PropOp46
 70
     1
102
RTVSPost2010Prop47
 90
       50
102
RTVSPost2010PropOp47
 70
     1
102
RTVSPost2010Prop48
 90
       50
102
RTVSPost2010PropOp48
 70
     1
102
RTVSPost2010Prop49
280
     0
102
RTVSPost2010PropOp49
 70
     1
102
RTVSPost2010Prop50
 90
       50
102
RTVSPost2010PropOp50
 70
     1
102
RTVSPost2010Prop51ColorIndex
 90
      256
102
RTVSPost2010Prop51ColorRGB
 90
-16777216
102
RTVSPost2010PropOp51
 70
     0
102
RTVSPost2010Prop52
140
1.0
102
RTVSPost2010PropOp52
 70
     0
102
RTVSPost2010Prop53
 90
        2
102
RTVSPost2010PropOp53
 70
     1
102
RTVSPost2010Prop54
  1
strokes_ogs.tif
102
RTVSPost2010PropOp54
 70
     1
102
RTVSPost2010Prop55
280
     0
102
RTVSPost2010PropOp55
 70
     1
102
RTVSPost2010Prop56
140
1.0
102
RTVSPost2010PropOp56
 70
     1
102
RTVSPost2010Prop57
140
1.0
102
RTVSPost2010PropOp57
 70
     1
102
RTVSPropertyOp0
 70
     1
102
RTVSPropertyOp1
 70
     1
102
RTVSPropertyOp2
 70
     1
102
RTVSPropertyOp3
 70
     1
102
RTVSPropertyOp4
 70
     1
102
RTVSPropertyOp5
 70
     1
102
RTVSPropertyOp6
 70
     1
102
RTVSPropertyOp7
 70
     1
102
RTVSPropertyOp8
 70
     1
102
RTVSPropertyOp9
 70
     1
102
RTVSPropertyOp10
 70
     1
102
RTVSPropertyOp11
 70
     1
102
RTVSPropertyOp12
 70
     1
102
RTVSPropertyOp13
 70
     1
102
RTVSPropertyOp14
 70
     1
102
RTVSPropertyOp15
 70
     1
102
RTVSPropertyOp16
 70
     1
102
RTVSPropertyOp17
 70
     1
102
RTVSPropertyOp18
 70
     1
102
RTVSPropertyOp19
 70
     1
102
RTVSPropertyOp20
 70
     1
102
RTVSPropertyOp21
 70
     1
102
RTVSPropertyOp22
 70
     1
102
RTVSPropertyOp23
 70
     1
102
RTVSPropertyOp24
 70
     1
102
RTVSPropertyOp25
 70
     1
102
RTVSPropertyOp26
 70
     1
102
RTVSPropertyOp27
 70
     1
102
RTVSPropertyOp28
 70
     1
102
RTVSPropertyOp29
 70
     1
102
RTVSPropertyOp30
 70
     1
102
RTVSPropertyOp31
 70
     1
102
RTVSPropertyOp32
 70
     1
102
RTVSPropertyOp33
 70
     1
102
RTVSPropertyOp34
 70
     1
102
RTVSPropertyOp35
 70
     1
102
RTVSPropertyOp36
 70
     1
102
RTVSPropertyOp37
 70
     1
102
RTVSPropertyOp38
 70
     1
102
RTVSPropertyOp39
 70
     1
102
RTVSPropertyOp40
 70
     1
102
RTVSPropertyOp41
 70
     1
102
RTVSPropertyOp42
 70
     1
102
RTVSPropertyOp43
 70
     1
102
RTVSPropertyOp44
 70
     1
102
RTVSPropertyOp45
 70
     1
102
RTVSPropertyOp46
 70
     1
102
RTVSPropertyOp47
 70
     1
102
RTVSPropertyOp48
 70
     1
102
RTVSPropertyOp49
 70
     1
102
RTVSPropertyOp50
 70
     1
102
RTVSPropertyOp51
 70
     0
102
RTVSPropertyOp52
 70
     0
102
RTVSPropertyOp53
 70
     1
102
RTVSPropertyOp54
 70
     1
102
RTVSPropertyOp55
 70
     1
102
RTVSPropertyOp56
 70
     1
102
RTVSPropertyOp57
 70
     1
102
RTVSPropertyOp58
 70
     1
102
RTVSPropertyOp59
 70
     1
102
RTVSPropertyOp60
 70
     1
102
RTVSPropertyOp61
 70
     1
102
RTVSPropertyOp62
 70
     1
  0
XRECORD
  5
3E15
102
{ACAD_REACTORS
330
3E14
102
}
330
3E14
100
AcDbXrecord
280
     1
102
RTVSPost2010Prop28
280
     0
102
RTVSPost2010PropOp28
 70
     1
102
RTVSPost2010Prop29
280
     1
102
RTVSPost2010PropOp29
 70
     1
102
RTVSPost2010Prop30
280
     1
102
RTVSPost2010PropOp30
 70
     1
102
RTVSPost2010Prop31
280
     0
102
RTVSPost2010PropOp31
 70
     1
102
RTVSPost2010Prop32
280
     0
102
RTVSPost2010PropOp32
 70
     1
102
RTVSPost2010Prop33
280
     0
102
RTVSPost2010PropOp33
 70
     1
102
RTVSPost2010Prop34
280
     0
102
RTVSPost2010PropOp34
 70
     1
102
RTVSPost2010Prop35
280
     0
102
RTVSPost2010PropOp35
 70
     1
102
RTVSPost2010Prop36
280
     0
102
RTVSPost2010PropOp36
 70
     1
102
RTVSPost2010Prop37
 90
       50
102
RTVSPost2010PropOp37
 70
     1
102
RTVSPost2010Prop38
140
0.0
102
RTVSPost2010PropOp38
 70
     1
102
RTVSPost2010Prop39
140
1.0
102
RTVSPost2010PropOp39
 70
     1
102
RTVSPost2010Prop40
 90
        0
102
RTVSPost2010PropOp40
 70
     1
102
RTVSPost2010Prop41ColorIndex
 90
       18
102
RTVSPost2010Prop41ColorRGB
 90
        0
102
RTVSPost2010PropOp41
 70
     1
102
RTVSPost2010Prop42
 90
       50
102
RTVSPost2010PropOp42
 70
     1
102
RTVSPost2010Prop43
 90
        3
102
RTVSPost2010PropOp43
 70
     1
102
RTVSPost2010Prop44ColorIndex
 90
        5
102
RTVSPost2010Prop44ColorRGB
 90
      255
102
RTVSPost2010PropOp44
 70
     1
102
RTVSPost2010Prop45
280
     0
102
RTVSPost2010PropOp45
 70
     1
102
RTVSPost2010Prop46
 90
       50
102
RTVSPost2010PropOp46
 70
     1
102
RTVSPost2010Prop47
 90
       50
102
RTVSPost2010PropOp47
 70
     1
102
RTVSPost2010Prop48
 90
       50
102
RTVSPost2010PropOp48
 70
     1
102
RTVSPost2010Prop49
280
     0
102
RTVSPost2010PropOp49
 70
     1
102
RTVSPost2010Prop50
 90
       50
102
RTVSPost2010PropOp50
 70
     1
102
RTVSPost2010Prop51ColorIndex
 90
      256
102
RTVSPost2010Prop51ColorRGB
 90
-16777216
102
RTVSPost2010PropOp51
 70
     0
102
RTVSPost2010Prop52
140
1.0
102
RTVSPost2010PropOp52
 70
     0
102
RTVSPost2010Prop53
 90
        2
102
RTVSPost2010PropOp53
 70
     1
102
RTVSPost2010Prop54
  1
strokes_ogs.tif
102
RTVSPost2010PropOp54
 70
     1
102
RTVSPost2010Prop55
280
     0
102
RTVSPost2010PropOp55
 70
     1
102
RTVSPost2010Prop56
140
1.0
102
RTVSPost2010PropOp56
 70
     1
102
RTVSPost2010Prop57
140
1.0
102
RTVSPost2010PropOp57
 70
     1
102
RTVSPropertyOp0
 70
     1
102
RTVSPropertyOp1
 70
     1
102
RTVSPropertyOp2
 70
     1
102
RTVSPropertyOp3
 70
     1
102
RTVSPropertyOp4
 70
     1
102
RTVSPropertyOp5
 70
     1
102
RTVSPropertyOp6
 70
     1
102
RTVSPropertyOp7
 70
     1
102
RTVSPropertyOp8
 70
     1
102
RTVSPropertyOp9
 70
     1
102
RTVSPropertyOp10
 70
     1
102
RTVSPropertyOp11
 70
     1
102
RTVSPropertyOp12
 70
     1
102
RTVSPropertyOp13
 70
     1
102
RTVSPropertyOp14
 70
     1
102
RTVSPropertyOp15
 70
     1
102
RTVSPropertyOp16
 70
     1
102
RTVSPropertyOp17
 70
     1
102
RTVSPropertyOp18
 70
     1
102
RTVSPropertyOp19
 70
     1
102
RTVSPropertyOp20
 70
     1
102
RTVSPropertyOp21
 70
     1
102
RTVSPropertyOp22
 70
     1
102
RTVSPropertyOp23
 70
     1
102
RTVSPropertyOp24
 70
     1
102
RTVSPropertyOp25
 70
     1
102
RTVSPropertyOp26
 70
     1
102
RTVSPropertyOp27
 70
     1
102
RTVSPropertyOp28
 70
     1
102
RTVSPropertyOp29
 70
     1
102
RTVSPropertyOp30
 70
     1
102
RTVSPropertyOp31
 70
     1
102
RTVSPropertyOp32
 70
     1
102
RTVSPropertyOp33
 70
     1
102
RTVSPropertyOp34
 70
     1
102
RTVSPropertyOp35
 70
     1
102
RTVSPropertyOp36
 70
     1
102
RTVSPropertyOp37
 70
     1
102
RTVSPropertyOp38
 70
     1
102
RTVSPropertyOp39
 70
     1
102
RTVSPropertyOp40
 70
     1
102
RTVSPropertyOp41
 70
     1
102
RTVSPropertyOp42
 70
     1
102
RTVSPropertyOp43
 70
     1
102
RTVSPropertyOp44
 70
     1
102
RTVSPropertyOp45
 70
     1
102
RTVSPropertyOp46
 70
     1
102
RTVSPropertyOp47
 70
     1
102
RTVSPropertyOp48
 70
     1
102
RTVSPropertyOp49
 70
     1
102
RTVSPropertyOp50
 70
     1
102
RTVSPropertyOp51
 70
     0
102
RTVSPropertyOp52
 70
     0
102
RTVSPropertyOp53
 70
     1
102
RTVSPropertyOp54
 70
     1
102
RTVSPropertyOp55
 70
     1
102
RTVSPropertyOp56
 70
     1
102
RTVSPropertyOp57
 70
     1
102
RTVSPropertyOp58
 70
     1
102
RTVSPropertyOp59
 70
     1
102
RTVSPropertyOp60
 70
     1
102
RTVSPropertyOp61
 70
     1
102
RTVSPropertyOp62
 70
     1
  0
XRECORD
  5
3E1D
102
{ACAD_REACTORS
330
3E1C
102
}
330
3E1C
100
AcDbXrecord
280
     1
102
RTVSPost2010Prop28
280
     0
102
RTVSPost2010PropOp28
 70
     1
102
RTVSPost2010Prop29
280
     1
102
RTVSPost2010PropOp29
 70
     1
102
RTVSPost2010Prop30
280
     1
102
RTVSPost2010PropOp30
 70
     1
102
RTVSPost2010Prop31
280
     0
102
RTVSPost2010PropOp31
 70
     1
102
RTVSPost2010Prop32
280
     0
102
RTVSPost2010PropOp32
 70
     1
102
RTVSPost2010Prop33
280
     0
102
RTVSPost2010PropOp33
 70
     1
102
RTVSPost2010Prop34
280
     0
102
RTVSPost2010PropOp34
 70
     1
102
RTVSPost2010Prop35
280
     0
102
RTVSPost2010PropOp35
 70
     1
102
RTVSPost2010Prop36
280
     0
102
RTVSPost2010PropOp36
 70
     1
102
RTVSPost2010Prop37
 90
       50
102
RTVSPost2010PropOp37
 70
     1
102
RTVSPost2010Prop38
140
0.0
102
RTVSPost2010PropOp38
 70
     1
102
RTVSPost2010Prop39
140
1.0
102
RTVSPost2010PropOp39
 70
     1
102
RTVSPost2010Prop40
 90
        0
102
RTVSPost2010PropOp40
 70
     1
102
RTVSPost2010Prop41ColorIndex
 90
       18
102
RTVSPost2010Prop41ColorRGB
 90
        0
102
RTVSPost2010PropOp41
 70
     1
102
RTVSPost2010Prop42
 90
       50
102
RTVSPost2010PropOp42
 70
     1
102
RTVSPost2010Prop43
 90
        3
102
RTVSPost2010PropOp43
 70
     1
102
RTVSPost2010Prop44ColorIndex
 90
        5
102
RTVSPost2010Prop44ColorRGB
 90
      255
102
RTVSPost2010PropOp44
 70
     1
102
RTVSPost2010Prop45
280
     0
102
RTVSPost2010PropOp45
 70
     1
102
RTVSPost2010Prop46
 90
       50
102
RTVSPost2010PropOp46
 70
     1
102
RTVSPost2010Prop47
 90
       50
102
RTVSPost2010PropOp47
 70
     1
102
RTVSPost2010Prop48
 90
       50
102
RTVSPost2010PropOp48
 70
     1
102
RTVSPost2010Prop49
280
     0
102
RTVSPost2010PropOp49
 70
     1
102
RTVSPost2010Prop50
 90
       50
102
RTVSPost2010PropOp50
 70
     1
102
RTVSPost2010Prop51ColorIndex
 90
      256
102
RTVSPost2010Prop51ColorRGB
 90
-16777216
102
RTVSPost2010PropOp51
 70
     0
102
RTVSPost2010Prop52
140
1.0
102
RTVSPost2010PropOp52
 70
     0
102
RTVSPost2010Prop53
 90
        2
102
RTVSPost2010PropOp53
 70
     1
102
RTVSPost2010Prop54
  1
strokes_ogs.tif
102
RTVSPost2010PropOp54
 70
     1
102
RTVSPost2010Prop55
280
     0
102
RTVSPost2010PropOp55
 70
     1
102
RTVSPost2010Prop56
140
1.0
102
RTVSPost2010PropOp56
 70
     1
102
RTVSPost2010Prop57
140
1.0
102
RTVSPost2010PropOp57
 70
     1
102
RTVSPropertyOp0
 70
     1
102
RTVSPropertyOp1
 70
     1
102
RTVSPropertyOp2
 70
     1
102
RTVSPropertyOp3
 70
     1
102
RTVSPropertyOp4
 70
     1
102
RTVSPropertyOp5
 70
     1
102
RTVSPropertyOp6
 70
     1
102
RTVSPropertyOp7
 70
     1
102
RTVSPropertyOp8
 70
     1
102
RTVSPropertyOp9
 70
     1
102
RTVSPropertyOp10
 70
     1
102
RTVSPropertyOp11
 70
     1
102
RTVSPropertyOp12
 70
     1
102
RTVSPropertyOp13
 70
     1
102
RTVSPropertyOp14
 70
     1
102
RTVSPropertyOp15
 70
     1
102
RTVSPropertyOp16
 70
     1
102
RTVSPropertyOp17
 70
     1
102
RTVSPropertyOp18
 70
     1
102
RTVSPropertyOp19
 70
     1
102
RTVSPropertyOp20
 70
     1
102
RTVSPropertyOp21
 70
     1
102
RTVSPropertyOp22
 70
     1
102
RTVSPropertyOp23
 70
     1
102
RTVSPropertyOp24
 70
     1
102
RTVSPropertyOp25
 70
     1
102
RTVSPropertyOp26
 70
     1
102
RTVSPropertyOp27
 70
     1
102
RTVSPropertyOp28
 70
     1
102
RTVSPropertyOp29
 70
     1
102
RTVSPropertyOp30
 70
     1
102
RTVSPropertyOp31
 70
     1
102
RTVSPropertyOp32
 70
     1
102
RTVSPropertyOp33
 70
     1
102
RTVSPropertyOp34
 70
     1
102
RTVSPropertyOp35
 70
     1
102
RTVSPropertyOp36
 70
     1
102
RTVSPropertyOp37
 70
     1
102
RTVSPropertyOp38
 70
     1
102
RTVSPropertyOp39
 70
     1
102
RTVSPropertyOp40
 70
     1
102
RTVSPropertyOp41
 70
     1
102
RTVSPropertyOp42
 70
     1
102
RTVSPropertyOp43
 70
     1
102
RTVSPropertyOp44
 70
     1
102
RTVSPropertyOp45
 70
     1
102
RTVSPropertyOp46
 70
     1
102
RTVSPropertyOp47
 70
     1
102
RTVSPropertyOp48
 70
     1
102
RTVSPropertyOp49
 70
     1
102
RTVSPropertyOp50
 70
     1
102
RTVSPropertyOp51
 70
     0
102
RTVSPropertyOp52
 70
     0
102
RTVSPropertyOp53
 70
     1
102
RTVSPropertyOp54
 70
     1
102
RTVSPropertyOp55
 70
     1
102
RTVSPropertyOp56
 70
     1
102
RTVSPropertyOp57
 70
     1
102
RTVSPropertyOp58
 70
     1
102
RTVSPropertyOp59
 70
     1
102
RTVSPropertyOp60
 70
     1
102
RTVSPropertyOp61
 70
     1
102
RTVSPropertyOp62
 70
     1
  0
XRECORD
  5
3E39
102
{ACAD_REACTORS
330
3E38
102
}
330
3E38
100
AcDbXrecord
280
     1
102
RTVSPost2010Prop28
280
     0
102
RTVSPost2010PropOp28
 70
     1
102
RTVSPost2010Prop29
280
     1
102
RTVSPost2010PropOp29
 70
     1
102
RTVSPost2010Prop30
280
     1
102
RTVSPost2010PropOp30
 70
     1
102
RTVSPost2010Prop31
280
     0
102
RTVSPost2010PropOp31
 70
     1
102
RTVSPost2010Prop32
280
     0
102
RTVSPost2010PropOp32
 70
     1
102
RTVSPost2010Prop33
280
     0
102
RTVSPost2010PropOp33
 70
     1
102
RTVSPost2010Prop34
280
     0
102
RTVSPost2010PropOp34
 70
     1
102
RTVSPost2010Prop35
280
     0
102
RTVSPost2010PropOp35
 70
     1
102
RTVSPost2010Prop36
280
     0
102
RTVSPost2010PropOp36
 70
     1
102
RTVSPost2010Prop37
 90
       50
102
RTVSPost2010PropOp37
 70
     0
102
RTVSPost2010Prop38
140
0.0
102
RTVSPost2010PropOp38
 70
     0
102
RTVSPost2010Prop39
140
1.0
102
RTVSPost2010PropOp39
 70
     0
102
RTVSPost2010Prop40
 90
        0
102
RTVSPost2010PropOp40
 70
     0
102
RTVSPost2010Prop41ColorIndex
 90
       18
102
RTVSPost2010Prop41ColorRGB
 90
        0
102
RTVSPost2010PropOp41
 70
     0
102
RTVSPost2010Prop42
 90
       50
102
RTVSPost2010PropOp42
 70
     0
102
RTVSPost2010Prop43
 90
        3
102
RTVSPost2010PropOp43
 70
     0
102
RTVSPost2010Prop44ColorIndex
 90
        5
102
RTVSPost2010Prop44ColorRGB
 90
      255
102
RTVSPost2010PropOp44
 70
     0
102
RTVSPost2010Prop45
280
     0
102
RTVSPost2010PropOp45
 70
     1
102
RTVSPost2010Prop46
 90
       50
102
RTVSPost2010PropOp46
 70
     0
102
RTVSPost2010Prop47
 90
       50
102
RTVSPost2010PropOp47
 70
     0
102
RTVSPost2010Prop48
 90
       50
102
RTVSPost2010PropOp48
 70
     0
102
RTVSPost2010Prop49
280
     0
102
RTVSPost2010PropOp49
 70
     1
102
RTVSPost2010Prop50
 90
       50
102
RTVSPost2010PropOp50
 70
     0
102
RTVSPost2010Prop51ColorIndex
 90
      256
102
RTVSPost2010Prop51ColorRGB
 90
-16777216
102
RTVSPost2010PropOp51
 70
     0
102
RTVSPost2010Prop52
140
1.0
102
RTVSPost2010PropOp52
 70
     0
102
RTVSPost2010Prop53
 90
        2
102
RTVSPost2010PropOp53
 70
     0
102
RTVSPost2010Prop54
  1
strokes_ogs.tif
102
RTVSPost2010PropOp54
 70
     0
102
RTVSPost2010Prop55
280
     0
102
RTVSPost2010PropOp55
 70
     1
102
RTVSPost2010Prop56
140
1.0
102
RTVSPost2010PropOp56
 70
     0
102
RTVSPost2010Prop57
140
1.0
102
RTVSPost2010PropOp57
 70
     0
102
RTVSPropertyOp0
 70
     0
102
RTVSPropertyOp1
 70
     0
102
RTVSPropertyOp2
 70
     0
102
RTVSPropertyOp3
 70
     0
102
RTVSPropertyOp4
 70
     0
102
RTVSPropertyOp5
 70
     0
102
RTVSPropertyOp6
 70
     0
102
RTVSPropertyOp7
 70
     0
102
RTVSPropertyOp8
 70
     0
102
RTVSPropertyOp9
 70
     0
102
RTVSPropertyOp10
 70
     0
102
RTVSPropertyOp11
 70
     0
102
RTVSPropertyOp12
 70
     0
102
RTVSPropertyOp13
 70
     0
102
RTVSPropertyOp14
 70
     2
102
RTVSPropertyOp15
 70
     0
102
RTVSPropertyOp16
 70
     0
102
RTVSPropertyOp17
 70
     0
102
RTVSPropertyOp18
 70
     0
102
RTVSPropertyOp19
 70
     0
102
RTVSPropertyOp20
 70
     0
102
RTVSPropertyOp21
 70
     0
102
RTVSPropertyOp22
 70
     0
102
RTVSPropertyOp23
 70
     0
102
RTVSPropertyOp24
 70
     0
102
RTVSPropertyOp25
 70
     0
102
RTVSPropertyOp26
 70
     0
102
RTVSPropertyOp27
 70
     0
102
RTVSPropertyOp28
 70
     1
102
RTVSPropertyOp29
 70
     1
102
RTVSPropertyOp30
 70
     1
102
RTVSPropertyOp31
 70
     1
102
RTVSPropertyOp32
 70
     1
102
RTVSPropertyOp33
 70
     1
102
RTVSPropertyOp34
 70
     1
102
RTVSPropertyOp35
 70
     1
102
RTVSPropertyOp36
 70
     1
102
RTVSPropertyOp37
 70
     0
102
RTVSPropertyOp38
 70
     0
102
RTVSPropertyOp39
 70
     0
102
RTVSPropertyOp40
 70
     0
102
RTVSPropertyOp41
 70
     0
102
RTVSPropertyOp42
 70
     0
102
RTVSPropertyOp43
 70
     0
102
RTVSPropertyOp44
 70
     0
102
RTVSPropertyOp45
 70
     1
102
RTVSPropertyOp46
 70
     0
102
RTVSPropertyOp47
 70
     0
102
RTVSPropertyOp48
 70
     0
102
RTVSPropertyOp49
 70
     1
102
RTVSPropertyOp50
 70
     0
102
RTVSPropertyOp51
 70
     0
102
RTVSPropertyOp52
 70
     0
102
RTVSPropertyOp53
 70
     0
102
RTVSPropertyOp54
 70
     0
102
RTVSPropertyOp55
 70
     1
102
RTVSPropertyOp56
 70
     0
102
RTVSPropertyOp57
 70
     0
102
RTVSPropertyOp58
 70
     0
102
RTVSPropertyOp59
 70
     0
102
RTVSPropertyOp60
 70
     0
102
RTVSPropertyOp61
 70
     0
102
RTVSPropertyOp62
 70
     0
  0
XRECORD
  5
3E29
102
{ACAD_REACTORS
330
3E28
102
}
330
3E28
100
AcDbXrecord
280
     1
102
RTVSPost2010Prop28
280
     0
102
RTVSPost2010PropOp28
 70
     1
102
RTVSPost2010Prop29
280
     1
102
RTVSPost2010PropOp29
 70
     1
102
RTVSPost2010Prop30
280
     1
102
RTVSPost2010PropOp30
 70
     1
102
RTVSPost2010Prop31
280
     0
102
RTVSPost2010PropOp31
 70
     1
102
RTVSPost2010Prop32
280
     0
102
RTVSPost2010PropOp32
 70
     1
102
RTVSPost2010Prop33
280
     0
102
RTVSPost2010PropOp33
 70
     1
102
RTVSPost2010Prop34
280
     0
102
RTVSPost2010PropOp34
 70
     1
102
RTVSPost2010Prop35
280
     0
102
RTVSPost2010PropOp35
 70
     1
102
RTVSPost2010Prop36
280
     0
102
RTVSPost2010PropOp36
 70
     1
102
RTVSPost2010Prop37
 90
       50
102
RTVSPost2010PropOp37
 70
     1
102
RTVSPost2010Prop38
140
0.0
102
RTVSPost2010PropOp38
 70
     1
102
RTVSPost2010Prop39
140
1.0
102
RTVSPost2010PropOp39
 70
     1
102
RTVSPost2010Prop40
 90
        0
102
RTVSPost2010PropOp40
 70
     1
102
RTVSPost2010Prop41ColorIndex
 90
       18
102
RTVSPost2010Prop41ColorRGB
 90
        0
102
RTVSPost2010PropOp41
 70
     1
102
RTVSPost2010Prop42
 90
       50
102
RTVSPost2010PropOp42
 70
     1
102
RTVSPost2010Prop43
 90
        3
102
RTVSPost2010PropOp43
 70
     1
102
RTVSPost2010Prop44ColorIndex
 90
        5
102
RTVSPost2010Prop44ColorRGB
 90
      255
102
RTVSPost2010PropOp44
 70
     1
102
RTVSPost2010Prop45
280
     0
102
RTVSPost2010PropOp45
 70
     1
102
RTVSPost2010Prop46
 90
       50
102
RTVSPost2010PropOp46
 70
     1
102
RTVSPost2010Prop47
 90
       50
102
RTVSPost2010PropOp47
 70
     1
102
RTVSPost2010Prop48
 90
       50
102
RTVSPost2010PropOp48
 70
     1
102
RTVSPost2010Prop49
280
     0
102
RTVSPost2010PropOp49
 70
     1
102
RTVSPost2010Prop50
 90
       50
102
RTVSPost2010PropOp50
 70
     1
102
RTVSPost2010Prop51ColorIndex
 90
      256
102
RTVSPost2010Prop51ColorRGB
 90
-16777216
102
RTVSPost2010PropOp51
 70
     0
102
RTVSPost2010Prop52
140
1.0
102
RTVSPost2010PropOp52
 70
     0
102
RTVSPost2010Prop53
 90
        2
102
RTVSPost2010PropOp53
 70
     1
102
RTVSPost2010Prop54
  1
strokes_ogs.tif
102
RTVSPost2010PropOp54
 70
     1
102
RTVSPost2010Prop55
280
     0
102
RTVSPost2010PropOp55
 70
     1
102
RTVSPost2010Prop56
140
1.0
102
RTVSPost2010PropOp56
 70
     1
102
RTVSPost2010Prop57
140
1.0
102
RTVSPost2010PropOp57
 70
     1
102
RTVSPropertyOp0
 70
     1
102
RTVSPropertyOp1
 70
     1
102
RTVSPropertyOp2
 70
     1
102
RTVSPropertyOp3
 70
     1
102
RTVSPropertyOp4
 70
     1
102
RTVSPropertyOp5
 70
     1
102
RTVSPropertyOp6
 70
     1
102
RTVSPropertyOp7
 70
     1
102
RTVSPropertyOp8
 70
     1
102
RTVSPropertyOp9
 70
     1
102
RTVSPropertyOp10
 70
     1
102
RTVSPropertyOp11
 70
     1
102
RTVSPropertyOp12
 70
     1
102
RTVSPropertyOp13
 70
     1
102
RTVSPropertyOp14
 70
     1
102
RTVSPropertyOp15
 70
     1
102
RTVSPropertyOp16
 70
     1
102
RTVSPropertyOp17
 70
     1
102
RTVSPropertyOp18
 70
     1
102
RTVSPropertyOp19
 70
     1
102
RTVSPropertyOp20
 70
     1
102
RTVSPropertyOp21
 70
     1
102
RTVSPropertyOp22
 70
     1
102
RTVSPropertyOp23
 70
     1
102
RTVSPropertyOp24
 70
     1
102
RTVSPropertyOp25
 70
     1
102
RTVSPropertyOp26
 70
     1
102
RTVSPropertyOp27
 70
     1
102
RTVSPropertyOp28
 70
     1
102
RTVSPropertyOp29
 70
     1
102
RTVSPropertyOp30
 70
     1
102
RTVSPropertyOp31
 70
     1
102
RTVSPropertyOp32
 70
     1
102
RTVSPropertyOp33
 70
     1
102
RTVSPropertyOp34
 70
     1
102
RTVSPropertyOp35
 70
     1
102
RTVSPropertyOp36
 70
     1
102
RTVSPropertyOp37
 70
     1
102
RTVSPropertyOp38
 70
     1
102
RTVSPropertyOp39
 70
     1
102
RTVSPropertyOp40
 70
     1
102
RTVSPropertyOp41
 70
     1
102
RTVSPropertyOp42
 70
     1
102
RTVSPropertyOp43
 70
     1
102
RTVSPropertyOp44
 70
     1
102
RTVSPropertyOp45
 70
     1
102
RTVSPropertyOp46
 70
     1
102
RTVSPropertyOp47
 70
     1
102
RTVSPropertyOp48
 70
     1
102
RTVSPropertyOp49
 70
     1
102
RTVSPropertyOp50
 70
     1
102
RTVSPropertyOp51
 70
     0
102
RTVSPropertyOp52
 70
     0
102
RTVSPropertyOp53
 70
     1
102
RTVSPropertyOp54
 70
     1
102
RTVSPropertyOp55
 70
     1
102
RTVSPropertyOp56
 70
     1
102
RTVSPropertyOp57
 70
     1
102
RTVSPropertyOp58
 70
     1
102
RTVSPropertyOp59
 70
     1
102
RTVSPropertyOp60
 70
     1
102
RTVSPropertyOp61
 70
     1
102
RTVSPropertyOp62
 70
     1
  0
XRECORD
  5
3E3B
102
{ACAD_REACTORS
330
3E3A
102
}
330
3E3A
100
AcDbXrecord
280
     1
102
RTVSPost2010Prop28
280
     0
102
RTVSPost2010PropOp28
 70
     1
102
RTVSPost2010Prop29
280
     1
102
RTVSPost2010PropOp29
 70
     1
102
RTVSPost2010Prop30
280
     1
102
RTVSPost2010PropOp30
 70
     1
102
RTVSPost2010Prop31
280
     0
102
RTVSPost2010PropOp31
 70
     1
102
RTVSPost2010Prop32
280
     0
102
RTVSPost2010PropOp32
 70
     1
102
RTVSPost2010Prop33
280
     0
102
RTVSPost2010PropOp33
 70
     1
102
RTVSPost2010Prop34
280
     0
102
RTVSPost2010PropOp34
 70
     1
102
RTVSPost2010Prop35
280
     0
102
RTVSPost2010PropOp35
 70
     1
102
RTVSPost2010Prop36
280
     0
102
RTVSPost2010PropOp36
 70
     1
102
RTVSPost2010Prop37
 90
       50
102
RTVSPost2010PropOp37
 70
     0
102
RTVSPost2010Prop38
140
0.0
102
RTVSPost2010PropOp38
 70
     0
102
RTVSPost2010Prop39
140
1.0
102
RTVSPost2010PropOp39
 70
     0
102
RTVSPost2010Prop40
 90
        0
102
RTVSPost2010PropOp40
 70
     0
102
RTVSPost2010Prop41ColorIndex
 90
       18
102
RTVSPost2010Prop41ColorRGB
 90
        0
102
RTVSPost2010PropOp41
 70
     0
102
RTVSPost2010Prop42
 90
       50
102
RTVSPost2010PropOp42
 70
     0
102
RTVSPost2010Prop43
 90
        3
102
RTVSPost2010PropOp43
 70
     0
102
RTVSPost2010Prop44ColorIndex
 90
        5
102
RTVSPost2010Prop44ColorRGB
 90
      255
102
RTVSPost2010PropOp44
 70
     0
102
RTVSPost2010Prop45
280
     0
102
RTVSPost2010PropOp45
 70
     1
102
RTVSPost2010Prop46
 90
       50
102
RTVSPost2010PropOp46
 70
     0
102
RTVSPost2010Prop47
 90
       50
102
RTVSPost2010PropOp47
 70
     0
102
RTVSPost2010Prop48
 90
       50
102
RTVSPost2010PropOp48
 70
     0
102
RTVSPost2010Prop49
280
     0
102
RTVSPost2010PropOp49
 70
     1
102
RTVSPost2010Prop50
 90
       50
102
RTVSPost2010PropOp50
 70
     0
102
RTVSPost2010Prop51ColorIndex
 90
      256
102
RTVSPost2010Prop51ColorRGB
 90
-16777216
102
RTVSPost2010PropOp51
 70
     0
102
RTVSPost2010Prop52
140
1.0
102
RTVSPost2010PropOp52
 70
     0
102
RTVSPost2010Prop53
 90
        2
102
RTVSPost2010PropOp53
 70
     0
102
RTVSPost2010Prop54
  1
strokes_ogs.tif
102
RTVSPost2010PropOp54
 70
     0
102
RTVSPost2010Prop55
280
     0
102
RTVSPost2010PropOp55
 70
     1
102
RTVSPost2010Prop56
140
1.0
102
RTVSPost2010PropOp56
 70
     0
102
RTVSPost2010Prop57
140
1.0
102
RTVSPost2010PropOp57
 70
     0
102
RTVSPropertyOp0
 70
     0
102
RTVSPropertyOp1
 70
     0
102
RTVSPropertyOp2
 70
     0
102
RTVSPropertyOp3
 70
     0
102
RTVSPropertyOp4
 70
     0
102
RTVSPropertyOp5
 70
     0
102
RTVSPropertyOp6
 70
     0
102
RTVSPropertyOp7
 70
     0
102
RTVSPropertyOp8
 70
     0
102
RTVSPropertyOp9
 70
     0
102
RTVSPropertyOp10
 70
     0
102
RTVSPropertyOp11
 70
     0
102
RTVSPropertyOp12
 70
     0
102
RTVSPropertyOp13
 70
     0
102
RTVSPropertyOp14
 70
     2
102
RTVSPropertyOp15
 70
     0
102
RTVSPropertyOp16
 70
     0
102
RTVSPropertyOp17
 70
     0
102
RTVSPropertyOp18
 70
     0
102
RTVSPropertyOp19
 70
     0
102
RTVSPropertyOp20
 70
     0
102
RTVSPropertyOp21
 70
     0
102
RTVSPropertyOp22
 70
     0
102
RTVSPropertyOp23
 70
     0
102
RTVSPropertyOp24
 70
     0
102
RTVSPropertyOp25
 70
     0
102
RTVSPropertyOp26
 70
     0
102
RTVSPropertyOp27
 70
     0
102
RTVSPropertyOp28
 70
     1
102
RTVSPropertyOp29
 70
     1
102
RTVSPropertyOp30
 70
     1
102
RTVSPropertyOp31
 70
     1
102
RTVSPropertyOp32
 70
     1
102
RTVSPropertyOp33
 70
     1
102
RTVSPropertyOp34
 70
     1
102
RTVSPropertyOp35
 70
     1
102
RTVSPropertyOp36
 70
     1
102
RTVSPropertyOp37
 70
     0
102
RTVSPropertyOp38
 70
     0
102
RTVSPropertyOp39
 70
     0
102
RTVSPropertyOp40
 70
     0
102
RTVSPropertyOp41
 70
     0
102
RTVSPropertyOp42
 70
     0
102
RTVSPropertyOp43
 70
     0
102
RTVSPropertyOp44
 70
     0
102
RTVSPropertyOp45
 70
     1
102
RTVSPropertyOp46
 70
     0
102
RTVSPropertyOp47
 70
     0
102
RTVSPropertyOp48
 70
     0
102
RTVSPropertyOp49
 70
     1
102
RTVSPropertyOp50
 70
     0
102
RTVSPropertyOp51
 70
     0
102
RTVSPropertyOp52
 70
     0
102
RTVSPropertyOp53
 70
     0
102
RTVSPropertyOp54
 70
     0
102
RTVSPropertyOp55
 70
     1
102
RTVSPropertyOp56
 70
     0
102
RTVSPropertyOp57
 70
     0
102
RTVSPropertyOp58
 70
     0
102
RTVSPropertyOp59
 70
     0
102
RTVSPropertyOp60
 70
     0
102
RTVSPropertyOp61
 70
     0
102
RTVSPropertyOp62
 70
     0
  0
XRECORD
  5
3E21
102
{ACAD_REACTORS
330
3E20
102
}
330
3E20
100
AcDbXrecord
280
     1
102
RTVSPost2010Prop28
280
     0
102
RTVSPost2010PropOp28
 70
     1
102
RTVSPost2010Prop29
280
     1
102
RTVSPost2010PropOp29
 70
     1
102
RTVSPost2010Prop30
280
     1
102
RTVSPost2010PropOp30
 70
     1
102
RTVSPost2010Prop31
280
     0
102
RTVSPost2010PropOp31
 70
     1
102
RTVSPost2010Prop32
280
     0
102
RTVSPost2010PropOp32
 70
     1
102
RTVSPost2010Prop33
280
     0
102
RTVSPost2010PropOp33
 70
     1
102
RTVSPost2010Prop34
280
     0
102
RTVSPost2010PropOp34
 70
     1
102
RTVSPost2010Prop35
280
     0
102
RTVSPost2010PropOp35
 70
     1
102
RTVSPost2010Prop36
280
     0
102
RTVSPost2010PropOp36
 70
     1
102
RTVSPost2010Prop37
 90
       50
102
RTVSPost2010PropOp37
 70
     1
102
RTVSPost2010Prop38
140
0.0
102
RTVSPost2010PropOp38
 70
     1
102
RTVSPost2010Prop39
140
1.0
102
RTVSPost2010PropOp39
 70
     1
102
RTVSPost2010Prop40
 90
        0
102
RTVSPost2010PropOp40
 70
     1
102
RTVSPost2010Prop41ColorIndex
 90
       18
102
RTVSPost2010Prop41ColorRGB
 90
        0
102
RTVSPost2010PropOp41
 70
     1
102
RTVSPost2010Prop42
 90
       50
102
RTVSPost2010PropOp42
 70
     1
102
RTVSPost2010Prop43
 90
        3
102
RTVSPost2010PropOp43
 70
     1
102
RTVSPost2010Prop44ColorIndex
 90
        5
102
RTVSPost2010Prop44ColorRGB
 90
      255
102
RTVSPost2010PropOp44
 70
     1
102
RTVSPost2010Prop45
280
     0
102
RTVSPost2010PropOp45
 70
     1
102
RTVSPost2010Prop46
 90
       50
102
RTVSPost2010PropOp46
 70
     1
102
RTVSPost2010Prop47
 90
       50
102
RTVSPost2010PropOp47
 70
     1
102
RTVSPost2010Prop48
 90
       50
102
RTVSPost2010PropOp48
 70
     1
102
RTVSPost2010Prop49
280
     0
102
RTVSPost2010PropOp49
 70
     1
102
RTVSPost2010Prop50
 90
       50
102
RTVSPost2010PropOp50
 70
     1
102
RTVSPost2010Prop51ColorIndex
 90
      256
102
RTVSPost2010Prop51ColorRGB
 90
-16777216
102
RTVSPost2010PropOp51
 70
     0
102
RTVSPost2010Prop52
140
1.0
102
RTVSPost2010PropOp52
 70
     0
102
RTVSPost2010Prop53
 90
        2
102
RTVSPost2010PropOp53
 70
     1
102
RTVSPost2010Prop54
  1
strokes_ogs.tif
102
RTVSPost2010PropOp54
 70
     1
102
RTVSPost2010Prop55
280
     0
102
RTVSPost2010PropOp55
 70
     1
102
RTVSPost2010Prop56
140
1.0
102
RTVSPost2010PropOp56
 70
     1
102
RTVSPost2010Prop57
140
1.0
102
RTVSPost2010PropOp57
 70
     1
102
RTVSPropertyOp0
 70
     1
102
RTVSPropertyOp1
 70
     1
102
RTVSPropertyOp2
 70
     1
102
RTVSPropertyOp3
 70
     1
102
RTVSPropertyOp4
 70
     1
102
RTVSPropertyOp5
 70
     1
102
RTVSPropertyOp6
 70
     1
102
RTVSPropertyOp7
 70
     1
102
RTVSPropertyOp8
 70
     1
102
RTVSPropertyOp9
 70
     1
102
RTVSPropertyOp10
 70
     1
102
RTVSPropertyOp11
 70
     1
102
RTVSPropertyOp12
 70
     1
102
RTVSPropertyOp13
 70
     1
102
RTVSPropertyOp14
 70
     1
102
RTVSPropertyOp15
 70
     1
102
RTVSPropertyOp16
 70
     1
102
RTVSPropertyOp17
 70
     1
102
RTVSPropertyOp18
 70
     1
102
RTVSPropertyOp19
 70
     1
102
RTVSPropertyOp20
 70
     1
102
RTVSPropertyOp21
 70
     1
102
RTVSPropertyOp22
 70
     1
102
RTVSPropertyOp23
 70
     1
102
RTVSPropertyOp24
 70
     1
102
RTVSPropertyOp25
 70
     1
102
RTVSPropertyOp26
 70
     1
102
RTVSPropertyOp27
 70
     1
102
RTVSPropertyOp28
 70
     1
102
RTVSPropertyOp29
 70
     1
102
RTVSPropertyOp30
 70
     1
102
RTVSPropertyOp31
 70
     1
102
RTVSPropertyOp32
 70
     1
102
RTVSPropertyOp33
 70
     1
102
RTVSPropertyOp34
 70
     1
102
RTVSPropertyOp35
 70
     1
102
RTVSPropertyOp36
 70
     1
102
RTVSPropertyOp37
 70
     1
102
RTVSPropertyOp38
 70
     1
102
RTVSPropertyOp39
 70
     1
102
RTVSPropertyOp40
 70
     1
102
RTVSPropertyOp41
 70
     1
102
RTVSPropertyOp42
 70
     1
102
RTVSPropertyOp43
 70
     1
102
RTVSPropertyOp44
 70
     1
102
RTVSPropertyOp45
 70
     1
102
RTVSPropertyOp46
 70
     1
102
RTVSPropertyOp47
 70
     1
102
RTVSPropertyOp48
 70
     1
102
RTVSPropertyOp49
 70
     1
102
RTVSPropertyOp50
 70
     1
102
RTVSPropertyOp51
 70
     0
102
RTVSPropertyOp52
 70
     0
102
RTVSPropertyOp53
 70
     1
102
RTVSPropertyOp54
 70
     1
102
RTVSPropertyOp55
 70
     1
102
RTVSPropertyOp56
 70
     1
102
RTVSPropertyOp57
 70
     1
102
RTVSPropertyOp58
 70
     1
102
RTVSPropertyOp59
 70
     1
102
RTVSPropertyOp60
 70
     1
102
RTVSPropertyOp61
 70
     1
102
RTVSPropertyOp62
 70
     1
  0
XRECORD
  5
3E37
102
{ACAD_REACTORS
330
3E36
102
}
330
3E36
100
AcDbXrecord
280
     1
102
RTVSPost2010Prop28
280
     0
102
RTVSPost2010PropOp28
 70
     1
102
RTVSPost2010Prop29
280
     1
102
RTVSPost2010PropOp29
 70
     1
102
RTVSPost2010Prop30
280
     1
102
RTVSPost2010PropOp30
 70
     1
102
RTVSPost2010Prop31
280
     0
102
RTVSPost2010PropOp31
 70
     1
102
RTVSPost2010Prop32
280
     0
102
RTVSPost2010PropOp32
 70
     1
102
RTVSPost2010Prop33
280
     0
102
RTVSPost2010PropOp33
 70
     1
102
RTVSPost2010Prop34
280
     0
102
RTVSPost2010PropOp34
 70
     1
102
RTVSPost2010Prop35
280
     0
102
RTVSPost2010PropOp35
 70
     1
102
RTVSPost2010Prop36
280
     0
102
RTVSPost2010PropOp36
 70
     1
102
RTVSPost2010Prop37
 90
       50
102
RTVSPost2010PropOp37
 70
     1
102
RTVSPost2010Prop38
140
0.0
102
RTVSPost2010PropOp38
 70
     1
102
RTVSPost2010Prop39
140
1.0
102
RTVSPost2010PropOp39
 70
     1
102
RTVSPost2010Prop40
 90
        0
102
RTVSPost2010PropOp40
 70
     1
102
RTVSPost2010Prop41ColorIndex
 90
       18
102
RTVSPost2010Prop41ColorRGB
 90
        0
102
RTVSPost2010PropOp41
 70
     1
102
RTVSPost2010Prop42
 90
       50
102
RTVSPost2010PropOp42
 70
     1
102
RTVSPost2010Prop43
 90
        3
102
RTVSPost2010PropOp43
 70
     1
102
RTVSPost2010Prop44ColorIndex
 90
        5
102
RTVSPost2010Prop44ColorRGB
 90
      255
102
RTVSPost2010PropOp44
 70
     1
102
RTVSPost2010Prop45
280
     0
102
RTVSPost2010PropOp45
 70
     1
102
RTVSPost2010Prop46
 90
       50
102
RTVSPost2010PropOp46
 70
     1
102
RTVSPost2010Prop47
 90
       50
102
RTVSPost2010PropOp47
 70
     1
102
RTVSPost2010Prop48
 90
       50
102
RTVSPost2010PropOp48
 70
     1
102
RTVSPost2010Prop49
280
     0
102
RTVSPost2010PropOp49
 70
     1
102
RTVSPost2010Prop50
 90
       50
102
RTVSPost2010PropOp50
 70
     1
102
RTVSPost2010Prop51ColorIndex
 90
      256
102
RTVSPost2010Prop51ColorRGB
 90
-16777216
102
RTVSPost2010PropOp51
 70
     0
102
RTVSPost2010Prop52
140
1.0
102
RTVSPost2010PropOp52
 70
     0
102
RTVSPost2010Prop53
 90
        2
102
RTVSPost2010PropOp53
 70
     1
102
RTVSPost2010Prop54
  1
strokes_ogs.tif
102
RTVSPost2010PropOp54
 70
     1
102
RTVSPost2010Prop55
280
     0
102
RTVSPost2010PropOp55
 70
     1
102
RTVSPost2010Prop56
140
1.0
102
RTVSPost2010PropOp56
 70
     1
102
RTVSPost2010Prop57
140
1.0
102
RTVSPost2010PropOp57
 70
     1
102
RTVSPropertyOp0
 70
     1
102
RTVSPropertyOp1
 70
     1
102
RTVSPropertyOp2
 70
     1
102
RTVSPropertyOp3
 70
     1
102
RTVSPropertyOp4
 70
     1
102
RTVSPropertyOp5
 70
     1
102
RTVSPropertyOp6
 70
     1
102
RTVSPropertyOp7
 70
     1
102
RTVSPropertyOp8
 70
     1
102
RTVSPropertyOp9
 70
     1
102
RTVSPropertyOp10
 70
     1
102
RTVSPropertyOp11
 70
     1
102
RTVSPropertyOp12
 70
     1
102
RTVSPropertyOp13
 70
     1
102
RTVSPropertyOp14
 70
     1
102
RTVSPropertyOp15
 70
     1
102
RTVSPropertyOp16
 70
     1
102
RTVSPropertyOp17
 70
     1
102
RTVSPropertyOp18
 70
     1
102
RTVSPropertyOp19
 70
     1
102
RTVSPropertyOp20
 70
     1
102
RTVSPropertyOp21
 70
     1
102
RTVSPropertyOp22
 70
     1
102
RTVSPropertyOp23
 70
     1
102
RTVSPropertyOp24
 70
     1
102
RTVSPropertyOp25
 70
     1
102
RTVSPropertyOp26
 70
     1
102
RTVSPropertyOp27
 70
     1
102
RTVSPropertyOp28
 70
     1
102
RTVSPropertyOp29
 70
     1
102
RTVSPropertyOp30
 70
     1
102
RTVSPropertyOp31
 70
     1
102
RTVSPropertyOp32
 70
     1
102
RTVSPropertyOp33
 70
     1
102
RTVSPropertyOp34
 70
     1
102
RTVSPropertyOp35
 70
     1
102
RTVSPropertyOp36
 70
     1
102
RTVSPropertyOp37
 70
     1
102
RTVSPropertyOp38
 70
     1
102
RTVSPropertyOp39
 70
     1
102
RTVSPropertyOp40
 70
     1
102
RTVSPropertyOp41
 70
     1
102
RTVSPropertyOp42
 70
     1
102
RTVSPropertyOp43
 70
     1
102
RTVSPropertyOp44
 70
     1
102
RTVSPropertyOp45
 70
     1
102
RTVSPropertyOp46
 70
     1
102
RTVSPropertyOp47
 70
     1
102
RTVSPropertyOp48
 70
     1
102
RTVSPropertyOp49
 70
     1
102
RTVSPropertyOp50
 70
     1
102
RTVSPropertyOp51
 70
     0
102
RTVSPropertyOp52
 70
     0
102
RTVSPropertyOp53
 70
     1
102
RTVSPropertyOp54
 70
     1
102
RTVSPropertyOp55
 70
     1
102
RTVSPropertyOp56
 70
     1
102
RTVSPropertyOp57
 70
     1
102
RTVSPropertyOp58
 70
     1
102
RTVSPropertyOp59
 70
     1
102
RTVSPropertyOp60
 70
     1
102
RTVSPropertyOp61
 70
     1
102
RTVSPropertyOp62
 70
     1
  0
XRECORD
  5
3E35
102
{ACAD_REACTORS
330
3E34
102
}
330
3E34
100
AcDbXrecord
280
     1
102
RTVSPost2010Prop28
280
     0
102
RTVSPost2010PropOp28
 70
     1
102
RTVSPost2010Prop29
280
     1
102
RTVSPost2010PropOp29
 70
     1
102
RTVSPost2010Prop30
280
     1
102
RTVSPost2010PropOp30
 70
     1
102
RTVSPost2010Prop31
280
     0
102
RTVSPost2010PropOp31
 70
     1
102
RTVSPost2010Prop32
280
     0
102
RTVSPost2010PropOp32
 70
     1
102
RTVSPost2010Prop33
280
     0
102
RTVSPost2010PropOp33
 70
     1
102
RTVSPost2010Prop34
280
     0
102
RTVSPost2010PropOp34
 70
     1
102
RTVSPost2010Prop35
280
     0
102
RTVSPost2010PropOp35
 70
     1
102
RTVSPost2010Prop36
280
     0
102
RTVSPost2010PropOp36
 70
     1
102
RTVSPost2010Prop37
 90
       50
102
RTVSPost2010PropOp37
 70
     1
102
RTVSPost2010Prop38
140
0.0
102
RTVSPost2010PropOp38
 70
     1
102
RTVSPost2010Prop39
140
1.0
102
RTVSPost2010PropOp39
 70
     1
102
RTVSPost2010Prop40
 90
        0
102
RTVSPost2010PropOp40
 70
     1
102
RTVSPost2010Prop41ColorIndex
 90
       18
102
RTVSPost2010Prop41ColorRGB
 90
        0
102
RTVSPost2010PropOp41
 70
     1
102
RTVSPost2010Prop42
 90
       50
102
RTVSPost2010PropOp42
 70
     1
102
RTVSPost2010Prop43
 90
        3
102
RTVSPost2010PropOp43
 70
     1
102
RTVSPost2010Prop44ColorIndex
 90
        5
102
RTVSPost2010Prop44ColorRGB
 90
      255
102
RTVSPost2010PropOp44
 70
     1
102
RTVSPost2010Prop45
280
     0
102
RTVSPost2010PropOp45
 70
     1
102
RTVSPost2010Prop46
 90
       50
102
RTVSPost2010PropOp46
 70
     1
102
RTVSPost2010Prop47
 90
       50
102
RTVSPost2010PropOp47
 70
     1
102
RTVSPost2010Prop48
 90
       50
102
RTVSPost2010PropOp48
 70
     1
102
RTVSPost2010Prop49
280
     0
102
RTVSPost2010PropOp49
 70
     1
102
RTVSPost2010Prop50
 90
       50
102
RTVSPost2010PropOp50
 70
     1
102
RTVSPost2010Prop51ColorIndex
 90
      256
102
RTVSPost2010Prop51ColorRGB
 90
-16777216
102
RTVSPost2010PropOp51
 70
     0
102
RTVSPost2010Prop52
140
1.0
102
RTVSPost2010PropOp52
 70
     0
102
RTVSPost2010Prop53
 90
        2
102
RTVSPost2010PropOp53
 70
     1
102
RTVSPost2010Prop54
  1
strokes_ogs.tif
102
RTVSPost2010PropOp54
 70
     1
102
RTVSPost2010Prop55
280
     0
102
RTVSPost2010PropOp55
 70
     1
102
RTVSPost2010Prop56
140
1.0
102
RTVSPost2010PropOp56
 70
     1
102
RTVSPost2010Prop57
140
1.0
102
RTVSPost2010PropOp57
 70
     1
102
RTVSPropertyOp0
 70
     1
102
RTVSPropertyOp1
 70
     1
102
RTVSPropertyOp2
 70
     1
102
RTVSPropertyOp3
 70
     1
102
RTVSPropertyOp4
 70
     1
102
RTVSPropertyOp5
 70
     1
102
RTVSPropertyOp6
 70
     1
102
RTVSPropertyOp7
 70
     1
102
RTVSPropertyOp8
 70
     1
102
RTVSPropertyOp9
 70
     1
102
RTVSPropertyOp10
 70
     1
102
RTVSPropertyOp11
 70
     1
102
RTVSPropertyOp12
 70
     1
102
RTVSPropertyOp13
 70
     1
102
RTVSPropertyOp14
 70
     1
102
RTVSPropertyOp15
 70
     1
102
RTVSPropertyOp16
 70
     1
102
RTVSPropertyOp17
 70
     1
102
RTVSPropertyOp18
 70
     1
102
RTVSPropertyOp19
 70
     1
102
RTVSPropertyOp20
 70
     1
102
RTVSPropertyOp21
 70
     1
102
RTVSPropertyOp22
 70
     1
102
RTVSPropertyOp23
 70
     1
102
RTVSPropertyOp24
 70
     1
102
RTVSPropertyOp25
 70
     1
102
RTVSPropertyOp26
 70
     1
102
RTVSPropertyOp27
 70
     1
102
RTVSPropertyOp28
 70
     1
102
RTVSPropertyOp29
 70
     1
102
RTVSPropertyOp30
 70
     1
102
RTVSPropertyOp31
 70
     1
102
RTVSPropertyOp32
 70
     1
102
RTVSPropertyOp33
 70
     1
102
RTVSPropertyOp34
 70
     1
102
RTVSPropertyOp35
 70
     1
102
RTVSPropertyOp36
 70
     1
102
RTVSPropertyOp37
 70
     1
102
RTVSPropertyOp38
 70
     1
102
RTVSPropertyOp39
 70
     1
102
RTVSPropertyOp40
 70
     1
102
RTVSPropertyOp41
 70
     1
102
RTVSPropertyOp42
 70
     1
102
RTVSPropertyOp43
 70
     1
102
RTVSPropertyOp44
 70
     1
102
RTVSPropertyOp45
 70
     1
102
RTVSPropertyOp46
 70
     1
102
RTVSPropertyOp47
 70
     1
102
RTVSPropertyOp48
 70
     1
102
RTVSPropertyOp49
 70
     1
102
RTVSPropertyOp50
 70
     1
102
RTVSPropertyOp51
 70
     0
102
RTVSPropertyOp52
 70
     0
102
RTVSPropertyOp53
 70
     1
102
RTVSPropertyOp54
 70
     1
102
RTVSPropertyOp55
 70
     1
102
RTVSPropertyOp56
 70
     1
102
RTVSPropertyOp57
 70
     1
102
RTVSPropertyOp58
 70
     1
102
RTVSPropertyOp59
 70
     1
102
RTVSPropertyOp60
 70
     1
102
RTVSPropertyOp61
 70
     1
102
RTVSPropertyOp62
 70
     1
  0
XRECORD
  5
3E2F
102
{ACAD_REACTORS
330
3E2E
102
}
330
3E2E
100
AcDbXrecord
280
     1
102
RTVSPost2010Prop28
280
     0
102
RTVSPost2010PropOp28
 70
     1
102
RTVSPost2010Prop29
280
     1
102
RTVSPost2010PropOp29
 70
     1
102
RTVSPost2010Prop30
280
     1
102
RTVSPost2010PropOp30
 70
     1
102
RTVSPost2010Prop31
280
     0
102
RTVSPost2010PropOp31
 70
     1
102
RTVSPost2010Prop32
280
     0
102
RTVSPost2010PropOp32
 70
     1
102
RTVSPost2010Prop33
280
     0
102
RTVSPost2010PropOp33
 70
     1
102
RTVSPost2010Prop34
280
     0
102
RTVSPost2010PropOp34
 70
     1
102
RTVSPost2010Prop35
280
     0
102
RTVSPost2010PropOp35
 70
     1
102
RTVSPost2010Prop36
280
     0
102
RTVSPost2010PropOp36
 70
     1
102
RTVSPost2010Prop37
 90
       50
102
RTVSPost2010PropOp37
 70
     1
102
RTVSPost2010Prop38
140
0.0
102
RTVSPost2010PropOp38
 70
     1
102
RTVSPost2010Prop39
140
1.0
102
RTVSPost2010PropOp39
 70
     1
102
RTVSPost2010Prop40
 90
        0
102
RTVSPost2010PropOp40
 70
     1
102
RTVSPost2010Prop41ColorIndex
 90
       18
102
RTVSPost2010Prop41ColorRGB
 90
        0
102
RTVSPost2010PropOp41
 70
     1
102
RTVSPost2010Prop42
 90
       50
102
RTVSPost2010PropOp42
 70
     1
102
RTVSPost2010Prop43
 90
        3
102
RTVSPost2010PropOp43
 70
     1
102
RTVSPost2010Prop44ColorIndex
 90
        5
102
RTVSPost2010Prop44ColorRGB
 90
      255
102
RTVSPost2010PropOp44
 70
     1
102
RTVSPost2010Prop45
280
     0
102
RTVSPost2010PropOp45
 70
     1
102
RTVSPost2010Prop46
 90
       50
102
RTVSPost2010PropOp46
 70
     1
102
RTVSPost2010Prop47
 90
       50
102
RTVSPost2010PropOp47
 70
     1
102
RTVSPost2010Prop48
 90
       50
102
RTVSPost2010PropOp48
 70
     1
102
RTVSPost2010Prop49
280
     0
102
RTVSPost2010PropOp49
 70
     1
102
RTVSPost2010Prop50
 90
       50
102
RTVSPost2010PropOp50
 70
     1
102
RTVSPost2010Prop51ColorIndex
 90
      256
102
RTVSPost2010Prop51ColorRGB
 90
-16777216
102
RTVSPost2010PropOp51
 70
     0
102
RTVSPost2010Prop52
140
1.0
102
RTVSPost2010PropOp52
 70
     0
102
RTVSPost2010Prop53
 90
        2
102
RTVSPost2010PropOp53
 70
     1
102
RTVSPost2010Prop54
  1
strokes_ogs.tif
102
RTVSPost2010PropOp54
 70
     1
102
RTVSPost2010Prop55
280
     0
102
RTVSPost2010PropOp55
 70
     1
102
RTVSPost2010Prop56
140
1.0
102
RTVSPost2010PropOp56
 70
     1
102
RTVSPost2010Prop57
140
1.0
102
RTVSPost2010PropOp57
 70
     1
102
RTVSPropertyOp0
 70
     1
102
RTVSPropertyOp1
 70
     1
102
RTVSPropertyOp2
 70
     1
102
RTVSPropertyOp3
 70
     1
102
RTVSPropertyOp4
 70
     1
102
RTVSPropertyOp5
 70
     1
102
RTVSPropertyOp6
 70
     1
102
RTVSPropertyOp7
 70
     1
102
RTVSPropertyOp8
 70
     1
102
RTVSPropertyOp9
 70
     1
102
RTVSPropertyOp10
 70
     1
102
RTVSPropertyOp11
 70
     1
102
RTVSPropertyOp12
 70
     1
102
RTVSPropertyOp13
 70
     1
102
RTVSPropertyOp14
 70
     1
102
RTVSPropertyOp15
 70
     1
102
RTVSPropertyOp16
 70
     1
102
RTVSPropertyOp17
 70
     1
102
RTVSPropertyOp18
 70
     1
102
RTVSPropertyOp19
 70
     1
102
RTVSPropertyOp20
 70
     1
102
RTVSPropertyOp21
 70
     1
102
RTVSPropertyOp22
 70
     1
102
RTVSPropertyOp23
 70
     1
102
RTVSPropertyOp24
 70
     1
102
RTVSPropertyOp25
 70
     1
102
RTVSPropertyOp26
 70
     1
102
RTVSPropertyOp27
 70
     1
102
RTVSPropertyOp28
 70
     1
102
RTVSPropertyOp29
 70
     1
102
RTVSPropertyOp30
 70
     1
102
RTVSPropertyOp31
 70
     1
102
RTVSPropertyOp32
 70
     1
102
RTVSPropertyOp33
 70
     1
102
RTVSPropertyOp34
 70
     1
102
RTVSPropertyOp35
 70
     1
102
RTVSPropertyOp36
 70
     1
102
RTVSPropertyOp37
 70
     1
102
RTVSPropertyOp38
 70
     1
102
RTVSPropertyOp39
 70
     1
102
RTVSPropertyOp40
 70
     1
102
RTVSPropertyOp41
 70
     1
102
RTVSPropertyOp42
 70
     1
102
RTVSPropertyOp43
 70
     1
102
RTVSPropertyOp44
 70
     1
102
RTVSPropertyOp45
 70
     1
102
RTVSPropertyOp46
 70
     1
102
RTVSPropertyOp47
 70
     1
102
RTVSPropertyOp48
 70
     1
102
RTVSPropertyOp49
 70
     1
102
RTVSPropertyOp50
 70
     1
102
RTVSPropertyOp51
 70
     0
102
RTVSPropertyOp52
 70
     0
102
RTVSPropertyOp53
 70
     1
102
RTVSPropertyOp54
 70
     1
102
RTVSPropertyOp55
 70
     1
102
RTVSPropertyOp56
 70
     1
102
RTVSPropertyOp57
 70
     1
102
RTVSPropertyOp58
 70
     1
102
RTVSPropertyOp59
 70
     1
102
RTVSPropertyOp60
 70
     1
102
RTVSPropertyOp61
 70
     1
102
RTVSPropertyOp62
 70
     1
  0
XRECORD
  5
3E31
102
{ACAD_REACTORS
330
3E30
102
}
330
3E30
100
AcDbXrecord
280
     1
102
RTVSPost2010Prop28
280
     0
102
RTVSPost2010PropOp28
 70
     1
102
RTVSPost2010Prop29
280
     1
102
RTVSPost2010PropOp29
 70
     1
102
RTVSPost2010Prop30
280
     1
102
RTVSPost2010PropOp30
 70
     1
102
RTVSPost2010Prop31
280
     0
102
RTVSPost2010PropOp31
 70
     1
102
RTVSPost2010Prop32
280
     0
102
RTVSPost2010PropOp32
 70
     1
102
RTVSPost2010Prop33
280
     0
102
RTVSPost2010PropOp33
 70
     1
102
RTVSPost2010Prop34
280
     0
102
RTVSPost2010PropOp34
 70
     1
102
RTVSPost2010Prop35
280
     0
102
RTVSPost2010PropOp35
 70
     1
102
RTVSPost2010Prop36
280
     0
102
RTVSPost2010PropOp36
 70
     1
102
RTVSPost2010Prop37
 90
       50
102
RTVSPost2010PropOp37
 70
     1
102
RTVSPost2010Prop38
140
0.0
102
RTVSPost2010PropOp38
 70
     1
102
RTVSPost2010Prop39
140
1.0
102
RTVSPost2010PropOp39
 70
     1
102
RTVSPost2010Prop40
 90
        0
102
RTVSPost2010PropOp40
 70
     1
102
RTVSPost2010Prop41ColorIndex
 90
       18
102
RTVSPost2010Prop41ColorRGB
 90
        0
102
RTVSPost2010PropOp41
 70
     1
102
RTVSPost2010Prop42
 90
       50
102
RTVSPost2010PropOp42
 70
     1
102
RTVSPost2010Prop43
 90
        3
102
RTVSPost2010PropOp43
 70
     1
102
RTVSPost2010Prop44ColorIndex
 90
        5
102
RTVSPost2010Prop44ColorRGB
 90
      255
102
RTVSPost2010PropOp44
 70
     1
102
RTVSPost2010Prop45
280
     0
102
RTVSPost2010PropOp45
 70
     1
102
RTVSPost2010Prop46
 90
       50
102
RTVSPost2010PropOp46
 70
     1
102
RTVSPost2010Prop47
 90
       50
102
RTVSPost2010PropOp47
 70
     1
102
RTVSPost2010Prop48
 90
       50
102
RTVSPost2010PropOp48
 70
     1
102
RTVSPost2010Prop49
280
     0
102
RTVSPost2010PropOp49
 70
     1
102
RTVSPost2010Prop50
 90
       50
102
RTVSPost2010PropOp50
 70
     1
102
RTVSPost2010Prop51ColorIndex
 90
      256
102
RTVSPost2010Prop51ColorRGB
 90
-16777216
102
RTVSPost2010PropOp51
 70
     0
102
RTVSPost2010Prop52
140
1.0
102
RTVSPost2010PropOp52
 70
     0
102
RTVSPost2010Prop53
 90
        2
102
RTVSPost2010PropOp53
 70
     1
102
RTVSPost2010Prop54
  1
strokes_ogs.tif
102
RTVSPost2010PropOp54
 70
     1
102
RTVSPost2010Prop55
280
     0
102
RTVSPost2010PropOp55
 70
     1
102
RTVSPost2010Prop56
140
1.0
102
RTVSPost2010PropOp56
 70
     1
102
RTVSPost2010Prop57
140
1.0
102
RTVSPost2010PropOp57
 70
     1
102
RTVSPropertyOp0
 70
     1
102
RTVSPropertyOp1
 70
     1
102
RTVSPropertyOp2
 70
     1
102
RTVSPropertyOp3
 70
     1
102
RTVSPropertyOp4
 70
     1
102
RTVSPropertyOp5
 70
     1
102
RTVSPropertyOp6
 70
     1
102
RTVSPropertyOp7
 70
     1
102
RTVSPropertyOp8
 70
     1
102
RTVSPropertyOp9
 70
     1
102
RTVSPropertyOp10
 70
     1
102
RTVSPropertyOp11
 70
     1
102
RTVSPropertyOp12
 70
     1
102
RTVSPropertyOp13
 70
     1
102
RTVSPropertyOp14
 70
     1
102
RTVSPropertyOp15
 70
     1
102
RTVSPropertyOp16
 70
     1
102
RTVSPropertyOp17
 70
     1
102
RTVSPropertyOp18
 70
     1
102
RTVSPropertyOp19
 70
     1
102
RTVSPropertyOp20
 70
     1
102
RTVSPropertyOp21
 70
     1
102
RTVSPropertyOp22
 70
     1
102
RTVSPropertyOp23
 70
     1
102
RTVSPropertyOp24
 70
     1
102
RTVSPropertyOp25
 70
     1
102
RTVSPropertyOp26
 70
     1
102
RTVSPropertyOp27
 70
     1
102
RTVSPropertyOp28
 70
     1
102
RTVSPropertyOp29
 70
     1
102
RTVSPropertyOp30
 70
     1
102
RTVSPropertyOp31
 70
     1
102
RTVSPropertyOp32
 70
     1
102
RTVSPropertyOp33
 70
     1
102
RTVSPropertyOp34
 70
     1
102
RTVSPropertyOp35
 70
     1
102
RTVSPropertyOp36
 70
     1
102
RTVSPropertyOp37
 70
     1
102
RTVSPropertyOp38
 70
     1
102
RTVSPropertyOp39
 70
     1
102
RTVSPropertyOp40
 70
     1
102
RTVSPropertyOp41
 70
     1
102
RTVSPropertyOp42
 70
     1
102
RTVSPropertyOp43
 70
     1
102
RTVSPropertyOp44
 70
     1
102
RTVSPropertyOp45
 70
     1
102
RTVSPropertyOp46
 70
     1
102
RTVSPropertyOp47
 70
     1
102
RTVSPropertyOp48
 70
     1
102
RTVSPropertyOp49
 70
     1
102
RTVSPropertyOp50
 70
     1
102
RTVSPropertyOp51
 70
     0
102
RTVSPropertyOp52
 70
     0
102
RTVSPropertyOp53
 70
     1
102
RTVSPropertyOp54
 70
     1
102
RTVSPropertyOp55
 70
     1
102
RTVSPropertyOp56
 70
     1
102
RTVSPropertyOp57
 70
     1
102
RTVSPropertyOp58
 70
     1
102
RTVSPropertyOp59
 70
     1
102
RTVSPropertyOp60
 70
     1
102
RTVSPropertyOp61
 70
     1
102
RTVSPropertyOp62
 70
     1
  0
XRECORD
  5
3E27
102
{ACAD_REACTORS
330
3E26
102
}
330
3E26
100
AcDbXrecord
280
     1
102
RTVSPost2010Prop28
280
     0
102
RTVSPost2010PropOp28
 70
     1
102
RTVSPost2010Prop29
280
     1
102
RTVSPost2010PropOp29
 70
     1
102
RTVSPost2010Prop30
280
     1
102
RTVSPost2010PropOp30
 70
     1
102
RTVSPost2010Prop31
280
     0
102
RTVSPost2010PropOp31
 70
     1
102
RTVSPost2010Prop32
280
     0
102
RTVSPost2010PropOp32
 70
     1
102
RTVSPost2010Prop33
280
     0
102
RTVSPost2010PropOp33
 70
     1
102
RTVSPost2010Prop34
280
     0
102
RTVSPost2010PropOp34
 70
     1
102
RTVSPost2010Prop35
280
     0
102
RTVSPost2010PropOp35
 70
     1
102
RTVSPost2010Prop36
280
     0
102
RTVSPost2010PropOp36
 70
     1
102
RTVSPost2010Prop37
 90
       50
102
RTVSPost2010PropOp37
 70
     1
102
RTVSPost2010Prop38
140
0.0
102
RTVSPost2010PropOp38
 70
     1
102
RTVSPost2010Prop39
140
1.0
102
RTVSPost2010PropOp39
 70
     1
102
RTVSPost2010Prop40
 90
        0
102
RTVSPost2010PropOp40
 70
     1
102
RTVSPost2010Prop41ColorIndex
 90
       18
102
RTVSPost2010Prop41ColorRGB
 90
        0
102
RTVSPost2010PropOp41
 70
     1
102
RTVSPost2010Prop42
 90
       50
102
RTVSPost2010PropOp42
 70
     1
102
RTVSPost2010Prop43
 90
        3
102
RTVSPost2010PropOp43
 70
     1
102
RTVSPost2010Prop44ColorIndex
 90
        5
102
RTVSPost2010Prop44ColorRGB
 90
      255
102
RTVSPost2010PropOp44
 70
     1
102
RTVSPost2010Prop45
280
     0
102
RTVSPost2010PropOp45
 70
     1
102
RTVSPost2010Prop46
 90
       50
102
RTVSPost2010PropOp46
 70
     1
102
RTVSPost2010Prop47
 90
       50
102
RTVSPost2010PropOp47
 70
     1
102
RTVSPost2010Prop48
 90
       50
102
RTVSPost2010PropOp48
 70
     1
102
RTVSPost2010Prop49
280
     0
102
RTVSPost2010PropOp49
 70
     1
102
RTVSPost2010Prop50
 90
       50
102
RTVSPost2010PropOp50
 70
     1
102
RTVSPost2010Prop51ColorIndex
 90
      256
102
RTVSPost2010Prop51ColorRGB
 90
-16777216
102
RTVSPost2010PropOp51
 70
     0
102
RTVSPost2010Prop52
140
1.0
102
RTVSPost2010PropOp52
 70
     0
102
RTVSPost2010Prop53
 90
        2
102
RTVSPost2010PropOp53
 70
     1
102
RTVSPost2010Prop54
  1
strokes_ogs.tif
102
RTVSPost2010PropOp54
 70
     1
102
RTVSPost2010Prop55
280
     0
102
RTVSPost2010PropOp55
 70
     1
102
RTVSPost2010Prop56
140
1.0
102
RTVSPost2010PropOp56
 70
     1
102
RTVSPost2010Prop57
140
1.0
102
RTVSPost2010PropOp57
 70
     1
102
RTVSPropertyOp0
 70
     1
102
RTVSPropertyOp1
 70
     1
102
RTVSPropertyOp2
 70
     1
102
RTVSPropertyOp3
 70
     1
102
RTVSPropertyOp4
 70
     1
102
RTVSPropertyOp5
 70
     1
102
RTVSPropertyOp6
 70
     1
102
RTVSPropertyOp7
 70
     1
102
RTVSPropertyOp8
 70
     1
102
RTVSPropertyOp9
 70
     1
102
RTVSPropertyOp10
 70
     1
102
RTVSPropertyOp11
 70
     1
102
RTVSPropertyOp12
 70
     1
102
RTVSPropertyOp13
 70
     1
102
RTVSPropertyOp14
 70
     1
102
RTVSPropertyOp15
 70
     1
102
RTVSPropertyOp16
 70
     1
102
RTVSPropertyOp17
 70
     1
102
RTVSPropertyOp18
 70
     1
102
RTVSPropertyOp19
 70
     1
102
RTVSPropertyOp20
 70
     1
102
RTVSPropertyOp21
 70
     1
102
RTVSPropertyOp22
 70
     1
102
RTVSPropertyOp23
 70
     1
102
RTVSPropertyOp24
 70
     1
102
RTVSPropertyOp25
 70
     1
102
RTVSPropertyOp26
 70
     1
102
RTVSPropertyOp27
 70
     1
102
RTVSPropertyOp28
 70
     1
102
RTVSPropertyOp29
 70
     1
102
RTVSPropertyOp30
 70
     1
102
RTVSPropertyOp31
 70
     1
102
RTVSPropertyOp32
 70
     1
102
RTVSPropertyOp33
 70
     1
102
RTVSPropertyOp34
 70
     1
102
RTVSPropertyOp35
 70
     1
102
RTVSPropertyOp36
 70
     1
102
RTVSPropertyOp37
 70
     1
102
RTVSPropertyOp38
 70
     1
102
RTVSPropertyOp39
 70
     1
102
RTVSPropertyOp40
 70
     1
102
RTVSPropertyOp41
 70
     1
102
RTVSPropertyOp42
 70
     1
102
RTVSPropertyOp43
 70
     1
102
RTVSPropertyOp44
 70
     1
102
RTVSPropertyOp45
 70
     1
102
RTVSPropertyOp46
 70
     1
102
RTVSPropertyOp47
 70
     1
102
RTVSPropertyOp48
 70
     1
102
RTVSPropertyOp49
 70
     1
102
RTVSPropertyOp50
 70
     1
102
RTVSPropertyOp51
 70
     0
102
RTVSPropertyOp52
 70
     0
102
RTVSPropertyOp53
 70
     1
102
RTVSPropertyOp54
 70
     1
102
RTVSPropertyOp55
 70
     1
102
RTVSPropertyOp56
 70
     1
102
RTVSPropertyOp57
 70
     1
102
RTVSPropertyOp58
 70
     1
102
RTVSPropertyOp59
 70
     1
102
RTVSPropertyOp60
 70
     1
102
RTVSPropertyOp61
 70
     1
102
RTVSPropertyOp62
 70
     1
  0
XRECORD
  5
3E1B
102
{ACAD_REACTORS
330
3E1A
102
}
330
3E1A
100
AcDbXrecord
280
     1
102
RTVSPost2010Prop28
280
     0
102
RTVSPost2010PropOp28
 70
     1
102
RTVSPost2010Prop29
280
     1
102
RTVSPost2010PropOp29
 70
     1
102
RTVSPost2010Prop30
280
     1
102
RTVSPost2010PropOp30
 70
     1
102
RTVSPost2010Prop31
280
     0
102
RTVSPost2010PropOp31
 70
     1
102
RTVSPost2010Prop32
280
     0
102
RTVSPost2010PropOp32
 70
     1
102
RTVSPost2010Prop33
280
     0
102
RTVSPost2010PropOp33
 70
     1
102
RTVSPost2010Prop34
280
     0
102
RTVSPost2010PropOp34
 70
     1
102
RTVSPost2010Prop35
280
     0
102
RTVSPost2010PropOp35
 70
     1
102
RTVSPost2010Prop36
280
     0
102
RTVSPost2010PropOp36
 70
     1
102
RTVSPost2010Prop37
 90
       50
102
RTVSPost2010PropOp37
 70
     1
102
RTVSPost2010Prop38
140
0.0
102
RTVSPost2010PropOp38
 70
     1
102
RTVSPost2010Prop39
140
1.0
102
RTVSPost2010PropOp39
 70
     1
102
RTVSPost2010Prop40
 90
        0
102
RTVSPost2010PropOp40
 70
     1
102
RTVSPost2010Prop41ColorIndex
 90
       18
102
RTVSPost2010Prop41ColorRGB
 90
        0
102
RTVSPost2010PropOp41
 70
     1
102
RTVSPost2010Prop42
 90
       50
102
RTVSPost2010PropOp42
 70
     1
102
RTVSPost2010Prop43
 90
        3
102
RTVSPost2010PropOp43
 70
     1
102
RTVSPost2010Prop44ColorIndex
 90
        5
102
RTVSPost2010Prop44ColorRGB
 90
      255
102
RTVSPost2010PropOp44
 70
     1
102
RTVSPost2010Prop45
280
     0
102
RTVSPost2010PropOp45
 70
     1
102
RTVSPost2010Prop46
 90
       50
102
RTVSPost2010PropOp46
 70
     1
102
RTVSPost2010Prop47
 90
       50
102
RTVSPost2010PropOp47
 70
     1
102
RTVSPost2010Prop48
 90
       50
102
RTVSPost2010PropOp48
 70
     1
102
RTVSPost2010Prop49
280
     0
102
RTVSPost2010PropOp49
 70
     1
102
RTVSPost2010Prop50
 90
       50
102
RTVSPost2010PropOp50
 70
     1
102
RTVSPost2010Prop51ColorIndex
 90
      256
102
RTVSPost2010Prop51ColorRGB
 90
-16777216
102
RTVSPost2010PropOp51
 70
     0
102
RTVSPost2010Prop52
140
1.0
102
RTVSPost2010PropOp52
 70
     0
102
RTVSPost2010Prop53
 90
        2
102
RTVSPost2010PropOp53
 70
     1
102
RTVSPost2010Prop54
  1
strokes_ogs.tif
102
RTVSPost2010PropOp54
 70
     1
102
RTVSPost2010Prop55
280
     0
102
RTVSPost2010PropOp55
 70
     1
102
RTVSPost2010Prop56
140
1.0
102
RTVSPost2010PropOp56
 70
     1
102
RTVSPost2010Prop57
140
1.0
102
RTVSPost2010PropOp57
 70
     1
102
RTVSPropertyOp0
 70
     1
102
RTVSPropertyOp1
 70
     1
102
RTVSPropertyOp2
 70
     1
102
RTVSPropertyOp3
 70
     1
102
RTVSPropertyOp4
 70
     1
102
RTVSPropertyOp5
 70
     1
102
RTVSPropertyOp6
 70
     1
102
RTVSPropertyOp7
 70
     1
102
RTVSPropertyOp8
 70
     1
102
RTVSPropertyOp9
 70
     1
102
RTVSPropertyOp10
 70
     1
102
RTVSPropertyOp11
 70
     1
102
RTVSPropertyOp12
 70
     1
102
RTVSPropertyOp13
 70
     1
102
RTVSPropertyOp14
 70
     1
102
RTVSPropertyOp15
 70
     1
102
RTVSPropertyOp16
 70
     1
102
RTVSPropertyOp17
 70
     1
102
RTVSPropertyOp18
 70
     1
102
RTVSPropertyOp19
 70
     1
102
RTVSPropertyOp20
 70
     1
102
RTVSPropertyOp21
 70
     1
102
RTVSPropertyOp22
 70
     1
102
RTVSPropertyOp23
 70
     1
102
RTVSPropertyOp24
 70
     1
102
RTVSPropertyOp25
 70
     1
102
RTVSPropertyOp26
 70
     1
102
RTVSPropertyOp27
 70
     1
102
RTVSPropertyOp28
 70
     1
102
RTVSPropertyOp29
 70
     1
102
RTVSPropertyOp30
 70
     1
102
RTVSPropertyOp31
 70
     1
102
RTVSPropertyOp32
 70
     1
102
RTVSPropertyOp33
 70
     1
102
RTVSPropertyOp34
 70
     1
102
RTVSPropertyOp35
 70
     1
102
RTVSPropertyOp36
 70
     1
102
RTVSPropertyOp37
 70
     1
102
RTVSPropertyOp38
 70
     1
102
RTVSPropertyOp39
 70
     1
102
RTVSPropertyOp40
 70
     1
102
RTVSPropertyOp41
 70
     1
102
RTVSPropertyOp42
 70
     1
102
RTVSPropertyOp43
 70
     1
102
RTVSPropertyOp44
 70
     1
102
RTVSPropertyOp45
 70
     1
102
RTVSPropertyOp46
 70
     1
102
RTVSPropertyOp47
 70
     1
102
RTVSPropertyOp48
 70
     1
102
RTVSPropertyOp49
 70
     1
102
RTVSPropertyOp50
 70
     1
102
RTVSPropertyOp51
 70
     0
102
RTVSPropertyOp52
 70
     0
102
RTVSPropertyOp53
 70
     1
102
RTVSPropertyOp54
 70
     1
102
RTVSPropertyOp55
 70
     1
102
RTVSPropertyOp56
 70
     1
102
RTVSPropertyOp57
 70
     1
102
RTVSPropertyOp58
 70
     1
102
RTVSPropertyOp59
 70
     1
102
RTVSPropertyOp60
 70
     1
102
RTVSPropertyOp61
 70
     1
102
RTVSPropertyOp62
 70
     1
  0
XRECORD
  5
3E33
102
{ACAD_REACTORS
330
3E32
102
}
330
3E32
100
AcDbXrecord
280
     1
102
RTVSPost2010Prop28
280
     0
102
RTVSPost2010PropOp28
 70
     1
102
RTVSPost2010Prop29
280
     1
102
RTVSPost2010PropOp29
 70
     1
102
RTVSPost2010Prop30
280
     1
102
RTVSPost2010PropOp30
 70
     1
102
RTVSPost2010Prop31
280
     0
102
RTVSPost2010PropOp31
 70
     1
102
RTVSPost2010Prop32
280
     0
102
RTVSPost2010PropOp32
 70
     1
102
RTVSPost2010Prop33
280
     0
102
RTVSPost2010PropOp33
 70
     1
102
RTVSPost2010Prop34
280
     0
102
RTVSPost2010PropOp34
 70
     1
102
RTVSPost2010Prop35
280
     0
102
RTVSPost2010PropOp35
 70
     1
102
RTVSPost2010Prop36
280
     0
102
RTVSPost2010PropOp36
 70
     1
102
RTVSPost2010Prop37
 90
       50
102
RTVSPost2010PropOp37
 70
     1
102
RTVSPost2010Prop38
140
0.0
102
RTVSPost2010PropOp38
 70
     1
102
RTVSPost2010Prop39
140
1.0
102
RTVSPost2010PropOp39
 70
     1
102
RTVSPost2010Prop40
 90
        0
102
RTVSPost2010PropOp40
 70
     1
102
RTVSPost2010Prop41ColorIndex
 90
       18
102
RTVSPost2010Prop41ColorRGB
 90
        0
102
RTVSPost2010PropOp41
 70
     1
102
RTVSPost2010Prop42
 90
       50
102
RTVSPost2010PropOp42
 70
     1
102
RTVSPost2010Prop43
 90
        3
102
RTVSPost2010PropOp43
 70
     1
102
RTVSPost2010Prop44ColorIndex
 90
        5
102
RTVSPost2010Prop44ColorRGB
 90
      255
102
RTVSPost2010PropOp44
 70
     1
102
RTVSPost2010Prop45
280
     0
102
RTVSPost2010PropOp45
 70
     1
102
RTVSPost2010Prop46
 90
       50
102
RTVSPost2010PropOp46
 70
     1
102
RTVSPost2010Prop47
 90
       50
102
RTVSPost2010PropOp47
 70
     1
102
RTVSPost2010Prop48
 90
       50
102
RTVSPost2010PropOp48
 70
     1
102
RTVSPost2010Prop49
280
     0
102
RTVSPost2010PropOp49
 70
     1
102
RTVSPost2010Prop50
 90
       50
102
RTVSPost2010PropOp50
 70
     1
102
RTVSPost2010Prop51ColorIndex
 90
      256
102
RTVSPost2010Prop51ColorRGB
 90
-16777216
102
RTVSPost2010PropOp51
 70
     0
102
RTVSPost2010Prop52
140
1.0
102
RTVSPost2010PropOp52
 70
     0
102
RTVSPost2010Prop53
 90
        2
102
RTVSPost2010PropOp53
 70
     1
102
RTVSPost2010Prop54
  1
strokes_ogs.tif
102
RTVSPost2010PropOp54
 70
     1
102
RTVSPost2010Prop55
280
     0
102
RTVSPost2010PropOp55
 70
     1
102
RTVSPost2010Prop56
140
1.0
102
RTVSPost2010PropOp56
 70
     1
102
RTVSPost2010Prop57
140
1.0
102
RTVSPost2010PropOp57
 70
     1
102
RTVSPropertyOp0
 70
     1
102
RTVSPropertyOp1
 70
     1
102
RTVSPropertyOp2
 70
     1
102
RTVSPropertyOp3
 70
     1
102
RTVSPropertyOp4
 70
     1
102
RTVSPropertyOp5
 70
     1
102
RTVSPropertyOp6
 70
     1
102
RTVSPropertyOp7
 70
     1
102
RTVSPropertyOp8
 70
     1
102
RTVSPropertyOp9
 70
     1
102
RTVSPropertyOp10
 70
     1
102
RTVSPropertyOp11
 70
     1
102
RTVSPropertyOp12
 70
     1
102
RTVSPropertyOp13
 70
     1
102
RTVSPropertyOp14
 70
     1
102
RTVSPropertyOp15
 70
     1
102
RTVSPropertyOp16
 70
     1
102
RTVSPropertyOp17
 70
     1
102
RTVSPropertyOp18
 70
     1
102
RTVSPropertyOp19
 70
     1
102
RTVSPropertyOp20
 70
     1
102
RTVSPropertyOp21
 70
     1
102
RTVSPropertyOp22
 70
     1
102
RTVSPropertyOp23
 70
     1
102
RTVSPropertyOp24
 70
     1
102
RTVSPropertyOp25
 70
     1
102
RTVSPropertyOp26
 70
     1
102
RTVSPropertyOp27
 70
     1
102
RTVSPropertyOp28
 70
     1
102
RTVSPropertyOp29
 70
     1
102
RTVSPropertyOp30
 70
     1
102
RTVSPropertyOp31
 70
     1
102
RTVSPropertyOp32
 70
     1
102
RTVSPropertyOp33
 70
     1
102
RTVSPropertyOp34
 70
     1
102
RTVSPropertyOp35
 70
     1
102
RTVSPropertyOp36
 70
     1
102
RTVSPropertyOp37
 70
     1
102
RTVSPropertyOp38
 70
     1
102
RTVSPropertyOp39
 70
     1
102
RTVSPropertyOp40
 70
     1
102
RTVSPropertyOp41
 70
     1
102
RTVSPropertyOp42
 70
     1
102
RTVSPropertyOp43
 70
     1
102
RTVSPropertyOp44
 70
     1
102
RTVSPropertyOp45
 70
     1
102
RTVSPropertyOp46
 70
     1
102
RTVSPropertyOp47
 70
     1
102
RTVSPropertyOp48
 70
     1
102
RTVSPropertyOp49
 70
     1
102
RTVSPropertyOp50
 70
     1
102
RTVSPropertyOp51
 70
     0
102
RTVSPropertyOp52
 70
     0
102
RTVSPropertyOp53
 70
     1
102
RTVSPropertyOp54
 70
     1
102
RTVSPropertyOp55
 70
     1
102
RTVSPropertyOp56
 70
     1
102
RTVSPropertyOp57
 70
     1
102
RTVSPropertyOp58
 70
     1
102
RTVSPropertyOp59
 70
     1
102
RTVSPropertyOp60
 70
     1
102
RTVSPropertyOp61
 70
     1
102
RTVSPropertyOp62
 70
     1
  0
ENDSEC
  0
EOF
