  0
SECTION
  2
HEADER
  9
$ACADVER
  1
AC1015
  9
$ACADMAINTVER
 70
    20
  9
$DWGCODEPAGE
  3
ANSI_932
  9
$INSBASE
 10
0.0
 20
0.0
 30
0.0
  9
$EXTMIN
 10
9.999999064246818
 20
9.999999806846743
 30
0.0
  9
$EXTMAX
 10
838.2476805878207
 20
510.2028779019026
 30
0.0
  9
$LIMMIN
 10
0.0000015376081137
 20
-0.0000001931532552
  9
$LIMMAX
 10
892.000001537608
 20
614.9393937462405
  9
$ORTHOMODE
 70
     0
  9
$REGENMODE
 70
     1
  9
$FILLMODE
 70
     1
  9
$QTEXTMODE
 70
     0
  9
$MIRRTEXT
 70
     1
  9
$LTSCALE
 40
1.0
  9
$ATTMODE
 70
     1
  9
$TEXTSIZE
 40
2.5
  9
$TRACEWID
 40
1.0
  9
$TEXTSTYLE
  7
STANDARD
  9
$CLAYER
  8
0
  9
$CELTYPE
  6
BYLAYER
  9
$CECOLOR
 62
   256
  9
$CELTSCALE
 40
1.0
  9
$DISPSILH
 70
     0
  9
$DIMSCALE
 40
1.0
  9
$DIMASZ
 40
3.0
  9
$DIMEXO
 40
1.0
  9
$DIMDLI
 40
10.0
  9
$DIMRND
 40
0.0
  9
$DIMDLE
 40
0.0
  9
$DIMEXE
 40
1.0
  9
$DIMTP
 40
0.0
  9
$DIMTM
 40
0.0
  9
$DIMTXT
 40
3.2
  9
$DIMCEN
 40
0.0
  9
$DIMTSZ
 40
0.0
  9
$DIMTOL
 70
     0
  9
$DIMLIM
 70
     0
  9
$DIMTIH
 70
     0
  9
$DIMTOH
 70
     0
  9
$DIMSE1
 70
     0
  9
$DIMSE2
 70
     0
  9
$DIMTAD
 70
     3
  9
$DIMZIN
 70
     8
  9
$DIMBLK
  1

  9
$DIMASO
 70
     1
  9
$DIMSHO
 70
     1
  9
$DIMPOST
  1

  9
$DIMAPOST
  1

  9
$DIMALT
 70
     0
  9
$DIMALTD
 70
     2
  9
$DIMALTF
 40
25.4
  9
$DIMLFAC
 40
1.0
  9
$DIMTOFL
 70
     1
  9
$DIMTVP
 40
0.0
  9
$DIMTIX
 70
     0
  9
$DIMSOXD
 70
     0
  9
$DIMSAH
 70
     1
  9
$DIMBLK1
  1
OPEN
  9
$DIMBLK2
  1
OPEN
  9
$DIMSTYLE
  2
STANDARD
  9
$DIMCLRD
 70
     0
  9
$DIMCLRE
 70
     0
  9
$DIMCLRT
 70
     0
  9
$DIMTFAC
 40
1.0
  9
$DIMGAP
 40
1.0
  9
$DIMJUST
 70
     0
  9
$DIMSD1
 70
     0
  9
$DIMSD2
 70
     0
  9
$DIMTOLJ
 70
     1
  9
$DIMTZIN
 70
     0
  9
$DIMALTZ
 70
     0
  9
$DIMALTTZ
 70
     0
  9
$DIMUPT
 70
     0
  9
$DIMDEC
 70
     4
  9
$DIMTDEC
 70
     4
  9
$DIMALTU
 70
     2
  9
$DIMALTTD
 70
     2
  9
$DIMTXSTY
  7
STANDARD
  9
$DIMAUNIT
 70
     0
  9
$DIMADEC
 70
     0
  9
$DIMALTRND
 40
0.0
  9
$DIMAZIN
 70
     0
  9
$DIMDSEP
 70
    46
  9
$DIMATFIT
 70
     3
  9
$DIMFRAC
 70
     0
  9
$DIMLDRBLK
  1
OPEN
  9
$DIMLUNIT
 70
     2
  9
$DIMLWD
 70
    -2
  9
$DIMLWE
 70
    -2
  9
$DIMTMOVE
 70
     0
  9
$LUNITS
 70
     2
  9
$LUPREC
 70
     4
  9
$SKETCHINC
 40
1.0
  9
$FILLETRAD
 40
0.0
  9
$AUNITS
 70
     0
  9
$AUPREC
 70
     0
  9
$MENU
  1
.
  9
$ELEVATION
 40
0.0
  9
$PELEVATION
 40
0.0
  9
$THICKNESS
 40
0.0
  9
$LIMCHECK
 70
     0
  9
$CHAMFERA
 40
10.0
  9
$CHAMFERB
 40
10.0
  9
$CHAMFERC
 40
20.0
  9
$CHAMFERD
 40
0.0
  9
$SKPOLY
 70
     0
  9
$TDCREATE
 40
2453276.608713646
  9
$TDUCREATE
 40
2453276.233713646
  9
$TDUPDATE
 40
2457192.691162257
  9
$TDUUPDATE
 40
2457192.316162257
  9
$TDINDWG
 40
0.2059640509
  9
$TDUSRTIMER
 40
0.2059640278
  9
$USRTIMER
 70
     1
  9
$ANGBASE
 50
0.0
  9
$ANGDIR
 70
     0
  9
$PDMODE
 70
     0
  9
$PDSIZE
 40
0.0
  9
$PLINEWID
 40
0.0
  9
$SPLFRAME
 70
     0
  9
$SPLINETYPE
 70
     6
  9
$SPLINESEGS
 70
     8
  9
$HANDSEED
  5
D3F
  9
$SURFTAB1
 70
     6
  9
$SURFTAB2
 70
     6
  9
$SURFTYPE
 70
     6
  9
$SURFU
 70
     6
  9
$SURFV
 70
     6
  9
$UCSBASE
  2

  9
$UCSNAME
  2

  9
$UCSORG
 10
0.0
 20
0.0
 30
0.0
  9
$UCSXDIR
 10
1.0
 20
0.0
 30
0.0
  9
$UCSYDIR
 10
0.0
 20
1.0
 30
0.0
  9
$UCSORTHOREF
  2

  9
$UCSORTHOVIEW
 70
     0
  9
$UCSORGTOP
 10
0.0
 20
0.0
 30
0.0
  9
$UCSORGBOTTOM
 10
0.0
 20
0.0
 30
0.0
  9
$UCSORGLEFT
 10
0.0
 20
0.0
 30
0.0
  9
$UCSORGRIGHT
 10
0.0
 20
0.0
 30
0.0
  9
$UCSORGFRONT
 10
0.0
 20
0.0
 30
0.0
  9
$UCSORGBACK
 10
0.0
 20
0.0
 30
0.0
  9
$PUCSBASE
  2

  9
$PUCSNAME
  2

  9
$PUCSORG
 10
0.0
 20
0.0
 30
0.0
  9
$PUCSXDIR
 10
1.0
 20
0.0
 30
0.0
  9
$PUCSYDIR
 10
0.0
 20
1.0
 30
0.0
  9
$PUCSORTHOREF
  2

  9
$PUCSORTHOVIEW
 70
     0
  9
$PUCSORGTOP
 10
0.0
 20
0.0
 30
0.0
  9
$PUCSORGBOTTOM
 10
0.0
 20
0.0
 30
0.0
  9
$PUCSORGLEFT
 10
0.0
 20
0.0
 30
0.0
  9
$PUCSORGRIGHT
 10
0.0
 20
0.0
 30
0.0
  9
$PUCSORGFRONT
 10
0.0
 20
0.0
 30
0.0
  9
$PUCSORGBACK
 10
0.0
 20
0.0
 30
0.0
  9
$USERI1
 70
     0
  9
$USERI2
 70
     0
  9
$USERI3
 70
     0
  9
$USERI4
 70
     0
  9
$USERI5
 70
     0
  9
$USERR1
 40
0.0
  9
$USERR2
 40
0.0
  9
$USERR3
 40
0.0
  9
$USERR4
 40
0.0
  9
$USERR5
 40
0.0
  9
$WORLDVIEW
 70
     1
  9
$SHADEDGE
 70
     3
  9
$SHADEDIF
 70
    70
  9
$TILEMODE
 70
     1
  9
$MAXACTVP
 70
    48
  9
$PINSBASE
 10
0.0
 20
0.0
 30
0.0
  9
$PLIMCHECK
 70
     0
  9
$PEXTMIN
 10
1.000000000000000E+20
 20
1.000000000000000E+20
 30
1.000000000000000E+20
  9
$PEXTMAX
 10
-1.000000000000000E+20
 20
-1.000000000000000E+20
 30
-1.000000000000000E+20
  9
$PLIMMIN
 10
0.0
 20
0.0
  9
$PLIMMAX
 10
420.0
 20
297.0
  9
$UNITMODE
 70
     0
  9
$VISRETAIN
 70
     1
  9
$PLINEGEN
 70
     0
  9
$PSLTSCALE
 70
     1
  9
$TREEDEPTH
 70
  3020
  9
$CMLSTYLE
  2
STANDARD
  9
$CMLJUST
 70
     0
  9
$CMLSCALE
 40
20.0
  9
$PROXYGRAPHICS
 70
     1
  9
$MEASUREMENT
 70
     0
  9
$CELWEIGHT
370
    -1
  9
$ENDCAPS
280
     0
  9
$JOINSTYLE
280
     0
  9
$LWDISPLAY
290
     0
  9
$INSUNITS
 70
     0
  9
$HYPERLINKBASE
  1

  9
$STYLESHEET
  1

  9
$XEDIT
290
     1
  9
$CEPSNTYPE
380
     0
  9
$PSTYLEMODE
290
     1
  9
$FINGERPRINTGUID
  2
{ADF3D8E2-9C05-4D38-9F31-0E34B30B2B58}
  9
$VERSIONGUID
  2
{CE467748-FE15-47EC-887C-85603014497F}
  9
$EXTNAMES
290
     1
  9
$PSVPSCALE
 40
0.0
  9
$OLESTARTUP
290
     0
  0
ENDSEC
  0
SECTION
  2
CLASSES
  0
CLASS
  1
ACDBDICTIONARYWDFLT
  2
AcDbDictionaryWithDefault
  3
ObjectDBX Classes
 90
        0
280
     0
281
     0
  0
CLASS
  1
ACDBPLACEHOLDER
  2
AcDbPlaceHolder
  3
ObjectDBX Classes
 90
        0
280
     0
281
     0
  0
CLASS
  1
LAYOUT
  2
AcDbLayout
  3
ObjectDBX Classes
 90
        0
280
     0
281
     0
  0
CLASS
  1
DICTIONARYVAR
  2
AcDbDictionaryVar
  3
ObjectDBX Classes
 90
        0
280
     0
281
     0
  0
CLASS
  1
MATERIAL
  2
AcDbMaterial
  3
ObjectDBX Classes
 90
     1153
280
     0
281
     0
  0
CLASS
  1
VISUALSTYLE
  2
AcDbVisualStyle
  3
ObjectDBX Classes
 90
     4095
280
     0
281
     0
  0
CLASS
  1
TABLESTYLE
  2
AcDbTableStyle
  3
ObjectDBX Classes
 90
     4095
280
     0
281
     0
  0
CLASS
  1
SCALE
  2
AcDbScale
  3
ObjectDBX Classes
 90
     1153
280
     0
281
     0
  0
CLASS
  1
MLEADERSTYLE
  2
AcDbMLeaderStyle
  3
ACDB_MLEADERSTYLE_CLASS
 90
     4095
280
     0
281
     0
  0
CLASS
  1
ACDBSECTIONVIEWSTYLE
  2
AcDbSectionViewStyle
  3
ObjectDBX Classes
 90
     1025
280
     0
281
     0
  0
CLASS
  1
ACDBDETAILVIEWSTYLE
  2
AcDbDetailViewStyle
  3
ObjectDBX Classes
 90
     1025
280
     0
281
     0
  0
CLASS
  1
CELLSTYLEMAP
  2
AcDbCellStyleMap
  3
ObjectDBX Classes
 90
     1152
280
     0
281
     0
  0
ENDSEC
  0
SECTION
  2
TABLES
  0
TABLE
  2
VPORT
  5
8
330
0
100
AcDbSymbolTable
 70
     1
  0
VPORT
  5
C8B
330
8
100
AcDbSymbolTableRecord
100
AcDbViewportTableRecord
  2
*ACTIVE
 70
     0
 10
0.0
 20
0.0
 11
1.0
 21
1.0
 12
624.5143214581095
 22
260.1078422127892
 13
0.0
 23
0.0
 14
10.0
 24
10.0
 15
10.0
 25
10.0
 16
0.0
 26
0.0
 36
1.0
 17
0.0
 27
0.0
 37
0.0
 40
524.7500990680594
 41
2.35006605019815
 42
50.0
 43
0.0
 44
0.0
 50
0.0
 51
0.0
 71
     0
 72
   100
 73
     1
 74
     0
 75
     0
 76
     0
 77
     0
 78
     0
281
     0
 65
     1
110
0.0
120
0.0
130
0.0
111
1.0
121
0.0
131
0.0
112
0.0
122
1.0
132
0.0
 79
     0
146
0.0
1001
ACAD_NAV_VCDISPLAY
1070
     3
  0
ENDTAB
  0
TABLE
  2
LTYPE
  5
5
330
0
100
AcDbSymbolTable
 70
     4
  0
LTYPE
  5
12
330
5
100
AcDbSymbolTableRecord
100
AcDbLinetypeTableRecord
  2
BYBLOCK
 70
     0
  3

 72
    65
 73
     0
 40
0.0
  0
LTYPE
  5
13
330
5
100
AcDbSymbolTableRecord
100
AcDbLinetypeTableRecord
  2
BYLAYER
 70
     0
  3

 72
    65
 73
     0
 40
0.0
  0
LTYPE
  5
14
330
5
100
AcDbSymbolTableRecord
100
AcDbLinetypeTableRecord
  2
CONTINUOUS
 70
     0
  3
Solid line
 72
    65
 73
     0
 40
0.0
  0
LTYPE
  5
62
330
5
100
AcDbSymbolTableRecord
100
AcDbLinetypeTableRecord
  2
DASHED
 70
     0
  3
Dashed __ __ __ __ __ __ __ __ __ __ __ __ __ _
 72
    65
 73
     2
 40
19.04999999999998
 49
12.7
 74
     0
 49
-6.349999999999997
 74
     0
  0
LTYPE
  5
63
330
5
100
AcDbSymbolTableRecord
100
AcDbLinetypeTableRecord
  2
CENTER
 70
     0
  3
Center ____ _ ____ _ ____ _ ____ _ ____ _ ____
 72
    65
 73
     4
 40
50.8
 49
31.75
 74
     0
 49
-6.349999999999997
 74
     0
 49
6.349999999999997
 74
     0
 49
-6.349999999999997
 74
     0
  0
LTYPE
  5
64
330
5
100
AcDbSymbolTableRecord
100
AcDbLinetypeTableRecord
  2
PHANTOM
 70
     0
  3
Phantom ______  __  __  ______  __  __  ______
 72
    65
 73
     6
 40
63.5
 49
31.75
 74
     0
 49
-6.349999999999997
 74
     0
 49
6.349999999999997
 74
     0
 49
-6.349999999999997
 74
     0
 49
6.349999999999997
 74
     0
 49
-6.349999999999997
 74
     0
  0
ENDTAB
  0
TABLE
  2
LAYER
  5
2
330
0
100
AcDbSymbolTable
 70
     8
  0
LAYER
  5
E
102
{ACAD_XDICTIONARY
360
CE3
102
}
330
2
100
AcDbSymbolTableRecord
100
AcDbLayerTableRecord
  2
0
 70
     0
 62
     7
  6
CONTINUOUS
370
    -3
390
C92
  0
LAYER
  5
65
102
{ACAD_XDICTIONARY
360
CE5
102
}
330
2
100
AcDbSymbolTableRecord
100
AcDbLayerTableRecord
  2
4
 70
     0
 62
     1
  6
CENTER
370
    -3
390
C92
  0
LAYER
  5
66
102
{ACAD_XDICTIONARY
360
CE7
102
}
330
2
100
AcDbSymbolTableRecord
100
AcDbLayerTableRecord
  2
5
 70
     0
 62
     6
  6
PHANTOM
370
    -3
390
C92
  0
LAYER
  5
67
102
{ACAD_XDICTIONARY
360
CE9
102
}
330
2
100
AcDbSymbolTableRecord
100
AcDbLayerTableRecord
  2
1
 70
     0
 62
     7
  6
CONTINUOUS
370
    -3
390
C92
  0
LAYER
  5
68
102
{ACAD_XDICTIONARY
360
CEB
102
}
330
2
100
AcDbSymbolTableRecord
100
AcDbLayerTableRecord
  2
2
 70
     0
 62
     4
  6
CONTINUOUS
370
    -3
390
C92
  0
LAYER
  5
69
102
{ACAD_XDICTIONARY
360
CED
102
}
330
2
100
AcDbSymbolTableRecord
100
AcDbLayerTableRecord
  2
3
 70
     0
 62
     2
  6
DASHED
370
    -3
390
C92
  0
LAYER
  5
6A
102
{ACAD_XDICTIONARY
360
CEF
102
}
330
2
100
AcDbSymbolTableRecord
100
AcDbLayerTableRecord
  2
6
 70
     0
 62
     5
  6
CONTINUOUS
370
    -3
390
C92
  0
LAYER
  5
6B
102
{ACAD_XDICTIONARY
360
CF1
102
}
330
2
100
AcDbSymbolTableRecord
100
AcDbLayerTableRecord
  2
7
 70
     0
 62
     3
  6
CONTINUOUS
370
    -3
390
C92
  0
ENDTAB
  0
TABLE
  2
STYLE
  5
3
330
0
100
AcDbSymbolTable
 70
     1
  0
STYLE
  5
F
330
3
100
AcDbSymbolTableRecord
100
AcDbTextStyleTableRecord
  2
STANDARD
 70
     0
 40
0.0
 41
1.0
 50
0.0
 71
     0
 42
2.5
  3
simplex.shx
  4

  0
ENDTAB
  0
TABLE
  2
VIEW
  5
6
330
0
100
AcDbSymbolTable
 70
     0
  0
ENDTAB
  0
TABLE
  2
UCS
  5
7
330
0
100
AcDbSymbolTable
 70
     0
  0
ENDTAB
  0
TABLE
  2
APPID
  5
9
330
0
100
AcDbSymbolTable
 70
     5
  0
APPID
  5
10
330
9
100
AcDbSymbolTableRecord
100
AcDbRegAppTableRecord
  2
ACAD
 70
     0
  0
APPID
  5
3E
330
9
100
AcDbSymbolTableRecord
100
AcDbRegAppTableRecord
  2
CONTENTTABDATA
 70
     0
  0
APPID
  5
3F
330
9
100
AcDbSymbolTableRecord
100
AcDbRegAppTableRecord
  2
CONTENTCURRENTTAB
 70
     0
  0
APPID
  5
CFD
330
9
100
AcDbSymbolTableRecord
100
AcDbRegAppTableRecord
  2
ACAD_NAV_VCDISPLAY
 70
     0
  0
APPID
  5
D36
330
9
100
AcDbSymbolTableRecord
100
AcDbRegAppTableRecord
  2
ACAD_MLEADERVER
 70
     0
  0
ENDTAB
  0
TABLE
  2
DIMSTYLE
  5
A
330
0
100
AcDbSymbolTable
 70
     1
100
AcDbDimStyleTable
 71
     0
  0
DIMSTYLE
105
1D
330
A
100
AcDbSymbolTableRecord
100
AcDbDimStyleTableRecord
  2
STANDARD
 70
     0
 41
3.0
 42
1.0
 43
10.0
 44
1.0
 73
     0
 74
     0
 77
     3
 78
     8
140
3.2
141
0.0
147
1.0
172
     1
173
     1
340
F
341
2E
343
2E
344
2E
  0
ENDTAB
  0
TABLE
  2
BLOCK_RECORD
  5
1
330
0
100
AcDbSymbolTable
 70
     1
  0
BLOCK_RECORD
  5
18
102
{ACAD_XDICTIONARY
360
C78
102
}
330
1
100
AcDbSymbolTableRecord
100
AcDbBlockTableRecord
  2
*MODEL_SPACE
340
CE0
  0
BLOCK_RECORD
  5
15
102
{ACAD_XDICTIONARY
360
C76
102
}
330
1
100
AcDbSymbolTableRecord
100
AcDbBlockTableRecord
  2
*PAPER_SPACE
340
CE1
  0
BLOCK_RECORD
  5
2E
330
1
100
AcDbSymbolTableRecord
100
AcDbBlockTableRecord
  2
_OPEN
340
0
  0
ENDTAB
  0
ENDSEC
  0
SECTION
  2
BLOCKS
  0
BLOCK
  5
19
330
18
100
AcDbEntity
  8
0
100
AcDbBlockBegin
  2
*MODEL_SPACE
 70
     0
 10
0.0
 20
0.0
 30
0.0
  3
*MODEL_SPACE
  1

  0
ENDBLK
  5
1A
330
18
100
AcDbEntity
  8
0
100
AcDbBlockEnd
  0
BLOCK
  5
16
330
15
100
AcDbEntity
 67
     1
  8
0
100
AcDbBlockBegin
  2
*PAPER_SPACE
 70
     0
 10
0.0
 20
0.0
 30
0.0
  3
*PAPER_SPACE
  1

  0
ENDBLK
  5
17
330
15
100
AcDbEntity
 67
     1
  8
0
100
AcDbBlockEnd
  0
BLOCK
  5
2F
330
2E
100
AcDbEntity
  8
0
100
AcDbBlockBegin
  2
_OPEN
 70
     0
 10
0.0
 20
0.0
 30
0.0
  3
_OPEN
  1

  0
LINE
  5
30
330
2E
100
AcDbEntity
  8
0
  6
ByBlock
 62
     0
100
AcDbLine
 10
-1.0
 20
0.1666666666666666
 30
0.0
 11
0.0
 21
0.0
 31
0.0
  0
LINE
  5
31
330
2E
100
AcDbEntity
  8
0
  6
ByBlock
 62
     0
100
AcDbLine
 10
0.0
 20
0.0
 30
0.0
 11
-1.0
 21
-0.1666666666666666
 31
0.0
  0
LINE
  5
32
330
2E
100
AcDbEntity
  8
0
  6
ByBlock
 62
     0
100
AcDbLine
 10
0.0
 20
0.0
 30
0.0
 11
-1.0
 21
0.0
 31
0.0
  0
ENDBLK
  5
33
330
2E
100
AcDbEntity
  8
0
100
AcDbBlockEnd
  0
ENDSEC
  0
SECTION
  2
ENTITIES
  0
ARC
  5
25A
330
18
100
AcDbEntity
  8
1
  6
Continuous
100
AcDbCircle
 10
257.7418605878208
 20
458.7800579019027
 30
0.0
 40
39.41111
100
AcDbArc
 50
29.17527399999997
 51
150.8247310000001
  0
LINE
  5
25B
330
18
100
AcDbEntity
  8
1
  6
Continuous
100
AcDbLine
 10
273.7627005878207
 20
503.7800579019026
 30
0.0
 11
241.7210205878208
 21
503.7800579019026
 31
0.0
  0
ARC
  5
25C
330
18
100
AcDbEntity
  8
1
  6
Continuous
100
AcDbCircle
 10
257.7418605878208
 20
458.7800579019027
 30
0.0
 40
39.41111
100
AcDbArc
 50
209.1752692817716
 51
330.8247259999999
  0
LINE
  5
25D
330
18
100
AcDbEntity
  8
1
  6
Continuous
100
AcDbLine
 10
207.7418605878208
 20
348.7800579019026
 30
0.0
 11
307.7418605878208
 21
348.7800579019026
 31
0.0
  0
LINE
  5
25E
330
18
100
AcDbEntity
  8
1
  6
Continuous
100
AcDbLine
 10
207.7418605878208
 20
340.7800579019026
 30
0.0
 11
307.7418605878208
 21
340.7800579019026
 31
0.0
  0
ARC
  5
25F
330
18
100
AcDbEntity
  8
1
  6
Continuous
100
AcDbCircle
 10
270.7418605878209
 20
307.7800579019026
 30
0.0
 40
5.0
100
AcDbArc
 50
89.99999600000005
 51
167.2427300000001
  0
ARC
  5
260
330
18
100
AcDbEntity
  8
5
  6
PHANTOM
 48
0.5
100
AcDbCircle
 10
257.8011605878208
 20
302.2835869019027
 30
0.0
 40
9.0
100
AcDbArc
 50
13.65507899999995
 51
90.81063000000007
  0
LINE
  5
261
330
18
100
AcDbEntity
  8
1
  6
Continuous
100
AcDbLine
 10
235.3055305878207
 20
312.7800579019027
 30
0.0
 11
279.8841205878208
 21
312.7800579019027
 31
0.0
  0
ARC
  5
262
330
18
100
AcDbEntity
  8
1
  6
Continuous
100
AcDbCircle
 10
257.7418605878208
 20
302.7800579019026
 30
0.0
 40
13.0
100
AcDbArc
 50
274.40102
 51
18.74123300000003
  0
LINE
  5
263
330
18
100
AcDbEntity
  8
1
  6
Continuous
100
AcDbLine
 10
261.9313905878208
 20
310.6948069019027
 30
0.0
 11
290.9310505878209
 21
297.3472249019026
 31
0.0
  0
ARC
  5
264
330
18
100
AcDbEntity
  8
5
  6
PHANTOM
 48
0.5
100
AcDbCircle
 10
257.7418605878208
 20
302.7800579019026
 30
0.0
 40
13.0
100
AcDbArc
 50
222.7822500000005
 51
327.1053604280674
  0
LINE
  5
265
330
18
100
AcDbEntity
  8
4
  6
CENTER
 48
0.5
100
AcDbLine
 10
247.7418605878208
 20
302.7800579019026
 30
0.0
 11
267.7418605878208
 21
302.7800579019026
 31
0.0
  0
LINE
  5
266
330
18
100
AcDbEntity
  8
1
  6
Continuous
100
AcDbLine
 10
241.7210205878208
 20
413.7800579019026
 30
0.0
 11
273.7627005878207
 21
413.7800579019026
 31
0.0
  0
CIRCLE
  5
267
330
18
100
AcDbEntity
  8
1
  6
Continuous
100
AcDbCircle
 10
257.7418605878208
 20
458.7800579019027
 30
0.0
 40
19.75
  0
ARC
  5
268
330
18
100
AcDbEntity
  8
1
  6
Continuous
100
AcDbCircle
 10
257.7418605878208
 20
458.7800579019027
 30
0.0
 40
16.0
100
AcDbArc
 50
284.4775099999994
 51
75.52248800000025
  0
ARC
  5
269
330
18
100
AcDbEntity
  8
1
  6
Continuous
100
AcDbCircle
 10
257.7418605878208
 20
458.7800579019027
 30
0.0
 40
12.0
100
AcDbArc
 50
289.47122
 51
70.52877900000016
  0
LINE
  5
26A
330
18
100
AcDbEntity
  8
4
  6
CENTER
 48
0.5
100
AcDbLine
 10
390.2342005878208
 20
458.7800579019027
 30
0.0
 11
200.5024305878206
 21
458.7800579019027
 31
0.0
  0
LINE
  5
26B
330
18
100
AcDbEntity
  8
1
  6
Continuous
100
AcDbLine
 10
258.5402905878209
 20
257.7468319019028
 30
0.0
 11
274.7165205878208
 21
260.1118869019028
 31
0.0
  0
LINE
  5
26C
330
18
100
AcDbEntity
  8
5
  6
PHANTOM
 48
0.5
100
AcDbLine
 10
265.8359205878208
 20
238.2194579019027
 30
0.0
 11
267.7569405878208
 21
243.9728219019027
 31
0.0
  0
LINE
  5
26D
330
18
100
AcDbEntity
  8
1
  6
Continuous
100
AcDbLine
 10
276.3418705878208
 20
216.7800579019027
 30
0.0
 11
239.1418505878208
 21
216.7800579019027
 31
0.0
  0
LINE
  5
26E
330
18
100
AcDbEntity
  8
1
  6
Continuous
100
AcDbLine
 10
296.0418505878208
 20
200.7800609019026
 30
0.0
 11
219.441862731418
 21
200.7800609019026
 31
0.0
  0
LINE
  5
26F
330
18
100
AcDbEntity
  8
1
  6
Continuous
100
AcDbLine
 10
294.2418605878208
 20
210.2800609019026
 30
0.0
 11
221.2418605878208
 21
210.2800609019026
 31
0.0
  0
LINE
  5
270
330
18
100
AcDbEntity
  8
1
  6
Continuous
100
AcDbLine
 10
297.7418605878209
 20
203.9800729019026
 30
0.0
 11
217.7418605878208
 21
203.9800729019026
 31
0.0
  0
LINE
  5
271
330
18
100
AcDbEntity
  8
5
  6
PHANTOM
 48
0.5
100
AcDbLine
 10
263.8189905878205
 20
245.5109159019027
 30
0.0
 11
310.2414605878205
 21
227.3791329019025
 31
0.0
  0
LINE
  5
272
330
18
100
AcDbEntity
  8
5
  6
PHANTOM
 48
0.5
100
AcDbLine
 10
297.7418605878209
 20
178.9800549019027
 30
0.0
 11
217.7418605878208
 21
178.9800549019027
 31
0.0
  0
LINE
  5
273
330
18
100
AcDbEntity
  8
5
  6
PHANTOM
 48
0.5
100
AcDbLine
 10
294.2418605878208
 20
185.2800579019026
 30
0.0
 11
221.2418605878208
 21
185.2800579019026
 31
0.0
  0
LINE
  5
274
330
18
100
AcDbEntity
  8
5
  6
PHANTOM
 48
0.5
100
AcDbLine
 10
296.0418605878206
 20
175.7800579019026
 30
0.0
 11
219.4418579083198
 21
175.7800579019026
 31
0.0
  0
LINE
  5
275
330
18
100
AcDbEntity
  8
5
  6
PHANTOM
 48
0.5
100
AcDbLine
 10
244.8418705878208
 20
186.9917579019027
 30
0.0
 11
270.6418505878208
 21
186.9917579019027
 31
0.0
  0
LINE
  5
276
330
18
100
AcDbEntity
  8
4
  6
CENTER
 48
0.5
100
AcDbLine
 10
247.7418605878208
 20
266.3800559019027
 30
0.0
 11
267.7418605878208
 21
266.3800559019027
 31
0.0
  0
LINE
  5
277
330
18
100
AcDbEntity
  8
1
  6
Continuous
100
AcDbLine
 10
280.1418505878208
 20
226.5800609019027
 30
0.0
 11
235.3418705878208
 21
226.5800609019027
 31
0.0
  0
LINE
  5
278
330
18
100
AcDbEntity
  8
1
  6
Continuous
100
AcDbLine
 10
244.8418705878208
 20
211.9921579019027
 30
0.0
 11
270.6418505878208
 21
211.9921579019027
 31
0.0
  0
LINE
  5
279
330
18
100
AcDbEntity
  8
5
  6
PHANTOM
 48
0.5
100
AcDbLine
 10
266.5467805878208
 20
304.4082739019027
 30
0.0
 11
274.0834905878206
 21
273.3856949019027
 31
0.0
  0
LINE
  5
27A
330
18
100
AcDbEntity
  8
1
  6
Continuous
100
AcDbLine
 10
250.6813605878206
 20
296.3482359019028
 30
0.0
 11
278.0634805878209
 21
274.1592099019027
 31
0.0
  0
LINE
  5
27B
330
18
100
AcDbEntity
  8
1
  6
Continuous
100
AcDbLine
 10
253.0085205878207
 20
273.4883249019026
 30
0.0
 11
268.0201705878205
 21
282.2977799019026
 31
0.0
  0
LINE
  5
27C
330
18
100
AcDbEntity
  8
5
  6
PHANTOM
 48
0.5
100
AcDbLine
 10
255.3271705878207
 20
279.5340989019026
 30
0.0
 11
272.3281805878206
 21
280.6109209019027
 31
0.0
  0
LINE
  5
27D
330
18
100
AcDbEntity
  8
1
  6
Continuous
100
AcDbLine
 10
218.9080905878207
 20
337.7800539019027
 30
0.0
 11
233.3418705878208
 21
295.7800559019026
 31
0.0
  0
LINE
  5
27E
330
18
100
AcDbEntity
  8
1
  6
Continuous
100
AcDbLine
 10
218.6194205878207
 20
338.2800579019026
 30
0.0
 11
232.6719905878207
 21
313.9403059019027
 31
0.0
  0
LINE
  5
27F
330
18
100
AcDbEntity
  8
4
  6
CENTER
 48
0.5
100
AcDbLine
 10
257.7418605878208
 20
171.6041979019026
 30
0.0
 11
257.7418605878208
 21
354.7577339019026
 31
0.0
  0
ARC
  5
280
330
18
100
AcDbEntity
  8
1
  6
Continuous
100
AcDbCircle
 10
67.74186058782078
 20
334.7800579019026
 30
0.0
 40
3.0
100
AcDbArc
 50
0.0000030000001391
 51
180.0000100000002
  0
LINE
  5
281
330
18
100
AcDbEntity
  8
1
  6
Continuous
100
AcDbLine
 10
70.55598958782081
 20
335.8196239019026
 30
0.0
 11
78.68298958782083
 21
313.8196199019026
 31
0.0
  0
LINE
  5
282
330
18
100
AcDbEntity
  8
1
  6
Continuous
100
AcDbLine
 10
106.2869445878207
 20
337.2800579019028
 30
0.0
 11
93.0796835878208
 21
314.4044129019026
 31
0.0
  0
LINE
  5
283
330
18
100
AcDbEntity
  8
1
  6
Continuous
100
AcDbLine
 10
29.19677058782082
 20
337.2800619019026
 30
0.0
 11
42.40403458782077
 21
314.4044059019027
 31
0.0
  0
LINE
  5
284
330
18
100
AcDbEntity
  8
1
  6
Continuous
100
AcDbLine
 10
64.92248458782079
 20
335.8052879019027
 30
0.0
 11
56.9224845878208
 21
313.8052849019026
 31
0.0
  0
LINE
  5
285
330
18
100
AcDbEntity
  8
4
  6
CENTER
 48
0.5
100
AcDbLine
 10
67.74186058782078
 20
352.3461289019027
 30
0.0
 11
67.74186058782078
 21
192.9600509019025
 31
0.0
  0
LINE
  5
286
330
18
100
AcDbEntity
  8
1
  6
Continuous
100
AcDbLine
 10
78.86885958782079
 20
312.7800579019027
 30
0.0
 11
90.04549558782079
 21
312.7800579019027
 31
0.0
  0
LINE
  5
288
330
18
100
AcDbEntity
  8
4
  6
CENTER
 48
0.5
100
AcDbLine
 10
89.29584658782079
 20
280.9156939019025
 30
0.0
 11
103.2783135878207
 21
280.9156939019025
 31
0.0
  0
ARC
  5
289
330
18
100
AcDbEntity
  8
1
  6
Continuous
100
AcDbCircle
 10
86.34186658782082
 20
219.7800579019026
 30
0.0
 40
3.0
100
AcDbArc
 50
270.0
 51
0.0000030000001391
  0
LINE
  5
28A
330
18
100
AcDbEntity
  8
1
  6
Continuous
100
AcDbLine
 10
106.0418485878207
 20
200.7800609019026
 30
0.0
 11
29.44185758782076
 21
200.7800609019026
 31
0.0
  0
LINE
  5
28B
330
18
100
AcDbEntity
  8
1
  6
Continuous
100
AcDbLine
 10
104.2418605878207
 20
210.2800609019026
 30
0.0
 11
31.24186058782078
 21
210.2800609019026
 31
0.0
  0
LINE
  5
28C
330
18
100
AcDbEntity
  8
1
  6
Continuous
100
AcDbLine
 10
107.7418605878206
 20
203.9800729019026
 30
0.0
 11
27.74186058782078
 21
203.9800729019026
 31
0.0
  0
LINE
  5
28D
330
18
100
AcDbEntity
  8
4
  6
CENTER
 48
0.5
100
AcDbLine
 10
35.05481858782081
 20
266.3800559019027
 30
0.0
 11
102.9831015878206
 21
266.3800559019027
 31
0.0
  0
LINE
  5
28E
330
18
100
AcDbEntity
  8
1
  6
Continuous
100
AcDbLine
 10
90.14185458782078
 20
226.5800609019027
 30
0.0
 11
45.34186658782077
 21
226.5800609019027
 31
0.0
  0
ARC
  5
28F
330
18
100
AcDbEntity
  8
1
  6
Continuous
100
AcDbCircle
 10
80.64185458782077
 20
214.9921579019026
 30
0.0
 40
3.0
100
AcDbArc
 50
270.0
 51
0.0000180000000203
  0
ARC
  5
290
330
18
100
AcDbEntity
  8
1
  6
Continuous
100
AcDbCircle
 10
54.84186658782078
 20
214.9921579019026
 30
0.0
 40
3.0
100
AcDbArc
 50
179.9999799999999
 51
270.0
  0
TEXT
  5
291
330
18
100
AcDbEntity
  8
7
  6
Continuous
 48
0.25
100
AcDbText
 10
9.99999906424682
 20
18.00000056761564
 30
0.0
 40
3.0
  1
TYPE No.TCA-909LK-42S-125
100
AcDbText
  0
TEXT
  5
292
330
18
100
AcDbEntity
  8
7
  6
Continuous
 48
0.25
100
AcDbText
 10
9.99999906424682
 20
26.00000056761564
 30
0.0
 40
3.0
  1
CODE No.19234
100
AcDbText
  0
TEXT
  5
293
330
18
100
AcDbEntity
  8
1
  6
Continuous
 48
0.25
100
AcDbText
 10
9.99999906424682
 20
10.00000056761564
 30
0.0
 40
1.399999999999999
  1
LAYER
100
AcDbText
  0
TEXT
  5
294
330
18
100
AcDbEntity
  8
6
  6
Continuous
 48
0.25
100
AcDbText
 10
27.97951006424682
 20
9.999999806846743
 30
0.0
 40
1.399999999999999
  1
6
100
AcDbText
  0
TEXT
  5
295
330
18
100
AcDbEntity
  8
1
  6
Continuous
 48
0.25
100
AcDbText
 10
17.97951006424682
 20
9.999999806846743
 30
0.0
 40
1.399999999999999
  1
1
100
AcDbText
  0
TEXT
  5
296
330
18
100
AcDbEntity
  8
3
  6
DASHED
 48
0.25
100
AcDbText
 10
21.97951006424682
 20
9.999999806846743
 30
0.0
 40
1.399999999999999
  1
3
100
AcDbText
  0
TEXT
  5
297
330
18
100
AcDbEntity
  8
2
  6
Continuous
 48
0.25
100
AcDbText
 10
19.97951006424682
 20
9.999999806846743
 30
0.0
 40
1.399999999999999
  1
2
100
AcDbText
  0
TEXT
  5
298
330
18
100
AcDbEntity
  8
5
  6
PHANTOM
 48
0.5
100
AcDbText
 10
25.97951006424682
 20
9.999999806846743
 30
0.0
 40
1.399999999999999
  1
5
100
AcDbText
  0
TEXT
  5
299
330
18
100
AcDbEntity
  8
4
  6
CENTER
 48
0.5
100
AcDbText
 10
23.97951006424682
 20
9.999999806846743
 30
0.0
 40
1.399999999999999
  1
4
100
AcDbText
  0
TEXT
  5
29A
330
18
100
AcDbEntity
  8
7
  6
Continuous
 48
0.25
100
AcDbText
 10
29.97951006424682
 20
9.999999806846743
 30
0.0
 40
1.399999999999999
  1
7
100
AcDbText
  0
LINE
  5
29E
330
18
100
AcDbEntity
  8
1
  6
Continuous
100
AcDbLine
 10
27.74186058782078
 20
206.7800609019026
 30
0.0
 11
27.74186058782078
 21
203.9800729019026
 31
0.0
  0
LINE
  5
29F
330
18
100
AcDbEntity
  8
1
  6
Continuous
100
AcDbLine
 10
28.58442058782077
 20
203.9800659019026
 30
0.0
 11
29.44185758782078
 21
200.7800609019026
 31
0.0
  0
ARC
  5
2A0
330
18
100
AcDbEntity
  8
1
  6
Continuous
100
AcDbCircle
 10
31.24186058782078
 20
206.7800609019026
 30
0.0
 40
3.5
100
AcDbArc
 50
89.99998199999998
 51
179.99996
  0
LINE
  5
2A1
330
18
100
AcDbEntity
  8
1
  6
Continuous
100
AcDbLine
 10
54.84186658782078
 20
211.9921579019027
 30
0.0
 11
80.64185458782077
 21
211.9921579019027
 31
0.0
  0
LINE
  5
2A2
330
18
100
AcDbEntity
  8
1
  6
Continuous
100
AcDbLine
 10
56.11852958782078
 20
211.9921739019027
 30
0.0
 11
54.69888658782082
 21
210.5728769019027
 31
0.0
  0
ARC
  5
2A3
330
18
100
AcDbEntity
  8
1
  6
Continuous
100
AcDbCircle
 10
53.99186058782078
 20
211.2800609019026
 30
0.0
 40
1.0
100
AcDbArc
 50
269.9999399999995
 51
314.9929899999999
  0
LINE
  5
2A4
330
18
100
AcDbEntity
  8
1
  6
Continuous
100
AcDbLine
 10
79.36519958782081
 20
211.9921739019027
 30
0.0
 11
80.7848355878208
 21
210.5728849019026
 31
0.0
  0
ARC
  5
2A5
330
18
100
AcDbEntity
  8
1
  6
Continuous
100
AcDbCircle
 10
81.49186058782078
 20
211.2800609019026
 30
0.0
 40
1.0
100
AcDbArc
 50
225.0070099999998
 51
270.0000500000001
  0
LINE
  5
2A6
330
18
100
AcDbEntity
  8
1
  6
Continuous
100
AcDbLine
 10
45.84186658782079
 20
279.1104569019025
 30
0.0
 11
45.84186658782079
 21
264.2540879019027
 31
0.0
  0
LINE
  5
2A7
330
18
100
AcDbEntity
  8
1
  6
Continuous
100
AcDbLine
 10
36.94185758782078
 20
304.3707179019027
 30
0.0
 11
36.94185758782078
 21
268.5825019019026
 31
0.0
  0
LINE
  5
2A8
330
18
100
AcDbEntity
  8
1
  6
Continuous
100
AcDbLine
 10
39.94185758782077
 20
285.7959199019027
 30
0.0
 11
39.94185758782077
 21
271.8818799019027
 31
0.0
  0
LINE
  5
2A9
330
18
100
AcDbEntity
  8
1
  6
Continuous
100
AcDbLine
 10
40.04186358782078
 20
285.8959179019027
 30
0.0
 11
40.04186358782078
 21
257.6574229019025
 31
0.0
  0
LINE
  5
2AA
330
18
100
AcDbEntity
  8
1
  6
Continuous
100
AcDbLine
 10
43.04186358782078
 20
289.3328989019027
 30
0.0
 11
43.04186358782078
 21
257.6574229019025
 31
0.0
  0
LINE
  5
2AB
330
18
100
AcDbEntity
  8
1
  6
Continuous
100
AcDbLine
 10
45.84186658782079
 20
264.2540879019027
 30
0.0
 11
43.34185158782083
 21
264.2540879019027
 31
0.0
  0
LINE
  5
2AC
330
18
100
AcDbEntity
  8
1
  6
Continuous
100
AcDbLine
 10
45.84186658782079
 20
270.4104899019025
 30
0.0
 11
43.04186358782078
 21
270.4104899019025
 31
0.0
  0
ARC
  5
2AD
330
18
100
AcDbEntity
  8
1
  6
Continuous
100
AcDbCircle
 10
45.34186658782077
 20
228.5800609019025
 30
0.0
 40
2.0
100
AcDbArc
 50
179.9999899999995
 51
270.0
  0
LINE
  5
2AE
330
18
100
AcDbEntity
  8
1
  6
Continuous
100
AcDbLine
 10
43.34186658782079
 20
264.2540879019027
 30
0.0
 11
43.34186658782079
 21
228.5800609019025
 31
0.0
  0
LINE
  5
2AF
330
18
100
AcDbEntity
  8
1
  6
Continuous
100
AcDbLine
 10
43.04186358782078
 20
257.6574229019025
 30
0.0
 11
40.04186358782078
 21
257.6574229019025
 31
0.0
  0
LINE
  5
2B0
330
18
100
AcDbEntity
  8
1
  6
Continuous
100
AcDbLine
 10
38.54186358782079
 20
269.9739969019026
 30
0.0
 11
38.54186358782079
 21
262.8469829019027
 31
0.0
  0
ARC
  5
2B1
330
18
100
AcDbEntity
  8
1
  6
Continuous
100
AcDbCircle
 10
40.54186358782078
 20
262.8469829019027
 30
0.0
 40
2.0
100
AcDbArc
 50
179.9999899999995
 51
255.5224899999996
  0
LINE
  5
2B2
330
18
100
AcDbEntity
  8
1
  6
Continuous
100
AcDbLine
 10
43.34186658782079
 20
262.4104899019025
 30
0.0
 11
43.04186358782078
 21
262.4104899019025
 31
0.0
  0
ARC
  5
2B3
330
18
100
AcDbEntity
  8
1
  6
Continuous
100
AcDbCircle
 10
40.54186358782078
 20
269.9739969019026
 30
0.0
 40
2.0
100
AcDbArc
 50
104.4775099999994
 51
180.0000100000002
  0
LINE
  5
2B4
330
18
100
AcDbEntity
  8
1
  6
Continuous
100
AcDbLine
 10
36.94185758782078
 20
268.5825019019026
 30
0.0
 11
38.54186358782079
 21
268.5825019019026
 31
0.0
  0
LINE
  5
2B6
330
18
100
AcDbEntity
  8
1
  6
Continuous
100
AcDbLine
 10
46.14186958782077
 20
226.5800609019027
 30
0.0
 11
46.14186958782077
 21
219.7800579019026
 31
0.0
  0
ARC
  5
2B7
330
18
100
AcDbEntity
  8
1
  6
Continuous
100
AcDbCircle
 10
49.14185458782078
 20
219.7800579019026
 30
0.0
 40
3.0
100
AcDbArc
 50
179.9999899999995
 51
270.0
  0
LINE
  5
2B8
330
18
100
AcDbEntity
  8
1
  6
Continuous
100
AcDbLine
 10
51.84186658782079
 20
214.9921579019026
 30
0.0
 11
51.84186658782079
 21
216.7800579019027
 31
0.0
  0
LINE
  5
2B9
330
18
100
AcDbEntity
  8
1
  6
Continuous
100
AcDbLine
 10
86.34186658782082
 20
216.7800579019027
 30
0.0
 11
49.14185458782078
 21
216.7800579019027
 31
0.0
  0
LINE
  5
2BA
330
18
100
AcDbEntity
  8
1
  6
Continuous
100
AcDbLine
 10
89.34186658782079
 20
226.5800609019027
 30
0.0
 11
89.34186658782079
 21
219.7800579019026
 31
0.0
  0
LINE
  5
2BB
330
18
100
AcDbEntity
  8
1
  6
Continuous
100
AcDbLine
 10
83.64185458782078
 20
214.9921579019026
 30
0.0
 11
83.64185458782078
 21
216.7800579019027
 31
0.0
  0
LINE
  5
2BC
330
18
100
AcDbEntity
  8
1
  6
Continuous
100
AcDbLine
 10
44.81537758782081
 20
312.7800579019027
 30
0.0
 11
56.74186058782078
 21
312.7800579019027
 31
0.0
  0
LINE
  5
2BD
330
18
100
AcDbEntity
  8
4
  6
CENTER
 48
0.5
100
AcDbLine
 10
46.18787458782081
 20
280.9156939019025
 30
0.0
 11
32.20540758782078
 21
280.9156939019025
 31
0.0
  0
LINE
  5
2BE
330
18
100
AcDbEntity
  8
4
  6
CENTER
 48
0.5
100
AcDbLine
 10
35.42871958782081
 20
302.7800579019026
 30
0.0
 11
103.1121765878207
 21
302.7800579019026
 31
0.0
  0
LINE
  5
2BF
330
18
100
AcDbEntity
  8
1
  6
Continuous
100
AcDbLine
 10
45.84186658782079
 20
279.1104569019025
 30
0.0
 11
43.34185158782083
 21
279.1104569019025
 31
0.0
  0
LINE
  5
2C0
330
18
100
AcDbEntity
  8
1
  6
Continuous
100
AcDbLine
 10
40.34186658782078
 20
311.5192239019027
 30
0.0
 11
40.34186658782078
 21
289.7800579019027
 31
0.0
  0
LINE
  5
2C1
330
18
100
AcDbEntity
  8
1
  6
Continuous
100
AcDbLine
 10
38.84186658782079
 20
306.3435649019027
 30
0.0
 11
38.84186658782079
 21
299.2165509019026
 31
0.0
  0
LINE
  5
2C2
330
18
100
AcDbEntity
  8
1
  6
Continuous
100
AcDbLine
 10
43.34186658782079
 20
310.9044099019026
 30
0.0
 11
43.34186658782079
 21
279.1104569019025
 31
0.0
  0
LINE
  5
2C3
330
18
100
AcDbEntity
  8
1
  6
Continuous
100
AcDbLine
 10
40.3418625878208
 20
289.7800649019026
 30
0.0
 11
38.11342358782082
 21
287.5516249019026
 31
0.0
  0
ARC
  5
2C4
330
18
100
AcDbEntity
  8
1
  6
Continuous
100
AcDbCircle
 10
39.34186658782079
 20
290.8527809019026
 30
0.0
 40
4.0
100
AcDbArc
 50
315.0000000000003
 51
0.0000050000000961
  0
LINE
  5
2C5
330
18
100
AcDbEntity
  8
1
  6
Continuous
100
AcDbLine
 10
36.34186658782079
 20
284.9156859019026
 30
0.0
 11
36.34186658782079
 21
276.9156859019026
 31
0.0
  0
LINE
  5
2C6
330
18
100
AcDbEntity
  8
1
  6
Continuous
100
AcDbLine
 10
35.14185458782077
 20
283.0826549019026
 30
0.0
 11
35.14185458782077
 21
278.7487169019026
 31
0.0
  0
LINE
  5
2C7
330
18
100
AcDbEntity
  8
1
  6
Continuous
100
AcDbLine
 10
36.34186258782079
 20
276.9156799019027
 30
0.0
 11
36.94186558782082
 21
277.9156879019026
 31
0.0
  0
ARC
  5
2C8
330
18
100
AcDbEntity
  8
1
  6
Continuous
100
AcDbCircle
 10
37.14185458782078
 20
278.7487169019026
 30
0.0
 40
2.0
100
AcDbArc
 50
179.9999899999995
 51
246.4218299999997
  0
LINE
  5
2C9
330
18
100
AcDbEntity
  8
1
  6
Continuous
100
AcDbLine
 10
36.94185758782078
 20
283.9156809019026
 30
0.0
 11
36.34185858782081
 21
284.9156739019027
 31
0.0
  0
ARC
  5
2CA
330
18
100
AcDbEntity
  8
1
  6
Continuous
100
AcDbCircle
 10
40.94185758782077
 20
284.7231959019026
 30
0.0
 40
4.0
100
AcDbArc
 50
135.0000000000002
 51
180.0000100000002
  0
ARC
  5
2CB
330
18
100
AcDbEntity
  8
1
  6
Continuous
100
AcDbCircle
 10
37.14185458782078
 20
283.0826549019026
 30
0.0
 40
2.0
100
AcDbArc
 50
113.57818
 51
180.0000100000002
  0
LINE
  5
2CC
330
18
100
AcDbEntity
  8
1
  6
Continuous
100
AcDbLine
 10
42.17029258782075
 20
288.0243549019027
 30
0.0
 11
39.94185358782079
 21
285.7959159019026
 31
0.0
  0
ARC
  5
2CD
330
18
100
AcDbEntity
  8
1
  6
Continuous
100
AcDbCircle
 10
40.84186658782079
 20
299.2165509019026
 30
0.0
 40
2.0
100
AcDbArc
 50
179.9999899999995
 51
255.5224899999996
  0
LINE
  5
2CE
330
18
100
AcDbEntity
  8
1
  6
Continuous
100
AcDbLine
 10
38.14185458782077
 20
313.2581849019026
 30
0.0
 11
38.14185458782077
 21
304.3707179019027
 31
0.0
  0
ARC
  5
2CF
330
18
100
AcDbEntity
  8
1
  6
Continuous
100
AcDbCircle
 10
36.34186658782079
 20
310.9044099019026
 30
0.0
 40
7.0
100
AcDbArc
 50
0.0000030000001391
 51
30.0000039999997
  0
ARC
  5
2D0
330
18
100
AcDbEntity
  8
1
  6
Continuous
100
AcDbCircle
 10
40.84186658782079
 20
306.3435649019027
 30
0.0
 40
2.0
100
AcDbArc
 50
104.4775099999994
 51
180.0000100000002
  0
LINE
  5
2D1
330
18
100
AcDbEntity
  8
1
  6
Continuous
100
AcDbLine
 10
38.84186658782079
 20
304.3707179019027
 30
0.0
 11
36.94185758782078
 21
304.3707179019027
 31
0.0
  0
LINE
  5
2D2
330
18
100
AcDbEntity
  8
1
  6
Continuous
100
AcDbLine
 10
40.34186658782078
 20
311.5192239019027
 30
0.0
 11
43.34186658782079
 21
311.5192239019027
 31
0.0
  0
ARC
  5
2D3
330
18
100
AcDbEntity
  8
1
  6
Continuous
100
AcDbCircle
 10
42.14185458782077
 20
313.2581849019026
 30
0.0
 40
4.0
100
AcDbArc
 50
108.4606699999997
 51
180.0000100000002
  0
LINE
  5
2D4
330
18
100
AcDbEntity
  8
1
  6
Continuous
100
AcDbLine
 10
78.4633945878208
 20
311.2739349019026
 30
0.0
 11
70.33639758782078
 21
297.2739389019027
 31
0.0
  0
LINE
  5
2D5
330
18
100
AcDbEntity
  8
1
  6
Continuous
100
AcDbLine
 10
70.74186058782078
 20
334.7800579019026
 30
0.0
 11
70.74186058782078
 21
298.7800579019026
 31
0.0
  0
LINE
  5
2D6
330
18
100
AcDbEntity
  8
1
  6
Continuous
100
AcDbLine
 10
64.74186058782078
 20
334.7800579019026
 30
0.0
 11
64.74186058782078
 21
298.7800579019026
 31
0.0
  0
LINE
  5
2D7
330
18
100
AcDbEntity
  8
1
  6
Continuous
100
AcDbLine
 10
57.1371315878207
 20
311.2916429019026
 30
0.0
 11
65.13713358782069
 21
297.2916379019027
 31
0.0
  0
ARC
  5
2D8
330
18
100
AcDbEntity
  8
1
  6
Continuous
100
AcDbCircle
 10
67.74186058782078
 20
298.7800579019026
 30
0.0
 40
3.0
100
AcDbArc
 50
179.9999899999995
 51
0.0000099999997851
  0
ARC
  5
2D9
330
18
100
AcDbEntity
  8
1
  6
Continuous
100
AcDbCircle
 10
59.74186058782078
 20
312.7800579019027
 30
0.0
 40
3.0
100
AcDbArc
 50
160.0168899999999
 51
209.74488
  0
ARC
  5
2DA
330
18
100
AcDbEntity
  8
1
  6
Continuous
100
AcDbCircle
 10
75.8688595878208
 20
312.7800579019027
 30
0.0
 40
3.0
100
AcDbArc
 50
329.8648400000003
 51
20.27468699999992
  0
ARC
  5
2DB
330
18
100
AcDbEntity
  8
1
  6
Continuous
100
AcDbCircle
 10
244.8418705878208
 20
214.9921579019026
 30
0.0
 40
3.0
100
AcDbArc
 50
179.9999799999999
 51
270.0
  0
LINE
  5
2DC
330
18
100
AcDbEntity
  8
5
  6
PHANTOM
 48
0.5
100
AcDbLine
 10
241.8418705878208
 20
189.9917579019026
 30
0.0
 11
241.8418705878208
 21
213.7659279019027
 31
0.0
  0
LINE
  5
2DD
330
18
100
AcDbEntity
  8
1
  6
Continuous
100
AcDbLine
 10
107.7418605878206
 20
206.7800609019026
 30
0.0
 11
107.7418605878206
 21
203.9800729019026
 31
0.0
  0
LINE
  5
2DE
330
18
100
AcDbEntity
  8
1
  6
Continuous
100
AcDbLine
 10
106.8992895878208
 20
203.9800579019027
 30
0.0
 11
106.0418525878207
 21
200.7800609019026
 31
0.0
  0
ARC
  5
2DF
330
18
100
AcDbEntity
  8
1
  6
Continuous
100
AcDbCircle
 10
104.2418605878207
 20
206.7800609019026
 30
0.0
 40
3.5
100
AcDbArc
 50
0.0000369999998155
 51
90.00001599999967
  0
ARC
  5
2E6
330
18
100
AcDbEntity
  8
5
  6
PHANTOM
 48
0.5
100
AcDbCircle
 10
221.2418605878208
 20
181.7800579019026
 30
0.0
 40
3.5
100
AcDbArc
 50
89.99998199999998
 51
179.99996
  0
LINE
  5
2E7
330
18
100
AcDbEntity
  8
5
  6
PHANTOM
 48
0.5
100
AcDbLine
 10
218.5844205878206
 20
178.9800469019025
 30
0.0
 11
219.4418605878207
 21
175.7800479019025
 31
0.0
  0
LINE
  5
2E8
330
18
100
AcDbEntity
  8
5
  6
PHANTOM
 48
0.5
100
AcDbLine
 10
217.7418605878208
 20
181.7800579019026
 30
0.0
 11
217.7418605878208
 21
178.9800549019027
 31
0.0
  0
LINE
  5
2E9
330
18
100
AcDbEntity
  8
1
  6
Continuous
100
AcDbLine
 10
217.7418605878208
 20
206.7800609019026
 30
0.0
 11
217.7418605878208
 21
203.9800729019026
 31
0.0
  0
LINE
  5
2EA
330
18
100
AcDbEntity
  8
1
  6
Continuous
100
AcDbLine
 10
218.5844205878209
 20
203.9800729019026
 30
0.0
 11
219.441862731418
 21
200.7800609019026
 31
0.0
  0
ARC
  5
2EB
330
18
100
AcDbEntity
  8
1
  6
Continuous
100
AcDbCircle
 10
221.2418605878208
 20
206.7800609019026
 30
0.0
 40
3.5
100
AcDbArc
 50
89.99998199999998
 51
179.99996
  0
ARC
  5
2EC
330
18
100
AcDbEntity
  8
1
  6
Continuous
100
AcDbCircle
 10
243.9918605878208
 20
211.2800609019026
 30
0.0
 40
1.0
100
AcDbArc
 50
269.9999399999995
 51
314.9929899999999
  0
ARC
  5
2ED
330
18
100
AcDbEntity
  8
5
  6
PHANTOM
 48
0.5
100
AcDbCircle
 10
243.9918605878208
 20
186.2800579019026
 30
0.0
 40
1.0
100
AcDbArc
 50
269.9999399999995
 51
314.9929899999999
  0
ARC
  5
2EE
330
18
100
AcDbEntity
  8
5
  6
PHANTOM
 48
0.5
100
AcDbCircle
 10
244.8418705878208
 20
189.9917579019026
 30
0.0
 40
3.0
100
AcDbArc
 50
179.9999799999999
 51
270.0
  0
LINE
  5
2EF
330
18
100
AcDbEntity
  8
5
  6
PHANTOM
 48
0.5
100
AcDbLine
 10
246.1181405878206
 20
186.9917509019025
 30
0.0
 11
244.6988905878209
 21
185.5728589019026
 31
0.0
  0
LINE
  5
2F0
330
18
100
AcDbEntity
  8
1
  6
Continuous
100
AcDbLine
 10
246.1185205878208
 20
211.9921579019027
 30
0.0
 11
244.6988905878205
 21
210.5728699019027
 31
0.0
  0
LINE
  5
2F1
330
18
100
AcDbEntity
  8
1
  6
Continuous
100
AcDbLine
 10
89.64185458782075
 20
279.1104569019025
 30
0.0
 11
89.64185458782075
 21
264.2540879019027
 31
0.0
  0
LINE
  5
2F2
330
18
100
AcDbEntity
  8
1
  6
Continuous
100
AcDbLine
 10
98.54186358782079
 20
304.3707179019027
 30
0.0
 11
98.54186358782079
 21
271.0349869019025
 31
0.0
  0
LINE
  5
2F3
330
18
100
AcDbEntity
  8
1
  6
Continuous
100
AcDbLine
 10
95.54186358782081
 20
285.7959199019027
 30
0.0
 11
95.54186358782081
 21
272.4104899019025
 31
0.0
  0
LINE
  5
2F4
330
18
100
AcDbEntity
  8
1
  6
Continuous
100
AcDbLine
 10
95.44185758782075
 20
285.8959179019027
 30
0.0
 11
95.44185758782075
 21
257.6574229019025
 31
0.0
  0
LINE
  5
2F5
330
18
100
AcDbEntity
  8
1
  6
Continuous
100
AcDbLine
 10
92.44185758782078
 20
289.3328989019027
 30
0.0
 11
92.44185758782078
 21
257.6574229019025
 31
0.0
  0
LINE
  5
2F6
330
18
100
AcDbEntity
  8
1
  6
Continuous
100
AcDbLine
 10
92.14185458782075
 20
264.2540879019027
 30
0.0
 11
92.14185458782075
 21
228.5800609019025
 31
0.0
  0
ARC
  5
2F7
330
18
100
AcDbEntity
  8
1
  6
Continuous
100
AcDbCircle
 10
90.14185458782078
 20
228.5800609019025
 30
0.0
 40
2.0
100
AcDbArc
 50
270.0
 51
0.0000030000001391
  0
LINE
  5
2F8
330
18
100
AcDbEntity
  8
1
  6
Continuous
100
AcDbLine
 10
92.44185758782078
 20
257.6574229019025
 30
0.0
 11
95.44185758782075
 21
257.6574229019025
 31
0.0
  0
LINE
  5
2F9
330
18
100
AcDbEntity
  8
1
  6
Continuous
100
AcDbLine
 10
98.64185458782078
 20
270.4104899019025
 30
0.0
 11
98.64185458782078
 21
262.4104899019025
 31
0.0
  0
LINE
  5
2FA
330
18
100
AcDbEntity
  8
1
  6
Continuous
100
AcDbLine
 10
89.64185458782075
 20
264.2540879019027
 30
0.0
 11
92.14186958782079
 21
264.2540879019027
 31
0.0
  0
LINE
  5
2FB
330
18
100
AcDbEntity
  8
1
  6
Continuous
100
AcDbLine
 10
92.14185458782075
 20
262.4104899019025
 30
0.0
 11
92.44185758782078
 21
262.4104899019025
 31
0.0
  0
ARC
  5
2FC
330
18
100
AcDbEntity
  8
1
  6
Continuous
100
AcDbCircle
 10
96.64185458782078
 20
262.4104899019025
 30
0.0
 40
2.0
100
AcDbArc
 50
270.0
 51
0.0
  0
LINE
  5
2FD
330
18
100
AcDbEntity
  8
1
  6
Continuous
100
AcDbLine
 10
95.44185758782075
 20
260.4104899019025
 30
0.0
 11
96.64185458782078
 21
260.4104899019025
 31
0.0
  0
LINE
  5
2FE
330
18
100
AcDbEntity
  8
1
  6
Continuous
100
AcDbLine
 10
89.64185458782075
 20
270.4104899019025
 30
0.0
 11
92.44185758782078
 21
270.4104899019025
 31
0.0
  0
ARC
  5
2FF
330
18
100
AcDbEntity
  8
1
  6
Continuous
100
AcDbCircle
 10
96.64185458782078
 20
270.4104899019025
 30
0.0
 40
2.0
100
AcDbArc
 50
0.0
 51
90.00000300000015
  0
LINE
  5
300
330
18
100
AcDbEntity
  8
1
  6
Continuous
100
AcDbLine
 10
95.44185758782075
 20
272.4104899019025
 30
0.0
 11
96.64185458782078
 21
272.4104899019025
 31
0.0
  0
LINE
  5
301
330
18
100
AcDbEntity
  8
1
  6
Continuous
100
AcDbLine
 10
95.14185458782078
 20
311.5192239019027
 30
0.0
 11
95.14185458782078
 21
289.7800579019027
 31
0.0
  0
LINE
  5
302
330
18
100
AcDbEntity
  8
1
  6
Continuous
100
AcDbLine
 10
98.34185158782084
 20
306.7800579019027
 30
0.0
 11
98.34185158782084
 21
298.7800579019026
 31
0.0
  0
LINE
  5
303
330
18
100
AcDbEntity
  8
1
  6
Continuous
100
AcDbLine
 10
92.14185458782075
 20
310.9044099019026
 30
0.0
 11
92.14185458782075
 21
279.1104569019025
 31
0.0
  0
LINE
  5
304
330
18
100
AcDbEntity
  8
1
  6
Continuous
100
AcDbLine
 10
95.1418425878208
 20
289.7800589019027
 30
0.0
 11
97.37027858782079
 21
287.5516249019026
 31
0.0
  0
ARC
  5
305
330
18
100
AcDbEntity
  8
1
  6
Continuous
100
AcDbCircle
 10
96.14185458782078
 20
290.8527809019026
 30
0.0
 40
4.0
100
AcDbArc
 50
179.9999899999995
 51
224.9999999999996
  0
ARC
  5
306
330
18
100
AcDbEntity
  8
1
  6
Continuous
100
AcDbCircle
 10
98.3418665878208
 20
283.0826549019026
 30
0.0
 40
2.0
100
AcDbArc
 50
0.0
 51
66.42182099999981
  0
ARC
  5
307
330
18
100
AcDbEntity
  8
1
  6
Continuous
100
AcDbCircle
 10
98.3418665878208
 20
278.7487169019026
 30
0.0
 40
2.0
100
AcDbArc
 50
293.5781800000002
 51
0.0
  0
LINE
  5
308
330
18
100
AcDbEntity
  8
1
  6
Continuous
100
AcDbLine
 10
99.14185458782078
 20
284.9156859019026
 30
0.0
 11
99.14185458782078
 21
276.9156859019026
 31
0.0
  0
LINE
  5
309
330
18
100
AcDbEntity
  8
1
  6
Continuous
100
AcDbLine
 10
100.3418665878207
 20
283.0826549019026
 30
0.0
 11
100.3418665878207
 21
278.7487169019026
 31
0.0
  0
LINE
  5
30A
330
18
100
AcDbEntity
  8
1
  6
Continuous
100
AcDbLine
 10
89.64185458782075
 20
279.1104569019025
 30
0.0
 11
92.14186958782079
 21
279.1104569019025
 31
0.0
  0
LINE
  5
30B
330
18
100
AcDbEntity
  8
1
  6
Continuous
100
AcDbLine
 10
99.14185458782078
 20
276.9156849019026
 30
0.0
 11
98.5418545878208
 21
277.9156899019026
 31
0.0
  0
LINE
  5
30C
330
18
100
AcDbEntity
  8
1
  6
Continuous
100
AcDbLine
 10
93.31341758782082
 20
288.0243549019027
 30
0.0
 11
95.54185258782082
 21
285.7959209019027
 31
0.0
  0
LINE
  5
30D
330
18
100
AcDbEntity
  8
1
  6
Continuous
100
AcDbLine
 10
98.54186358782079
 20
283.9156969019025
 30
0.0
 11
99.14186058782082
 21
284.9156899019027
 31
0.0
  0
ARC
  5
30E
330
18
100
AcDbEntity
  8
1
  6
Continuous
100
AcDbCircle
 10
94.54186358782079
 20
284.7231959019026
 30
0.0
 40
4.0
100
AcDbArc
 50
0.0
 51
45.00000100000007
  0
ARC
  5
30F
330
18
100
AcDbEntity
  8
1
  6
Continuous
100
AcDbCircle
 10
96.34185158782084
 20
298.7800579019026
 30
0.0
 40
2.0
100
AcDbArc
 50
270.0
 51
0.0
  0
LINE
  5
310
330
18
100
AcDbEntity
  8
1
  6
Continuous
100
AcDbLine
 10
95.14185458782078
 20
296.7800579019026
 30
0.0
 11
96.34185158782084
 21
296.7800579019026
 31
0.0
  0
LINE
  5
311
330
18
100
AcDbEntity
  8
1
  6
Continuous
100
AcDbLine
 10
97.34186658782078
 20
313.2581849019026
 30
0.0
 11
97.34186658782078
 21
308.5121019019026
 31
0.0
  0
ARC
  5
312
330
18
100
AcDbEntity
  8
1
  6
Continuous
100
AcDbCircle
 10
99.14185458782078
 20
310.9044099019026
 30
0.0
 40
7.0
100
AcDbArc
 50
149.9999999999998
 51
179.9999899999995
  0
LINE
  5
313
330
18
100
AcDbEntity
  8
1
  6
Continuous
100
AcDbLine
 10
92.14185458782075
 20
311.5192239019027
 30
0.0
 11
95.14185458782078
 21
311.5192239019027
 31
0.0
  0
LINE
  5
314
330
18
100
AcDbEntity
  8
1
  6
Continuous
100
AcDbLine
 10
98.34185158782084
 20
304.3707179019027
 30
0.0
 11
98.54186358782079
 21
304.3707179019027
 31
0.0
  0
LINE
  5
315
330
18
100
AcDbEntity
  8
1
  6
Continuous
100
AcDbLine
 10
95.14185458782078
 20
308.7800579019027
 30
0.0
 11
96.34185158782084
 21
308.7800579019027
 31
0.0
  0
ARC
  5
316
330
18
100
AcDbEntity
  8
1
  6
Continuous
100
AcDbCircle
 10
96.34185158782084
 20
306.7800579019027
 30
0.0
 40
2.0
100
AcDbArc
 50
0.0
 51
90.00000300000015
  0
ARC
  5
317
330
18
100
AcDbEntity
  8
1
  6
Continuous
100
AcDbCircle
 10
93.34186658782078
 20
313.2581849019026
 30
0.0
 40
4.0
100
AcDbArc
 50
0.0
 51
71.53935400000046
  0
ARC
  5
318
330
18
100
AcDbEntity
  8
5
  6
PHANTOM
 48
0.5
100
AcDbCircle
 10
255.8644605878208
 20
271.0510919019025
 30
0.0
 40
8.5
100
AcDbArc
 50
158.1563400000002
 51
183.6242
  0
CIRCLE
  5
319
330
18
100
AcDbEntity
  8
5
  6
PHANTOM
 48
0.5
100
AcDbCircle
 10
255.9418605878208
 20
269.8291839019026
 30
0.0
 40
4.0
  0
LINE
  5
31A
330
18
100
AcDbEntity
  8
5
  6
PHANTOM
 48
0.5
100
AcDbLine
 10
247.9160405878209
 20
269.0838029019027
 30
0.0
 11
248.3194405878208
 21
304.3287749019027
 31
0.0
  0
LINE
  5
31B
330
18
100
AcDbEntity
  8
1
  6
Continuous
100
AcDbLine
 10
233.3418705878208
 20
311.4403059019027
 30
0.0
 11
233.3418705878208
 21
228.5800609019025
 31
0.0
  0
LINE
  5
31C
330
18
100
AcDbEntity
  8
1
  6
Continuous
100
AcDbLine
 10
261.8418705878208
 20
258.2295439019026
 30
0.0
 11
261.8418705878208
 21
240.5800609019026
 31
0.0
  0
LINE
  5
31D
330
18
100
AcDbEntity
  8
5
  6
PHANTOM
 48
0.5
100
AcDbLine
 10
249.2904605878208
 20
240.3741779019027
 30
0.0
 11
247.3814505878208
 21
270.5137949019027
 31
0.0
  0
LINE
  5
31E
330
18
100
AcDbEntity
  8
1
  6
Continuous
100
AcDbLine
 10
253.6418505878208
 20
258.4899429019027
 30
0.0
 11
253.6418505878208
 21
240.5800609019026
 31
0.0
  0
ARC
  5
31F
330
18
100
AcDbEntity
  8
5
  6
PHANTOM
 48
0.5
100
AcDbCircle
 10
272.9143905878208
 20
268.7976899019025
 30
0.0
 40
25.0
100
AcDbArc
 50
179.3442499999999
 51
248.6652800000004
  0
CIRCLE
  5
320
330
18
100
AcDbEntity
  8
5
  6
PHANTOM
 48
0.5
100
AcDbCircle
 10
257.7418605878208
 20
241.4104899019027
 30
0.0
 40
6.0
  0
ARC
  5
321
330
18
100
AcDbEntity
  8
1
  6
Continuous
100
AcDbCircle
 10
257.7418605878208
 20
240.5800609019026
 30
0.0
 40
4.099999999999997
100
AcDbArc
 50
179.9999899999995
 51
0.0000099999997851
  0
ARC
  5
323
330
18
100
AcDbEntity
  8
1
  6
Continuous
100
AcDbCircle
 10
235.3418705878208
 20
228.5800609019025
 30
0.0
 40
2.0
100
AcDbArc
 50
179.9999899999995
 51
270.0
  0
LINE
  5
324
330
18
100
AcDbEntity
  8
1
  6
Continuous
100
AcDbLine
 10
236.1418705878207
 20
226.5800609019027
 30
0.0
 11
236.1418705878207
 21
219.7800579019026
 31
0.0
  0
ARC
  5
325
330
18
100
AcDbEntity
  8
1
  6
Continuous
100
AcDbCircle
 10
239.1418505878208
 20
219.7800579019026
 30
0.0
 40
3.0
100
AcDbArc
 50
179.9999899999995
 51
270.0
  0
LINE
  5
326
330
18
100
AcDbEntity
  8
1
  6
Continuous
100
AcDbLine
 10
241.8418705878208
 20
214.9921579019026
 30
0.0
 11
241.8418705878208
 21
216.7800579019027
 31
0.0
  0
ARC
  5
327
330
18
100
AcDbEntity
  8
5
  6
PHANTOM
 48
0.5
100
AcDbCircle
 10
257.7734805878208
 20
240.9114819019027
 30
0.0
 40
8.5
100
AcDbArc
 50
183.6242
 51
341.5360200000002
  0
ARC
  5
328
330
18
100
AcDbEntity
  8
1
  6
Continuous
100
AcDbCircle
 10
257.3106205878208
 20
266.1574149019027
 30
0.0
 40
8.5
100
AcDbArc
 50
120.4061899999997
 51
278.3180200000002
  0
ARC
  5
329
330
18
100
AcDbEntity
  8
1
  6
Continuous
100
AcDbCircle
 10
257.7418605878208
 20
258.2830489019027
 30
0.0
 40
4.099999999999997
100
AcDbArc
 50
179.9999899999995
 51
0.0000099999997851
  0
CIRCLE
  5
32A
330
18
100
AcDbEntity
  8
1
  6
Continuous
100
AcDbCircle
 10
257.7418605878208
 20
266.4104899019025
 30
0.0
 40
6.0
  0
CIRCLE
  5
32B
330
18
100
AcDbEntity
  8
1
  6
Continuous
100
AcDbCircle
 10
257.7418605878208
 20
266.3800559019027
 30
0.0
 40
2.0
  0
ARC
  5
32C
330
18
100
AcDbEntity
  8
1
  6
Continuous
100
AcDbCircle
 10
255.0884505878208
 20
301.7867529019026
 30
0.0
 40
7.0
100
AcDbArc
 50
142.55565
 51
230.9805200000003
  0
CIRCLE
  5
32D
330
18
100
AcDbEntity
  8
1
  6
Continuous
100
AcDbCircle
 10
257.7418605878208
 20
302.7800579019026
 30
0.0
 40
6.0
  0
CIRCLE
  5
32E
330
18
100
AcDbEntity
  8
1
  6
Continuous
100
AcDbCircle
 10
257.7418605878208
 20
302.7800579019026
 30
0.0
 40
2.0
  0
ARC
  5
32F
330
18
100
AcDbEntity
  8
5
  6
PHANTOM
 48
0.5
100
AcDbCircle
 10
255.8644605878208
 20
271.0510919019025
 30
0.0
 40
8.5
100
AcDbArc
 50
93.62419699999987
 51
158.1563400000002
  0
ARC
  5
331
330
18
100
AcDbEntity
  8
1
  6
Continuous
100
AcDbCircle
 10
228.3418705878208
 20
311.4403059019027
 30
0.0
 40
5.0
100
AcDbArc
 50
0.0
 51
30.00000099999995
  0
ARC
  5
332
330
18
100
AcDbEntity
  8
1
  6
Continuous
100
AcDbCircle
 10
258.1684305878208
 20
302.5192239019027
 30
0.0
 40
9.0
100
AcDbArc
 50
65.28495600000038
 51
142.55565
  0
LINE
  5
333
330
18
100
AcDbEntity
  8
5
  6
PHANTOM
 48
0.5
100
AcDbLine
 10
257.6738105878208
 20
311.2826859019027
 30
0.0
 11
255.2199205878205
 21
311.2479649019027
 31
0.0
  0
ARC
  5
334
330
18
100
AcDbEntity
  8
5
  6
PHANTOM
 48
0.5
100
AcDbCircle
 10
255.3189605878208
 20
304.2486629019027
 30
0.0
 40
7.0
100
AcDbArc
 50
90.81063000000007
 51
179.3442499999999
  0
ARC
  5
335
330
18
100
AcDbEntity
  8
1
  6
Continuous
100
AcDbCircle
 10
244.7418605878208
 20
307.7800579019026
 30
0.0
 40
5.0
100
AcDbArc
 50
0.0000030000001391
 51
90.00000300000015
  0
LINE
  5
336
330
18
100
AcDbEntity
  8
1
  6
Continuous
100
AcDbLine
 10
249.5308505878206
 20
306.0426869019027
 30
0.0
 11
251.0229405878209
 21
307.9911369019026
 31
0.0
  0
LINE
  5
337
330
18
100
AcDbEntity
  8
1
  6
Continuous
100
AcDbLine
 10
249.7418605878208
 20
307.7800579019026
 30
0.0
 11
249.7418605878208
 21
306.3182429019026
 31
0.0
  0
LINE
  5
33A
330
18
100
AcDbEntity
  8
1
  6
Continuous
100
AcDbLine
 10
117.7418605878207
 20
348.7800579019026
 30
0.0
 11
17.74186058782078
 21
348.7800579019026
 31
0.0
  0
LINE
  5
33B
330
18
100
AcDbEntity
  8
1
  6
Continuous
100
AcDbLine
 10
117.2418605878206
 20
340.7800579019026
 30
0.0
 11
18.24186058782078
 21
340.7800579019026
 31
0.0
  0
LINE
  5
33C
330
18
100
AcDbEntity
  8
1
  6
Continuous
100
AcDbLine
 10
17.74186058782078
 20
341.2800579019027
 30
0.0
 11
17.74186058782078
 21
348.7800579019026
 31
0.0
  0
ARC
  5
33D
330
18
100
AcDbEntity
  8
1
  6
Continuous
100
AcDbCircle
 10
18.24186058782078
 20
341.2800579019027
 30
0.0
 40
0.5
100
AcDbArc
 50
179.9999899999995
 51
270.0
  0
LINE
  5
33E
330
18
100
AcDbEntity
  8
4
  6
CENTER
 48
0.5
100
AcDbLine
 10
27.74186058782078
 20
336.4763169019027
 30
0.0
 11
27.74186058782078
 21
352.7831099019027
 31
0.0
  0
ARC
  5
33F
330
18
100
AcDbEntity
  8
1
  6
Continuous
100
AcDbCircle
 10
23.1345915878208
 20
333.7800579019027
 30
0.0
 40
7.0
100
AcDbArc
 50
30.0000039999997
 51
90.00000300000015
  0
ARC
  5
340
330
18
100
AcDbEntity
  8
1
  6
Continuous
100
AcDbCircle
 10
257.7418605878208
 20
458.7800579019027
 30
0.0
 40
5.0
100
AcDbArc
 50
323.1300999999997
 51
351.37307
  0
ARC
  5
341
330
18
100
AcDbEntity
  8
1
  6
Continuous
100
AcDbCircle
 10
257.7418605878208
 20
458.7800579019027
 30
0.0
 40
6.5
100
AcDbArc
 50
307.9798699999999
 51
52.02012799999963
  0
LINE
  5
342
330
18
100
AcDbEntity
  8
1
  6
Continuous
100
AcDbLine
 10
261.7418605878208
 20
457.2800579019027
 30
0.0
 11
261.7418605878208
 21
439.4393579019026
 31
0.0
  0
ARC
  5
343
330
18
100
AcDbEntity
  8
1
  6
Continuous
100
AcDbCircle
 10
257.7418605878208
 20
458.7800579019027
 30
0.0
 40
5.0
100
AcDbArc
 50
188.6269199999999
 51
216.8699000000001
  0
ARC
  5
344
330
18
100
AcDbEntity
  8
1
  6
Continuous
100
AcDbCircle
 10
257.7418605878208
 20
458.7800579019027
 30
0.0
 40
6.5
100
AcDbArc
 50
127.9798800000003
 51
232.0201299999999
  0
LINE
  5
345
330
18
100
AcDbEntity
  8
1
  6
Continuous
100
AcDbLine
 10
253.7418605878208
 20
457.2800579019027
 30
0.0
 11
253.7418605878208
 21
439.4393579019026
 31
0.0
  0
LINE
  5
346
330
18
100
AcDbEntity
  8
1
  6
Continuous
100
AcDbLine
 10
207.7418605878208
 20
498.7800579019026
 30
0.0
 11
207.7418605878208
 21
418.7800579019026
 31
0.0
  0
LINE
  5
347
330
18
100
AcDbEntity
  8
4
  6
CENTER
 48
0.5
100
AcDbLine
 10
257.7418605878208
 20
510.2028779019026
 30
0.0
 11
257.7418605878208
 21
410.0417779019027
 31
0.0
  0
ARC
  5
348
330
18
100
AcDbEntity
  8
1
  6
Continuous
100
AcDbCircle
 10
257.7418605878208
 20
458.7800579019027
 30
0.0
 40
16.0
100
AcDbArc
 50
104.4775099999994
 51
255.5224899999996
  0
ARC
  5
349
330
18
100
AcDbEntity
  8
1
  6
Continuous
100
AcDbCircle
 10
257.7418605878208
 20
458.7800579019027
 30
0.0
 40
12.0
100
AcDbArc
 50
109.4712200000001
 51
250.5287700000001
  0
ARC
  5
34A
330
18
100
AcDbEntity
  8
1
  6
Continuous
100
AcDbCircle
 10
17.10672858782078
 20
458.7800579019027
 30
0.0
 40
207.1169999999999
100
AcDbArc
 50
354.6775600000001
 51
5.322434000000146
  0
LINE
  5
34B
330
18
100
AcDbEntity
  8
1
  6
Continuous
100
AcDbLine
 10
223.3307605878207
 20
477.9923279019026
 30
0.0
 11
223.3307605878207
 21
439.5677879019027
 31
0.0
  0
ARC
  5
34C
330
18
100
AcDbEntity
  8
1
  6
Continuous
100
AcDbCircle
 10
112.3491295878207
 20
333.7800579019027
 30
0.0
 40
7.0
100
AcDbArc
 50
89.99999600000005
 51
149.9999999999998
  0
LINE
  5
34D
330
18
100
AcDbEntity
  8
4
  6
CENTER
 48
0.5
100
AcDbLine
 10
107.7418605878206
 20
336.0054069019026
 30
0.0
 11
107.7418605878206
 21
353.0699439019027
 31
0.0
  0
LINE
  5
34E
330
18
100
AcDbEntity
  8
1
  6
Continuous
100
AcDbLine
 10
117.7418605878207
 20
341.2800579019027
 30
0.0
 11
117.7418605878207
 21
348.7800579019026
 31
0.0
  0
ARC
  5
34F
330
18
100
AcDbEntity
  8
1
  6
Continuous
100
AcDbCircle
 10
117.2418605878206
 20
341.2800579019027
 30
0.0
 40
0.5
100
AcDbArc
 50
270.0
 51
0.0000030000001391
  0
LINE
  5
352
330
18
100
AcDbEntity
  8
4
  6
CENTER
 48
0.5
100
AcDbLine
 10
217.7418605878208
 20
336.4763169019027
 30
0.0
 11
217.7418605878208
 21
351.6233039019027
 31
0.0
  0
LINE
  5
353
330
18
100
AcDbEntity
  8
1
  6
Continuous
100
AcDbLine
 10
207.7418605878208
 20
340.7800579019026
 30
0.0
 11
207.7418605878208
 21
348.7800579019026
 31
0.0
  0
ARC
  5
354
330
18
100
AcDbEntity
  8
1
  6
Continuous
100
AcDbCircle
 10
214.2893005878206
 20
335.7800579019027
 30
0.0
 40
5.0
100
AcDbArc
 50
30.00000099999995
 51
90.00000300000015
  0
ARC
  5
355
330
18
100
AcDbEntity
  8
1
  6
Continuous
100
AcDbCircle
 10
241.7210205878208
 20
363.7800579019026
 30
0.0
 40
50.0
100
AcDbArc
 50
89.99999600000005
 51
113.5564699999995
  0
LINE
  5
356
330
18
100
AcDbEntity
  8
4
  6
CENTER
 48
0.5
100
AcDbLine
 10
225.2418605878208
 20
418.7800579019026
 30
0.0
 11
210.2418605878208
 21
418.7800579019026
 31
0.0
  0
ARC
  5
358
330
18
100
AcDbEntity
  8
1
  6
Continuous
100
AcDbCircle
 10
217.7418605878208
 20
418.7800579019026
 30
0.0
 40
10.0
100
AcDbArc
 50
179.9999899999995
 51
293.5564799999996
  0
LINE
  5
359
330
18
100
AcDbEntity
  8
4
  6
CENTER
 48
0.5
100
AcDbLine
 10
217.7418605878208
 20
426.2800579019026
 30
0.0
 11
217.7418605878208
 21
411.2800579019027
 31
0.0
  0
CIRCLE
  5
35A
330
18
100
AcDbEntity
  8
1
  6
Continuous
100
AcDbCircle
 10
217.7418605878208
 20
418.7800579019026
 30
0.0
 40
4.25
  0
ARC
  5
35B
330
18
100
AcDbEntity
  8
1
  6
Continuous
100
AcDbCircle
 10
241.7210205878208
 20
553.7800579019026
 30
0.0
 40
50.0
100
AcDbArc
 50
246.4435399999995
 51
270.0
  0
LINE
  5
35C
330
18
100
AcDbEntity
  8
4
  6
CENTER
 48
0.5
100
AcDbLine
 10
225.2418605878208
 20
498.7800579019026
 30
0.0
 11
210.2418605878208
 21
498.7800579019026
 31
0.0
  0
CIRCLE
  5
35E
330
18
100
AcDbEntity
  8
1
  6
Continuous
100
AcDbCircle
 10
217.7418605878208
 20
498.7800579019026
 30
0.0
 40
4.25
  0
LINE
  5
35F
330
18
100
AcDbEntity
  8
4
  6
CENTER
 48
0.5
100
AcDbLine
 10
217.7418605878208
 20
491.2800579019026
 30
0.0
 11
217.7418605878208
 21
506.2800579019026
 31
0.0
  0
ARC
  5
360
330
18
100
AcDbEntity
  8
1
  6
Continuous
100
AcDbCircle
 10
217.7418605878208
 20
498.7800579019026
 30
0.0
 40
10.0
100
AcDbArc
 50
66.44353400000013
 51
180.0000100000002
  0
LINE
  5
361
330
18
100
AcDbEntity
  8
1
  6
Continuous
100
AcDbLine
 10
261.7418605878208
 20
478.1207579019027
 30
0.0
 11
261.7418605878208
 21
460.2800579019026
 31
0.0
  0
LINE
  5
362
330
18
100
AcDbEntity
  8
1
  6
Continuous
100
AcDbLine
 10
253.7418605878208
 20
478.1207579019027
 30
0.0
 11
253.7418605878208
 21
460.2800579019026
 31
0.0
  0
LINE
  5
363
330
18
100
AcDbEntity
  8
1
  6
Continuous
100
AcDbLine
 10
262.9918605878208
 20
459.5300579019027
 30
0.0
 11
252.4918605878208
 21
459.5300579019027
 31
0.0
  0
LINE
  5
364
330
18
100
AcDbEntity
  8
1
  6
Continuous
100
AcDbLine
 10
262.9918605878208
 20
458.0300579019026
 30
0.0
 11
252.4918605878208
 21
458.0300579019026
 31
0.0
  0
LINE
  5
365
330
18
100
AcDbEntity
  8
1
  6
Continuous
100
AcDbLine
 10
261.7418605878208
 20
460.2800579019026
 30
0.0
 11
253.7418605878208
 21
460.2800579019026
 31
0.0
  0
LINE
  5
366
330
18
100
AcDbEntity
  8
1
  6
Continuous
100
AcDbLine
 10
261.7418605878208
 20
457.2800579019027
 30
0.0
 11
253.7418605878208
 21
457.2800579019027
 31
0.0
  0
LINE
  5
367
330
18
100
AcDbEntity
  8
1
  6
Continuous
100
AcDbLine
 10
254.7418605878208
 20
458.0300579019026
 30
0.0
 11
254.7418605878208
 21
457.2800579019027
 31
0.0
  0
ARC
  5
368
330
18
100
AcDbEntity
  8
1
  6
Continuous
100
AcDbCircle
 10
252.4918605878208
 20
458.7800579019027
 30
0.0
 40
0.75
100
AcDbArc
 50
90.00000300000015
 51
270.0
  0
ARC
  5
369
330
18
100
AcDbEntity
  8
1
  6
Continuous
100
AcDbCircle
 10
257.7418605878208
 20
458.7800579019027
 30
0.0
 40
5.0
100
AcDbArc
 50
143.1300999999996
 51
171.3730800000001
  0
LINE
  5
36A
330
18
100
AcDbEntity
  8
1
  6
Continuous
100
AcDbLine
 10
254.7418605878208
 20
460.2800579019026
 30
0.0
 11
254.7418605878208
 21
459.5300579019027
 31
0.0
  0
LINE
  5
36B
330
18
100
AcDbEntity
  8
1
  6
Continuous
100
AcDbLine
 10
260.7418605878208
 20
458.0300579019026
 30
0.0
 11
260.7418605878208
 21
457.2800579019027
 31
0.0
  0
LINE
  5
36C
330
18
100
AcDbEntity
  8
1
  6
Continuous
100
AcDbLine
 10
260.7418605878208
 20
460.2800579019026
 30
0.0
 11
260.7418605878208
 21
459.5300579019027
 31
0.0
  0
ARC
  5
36D
330
18
100
AcDbEntity
  8
1
  6
Continuous
100
AcDbCircle
 10
262.9918605878208
 20
458.7800579019027
 30
0.0
 40
0.75
100
AcDbArc
 50
270.0
 51
90.00000300000015
  0
ARC
  5
36E
330
18
100
AcDbEntity
  8
1
  6
Continuous
100
AcDbCircle
 10
257.7418605878208
 20
458.7800579019027
 30
0.0
 40
5.0
100
AcDbArc
 50
8.62692699999982
 51
36.86989699999978
  0
LINE
  5
36F
330
18
100
AcDbEntity
  8
1
  6
Continuous
100
AcDbLine
 10
296.5756305878207
 20
337.7800579019027
 30
0.0
 11
283.8072405878206
 21
300.6260739019026
 31
0.0
  0
LINE
  5
370
330
18
100
AcDbEntity
  8
1
  6
Continuous
100
AcDbLine
 10
296.8643105878208
 20
338.2800619019026
 30
0.0
 11
282.8117305878208
 21
313.9403019019026
 31
0.0
  0
ARC
  5
371
330
18
100
AcDbEntity
  8
1
  6
Continuous
100
AcDbCircle
 10
270.6418505878208
 20
214.9921579019026
 30
0.0
 40
3.0
100
AcDbArc
 50
270.0
 51
0.0000180000000203
  0
LINE
  5
372
330
18
100
AcDbEntity
  8
5
  6
PHANTOM
 48
0.5
100
AcDbLine
 10
273.6418505878209
 20
189.9917579019026
 30
0.0
 11
273.6418505878209
 21
214.0941909019026
 31
0.0
  0
ARC
  5
373
330
18
100
AcDbEntity
  8
5
  6
PHANTOM
 48
0.5
100
AcDbCircle
 10
294.2418605878208
 20
181.7800579019026
 30
0.0
 40
3.5
100
AcDbArc
 50
0.0000369999998155
 51
90.00001599999967
  0
LINE
  5
374
330
18
100
AcDbEntity
  8
5
  6
PHANTOM
 48
0.5
100
AcDbLine
 10
297.7418605878209
 20
181.7800579019026
 30
0.0
 11
297.7418605878209
 21
178.9800549019027
 31
0.0
  0
LINE
  5
375
330
18
100
AcDbEntity
  8
5
  6
PHANTOM
 48
0.5
100
AcDbLine
 10
296.8992805878209
 20
178.9800399019027
 30
0.0
 11
296.0418505878208
 21
175.7800379019025
 31
0.0
  0
ARC
  5
376
330
18
100
AcDbEntity
  8
5
  6
PHANTOM
 48
0.5
100
AcDbCircle
 10
270.6418505878208
 20
189.9917579019026
 30
0.0
 40
3.0
100
AcDbArc
 50
270.0
 51
0.0000180000000203
  0
ARC
  5
377
330
18
100
AcDbEntity
  8
5
  6
PHANTOM
 48
0.5
100
AcDbCircle
 10
271.4918605878208
 20
186.2800579019026
 30
0.0
 40
1.0
100
AcDbArc
 50
225.0070099999998
 51
270.0000500000001
  0
LINE
  5
378
330
18
100
AcDbEntity
  8
5
  6
PHANTOM
 48
0.5
100
AcDbLine
 10
269.3655805878208
 20
186.9917509019026
 30
0.0
 11
270.7848305878207
 21
185.5728509019025
 31
0.0
  0
LINE
  5
379
330
18
100
AcDbEntity
  8
1
  6
Continuous
100
AcDbLine
 10
269.3652005878208
 20
211.9921579019027
 30
0.0
 11
270.7848405878209
 21
210.5728699019027
 31
0.0
  0
ARC
  5
37A
330
18
100
AcDbEntity
  8
1
  6
Continuous
100
AcDbCircle
 10
271.4918605878208
 20
211.2800609019026
 30
0.0
 40
1.0
100
AcDbArc
 50
225.0070099999998
 51
270.0000500000001
  0
LINE
  5
37B
330
18
100
AcDbEntity
  8
1
  6
Continuous
100
AcDbLine
 10
297.7418605878209
 20
206.7800609019026
 30
0.0
 11
297.7418605878209
 21
203.9800729019026
 31
0.0
  0
LINE
  5
37C
330
18
100
AcDbEntity
  8
1
  6
Continuous
100
AcDbLine
 10
296.8992805878208
 20
203.9800729019026
 30
0.0
 11
296.0418505878208
 21
200.7800769019027
 31
0.0
  0
ARC
  5
37D
330
18
100
AcDbEntity
  8
1
  6
Continuous
100
AcDbCircle
 10
294.2418605878208
 20
206.7800609019026
 30
0.0
 40
3.5
100
AcDbArc
 50
0.0000369999998155
 51
90.00001599999967
  0
LINE
  5
37E
330
18
100
AcDbEntity
  8
1
  6
Continuous
100
AcDbLine
 10
353.4423305878208
 20
310.2972129019026
 30
0.0
 11
368.2067005878208
 21
310.7230779019027
 31
0.0
  0
LINE
  5
37F
330
18
100
AcDbEntity
  8
1
  6
Continuous
100
AcDbLine
 10
348.2486705878208
 20
317.4504379019027
 30
0.0
 11
383.2341105878207
 21
318.4595619019026
 31
0.0
  0
ARC
  5
380
330
18
100
AcDbEntity
  8
1
  6
Continuous
100
AcDbCircle
 10
357.3062205878207
 20
315.5857789019027
 30
0.0
 40
3.625019999999998
100
AcDbArc
 50
48.04971799999981
 51
135.2547700000001
  0
ARC
  5
381
330
18
100
AcDbEntity
  8
1
  6
Continuous
100
AcDbCircle
 10
293.8030905878207
 20
293.5825019019026
 30
0.0
 40
25.0
100
AcDbArc
 50
230.98051
 51
300.2969100000003
  0
LINE
  5
382
330
18
100
AcDbEntity
  8
5
  6
PHANTOM
 48
0.5
100
AcDbLine
 10
275.5073605878205
 20
269.4118169019026
 30
0.0
 11
274.7881605878205
 21
280.7667319019027
 31
0.0
  0
LINE
  5
383
330
18
100
AcDbEntity
  8
5
  6
PHANTOM
 48
0.5
100
AcDbLine
 10
298.9997005878206
 20
270.2762069019025
 30
0.0
 11
298.0199205878207
 21
285.7452149019026
 31
0.0
  0
LINE
  5
384
330
18
100
AcDbEntity
  8
1
  6
Continuous
100
AcDbLine
 10
306.4151205878208
 20
271.9969359019027
 30
0.0
 11
349.4462405878207
 21
297.1391699019026
 31
0.0
  0
LINE
  5
385
330
18
100
AcDbEntity
  8
4
  6
CENTER
 48
0.5
100
AcDbLine
 10
282.4592505878208
 20
288.4156859019027
 30
0.0
 11
282.4592505878208
 21
273.4156859019027
 31
0.0
  0
LINE
  5
386
330
18
100
AcDbEntity
  8
1
  6
Continuous
100
AcDbLine
 10
302.1017205878208
 20
242.5852869019025
 30
0.0
 11
315.4698405878209
 21
250.4302559019027
 31
0.0
  0
LINE
  5
387
330
18
100
AcDbEntity
  8
1
  6
Continuous
100
AcDbLine
 10
305.3473105878206
 20
267.6794219019027
 30
0.0
 11
317.5463905878206
 21
246.8917329019026
 31
0.0
  0
ARC
  5
388
330
18
100
AcDbEntity
  8
5
  6
PHANTOM
 48
0.5
100
AcDbCircle
 10
312.7881705878209
 20
233.8994349019027
 30
0.0
 40
7.0
100
AcDbArc
 50
248.66527
 51
332.0205599999998
  0
LINE
  5
389
330
18
100
AcDbEntity
  8
4
  6
CENTER
 48
0.5
100
AcDbLine
 10
315.8064005878208
 20
239.5808049019027
 30
0.0
 11
309.9309205878209
 21
228.5210549019026
 31
0.0
  0
CIRCLE
  5
38A
330
18
100
AcDbEntity
  8
5
  6
PHANTOM
 48
0.5
100
AcDbCircle
 10
312.7881905878207
 20
233.8994279019027
 30
0.0
 40
2.6
  0
LINE
  5
38B
330
18
100
AcDbEntity
  8
4
  6
CENTER
 48
0.5
100
AcDbLine
 10
308.4559305878209
 20
236.2009299019026
 30
0.0
 11
317.3215305878207
 21
231.4910909019026
 31
0.0
  0
LINE
  5
38C
330
18
100
AcDbEntity
  8
5
  6
PHANTOM
 48
0.5
100
AcDbLine
 10
299.5717905878206
 20
254.8485909019027
 30
0.0
 11
324.7405905878206
 21
241.4776709019026
 31
0.0
  0
CIRCLE
  5
38D
330
18
100
AcDbEntity
  8
5
  6
PHANTOM
 48
0.5
100
AcDbCircle
 10
299.5414205878208
 20
240.9367579019026
 30
0.0
 40
3.5
  0
LINE
  5
38E
330
18
100
AcDbEntity
  8
5
  6
PHANTOM
 48
0.5
100
AcDbLine
 10
299.5717905878208
 20
254.8485909019027
 30
0.0
 11
289.8467905878208
 21
236.5427229019026
 31
0.0
  0
LINE
  5
38F
330
18
100
AcDbEntity
  8
4
  6
CENTER
 48
0.5
100
AcDbLine
 10
302.5660805878207
 20
246.6302239019027
 30
0.0
 11
296.6795905878208
 21
235.5497529019026
 31
0.0
  0
LINE
  5
390
330
18
100
AcDbEntity
  8
1
  6
Continuous
100
AcDbLine
 10
282.8996705878208
 20
248.6331649019026
 30
0.0
 11
291.4836805878207
 21
242.8958909019026
 31
0.0
  0
LINE
  5
391
330
18
100
AcDbEntity
  8
1
  6
Continuous
100
AcDbLine
 10
282.1418505878209
 20
249.9244819019025
 30
0.0
 11
282.1418505878209
 21
228.5800609019025
 31
0.0
  0
ARC
  5
392
330
18
100
AcDbEntity
  8
1
  6
Continuous
100
AcDbCircle
 10
280.1418505878208
 20
228.5800609019025
 30
0.0
 40
2.0
100
AcDbArc
 50
270.0
 51
0.0000030000001391
  0
ARC
  5
393
330
18
100
AcDbEntity
  8
1
  6
Continuous
100
AcDbCircle
 10
276.3418705878208
 20
219.7800579019026
 30
0.0
 40
3.0
100
AcDbArc
 50
270.0
 51
0.0000030000001391
  0
LINE
  5
394
330
18
100
AcDbEntity
  8
1
  6
Continuous
100
AcDbLine
 10
273.6418505878209
 20
214.9921579019026
 30
0.0
 11
273.6418505878209
 21
216.7800579019027
 31
0.0
  0
LINE
  5
395
330
18
100
AcDbEntity
  8
1
  6
Continuous
100
AcDbLine
 10
279.3418705878208
 20
226.5800609019027
 30
0.0
 11
279.3418705878208
 21
219.7800579019026
 31
0.0
  0
LINE
  5
396
330
18
100
AcDbEntity
  8
4
  6
CENTER
 48
0.5
100
AcDbLine
 10
295.4202405878209
 20
243.1261389019026
 30
0.0
 11
303.8369505878208
 21
238.6547569019026
 31
0.0
  0
ARC
  5
397
330
18
100
AcDbEntity
  8
1
  6
Continuous
100
AcDbCircle
 10
297.0404705878209
 20
251.2098679019027
 30
0.0
 40
10.0
100
AcDbArc
 50
236.2425300000001
 51
300.4061899999996
  0
ARC
  5
398
330
18
100
AcDbEntity
  8
5
  6
PHANTOM
 48
0.5
100
AcDbCircle
 10
290.7299305878208
 20
236.0735609019026
 30
0.0
 40
1.0
100
AcDbArc
 50
152.0205399999999
 51
248.6653000000002
  0
LINE
  5
399
330
18
100
AcDbEntity
  8
1
  6
Continuous
100
AcDbLine
 10
278.5645505878207
 20
256.0203549019027
 30
0.0
 11
300.5572605878207
 21
268.9265909019026
 31
0.0
  0
LINE
  5
39A
330
18
100
AcDbEntity
  8
5
  6
PHANTOM
 48
0.5
100
AcDbLine
 10
288.7377605878208
 20
257.9997349019027
 30
0.0
 11
293.9379705878208
 21
260.9371419019026
 31
0.0
  0
LINE
  5
39B
330
18
100
AcDbEntity
  8
5
  6
PHANTOM
 48
0.5
100
AcDbLine
 10
284.1350905878206
 20
260.4449009019026
 30
0.0
 11
298.4927105878206
 21
252.8174209019026
 31
0.0
  0
LINE
  5
39C
330
18
100
AcDbEntity
  8
1
  6
Continuous
100
AcDbLine
 10
282.8996705878208
 20
248.6331669019026
 30
0.0
 11
276.7307805878207
 21
259.1451759019026
 31
0.0
  0
LINE
  5
39D
330
18
100
AcDbEntity
  8
5
  6
PHANTOM
 48
0.5
100
AcDbLine
 10
276.4000605878208
 20
255.3177219019027
 30
0.0
 11
275.5073605878208
 21
269.4118239019027
 31
0.0
  0
LINE
  5
39E
330
18
100
AcDbEntity
  8
5
  6
PHANTOM
 48
0.5
100
AcDbLine
 10
284.948190587821
 20
255.8591499019025
 30
0.0
 11
272.7841605878206
 21
255.0886959019027
 31
0.0
  0
LINE
  5
39F
330
18
100
AcDbEntity
  8
5
  6
PHANTOM
 48
0.5
100
AcDbLine
 10
267.7569405878208
 20
243.9728219019027
 30
0.0
 11
271.0135305878208
 21
253.7261049019027
 31
0.0
  0
ARC
  5
3A0
330
18
100
AcDbEntity
  8
5
  6
PHANTOM
 48
0.5
100
AcDbCircle
 10
272.9105805878206
 20
253.0926949019026
 30
0.0
 40
2.0
100
AcDbArc
 50
93.62419699999987
 51
161.5360399999999
  0
LINE
  5
3A1
330
18
100
AcDbEntity
  8
5
  6
PHANTOM
 48
0.5
100
AcDbLine
 10
284.9482005878206
 20
255.8591479019026
 30
0.0
 11
288.7377605878208
 21
257.9997349019027
 31
0.0
  0
ARC
  5
3A2
330
18
100
AcDbEntity
  8
5
  6
PHANTOM
 48
0.5
100
AcDbCircle
 10
293.5181805878208
 20
278.1072219019026
 30
0.0
 40
20.0
100
AcDbArc
 50
193.6550699999999
 51
242.0205599999998
  0
ARC
  5
3A3
330
18
100
AcDbEntity
  8
1
  6
Continuous
100
AcDbCircle
 10
275.0058505878208
 20
258.1329249019026
 30
0.0
 40
2.0
100
AcDbArc
 50
30.40619200000005
 51
98.31802500000037
  0
ARC
  5
3A4
330
18
100
AcDbEntity
  8
5
  6
PHANTOM
 48
0.5
100
AcDbCircle
 10
289.0197105878208
 20
269.6440869019027
 30
0.0
 40
10.0
100
AcDbArc
 50
299.4605399999998
 51
3.624196999999916
  0
ARC
  5
3A5
330
18
100
AcDbEntity
  8
1
  6
Continuous
100
AcDbCircle
 10
302.6850405878208
 20
267.2765709019027
 30
0.0
 40
1.0
100
AcDbArc
 50
210.4061799999993
 51
300.4061899999996
  0
LINE
  5
3A6
330
18
100
AcDbEntity
  8
1
  6
Continuous
100
AcDbLine
 10
303.1911705878208
 20
266.4141059019026
 30
0.0
 11
305.3473105878206
 21
267.6794219019027
 31
0.0
  0
LINE
  5
3A7
330
18
100
AcDbEntity
  8
1
  6
Continuous
100
AcDbLine
 10
300.2612205878208
 20
269.4310509019027
 30
0.0
 11
301.8225805878208
 21
266.7704369019026
 31
0.0
  0
LINE
  5
3A8
330
18
100
AcDbEntity
  8
1
  6
Continuous
100
AcDbLine
 10
317.8512405878208
 20
246.1703359019026
 30
0.0
 11
320.1093405878209
 21
237.9757599019026
 31
0.0
  0
LINE
  5
3A9
330
18
100
AcDbEntity
  8
1
  6
Continuous
100
AcDbLine
 10
314.9590205878206
 20
245.3733539019026
 30
0.0
 11
317.2171405878208
 21
237.1787779019026
 31
0.0
  0
ARC
  5
3AA
330
18
100
AcDbEntity
  8
5
  6
PHANTOM
 48
0.5
100
AcDbCircle
 10
336.3657305878206
 20
224.3172739019025
 30
0.0
 40
5.0
100
AcDbArc
 50
220.0205500000004
 51
310.0205699999999
  0
LINE
  5
3AB
330
18
100
AcDbEntity
  8
5
  6
PHANTOM
 48
0.5
100
AcDbLine
 10
325.4229205878208
 20
240.9255389019026
 30
0.0
 11
347.930090587821
 21
214.1220529019026
 31
0.0
  0
ARC
  5
3AC
330
18
100
AcDbEntity
  8
5
  6
PHANTOM
 48
0.5
100
AcDbCircle
 10
329.5831105878209
 20
232.6666929019026
 30
0.0
 40
3.625019999999998
100
AcDbArc
 50
356.4180799999999
 51
83.62313299999986
  0
LINE
  5
3AD
330
18
100
AcDbEntity
  8
5
  6
PHANTOM
 48
0.5
100
AcDbLine
 10
323.0383105878208
 20
232.4134199019026
 30
0.0
 11
332.5366805878207
 21
221.1019499019025
 31
0.0
  0
ARC
  5
3AE
330
18
100
AcDbEntity
  8
5
  6
PHANTOM
 48
0.5
100
AcDbCircle
 10
321.5066605878208
 20
231.1272869019027
 30
0.0
 40
2.0
100
AcDbArc
 50
40.02046899999974
 51
152.0205299999998
  0
LINE
  5
3AF
330
18
100
AcDbEntity
  8
5
  6
PHANTOM
 48
0.5
100
AcDbLine
 10
319.7404405878208
 20
232.0655999019026
 30
0.0
 11
318.9699905878207
 21
230.6153429019027
 31
0.0
  0
LINE
  5
3B0
330
18
100
AcDbEntity
  8
1
  6
Continuous
100
AcDbLine
 10
320.1093405878209
 20
237.9757599019026
 30
0.0
 11
317.2171405878208
 21
237.1787779019026
 31
0.0
  0
LINE
  5
3B1
330
18
100
AcDbEntity
  8
5
  6
PHANTOM
 48
0.5
100
AcDbLine
 10
333.2010405878208
 20
232.4402029019025
 30
0.0
 11
332.8181405878208
 21
232.1186769019027
 31
0.0
  0
ARC
  5
3B2
330
18
100
AcDbEntity
  8
5
  6
PHANTOM
 48
0.5
100
AcDbCircle
 10
323.6615205878208
 20
239.4465009019026
 30
0.0
 40
2.299999999999998
100
AcDbArc
 50
40.02055099999986
 51
62.020529
  0
LINE
  5
3B3
330
18
100
AcDbEntity
  8
5
  6
PHANTOM
 48
0.5
100
AcDbLine
 10
329.9857305878207
 20
236.2692779019027
 30
0.0
 11
329.6028205878208
 21
235.9477479019026
 31
0.0
  0
ARC
  5
3B4
330
18
100
AcDbEntity
  8
5
  6
PHANTOM
 48
0.5
100
AcDbCircle
 10
335.3706605878207
 20
225.7743969019026
 30
0.0
 40
3.625007
100
AcDbArc
 50
356.4178499999999
 51
83.62333799999985
  0
LINE
  5
3B5
330
18
100
AcDbEntity
  8
5
  6
PHANTOM
 48
0.5
100
AcDbLine
 10
339.690560587821
 20
220.3577629019027
 30
0.0
 11
346.1687105878208
 21
212.6430189019027
 31
0.0
  0
ARC
  5
3B6
330
18
100
AcDbEntity
  8
5
  6
PHANTOM
 48
0.5
100
AcDbCircle
 10
341.1582105878208
 20
218.8820629019026
 30
0.0
 40
3.625011999999999
100
AcDbArc
 50
356.4180799999999
 51
83.62333799999985
  0
ARC
  5
3B7
330
18
100
AcDbEntity
  8
5
  6
PHANTOM
 48
0.5
100
AcDbCircle
 10
341.0600705878207
 20
218.7268349019027
 30
0.0
 40
2.299999999999998
100
AcDbArc
 50
40.02055099999986
 51
130.0205900000001
  0
LINE
  5
3B8
330
18
100
AcDbEntity
  8
5
  6
PHANTOM
 48
0.5
100
AcDbLine
 10
338.9886605878206
 20
225.5477929019026
 30
0.0
 11
338.6057705878207
 21
225.2262749019026
 31
0.0
  0
LINE
  5
3B9
330
18
100
AcDbEntity
  8
5
  6
PHANTOM
 48
0.5
100
AcDbLine
 10
341.5608805878209
 20
222.4846059019025
 30
0.0
 11
341.1779605878208
 21
222.1630759019026
 31
0.0
  0
LINE
  5
3BA
330
18
100
AcDbEntity
  8
5
  6
PHANTOM
 48
0.5
100
AcDbLine
 10
344.7762205878209
 20
218.6555119019025
 30
0.0
 11
344.3932905878209
 21
218.3339709019026
 31
0.0
  0
LINE
  5
3BB
330
18
100
AcDbEntity
  8
5
  6
PHANTOM
 48
0.5
100
AcDbLine
 10
347.9301505878208
 20
214.1219919019027
 30
0.0
 11
346.1688005878209
 21
212.6429499019026
 31
0.0
  0
LINE
  5
3BC
330
18
100
AcDbEntity
  8
5
  6
PHANTOM
 48
0.5
100
AcDbLine
 10
335.7732805878206
 20
229.3769669019027
 30
0.0
 11
335.3903705878205
 21
229.0554369019026
 31
0.0
  0
LINE
  5
3BD
330
18
100
AcDbEntity
  8
1
  6
Continuous
100
AcDbLine
 10
312.8824705878208
 20
248.9118749019027
 30
0.0
 11
314.9590205878206
 21
245.3733539019026
 31
0.0
  0
ARC
  5
3BE
330
18
100
AcDbEntity
  8
1
  6
Continuous
100
AcDbCircle
 10
314.9590205878208
 20
245.3733499019026
 30
0.0
 40
3.0
100
AcDbArc
 50
15.40619300000017
 51
30.40618899999987
  0
LINE
  5
3BF
330
18
100
AcDbEntity
  8
5
  6
PHANTOM
 48
0.5
100
AcDbLine
 10
311.228920587821
 20
284.2750589019026
 30
0.0
 11
310.6372005878208
 21
281.3339949019027
 31
0.0
  0
LINE
  5
3C0
330
18
100
AcDbEntity
  8
5
  6
PHANTOM
 48
0.5
100
AcDbLine
 10
302.8959105878208
 20
285.9516269019026
 30
0.0
 11
311.2289205878208
 21
284.2750589019026
 31
0.0
  0
LINE
  5
3C1
330
18
100
AcDbEntity
  8
1
  6
Continuous
100
AcDbLine
 10
307.3168305878206
 20
297.1952459019027
 30
0.0
 11
322.2090505878207
 21
303.7176549019026
 31
0.0
  0
LINE
  5
3C2
330
18
100
AcDbEntity
  8
1
  6
Continuous
100
AcDbLine
 10
282.1418505878209
 20
311.4403059019027
 30
0.0
 11
282.1418505878209
 21
301.3925989019027
 31
0.0
  0
LINE
  5
3C3
330
18
100
AcDbEntity
  8
5
  6
PHANTOM
 48
0.5
100
AcDbLine
 10
278.0599305878208
 20
284.4809759019028
 30
0.0
 11
302.1145405878209
 21
286.0045639019028
 31
0.0
  0
LINE
  5
3C4
330
18
100
AcDbEntity
  8
4
  6
CENTER
 48
0.5
100
AcDbLine
 10
274.9592505878208
 20
280.9156859019026
 30
0.0
 11
289.9592505878207
 21
280.9156859019026
 31
0.0
  0
ARC
  5
3C5
330
18
100
AcDbEntity
  8
5
  6
PHANTOM
 48
0.5
100
AcDbCircle
 10
277.2199505878206
 20
281.9227579019027
 30
0.0
 40
1.0
100
AcDbArc
 50
273.6241899999996
 51
3.62420000000012
  0
LINE
  5
3C6
330
18
100
AcDbEntity
  8
5
  6
PHANTOM
 48
0.5
100
AcDbLine
 10
272.3281805878209
 20
280.6109209019027
 30
0.0
 11
277.2831705878207
 21
280.9247629019025
 31
0.0
  0
CIRCLE
  5
3C7
330
18
100
AcDbEntity
  8
1
  6
Continuous
100
AcDbCircle
 10
282.4592505878208
 20
280.9156859019026
 30
0.0
 40
4.0
  0
LINE
  5
3C8
330
18
100
AcDbEntity
  8
5
  6
PHANTOM
 48
0.5
100
AcDbLine
 10
278.2179605878208
 20
281.9859749019027
 30
0.0
 11
278.0599305878208
 21
284.4809759019026
 31
0.0
  0
LINE
  5
3C9
330
18
100
AcDbEntity
  8
5
  6
PHANTOM
 48
0.5
100
AcDbLine
 10
298.2095605878206
 20
282.7512149019026
 30
0.0
 11
302.3041805878208
 21
283.0105629019026
 31
0.0
  0
LINE
  5
3CA
330
18
100
AcDbEntity
  8
5
  6
PHANTOM
 48
0.5
100
AcDbLine
 10
302.3041805878208
 20
283.0105629019026
 30
0.0
 11
310.6372005878208
 21
281.3339949019027
 31
0.0
  0
ARC
  5
3CB
330
18
100
AcDbEntity
  8
5
  6
PHANTOM
 48
0.5
100
AcDbCircle
 10
302.3041805878208
 20
283.0105569019027
 30
0.0
 40
3.0
100
AcDbArc
 50
78.62419899999986
 51
93.62419699999987
  0
ARC
  5
3CC
330
18
100
AcDbEntity
  8
1
  6
Continuous
100
AcDbCircle
 10
299.2931605878208
 20
315.5151959019026
 30
0.0
 40
20.0
100
AcDbArc
 50
245.2849500000001
 51
293.6521899999998
  0
ARC
  5
3CD
330
18
100
AcDbEntity
  8
1
  6
Continuous
100
AcDbCircle
 10
287.1418505878208
 20
311.4403059019027
 30
0.0
 40
5.0
100
AcDbArc
 50
149.9999999999998
 51
180.0000100000002
  0
ARC
  5
3CE
330
18
100
AcDbEntity
  8
1
  6
Continuous
100
AcDbCircle
 10
345.9148305878207
 20
303.1831269019026
 30
0.0
 40
7.0
100
AcDbArc
 50
300.2969
 51
23.65218999999981
  0
LINE
  5
3CF
330
18
100
AcDbEntity
  8
4
  6
CENTER
 48
0.5
100
AcDbLine
 10
343.3338905878207
 20
309.0760439019027
 30
0.0
 11
348.3581305878205
 21
297.6044919019027
 31
0.0
  0
CIRCLE
  5
3D0
330
18
100
AcDbEntity
  8
1
  6
Continuous
100
AcDbCircle
 10
345.9148305878207
 20
303.1831269019026
 30
0.0
 40
2.6
  0
LINE
  5
3D1
330
18
100
AcDbEntity
  8
4
  6
CENTER
 48
0.5
100
AcDbLine
 10
341.9060605878208
 20
301.4273839019028
 30
0.0
 11
350.6169505878208
 21
305.2425399019027
 31
0.0
  0
LINE
  5
3D2
330
18
100
AcDbEntity
  8
1
  6
Continuous
100
AcDbLine
 10
321.2863205878206
 20
305.8244529019026
 30
0.0
 11
329.6023505878208
 21
286.8369859019027
 31
0.0
  0
CIRCLE
  5
3D3
330
18
100
AcDbEntity
  8
1
  6
Continuous
100
AcDbCircle
 10
332.1748705878208
 20
297.1653729019026
 30
0.0
 40
3.5
  0
LINE
  5
3D4
330
18
100
AcDbEntity
  8
4
  6
CENTER
 48
0.5
100
AcDbLine
 10
327.9002205878208
 20
295.2931859019026
 30
0.0
 11
336.4808305878209
 21
299.0512699019026
 31
0.0
  0
LINE
  5
3D5
330
18
100
AcDbEntity
  8
4
  6
CENTER
 48
0.5
100
AcDbLine
 10
329.5884305878209
 20
303.0708289019027
 30
0.0
 11
334.6220905878208
 21
291.5777869019027
 31
0.0
  0
ARC
  5
3D6
330
18
100
AcDbEntity
  8
1
  6
Continuous
100
AcDbCircle
 10
330.5183505878208
 20
287.2381729019027
 30
0.0
 40
1.0
100
AcDbArc
 50
203.6521799999995
 51
300.2969300000001
  0
LINE
  5
3D7
330
18
100
AcDbEntity
  8
1
  6
Continuous
100
AcDbLine
 10
321.2863205878206
 20
305.8244529019026
 30
0.0
 11
347.3922505878208
 21
317.2581849019026
 31
0.0
  0
LINE
  5
3D8
330
18
100
AcDbEntity
  8
1
  6
Continuous
100
AcDbLine
 10
351.6679805878208
 20
307.4956649019026
 30
0.0
 11
352.3268205878208
 21
305.9914089019026
 31
0.0
  0
ARC
  5
3D9
330
18
100
AcDbEntity
  8
1
  6
Continuous
100
AcDbCircle
 10
353.5000105878209
 20
308.2980289019026
 30
0.0
 40
2.0
100
AcDbArc
 50
91.65210199999977
 51
203.65217
  0
ARC
  5
3DA
330
18
100
AcDbEntity
  8
1
  6
Continuous
100
AcDbCircle
 10
348.3149805878208
 20
315.1513809019027
 30
0.0
 40
2.299999999999998
100
AcDbArc
 50
91.65218399999998
 51
113.6521600000002
  0
LINE
  5
3DB
330
18
100
AcDbEntity
  8
1
  6
Continuous
100
AcDbLine
 10
354.7315505878208
 20
318.1376319019026
 30
0.0
 11
354.7459805878208
 21
317.6378379019026
 31
0.0
  0
ARC
  5
3DC
330
18
100
AcDbEntity
  8
1
  6
Continuous
100
AcDbCircle
 10
375.2987105878208
 20
316.1047649019026
 30
0.0
 40
3.625011999999999
100
AcDbArc
 50
48.04971799999981
 51
135.2549699999997
  0
LINE
  5
3DD
330
18
100
AcDbEntity
  8
1
  6
Continuous
100
AcDbLine
 10
373.230720587821
 20
315.8700539019028
 30
0.0
 11
383.3004205878209
 21
316.1605049019026
 31
0.0
  0
ARC
  5
3DE
330
18
100
AcDbEntity
  8
1
  6
Continuous
100
AcDbCircle
 10
366.3024705878208
 20
315.8452859019027
 30
0.0
 40
3.625007
100
AcDbArc
 50
48.04948900000025
 51
135.2549699999997
  0
LINE
  5
3DF
330
18
100
AcDbEntity
  8
1
  6
Continuous
100
AcDbLine
 10
359.7295005878208
 20
318.2817939019026
 30
0.0
 11
359.7439005878208
 21
317.7820029019026
 31
0.0
  0
LINE
  5
3E0
330
18
100
AcDbEntity
  8
1
  6
Continuous
100
AcDbLine
 10
363.7278205878208
 20
318.3971199019026
 30
0.0
 11
363.7422305878208
 21
317.8973289019026
 31
0.0
  0
ARC
  5
3E1
330
18
100
AcDbEntity
  8
1
  6
Continuous
100
AcDbCircle
 10
368.0625405878208
 20
315.7209909019026
 30
0.0
 40
5.0
100
AcDbArc
 50
271.6521799999998
 51
1.652205000000114
  0
LINE
  5
3E2
330
18
100
AcDbEntity
  8
1
  6
Continuous
100
AcDbLine
 10
368.7258705878205
 20
318.5412769019027
 30
0.0
 11
368.7402705878206
 21
318.0414909019027
 31
0.0
  0
ARC
  5
3E3
330
18
100
AcDbEntity
  8
1
  6
Continuous
100
AcDbCircle
 10
375.3594705878207
 20
315.9314559019027
 30
0.0
 40
2.299999999999998
100
AcDbArc
 50
91.65218399999998
 51
181.6522299999999
  0
LINE
  5
3E4
330
18
100
AcDbEntity
  8
1
  6
Continuous
100
AcDbLine
 10
372.7241005878208
 20
318.6566179019026
 30
0.0
 11
372.7385005878208
 21
318.1568239019026
 31
0.0
  0
LINE
  5
3E5
330
18
100
AcDbEntity
  8
1
  6
Continuous
100
AcDbLine
 10
377.7220805878205
 20
318.8007869019025
 30
0.0
 11
377.7364905878205
 21
318.3009849019027
 31
0.0
  0
LINE
  5
3E6
330
18
100
AcDbEntity
  8
1
  6
Continuous
100
AcDbLine
 10
383.2342005878206
 20
318.4595699019026
 30
0.0
 11
383.3005105878208
 21
316.1605319019026
 31
0.0
  0
ARC
  5
3E7
330
18
100
AcDbEntity
  8
1
  6
Continuous
100
AcDbCircle
 10
498.3769905878208
 20
458.7800579019027
 30
0.0
 40
207.1169999999999
100
AcDbArc
 50
174.6775699999999
 51
185.3224299999999
  0
LINE
  5
3E8
330
18
100
AcDbEntity
  8
1
  6
Continuous
100
AcDbLine
 10
292.1529605878208
 20
477.9923279019026
 30
0.0
 11
292.1529605878208
 21
439.5677879019027
 31
0.0
  0
LINE
  5
3E9
330
18
100
AcDbEntity
  8
1
  6
Continuous
100
AcDbLine
 10
307.7418605878208
 20
498.7800579019026
 30
0.0
 11
307.7418605878208
 21
418.7800579019026
 31
0.0
  0
LINE
  5
3EA
330
18
100
AcDbEntity
  8
1
  6
Continuous
100
AcDbLine
 10
317.5464105878209
 20
445.7800579019027
 30
0.0
 11
317.5464105878209
 21
471.7800579019026
 31
0.0
  0
LINE
  5
3EB
330
18
100
AcDbEntity
  8
1
  6
Continuous
100
AcDbLine
 10
320.1093405878209
 20
445.7800579019027
 30
0.0
 11
320.1093405878209
 21
471.7800579019026
 31
0.0
  0
LINE
  5
3EC
330
18
100
AcDbEntity
  8
1
  6
Continuous
100
AcDbLine
 10
377.7220385878208
 20
441.2789969019026
 30
0.0
 11
377.7220385878208
 21
476.2811189019027
 31
0.0
  0
LINE
  5
3ED
330
18
100
AcDbEntity
  8
1
  6
Continuous
100
AcDbLine
 10
372.7241605878206
 20
441.2789969019026
 30
0.0
 11
372.7241605878206
 21
476.2811189019027
 31
0.0
  0
LINE
  5
3EE
330
18
100
AcDbEntity
  8
1
  6
Continuous
100
AcDbLine
 10
368.7259305878208
 20
441.2790819019027
 30
0.0
 11
368.7259305878208
 21
476.2810339019027
 31
0.0
  0
LINE
  5
3EF
330
18
100
AcDbEntity
  8
1
  6
Continuous
100
AcDbLine
 10
363.7278825878208
 20
441.2790819019027
 30
0.0
 11
363.7278825878208
 21
476.2810339019027
 31
0.0
  0
LINE
  5
3F0
330
18
100
AcDbEntity
  8
1
  6
Continuous
100
AcDbLine
 10
359.7295605878207
 20
441.2790219019027
 30
0.0
 11
359.7295605878207
 21
476.2810939019026
 31
0.0
  0
LINE
  5
3F1
330
18
100
AcDbEntity
  8
1
  6
Continuous
100
AcDbLine
 10
354.7316325878206
 20
441.2790219019027
 30
0.0
 11
354.7316325878206
 21
476.2810939019026
 31
0.0
  0
LINE
  5
3F2
330
18
100
AcDbEntity
  8
1
  6
Continuous
100
AcDbLine
 10
333.4863805878208
 20
447.0300579019027
 30
0.0
 11
333.4863805878208
 21
470.5300579019026
 31
0.0
  0
LINE
  5
3F3
330
18
100
AcDbEntity
  8
1
  6
Continuous
100
AcDbLine
 10
347.3923305878208
 20
436.2800579019027
 30
0.0
 11
347.3923305878208
 21
481.2800579019026
 31
0.0
  0
LINE
  5
3F4
330
18
100
AcDbEntity
  8
1
  6
Continuous
100
AcDbLine
 10
383.2342005878206
 20
443.0920639019027
 30
0.0
 11
383.2342005878206
 21
474.4680519019026
 31
0.0
  0
ARC
  5
3F5
330
18
100
AcDbEntity
  8
1
  6
Continuous
100
AcDbCircle
 10
357.2305965878208
 20
441.2790219019027
 30
0.0
 40
2.498963999999999
100
AcDbArc
 50
180.0
 51
0.0
  0
LINE
  5
3F6
330
18
100
AcDbEntity
  8
1
  6
Continuous
100
AcDbLine
 10
373.0604865878208
 20
432.2800579019027
 30
0.0
 11
349.3923305878208
 21
432.2800579019027
 31
0.0
  0
LINE
  5
3F7
330
18
100
AcDbEntity
  8
4
  6
CENTER
 48
0.5
100
AcDbLine
 10
297.7418605878209
 20
336.0054069019026
 30
0.0
 11
297.7418605878209
 21
351.6233039019027
 31
0.0
  0
ARC
  5
3F8
330
18
100
AcDbEntity
  8
1
  6
Continuous
100
AcDbCircle
 10
301.1944205878208
 20
335.7800579019027
 30
0.0
 40
5.0
100
AcDbArc
 50
90.00000300000015
 51
149.9999999999998
  0
LINE
  5
3F9
330
18
100
AcDbEntity
  8
1
  6
Continuous
100
AcDbLine
 10
307.7418605878208
 20
340.7800579019026
 30
0.0
 11
307.7418605878208
 21
348.7800579019026
 31
0.0
  0
LINE
  5
3FA
330
18
100
AcDbEntity
  8
1
  6
Continuous
100
AcDbLine
 10
313.4698605878206
 20
435.7800579019026
 30
0.0
 11
307.7418605878208
 21
435.7800579019026
 31
0.0
  0
LINE
  5
3FB
330
18
100
AcDbEntity
  8
1
  6
Continuous
100
AcDbLine
 10
316.2863805878208
 20
430.9800579019026
 30
0.0
 11
307.7418605878208
 21
430.9800579019026
 31
0.0
  0
LINE
  5
3FC
330
18
100
AcDbEntity
  8
1
  6
Continuous
100
AcDbLine
 10
318.7723415878206
 20
427.9800579019027
 30
0.0
 11
307.7418605878208
 21
427.9800579019027
 31
0.0
  0
ARC
  5
3FD
330
18
100
AcDbEntity
  8
1
  6
Continuous
100
AcDbCircle
 10
273.7627005878207
 20
363.7800579019026
 30
0.0
 40
50.0
100
AcDbArc
 50
66.44352699999956
 51
90.00000300000015
  0
ARC
  5
3FE
330
18
100
AcDbEntity
  8
1
  6
Continuous
100
AcDbCircle
 10
297.7418605878209
 20
418.7800579019026
 30
0.0
 40
10.0
100
AcDbArc
 50
246.4435399999995
 51
0.0000030000001391
  0
LINE
  5
3FF
330
18
100
AcDbEntity
  8
4
  6
CENTER
 48
0.5
100
AcDbLine
 10
297.7418605878209
 20
426.2800579019026
 30
0.0
 11
297.7418605878209
 21
411.2800579019027
 31
0.0
  0
LINE
  5
400
330
18
100
AcDbEntity
  8
4
  6
CENTER
 48
0.5
100
AcDbLine
 10
290.2418605878208
 20
418.7800579019026
 30
0.0
 11
305.2418605878208
 21
418.7800579019026
 31
0.0
  0
CIRCLE
  5
401
330
18
100
AcDbEntity
  8
1
  6
Continuous
100
AcDbCircle
 10
297.7418605878209
 20
418.7800579019026
 30
0.0
 40
4.25
  0
LINE
  5
402
330
18
100
AcDbEntity
  8
1
  6
Continuous
100
AcDbLine
 10
334.8749325878208
 20
427.9800579019027
 30
0.0
 11
329.4749325878208
 21
427.9800579019027
 31
0.0
  0
ARC
  5
403
330
18
100
AcDbEntity
  8
1
  6
Continuous
100
AcDbCircle
 10
328.4863805878208
 20
447.0300579019027
 30
0.0
 40
5.0
100
AcDbArc
 50
270.0
 51
0.0
  0
LINE
  5
404
330
18
100
AcDbEntity
  8
1
  6
Continuous
100
AcDbLine
 10
346.3923305878208
 20
429.2800579019027
 30
0.0
 11
321.2863805878208
 21
429.2800579019027
 31
0.0
  0
ARC
  5
405
330
18
100
AcDbEntity
  8
1
  6
Continuous
100
AcDbCircle
 10
317.4698605878206
 20
441.7800579019027
 30
0.0
 40
2.0
100
AcDbArc
 50
90.0
 51
180.0
  0
ARC
  5
406
330
18
100
AcDbEntity
  8
1
  6
Continuous
100
AcDbCircle
 10
322.7863805878208
 20
440.5300579019026
 30
0.0
 40
1.5
100
AcDbArc
 50
90.0
 51
180.0
  0
LINE
  5
407
330
18
100
AcDbEntity
  8
1
  6
Continuous
100
AcDbLine
 10
321.6396525878209
 20
428.8838989019028
 30
0.0
 11
322.205595587821
 21
429.2800579019027
 31
0.0
  0
ARC
  5
408
330
18
100
AcDbEntity
  8
1
  6
Continuous
100
AcDbCircle
 10
322.8624915878208
 20
429.4800579019026
 30
0.0
 40
5.0
100
AcDbArc
 50
108.3742299999997
 51
124.9920199999999
  0
LINE
  5
409
330
18
100
AcDbEntity
  8
1
  6
Continuous
100
AcDbLine
 10
321.2863805878208
 20
429.2800579019027
 30
0.0
 11
321.2863805878208
 21
440.5300579019026
 31
0.0
  0
LINE
  5
40A
330
18
100
AcDbEntity
  8
1
  6
Continuous
100
AcDbLine
 10
316.2863805878207
 20
430.9800579019026
 30
0.0
 11
319.9951805878206
 21
433.5762179019027
 31
0.0
  0
ARC
  5
40B
330
18
100
AcDbEntity
  8
1
  6
Continuous
100
AcDbCircle
 10
315.6559365878208
 20
432.9800579019027
 30
0.0
 40
5.0
100
AcDbArc
 50
270.0
 51
304.9920199999998
  0
LINE
  5
40C
330
18
100
AcDbEntity
  8
1
  6
Continuous
100
AcDbLine
 10
318.5232485878208
 20
428.8838989019025
 30
0.0
 11
321.2863805878208
 21
430.8180909019027
 31
0.0
  0
ARC
  5
40D
330
18
100
AcDbEntity
  8
1
  6
Continuous
100
AcDbCircle
 10
318.7723415878206
 20
432.9800579019027
 30
0.0
 40
5.0
100
AcDbArc
 50
270.0
 51
304.9920199999998
  0
LINE
  5
40E
330
18
100
AcDbEntity
  8
1
  6
Continuous
100
AcDbLine
 10
315.4698605878206
 20
441.7800579019027
 30
0.0
 11
315.4698605878206
 21
437.7800579019027
 31
0.0
  0
ARC
  5
40F
330
18
100
AcDbEntity
  8
1
  6
Continuous
100
AcDbCircle
 10
313.4698605878206
 20
437.7800579019027
 30
0.0
 40
2.0
100
AcDbArc
 50
270.0
 51
0.0
  0
ARC
  5
410
330
18
100
AcDbEntity
  8
1
  6
Continuous
100
AcDbCircle
 10
329.4749325878208
 20
429.1800579019025
 30
0.0
 40
1.199999999999999
100
AcDbArc
 50
180.0
 51
270.0
  0
LINE
  5
411
330
18
100
AcDbEntity
  8
1
  6
Continuous
100
AcDbLine
 10
328.2749325878208
 20
429.1800579019025
 30
0.0
 11
328.2749325878208
 21
429.2800579019027
 31
0.0
  0
ARC
  5
412
330
18
100
AcDbEntity
  8
1
  6
Continuous
100
AcDbCircle
 10
318.1093405878208
 20
445.7800579019027
 30
0.0
 40
2.0
100
AcDbArc
 50
270.0
 51
0.0
  0
LINE
  5
413
330
18
100
AcDbEntity
  8
1
  6
Continuous
100
AcDbLine
 10
318.1093405878208
 20
443.7800579019026
 30
0.0
 11
317.4698605878206
 21
443.7800579019026
 31
0.0
  0
LINE
  5
414
330
18
100
AcDbEntity
  8
1
  6
Continuous
100
AcDbLine
 10
328.4863805878208
 20
442.0300579019026
 30
0.0
 11
322.7863805878208
 21
442.0300579019026
 31
0.0
  0
ARC
  5
415
330
18
100
AcDbEntity
  8
1
  6
Continuous
100
AcDbCircle
 10
334.8749325878208
 20
429.1800579019025
 30
0.0
 40
1.199999999999999
100
AcDbArc
 50
270.0
 51
0.0
  0
LINE
  5
416
330
18
100
AcDbEntity
  8
1
  6
Continuous
100
AcDbLine
 10
336.0749325878208
 20
429.1800579019025
 30
0.0
 11
336.0749325878208
 21
429.2800579019027
 31
0.0
  0
ARC
  5
417
330
18
100
AcDbEntity
  8
1
  6
Continuous
100
AcDbCircle
 10
346.3923305878208
 20
430.2800579019026
 30
0.0
 40
1.0
100
AcDbArc
 50
270.0
 51
0.0
  0
ARC
  5
418
330
18
100
AcDbEntity
  8
1
  6
Continuous
100
AcDbCircle
 10
349.3923305878208
 20
430.2800579019026
 30
0.0
 40
2.0
100
AcDbArc
 50
90.0
 51
180.0
  0
ARC
  5
419
330
18
100
AcDbEntity
  8
1
  6
Continuous
100
AcDbCircle
 10
375.2230995878206
 20
441.2789969019026
 30
0.0
 40
2.498939
100
AcDbArc
 50
180.0
 51
0.0
  0
ARC
  5
41A
330
18
100
AcDbEntity
  8
1
  6
Continuous
100
AcDbCircle
 10
375.8667885878208
 20
443.0920639019027
 30
0.0
 40
7.367411999999997
100
AcDbArc
 50
271.07054
 51
0.0
  0
ARC
  5
41B
330
18
100
AcDbEntity
  8
1
  6
Continuous
100
AcDbCircle
 10
366.2269065878206
 20
441.2790819019027
 30
0.0
 40
2.499023999999999
100
AcDbArc
 50
180.0
 51
0.0
  0
ARC
  5
41C
330
18
100
AcDbEntity
  8
1
  6
Continuous
100
AcDbCircle
 10
376.0604865878208
 20
432.7264619019025
 30
0.0
 40
3.0
100
AcDbArc
 50
91.07054000000015
 51
180.0
  0
LINE
  5
41D
330
18
100
AcDbEntity
  8
1
  6
Continuous
100
AcDbLine
 10
373.0604865878208
 20
432.7264619019025
 30
0.0
 11
373.0604865878208
 21
432.2800579019027
 31
0.0
  0
ARC
  5
41E
330
18
100
AcDbEntity
  8
1
  6
Continuous
100
AcDbCircle
 10
357.2305965878208
 20
476.2810939019026
 30
0.0
 40
2.498963999999999
100
AcDbArc
 50
0.0
 51
180.0
  0
LINE
  5
41F
330
18
100
AcDbEntity
  8
1
  6
Continuous
100
AcDbLine
 10
373.0604865878208
 20
485.2800579019026
 30
0.0
 11
349.3923305878208
 21
485.2800579019026
 31
0.0
  0
LINE
  5
420
330
18
100
AcDbEntity
  8
1
  6
Continuous
100
AcDbLine
 10
318.7723415878206
 20
489.5800579019025
 30
0.0
 11
307.7418605878208
 21
489.5800579019025
 31
0.0
  0
LINE
  5
421
330
18
100
AcDbEntity
  8
1
  6
Continuous
100
AcDbLine
 10
313.4698605878206
 20
481.7800579019026
 30
0.0
 11
307.7418605878208
 21
481.7800579019026
 31
0.0
  0
LINE
  5
422
330
18
100
AcDbEntity
  8
1
  6
Continuous
100
AcDbLine
 10
316.2863805878208
 20
486.5800579019027
 30
0.0
 11
307.7418605878208
 21
486.5800579019027
 31
0.0
  0
ARC
  5
423
330
18
100
AcDbEntity
  8
1
  6
Continuous
100
AcDbCircle
 10
273.7627005878207
 20
553.7800579019026
 30
0.0
 40
50.0
100
AcDbArc
 50
270.0
 51
293.5564699999996
  0
CIRCLE
  5
424
330
18
100
AcDbEntity
  8
1
  6
Continuous
100
AcDbCircle
 10
297.7418605878209
 20
498.7800579019026
 30
0.0
 40
4.25
  0
LINE
  5
425
330
18
100
AcDbEntity
  8
4
  6
CENTER
 48
0.5
100
AcDbLine
 10
297.7418605878209
 20
491.2800579019026
 30
0.0
 11
297.7418605878209
 21
506.2800579019026
 31
0.0
  0
ARC
  5
426
330
18
100
AcDbEntity
  8
1
  6
Continuous
100
AcDbCircle
 10
297.7418605878209
 20
498.7800579019026
 30
0.0
 40
10.0
100
AcDbArc
 50
0.0000030000001391
 51
113.5564600000003
  0
LINE
  5
427
330
18
100
AcDbEntity
  8
4
  6
CENTER
 48
0.5
100
AcDbLine
 10
290.2418605878208
 20
498.7800579019026
 30
0.0
 11
305.2418605878208
 21
498.7800579019026
 31
0.0
  0
ARC
  5
428
330
18
100
AcDbEntity
  8
1
  6
Continuous
100
AcDbCircle
 10
346.3923305878208
 20
487.2800579019026
 30
0.0
 40
1.0
100
AcDbArc
 50
0.0
 51
90.0
  0
LINE
  5
429
330
18
100
AcDbEntity
  8
1
  6
Continuous
100
AcDbLine
 10
318.5232485878208
 20
488.6762179019026
 30
0.0
 11
321.2863805878208
 21
486.7420249019025
 31
0.0
  0
LINE
  5
42A
330
18
100
AcDbEntity
  8
1
  6
Continuous
100
AcDbLine
 10
321.2863805878208
 20
477.0300579019027
 30
0.0
 11
321.2863805878208
 21
488.2800579019026
 31
0.0
  0
ARC
  5
42B
330
18
100
AcDbEntity
  8
1
  6
Continuous
100
AcDbCircle
 10
328.4863805878208
 20
470.5300579019026
 30
0.0
 40
5.0
100
AcDbArc
 50
0.0
 51
90.0
  0
ARC
  5
42C
330
18
100
AcDbEntity
  8
1
  6
Continuous
100
AcDbCircle
 10
318.1093405878208
 20
471.7800579019026
 30
0.0
 40
2.0
100
AcDbArc
 50
0.0
 51
90.0
  0
ARC
  5
42D
330
18
100
AcDbEntity
  8
1
  6
Continuous
100
AcDbCircle
 10
322.7863805878208
 20
477.0300579019027
 30
0.0
 40
1.5
100
AcDbArc
 50
180.0
 51
270.0
  0
ARC
  5
42E
330
18
100
AcDbEntity
  8
1
  6
Continuous
100
AcDbCircle
 10
313.4698605878206
 20
479.7800579019026
 30
0.0
 40
2.0
100
AcDbArc
 50
0.0
 51
90.0
  0
ARC
  5
42F
330
18
100
AcDbEntity
  8
1
  6
Continuous
100
AcDbCircle
 10
317.4698605878206
 20
475.7800579019026
 30
0.0
 40
2.0
100
AcDbArc
 50
180.0
 51
270.0
  0
LINE
  5
430
330
18
100
AcDbEntity
  8
1
  6
Continuous
100
AcDbLine
 10
315.4698605878206
 20
475.7800579019026
 30
0.0
 11
315.4698605878206
 21
479.7800579019026
 31
0.0
  0
LINE
  5
431
330
18
100
AcDbEntity
  8
1
  6
Continuous
100
AcDbLine
 10
318.1093405878208
 20
473.7800579019027
 30
0.0
 11
317.4698605878206
 21
473.7800579019027
 31
0.0
  0
LINE
  5
432
330
18
100
AcDbEntity
  8
1
  6
Continuous
100
AcDbLine
 10
316.2863805878208
 20
486.5800579019027
 30
0.0
 11
319.9951805878208
 21
483.9838989019026
 31
0.0
  0
ARC
  5
433
330
18
100
AcDbEntity
  8
1
  6
Continuous
100
AcDbCircle
 10
322.8624915878208
 20
488.0800579019027
 30
0.0
 40
5.0
100
AcDbArc
 50
235.00798
 51
251.6257700000003
  0
LINE
  5
434
330
18
100
AcDbEntity
  8
1
  6
Continuous
100
AcDbLine
 10
328.4863805878208
 20
475.5300579019027
 30
0.0
 11
322.7863805878208
 21
475.5300579019027
 31
0.0
  0
ARC
  5
435
330
18
100
AcDbEntity
  8
1
  6
Continuous
100
AcDbCircle
 10
349.3923305878208
 20
487.2800579019026
 30
0.0
 40
2.0
100
AcDbArc
 50
180.0
 51
270.0
  0
LINE
  5
436
330
18
100
AcDbEntity
  8
1
  6
Continuous
100
AcDbLine
 10
334.8749325878208
 20
489.5800579019025
 30
0.0
 11
329.4749325878208
 21
489.5800579019025
 31
0.0
  0
LINE
  5
437
330
18
100
AcDbEntity
  8
1
  6
Continuous
100
AcDbLine
 10
346.3923305878208
 20
488.2800579019026
 30
0.0
 11
321.2863805878208
 21
488.2800579019026
 31
0.0
  0
LINE
  5
438
330
18
100
AcDbEntity
  8
1
  6
Continuous
100
AcDbLine
 10
321.6396525878209
 20
488.6762179019026
 30
0.0
 11
322.205595587821
 21
488.2800579019026
 31
0.0
  0
ARC
  5
439
330
18
100
AcDbEntity
  8
1
  6
Continuous
100
AcDbCircle
 10
315.6559365878208
 20
484.5800579019027
 30
0.0
 40
5.0
100
AcDbArc
 50
55.00798000000006
 51
90.0
  0
ARC
  5
43A
330
18
100
AcDbEntity
  8
1
  6
Continuous
100
AcDbCircle
 10
318.7723415878206
 20
484.5800579019027
 30
0.0
 40
5.0
100
AcDbArc
 50
55.00798000000006
 51
90.0
  0
LINE
  5
43B
330
18
100
AcDbEntity
  8
1
  6
Continuous
100
AcDbLine
 10
328.2749325878208
 20
488.3800579019028
 30
0.0
 11
328.2749325878208
 21
488.2800579019026
 31
0.0
  0
ARC
  5
43C
330
18
100
AcDbEntity
  8
1
  6
Continuous
100
AcDbCircle
 10
329.4749325878208
 20
488.3800579019028
 30
0.0
 40
1.199999999999999
100
AcDbArc
 50
90.0
 51
180.0
  0
LINE
  5
43D
330
18
100
AcDbEntity
  8
1
  6
Continuous
100
AcDbLine
 10
336.0749325878208
 20
488.3800579019028
 30
0.0
 11
336.0749325878208
 21
488.2800579019026
 31
0.0
  0
ARC
  5
43E
330
18
100
AcDbEntity
  8
1
  6
Continuous
100
AcDbCircle
 10
334.8749325878208
 20
488.3800579019028
 30
0.0
 40
1.199999999999999
100
AcDbArc
 50
0.0
 51
90.0
  0
ARC
  5
43F
330
18
100
AcDbEntity
  8
1
  6
Continuous
100
AcDbCircle
 10
375.8667885878208
 20
474.4680519019026
 30
0.0
 40
7.367411999999997
100
AcDbArc
 50
0.0
 51
88.92945999999978
  0
ARC
  5
440
330
18
100
AcDbEntity
  8
1
  6
Continuous
100
AcDbCircle
 10
375.2230995878206
 20
476.2811189019027
 30
0.0
 40
2.498939
100
AcDbArc
 50
0.0
 51
180.0
  0
ARC
  5
441
330
18
100
AcDbEntity
  8
1
  6
Continuous
100
AcDbCircle
 10
366.2269065878206
 20
476.2810339019027
 30
0.0
 40
2.499023999999999
100
AcDbArc
 50
0.0
 51
180.0
  0
LINE
  5
442
330
18
100
AcDbEntity
  8
1
  6
Continuous
100
AcDbLine
 10
373.0604865878208
 20
484.8336539019027
 30
0.0
 11
373.0604865878208
 21
485.2800579019026
 31
0.0
  0
ARC
  5
443
330
18
100
AcDbEntity
  8
1
  6
Continuous
100
AcDbCircle
 10
376.0604865878208
 20
484.8336539019027
 30
0.0
 40
3.0
100
AcDbArc
 50
180.0
 51
268.9294599999998
  0
ARC
  5
53B
330
18
100
AcDbEntity
  8
1
  6
Continuous
100
AcDbCircle
 10
375.9330985878209
 20
474.4680519019026
 30
0.0
 40
7.367411999999997
100
AcDbArc
 50
0.0
 51
88.92945999999978
  0
ARC
  5
53C
330
18
100
AcDbEntity
  8
1
  6
Continuous
100
AcDbCircle
 10
375.9330985878209
 20
443.0920639019027
 30
0.0
 40
7.367411999999997
100
AcDbArc
 50
271.07054
 51
0.0
  0
LINE
  5
53D
330
18
100
AcDbEntity
  8
1
  6
Continuous
100
AcDbLine
 10
383.3005105878208
 20
443.0920639019027
 30
0.0
 11
383.3005105878208
 21
474.4680519019026
 31
0.0
  0
LINE
  5
53E
330
18
100
AcDbEntity
  8
1
  6
Continuous
100
AcDbLine
 10
376.0707466032231
 20
481.8341779259126
 30
0.0
 11
376.0044366032228
 21
481.8341779259126
 31
0.0
  0
LINE
  5
53F
330
18
100
AcDbEntity
  8
1
  6
Continuous
100
AcDbLine
 10
376.0707466032231
 20
435.7259378778926
 30
0.0
 11
376.0044366032228
 21
435.7259378778926
 31
0.0
  0
ARC
  5
568
330
18
100
AcDbEntity
  8
1
  6
Continuous
100
AcDbCircle
 10
375.9330985878209
 20
102.2141159019026
 30
0.0
 40
7.367411999999997
100
AcDbArc
 50
0.0
 51
88.92945999999978
  0
ARC
  5
569
330
18
100
AcDbEntity
  8
1
  6
Continuous
100
AcDbCircle
 10
375.9330985878209
 20
70.83812790190274
 30
0.0
 40
7.367411999999997
100
AcDbArc
 50
271.07054
 51
0.0
  0
LINE
  5
56A
330
18
100
AcDbEntity
  8
4
  6
CENTER
 48
0.5
100
AcDbLine
 10
390.2342005878208
 20
86.52612190190273
 30
0.0
 11
200.5024305878206
 21
86.52612190190273
 31
0.0
  0
LINE
  5
56E
330
18
100
AcDbEntity
  8
4
  6
CENTER
 48
0.5
100
AcDbLine
 10
257.7418605878208
 20
35.10330190190279
 30
0.0
 11
257.7418605878208
 21
135.2644019019026
 31
0.0
  0
LINE
  5
56F
330
18
100
AcDbEntity
  8
1
  6
Continuous
100
AcDbLine
 10
307.7418605878208
 20
46.52612190190279
 30
0.0
 11
307.7418605878208
 21
55.72612190190278
 31
0.0
  0
LINE
  5
571
330
18
100
AcDbEntity
  8
1
  6
Continuous
100
AcDbLine
 10
207.7418605878208
 20
46.52612190190279
 30
0.0
 11
207.7418605878208
 21
126.5261219019027
 31
0.0
  0
LINE
  5
574
330
18
100
AcDbEntity
  8
1
  6
Continuous
100
AcDbLine
 10
241.7210205878208
 20
131.5261219019026
 30
0.0
 11
273.7627005878207
 21
131.5261219019026
 31
0.0
  0
LINE
  5
575
330
18
100
AcDbEntity
  8
4
  6
CENTER
 48
0.5
100
AcDbLine
 10
225.2418605878208
 20
126.5261219019027
 30
0.0
 11
210.2418605878208
 21
126.5261219019027
 31
0.0
  0
ARC
  5
576
330
18
100
AcDbEntity
  8
1
  6
Continuous
100
AcDbCircle
 10
241.7210205878208
 20
181.5261219019025
 30
0.0
 40
50.0
100
AcDbArc
 50
246.4435300000004
 51
270.0000039999999
  0
ARC
  5
577
330
18
100
AcDbEntity
  8
1
  6
Continuous
100
AcDbCircle
 10
217.7418605878208
 20
126.5261219019027
 30
0.0
 40
10.0
100
AcDbArc
 50
66.44352000000032
 51
180.0000100000002
  0
LINE
  5
578
330
18
100
AcDbEntity
  8
4
  6
CENTER
 48
0.5
100
AcDbLine
 10
217.7418605878208
 20
119.0261219019026
 30
0.0
 11
217.7418605878208
 21
134.0261219019026
 31
0.0
  0
CIRCLE
  5
579
330
18
100
AcDbEntity
  8
1
  6
Continuous
100
AcDbCircle
 10
217.7418605878208
 20
126.5261219019027
 30
0.0
 40
4.25
  0
ARC
  5
57A
330
18
100
AcDbEntity
  8
1
  6
Continuous
100
AcDbCircle
 10
273.7627005878207
 20
181.5261219019025
 30
0.0
 40
50.0
100
AcDbArc
 50
269.9999969999999
 51
293.5564730000003
  0
LINE
  5
57B
330
18
100
AcDbEntity
  8
4
  6
CENTER
 48
0.5
100
AcDbLine
 10
290.2418605878208
 20
126.5261219019027
 30
0.0
 11
305.2418605878208
 21
126.5261219019027
 31
0.0
  0
CIRCLE
  5
57C
330
18
100
AcDbEntity
  8
1
  6
Continuous
100
AcDbCircle
 10
297.7418605878209
 20
126.5261219019027
 30
0.0
 40
4.25
  0
ARC
  5
57D
330
18
100
AcDbEntity
  8
1
  6
Continuous
100
AcDbCircle
 10
297.7418605878209
 20
126.5261219019027
 30
0.0
 40
10.0
100
AcDbArc
 50
359.9999969999998
 51
113.5564600000003
  0
LINE
  5
57E
330
18
100
AcDbEntity
  8
4
  6
CENTER
 48
0.5
100
AcDbLine
 10
297.7418605878209
 20
119.0261219019026
 30
0.0
 11
297.7418605878209
 21
134.0261219019026
 31
0.0
  0
LINE
  5
583
330
18
100
AcDbEntity
  8
1
  6
Continuous
100
AcDbLine
 10
273.7627005878207
 20
41.52612190190279
 30
0.0
 11
241.7210205878208
 21
41.52612190190279
 31
0.0
  0
LINE
  5
596
330
18
100
AcDbEntity
  8
4
  6
CENTER
 48
0.5
100
AcDbLine
 10
225.2418605878208
 20
46.52612190190279
 30
0.0
 11
210.2418605878208
 21
46.52612190190279
 31
0.0
  0
ARC
  5
597
330
18
100
AcDbEntity
  8
1
  6
Continuous
100
AcDbCircle
 10
241.7210205878208
 20
-8.473878098097202
 30
0.0
 40
50.0
100
AcDbArc
 50
90.00000000000005
 51
113.5564600000003
  0
LINE
  5
598
330
18
100
AcDbEntity
  8
4
  6
CENTER
 48
0.5
100
AcDbLine
 10
217.7418605878208
 20
54.02612190190279
 30
0.0
 11
217.7418605878208
 21
39.02612190190279
 31
0.0
  0
ARC
  5
599
330
18
100
AcDbEntity
  8
1
  6
Continuous
100
AcDbCircle
 10
217.7418605878208
 20
46.52612190190279
 30
0.0
 40
10.0
100
AcDbArc
 50
179.9999899999995
 51
293.5564659999998
  0
CIRCLE
  5
59A
330
18
100
AcDbEntity
  8
1
  6
Continuous
100
AcDbCircle
 10
217.7418605878208
 20
46.52612190190279
 30
0.0
 40
4.25
  0
LINE
  5
59B
330
18
100
AcDbEntity
  8
1
  6
Continuous
100
AcDbLine
 10
318.7723415878206
 20
117.3261219019027
 30
0.0
 11
283.2636160133396
 21
117.3261219019027
 31
0.0
  0
ARC
  5
59C
330
18
100
AcDbEntity
  8
1
  6
Continuous
100
AcDbCircle
 10
317.4698605878206
 20
103.5261219019026
 30
0.0
 40
2.0
100
AcDbArc
 50
180.0
 51
270.0
  0
LINE
  5
59D
330
18
100
AcDbEntity
  8
1
  6
Continuous
100
AcDbLine
 10
316.2863805878207
 20
114.3261219019025
 30
0.0
 11
319.9951805878206
 21
111.7299619019026
 31
0.0
  0
ARC
  5
5A0
330
18
100
AcDbEntity
  8
1
  6
Continuous
100
AcDbCircle
 10
317.4698605878206
 20
69.52612190190274
 30
0.0
 40
2.0
100
AcDbArc
 50
90.00000000000005
 51
180.0
  0
ARC
  5
5AF
330
18
100
AcDbEntity
  8
1
  6
Continuous
100
AcDbCircle
 10
313.4698605878206
 20
107.5261219019026
 30
0.0
 40
2.0
100
AcDbArc
 50
0.0
 51
90.00000000000005
  0
LINE
  5
5B0
330
18
100
AcDbEntity
  8
1
  6
Continuous
100
AcDbLine
 10
313.4698605878206
 20
109.5261219019026
 30
0.0
 11
290.4679969317278
 21
109.5261219019026
 31
0.0
  0
LINE
  5
5B1
330
18
100
AcDbEntity
  8
1
  6
Continuous
100
AcDbLine
 10
319.4027768466747
 20
114.3261219019025
 30
0.0
 11
286.5022500149478
 21
114.3261219019025
 31
0.0
  0
LINE
  5
5B2
330
18
100
AcDbEntity
  8
1
  6
Continuous
100
AcDbLine
 10
315.4698605878206
 20
103.5261219019026
 30
0.0
 11
315.4698605878206
 21
107.5261219019026
 31
0.0
  0
ARC
  5
5B3
330
18
100
AcDbEntity
  8
1
  6
Continuous
100
AcDbCircle
 10
273.7627005878207
 20
-8.473878098097202
 30
0.0
 40
50.0
100
AcDbArc
 50
66.44353000000042
 51
90.00000000000005
  0
LINE
  5
5B4
330
18
100
AcDbEntity
  8
4
  6
CENTER
 48
0.5
100
AcDbLine
 10
297.7418605878209
 20
54.02612190190279
 30
0.0
 11
297.7418605878209
 21
39.02612190190279
 31
0.0
  0
ARC
  5
5B5
330
18
100
AcDbEntity
  8
1
  6
Continuous
100
AcDbCircle
 10
313.4698605878206
 20
65.5261219019028
 30
0.0
 40
2.0
100
AcDbArc
 50
270.0
 51
0.0
  0
LINE
  5
5B6
330
18
100
AcDbEntity
  8
1
  6
Continuous
100
AcDbLine
 10
313.4698605878206
 20
63.5261219019028
 30
0.0
 11
290.467996931728
 21
63.5261219019028
 31
0.0
  0
LINE
  5
5B7
330
18
100
AcDbEntity
  8
1
  6
Continuous
100
AcDbLine
 10
315.4698605878206
 20
69.52612190190274
 30
0.0
 11
315.4698605878206
 21
65.5261219019028
 31
0.0
  0
LINE
  5
5B9
330
18
100
AcDbEntity
  8
4
  6
CENTER
 48
0.5
100
AcDbLine
 10
290.2418605878208
 20
46.52612190190279
 30
0.0
 11
305.2418605878208
 21
46.52612190190279
 31
0.0
  0
ARC
  5
5BA
330
18
100
AcDbEntity
  8
1
  6
Continuous
100
AcDbCircle
 10
297.7418605878209
 20
46.52612190190279
 30
0.0
 40
10.0
100
AcDbArc
 50
246.4435399999995
 51
359.9999969999998
  0
CIRCLE
  5
5BB
330
18
100
AcDbEntity
  8
1
  6
Continuous
100
AcDbCircle
 10
297.7418605878209
 20
46.52612190190279
 30
0.0
 40
4.25
  0
ARC
  5
5BC
330
18
100
AcDbEntity
  8
1
  6
Continuous
100
AcDbCircle
 10
328.4863805878208
 20
74.77612190190273
 30
0.0
 40
5.0
100
AcDbArc
 50
270.0
 51
0.0
  0
LINE
  5
5BE
330
18
100
AcDbEntity
  8
1
  6
Continuous
100
AcDbLine
 10
320.1093405878209
 20
99.52612190190272
 30
0.0
 11
320.1093405878209
 21
73.52612190190273
 31
0.0
  0
LINE
  5
5C5
330
18
100
AcDbEntity
  8
1
  6
Continuous
100
AcDbLine
 10
348.3149844684545
 20
107.0261219019027
 30
0.0
 11
348.3149844684545
 21
66.0261219019028
 31
0.0
  0
ARC
  5
5C6
330
18
100
AcDbEntity
  8
1
  6
Continuous
100
AcDbCircle
 10
349.3923305878208
 20
115.0261219019027
 30
0.0
 40
2.0
100
AcDbArc
 50
180.0
 51
270.0
  0
LINE
  5
5C7
330
18
100
AcDbEntity
  8
1
  6
Continuous
100
AcDbLine
 10
333.4863805878208
 20
98.27612190190272
 30
0.0
 11
333.4863805878208
 21
74.77612190190273
 31
0.0
  0
ARC
  5
5C8
330
18
100
AcDbEntity
  8
1
  6
Continuous
100
AcDbCircle
 10
328.4863805878208
 20
98.27612190190272
 30
0.0
 40
5.0
100
AcDbArc
 50
0.0
 51
90.00000000000005
  0
LINE
  5
5C9
330
18
100
AcDbEntity
  8
1
  6
Continuous
100
AcDbLine
 10
334.8749325878208
 20
117.3261219019027
 30
0.0
 11
329.4749325878208
 21
117.3261219019027
 31
0.0
  0
LINE
  5
5CA
330
18
100
AcDbEntity
  8
1
  6
Continuous
100
AcDbLine
 10
346.3923305878208
 20
116.0261219019026
 30
0.0
 11
322.205595587821
 21
116.0261219019026
 31
0.0
  0
LINE
  5
5CB
330
18
100
AcDbEntity
  8
1
  6
Continuous
100
AcDbLine
 10
321.2863805878208
 20
111.0810324279644
 30
0.0
 11
321.2863805878208
 21
104.7761219019027
 31
0.0
  0
ARC
  5
5CC
330
18
100
AcDbEntity
  8
1
  6
Continuous
100
AcDbCircle
 10
322.8624915878208
 20
115.8261219019026
 30
0.0
 40
5.0
100
AcDbArc
 50
235.00798
 51
268.242608949874
  0
LINE
  5
5CD
330
18
100
AcDbEntity
  8
1
  6
Continuous
100
AcDbLine
 10
321.6396525878209
 20
116.4222809019025
 30
0.0
 11
325.4913189968576
 21
113.7261219019026
 31
0.0
  0
ARC
  5
5CF
330
18
100
AcDbEntity
  8
1
  6
Continuous
100
AcDbCircle
 10
318.7723415878206
 20
112.3261219019026
 30
0.0
 40
5.0
100
AcDbArc
 50
55.0079800000001
 51
90.00000000000005
  0
ARC
  5
5D0
330
18
100
AcDbEntity
  8
1
  6
Continuous
100
AcDbCircle
 10
329.4749325878208
 20
116.1261219019027
 30
0.0
 40
1.199999999999999
100
AcDbArc
 50
90.00000000000005
 51
180.0
  0
LINE
  5
5D1
330
18
100
AcDbEntity
  8
1
  6
Continuous
100
AcDbLine
 10
328.2749325878208
 20
116.1261219019027
 30
0.0
 11
328.2749325878208
 21
116.0261219019026
 31
0.0
  0
LINE
  5
5D2
330
18
100
AcDbEntity
  8
1
  6
Continuous
100
AcDbLine
 10
329.4091029281084
 20
103.2761219019026
 30
0.0
 11
322.7863805878208
 21
103.2761219019026
 31
0.0
  0
LINE
  5
5D3
330
18
100
AcDbEntity
  8
1
  6
Continuous
100
AcDbLine
 10
318.1093405878208
 20
101.5261219019027
 30
0.0
 11
314.8824705878208
 21
101.5261219019027
 31
0.0
  0
ARC
  5
5D4
330
18
100
AcDbEntity
  8
1
  6
Continuous
100
AcDbCircle
 10
318.1093405878208
 20
99.52612190190272
 30
0.0
 40
2.0
100
AcDbArc
 50
0.0
 51
90.00000000000005
  0
ARC
  5
5D5
330
18
100
AcDbEntity
  8
1
  6
Continuous
100
AcDbCircle
 10
322.7863805878208
 20
104.7761219019027
 30
0.0
 40
1.5
100
AcDbArc
 50
180.0
 51
270.0
  0
ARC
  5
5D6
330
18
100
AcDbEntity
  8
1
  6
Continuous
100
AcDbCircle
 10
334.8749325878208
 20
116.1261219019027
 30
0.0
 40
1.199999999999999
100
AcDbArc
 50
0.0
 51
90.00000000000005
  0
LINE
  5
5D7
330
18
100
AcDbEntity
  8
1
  6
Continuous
100
AcDbLine
 10
336.0749325878208
 20
116.1261219019027
 30
0.0
 11
336.0749325878208
 21
116.0261219019026
 31
0.0
  0
ARC
  5
5D8
330
18
100
AcDbEntity
  8
1
  6
Continuous
100
AcDbCircle
 10
346.3923305878208
 20
115.0261219019027
 30
0.0
 40
1.0
100
AcDbArc
 50
0.0
 51
90.00000000000005
  0
LINE
  5
5D9
330
18
100
AcDbEntity
  8
1
  6
Continuous
100
AcDbLine
 10
373.0604865878208
 20
113.0261219019027
 30
0.0
 11
349.3923305878208
 21
113.0261219019027
 31
0.0
  0
LINE
  5
5DB
330
18
100
AcDbEntity
  8
1
  6
Continuous
100
AcDbLine
 10
376.0707466032231
 20
109.5802419259128
 30
0.0
 11
376.0044366032228
 21
109.5802419259128
 31
0.0
  0
LINE
  5
5DC
330
18
100
AcDbEntity
  8
1
  6
Continuous
100
AcDbLine
 10
373.0604865878208
 20
112.5797179019027
 30
0.0
 11
373.0604865878208
 21
113.0261219019027
 31
0.0
  0
ARC
  5
5DD
330
18
100
AcDbEntity
  8
1
  6
Continuous
100
AcDbCircle
 10
376.0604865878208
 20
112.5797179019027
 30
0.0
 40
3.0
100
AcDbArc
 50
180.0
 51
268.9294599999998
  0
ARC
  5
5E0
330
18
100
AcDbEntity
  8
1
  6
Continuous
100
AcDbCircle
 10
349.3923305878208
 20
58.0261219019028
 30
0.0
 40
2.0
100
AcDbArc
 50
90.00000000000005
 51
180.0
  0
LINE
  5
5E1
330
18
100
AcDbEntity
  8
1
  6
Continuous
100
AcDbLine
 10
334.8749325878208
 20
55.72612190190272
 30
0.0
 11
329.4749325878208
 21
55.72612190190272
 31
0.0
  0
LINE
  5
5E2
330
18
100
AcDbEntity
  8
1
  6
Continuous
100
AcDbLine
 10
346.3923305878208
 20
57.02612190190279
 30
0.0
 11
322.2055955878211
 21
57.02612190190278
 31
0.0
  0
LINE
  5
5E3
330
18
100
AcDbEntity
  8
1
  6
Continuous
100
AcDbLine
 10
321.2863805878208
 20
68.27612190190274
 30
0.0
 11
321.2863805878208
 21
61.97121137584097
 31
0.0
  0
LINE
  5
5E4
330
18
100
AcDbEntity
  8
1
  6
Continuous
100
AcDbLine
 10
329.4091029281084
 20
69.77612190190275
 30
0.0
 11
322.7863805878208
 21
69.77612190190274
 31
0.0
  0
LINE
  5
5E5
330
18
100
AcDbEntity
  8
1
  6
Continuous
100
AcDbLine
 10
318.1093405878208
 20
71.52612190190272
 30
0.0
 11
314.8824705878208
 21
71.52612190190275
 31
0.0
  0
ARC
  5
5E6
330
18
100
AcDbEntity
  8
1
  6
Continuous
100
AcDbCircle
 10
322.7863805878208
 20
68.27612190190274
 30
0.0
 40
1.5
100
AcDbArc
 50
90.00000000000005
 51
180.0
  0
ARC
  5
5E7
330
18
100
AcDbEntity
  8
1
  6
Continuous
100
AcDbCircle
 10
318.1093405878208
 20
73.52612190190273
 30
0.0
 40
2.0
100
AcDbArc
 50
270.0
 51
0.0
  0
LINE
  5
5EC
330
18
100
AcDbEntity
  8
1
  6
Continuous
100
AcDbLine
 10
328.2749325878208
 20
56.92612190190264
 30
0.0
 11
328.2749325878208
 21
57.02612190190279
 31
0.0
  0
ARC
  5
5ED
330
18
100
AcDbEntity
  8
1
  6
Continuous
100
AcDbCircle
 10
329.4749325878208
 20
56.92612190190264
 30
0.0
 40
1.199999999999999
100
AcDbArc
 50
180.0
 51
270.0
  0
LINE
  5
5EE
330
18
100
AcDbEntity
  8
1
  6
Continuous
100
AcDbLine
 10
336.0749325878208
 20
56.92612190190264
 30
0.0
 11
336.0749325878208
 21
57.02612190190279
 31
0.0
  0
ARC
  5
5EF
330
18
100
AcDbEntity
  8
1
  6
Continuous
100
AcDbCircle
 10
334.8749325878208
 20
56.92612190190264
 30
0.0
 40
1.199999999999999
100
AcDbArc
 50
270.0
 51
0.0
  0
ARC
  5
5F0
330
18
100
AcDbEntity
  8
1
  6
Continuous
100
AcDbCircle
 10
346.3923305878208
 20
58.0261219019028
 30
0.0
 40
1.0
100
AcDbArc
 50
270.0
 51
0.0
  0
LINE
  5
5F1
330
18
100
AcDbEntity
  8
1
  6
Continuous
100
AcDbLine
 10
373.0604865878208
 20
60.0261219019028
 30
0.0
 11
349.3923305878208
 21
60.0261219019028
 31
0.0
  0
ARC
  5
5F3
330
18
100
AcDbEntity
  8
1
  6
Continuous
100
AcDbCircle
 10
376.0604865878208
 20
60.47252590190272
 30
0.0
 40
3.0
100
AcDbArc
 50
91.07054000000015
 51
180.0
  0
LINE
  5
5F5
330
18
100
AcDbEntity
  8
1
  6
Continuous
100
AcDbLine
 10
376.0707466032231
 20
63.47200187789258
 30
0.0
 11
376.0044366032228
 21
63.47200187789258
 31
0.0
  0
LINE
  5
5F7
330
18
100
AcDbEntity
  8
1
  6
Continuous
100
AcDbLine
 10
373.0604865878208
 20
60.47252590190272
 30
0.0
 11
373.0604865878208
 21
60.0261219019028
 31
0.0
  0
LINE
  5
5F8
330
18
100
AcDbEntity
  8
1
  6
Continuous
100
AcDbLine
 10
383.3005105878208
 20
102.2141159019026
 30
0.0
 11
383.3005105878208
 21
70.83812790190274
 31
0.0
  0
CIRCLE
  5
693
330
18
100
AcDbEntity
  8
1
  6
Continuous
100
AcDbCircle
 10
257.7418605878208
 20
86.52612190190273
 30
0.0
 40
40.0
  0
ARC
  5
694
330
18
100
AcDbEntity
  8
1
  6
Continuous
100
AcDbCircle
 10
375.2230995878206
 20
104.0271829019026
 30
0.0
 40
1.348938999999998
100
AcDbArc
 50
0.0
 51
180.0
  0
LINE
  5
695
330
18
100
AcDbEntity
  8
1
  6
Continuous
100
AcDbLine
 10
373.8741605878206
 20
104.0271829019026
 30
0.0
 11
373.8741605878206
 21
69.02506090190269
 31
0.0
  0
LINE
  5
696
330
18
100
AcDbEntity
  8
1
  6
Continuous
100
AcDbLine
 10
376.5720385878208
 20
104.0271829019026
 30
0.0
 11
376.5720385878208
 21
69.02506090190269
 31
0.0
  0
LINE
  5
697
330
18
100
AcDbEntity
  8
1
  6
Continuous
100
AcDbLine
 10
367.5759305878208
 20
104.0270979019026
 30
0.0
 11
367.5759305878208
 21
69.0251459019027
 31
0.0
  0
ARC
  5
698
330
18
100
AcDbEntity
  8
1
  6
Continuous
100
AcDbCircle
 10
366.2269065878206
 20
104.0270979019026
 30
0.0
 40
1.349024
100
AcDbArc
 50
0.0
 51
180.0
  0
LINE
  5
699
330
18
100
AcDbEntity
  8
1
  6
Continuous
100
AcDbLine
 10
364.8778825878208
 20
104.0270979019026
 30
0.0
 11
364.8778825878208
 21
69.0251459019027
 31
0.0
  0
LINE
  5
69A
330
18
100
AcDbEntity
  8
1
  6
Continuous
100
AcDbLine
 10
358.5795605878208
 20
104.0271579019026
 30
0.0
 11
358.5795605878208
 21
69.02508590190274
 31
0.0
  0
ARC
  5
69B
330
18
100
AcDbEntity
  8
1
  6
Continuous
100
AcDbCircle
 10
357.2305965878208
 20
104.0271579019026
 30
0.0
 40
1.348964
100
AcDbArc
 50
0.0
 51
180.0
  0
LINE
  5
69C
330
18
100
AcDbEntity
  8
1
  6
Continuous
100
AcDbLine
 10
355.8816325878206
 20
104.0271579019026
 30
0.0
 11
355.8816325878206
 21
69.02508590190274
 31
0.0
  0
ARC
  5
69D
330
18
100
AcDbEntity
  8
1
  6
Continuous
100
AcDbCircle
 10
357.2305965878208
 20
69.02508590190274
 30
0.0
 40
1.348964
100
AcDbArc
 50
180.0
 51
0.0
  0
ARC
  5
69E
330
18
100
AcDbEntity
  8
1
  6
Continuous
100
AcDbCircle
 10
366.2269065878206
 20
69.0251459019027
 30
0.0
 40
1.349024
100
AcDbArc
 50
180.0
 51
0.0
  0
ARC
  5
69F
330
18
100
AcDbEntity
  8
1
  6
Continuous
100
AcDbCircle
 10
375.2230995878206
 20
69.02506090190269
 30
0.0
 40
1.348938999999998
100
AcDbArc
 50
180.0
 51
0.0
  0
LINE
  5
6A0
330
18
100
AcDbEntity
  8
1
  6
Continuous
100
AcDbLine
 10
373.7016347762854
 20
110.7261219019026
 30
0.0
 11
349.3923305878208
 21
110.7261219019026
 31
0.0
  0
ARC
  5
6A1
330
18
100
AcDbEntity
  8
1
  6
Continuous
100
AcDbCircle
 10
349.3923305878208
 20
115.0261219019027
 30
0.0
 40
4.299999999999998
100
AcDbArc
 50
197.5973366080843
 51
270.0
  0
LINE
  5
6A2
330
18
100
AcDbEntity
  8
1
  6
Continuous
100
AcDbLine
 10
345.2935502814381
 20
113.7261219019026
 30
0.0
 11
325.4913189968576
 21
113.7261219019026
 31
0.0
  0
LINE
  5
6A3
330
18
100
AcDbEntity
  8
1
  6
Continuous
100
AcDbLine
 10
373.7016347762854
 20
62.3261219019028
 30
0.0
 11
349.3923305878208
 21
62.3261219019028
 31
0.0
  0
LINE
  5
6A6
330
18
100
AcDbEntity
  8
1
  6
Continuous
100
AcDbLine
 10
345.2935502814381
 20
59.3261219019028
 30
0.0
 11
325.4913189968576
 21
59.3261219019028
 31
0.0
  0
ARC
  5
6A7
330
18
100
AcDbEntity
  8
1
  6
Continuous
100
AcDbCircle
 10
349.3923305878208
 20
58.0261219019028
 30
0.0
 40
4.299999999999998
100
AcDbArc
 50
90.00000000000005
 51
162.4026633919154
  0
ARC
  5
6AE
330
18
100
AcDbEntity
  8
1
  6
Continuous
100
AcDbCircle
 10
329.4091029281084
 20
74.77612190190273
 30
0.0
 40
5.0
100
AcDbArc
 50
270.0
 51
0.0
  0
LINE
  5
6AF
330
18
100
AcDbEntity
  8
1
  6
Continuous
100
AcDbLine
 10
334.4091029281083
 20
98.27612190190272
 30
0.0
 11
334.4091029281083
 21
74.77612190190273
 31
0.0
  0
ARC
  5
6B0
330
18
100
AcDbEntity
  8
1
  6
Continuous
100
AcDbCircle
 10
329.4091029281084
 20
98.27612190190272
 30
0.0
 40
5.0
100
AcDbArc
 50
0.0
 51
90.00000000000005
  0
LINE
  5
6B1
330
18
100
AcDbEntity
  8
1
  6
Continuous
100
AcDbLine
 10
330.0529875398536
 20
116.0261219019026
 30
0.0
 11
330.0529875398536
 21
113.7261219019026
 31
0.0
  0
LINE
  5
6B2
330
18
100
AcDbEntity
  8
1
  6
Continuous
100
AcDbLine
 10
330.0529875398536
 20
59.3261219019028
 30
0.0
 11
330.0529875398536
 21
57.02612190190279
 31
0.0
  0
LINE
  5
6B3
330
18
100
AcDbEntity
  8
1
  6
Continuous
100
AcDbLine
 10
345.2935502814381
 20
110.7261219019026
 30
0.0
 11
326.1217440270253
 21
110.7261219019026
 31
0.0
  0
LINE
  5
6B4
330
18
100
AcDbEntity
  8
1
  6
Continuous
100
AcDbLine
 10
345.2935502814369
 20
113.7261219019026
 30
0.0
 11
345.2935502814381
 21
110.7261219019026
 31
0.0
  0
LINE
  5
6B7
330
18
100
AcDbEntity
  8
1
  6
Continuous
100
AcDbLine
 10
319.4027768466747
 20
114.3261219019025
 30
0.0
 11
323.2544317473303
 21
111.6299626898225
 31
0.0
  0
ARC
  5
6B8
330
18
100
AcDbEntity
  8
1
  6
Continuous
100
AcDbCircle
 10
326.1217440270253
 20
115.7261219019027
 30
0.0
 40
5.0
100
AcDbArc
 50
235.0079719980147
 51
270.0
  0
LINE
  5
6B9
330
18
100
AcDbEntity
  8
1
  6
Continuous
100
AcDbLine
 10
322.7091543330741
 20
110.828473686361
 30
0.0
 11
325.9684067722786
 21
110.728473686361
 31
0.0
  0
LINE
  5
6C2
330
18
100
AcDbEntity
  8
1
  6
Continuous
100
AcDbLine
 10
335.4249325878208
 20
108.7261219019026
 30
0.0
 11
328.9249325878208
 21
108.7261219019026
 31
0.0
  0
LINE
  5
6C3
330
18
100
AcDbEntity
  8
1
  6
Continuous
100
AcDbLine
 10
328.9249325878208
 20
110.7261219019026
 30
0.0
 11
328.9249325878208
 21
108.7261219019026
 31
0.0
  0
LINE
  5
6C4
330
18
100
AcDbEntity
  8
1
  6
Continuous
100
AcDbLine
 10
335.4249325878208
 20
110.7261219019026
 30
0.0
 11
335.4249325878208
 21
108.7261219019026
 31
0.0
  0
LINE
  5
6C5
330
18
100
AcDbEntity
  8
1
  6
Continuous
100
AcDbLine
 10
319.4027768466747
 20
58.72612190190277
 30
0.0
 11
286.5022500149478
 21
58.72612190190277
 31
0.0
  0
LINE
  5
6C6
330
18
100
AcDbEntity
  8
1
  6
Continuous
100
AcDbLine
 10
316.2863805878207
 20
58.72612190190277
 30
0.0
 11
319.9951805878206
 21
61.32228190190279
 31
0.0
  0
LINE
  5
6C7
330
18
100
AcDbEntity
  8
1
  6
Continuous
100
AcDbLine
 10
318.7723415878206
 20
55.72612190190278
 30
0.0
 11
283.2636160133396
 21
55.72612190190278
 31
0.0
  0
LINE
  5
6C8
330
18
100
AcDbEntity
  8
1
  6
Continuous
100
AcDbLine
 10
345.2935502814381
 20
62.32612190190275
 30
0.0
 11
326.1217440270253
 21
62.32612190190275
 31
0.0
  0
LINE
  5
6C9
330
18
100
AcDbEntity
  8
1
  6
Continuous
100
AcDbLine
 10
335.4249325878208
 20
64.32612190190282
 30
0.0
 11
328.9249325878208
 21
64.32612190190281
 31
0.0
  0
LINE
  5
6CA
330
18
100
AcDbEntity
  8
1
  6
Continuous
100
AcDbLine
 10
322.7091543330741
 20
62.22377011744445
 30
0.0
 11
325.9684067722786
 21
62.32377011744441
 31
0.0
  0
ARC
  5
6CB
330
18
100
AcDbEntity
  8
1
  6
Continuous
100
AcDbCircle
 10
326.1217440270253
 20
57.32612190190275
 30
0.0
 40
5.0
100
AcDbArc
 50
90.00000000000005
 51
124.9920280019853
  0
LINE
  5
6CC
330
18
100
AcDbEntity
  8
1
  6
Continuous
100
AcDbLine
 10
328.9249325878208
 20
62.3261219019028
 30
0.0
 11
328.9249325878208
 21
64.32612190190281
 31
0.0
  0
LINE
  5
6CD
330
18
100
AcDbEntity
  8
1
  6
Continuous
100
AcDbLine
 10
335.4249325878208
 20
62.3261219019028
 30
0.0
 11
335.4249325878208
 21
64.32612190190282
 31
0.0
  0
LINE
  5
6CE
330
18
100
AcDbEntity
  8
1
  6
Continuous
100
AcDbLine
 10
319.4027768466747
 20
58.72612190190277
 30
0.0
 11
323.2544317473303
 21
61.42228111398299
 31
0.0
  0
ARC
  5
6CF
330
18
100
AcDbEntity
  8
1
  6
Continuous
100
AcDbCircle
 10
322.8624915878208
 20
57.22612190190279
 30
0.0
 40
5.0
100
AcDbArc
 50
91.7573910501259
 51
124.9920199999999
  0
ARC
  5
6D0
330
18
100
AcDbEntity
  8
1
  6
Continuous
100
AcDbCircle
 10
318.7723415878206
 20
60.72612190190278
 30
0.0
 40
5.0
100
AcDbArc
 50
270.0
 51
304.9920199999998
  0
LINE
  5
6D1
330
18
100
AcDbEntity
  8
1
  6
Continuous
100
AcDbLine
 10
321.6396525878209
 20
56.62996290190289
 30
0.0
 11
325.4913189968576
 21
59.32612190190275
 31
0.0
  0
LINE
  5
6D2
330
18
100
AcDbEntity
  8
1
  6
Continuous
100
AcDbLine
 10
345.2935502814369
 20
59.32612190190275
 30
0.0
 11
345.2935502814381
 21
62.32612190190275
 31
0.0
  0
ARC
  5
6D3
330
18
100
AcDbEntity
  8
1
  6
Continuous
100
AcDbCircle
 10
323.7091029281084
 20
104.7761219019027
 30
0.0
 40
1.5
100
AcDbArc
 50
180.0
 51
270.0
  0
LINE
  5
6D4
330
18
100
AcDbEntity
  8
1
  6
Continuous
100
AcDbLine
 10
322.2091029281084
 20
111.0810324279644
 30
0.0
 11
322.2091029281084
 21
104.7761219019027
 31
0.0
  0
ARC
  5
6D5
330
18
100
AcDbEntity
  8
1
  6
Continuous
100
AcDbCircle
 10
323.7091029281084
 20
68.27612190190274
 30
0.0
 40
1.5
100
AcDbArc
 50
90.00000000000005
 51
180.0
  0
LINE
  5
6D6
330
18
100
AcDbEntity
  8
1
  6
Continuous
100
AcDbLine
 10
322.2091029281084
 20
68.27612190190274
 30
0.0
 11
322.2091029281084
 21
61.97121137584097
 31
0.0
  0
LINE
  5
6DA
330
18
100
AcDbEntity
  8
1
  6
Continuous
100
AcDbLine
 10
307.7418605878208
 20
58.7261219019028
 30
0.0
 11
307.7418605878208
 21
63.52612190190281
 31
0.0
  0
LINE
  5
6DB
330
18
100
AcDbEntity
  8
1
  6
Continuous
100
AcDbLine
 10
307.7418605878209
 20
117.3261219019027
 30
0.0
 11
307.7418605878208
 21
126.5261219019027
 31
0.0
  0
LINE
  5
6DC
330
18
100
AcDbEntity
  8
1
  6
Continuous
100
AcDbLine
 10
312.8824705878209
 20
106.5261219019026
 30
0.0
 11
292.3828767391983
 21
106.5261219019026
 31
0.0
  0
LINE
  5
6DD
330
18
100
AcDbEntity
  8
1
  6
Continuous
100
AcDbLine
 10
312.8824705878209
 20
66.52612190190281
 30
0.0
 11
292.3828767391983
 21
66.52612190190279
 31
0.0
  0
LINE
  5
6DF
330
18
100
AcDbEntity
  8
1
  6
Continuous
100
AcDbLine
 10
307.7418605878209
 20
109.5261219019026
 30
0.0
 11
307.7418605878209
 21
114.3261219019025
 31
0.0
  0
CIRCLE
  5
6F7
330
18
100
AcDbEntity
  8
1
  6
Continuous
100
AcDbCircle
 10
257.7418605878208
 20
86.52612190190273
 30
0.0
 40
15.5
  0
LINE
  5
6F8
330
18
100
AcDbEntity
  8
1
  6
Continuous
100
AcDbLine
 10
257.7418605878207
 20
94.03167540136795
 30
0.0
 11
264.2418605878209
 21
90.27889865163523
 31
0.0
  0
LINE
  5
6F9
330
18
100
AcDbEntity
  8
1
  6
Continuous
100
AcDbLine
 10
257.7418605878207
 20
79.02056840243749
 30
0.0
 11
264.2418605878209
 21
82.77334515217019
 31
0.0
  0
CIRCLE
  5
6FA
330
18
100
AcDbEntity
  8
1
  6
Continuous
100
AcDbCircle
 10
257.7418605878208
 20
86.52612190190273
 30
0.0
 40
9.25
  0
LINE
  5
6FB
330
18
100
AcDbEntity
  8
1
  6
Continuous
100
AcDbLine
 10
251.2418605878208
 20
90.2788986516354
 30
0.0
 11
251.2418605878208
 21
82.7733451521701
 31
0.0
  0
LINE
  5
6FC
330
18
100
AcDbEntity
  8
1
  6
Continuous
100
AcDbLine
 10
257.7418605878209
 20
79.02056840243749
 30
0.0
 11
251.2418605878206
 21
82.77334515217019
 31
0.0
  0
LINE
  5
6FD
330
18
100
AcDbEntity
  8
1
  6
Continuous
100
AcDbLine
 10
257.7418605878209
 20
94.03167540136795
 30
0.0
 11
251.2418605878206
 21
90.27889865163523
 31
0.0
  0
LINE
  5
6FE
330
18
100
AcDbEntity
  8
1
  6
Continuous
100
AcDbLine
 10
264.2418605878207
 20
90.2788986516354
 30
0.0
 11
264.2418605878207
 21
82.7733451521701
 31
0.0
  0
LINE
  5
701
330
18
100
AcDbEntity
  8
1
  6
Continuous
100
AcDbLine
 10
312.8824705878209
 20
106.5261219019026
 30
0.0
 11
312.8824705878209
 21
103.5261219019026
 31
0.0
  0
LINE
  5
702
330
18
100
AcDbEntity
  8
1
  6
Continuous
100
AcDbLine
 10
317.2171405878208
 20
99.52612190190272
 30
0.0
 11
317.2171405878208
 21
73.52612190190273
 31
0.0
  0
ARC
  5
703
330
18
100
AcDbEntity
  8
1
  6
Continuous
100
AcDbCircle
 10
315.2171405878208
 20
73.52612190190273
 30
0.0
 40
2.0
100
AcDbArc
 50
270.0
 51
0.0
  0
ARC
  5
704
330
18
100
AcDbEntity
  8
1
  6
Continuous
100
AcDbCircle
 10
315.2171405878208
 20
99.52612190190272
 30
0.0
 40
2.0
100
AcDbArc
 50
0.0
 51
90.00000000000005
  0
LINE
  5
705
330
18
100
AcDbEntity
  8
1
  6
Continuous
100
AcDbLine
 10
312.8824705878209
 20
69.52612190190276
 30
0.0
 11
312.8824705878209
 21
66.52612190190281
 31
0.0
  0
LINE
  5
709
330
18
100
AcDbEntity
  8
1
  6
Continuous
100
AcDbLine
 10
302.3287087950154
 20
106.5261219019026
 30
0.0
 11
302.3287087950154
 21
99.52612190190272
 31
0.0
  0
ARC
  5
70C
330
18
100
AcDbEntity
  8
1
  6
Continuous
100
AcDbCircle
 10
275.2802742010587
 20
86.5261219019027
 30
0.0
 40
30.01029513322992
100
AcDbArc
 50
334.3301618151631
 51
25.66983818483716
  0
LINE
  5
70D
330
18
100
AcDbEntity
  8
1
  6
Continuous
100
AcDbLine
 10
302.3287087950156
 20
73.5261219019027
 30
0.0
 11
302.3287087950156
 21
66.52612190190281
 31
0.0
  0
ARC
  5
70E
330
18
100
AcDbEntity
  8
1
  6
Continuous
100
AcDbCircle
 10
314.8824705878208
 20
103.5261219019026
 30
0.0
 40
2.0
100
AcDbArc
 50
180.0
 51
270.0
  0
ARC
  5
70F
330
18
100
AcDbEntity
  8
1
  6
Continuous
100
AcDbCircle
 10
314.8824705878208
 20
69.52612190190276
 30
0.0
 40
2.0
100
AcDbArc
 50
90.0
 51
180.0
  0
LINE
  5
710
330
18
100
AcDbEntity
  8
1
  6
Continuous
100
AcDbLine
 10
314.9590205878206
 20
98.52612190190271
 30
0.0
 11
314.9590205878206
 21
74.52612190190272
 31
0.0
  0
LINE
  5
715
330
18
100
AcDbEntity
  8
4
  6
CENTER
 48
0.5
100
AcDbLine
 10
522.9947705878205
 20
352.3461289019027
 30
0.0
 11
522.9947705878205
 21
192.9600509019025
 31
0.0
  0
LINE
  5
716
330
18
100
AcDbEntity
  8
1
  6
Continuous
100
AcDbLine
 10
547.3947645878206
 20
256.9511482309321
 30
0.0
 11
547.3947645878206
 21
228.5800609019025
 31
0.0
  0
LINE
  5
717
330
18
100
AcDbEntity
  8
1
  6
Continuous
100
AcDbLine
 10
498.5947765878209
 20
256.9511482309319
 30
0.0
 11
498.5947765878209
 21
228.5800609019025
 31
0.0
  0
LINE
  5
719
330
18
100
AcDbEntity
  8
1
  6
Continuous
100
AcDbLine
 10
482.9947705878208
 20
203.9800729019026
 30
0.0
 11
562.9947705878207
 21
203.9800729019026
 31
0.0
  0
LINE
  5
71A
330
18
100
AcDbEntity
  8
1
  6
Continuous
100
AcDbLine
 10
486.4947705878208
 20
210.2800609019026
 30
0.0
 11
559.4947705878205
 21
210.2800609019026
 31
0.0
  0
LINE
  5
71B
330
18
100
AcDbEntity
  8
1
  6
Continuous
100
AcDbLine
 10
484.6947825878205
 20
200.7800609019026
 30
0.0
 11
561.2947735878208
 21
200.7800609019026
 31
0.0
  0
LINE
  5
71C
330
18
100
AcDbEntity
  8
1
  6
Continuous
100
AcDbLine
 10
535.8947645878209
 20
211.9921579019027
 30
0.0
 11
510.0947765878209
 21
211.9921579019027
 31
0.0
  0
LINE
  5
71D
330
18
100
AcDbEntity
  8
1
  6
Continuous
100
AcDbLine
 10
504.3947645878206
 20
216.7800579019027
 30
0.0
 11
541.5947765878208
 21
216.7800579019027
 31
0.0
  0
LINE
  5
71E
330
18
100
AcDbEntity
  8
1
  6
Continuous
100
AcDbLine
 10
500.5947765878208
 20
226.5800609019027
 30
0.0
 11
545.3947645878209
 21
226.5800609019027
 31
0.0
  0
LINE
  5
71F
330
18
100
AcDbEntity
  8
1
  6
Continuous
100
AcDbLine
 10
562.9947705878207
 20
206.7800609019026
 30
0.0
 11
562.9947705878207
 21
203.9800729019026
 31
0.0
  0
LINE
  5
720
330
18
100
AcDbEntity
  8
1
  6
Continuous
100
AcDbLine
 10
562.1522105878208
 20
203.9800659019026
 30
0.0
 11
561.2947735878208
 21
200.7800609019026
 31
0.0
  0
ARC
  5
721
330
18
100
AcDbEntity
  8
1
  6
Continuous
100
AcDbCircle
 10
559.4947705878205
 20
206.7800609019026
 30
0.0
 40
3.5
100
AcDbArc
 50
0.0000399999999616
 51
90.00001800000005
  0
ARC
  5
722
330
18
100
AcDbEntity
  8
1
  6
Continuous
100
AcDbCircle
 10
545.3947645878209
 20
228.5800609019025
 30
0.0
 40
2.0
100
AcDbArc
 50
270.0
 51
0.0000100000001992
  0
ARC
  5
723
330
18
100
AcDbEntity
  8
1
  6
Continuous
100
AcDbCircle
 10
536.7447705878205
 20
211.2800609019026
 30
0.0
 40
1.0
100
AcDbArc
 50
225.0070099999999
 51
270.0000600000003
  0
ARC
  5
724
330
18
100
AcDbEntity
  8
1
  6
Continuous
100
AcDbCircle
 10
535.8947645878209
 20
214.9921579019026
 30
0.0
 40
3.0
100
AcDbArc
 50
270.0
 51
0.0000199999999843
  0
LINE
  5
725
330
18
100
AcDbEntity
  8
1
  6
Continuous
100
AcDbLine
 10
538.8947645878206
 20
214.9921579019026
 30
0.0
 11
538.8947645878206
 21
216.7800579019027
 31
0.0
  0
ARC
  5
726
330
18
100
AcDbEntity
  8
1
  6
Continuous
100
AcDbCircle
 10
541.5947765878208
 20
219.7800579019026
 30
0.0
 40
3.0
100
AcDbArc
 50
270.0
 51
0.0000100000001992
  0
LINE
  5
727
330
18
100
AcDbEntity
  8
1
  6
Continuous
100
AcDbLine
 10
544.5947615878208
 20
226.5800609019027
 30
0.0
 11
544.5947615878208
 21
219.7800579019026
 31
0.0
  0
LINE
  5
728
330
18
100
AcDbEntity
  8
1
  6
Continuous
100
AcDbLine
 10
534.6181015878205
 20
211.9921739019027
 30
0.0
 11
536.0377445878206
 21
210.5728769019027
 31
0.0
  0
LINE
  5
729
330
18
100
AcDbEntity
  8
1
  6
Continuous
100
AcDbLine
 10
482.9947705878208
 20
206.7800609019026
 30
0.0
 11
482.9947705878208
 21
203.9800729019026
 31
0.0
  0
LINE
  5
72A
330
18
100
AcDbEntity
  8
1
  6
Continuous
100
AcDbLine
 10
483.8373415878208
 20
203.9800579019027
 30
0.0
 11
484.6947785878207
 21
200.7800609019026
 31
0.0
  0
ARC
  5
72B
330
18
100
AcDbEntity
  8
1
  6
Continuous
100
AcDbCircle
 10
500.5947765878208
 20
228.5800609019025
 30
0.0
 40
2.0
100
AcDbArc
 50
179.9999969999998
 51
270.0
  0
LINE
  5
72C
330
18
100
AcDbEntity
  8
1
  6
Continuous
100
AcDbLine
 10
507.0947765878209
 20
214.9921579019026
 30
0.0
 11
507.0947765878209
 21
216.7800579019027
 31
0.0
  0
ARC
  5
72D
330
18
100
AcDbEntity
  8
1
  6
Continuous
100
AcDbCircle
 10
509.2447705878206
 20
211.2800609019026
 30
0.0
 40
1.0
100
AcDbArc
 50
269.9999499999996
 51
314.9929899999999
  0
LINE
  5
72E
330
18
100
AcDbEntity
  8
1
  6
Continuous
100
AcDbLine
 10
511.3714315878207
 20
211.9921739019027
 30
0.0
 11
509.9517955878208
 21
210.5728849019026
 31
0.0
  0
ARC
  5
72F
330
18
100
AcDbEntity
  8
1
  6
Continuous
100
AcDbCircle
 10
510.0947765878209
 20
214.9921579019026
 30
0.0
 40
3.0
100
AcDbArc
 50
179.999982
 51
270.0
  0
ARC
  5
730
330
18
100
AcDbEntity
  8
1
  6
Continuous
100
AcDbCircle
 10
504.3947645878206
 20
219.7800579019026
 30
0.0
 40
3.0
100
AcDbArc
 50
179.9999969999998
 51
270.0
  0
LINE
  5
731
330
18
100
AcDbEntity
  8
1
  6
Continuous
100
AcDbLine
 10
501.3947645878208
 20
226.5800609019027
 30
0.0
 11
501.3947645878208
 21
219.7800579019026
 31
0.0
  0
ARC
  5
732
330
18
100
AcDbEntity
  8
1
  6
Continuous
100
AcDbCircle
 10
486.4947705878208
 20
206.7800609019026
 30
0.0
 40
3.5
100
AcDbArc
 50
89.99998400000034
 51
179.999963
  0
ARC
  5
734
330
18
100
AcDbEntity
  8
1
  6
Continuous
100
AcDbCircle
 10
478.3875015878208
 20
333.7800579019027
 30
0.0
 40
7.0
100
AcDbArc
 50
30.00000000000015
 51
90.00000399999995
  0
LINE
  5
735
330
18
100
AcDbEntity
  8
4
  6
CENTER
 48
0.5
100
AcDbLine
 10
482.9947705878208
 20
336.0054069019026
 30
0.0
 11
482.9947705878208
 21
353.0699439019027
 31
0.0
  0
ARC
  5
736
330
18
100
AcDbEntity
  8
1
  6
Continuous
100
AcDbCircle
 10
567.6020395878207
 20
333.7800579019027
 30
0.0
 40
7.0
100
AcDbArc
 50
89.99999699999987
 51
149.9999960000002
  0
LINE
  5
737
330
18
100
AcDbEntity
  8
4
  6
CENTER
 48
0.5
100
AcDbLine
 10
562.9947705878207
 20
336.4763169019027
 30
0.0
 11
562.9947705878207
 21
352.7831099019027
 31
0.0
  0
ARC
  5
738
330
18
100
AcDbEntity
  8
1
  6
Continuous
100
AcDbCircle
 10
522.9947705878205
 20
334.7800579019026
 30
0.0
 40
3.0
100
AcDbArc
 50
359.9999899999998
 51
179.9999969999998
  0
LINE
  5
739
330
18
100
AcDbEntity
  8
4
  6
CENTER
 48
0.5
100
AcDbLine
 10
555.3079115878208
 20
302.7800579019026
 30
0.0
 11
487.6244545878208
 21
302.7800579019026
 31
0.0
  0
LINE
  5
73A
330
18
100
AcDbEntity
  8
4
  6
CENTER
 48
0.5
100
AcDbLine
 10
555.6818125878208
 20
266.3800559019027
 30
0.0
 11
487.7535295878208
 21
266.3800559019027
 31
0.0
  0
ARC
  5
73B
330
18
100
AcDbEntity
  8
1
  6
Continuous
100
AcDbCircle
 10
522.9947705878205
 20
298.7800579019026
 30
0.0
 40
3.0
100
AcDbArc
 50
179.9999900000002
 51
0.0000100000001992
  0
LINE
  5
73D
330
18
100
AcDbEntity
  8
1
  6
Continuous
100
AcDbLine
 10
553.7947735878208
 20
304.3707179019027
 30
0.0
 11
553.7947735878208
 21
268.5825019019026
 31
0.0
  0
LINE
  5
740
330
18
100
AcDbEntity
  8
4
  6
CENTER
 48
0.5
100
AcDbLine
 10
544.5487565878208
 20
280.9156939019025
 30
0.0
 11
558.5312235878208
 21
280.9156939019025
 31
0.0
  0
ARC
  5
741
330
18
100
AcDbEntity
  8
1
  6
Continuous
100
AcDbCircle
 10
550.1947675878207
 20
262.8469829019027
 30
0.0
 40
2.0
100
AcDbArc
 50
284.4775100000004
 51
0.0000100000001992
  0
LINE
  5
744
330
18
100
AcDbEntity
  8
1
  6
Continuous
100
AcDbLine
 10
552.1947675878208
 20
268.5825019019026
 30
0.0
 11
552.1947675878208
 21
262.8469829019027
 31
0.0
  0
LINE
  5
745
330
18
100
AcDbEntity
  8
1
  6
Continuous
100
AcDbLine
 10
555.5947765878206
 20
283.0826549019026
 30
0.0
 11
555.5947765878206
 21
278.7487169019026
 31
0.0
  0
LINE
  5
746
330
18
100
AcDbEntity
  8
1
  6
Continuous
100
AcDbLine
 10
554.3947645878206
 20
284.9156859019026
 30
0.0
 11
554.3947645878206
 21
276.9156859019026
 31
0.0
  0
LINE
  5
747
330
18
100
AcDbEntity
  8
1
  6
Continuous
100
AcDbLine
 10
554.3947685878208
 20
276.9156799019027
 30
0.0
 11
553.7947655878208
 21
277.9156879019026
 31
0.0
  0
ARC
  5
748
330
18
100
AcDbEntity
  8
1
  6
Continuous
100
AcDbCircle
 10
553.5947765878209
 20
278.7487169019026
 30
0.0
 40
2.0
100
AcDbArc
 50
293.5781700000001
 51
0.0000100000001992
  0
LINE
  5
74A
330
18
100
AcDbEntity
  8
1
  6
Continuous
100
AcDbLine
 10
553.7947735878208
 20
283.9156809019026
 30
0.0
 11
554.3947725878208
 21
284.9156739019027
 31
0.0
  0
ARC
  5
74B
330
18
100
AcDbEntity
  8
1
  6
Continuous
100
AcDbCircle
 10
553.5947765878209
 20
283.0826549019026
 30
0.0
 40
2.0
100
AcDbArc
 50
359.9999899999998
 51
66.42181999999984
  0
LINE
  5
74C
330
18
100
AcDbEntity
  8
1
  6
Continuous
100
AcDbLine
 10
544.8947645878209
 20
279.1104569019025
 30
0.0
 11
544.8947645878209
 21
271.1898118445609
 31
0.0
  0
LINE
  5
753
330
18
100
AcDbEntity
  8
1
  6
Continuous
100
AcDbLine
 10
550.7947735878208
 20
281.6745777352701
 30
0.0
 11
550.7947735878206
 21
268.5825019019026
 31
0.0
  0
LINE
  5
754
330
18
100
AcDbEntity
  8
1
  6
Continuous
100
AcDbLine
 10
544.8947645878209
 20
279.1104569019025
 30
0.0
 11
545.8947665878205
 21
279.1104569019025
 31
0.0
  0
LINE
  5
759
330
18
100
AcDbEntity
  8
1
  6
Continuous
100
AcDbLine
 10
552.4947705878205
 20
304.3707179019027
 30
0.0
 11
553.7947735878208
 21
304.3707179019027
 31
0.0
  0
LINE
  5
75B
330
18
100
AcDbEntity
  8
1
  6
Continuous
100
AcDbLine
 10
561.5398605878208
 20
337.2800619019026
 30
0.0
 11
549.9300018996298
 21
317.1711935125321
 31
0.0
  0
LINE
  5
75D
330
18
100
AcDbEntity
  8
1
  6
Continuous
100
AcDbLine
 10
525.8141465878208
 20
335.8052879019027
 30
0.0
 11
531.6597861543243
 21
319.7297769019026
 31
0.0
  0
LINE
  5
75E
330
18
100
AcDbEntity
  8
1
  6
Continuous
100
AcDbLine
 10
525.9947705878205
 20
334.7800579019026
 30
0.0
 11
525.9947705878205
 21
319.7297769019026
 31
0.0
  0
LINE
  5
763
330
18
100
AcDbEntity
  8
1
  6
Continuous
100
AcDbLine
 10
532.3248315805017
 20
309.0609736500939
 30
0.0
 11
525.5994975878206
 21
297.2916379019027
 31
0.0
  0
LINE
  5
766
330
18
100
AcDbEntity
  8
1
  6
Continuous
100
AcDbLine
 10
492.1947675878207
 20
304.3707179019027
 30
0.0
 11
492.1947675878207
 21
268.5825019019026
 31
0.0
  0
ARC
  5
768
330
18
100
AcDbEntity
  8
1
  6
Continuous
100
AcDbCircle
 10
492.3947645878206
 20
283.0826549019026
 30
0.0
 40
2.0
100
AcDbArc
 50
113.5781790000002
 51
180.0
  0
LINE
  5
769
330
18
100
AcDbEntity
  8
4
  6
CENTER
 48
0.5
100
AcDbLine
 10
501.4407845878208
 20
280.9156939019025
 30
0.0
 11
487.4583175878208
 21
280.9156939019025
 31
0.0
  0
ARC
  5
76A
330
18
100
AcDbEntity
  8
1
  6
Continuous
100
AcDbCircle
 10
492.3947645878206
 20
278.7487169019026
 30
0.0
 40
2.0
100
AcDbArc
 50
180.0
 51
246.4218199999998
  0
ARC
  5
76B
330
18
100
AcDbEntity
  8
1
  6
Continuous
100
AcDbCircle
 10
494.0947765878208
 20
270.4104899019025
 30
0.0
 40
2.0
100
AcDbArc
 50
161.8059533994129
 51
180.0
  0
LINE
  5
76C
330
18
100
AcDbEntity
  8
1
  6
Continuous
100
AcDbLine
 10
501.0947765878208
 20
279.1104569019025
 30
0.0
 11
501.0947765878208
 21
271.1898118445609
 31
0.0
  0
LINE
  5
76D
330
18
100
AcDbEntity
  8
1
  6
Continuous
100
AcDbLine
 10
495.2947735878209
 20
281.775514185465
 30
0.0
 11
495.2947735878206
 21
257.6574149019027
 31
0.0
  0
LINE
  5
76E
330
18
100
AcDbEntity
  8
1
  6
Continuous
100
AcDbLine
 10
498.2947735878208
 20
285.0176036368214
 30
0.0
 11
498.2947735878208
 21
273.0514084754481
 31
0.0
  0
ARC
  5
76F
330
18
100
AcDbEntity
  8
1
  6
Continuous
100
AcDbCircle
 10
494.0947765878208
 20
262.4104899019025
 30
0.0
 40
2.0
100
AcDbArc
 50
180.0
 51
270.0
  0
LINE
  5
771
330
18
100
AcDbEntity
  8
1
  6
Continuous
100
AcDbLine
 10
495.2947735878208
 20
260.4104899019025
 30
0.0
 11
494.0947765878208
 21
260.4104899019025
 31
0.0
  0
LINE
  5
775
330
18
100
AcDbEntity
  8
1
  6
Continuous
100
AcDbLine
 10
492.0947765878208
 20
270.4104899019025
 30
0.0
 11
492.0947765878208
 21
262.4104899019025
 31
0.0
  0
LINE
  5
776
330
18
100
AcDbEntity
  8
1
  6
Continuous
100
AcDbLine
 10
490.3947645878208
 20
283.0826549019026
 30
0.0
 11
490.3947645878208
 21
278.7487169019026
 31
0.0
  0
LINE
  5
777
330
18
100
AcDbEntity
  8
1
  6
Continuous
100
AcDbLine
 10
495.1947675878208
 20
281.6745777352701
 30
0.0
 11
495.1947675878206
 21
268.5825019019026
 31
0.0
  0
LINE
  5
778
330
18
100
AcDbEntity
  8
1
  6
Continuous
100
AcDbLine
 10
491.5947765878208
 20
284.9156859019026
 30
0.0
 11
491.5947765878208
 21
276.9156859019026
 31
0.0
  0
LINE
  5
779
330
18
100
AcDbEntity
  8
1
  6
Continuous
100
AcDbLine
 10
501.0947765878208
 20
279.1104569019025
 30
0.0
 11
500.0947745878209
 21
279.1104569019025
 31
0.0
  0
LINE
  5
77A
330
18
100
AcDbEntity
  8
1
  6
Continuous
100
AcDbLine
 10
491.5947765878208
 20
276.9156849019026
 30
0.0
 11
492.1947765878208
 21
277.9156899019026
 31
0.0
  0
LINE
  5
780
330
18
100
AcDbEntity
  8
1
  6
Continuous
100
AcDbLine
 10
492.1947675878207
 20
283.9156969019025
 30
0.0
 11
491.5947705878208
 21
284.9156899019027
 31
0.0
  0
LINE
  5
781
330
18
100
AcDbEntity
  8
1
  6
Continuous
100
AcDbLine
 10
484.4496865878205
 20
337.2800579019028
 30
0.0
 11
496.0595447068782
 21
317.1711956001788
 31
0.0
  0
LINE
  5
783
330
18
100
AcDbEntity
  8
1
  6
Continuous
100
AcDbLine
 10
520.1806415878206
 20
335.8196239019026
 30
0.0
 11
514.2369069153637
 21
319.7297769019026
 31
0.0
  0
LINE
  5
784
330
18
100
AcDbEntity
  8
1
  6
Continuous
100
AcDbLine
 10
519.9947705878208
 20
334.7800579019026
 30
0.0
 11
519.9947705878205
 21
319.7297769019026
 31
0.0
  0
LINE
  5
786
330
18
100
AcDbEntity
  8
1
  6
Continuous
100
AcDbLine
 10
513.5578604873252
 20
309.0609736500939
 30
0.0
 11
520.4002335878207
 21
297.2739389019027
 31
0.0
  0
LINE
  5
788
330
18
100
AcDbEntity
  8
1
  6
Continuous
100
AcDbLine
 10
492.3947795878206
 20
306.7800579019027
 30
0.0
 11
492.3947795878208
 21
304.3707179019027
 31
0.0
  0
LINE
  5
789
330
18
100
AcDbEntity
  8
1
  6
Continuous
100
AcDbLine
 10
493.4947705878205
 20
304.3707179019027
 30
0.0
 11
492.1947675878207
 21
304.3707179019027
 31
0.0
  0
ARC
  5
790
330
18
100
AcDbEntity
  8
1
  6
Continuous
100
AcDbCircle
 10
494.3947795878208
 20
306.7800579019027
 30
0.0
 40
2.0
100
AcDbArc
 50
116.7439726660701
 51
180.0
  0
LINE
  5
791
330
18
100
AcDbEntity
  8
1
  6
Continuous
100
AcDbLine
 10
472.9947705878208
 20
348.7800579019026
 30
0.0
 11
572.9947705878207
 21
348.7800579019026
 31
0.0
  0
LINE
  5
792
330
18
100
AcDbEntity
  8
1
  6
Continuous
100
AcDbLine
 10
473.4947705878208
 20
340.7800579019026
 30
0.0
 11
572.4947705878207
 21
340.7800579019026
 31
0.0
  0
ARC
  5
795
330
18
100
AcDbEntity
  8
1
  6
Continuous
100
AcDbCircle
 10
572.4947705878207
 20
341.2800579019027
 30
0.0
 40
0.5
100
AcDbArc
 50
270.0
 51
0.0000100000001992
  0
LINE
  5
796
330
18
100
AcDbEntity
  8
1
  6
Continuous
100
AcDbLine
 10
572.9947705878207
 20
341.2800579019027
 30
0.0
 11
572.9947705878207
 21
348.7800579019026
 31
0.0
  0
ARC
  5
797
330
18
100
AcDbEntity
  8
1
  6
Continuous
100
AcDbCircle
 10
473.4947705878208
 20
341.2800579019027
 30
0.0
 40
0.5
100
AcDbArc
 50
179.9999969999998
 51
270.0
  0
LINE
  5
798
330
18
100
AcDbEntity
  8
1
  6
Continuous
100
AcDbLine
 10
472.9947705878208
 20
341.2800579019027
 30
0.0
 11
472.9947705878208
 21
348.7800579019026
 31
0.0
  0
LINE
  5
808
330
18
100
AcDbEntity
  8
1
  6
Continuous
100
AcDbLine
 10
697.7408705878206
 20
317.4504379019027
 30
0.0
 11
662.7554305878207
 21
318.4595619019026
 31
0.0
  0
LINE
  5
809
330
18
100
AcDbEntity
  8
1
  6
Continuous
100
AcDbLine
 10
672.7588205878205
 20
315.8700539019028
 30
0.0
 11
662.6891205878205
 21
316.1605049019026
 31
0.0
  0
LINE
  5
80B
330
18
100
AcDbEntity
  8
1
  6
Continuous
100
AcDbLine
 10
743.8878205878204
 20
242.5852869019025
 30
0.0
 11
730.5197005878206
 21
250.4302559019027
 31
0.0
  0
LINE
  5
80C
330
18
100
AcDbEntity
  8
1
  6
Continuous
100
AcDbLine
 10
763.0898705878207
 20
248.6331669019026
 30
0.0
 11
769.2587605878209
 21
259.1451759019026
 31
0.0
  0
LINE
  5
80D
330
18
100
AcDbEntity
  8
1
  6
Continuous
100
AcDbLine
 10
784.1476705878207
 20
258.2295439019026
 30
0.0
 11
784.1476705878207
 21
240.5800609019026
 31
0.0
  0
LINE
  5
80E
330
18
100
AcDbEntity
  8
5
  6
PHANTOM
 48
0.5
100
AcDbLine
 10
778.2326005878205
 20
243.9728219019027
 30
0.0
 11
774.9760105878207
 21
253.7261049019027
 31
0.0
  0
LINE
  5
80F
330
18
100
AcDbEntity
  8
5
  6
PHANTOM
 48
0.5
100
AcDbLine
 10
746.4177505878207
 20
254.8485909019027
 30
0.0
 11
721.2489505878209
 21
241.4776709019026
 31
0.0
  0
LINE
  5
810
330
18
100
AcDbEntity
  8
1
  6
Continuous
100
AcDbLine
 10
740.6422305878209
 20
267.6794219019027
 30
0.0
 11
728.4431505878207
 21
246.8917329019026
 31
0.0
  0
LINE
  5
811
330
18
100
AcDbEntity
  8
1
  6
Continuous
100
AcDbLine
 10
792.3476905878207
 20
258.4899429019027
 30
0.0
 11
792.3476905878207
 21
240.5800609019026
 31
0.0
  0
LINE
  5
812
330
18
100
AcDbEntity
  8
5
  6
PHANTOM
 48
0.5
100
AcDbLine
 10
796.6990805878207
 20
240.3741779019027
 30
0.0
 11
798.6080905878207
 21
270.5137949019027
 31
0.0
  0
ARC
  5
813
330
18
100
AcDbEntity
  8
5
  6
PHANTOM
 48
0.5
100
AcDbCircle
 10
773.0751505878203
 20
268.7976899019025
 30
0.0
 40
25.0
100
AcDbArc
 50
291.3347199999995
 51
0.6557500000001074
  0
LINE
  5
815
330
18
100
AcDbEntity
  8
5
  6
PHANTOM
 48
0.5
100
AcDbLine
 10
746.4177505878207
 20
254.8485909019027
 30
0.0
 11
756.1427505878207
 21
236.5427229019026
 31
0.0
  0
LINE
  5
816
330
18
100
AcDbEntity
  8
4
  6
CENTER
 48
0.5
100
AcDbLine
 10
788.2476805878207
 20
171.6041979019026
 30
0.0
 11
788.2476805878207
 21
354.7577339019026
 31
0.0
  0
LINE
  5
817
330
18
100
AcDbEntity
  8
1
  6
Continuous
100
AcDbLine
 10
812.6476705878207
 20
311.4403059019027
 30
0.0
 11
812.6476705878207
 21
228.5800609019025
 31
0.0
  0
LINE
  5
818
330
18
100
AcDbEntity
  8
1
  6
Continuous
100
AcDbLine
 10
763.8476905878206
 20
249.9244819019025
 30
0.0
 11
763.8476905878206
 21
228.5800609019025
 31
0.0
  0
LINE
  5
81A
330
18
100
AcDbEntity
  8
1
  6
Continuous
100
AcDbLine
 10
801.1476705878207
 20
211.9921579019027
 30
0.0
 11
775.3476905878207
 21
211.9921579019027
 31
0.0
  0
LINE
  5
81B
330
18
100
AcDbEntity
  8
1
  6
Continuous
100
AcDbLine
 10
751.7476805878207
 20
210.2800609019026
 30
0.0
 11
824.7476805878207
 21
210.2800609019026
 31
0.0
  0
LINE
  5
81C
330
18
100
AcDbEntity
  8
1
  6
Continuous
100
AcDbLine
 10
749.9476905878207
 20
200.7800609019026
 30
0.0
 11
826.5476784442231
 21
200.7800609019026
 31
0.0
  0
LINE
  5
81D
330
18
100
AcDbEntity
  8
1
  6
Continuous
100
AcDbLine
 10
748.2476805878206
 20
203.9800729019026
 30
0.0
 11
828.2476805878207
 21
203.9800729019026
 31
0.0
  0
LINE
  5
81E
330
18
100
AcDbEntity
  8
5
  6
PHANTOM
 48
0.5
100
AcDbLine
 10
749.9476805878207
 20
175.7800579019026
 30
0.0
 11
826.5476832673213
 21
175.7800579019026
 31
0.0
  0
LINE
  5
81F
330
18
100
AcDbEntity
  8
5
  6
PHANTOM
 48
0.5
100
AcDbLine
 10
748.2476805878206
 20
178.9800549019027
 30
0.0
 11
828.2476805878207
 21
178.9800549019027
 31
0.0
  0
LINE
  5
820
330
18
100
AcDbEntity
  8
5
  6
PHANTOM
 48
0.5
100
AcDbLine
 10
751.7476805878207
 20
185.2800579019026
 30
0.0
 11
824.7476805878207
 21
185.2800579019026
 31
0.0
  0
LINE
  5
821
330
18
100
AcDbEntity
  8
1
  6
Continuous
100
AcDbLine
 10
769.6476705878207
 20
216.7800579019027
 30
0.0
 11
806.8476905878206
 21
216.7800579019027
 31
0.0
  0
LINE
  5
822
330
18
100
AcDbEntity
  8
5
  6
PHANTOM
 48
0.5
100
AcDbLine
 10
801.1476705878207
 20
186.9917579019027
 30
0.0
 11
775.3476905878207
 21
186.9917579019027
 31
0.0
  0
LINE
  5
823
330
18
100
AcDbEntity
  8
1
  6
Continuous
100
AcDbLine
 10
765.8476905878207
 20
226.5800609019027
 30
0.0
 11
810.6476705878206
 21
226.5800609019027
 31
0.0
  0
ARC
  5
824
330
18
100
AcDbEntity
  8
5
  6
PHANTOM
 48
0.5
100
AcDbCircle
 10
788.2160605878206
 20
240.9114819019027
 30
0.0
 40
8.5
100
AcDbArc
 50
198.4639799999998
 51
356.3757999999999
  0
CIRCLE
  5
825
330
18
100
AcDbEntity
  8
5
  6
PHANTOM
 48
0.5
100
AcDbCircle
 10
788.2476805878207
 20
241.4104899019027
 30
0.0
 40
5.5
  0
ARC
  5
826
330
18
100
AcDbEntity
  8
1
  6
Continuous
100
AcDbCircle
 10
788.2476805878207
 20
240.5800609019026
 30
0.0
 40
4.099999999999997
100
AcDbArc
 50
179.9999900000002
 51
0.0000100000001992
  0
LINE
  5
828
330
18
100
AcDbEntity
  8
1
  6
Continuous
100
AcDbLine
 10
828.2476805878207
 20
206.7800609019026
 30
0.0
 11
828.2476805878207
 21
203.9800729019026
 31
0.0
  0
LINE
  5
829
330
18
100
AcDbEntity
  8
5
  6
PHANTOM
 48
0.5
100
AcDbLine
 10
804.1476705878206
 20
189.9917579019026
 30
0.0
 11
804.1476705878206
 21
213.7659279019027
 31
0.0
  0
ARC
  5
82A
330
18
100
AcDbEntity
  8
5
  6
PHANTOM
 48
0.5
100
AcDbCircle
 10
824.7476805878207
 20
181.7800579019026
 30
0.0
 40
3.5
100
AcDbArc
 50
0.0000399999999616
 51
90.00001800000005
  0
LINE
  5
82B
330
18
100
AcDbEntity
  8
5
  6
PHANTOM
 48
0.5
100
AcDbLine
 10
828.2476805878207
 20
181.7800579019026
 30
0.0
 11
828.2476805878207
 21
178.9800549019027
 31
0.0
  0
LINE
  5
82C
330
18
100
AcDbEntity
  8
5
  6
PHANTOM
 48
0.5
100
AcDbLine
 10
827.4051205878205
 20
178.9800469019025
 30
0.0
 11
826.5476805878208
 21
175.7800479019025
 31
0.0
  0
LINE
  5
82D
330
18
100
AcDbEntity
  8
1
  6
Continuous
100
AcDbLine
 10
827.4051205878205
 20
203.9800729019026
 30
0.0
 11
826.5476784442231
 21
200.7800609019026
 31
0.0
  0
ARC
  5
82E
330
18
100
AcDbEntity
  8
5
  6
PHANTOM
 48
0.5
100
AcDbCircle
 10
801.1476705878207
 20
189.9917579019026
 30
0.0
 40
3.0
100
AcDbArc
 50
270.0
 51
0.0000199999999843
  0
ARC
  5
82F
330
18
100
AcDbEntity
  8
5
  6
PHANTOM
 48
0.5
100
AcDbCircle
 10
801.9976805878206
 20
186.2800579019026
 30
0.0
 40
1.0
100
AcDbArc
 50
225.0070099999999
 51
270.0000600000003
  0
LINE
  5
830
330
18
100
AcDbEntity
  8
5
  6
PHANTOM
 48
0.5
100
AcDbLine
 10
799.8714005878207
 20
186.9917509019025
 30
0.0
 11
801.2906505878206
 21
185.5728589019026
 31
0.0
  0
ARC
  5
831
330
18
100
AcDbEntity
  8
1
  6
Continuous
100
AcDbCircle
 10
824.7476805878207
 20
206.7800609019026
 30
0.0
 40
3.5
100
AcDbArc
 50
0.0000399999999616
 51
90.00001800000005
  0
ARC
  5
832
330
18
100
AcDbEntity
  8
1
  6
Continuous
100
AcDbCircle
 10
810.6476705878206
 20
228.5800609019025
 30
0.0
 40
2.0
100
AcDbArc
 50
270.0
 51
0.0000100000001992
  0
ARC
  5
833
330
18
100
AcDbEntity
  8
1
  6
Continuous
100
AcDbCircle
 10
806.8476905878206
 20
219.7800579019026
 30
0.0
 40
3.0
100
AcDbArc
 50
270.0
 51
0.0000100000001992
  0
LINE
  5
834
330
18
100
AcDbEntity
  8
1
  6
Continuous
100
AcDbLine
 10
809.8476705878207
 20
226.5800609019027
 30
0.0
 11
809.8476705878207
 21
219.7800579019026
 31
0.0
  0
LINE
  5
835
330
18
100
AcDbEntity
  8
1
  6
Continuous
100
AcDbLine
 10
804.1476705878206
 20
214.9921579019026
 30
0.0
 11
804.1476705878206
 21
216.7800579019027
 31
0.0
  0
LINE
  5
836
330
18
100
AcDbEntity
  8
1
  6
Continuous
100
AcDbLine
 10
799.8710205878207
 20
211.9921579019027
 30
0.0
 11
801.2906505878209
 21
210.5728699019027
 31
0.0
  0
ARC
  5
837
330
18
100
AcDbEntity
  8
1
  6
Continuous
100
AcDbCircle
 10
801.9976805878206
 20
211.2800609019026
 30
0.0
 40
1.0
100
AcDbArc
 50
225.0070099999999
 51
270.0000600000003
  0
ARC
  5
838
330
18
100
AcDbEntity
  8
1
  6
Continuous
100
AcDbCircle
 10
801.1476705878207
 20
214.9921579019026
 30
0.0
 40
3.0
100
AcDbArc
 50
270.0
 51
0.0000199999999843
  0
ARC
  5
839
330
18
100
AcDbEntity
  8
5
  6
PHANTOM
 48
0.5
100
AcDbCircle
 10
733.2013705878207
 20
233.8994349019027
 30
0.0
 40
7.0
100
AcDbArc
 50
207.9794399999999
 51
291.3347299999998
  0
LINE
  5
83A
330
18
100
AcDbEntity
  8
4
  6
CENTER
 48
0.5
100
AcDbLine
 10
737.5336105878207
 20
236.2009299019026
 30
0.0
 11
728.6680105878207
 21
231.4910909019026
 31
0.0
  0
LINE
  5
83B
330
18
100
AcDbEntity
  8
1
  6
Continuous
100
AcDbLine
 10
731.0305205878209
 20
245.3733539019026
 30
0.0
 11
728.7724005878207
 21
237.1787779019026
 31
0.0
  0
LINE
  5
83C
330
18
100
AcDbEntity
  8
1
  6
Continuous
100
AcDbLine
 10
748.2476805878206
 20
206.7800609019026
 30
0.0
 11
748.2476805878206
 21
203.9800729019026
 31
0.0
  0
LINE
  5
83D
330
18
100
AcDbEntity
  8
5
  6
PHANTOM
 48
0.5
100
AcDbLine
 10
772.3476905878206
 20
189.9917579019026
 30
0.0
 11
772.3476905878206
 21
214.0941909019026
 31
0.0
  0
LINE
  5
83E
330
18
100
AcDbEntity
  8
5
  6
PHANTOM
 48
0.5
100
AcDbLine
 10
776.6239605878204
 20
186.9917509019026
 30
0.0
 11
775.2047105878207
 21
185.5728509019025
 31
0.0
  0
ARC
  5
83F
330
18
100
AcDbEntity
  8
5
  6
PHANTOM
 48
0.5
100
AcDbCircle
 10
775.3476905878207
 20
189.9917579019026
 30
0.0
 40
3.0
100
AcDbArc
 50
179.999982
 51
270.0
  0
ARC
  5
840
330
18
100
AcDbEntity
  8
5
  6
PHANTOM
 48
0.5
100
AcDbCircle
 10
774.4976805878207
 20
186.2800579019026
 30
0.0
 40
1.0
100
AcDbArc
 50
269.9999499999996
 51
314.9929899999999
  0
ARC
  5
841
330
18
100
AcDbEntity
  8
5
  6
PHANTOM
 48
0.5
100
AcDbCircle
 10
751.7476805878207
 20
181.7800579019026
 30
0.0
 40
3.5
100
AcDbArc
 50
89.99998400000034
 51
179.999963
  0
LINE
  5
842
330
18
100
AcDbEntity
  8
5
  6
PHANTOM
 48
0.5
100
AcDbLine
 10
749.0902605878204
 20
178.9800399019027
 30
0.0
 11
749.9476905878204
 21
175.7800379019025
 31
0.0
  0
LINE
  5
843
330
18
100
AcDbEntity
  8
5
  6
PHANTOM
 48
0.5
100
AcDbLine
 10
748.2476805878206
 20
181.7800579019026
 30
0.0
 11
748.2476805878206
 21
178.9800549019027
 31
0.0
  0
LINE
  5
844
330
18
100
AcDbEntity
  8
1
  6
Continuous
100
AcDbLine
 10
749.0902605878207
 20
203.9800729019026
 30
0.0
 11
749.9476905878207
 21
200.7800769019027
 31
0.0
  0
LINE
  5
845
330
18
100
AcDbEntity
  8
1
  6
Continuous
100
AcDbLine
 10
763.0898705878207
 20
248.6331649019026
 30
0.0
 11
754.5058605878207
 21
242.8958909019026
 31
0.0
  0
LINE
  5
846
330
18
100
AcDbEntity
  8
5
  6
PHANTOM
 48
0.5
100
AcDbLine
 10
782.1705505878207
 20
245.5109159019027
 30
0.0
 11
735.7480805878207
 21
227.3791329019025
 31
0.0
  0
ARC
  5
847
330
18
100
AcDbEntity
  8
1
  6
Continuous
100
AcDbCircle
 10
765.8476905878207
 20
228.5800609019025
 30
0.0
 40
2.0
100
AcDbArc
 50
179.9999969999998
 51
270.0
  0
LINE
  5
848
330
18
100
AcDbEntity
  8
1
  6
Continuous
100
AcDbLine
 10
776.6243405878207
 20
211.9921579019027
 30
0.0
 11
775.2047005878207
 21
210.5728699019027
 31
0.0
  0
ARC
  5
849
330
18
100
AcDbEntity
  8
1
  6
Continuous
100
AcDbCircle
 10
775.3476905878207
 20
214.9921579019026
 30
0.0
 40
3.0
100
AcDbArc
 50
179.999982
 51
270.0
  0
LINE
  5
84A
330
18
100
AcDbEntity
  8
1
  6
Continuous
100
AcDbLine
 10
772.3476905878206
 20
214.9921579019026
 30
0.0
 11
772.3476905878206
 21
216.7800579019027
 31
0.0
  0
ARC
  5
84B
330
18
100
AcDbEntity
  8
1
  6
Continuous
100
AcDbCircle
 10
769.6476705878207
 20
219.7800579019026
 30
0.0
 40
3.0
100
AcDbArc
 50
179.9999969999998
 51
270.0
  0
ARC
  5
84C
330
18
100
AcDbEntity
  8
1
  6
Continuous
100
AcDbCircle
 10
774.4976805878207
 20
211.2800609019026
 30
0.0
 40
1.0
100
AcDbArc
 50
269.9999499999996
 51
314.9929899999999
  0
LINE
  5
84D
330
18
100
AcDbEntity
  8
1
  6
Continuous
100
AcDbLine
 10
766.6476705878205
 20
226.5800609019027
 30
0.0
 11
766.6476705878205
 21
219.7800579019026
 31
0.0
  0
LINE
  5
84E
330
18
100
AcDbEntity
  8
5
  6
PHANTOM
 48
0.5
100
AcDbLine
 10
780.1536205878208
 20
238.2194579019027
 30
0.0
 11
778.2326005878205
 21
243.9728219019027
 31
0.0
  0
ARC
  5
84F
330
18
100
AcDbEntity
  8
1
  6
Continuous
100
AcDbCircle
 10
751.7476805878207
 20
206.7800609019026
 30
0.0
 40
3.5
100
AcDbArc
 50
89.99998400000034
 51
179.999963
  0
ARC
  5
850
330
18
100
AcDbEntity
  8
1
  6
Continuous
100
AcDbCircle
 10
748.9490705878206
 20
251.2098679019027
 30
0.0
 40
10.0
100
AcDbArc
 50
239.5938100000002
 51
303.7574699999997
  0
CIRCLE
  5
851
330
18
100
AcDbEntity
  8
5
  6
PHANTOM
 48
0.5
100
AcDbCircle
 10
746.4481205878207
 20
240.9367579019026
 30
0.0
 40
3.5
  0
LINE
  5
852
330
18
100
AcDbEntity
  8
4
  6
CENTER
 48
0.5
100
AcDbLine
 10
750.5693005878206
 20
243.1261389019026
 30
0.0
 11
742.1525905878204
 21
238.6547569019026
 31
0.0
  0
LINE
  5
853
330
18
100
AcDbEntity
  8
4
  6
CENTER
 48
0.5
100
AcDbLine
 10
743.4234605878207
 20
246.6302239019027
 30
0.0
 11
749.3099505878205
 21
235.5497529019026
 31
0.0
  0
ARC
  5
854
330
18
100
AcDbEntity
  8
5
  6
PHANTOM
 48
0.5
100
AcDbCircle
 10
755.2596105878206
 20
236.0735609019026
 30
0.0
 40
1.0
100
AcDbArc
 50
291.3346999999998
 51
27.97945999999992
  0
LINE
  5
855
330
18
100
AcDbEntity
  8
4
  6
CENTER
 48
0.5
100
AcDbLine
 10
730.1831405878207
 20
239.5808049019027
 30
0.0
 11
736.0586205878204
 21
228.5210549019026
 31
0.0
  0
CIRCLE
  5
856
330
18
100
AcDbEntity
  8
5
  6
PHANTOM
 48
0.5
100
AcDbCircle
 10
733.2013505878205
 20
233.8994279019027
 30
0.0
 40
2.6
  0
LINE
  5
857
330
18
100
AcDbEntity
  8
1
  6
Continuous
100
AcDbLine
 10
733.1070705878207
 20
248.9118749019027
 30
0.0
 11
731.0305205878209
 21
245.3733539019026
 31
0.0
  0
ARC
  5
858
330
18
100
AcDbEntity
  8
5
  6
PHANTOM
 48
0.5
100
AcDbCircle
 10
710.6188805878207
 20
225.7743969019026
 30
0.0
 40
3.625007
100
AcDbArc
 50
96.37666200000015
 51
183.58215
  0
LINE
  5
859
330
18
100
AcDbEntity
  8
5
  6
PHANTOM
 48
0.5
100
AcDbLine
 10
722.9512305878204
 20
232.4134199019026
 30
0.0
 11
713.4528605878207
 21
221.1019499019025
 31
0.0
  0
LINE
  5
85A
330
18
100
AcDbEntity
  8
5
  6
PHANTOM
 48
0.5
100
AcDbLine
 10
720.5666205878205
 20
240.9255389019026
 30
0.0
 11
698.0594505878204
 21
214.1220529019026
 31
0.0
  0
ARC
  5
85B
330
18
100
AcDbEntity
  8
5
  6
PHANTOM
 48
0.5
100
AcDbCircle
 10
709.6238105878207
 20
224.3172739019025
 30
0.0
 40
5.0
100
AcDbArc
 50
229.9794300000001
 51
319.9794499999995
  0
LINE
  5
85C
330
18
100
AcDbEntity
  8
5
  6
PHANTOM
 48
0.5
100
AcDbLine
 10
706.2989805878204
 20
220.3577629019027
 30
0.0
 11
699.8208305878206
 21
212.6430189019027
 31
0.0
  0
LINE
  5
85D
330
18
100
AcDbEntity
  8
5
  6
PHANTOM
 48
0.5
100
AcDbLine
 10
698.0593905878204
 20
214.1219919019027
 30
0.0
 11
699.8207405878206
 21
212.6429499019026
 31
0.0
  0
ARC
  5
85E
330
18
100
AcDbEntity
  8
5
  6
PHANTOM
 48
0.5
100
AcDbCircle
 10
704.9294705878208
 20
218.7268349019027
 30
0.0
 40
2.299999999999998
100
AcDbArc
 50
49.97940999999979
 51
139.9794490000001
  0
LINE
  5
85F
330
18
100
AcDbEntity
  8
5
  6
PHANTOM
 48
0.5
100
AcDbLine
 10
707.0008805878207
 20
225.5477929019026
 30
0.0
 11
707.3837705878209
 21
225.2262749019026
 31
0.0
  0
LINE
  5
860
330
18
100
AcDbEntity
  8
5
  6
PHANTOM
 48
0.5
100
AcDbLine
 10
701.2133205878206
 20
218.6555119019025
 30
0.0
 11
701.5962505878206
 21
218.3339709019026
 31
0.0
  0
LINE
  5
861
330
18
100
AcDbEntity
  8
5
  6
PHANTOM
 48
0.5
100
AcDbLine
 10
704.4286605878204
 20
222.4846059019025
 30
0.0
 11
704.8115805878206
 21
222.1630759019026
 31
0.0
  0
ARC
  5
862
330
18
100
AcDbEntity
  8
5
  6
PHANTOM
 48
0.5
100
AcDbCircle
 10
704.8313305878207
 20
218.8820629019026
 30
0.0
 40
3.625011999999999
100
AcDbArc
 50
96.37666200000015
 51
183.5819199999999
  0
ARC
  5
863
330
18
100
AcDbEntity
  8
5
  6
PHANTOM
 48
0.5
100
AcDbCircle
 10
716.4064305878207
 20
232.6666929019026
 30
0.0
 40
3.625019999999998
100
AcDbArc
 50
96.37686700000015
 51
183.5819199999999
  0
LINE
  5
864
330
18
100
AcDbEntity
  8
1
  6
Continuous
100
AcDbLine
 10
728.1383005878207
 20
246.1703359019026
 30
0.0
 11
725.8802005878207
 21
237.9757599019026
 31
0.0
  0
LINE
  5
865
330
18
100
AcDbEntity
  8
5
  6
PHANTOM
 48
0.5
100
AcDbLine
 10
726.2491005878207
 20
232.0655999019026
 30
0.0
 11
727.0195505878207
 21
230.6153429019027
 31
0.0
  0
ARC
  5
866
330
18
100
AcDbEntity
  8
5
  6
PHANTOM
 48
0.5
100
AcDbCircle
 10
724.4828805878207
 20
231.1272869019027
 30
0.0
 40
2.0
100
AcDbArc
 50
27.97947000000001
 51
139.9795310000002
  0
LINE
  5
867
330
18
100
AcDbEntity
  8
1
  6
Continuous
100
AcDbLine
 10
725.8802005878207
 20
237.9757599019026
 30
0.0
 11
728.7724005878207
 21
237.1787779019026
 31
0.0
  0
LINE
  5
868
330
18
100
AcDbEntity
  8
5
  6
PHANTOM
 48
0.5
100
AcDbLine
 10
716.0038105878204
 20
236.2692779019027
 30
0.0
 11
716.3867205878207
 21
235.9477479019026
 31
0.0
  0
ARC
  5
869
330
18
100
AcDbEntity
  8
5
  6
PHANTOM
 48
0.5
100
AcDbCircle
 10
722.3280205878204
 20
239.4465009019026
 30
0.0
 40
2.299999999999998
100
AcDbArc
 50
117.9794709999999
 51
139.9794490000001
  0
ARC
  5
86A
330
18
100
AcDbEntity
  8
1
  6
Continuous
100
AcDbCircle
 10
731.0305205878208
 20
245.3733499019026
 30
0.0
 40
3.0
100
AcDbArc
 50
149.5938110000001
 51
164.5938069999997
  0
LINE
  5
86B
330
18
100
AcDbEntity
  8
5
  6
PHANTOM
 48
0.5
100
AcDbLine
 10
710.2162605878207
 20
229.3769669019027
 30
0.0
 11
710.5991705878209
 21
229.0554369019026
 31
0.0
  0
LINE
  5
86C
330
18
100
AcDbEntity
  8
5
  6
PHANTOM
 48
0.5
100
AcDbLine
 10
712.7885005878206
 20
232.4402029019025
 30
0.0
 11
713.1714005878206
 21
232.1186769019027
 31
0.0
  0
LINE
  5
86D
330
18
100
AcDbEntity
  8
1
  6
Continuous
100
AcDbLine
 10
810.6840105878207
 20
312.7800579019027
 30
0.0
 11
766.1054205878207
 21
312.7800579019027
 31
0.0
  0
LINE
  5
86E
330
18
100
AcDbEntity
  8
1
  6
Continuous
100
AcDbLine
 10
838.2476805878207
 20
340.7800579019026
 30
0.0
 11
738.2476805878207
 21
340.7800579019026
 31
0.0
  0
LINE
  5
86F
330
18
100
AcDbEntity
  8
1
  6
Continuous
100
AcDbLine
 10
838.2476805878207
 20
348.7800579019026
 30
0.0
 11
738.2476805878207
 21
348.7800579019026
 31
0.0
  0
ARC
  5
872
330
18
100
AcDbEntity
  8
5
  6
PHANTOM
 48
0.5
100
AcDbCircle
 10
790.6705805878207
 20
304.2486629019027
 30
0.0
 40
7.0
100
AcDbArc
 50
0.6557500000001074
 51
89.18936999999994
  0
ARC
  5
873
330
18
100
AcDbEntity
  8
5
  6
PHANTOM
 48
0.5
100
AcDbCircle
 10
790.1250805878207
 20
271.0510919019025
 30
0.0
 40
8.5
100
AcDbArc
 50
21.84365999999978
 51
86.37580300000013
  0
CIRCLE
  5
874
330
18
100
AcDbEntity
  8
5
  6
PHANTOM
 48
0.5
100
AcDbCircle
 10
790.0476805878207
 20
269.8291839019026
 30
0.0
 40
4.0
  0
ARC
  5
875
330
18
100
AcDbEntity
  8
5
  6
PHANTOM
 48
0.5
100
AcDbCircle
 10
788.2476805878207
 20
302.7800579019026
 30
0.0
 40
13.0
100
AcDbArc
 50
212.8946395719324
 51
317.2177499999995
  0
LINE
  5
876
330
18
100
AcDbEntity
  8
4
  6
CENTER
 48
0.5
100
AcDbLine
 10
798.2476805878206
 20
266.3800559019027
 30
0.0
 11
778.2476805878205
 21
266.3800559019027
 31
0.0
  0
LINE
  5
877
330
18
100
AcDbEntity
  8
4
  6
CENTER
 48
0.5
100
AcDbLine
 10
798.2476805878206
 20
302.7800579019026
 30
0.0
 11
778.2476805878205
 21
302.7800579019026
 31
0.0
  0
LINE
  5
878
330
18
100
AcDbEntity
  8
1
  6
Continuous
100
AcDbLine
 10
795.3081805878207
 20
296.3482359019028
 30
0.0
 11
767.9260605878204
 21
274.1592099019027
 31
0.0
  0
LINE
  5
879
330
18
100
AcDbEntity
  8
1
  6
Continuous
100
AcDbLine
 10
792.9810205878204
 20
273.4883249019026
 30
0.0
 11
777.9693705878209
 21
282.2977799019026
 31
0.0
  0
ARC
  5
87A
330
18
100
AcDbEntity
  8
1
  6
Continuous
100
AcDbCircle
 10
788.6789205878207
 20
266.1574149019027
 30
0.0
 40
8.5
100
AcDbArc
 50
261.6819799999996
 51
59.5938100000002
  0
ARC
  5
87B
330
18
100
AcDbEntity
  8
1
  6
Continuous
100
AcDbCircle
 10
788.2476805878207
 20
258.2830489019027
 30
0.0
 40
4.099999999999997
100
AcDbArc
 50
179.9999900000002
 51
0.0000100000001992
  0
CIRCLE
  5
87C
330
18
100
AcDbEntity
  8
1
  6
Continuous
100
AcDbCircle
 10
788.2476805878207
 20
266.4104899019025
 30
0.0
 40
5.5
  0
CIRCLE
  5
87D
330
18
100
AcDbEntity
  8
1
  6
Continuous
100
AcDbCircle
 10
788.2476805878207
 20
302.7800579019026
 30
0.0
 40
5.5
  0
ARC
  5
87E
330
18
100
AcDbEntity
  8
1
  6
Continuous
100
AcDbCircle
 10
787.8211105878207
 20
302.5192239019027
 30
0.0
 40
9.0
100
AcDbArc
 50
37.4443499999999
 51
114.7150439999996
  0
LINE
  5
87F
330
18
100
AcDbEntity
  8
4
  6
CENTER
 48
0.5
100
AcDbLine
 10
828.2476805878207
 20
336.4763169019027
 30
0.0
 11
828.2476805878207
 21
351.6233039019027
 31
0.0
  0
LINE
  5
881
330
18
100
AcDbEntity
  8
1
  6
Continuous
100
AcDbLine
 10
827.3701205878207
 20
338.2800579019026
 30
0.0
 11
813.3175505878208
 21
313.9403059019027
 31
0.0
  0
LINE
  5
882
330
18
100
AcDbEntity
  8
5
  6
PHANTOM
 48
0.5
100
AcDbLine
 10
798.0735005878206
 20
269.0838029019027
 30
0.0
 11
797.6701005878205
 21
304.3287749019027
 31
0.0
  0
ARC
  5
883
330
18
100
AcDbEntity
  8
5
  6
PHANTOM
 48
0.5
100
AcDbCircle
 10
790.1250805878207
 20
271.0510919019025
 30
0.0
 40
8.5
100
AcDbArc
 50
356.3757999999999
 51
21.84365999999978
  0
LINE
  5
884
330
18
100
AcDbEntity
  8
1
  6
Continuous
100
AcDbLine
 10
827.0814505878208
 20
337.7800539019027
 30
0.0
 11
812.6476705878207
 21
295.7800559019026
 31
0.0
  0
ARC
  5
885
330
18
100
AcDbEntity
  8
1
  6
Continuous
100
AcDbCircle
 10
817.6476705878206
 20
311.4403059019027
 30
0.0
 40
5.0
100
AcDbArc
 50
149.999999
 51
180.0
  0
ARC
  5
886
330
18
100
AcDbEntity
  8
1
  6
Continuous
100
AcDbCircle
 10
790.9010905878207
 20
301.7867529019026
 30
0.0
 40
7.0
100
AcDbArc
 50
309.0194799999997
 51
37.4443499999999
  0
ARC
  5
887
330
18
100
AcDbEntity
  8
1
  6
Continuous
100
AcDbCircle
 10
801.2476805878206
 20
307.7800579019026
 30
0.0
 40
5.0
100
AcDbArc
 50
89.99999699999987
 51
179.9999969999998
  0
LINE
  5
888
330
18
100
AcDbEntity
  8
1
  6
Continuous
100
AcDbLine
 10
796.4586905878205
 20
306.0426869019027
 30
0.0
 11
794.9666005878206
 21
307.9911369019026
 31
0.0
  0
LINE
  5
889
330
18
100
AcDbEntity
  8
1
  6
Continuous
100
AcDbLine
 10
796.2476805878207
 20
307.7800579019026
 30
0.0
 11
796.2476805878207
 21
306.3182429019026
 31
0.0
  0
LINE
  5
88A
330
18
100
AcDbEntity
  8
1
  6
Continuous
100
AcDbLine
 10
838.2476805878207
 20
340.7800579019026
 30
0.0
 11
838.2476805878207
 21
348.7800579019026
 31
0.0
  0
ARC
  5
88B
330
18
100
AcDbEntity
  8
1
  6
Continuous
100
AcDbCircle
 10
831.7002405878207
 20
335.7800579019027
 30
0.0
 40
5.0
100
AcDbArc
 50
89.99999699999987
 51
149.999999
  0
LINE
  5
88C
330
18
100
AcDbEntity
  8
4
  6
CENTER
 48
0.5
100
AcDbLine
 10
748.2476805878206
 20
336.0054069019026
 30
0.0
 11
748.2476805878206
 21
351.6233039019027
 31
0.0
  0
LINE
  5
88D
330
18
100
AcDbEntity
  8
1
  6
Continuous
100
AcDbLine
 10
749.1252305878207
 20
338.2800619019026
 30
0.0
 11
763.1778105878204
 21
313.9403019019026
 31
0.0
  0
LINE
  5
88E
330
18
100
AcDbEntity
  8
1
  6
Continuous
100
AcDbLine
 10
739.5744205878204
 20
271.9969359019027
 30
0.0
 11
696.5433005878208
 21
297.1391699019026
 31
0.0
  0
LINE
  5
88F
330
18
100
AcDbEntity
  8
1
  6
Continuous
100
AcDbLine
 10
738.6727105878207
 20
297.1952459019027
 30
0.0
 11
723.7804905878207
 21
303.7176549019026
 31
0.0
  0
ARC
  5
890
330
18
100
AcDbEntity
  8
1
  6
Continuous
100
AcDbCircle
 10
788.2476805878207
 20
302.7800579019026
 30
0.0
 40
13.0
100
AcDbArc
 50
161.2587669999999
 51
265.5989799999999
  0
LINE
  5
891
330
18
100
AcDbEntity
  8
5
  6
PHANTOM
 48
0.5
100
AcDbLine
 10
779.4427605878206
 20
304.4082739019027
 30
0.0
 11
771.9060505878205
 21
273.3856949019027
 31
0.0
  0
LINE
  5
892
330
18
100
AcDbEntity
  8
5
  6
PHANTOM
 48
0.5
100
AcDbLine
 10
767.9296105878204
 20
284.4809759019028
 30
0.0
 11
743.8750005878204
 21
286.0045639019028
 31
0.0
  0
LINE
  5
893
330
18
100
AcDbEntity
  8
5
  6
PHANTOM
 48
0.5
100
AcDbLine
 10
761.0413405878207
 20
255.8591479019026
 30
0.0
 11
757.2517805878207
 21
257.9997349019027
 31
0.0
  0
LINE
  5
894
330
18
100
AcDbEntity
  8
5
  6
PHANTOM
 48
0.5
100
AcDbLine
 10
761.8544505878207
 20
260.4449009019026
 30
0.0
 11
747.4968305878207
 21
252.8174209019026
 31
0.0
  0
LINE
  5
895
330
18
100
AcDbEntity
  8
4
  6
CENTER
 48
0.5
100
AcDbLine
 10
771.0302905878204
 20
280.9156859019026
 30
0.0
 11
756.0302905878208
 21
280.9156859019026
 31
0.0
  0
ARC
  5
896
330
18
100
AcDbEntity
  8
1
  6
Continuous
100
AcDbCircle
 10
752.1864505878204
 20
293.5825019019026
 30
0.0
 40
25.0
100
AcDbArc
 50
239.7030899999996
 51
309.0194899999999
  0
LINE
  5
897
330
18
100
AcDbEntity
  8
1
  6
Continuous
100
AcDbLine
 10
767.4249905878207
 20
256.0203549019027
 30
0.0
 11
745.4322805878207
 21
268.9265909019026
 31
0.0
  0
CIRCLE
  5
898
330
18
100
AcDbEntity
  8
1
  6
Continuous
100
AcDbCircle
 10
763.5302905878204
 20
280.9156859019026
 30
0.0
 40
4.0
  0
LINE
  5
899
330
18
100
AcDbEntity
  8
5
  6
PHANTOM
 48
0.5
100
AcDbLine
 10
770.4821805878209
 20
269.4118169019026
 30
0.0
 11
771.2013805878207
 21
280.7667319019027
 31
0.0
  0
ARC
  5
89A
330
18
100
AcDbEntity
  8
5
  6
PHANTOM
 48
0.5
100
AcDbCircle
 10
752.4713605878207
 20
278.1072219019026
 30
0.0
 40
20.0
100
AcDbArc
 50
297.9794400000002
 51
346.3449299999999
  0
LINE
  5
89B
330
18
100
AcDbEntity
  8
1
  6
Continuous
100
AcDbLine
 10
787.4492505878204
 20
257.7468319019028
 30
0.0
 11
771.2730205878206
 21
260.1118869019028
 31
0.0
  0
CIRCLE
  5
89C
330
18
100
AcDbEntity
  8
1
  6
Continuous
100
AcDbCircle
 10
788.2476805878207
 20
266.3800559019027
 30
0.0
 40
2.0
  0
LINE
  5
89D
330
18
100
AcDbEntity
  8
5
  6
PHANTOM
 48
0.5
100
AcDbLine
 10
769.5894805878207
 20
255.3177219019027
 30
0.0
 11
770.4821805878204
 21
269.4118239019027
 31
0.0
  0
LINE
  5
89E
330
18
100
AcDbEntity
  8
5
  6
PHANTOM
 48
0.5
100
AcDbLine
 10
761.0413505878205
 20
255.8591499019025
 30
0.0
 11
773.2053805878207
 21
255.0886959019027
 31
0.0
  0
ARC
  5
89F
330
18
100
AcDbEntity
  8
5
  6
PHANTOM
 48
0.5
100
AcDbCircle
 10
773.0789605878205
 20
253.0926949019026
 30
0.0
 40
2.0
100
AcDbArc
 50
18.46396000000011
 51
86.37580300000013
  0
ARC
  5
8A0
330
18
100
AcDbEntity
  8
1
  6
Continuous
100
AcDbCircle
 10
770.9836905878208
 20
258.1329249019026
 30
0.0
 40
2.0
100
AcDbArc
 50
81.68197499999967
 51
149.5938079999999
  0
LINE
  5
8A1
330
18
100
AcDbEntity
  8
5
  6
PHANTOM
 48
0.5
100
AcDbLine
 10
790.6623705878208
 20
279.5340989019026
 30
0.0
 11
773.6613605878207
 21
280.6109209019027
 31
0.0
  0
LINE
  5
8A2
330
18
100
AcDbEntity
  8
5
  6
PHANTOM
 48
0.5
100
AcDbLine
 10
767.7715805878207
 20
281.9859749019027
 30
0.0
 11
767.9296105878204
 21
284.4809759019026
 31
0.0
  0
LINE
  5
8A3
330
18
100
AcDbEntity
  8
4
  6
CENTER
 48
0.5
100
AcDbLine
 10
763.5302905878204
 20
288.4156859019027
 30
0.0
 11
763.5302905878204
 21
273.4156859019027
 31
0.0
  0
ARC
  5
8A4
330
18
100
AcDbEntity
  8
5
  6
PHANTOM
 48
0.5
100
AcDbCircle
 10
768.7695905878207
 20
281.9227579019027
 30
0.0
 40
1.0
100
AcDbArc
 50
176.3757999999997
 51
266.3758100000003
  0
LINE
  5
8A5
330
18
100
AcDbEntity
  8
5
  6
PHANTOM
 48
0.5
100
AcDbLine
 10
773.6613605878204
 20
280.6109209019027
 30
0.0
 11
768.7063705878207
 21
280.9247629019025
 31
0.0
  0
LINE
  5
8A6
330
18
100
AcDbEntity
  8
5
  6
PHANTOM
 48
0.5
100
AcDbLine
 10
746.9898405878209
 20
270.2762069019025
 30
0.0
 11
747.9696205878207
 21
285.7452149019026
 31
0.0
  0
LINE
  5
8A7
330
18
100
AcDbEntity
  8
1
  6
Continuous
100
AcDbLine
 10
745.7283205878207
 20
269.4310509019027
 30
0.0
 11
744.1669605878208
 21
266.7704369019026
 31
0.0
  0
ARC
  5
8A8
330
18
100
AcDbEntity
  8
5
  6
PHANTOM
 48
0.5
100
AcDbCircle
 10
756.9698305878207
 20
269.6440869019027
 30
0.0
 40
10.0
100
AcDbArc
 50
176.375803
 51
240.53946
  0
LINE
  5
8A9
330
18
100
AcDbEntity
  8
5
  6
PHANTOM
 48
0.5
100
AcDbLine
 10
757.2517805878207
 20
257.9997349019027
 30
0.0
 11
752.0515705878207
 21
260.9371419019026
 31
0.0
  0
ARC
  5
8AA
330
18
100
AcDbEntity
  8
1
  6
Continuous
100
AcDbCircle
 10
743.3045005878207
 20
267.2765709019027
 30
0.0
 40
1.0
100
AcDbArc
 50
239.5938100000002
 51
329.5938200000005
  0
LINE
  5
8AB
330
18
100
AcDbEntity
  8
1
  6
Continuous
100
AcDbLine
 10
742.7983705878207
 20
266.4141059019026
 30
0.0
 11
740.6422305878208
 21
267.6794219019027
 31
0.0
  0
LINE
  5
8AC
330
18
100
AcDbEntity
  8
5
  6
PHANTOM
 48
0.5
100
AcDbLine
 10
747.7799805878207
 20
282.7512149019026
 30
0.0
 11
743.6853605878207
 21
283.0105629019026
 31
0.0
  0
LINE
  5
8AD
330
18
100
AcDbEntity
  8
5
  6
PHANTOM
 48
0.5
100
AcDbLine
 10
743.6853605878207
 20
283.0105629019026
 30
0.0
 11
735.3523405878204
 21
281.3339949019027
 31
0.0
  0
LINE
  5
8AE
330
18
100
AcDbEntity
  8
5
  6
PHANTOM
 48
0.5
100
AcDbLine
 10
734.7606205878204
 20
284.2750589019026
 30
0.0
 11
735.3523405878204
 21
281.3339949019027
 31
0.0
  0
LINE
  5
8AF
330
18
100
AcDbEntity
  8
5
  6
PHANTOM
 48
0.5
100
AcDbLine
 10
743.0936305878207
 20
285.9516269019026
 30
0.0
 11
734.7606205878207
 21
284.2750589019026
 31
0.0
  0
ARC
  5
8B0
330
18
100
AcDbEntity
  8
5
  6
PHANTOM
 48
0.5
100
AcDbCircle
 10
743.6853605878207
 20
283.0105569019027
 30
0.0
 40
3.0
100
AcDbArc
 50
86.37580300000013
 51
101.375801
  0
LINE
  5
8B1
330
18
100
AcDbEntity
  8
1
  6
Continuous
100
AcDbLine
 10
784.0581505878206
 20
310.6948069019027
 30
0.0
 11
755.0584905878206
 21
297.3472249019026
 31
0.0
  0
LINE
  5
8B2
330
18
100
AcDbEntity
  8
1
  6
Continuous
100
AcDbLine
 10
749.4139105878207
 20
337.7800579019027
 30
0.0
 11
762.1823005878209
 21
300.6260739019026
 31
0.0
  0
ARC
  5
8B3
330
18
100
AcDbEntity
  8
1
  6
Continuous
100
AcDbCircle
 10
775.2476805878207
 20
307.7800579019026
 30
0.0
 40
5.0
100
AcDbArc
 50
12.75726999999984
 51
90.00000399999995
  0
ARC
  5
8B4
330
18
100
AcDbEntity
  8
5
  6
PHANTOM
 48
0.5
100
AcDbCircle
 10
788.1883805878207
 20
302.2835869019027
 30
0.0
 40
9.0
100
AcDbArc
 50
89.18936999999994
 51
166.344921
  0
CIRCLE
  5
8B5
330
18
100
AcDbEntity
  8
1
  6
Continuous
100
AcDbCircle
 10
788.2476805878207
 20
302.7800579019026
 30
0.0
 40
2.0
  0
LINE
  5
8B6
330
18
100
AcDbEntity
  8
5
  6
PHANTOM
 48
0.5
100
AcDbLine
 10
788.3157305878207
 20
311.2826859019027
 30
0.0
 11
790.7696205878208
 21
311.2479649019027
 31
0.0
  0
LINE
  5
8B7
330
18
100
AcDbEntity
  8
1
  6
Continuous
100
AcDbLine
 10
763.8476905878206
 20
311.4403059019027
 30
0.0
 11
763.8476905878206
 21
301.3925989019027
 31
0.0
  0
ARC
  5
8B8
330
18
100
AcDbEntity
  8
1
  6
Continuous
100
AcDbCircle
 10
758.8476905878207
 20
311.4403059019027
 30
0.0
 40
5.0
100
AcDbArc
 50
359.9999899999998
 51
30.00000000000015
  0
ARC
  5
8B9
330
18
100
AcDbEntity
  8
1
  6
Continuous
100
AcDbCircle
 10
746.6963805878207
 20
315.5151959019026
 30
0.0
 40
20.0
100
AcDbArc
 50
246.3478100000001
 51
294.7150499999997
  0
LINE
  5
8BA
330
18
100
AcDbEntity
  8
4
  6
CENTER
 48
0.5
100
AcDbLine
 10
716.4011105878204
 20
303.0708289019027
 30
0.0
 11
711.3674505878204
 21
291.5777869019027
 31
0.0
  0
LINE
  5
8BB
330
18
100
AcDbEntity
  8
1
  6
Continuous
100
AcDbLine
 10
724.7032205878207
 20
305.8244529019026
 30
0.0
 11
716.3871905878204
 21
286.8369859019027
 31
0.0
  0
ARC
  5
8BC
330
18
100
AcDbEntity
  8
1
  6
Continuous
100
AcDbCircle
 10
715.4711905878207
 20
287.2381729019027
 30
0.0
 40
1.0
100
AcDbArc
 50
239.7030699999998
 51
336.3478200000003
  0
LINE
  5
8BD
330
18
100
AcDbEntity
  8
4
  6
CENTER
 48
0.5
100
AcDbLine
 10
704.0834805878204
 20
301.4273839019028
 30
0.0
 11
695.3725905878204
 21
305.2425399019027
 31
0.0
  0
LINE
  5
8BE
330
18
100
AcDbEntity
  8
4
  6
CENTER
 48
0.5
100
AcDbLine
 10
702.6556505878208
 20
309.0760439019027
 30
0.0
 11
697.6314105878209
 21
297.6044919019027
 31
0.0
  0
CIRCLE
  5
8BF
330
18
100
AcDbEntity
  8
1
  6
Continuous
100
AcDbCircle
 10
700.0747105878207
 20
303.1831269019026
 30
0.0
 40
2.6
  0
ARC
  5
8C0
330
18
100
AcDbEntity
  8
1
  6
Continuous
100
AcDbCircle
 10
697.6745605878208
 20
315.1513809019027
 30
0.0
 40
2.299999999999998
100
AcDbArc
 50
66.34783999999979
 51
88.34781600000004
  0
LINE
  5
8C1
330
18
100
AcDbEntity
  8
1
  6
Continuous
100
AcDbLine
 10
724.7032205878207
 20
305.8244529019026
 30
0.0
 11
698.5972905878204
 21
317.2581849019026
 31
0.0
  0
LINE
  5
8C2
330
18
100
AcDbEntity
  8
4
  6
CENTER
 48
0.5
100
AcDbLine
 10
718.0893205878208
 20
295.2931859019026
 30
0.0
 11
709.5087105878207
 21
299.0512699019026
 31
0.0
  0
CIRCLE
  5
8C3
330
18
100
AcDbEntity
  8
1
  6
Continuous
100
AcDbCircle
 10
713.8146705878207
 20
297.1653729019026
 30
0.0
 40
3.5
  0
ARC
  5
8C4
330
18
100
AcDbEntity
  8
1
  6
Continuous
100
AcDbCircle
 10
677.9270005878205
 20
315.7209909019026
 30
0.0
 40
5.0
100
AcDbArc
 50
178.3477949999998
 51
268.34782
  0
LINE
  5
8C5
330
18
100
AcDbEntity
  8
1
  6
Continuous
100
AcDbLine
 10
692.5472105878204
 20
310.2972129019026
 30
0.0
 11
677.7828405878207
 21
310.7230779019027
 31
0.0
  0
ARC
  5
8C6
330
18
100
AcDbEntity
  8
1
  6
Continuous
100
AcDbCircle
 10
700.0747105878207
 20
303.1831269019026
 30
0.0
 40
7.0
100
AcDbArc
 50
156.3478100000001
 51
239.7031
  0
LINE
  5
8C7
330
18
100
AcDbEntity
  8
1
  6
Continuous
100
AcDbLine
 10
694.3215605878207
 20
307.4956649019026
 30
0.0
 11
693.6627205878208
 21
305.9914089019026
 31
0.0
  0
ARC
  5
8C8
330
18
100
AcDbEntity
  8
1
  6
Continuous
100
AcDbCircle
 10
692.4895305878207
 20
308.2980289019026
 30
0.0
 40
2.0
100
AcDbArc
 50
336.3478299999998
 51
88.34789800000027
  0
ARC
  5
8C9
330
18
100
AcDbEntity
  8
1
  6
Continuous
100
AcDbCircle
 10
688.6833205878207
 20
315.5857789019027
 30
0.0
 40
3.625019999999998
100
AcDbArc
 50
44.74522999999989
 51
131.950282
  0
LINE
  5
8CA
330
18
100
AcDbEntity
  8
1
  6
Continuous
100
AcDbLine
 10
691.2579905878206
 20
318.1376319019026
 30
0.0
 11
691.2435605878206
 21
317.6378379019026
 31
0.0
  0
LINE
  5
8CB
330
18
100
AcDbEntity
  8
1
  6
Continuous
100
AcDbLine
 10
686.2600405878206
 20
318.2817939019026
 30
0.0
 11
686.2456405878207
 21
317.7820029019026
 31
0.0
  0
ARC
  5
8CC
330
18
100
AcDbEntity
  8
1
  6
Continuous
100
AcDbCircle
 10
679.6870705878204
 20
315.8452859019027
 30
0.0
 40
3.625007
100
AcDbArc
 50
44.74503000000024
 51
131.9505109999997
  0
LINE
  5
8CD
330
18
100
AcDbEntity
  8
1
  6
Continuous
100
AcDbLine
 10
682.2617205878207
 20
318.3971199019026
 30
0.0
 11
682.2473105878207
 21
317.8973289019026
 31
0.0
  0
LINE
  5
8CE
330
18
100
AcDbEntity
  8
1
  6
Continuous
100
AcDbLine
 10
677.2636705878205
 20
318.5412769019027
 30
0.0
 11
677.2492705878208
 21
318.0414909019027
 31
0.0
  0
ARC
  5
8CF
330
18
100
AcDbEntity
  8
1
  6
Continuous
100
AcDbCircle
 10
670.6908305878207
 20
316.1047649019026
 30
0.0
 40
3.625011999999999
100
AcDbArc
 50
44.74503000000024
 51
131.950282
  0
LINE
  5
8D0
330
18
100
AcDbEntity
  8
1
  6
Continuous
100
AcDbLine
 10
673.2654405878205
 20
318.6566179019026
 30
0.0
 11
673.2510405878206
 21
318.1568239019026
 31
0.0
  0
LINE
  5
8D1
330
18
100
AcDbEntity
  8
1
  6
Continuous
100
AcDbLine
 10
668.2674605878209
 20
318.8007869019025
 30
0.0
 11
668.2530505878209
 21
318.3009849019027
 31
0.0
  0
ARC
  5
8D2
330
18
100
AcDbEntity
  8
1
  6
Continuous
100
AcDbCircle
 10
670.6300705878208
 20
315.9314559019027
 30
0.0
 40
2.299999999999998
100
AcDbArc
 50
358.34777
 51
88.34781600000004
  0
ARC
  5
8D3
330
18
100
AcDbEntity
  8
1
  6
Continuous
100
AcDbCircle
 10
744.7951205878207
 20
335.7800579019027
 30
0.0
 40
5.0
100
AcDbArc
 50
30.00000000000015
 51
89.99999699999987
  0
LINE
  5
8D4
330
18
100
AcDbEntity
  8
1
  6
Continuous
100
AcDbLine
 10
738.2476805878207
 20
340.7800579019026
 30
0.0
 11
738.2476805878207
 21
348.7800579019026
 31
0.0
  0
LINE
  5
8D5
330
18
100
AcDbEntity
  8
1
  6
Continuous
100
AcDbLine
 10
662.7553405878207
 20
318.4595699019026
 30
0.0
 11
662.6890305878205
 21
316.1605319019026
 31
0.0
  0
LINE
  5
A12
330
18
100
AcDbEntity
  8
1
  6
Continuous
100
AcDbLine
 10
500.4947705878207
 20
318.4595699019026
 30
0.0
 11
545.4947705878208
 21
318.4595699019026
 31
0.0
  0
LINE
  5
A13
330
18
100
AcDbEntity
  8
1
  6
Continuous
100
AcDbLine
 10
500.7947705878206
 20
316.1605319019026
 30
0.0
 11
545.1947705878209
 21
316.1605319019026
 31
0.0
  0
LINE
  5
A14
330
18
100
AcDbEntity
  8
1
  6
Continuous
100
AcDbLine
 10
494.4947705878203
 20
310.2972129019021
 30
0.0
 11
498.7947705878205
 21
310.2972129019026
 31
0.0
  0
LINE
  5
A18
330
18
100
AcDbEntity
  8
1
  6
Continuous
100
AcDbLine
 10
496.4947705878206
 20
314.4595699019026
 30
0.0
 11
496.4947705878206
 21
310.2972129019026
 31
0.0
  0
LINE
  5
A19
330
18
100
AcDbEntity
  8
1
  6
Continuous
100
AcDbLine
 10
498.7947705878204
 20
314.1605319019026
 30
0.0
 11
498.7947705878215
 21
286.9540898877397
 31
0.0
  0
ARC
  5
A1A
330
18
100
AcDbEntity
  8
1
  6
Continuous
100
AcDbCircle
 10
500.7947705878206
 20
314.1605319019026
 30
0.0
 40
2.0
100
AcDbArc
 50
90.0
 51
180.0
  0
ARC
  5
A1B
330
18
100
AcDbEntity
  8
1
  6
Continuous
100
AcDbCircle
 10
500.4947705878207
 20
314.4595699019026
 30
0.0
 40
4.0
100
AcDbArc
 50
90.0
 51
180.0
  0
ARC
  5
A1C
330
18
100
AcDbEntity
  8
1
  6
Continuous
100
AcDbCircle
 10
545.1947705878209
 20
314.1605319019026
 30
0.0
 40
2.0
100
AcDbArc
 50
0.000000000000007
 51
90.0
  0
ARC
  5
A1D
330
18
100
AcDbEntity
  8
1
  6
Continuous
100
AcDbCircle
 10
545.4947705878208
 20
314.4595699019026
 30
0.0
 40
4.0
100
AcDbArc
 50
0.000000000000007
 51
90.0
  0
LINE
  5
A1E
330
18
100
AcDbEntity
  8
1
  6
Continuous
100
AcDbLine
 10
549.4947705878208
 20
314.4595699019026
 30
0.0
 11
549.4947705878208
 21
310.2972129019026
 31
0.0
  0
LINE
  5
A1F
330
18
100
AcDbEntity
  8
1
  6
Continuous
100
AcDbLine
 10
547.1947705878209
 20
314.1605319019026
 30
0.0
 11
547.19477058782
 21
286.9540898877397
 31
0.0
  0
LINE
  5
A20
330
18
100
AcDbEntity
  8
1
  6
Continuous
100
AcDbLine
 10
549.4947705878208
 20
310.2972129019026
 30
0.0
 11
547.1947705878208
 21
310.2972129019026
 31
0.0
  0
LINE
  5
A21
330
18
100
AcDbEntity
  8
1
  6
Continuous
100
AcDbLine
 10
505.4937095878206
 20
319.7297769019026
 30
0.0
 11
540.4958315878208
 21
319.7297769019026
 31
0.0
  0
ARC
  5
A26
330
18
100
AcDbEntity
  8
1
  6
Continuous
100
AcDbCircle
 10
505.4937095878206
 20
318.3783978555859
 30
0.0
 40
1.351379046316827
100
AcDbArc
 50
90.0
 51
176.5563940990498
  0
ARC
  5
A27
330
18
100
AcDbEntity
  8
1
  6
Continuous
100
AcDbCircle
 10
540.4958315878208
 20
318.3783978555859
 30
0.0
 40
1.351379046316827
100
AcDbArc
 50
3.443605900950153
 51
90.0
  0
LINE
  5
A2A
330
18
100
AcDbEntity
  8
1
  6
Continuous
100
AcDbLine
 10
519.9947705878208
 20
309.060973650094
 30
0.0
 11
519.9947705878208
 21
298.7800579019026
 31
0.0
  0
LINE
  5
A2B
330
18
100
AcDbEntity
  8
1
  6
Continuous
100
AcDbLine
 10
525.9947705878205
 20
309.060973650094
 30
0.0
 11
525.9947705878205
 21
298.7800579019026
 31
0.0
  0
LINE
  5
A2C
330
18
100
AcDbEntity
  8
1
  6
Continuous
100
AcDbLine
 10
493.4947705878205
 20
313.4375476962283
 30
0.0
 11
493.4947705878205
 21
286.2381729019027
 31
0.0
  0
LINE
  5
A2D
330
18
100
AcDbEntity
  8
1
  6
Continuous
100
AcDbLine
 10
495.7947705878206
 20
310.2972129019024
 30
0.0
 11
495.7947705878209
 21
285.8080749605393
 31
0.0
  0
LINE
  5
A2E
330
18
100
AcDbEntity
  8
1
  6
Continuous
100
AcDbLine
 10
497.4947705878205
 20
317.4375476962283
 30
0.0
 11
497.8242559826361
 21
317.4375476962283
 31
0.0
  0
ARC
  5
A2F
330
18
100
AcDbEntity
  8
1
  6
Continuous
100
AcDbCircle
 10
497.4947705878205
 20
313.4375476962283
 30
0.0
 40
4.0
100
AcDbArc
 50
90.0
 51
180.0
  0
ARC
  5
A32
330
18
100
AcDbEntity
  8
1
  6
Continuous
100
AcDbCircle
 10
494.4947705878205
 20
309.2972129019023
 30
0.0
 40
1.0
100
AcDbArc
 50
90.00000000000651
 51
180.0000000000001
  0
LINE
  5
A33
330
18
100
AcDbEntity
  8
1
  6
Continuous
100
AcDbLine
 10
493.4947705878205
 20
286.2381729019027
 30
0.0
 11
495.7947705878208
 21
286.2381729019027
 31
0.0
  0
LINE
  5
A35
330
18
100
AcDbEntity
  8
1
  6
Continuous
100
AcDbLine
 10
492.1947675878207
 20
268.5825019019026
 30
0.0
 11
495.1947675878206
 21
268.5825019019026
 31
0.0
  0
LINE
  5
A3E
330
18
100
AcDbEntity
  8
1
  6
Continuous
100
AcDbLine
 10
495.7947705878209
 20
285.8080749605393
 30
0.0
 11
493.3532740877303
 21
283.3438629144436
 31
0.0
  0
LINE
  5
A3F
330
18
100
AcDbEntity
  8
1
  6
Continuous
100
AcDbLine
 10
497.6362640879115
 20
284.1387897813662
 30
0.0
 11
495.1947675878212
 21
281.6745777352707
 31
0.0
  0
ARC
  5
A40
330
18
100
AcDbEntity
  8
1
  6
Continuous
100
AcDbCircle
 10
496.1947675878206
 20
280.5285628080703
 30
0.0
 40
4.0
100
AcDbArc
 50
135.2653022700998
 51
179.9999999999998
  0
ARC
  5
A41
330
18
100
AcDbEntity
  8
1
  6
Continuous
100
AcDbCircle
 10
494.7947705878213
 20
286.9540898877394
 30
0.0
 40
4.0
100
AcDbArc
 50
315.2653022700998
 51
0.000000000001832
  0
LINE
  5
A48
330
18
100
AcDbEntity
  8
1
  6
Continuous
100
AcDbLine
 10
508.2447705878205
 20
309.0609736500939
 30
0.0
 11
537.7447705878205
 21
309.0609736500939
 31
0.0
  0
LINE
  5
A49
330
18
100
AcDbEntity
  8
1
  6
Continuous
100
AcDbLine
 10
498.7947705878208
 20
303.7176583028177
 30
0.0
 11
504.2447705878205
 21
303.7176583028177
 31
0.0
  0
LINE
  5
A4A
330
18
100
AcDbEntity
  8
1
  6
Continuous
100
AcDbLine
 10
539.7447705878205
 20
305.7176583028176
 30
0.0
 11
539.7447705878205
 21
307.0609736500939
 31
0.0
  0
LINE
  5
A4B
330
18
100
AcDbEntity
  8
1
  6
Continuous
100
AcDbLine
 10
506.2447705878208
 20
305.7176583028176
 30
0.0
 11
506.2447705878208
 21
307.0609736500939
 31
0.0
  0
ARC
  5
A4C
330
18
100
AcDbEntity
  8
1
  6
Continuous
100
AcDbCircle
 10
504.2447705878205
 20
305.7176583028176
 30
0.0
 40
2.0
100
AcDbArc
 50
270.0
 51
0.0
  0
ARC
  5
A4D
330
18
100
AcDbEntity
  8
1
  6
Continuous
100
AcDbCircle
 10
508.2447705878205
 20
307.0609736500939
 30
0.0
 40
2.0
100
AcDbArc
 50
90.0
 51
180.0
  0
ARC
  5
A4E
330
18
100
AcDbEntity
  8
1
  6
Continuous
100
AcDbCircle
 10
537.7447705878205
 20
307.0609736500939
 30
0.0
 40
2.0
100
AcDbArc
 50
0.0
 51
90.0
  0
LINE
  5
A50
330
18
100
AcDbEntity
  8
1
  6
Continuous
100
AcDbLine
 10
547.1947705878204
 20
303.7176583028177
 30
0.0
 11
541.7447705878205
 21
303.7176583028177
 31
0.0
  0
ARC
  5
A51
330
18
100
AcDbEntity
  8
1
  6
Continuous
100
AcDbCircle
 10
541.7447705878205
 20
305.7176583028176
 30
0.0
 40
2.0
100
AcDbArc
 50
180.0
 51
269.9999999999993
  0
LINE
  5
A57
330
18
100
AcDbEntity
  8
1
  6
Continuous
100
AcDbLine
 10
493.3947705878207
 20
301.0653714690453
 30
0.0
 11
493.4947705878205
 21
301.0653714690453
 31
0.0
  0
LINE
  5
A58
330
18
100
AcDbEntity
  8
1
  6
Continuous
100
AcDbLine
 10
493.3947705878207
 20
293.2653714690453
 30
0.0
 11
493.4947705878205
 21
293.2653714690453
 31
0.0
  0
ARC
  5
A59
330
18
100
AcDbEntity
  8
1
  6
Continuous
100
AcDbCircle
 10
493.3947705878207
 20
294.4653714690453
 30
0.0
 40
1.199999999999999
100
AcDbArc
 50
180.0
 51
270.0
  0
ARC
  5
A5A
330
18
100
AcDbEntity
  8
1
  6
Continuous
100
AcDbCircle
 10
493.3947705878207
 20
299.8653714690453
 30
0.0
 40
1.199999999999999
100
AcDbArc
 50
90.0
 51
180.0
  0
LINE
  5
A5B
330
18
100
AcDbEntity
  8
1
  6
Continuous
100
AcDbLine
 10
498.7947705878208
 20
300.4153714690454
 30
0.0
 11
500.7947705878208
 21
300.4153714690454
 31
0.0
  0
LINE
  5
A5C
330
18
100
AcDbEntity
  8
1
  6
Continuous
100
AcDbLine
 10
498.7947705878208
 20
293.9153714690453
 30
0.0
 11
500.7947705878208
 21
293.9153714690453
 31
0.0
  0
LINE
  5
A5D
330
18
100
AcDbEntity
  8
1
  6
Continuous
100
AcDbLine
 10
500.7947705878208
 20
300.4153714690454
 30
0.0
 11
500.7947705878208
 21
293.9153714690453
 31
0.0
  0
LINE
  5
A61
330
18
100
AcDbEntity
  8
1
  6
Continuous
100
AcDbLine
 10
550.1947705878209
 20
310.2972129019024
 30
0.0
 11
550.1947705878206
 21
285.8080749605393
 31
0.0
  0
LINE
  5
A62
330
18
100
AcDbEntity
  8
1
  6
Continuous
100
AcDbLine
 10
552.4947705878205
 20
313.4375476962283
 30
0.0
 11
552.4947705878205
 21
286.2381729019027
 31
0.0
  0
ARC
  5
A63
330
18
100
AcDbEntity
  8
1
  6
Continuous
100
AcDbCircle
 10
552.5947705878206
 20
294.4653714690453
 30
0.0
 40
1.199999999999999
100
AcDbArc
 50
270.0
 51
359.9999999999998
  0
LINE
  5
A64
330
18
100
AcDbEntity
  8
1
  6
Continuous
100
AcDbLine
 10
552.5947705878206
 20
293.2653714690453
 30
0.0
 11
552.4947705878205
 21
293.2653714690453
 31
0.0
  0
ARC
  5
A65
330
18
100
AcDbEntity
  8
1
  6
Continuous
100
AcDbCircle
 10
552.5947705878206
 20
299.8653714690453
 30
0.0
 40
1.199999999999999
100
AcDbArc
 50
359.9999999999998
 51
90.0
  0
LINE
  5
A66
330
18
100
AcDbEntity
  8
1
  6
Continuous
100
AcDbLine
 10
552.5947705878206
 20
301.0653714690453
 30
0.0
 11
552.4947705878205
 21
301.0653714690453
 31
0.0
  0
LINE
  5
A67
330
18
100
AcDbEntity
  8
1
  6
Continuous
100
AcDbLine
 10
545.1947705878207
 20
300.4153714690454
 30
0.0
 11
545.1947705878207
 21
293.9153714690453
 31
0.0
  0
LINE
  5
A68
330
18
100
AcDbEntity
  8
1
  6
Continuous
100
AcDbLine
 10
547.1947705878204
 20
293.9153714690453
 30
0.0
 11
545.1947705878207
 21
293.9153714690453
 31
0.0
  0
LINE
  5
A69
330
18
100
AcDbEntity
  8
1
  6
Continuous
100
AcDbLine
 10
547.1947705878204
 20
300.4153714690454
 30
0.0
 11
545.1947705878207
 21
300.4153714690454
 31
0.0
  0
LINE
  5
A6A
330
18
100
AcDbEntity
  8
1
  6
Continuous
100
AcDbLine
 10
551.494770587821
 20
310.2972129019021
 30
0.0
 11
547.1947705878208
 21
310.2972129019026
 31
0.0
  0
ARC
  5
A6B
330
18
100
AcDbEntity
  8
1
  6
Continuous
100
AcDbCircle
 10
551.4947705878205
 20
309.2972129019023
 30
0.0
 40
1.0
100
AcDbArc
 50
359.9999999999998
 51
89.99999999999351
  0
ARC
  5
A6C
330
18
100
AcDbEntity
  8
1
  6
Continuous
100
AcDbCircle
 10
548.4947705878205
 20
313.4375476962283
 30
0.0
 40
4.0
100
AcDbArc
 50
0.000000000000007
 51
90.0
  0
LINE
  5
A6D
330
18
100
AcDbEntity
  8
1
  6
Continuous
100
AcDbLine
 10
548.4947705878205
 20
317.4375476962283
 30
0.0
 11
548.1652851930051
 21
317.4375476962283
 31
0.0
  0
LINE
  5
A6E
330
18
100
AcDbEntity
  8
1
  6
Continuous
100
AcDbLine
 10
550.1947705878206
 20
285.8080749605393
 30
0.0
 11
552.636267087911
 21
283.3438629144436
 31
0.0
  0
LINE
  5
A6F
330
18
100
AcDbEntity
  8
1
  6
Continuous
100
AcDbLine
 10
552.4947705878205
 20
286.2381729019027
 30
0.0
 11
550.1947705878206
 21
286.2381729019027
 31
0.0
  0
ARC
  5
A70
330
18
100
AcDbEntity
  8
1
  6
Continuous
100
AcDbCircle
 10
549.7947735878209
 20
280.5285628080703
 30
0.0
 40
4.0
100
AcDbArc
 50
0.0000000000001851
 51
44.73469772990013
  0
LINE
  5
A71
330
18
100
AcDbEntity
  8
1
  6
Continuous
100
AcDbLine
 10
548.3532770877299
 20
284.1387897813662
 30
0.0
 11
550.7947735878202
 21
281.6745777352707
 31
0.0
  0
ARC
  5
A72
330
18
100
AcDbEntity
  8
1
  6
Continuous
100
AcDbCircle
 10
551.1947705878201
 20
286.9540898877394
 30
0.0
 40
4.0
100
AcDbArc
 50
179.999999999998
 51
224.7346977299002
  0
LINE
  5
A75
330
18
100
AcDbEntity
  8
1
  6
Continuous
100
AcDbLine
 10
509.9947705878205
 20
237.9757599019026
 30
0.0
 11
535.9947705878205
 21
237.9757599019026
 31
0.0
  0
LINE
  5
A76
330
18
100
AcDbEntity
  8
1
  6
Continuous
100
AcDbLine
 10
509.9947705878205
 20
237.1787779019026
 30
0.0
 11
535.9947705878205
 21
237.1787779019026
 31
0.0
  0
LINE
  5
A77
330
18
100
AcDbEntity
  8
1
  6
Continuous
100
AcDbLine
 10
501.9947705878204
 20
250.4302559019027
 30
0.0
 11
505.9947705878204
 21
250.4302559019027
 31
0.0
  0
LINE
  5
A78
330
18
100
AcDbEntity
  8
1
  6
Continuous
100
AcDbLine
 10
499.9947705878206
 20
267.6794219019027
 30
0.0
 11
509.1267240274908
 21
267.6794219019027
 31
0.0
  0
LINE
  5
A7A
330
18
100
AcDbEntity
  8
1
  6
Continuous
100
AcDbLine
 10
499.9947705878206
 20
268.9265909019025
 30
0.0
 11
499.9947705878206
 21
241.2098679019027
 31
0.0
  0
LINE
  5
A7B
330
18
100
AcDbEntity
  8
1
  6
Continuous
100
AcDbLine
 10
545.9947705878205
 20
268.9265909019026
 30
0.0
 11
545.9947705878206
 21
241.2098679019027
 31
0.0
  0
LINE
  5
A7C
330
18
100
AcDbEntity
  8
1
  6
Continuous
100
AcDbLine
 10
537.9947705878207
 20
248.4302559019027
 30
0.0
 11
537.9947705878207
 21
239.1787779019026
 31
0.0
  0
LINE
  5
A7D
330
18
100
AcDbEntity
  8
1
  6
Continuous
100
AcDbLine
 10
507.9947705878206
 20
248.4302559019027
 30
0.0
 11
507.9947705878206
 21
239.1787779019025
 31
0.0
  0
ARC
  5
A86
330
18
100
AcDbEntity
  8
1
  6
Continuous
100
AcDbCircle
 10
522.9947705878205
 20
279.2563915503578
 30
0.0
 40
17.40764849832542
100
AcDbArc
 50
224.3923540373903
 51
315.6076459626094
  0
LINE
  5
A87
330
18
100
AcDbEntity
  8
1
  6
Continuous
100
AcDbLine
 10
536.8628171481507
 20
267.6794219019027
 30
0.0
 11
545.9947705878205
 21
267.6794219019027
 31
0.0
  0
LINE
  5
A88
330
18
100
AcDbEntity
  8
1
  6
Continuous
100
AcDbLine
 10
502.9947705878206
 20
267.7826255500348
 30
0.0
 11
502.9947705878206
 21
267.6794219019027
 31
0.0
  0
ARC
  5
A8B
330
18
100
AcDbEntity
  8
1
  6
Continuous
100
AcDbCircle
 10
509.9947705878205
 20
239.9757599019026
 30
0.0
 40
2.0
100
AcDbArc
 50
180.0
 51
269.9999999999998
  0
ARC
  5
A8C
330
18
100
AcDbEntity
  8
1
  6
Continuous
100
AcDbCircle
 10
535.9947705878205
 20
239.9757599019026
 30
0.0
 40
2.0
100
AcDbArc
 50
269.9999999999998
 51
0.0
  0
ARC
  5
A8D
330
18
100
AcDbEntity
  8
1
  6
Continuous
100
AcDbCircle
 10
535.9947705878205
 20
239.1787779019026
 30
0.0
 40
2.0
100
AcDbArc
 50
270.0
 51
0.0
  0
ARC
  5
A8E
330
18
100
AcDbEntity
  8
1
  6
Continuous
100
AcDbCircle
 10
509.9947705878205
 20
239.1787779019025
 30
0.0
 40
2.0
100
AcDbArc
 50
180.0
 51
270.0
  0
LINE
  5
A8F
330
18
100
AcDbEntity
  8
1
  6
Continuous
100
AcDbLine
 10
503.9947705878208
 20
248.9118749019027
 30
0.0
 11
506.9947705878204
 21
248.9118749019027
 31
0.0
  0
ARC
  5
A91
330
18
100
AcDbEntity
  8
1
  6
Continuous
100
AcDbCircle
 10
505.9947705878204
 20
248.4302559019027
 30
0.0
 40
2.0
100
AcDbArc
 50
0.0
 51
90.0
  0
ARC
  5
A92
330
18
100
AcDbEntity
  8
1
  6
Continuous
100
AcDbCircle
 10
501.9947705878204
 20
248.4302559019027
 30
0.0
 40
2.0
100
AcDbArc
 50
89.99999999999944
 51
180.0
  0
LINE
  5
A93
330
18
100
AcDbEntity
  8
1
  6
Continuous
100
AcDbLine
 10
502.9947705878206
 20
247.9118749019026
 30
0.0
 11
502.9947705878206
 21
241.2098679019027
 31
0.0
  0
ARC
  5
A95
330
18
100
AcDbEntity
  8
1
  6
Continuous
100
AcDbCircle
 10
503.9947705878208
 20
247.9118749019026
 30
0.0
 40
1.0
100
AcDbArc
 50
90.0
 51
179.9999999999993
  0
ARC
  5
A96
330
18
100
AcDbEntity
  8
1
  6
Continuous
100
AcDbCircle
 10
506.9947705878204
 20
247.9118749019026
 30
0.0
 40
1.0
100
AcDbArc
 50
0.0
 51
90.0
  0
LINE
  5
A97
330
18
100
AcDbEntity
  8
1
  6
Continuous
100
AcDbLine
 10
499.9947705878206
 20
241.2098679019027
 30
0.0
 11
502.9947705878206
 21
241.2098679019027
 31
0.0
  0
ARC
  5
A98
330
18
100
AcDbEntity
  8
1
  6
Continuous
100
AcDbCircle
 10
543.9947705878209
 20
248.4302559019027
 30
0.0
 40
2.0
100
AcDbArc
 50
0.000000000000007
 51
90.00000000000055
  0
ARC
  5
A99
330
18
100
AcDbEntity
  8
1
  6
Continuous
100
AcDbCircle
 10
539.9947705878209
 20
248.4302559019027
 30
0.0
 40
2.0
100
AcDbArc
 50
90.0
 51
180.0
  0
ARC
  5
A9A
330
18
100
AcDbEntity
  8
1
  6
Continuous
100
AcDbCircle
 10
538.9947705878206
 20
247.9118749019026
 30
0.0
 40
1.0
100
AcDbArc
 50
90.0
 51
180.0
  0
LINE
  5
A9B
330
18
100
AcDbEntity
  8
1
  6
Continuous
100
AcDbLine
 10
545.9947705878206
 20
241.2098679019027
 30
0.0
 11
542.9947705878205
 21
241.2098679019027
 31
0.0
  0
LINE
  5
A9C
330
18
100
AcDbEntity
  8
1
  6
Continuous
100
AcDbLine
 10
542.9947705878205
 20
247.9118749019026
 30
0.0
 11
542.9947705878205
 21
241.2098679019027
 31
0.0
  0
LINE
  5
A9D
330
18
100
AcDbEntity
  8
1
  6
Continuous
100
AcDbLine
 10
541.9947705878207
 20
248.9118749019027
 30
0.0
 11
538.9947705878206
 21
248.9118749019027
 31
0.0
  0
ARC
  5
A9E
330
18
100
AcDbEntity
  8
1
  6
Continuous
100
AcDbCircle
 10
541.9947705878207
 20
247.9118749019026
 30
0.0
 40
1.0
100
AcDbArc
 50
0.0000000000006686
 51
90.0
  0
LINE
  5
A9F
330
18
100
AcDbEntity
  8
1
  6
Continuous
100
AcDbLine
 10
543.9947705878209
 20
250.4302559019027
 30
0.0
 11
539.9947705878209
 21
250.4302559019027
 31
0.0
  0
LINE
  5
AA0
330
18
100
AcDbEntity
  8
1
  6
Continuous
100
AcDbLine
 10
510.9947705878205
 20
246.1703359019026
 30
0.0
 11
534.9947705878206
 21
246.1703359019026
 31
0.0
  0
LINE
  5
AA6
330
18
100
AcDbEntity
  8
1
  6
Continuous
100
AcDbLine
 10
497.0801518484204
 20
270.8643904062561
 30
0.0
 11
499.9947705878206
 21
268.9265909019025
 31
0.0
  0
ARC
  5
AA7
330
18
100
AcDbEntity
  8
1
  6
Continuous
100
AcDbCircle
 10
499.2947735878209
 20
274.1953738273159
 30
0.0
 40
4.0
100
AcDbArc
 50
179.9999999999993
 51
236.381845674381
  0
LINE
  5
AA8
330
18
100
AcDbEntity
  8
1
  6
Continuous
100
AcDbLine
 10
498.2947735878208
 20
273.0514084754481
 30
0.0
 11
501.2093923272208
 21
271.1136089710945
 31
0.0
  0
ARC
  5
AA9
330
18
100
AcDbEntity
  8
1
  6
Continuous
100
AcDbCircle
 10
498.9947705878206
 20
267.7826255500348
 30
0.0
 40
4.0
100
AcDbArc
 50
0.0
 51
56.38184567438283
  0
LINE
  5
AAB
330
18
100
AcDbEntity
  8
1
  6
Continuous
100
AcDbLine
 10
495.2947735878206
 20
257.6574149019027
 30
0.0
 11
497.5324901801712
 21
257.6574149019027
 31
0.0
  0
LINE
  5
AAD
330
18
100
AcDbEntity
  8
1
  6
Continuous
100
AcDbLine
 10
497.0801518484204
 20
257.9581544062562
 30
0.0
 11
499.9947705878206
 21
256.0203549019027
 31
0.0
  0
ARC
  5
AAE
330
18
100
AcDbEntity
  8
1
  6
Continuous
100
AcDbCircle
 10
499.2947735878209
 20
261.2891378273159
 30
0.0
 40
4.0
100
AcDbArc
 50
179.9999999999993
 51
236.381845674381
  0
ARC
  5
AAF
330
18
100
AcDbEntity
  8
1
  6
Continuous
100
AcDbCircle
 10
509.1267240274908
 20
265.6794219019027
 30
0.0
 40
2.0
100
AcDbArc
 50
44.3923540373911
 51
90.0
  0
ARC
  5
AB0
330
18
100
AcDbEntity
  8
1
  6
Continuous
100
AcDbCircle
 10
536.8628171481507
 20
265.6794219019027
 30
0.0
 40
2.0
100
AcDbArc
 50
90.0
 51
135.6076459626089
  0
LINE
  5
AB1
330
18
100
AcDbEntity
  8
1
  6
Continuous
100
AcDbLine
 10
547.6947675878204
 20
285.0176036368214
 30
0.0
 11
547.6947675878204
 21
273.0514084754481
 31
0.0
  0
LINE
  5
AB2
330
18
100
AcDbEntity
  8
1
  6
Continuous
100
AcDbLine
 10
547.6947675878204
 20
273.0514084754481
 30
0.0
 11
544.7801488484205
 21
271.1136089710945
 31
0.0
  0
LINE
  5
AB3
330
18
100
AcDbEntity
  8
1
  6
Continuous
100
AcDbLine
 10
547.6947675878204
 20
285.0176036368214
 30
0.0
 11
547.6947675878204
 21
273.0514084754481
 31
0.0
  0
ARC
  5
AB4
330
18
100
AcDbEntity
  8
1
  6
Continuous
100
AcDbCircle
 10
546.9947705878206
 20
267.7826255500348
 30
0.0
 40
4.0
100
AcDbArc
 50
123.618154325617
 51
180.0
  0
LINE
  5
AB5
330
18
100
AcDbEntity
  8
1
  6
Continuous
100
AcDbLine
 10
542.9947705878206
 20
267.7826255500348
 30
0.0
 11
542.9947705878206
 21
267.6794219019027
 31
0.0
  0
LINE
  5
AB6
330
18
100
AcDbEntity
  8
1
  6
Continuous
100
AcDbLine
 10
548.9093893272211
 20
270.8643904062561
 30
0.0
 11
545.9947705878206
 21
268.9265909019025
 31
0.0
  0
ARC
  5
AB7
330
18
100
AcDbEntity
  8
1
  6
Continuous
100
AcDbCircle
 10
546.6947675878206
 20
274.1953738273159
 30
0.0
 40
4.0
100
AcDbArc
 50
303.618154325619
 51
0.0000000000006177
  0
LINE
  5
AB8
330
18
100
AcDbEntity
  8
1
  6
Continuous
100
AcDbLine
 10
548.9093893272211
 20
257.9581544062562
 30
0.0
 11
545.9947705878206
 21
256.0203549019027
 31
0.0
  0
ARC
  5
AB9
330
18
100
AcDbEntity
  8
1
  6
Continuous
100
AcDbCircle
 10
546.6947675878206
 20
261.2891378273159
 30
0.0
 40
4.0
100
AcDbArc
 50
303.618154325619
 51
0.0000000000006177
  0
LINE
  5
ABA
330
18
100
AcDbEntity
  8
1
  6
Continuous
100
AcDbLine
 10
550.6947675878206
 20
281.775514185465
 30
0.0
 11
550.6947675878206
 21
257.6574149019027
 31
0.0
  0
LINE
  5
ABB
330
18
100
AcDbEntity
  8
1
  6
Continuous
100
AcDbLine
 10
550.6947675878206
 20
257.6574149019027
 30
0.0
 11
548.4570509954702
 21
257.6574149019027
 31
0.0
  0
LINE
  5
ABC
330
18
100
AcDbEntity
  8
1
  6
Continuous
100
AcDbLine
 10
553.7947735878208
 20
268.5825019019026
 30
0.0
 11
550.7947735878206
 21
268.5825019019026
 31
0.0
  0
LINE
  5
AC5
330
18
100
AcDbEntity
  8
1
  6
Continuous
100
AcDbLine
 10
500.0947745878209
 20
286.0156939019026
 30
0.0
 11
500.0947745878209
 21
275.8156939019027
 31
0.0
  0
ARC
  5
AC6
330
18
100
AcDbEntity
  8
1
  6
Continuous
100
AcDbCircle
 10
499.1947745878209
 20
286.0156939019026
 30
0.0
 40
0.899999999999977
100
AcDbArc
 50
0.0
 51
116.3880131614657
  0
ARC
  5
AC7
330
18
100
AcDbEntity
  8
1
  6
Continuous
100
AcDbCircle
 10
499.1947745878209
 20
275.8156939019027
 30
0.0
 40
0.899999999999977
100
AcDbArc
 50
180.0
 51
0.0
  0
LINE
  5
AC8
330
18
100
AcDbEntity
  8
1
  6
Continuous
100
AcDbLine
 10
545.8947665878206
 20
286.0156939019026
 30
0.0
 11
545.8947665878205
 21
275.8156939019027
 31
0.0
  0
ARC
  5
AC9
330
18
100
AcDbEntity
  8
1
  6
Continuous
100
AcDbCircle
 10
546.7947665878205
 20
286.0156939019026
 30
0.0
 40
0.899999999999977
100
AcDbArc
 50
63.61198683853421
 51
180.0
  0
ARC
  5
ACA
330
18
100
AcDbEntity
  8
1
  6
Continuous
100
AcDbCircle
 10
546.7947665878205
 20
275.8156939019027
 30
0.0
 40
0.899999999999977
100
AcDbArc
 50
180.0
 51
0.000000000000007
  0
CIRCLE
  5
C61
330
18
100
AcDbEntity
  8
1
  6
Continuous
100
AcDbCircle
 10
257.7418605878208
 20
86.52612190190273
 30
0.0
 40
37.0
  0
CIRCLE
  5
C62
330
18
100
AcDbEntity
  8
1
  6
Continuous
100
AcDbCircle
 10
257.7418605878208
 20
86.52612190190273
 30
0.0
 40
34.0
  0
CIRCLE
  5
C63
330
18
100
AcDbEntity
  8
1
  6
Continuous
100
AcDbCircle
 10
257.7418605878208
 20
86.52612190190273
 30
0.0
 40
31.0
  0
CIRCLE
  5
C64
330
18
100
AcDbEntity
  8
1
  6
Continuous
100
AcDbCircle
 10
257.7418605878208
 20
86.52612190190273
 30
0.0
 40
28.0
  0
CIRCLE
  5
C65
330
18
100
AcDbEntity
  8
1
  6
Continuous
100
AcDbCircle
 10
257.7418605878208
 20
86.52612190190273
 30
0.0
 40
25.0
  0
CIRCLE
  5
C66
330
18
100
AcDbEntity
  8
1
  6
Continuous
100
AcDbCircle
 10
257.7418605878208
 20
86.52612190190273
 30
0.0
 40
22.0
  0
CIRCLE
  5
C67
330
18
100
AcDbEntity
  8
1
  6
Continuous
100
AcDbCircle
 10
257.7418605878208
 20
86.52612190190273
 30
0.0
 40
19.0
  0
ENDSEC
  0
SECTION
  2
OBJECTS
  0
DICTIONARY
  5
C
330
0
100
AcDbDictionary
281
     1
  3
ACAD_CIP_PREVIOUS_PRODUCT_INFO
350
CE2
  3
ACAD_COLOR
350
CC5
  3
ACAD_DETAILVIEWSTYLE
350
CDE
  3
ACAD_GROUP
350
D
  3
ACAD_LAYOUT
350
5D
  3
ACAD_MATERIAL
350
C93
  3
ACAD_MLEADERSTYLE
350
CDA
  3
ACAD_MLINESTYLE
350
1B
  3
ACAD_PLOTSETTINGS
350
5E
  3
ACAD_PLOTSTYLENAME
350
C91
  3
ACAD_SCALELIST
350
CC8
  3
ACAD_SECTIONVIEWSTYLE
350
CDC
  3
ACAD_TABLESTYLE
350
CC6
  3
ACAD_VISUALSTYLE
350
CAC
  3
ACDB_RECOMPOSE_DATA
350
D00
  3
AcDbVariableDictionary
350
CF3
  3
CONTENTDICTIONARY
350
3D
  3
DWGPROPS
350
D01
  0
DICTIONARY
  5
CE3
330
E
100
AcDbDictionary
280
     1
281
     1
  3
ADSK_XREC_LAYER_RECONCILED
360
CE4
  0
DICTIONARY
  5
CE5
330
65
100
AcDbDictionary
280
     1
281
     1
  3
ADSK_XREC_LAYER_RECONCILED
360
CE6
  0
DICTIONARY
  5
CE7
330
66
100
AcDbDictionary
280
     1
281
     1
  3
ADSK_XREC_LAYER_RECONCILED
360
CE8
  0
DICTIONARY
  5
CE9
330
67
100
AcDbDictionary
280
     1
281
     1
  3
ADSK_XREC_LAYER_RECONCILED
360
CEA
  0
DICTIONARY
  5
CEB
330
68
100
AcDbDictionary
280
     1
281
     1
  3
ADSK_XREC_LAYER_RECONCILED
360
CEC
  0
DICTIONARY
  5
CED
330
69
100
AcDbDictionary
280
     1
281
     1
  3
ADSK_XREC_LAYER_RECONCILED
360
CEE
  0
DICTIONARY
  5
CEF
330
6A
100
AcDbDictionary
280
     1
281
     1
  3
ADSK_XREC_LAYER_RECONCILED
360
CF0
  0
DICTIONARY
  5
CF1
330
6B
100
AcDbDictionary
280
     1
281
     1
  3
ADSK_XREC_LAYER_RECONCILED
360
CF2
  0
DICTIONARY
  5
C78
330
18
100
AcDbDictionary
281
     1
  3
ACAD_LAYOUTSELFREF
350
C8D
  0
DICTIONARY
  5
C76
330
15
100
AcDbDictionary
281
     1
  3
ACAD_LAYOUTSELFREF
350
C8C
  0
XRECORD
  5
CE2
102
{ACAD_REACTORS
330
C
102
}
330
C
100
AcDbXrecord
280
     1
300
ACDLT
300
2014
300
ACDLT_F_S
  0
DICTIONARY
  5
CC5
102
{ACAD_REACTORS
330
C
102
}
330
C
100
AcDbDictionary
281
     1
  0
DICTIONARY
  5
CDE
102
{ACAD_REACTORS
330
C
102
}
330
C
100
AcDbDictionary
281
     1
  3
Imperial24
350
CDF
  0
DICTIONARY
  5
D
102
{ACAD_REACTORS
330
C
102
}
330
C
100
AcDbDictionary
281
     1
  0
DICTIONARY
  5
5D
102
{ACAD_REACTORS
330
C
102
}
330
C
100
AcDbDictionary
281
     1
  3
Model
350
CE0
  3
レイアウト1
350
CE1
  0
DICTIONARY
  5
C93
102
{ACAD_REACTORS
330
C
102
}
330
C
100
AcDbDictionary
281
     1
  3
ByBlock
350
C9C
  3
ByLayer
350
C94
  3
Global
350
CA4
  0
DICTIONARY
  5
CDA
102
{ACAD_REACTORS
330
C
102
}
330
C
100
AcDbDictionary
281
     1
  3
Standard
350
CDB
  0
DICTIONARY
  5
1B
102
{ACAD_REACTORS
330
C
102
}
330
C
100
AcDbDictionary
281
     1
  3
STANDARD
350
1C
  0
DICTIONARY
  5
5E
102
{ACAD_REACTORS
330
C
102
}
330
C
100
AcDbDictionary
281
     1
  0
ACDBDICTIONARYWDFLT
  5
C91
102
{ACAD_REACTORS
330
C
102
}
330
C
100
AcDbDictionary
281
     1
  3
Normal
350
C92
100
AcDbDictionaryWithDefault
340
C92
  0
DICTIONARY
  5
CC8
102
{ACAD_REACTORS
330
C
102
}
330
C
100
AcDbDictionary
281
     1
  3
A0
350
CC9
  3
A1
350
CCA
  3
A2
350
CCB
  3
A3
350
CCC
  3
A4
350
CCD
  3
A5
350
CCE
  3
A6
350
CCF
  3
A7
350
CD0
  3
A8
350
CD1
  3
A9
350
CD2
  3
B0
350
CD3
  3
B1
350
CD4
  3
B2
350
CD5
  3
B3
350
CD6
  3
B4
350
CD7
  3
B5
350
CD8
  3
B6
350
CD9
  0
DICTIONARY
  5
CDC
102
{ACAD_REACTORS
330
C
102
}
330
C
100
AcDbDictionary
281
     1
  3
Imperial24
350
CDD
  0
DICTIONARY
  5
CC6
102
{ACAD_REACTORS
330
C
102
}
330
C
100
AcDbDictionary
281
     1
  3
Standard
350
CC7
  0
DICTIONARY
  5
CAC
102
{ACAD_REACTORS
330
C
102
}
330
C
100
AcDbDictionary
281
     1
  3
2dWireframe
350
CB2
  3
Basic
350
CB1
  3
Brighten
350
CB8
  3
ColorChange
350
CBC
  3
Conceptual
350
CB5
  3
Dim
350
CB7
  3
EdgeColorOff
350
CC4
  3
Facepattern
350
CBB
  3
Flat
350
CAD
  3
FlatWithEdges
350
CAE
  3
Gouraud
350
CAF
  3
GouraudWithEdges
350
CB0
  3
Hidden
350
CB4
  3
JitterOff
350
CC2
  3
Linepattern
350
CBA
  3
OverhangOff
350
CC3
  3
Realistic
350
CB6
  3
Shaded
350
CC1
  3
Shaded with edges
350
CC0
  3
Shades of Gray
350
CBD
  3
Sketchy
350
CBE
  3
Thicken
350
CB9
  3
Wireframe
350
CB3
  3
X-Ray
350
CBF
  0
XRECORD
  5
D00
102
{ACAD_REACTORS
330
C
102
}
330
C
100
AcDbXrecord
280
     1
 90
        1
330
CC7
  0
DICTIONARY
  5
CF3
102
{ACAD_REACTORS
330
C
102
}
330
C
100
AcDbDictionary
281
     1
  3
CANNOSCALE
350
CF8
  3
CMLEADERSTYLE
350
CF5
  3
CTABLESTYLE
350
CF4
  3
CVIEWDETAILSTYLE
350
CF6
  3
CVIEWSECTIONSTYLE
350
CF7
  3
DIMASSOC
350
CFB
  3
INDEXCTL
350
CFA
  3
SORTENTS
350
CF9
  3
XCLIPFRAME
350
CFC
  0
DICTIONARY
  5
3D
102
{ACAD_REACTORS
330
C
102
}
330
C
100
AcDbDictionary
281
     1
  0
XRECORD
  5
D01
102
{ACAD_REACTORS
330
C
102
}
330
C
100
AcDbXrecord
280
     1
  1
DWGPROPS COOKIE
  2

  3

  4

  6

  7

  8
Yoshitsune
  9

300
=
301
=
302
=
303
=
304
=
305
=
306
=
307
=
308
=
309
=
 40
0.2059633796296296
 41
2453276.608713646
 42
2457192.691162257
  1

 90
        0
  0
XRECORD
  5
CE4
102
{ACAD_REACTORS
330
CE3
102
}
330
CE3
100
AcDbXrecord
280
     1
290
     1
  0
XRECORD
  5
CE6
102
{ACAD_REACTORS
330
CE5
102
}
330
CE5
100
AcDbXrecord
280
     1
290
     1
  0
XRECORD
  5
CE8
102
{ACAD_REACTORS
330
CE7
102
}
330
CE7
100
AcDbXrecord
280
     1
290
     1
  0
XRECORD
  5
CEA
102
{ACAD_REACTORS
330
CE9
102
}
330
CE9
100
AcDbXrecord
280
     1
290
     1
  0
XRECORD
  5
CEC
102
{ACAD_REACTORS
330
CEB
102
}
330
CEB
100
AcDbXrecord
280
     1
290
     1
  0
XRECORD
  5
CEE
102
{ACAD_REACTORS
330
CED
102
}
330
CED
100
AcDbXrecord
280
     1
290
     1
  0
XRECORD
  5
CF0
102
{ACAD_REACTORS
330
CEF
102
}
330
CEF
100
AcDbXrecord
280
     1
290
     1
  0
XRECORD
  5
CF2
102
{ACAD_REACTORS
330
CF1
102
}
330
CF1
100
AcDbXrecord
280
     1
290
     1
  0
XRECORD
  5
C8D
102
{ACAD_REACTORS
330
C78
102
}
330
C78
100
AcDbXrecord
280
     1
340
18
  0
XRECORD
  5
C8C
102
{ACAD_REACTORS
330
C76
102
}
330
C76
100
AcDbXrecord
280
     1
340
15
  0
ACDBDETAILVIEWSTYLE
  5
CDF
102
{ACAD_XDICTIONARY
360
D39
102
}
102
{ACAD_REACTORS
330
CDE
102
}
330
CDE
100
AcDbModelDocViewStyle
 70
     0
  3
Imperial24
290
     0
100
AcDbDetailViewStyle
 70
     0
 71
     0
 90
        3
 71
     1
340
F
 40
0.24
340
0
 40
0.24
300

 40
0.36
280
     3
 71
     2
340
14
 90
       25
 71
     3
340
F
 40
0.24
 90
        1
 40
0.75
 90
        1
300
%<\AcVar ViewType \f "%tc1">% %<\AcVar ViewDetailId>%\PSCALE %<\AcVar ViewScale \f "%sn">%
 71
     4
340
14
 90
       25
340
14
 90
       25
280
     0
  0
LAYOUT
  5
CE0
102
{ACAD_XDICTIONARY
360
D3B
102
}
102
{ACAD_REACTORS
330
5D
102
}
330
5D
100
AcDbPlotSettings
  1

  2
Canon LBP9100C
  4

  6

 40
0.0
 41
0.0
 42
0.0
 43
0.0
 44
0.0
 45
0.0
 46
0.0
 47
0.0
 48
0.0
 49
0.0
140
0.0
141
0.0
142
1.0
143
1.0
 70
  1712
 72
     0
 73
     0
 74
     0
  7

 75
     0
147
1.0
148
0.0
149
0.0
100
AcDbLayout
  1
Model
 70
     1
 71
     0
 10
0.0
 20
0.0
 11
12.0
 21
9.0
 12
0.0
 22
0.0
 32
0.0
 14
0.0
 24
0.0
 34
0.0
 15
0.0
 25
0.0
 35
0.0
146
0.0
 13
0.0
 23
0.0
 33
0.0
 16
1.0
 26
0.0
 36
0.0
 17
0.0
 27
1.0
 37
0.0
 76
     0
330
18
331
C8B
  0
LAYOUT
  5
CE1
102
{ACAD_XDICTIONARY
360
D3D
102
}
102
{ACAD_REACTORS
330
5D
102
}
330
5D
100
AcDbPlotSettings
  1

  2
Canon LBP9100C
  4

  6

 40
0.0
 41
0.0
 42
0.0
 43
0.0
 44
0.0
 45
0.0
 46
0.0
 47
0.0
 48
0.0
 49
0.0
140
0.0
141
0.0
142
1.0
143
1.0
 70
   688
 72
     0
 73
     0
 74
     5
  7

 75
    16
147
1.0
148
0.0
149
0.0
100
AcDbLayout
  1
レイアウト1
 70
     1
 71
     1
 10
0.0
 20
0.0
 11
420.0
 21
297.0
 12
0.0
 22
0.0
 32
0.0
 14
1.000000000000000E+20
 24
1.000000000000000E+20
 34
1.000000000000000E+20
 15
-1.000000000000000E+20
 25
-1.000000000000000E+20
 35
-1.000000000000000E+20
146
0.0
 13
0.0
 23
0.0
 33
0.0
 16
1.0
 26
0.0
 36
0.0
 17
0.0
 27
1.0
 37
0.0
 76
     0
330
15
  0
MATERIAL
  5
C9C
102
{ACAD_XDICTIONARY
360
C9D
102
}
102
{ACAD_REACTORS
330
C93
102
}
330
C93
100
AcDbMaterial
  1
ByBlock
 72
     0
 43
0.0208333333333333
 43
0.0
 43
0.0
 43
0.0
 43
0.0
 43
0.0208333333333333
 43
0.0
 43
0.0
 43
0.0
 43
0.0
 43
1.0
 43
0.0
 43
0.0
 43
0.0
 43
0.0
 43
1.0
 77
     0
 47
0.0208333333333333
 47
0.0
 47
0.0
 47
0.0
 47
0.0
 47
0.0208333333333333
 47
0.0
 47
0.0
 47
0.0
 47
0.0
 47
1.0
 47
0.0
 47
0.0
 47
0.0
 47
0.0
 47
1.0
171
     0
 49
0.0208333333333333
 49
0.0
 49
0.0
 49
0.0
 49
0.0
 49
0.0208333333333333
 49
0.0
 49
0.0
 49
0.0
 49
0.0
 49
1.0
 49
0.0
 49
0.0
 49
0.0
 49
0.0
 49
1.0
175
     0
142
0.0208333333333333
142
0.0
142
0.0
142
0.0
142
0.0
142
0.0208333333333333
142
0.0
142
0.0
142
0.0
142
0.0
142
1.0
142
0.0
142
0.0
142
0.0
142
0.0
142
1.0
179
     0
144
0.0208333333333333
144
0.0
144
0.0
144
0.0
144
0.0
144
0.0208333333333333
144
0.0
144
0.0
144
0.0
144
0.0
144
1.0
144
0.0
144
0.0
144
0.0
144
0.0
144
1.0
147
0.0208333333333333
147
0.0
147
0.0
147
0.0
147
0.0
147
0.0208333333333333
147
0.0
147
0.0
147
0.0
147
0.0
147
1.0
147
0.0
147
0.0
147
0.0
147
0.0
147
1.0
  0
MATERIAL
  5
C94
102
{ACAD_XDICTIONARY
360
C95
102
}
102
{ACAD_REACTORS
330
C93
102
}
330
C93
100
AcDbMaterial
  1
ByLayer
 72
     0
 43
0.0208333333333333
 43
0.0
 43
0.0
 43
0.0
 43
0.0
 43
0.0208333333333333
 43
0.0
 43
0.0
 43
0.0
 43
0.0
 43
1.0
 43
0.0
 43
0.0
 43
0.0
 43
0.0
 43
1.0
 77
     0
 47
0.0208333333333333
 47
0.0
 47
0.0
 47
0.0
 47
0.0
 47
0.0208333333333333
 47
0.0
 47
0.0
 47
0.0
 47
0.0
 47
1.0
 47
0.0
 47
0.0
 47
0.0
 47
0.0
 47
1.0
171
     0
 49
0.0208333333333333
 49
0.0
 49
0.0
 49
0.0
 49
0.0
 49
0.0208333333333333
 49
0.0
 49
0.0
 49
0.0
 49
0.0
 49
1.0
 49
0.0
 49
0.0
 49
0.0
 49
0.0
 49
1.0
175
     0
142
0.0208333333333333
142
0.0
142
0.0
142
0.0
142
0.0
142
0.0208333333333333
142
0.0
142
0.0
142
0.0
142
0.0
142
1.0
142
0.0
142
0.0
142
0.0
142
0.0
142
1.0
179
     0
144
0.0208333333333333
144
0.0
144
0.0
144
0.0
144
0.0
144
0.0208333333333333
144
0.0
144
0.0
144
0.0
144
0.0
144
1.0
144
0.0
144
0.0
144
0.0
144
0.0
144
1.0
147
0.0208333333333333
147
0.0
147
0.0
147
0.0
147
0.0
147
0.0208333333333333
147
0.0
147
0.0
147
0.0
147
0.0
147
1.0
147
0.0
147
0.0
147
0.0
147
0.0
147
1.0
  0
MATERIAL
  5
CA4
102
{ACAD_XDICTIONARY
360
CA5
102
}
102
{ACAD_REACTORS
330
C93
102
}
330
C93
100
AcDbMaterial
  1
Global
 72
     0
 43
0.0208333333333333
 43
0.0
 43
0.0
 43
0.0
 43
0.0
 43
0.0208333333333333
 43
0.0
 43
0.0
 43
0.0
 43
0.0
 43
1.0
 43
0.0
 43
0.0
 43
0.0
 43
0.0
 43
1.0
 77
     0
 47
0.0208333333333333
 47
0.0
 47
0.0
 47
0.0
 47
0.0
 47
0.0208333333333333
 47
0.0
 47
0.0
 47
0.0
 47
0.0
 47
1.0
 47
0.0
 47
0.0
 47
0.0
 47
0.0
 47
1.0
171
     0
 49
0.0208333333333333
 49
0.0
 49
0.0
 49
0.0
 49
0.0
 49
0.0208333333333333
 49
0.0
 49
0.0
 49
0.0
 49
0.0
 49
1.0
 49
0.0
 49
0.0
 49
0.0
 49
0.0
 49
1.0
175
     0
142
0.0208333333333333
142
0.0
142
0.0
142
0.0
142
0.0
142
0.0208333333333333
142
0.0
142
0.0
142
0.0
142
0.0
142
1.0
142
0.0
142
0.0
142
0.0
142
0.0
142
1.0
179
     0
144
0.0208333333333333
144
0.0
144
0.0
144
0.0
144
0.0
144
0.0208333333333333
144
0.0
144
0.0
144
0.0
144
0.0
144
1.0
144
0.0
144
0.0
144
0.0
144
0.0
144
1.0
147
0.0208333333333333
147
0.0
147
0.0
147
0.0
147
0.0
147
0.0208333333333333
147
0.0
147
0.0
147
0.0
147
0.0
147
1.0
147
0.0
147
0.0
147
0.0
147
0.0
147
1.0
  0
MLEADERSTYLE
  5
CDB
102
{ACAD_REACTORS
330
CDA
102
}
330
CDA
100
AcDbMLeaderStyle
170
     2
171
     1
172
     0
 90
        2
 40
0.0
 41
0.0
173
     1
 91
-1056964608
340
12
 92
       -2
290
     1
 42
0.09
291
     1
 43
0.36
  3
Standard
 44
0.18
300

342
F
174
     1
178
     6
175
     1
176
     0
 93
-1056964608
 45
0.18
292
     0
297
     0
 46
0.18
 94
-1056964608
 47
1.0
 49
1.0
140
1.0
293
     1
141
0.0
294
     1
177
     0
142
1.0
295
     0
296
     0
143
0.125
1001
ACAD_MLEADERVER
1070
     2
  0
MLINESTYLE
  5
1C
102
{ACAD_REACTORS
330
1B
102
}
330
1B
100
AcDbMlineStyle
  2
STANDARD
 70
     0
  3

 62
   256
 51
90.0
 52
90.0
 71
     2
 49
0.5
 62
   256
  6
BYLAYER
 49
-0.5
 62
   256
  6
BYLAYER
  0
ACDBPLACEHOLDER
  5
C92
102
{ACAD_REACTORS
330
C91
102
}
330
C91
  0
SCALE
  5
CC9
102
{ACAD_REACTORS
330
CC8
102
}
330
CC8
100
AcDbScale
 70
     0
300
1:1
140
1.0
141
1.0
290
     1
  0
SCALE
  5
CCA
102
{ACAD_REACTORS
330
CC8
102
}
330
CC8
100
AcDbScale
 70
     0
300
1/128" = 1'-0"
140
0.0078125
141
12.0
290
     0
  0
SCALE
  5
CCB
102
{ACAD_REACTORS
330
CC8
102
}
330
CC8
100
AcDbScale
 70
     0
300
1/64" = 1'-0"
140
0.015625
141
12.0
290
     0
  0
SCALE
  5
CCC
102
{ACAD_REACTORS
330
CC8
102
}
330
CC8
100
AcDbScale
 70
     0
300
1/32" = 1'-0"
140
0.03125
141
12.0
290
     0
  0
SCALE
  5
CCD
102
{ACAD_REACTORS
330
CC8
102
}
330
CC8
100
AcDbScale
 70
     0
300
1/16" = 1'-0"
140
0.0625
141
12.0
290
     0
  0
SCALE
  5
CCE
102
{ACAD_REACTORS
330
CC8
102
}
330
CC8
100
AcDbScale
 70
     0
300
3/32" = 1'-0"
140
0.09375
141
12.0
290
     0
  0
SCALE
  5
CCF
102
{ACAD_REACTORS
330
CC8
102
}
330
CC8
100
AcDbScale
 70
     0
300
1/8" = 1'-0"
140
0.125
141
12.0
290
     0
  0
SCALE
  5
CD0
102
{ACAD_REACTORS
330
CC8
102
}
330
CC8
100
AcDbScale
 70
     0
300
3/16" = 1'-0"
140
0.1875
141
12.0
290
     0
  0
SCALE
  5
CD1
102
{ACAD_REACTORS
330
CC8
102
}
330
CC8
100
AcDbScale
 70
     0
300
1/4" = 1'-0"
140
0.25
141
12.0
290
     0
  0
SCALE
  5
CD2
102
{ACAD_REACTORS
330
CC8
102
}
330
CC8
100
AcDbScale
 70
     0
300
3/8" = 1'-0"
140
0.375
141
12.0
290
     0
  0
SCALE
  5
CD3
102
{ACAD_REACTORS
330
CC8
102
}
330
CC8
100
AcDbScale
 70
     0
300
1/2" = 1'-0"
140
0.5
141
12.0
290
     0
  0
SCALE
  5
CD4
102
{ACAD_REACTORS
330
CC8
102
}
330
CC8
100
AcDbScale
 70
     0
300
3/4" = 1'-0"
140
0.75
141
12.0
290
     0
  0
SCALE
  5
CD5
102
{ACAD_REACTORS
330
CC8
102
}
330
CC8
100
AcDbScale
 70
     0
300
1" = 1'-0"
140
1.0
141
12.0
290
     0
  0
SCALE
  5
CD6
102
{ACAD_REACTORS
330
CC8
102
}
330
CC8
100
AcDbScale
 70
     0
300
1-1/2" = 1'-0"
140
1.5
141
12.0
290
     0
  0
SCALE
  5
CD7
102
{ACAD_REACTORS
330
CC8
102
}
330
CC8
100
AcDbScale
 70
     0
300
3" = 1'-0"
140
3.0
141
12.0
290
     0
  0
SCALE
  5
CD8
102
{ACAD_REACTORS
330
CC8
102
}
330
CC8
100
AcDbScale
 70
     0
300
6" = 1'-0"
140
6.0
141
12.0
290
     0
  0
SCALE
  5
CD9
102
{ACAD_REACTORS
330
CC8
102
}
330
CC8
100
AcDbScale
 70
     0
300
1'-0" = 1'-0"
140
12.0
141
12.0
290
     0
  0
ACDBSECTIONVIEWSTYLE
  5
CDD
102
{ACAD_XDICTIONARY
360
D37
102
}
102
{ACAD_REACTORS
330
CDC
102
}
330
CDC
100
AcDbModelDocViewStyle
 70
     0
  3
Imperial24
290
     0
100
AcDbSectionViewStyle
 70
     0
 71
     0
 90
       78
 71
     1
340
F
 40
0.24
340
0
340
0
 40
0.24
300
I, O, Q, S, X, Z
 40
0.48
 90
        3
 40
0.18
 90
        1
 71
     2
340
14
 90
       25
340
14
 90
       50
 40
0.24
 40
0.0
 40
0.24
 71
     3
340
F
 40
0.24
 90
        1
 40
0.75
 90
        1
300
%<\AcVar ViewType \f "%tc1">% %<\AcVar ViewSectionStartId>%-%<\AcVar ViewSectionEndId>%\PSCALE %<\AcVar ViewScale \f "%sn">%
 71
     4
300
ANSI31
 40
1.0
 90
        0
290
     0
290
     0
 90
        6
 40
0.0
 40
1.570796326794896
 40
0.2617993877991494
 40
1.308996938995747
 40
-0.2617993877991494
 40
1.832595714594046
  0
TABLESTYLE
  5
CC7
102
{ACAD_XDICTIONARY
360
CFE
102
}
102
{ACAD_REACTORS
330
CC6
102
}
330
CC6
100
AcDbTableStyle
  3
Standard
 70
     0
 71
     0
 40
0.06
 41
0.06
280
     0
281
     0
  7
STANDARD
140
0.18
170
     2
 62
     0
 63
     7
283
     0
274
    -2
284
     1
 64
     0
275
    -2
285
     1
 65
     0
276
    -2
286
     1
 66
     0
277
    -2
287
     1
 67
     0
278
    -2
288
     1
 68
     0
279
    -2
289
     1
 69
     0
  7
STANDARD
140
0.25
170
     5
 62
     0
 63
     7
283
     0
274
    -2
284
     1
 64
     0
275
    -2
285
     1
 65
     0
276
    -2
286
     1
 66
     0
277
    -2
287
     1
 67
     0
278
    -2
288
     1
 68
     0
279
    -2
289
     1
 69
     0
  7
STANDARD
140
0.18
170
     5
 62
     0
 63
     7
283
     0
274
    -2
284
     1
 64
     0
275
    -2
285
     1
 65
     0
276
    -2
286
     1
 66
     0
277
    -2
287
     1
 67
     0
278
    -2
288
     1
 68
     0
279
    -2
289
     1
 69
     0
  0
VISUALSTYLE
  5
CB2
102
{ACAD_XDICTIONARY
360
D0F
102
}
102
{ACAD_REACTORS
330
CAC
102
}
330
CAC
100
AcDbVisualStyle
  2
2dWireframe
 70
     4
 71
     0
 72
     2
 73
     0
 90
        0
 40
-0.6
 41
-30.0
 62
     5
 63
     7
 74
     1
 91
        4
 64
     7
 65
   257
 75
     1
175
     1
 42
1.0
 92
        0
 66
   257
 43
1.0
 76
     1
 77
     6
 78
     2
 67
     7
 79
     5
170
     0
171
     0
290
     0
174
     0
 93
        1
 44
0.0
173
     0
291
     0
 45
0.0
1001
ACAD
1000
AcDbSavedByObjectVersion
1070
     0
  0
VISUALSTYLE
  5
CB1
102
{ACAD_XDICTIONARY
360
D0D
102
}
102
{ACAD_REACTORS
330
CAC
102
}
330
CAC
100
AcDbVisualStyle
  2
Basic
 70
     7
 71
     1
 72
     0
 73
     1
 90
        0
 40
-0.6
 41
-30.0
 62
     5
 63
     7
 74
     0
 91
        4
 64
     7
 65
   257
 75
     1
175
     1
 42
1.0
 92
        8
 66
     7
 43
1.0
 76
     1
 77
     6
 78
     2
 67
     7
 79
     5
170
     0
171
     0
290
     0
174
     0
 93
        1
 44
0.0
173
     0
291
     1
 45
0.0
1001
ACAD
1000
AcDbSavedByObjectVersion
1070
     0
  0
VISUALSTYLE
  5
CB8
102
{ACAD_XDICTIONARY
360
D1B
102
}
102
{ACAD_REACTORS
330
CAC
102
}
330
CAC
100
AcDbVisualStyle
  2
Brighten
 70
    12
 71
     2
 72
     2
 73
     0
 90
        0
 40
-0.6
 41
-30.0
 62
     5
 63
     7
 74
     1
 91
        4
 64
     7
 65
   257
 75
     1
175
     1
 42
1.0
 92
        8
 66
     7
 43
1.0
 76
     1
 77
     6
 78
     2
 67
     7
 79
     5
170
     0
171
     0
290
     0
174
     0
 93
        1
 44
50.0
173
     0
291
     1
 45
0.0
1001
ACAD
1000
AcDbSavedByObjectVersion
1070
     0
  0
VISUALSTYLE
  5
CBC
102
{ACAD_XDICTIONARY
360
D23
102
}
102
{ACAD_REACTORS
330
CAC
102
}
330
CAC
100
AcDbVisualStyle
  2
ColorChange
 70
    16
 71
     2
 72
     2
 73
     3
 90
        0
 40
-0.6
 41
-30.0
 62
     5
 63
     8
 74
     1
 91
        4
 64
     7
 65
   257
 75
     1
175
     1
 42
1.0
 92
        8
 66
     8
 43
1.0
 76
     1
 77
     6
 78
     2
 67
     7
 79
     5
170
     0
171
     0
290
     0
174
     0
 93
        1
 44
0.0
173
     0
291
     1
 45
0.0
1001
ACAD
1000
AcDbSavedByObjectVersion
1070
     0
  0
VISUALSTYLE
  5
CB5
102
{ACAD_XDICTIONARY
360
D15
102
}
102
{ACAD_REACTORS
330
CAC
102
}
330
CAC
100
AcDbVisualStyle
  2
Conceptual
 70
     9
 71
     3
 72
     2
 73
     0
 90
        0
 40
-0.6
 41
-30.0
 62
     5
 63
     7
 74
     2
 91
        2
 64
     7
 65
   257
 75
     1
175
     1
 42
179.0
 92
        8
 66
     7
 43
1.0
 76
     1
 77
     6
 78
     2
 67
     7
 79
     3
170
     0
171
     0
290
     0
174
     0
 93
        1
 44
0.0
173
     0
291
     0
 45
0.0
1001
ACAD
1000
AcDbSavedByObjectVersion
1070
     0
  0
VISUALSTYLE
  5
CB7
102
{ACAD_XDICTIONARY
360
D19
102
}
102
{ACAD_REACTORS
330
CAC
102
}
330
CAC
100
AcDbVisualStyle
  2
Dim
 70
    11
 71
     2
 72
     2
 73
     0
 90
        0
 40
-0.6
 41
-30.0
 62
     5
 63
     7
 74
     1
 91
        4
 64
     7
 65
   257
 75
     1
175
     1
 42
1.0
 92
        8
 66
     7
 43
1.0
 76
     1
 77
     6
 78
     2
 67
     7
 79
     5
170
     0
171
     0
290
     0
174
     0
 93
        1
 44
-50.0
173
     0
291
     1
 45
0.0
1001
ACAD
1000
AcDbSavedByObjectVersion
1070
     0
  0
VISUALSTYLE
  5
CC4
102
{ACAD_XDICTIONARY
360
D33
102
}
102
{ACAD_REACTORS
330
CAC
102
}
330
CAC
100
AcDbVisualStyle
  2
EdgeColorOff
 70
    22
 71
     2
 72
     2
 73
     0
 90
        0
 40
-0.6
 41
-30.0
 62
     5
 63
     7
 74
     1
 91
        4
 64
     7
 65
   257
 75
     1
175
     1
 42
1.0
 92
        8
 66
     7
 43
1.0
 76
     1
 77
     6
 78
     2
 67
     7
 79
     5
170
     0
171
     0
290
     0
174
     0
 93
        1
 44
0.0
173
     0
291
     1
 45
0.0
1001
ACAD
1000
AcDbSavedByObjectVersion
1070
     0
  0
VISUALSTYLE
  5
CBB
102
{ACAD_XDICTIONARY
360
D21
102
}
102
{ACAD_REACTORS
330
CAC
102
}
330
CAC
100
AcDbVisualStyle
  2
Facepattern
 70
    15
 71
     2
 72
     2
 73
     0
 90
        0
 40
-0.6
 41
-30.0
 62
     5
 63
     7
 74
     1
 91
        4
 64
     7
 65
   257
 75
     1
175
     1
 42
1.0
 92
        8
 66
     7
 43
1.0
 76
     1
 77
     6
 78
     2
 67
     7
 79
     5
170
     0
171
     0
290
     0
174
     0
 93
        1
 44
0.0
173
     0
291
     1
 45
0.0
1001
ACAD
1000
AcDbSavedByObjectVersion
1070
     0
  0
VISUALSTYLE
  5
CAD
102
{ACAD_XDICTIONARY
360
D05
102
}
102
{ACAD_REACTORS
330
CAC
102
}
330
CAC
100
AcDbVisualStyle
  2
Flat
 70
     0
 71
     2
 72
     1
 73
     1
 90
        2
 40
-0.6
 41
30.0
 62
     5
 63
     7
 74
     0
 91
        0
 64
     7
 65
   257
 75
     1
175
     1
 42
1.0
 92
        8
 66
     7
 43
1.0
 76
     1
 77
     6
 78
     2
 67
     7
 79
     5
170
     0
171
     0
290
     0
174
     0
 93
       13
 44
0.0
173
     0
291
     1
 45
0.0
1001
ACAD
1000
AcDbSavedByObjectVersion
1070
     0
  0
VISUALSTYLE
  5
CAE
102
{ACAD_XDICTIONARY
360
D07
102
}
102
{ACAD_REACTORS
330
CAC
102
}
330
CAC
100
AcDbVisualStyle
  2
FlatWithEdges
 70
     1
 71
     2
 72
     1
 73
     1
 90
        2
 40
-0.6
 41
30.0
 62
     5
 63
     7
 74
     1
 91
        0
 64
     7
 65
   257
 75
     1
175
     1
 42
1.0
 92
        0
 66
   257
 43
1.0
 76
     1
 77
     6
 78
     2
 67
     7
 79
     5
170
     0
171
     0
290
     0
174
     0
 93
       13
 44
0.0
173
     0
291
     1
 45
0.0
1001
ACAD
1000
AcDbSavedByObjectVersion
1070
     0
  0
VISUALSTYLE
  5
CAF
102
{ACAD_XDICTIONARY
360
D09
102
}
102
{ACAD_REACTORS
330
CAC
102
}
330
CAC
100
AcDbVisualStyle
  2
Gouraud
 70
     2
 71
     2
 72
     2
 73
     1
 90
        2
 40
-0.6
 41
30.0
 62
     5
 63
     7
 74
     0
 91
        0
 64
     7
 65
   257
 75
     1
175
     1
 42
1.0
 92
        0
 66
     7
 43
1.0
 76
     1
 77
     6
 78
     2
 67
     7
 79
     5
170
     0
171
     0
290
     0
174
     0
 93
       13
 44
0.0
173
     0
291
     1
 45
0.0
1001
ACAD
1000
AcDbSavedByObjectVersion
1070
     0
  0
VISUALSTYLE
  5
CB0
102
{ACAD_XDICTIONARY
360
D0B
102
}
102
{ACAD_REACTORS
330
CAC
102
}
330
CAC
100
AcDbVisualStyle
  2
GouraudWithEdges
 70
     3
 71
     2
 72
     2
 73
     1
 90
        2
 40
-0.6
 41
30.0
 62
     5
 63
     7
 74
     1
 91
        0
 64
     7
 65
   257
 75
     1
175
     1
 42
1.0
 92
        0
 66
   257
 43
1.0
 76
     1
 77
     6
 78
     2
 67
     7
 79
     5
170
     0
171
     0
290
     0
174
     0
 93
       13
 44
0.0
173
     0
291
     1
 45
0.0
1001
ACAD
1000
AcDbSavedByObjectVersion
1070
     0
  0
VISUALSTYLE
  5
CB4
102
{ACAD_XDICTIONARY
360
D13
102
}
102
{ACAD_REACTORS
330
CAC
102
}
330
CAC
100
AcDbVisualStyle
  2
Hidden
 70
     6
 71
     1
 72
     2
 73
     2
 90
        0
 40
-0.6
 41
-30.0
 62
     5
 63
     7
 74
     2
 91
        2
 64
     7
 65
   257
 75
     2
175
     1
 42
40.0
 92
        0
 66
   257
 43
1.0
 76
     1
 77
     6
 78
     2
 67
     7
 79
     3
170
     0
171
     0
290
     0
174
     0
 93
        1
 44
0.0
173
     0
291
     0
 45
0.0
1001
ACAD
1000
AcDbSavedByObjectVersion
1070
     0
  0
VISUALSTYLE
  5
CC2
102
{ACAD_XDICTIONARY
360
D2F
102
}
102
{ACAD_REACTORS
330
CAC
102
}
330
CAC
100
AcDbVisualStyle
  2
JitterOff
 70
    20
 71
     2
 72
     2
 73
     0
 90
        0
 40
-0.6
 41
-30.0
 62
     5
 63
     7
 74
     1
 91
        4
 64
     7
 65
   257
 75
     1
175
     1
 42
1.0
 92
       10
 66
     7
 43
1.0
 76
     1
 77
     6
 78
     2
 67
     7
 79
     5
170
     0
171
     0
290
     0
174
     0
 93
        1
 44
0.0
173
     0
291
     1
 45
0.0
1001
ACAD
1000
AcDbSavedByObjectVersion
1070
     0
  0
VISUALSTYLE
  5
CBA
102
{ACAD_XDICTIONARY
360
D1F
102
}
102
{ACAD_REACTORS
330
CAC
102
}
330
CAC
100
AcDbVisualStyle
  2
Linepattern
 70
    14
 71
     2
 72
     2
 73
     0
 90
        0
 40
-0.6
 41
-30.0
 62
     5
 63
     7
 74
     1
 91
        4
 64
     7
 65
   257
 75
     7
175
     7
 42
1.0
 92
        8
 66
     7
 43
1.0
 76
     1
 77
     6
 78
     2
 67
     7
 79
     5
170
     0
171
     0
290
     0
174
     0
 93
        1
 44
0.0
173
     0
291
     1
 45
0.0
1001
ACAD
1000
AcDbSavedByObjectVersion
1070
     0
  0
VISUALSTYLE
  5
CC3
102
{ACAD_XDICTIONARY
360
D31
102
}
102
{ACAD_REACTORS
330
CAC
102
}
330
CAC
100
AcDbVisualStyle
  2
OverhangOff
 70
    21
 71
     2
 72
     2
 73
     0
 90
        0
 40
-0.6
 41
-30.0
 62
     5
 63
     7
 74
     1
 91
        4
 64
     7
 65
   257
 75
     1
175
     1
 42
1.0
 92
        9
 66
     7
 43
1.0
 76
     1
 77
     6
 78
     2
 67
     7
 79
     5
170
     0
171
     0
290
     0
174
     0
 93
        1
 44
0.0
173
     0
291
     1
 45
0.0
1001
ACAD
1000
AcDbSavedByObjectVersion
1070
     0
  0
VISUALSTYLE
  5
CB6
102
{ACAD_XDICTIONARY
360
D17
102
}
102
{ACAD_REACTORS
330
CAC
102
}
330
CAC
100
AcDbVisualStyle
  2
Realistic
 70
     8
 71
     2
 72
     3
 73
     0
 90
        2
 40
-0.6
 41
30.0
 62
     5
 63
     7
 74
     0
 91
        0
 64
     7
 65
   257
 75
     1
175
     1
 42
1.0
 92
        8
 66
   257
 43
1.0
 76
     1
 77
     6
 78
     2
 67
     7
 79
     3
170
     0
171
     0
290
     0
174
     0
 93
       13
 44
0.0
173
     0
291
     0
 45
0.0
1001
ACAD
1000
AcDbSavedByObjectVersion
1070
     0
  0
VISUALSTYLE
  5
CC1
102
{ACAD_XDICTIONARY
360
D2D
102
}
102
{ACAD_REACTORS
330
CAC
102
}
330
CAC
100
AcDbVisualStyle
  2
Shaded
 70
    27
 71
     2
 72
     2
 73
     1
 90
        2
 40
-0.6
 41
30.0
 62
     5
 63
     7
 74
     0
 91
        4
 64
     7
 65
   257
 75
     1
175
     1
 42
1.0
 92
        8
 66
   257
 43
1.0
 76
     1
 77
     6
 78
     2
 67
     8
 79
     3
170
     0
171
     0
290
     0
174
     0
 93
        5
 44
0.0
173
     0
291
     0
 45
0.0
1001
ACAD
1000
AcDbSavedByObjectVersion
1070
     0
  0
VISUALSTYLE
  5
CC0
102
{ACAD_XDICTIONARY
360
D2B
102
}
102
{ACAD_REACTORS
330
CAC
102
}
330
CAC
100
AcDbVisualStyle
  2
Shaded with edges
 70
    26
 71
     2
 72
     2
 73
     1
 90
        2
 40
-0.6
 41
30.0
 62
     5
 63
     7
 74
     1
 91
       10
 64
     7
 65
   257
 75
     2
175
     1
 42
1.0
 92
        8
 66
   257
 43
1.0
 76
     1
 77
     6
 78
     2
 67
     7
 79
     3
170
     0
171
     0
290
     0
174
     0
 93
        5
 44
0.0
173
     0
291
     0
 45
0.0
1001
ACAD
1000
AcDbSavedByObjectVersion
1070
     0
  0
VISUALSTYLE
  5
CBD
102
{ACAD_XDICTIONARY
360
D25
102
}
102
{ACAD_REACTORS
330
CAC
102
}
330
CAC
100
AcDbVisualStyle
  2
Shades of Gray
 70
    23
 71
     2
 72
     2
 73
     3
 90
        0
 40
-0.6
 41
-30.0
 62
     5
 63
     7
 74
     2
 91
        2
 64
     7
 65
     7
 75
     1
175
     1
 42
40.0
 92
        8
 66
     7
 43
1.0
 76
     1
 77
     6
 78
     2
 67
     7
 79
     3
170
     0
171
     0
290
     0
174
     0
 93
        1
 44
0.0
173
     0
291
     0
 45
0.0
1001
ACAD
1000
AcDbSavedByObjectVersion
1070
     0
  0
VISUALSTYLE
  5
CBE
102
{ACAD_XDICTIONARY
360
D27
102
}
102
{ACAD_REACTORS
330
CAC
102
}
330
CAC
100
AcDbVisualStyle
  2
Sketchy
 70
    24
 71
     1
 72
     2
 73
     2
 90
        0
 40
-0.6
 41
-30.0
 62
     5
 63
     7
 74
     2
 91
        2
 64
     7
 65
     7
 75
     1
175
     1
 42
40.0
 92
       11
 66
     7
 43
1.0
 76
     1
 77
     6
 78
     2
 67
     7
 79
     6
170
     0
171
     0
290
     0
174
     0
 93
        1
 44
0.0
173
     0
291
     0
 45
0.0
1001
ACAD
1000
AcDbSavedByObjectVersion
1070
     0
  0
VISUALSTYLE
  5
CB9
102
{ACAD_XDICTIONARY
360
D1D
102
}
102
{ACAD_REACTORS
330
CAC
102
}
330
CAC
100
AcDbVisualStyle
  2
Thicken
 70
    13
 71
     2
 72
     2
 73
     0
 90
        0
 40
-0.6
 41
-30.0
 62
     5
 63
     7
 74
     1
 91
        4
 64
     7
 65
   257
 75
     1
175
     1
 42
1.0
 92
       12
 66
     7
 43
1.0
 76
     1
 77
     6
 78
     2
 67
     7
 79
     5
170
     0
171
     0
290
     0
174
     0
 93
        1
 44
0.0
173
     0
291
     1
 45
0.0
1001
ACAD
1000
AcDbSavedByObjectVersion
1070
     0
  0
VISUALSTYLE
  5
CB3
102
{ACAD_XDICTIONARY
360
D11
102
}
102
{ACAD_REACTORS
330
CAC
102
}
330
CAC
100
AcDbVisualStyle
  2
Wireframe
 70
     5
 71
     0
 72
     2
 73
     0
 90
        0
 40
-0.6
 41
-30.0
 62
     5
 63
     7
 74
     1
 91
        4
 64
     7
 65
   257
 75
     1
175
     1
 42
1.0
 92
        0
 66
   257
 43
1.0
 76
     1
 77
     6
 78
     2
 67
     7
 79
     3
170
     0
171
     0
290
     0
174
     0
 93
        1
 44
0.0
173
     0
291
     0
 45
0.0
1001
ACAD
1000
AcDbSavedByObjectVersion
1070
     0
  0
VISUALSTYLE
  5
CBF
102
{ACAD_XDICTIONARY
360
D29
102
}
102
{ACAD_REACTORS
330
CAC
102
}
330
CAC
100
AcDbVisualStyle
  2
X-Ray
 70
    25
 71
     2
 72
     2
 73
     1
 90
        1
 40
0.5
 41
-30.0
 62
     5
 63
     7
 74
     1
 91
        0
 64
     7
 65
   257
 75
     1
175
     1
 42
1.0
 92
        8
 66
     7
 43
1.0
 76
     1
 77
     6
 78
     2
 67
     7
 79
     3
170
     0
171
     0
290
     0
174
     0
 93
       13
 44
0.0
173
     0
291
     0
 45
0.0
1001
ACAD
1000
AcDbSavedByObjectVersion
1070
     0
  0
DICTIONARYVAR
  5
CF8
102
{ACAD_REACTORS
330
CF3
102
}
330
CF3
100
DictionaryVariables
280
     0
  1
1:1
  0
DICTIONARYVAR
  5
CF5
102
{ACAD_REACTORS
330
CF3
102
}
330
CF3
100
DictionaryVariables
280
     0
  1
STANDARD
  0
DICTIONARYVAR
  5
CF4
102
{ACAD_REACTORS
330
CF3
102
}
330
CF3
100
DictionaryVariables
280
     0
  1
STANDARD
  0
DICTIONARYVAR
  5
CF6
102
{ACAD_REACTORS
330
CF3
102
}
330
CF3
100
DictionaryVariables
280
     0
  1
Imperial24
  0
DICTIONARYVAR
  5
CF7
102
{ACAD_REACTORS
330
CF3
102
}
330
CF3
100
DictionaryVariables
280
     0
  1
Imperial24
  0
DICTIONARYVAR
  5
CFB
102
{ACAD_REACTORS
330
CF3
102
}
330
CF3
100
DictionaryVariables
280
     0
  1
1
  0
DICTIONARYVAR
  5
CFA
102
{ACAD_REACTORS
330
CF3
102
}
330
CF3
100
DictionaryVariables
280
     0
  1
0
  0
DICTIONARYVAR
  5
CF9
102
{ACAD_REACTORS
330
CF3
102
}
330
CF3
100
DictionaryVariables
280
     0
  1
127
  0
DICTIONARYVAR
  5
CFC
102
{ACAD_REACTORS
330
CF3
102
}
330
CF3
100
DictionaryVariables
280
     0
  1
2
  0
DICTIONARY
  5
D39
330
CDF
100
AcDbDictionary
280
     1
281
     1
  3
ACAD_XREC_ROUNDTRIP
360
D3A
  0
DICTIONARY
  5
D3B
330
CE0
100
AcDbDictionary
280
     1
281
     1
  3
ACAD_XREC_ROUNDTRIP
360
D3C
  0
DICTIONARY
  5
D3D
330
CE1
100
AcDbDictionary
280
     1
281
     1
  3
ACAD_XREC_ROUNDTRIP
360
D3E
  0
DICTIONARY
  5
C9D
330
C9C
100
AcDbDictionary
280
     1
281
     1
  3
ACAD_XREC_ROUNDTRIP
360
D03
  3
BUMPTILE
360
C9F
  3
DIFFUSETILE
360
C9E
  3
OPACITYTILE
360
CA2
  3
REFLECTIONTILE
360
CA1
  3
REFRACTIONTILE
360
CA3
  3
SPECULARTILE
360
CA0
  0
DICTIONARY
  5
C95
330
C94
100
AcDbDictionary
280
     1
281
     1
  3
ACAD_XREC_ROUNDTRIP
360
D02
  3
BUMPTILE
360
C97
  3
DIFFUSETILE
360
C96
  3
OPACITYTILE
360
C9A
  3
REFLECTIONTILE
360
C99
  3
REFRACTIONTILE
360
C9B
  3
SPECULARTILE
360
C98
  0
DICTIONARY
  5
CA5
330
CA4
100
AcDbDictionary
280
     1
281
     1
  3
ACAD_XREC_ROUNDTRIP
360
D04
  3
BUMPTILE
360
CA7
  3
DIFFUSETILE
360
CA6
  3
OPACITYTILE
360
CAA
  3
REFLECTIONTILE
360
CA9
  3
REFRACTIONTILE
360
CAB
  3
SPECULARTILE
360
CA8
  0
DICTIONARY
  5
D37
330
CDD
100
AcDbDictionary
280
     1
281
     1
  3
ACAD_XREC_ROUNDTRIP
360
D38
  0
DICTIONARY
  5
CFE
330
CC7
100
AcDbDictionary
280
     1
281
     1
  3
ACAD_ROUNDTRIP_2008_TABLESTYLE_CELLSTYLEMAP
360
CFF
  3
ACAD_XREC_ROUNDTRIP
360
D35
  0
DICTIONARY
  5
D0F
330
CB2
100
AcDbDictionary
280
     1
281
     1
  3
ACAD_XREC_ROUNDTRIP
360
D10
  0
DICTIONARY
  5
D0D
330
CB1
100
AcDbDictionary
280
     1
281
     1
  3
ACAD_XREC_ROUNDTRIP
360
D0E
  0
DICTIONARY
  5
D1B
330
CB8
100
AcDbDictionary
280
     1
281
     1
  3
ACAD_XREC_ROUNDTRIP
360
D1C
  0
DICTIONARY
  5
D23
330
CBC
100
AcDbDictionary
280
     1
281
     1
  3
ACAD_XREC_ROUNDTRIP
360
D24
  0
DICTIONARY
  5
D15
330
CB5
100
AcDbDictionary
280
     1
281
     1
  3
ACAD_XREC_ROUNDTRIP
360
D16
  0
DICTIONARY
  5
D19
330
CB7
100
AcDbDictionary
280
     1
281
     1
  3
ACAD_XREC_ROUNDTRIP
360
D1A
  0
DICTIONARY
  5
D33
330
CC4
100
AcDbDictionary
280
     1
281
     1
  3
ACAD_XREC_ROUNDTRIP
360
D34
  0
DICTIONARY
  5
D21
330
CBB
100
AcDbDictionary
280
     1
281
     1
  3
ACAD_XREC_ROUNDTRIP
360
D22
  0
DICTIONARY
  5
D05
330
CAD
100
AcDbDictionary
280
     1
281
     1
  3
ACAD_XREC_ROUNDTRIP
360
D06
  0
DICTIONARY
  5
D07
330
CAE
100
AcDbDictionary
280
     1
281
     1
  3
ACAD_XREC_ROUNDTRIP
360
D08
  0
DICTIONARY
  5
D09
330
CAF
100
AcDbDictionary
280
     1
281
     1
  3
ACAD_XREC_ROUNDTRIP
360
D0A
  0
DICTIONARY
  5
D0B
330
CB0
100
AcDbDictionary
280
     1
281
     1
  3
ACAD_XREC_ROUNDTRIP
360
D0C
  0
DICTIONARY
  5
D13
330
CB4
100
AcDbDictionary
280
     1
281
     1
  3
ACAD_XREC_ROUNDTRIP
360
D14
  0
DICTIONARY
  5
D2F
330
CC2
100
AcDbDictionary
280
     1
281
     1
  3
ACAD_XREC_ROUNDTRIP
360
D30
  0
DICTIONARY
  5
D1F
330
CBA
100
AcDbDictionary
280
     1
281
     1
  3
ACAD_XREC_ROUNDTRIP
360
D20
  0
DICTIONARY
  5
D31
330
CC3
100
AcDbDictionary
280
     1
281
     1
  3
ACAD_XREC_ROUNDTRIP
360
D32
  0
DICTIONARY
  5
D17
330
CB6
100
AcDbDictionary
280
     1
281
     1
  3
ACAD_XREC_ROUNDTRIP
360
D18
  0
DICTIONARY
  5
D2D
330
CC1
100
AcDbDictionary
280
     1
281
     1
  3
ACAD_XREC_ROUNDTRIP
360
D2E
  0
DICTIONARY
  5
D2B
330
CC0
100
AcDbDictionary
280
     1
281
     1
  3
ACAD_XREC_ROUNDTRIP
360
D2C
  0
DICTIONARY
  5
D25
330
CBD
100
AcDbDictionary
280
     1
281
     1
  3
ACAD_XREC_ROUNDTRIP
360
D26
  0
DICTIONARY
  5
D27
330
CBE
100
AcDbDictionary
280
     1
281
     1
  3
ACAD_XREC_ROUNDTRIP
360
D28
  0
DICTIONARY
  5
D1D
330
CB9
100
AcDbDictionary
280
     1
281
     1
  3
ACAD_XREC_ROUNDTRIP
360
D1E
  0
DICTIONARY
  5
D11
330
CB3
100
AcDbDictionary
280
     1
281
     1
  3
ACAD_XREC_ROUNDTRIP
360
D12
  0
DICTIONARY
  5
D29
330
CBF
100
AcDbDictionary
280
     1
281
     1
  3
ACAD_XREC_ROUNDTRIP
360
D2A
  0
XRECORD
  5
D3A
102
{ACAD_REACTORS
330
D39
102
}
330
D39
100
AcDbXrecord
280
     1
102
DISPLAYNAME
  1
Imperial24
102
FLAGS
 90
        0
  0
XRECORD
  5
D3C
102
{ACAD_REACTORS
330
D3B
102
}
330
D3B
100
AcDbXrecord
280
     1
102
SHADEPLOT
 70
     0
102
SHADEPLOTRESLEVEL
 70
     2
102
SHADEPLOTCUSTOMDPI
 70
   300
  0
XRECORD
  5
D3E
102
{ACAD_REACTORS
330
D3D
102
}
330
D3D
100
AcDbXrecord
280
     1
102
SHADEPLOT
 70
     0
102
SHADEPLOTRESLEVEL
 70
     2
102
SHADEPLOTCUSTOMDPI
 70
   300
  0
XRECORD
  5
D03
102
{ACAD_REACTORS
330
C9D
102
}
330
C9D
100
AcDbXrecord
280
     1
102
MATERIAL
148
0.0
149
0.0
149
0.0
 93
        0
 94
      127
282
     0
 72
     0
 77
     0
171
     0
175
     0
179
     0
273
     0
  0
XRECORD
  5
C9F
102
{ACAD_REACTORS
330
C9D
102
}
330
C9D
100
AcDbXrecord
280
     1
270
     1
271
     1
  0
XRECORD
  5
C9E
102
{ACAD_REACTORS
330
C9D
102
}
330
C9D
100
AcDbXrecord
280
     1
270
     1
271
     1
  0
XRECORD
  5
CA2
102
{ACAD_REACTORS
330
C9D
102
}
330
C9D
100
AcDbXrecord
280
     1
270
     1
271
     1
  0
XRECORD
  5
CA1
102
{ACAD_REACTORS
330
C9D
102
}
330
C9D
100
AcDbXrecord
280
     1
270
     1
271
     1
  0
XRECORD
  5
CA3
102
{ACAD_REACTORS
330
C9D
102
}
330
C9D
100
AcDbXrecord
280
     1
270
     1
271
     1
  0
XRECORD
  5
CA0
102
{ACAD_REACTORS
330
C9D
102
}
330
C9D
100
AcDbXrecord
280
     1
270
     1
271
     1
  0
XRECORD
  5
D02
102
{ACAD_REACTORS
330
C95
102
}
330
C95
100
AcDbXrecord
280
     1
102
MATERIAL
148
0.0
149
0.0
149
0.0
 93
        0
 94
      127
282
     0
 72
     0
 77
     0
171
     0
175
     0
179
     0
273
     0
  0
XRECORD
  5
C97
102
{ACAD_REACTORS
330
C95
102
}
330
C95
100
AcDbXrecord
280
     1
270
     1
271
     1
  0
XRECORD
  5
C96
102
{ACAD_REACTORS
330
C95
102
}
330
C95
100
AcDbXrecord
280
     1
270
     1
271
     1
  0
XRECORD
  5
C9A
102
{ACAD_REACTORS
330
C95
102
}
330
C95
100
AcDbXrecord
280
     1
270
     1
271
     1
  0
XRECORD
  5
C99
102
{ACAD_REACTORS
330
C95
102
}
330
C95
100
AcDbXrecord
280
     1
270
     1
271
     1
  0
XRECORD
  5
C9B
102
{ACAD_REACTORS
330
C95
102
}
330
C95
100
AcDbXrecord
280
     1
270
     1
271
     1
  0
XRECORD
  5
C98
102
{ACAD_REACTORS
330
C95
102
}
330
C95
100
AcDbXrecord
280
     1
270
     1
271
     1
  0
XRECORD
  5
D04
102
{ACAD_REACTORS
330
CA5
102
}
330
CA5
100
AcDbXrecord
280
     1
102
MATERIAL
148
0.0
149
0.0
149
0.0
 93
        0
 94
      127
282
     0
 72
     0
 77
     0
171
     0
175
     0
179
     0
273
     0
  0
XRECORD
  5
CA7
102
{ACAD_REACTORS
330
CA5
102
}
330
CA5
100
AcDbXrecord
280
     1
270
     1
271
     1
  0
XRECORD
  5
CA6
102
{ACAD_REACTORS
330
CA5
102
}
330
CA5
100
AcDbXrecord
280
     1
270
     1
271
     1
  0
XRECORD
  5
CAA
102
{ACAD_REACTORS
330
CA5
102
}
330
CA5
100
AcDbXrecord
280
     1
270
     1
271
     1
  0
XRECORD
  5
CA9
102
{ACAD_REACTORS
330
CA5
102
}
330
CA5
100
AcDbXrecord
280
     1
270
     1
271
     1
  0
XRECORD
  5
CAB
102
{ACAD_REACTORS
330
CA5
102
}
330
CA5
100
AcDbXrecord
280
     1
270
     1
271
     1
  0
XRECORD
  5
CA8
102
{ACAD_REACTORS
330
CA5
102
}
330
CA5
100
AcDbXrecord
280
     1
270
     1
271
     1
  0
XRECORD
  5
D38
102
{ACAD_REACTORS
330
D37
102
}
330
D37
100
AcDbXrecord
280
     1
102
DISPLAYNAME
  1
Imperial24
102
FLAGS
 90
        0
  0
CELLSTYLEMAP
  5
CFF
102
{ACAD_REACTORS
330
CFE
102
}
330
CFE
100
AcDbCellStyleMap
 90
        3
300
CELLSTYLE
  1
TABLEFORMAT_BEGIN
 90
        5
170
     1
 91
        0
 92
    32768
 62
   257
 93
        1
300
CONTENTFORMAT
  1
CONTENTFORMAT_BEGIN
 90
        0
 91
        0
 92
      512
 93
        0
300

 40
0.0
140
1.0
 94
        5
 62
     0
340
F
144
0.25
309
CONTENTFORMAT_END
171
     0
 94
        0
309
TABLEFORMAT_END
  1
CELLSTYLE_BEGIN
 90
        1
 91
        1
300
_TITLE
309
CELLSTYLE_END
300
CELLSTYLE
  1
TABLEFORMAT_BEGIN
 90
        5
170
     1
 91
        0
 92
        0
 62
   257
 93
        1
300
CONTENTFORMAT
  1
CONTENTFORMAT_BEGIN
 90
        0
 91
        0
 92
      512
 93
        0
300

 40
0.0
140
1.0
 94
        5
 62
     0
340
F
144
0.18
309
CONTENTFORMAT_END
171
     0
 94
        0
309
TABLEFORMAT_END
  1
CELLSTYLE_BEGIN
 90
        2
 91
        1
300
_HEADER
309
CELLSTYLE_END
300
CELLSTYLE
  1
TABLEFORMAT_BEGIN
 90
        5
170
     1
 91
        0
 92
        0
 62
   257
 93
        1
300
CONTENTFORMAT
  1
CONTENTFORMAT_BEGIN
 90
        0
 91
        0
 92
      512
 93
        0
300

 40
0.0
140
1.0
 94
        2
 62
     0
340
F
144
0.18
309
CONTENTFORMAT_END
171
     0
 94
        0
309
TABLEFORMAT_END
  1
CELLSTYLE_BEGIN
 90
        3
 91
        2
300
_DATA
309
CELLSTYLE_END
  0
XRECORD
  5
D35
102
{ACAD_REACTORS
330
CFE
102
}
330
CFE
100
AcDbXrecord
280
     1
102
ACAD_ROUNDTRIP_PRE2007_TABLESTYLE
 90
      512
 91
        0
  1

 92
      512
 93
        0
  2

 94
      512
 95
        0
  3

  0
XRECORD
  5
D10
102
{ACAD_REACTORS
330
D0F
102
}
330
D0F
100
AcDbXrecord
280
     1
102
RTVSPost2010Prop28
280
     1
102
RTVSPost2010PropOp28
 70
     1
102
RTVSPost2010Prop29
280
     1
102
RTVSPost2010PropOp29
 70
     1
102
RTVSPost2010Prop30
280
     0
102
RTVSPost2010PropOp30
 70
     1
102
RTVSPost2010Prop31
280
     0
102
RTVSPost2010PropOp31
 70
     1
102
RTVSPost2010Prop32
280
     0
102
RTVSPost2010PropOp32
 70
     1
102
RTVSPost2010Prop33
280
     0
102
RTVSPost2010PropOp33
 70
     1
102
RTVSPost2010Prop34
280
     0
102
RTVSPost2010PropOp34
 70
     1
102
RTVSPost2010Prop35
280
     0
102
RTVSPost2010PropOp35
 70
     1
102
RTVSPost2010Prop36
280
     0
102
RTVSPost2010PropOp36
 70
     1
102
RTVSPost2010Prop37
 90
       50
102
RTVSPost2010PropOp37
 70
     1
102
RTVSPost2010Prop38
140
0.0
102
RTVSPost2010PropOp38
 70
     1
102
RTVSPost2010Prop39
140
1.0
102
RTVSPost2010PropOp39
 70
     1
102
RTVSPost2010Prop40
 90
        0
102
RTVSPost2010PropOp40
 70
     1
102
RTVSPost2010Prop41ColorIndex
 90
       18
102
RTVSPost2010Prop41ColorRGB
 90
        0
102
RTVSPost2010PropOp41
 70
     1
102
RTVSPost2010Prop42
 90
       50
102
RTVSPost2010PropOp42
 70
     1
102
RTVSPost2010Prop43
 90
        3
102
RTVSPost2010PropOp43
 70
     1
102
RTVSPost2010Prop44ColorIndex
 90
        5
102
RTVSPost2010Prop44ColorRGB
 90
      255
102
RTVSPost2010PropOp44
 70
     1
102
RTVSPost2010Prop45
280
     0
102
RTVSPost2010PropOp45
 70
     1
102
RTVSPost2010Prop46
 90
       50
102
RTVSPost2010PropOp46
 70
     1
102
RTVSPost2010Prop47
 90
       50
102
RTVSPost2010PropOp47
 70
     1
102
RTVSPost2010Prop48
 90
       50
102
RTVSPost2010PropOp48
 70
     1
102
RTVSPost2010Prop49
280
     0
102
RTVSPost2010PropOp49
 70
     1
102
RTVSPost2010Prop50
 90
       50
102
RTVSPost2010PropOp50
 70
     1
102
RTVSPost2010Prop51ColorIndex
 90
      256
102
RTVSPost2010Prop51ColorRGB
 90
-16777216
102
RTVSPost2010PropOp51
 70
     0
102
RTVSPost2010Prop52
140
1.0
102
RTVSPost2010PropOp52
 70
     0
102
RTVSPost2010Prop53
 90
        2
102
RTVSPost2010PropOp53
 70
     1
102
RTVSPost2010Prop54
  1
strokes_ogs.tif
102
RTVSPost2010PropOp54
 70
     1
102
RTVSPost2010Prop55
280
     0
102
RTVSPost2010PropOp55
 70
     1
102
RTVSPost2010Prop56
140
1.0
102
RTVSPost2010PropOp56
 70
     1
102
RTVSPost2010Prop57
140
1.0
102
RTVSPost2010PropOp57
 70
     1
102
RTVSPropertyOp0
 70
     1
102
RTVSPropertyOp1
 70
     1
102
RTVSPropertyOp2
 70
     1
102
RTVSPropertyOp3
 70
     1
102
RTVSPropertyOp4
 70
     1
102
RTVSPropertyOp5
 70
     1
102
RTVSPropertyOp6
 70
     1
102
RTVSPropertyOp7
 70
     1
102
RTVSPropertyOp8
 70
     1
102
RTVSPropertyOp9
 70
     1
102
RTVSPropertyOp10
 70
     1
102
RTVSPropertyOp11
 70
     1
102
RTVSPropertyOp12
 70
     1
102
RTVSPropertyOp13
 70
     1
102
RTVSPropertyOp14
 70
     1
102
RTVSPropertyOp15
 70
     1
102
RTVSPropertyOp16
 70
     1
102
RTVSPropertyOp17
 70
     1
102
RTVSPropertyOp18
 70
     1
102
RTVSPropertyOp19
 70
     1
102
RTVSPropertyOp20
 70
     1
102
RTVSPropertyOp21
 70
     1
102
RTVSPropertyOp22
 70
     1
102
RTVSPropertyOp23
 70
     1
102
RTVSPropertyOp24
 70
     1
102
RTVSPropertyOp25
 70
     1
102
RTVSPropertyOp26
 70
     1
102
RTVSPropertyOp27
 70
     1
102
RTVSPropertyOp28
 70
     1
102
RTVSPropertyOp29
 70
     1
102
RTVSPropertyOp30
 70
     1
102
RTVSPropertyOp31
 70
     1
102
RTVSPropertyOp32
 70
     1
102
RTVSPropertyOp33
 70
     1
102
RTVSPropertyOp34
 70
     1
102
RTVSPropertyOp35
 70
     1
102
RTVSPropertyOp36
 70
     1
102
RTVSPropertyOp37
 70
     1
102
RTVSPropertyOp38
 70
     1
102
RTVSPropertyOp39
 70
     1
102
RTVSPropertyOp40
 70
     1
102
RTVSPropertyOp41
 70
     1
102
RTVSPropertyOp42
 70
     1
102
RTVSPropertyOp43
 70
     1
102
RTVSPropertyOp44
 70
     1
102
RTVSPropertyOp45
 70
     1
102
RTVSPropertyOp46
 70
     1
102
RTVSPropertyOp47
 70
     1
102
RTVSPropertyOp48
 70
     1
102
RTVSPropertyOp49
 70
     1
102
RTVSPropertyOp50
 70
     1
102
RTVSPropertyOp51
 70
     0
102
RTVSPropertyOp52
 70
     0
102
RTVSPropertyOp53
 70
     1
102
RTVSPropertyOp54
 70
     1
102
RTVSPropertyOp55
 70
     1
102
RTVSPropertyOp56
 70
     1
102
RTVSPropertyOp57
 70
     1
102
RTVSPropertyOp58
 70
     1
102
RTVSPropertyOp59
 70
     1
102
RTVSPropertyOp60
 70
     1
102
RTVSPropertyOp61
 70
     1
102
RTVSPropertyOp62
 70
     1
  0
XRECORD
  5
D0E
102
{ACAD_REACTORS
330
D0D
102
}
330
D0D
100
AcDbXrecord
280
     1
102
RTVSPost2010Prop28
280
     0
102
RTVSPost2010PropOp28
 70
     1
102
RTVSPost2010Prop29
280
     1
102
RTVSPost2010PropOp29
 70
     1
102
RTVSPost2010Prop30
280
     1
102
RTVSPost2010PropOp30
 70
     1
102
RTVSPost2010Prop31
280
     0
102
RTVSPost2010PropOp31
 70
     1
102
RTVSPost2010Prop32
280
     0
102
RTVSPost2010PropOp32
 70
     1
102
RTVSPost2010Prop33
280
     0
102
RTVSPost2010PropOp33
 70
     1
102
RTVSPost2010Prop34
280
     0
102
RTVSPost2010PropOp34
 70
     1
102
RTVSPost2010Prop35
280
     0
102
RTVSPost2010PropOp35
 70
     1
102
RTVSPost2010Prop36
280
     0
102
RTVSPost2010PropOp36
 70
     1
102
RTVSPost2010Prop37
 90
       50
102
RTVSPost2010PropOp37
 70
     1
102
RTVSPost2010Prop38
140
0.0
102
RTVSPost2010PropOp38
 70
     1
102
RTVSPost2010Prop39
140
1.0
102
RTVSPost2010PropOp39
 70
     1
102
RTVSPost2010Prop40
 90
        0
102
RTVSPost2010PropOp40
 70
     1
102
RTVSPost2010Prop41ColorIndex
 90
       18
102
RTVSPost2010Prop41ColorRGB
 90
        0
102
RTVSPost2010PropOp41
 70
     1
102
RTVSPost2010Prop42
 90
       50
102
RTVSPost2010PropOp42
 70
     1
102
RTVSPost2010Prop43
 90
        3
102
RTVSPost2010PropOp43
 70
     1
102
RTVSPost2010Prop44ColorIndex
 90
        5
102
RTVSPost2010Prop44ColorRGB
 90
      255
102
RTVSPost2010PropOp44
 70
     1
102
RTVSPost2010Prop45
280
     0
102
RTVSPost2010PropOp45
 70
     1
102
RTVSPost2010Prop46
 90
       50
102
RTVSPost2010PropOp46
 70
     1
102
RTVSPost2010Prop47
 90
       50
102
RTVSPost2010PropOp47
 70
     1
102
RTVSPost2010Prop48
 90
       50
102
RTVSPost2010PropOp48
 70
     1
102
RTVSPost2010Prop49
280
     0
102
RTVSPost2010PropOp49
 70
     1
102
RTVSPost2010Prop50
 90
       50
102
RTVSPost2010PropOp50
 70
     1
102
RTVSPost2010Prop51ColorIndex
 90
      256
102
RTVSPost2010Prop51ColorRGB
 90
-16777216
102
RTVSPost2010PropOp51
 70
     0
102
RTVSPost2010Prop52
140
1.0
102
RTVSPost2010PropOp52
 70
     0
102
RTVSPost2010Prop53
 90
        2
102
RTVSPost2010PropOp53
 70
     1
102
RTVSPost2010Prop54
  1
strokes_ogs.tif
102
RTVSPost2010PropOp54
 70
     1
102
RTVSPost2010Prop55
280
     0
102
RTVSPost2010PropOp55
 70
     1
102
RTVSPost2010Prop56
140
1.0
102
RTVSPost2010PropOp56
 70
     1
102
RTVSPost2010Prop57
140
1.0
102
RTVSPost2010PropOp57
 70
     1
102
RTVSPropertyOp0
 70
     1
102
RTVSPropertyOp1
 70
     1
102
RTVSPropertyOp2
 70
     1
102
RTVSPropertyOp3
 70
     1
102
RTVSPropertyOp4
 70
     1
102
RTVSPropertyOp5
 70
     1
102
RTVSPropertyOp6
 70
     1
102
RTVSPropertyOp7
 70
     1
102
RTVSPropertyOp8
 70
     1
102
RTVSPropertyOp9
 70
     1
102
RTVSPropertyOp10
 70
     1
102
RTVSPropertyOp11
 70
     1
102
RTVSPropertyOp12
 70
     1
102
RTVSPropertyOp13
 70
     1
102
RTVSPropertyOp14
 70
     1
102
RTVSPropertyOp15
 70
     1
102
RTVSPropertyOp16
 70
     1
102
RTVSPropertyOp17
 70
     1
102
RTVSPropertyOp18
 70
     1
102
RTVSPropertyOp19
 70
     1
102
RTVSPropertyOp20
 70
     1
102
RTVSPropertyOp21
 70
     1
102
RTVSPropertyOp22
 70
     1
102
RTVSPropertyOp23
 70
     1
102
RTVSPropertyOp24
 70
     1
102
RTVSPropertyOp25
 70
     1
102
RTVSPropertyOp26
 70
     1
102
RTVSPropertyOp27
 70
     1
102
RTVSPropertyOp28
 70
     1
102
RTVSPropertyOp29
 70
     1
102
RTVSPropertyOp30
 70
     1
102
RTVSPropertyOp31
 70
     1
102
RTVSPropertyOp32
 70
     1
102
RTVSPropertyOp33
 70
     1
102
RTVSPropertyOp34
 70
     1
102
RTVSPropertyOp35
 70
     1
102
RTVSPropertyOp36
 70
     1
102
RTVSPropertyOp37
 70
     1
102
RTVSPropertyOp38
 70
     1
102
RTVSPropertyOp39
 70
     1
102
RTVSPropertyOp40
 70
     1
102
RTVSPropertyOp41
 70
     1
102
RTVSPropertyOp42
 70
     1
102
RTVSPropertyOp43
 70
     1
102
RTVSPropertyOp44
 70
     1
102
RTVSPropertyOp45
 70
     1
102
RTVSPropertyOp46
 70
     1
102
RTVSPropertyOp47
 70
     1
102
RTVSPropertyOp48
 70
     1
102
RTVSPropertyOp49
 70
     1
102
RTVSPropertyOp50
 70
     1
102
RTVSPropertyOp51
 70
     0
102
RTVSPropertyOp52
 70
     0
102
RTVSPropertyOp53
 70
     1
102
RTVSPropertyOp54
 70
     1
102
RTVSPropertyOp55
 70
     1
102
RTVSPropertyOp56
 70
     1
102
RTVSPropertyOp57
 70
     1
102
RTVSPropertyOp58
 70
     1
102
RTVSPropertyOp59
 70
     1
102
RTVSPropertyOp60
 70
     1
102
RTVSPropertyOp61
 70
     1
102
RTVSPropertyOp62
 70
     1
  0
XRECORD
  5
D1C
102
{ACAD_REACTORS
330
D1B
102
}
330
D1B
100
AcDbXrecord
280
     1
102
RTVSPost2010Prop28
280
     0
102
RTVSPost2010PropOp28
 70
     1
102
RTVSPost2010Prop29
280
     1
102
RTVSPost2010PropOp29
 70
     1
102
RTVSPost2010Prop30
280
     1
102
RTVSPost2010PropOp30
 70
     1
102
RTVSPost2010Prop31
280
     0
102
RTVSPost2010PropOp31
 70
     1
102
RTVSPost2010Prop32
280
     0
102
RTVSPost2010PropOp32
 70
     1
102
RTVSPost2010Prop33
280
     0
102
RTVSPost2010PropOp33
 70
     1
102
RTVSPost2010Prop34
280
     0
102
RTVSPost2010PropOp34
 70
     1
102
RTVSPost2010Prop35
280
     0
102
RTVSPost2010PropOp35
 70
     1
102
RTVSPost2010Prop36
280
     0
102
RTVSPost2010PropOp36
 70
     1
102
RTVSPost2010Prop37
 90
       50
102
RTVSPost2010PropOp37
 70
     1
102
RTVSPost2010Prop38
140
0.0
102
RTVSPost2010PropOp38
 70
     1
102
RTVSPost2010Prop39
140
1.0
102
RTVSPost2010PropOp39
 70
     1
102
RTVSPost2010Prop40
 90
        0
102
RTVSPost2010PropOp40
 70
     1
102
RTVSPost2010Prop41ColorIndex
 90
       18
102
RTVSPost2010Prop41ColorRGB
 90
        0
102
RTVSPost2010PropOp41
 70
     1
102
RTVSPost2010Prop42
 90
       50
102
RTVSPost2010PropOp42
 70
     1
102
RTVSPost2010Prop43
 90
        3
102
RTVSPost2010PropOp43
 70
     1
102
RTVSPost2010Prop44ColorIndex
 90
        5
102
RTVSPost2010Prop44ColorRGB
 90
      255
102
RTVSPost2010PropOp44
 70
     1
102
RTVSPost2010Prop45
280
     0
102
RTVSPost2010PropOp45
 70
     1
102
RTVSPost2010Prop46
 90
       50
102
RTVSPost2010PropOp46
 70
     1
102
RTVSPost2010Prop47
 90
       50
102
RTVSPost2010PropOp47
 70
     1
102
RTVSPost2010Prop48
 90
       50
102
RTVSPost2010PropOp48
 70
     1
102
RTVSPost2010Prop49
280
     0
102
RTVSPost2010PropOp49
 70
     1
102
RTVSPost2010Prop50
 90
       50
102
RTVSPost2010PropOp50
 70
     1
102
RTVSPost2010Prop51ColorIndex
 90
      256
102
RTVSPost2010Prop51ColorRGB
 90
-16777216
102
RTVSPost2010PropOp51
 70
     0
102
RTVSPost2010Prop52
140
1.0
102
RTVSPost2010PropOp52
 70
     0
102
RTVSPost2010Prop53
 90
        2
102
RTVSPost2010PropOp53
 70
     1
102
RTVSPost2010Prop54
  1
strokes_ogs.tif
102
RTVSPost2010PropOp54
 70
     1
102
RTVSPost2010Prop55
280
     0
102
RTVSPost2010PropOp55
 70
     1
102
RTVSPost2010Prop56
140
1.0
102
RTVSPost2010PropOp56
 70
     1
102
RTVSPost2010Prop57
140
1.0
102
RTVSPost2010PropOp57
 70
     1
102
RTVSPropertyOp0
 70
     1
102
RTVSPropertyOp1
 70
     1
102
RTVSPropertyOp2
 70
     1
102
RTVSPropertyOp3
 70
     1
102
RTVSPropertyOp4
 70
     1
102
RTVSPropertyOp5
 70
     1
102
RTVSPropertyOp6
 70
     1
102
RTVSPropertyOp7
 70
     1
102
RTVSPropertyOp8
 70
     1
102
RTVSPropertyOp9
 70
     1
102
RTVSPropertyOp10
 70
     1
102
RTVSPropertyOp11
 70
     1
102
RTVSPropertyOp12
 70
     1
102
RTVSPropertyOp13
 70
     1
102
RTVSPropertyOp14
 70
     1
102
RTVSPropertyOp15
 70
     1
102
RTVSPropertyOp16
 70
     1
102
RTVSPropertyOp17
 70
     1
102
RTVSPropertyOp18
 70
     1
102
RTVSPropertyOp19
 70
     1
102
RTVSPropertyOp20
 70
     1
102
RTVSPropertyOp21
 70
     1
102
RTVSPropertyOp22
 70
     1
102
RTVSPropertyOp23
 70
     1
102
RTVSPropertyOp24
 70
     1
102
RTVSPropertyOp25
 70
     1
102
RTVSPropertyOp26
 70
     1
102
RTVSPropertyOp27
 70
     1
102
RTVSPropertyOp28
 70
     1
102
RTVSPropertyOp29
 70
     1
102
RTVSPropertyOp30
 70
     1
102
RTVSPropertyOp31
 70
     1
102
RTVSPropertyOp32
 70
     1
102
RTVSPropertyOp33
 70
     1
102
RTVSPropertyOp34
 70
     1
102
RTVSPropertyOp35
 70
     1
102
RTVSPropertyOp36
 70
     1
102
RTVSPropertyOp37
 70
     1
102
RTVSPropertyOp38
 70
     1
102
RTVSPropertyOp39
 70
     1
102
RTVSPropertyOp40
 70
     1
102
RTVSPropertyOp41
 70
     1
102
RTVSPropertyOp42
 70
     1
102
RTVSPropertyOp43
 70
     1
102
RTVSPropertyOp44
 70
     1
102
RTVSPropertyOp45
 70
     1
102
RTVSPropertyOp46
 70
     1
102
RTVSPropertyOp47
 70
     1
102
RTVSPropertyOp48
 70
     1
102
RTVSPropertyOp49
 70
     1
102
RTVSPropertyOp50
 70
     1
102
RTVSPropertyOp51
 70
     0
102
RTVSPropertyOp52
 70
     0
102
RTVSPropertyOp53
 70
     1
102
RTVSPropertyOp54
 70
     1
102
RTVSPropertyOp55
 70
     1
102
RTVSPropertyOp56
 70
     1
102
RTVSPropertyOp57
 70
     1
102
RTVSPropertyOp58
 70
     1
102
RTVSPropertyOp59
 70
     1
102
RTVSPropertyOp60
 70
     1
102
RTVSPropertyOp61
 70
     1
102
RTVSPropertyOp62
 70
     1
  0
XRECORD
  5
D24
102
{ACAD_REACTORS
330
D23
102
}
330
D23
100
AcDbXrecord
280
     1
102
RTVSPost2010Prop28
280
     0
102
RTVSPost2010PropOp28
 70
     1
102
RTVSPost2010Prop29
280
     1
102
RTVSPost2010PropOp29
 70
     1
102
RTVSPost2010Prop30
280
     1
102
RTVSPost2010PropOp30
 70
     1
102
RTVSPost2010Prop31
280
     0
102
RTVSPost2010PropOp31
 70
     1
102
RTVSPost2010Prop32
280
     0
102
RTVSPost2010PropOp32
 70
     1
102
RTVSPost2010Prop33
280
     0
102
RTVSPost2010PropOp33
 70
     1
102
RTVSPost2010Prop34
280
     0
102
RTVSPost2010PropOp34
 70
     1
102
RTVSPost2010Prop35
280
     0
102
RTVSPost2010PropOp35
 70
     1
102
RTVSPost2010Prop36
280
     0
102
RTVSPost2010PropOp36
 70
     1
102
RTVSPost2010Prop37
 90
       50
102
RTVSPost2010PropOp37
 70
     1
102
RTVSPost2010Prop38
140
0.0
102
RTVSPost2010PropOp38
 70
     1
102
RTVSPost2010Prop39
140
1.0
102
RTVSPost2010PropOp39
 70
     1
102
RTVSPost2010Prop40
 90
        0
102
RTVSPost2010PropOp40
 70
     1
102
RTVSPost2010Prop41ColorIndex
 90
       18
102
RTVSPost2010Prop41ColorRGB
 90
        0
102
RTVSPost2010PropOp41
 70
     1
102
RTVSPost2010Prop42
 90
       50
102
RTVSPost2010PropOp42
 70
     1
102
RTVSPost2010Prop43
 90
        3
102
RTVSPost2010PropOp43
 70
     1
102
RTVSPost2010Prop44ColorIndex
 90
        5
102
RTVSPost2010Prop44ColorRGB
 90
      255
102
RTVSPost2010PropOp44
 70
     1
102
RTVSPost2010Prop45
280
     0
102
RTVSPost2010PropOp45
 70
     1
102
RTVSPost2010Prop46
 90
       50
102
RTVSPost2010PropOp46
 70
     1
102
RTVSPost2010Prop47
 90
       50
102
RTVSPost2010PropOp47
 70
     1
102
RTVSPost2010Prop48
 90
       50
102
RTVSPost2010PropOp48
 70
     1
102
RTVSPost2010Prop49
280
     0
102
RTVSPost2010PropOp49
 70
     1
102
RTVSPost2010Prop50
 90
       50
102
RTVSPost2010PropOp50
 70
     1
102
RTVSPost2010Prop51ColorIndex
 90
      256
102
RTVSPost2010Prop51ColorRGB
 90
-16777216
102
RTVSPost2010PropOp51
 70
     0
102
RTVSPost2010Prop52
140
1.0
102
RTVSPost2010PropOp52
 70
     0
102
RTVSPost2010Prop53
 90
        2
102
RTVSPost2010PropOp53
 70
     1
102
RTVSPost2010Prop54
  1
strokes_ogs.tif
102
RTVSPost2010PropOp54
 70
     1
102
RTVSPost2010Prop55
280
     0
102
RTVSPost2010PropOp55
 70
     1
102
RTVSPost2010Prop56
140
1.0
102
RTVSPost2010PropOp56
 70
     1
102
RTVSPost2010Prop57
140
1.0
102
RTVSPost2010PropOp57
 70
     1
102
RTVSPropertyOp0
 70
     1
102
RTVSPropertyOp1
 70
     1
102
RTVSPropertyOp2
 70
     1
102
RTVSPropertyOp3
 70
     1
102
RTVSPropertyOp4
 70
     1
102
RTVSPropertyOp5
 70
     1
102
RTVSPropertyOp6
 70
     1
102
RTVSPropertyOp7
 70
     1
102
RTVSPropertyOp8
 70
     1
102
RTVSPropertyOp9
 70
     1
102
RTVSPropertyOp10
 70
     1
102
RTVSPropertyOp11
 70
     1
102
RTVSPropertyOp12
 70
     1
102
RTVSPropertyOp13
 70
     1
102
RTVSPropertyOp14
 70
     1
102
RTVSPropertyOp15
 70
     1
102
RTVSPropertyOp16
 70
     1
102
RTVSPropertyOp17
 70
     1
102
RTVSPropertyOp18
 70
     1
102
RTVSPropertyOp19
 70
     1
102
RTVSPropertyOp20
 70
     1
102
RTVSPropertyOp21
 70
     1
102
RTVSPropertyOp22
 70
     1
102
RTVSPropertyOp23
 70
     1
102
RTVSPropertyOp24
 70
     1
102
RTVSPropertyOp25
 70
     1
102
RTVSPropertyOp26
 70
     1
102
RTVSPropertyOp27
 70
     1
102
RTVSPropertyOp28
 70
     1
102
RTVSPropertyOp29
 70
     1
102
RTVSPropertyOp30
 70
     1
102
RTVSPropertyOp31
 70
     1
102
RTVSPropertyOp32
 70
     1
102
RTVSPropertyOp33
 70
     1
102
RTVSPropertyOp34
 70
     1
102
RTVSPropertyOp35
 70
     1
102
RTVSPropertyOp36
 70
     1
102
RTVSPropertyOp37
 70
     1
102
RTVSPropertyOp38
 70
     1
102
RTVSPropertyOp39
 70
     1
102
RTVSPropertyOp40
 70
     1
102
RTVSPropertyOp41
 70
     1
102
RTVSPropertyOp42
 70
     1
102
RTVSPropertyOp43
 70
     1
102
RTVSPropertyOp44
 70
     1
102
RTVSPropertyOp45
 70
     1
102
RTVSPropertyOp46
 70
     1
102
RTVSPropertyOp47
 70
     1
102
RTVSPropertyOp48
 70
     1
102
RTVSPropertyOp49
 70
     1
102
RTVSPropertyOp50
 70
     1
102
RTVSPropertyOp51
 70
     0
102
RTVSPropertyOp52
 70
     0
102
RTVSPropertyOp53
 70
     1
102
RTVSPropertyOp54
 70
     1
102
RTVSPropertyOp55
 70
     1
102
RTVSPropertyOp56
 70
     1
102
RTVSPropertyOp57
 70
     1
102
RTVSPropertyOp58
 70
     1
102
RTVSPropertyOp59
 70
     1
102
RTVSPropertyOp60
 70
     1
102
RTVSPropertyOp61
 70
     1
102
RTVSPropertyOp62
 70
     1
  0
XRECORD
  5
D16
102
{ACAD_REACTORS
330
D15
102
}
330
D15
100
AcDbXrecord
280
     1
102
RTVSPost2010Prop28
280
     0
102
RTVSPost2010PropOp28
 70
     1
102
RTVSPost2010Prop29
280
     1
102
RTVSPost2010PropOp29
 70
     1
102
RTVSPost2010Prop30
280
     1
102
RTVSPost2010PropOp30
 70
     1
102
RTVSPost2010Prop31
280
     0
102
RTVSPost2010PropOp31
 70
     1
102
RTVSPost2010Prop32
280
     0
102
RTVSPost2010PropOp32
 70
     1
102
RTVSPost2010Prop33
280
     0
102
RTVSPost2010PropOp33
 70
     1
102
RTVSPost2010Prop34
280
     0
102
RTVSPost2010PropOp34
 70
     1
102
RTVSPost2010Prop35
280
     0
102
RTVSPost2010PropOp35
 70
     1
102
RTVSPost2010Prop36
280
     0
102
RTVSPost2010PropOp36
 70
     1
102
RTVSPost2010Prop37
 90
       50
102
RTVSPost2010PropOp37
 70
     1
102
RTVSPost2010Prop38
140
0.0
102
RTVSPost2010PropOp38
 70
     1
102
RTVSPost2010Prop39
140
1.0
102
RTVSPost2010PropOp39
 70
     1
102
RTVSPost2010Prop40
 90
        0
102
RTVSPost2010PropOp40
 70
     1
102
RTVSPost2010Prop41ColorIndex
 90
       18
102
RTVSPost2010Prop41ColorRGB
 90
        0
102
RTVSPost2010PropOp41
 70
     1
102
RTVSPost2010Prop42
 90
       50
102
RTVSPost2010PropOp42
 70
     1
102
RTVSPost2010Prop43
 90
        3
102
RTVSPost2010PropOp43
 70
     1
102
RTVSPost2010Prop44ColorIndex
 90
        5
102
RTVSPost2010Prop44ColorRGB
 90
      255
102
RTVSPost2010PropOp44
 70
     1
102
RTVSPost2010Prop45
280
     0
102
RTVSPost2010PropOp45
 70
     1
102
RTVSPost2010Prop46
 90
       50
102
RTVSPost2010PropOp46
 70
     1
102
RTVSPost2010Prop47
 90
       50
102
RTVSPost2010PropOp47
 70
     1
102
RTVSPost2010Prop48
 90
       50
102
RTVSPost2010PropOp48
 70
     1
102
RTVSPost2010Prop49
280
     0
102
RTVSPost2010PropOp49
 70
     1
102
RTVSPost2010Prop50
 90
       50
102
RTVSPost2010PropOp50
 70
     1
102
RTVSPost2010Prop51ColorIndex
 90
      256
102
RTVSPost2010Prop51ColorRGB
 90
-16777216
102
RTVSPost2010PropOp51
 70
     0
102
RTVSPost2010Prop52
140
1.0
102
RTVSPost2010PropOp52
 70
     0
102
RTVSPost2010Prop53
 90
        2
102
RTVSPost2010PropOp53
 70
     1
102
RTVSPost2010Prop54
  1
strokes_ogs.tif
102
RTVSPost2010PropOp54
 70
     1
102
RTVSPost2010Prop55
280
     0
102
RTVSPost2010PropOp55
 70
     1
102
RTVSPost2010Prop56
140
1.0
102
RTVSPost2010PropOp56
 70
     1
102
RTVSPost2010Prop57
140
1.0
102
RTVSPost2010PropOp57
 70
     1
102
RTVSPropertyOp0
 70
     1
102
RTVSPropertyOp1
 70
     1
102
RTVSPropertyOp2
 70
     1
102
RTVSPropertyOp3
 70
     1
102
RTVSPropertyOp4
 70
     1
102
RTVSPropertyOp5
 70
     1
102
RTVSPropertyOp6
 70
     1
102
RTVSPropertyOp7
 70
     1
102
RTVSPropertyOp8
 70
     1
102
RTVSPropertyOp9
 70
     1
102
RTVSPropertyOp10
 70
     1
102
RTVSPropertyOp11
 70
     1
102
RTVSPropertyOp12
 70
     1
102
RTVSPropertyOp13
 70
     1
102
RTVSPropertyOp14
 70
     1
102
RTVSPropertyOp15
 70
     1
102
RTVSPropertyOp16
 70
     1
102
RTVSPropertyOp17
 70
     1
102
RTVSPropertyOp18
 70
     1
102
RTVSPropertyOp19
 70
     1
102
RTVSPropertyOp20
 70
     1
102
RTVSPropertyOp21
 70
     1
102
RTVSPropertyOp22
 70
     1
102
RTVSPropertyOp23
 70
     1
102
RTVSPropertyOp24
 70
     1
102
RTVSPropertyOp25
 70
     1
102
RTVSPropertyOp26
 70
     1
102
RTVSPropertyOp27
 70
     1
102
RTVSPropertyOp28
 70
     1
102
RTVSPropertyOp29
 70
     1
102
RTVSPropertyOp30
 70
     1
102
RTVSPropertyOp31
 70
     1
102
RTVSPropertyOp32
 70
     1
102
RTVSPropertyOp33
 70
     1
102
RTVSPropertyOp34
 70
     1
102
RTVSPropertyOp35
 70
     1
102
RTVSPropertyOp36
 70
     1
102
RTVSPropertyOp37
 70
     1
102
RTVSPropertyOp38
 70
     1
102
RTVSPropertyOp39
 70
     1
102
RTVSPropertyOp40
 70
     1
102
RTVSPropertyOp41
 70
     1
102
RTVSPropertyOp42
 70
     1
102
RTVSPropertyOp43
 70
     1
102
RTVSPropertyOp44
 70
     1
102
RTVSPropertyOp45
 70
     1
102
RTVSPropertyOp46
 70
     1
102
RTVSPropertyOp47
 70
     1
102
RTVSPropertyOp48
 70
     1
102
RTVSPropertyOp49
 70
     1
102
RTVSPropertyOp50
 70
     1
102
RTVSPropertyOp51
 70
     0
102
RTVSPropertyOp52
 70
     0
102
RTVSPropertyOp53
 70
     1
102
RTVSPropertyOp54
 70
     1
102
RTVSPropertyOp55
 70
     1
102
RTVSPropertyOp56
 70
     1
102
RTVSPropertyOp57
 70
     1
102
RTVSPropertyOp58
 70
     1
102
RTVSPropertyOp59
 70
     1
102
RTVSPropertyOp60
 70
     1
102
RTVSPropertyOp61
 70
     1
102
RTVSPropertyOp62
 70
     1
  0
XRECORD
  5
D1A
102
{ACAD_REACTORS
330
D19
102
}
330
D19
100
AcDbXrecord
280
     1
102
RTVSPost2010Prop28
280
     0
102
RTVSPost2010PropOp28
 70
     1
102
RTVSPost2010Prop29
280
     1
102
RTVSPost2010PropOp29
 70
     1
102
RTVSPost2010Prop30
280
     1
102
RTVSPost2010PropOp30
 70
     1
102
RTVSPost2010Prop31
280
     0
102
RTVSPost2010PropOp31
 70
     1
102
RTVSPost2010Prop32
280
     0
102
RTVSPost2010PropOp32
 70
     1
102
RTVSPost2010Prop33
280
     0
102
RTVSPost2010PropOp33
 70
     1
102
RTVSPost2010Prop34
280
     0
102
RTVSPost2010PropOp34
 70
     1
102
RTVSPost2010Prop35
280
     0
102
RTVSPost2010PropOp35
 70
     1
102
RTVSPost2010Prop36
280
     0
102
RTVSPost2010PropOp36
 70
     1
102
RTVSPost2010Prop37
 90
       50
102
RTVSPost2010PropOp37
 70
     1
102
RTVSPost2010Prop38
140
0.0
102
RTVSPost2010PropOp38
 70
     1
102
RTVSPost2010Prop39
140
1.0
102
RTVSPost2010PropOp39
 70
     1
102
RTVSPost2010Prop40
 90
        0
102
RTVSPost2010PropOp40
 70
     1
102
RTVSPost2010Prop41ColorIndex
 90
       18
102
RTVSPost2010Prop41ColorRGB
 90
        0
102
RTVSPost2010PropOp41
 70
     1
102
RTVSPost2010Prop42
 90
       50
102
RTVSPost2010PropOp42
 70
     1
102
RTVSPost2010Prop43
 90
        3
102
RTVSPost2010PropOp43
 70
     1
102
RTVSPost2010Prop44ColorIndex
 90
        5
102
RTVSPost2010Prop44ColorRGB
 90
      255
102
RTVSPost2010PropOp44
 70
     1
102
RTVSPost2010Prop45
280
     0
102
RTVSPost2010PropOp45
 70
     1
102
RTVSPost2010Prop46
 90
       50
102
RTVSPost2010PropOp46
 70
     1
102
RTVSPost2010Prop47
 90
       50
102
RTVSPost2010PropOp47
 70
     1
102
RTVSPost2010Prop48
 90
       50
102
RTVSPost2010PropOp48
 70
     1
102
RTVSPost2010Prop49
280
     0
102
RTVSPost2010PropOp49
 70
     1
102
RTVSPost2010Prop50
 90
       50
102
RTVSPost2010PropOp50
 70
     1
102
RTVSPost2010Prop51ColorIndex
 90
      256
102
RTVSPost2010Prop51ColorRGB
 90
-16777216
102
RTVSPost2010PropOp51
 70
     0
102
RTVSPost2010Prop52
140
1.0
102
RTVSPost2010PropOp52
 70
     0
102
RTVSPost2010Prop53
 90
        2
102
RTVSPost2010PropOp53
 70
     1
102
RTVSPost2010Prop54
  1
strokes_ogs.tif
102
RTVSPost2010PropOp54
 70
     1
102
RTVSPost2010Prop55
280
     0
102
RTVSPost2010PropOp55
 70
     1
102
RTVSPost2010Prop56
140
1.0
102
RTVSPost2010PropOp56
 70
     1
102
RTVSPost2010Prop57
140
1.0
102
RTVSPost2010PropOp57
 70
     1
102
RTVSPropertyOp0
 70
     1
102
RTVSPropertyOp1
 70
     1
102
RTVSPropertyOp2
 70
     1
102
RTVSPropertyOp3
 70
     1
102
RTVSPropertyOp4
 70
     1
102
RTVSPropertyOp5
 70
     1
102
RTVSPropertyOp6
 70
     1
102
RTVSPropertyOp7
 70
     1
102
RTVSPropertyOp8
 70
     1
102
RTVSPropertyOp9
 70
     1
102
RTVSPropertyOp10
 70
     1
102
RTVSPropertyOp11
 70
     1
102
RTVSPropertyOp12
 70
     1
102
RTVSPropertyOp13
 70
     1
102
RTVSPropertyOp14
 70
     1
102
RTVSPropertyOp15
 70
     1
102
RTVSPropertyOp16
 70
     1
102
RTVSPropertyOp17
 70
     1
102
RTVSPropertyOp18
 70
     1
102
RTVSPropertyOp19
 70
     1
102
RTVSPropertyOp20
 70
     1
102
RTVSPropertyOp21
 70
     1
102
RTVSPropertyOp22
 70
     1
102
RTVSPropertyOp23
 70
     1
102
RTVSPropertyOp24
 70
     1
102
RTVSPropertyOp25
 70
     1
102
RTVSPropertyOp26
 70
     1
102
RTVSPropertyOp27
 70
     1
102
RTVSPropertyOp28
 70
     1
102
RTVSPropertyOp29
 70
     1
102
RTVSPropertyOp30
 70
     1
102
RTVSPropertyOp31
 70
     1
102
RTVSPropertyOp32
 70
     1
102
RTVSPropertyOp33
 70
     1
102
RTVSPropertyOp34
 70
     1
102
RTVSPropertyOp35
 70
     1
102
RTVSPropertyOp36
 70
     1
102
RTVSPropertyOp37
 70
     1
102
RTVSPropertyOp38
 70
     1
102
RTVSPropertyOp39
 70
     1
102
RTVSPropertyOp40
 70
     1
102
RTVSPropertyOp41
 70
     1
102
RTVSPropertyOp42
 70
     1
102
RTVSPropertyOp43
 70
     1
102
RTVSPropertyOp44
 70
     1
102
RTVSPropertyOp45
 70
     1
102
RTVSPropertyOp46
 70
     1
102
RTVSPropertyOp47
 70
     1
102
RTVSPropertyOp48
 70
     1
102
RTVSPropertyOp49
 70
     1
102
RTVSPropertyOp50
 70
     1
102
RTVSPropertyOp51
 70
     0
102
RTVSPropertyOp52
 70
     0
102
RTVSPropertyOp53
 70
     1
102
RTVSPropertyOp54
 70
     1
102
RTVSPropertyOp55
 70
     1
102
RTVSPropertyOp56
 70
     1
102
RTVSPropertyOp57
 70
     1
102
RTVSPropertyOp58
 70
     1
102
RTVSPropertyOp59
 70
     1
102
RTVSPropertyOp60
 70
     1
102
RTVSPropertyOp61
 70
     1
102
RTVSPropertyOp62
 70
     1
  0
XRECORD
  5
D34
102
{ACAD_REACTORS
330
D33
102
}
330
D33
100
AcDbXrecord
280
     1
102
RTVSPost2010Prop28
280
     0
102
RTVSPost2010PropOp28
 70
     1
102
RTVSPost2010Prop29
280
     1
102
RTVSPost2010PropOp29
 70
     1
102
RTVSPost2010Prop30
280
     1
102
RTVSPost2010PropOp30
 70
     1
102
RTVSPost2010Prop31
280
     0
102
RTVSPost2010PropOp31
 70
     1
102
RTVSPost2010Prop32
280
     0
102
RTVSPost2010PropOp32
 70
     1
102
RTVSPost2010Prop33
280
     0
102
RTVSPost2010PropOp33
 70
     1
102
RTVSPost2010Prop34
280
     0
102
RTVSPost2010PropOp34
 70
     1
102
RTVSPost2010Prop35
280
     0
102
RTVSPost2010PropOp35
 70
     1
102
RTVSPost2010Prop36
280
     0
102
RTVSPost2010PropOp36
 70
     1
102
RTVSPost2010Prop37
 90
       50
102
RTVSPost2010PropOp37
 70
     0
102
RTVSPost2010Prop38
140
0.0
102
RTVSPost2010PropOp38
 70
     0
102
RTVSPost2010Prop39
140
1.0
102
RTVSPost2010PropOp39
 70
     0
102
RTVSPost2010Prop40
 90
        0
102
RTVSPost2010PropOp40
 70
     0
102
RTVSPost2010Prop41ColorIndex
 90
       18
102
RTVSPost2010Prop41ColorRGB
 90
        0
102
RTVSPost2010PropOp41
 70
     0
102
RTVSPost2010Prop42
 90
       50
102
RTVSPost2010PropOp42
 70
     0
102
RTVSPost2010Prop43
 90
        3
102
RTVSPost2010PropOp43
 70
     0
102
RTVSPost2010Prop44ColorIndex
 90
        5
102
RTVSPost2010Prop44ColorRGB
 90
      255
102
RTVSPost2010PropOp44
 70
     0
102
RTVSPost2010Prop45
280
     0
102
RTVSPost2010PropOp45
 70
     1
102
RTVSPost2010Prop46
 90
       50
102
RTVSPost2010PropOp46
 70
     0
102
RTVSPost2010Prop47
 90
       50
102
RTVSPost2010PropOp47
 70
     0
102
RTVSPost2010Prop48
 90
       50
102
RTVSPost2010PropOp48
 70
     0
102
RTVSPost2010Prop49
280
     0
102
RTVSPost2010PropOp49
 70
     1
102
RTVSPost2010Prop50
 90
       50
102
RTVSPost2010PropOp50
 70
     0
102
RTVSPost2010Prop51ColorIndex
 90
      256
102
RTVSPost2010Prop51ColorRGB
 90
-16777216
102
RTVSPost2010PropOp51
 70
     0
102
RTVSPost2010Prop52
140
1.0
102
RTVSPost2010PropOp52
 70
     0
102
RTVSPost2010Prop53
 90
        2
102
RTVSPost2010PropOp53
 70
     0
102
RTVSPost2010Prop54
  1
strokes_ogs.tif
102
RTVSPost2010PropOp54
 70
     0
102
RTVSPost2010Prop55
280
     0
102
RTVSPost2010PropOp55
 70
     1
102
RTVSPost2010Prop56
140
1.0
102
RTVSPost2010PropOp56
 70
     0
102
RTVSPost2010Prop57
140
1.0
102
RTVSPost2010PropOp57
 70
     0
102
RTVSPropertyOp0
 70
     0
102
RTVSPropertyOp1
 70
     0
102
RTVSPropertyOp2
 70
     0
102
RTVSPropertyOp3
 70
     0
102
RTVSPropertyOp4
 70
     0
102
RTVSPropertyOp5
 70
     0
102
RTVSPropertyOp6
 70
     0
102
RTVSPropertyOp7
 70
     0
102
RTVSPropertyOp8
 70
     0
102
RTVSPropertyOp9
 70
     0
102
RTVSPropertyOp10
 70
     0
102
RTVSPropertyOp11
 70
     0
102
RTVSPropertyOp12
 70
     0
102
RTVSPropertyOp13
 70
     0
102
RTVSPropertyOp14
 70
     2
102
RTVSPropertyOp15
 70
     0
102
RTVSPropertyOp16
 70
     0
102
RTVSPropertyOp17
 70
     0
102
RTVSPropertyOp18
 70
     0
102
RTVSPropertyOp19
 70
     0
102
RTVSPropertyOp20
 70
     0
102
RTVSPropertyOp21
 70
     0
102
RTVSPropertyOp22
 70
     0
102
RTVSPropertyOp23
 70
     0
102
RTVSPropertyOp24
 70
     0
102
RTVSPropertyOp25
 70
     0
102
RTVSPropertyOp26
 70
     0
102
RTVSPropertyOp27
 70
     0
102
RTVSPropertyOp28
 70
     1
102
RTVSPropertyOp29
 70
     1
102
RTVSPropertyOp30
 70
     1
102
RTVSPropertyOp31
 70
     1
102
RTVSPropertyOp32
 70
     1
102
RTVSPropertyOp33
 70
     1
102
RTVSPropertyOp34
 70
     1
102
RTVSPropertyOp35
 70
     1
102
RTVSPropertyOp36
 70
     1
102
RTVSPropertyOp37
 70
     0
102
RTVSPropertyOp38
 70
     0
102
RTVSPropertyOp39
 70
     0
102
RTVSPropertyOp40
 70
     0
102
RTVSPropertyOp41
 70
     0
102
RTVSPropertyOp42
 70
     0
102
RTVSPropertyOp43
 70
     0
102
RTVSPropertyOp44
 70
     0
102
RTVSPropertyOp45
 70
     1
102
RTVSPropertyOp46
 70
     0
102
RTVSPropertyOp47
 70
     0
102
RTVSPropertyOp48
 70
     0
102
RTVSPropertyOp49
 70
     1
102
RTVSPropertyOp50
 70
     0
102
RTVSPropertyOp51
 70
     0
102
RTVSPropertyOp52
 70
     0
102
RTVSPropertyOp53
 70
     0
102
RTVSPropertyOp54
 70
     0
102
RTVSPropertyOp55
 70
     1
102
RTVSPropertyOp56
 70
     0
102
RTVSPropertyOp57
 70
     0
102
RTVSPropertyOp58
 70
     0
102
RTVSPropertyOp59
 70
     0
102
RTVSPropertyOp60
 70
     0
102
RTVSPropertyOp61
 70
     0
102
RTVSPropertyOp62
 70
     0
  0
XRECORD
  5
D22
102
{ACAD_REACTORS
330
D21
102
}
330
D21
100
AcDbXrecord
280
     1
102
RTVSPost2010Prop28
280
     0
102
RTVSPost2010PropOp28
 70
     1
102
RTVSPost2010Prop29
280
     1
102
RTVSPost2010PropOp29
 70
     1
102
RTVSPost2010Prop30
280
     1
102
RTVSPost2010PropOp30
 70
     1
102
RTVSPost2010Prop31
280
     0
102
RTVSPost2010PropOp31
 70
     1
102
RTVSPost2010Prop32
280
     0
102
RTVSPost2010PropOp32
 70
     1
102
RTVSPost2010Prop33
280
     0
102
RTVSPost2010PropOp33
 70
     1
102
RTVSPost2010Prop34
280
     0
102
RTVSPost2010PropOp34
 70
     1
102
RTVSPost2010Prop35
280
     0
102
RTVSPost2010PropOp35
 70
     1
102
RTVSPost2010Prop36
280
     0
102
RTVSPost2010PropOp36
 70
     1
102
RTVSPost2010Prop37
 90
       50
102
RTVSPost2010PropOp37
 70
     1
102
RTVSPost2010Prop38
140
0.0
102
RTVSPost2010PropOp38
 70
     1
102
RTVSPost2010Prop39
140
1.0
102
RTVSPost2010PropOp39
 70
     1
102
RTVSPost2010Prop40
 90
        0
102
RTVSPost2010PropOp40
 70
     1
102
RTVSPost2010Prop41ColorIndex
 90
       18
102
RTVSPost2010Prop41ColorRGB
 90
        0
102
RTVSPost2010PropOp41
 70
     1
102
RTVSPost2010Prop42
 90
       50
102
RTVSPost2010PropOp42
 70
     1
102
RTVSPost2010Prop43
 90
        3
102
RTVSPost2010PropOp43
 70
     1
102
RTVSPost2010Prop44ColorIndex
 90
        5
102
RTVSPost2010Prop44ColorRGB
 90
      255
102
RTVSPost2010PropOp44
 70
     1
102
RTVSPost2010Prop45
280
     0
102
RTVSPost2010PropOp45
 70
     1
102
RTVSPost2010Prop46
 90
       50
102
RTVSPost2010PropOp46
 70
     1
102
RTVSPost2010Prop47
 90
       50
102
RTVSPost2010PropOp47
 70
     1
102
RTVSPost2010Prop48
 90
       50
102
RTVSPost2010PropOp48
 70
     1
102
RTVSPost2010Prop49
280
     0
102
RTVSPost2010PropOp49
 70
     1
102
RTVSPost2010Prop50
 90
       50
102
RTVSPost2010PropOp50
 70
     1
102
RTVSPost2010Prop51ColorIndex
 90
      256
102
RTVSPost2010Prop51ColorRGB
 90
-16777216
102
RTVSPost2010PropOp51
 70
     0
102
RTVSPost2010Prop52
140
1.0
102
RTVSPost2010PropOp52
 70
     0
102
RTVSPost2010Prop53
 90
        2
102
RTVSPost2010PropOp53
 70
     1
102
RTVSPost2010Prop54
  1
strokes_ogs.tif
102
RTVSPost2010PropOp54
 70
     1
102
RTVSPost2010Prop55
280
     0
102
RTVSPost2010PropOp55
 70
     1
102
RTVSPost2010Prop56
140
1.0
102
RTVSPost2010PropOp56
 70
     1
102
RTVSPost2010Prop57
140
1.0
102
RTVSPost2010PropOp57
 70
     1
102
RTVSPropertyOp0
 70
     1
102
RTVSPropertyOp1
 70
     1
102
RTVSPropertyOp2
 70
     1
102
RTVSPropertyOp3
 70
     1
102
RTVSPropertyOp4
 70
     1
102
RTVSPropertyOp5
 70
     1
102
RTVSPropertyOp6
 70
     1
102
RTVSPropertyOp7
 70
     1
102
RTVSPropertyOp8
 70
     1
102
RTVSPropertyOp9
 70
     1
102
RTVSPropertyOp10
 70
     1
102
RTVSPropertyOp11
 70
     1
102
RTVSPropertyOp12
 70
     1
102
RTVSPropertyOp13
 70
     1
102
RTVSPropertyOp14
 70
     1
102
RTVSPropertyOp15
 70
     1
102
RTVSPropertyOp16
 70
     1
102
RTVSPropertyOp17
 70
     1
102
RTVSPropertyOp18
 70
     1
102
RTVSPropertyOp19
 70
     1
102
RTVSPropertyOp20
 70
     1
102
RTVSPropertyOp21
 70
     1
102
RTVSPropertyOp22
 70
     1
102
RTVSPropertyOp23
 70
     1
102
RTVSPropertyOp24
 70
     1
102
RTVSPropertyOp25
 70
     1
102
RTVSPropertyOp26
 70
     1
102
RTVSPropertyOp27
 70
     1
102
RTVSPropertyOp28
 70
     1
102
RTVSPropertyOp29
 70
     1
102
RTVSPropertyOp30
 70
     1
102
RTVSPropertyOp31
 70
     1
102
RTVSPropertyOp32
 70
     1
102
RTVSPropertyOp33
 70
     1
102
RTVSPropertyOp34
 70
     1
102
RTVSPropertyOp35
 70
     1
102
RTVSPropertyOp36
 70
     1
102
RTVSPropertyOp37
 70
     1
102
RTVSPropertyOp38
 70
     1
102
RTVSPropertyOp39
 70
     1
102
RTVSPropertyOp40
 70
     1
102
RTVSPropertyOp41
 70
     1
102
RTVSPropertyOp42
 70
     1
102
RTVSPropertyOp43
 70
     1
102
RTVSPropertyOp44
 70
     1
102
RTVSPropertyOp45
 70
     1
102
RTVSPropertyOp46
 70
     1
102
RTVSPropertyOp47
 70
     1
102
RTVSPropertyOp48
 70
     1
102
RTVSPropertyOp49
 70
     1
102
RTVSPropertyOp50
 70
     1
102
RTVSPropertyOp51
 70
     0
102
RTVSPropertyOp52
 70
     0
102
RTVSPropertyOp53
 70
     1
102
RTVSPropertyOp54
 70
     1
102
RTVSPropertyOp55
 70
     1
102
RTVSPropertyOp56
 70
     1
102
RTVSPropertyOp57
 70
     1
102
RTVSPropertyOp58
 70
     1
102
RTVSPropertyOp59
 70
     1
102
RTVSPropertyOp60
 70
     1
102
RTVSPropertyOp61
 70
     1
102
RTVSPropertyOp62
 70
     1
  0
XRECORD
  5
D06
102
{ACAD_REACTORS
330
D05
102
}
330
D05
100
AcDbXrecord
280
     1
102
RTVSPost2010Prop28
280
     0
102
RTVSPost2010PropOp28
 70
     1
102
RTVSPost2010Prop29
280
     1
102
RTVSPost2010PropOp29
 70
     1
102
RTVSPost2010Prop30
280
     1
102
RTVSPost2010PropOp30
 70
     1
102
RTVSPost2010Prop31
280
     0
102
RTVSPost2010PropOp31
 70
     1
102
RTVSPost2010Prop32
280
     0
102
RTVSPost2010PropOp32
 70
     1
102
RTVSPost2010Prop33
280
     0
102
RTVSPost2010PropOp33
 70
     1
102
RTVSPost2010Prop34
280
     0
102
RTVSPost2010PropOp34
 70
     1
102
RTVSPost2010Prop35
280
     0
102
RTVSPost2010PropOp35
 70
     1
102
RTVSPost2010Prop36
280
     0
102
RTVSPost2010PropOp36
 70
     1
102
RTVSPost2010Prop37
 90
       50
102
RTVSPost2010PropOp37
 70
     1
102
RTVSPost2010Prop38
140
0.0
102
RTVSPost2010PropOp38
 70
     1
102
RTVSPost2010Prop39
140
1.0
102
RTVSPost2010PropOp39
 70
     1
102
RTVSPost2010Prop40
 90
        0
102
RTVSPost2010PropOp40
 70
     1
102
RTVSPost2010Prop41ColorIndex
 90
       18
102
RTVSPost2010Prop41ColorRGB
 90
        0
102
RTVSPost2010PropOp41
 70
     1
102
RTVSPost2010Prop42
 90
       50
102
RTVSPost2010PropOp42
 70
     1
102
RTVSPost2010Prop43
 90
        3
102
RTVSPost2010PropOp43
 70
     1
102
RTVSPost2010Prop44ColorIndex
 90
        5
102
RTVSPost2010Prop44ColorRGB
 90
      255
102
RTVSPost2010PropOp44
 70
     1
102
RTVSPost2010Prop45
280
     0
102
RTVSPost2010PropOp45
 70
     1
102
RTVSPost2010Prop46
 90
       50
102
RTVSPost2010PropOp46
 70
     1
102
RTVSPost2010Prop47
 90
       50
102
RTVSPost2010PropOp47
 70
     1
102
RTVSPost2010Prop48
 90
       50
102
RTVSPost2010PropOp48
 70
     1
102
RTVSPost2010Prop49
280
     0
102
RTVSPost2010PropOp49
 70
     1
102
RTVSPost2010Prop50
 90
       50
102
RTVSPost2010PropOp50
 70
     1
102
RTVSPost2010Prop51ColorIndex
 90
      256
102
RTVSPost2010Prop51ColorRGB
 90
-16777216
102
RTVSPost2010PropOp51
 70
     0
102
RTVSPost2010Prop52
140
1.0
102
RTVSPost2010PropOp52
 70
     0
102
RTVSPost2010Prop53
 90
        2
102
RTVSPost2010PropOp53
 70
     1
102
RTVSPost2010Prop54
  1
strokes_ogs.tif
102
RTVSPost2010PropOp54
 70
     1
102
RTVSPost2010Prop55
280
     0
102
RTVSPost2010PropOp55
 70
     1
102
RTVSPost2010Prop56
140
1.0
102
RTVSPost2010PropOp56
 70
     1
102
RTVSPost2010Prop57
140
1.0
102
RTVSPost2010PropOp57
 70
     1
102
RTVSPropertyOp0
 70
     1
102
RTVSPropertyOp1
 70
     1
102
RTVSPropertyOp2
 70
     1
102
RTVSPropertyOp3
 70
     1
102
RTVSPropertyOp4
 70
     1
102
RTVSPropertyOp5
 70
     1
102
RTVSPropertyOp6
 70
     1
102
RTVSPropertyOp7
 70
     1
102
RTVSPropertyOp8
 70
     1
102
RTVSPropertyOp9
 70
     1
102
RTVSPropertyOp10
 70
     1
102
RTVSPropertyOp11
 70
     1
102
RTVSPropertyOp12
 70
     1
102
RTVSPropertyOp13
 70
     1
102
RTVSPropertyOp14
 70
     1
102
RTVSPropertyOp15
 70
     1
102
RTVSPropertyOp16
 70
     1
102
RTVSPropertyOp17
 70
     1
102
RTVSPropertyOp18
 70
     1
102
RTVSPropertyOp19
 70
     1
102
RTVSPropertyOp20
 70
     1
102
RTVSPropertyOp21
 70
     1
102
RTVSPropertyOp22
 70
     1
102
RTVSPropertyOp23
 70
     1
102
RTVSPropertyOp24
 70
     1
102
RTVSPropertyOp25
 70
     1
102
RTVSPropertyOp26
 70
     1
102
RTVSPropertyOp27
 70
     1
102
RTVSPropertyOp28
 70
     1
102
RTVSPropertyOp29
 70
     1
102
RTVSPropertyOp30
 70
     1
102
RTVSPropertyOp31
 70
     1
102
RTVSPropertyOp32
 70
     1
102
RTVSPropertyOp33
 70
     1
102
RTVSPropertyOp34
 70
     1
102
RTVSPropertyOp35
 70
     1
102
RTVSPropertyOp36
 70
     1
102
RTVSPropertyOp37
 70
     1
102
RTVSPropertyOp38
 70
     1
102
RTVSPropertyOp39
 70
     1
102
RTVSPropertyOp40
 70
     1
102
RTVSPropertyOp41
 70
     1
102
RTVSPropertyOp42
 70
     1
102
RTVSPropertyOp43
 70
     1
102
RTVSPropertyOp44
 70
     1
102
RTVSPropertyOp45
 70
     1
102
RTVSPropertyOp46
 70
     1
102
RTVSPropertyOp47
 70
     1
102
RTVSPropertyOp48
 70
     1
102
RTVSPropertyOp49
 70
     1
102
RTVSPropertyOp50
 70
     1
102
RTVSPropertyOp51
 70
     0
102
RTVSPropertyOp52
 70
     0
102
RTVSPropertyOp53
 70
     1
102
RTVSPropertyOp54
 70
     1
102
RTVSPropertyOp55
 70
     1
102
RTVSPropertyOp56
 70
     1
102
RTVSPropertyOp57
 70
     1
102
RTVSPropertyOp58
 70
     1
102
RTVSPropertyOp59
 70
     1
102
RTVSPropertyOp60
 70
     1
102
RTVSPropertyOp61
 70
     1
102
RTVSPropertyOp62
 70
     1
  0
XRECORD
  5
D08
102
{ACAD_REACTORS
330
D07
102
}
330
D07
100
AcDbXrecord
280
     1
102
RTVSPost2010Prop28
280
     0
102
RTVSPost2010PropOp28
 70
     1
102
RTVSPost2010Prop29
280
     1
102
RTVSPost2010PropOp29
 70
     1
102
RTVSPost2010Prop30
280
     1
102
RTVSPost2010PropOp30
 70
     1
102
RTVSPost2010Prop31
280
     0
102
RTVSPost2010PropOp31
 70
     1
102
RTVSPost2010Prop32
280
     0
102
RTVSPost2010PropOp32
 70
     1
102
RTVSPost2010Prop33
280
     0
102
RTVSPost2010PropOp33
 70
     1
102
RTVSPost2010Prop34
280
     0
102
RTVSPost2010PropOp34
 70
     1
102
RTVSPost2010Prop35
280
     0
102
RTVSPost2010PropOp35
 70
     1
102
RTVSPost2010Prop36
280
     0
102
RTVSPost2010PropOp36
 70
     1
102
RTVSPost2010Prop37
 90
       50
102
RTVSPost2010PropOp37
 70
     1
102
RTVSPost2010Prop38
140
0.0
102
RTVSPost2010PropOp38
 70
     1
102
RTVSPost2010Prop39
140
1.0
102
RTVSPost2010PropOp39
 70
     1
102
RTVSPost2010Prop40
 90
        0
102
RTVSPost2010PropOp40
 70
     1
102
RTVSPost2010Prop41ColorIndex
 90
       18
102
RTVSPost2010Prop41ColorRGB
 90
        0
102
RTVSPost2010PropOp41
 70
     1
102
RTVSPost2010Prop42
 90
       50
102
RTVSPost2010PropOp42
 70
     1
102
RTVSPost2010Prop43
 90
        3
102
RTVSPost2010PropOp43
 70
     1
102
RTVSPost2010Prop44ColorIndex
 90
        5
102
RTVSPost2010Prop44ColorRGB
 90
      255
102
RTVSPost2010PropOp44
 70
     1
102
RTVSPost2010Prop45
280
     0
102
RTVSPost2010PropOp45
 70
     1
102
RTVSPost2010Prop46
 90
       50
102
RTVSPost2010PropOp46
 70
     1
102
RTVSPost2010Prop47
 90
       50
102
RTVSPost2010PropOp47
 70
     1
102
RTVSPost2010Prop48
 90
       50
102
RTVSPost2010PropOp48
 70
     1
102
RTVSPost2010Prop49
280
     0
102
RTVSPost2010PropOp49
 70
     1
102
RTVSPost2010Prop50
 90
       50
102
RTVSPost2010PropOp50
 70
     1
102
RTVSPost2010Prop51ColorIndex
 90
      256
102
RTVSPost2010Prop51ColorRGB
 90
-16777216
102
RTVSPost2010PropOp51
 70
     0
102
RTVSPost2010Prop52
140
1.0
102
RTVSPost2010PropOp52
 70
     0
102
RTVSPost2010Prop53
 90
        2
102
RTVSPost2010PropOp53
 70
     1
102
RTVSPost2010Prop54
  1
strokes_ogs.tif
102
RTVSPost2010PropOp54
 70
     1
102
RTVSPost2010Prop55
280
     0
102
RTVSPost2010PropOp55
 70
     1
102
RTVSPost2010Prop56
140
1.0
102
RTVSPost2010PropOp56
 70
     1
102
RTVSPost2010Prop57
140
1.0
102
RTVSPost2010PropOp57
 70
     1
102
RTVSPropertyOp0
 70
     1
102
RTVSPropertyOp1
 70
     1
102
RTVSPropertyOp2
 70
     1
102
RTVSPropertyOp3
 70
     1
102
RTVSPropertyOp4
 70
     1
102
RTVSPropertyOp5
 70
     1
102
RTVSPropertyOp6
 70
     1
102
RTVSPropertyOp7
 70
     1
102
RTVSPropertyOp8
 70
     1
102
RTVSPropertyOp9
 70
     1
102
RTVSPropertyOp10
 70
     1
102
RTVSPropertyOp11
 70
     1
102
RTVSPropertyOp12
 70
     1
102
RTVSPropertyOp13
 70
     1
102
RTVSPropertyOp14
 70
     1
102
RTVSPropertyOp15
 70
     1
102
RTVSPropertyOp16
 70
     1
102
RTVSPropertyOp17
 70
     1
102
RTVSPropertyOp18
 70
     1
102
RTVSPropertyOp19
 70
     1
102
RTVSPropertyOp20
 70
     1
102
RTVSPropertyOp21
 70
     1
102
RTVSPropertyOp22
 70
     1
102
RTVSPropertyOp23
 70
     1
102
RTVSPropertyOp24
 70
     1
102
RTVSPropertyOp25
 70
     1
102
RTVSPropertyOp26
 70
     1
102
RTVSPropertyOp27
 70
     1
102
RTVSPropertyOp28
 70
     1
102
RTVSPropertyOp29
 70
     1
102
RTVSPropertyOp30
 70
     1
102
RTVSPropertyOp31
 70
     1
102
RTVSPropertyOp32
 70
     1
102
RTVSPropertyOp33
 70
     1
102
RTVSPropertyOp34
 70
     1
102
RTVSPropertyOp35
 70
     1
102
RTVSPropertyOp36
 70
     1
102
RTVSPropertyOp37
 70
     1
102
RTVSPropertyOp38
 70
     1
102
RTVSPropertyOp39
 70
     1
102
RTVSPropertyOp40
 70
     1
102
RTVSPropertyOp41
 70
     1
102
RTVSPropertyOp42
 70
     1
102
RTVSPropertyOp43
 70
     1
102
RTVSPropertyOp44
 70
     1
102
RTVSPropertyOp45
 70
     1
102
RTVSPropertyOp46
 70
     1
102
RTVSPropertyOp47
 70
     1
102
RTVSPropertyOp48
 70
     1
102
RTVSPropertyOp49
 70
     1
102
RTVSPropertyOp50
 70
     1
102
RTVSPropertyOp51
 70
     0
102
RTVSPropertyOp52
 70
     0
102
RTVSPropertyOp53
 70
     1
102
RTVSPropertyOp54
 70
     1
102
RTVSPropertyOp55
 70
     1
102
RTVSPropertyOp56
 70
     1
102
RTVSPropertyOp57
 70
     1
102
RTVSPropertyOp58
 70
     1
102
RTVSPropertyOp59
 70
     1
102
RTVSPropertyOp60
 70
     1
102
RTVSPropertyOp61
 70
     1
102
RTVSPropertyOp62
 70
     1
  0
XRECORD
  5
D0A
102
{ACAD_REACTORS
330
D09
102
}
330
D09
100
AcDbXrecord
280
     1
102
RTVSPost2010Prop28
280
     0
102
RTVSPost2010PropOp28
 70
     1
102
RTVSPost2010Prop29
280
     1
102
RTVSPost2010PropOp29
 70
     1
102
RTVSPost2010Prop30
280
     1
102
RTVSPost2010PropOp30
 70
     1
102
RTVSPost2010Prop31
280
     0
102
RTVSPost2010PropOp31
 70
     1
102
RTVSPost2010Prop32
280
     0
102
RTVSPost2010PropOp32
 70
     1
102
RTVSPost2010Prop33
280
     0
102
RTVSPost2010PropOp33
 70
     1
102
RTVSPost2010Prop34
280
     0
102
RTVSPost2010PropOp34
 70
     1
102
RTVSPost2010Prop35
280
     0
102
RTVSPost2010PropOp35
 70
     1
102
RTVSPost2010Prop36
280
     0
102
RTVSPost2010PropOp36
 70
     1
102
RTVSPost2010Prop37
 90
       50
102
RTVSPost2010PropOp37
 70
     1
102
RTVSPost2010Prop38
140
0.0
102
RTVSPost2010PropOp38
 70
     1
102
RTVSPost2010Prop39
140
1.0
102
RTVSPost2010PropOp39
 70
     1
102
RTVSPost2010Prop40
 90
        0
102
RTVSPost2010PropOp40
 70
     1
102
RTVSPost2010Prop41ColorIndex
 90
       18
102
RTVSPost2010Prop41ColorRGB
 90
        0
102
RTVSPost2010PropOp41
 70
     1
102
RTVSPost2010Prop42
 90
       50
102
RTVSPost2010PropOp42
 70
     1
102
RTVSPost2010Prop43
 90
        3
102
RTVSPost2010PropOp43
 70
     1
102
RTVSPost2010Prop44ColorIndex
 90
        5
102
RTVSPost2010Prop44ColorRGB
 90
      255
102
RTVSPost2010PropOp44
 70
     1
102
RTVSPost2010Prop45
280
     0
102
RTVSPost2010PropOp45
 70
     1
102
RTVSPost2010Prop46
 90
       50
102
RTVSPost2010PropOp46
 70
     1
102
RTVSPost2010Prop47
 90
       50
102
RTVSPost2010PropOp47
 70
     1
102
RTVSPost2010Prop48
 90
       50
102
RTVSPost2010PropOp48
 70
     1
102
RTVSPost2010Prop49
280
     0
102
RTVSPost2010PropOp49
 70
     1
102
RTVSPost2010Prop50
 90
       50
102
RTVSPost2010PropOp50
 70
     1
102
RTVSPost2010Prop51ColorIndex
 90
      256
102
RTVSPost2010Prop51ColorRGB
 90
-16777216
102
RTVSPost2010PropOp51
 70
     0
102
RTVSPost2010Prop52
140
1.0
102
RTVSPost2010PropOp52
 70
     0
102
RTVSPost2010Prop53
 90
        2
102
RTVSPost2010PropOp53
 70
     1
102
RTVSPost2010Prop54
  1
strokes_ogs.tif
102
RTVSPost2010PropOp54
 70
     1
102
RTVSPost2010Prop55
280
     0
102
RTVSPost2010PropOp55
 70
     1
102
RTVSPost2010Prop56
140
1.0
102
RTVSPost2010PropOp56
 70
     1
102
RTVSPost2010Prop57
140
1.0
102
RTVSPost2010PropOp57
 70
     1
102
RTVSPropertyOp0
 70
     1
102
RTVSPropertyOp1
 70
     1
102
RTVSPropertyOp2
 70
     1
102
RTVSPropertyOp3
 70
     1
102
RTVSPropertyOp4
 70
     1
102
RTVSPropertyOp5
 70
     1
102
RTVSPropertyOp6
 70
     1
102
RTVSPropertyOp7
 70
     1
102
RTVSPropertyOp8
 70
     1
102
RTVSPropertyOp9
 70
     1
102
RTVSPropertyOp10
 70
     1
102
RTVSPropertyOp11
 70
     1
102
RTVSPropertyOp12
 70
     1
102
RTVSPropertyOp13
 70
     1
102
RTVSPropertyOp14
 70
     1
102
RTVSPropertyOp15
 70
     1
102
RTVSPropertyOp16
 70
     1
102
RTVSPropertyOp17
 70
     1
102
RTVSPropertyOp18
 70
     1
102
RTVSPropertyOp19
 70
     1
102
RTVSPropertyOp20
 70
     1
102
RTVSPropertyOp21
 70
     1
102
RTVSPropertyOp22
 70
     1
102
RTVSPropertyOp23
 70
     1
102
RTVSPropertyOp24
 70
     1
102
RTVSPropertyOp25
 70
     1
102
RTVSPropertyOp26
 70
     1
102
RTVSPropertyOp27
 70
     1
102
RTVSPropertyOp28
 70
     1
102
RTVSPropertyOp29
 70
     1
102
RTVSPropertyOp30
 70
     1
102
RTVSPropertyOp31
 70
     1
102
RTVSPropertyOp32
 70
     1
102
RTVSPropertyOp33
 70
     1
102
RTVSPropertyOp34
 70
     1
102
RTVSPropertyOp35
 70
     1
102
RTVSPropertyOp36
 70
     1
102
RTVSPropertyOp37
 70
     1
102
RTVSPropertyOp38
 70
     1
102
RTVSPropertyOp39
 70
     1
102
RTVSPropertyOp40
 70
     1
102
RTVSPropertyOp41
 70
     1
102
RTVSPropertyOp42
 70
     1
102
RTVSPropertyOp43
 70
     1
102
RTVSPropertyOp44
 70
     1
102
RTVSPropertyOp45
 70
     1
102
RTVSPropertyOp46
 70
     1
102
RTVSPropertyOp47
 70
     1
102
RTVSPropertyOp48
 70
     1
102
RTVSPropertyOp49
 70
     1
102
RTVSPropertyOp50
 70
     1
102
RTVSPropertyOp51
 70
     0
102
RTVSPropertyOp52
 70
     0
102
RTVSPropertyOp53
 70
     1
102
RTVSPropertyOp54
 70
     1
102
RTVSPropertyOp55
 70
     1
102
RTVSPropertyOp56
 70
     1
102
RTVSPropertyOp57
 70
     1
102
RTVSPropertyOp58
 70
     1
102
RTVSPropertyOp59
 70
     1
102
RTVSPropertyOp60
 70
     1
102
RTVSPropertyOp61
 70
     1
102
RTVSPropertyOp62
 70
     1
  0
XRECORD
  5
D0C
102
{ACAD_REACTORS
330
D0B
102
}
330
D0B
100
AcDbXrecord
280
     1
102
RTVSPost2010Prop28
280
     0
102
RTVSPost2010PropOp28
 70
     1
102
RTVSPost2010Prop29
280
     1
102
RTVSPost2010PropOp29
 70
     1
102
RTVSPost2010Prop30
280
     1
102
RTVSPost2010PropOp30
 70
     1
102
RTVSPost2010Prop31
280
     0
102
RTVSPost2010PropOp31
 70
     1
102
RTVSPost2010Prop32
280
     0
102
RTVSPost2010PropOp32
 70
     1
102
RTVSPost2010Prop33
280
     0
102
RTVSPost2010PropOp33
 70
     1
102
RTVSPost2010Prop34
280
     0
102
RTVSPost2010PropOp34
 70
     1
102
RTVSPost2010Prop35
280
     0
102
RTVSPost2010PropOp35
 70
     1
102
RTVSPost2010Prop36
280
     0
102
RTVSPost2010PropOp36
 70
     1
102
RTVSPost2010Prop37
 90
       50
102
RTVSPost2010PropOp37
 70
     1
102
RTVSPost2010Prop38
140
0.0
102
RTVSPost2010PropOp38
 70
     1
102
RTVSPost2010Prop39
140
1.0
102
RTVSPost2010PropOp39
 70
     1
102
RTVSPost2010Prop40
 90
        0
102
RTVSPost2010PropOp40
 70
     1
102
RTVSPost2010Prop41ColorIndex
 90
       18
102
RTVSPost2010Prop41ColorRGB
 90
        0
102
RTVSPost2010PropOp41
 70
     1
102
RTVSPost2010Prop42
 90
       50
102
RTVSPost2010PropOp42
 70
     1
102
RTVSPost2010Prop43
 90
        3
102
RTVSPost2010PropOp43
 70
     1
102
RTVSPost2010Prop44ColorIndex
 90
        5
102
RTVSPost2010Prop44ColorRGB
 90
      255
102
RTVSPost2010PropOp44
 70
     1
102
RTVSPost2010Prop45
280
     0
102
RTVSPost2010PropOp45
 70
     1
102
RTVSPost2010Prop46
 90
       50
102
RTVSPost2010PropOp46
 70
     1
102
RTVSPost2010Prop47
 90
       50
102
RTVSPost2010PropOp47
 70
     1
102
RTVSPost2010Prop48
 90
       50
102
RTVSPost2010PropOp48
 70
     1
102
RTVSPost2010Prop49
280
     0
102
RTVSPost2010PropOp49
 70
     1
102
RTVSPost2010Prop50
 90
       50
102
RTVSPost2010PropOp50
 70
     1
102
RTVSPost2010Prop51ColorIndex
 90
      256
102
RTVSPost2010Prop51ColorRGB
 90
-16777216
102
RTVSPost2010PropOp51
 70
     0
102
RTVSPost2010Prop52
140
1.0
102
RTVSPost2010PropOp52
 70
     0
102
RTVSPost2010Prop53
 90
        2
102
RTVSPost2010PropOp53
 70
     1
102
RTVSPost2010Prop54
  1
strokes_ogs.tif
102
RTVSPost2010PropOp54
 70
     1
102
RTVSPost2010Prop55
280
     0
102
RTVSPost2010PropOp55
 70
     1
102
RTVSPost2010Prop56
140
1.0
102
RTVSPost2010PropOp56
 70
     1
102
RTVSPost2010Prop57
140
1.0
102
RTVSPost2010PropOp57
 70
     1
102
RTVSPropertyOp0
 70
     1
102
RTVSPropertyOp1
 70
     1
102
RTVSPropertyOp2
 70
     1
102
RTVSPropertyOp3
 70
     1
102
RTVSPropertyOp4
 70
     1
102
RTVSPropertyOp5
 70
     1
102
RTVSPropertyOp6
 70
     1
102
RTVSPropertyOp7
 70
     1
102
RTVSPropertyOp8
 70
     1
102
RTVSPropertyOp9
 70
     1
102
RTVSPropertyOp10
 70
     1
102
RTVSPropertyOp11
 70
     1
102
RTVSPropertyOp12
 70
     1
102
RTVSPropertyOp13
 70
     1
102
RTVSPropertyOp14
 70
     1
102
RTVSPropertyOp15
 70
     1
102
RTVSPropertyOp16
 70
     1
102
RTVSPropertyOp17
 70
     1
102
RTVSPropertyOp18
 70
     1
102
RTVSPropertyOp19
 70
     1
102
RTVSPropertyOp20
 70
     1
102
RTVSPropertyOp21
 70
     1
102
RTVSPropertyOp22
 70
     1
102
RTVSPropertyOp23
 70
     1
102
RTVSPropertyOp24
 70
     1
102
RTVSPropertyOp25
 70
     1
102
RTVSPropertyOp26
 70
     1
102
RTVSPropertyOp27
 70
     1
102
RTVSPropertyOp28
 70
     1
102
RTVSPropertyOp29
 70
     1
102
RTVSPropertyOp30
 70
     1
102
RTVSPropertyOp31
 70
     1
102
RTVSPropertyOp32
 70
     1
102
RTVSPropertyOp33
 70
     1
102
RTVSPropertyOp34
 70
     1
102
RTVSPropertyOp35
 70
     1
102
RTVSPropertyOp36
 70
     1
102
RTVSPropertyOp37
 70
     1
102
RTVSPropertyOp38
 70
     1
102
RTVSPropertyOp39
 70
     1
102
RTVSPropertyOp40
 70
     1
102
RTVSPropertyOp41
 70
     1
102
RTVSPropertyOp42
 70
     1
102
RTVSPropertyOp43
 70
     1
102
RTVSPropertyOp44
 70
     1
102
RTVSPropertyOp45
 70
     1
102
RTVSPropertyOp46
 70
     1
102
RTVSPropertyOp47
 70
     1
102
RTVSPropertyOp48
 70
     1
102
RTVSPropertyOp49
 70
     1
102
RTVSPropertyOp50
 70
     1
102
RTVSPropertyOp51
 70
     0
102
RTVSPropertyOp52
 70
     0
102
RTVSPropertyOp53
 70
     1
102
RTVSPropertyOp54
 70
     1
102
RTVSPropertyOp55
 70
     1
102
RTVSPropertyOp56
 70
     1
102
RTVSPropertyOp57
 70
     1
102
RTVSPropertyOp58
 70
     1
102
RTVSPropertyOp59
 70
     1
102
RTVSPropertyOp60
 70
     1
102
RTVSPropertyOp61
 70
     1
102
RTVSPropertyOp62
 70
     1
  0
XRECORD
  5
D14
102
{ACAD_REACTORS
330
D13
102
}
330
D13
100
AcDbXrecord
280
     1
102
RTVSPost2010Prop28
280
     0
102
RTVSPost2010PropOp28
 70
     1
102
RTVSPost2010Prop29
280
     1
102
RTVSPost2010PropOp29
 70
     1
102
RTVSPost2010Prop30
280
     1
102
RTVSPost2010PropOp30
 70
     1
102
RTVSPost2010Prop31
280
     0
102
RTVSPost2010PropOp31
 70
     1
102
RTVSPost2010Prop32
280
     0
102
RTVSPost2010PropOp32
 70
     1
102
RTVSPost2010Prop33
280
     0
102
RTVSPost2010PropOp33
 70
     1
102
RTVSPost2010Prop34
280
     0
102
RTVSPost2010PropOp34
 70
     1
102
RTVSPost2010Prop35
280
     0
102
RTVSPost2010PropOp35
 70
     1
102
RTVSPost2010Prop36
280
     0
102
RTVSPost2010PropOp36
 70
     1
102
RTVSPost2010Prop37
 90
       50
102
RTVSPost2010PropOp37
 70
     1
102
RTVSPost2010Prop38
140
0.0
102
RTVSPost2010PropOp38
 70
     1
102
RTVSPost2010Prop39
140
1.0
102
RTVSPost2010PropOp39
 70
     1
102
RTVSPost2010Prop40
 90
        0
102
RTVSPost2010PropOp40
 70
     1
102
RTVSPost2010Prop41ColorIndex
 90
       18
102
RTVSPost2010Prop41ColorRGB
 90
        0
102
RTVSPost2010PropOp41
 70
     1
102
RTVSPost2010Prop42
 90
       50
102
RTVSPost2010PropOp42
 70
     1
102
RTVSPost2010Prop43
 90
        3
102
RTVSPost2010PropOp43
 70
     1
102
RTVSPost2010Prop44ColorIndex
 90
        5
102
RTVSPost2010Prop44ColorRGB
 90
      255
102
RTVSPost2010PropOp44
 70
     1
102
RTVSPost2010Prop45
280
     0
102
RTVSPost2010PropOp45
 70
     1
102
RTVSPost2010Prop46
 90
       50
102
RTVSPost2010PropOp46
 70
     1
102
RTVSPost2010Prop47
 90
       50
102
RTVSPost2010PropOp47
 70
     1
102
RTVSPost2010Prop48
 90
       50
102
RTVSPost2010PropOp48
 70
     1
102
RTVSPost2010Prop49
280
     0
102
RTVSPost2010PropOp49
 70
     1
102
RTVSPost2010Prop50
 90
       50
102
RTVSPost2010PropOp50
 70
     1
102
RTVSPost2010Prop51ColorIndex
 90
      256
102
RTVSPost2010Prop51ColorRGB
 90
-16777216
102
RTVSPost2010PropOp51
 70
     0
102
RTVSPost2010Prop52
140
1.0
102
RTVSPost2010PropOp52
 70
     0
102
RTVSPost2010Prop53
 90
        2
102
RTVSPost2010PropOp53
 70
     1
102
RTVSPost2010Prop54
  1
strokes_ogs.tif
102
RTVSPost2010PropOp54
 70
     1
102
RTVSPost2010Prop55
280
     0
102
RTVSPost2010PropOp55
 70
     1
102
RTVSPost2010Prop56
140
1.0
102
RTVSPost2010PropOp56
 70
     1
102
RTVSPost2010Prop57
140
1.0
102
RTVSPost2010PropOp57
 70
     1
102
RTVSPropertyOp0
 70
     1
102
RTVSPropertyOp1
 70
     1
102
RTVSPropertyOp2
 70
     1
102
RTVSPropertyOp3
 70
     1
102
RTVSPropertyOp4
 70
     1
102
RTVSPropertyOp5
 70
     1
102
RTVSPropertyOp6
 70
     1
102
RTVSPropertyOp7
 70
     1
102
RTVSPropertyOp8
 70
     1
102
RTVSPropertyOp9
 70
     1
102
RTVSPropertyOp10
 70
     1
102
RTVSPropertyOp11
 70
     1
102
RTVSPropertyOp12
 70
     1
102
RTVSPropertyOp13
 70
     1
102
RTVSPropertyOp14
 70
     1
102
RTVSPropertyOp15
 70
     1
102
RTVSPropertyOp16
 70
     1
102
RTVSPropertyOp17
 70
     1
102
RTVSPropertyOp18
 70
     1
102
RTVSPropertyOp19
 70
     1
102
RTVSPropertyOp20
 70
     1
102
RTVSPropertyOp21
 70
     1
102
RTVSPropertyOp22
 70
     1
102
RTVSPropertyOp23
 70
     1
102
RTVSPropertyOp24
 70
     1
102
RTVSPropertyOp25
 70
     1
102
RTVSPropertyOp26
 70
     1
102
RTVSPropertyOp27
 70
     1
102
RTVSPropertyOp28
 70
     1
102
RTVSPropertyOp29
 70
     1
102
RTVSPropertyOp30
 70
     1
102
RTVSPropertyOp31
 70
     1
102
RTVSPropertyOp32
 70
     1
102
RTVSPropertyOp33
 70
     1
102
RTVSPropertyOp34
 70
     1
102
RTVSPropertyOp35
 70
     1
102
RTVSPropertyOp36
 70
     1
102
RTVSPropertyOp37
 70
     1
102
RTVSPropertyOp38
 70
     1
102
RTVSPropertyOp39
 70
     1
102
RTVSPropertyOp40
 70
     1
102
RTVSPropertyOp41
 70
     1
102
RTVSPropertyOp42
 70
     1
102
RTVSPropertyOp43
 70
     1
102
RTVSPropertyOp44
 70
     1
102
RTVSPropertyOp45
 70
     1
102
RTVSPropertyOp46
 70
     1
102
RTVSPropertyOp47
 70
     1
102
RTVSPropertyOp48
 70
     1
102
RTVSPropertyOp49
 70
     1
102
RTVSPropertyOp50
 70
     1
102
RTVSPropertyOp51
 70
     0
102
RTVSPropertyOp52
 70
     0
102
RTVSPropertyOp53
 70
     1
102
RTVSPropertyOp54
 70
     1
102
RTVSPropertyOp55
 70
     1
102
RTVSPropertyOp56
 70
     1
102
RTVSPropertyOp57
 70
     1
102
RTVSPropertyOp58
 70
     1
102
RTVSPropertyOp59
 70
     1
102
RTVSPropertyOp60
 70
     1
102
RTVSPropertyOp61
 70
     1
102
RTVSPropertyOp62
 70
     1
  0
XRECORD
  5
D30
102
{ACAD_REACTORS
330
D2F
102
}
330
D2F
100
AcDbXrecord
280
     1
102
RTVSPost2010Prop28
280
     0
102
RTVSPost2010PropOp28
 70
     1
102
RTVSPost2010Prop29
280
     1
102
RTVSPost2010PropOp29
 70
     1
102
RTVSPost2010Prop30
280
     1
102
RTVSPost2010PropOp30
 70
     1
102
RTVSPost2010Prop31
280
     0
102
RTVSPost2010PropOp31
 70
     1
102
RTVSPost2010Prop32
280
     0
102
RTVSPost2010PropOp32
 70
     1
102
RTVSPost2010Prop33
280
     0
102
RTVSPost2010PropOp33
 70
     1
102
RTVSPost2010Prop34
280
     0
102
RTVSPost2010PropOp34
 70
     1
102
RTVSPost2010Prop35
280
     0
102
RTVSPost2010PropOp35
 70
     1
102
RTVSPost2010Prop36
280
     0
102
RTVSPost2010PropOp36
 70
     1
102
RTVSPost2010Prop37
 90
       50
102
RTVSPost2010PropOp37
 70
     0
102
RTVSPost2010Prop38
140
0.0
102
RTVSPost2010PropOp38
 70
     0
102
RTVSPost2010Prop39
140
1.0
102
RTVSPost2010PropOp39
 70
     0
102
RTVSPost2010Prop40
 90
        0
102
RTVSPost2010PropOp40
 70
     0
102
RTVSPost2010Prop41ColorIndex
 90
       18
102
RTVSPost2010Prop41ColorRGB
 90
        0
102
RTVSPost2010PropOp41
 70
     0
102
RTVSPost2010Prop42
 90
       50
102
RTVSPost2010PropOp42
 70
     0
102
RTVSPost2010Prop43
 90
        3
102
RTVSPost2010PropOp43
 70
     0
102
RTVSPost2010Prop44ColorIndex
 90
        5
102
RTVSPost2010Prop44ColorRGB
 90
      255
102
RTVSPost2010PropOp44
 70
     0
102
RTVSPost2010Prop45
280
     0
102
RTVSPost2010PropOp45
 70
     1
102
RTVSPost2010Prop46
 90
       50
102
RTVSPost2010PropOp46
 70
     0
102
RTVSPost2010Prop47
 90
       50
102
RTVSPost2010PropOp47
 70
     0
102
RTVSPost2010Prop48
 90
       50
102
RTVSPost2010PropOp48
 70
     0
102
RTVSPost2010Prop49
280
     0
102
RTVSPost2010PropOp49
 70
     1
102
RTVSPost2010Prop50
 90
       50
102
RTVSPost2010PropOp50
 70
     0
102
RTVSPost2010Prop51ColorIndex
 90
      256
102
RTVSPost2010Prop51ColorRGB
 90
-16777216
102
RTVSPost2010PropOp51
 70
     0
102
RTVSPost2010Prop52
140
1.0
102
RTVSPost2010PropOp52
 70
     0
102
RTVSPost2010Prop53
 90
        2
102
RTVSPost2010PropOp53
 70
     0
102
RTVSPost2010Prop54
  1
strokes_ogs.tif
102
RTVSPost2010PropOp54
 70
     0
102
RTVSPost2010Prop55
280
     0
102
RTVSPost2010PropOp55
 70
     1
102
RTVSPost2010Prop56
140
1.0
102
RTVSPost2010PropOp56
 70
     0
102
RTVSPost2010Prop57
140
1.0
102
RTVSPost2010PropOp57
 70
     0
102
RTVSPropertyOp0
 70
     0
102
RTVSPropertyOp1
 70
     0
102
RTVSPropertyOp2
 70
     0
102
RTVSPropertyOp3
 70
     0
102
RTVSPropertyOp4
 70
     0
102
RTVSPropertyOp5
 70
     0
102
RTVSPropertyOp6
 70
     0
102
RTVSPropertyOp7
 70
     0
102
RTVSPropertyOp8
 70
     0
102
RTVSPropertyOp9
 70
     0
102
RTVSPropertyOp10
 70
     0
102
RTVSPropertyOp11
 70
     0
102
RTVSPropertyOp12
 70
     0
102
RTVSPropertyOp13
 70
     0
102
RTVSPropertyOp14
 70
     2
102
RTVSPropertyOp15
 70
     0
102
RTVSPropertyOp16
 70
     0
102
RTVSPropertyOp17
 70
     0
102
RTVSPropertyOp18
 70
     0
102
RTVSPropertyOp19
 70
     0
102
RTVSPropertyOp20
 70
     0
102
RTVSPropertyOp21
 70
     0
102
RTVSPropertyOp22
 70
     0
102
RTVSPropertyOp23
 70
     0
102
RTVSPropertyOp24
 70
     0
102
RTVSPropertyOp25
 70
     0
102
RTVSPropertyOp26
 70
     0
102
RTVSPropertyOp27
 70
     0
102
RTVSPropertyOp28
 70
     1
102
RTVSPropertyOp29
 70
     1
102
RTVSPropertyOp30
 70
     1
102
RTVSPropertyOp31
 70
     1
102
RTVSPropertyOp32
 70
     1
102
RTVSPropertyOp33
 70
     1
102
RTVSPropertyOp34
 70
     1
102
RTVSPropertyOp35
 70
     1
102
RTVSPropertyOp36
 70
     1
102
RTVSPropertyOp37
 70
     0
102
RTVSPropertyOp38
 70
     0
102
RTVSPropertyOp39
 70
     0
102
RTVSPropertyOp40
 70
     0
102
RTVSPropertyOp41
 70
     0
102
RTVSPropertyOp42
 70
     0
102
RTVSPropertyOp43
 70
     0
102
RTVSPropertyOp44
 70
     0
102
RTVSPropertyOp45
 70
     1
102
RTVSPropertyOp46
 70
     0
102
RTVSPropertyOp47
 70
     0
102
RTVSPropertyOp48
 70
     0
102
RTVSPropertyOp49
 70
     1
102
RTVSPropertyOp50
 70
     0
102
RTVSPropertyOp51
 70
     0
102
RTVSPropertyOp52
 70
     0
102
RTVSPropertyOp53
 70
     0
102
RTVSPropertyOp54
 70
     0
102
RTVSPropertyOp55
 70
     1
102
RTVSPropertyOp56
 70
     0
102
RTVSPropertyOp57
 70
     0
102
RTVSPropertyOp58
 70
     0
102
RTVSPropertyOp59
 70
     0
102
RTVSPropertyOp60
 70
     0
102
RTVSPropertyOp61
 70
     0
102
RTVSPropertyOp62
 70
     0
  0
XRECORD
  5
D20
102
{ACAD_REACTORS
330
D1F
102
}
330
D1F
100
AcDbXrecord
280
     1
102
RTVSPost2010Prop28
280
     0
102
RTVSPost2010PropOp28
 70
     1
102
RTVSPost2010Prop29
280
     1
102
RTVSPost2010PropOp29
 70
     1
102
RTVSPost2010Prop30
280
     1
102
RTVSPost2010PropOp30
 70
     1
102
RTVSPost2010Prop31
280
     0
102
RTVSPost2010PropOp31
 70
     1
102
RTVSPost2010Prop32
280
     0
102
RTVSPost2010PropOp32
 70
     1
102
RTVSPost2010Prop33
280
     0
102
RTVSPost2010PropOp33
 70
     1
102
RTVSPost2010Prop34
280
     0
102
RTVSPost2010PropOp34
 70
     1
102
RTVSPost2010Prop35
280
     0
102
RTVSPost2010PropOp35
 70
     1
102
RTVSPost2010Prop36
280
     0
102
RTVSPost2010PropOp36
 70
     1
102
RTVSPost2010Prop37
 90
       50
102
RTVSPost2010PropOp37
 70
     1
102
RTVSPost2010Prop38
140
0.0
102
RTVSPost2010PropOp38
 70
     1
102
RTVSPost2010Prop39
140
1.0
102
RTVSPost2010PropOp39
 70
     1
102
RTVSPost2010Prop40
 90
        0
102
RTVSPost2010PropOp40
 70
     1
102
RTVSPost2010Prop41ColorIndex
 90
       18
102
RTVSPost2010Prop41ColorRGB
 90
        0
102
RTVSPost2010PropOp41
 70
     1
102
RTVSPost2010Prop42
 90
       50
102
RTVSPost2010PropOp42
 70
     1
102
RTVSPost2010Prop43
 90
        3
102
RTVSPost2010PropOp43
 70
     1
102
RTVSPost2010Prop44ColorIndex
 90
        5
102
RTVSPost2010Prop44ColorRGB
 90
      255
102
RTVSPost2010PropOp44
 70
     1
102
RTVSPost2010Prop45
280
     0
102
RTVSPost2010PropOp45
 70
     1
102
RTVSPost2010Prop46
 90
       50
102
RTVSPost2010PropOp46
 70
     1
102
RTVSPost2010Prop47
 90
       50
102
RTVSPost2010PropOp47
 70
     1
102
RTVSPost2010Prop48
 90
       50
102
RTVSPost2010PropOp48
 70
     1
102
RTVSPost2010Prop49
280
     0
102
RTVSPost2010PropOp49
 70
     1
102
RTVSPost2010Prop50
 90
       50
102
RTVSPost2010PropOp50
 70
     1
102
RTVSPost2010Prop51ColorIndex
 90
      256
102
RTVSPost2010Prop51ColorRGB
 90
-16777216
102
RTVSPost2010PropOp51
 70
     0
102
RTVSPost2010Prop52
140
1.0
102
RTVSPost2010PropOp52
 70
     0
102
RTVSPost2010Prop53
 90
        2
102
RTVSPost2010PropOp53
 70
     1
102
RTVSPost2010Prop54
  1
strokes_ogs.tif
102
RTVSPost2010PropOp54
 70
     1
102
RTVSPost2010Prop55
280
     0
102
RTVSPost2010PropOp55
 70
     1
102
RTVSPost2010Prop56
140
1.0
102
RTVSPost2010PropOp56
 70
     1
102
RTVSPost2010Prop57
140
1.0
102
RTVSPost2010PropOp57
 70
     1
102
RTVSPropertyOp0
 70
     1
102
RTVSPropertyOp1
 70
     1
102
RTVSPropertyOp2
 70
     1
102
RTVSPropertyOp3
 70
     1
102
RTVSPropertyOp4
 70
     1
102
RTVSPropertyOp5
 70
     1
102
RTVSPropertyOp6
 70
     1
102
RTVSPropertyOp7
 70
     1
102
RTVSPropertyOp8
 70
     1
102
RTVSPropertyOp9
 70
     1
102
RTVSPropertyOp10
 70
     1
102
RTVSPropertyOp11
 70
     1
102
RTVSPropertyOp12
 70
     1
102
RTVSPropertyOp13
 70
     1
102
RTVSPropertyOp14
 70
     1
102
RTVSPropertyOp15
 70
     1
102
RTVSPropertyOp16
 70
     1
102
RTVSPropertyOp17
 70
     1
102
RTVSPropertyOp18
 70
     1
102
RTVSPropertyOp19
 70
     1
102
RTVSPropertyOp20
 70
     1
102
RTVSPropertyOp21
 70
     1
102
RTVSPropertyOp22
 70
     1
102
RTVSPropertyOp23
 70
     1
102
RTVSPropertyOp24
 70
     1
102
RTVSPropertyOp25
 70
     1
102
RTVSPropertyOp26
 70
     1
102
RTVSPropertyOp27
 70
     1
102
RTVSPropertyOp28
 70
     1
102
RTVSPropertyOp29
 70
     1
102
RTVSPropertyOp30
 70
     1
102
RTVSPropertyOp31
 70
     1
102
RTVSPropertyOp32
 70
     1
102
RTVSPropertyOp33
 70
     1
102
RTVSPropertyOp34
 70
     1
102
RTVSPropertyOp35
 70
     1
102
RTVSPropertyOp36
 70
     1
102
RTVSPropertyOp37
 70
     1
102
RTVSPropertyOp38
 70
     1
102
RTVSPropertyOp39
 70
     1
102
RTVSPropertyOp40
 70
     1
102
RTVSPropertyOp41
 70
     1
102
RTVSPropertyOp42
 70
     1
102
RTVSPropertyOp43
 70
     1
102
RTVSPropertyOp44
 70
     1
102
RTVSPropertyOp45
 70
     1
102
RTVSPropertyOp46
 70
     1
102
RTVSPropertyOp47
 70
     1
102
RTVSPropertyOp48
 70
     1
102
RTVSPropertyOp49
 70
     1
102
RTVSPropertyOp50
 70
     1
102
RTVSPropertyOp51
 70
     0
102
RTVSPropertyOp52
 70
     0
102
RTVSPropertyOp53
 70
     1
102
RTVSPropertyOp54
 70
     1
102
RTVSPropertyOp55
 70
     1
102
RTVSPropertyOp56
 70
     1
102
RTVSPropertyOp57
 70
     1
102
RTVSPropertyOp58
 70
     1
102
RTVSPropertyOp59
 70
     1
102
RTVSPropertyOp60
 70
     1
102
RTVSPropertyOp61
 70
     1
102
RTVSPropertyOp62
 70
     1
  0
XRECORD
  5
D32
102
{ACAD_REACTORS
330
D31
102
}
330
D31
100
AcDbXrecord
280
     1
102
RTVSPost2010Prop28
280
     0
102
RTVSPost2010PropOp28
 70
     1
102
RTVSPost2010Prop29
280
     1
102
RTVSPost2010PropOp29
 70
     1
102
RTVSPost2010Prop30
280
     1
102
RTVSPost2010PropOp30
 70
     1
102
RTVSPost2010Prop31
280
     0
102
RTVSPost2010PropOp31
 70
     1
102
RTVSPost2010Prop32
280
     0
102
RTVSPost2010PropOp32
 70
     1
102
RTVSPost2010Prop33
280
     0
102
RTVSPost2010PropOp33
 70
     1
102
RTVSPost2010Prop34
280
     0
102
RTVSPost2010PropOp34
 70
     1
102
RTVSPost2010Prop35
280
     0
102
RTVSPost2010PropOp35
 70
     1
102
RTVSPost2010Prop36
280
     0
102
RTVSPost2010PropOp36
 70
     1
102
RTVSPost2010Prop37
 90
       50
102
RTVSPost2010PropOp37
 70
     0
102
RTVSPost2010Prop38
140
0.0
102
RTVSPost2010PropOp38
 70
     0
102
RTVSPost2010Prop39
140
1.0
102
RTVSPost2010PropOp39
 70
     0
102
RTVSPost2010Prop40
 90
        0
102
RTVSPost2010PropOp40
 70
     0
102
RTVSPost2010Prop41ColorIndex
 90
       18
102
RTVSPost2010Prop41ColorRGB
 90
        0
102
RTVSPost2010PropOp41
 70
     0
102
RTVSPost2010Prop42
 90
       50
102
RTVSPost2010PropOp42
 70
     0
102
RTVSPost2010Prop43
 90
        3
102
RTVSPost2010PropOp43
 70
     0
102
RTVSPost2010Prop44ColorIndex
 90
        5
102
RTVSPost2010Prop44ColorRGB
 90
      255
102
RTVSPost2010PropOp44
 70
     0
102
RTVSPost2010Prop45
280
     0
102
RTVSPost2010PropOp45
 70
     1
102
RTVSPost2010Prop46
 90
       50
102
RTVSPost2010PropOp46
 70
     0
102
RTVSPost2010Prop47
 90
       50
102
RTVSPost2010PropOp47
 70
     0
102
RTVSPost2010Prop48
 90
       50
102
RTVSPost2010PropOp48
 70
     0
102
RTVSPost2010Prop49
280
     0
102
RTVSPost2010PropOp49
 70
     1
102
RTVSPost2010Prop50
 90
       50
102
RTVSPost2010PropOp50
 70
     0
102
RTVSPost2010Prop51ColorIndex
 90
      256
102
RTVSPost2010Prop51ColorRGB
 90
-16777216
102
RTVSPost2010PropOp51
 70
     0
102
RTVSPost2010Prop52
140
1.0
102
RTVSPost2010PropOp52
 70
     0
102
RTVSPost2010Prop53
 90
        2
102
RTVSPost2010PropOp53
 70
     0
102
RTVSPost2010Prop54
  1
strokes_ogs.tif
102
RTVSPost2010PropOp54
 70
     0
102
RTVSPost2010Prop55
280
     0
102
RTVSPost2010PropOp55
 70
     1
102
RTVSPost2010Prop56
140
1.0
102
RTVSPost2010PropOp56
 70
     0
102
RTVSPost2010Prop57
140
1.0
102
RTVSPost2010PropOp57
 70
     0
102
RTVSPropertyOp0
 70
     0
102
RTVSPropertyOp1
 70
     0
102
RTVSPropertyOp2
 70
     0
102
RTVSPropertyOp3
 70
     0
102
RTVSPropertyOp4
 70
     0
102
RTVSPropertyOp5
 70
     0
102
RTVSPropertyOp6
 70
     0
102
RTVSPropertyOp7
 70
     0
102
RTVSPropertyOp8
 70
     0
102
RTVSPropertyOp9
 70
     0
102
RTVSPropertyOp10
 70
     0
102
RTVSPropertyOp11
 70
     0
102
RTVSPropertyOp12
 70
     0
102
RTVSPropertyOp13
 70
     0
102
RTVSPropertyOp14
 70
     2
102
RTVSPropertyOp15
 70
     0
102
RTVSPropertyOp16
 70
     0
102
RTVSPropertyOp17
 70
     0
102
RTVSPropertyOp18
 70
     0
102
RTVSPropertyOp19
 70
     0
102
RTVSPropertyOp20
 70
     0
102
RTVSPropertyOp21
 70
     0
102
RTVSPropertyOp22
 70
     0
102
RTVSPropertyOp23
 70
     0
102
RTVSPropertyOp24
 70
     0
102
RTVSPropertyOp25
 70
     0
102
RTVSPropertyOp26
 70
     0
102
RTVSPropertyOp27
 70
     0
102
RTVSPropertyOp28
 70
     1
102
RTVSPropertyOp29
 70
     1
102
RTVSPropertyOp30
 70
     1
102
RTVSPropertyOp31
 70
     1
102
RTVSPropertyOp32
 70
     1
102
RTVSPropertyOp33
 70
     1
102
RTVSPropertyOp34
 70
     1
102
RTVSPropertyOp35
 70
     1
102
RTVSPropertyOp36
 70
     1
102
RTVSPropertyOp37
 70
     0
102
RTVSPropertyOp38
 70
     0
102
RTVSPropertyOp39
 70
     0
102
RTVSPropertyOp40
 70
     0
102
RTVSPropertyOp41
 70
     0
102
RTVSPropertyOp42
 70
     0
102
RTVSPropertyOp43
 70
     0
102
RTVSPropertyOp44
 70
     0
102
RTVSPropertyOp45
 70
     1
102
RTVSPropertyOp46
 70
     0
102
RTVSPropertyOp47
 70
     0
102
RTVSPropertyOp48
 70
     0
102
RTVSPropertyOp49
 70
     1
102
RTVSPropertyOp50
 70
     0
102
RTVSPropertyOp51
 70
     0
102
RTVSPropertyOp52
 70
     0
102
RTVSPropertyOp53
 70
     0
102
RTVSPropertyOp54
 70
     0
102
RTVSPropertyOp55
 70
     1
102
RTVSPropertyOp56
 70
     0
102
RTVSPropertyOp57
 70
     0
102
RTVSPropertyOp58
 70
     0
102
RTVSPropertyOp59
 70
     0
102
RTVSPropertyOp60
 70
     0
102
RTVSPropertyOp61
 70
     0
102
RTVSPropertyOp62
 70
     0
  0
XRECORD
  5
D18
102
{ACAD_REACTORS
330
D17
102
}
330
D17
100
AcDbXrecord
280
     1
102
RTVSPost2010Prop28
280
     0
102
RTVSPost2010PropOp28
 70
     1
102
RTVSPost2010Prop29
280
     1
102
RTVSPost2010PropOp29
 70
     1
102
RTVSPost2010Prop30
280
     1
102
RTVSPost2010PropOp30
 70
     1
102
RTVSPost2010Prop31
280
     0
102
RTVSPost2010PropOp31
 70
     1
102
RTVSPost2010Prop32
280
     0
102
RTVSPost2010PropOp32
 70
     1
102
RTVSPost2010Prop33
280
     0
102
RTVSPost2010PropOp33
 70
     1
102
RTVSPost2010Prop34
280
     0
102
RTVSPost2010PropOp34
 70
     1
102
RTVSPost2010Prop35
280
     0
102
RTVSPost2010PropOp35
 70
     1
102
RTVSPost2010Prop36
280
     0
102
RTVSPost2010PropOp36
 70
     1
102
RTVSPost2010Prop37
 90
       50
102
RTVSPost2010PropOp37
 70
     1
102
RTVSPost2010Prop38
140
0.0
102
RTVSPost2010PropOp38
 70
     1
102
RTVSPost2010Prop39
140
1.0
102
RTVSPost2010PropOp39
 70
     1
102
RTVSPost2010Prop40
 90
        0
102
RTVSPost2010PropOp40
 70
     1
102
RTVSPost2010Prop41ColorIndex
 90
       18
102
RTVSPost2010Prop41ColorRGB
 90
        0
102
RTVSPost2010PropOp41
 70
     1
102
RTVSPost2010Prop42
 90
       50
102
RTVSPost2010PropOp42
 70
     1
102
RTVSPost2010Prop43
 90
        3
102
RTVSPost2010PropOp43
 70
     1
102
RTVSPost2010Prop44ColorIndex
 90
        5
102
RTVSPost2010Prop44ColorRGB
 90
      255
102
RTVSPost2010PropOp44
 70
     1
102
RTVSPost2010Prop45
280
     0
102
RTVSPost2010PropOp45
 70
     1
102
RTVSPost2010Prop46
 90
       50
102
RTVSPost2010PropOp46
 70
     1
102
RTVSPost2010Prop47
 90
       50
102
RTVSPost2010PropOp47
 70
     1
102
RTVSPost2010Prop48
 90
       50
102
RTVSPost2010PropOp48
 70
     1
102
RTVSPost2010Prop49
280
     0
102
RTVSPost2010PropOp49
 70
     1
102
RTVSPost2010Prop50
 90
       50
102
RTVSPost2010PropOp50
 70
     1
102
RTVSPost2010Prop51ColorIndex
 90
      256
102
RTVSPost2010Prop51ColorRGB
 90
-16777216
102
RTVSPost2010PropOp51
 70
     0
102
RTVSPost2010Prop52
140
1.0
102
RTVSPost2010PropOp52
 70
     0
102
RTVSPost2010Prop53
 90
        2
102
RTVSPost2010PropOp53
 70
     1
102
RTVSPost2010Prop54
  1
strokes_ogs.tif
102
RTVSPost2010PropOp54
 70
     1
102
RTVSPost2010Prop55
280
     0
102
RTVSPost2010PropOp55
 70
     1
102
RTVSPost2010Prop56
140
1.0
102
RTVSPost2010PropOp56
 70
     1
102
RTVSPost2010Prop57
140
1.0
102
RTVSPost2010PropOp57
 70
     1
102
RTVSPropertyOp0
 70
     1
102
RTVSPropertyOp1
 70
     1
102
RTVSPropertyOp2
 70
     1
102
RTVSPropertyOp3
 70
     1
102
RTVSPropertyOp4
 70
     1
102
RTVSPropertyOp5
 70
     1
102
RTVSPropertyOp6
 70
     1
102
RTVSPropertyOp7
 70
     1
102
RTVSPropertyOp8
 70
     1
102
RTVSPropertyOp9
 70
     1
102
RTVSPropertyOp10
 70
     1
102
RTVSPropertyOp11
 70
     1
102
RTVSPropertyOp12
 70
     1
102
RTVSPropertyOp13
 70
     1
102
RTVSPropertyOp14
 70
     1
102
RTVSPropertyOp15
 70
     1
102
RTVSPropertyOp16
 70
     1
102
RTVSPropertyOp17
 70
     1
102
RTVSPropertyOp18
 70
     1
102
RTVSPropertyOp19
 70
     1
102
RTVSPropertyOp20
 70
     1
102
RTVSPropertyOp21
 70
     1
102
RTVSPropertyOp22
 70
     1
102
RTVSPropertyOp23
 70
     1
102
RTVSPropertyOp24
 70
     1
102
RTVSPropertyOp25
 70
     1
102
RTVSPropertyOp26
 70
     1
102
RTVSPropertyOp27
 70
     1
102
RTVSPropertyOp28
 70
     1
102
RTVSPropertyOp29
 70
     1
102
RTVSPropertyOp30
 70
     1
102
RTVSPropertyOp31
 70
     1
102
RTVSPropertyOp32
 70
     1
102
RTVSPropertyOp33
 70
     1
102
RTVSPropertyOp34
 70
     1
102
RTVSPropertyOp35
 70
     1
102
RTVSPropertyOp36
 70
     1
102
RTVSPropertyOp37
 70
     1
102
RTVSPropertyOp38
 70
     1
102
RTVSPropertyOp39
 70
     1
102
RTVSPropertyOp40
 70
     1
102
RTVSPropertyOp41
 70
     1
102
RTVSPropertyOp42
 70
     1
102
RTVSPropertyOp43
 70
     1
102
RTVSPropertyOp44
 70
     1
102
RTVSPropertyOp45
 70
     1
102
RTVSPropertyOp46
 70
     1
102
RTVSPropertyOp47
 70
     1
102
RTVSPropertyOp48
 70
     1
102
RTVSPropertyOp49
 70
     1
102
RTVSPropertyOp50
 70
     1
102
RTVSPropertyOp51
 70
     0
102
RTVSPropertyOp52
 70
     0
102
RTVSPropertyOp53
 70
     1
102
RTVSPropertyOp54
 70
     1
102
RTVSPropertyOp55
 70
     1
102
RTVSPropertyOp56
 70
     1
102
RTVSPropertyOp57
 70
     1
102
RTVSPropertyOp58
 70
     1
102
RTVSPropertyOp59
 70
     1
102
RTVSPropertyOp60
 70
     1
102
RTVSPropertyOp61
 70
     1
102
RTVSPropertyOp62
 70
     1
  0
XRECORD
  5
D2E
102
{ACAD_REACTORS
330
D2D
102
}
330
D2D
100
AcDbXrecord
280
     1
102
RTVSPost2010Prop28
280
     0
102
RTVSPost2010PropOp28
 70
     1
102
RTVSPost2010Prop29
280
     1
102
RTVSPost2010PropOp29
 70
     1
102
RTVSPost2010Prop30
280
     1
102
RTVSPost2010PropOp30
 70
     1
102
RTVSPost2010Prop31
280
     0
102
RTVSPost2010PropOp31
 70
     1
102
RTVSPost2010Prop32
280
     0
102
RTVSPost2010PropOp32
 70
     1
102
RTVSPost2010Prop33
280
     0
102
RTVSPost2010PropOp33
 70
     1
102
RTVSPost2010Prop34
280
     0
102
RTVSPost2010PropOp34
 70
     1
102
RTVSPost2010Prop35
280
     0
102
RTVSPost2010PropOp35
 70
     1
102
RTVSPost2010Prop36
280
     0
102
RTVSPost2010PropOp36
 70
     1
102
RTVSPost2010Prop37
 90
       50
102
RTVSPost2010PropOp37
 70
     1
102
RTVSPost2010Prop38
140
0.0
102
RTVSPost2010PropOp38
 70
     1
102
RTVSPost2010Prop39
140
1.0
102
RTVSPost2010PropOp39
 70
     1
102
RTVSPost2010Prop40
 90
        0
102
RTVSPost2010PropOp40
 70
     1
102
RTVSPost2010Prop41ColorIndex
 90
       18
102
RTVSPost2010Prop41ColorRGB
 90
        0
102
RTVSPost2010PropOp41
 70
     1
102
RTVSPost2010Prop42
 90
       50
102
RTVSPost2010PropOp42
 70
     1
102
RTVSPost2010Prop43
 90
        3
102
RTVSPost2010PropOp43
 70
     1
102
RTVSPost2010Prop44ColorIndex
 90
        5
102
RTVSPost2010Prop44ColorRGB
 90
      255
102
RTVSPost2010PropOp44
 70
     1
102
RTVSPost2010Prop45
280
     0
102
RTVSPost2010PropOp45
 70
     1
102
RTVSPost2010Prop46
 90
       50
102
RTVSPost2010PropOp46
 70
     1
102
RTVSPost2010Prop47
 90
       50
102
RTVSPost2010PropOp47
 70
     1
102
RTVSPost2010Prop48
 90
       50
102
RTVSPost2010PropOp48
 70
     1
102
RTVSPost2010Prop49
280
     0
102
RTVSPost2010PropOp49
 70
     1
102
RTVSPost2010Prop50
 90
       50
102
RTVSPost2010PropOp50
 70
     1
102
RTVSPost2010Prop51ColorIndex
 90
      256
102
RTVSPost2010Prop51ColorRGB
 90
-16777216
102
RTVSPost2010PropOp51
 70
     0
102
RTVSPost2010Prop52
140
1.0
102
RTVSPost2010PropOp52
 70
     0
102
RTVSPost2010Prop53
 90
        2
102
RTVSPost2010PropOp53
 70
     1
102
RTVSPost2010Prop54
  1
strokes_ogs.tif
102
RTVSPost2010PropOp54
 70
     1
102
RTVSPost2010Prop55
280
     0
102
RTVSPost2010PropOp55
 70
     1
102
RTVSPost2010Prop56
140
1.0
102
RTVSPost2010PropOp56
 70
     1
102
RTVSPost2010Prop57
140
1.0
102
RTVSPost2010PropOp57
 70
     1
102
RTVSPropertyOp0
 70
     1
102
RTVSPropertyOp1
 70
     1
102
RTVSPropertyOp2
 70
     1
102
RTVSPropertyOp3
 70
     1
102
RTVSPropertyOp4
 70
     1
102
RTVSPropertyOp5
 70
     1
102
RTVSPropertyOp6
 70
     1
102
RTVSPropertyOp7
 70
     1
102
RTVSPropertyOp8
 70
     1
102
RTVSPropertyOp9
 70
     1
102
RTVSPropertyOp10
 70
     1
102
RTVSPropertyOp11
 70
     1
102
RTVSPropertyOp12
 70
     1
102
RTVSPropertyOp13
 70
     1
102
RTVSPropertyOp14
 70
     1
102
RTVSPropertyOp15
 70
     1
102
RTVSPropertyOp16
 70
     1
102
RTVSPropertyOp17
 70
     1
102
RTVSPropertyOp18
 70
     1
102
RTVSPropertyOp19
 70
     1
102
RTVSPropertyOp20
 70
     1
102
RTVSPropertyOp21
 70
     1
102
RTVSPropertyOp22
 70
     1
102
RTVSPropertyOp23
 70
     1
102
RTVSPropertyOp24
 70
     1
102
RTVSPropertyOp25
 70
     1
102
RTVSPropertyOp26
 70
     1
102
RTVSPropertyOp27
 70
     1
102
RTVSPropertyOp28
 70
     1
102
RTVSPropertyOp29
 70
     1
102
RTVSPropertyOp30
 70
     1
102
RTVSPropertyOp31
 70
     1
102
RTVSPropertyOp32
 70
     1
102
RTVSPropertyOp33
 70
     1
102
RTVSPropertyOp34
 70
     1
102
RTVSPropertyOp35
 70
     1
102
RTVSPropertyOp36
 70
     1
102
RTVSPropertyOp37
 70
     1
102
RTVSPropertyOp38
 70
     1
102
RTVSPropertyOp39
 70
     1
102
RTVSPropertyOp40
 70
     1
102
RTVSPropertyOp41
 70
     1
102
RTVSPropertyOp42
 70
     1
102
RTVSPropertyOp43
 70
     1
102
RTVSPropertyOp44
 70
     1
102
RTVSPropertyOp45
 70
     1
102
RTVSPropertyOp46
 70
     1
102
RTVSPropertyOp47
 70
     1
102
RTVSPropertyOp48
 70
     1
102
RTVSPropertyOp49
 70
     1
102
RTVSPropertyOp50
 70
     1
102
RTVSPropertyOp51
 70
     0
102
RTVSPropertyOp52
 70
     0
102
RTVSPropertyOp53
 70
     1
102
RTVSPropertyOp54
 70
     1
102
RTVSPropertyOp55
 70
     1
102
RTVSPropertyOp56
 70
     1
102
RTVSPropertyOp57
 70
     1
102
RTVSPropertyOp58
 70
     1
102
RTVSPropertyOp59
 70
     1
102
RTVSPropertyOp60
 70
     1
102
RTVSPropertyOp61
 70
     1
102
RTVSPropertyOp62
 70
     1
  0
XRECORD
  5
D2C
102
{ACAD_REACTORS
330
D2B
102
}
330
D2B
100
AcDbXrecord
280
     1
102
RTVSPost2010Prop28
280
     0
102
RTVSPost2010PropOp28
 70
     1
102
RTVSPost2010Prop29
280
     1
102
RTVSPost2010PropOp29
 70
     1
102
RTVSPost2010Prop30
280
     1
102
RTVSPost2010PropOp30
 70
     1
102
RTVSPost2010Prop31
280
     0
102
RTVSPost2010PropOp31
 70
     1
102
RTVSPost2010Prop32
280
     0
102
RTVSPost2010PropOp32
 70
     1
102
RTVSPost2010Prop33
280
     0
102
RTVSPost2010PropOp33
 70
     1
102
RTVSPost2010Prop34
280
     0
102
RTVSPost2010PropOp34
 70
     1
102
RTVSPost2010Prop35
280
     0
102
RTVSPost2010PropOp35
 70
     1
102
RTVSPost2010Prop36
280
     0
102
RTVSPost2010PropOp36
 70
     1
102
RTVSPost2010Prop37
 90
       50
102
RTVSPost2010PropOp37
 70
     1
102
RTVSPost2010Prop38
140
0.0
102
RTVSPost2010PropOp38
 70
     1
102
RTVSPost2010Prop39
140
1.0
102
RTVSPost2010PropOp39
 70
     1
102
RTVSPost2010Prop40
 90
        0
102
RTVSPost2010PropOp40
 70
     1
102
RTVSPost2010Prop41ColorIndex
 90
       18
102
RTVSPost2010Prop41ColorRGB
 90
        0
102
RTVSPost2010PropOp41
 70
     1
102
RTVSPost2010Prop42
 90
       50
102
RTVSPost2010PropOp42
 70
     1
102
RTVSPost2010Prop43
 90
        3
102
RTVSPost2010PropOp43
 70
     1
102
RTVSPost2010Prop44ColorIndex
 90
        5
102
RTVSPost2010Prop44ColorRGB
 90
      255
102
RTVSPost2010PropOp44
 70
     1
102
RTVSPost2010Prop45
280
     0
102
RTVSPost2010PropOp45
 70
     1
102
RTVSPost2010Prop46
 90
       50
102
RTVSPost2010PropOp46
 70
     1
102
RTVSPost2010Prop47
 90
       50
102
RTVSPost2010PropOp47
 70
     1
102
RTVSPost2010Prop48
 90
       50
102
RTVSPost2010PropOp48
 70
     1
102
RTVSPost2010Prop49
280
     0
102
RTVSPost2010PropOp49
 70
     1
102
RTVSPost2010Prop50
 90
       50
102
RTVSPost2010PropOp50
 70
     1
102
RTVSPost2010Prop51ColorIndex
 90
      256
102
RTVSPost2010Prop51ColorRGB
 90
-16777216
102
RTVSPost2010PropOp51
 70
     0
102
RTVSPost2010Prop52
140
1.0
102
RTVSPost2010PropOp52
 70
     0
102
RTVSPost2010Prop53
 90
        2
102
RTVSPost2010PropOp53
 70
     1
102
RTVSPost2010Prop54
  1
strokes_ogs.tif
102
RTVSPost2010PropOp54
 70
     1
102
RTVSPost2010Prop55
280
     0
102
RTVSPost2010PropOp55
 70
     1
102
RTVSPost2010Prop56
140
1.0
102
RTVSPost2010PropOp56
 70
     1
102
RTVSPost2010Prop57
140
1.0
102
RTVSPost2010PropOp57
 70
     1
102
RTVSPropertyOp0
 70
     1
102
RTVSPropertyOp1
 70
     1
102
RTVSPropertyOp2
 70
     1
102
RTVSPropertyOp3
 70
     1
102
RTVSPropertyOp4
 70
     1
102
RTVSPropertyOp5
 70
     1
102
RTVSPropertyOp6
 70
     1
102
RTVSPropertyOp7
 70
     1
102
RTVSPropertyOp8
 70
     1
102
RTVSPropertyOp9
 70
     1
102
RTVSPropertyOp10
 70
     1
102
RTVSPropertyOp11
 70
     1
102
RTVSPropertyOp12
 70
     1
102
RTVSPropertyOp13
 70
     1
102
RTVSPropertyOp14
 70
     1
102
RTVSPropertyOp15
 70
     1
102
RTVSPropertyOp16
 70
     1
102
RTVSPropertyOp17
 70
     1
102
RTVSPropertyOp18
 70
     1
102
RTVSPropertyOp19
 70
     1
102
RTVSPropertyOp20
 70
     1
102
RTVSPropertyOp21
 70
     1
102
RTVSPropertyOp22
 70
     1
102
RTVSPropertyOp23
 70
     1
102
RTVSPropertyOp24
 70
     1
102
RTVSPropertyOp25
 70
     1
102
RTVSPropertyOp26
 70
     1
102
RTVSPropertyOp27
 70
     1
102
RTVSPropertyOp28
 70
     1
102
RTVSPropertyOp29
 70
     1
102
RTVSPropertyOp30
 70
     1
102
RTVSPropertyOp31
 70
     1
102
RTVSPropertyOp32
 70
     1
102
RTVSPropertyOp33
 70
     1
102
RTVSPropertyOp34
 70
     1
102
RTVSPropertyOp35
 70
     1
102
RTVSPropertyOp36
 70
     1
102
RTVSPropertyOp37
 70
     1
102
RTVSPropertyOp38
 70
     1
102
RTVSPropertyOp39
 70
     1
102
RTVSPropertyOp40
 70
     1
102
RTVSPropertyOp41
 70
     1
102
RTVSPropertyOp42
 70
     1
102
RTVSPropertyOp43
 70
     1
102
RTVSPropertyOp44
 70
     1
102
RTVSPropertyOp45
 70
     1
102
RTVSPropertyOp46
 70
     1
102
RTVSPropertyOp47
 70
     1
102
RTVSPropertyOp48
 70
     1
102
RTVSPropertyOp49
 70
     1
102
RTVSPropertyOp50
 70
     1
102
RTVSPropertyOp51
 70
     0
102
RTVSPropertyOp52
 70
     0
102
RTVSPropertyOp53
 70
     1
102
RTVSPropertyOp54
 70
     1
102
RTVSPropertyOp55
 70
     1
102
RTVSPropertyOp56
 70
     1
102
RTVSPropertyOp57
 70
     1
102
RTVSPropertyOp58
 70
     1
102
RTVSPropertyOp59
 70
     1
102
RTVSPropertyOp60
 70
     1
102
RTVSPropertyOp61
 70
     1
102
RTVSPropertyOp62
 70
     1
  0
XRECORD
  5
D26
102
{ACAD_REACTORS
330
D25
102
}
330
D25
100
AcDbXrecord
280
     1
102
RTVSPost2010Prop28
280
     0
102
RTVSPost2010PropOp28
 70
     1
102
RTVSPost2010Prop29
280
     1
102
RTVSPost2010PropOp29
 70
     1
102
RTVSPost2010Prop30
280
     1
102
RTVSPost2010PropOp30
 70
     1
102
RTVSPost2010Prop31
280
     0
102
RTVSPost2010PropOp31
 70
     1
102
RTVSPost2010Prop32
280
     0
102
RTVSPost2010PropOp32
 70
     1
102
RTVSPost2010Prop33
280
     0
102
RTVSPost2010PropOp33
 70
     1
102
RTVSPost2010Prop34
280
     0
102
RTVSPost2010PropOp34
 70
     1
102
RTVSPost2010Prop35
280
     0
102
RTVSPost2010PropOp35
 70
     1
102
RTVSPost2010Prop36
280
     0
102
RTVSPost2010PropOp36
 70
     1
102
RTVSPost2010Prop37
 90
       50
102
RTVSPost2010PropOp37
 70
     1
102
RTVSPost2010Prop38
140
0.0
102
RTVSPost2010PropOp38
 70
     1
102
RTVSPost2010Prop39
140
1.0
102
RTVSPost2010PropOp39
 70
     1
102
RTVSPost2010Prop40
 90
        0
102
RTVSPost2010PropOp40
 70
     1
102
RTVSPost2010Prop41ColorIndex
 90
       18
102
RTVSPost2010Prop41ColorRGB
 90
        0
102
RTVSPost2010PropOp41
 70
     1
102
RTVSPost2010Prop42
 90
       50
102
RTVSPost2010PropOp42
 70
     1
102
RTVSPost2010Prop43
 90
        3
102
RTVSPost2010PropOp43
 70
     1
102
RTVSPost2010Prop44ColorIndex
 90
        5
102
RTVSPost2010Prop44ColorRGB
 90
      255
102
RTVSPost2010PropOp44
 70
     1
102
RTVSPost2010Prop45
280
     0
102
RTVSPost2010PropOp45
 70
     1
102
RTVSPost2010Prop46
 90
       50
102
RTVSPost2010PropOp46
 70
     1
102
RTVSPost2010Prop47
 90
       50
102
RTVSPost2010PropOp47
 70
     1
102
RTVSPost2010Prop48
 90
       50
102
RTVSPost2010PropOp48
 70
     1
102
RTVSPost2010Prop49
280
     0
102
RTVSPost2010PropOp49
 70
     1
102
RTVSPost2010Prop50
 90
       50
102
RTVSPost2010PropOp50
 70
     1
102
RTVSPost2010Prop51ColorIndex
 90
      256
102
RTVSPost2010Prop51ColorRGB
 90
-16777216
102
RTVSPost2010PropOp51
 70
     0
102
RTVSPost2010Prop52
140
1.0
102
RTVSPost2010PropOp52
 70
     0
102
RTVSPost2010Prop53
 90
        2
102
RTVSPost2010PropOp53
 70
     1
102
RTVSPost2010Prop54
  1
strokes_ogs.tif
102
RTVSPost2010PropOp54
 70
     1
102
RTVSPost2010Prop55
280
     0
102
RTVSPost2010PropOp55
 70
     1
102
RTVSPost2010Prop56
140
1.0
102
RTVSPost2010PropOp56
 70
     1
102
RTVSPost2010Prop57
140
1.0
102
RTVSPost2010PropOp57
 70
     1
102
RTVSPropertyOp0
 70
     1
102
RTVSPropertyOp1
 70
     1
102
RTVSPropertyOp2
 70
     1
102
RTVSPropertyOp3
 70
     1
102
RTVSPropertyOp4
 70
     1
102
RTVSPropertyOp5
 70
     1
102
RTVSPropertyOp6
 70
     1
102
RTVSPropertyOp7
 70
     1
102
RTVSPropertyOp8
 70
     1
102
RTVSPropertyOp9
 70
     1
102
RTVSPropertyOp10
 70
     1
102
RTVSPropertyOp11
 70
     1
102
RTVSPropertyOp12
 70
     1
102
RTVSPropertyOp13
 70
     1
102
RTVSPropertyOp14
 70
     1
102
RTVSPropertyOp15
 70
     1
102
RTVSPropertyOp16
 70
     1
102
RTVSPropertyOp17
 70
     1
102
RTVSPropertyOp18
 70
     1
102
RTVSPropertyOp19
 70
     1
102
RTVSPropertyOp20
 70
     1
102
RTVSPropertyOp21
 70
     1
102
RTVSPropertyOp22
 70
     1
102
RTVSPropertyOp23
 70
     1
102
RTVSPropertyOp24
 70
     1
102
RTVSPropertyOp25
 70
     1
102
RTVSPropertyOp26
 70
     1
102
RTVSPropertyOp27
 70
     1
102
RTVSPropertyOp28
 70
     1
102
RTVSPropertyOp29
 70
     1
102
RTVSPropertyOp30
 70
     1
102
RTVSPropertyOp31
 70
     1
102
RTVSPropertyOp32
 70
     1
102
RTVSPropertyOp33
 70
     1
102
RTVSPropertyOp34
 70
     1
102
RTVSPropertyOp35
 70
     1
102
RTVSPropertyOp36
 70
     1
102
RTVSPropertyOp37
 70
     1
102
RTVSPropertyOp38
 70
     1
102
RTVSPropertyOp39
 70
     1
102
RTVSPropertyOp40
 70
     1
102
RTVSPropertyOp41
 70
     1
102
RTVSPropertyOp42
 70
     1
102
RTVSPropertyOp43
 70
     1
102
RTVSPropertyOp44
 70
     1
102
RTVSPropertyOp45
 70
     1
102
RTVSPropertyOp46
 70
     1
102
RTVSPropertyOp47
 70
     1
102
RTVSPropertyOp48
 70
     1
102
RTVSPropertyOp49
 70
     1
102
RTVSPropertyOp50
 70
     1
102
RTVSPropertyOp51
 70
     0
102
RTVSPropertyOp52
 70
     0
102
RTVSPropertyOp53
 70
     1
102
RTVSPropertyOp54
 70
     1
102
RTVSPropertyOp55
 70
     1
102
RTVSPropertyOp56
 70
     1
102
RTVSPropertyOp57
 70
     1
102
RTVSPropertyOp58
 70
     1
102
RTVSPropertyOp59
 70
     1
102
RTVSPropertyOp60
 70
     1
102
RTVSPropertyOp61
 70
     1
102
RTVSPropertyOp62
 70
     1
  0
XRECORD
  5
D28
102
{ACAD_REACTORS
330
D27
102
}
330
D27
100
AcDbXrecord
280
     1
102
RTVSPost2010Prop28
280
     0
102
RTVSPost2010PropOp28
 70
     1
102
RTVSPost2010Prop29
280
     1
102
RTVSPost2010PropOp29
 70
     1
102
RTVSPost2010Prop30
280
     1
102
RTVSPost2010PropOp30
 70
     1
102
RTVSPost2010Prop31
280
     0
102
RTVSPost2010PropOp31
 70
     1
102
RTVSPost2010Prop32
280
     0
102
RTVSPost2010PropOp32
 70
     1
102
RTVSPost2010Prop33
280
     0
102
RTVSPost2010PropOp33
 70
     1
102
RTVSPost2010Prop34
280
     0
102
RTVSPost2010PropOp34
 70
     1
102
RTVSPost2010Prop35
280
     0
102
RTVSPost2010PropOp35
 70
     1
102
RTVSPost2010Prop36
280
     0
102
RTVSPost2010PropOp36
 70
     1
102
RTVSPost2010Prop37
 90
       50
102
RTVSPost2010PropOp37
 70
     1
102
RTVSPost2010Prop38
140
0.0
102
RTVSPost2010PropOp38
 70
     1
102
RTVSPost2010Prop39
140
1.0
102
RTVSPost2010PropOp39
 70
     1
102
RTVSPost2010Prop40
 90
        0
102
RTVSPost2010PropOp40
 70
     1
102
RTVSPost2010Prop41ColorIndex
 90
       18
102
RTVSPost2010Prop41ColorRGB
 90
        0
102
RTVSPost2010PropOp41
 70
     1
102
RTVSPost2010Prop42
 90
       50
102
RTVSPost2010PropOp42
 70
     1
102
RTVSPost2010Prop43
 90
        3
102
RTVSPost2010PropOp43
 70
     1
102
RTVSPost2010Prop44ColorIndex
 90
        5
102
RTVSPost2010Prop44ColorRGB
 90
      255
102
RTVSPost2010PropOp44
 70
     1
102
RTVSPost2010Prop45
280
     0
102
RTVSPost2010PropOp45
 70
     1
102
RTVSPost2010Prop46
 90
       50
102
RTVSPost2010PropOp46
 70
     1
102
RTVSPost2010Prop47
 90
       50
102
RTVSPost2010PropOp47
 70
     1
102
RTVSPost2010Prop48
 90
       50
102
RTVSPost2010PropOp48
 70
     1
102
RTVSPost2010Prop49
280
     0
102
RTVSPost2010PropOp49
 70
     1
102
RTVSPost2010Prop50
 90
       50
102
RTVSPost2010PropOp50
 70
     1
102
RTVSPost2010Prop51ColorIndex
 90
      256
102
RTVSPost2010Prop51ColorRGB
 90
-16777216
102
RTVSPost2010PropOp51
 70
     0
102
RTVSPost2010Prop52
140
1.0
102
RTVSPost2010PropOp52
 70
     0
102
RTVSPost2010Prop53
 90
        2
102
RTVSPost2010PropOp53
 70
     1
102
RTVSPost2010Prop54
  1
strokes_ogs.tif
102
RTVSPost2010PropOp54
 70
     1
102
RTVSPost2010Prop55
280
     0
102
RTVSPost2010PropOp55
 70
     1
102
RTVSPost2010Prop56
140
1.0
102
RTVSPost2010PropOp56
 70
     1
102
RTVSPost2010Prop57
140
1.0
102
RTVSPost2010PropOp57
 70
     1
102
RTVSPropertyOp0
 70
     1
102
RTVSPropertyOp1
 70
     1
102
RTVSPropertyOp2
 70
     1
102
RTVSPropertyOp3
 70
     1
102
RTVSPropertyOp4
 70
     1
102
RTVSPropertyOp5
 70
     1
102
RTVSPropertyOp6
 70
     1
102
RTVSPropertyOp7
 70
     1
102
RTVSPropertyOp8
 70
     1
102
RTVSPropertyOp9
 70
     1
102
RTVSPropertyOp10
 70
     1
102
RTVSPropertyOp11
 70
     1
102
RTVSPropertyOp12
 70
     1
102
RTVSPropertyOp13
 70
     1
102
RTVSPropertyOp14
 70
     1
102
RTVSPropertyOp15
 70
     1
102
RTVSPropertyOp16
 70
     1
102
RTVSPropertyOp17
 70
     1
102
RTVSPropertyOp18
 70
     1
102
RTVSPropertyOp19
 70
     1
102
RTVSPropertyOp20
 70
     1
102
RTVSPropertyOp21
 70
     1
102
RTVSPropertyOp22
 70
     1
102
RTVSPropertyOp23
 70
     1
102
RTVSPropertyOp24
 70
     1
102
RTVSPropertyOp25
 70
     1
102
RTVSPropertyOp26
 70
     1
102
RTVSPropertyOp27
 70
     1
102
RTVSPropertyOp28
 70
     1
102
RTVSPropertyOp29
 70
     1
102
RTVSPropertyOp30
 70
     1
102
RTVSPropertyOp31
 70
     1
102
RTVSPropertyOp32
 70
     1
102
RTVSPropertyOp33
 70
     1
102
RTVSPropertyOp34
 70
     1
102
RTVSPropertyOp35
 70
     1
102
RTVSPropertyOp36
 70
     1
102
RTVSPropertyOp37
 70
     1
102
RTVSPropertyOp38
 70
     1
102
RTVSPropertyOp39
 70
     1
102
RTVSPropertyOp40
 70
     1
102
RTVSPropertyOp41
 70
     1
102
RTVSPropertyOp42
 70
     1
102
RTVSPropertyOp43
 70
     1
102
RTVSPropertyOp44
 70
     1
102
RTVSPropertyOp45
 70
     1
102
RTVSPropertyOp46
 70
     1
102
RTVSPropertyOp47
 70
     1
102
RTVSPropertyOp48
 70
     1
102
RTVSPropertyOp49
 70
     1
102
RTVSPropertyOp50
 70
     1
102
RTVSPropertyOp51
 70
     0
102
RTVSPropertyOp52
 70
     0
102
RTVSPropertyOp53
 70
     1
102
RTVSPropertyOp54
 70
     1
102
RTVSPropertyOp55
 70
     1
102
RTVSPropertyOp56
 70
     1
102
RTVSPropertyOp57
 70
     1
102
RTVSPropertyOp58
 70
     1
102
RTVSPropertyOp59
 70
     1
102
RTVSPropertyOp60
 70
     1
102
RTVSPropertyOp61
 70
     1
102
RTVSPropertyOp62
 70
     1
  0
XRECORD
  5
D1E
102
{ACAD_REACTORS
330
D1D
102
}
330
D1D
100
AcDbXrecord
280
     1
102
RTVSPost2010Prop28
280
     0
102
RTVSPost2010PropOp28
 70
     1
102
RTVSPost2010Prop29
280
     1
102
RTVSPost2010PropOp29
 70
     1
102
RTVSPost2010Prop30
280
     1
102
RTVSPost2010PropOp30
 70
     1
102
RTVSPost2010Prop31
280
     0
102
RTVSPost2010PropOp31
 70
     1
102
RTVSPost2010Prop32
280
     0
102
RTVSPost2010PropOp32
 70
     1
102
RTVSPost2010Prop33
280
     0
102
RTVSPost2010PropOp33
 70
     1
102
RTVSPost2010Prop34
280
     0
102
RTVSPost2010PropOp34
 70
     1
102
RTVSPost2010Prop35
280
     0
102
RTVSPost2010PropOp35
 70
     1
102
RTVSPost2010Prop36
280
     0
102
RTVSPost2010PropOp36
 70
     1
102
RTVSPost2010Prop37
 90
       50
102
RTVSPost2010PropOp37
 70
     1
102
RTVSPost2010Prop38
140
0.0
102
RTVSPost2010PropOp38
 70
     1
102
RTVSPost2010Prop39
140
1.0
102
RTVSPost2010PropOp39
 70
     1
102
RTVSPost2010Prop40
 90
        0
102
RTVSPost2010PropOp40
 70
     1
102
RTVSPost2010Prop41ColorIndex
 90
       18
102
RTVSPost2010Prop41ColorRGB
 90
        0
102
RTVSPost2010PropOp41
 70
     1
102
RTVSPost2010Prop42
 90
       50
102
RTVSPost2010PropOp42
 70
     1
102
RTVSPost2010Prop43
 90
        3
102
RTVSPost2010PropOp43
 70
     1
102
RTVSPost2010Prop44ColorIndex
 90
        5
102
RTVSPost2010Prop44ColorRGB
 90
      255
102
RTVSPost2010PropOp44
 70
     1
102
RTVSPost2010Prop45
280
     0
102
RTVSPost2010PropOp45
 70
     1
102
RTVSPost2010Prop46
 90
       50
102
RTVSPost2010PropOp46
 70
     1
102
RTVSPost2010Prop47
 90
       50
102
RTVSPost2010PropOp47
 70
     1
102
RTVSPost2010Prop48
 90
       50
102
RTVSPost2010PropOp48
 70
     1
102
RTVSPost2010Prop49
280
     0
102
RTVSPost2010PropOp49
 70
     1
102
RTVSPost2010Prop50
 90
       50
102
RTVSPost2010PropOp50
 70
     1
102
RTVSPost2010Prop51ColorIndex
 90
      256
102
RTVSPost2010Prop51ColorRGB
 90
-16777216
102
RTVSPost2010PropOp51
 70
     0
102
RTVSPost2010Prop52
140
1.0
102
RTVSPost2010PropOp52
 70
     0
102
RTVSPost2010Prop53
 90
        2
102
RTVSPost2010PropOp53
 70
     1
102
RTVSPost2010Prop54
  1
strokes_ogs.tif
102
RTVSPost2010PropOp54
 70
     1
102
RTVSPost2010Prop55
280
     0
102
RTVSPost2010PropOp55
 70
     1
102
RTVSPost2010Prop56
140
1.0
102
RTVSPost2010PropOp56
 70
     1
102
RTVSPost2010Prop57
140
1.0
102
RTVSPost2010PropOp57
 70
     1
102
RTVSPropertyOp0
 70
     1
102
RTVSPropertyOp1
 70
     1
102
RTVSPropertyOp2
 70
     1
102
RTVSPropertyOp3
 70
     1
102
RTVSPropertyOp4
 70
     1
102
RTVSPropertyOp5
 70
     1
102
RTVSPropertyOp6
 70
     1
102
RTVSPropertyOp7
 70
     1
102
RTVSPropertyOp8
 70
     1
102
RTVSPropertyOp9
 70
     1
102
RTVSPropertyOp10
 70
     1
102
RTVSPropertyOp11
 70
     1
102
RTVSPropertyOp12
 70
     1
102
RTVSPropertyOp13
 70
     1
102
RTVSPropertyOp14
 70
     1
102
RTVSPropertyOp15
 70
     1
102
RTVSPropertyOp16
 70
     1
102
RTVSPropertyOp17
 70
     1
102
RTVSPropertyOp18
 70
     1
102
RTVSPropertyOp19
 70
     1
102
RTVSPropertyOp20
 70
     1
102
RTVSPropertyOp21
 70
     1
102
RTVSPropertyOp22
 70
     1
102
RTVSPropertyOp23
 70
     1
102
RTVSPropertyOp24
 70
     1
102
RTVSPropertyOp25
 70
     1
102
RTVSPropertyOp26
 70
     1
102
RTVSPropertyOp27
 70
     1
102
RTVSPropertyOp28
 70
     1
102
RTVSPropertyOp29
 70
     1
102
RTVSPropertyOp30
 70
     1
102
RTVSPropertyOp31
 70
     1
102
RTVSPropertyOp32
 70
     1
102
RTVSPropertyOp33
 70
     1
102
RTVSPropertyOp34
 70
     1
102
RTVSPropertyOp35
 70
     1
102
RTVSPropertyOp36
 70
     1
102
RTVSPropertyOp37
 70
     1
102
RTVSPropertyOp38
 70
     1
102
RTVSPropertyOp39
 70
     1
102
RTVSPropertyOp40
 70
     1
102
RTVSPropertyOp41
 70
     1
102
RTVSPropertyOp42
 70
     1
102
RTVSPropertyOp43
 70
     1
102
RTVSPropertyOp44
 70
     1
102
RTVSPropertyOp45
 70
     1
102
RTVSPropertyOp46
 70
     1
102
RTVSPropertyOp47
 70
     1
102
RTVSPropertyOp48
 70
     1
102
RTVSPropertyOp49
 70
     1
102
RTVSPropertyOp50
 70
     1
102
RTVSPropertyOp51
 70
     0
102
RTVSPropertyOp52
 70
     0
102
RTVSPropertyOp53
 70
     1
102
RTVSPropertyOp54
 70
     1
102
RTVSPropertyOp55
 70
     1
102
RTVSPropertyOp56
 70
     1
102
RTVSPropertyOp57
 70
     1
102
RTVSPropertyOp58
 70
     1
102
RTVSPropertyOp59
 70
     1
102
RTVSPropertyOp60
 70
     1
102
RTVSPropertyOp61
 70
     1
102
RTVSPropertyOp62
 70
     1
  0
XRECORD
  5
D12
102
{ACAD_REACTORS
330
D11
102
}
330
D11
100
AcDbXrecord
280
     1
102
RTVSPost2010Prop28
280
     0
102
RTVSPost2010PropOp28
 70
     1
102
RTVSPost2010Prop29
280
     1
102
RTVSPost2010PropOp29
 70
     1
102
RTVSPost2010Prop30
280
     1
102
RTVSPost2010PropOp30
 70
     1
102
RTVSPost2010Prop31
280
     0
102
RTVSPost2010PropOp31
 70
     1
102
RTVSPost2010Prop32
280
     0
102
RTVSPost2010PropOp32
 70
     1
102
RTVSPost2010Prop33
280
     0
102
RTVSPost2010PropOp33
 70
     1
102
RTVSPost2010Prop34
280
     0
102
RTVSPost2010PropOp34
 70
     1
102
RTVSPost2010Prop35
280
     0
102
RTVSPost2010PropOp35
 70
     1
102
RTVSPost2010Prop36
280
     0
102
RTVSPost2010PropOp36
 70
     1
102
RTVSPost2010Prop37
 90
       50
102
RTVSPost2010PropOp37
 70
     1
102
RTVSPost2010Prop38
140
0.0
102
RTVSPost2010PropOp38
 70
     1
102
RTVSPost2010Prop39
140
1.0
102
RTVSPost2010PropOp39
 70
     1
102
RTVSPost2010Prop40
 90
        0
102
RTVSPost2010PropOp40
 70
     1
102
RTVSPost2010Prop41ColorIndex
 90
       18
102
RTVSPost2010Prop41ColorRGB
 90
        0
102
RTVSPost2010PropOp41
 70
     1
102
RTVSPost2010Prop42
 90
       50
102
RTVSPost2010PropOp42
 70
     1
102
RTVSPost2010Prop43
 90
        3
102
RTVSPost2010PropOp43
 70
     1
102
RTVSPost2010Prop44ColorIndex
 90
        5
102
RTVSPost2010Prop44ColorRGB
 90
      255
102
RTVSPost2010PropOp44
 70
     1
102
RTVSPost2010Prop45
280
     0
102
RTVSPost2010PropOp45
 70
     1
102
RTVSPost2010Prop46
 90
       50
102
RTVSPost2010PropOp46
 70
     1
102
RTVSPost2010Prop47
 90
       50
102
RTVSPost2010PropOp47
 70
     1
102
RTVSPost2010Prop48
 90
       50
102
RTVSPost2010PropOp48
 70
     1
102
RTVSPost2010Prop49
280
     0
102
RTVSPost2010PropOp49
 70
     1
102
RTVSPost2010Prop50
 90
       50
102
RTVSPost2010PropOp50
 70
     1
102
RTVSPost2010Prop51ColorIndex
 90
      256
102
RTVSPost2010Prop51ColorRGB
 90
-16777216
102
RTVSPost2010PropOp51
 70
     0
102
RTVSPost2010Prop52
140
1.0
102
RTVSPost2010PropOp52
 70
     0
102
RTVSPost2010Prop53
 90
        2
102
RTVSPost2010PropOp53
 70
     1
102
RTVSPost2010Prop54
  1
strokes_ogs.tif
102
RTVSPost2010PropOp54
 70
     1
102
RTVSPost2010Prop55
280
     0
102
RTVSPost2010PropOp55
 70
     1
102
RTVSPost2010Prop56
140
1.0
102
RTVSPost2010PropOp56
 70
     1
102
RTVSPost2010Prop57
140
1.0
102
RTVSPost2010PropOp57
 70
     1
102
RTVSPropertyOp0
 70
     1
102
RTVSPropertyOp1
 70
     1
102
RTVSPropertyOp2
 70
     1
102
RTVSPropertyOp3
 70
     1
102
RTVSPropertyOp4
 70
     1
102
RTVSPropertyOp5
 70
     1
102
RTVSPropertyOp6
 70
     1
102
RTVSPropertyOp7
 70
     1
102
RTVSPropertyOp8
 70
     1
102
RTVSPropertyOp9
 70
     1
102
RTVSPropertyOp10
 70
     1
102
RTVSPropertyOp11
 70
     1
102
RTVSPropertyOp12
 70
     1
102
RTVSPropertyOp13
 70
     1
102
RTVSPropertyOp14
 70
     1
102
RTVSPropertyOp15
 70
     1
102
RTVSPropertyOp16
 70
     1
102
RTVSPropertyOp17
 70
     1
102
RTVSPropertyOp18
 70
     1
102
RTVSPropertyOp19
 70
     1
102
RTVSPropertyOp20
 70
     1
102
RTVSPropertyOp21
 70
     1
102
RTVSPropertyOp22
 70
     1
102
RTVSPropertyOp23
 70
     1
102
RTVSPropertyOp24
 70
     1
102
RTVSPropertyOp25
 70
     1
102
RTVSPropertyOp26
 70
     1
102
RTVSPropertyOp27
 70
     1
102
RTVSPropertyOp28
 70
     1
102
RTVSPropertyOp29
 70
     1
102
RTVSPropertyOp30
 70
     1
102
RTVSPropertyOp31
 70
     1
102
RTVSPropertyOp32
 70
     1
102
RTVSPropertyOp33
 70
     1
102
RTVSPropertyOp34
 70
     1
102
RTVSPropertyOp35
 70
     1
102
RTVSPropertyOp36
 70
     1
102
RTVSPropertyOp37
 70
     1
102
RTVSPropertyOp38
 70
     1
102
RTVSPropertyOp39
 70
     1
102
RTVSPropertyOp40
 70
     1
102
RTVSPropertyOp41
 70
     1
102
RTVSPropertyOp42
 70
     1
102
RTVSPropertyOp43
 70
     1
102
RTVSPropertyOp44
 70
     1
102
RTVSPropertyOp45
 70
     1
102
RTVSPropertyOp46
 70
     1
102
RTVSPropertyOp47
 70
     1
102
RTVSPropertyOp48
 70
     1
102
RTVSPropertyOp49
 70
     1
102
RTVSPropertyOp50
 70
     1
102
RTVSPropertyOp51
 70
     0
102
RTVSPropertyOp52
 70
     0
102
RTVSPropertyOp53
 70
     1
102
RTVSPropertyOp54
 70
     1
102
RTVSPropertyOp55
 70
     1
102
RTVSPropertyOp56
 70
     1
102
RTVSPropertyOp57
 70
     1
102
RTVSPropertyOp58
 70
     1
102
RTVSPropertyOp59
 70
     1
102
RTVSPropertyOp60
 70
     1
102
RTVSPropertyOp61
 70
     1
102
RTVSPropertyOp62
 70
     1
  0
XRECORD
  5
D2A
102
{ACAD_REACTORS
330
D29
102
}
330
D29
100
AcDbXrecord
280
     1
102
RTVSPost2010Prop28
280
     0
102
RTVSPost2010PropOp28
 70
     1
102
RTVSPost2010Prop29
280
     1
102
RTVSPost2010PropOp29
 70
     1
102
RTVSPost2010Prop30
280
     1
102
RTVSPost2010PropOp30
 70
     1
102
RTVSPost2010Prop31
280
     0
102
RTVSPost2010PropOp31
 70
     1
102
RTVSPost2010Prop32
280
     0
102
RTVSPost2010PropOp32
 70
     1
102
RTVSPost2010Prop33
280
     0
102
RTVSPost2010PropOp33
 70
     1
102
RTVSPost2010Prop34
280
     0
102
RTVSPost2010PropOp34
 70
     1
102
RTVSPost2010Prop35
280
     0
102
RTVSPost2010PropOp35
 70
     1
102
RTVSPost2010Prop36
280
     0
102
RTVSPost2010PropOp36
 70
     1
102
RTVSPost2010Prop37
 90
       50
102
RTVSPost2010PropOp37
 70
     1
102
RTVSPost2010Prop38
140
0.0
102
RTVSPost2010PropOp38
 70
     1
102
RTVSPost2010Prop39
140
1.0
102
RTVSPost2010PropOp39
 70
     1
102
RTVSPost2010Prop40
 90
        0
102
RTVSPost2010PropOp40
 70
     1
102
RTVSPost2010Prop41ColorIndex
 90
       18
102
RTVSPost2010Prop41ColorRGB
 90
        0
102
RTVSPost2010PropOp41
 70
     1
102
RTVSPost2010Prop42
 90
       50
102
RTVSPost2010PropOp42
 70
     1
102
RTVSPost2010Prop43
 90
        3
102
RTVSPost2010PropOp43
 70
     1
102
RTVSPost2010Prop44ColorIndex
 90
        5
102
RTVSPost2010Prop44ColorRGB
 90
      255
102
RTVSPost2010PropOp44
 70
     1
102
RTVSPost2010Prop45
280
     0
102
RTVSPost2010PropOp45
 70
     1
102
RTVSPost2010Prop46
 90
       50
102
RTVSPost2010PropOp46
 70
     1
102
RTVSPost2010Prop47
 90
       50
102
RTVSPost2010PropOp47
 70
     1
102
RTVSPost2010Prop48
 90
       50
102
RTVSPost2010PropOp48
 70
     1
102
RTVSPost2010Prop49
280
     0
102
RTVSPost2010PropOp49
 70
     1
102
RTVSPost2010Prop50
 90
       50
102
RTVSPost2010PropOp50
 70
     1
102
RTVSPost2010Prop51ColorIndex
 90
      256
102
RTVSPost2010Prop51ColorRGB
 90
-16777216
102
RTVSPost2010PropOp51
 70
     0
102
RTVSPost2010Prop52
140
1.0
102
RTVSPost2010PropOp52
 70
     0
102
RTVSPost2010Prop53
 90
        2
102
RTVSPost2010PropOp53
 70
     1
102
RTVSPost2010Prop54
  1
strokes_ogs.tif
102
RTVSPost2010PropOp54
 70
     1
102
RTVSPost2010Prop55
280
     0
102
RTVSPost2010PropOp55
 70
     1
102
RTVSPost2010Prop56
140
1.0
102
RTVSPost2010PropOp56
 70
     1
102
RTVSPost2010Prop57
140
1.0
102
RTVSPost2010PropOp57
 70
     1
102
RTVSPropertyOp0
 70
     1
102
RTVSPropertyOp1
 70
     1
102
RTVSPropertyOp2
 70
     1
102
RTVSPropertyOp3
 70
     1
102
RTVSPropertyOp4
 70
     1
102
RTVSPropertyOp5
 70
     1
102
RTVSPropertyOp6
 70
     1
102
RTVSPropertyOp7
 70
     1
102
RTVSPropertyOp8
 70
     1
102
RTVSPropertyOp9
 70
     1
102
RTVSPropertyOp10
 70
     1
102
RTVSPropertyOp11
 70
     1
102
RTVSPropertyOp12
 70
     1
102
RTVSPropertyOp13
 70
     1
102
RTVSPropertyOp14
 70
     1
102
RTVSPropertyOp15
 70
     1
102
RTVSPropertyOp16
 70
     1
102
RTVSPropertyOp17
 70
     1
102
RTVSPropertyOp18
 70
     1
102
RTVSPropertyOp19
 70
     1
102
RTVSPropertyOp20
 70
     1
102
RTVSPropertyOp21
 70
     1
102
RTVSPropertyOp22
 70
     1
102
RTVSPropertyOp23
 70
     1
102
RTVSPropertyOp24
 70
     1
102
RTVSPropertyOp25
 70
     1
102
RTVSPropertyOp26
 70
     1
102
RTVSPropertyOp27
 70
     1
102
RTVSPropertyOp28
 70
     1
102
RTVSPropertyOp29
 70
     1
102
RTVSPropertyOp30
 70
     1
102
RTVSPropertyOp31
 70
     1
102
RTVSPropertyOp32
 70
     1
102
RTVSPropertyOp33
 70
     1
102
RTVSPropertyOp34
 70
     1
102
RTVSPropertyOp35
 70
     1
102
RTVSPropertyOp36
 70
     1
102
RTVSPropertyOp37
 70
     1
102
RTVSPropertyOp38
 70
     1
102
RTVSPropertyOp39
 70
     1
102
RTVSPropertyOp40
 70
     1
102
RTVSPropertyOp41
 70
     1
102
RTVSPropertyOp42
 70
     1
102
RTVSPropertyOp43
 70
     1
102
RTVSPropertyOp44
 70
     1
102
RTVSPropertyOp45
 70
     1
102
RTVSPropertyOp46
 70
     1
102
RTVSPropertyOp47
 70
     1
102
RTVSPropertyOp48
 70
     1
102
RTVSPropertyOp49
 70
     1
102
RTVSPropertyOp50
 70
     1
102
RTVSPropertyOp51
 70
     0
102
RTVSPropertyOp52
 70
     0
102
RTVSPropertyOp53
 70
     1
102
RTVSPropertyOp54
 70
     1
102
RTVSPropertyOp55
 70
     1
102
RTVSPropertyOp56
 70
     1
102
RTVSPropertyOp57
 70
     1
102
RTVSPropertyOp58
 70
     1
102
RTVSPropertyOp59
 70
     1
102
RTVSPropertyOp60
 70
     1
102
RTVSPropertyOp61
 70
     1
102
RTVSPropertyOp62
 70
     1
  0
ENDSEC
  0
EOF
