  0
SECTION
  2
HEADER
  9
$ACADVER
  1
AC1015
  9
$ACADMAINTVER
 70
    20
  9
$DWGCODEPAGE
  3
ANSI_932
  9
$INSBASE
 10
0.0
 20
0.0
 30
0.0
  9
$EXTMIN
 10
9.9999975266385
 20
10.0
 30
0.0
  9
$EXTMAX
 10
445.8497107785547
 20
311.631846959965
 30
0.0
  9
$LIMMIN
 10
0.0000015376081137
 20
-0.0000001931532552
  9
$LIMMAX
 10
495.0000015376081
 20
341.2499998068465
  9
$ORTHOMODE
 70
     1
  9
$REGENMODE
 70
     1
  9
$FILLMODE
 70
     1
  9
$QTEXTMODE
 70
     0
  9
$MIRRTEXT
 70
     1
  9
$LTSCALE
 40
1.0
  9
$ATTMODE
 70
     1
  9
$TEXTSIZE
 40
2.5
  9
$TRACEWID
 40
1.0
  9
$TEXTSTYLE
  7
STANDARD
  9
$CLAYER
  8
0
  9
$CELTYPE
  6
BYLAYER
  9
$CECOLOR
 62
   256
  9
$CELTSCALE
 40
1.0
  9
$DISPSILH
 70
     0
  9
$DIMSCALE
 40
1.0
  9
$DIMASZ
 40
3.0
  9
$DIMEXO
 40
1.0
  9
$DIMDLI
 40
10.0
  9
$DIMRND
 40
0.0
  9
$DIMDLE
 40
0.0
  9
$DIMEXE
 40
1.0
  9
$DIMTP
 40
0.0
  9
$DIMTM
 40
0.0
  9
$DIMTXT
 40
3.2
  9
$DIMCEN
 40
0.0
  9
$DIMTSZ
 40
0.0
  9
$DIMTOL
 70
     0
  9
$DIMLIM
 70
     0
  9
$DIMTIH
 70
     0
  9
$DIMTOH
 70
     0
  9
$DIMSE1
 70
     0
  9
$DIMSE2
 70
     0
  9
$DIMTAD
 70
     3
  9
$DIMZIN
 70
     8
  9
$DIMBLK
  1

  9
$DIMASO
 70
     1
  9
$DIMSHO
 70
     1
  9
$DIMPOST
  1

  9
$DIMAPOST
  1

  9
$DIMALT
 70
     0
  9
$DIMALTD
 70
     2
  9
$DIMALTF
 40
25.4
  9
$DIMLFAC
 40
1.0
  9
$DIMTOFL
 70
     1
  9
$DIMTVP
 40
0.0
  9
$DIMTIX
 70
     0
  9
$DIMSOXD
 70
     0
  9
$DIMSAH
 70
     1
  9
$DIMBLK1
  1
OPEN
  9
$DIMBLK2
  1
OPEN
  9
$DIMSTYLE
  2
STANDARD
  9
$DIMCLRD
 70
     0
  9
$DIMCLRE
 70
     0
  9
$DIMCLRT
 70
     0
  9
$DIMTFAC
 40
1.0
  9
$DIMGAP
 40
1.0
  9
$DIMJUST
 70
     0
  9
$DIMSD1
 70
     0
  9
$DIMSD2
 70
     0
  9
$DIMTOLJ
 70
     1
  9
$DIMTZIN
 70
     0
  9
$DIMALTZ
 70
     0
  9
$DIMALTTZ
 70
     0
  9
$DIMUPT
 70
     0
  9
$DIMDEC
 70
     4
  9
$DIMTDEC
 70
     4
  9
$DIMALTU
 70
     2
  9
$DIMALTTD
 70
     2
  9
$DIMTXSTY
  7
STANDARD
  9
$DIMAUNIT
 70
     0
  9
$DIMADEC
 70
     0
  9
$DIMALTRND
 40
0.0
  9
$DIMAZIN
 70
     0
  9
$DIMDSEP
 70
    46
  9
$DIMATFIT
 70
     3
  9
$DIMFRAC
 70
     0
  9
$DIMLDRBLK
  1
OPEN
  9
$DIMLUNIT
 70
     2
  9
$DIMLWD
 70
    -2
  9
$DIMLWE
 70
    -2
  9
$DIMTMOVE
 70
     0
  9
$LUNITS
 70
     2
  9
$LUPREC
 70
     4
  9
$SKETCHINC
 40
1.0
  9
$FILLETRAD
 40
0.0
  9
$AUNITS
 70
     0
  9
$AUPREC
 70
     0
  9
$MENU
  1
.
  9
$ELEVATION
 40
0.0
  9
$PELEVATION
 40
0.0
  9
$THICKNESS
 40
0.0
  9
$LIMCHECK
 70
     0
  9
$CHAMFERA
 40
10.0
  9
$CHAMFERB
 40
10.0
  9
$CHAMFERC
 40
20.0
  9
$CHAMFERD
 40
0.0
  9
$SKPOLY
 70
     0
  9
$TDCREATE
 40
2455056.362580336
  9
$TDUCREATE
 40
2455055.987580336
  9
$TDUPDATE
 40
2457192.691533634
  9
$TDUUPDATE
 40
2457192.316533635
  9
$TDINDWG
 40
0.1369494097
  9
$TDUSRTIMER
 40
0.1369493750
  9
$USRTIMER
 70
     1
  9
$ANGBASE
 50
0.0
  9
$ANGDIR
 70
     0
  9
$PDMODE
 70
     0
  9
$PDSIZE
 40
0.0
  9
$PLINEWID
 40
0.0
  9
$SPLFRAME
 70
     0
  9
$SPLINETYPE
 70
     6
  9
$SPLINESEGS
 70
     8
  9
$HANDSEED
  5
254A
  9
$SURFTAB1
 70
     6
  9
$SURFTAB2
 70
     6
  9
$SURFTYPE
 70
     6
  9
$SURFU
 70
     6
  9
$SURFV
 70
     6
  9
$UCSBASE
  2

  9
$UCSNAME
  2

  9
$UCSORG
 10
0.0
 20
0.0
 30
0.0
  9
$UCSXDIR
 10
1.0
 20
0.0
 30
0.0
  9
$UCSYDIR
 10
0.0
 20
1.0
 30
0.0
  9
$UCSORTHOREF
  2

  9
$UCSORTHOVIEW
 70
     0
  9
$UCSORGTOP
 10
0.0
 20
0.0
 30
0.0
  9
$UCSORGBOTTOM
 10
0.0
 20
0.0
 30
0.0
  9
$UCSORGLEFT
 10
0.0
 20
0.0
 30
0.0
  9
$UCSORGRIGHT
 10
0.0
 20
0.0
 30
0.0
  9
$UCSORGFRONT
 10
0.0
 20
0.0
 30
0.0
  9
$UCSORGBACK
 10
0.0
 20
0.0
 30
0.0
  9
$PUCSBASE
  2

  9
$PUCSNAME
  2

  9
$PUCSORG
 10
0.0
 20
0.0
 30
0.0
  9
$PUCSXDIR
 10
1.0
 20
0.0
 30
0.0
  9
$PUCSYDIR
 10
0.0
 20
1.0
 30
0.0
  9
$PUCSORTHOREF
  2

  9
$PUCSORTHOVIEW
 70
     0
  9
$PUCSORGTOP
 10
0.0
 20
0.0
 30
0.0
  9
$PUCSORGBOTTOM
 10
0.0
 20
0.0
 30
0.0
  9
$PUCSORGLEFT
 10
0.0
 20
0.0
 30
0.0
  9
$PUCSORGRIGHT
 10
0.0
 20
0.0
 30
0.0
  9
$PUCSORGFRONT
 10
0.0
 20
0.0
 30
0.0
  9
$PUCSORGBACK
 10
0.0
 20
0.0
 30
0.0
  9
$USERI1
 70
     0
  9
$USERI2
 70
     0
  9
$USERI3
 70
     0
  9
$USERI4
 70
     0
  9
$USERI5
 70
     0
  9
$USERR1
 40
0.0
  9
$USERR2
 40
0.0
  9
$USERR3
 40
0.0
  9
$USERR4
 40
0.0
  9
$USERR5
 40
0.0
  9
$WORLDVIEW
 70
     1
  9
$SHADEDGE
 70
     3
  9
$SHADEDIF
 70
    70
  9
$TILEMODE
 70
     1
  9
$MAXACTVP
 70
    48
  9
$PINSBASE
 10
0.0
 20
0.0
 30
0.0
  9
$PLIMCHECK
 70
     0
  9
$PEXTMIN
 10
1.000000000000000E+20
 20
1.000000000000000E+20
 30
1.000000000000000E+20
  9
$PEXTMAX
 10
-1.000000000000000E+20
 20
-1.000000000000000E+20
 30
-1.000000000000000E+20
  9
$PLIMMIN
 10
0.0
 20
0.0
  9
$PLIMMAX
 10
420.0
 20
297.0
  9
$UNITMODE
 70
     0
  9
$VISRETAIN
 70
     1
  9
$PLINEGEN
 70
     0
  9
$PSLTSCALE
 70
     1
  9
$TREEDEPTH
 70
  3020
  9
$CMLSTYLE
  2
STANDARD
  9
$CMLJUST
 70
     0
  9
$CMLSCALE
 40
20.0
  9
$PROXYGRAPHICS
 70
     1
  9
$MEASUREMENT
 70
     0
  9
$CELWEIGHT
370
    -1
  9
$ENDCAPS
280
     0
  9
$JOINSTYLE
280
     0
  9
$LWDISPLAY
290
     0
  9
$INSUNITS
 70
     0
  9
$HYPERLINKBASE
  1

  9
$STYLESHEET
  1

  9
$XEDIT
290
     1
  9
$CEPSNTYPE
380
     0
  9
$PSTYLEMODE
290
     1
  9
$FINGERPRINTGUID
  2
{E2B4AFB2-E213-4669-990A-06A7BD431FFA}
  9
$VERSIONGUID
  2
{E26EA432-54AD-48FF-ABC2-92CACD364A22}
  9
$EXTNAMES
290
     1
  9
$PSVPSCALE
 40
0.0
  9
$OLESTARTUP
290
     0
  0
ENDSEC
  0
SECTION
  2
CLASSES
  0
CLASS
  1
ACDBDICTIONARYWDFLT
  2
AcDbDictionaryWithDefault
  3
ObjectDBX Classes
 90
        0
280
     0
281
     0
  0
CLASS
  1
ACDBPLACEHOLDER
  2
AcDbPlaceHolder
  3
ObjectDBX Classes
 90
        0
280
     0
281
     0
  0
CLASS
  1
LAYOUT
  2
AcDbLayout
  3
ObjectDBX Classes
 90
        0
280
     0
281
     0
  0
CLASS
  1
MATERIAL
  2
AcDbMaterial
  3
ObjectDBX Classes
 90
     1153
280
     0
281
     0
  0
CLASS
  1
VISUALSTYLE
  2
AcDbVisualStyle
  3
ObjectDBX Classes
 90
     4095
280
     0
281
     0
  0
CLASS
  1
TABLESTYLE
  2
AcDbTableStyle
  3
ObjectDBX Classes
 90
     4095
280
     0
281
     0
  0
CLASS
  1
SCALE
  2
AcDbScale
  3
ObjectDBX Classes
 90
     1153
280
     0
281
     0
  0
CLASS
  1
MLEADERSTYLE
  2
AcDbMLeaderStyle
  3
ACDB_MLEADERSTYLE_CLASS
 90
     4095
280
     0
281
     0
  0
CLASS
  1
ACDBSECTIONVIEWSTYLE
  2
AcDbSectionViewStyle
  3
ObjectDBX Classes
 90
     1025
280
     0
281
     0
  0
CLASS
  1
ACDBDETAILVIEWSTYLE
  2
AcDbDetailViewStyle
  3
ObjectDBX Classes
 90
     1025
280
     0
281
     0
  0
CLASS
  1
DICTIONARYVAR
  2
AcDbDictionaryVar
  3
ObjectDBX Classes
 90
        0
280
     0
281
     0
  0
CLASS
  1
CELLSTYLEMAP
  2
AcDbCellStyleMap
  3
ObjectDBX Classes
 90
     1152
280
     0
281
     0
  0
ENDSEC
  0
SECTION
  2
TABLES
  0
TABLE
  2
VPORT
  5
8
330
0
100
AcDbSymbolTable
 70
     1
  0
VPORT
  5
2443
330
8
100
AcDbSymbolTableRecord
100
AcDbViewportTableRecord
  2
*ACTIVE
 70
     0
 10
0.0
 20
0.0
 11
1.0
 21
1.0
 12
271.1259761029744
 22
170.6249998068466
 13
0.0
 23
0.0
 14
10.0
 24
10.0
 15
10.0
 25
10.0
 16
0.0
 26
0.0
 36
1.0
 17
0.0
 27
0.0
 37
0.0
 40
343.9520086055909
 41
2.35006605019815
 42
50.0
 43
0.0
 44
0.0
 50
0.0
 51
0.0
 71
     0
 72
   100
 73
     1
 74
     0
 75
     0
 76
     0
 77
     0
 78
     0
281
     0
 65
     1
110
0.0
120
0.0
130
0.0
111
1.0
121
0.0
131
0.0
112
0.0
122
1.0
132
0.0
 79
     0
146
0.0
1001
ACAD_NAV_VCDISPLAY
1070
     3
  0
ENDTAB
  0
TABLE
  2
LTYPE
  5
5
330
0
100
AcDbSymbolTable
 70
     4
  0
LTYPE
  5
12
330
5
100
AcDbSymbolTableRecord
100
AcDbLinetypeTableRecord
  2
BYBLOCK
 70
     0
  3

 72
    65
 73
     0
 40
0.0
  0
LTYPE
  5
13
330
5
100
AcDbSymbolTableRecord
100
AcDbLinetypeTableRecord
  2
BYLAYER
 70
     0
  3

 72
    65
 73
     0
 40
0.0
  0
LTYPE
  5
14
330
5
100
AcDbSymbolTableRecord
100
AcDbLinetypeTableRecord
  2
CONTINUOUS
 70
     0
  3
Solid line
 72
    65
 73
     0
 40
0.0
  0
LTYPE
  5
4B
330
5
100
AcDbSymbolTableRecord
100
AcDbLinetypeTableRecord
  2
DASHED
 70
     0
  3
Dashed __ __ __ __ __ __ __ __ __ __ __ __ __ _
 72
    65
 73
     2
 40
19.04999999999999
 49
12.7
 74
     0
 49
-6.349999999999997
 74
     0
  0
LTYPE
  5
4C
330
5
100
AcDbSymbolTableRecord
100
AcDbLinetypeTableRecord
  2
CENTER
 70
     0
  3
Center ____ _ ____ _ ____ _ ____ _ ____ _ ____
 72
    65
 73
     4
 40
50.8
 49
31.75
 74
     0
 49
-6.349999999999997
 74
     0
 49
6.349999999999997
 74
     0
 49
-6.349999999999997
 74
     0
  0
LTYPE
  5
4D
330
5
100
AcDbSymbolTableRecord
100
AcDbLinetypeTableRecord
  2
PHANTOM
 70
     0
  3
Phantom ______  __  __  ______  __  __  ______
 72
    65
 73
     6
 40
63.5
 49
31.75
 74
     0
 49
-6.349999999999997
 74
     0
 49
6.349999999999997
 74
     0
 49
-6.349999999999997
 74
     0
 49
6.349999999999997
 74
     0
 49
-6.349999999999997
 74
     0
  0
ENDTAB
  0
TABLE
  2
LAYER
  5
2
330
0
100
AcDbSymbolTable
 70
     8
  0
LAYER
  5
E
102
{ACAD_XDICTIONARY
360
24AF
102
}
330
2
100
AcDbSymbolTableRecord
100
AcDbLayerTableRecord
  2
0
 70
     0
 62
     7
  6
CONTINUOUS
370
    -3
390
244C
  0
LAYER
  5
4E
102
{ACAD_XDICTIONARY
360
24B1
102
}
330
2
100
AcDbSymbolTableRecord
100
AcDbLayerTableRecord
  2
4
 70
     0
 62
     1
  6
CENTER
370
    -3
390
244C
  0
LAYER
  5
4F
102
{ACAD_XDICTIONARY
360
24B3
102
}
330
2
100
AcDbSymbolTableRecord
100
AcDbLayerTableRecord
  2
5
 70
     0
 62
     6
  6
PHANTOM
370
    -3
390
244C
  0
LAYER
  5
50
102
{ACAD_XDICTIONARY
360
24B5
102
}
330
2
100
AcDbSymbolTableRecord
100
AcDbLayerTableRecord
  2
1
 70
     0
 62
     7
  6
CONTINUOUS
370
    -3
390
244C
  0
LAYER
  5
51
102
{ACAD_XDICTIONARY
360
24B7
102
}
330
2
100
AcDbSymbolTableRecord
100
AcDbLayerTableRecord
  2
2
 70
     0
 62
     4
  6
CONTINUOUS
370
    -3
390
244C
  0
LAYER
  5
52
102
{ACAD_XDICTIONARY
360
24B9
102
}
330
2
100
AcDbSymbolTableRecord
100
AcDbLayerTableRecord
  2
3
 70
     0
 62
     2
  6
DASHED
370
    -3
390
244C
  0
LAYER
  5
53
102
{ACAD_XDICTIONARY
360
24BB
102
}
330
2
100
AcDbSymbolTableRecord
100
AcDbLayerTableRecord
  2
6
 70
     0
 62
     5
  6
CONTINUOUS
370
    -3
390
244C
  0
LAYER
  5
54
102
{ACAD_XDICTIONARY
360
24BD
102
}
330
2
100
AcDbSymbolTableRecord
100
AcDbLayerTableRecord
  2
7
 70
     0
 62
     3
  6
CONTINUOUS
370
    -3
390
244C
  0
ENDTAB
  0
TABLE
  2
STYLE
  5
3
330
0
100
AcDbSymbolTable
 70
     1
  0
STYLE
  5
F
330
3
100
AcDbSymbolTableRecord
100
AcDbTextStyleTableRecord
  2
STANDARD
 70
     0
 40
0.0
 41
1.0
 50
0.0
 71
     0
 42
2.5
  3
simplex.shx
  4

  0
ENDTAB
  0
TABLE
  2
VIEW
  5
6
330
0
100
AcDbSymbolTable
 70
     0
  0
ENDTAB
  0
TABLE
  2
UCS
  5
7
330
0
100
AcDbSymbolTable
 70
     0
  0
ENDTAB
  0
TABLE
  2
APPID
  5
9
330
0
100
AcDbSymbolTable
 70
     6
  0
APPID
  5
10
330
9
100
AcDbSymbolTableRecord
100
AcDbRegAppTableRecord
  2
ACAD
 70
     0
  0
APPID
  5
3E
330
9
100
AcDbSymbolTableRecord
100
AcDbRegAppTableRecord
  2
CONTENTTABDATA
 70
     0
  0
APPID
  5
3F
330
9
100
AcDbSymbolTableRecord
100
AcDbRegAppTableRecord
  2
CONTENTCURRENTTAB
 70
     0
  0
APPID
  5
249D
330
9
100
AcDbSymbolTableRecord
100
AcDbRegAppTableRecord
  2
ACAD_EXEMPT_FROM_CAD_STANDARDS
 70
     0
  0
APPID
  5
249F
330
9
100
AcDbSymbolTableRecord
100
AcDbRegAppTableRecord
  2
ACAD_NAV_VCDISPLAY
 70
     0
  0
APPID
  5
2501
330
9
100
AcDbSymbolTableRecord
100
AcDbRegAppTableRecord
  2
ACAD_MLEADERVER
 70
     0
  0
ENDTAB
  0
TABLE
  2
DIMSTYLE
  5
A
330
0
100
AcDbSymbolTable
 70
     1
100
AcDbDimStyleTable
 71
     0
  0
DIMSTYLE
105
1D
330
A
100
AcDbSymbolTableRecord
100
AcDbDimStyleTableRecord
  2
STANDARD
 70
     0
 41
3.0
 42
1.0
 43
10.0
 44
1.0
 73
     0
 74
     0
 77
     3
 78
     8
140
3.2
141
0.0
147
1.0
172
     1
173
     1
340
F
341
2E
343
2E
344
2E
  0
ENDTAB
  0
TABLE
  2
BLOCK_RECORD
  5
1
330
0
100
AcDbSymbolTable
 70
     1
  0
BLOCK_RECORD
  5
18
102
{ACAD_XDICTIONARY
360
2446
102
}
330
1
100
AcDbSymbolTableRecord
100
AcDbBlockTableRecord
  2
*MODEL_SPACE
340
249A
  0
BLOCK_RECORD
  5
15
102
{ACAD_XDICTIONARY
360
2444
102
}
330
1
100
AcDbSymbolTableRecord
100
AcDbBlockTableRecord
  2
*PAPER_SPACE
340
249B
  0
BLOCK_RECORD
  5
2E
330
1
100
AcDbSymbolTableRecord
100
AcDbBlockTableRecord
  2
_OPEN
340
0
  0
ENDTAB
  0
ENDSEC
  0
SECTION
  2
BLOCKS
  0
BLOCK
  5
19
330
18
100
AcDbEntity
  8
0
100
AcDbBlockBegin
  2
*MODEL_SPACE
 70
     0
 10
0.0
 20
0.0
 30
0.0
  3
*MODEL_SPACE
  1

  0
ENDBLK
  5
1A
330
18
100
AcDbEntity
  8
0
100
AcDbBlockEnd
  0
BLOCK
  5
16
330
15
100
AcDbEntity
 67
     1
  8
0
100
AcDbBlockBegin
  2
*PAPER_SPACE
 70
     0
 10
0.0
 20
0.0
 30
0.0
  3
*PAPER_SPACE
  1

  0
ENDBLK
  5
17
330
15
100
AcDbEntity
 67
     1
  8
0
100
AcDbBlockEnd
  0
BLOCK
  5
2F
330
2E
100
AcDbEntity
  8
0
100
AcDbBlockBegin
  2
_OPEN
 70
     0
 10
0.0
 20
0.0
 30
0.0
  3
_OPEN
  1

  0
LINE
  5
30
330
2E
100
AcDbEntity
  8
0
  6
ByBlock
 62
     0
100
AcDbLine
 10
-1.0
 20
0.1666666666666666
 30
0.0
 11
0.0
 21
0.0
 31
0.0
  0
LINE
  5
31
330
2E
100
AcDbEntity
  8
0
  6
ByBlock
 62
     0
100
AcDbLine
 10
0.0
 20
0.0
 30
0.0
 11
-1.0
 21
-0.1666666666666666
 31
0.0
  0
LINE
  5
32
330
2E
100
AcDbEntity
  8
0
  6
ByBlock
 62
     0
100
AcDbLine
 10
0.0
 20
0.0
 30
0.0
 11
-1.0
 21
0.0
 31
0.0
  0
ENDBLK
  5
33
330
2E
100
AcDbEntity
  8
0
100
AcDbBlockEnd
  0
ENDSEC
  0
SECTION
  2
ENTITIES
  0
TEXT
  5
63
330
18
100
AcDbEntity
  8
4
  6
CENTER
 48
0.3
100
AcDbText
 10
23.97950852663849
 20
10.0
 30
0.0
 40
1.399999999999999
  1
4
100
AcDbText
  0
TEXT
  5
64
330
18
100
AcDbEntity
  8
7
  6
Continuous
 48
0.25
100
AcDbText
 10
9.999997526638502
 20
26.0000007607689
 30
0.0
 40
3.0
  1
CODE No.19326
100
AcDbText
  0
TEXT
  5
65
330
18
100
AcDbEntity
  8
7
  6
Continuous
 48
0.25
100
AcDbText
 10
9.999997526638502
 20
18.00000076076889
 30
0.0
 40
3.0
  1
TYPE No.TCA-F060N12S (F060N12S)
100
AcDbText
  0
TEXT
  5
66
330
18
100
AcDbEntity
  8
1
  6
Continuous
 48
0.25
100
AcDbText
 10
9.999997526638502
 20
10.00000076076889
 30
0.0
 40
1.399999999999999
  1
LAYER
100
AcDbText
  0
TEXT
  5
67
330
18
100
AcDbEntity
  8
2
  6
Continuous
 48
0.25
100
AcDbText
 10
19.9795085266385
 20
10.0
 30
0.0
 40
1.399999999999999
  1
2
100
AcDbText
  0
TEXT
  5
68
330
18
100
AcDbEntity
  8
3
  6
DASHED
 48
0.25
100
AcDbText
 10
21.9795085266385
 20
10.0
 30
0.0
 40
1.399999999999999
  1
3
100
AcDbText
  0
TEXT
  5
69
330
18
100
AcDbEntity
  8
1
  6
Continuous
 48
0.25
100
AcDbText
 10
17.9795085266385
 20
10.0
 30
0.0
 40
1.399999999999999
  1
1
100
AcDbText
  0
TEXT
  5
6A
330
18
100
AcDbEntity
  8
5
  6
PHANTOM
 48
0.25
100
AcDbText
 10
25.9795085266385
 20
10.0
 30
0.0
 40
1.399999999999999
  1
5
100
AcDbText
  0
TEXT
  5
6B
330
18
100
AcDbEntity
  8
6
  6
Continuous
 48
0.25
100
AcDbText
 10
27.9795085266385
 20
10.0
 30
0.0
 40
1.399999999999999
  1
6
100
AcDbText
  0
TEXT
  5
6C
330
18
100
AcDbEntity
  8
7
  6
Continuous
 48
0.25
100
AcDbText
 10
29.9795085266385
 20
10.0
 30
0.0
 40
1.399999999999999
  1
7
100
AcDbText
  0
ARC
  5
15C
330
18
100
AcDbEntity
  8
1
  6
Continuous
100
AcDbCircle
 10
183.1697641832832
 20
197.0411740106233
 30
0.0
 40
3.0
100
AcDbArc
 50
270.0
 51
90.0
  0
ARC
  5
15D
330
18
100
AcDbEntity
  8
1
  6
Continuous
100
AcDbCircle
 10
178.6341104304305
 20
197.0411740106233
 30
0.0
 40
3.0
100
AcDbArc
 50
90.0
 51
270.0
  0
LINE
  5
15E
330
18
100
AcDbEntity
  8
1
  6
Continuous
100
AcDbLine
 10
190.9019373068569
 20
198.9411740106234
 30
0.0
 11
190.9019373068569
 21
195.1411740106233
 31
0.0
  0
LINE
  5
15F
330
18
100
AcDbEntity
  8
1
  6
Continuous
100
AcDbLine
 10
170.9019373068569
 20
198.9411740106234
 30
0.0
 11
170.9019373068569
 21
195.1411740106233
 31
0.0
  0
LINE
  5
160
330
18
100
AcDbEntity
  8
4
  6
CENTER
 48
0.3
100
AcDbLine
 10
180.9019373068569
 20
148.0411740106233
 30
0.0
 11
180.9019373068569
 21
219.0411740106233
 31
0.0
  0
CIRCLE
  5
161
330
18
100
AcDbEntity
  8
1
  6
Continuous
100
AcDbCircle
 10
163.9019373068568
 20
161.5411740106234
 30
0.0
 40
25.89999999999999
  0
CIRCLE
  5
162
330
18
100
AcDbEntity
  8
1
  6
Continuous
100
AcDbCircle
 10
163.9019373068568
 20
161.5411740106234
 30
0.0
 40
24.0
  0
CIRCLE
  5
163
330
18
100
AcDbEntity
  8
1
  6
Continuous
100
AcDbCircle
 10
163.9019373068568
 20
161.5411740106234
 30
0.0
 40
26.0
  0
CIRCLE
  5
164
330
18
100
AcDbEntity
  8
1
  6
Continuous
100
AcDbCircle
 10
163.9019373068568
 20
161.5411740106234
 30
0.0
 40
30.0
  0
LINE
  5
165
330
18
100
AcDbEntity
  8
4
  6
CENTER
 48
0.3
100
AcDbLine
 10
128.9019373068569
 20
161.5411740106233
 30
0.0
 11
198.9019373068568
 21
161.5411740106234
 31
0.0
  0
LINE
  5
166
330
18
100
AcDbEntity
  8
4
  6
CENTER
 48
0.3
100
AcDbLine
 10
163.9019373068568
 20
126.5411740106233
 30
0.0
 11
163.9019373068568
 21
196.5411740106233
 31
0.0
  0
LINE
  5
168
330
18
100
AcDbEntity
  8
1
  6
Continuous
100
AcDbLine
 10
190.9049967950178
 20
193.5411740106233
 30
0.0
 11
170.9049967950178
 21
193.5411740106233
 31
0.0
  0
ARC
  5
16A
330
18
100
AcDbEntity
  8
1
  6
Continuous
100
AcDbCircle
 10
163.9049967950178
 20
161.5411740106233
 30
0.0
 40
32.0
100
AcDbArc
 50
45.20763631731234
 51
69.02501209134026
  0
LINE
  5
16B
330
18
100
AcDbEntity
  8
1
  6
Continuous
100
AcDbLine
 10
172.0019373068569
 20
194.0411740106233
 30
0.0
 11
189.8019373068569
 21
194.0411740106233
 31
0.0
  0
LINE
  5
16C
330
18
100
AcDbEntity
  8
1
  6
Continuous
100
AcDbLine
 10
186.4502650482226
 20
184.2504425895767
 30
0.0
 11
186.4502650482226
 21
181.3328611390881
 31
0.0
  0
LINE
  5
16D
330
18
100
AcDbEntity
  8
1
  6
Continuous
100
AcDbLine
 10
191.9049967950178
 20
192.5411740106233
 30
0.0
 11
191.9049967950178
 21
172.311503623996
 31
0.0
  0
ARC
  5
16E
330
18
100
AcDbEntity
  8
1
  6
Continuous
100
AcDbCircle
 10
187.9049967950178
 20
193.5411740106233
 30
0.0
 40
0.5
100
AcDbArc
 50
0.000000000000007
 51
90.0
  0
ARC
  5
170
330
18
100
AcDbEntity
  8
1
  6
Continuous
100
AcDbCircle
 10
190.9049967950178
 20
192.5411740106233
 30
0.0
 40
1.0
100
AcDbArc
 50
0.000000000000007
 51
90.0
  0
ARC
  5
171
330
18
100
AcDbEntity
  8
1
  6
Continuous
100
AcDbCircle
 10
189.8019373068569
 20
195.1411740106233
 30
0.0
 40
1.099999999999994
100
AcDbArc
 50
270.0
 51
0.000000000000007
  0
ARC
  5
172
330
18
100
AcDbEntity
  8
1
  6
Continuous
100
AcDbCircle
 10
173.9049967950178
 20
193.5411740106233
 30
0.0
 40
0.5
100
AcDbArc
 50
90.0
 51
180.0
  0
LINE
  5
173
330
18
100
AcDbEntity
  8
1
  6
Continuous
100
AcDbLine
 10
175.3597285418131
 20
191.420750992384
 30
0.0
 11
175.3597285418131
 21
189.2682207449757
 31
0.0
  0
ARC
  5
174
330
18
100
AcDbEntity
  8
1
  6
Continuous
100
AcDbCircle
 10
169.4049967950178
 20
191.5411740106233
 30
0.0
 40
0.5
100
AcDbArc
 50
259.6111421845303
 51
0.000000000000007
  0
ARC
  5
175
330
18
100
AcDbEntity
  8
1
  6
Continuous
100
AcDbCircle
 10
170.9049967950178
 20
192.5411740106233
 30
0.0
 40
1.0
100
AcDbArc
 50
90.0
 51
180.0
  0
LINE
  5
176
330
18
100
AcDbEntity
  8
1
  6
Continuous
100
AcDbLine
 10
169.9049967950178
 20
192.5411740106233
 30
0.0
 11
169.9049967950178
 21
191.5411740106233
 31
0.0
  0
ARC
  5
177
330
18
100
AcDbEntity
  8
1
  6
Continuous
100
AcDbCircle
 10
172.0019373068569
 20
195.1411740106233
 30
0.0
 40
1.099999999999994
100
AcDbArc
 50
180.0
 51
270.0
  0
LINE
  5
178
330
18
100
AcDbEntity
  8
1
  6
Continuous
100
AcDbLine
 10
187.777471565368
 20
306.631846959965
 30
0.0
 11
140.0264030483455
 21
306.631846959965
 31
0.0
  0
LINE
  5
179
330
18
100
AcDbEntity
  8
1
  6
Continuous
100
AcDbLine
 10
136.4019373068569
 20
304.8318469599649
 30
0.0
 11
191.4019373068569
 21
304.8318469599649
 31
0.0
  0
LINE
  5
17A
330
18
100
AcDbEntity
  8
1
  6
Continuous
100
AcDbLine
 10
177.6232180447059
 20
294.331846959965
 30
0.0
 11
134.4019373068569
 21
294.331846959965
 31
0.0
  0
LINE
  5
17B
330
18
100
AcDbEntity
  8
1
  6
Continuous
100
AcDbLine
 10
187.777471565368
 20
261.0318469599651
 30
0.0
 11
140.0264030483455
 21
261.0318469599651
 31
0.0
  0
LINE
  5
17C
330
18
100
AcDbEntity
  8
1
  6
Continuous
100
AcDbLine
 10
136.4019373068569
 20
262.831846959965
 30
0.0
 11
191.4019373068569
 21
262.831846959965
 31
0.0
  0
LINE
  5
17D
330
18
100
AcDbEntity
  8
1
  6
Continuous
100
AcDbLine
 10
177.6232180447059
 20
273.331846959965
 30
0.0
 11
134.4019373068569
 21
273.331846959965
 31
0.0
  0
LINE
  5
17E
330
18
100
AcDbEntity
  8
1
  6
Continuous
100
AcDbLine
 10
175.3566690536522
 20
274.331846959965
 30
0.0
 11
127.3598980408336
 21
274.331846959965
 31
0.0
  0
LINE
  5
17F
330
18
100
AcDbEntity
  8
1
  6
Continuous
100
AcDbLine
 10
127.3598980408336
 20
293.331846959965
 30
0.0
 11
175.3566690536522
 21
293.331846959965
 31
0.0
  0
LINE
  5
180
330
18
100
AcDbEntity
  8
4
  6
CENTER
 48
0.3
100
AcDbLine
 10
198.9019373068568
 20
283.8318469599651
 30
0.0
 11
120.0862393068571
 21
283.831846959965
 31
0.0
  0
ARC
  5
181
330
18
100
AcDbEntity
  8
1
  6
Continuous
100
AcDbCircle
 10
189.8019373068569
 20
260.7933854215035
 30
0.0
 40
2.038461538461535
100
AcDbArc
 50
92.68027649243867
 51
173.282093058339
  0
ARC
  5
182
330
18
100
AcDbEntity
  8
1
  6
Continuous
100
AcDbCircle
 10
191.4019373068569
 20
265.331846959965
 30
0.0
 40
2.5
100
AcDbArc
 50
270.0
 51
0.000000000000007
  0
LINE
  5
183
330
18
100
AcDbEntity
  8
4
  6
CENTER
 48
0.3
100
AcDbLine
 10
163.9019373068568
 20
256.031846959965
 30
0.0
 11
163.9019373068568
 21
311.631846959965
 31
0.0
  0
LINE
  5
184
330
18
100
AcDbEntity
  8
4
  6
CENTER
 48
0.3
100
AcDbLine
 10
180.9019373068569
 20
267.831846959965
 30
0.0
 11
180.9019373068569
 21
299.831846959965
 31
0.0
  0
LINE
  5
185
330
18
100
AcDbEntity
  8
1
  6
Continuous
100
AcDbLine
 10
172.0019373068569
 20
200.0411740106233
 30
0.0
 11
189.8019373068569
 21
200.0411740106233
 31
0.0
  0
ARC
  5
186
330
18
100
AcDbEntity
  8
1
  6
Continuous
100
AcDbCircle
 10
189.8019373068569
 20
198.9411740106234
 30
0.0
 40
1.099999999999994
100
AcDbArc
 50
0.000000000000007
 51
90.0
  0
ARC
  5
189
330
18
100
AcDbEntity
  8
1
  6
Continuous
100
AcDbCircle
 10
172.0019373068569
 20
198.9411740106234
 30
0.0
 40
1.099999999999994
100
AcDbArc
 50
90.0
 51
180.0
  0
LINE
  5
18A
330
18
100
AcDbEntity
  8
1
  6
Continuous
100
AcDbLine
 10
193.9019373068569
 20
294.831846959965
 30
0.0
 11
193.9019373068569
 21
302.331846959965
 31
0.0
  0
LINE
  5
18B
330
18
100
AcDbEntity
  8
1
  6
Continuous
100
AcDbLine
 10
186.1697641832832
 20
292.331846959965
 30
0.0
 11
175.6341104304305
 21
292.331846959965
 31
0.0
  0
ARC
  5
18C
330
18
100
AcDbEntity
  8
1
  6
Continuous
100
AcDbCircle
 10
181.3019373068569
 20
283.831846959965
 30
0.0
 40
8.5
100
AcDbArc
 50
270.0
 51
90.0
  0
LINE
  5
18D
330
18
100
AcDbEntity
  8
1
  6
Continuous
100
AcDbLine
 10
186.1697641832832
 20
275.331846959965
 30
0.0
 11
175.6341104304305
 21
275.331846959965
 31
0.0
  0
LINE
  5
18E
330
18
100
AcDbEntity
  8
1
  6
Continuous
100
AcDbLine
 10
184.1806565690079
 20
273.331846959965
 30
0.0
 11
193.4019373068569
 21
273.331846959965
 31
0.0
  0
LINE
  5
18F
330
18
100
AcDbEntity
  8
1
  6
Continuous
100
AcDbLine
 10
184.1806565690079
 20
294.331846959965
 30
0.0
 11
193.4019373068569
 21
294.331846959965
 31
0.0
  0
CIRCLE
  5
190
330
18
100
AcDbEntity
  8
1
  6
Continuous
100
AcDbCircle
 10
180.9019373068569
 20
283.831846959965
 30
0.0
 40
11.0
  0
ARC
  5
191
330
18
100
AcDbEntity
  8
1
  6
Continuous
100
AcDbCircle
 10
180.9019373068568
 20
283.831846959965
 30
0.0
 40
10.0
100
AcDbArc
 50
301.7883306170507
 51
58.21166938294934
  0
LINE
  5
192
330
18
100
AcDbEntity
  8
1
  6
Continuous
100
AcDbLine
 10
193.9019373068569
 20
292.831846959965
 30
0.0
 11
193.9019373068569
 21
274.831846959965
 31
0.0
  0
ARC
  5
193
330
18
100
AcDbEntity
  8
1
  6
Continuous
100
AcDbCircle
 10
189.701937306857
 20
262.929507550849
 30
0.0
 40
0.1
100
AcDbArc
 50
272.6802764924728
 51
282.4176963098809
  0
ARC
  5
194
330
18
100
AcDbEntity
  8
1
  6
Continuous
100
AcDbCircle
 10
193.4019373068569
 20
272.831846959965
 30
0.0
 40
0.5
100
AcDbArc
 50
359.9999999999495
 51
89.99999999993162
  0
LINE
  5
195
330
18
100
AcDbEntity
  8
1
  6
Continuous
100
AcDbLine
 10
193.9019373068569
 20
272.831846959965
 30
0.0
 11
193.9019373068569
 21
265.331846959965
 31
0.0
  0
LINE
  5
196
330
18
100
AcDbEntity
  8
1
  6
Continuous
100
AcDbLine
 10
193.4019373068569
 20
274.331846959965
 30
0.0
 11
186.4472055600615
 21
274.331846959965
 31
0.0
  0
ARC
  5
197
330
18
100
AcDbEntity
  8
1
  6
Continuous
100
AcDbCircle
 10
193.4019373068569
 20
274.831846959965
 30
0.0
 40
0.5
100
AcDbArc
 50
270.0
 51
0.000000000000007
  0
ARC
  5
198
330
18
100
AcDbEntity
  8
1
  6
Continuous
100
AcDbCircle
 10
193.4019373068569
 20
294.831846959965
 30
0.0
 40
0.5
100
AcDbArc
 50
270.0000000000684
 51
0.0000000000504888
  0
LINE
  5
199
330
18
100
AcDbEntity
  8
1
  6
Continuous
100
AcDbLine
 10
186.4472055600615
 20
293.331846959965
 30
0.0
 11
193.4019373068569
 21
293.331846959965
 31
0.0
  0
ARC
  5
19A
330
18
100
AcDbEntity
  8
1
  6
Continuous
100
AcDbCircle
 10
193.4019373068569
 20
292.831846959965
 30
0.0
 40
0.5
100
AcDbArc
 50
0.000000000000007
 51
90.0
  0
ARC
  5
19B
330
18
100
AcDbEntity
  8
1
  6
Continuous
100
AcDbCircle
 10
180.5019373068567
 20
283.831846959965
 30
0.0
 40
8.5
100
AcDbArc
 50
90.0
 51
270.0
  0
ARC
  5
19C
330
18
100
AcDbEntity
  8
1
  6
Continuous
100
AcDbCircle
 10
180.9019373068568
 20
283.831846959965
 30
0.0
 40
10.0
100
AcDbArc
 50
121.7883306170506
 51
238.2116693829491
  0
LINE
  5
19E
330
18
100
AcDbEntity
  8
1
  6
Continuous
100
AcDbLine
 10
173.4019373068568
 20
273.331846959965
 30
0.0
 11
172.9019373068569
 21
274.331846959965
 31
0.0
  0
CIRCLE
  5
1A0
330
18
100
AcDbEntity
  8
2
  6
Continuous
100
AcDbCircle
 10
180.9019373068569
 20
283.831846959965
 30
0.0
 40
5.05299999999994
  0
CIRCLE
  5
1A1
330
18
100
AcDbEntity
  8
1
  6
Continuous
100
AcDbCircle
 10
180.9019373068569
 20
283.831846959965
 30
0.0
 40
5.999999999999943
  0
LINE
  5
1A2
330
18
100
AcDbEntity
  8
1
  6
Continuous
100
AcDbLine
 10
173.4019373068568
 20
294.331846959965
 30
0.0
 11
172.9019373068569
 21
293.331846959965
 31
0.0
  0
ARC
  5
1A3
330
18
100
AcDbEntity
  8
1
  6
Continuous
100
AcDbCircle
 10
189.701937306857
 20
304.734186369081
 30
0.0
 40
0.1
100
AcDbArc
 50
77.58230369011909
 51
87.31972350752712
  0
ARC
  5
1A4
330
18
100
AcDbEntity
  8
1
  6
Continuous
100
AcDbCircle
 10
189.8019373068569
 20
306.8703084984266
 30
0.0
 40
2.038461538461535
100
AcDbArc
 50
186.7179069416609
 51
267.3197235075613
  0
ARC
  5
1A5
330
18
100
AcDbEntity
  8
1
  6
Continuous
100
AcDbCircle
 10
191.4019373068569
 20
302.331846959965
 30
0.0
 40
2.5
100
AcDbArc
 50
0.000000000000007
 51
90.0
  0
ARC
  5
1A6
330
18
100
AcDbEntity
  8
1
  6
Continuous
100
AcDbCircle
 10
138.0019373068569
 20
260.7933854215035
 30
0.0
 40
2.038461538461535
100
AcDbArc
 50
6.717906941660982
 51
87.31972350755487
  0
ARC
  5
1A7
330
18
100
AcDbEntity
  8
1
  6
Continuous
100
AcDbCircle
 10
136.4019373068569
 20
265.331846959965
 30
0.0
 40
2.5
100
AcDbArc
 50
180.0
 51
270.0
  0
LINE
  5
1A8
330
18
100
AcDbEntity
  8
1
  6
Continuous
100
AcDbLine
 10
133.9019373068568
 20
294.831846959965
 30
0.0
 11
133.9019373068568
 21
302.331846959965
 31
0.0
  0
LINE
  5
1A9
330
18
100
AcDbEntity
  8
1
  6
Continuous
100
AcDbLine
 10
154.4019373068568
 20
273.331846959965
 30
0.0
 11
154.9019373068569
 21
274.331846959965
 31
0.0
  0
LINE
  5
1AA
330
18
100
AcDbEntity
  8
1
  6
Continuous
100
AcDbLine
 10
154.4019373068568
 20
294.331846959965
 30
0.0
 11
154.9019373068569
 21
293.331846959965
 31
0.0
  0
ARC
  5
1AC
330
18
100
AcDbEntity
  8
1
  6
Continuous
100
AcDbCircle
 10
138.1019373068568
 20
262.929507550849
 30
0.0
 40
0.1
100
AcDbArc
 50
257.5823036901273
 51
267.3197235075841
  0
ARC
  5
1AD
330
18
100
AcDbEntity
  8
1
  6
Continuous
100
AcDbCircle
 10
134.4019373068569
 20
272.831846959965
 30
0.0
 40
0.5
100
AcDbArc
 50
89.99999999993162
 51
179.9999999999153
  0
LINE
  5
1AE
330
18
100
AcDbEntity
  8
1
  6
Continuous
100
AcDbLine
 10
133.9019373068568
 20
272.831846959965
 30
0.0
 11
133.9019373068568
 21
265.331846959965
 31
0.0
  0
ARC
  5
1B0
330
18
100
AcDbEntity
  8
1
  6
Continuous
100
AcDbCircle
 10
134.4019373068569
 20
294.831846959965
 30
0.0
 40
0.5
100
AcDbArc
 50
180.0000000000846
 51
270.0000000000684
  0
ARC
  5
1B2
330
18
100
AcDbEntity
  8
1
  6
Continuous
100
AcDbCircle
 10
138.0019373068569
 20
306.8703084984266
 30
0.0
 40
2.038461538461535
100
AcDbArc
 50
272.6802764924451
 51
353.2820930583388
  0
ARC
  5
1B3
330
18
100
AcDbEntity
  8
1
  6
Continuous
100
AcDbCircle
 10
138.1019373068568
 20
304.734186369081
 30
0.0
 40
0.1
100
AcDbArc
 50
92.68027649241584
 51
102.4176963098726
  0
ARC
  5
1B4
330
18
100
AcDbEntity
  8
1
  6
Continuous
100
AcDbCircle
 10
136.4019373068569
 20
302.331846959965
 30
0.0
 40
2.5
100
AcDbArc
 50
90.0
 51
180.0
  0
LINE
  5
1B5
330
18
100
AcDbEntity
  8
1
  6
Continuous
100
AcDbLine
 10
33.83589957100787
 20
198.9411740106233
 30
0.0
 11
33.83589957100787
 21
195.1411740106233
 31
0.0
  0
LINE
  5
1B6
330
18
100
AcDbEntity
  8
1
  6
Continuous
100
AcDbLine
 10
50.83589957100787
 20
198.9411740106233
 30
0.0
 11
50.83589957100787
 21
195.1411740106233
 31
0.0
  0
LINE
  5
1B7
330
18
100
AcDbEntity
  8
4
  6
CENTER
 48
0.3
100
AcDbLine
 10
42.33589957100785
 20
219.0411740106234
 30
0.0
 11
42.33589957100785
 21
148.0411740106233
 31
0.0
  0
ARC
  5
1B8
330
18
100
AcDbEntity
  8
1
  6
Continuous
100
AcDbCircle
 10
23.83589957100787
 20
134.0411740106233
 30
0.0
 40
2.5
100
AcDbArc
 50
180.0
 51
270.0
  0
ARC
  5
1BA
330
18
100
AcDbEntity
  8
1
  6
Continuous
100
AcDbCircle
 10
60.83589957100787
 20
134.0411740106233
 30
0.0
 40
2.5
100
AcDbArc
 50
270.0
 51
0.000000000000007
  0
LINE
  5
1BC
330
18
100
AcDbEntity
  8
1
  6
Continuous
100
AcDbLine
 10
53.33589957100787
 20
131.5411740106233
 30
0.0
 11
60.83589957100787
 21
131.5411740106233
 31
0.0
  0
ARC
  5
1BD
330
18
100
AcDbEntity
  8
1
  6
Continuous
100
AcDbCircle
 10
53.33589957100787
 20
132.0411740106233
 30
0.0
 40
0.5
100
AcDbArc
 50
179.9999999999316
 51
269.9999999999153
  0
ARC
  5
1BE
330
18
100
AcDbEntity
  8
1
  6
Continuous
100
AcDbCircle
 10
31.33589957100787
 20
132.0411740106233
 30
0.0
 40
0.5
100
AcDbArc
 50
270.0000000000847
 51
0.0000000000684017
  0
LINE
  5
1BF
330
18
100
AcDbEntity
  8
1
  6
Continuous
100
AcDbLine
 10
31.33589957100787
 20
131.5411740106233
 30
0.0
 11
23.83589957100787
 21
131.5411740106233
 31
0.0
  0
ARC
  5
1C0
330
18
100
AcDbEntity
  8
1
  6
Continuous
100
AcDbCircle
 10
19.29743803254638
 20
135.6411740106233
 30
0.0
 40
2.038461538461535
100
AcDbArc
 50
2.680276492445193
 51
83.28209305833903
  0
ARC
  5
1C1
330
18
100
AcDbEntity
  8
1
  6
Continuous
100
AcDbCircle
 10
19.29743803254632
 20
187.4411740106233
 30
0.0
 40
2.038461538461535
100
AcDbArc
 50
276.7179069416609
 51
357.3197235075606
  0
ARC
  5
1C2
330
18
100
AcDbEntity
  8
1
  6
Continuous
100
AcDbCircle
 10
23.83589957100787
 20
189.0411740106233
 30
0.0
 40
2.5
100
AcDbArc
 50
90.0
 51
180.0
  0
LINE
  5
1C3
330
18
100
AcDbEntity
  8
4
  6
CENTER
 48
0.3
100
AcDbLine
 10
70.13589957100788
 20
161.5411740106233
 30
0.0
 11
14.53589957100786
 21
161.5411740106233
 31
0.0
  0
LINE
  5
1C4
330
18
100
AcDbEntity
  8
1
  6
Continuous
100
AcDbLine
 10
31.83589957100787
 20
132.0411740106233
 30
0.0
 11
31.83589957100787
 21
191.0411740106233
 31
0.0
  0
LINE
  5
1C5
330
18
100
AcDbEntity
  8
1
  6
Continuous
100
AcDbLine
 10
65.13589957100783
 20
185.4167082691346
 30
0.0
 11
65.13589957100783
 21
137.6656397521121
 31
0.0
  0
LINE
  5
1C6
330
18
100
AcDbEntity
  8
1
  6
Continuous
100
AcDbLine
 10
63.33589957100787
 20
134.0411740106233
 30
0.0
 11
63.33589957100787
 21
189.0411740106233
 31
0.0
  0
LINE
  5
1C7
330
18
100
AcDbEntity
  8
1
  6
Continuous
100
AcDbLine
 10
52.83589957100787
 20
132.0411740106233
 30
0.0
 11
52.83589957100787
 21
191.0411740106233
 31
0.0
  0
LINE
  5
1C8
330
18
100
AcDbEntity
  8
1
  6
Continuous
100
AcDbLine
 10
32.83589957100787
 20
153.5411740106233
 30
0.0
 11
32.83589957100787
 21
191.0411740106233
 31
0.0
  0
LINE
  5
1C9
330
18
100
AcDbEntity
  8
1
  6
Continuous
100
AcDbLine
 10
51.83589957100787
 20
153.5411740106233
 30
0.0
 11
51.83589957100787
 21
191.0411740106233
 31
0.0
  0
LINE
  5
1CA
330
18
100
AcDbEntity
  8
1
  6
Continuous
100
AcDbLine
 10
51.33589957100787
 20
153.0411740106233
 30
0.0
 11
33.33589957100787
 21
153.0411740106233
 31
0.0
  0
ARC
  5
1CB
330
18
100
AcDbEntity
  8
1
  6
Continuous
100
AcDbCircle
 10
63.23823898012386
 20
135.7411740106233
 30
0.0
 40
0.1
100
AcDbArc
 50
347.5823036901274
 51
357.3197235075842
  0
ARC
  5
1CC
330
18
100
AcDbEntity
  8
1
  6
Continuous
100
AcDbCircle
 10
65.37436110946936
 20
135.6411740106233
 30
0.0
 40
2.038461538461535
100
AcDbArc
 50
96.71790694166098
 51
177.3197235075548
  0
ARC
  5
1CD
330
18
100
AcDbEntity
  8
1
  6
Continuous
100
AcDbCircle
 10
51.83589957100787
 20
153.6592079993732
 30
0.0
 40
1.0
100
AcDbArc
 50
218.1727076270125
 51
243.434948822922
  0
LINE
  5
1CE
330
18
100
AcDbEntity
  8
1
  6
Continuous
100
AcDbLine
 10
52.83589957100787
 20
152.0411740106233
 30
0.0
 11
51.38868597550787
 21
152.7647808083733
 31
0.0
  0
ARC
  5
1CF
330
18
100
AcDbEntity
  8
1
  6
Continuous
100
AcDbCircle
 10
51.33589957100787
 20
153.5411740106233
 30
0.0
 40
0.5
100
AcDbArc
 50
270.0
 51
0.000000000000007
  0
LINE
  5
1D0
330
18
100
AcDbEntity
  8
1
  6
Continuous
100
AcDbLine
 10
31.83589957100787
 20
152.0411740106233
 30
0.0
 11
33.2831131665078
 21
152.7647808083733
 31
0.0
  0
ARC
  5
1D1
330
18
100
AcDbEntity
  8
1
  6
Continuous
100
AcDbCircle
 10
33.33589957100787
 20
153.5411740106233
 30
0.0
 40
0.5
100
AcDbArc
 50
180.0
 51
270.0
  0
ARC
  5
1D2
330
18
100
AcDbEntity
  8
1
  6
Continuous
100
AcDbCircle
 10
32.83589957100787
 20
153.6592079993732
 30
0.0
 40
1.0
100
AcDbArc
 50
296.5650511770779
 51
321.827292372988
  0
LINE
  5
1D3
330
18
100
AcDbEntity
  8
1
  6
Continuous
100
AcDbLine
 10
49.73589957100784
 20
194.0411740106233
 30
0.0
 11
34.93589957100784
 21
194.0411740106233
 31
0.0
  0
LINE
  5
1D4
330
18
100
AcDbEntity
  8
1
  6
Continuous
100
AcDbLine
 10
32.33589957100787
 20
193.5411740106233
 30
0.0
 11
52.33589957100787
 21
193.5411740106233
 31
0.0
  0
LINE
  5
1D6
330
18
100
AcDbEntity
  8
1
  6
Continuous
100
AcDbLine
 10
51.33589957100787
 20
191.5411740106233
 30
0.0
 11
33.33589957100787
 21
191.5411740106233
 31
0.0
  0
LINE
  5
1D8
330
18
100
AcDbEntity
  8
1
  6
Continuous
100
AcDbLine
 10
52.83589957100787
 20
171.0411740106233
 30
0.0
 11
51.83589957100787
 21
170.5411740106233
 31
0.0
  0
LINE
  5
1D9
330
18
100
AcDbEntity
  8
1
  6
Continuous
100
AcDbLine
 10
53.33589957100787
 20
191.5411740106233
 30
0.0
 11
60.83589957100787
 21
191.5411740106233
 31
0.0
  0
ARC
  5
1DA
330
18
100
AcDbEntity
  8
1
  6
Continuous
100
AcDbCircle
 10
63.23823898012386
 20
187.3411740106234
 30
0.0
 40
0.1
100
AcDbArc
 50
2.680276492472853
 51
12.41769630988093
  0
ARC
  5
1DB
330
18
100
AcDbEntity
  8
1
  6
Continuous
100
AcDbCircle
 10
65.37436110946936
 20
187.4411740106233
 30
0.0
 40
2.038461538461535
100
AcDbArc
 50
182.6802764924394
 51
263.282093058339
  0
ARC
  5
1DC
330
18
100
AcDbEntity
  8
1
  6
Continuous
100
AcDbCircle
 10
60.83589957100787
 20
189.0411740106233
 30
0.0
 40
2.5
100
AcDbArc
 50
0.000000000000007
 51
90.0
  0
ARC
  5
1DD
330
18
100
AcDbEntity
  8
1
  6
Continuous
100
AcDbCircle
 10
49.73589957100784
 20
195.1411740106233
 30
0.0
 40
1.1
100
AcDbArc
 50
270.0
 51
0.000000000000007
  0
ARC
  5
1DE
330
18
100
AcDbEntity
  8
1
  6
Continuous
100
AcDbCircle
 10
53.33589957100787
 20
191.0411740106233
 30
0.0
 40
0.5
100
AcDbArc
 50
89.99999999994953
 51
179.9999999999316
  0
ARC
  5
1DF
330
18
100
AcDbEntity
  8
1
  6
Continuous
100
AcDbCircle
 10
52.26967148784343
 20
190.4207509923839
 30
0.0
 40
1.0
100
AcDbArc
 50
53.15294430475645
 51
90.0
  0
LINE
  5
1E0
330
18
100
AcDbEntity
  8
1
  6
Continuous
100
AcDbLine
 10
52.26967148784343
 20
191.420750992384
 30
0.0
 11
51.73743095225984
 21
191.420750992384
 31
0.0
  0
ARC
  5
1E1
330
18
100
AcDbEntity
  8
1
  6
Continuous
100
AcDbCircle
 10
49.33589957100787
 20
193.5411740106233
 30
0.0
 40
0.5
100
AcDbArc
 50
0.000000000000007
 51
90.0
  0
ARC
  5
1E2
330
18
100
AcDbEntity
  8
1
  6
Continuous
100
AcDbCircle
 10
52.33589957100787
 20
192.5411740106233
 30
0.0
 40
1.0
100
AcDbArc
 50
0.000000000000007
 51
90.0
  0
LINE
  5
1E3
330
18
100
AcDbEntity
  8
1
  6
Continuous
100
AcDbLine
 10
53.33589957100787
 20
192.5411740106233
 30
0.0
 11
53.33589957100787
 21
191.5411740106233
 31
0.0
  0
ARC
  5
1E4
330
18
100
AcDbEntity
  8
1
  6
Continuous
100
AcDbCircle
 10
51.33589957100787
 20
191.0411740106233
 30
0.0
 40
0.5
100
AcDbArc
 50
0.000000000000007
 51
90.0
  0
LINE
  5
1E6
330
18
100
AcDbEntity
  8
1
  6
Continuous
100
AcDbLine
 10
31.83589957100787
 20
171.0411740106233
 30
0.0
 11
32.83589957100787
 21
170.5411740106233
 31
0.0
  0
ARC
  5
1E8
330
18
100
AcDbEntity
  8
1
  6
Continuous
100
AcDbCircle
 10
33.33589957100787
 20
191.0411740106233
 30
0.0
 40
0.5
100
AcDbArc
 50
90.0
 51
180.0
  0
ARC
  5
1E9
330
18
100
AcDbEntity
  8
1
  6
Continuous
100
AcDbCircle
 10
34.93589957100784
 20
195.1411740106233
 30
0.0
 40
1.1
100
AcDbArc
 50
180.0
 51
270.0
  0
ARC
  5
1EA
330
18
100
AcDbEntity
  8
1
  6
Continuous
100
AcDbCircle
 10
35.33589957100787
 20
193.5411740106233
 30
0.0
 40
0.5
100
AcDbArc
 50
90.0
 51
180.0
  0
ARC
  5
1EB
330
18
100
AcDbEntity
  8
1
  6
Continuous
100
AcDbCircle
 10
31.33589957100787
 20
191.0411740106233
 30
0.0
 40
0.5
100
AcDbArc
 50
0.0000000000684017
 51
90.0000000000505
  0
LINE
  5
1EC
330
18
100
AcDbEntity
  8
1
  6
Continuous
100
AcDbLine
 10
31.33589957100787
 20
191.5411740106233
 30
0.0
 11
23.83589957100787
 21
191.5411740106233
 31
0.0
  0
ARC
  5
1ED
330
18
100
AcDbEntity
  8
1
  6
Continuous
100
AcDbCircle
 10
32.40212765417231
 20
190.4207509923839
 30
0.0
 40
1.0
100
AcDbArc
 50
90.0
 51
126.8470556952435
  0
LINE
  5
1EE
330
18
100
AcDbEntity
  8
1
  6
Continuous
100
AcDbLine
 10
32.40212765417231
 20
191.420750992384
 30
0.0
 11
32.9343681897559
 21
191.420750992384
 31
0.0
  0
LINE
  5
1EF
330
18
100
AcDbEntity
  8
1
  6
Continuous
100
AcDbLine
 10
31.33589957100787
 20
192.5411740106233
 30
0.0
 11
31.33589957100787
 21
191.5411740106233
 31
0.0
  0
ARC
  5
1F0
330
18
100
AcDbEntity
  8
1
  6
Continuous
100
AcDbCircle
 10
32.33589957100787
 20
192.5411740106233
 30
0.0
 40
1.0
100
AcDbArc
 50
90.0
 51
180.0
  0
LINE
  5
1F1
330
18
100
AcDbEntity
  8
1
  6
Continuous
100
AcDbLine
 10
19.53589957100791
 20
185.4167082691346
 30
0.0
 11
19.53589957100791
 21
137.6656397521121
 31
0.0
  0
LINE
  5
1F2
330
18
100
AcDbEntity
  8
1
  6
Continuous
100
AcDbLine
 10
21.33589957100787
 20
134.0411740106233
 30
0.0
 11
21.33589957100787
 21
189.0411740106233
 31
0.0
  0
ARC
  5
1F3
330
18
100
AcDbEntity
  8
1
  6
Continuous
100
AcDbCircle
 10
21.43356016189181
 20
135.7411740106233
 30
0.0
 40
0.1
100
AcDbArc
 50
182.6802764924158
 51
192.4176963098726
  0
ARC
  5
1F4
330
18
100
AcDbEntity
  8
1
  6
Continuous
100
AcDbCircle
 10
21.43356016189181
 20
187.3411740106234
 30
0.0
 40
0.1
100
AcDbArc
 50
167.582303690119
 51
177.319723507527
  0
LINE
  5
1F7
330
18
100
AcDbEntity
  8
1
  6
Continuous
100
AcDbLine
 10
49.73589957100784
 20
200.0411740106233
 30
0.0
 11
34.93589957100784
 21
200.0411740106233
 31
0.0
  0
ARC
  5
1F8
330
18
100
AcDbEntity
  8
1
  6
Continuous
100
AcDbCircle
 10
49.73589957100784
 20
198.9411740106233
 30
0.0
 40
1.1
100
AcDbArc
 50
0.000000000000007
 51
90.0
  0
ARC
  5
1F9
330
18
100
AcDbEntity
  8
1
  6
Continuous
100
AcDbCircle
 10
34.93589957100784
 20
198.9411740106233
 30
0.0
 40
1.1
100
AcDbArc
 50
90.0
 51
180.0
  0
LINE
  5
129A
330
18
100
AcDbEntity
  8
4
  6
CENTER
 48
0.3
100
AcDbLine
 10
285.4679750427059
 20
219.0411740106234
 30
0.0
 11
285.4679750427059
 21
148.0411740106233
 31
0.0
  0
LINE
  5
129B
330
18
100
AcDbEntity
  8
1
  6
Continuous
100
AcDbLine
 10
262.6679750427059
 20
185.4167082691346
 30
0.0
 11
262.6679750427059
 21
137.6656397521121
 31
0.0
  0
LINE
  5
129C
330
18
100
AcDbEntity
  8
1
  6
Continuous
100
AcDbLine
 10
264.4679750427059
 20
134.0411740106233
 30
0.0
 11
264.4679750427059
 21
189.0411740106233
 31
0.0
  0
LINE
  5
129D
330
18
100
AcDbEntity
  8
1
  6
Continuous
100
AcDbLine
 10
294.9679750427058
 20
162.0411740106233
 30
0.0
 11
294.9679750427058
 21
184.2504425895765
 31
0.0
  0
LINE
  5
129E
330
18
100
AcDbEntity
  8
1
  6
Continuous
100
AcDbLine
 10
275.9679750427059
 20
162.0411740106233
 30
0.0
 11
275.9679750427058
 21
184.2504425895766
 31
0.0
  0
LINE
  5
129F
330
18
100
AcDbEntity
  8
1
  6
Continuous
100
AcDbLine
 10
308.2679750427058
 20
185.4167082691346
 30
0.0
 11
308.2679750427058
 21
137.6656397521121
 31
0.0
  0
LINE
  5
12A0
330
18
100
AcDbEntity
  8
1
  6
Continuous
100
AcDbLine
 10
306.4679750427059
 20
134.0411740106233
 30
0.0
 11
306.4679750427059
 21
189.0411740106233
 31
0.0
  0
LINE
  5
12A1
330
18
100
AcDbEntity
  8
1
  6
Continuous
100
AcDbLine
 10
295.9679750427059
 20
132.0411740106233
 30
0.0
 11
295.9679750427059
 21
187.3540703722463
 31
0.0
  0
LINE
  5
12A2
330
18
100
AcDbEntity
  8
1
  6
Continuous
100
AcDbLine
 10
274.9679750427059
 20
132.0411740106233
 30
0.0
 11
274.9679750427059
 21
187.3540703722461
 31
0.0
  0
LINE
  5
12A3
330
18
100
AcDbEntity
  8
4
  6
CENTER
 48
0.3
100
AcDbLine
 10
257.6679750427059
 20
161.5411740106233
 30
0.0
 11
313.267975042706
 21
161.5411740106233
 31
0.0
  0
LINE
  5
12A6
330
18
100
AcDbEntity
  8
1
  6
Continuous
100
AcDbLine
 10
276.7541264204633
 20
153.0411740106233
 30
0.0
 11
294.1818236649485
 21
153.0411740106233
 31
0.0
  0
LINE
  5
12A8
330
18
100
AcDbEntity
  8
1
  6
Continuous
100
AcDbLine
 10
296.4679750427059
 20
131.5411740106233
 30
0.0
 11
303.9679750427059
 21
131.5411740106233
 31
0.0
  0
ARC
  5
12A9
330
18
100
AcDbEntity
  8
1
  6
Continuous
100
AcDbCircle
 10
308.5064365811673
 20
135.6411740106233
 30
0.0
 40
2.038461538461535
100
AcDbArc
 50
96.71790694166098
 51
177.3197235075548
  0
ARC
  5
12AA
330
18
100
AcDbEntity
  8
1
  6
Continuous
100
AcDbCircle
 10
306.3703144518219
 20
135.7411740106233
 30
0.0
 40
0.1
100
AcDbArc
 50
347.5823036901274
 51
357.3197235075842
  0
ARC
  5
12AB
330
18
100
AcDbEntity
  8
1
  6
Continuous
100
AcDbCircle
 10
303.9679750427059
 20
134.0411740106233
 30
0.0
 40
2.5
100
AcDbArc
 50
270.0
 51
0.000000000000007
  0
ARC
  5
12AC
330
18
100
AcDbEntity
  8
1
  6
Continuous
100
AcDbCircle
 10
296.4679750427059
 20
132.0411740106233
 30
0.0
 40
0.5
100
AcDbArc
 50
179.9999999999316
 51
269.9999999999153
  0
LINE
  5
12AD
330
18
100
AcDbEntity
  8
1
  6
Continuous
100
AcDbLine
 10
295.9679750427059
 20
152.0411740106233
 30
0.0
 11
294.520761447206
 21
152.7647808083733
 31
0.0
  0
ARC
  5
12AF
330
18
100
AcDbEntity
  8
1
  6
Continuous
100
AcDbCircle
 10
294.9679750427058
 20
153.6592079993732
 30
0.0
 40
1.0
100
AcDbArc
 50
180.0
 51
243.434948822922
  0
LINE
  5
12B0
330
18
100
AcDbEntity
  8
1
  6
Continuous
100
AcDbLine
 10
295.9679750427059
 20
171.0411740106233
 30
0.0
 11
294.9679750427058
 21
170.5411740106233
 31
0.0
  0
LINE
  5
12B2
330
18
100
AcDbEntity
  8
1
  6
Continuous
100
AcDbLine
 10
274.4679750427059
 20
131.5411740106233
 30
0.0
 11
266.9679750427059
 21
131.5411740106233
 31
0.0
  0
ARC
  5
12B3
330
18
100
AcDbEntity
  8
1
  6
Continuous
100
AcDbCircle
 10
274.4679750427059
 20
132.0411740106233
 30
0.0
 40
0.5
100
AcDbArc
 50
270.0000000000847
 51
0.0000000000684017
  0
ARC
  5
12B4
330
18
100
AcDbEntity
  8
1
  6
Continuous
100
AcDbCircle
 10
264.5656356335899
 20
135.7411740106233
 30
0.0
 40
0.1
100
AcDbArc
 50
182.6802764924158
 51
192.4176963098726
  0
ARC
  5
12B5
330
18
100
AcDbEntity
  8
1
  6
Continuous
100
AcDbCircle
 10
262.4295135042444
 20
135.6411740106233
 30
0.0
 40
2.038461538461535
100
AcDbArc
 50
2.680276492445193
 51
83.28209305833903
  0
ARC
  5
12B6
330
18
100
AcDbEntity
  8
1
  6
Continuous
100
AcDbCircle
 10
266.9679750427059
 20
134.0411740106233
 30
0.0
 40
2.5
100
AcDbArc
 50
180.0
 51
270.0
  0
ARC
  5
12B7
330
18
100
AcDbEntity
  8
1
  6
Continuous
100
AcDbCircle
 10
275.9679750427059
 20
153.6592079993732
 30
0.0
 40
1.0
100
AcDbArc
 50
296.5650511770779
 51
0.0
  0
LINE
  5
12B8
330
18
100
AcDbEntity
  8
1
  6
Continuous
100
AcDbLine
 10
274.9679750427059
 20
152.0411740106233
 30
0.0
 11
276.4151886382058
 21
152.7647808083733
 31
0.0
  0
LINE
  5
12BA
330
18
100
AcDbEntity
  8
1
  6
Continuous
100
AcDbLine
 10
274.9679750427059
 20
171.0411740106233
 30
0.0
 11
275.9679750427059
 21
170.5411740106233
 31
0.0
  0
LINE
  5
12BF
330
18
100
AcDbEntity
  8
1
  6
Continuous
100
AcDbLine
 10
278.0679750427059
 20
200.0411740106233
 30
0.0
 11
292.8679750427058
 21
200.0411740106233
 31
0.0
  0
LINE
  5
12C2
330
18
100
AcDbEntity
  8
1
  6
Continuous
100
AcDbLine
 10
278.0679750427059
 20
194.0411740106233
 30
0.0
 11
292.8679750427058
 21
194.0411740106233
 31
0.0
  0
LINE
  5
12C4
330
18
100
AcDbEntity
  8
1
  6
Continuous
100
AcDbLine
 10
295.4679750427059
 20
193.5411740106233
 30
0.0
 11
275.4679750427059
 21
193.5411740106233
 31
0.0
  0
LINE
  5
12C7
330
18
100
AcDbEntity
  8
1
  6
Continuous
100
AcDbLine
 10
296.4679750427059
 20
191.5411740106233
 30
0.0
 11
303.9679750427059
 21
191.5411740106233
 31
0.0
  0
ARC
  5
12C8
330
18
100
AcDbEntity
  8
1
  6
Continuous
100
AcDbCircle
 10
303.9679750427059
 20
189.0411740106233
 30
0.0
 40
2.5
100
AcDbArc
 50
0.000000000000007
 51
90.0
  0
ARC
  5
12C9
330
18
100
AcDbEntity
  8
1
  6
Continuous
100
AcDbCircle
 10
308.5064365811673
 20
187.4411740106233
 30
0.0
 40
2.038461538461535
100
AcDbArc
 50
182.6802764924394
 51
263.282093058339
  0
ARC
  5
12CA
330
18
100
AcDbEntity
  8
1
  6
Continuous
100
AcDbCircle
 10
306.3703144518219
 20
187.3411740106234
 30
0.0
 40
0.1
100
AcDbArc
 50
2.680276492472853
 51
12.41769630988093
  0
ARC
  5
12CC
330
18
100
AcDbEntity
  8
1
  6
Continuous
100
AcDbCircle
 10
292.8679750427058
 20
198.9411740106233
 30
0.0
 40
1.1
100
AcDbArc
 50
0.000000000000007
 51
90.0
  0
ARC
  5
12CD
330
18
100
AcDbEntity
  8
1
  6
Continuous
100
AcDbCircle
 10
292.8679750427058
 20
195.1411740106233
 30
0.0
 40
1.1
100
AcDbArc
 50
270.0
 51
0.000000000000007
  0
LINE
  5
12D2
330
18
100
AcDbEntity
  8
1
  6
Continuous
100
AcDbLine
 10
296.4679750427059
 20
192.5411740106233
 30
0.0
 11
296.4679750427059
 21
191.420750992384
 31
0.0
  0
ARC
  5
12D3
330
18
100
AcDbEntity
  8
1
  6
Continuous
100
AcDbCircle
 10
295.4679750427059
 20
192.5411740106233
 30
0.0
 40
1.0
100
AcDbArc
 50
0.000000000000007
 51
90.0
  0
LINE
  5
12D4
330
18
100
AcDbEntity
  8
1
  6
Continuous
100
AcDbLine
 10
293.9679750427059
 20
198.9411740106233
 30
0.0
 11
293.9679750427059
 21
195.1411740106233
 31
0.0
  0
ARC
  5
12D5
330
18
100
AcDbEntity
  8
1
  6
Continuous
100
AcDbCircle
 10
292.4679750427058
 20
193.5411740106233
 30
0.0
 40
0.5
100
AcDbArc
 50
0.000000000000007
 51
90.0
  0
LINE
  5
12DB
330
18
100
AcDbEntity
  8
1
  6
Continuous
100
AcDbLine
 10
274.4679750427059
 20
191.5411740106233
 30
0.0
 11
266.9679750427059
 21
191.5411740106233
 31
0.0
  0
ARC
  5
12DD
330
18
100
AcDbEntity
  8
1
  6
Continuous
100
AcDbCircle
 10
278.0679750427059
 20
198.9411740106233
 30
0.0
 40
1.1
100
AcDbArc
 50
90.0
 51
180.0
  0
ARC
  5
12DE
330
18
100
AcDbEntity
  8
1
  6
Continuous
100
AcDbCircle
 10
278.4679750427059
 20
193.5411740106233
 30
0.0
 40
0.5
100
AcDbArc
 50
90.0
 51
180.0
  0
ARC
  5
12DF
330
18
100
AcDbEntity
  8
1
  6
Continuous
100
AcDbCircle
 10
278.0679750427059
 20
195.1411740106233
 30
0.0
 40
1.1
100
AcDbArc
 50
180.0
 51
270.0
  0
ARC
  5
12E3
330
18
100
AcDbEntity
  8
1
  6
Continuous
100
AcDbCircle
 10
275.4679750427059
 20
192.5411740106233
 30
0.0
 40
1.0
100
AcDbArc
 50
90.0
 51
180.0
  0
LINE
  5
12E4
330
18
100
AcDbEntity
  8
1
  6
Continuous
100
AcDbLine
 10
274.4679750427059
 20
192.5411740106233
 30
0.0
 11
274.4679750427059
 21
191.420750992385
 31
0.0
  0
LINE
  5
12E6
330
18
100
AcDbEntity
  8
1
  6
Continuous
100
AcDbLine
 10
276.9679750427059
 20
198.9411740106233
 30
0.0
 11
276.9679750427059
 21
195.1411740106233
 31
0.0
  0
ARC
  5
12E7
330
18
100
AcDbEntity
  8
1
  6
Continuous
100
AcDbCircle
 10
266.9679750427059
 20
189.0411740106233
 30
0.0
 40
2.5
100
AcDbArc
 50
90.0
 51
180.0
  0
ARC
  5
12E8
330
18
100
AcDbEntity
  8
1
  6
Continuous
100
AcDbCircle
 10
264.5656356335899
 20
187.3411740106234
 30
0.0
 40
0.1
100
AcDbArc
 50
167.582303690119
 51
177.319723507527
  0
ARC
  5
12E9
330
18
100
AcDbEntity
  8
1
  6
Continuous
100
AcDbCircle
 10
262.4295135042444
 20
187.4411740106233
 30
0.0
 40
2.038461538461535
100
AcDbArc
 50
276.7179069416609
 51
357.3197235075606
  0
ARC
  5
13E0
330
18
100
AcDbEntity
  8
1
  6
Continuous
100
AcDbCircle
 10
276.4679750427059
 20
162.0411740106233
 30
0.0
 40
0.5
100
AcDbArc
 50
180.0
 51
270.0
  0
LINE
  5
13E1
330
18
100
AcDbEntity
  8
1
  6
Continuous
100
AcDbLine
 10
276.4679750427059
 20
161.5411740106233
 30
0.0
 11
294.4679750427058
 21
161.5411740106233
 31
0.0
  0
ARC
  5
13E2
330
18
100
AcDbEntity
  8
1
  6
Continuous
100
AcDbCircle
 10
294.4679750427058
 20
162.0411740106233
 30
0.0
 40
0.5
100
AcDbArc
 50
270.0
 51
0.000000000000007
  0
LINE
  5
13E3
330
18
100
AcDbEntity
  8
1
  6
Continuous
100
AcDbLine
 10
293.9679750427058
 20
153.0411740106233
 30
0.0
 11
293.9679750427059
 21
161.5411740106233
 31
0.0
  0
LINE
  5
13E4
330
18
100
AcDbEntity
  8
1
  6
Continuous
100
AcDbLine
 10
276.9679750427059
 20
153.0411740106233
 30
0.0
 11
276.9679750427059
 21
161.5411740106233
 31
0.0
  0
ARC
  5
13E5
330
18
100
AcDbEntity
  8
1
  6
Continuous
100
AcDbCircle
 10
283.4679750427059
 20
158.6411740106234
 30
0.0
 40
2.9
100
AcDbArc
 50
226.3971809999995
 51
313.6028190000004
  0
ARC
  5
13E6
330
18
100
AcDbEntity
  8
1
  6
Continuous
100
AcDbCircle
 10
287.4679750427059
 20
158.6411740106233
 30
0.0
 40
2.9
100
AcDbArc
 50
226.3971809999995
 51
313.6028190000004
  0
LINE
  5
13E7
330
18
100
AcDbEntity
  8
1
  6
Continuous
100
AcDbLine
 10
289.4679750427059
 20
160.0411740106233
 30
0.0
 11
289.4679750427059
 21
155.7411740106234
 31
0.0
  0
LINE
  5
13E8
330
18
100
AcDbEntity
  8
1
  6
Continuous
100
AcDbLine
 10
281.4679750427059
 20
160.0411740106233
 30
0.0
 11
281.4679750427059
 21
155.7411740106234
 31
0.0
  0
LINE
  5
13E9
330
18
100
AcDbEntity
  8
1
  6
Continuous
100
AcDbLine
 10
281.4679750427059
 20
155.7411740106234
 30
0.0
 11
289.4679750427059
 21
155.7411740106234
 31
0.0
  0
LINE
  5
13EA
330
18
100
AcDbEntity
  8
1
  6
Continuous
100
AcDbLine
 10
279.2679750427057
 20
160.0411740106233
 30
0.0
 11
291.6679750427058
 21
160.0411740106233
 31
0.0
  0
LINE
  5
13EB
330
18
100
AcDbEntity
  8
1
  6
Continuous
100
AcDbLine
 10
279.2679750427057
 20
161.5411740106233
 30
0.0
 11
279.2679750427057
 21
160.0411740106233
 31
0.0
  0
LINE
  5
13EC
330
18
100
AcDbEntity
  8
1
  6
Continuous
100
AcDbLine
 10
284.4679750427058
 20
161.5411740106233
 30
0.0
 11
284.4679750427058
 21
160.0411740106233
 31
0.0
  0
LINE
  5
13ED
330
18
100
AcDbEntity
  8
1
  6
Continuous
100
AcDbLine
 10
286.4679750427058
 20
161.5411740106233
 30
0.0
 11
286.4679750427058
 21
160.0411740106233
 31
0.0
  0
LINE
  5
13EE
330
18
100
AcDbEntity
  8
1
  6
Continuous
100
AcDbLine
 10
285.4679750427059
 20
160.0411740106233
 30
0.0
 11
285.4679750427059
 21
156.5411740106233
 31
0.0
  0
LINE
  5
13EF
330
18
100
AcDbEntity
  8
1
  6
Continuous
100
AcDbLine
 10
291.6679750427058
 20
161.5411740106233
 30
0.0
 11
291.6679750427058
 21
160.0411740106233
 31
0.0
  0
ARC
  5
13FD
330
18
100
AcDbEntity
  8
1
  6
Continuous
100
AcDbCircle
 10
293.9237249363874
 20
191.7487652719253
 30
0.0
 40
19.45851477613516
100
AcDbArc
 50
180.9658868752438
 51
202.6654193941729
  0
ARC
  5
1401
330
18
100
AcDbEntity
  8
1
  6
Continuous
100
AcDbCircle
 10
277.0122251490243
 20
191.7487652719253
 30
0.0
 40
19.45851477613516
100
AcDbArc
 50
337.3345806058269
 51
359.0341131247561
  0
ARC
  5
1409
330
18
100
AcDbEntity
  8
1
  6
Continuous
100
AcDbCircle
 10
285.4679750427059
 20
176.3115036239959
 30
0.0
 40
4.0
100
AcDbArc
 50
224.4609623417071
 51
315.5390376582928
  0
ARC
  5
140C
330
18
100
AcDbEntity
  8
1
  6
Continuous
100
AcDbCircle
 10
308.3068341095902
 20
202.0281244891814
 30
0.0
 40
38.38572701752132
100
AcDbArc
 50
212.6250830521967
 51
227.9825120455484
  0
ARC
  5
140D
330
18
100
AcDbEntity
  8
1
  6
Continuous
100
AcDbCircle
 10
262.6291159758216
 20
202.0281244891814
 30
0.0
 40
38.38572701752132
100
AcDbArc
 50
312.0174879544516
 51
327.3749169478032
  0
ARC
  5
1447
330
18
100
AcDbEntity
  8
1
  6
Continuous
100
AcDbCircle
 10
50.79164946468939
 20
191.7487652719253
 30
0.0
 40
19.45851477613516
100
AcDbArc
 50
193.052834015713
 51
202.6654193941729
  0
ARC
  5
1454
330
18
100
AcDbEntity
  8
1
  6
Continuous
100
AcDbCircle
 10
33.88014967732635
 20
191.7487652719253
 30
0.0
 40
19.45851477613516
100
AcDbArc
 50
337.3345806058269
 51
346.9471659842871
  0
LINE
  5
1540
330
18
100
AcDbEntity
  8
1
  6
Continuous
100
AcDbLine
 10
193.4019373068569
 20
48.75050106128168
 30
0.0
 11
134.4019373068569
 21
48.75050106128168
 31
0.0
  0
LINE
  5
1542
330
18
100
AcDbEntity
  8
1
  6
Continuous
100
AcDbLine
 10
193.4019373068569
 20
69.75050106128168
 30
0.0
 11
134.4019373068569
 21
69.75050106128168
 31
0.0
  0
LINE
  5
1543
330
18
100
AcDbEntity
  8
1
  6
Continuous
100
AcDbLine
 10
193.4019373068569
 20
68.75050106128168
 30
0.0
 11
172.9019373068568
 21
68.75050106128168
 31
0.0
  0
LINE
  5
1544
330
18
100
AcDbEntity
  8
4
  6
CENTER
 48
0.3
100
AcDbLine
 10
198.9019373068568
 20
59.25050106128165
 30
0.0
 11
120.0862393068571
 21
59.25050106128168
 31
0.0
  0
LINE
  5
1545
330
18
100
AcDbEntity
  8
1
  6
Continuous
100
AcDbLine
 10
187.777471565368
 20
36.45050106128172
 30
0.0
 11
140.0264030483455
 21
36.45050106128172
 31
0.0
  0
LINE
  5
1546
330
18
100
AcDbEntity
  8
1
  6
Continuous
100
AcDbLine
 10
136.4019373068569
 20
38.25050106128173
 30
0.0
 11
191.4019373068569
 21
38.25050106128173
 31
0.0
  0
LINE
  5
1547
330
18
100
AcDbEntity
  8
1
  6
Continuous
100
AcDbLine
 10
187.777471565368
 20
82.05050106128162
 30
0.0
 11
140.0264030483455
 21
82.05050106128162
 31
0.0
  0
LINE
  5
1548
330
18
100
AcDbEntity
  8
1
  6
Continuous
100
AcDbLine
 10
136.4019373068569
 20
80.25050106128167
 30
0.0
 11
191.4019373068569
 21
80.25050106128167
 31
0.0
  0
LINE
  5
154B
330
18
100
AcDbEntity
  8
4
  6
CENTER
 48
0.3
100
AcDbLine
 10
163.9019373068568
 20
87.05050106128167
 30
0.0
 11
163.9019373068568
 21
31.45050106128167
 31
0.0
  0
LINE
  5
154C
330
18
100
AcDbEntity
  8
1
  6
Continuous
100
AcDbLine
 10
133.9019373068568
 20
50.25050106128168
 30
0.0
 11
133.9019373068568
 21
68.25050106128168
 31
0.0
  0
ARC
  5
154E
330
18
100
AcDbEntity
  8
1
  6
Continuous
100
AcDbCircle
 10
136.4019373068569
 20
77.75050106128169
 30
0.0
 40
2.5
100
AcDbArc
 50
90.00000000000005
 51
180.0
  0
LINE
  5
154F
330
18
100
AcDbEntity
  8
1
  6
Continuous
100
AcDbLine
 10
133.9019373068568
 20
70.25050106128168
 30
0.0
 11
133.9019373068568
 21
77.75050106128169
 31
0.0
  0
ARC
  5
1550
330
18
100
AcDbEntity
  8
1
  6
Continuous
100
AcDbCircle
 10
134.4019373068569
 20
68.25050106128168
 30
0.0
 40
0.5
100
AcDbArc
 50
90.00000000000005
 51
180.0
  0
ARC
  5
1551
330
18
100
AcDbEntity
  8
1
  6
Continuous
100
AcDbCircle
 10
134.4019373068569
 20
70.25050106128168
 30
0.0
 40
0.5
100
AcDbArc
 50
180.0000000000846
 51
270.0000000000684
  0
ARC
  5
1552
330
18
100
AcDbEntity
  8
1
  6
Continuous
100
AcDbCircle
 10
138.1019373068568
 20
80.1528404703977
 30
0.0
 40
0.1
100
AcDbArc
 50
92.68027649241584
 51
102.4176963098726
  0
ARC
  5
1553
330
18
100
AcDbEntity
  8
1
  6
Continuous
100
AcDbCircle
 10
138.0019373068569
 20
82.28896259974318
 30
0.0
 40
2.038461538461535
100
AcDbArc
 50
272.6802764924451
 51
353.2820930583388
  0
ARC
  5
1556
330
18
100
AcDbEntity
  8
1
  6
Continuous
100
AcDbCircle
 10
136.4019373068569
 20
40.75050106128172
 30
0.0
 40
2.5
100
AcDbArc
 50
180.0
 51
270.0
  0
ARC
  5
1557
330
18
100
AcDbEntity
  8
1
  6
Continuous
100
AcDbCircle
 10
134.4019373068569
 20
50.25050106128168
 30
0.0
 40
0.5
100
AcDbArc
 50
180.0
 51
270.0
  0
LINE
  5
1558
330
18
100
AcDbEntity
  8
1
  6
Continuous
100
AcDbLine
 10
133.9019373068568
 20
48.25050106128168
 30
0.0
 11
133.9019373068568
 21
40.75050106128172
 31
0.0
  0
ARC
  5
1559
330
18
100
AcDbEntity
  8
1
  6
Continuous
100
AcDbCircle
 10
134.4019373068569
 20
48.25050106128168
 30
0.0
 40
0.5
100
AcDbArc
 50
89.99999999993162
 51
179.9999999999153
  0
ARC
  5
155A
330
18
100
AcDbEntity
  8
1
  6
Continuous
100
AcDbCircle
 10
138.0019373068569
 20
36.21203952282022
 30
0.0
 40
2.038461538461535
100
AcDbArc
 50
6.717906941660991
 51
87.31972350755487
  0
ARC
  5
155B
330
18
100
AcDbEntity
  8
1
  6
Continuous
100
AcDbCircle
 10
138.1019373068568
 20
38.34816165216571
 30
0.0
 40
0.1
100
AcDbArc
 50
257.5823036901273
 51
267.3197235075841
  0
LINE
  5
1560
330
18
100
AcDbEntity
  8
4
  6
CENTER
 48
0.3
100
AcDbLine
 10
180.9019373068569
 20
75.25050106128169
 30
0.0
 11
180.9019373068569
 21
43.25050106128168
 31
0.0
  0
LINE
  5
1564
330
18
100
AcDbEntity
  8
1
  6
Continuous
100
AcDbLine
 10
193.9019373068569
 20
50.25050106128168
 30
0.0
 11
193.9019373068569
 21
68.25050106128168
 31
0.0
  0
ARC
  5
1567
330
18
100
AcDbEntity
  8
1
  6
Continuous
100
AcDbCircle
 10
180.9019373068569
 20
59.25050106128168
 30
0.0
 40
11.0
100
AcDbArc
 50
107.3414428027598
 51
120.2726413189095
  0
LINE
  5
156B
330
18
100
AcDbEntity
  8
1
  6
Continuous
100
AcDbLine
 10
193.9019373068569
 20
70.25050106128168
 30
0.0
 11
193.9019373068569
 21
77.75050106128169
 31
0.0
  0
ARC
  5
156C
330
18
100
AcDbEntity
  8
1
  6
Continuous
100
AcDbCircle
 10
189.8019373068569
 20
82.28896259974318
 30
0.0
 40
2.038461538461535
100
AcDbArc
 50
186.7179069416609
 51
267.3197235075613
  0
ARC
  5
156D
330
18
100
AcDbEntity
  8
1
  6
Continuous
100
AcDbCircle
 10
189.701937306857
 20
80.1528404703977
 30
0.0
 40
0.1
100
AcDbArc
 50
77.58230369011909
 51
87.31972350752714
  0
ARC
  5
156E
330
18
100
AcDbEntity
  8
1
  6
Continuous
100
AcDbCircle
 10
191.4019373068569
 20
77.75050106128169
 30
0.0
 40
2.5
100
AcDbArc
 50
0.0
 51
90.00000000000005
  0
ARC
  5
1571
330
18
100
AcDbEntity
  8
1
  6
Continuous
100
AcDbCircle
 10
193.4019373068569
 20
68.25050106128168
 30
0.0
 40
0.5
100
AcDbArc
 50
0.0
 51
90.00000000000005
  0
ARC
  5
1572
330
18
100
AcDbEntity
  8
1
  6
Continuous
100
AcDbCircle
 10
193.4019373068569
 20
70.25050106128168
 30
0.0
 40
0.5
100
AcDbArc
 50
270.0000000000684
 51
0.0000000000504958
  0
ARC
  5
1573
330
18
100
AcDbEntity
  8
1
  6
Continuous
100
AcDbCircle
 10
189.8019373068569
 20
36.21203952282022
 30
0.0
 40
2.038461538461535
100
AcDbArc
 50
92.68027649243864
 51
173.282093058339
  0
ARC
  5
1577
330
18
100
AcDbEntity
  8
1
  6
Continuous
100
AcDbCircle
 10
193.4019373068569
 20
50.25050106128168
 30
0.0
 40
0.5
100
AcDbArc
 50
270.0
 51
0.0
  0
LINE
  5
1579
330
18
100
AcDbEntity
  8
1
  6
Continuous
100
AcDbLine
 10
193.9019373068569
 20
48.25050106128168
 30
0.0
 11
193.9019373068569
 21
40.75050106128172
 31
0.0
  0
ARC
  5
157A
330
18
100
AcDbEntity
  8
1
  6
Continuous
100
AcDbCircle
 10
189.701937306857
 20
38.34816165216571
 30
0.0
 40
0.1
100
AcDbArc
 50
272.6802764924728
 51
282.4176963098809
  0
ARC
  5
157B
330
18
100
AcDbEntity
  8
1
  6
Continuous
100
AcDbCircle
 10
191.4019373068569
 20
40.75050106128172
 30
0.0
 40
2.5
100
AcDbArc
 50
270.0
 51
0.0
  0
ARC
  5
157C
330
18
100
AcDbEntity
  8
1
  6
Continuous
100
AcDbCircle
 10
193.4019373068569
 20
48.25050106128168
 30
0.0
 40
0.5
100
AcDbArc
 50
359.9999999999495
 51
89.99999999993162
  0
ARC
  5
16A9
330
18
100
AcDbEntity
  8
1
  6
Continuous
100
AcDbCircle
 10
180.9019373068569
 20
59.25050106128168
 30
0.0
 40
11.0
100
AcDbArc
 50
59.72735868109045
 51
72.65855719724019
  0
ARC
  5
16AA
330
18
100
AcDbEntity
  8
1
  6
Continuous
100
AcDbCircle
 10
180.9019373068569
 20
59.25050106128168
 30
0.0
 40
11.0
100
AcDbArc
 50
239.7273586810904
 51
252.6585571972401
  0
ARC
  5
16AB
330
18
100
AcDbEntity
  8
1
  6
Continuous
100
AcDbCircle
 10
180.9019373068569
 20
59.25050106128168
 30
0.0
 40
11.0
100
AcDbArc
 50
287.3414428027599
 51
300.2726413189094
  0
LINE
  5
16AC
330
18
100
AcDbEntity
  8
1
  6
Continuous
100
AcDbLine
 10
178.5925363068569
 20
63.25050106128168
 30
0.0
 11
183.2113383068568
 21
63.25050106128168
 31
0.0
  0
LINE
  5
16AD
330
18
100
AcDbEntity
  8
1
  6
Continuous
100
AcDbLine
 10
183.2113383068568
 20
55.25050106128168
 30
0.0
 11
178.5925363068569
 21
55.25050106128168
 31
0.0
  0
CIRCLE
  5
16AE
330
18
100
AcDbEntity
  8
1
  6
Continuous
100
AcDbCircle
 10
180.9019373068569
 20
59.25050106128168
 30
0.0
 40
4.0
  0
ARC
  5
16AF
330
18
100
AcDbEntity
  8
1
  6
Continuous
100
AcDbCircle
 10
180.9019373068569
 20
59.25050106128168
 30
0.0
 40
6.0
100
AcDbArc
 50
15.82661999999996
 51
344.17338
  0
LINE
  5
16B0
330
18
100
AcDbEntity
  8
1
  6
Continuous
100
AcDbLine
 10
178.5925363068569
 20
55.25050106128168
 30
0.0
 11
176.283135306857
 21
59.25050106128168
 31
0.0
  0
LINE
  5
16B1
330
18
100
AcDbEntity
  8
1
  6
Continuous
100
AcDbLine
 10
176.283135306857
 20
59.25050106128168
 30
0.0
 11
178.5925363068569
 21
63.25050106128168
 31
0.0
  0
LINE
  5
16B2
330
18
100
AcDbEntity
  8
1
  6
Continuous
100
AcDbLine
 10
185.520740306857
 20
59.25050106128168
 30
0.0
 11
183.2113383068568
 21
55.25050106128168
 31
0.0
  0
ARC
  5
16B3
330
18
100
AcDbEntity
  8
1
  6
Continuous
100
AcDbCircle
 10
186.1934393068568
 20
57.75050106128168
 30
0.0
 40
0.5
100
AcDbArc
 50
344.17338
 51
90.0
  0
ARC
  5
16B4
330
18
100
AcDbEntity
  8
1
  6
Continuous
100
AcDbCircle
 10
186.1934393068568
 20
60.75050106128168
 30
0.0
 40
0.5
100
AcDbArc
 50
270.0
 51
15.82661999999996
  0
LINE
  5
16B5
330
18
100
AcDbEntity
  8
1
  6
Continuous
100
AcDbLine
 10
184.9433893068569
 20
60.25050106128168
 30
0.0
 11
186.1934393068568
 21
60.25050106128168
 31
0.0
  0
LINE
  5
16B6
330
18
100
AcDbEntity
  8
1
  6
Continuous
100
AcDbLine
 10
184.9433893068569
 20
58.25050106128168
 30
0.0
 11
186.1934393068568
 21
58.25050106128168
 31
0.0
  0
LINE
  5
16B7
330
18
100
AcDbEntity
  8
1
  6
Continuous
100
AcDbLine
 10
183.2113383068568
 20
63.25050106128168
 30
0.0
 11
185.520740306857
 21
59.25050106128168
 31
0.0
  0
ARC
  5
16B8
330
18
100
AcDbEntity
  8
1
  6
Continuous
100
AcDbCircle
 10
156.0199712956068
 20
68.75050106128172
 30
0.0
 40
1.0
100
AcDbArc
 50
206.5650511770779
 51
270.0000000000004
  0
LINE
  5
16B9
330
18
100
AcDbEntity
  8
1
  6
Continuous
100
AcDbLine
 10
154.4019373068568
 20
69.75050106128174
 30
0.0
 11
155.1255441046068
 21
68.30328746578175
 31
0.0
  0
LINE
  5
16BA
330
18
100
AcDbEntity
  8
1
  6
Continuous
100
AcDbLine
 10
136.6989962893859
 20
67.75050106128154
 30
0.0
 11
173.9019373068569
 21
67.75050106128181
 31
0.0
  0
LINE
  5
16BB
330
18
100
AcDbEntity
  8
1
  6
Continuous
100
AcDbLine
 10
173.4019373068568
 20
69.75050106128174
 30
0.0
 11
172.6783305091069
 21
68.30328746578175
 31
0.0
  0
ARC
  5
16BC
330
18
100
AcDbEntity
  8
1
  6
Continuous
100
AcDbCircle
 10
171.7839033181069
 20
68.75050106128172
 30
0.0
 40
1.0
100
AcDbArc
 50
269.9999999999996
 51
333.4349488229221
  0
ARC
  5
16C2
330
18
100
AcDbEntity
  8
1
  6
Continuous
100
AcDbCircle
 10
135.6312925452252
 20
68.25050106128168
 30
0.0
 40
0.5
100
AcDbArc
 50
90.00000000000005
 51
180.0
  0
LINE
  5
16C3
330
18
100
AcDbEntity
  8
1
  6
Continuous
100
AcDbLine
 10
135.1312925452252
 20
50.25050106128167
 30
0.0
 11
135.1312925452252
 21
68.25050106128168
 31
0.0
  0
ARC
  5
16C4
330
18
100
AcDbEntity
  8
1
  6
Continuous
100
AcDbCircle
 10
135.6312925452252
 20
50.25050106128167
 30
0.0
 40
0.5
100
AcDbArc
 50
180.0
 51
270.0
  0
ARC
  5
16C5
330
18
100
AcDbEntity
  8
1
  6
Continuous
100
AcDbCircle
 10
136.198996289386
 20
68.25050106128168
 30
0.0
 40
0.5
100
AcDbArc
 50
0.000000000000007
 51
89.99999999999998
  0
LINE
  5
16C6
330
18
100
AcDbEntity
  8
1
  6
Continuous
100
AcDbLine
 10
136.6989962893859
 20
50.25050106128167
 30
0.0
 11
136.6989962893859
 21
50.75050106128179
 31
0.0
  0
ARC
  5
16C7
330
18
100
AcDbEntity
  8
1
  6
Continuous
100
AcDbCircle
 10
136.198996289386
 20
50.25050106128167
 30
0.0
 40
0.5
100
AcDbArc
 50
270.0
 51
0.000000000000007
  0
LINE
  5
16C8
330
18
100
AcDbEntity
  8
1
  6
Continuous
100
AcDbLine
 10
154.9019373068569
 20
68.75050106128168
 30
0.0
 11
127.3598980408336
 21
68.75050106128168
 31
0.0
  0
LINE
  5
16C9
330
18
100
AcDbEntity
  8
1
  6
Continuous
100
AcDbLine
 10
172.3096344302259
 20
66.75050106128178
 30
0.0
 11
172.3096344302259
 21
51.75050106128153
 31
0.0
  0
LINE
  5
16CA
330
18
100
AcDbEntity
  8
1
  6
Continuous
100
AcDbLine
 10
173.9019373068569
 20
67.75050106128181
 30
0.0
 11
173.9019373068569
 21
68.25050106128168
 31
0.0
  0
ARC
  5
16CB
330
18
100
AcDbEntity
  8
1
  6
Continuous
100
AcDbCircle
 10
174.4019373068569
 20
68.25050106128168
 30
0.0
 40
0.5
100
AcDbArc
 50
90.0
 51
180.0
  0
LINE
  5
16CC
330
18
100
AcDbEntity
  8
1
  6
Continuous
100
AcDbLine
 10
154.9019373068569
 20
49.75050106128165
 30
0.0
 11
127.3598980408336
 21
49.75050106128165
 31
0.0
  0
LINE
  5
16CD
330
18
100
AcDbEntity
  8
1
  6
Continuous
100
AcDbLine
 10
154.4019373068568
 20
48.7505010612816
 30
0.0
 11
155.1255441046068
 21
50.19771465678157
 31
0.0
  0
ARC
  5
16CE
330
18
100
AcDbEntity
  8
1
  6
Continuous
100
AcDbCircle
 10
156.0199712956068
 20
49.7505010612816
 30
0.0
 40
1.0
100
AcDbArc
 50
89.9999999999996
 51
153.434948822922
  0
LINE
  5
16CF
330
18
100
AcDbEntity
  8
1
  6
Continuous
100
AcDbLine
 10
136.6989962893859
 20
50.75050106128179
 30
0.0
 11
173.9019373068569
 21
50.75050106128152
 31
0.0
  0
LINE
  5
16D0
330
18
100
AcDbEntity
  8
1
  6
Continuous
100
AcDbLine
 10
173.4019373068568
 20
48.7505010612816
 30
0.0
 11
172.6783305091069
 21
50.19771465678157
 31
0.0
  0
ARC
  5
16D1
330
18
100
AcDbEntity
  8
1
  6
Continuous
100
AcDbCircle
 10
171.7839033181069
 20
49.7505010612816
 30
0.0
 40
1.0
100
AcDbArc
 50
26.56505117707795
 51
90.00000000000042
  0
LINE
  5
16D2
330
18
100
AcDbEntity
  8
1
  6
Continuous
100
AcDbLine
 10
173.9019373068569
 20
50.75050106128152
 30
0.0
 11
173.9019373068569
 21
50.25050106128166
 31
0.0
  0
ARC
  5
16D3
330
18
100
AcDbEntity
  8
1
  6
Continuous
100
AcDbCircle
 10
174.4019373068569
 20
50.25050106128166
 30
0.0
 40
0.5
100
AcDbArc
 50
180.0
 51
270.0
  0
LINE
  5
16D4
330
18
100
AcDbEntity
  8
1
  6
Continuous
100
AcDbLine
 10
193.4019373068569
 20
49.75050106128165
 30
0.0
 11
172.9019373068568
 21
49.75050106128165
 31
0.0
  0
LINE
  5
16D5
330
18
100
AcDbEntity
  8
1
  6
Continuous
100
AcDbLine
 10
136.6989962893859
 20
67.75050106128154
 30
0.0
 11
136.6989962893859
 21
68.25050106128168
 31
0.0
  0
ARC
  5
1C03
330
18
100
AcDbEntity
  8
5
  6
PHANTOM
 48
0.1
100
AcDbCircle
 10
132.8276898883566
 20
161.7865100010223
 30
0.0
 40
0.9999999999999996
100
AcDbArc
 50
265.7999999999995
 51
355.7999999999997
  0
ARC
  5
1C04
330
18
100
AcDbEntity
  8
5
  6
PHANTOM
 48
0.1
100
AcDbCircle
 10
155.5435329774889
 20
198.0358891402176
 30
0.0
 40
27.49999999999999
100
AcDbArc
 50
209.5063598998871
 51
217.5318170397948
  0
LINE
  5
1C05
330
18
100
AcDbEntity
  8
1
  6
Continuous
100
AcDbLine
 10
125.5862393068571
 20
183.0411731844652
 30
0.0
 11
141.7942463374229
 21
183.0411731844652
 31
0.0
  0
LINE
  5
1C06
330
18
100
AcDbEntity
  8
1
  6
Continuous
100
AcDbLine
 10
126.0862393068571
 20
180.5411731844653
 30
0.0
 11
140.6855630982514
 21
180.5411731844652
 31
0.0
  0
LINE
  5
1C07
330
18
100
AcDbEntity
  8
5
  6
PHANTOM
 48
0.1
100
AcDbLine
 10
133.8250043655812
 20
161.7132718038947
 30
0.0
 11
134.9614118000806
 21
177.1881965139704
 31
0.0
  0
ARC
  5
1C08
330
18
100
AcDbEntity
  8
5
  6
PHANTOM
 48
0.1
100
AcDbCircle
 10
136.3958127074256
 20
169.412865726287
 30
0.0
 40
1.999999999999999
100
AcDbArc
 50
116.6211352239044
 51
175.7999999999996
  0
ARC
  5
1C09
330
18
100
AcDbEntity
  8
5
  6
PHANTOM
 48
0.1
100
AcDbCircle
 10
134.4003136158205
 20
181.2440972458315
 30
0.0
 40
0.5
100
AcDbArc
 50
218.4563486468541
 51
318.9277749135229
  0
ARC
  5
1C0A
330
18
100
AcDbEntity
  8
5
  6
PHANTOM
 48
0.1
100
AcDbCircle
 10
128.9775249367337
 20
177.6276256967362
 30
0.0
 40
5.999999999999997
100
AcDbArc
 50
355.7999999999997
 51
37.53181703979485
  0
ARC
  5
1C0B
330
18
100
AcDbEntity
  8
5
  6
PHANTOM
 48
0.1
100
AcDbCircle
 10
139.6774874436005
 20
176.6450281670511
 30
0.0
 40
6.499999999999996
100
AcDbArc
 50
75.74827400003106
 51
138.9277749135183
  0
LINE
  5
1C0C
330
18
100
AcDbEntity
  8
5
  6
PHANTOM
 48
0.1
100
AcDbLine
 10
141.2776733770154
 20
182.9449806978426
 30
0.0
 11
142.2371222673825
 21
182.2929399428363
 31
0.0
  0
ARC
  5
1C0D
330
18
100
AcDbEntity
  8
1
  6
Continuous
100
AcDbCircle
 10
133.9534371625257
 20
178.5411731844653
 30
0.0
 40
2.0
100
AcDbArc
 50
344.4234275072072
 51
90.0
  0
ARC
  5
1C0E
330
18
100
AcDbEntity
  8
1
  6
Continuous
100
AcDbCircle
 10
141.7942463374229
 20
186.0411731844651
 30
0.0
 40
2.999999999999998
100
AcDbArc
 50
270.0
 51
312.0616646664799
  0
ARC
  5
1C0F
330
18
100
AcDbEntity
  8
1
  6
Continuous
100
AcDbCircle
 10
140.6963442714708
 20
176.6614913709291
 30
0.0
 40
4.999999999999997
100
AcDbArc
 50
164.4234275072103
 51
213.9898682558763
  0
LINE
  5
1C10
330
18
100
AcDbEntity
  8
5
  6
PHANTOM
 48
0.1
100
AcDbLine
 10
131.2950990739561
 20
161.3977100581015
 30
0.0
 11
132.4821442879067
 21
177.5621901166406
 31
0.0
  0
ARC
  5
1C11
330
18
100
AcDbEntity
  8
5
  6
PHANTOM
 48
0.1
100
AcDbCircle
 10
131.7937563125685
 20
161.3610909595377
 30
0.0
 40
0.5
100
AcDbArc
 50
175.7999999999996
 51
265.7999999999995
  0
LINE
  5
1C12
330
18
100
AcDbEntity
  8
5
  6
PHANTOM
 48
0.1
100
AcDbLine
 10
131.7571372140046
 20
160.8624337209254
 30
0.0
 11
132.7544516912291
 21
160.7891955237979
 31
0.0
  0
ARC
  5
1C13
330
18
100
AcDbEntity
  8
5
  6
PHANTOM
 48
0.1
100
AcDbCircle
 10
130.739953594691
 20
183.9990643638927
 30
0.0
 40
0.9999999999999996
100
AcDbArc
 50
29.50635989988715
 51
85.79999999999968
  0
ARC
  5
1C14
330
18
100
AcDbEntity
  8
5
  6
PHANTOM
 48
0.1
100
AcDbCircle
 10
129.2768648907387
 20
184.607853259252
 30
0.0
 40
0.5
100
AcDbArc
 50
85.79999999999968
 51
207.0770090580895
  0
ARC
  5
1C15
330
18
100
AcDbEntity
  8
5
  6
PHANTOM
 48
0.1
100
AcDbCircle
 10
129.4902008562335
 20
177.7819047080235
 30
0.0
 40
2.999999999999998
100
AcDbArc
 50
355.7999999999997
 51
37.86166466647883
  0
ARC
  5
1C16
330
18
100
AcDbEntity
  8
5
  6
PHANTOM
 48
0.1
100
AcDbCircle
 10
155.5435329774889
 20
198.0358891402176
 30
0.0
 40
29.99999999999999
100
AcDbArc
 50
207.0770090580895
 51
217.8616646664788
  0
LINE
  5
1C17
330
18
100
AcDbEntity
  8
5
  6
PHANTOM
 48
0.1
100
AcDbLine
 10
129.3134839893025
 20
185.106510497864
 30
0.0
 11
130.8131917918187
 21
184.9963788411171
 31
0.0
  0
ARC
  5
1C18
330
18
100
AcDbEntity
  8
1
  6
Continuous
100
AcDbCircle
 10
125.5862393068571
 20
182.5411731844652
 30
0.0
 40
0.5
100
AcDbArc
 50
90.0
 51
180.0
  0
ARC
  5
1C19
330
18
100
AcDbEntity
  8
1
  6
Continuous
100
AcDbCircle
 10
126.0862393068571
 20
181.5411731844652
 30
0.0
 40
0.9999999999999998
100
AcDbArc
 50
180.0
 51
270.0
  0
LINE
  5
1C1A
330
18
100
AcDbEntity
  8
1
  6
Continuous
100
AcDbLine
 10
125.0862393068571
 20
182.5411731844652
 30
0.0
 11
125.0862393068571
 21
181.5411731844652
 31
0.0
  0
LINE
  5
1C59
330
18
100
AcDbEntity
  8
1
  6
Continuous
100
AcDbLine
 10
142.9830915347857
 20
291.265106982836
 30
0.0
 11
142.9830915347857
 21
276.2770655265512
 31
0.0
  0
ARC
  5
1C5A
330
18
100
AcDbEntity
  8
1
  6
Continuous
100
AcDbCircle
 10
155.0862393068571
 20
283.8318469599651
 30
0.0
 40
30.0
100
AcDbArc
 50
162.9561533849015
 51
197.0438466150984
  0
LINE
  5
1C5B
330
18
100
AcDbEntity
  8
1
  6
Continuous
100
AcDbLine
 10
149.0930915347858
 20
292.831846959965
 30
0.0
 11
149.0930915347858
 21
274.831846959965
 31
0.0
  0
LINE
  5
1C5C
330
18
100
AcDbEntity
  8
1
  6
Continuous
100
AcDbLine
 10
149.401937306857
 20
293.3318469599651
 30
0.0
 11
149.401937306857
 21
274.3318469599651
 31
0.0
  0
ARC
  5
1C63
330
18
100
AcDbEntity
  8
1
  6
Continuous
100
AcDbCircle
 10
148.5930915347856
 20
274.831846959965
 30
0.0
 40
0.5
100
AcDbArc
 50
270.0000000000032
 51
0.000000000000007
  0
ARC
  5
1C66
330
18
100
AcDbEntity
  8
1
  6
Continuous
100
AcDbCircle
 10
127.3598980408336
 20
275.3318469599651
 30
0.0
 40
1.0
100
AcDbArc
 50
197.0438466150984
 51
270.0
  0
ARC
  5
1C6A
330
18
100
AcDbEntity
  8
1
  6
Continuous
100
AcDbCircle
 10
148.5930915347856
 20
292.831846959965
 30
0.0
 40
0.5
100
AcDbArc
 50
0.0000000000032639
 51
90.0
  0
ARC
  5
1C70
330
18
100
AcDbEntity
  8
1
  6
Continuous
100
AcDbCircle
 10
127.3598980408336
 20
292.3318469599651
 30
0.0
 40
1.0
100
AcDbArc
 50
90.0
 51
162.9561533849015
  0
ARC
  5
1C8B
330
18
100
AcDbEntity
  8
1
  6
Continuous
100
AcDbCircle
 10
51.33589957100787
 20
181.0411740106233
 30
0.0
 40
0.5
100
AcDbArc
 50
270.0
 51
0.000000000000007
  0
ARC
  5
1C8C
330
18
100
AcDbEntity
  8
1
  6
Continuous
100
AcDbCircle
 10
51.33589957100787
 20
183.5411740106233
 30
0.0
 40
0.5
100
AcDbArc
 50
270.0
 51
0.000000000000007
  0
ARC
  5
1C8D
330
18
100
AcDbEntity
  8
1
  6
Continuous
100
AcDbCircle
 10
51.33589957100787
 20
186.7538572231018
 30
0.0
 40
0.5
100
AcDbArc
 50
0.000000000000007
 51
90.0
  0
LINE
  5
1C8E
330
18
100
AcDbEntity
  8
1
  6
Continuous
100
AcDbLine
 10
51.83589957100787
 20
187.6266105605452
 30
0.0
 11
32.83589957100787
 21
187.6266105605452
 31
0.0
  0
LINE
  5
1C8F
330
18
100
AcDbEntity
  8
1
  6
Continuous
100
AcDbLine
 10
47.33589957100787
 20
167.3185650106233
 30
0.0
 11
51.83589957100787
 21
167.3185650106233
 31
0.0
  0
LINE
  5
1C95
330
18
100
AcDbEntity
  8
1
  6
Continuous
100
AcDbLine
 10
37.33589957100786
 20
167.3185650106233
 30
0.0
 11
37.33589957100786
 21
178.7800680106233
 31
0.0
  0
LINE
  5
1C96
330
18
100
AcDbEntity
  8
1
  6
Continuous
100
AcDbLine
 10
47.33589957100787
 20
167.3185650106233
 30
0.0
 11
47.33589957100787
 21
178.7800680106233
 31
0.0
  0
LINE
  5
1C97
330
18
100
AcDbEntity
  8
1
  6
Continuous
100
AcDbLine
 10
33.83589957100787
 20
180.5411740106233
 30
0.0
 11
33.83589957100787
 21
169.464481377122
 31
0.0
  0
LINE
  5
1C98
330
18
100
AcDbEntity
  8
1
  6
Continuous
100
AcDbLine
 10
37.18589957100778
 20
180.5411740106233
 30
0.0
 11
37.18589957100778
 21
169.464481377122
 31
0.0
  0
LINE
  5
1C99
330
18
100
AcDbEntity
  8
1
  6
Continuous
100
AcDbLine
 10
50.83589957100787
 20
180.5411740106233
 30
0.0
 11
50.83589957100787
 21
169.464481377122
 31
0.0
  0
LINE
  5
1C9A
330
18
100
AcDbEntity
  8
1
  6
Continuous
100
AcDbLine
 10
47.48589957100786
 20
180.5411740106233
 30
0.0
 11
47.48589957100786
 21
169.464481377122
 31
0.0
  0
LINE
  5
1C9B
330
18
100
AcDbEntity
  8
1
  6
Continuous
100
AcDbLine
 10
50.83589957100787
 20
169.464481377122
 30
0.0
 11
47.48589957100786
 21
169.464481377122
 31
0.0
  0
LINE
  5
1C9C
330
18
100
AcDbEntity
  8
1
  6
Continuous
100
AcDbLine
 10
37.18589957100778
 20
169.464481377122
 30
0.0
 11
33.83589957100787
 21
169.464481377122
 31
0.0
  0
LINE
  5
1C9D
330
18
100
AcDbEntity
  8
1
  6
Continuous
100
AcDbLine
 10
37.33589957100786
 20
167.3185650106233
 30
0.0
 11
32.83589957100787
 21
167.3185650106233
 31
0.0
  0
LINE
  5
1C9F
330
18
100
AcDbEntity
  8
1
  6
Continuous
100
AcDbLine
 10
51.33589957100787
 20
180.5411740106233
 30
0.0
 11
33.33589957100787
 21
180.5411740106233
 31
0.0
  0
LINE
  5
1CA0
330
18
100
AcDbEntity
  8
1
  6
Continuous
100
AcDbLine
 10
33.33589957100787
 20
183.0411740106233
 30
0.0
 11
51.33589957100787
 21
183.0411740106233
 31
0.0
  0
LINE
  5
1CA1
330
18
100
AcDbEntity
  8
1
  6
Continuous
100
AcDbLine
 10
51.33589957100787
 20
187.2538572231018
 30
0.0
 11
33.33589957100787
 21
187.2538572231018
 31
0.0
  0
LINE
  5
1CA2
330
18
100
AcDbEntity
  8
1
  6
Continuous
100
AcDbLine
 10
47.48589957100786
 20
178.7800680106233
 30
0.0
 11
37.18589957100778
 21
178.7800680106233
 31
0.0
  0
ARC
  5
1CA3
330
18
100
AcDbEntity
  8
1
  6
Continuous
100
AcDbCircle
 10
33.33589957100787
 20
181.0411740106233
 30
0.0
 40
0.5
100
AcDbArc
 50
180.0
 51
270.0
  0
ARC
  5
1CA4
330
18
100
AcDbEntity
  8
1
  6
Continuous
100
AcDbCircle
 10
33.33589957100787
 20
183.5411740106233
 30
0.0
 40
0.5
100
AcDbArc
 50
180.0
 51
270.0
  0
ARC
  5
1CA5
330
18
100
AcDbEntity
  8
1
  6
Continuous
100
AcDbCircle
 10
33.33589957100787
 20
186.7538572231018
 30
0.0
 40
0.5
100
AcDbArc
 50
90.0
 51
180.0
  0
LINE
  5
1F24
330
18
100
AcDbEntity
  8
4
  6
CENTER
 48
0.3
100
AcDbLine
 10
442.0340127785548
 20
161.5411740106233
 30
0.0
 11
372.0340127785548
 21
161.5411740106234
 31
0.0
  0
CIRCLE
  5
1F25
330
18
100
AcDbEntity
  8
1
  6
Continuous
100
AcDbCircle
 10
407.0340127785548
 20
161.5411740106234
 30
0.0
 40
30.0
  0
CIRCLE
  5
1F26
330
18
100
AcDbEntity
  8
1
  6
Continuous
100
AcDbCircle
 10
407.0340127785548
 20
161.5411740106234
 30
0.0
 40
26.0
  0
CIRCLE
  5
1F27
330
18
100
AcDbEntity
  8
1
  6
Continuous
100
AcDbCircle
 10
407.0340127785548
 20
161.5411740106234
 30
0.0
 40
24.0
  0
CIRCLE
  5
1F28
330
18
100
AcDbEntity
  8
1
  6
Continuous
100
AcDbCircle
 10
407.0340127785548
 20
161.5411740106234
 30
0.0
 40
25.89999999999999
  0
ARC
  5
1F29
330
18
100
AcDbEntity
  8
5
  6
PHANTOM
 48
0.1
100
AcDbCircle
 10
415.3924171079228
 20
198.0358891402176
 30
0.0
 40
27.49999999999999
100
AcDbArc
 50
322.4681829602051
 51
330.4936401001128
  0
LINE
  5
1F2A
330
18
100
AcDbEntity
  8
1
  6
Continuous
100
AcDbLine
 10
445.3497107785547
 20
183.0411731844652
 30
0.0
 11
429.1417037479889
 21
183.0411731844652
 31
0.0
  0
LINE
  5
1F2B
330
18
100
AcDbEntity
  8
1
  6
Continuous
100
AcDbLine
 10
444.8497107785547
 20
180.5411731844653
 30
0.0
 11
430.2503869871602
 21
180.5411731844652
 31
0.0
  0
ARC
  5
1F2C
330
18
100
AcDbEntity
  8
5
  6
PHANTOM
 48
0.1
100
AcDbCircle
 10
438.1082601970551
 20
161.7865100010223
 30
0.0
 40
0.9999999999999996
100
AcDbArc
 50
184.2000000000003
 51
274.2000000000003
  0
LINE
  5
1F2D
330
18
100
AcDbEntity
  8
5
  6
PHANTOM
 48
0.1
100
AcDbLine
 10
439.6408510114556
 20
161.3977100581015
 30
0.0
 11
438.453805797505
 21
177.5621901166406
 31
0.0
  0
LINE
  5
1F2E
330
18
100
AcDbEntity
  8
5
  6
PHANTOM
 48
0.1
100
AcDbLine
 10
439.1788128714071
 20
160.8624337209254
 30
0.0
 11
438.1814983941827
 21
160.7891955237979
 31
0.0
  0
ARC
  5
1F2F
330
18
100
AcDbEntity
  8
5
  6
PHANTOM
 48
0.1
100
AcDbCircle
 10
439.1421937728431
 20
161.3610909595377
 30
0.0
 40
0.5
100
AcDbArc
 50
274.2000000000003
 51
4.20000000000033
  0
ARC
  5
1F30
330
18
100
AcDbEntity
  8
1
  6
Continuous
100
AcDbCircle
 10
445.3497107785547
 20
182.5411731844652
 30
0.0
 40
0.5
100
AcDbArc
 50
0.000000000000007
 51
90.0
  0
ARC
  5
1F31
330
18
100
AcDbEntity
  8
1
  6
Continuous
100
AcDbCircle
 10
444.8497107785547
 20
181.5411731844652
 30
0.0
 40
0.9999999999999998
100
AcDbArc
 50
270.0
 51
0.000000000000007
  0
LINE
  5
1F32
330
18
100
AcDbEntity
  8
1
  6
Continuous
100
AcDbLine
 10
445.8497107785547
 20
182.5411731844652
 30
0.0
 11
445.8497107785547
 21
181.5411731844652
 31
0.0
  0
LINE
  5
1F33
330
18
100
AcDbEntity
  8
5
  6
PHANTOM
 48
0.1
100
AcDbLine
 10
441.6224660961091
 20
185.106510497864
 30
0.0
 11
440.122758293593
 21
184.9963788411171
 31
0.0
  0
ARC
  5
1F34
330
18
100
AcDbEntity
  8
5
  6
PHANTOM
 48
0.1
100
AcDbCircle
 10
415.3924171079228
 20
198.0358891402176
 30
0.0
 40
29.99999999999999
100
AcDbArc
 50
322.1383353335212
 51
332.9229909419104
  0
ARC
  5
1F35
330
18
100
AcDbEntity
  8
5
  6
PHANTOM
 48
0.1
100
AcDbCircle
 10
441.659085194673
 20
184.607853259252
 30
0.0
 40
0.5
100
AcDbArc
 50
332.9229909419104
 51
94.2000000000003
  0
ARC
  5
1F36
330
18
100
AcDbEntity
  8
5
  6
PHANTOM
 48
0.1
100
AcDbCircle
 10
441.4457492291781
 20
177.7819047080235
 30
0.0
 40
2.999999999999998
100
AcDbArc
 50
142.1383353335211
 51
184.2000000000003
  0
ARC
  5
1F37
330
18
100
AcDbEntity
  8
5
  6
PHANTOM
 48
0.1
100
AcDbCircle
 10
440.1959964907207
 20
183.9990643638927
 30
0.0
 40
0.9999999999999996
100
AcDbArc
 50
94.2000000000003
 51
150.4936401001128
  0
LINE
  5
1F38
330
18
100
AcDbEntity
  8
5
  6
PHANTOM
 48
0.1
100
AcDbLine
 10
437.1109457198306
 20
161.7132718038947
 30
0.0
 11
435.9745382853311
 21
177.1881965139704
 31
0.0
  0
ARC
  5
1F39
330
18
100
AcDbEntity
  8
5
  6
PHANTOM
 48
0.1
100
AcDbCircle
 10
434.5401373779862
 20
169.412865726287
 30
0.0
 40
1.999999999999999
100
AcDbArc
 50
4.20000000000033
 51
63.37886477609558
  0
ARC
  5
1F3A
330
18
100
AcDbEntity
  8
5
  6
PHANTOM
 48
0.1
100
AcDbCircle
 10
431.2584626418113
 20
176.6450281670511
 30
0.0
 40
6.499999999999996
100
AcDbArc
 50
41.07222508648161
 51
104.2517259999689
  0
ARC
  5
1F3B
330
18
100
AcDbEntity
  8
1
  6
Continuous
100
AcDbCircle
 10
430.2396058139408
 20
176.6614913709291
 30
0.0
 40
4.999999999999997
100
AcDbArc
 50
326.0101317441236
 51
15.5765724927896
  0
ARC
  5
1F3C
330
18
100
AcDbEntity
  8
1
  6
Continuous
100
AcDbCircle
 10
436.9825129228861
 20
178.5411731844653
 30
0.0
 40
2.0
100
AcDbArc
 50
90.0
 51
195.5765724927927
  0
ARC
  5
1F3D
330
18
100
AcDbEntity
  8
5
  6
PHANTOM
 48
0.1
100
AcDbCircle
 10
441.9584251486781
 20
177.6276256967362
 30
0.0
 40
5.999999999999997
100
AcDbArc
 50
142.4681829602051
 51
184.2000000000003
  0
ARC
  5
1F3E
330
18
100
AcDbEntity
  8
5
  6
PHANTOM
 48
0.1
100
AcDbCircle
 10
436.5356364695911
 20
181.2440972458315
 30
0.0
 40
0.5
100
AcDbArc
 50
221.0722250864769
 51
321.5436513531458
  0
ARC
  5
1F3F
330
18
100
AcDbEntity
  8
1
  6
Continuous
100
AcDbCircle
 10
429.1417037479889
 20
186.0411731844651
 30
0.0
 40
2.999999999999998
100
AcDbArc
 50
227.9383353335201
 51
270.0
  0
LINE
  5
1F40
330
18
100
AcDbEntity
  8
5
  6
PHANTOM
 48
0.1
100
AcDbLine
 10
429.6582767083964
 20
182.9449806978426
 30
0.0
 11
428.6988278180293
 21
182.2929399428363
 31
0.0
  0
LINE
  5
1F42
330
18
100
AcDbEntity
  8
1
  6
Continuous
100
AcDbLine
 10
379.030953290394
 20
192.5411740106233
 30
0.0
 11
379.030953290394
 21
172.311503623996
 31
0.0
  0
ARC
  5
1F43
330
18
100
AcDbEntity
  8
1
  6
Continuous
100
AcDbCircle
 10
407.0309532903938
 20
161.5411740106233
 30
0.0
 40
32.0
100
AcDbArc
 50
110.9749879086597
 51
134.7923636826876
  0
LINE
  5
1F44
330
18
100
AcDbEntity
  8
4
  6
CENTER
 48
0.3
100
AcDbLine
 10
407.0340127785548
 20
126.5411740106233
 30
0.0
 11
407.0340127785548
 21
196.5411740106233
 31
0.0
  0
LINE
  5
1F45
330
18
100
AcDbEntity
  8
4
  6
CENTER
 48
0.3
100
AcDbLine
 10
390.0340127785548
 20
148.0411740106233
 30
0.0
 11
390.0340127785548
 21
219.0411740106233
 31
0.0
  0
LINE
  5
1F47
330
18
100
AcDbEntity
  8
1
  6
Continuous
100
AcDbLine
 10
384.4856850371892
 20
184.2504425895767
 30
0.0
 11
384.4856850371892
 21
181.3328611390881
 31
0.0
  0
LINE
  5
1F4F
330
18
100
AcDbEntity
  8
1
  6
Continuous
100
AcDbLine
 10
398.9340127785549
 20
200.0411740106233
 30
0.0
 11
381.1340127785549
 21
200.0411740106233
 31
0.0
  0
LINE
  5
1F50
330
18
100
AcDbEntity
  8
1
  6
Continuous
100
AcDbLine
 10
398.9340127785549
 20
194.0411740106233
 30
0.0
 11
381.1340127785549
 21
194.0411740106233
 31
0.0
  0
LINE
  5
1F51
330
18
100
AcDbEntity
  8
1
  6
Continuous
100
AcDbLine
 10
380.030953290394
 20
193.5411740106233
 30
0.0
 11
400.030953290394
 21
193.5411740106233
 31
0.0
  0
ARC
  5
1F54
330
18
100
AcDbEntity
  8
1
  6
Continuous
100
AcDbCircle
 10
398.9340127785549
 20
198.9411740106234
 30
0.0
 40
1.099999999999994
100
AcDbArc
 50
0.000000000000007
 51
90.0
  0
ARC
  5
1F55
330
18
100
AcDbEntity
  8
1
  6
Continuous
100
AcDbCircle
 10
398.9340127785549
 20
195.1411740106233
 30
0.0
 40
1.099999999999994
100
AcDbArc
 50
270.0
 51
0.000000000000007
  0
LINE
  5
1F56
330
18
100
AcDbEntity
  8
1
  6
Continuous
100
AcDbLine
 10
401.0309532903939
 20
192.5411740106233
 30
0.0
 11
401.0309532903939
 21
191.5411740106233
 31
0.0
  0
ARC
  5
1F57
330
18
100
AcDbEntity
  8
1
  6
Continuous
100
AcDbCircle
 10
400.030953290394
 20
192.5411740106233
 30
0.0
 40
1.0
100
AcDbArc
 50
0.000000000000007
 51
90.0
  0
ARC
  5
1F58
330
18
100
AcDbEntity
  8
1
  6
Continuous
100
AcDbCircle
 10
401.5309532903938
 20
191.5411740106233
 30
0.0
 40
0.5
100
AcDbArc
 50
180.0
 51
280.3888578154696
  0
LINE
  5
1F59
330
18
100
AcDbEntity
  8
1
  6
Continuous
100
AcDbLine
 10
400.0340127785547
 20
198.9411740106234
 30
0.0
 11
400.0340127785547
 21
195.1411740106233
 31
0.0
  0
LINE
  5
1F5A
330
18
100
AcDbEntity
  8
1
  6
Continuous
100
AcDbLine
 10
395.5762215435987
 20
191.420750992384
 30
0.0
 11
395.5762215435987
 21
189.2682207449757
 31
0.0
  0
ARC
  5
1F5B
330
18
100
AcDbEntity
  8
1
  6
Continuous
100
AcDbCircle
 10
397.0309532903939
 20
193.5411740106233
 30
0.0
 40
0.5
100
AcDbArc
 50
0.000000000000007
 51
90.0
  0
ARC
  5
1F5C
330
18
100
AcDbEntity
  8
1
  6
Continuous
100
AcDbCircle
 10
392.3018396549812
 20
197.0411740106233
 30
0.0
 40
3.0
100
AcDbArc
 50
270.0
 51
90.0
  0
ARC
  5
1F60
330
18
100
AcDbEntity
  8
1
  6
Continuous
100
AcDbCircle
 10
387.7661859021285
 20
197.0411740106233
 30
0.0
 40
3.0
100
AcDbArc
 50
90.0
 51
270.0
  0
ARC
  5
1F61
330
18
100
AcDbEntity
  8
1
  6
Continuous
100
AcDbCircle
 10
381.1340127785549
 20
198.9411740106234
 30
0.0
 40
1.099999999999994
100
AcDbArc
 50
90.0
 51
180.0
  0
ARC
  5
1F62
330
18
100
AcDbEntity
  8
1
  6
Continuous
100
AcDbCircle
 10
381.1340127785549
 20
195.1411740106233
 30
0.0
 40
1.099999999999994
100
AcDbArc
 50
180.0
 51
270.0
  0
ARC
  5
1F63
330
18
100
AcDbEntity
  8
1
  6
Continuous
100
AcDbCircle
 10
380.030953290394
 20
192.5411740106233
 30
0.0
 40
1.0
100
AcDbArc
 50
90.0
 51
180.0
  0
ARC
  5
1F64
330
18
100
AcDbEntity
  8
1
  6
Continuous
100
AcDbCircle
 10
383.0309532903939
 20
193.5411740106233
 30
0.0
 40
0.5
100
AcDbArc
 50
90.0
 51
180.0
  0
LINE
  5
1F65
330
18
100
AcDbEntity
  8
1
  6
Continuous
100
AcDbLine
 10
380.0340127785548
 20
198.9411740106234
 30
0.0
 11
380.0340127785548
 21
195.1411740106233
 31
0.0
  0
ARC
  5
20B1
330
18
100
AcDbEntity
  8
1
  6
Continuous
100
AcDbCircle
 10
155.0862393068571
 20
59.25050106128164
 30
0.0
 40
30.0
100
AcDbArc
 50
162.9561533849015
 51
197.0438466150984
  0
ARC
  5
20B2
330
18
100
AcDbEntity
  8
1
  6
Continuous
100
AcDbCircle
 10
127.3598980408336
 20
67.75050106128164
 30
0.0
 40
1.0
100
AcDbArc
 50
90.00000000000005
 51
162.9561533849015
  0
ARC
  5
20B3
330
18
100
AcDbEntity
  8
1
  6
Continuous
100
AcDbCircle
 10
127.3598980408336
 20
50.75050106128156
 30
0.0
 40
1.0
100
AcDbArc
 50
197.0438466150984
 51
270.0
  0
LINE
  5
231C
330
18
100
AcDbEntity
  8
1
  6
Continuous
100
AcDbLine
 10
396.0340127785548
 20
201.0411740106233
 30
0.0
 11
384.0340127785548
 21
201.0411740106233
 31
0.0
  0
LINE
  5
2320
330
18
100
AcDbEntity
  8
2
  6
Continuous
100
AcDbLine
 10
384.9810127785548
 20
201.0411740106233
 30
0.0
 11
384.9810127785548
 21
214.0411740106233
 31
0.0
  0
LINE
  5
2321
330
18
100
AcDbEntity
  8
2
  6
Continuous
100
AcDbLine
 10
395.0870127785549
 20
201.0411740106233
 30
0.0
 11
395.0870127785549
 21
214.0411740106233
 31
0.0
  0
LINE
  5
2322
330
18
100
AcDbEntity
  8
1
  6
Continuous
100
AcDbLine
 10
384.0340127785548
 20
200.0411740106233
 30
0.0
 11
384.0340127785548
 21
213.0941740106233
 31
0.0
  0
LINE
  5
2323
330
18
100
AcDbEntity
  8
1
  6
Continuous
100
AcDbLine
 10
396.0340127785548
 20
200.0411740106233
 30
0.0
 11
396.0340127785548
 21
213.0941740106233
 31
0.0
  0
LINE
  5
2324
330
18
100
AcDbEntity
  8
1
  6
Continuous
100
AcDbLine
 10
395.0870127785549
 20
214.0411740106233
 30
0.0
 11
384.9810127785548
 21
214.0411740106233
 31
0.0
  0
LINE
  5
2325
330
18
100
AcDbEntity
  8
1
  6
Continuous
100
AcDbLine
 10
395.0870127785549
 20
214.0411740106233
 30
0.0
 11
396.0340127785548
 21
213.0941740106233
 31
0.0
  0
LINE
  5
2326
330
18
100
AcDbEntity
  8
1
  6
Continuous
100
AcDbLine
 10
384.9810127785548
 20
214.0411740106233
 30
0.0
 11
384.0340127785548
 21
213.0941740106233
 31
0.0
  0
LINE
  5
2327
330
18
100
AcDbEntity
  8
1
  6
Continuous
100
AcDbLine
 10
396.0340127785548
 20
213.0941740106233
 30
0.0
 11
384.0340127785548
 21
213.0941740106233
 31
0.0
  0
LINE
  5
2328
330
18
100
AcDbEntity
  8
1
  6
Continuous
100
AcDbLine
 10
290.5209750427058
 20
214.0411740106233
 30
0.0
 11
291.4679750427058
 21
213.0941740106233
 31
0.0
  0
LINE
  5
2329
330
18
100
AcDbEntity
  8
1
  6
Continuous
100
AcDbLine
 10
291.4679750427058
 20
213.0941740106233
 30
0.0
 11
279.4679750427058
 21
213.0941740106233
 31
0.0
  0
LINE
  5
232A
330
18
100
AcDbEntity
  8
1
  6
Continuous
100
AcDbLine
 10
290.5209750427058
 20
214.0411740106233
 30
0.0
 11
280.4149750427058
 21
214.0411740106233
 31
0.0
  0
LINE
  5
232B
330
18
100
AcDbEntity
  8
1
  6
Continuous
100
AcDbLine
 10
280.4149750427058
 20
214.0411740106233
 30
0.0
 11
279.4679750427058
 21
213.0941740106233
 31
0.0
  0
LINE
  5
232C
330
18
100
AcDbEntity
  8
2
  6
Continuous
100
AcDbLine
 10
290.5209750427058
 20
201.0411740106233
 30
0.0
 11
290.5209750427058
 21
214.0411740106233
 31
0.0
  0
LINE
  5
232D
330
18
100
AcDbEntity
  8
1
  6
Continuous
100
AcDbLine
 10
291.4679750427058
 20
200.0411740106233
 30
0.0
 11
291.4679750427058
 21
213.0941740106233
 31
0.0
  0
LINE
  5
232E
330
18
100
AcDbEntity
  8
2
  6
Continuous
100
AcDbLine
 10
280.4149750427058
 20
201.0411740106233
 30
0.0
 11
280.4149750427058
 21
214.0411740106233
 31
0.0
  0
LINE
  5
232F
330
18
100
AcDbEntity
  8
1
  6
Continuous
100
AcDbLine
 10
279.4679750427058
 20
200.0411740106233
 30
0.0
 11
279.4679750427058
 21
213.0941740106233
 31
0.0
  0
LINE
  5
2330
330
18
100
AcDbEntity
  8
1
  6
Continuous
100
AcDbLine
 10
291.4679750427058
 20
201.0411740106233
 30
0.0
 11
279.4679750427058
 21
201.0411740106233
 31
0.0
  0
LINE
  5
2331
330
18
100
AcDbEntity
  8
1
  6
Continuous
100
AcDbLine
 10
185.9549373068569
 20
214.0411740106233
 30
0.0
 11
186.9019373068568
 21
213.0941740106233
 31
0.0
  0
LINE
  5
2332
330
18
100
AcDbEntity
  8
1
  6
Continuous
100
AcDbLine
 10
186.9019373068568
 20
213.0941740106233
 30
0.0
 11
174.9019373068569
 21
213.0941740106233
 31
0.0
  0
LINE
  5
2333
330
18
100
AcDbEntity
  8
1
  6
Continuous
100
AcDbLine
 10
185.9549373068569
 20
214.0411740106233
 30
0.0
 11
175.8489373068568
 21
214.0411740106233
 31
0.0
  0
LINE
  5
2334
330
18
100
AcDbEntity
  8
1
  6
Continuous
100
AcDbLine
 10
175.8489373068568
 20
214.0411740106233
 30
0.0
 11
174.9019373068569
 21
213.0941740106233
 31
0.0
  0
LINE
  5
2335
330
18
100
AcDbEntity
  8
2
  6
Continuous
100
AcDbLine
 10
185.9549373068569
 20
201.0411740106233
 30
0.0
 11
185.9549373068569
 21
214.0411740106233
 31
0.0
  0
LINE
  5
2336
330
18
100
AcDbEntity
  8
1
  6
Continuous
100
AcDbLine
 10
186.9019373068568
 20
200.0411740106233
 30
0.0
 11
186.9019373068568
 21
213.0941740106233
 31
0.0
  0
LINE
  5
2337
330
18
100
AcDbEntity
  8
2
  6
Continuous
100
AcDbLine
 10
175.8489373068568
 20
201.0411740106233
 30
0.0
 11
175.8489373068568
 21
214.0411740106233
 31
0.0
  0
LINE
  5
2338
330
18
100
AcDbEntity
  8
1
  6
Continuous
100
AcDbLine
 10
174.9019373068569
 20
200.0411740106233
 30
0.0
 11
174.9019373068569
 21
213.0941740106233
 31
0.0
  0
LINE
  5
2339
330
18
100
AcDbEntity
  8
1
  6
Continuous
100
AcDbLine
 10
186.9019373068568
 20
201.0411740106233
 30
0.0
 11
174.9019373068569
 21
201.0411740106233
 31
0.0
  0
LINE
  5
233A
330
18
100
AcDbEntity
  8
1
  6
Continuous
100
AcDbLine
 10
47.38889957100781
 20
214.0411740106233
 30
0.0
 11
48.33589957100781
 21
213.0941740106233
 31
0.0
  0
LINE
  5
233B
330
18
100
AcDbEntity
  8
1
  6
Continuous
100
AcDbLine
 10
48.33589957100781
 20
213.0941740106233
 30
0.0
 11
36.33589957100781
 21
213.0941740106233
 31
0.0
  0
LINE
  5
233C
330
18
100
AcDbEntity
  8
1
  6
Continuous
100
AcDbLine
 10
47.38889957100781
 20
214.0411740106233
 30
0.0
 11
37.28289957100782
 21
214.0411740106233
 31
0.0
  0
LINE
  5
233D
330
18
100
AcDbEntity
  8
1
  6
Continuous
100
AcDbLine
 10
37.28289957100782
 20
214.0411740106233
 30
0.0
 11
36.33589957100781
 21
213.0941740106233
 31
0.0
  0
LINE
  5
233E
330
18
100
AcDbEntity
  8
2
  6
Continuous
100
AcDbLine
 10
47.38889957100781
 20
201.0411740106233
 30
0.0
 11
47.38889957100781
 21
214.0411740106233
 31
0.0
  0
LINE
  5
233F
330
18
100
AcDbEntity
  8
1
  6
Continuous
100
AcDbLine
 10
48.33589957100781
 20
200.0411740106233
 30
0.0
 11
48.33589957100781
 21
213.0941740106233
 31
0.0
  0
LINE
  5
2340
330
18
100
AcDbEntity
  8
2
  6
Continuous
100
AcDbLine
 10
37.28289957100782
 20
201.0411740106233
 30
0.0
 11
37.28289957100782
 21
214.0411740106233
 31
0.0
  0
LINE
  5
2341
330
18
100
AcDbEntity
  8
1
  6
Continuous
100
AcDbLine
 10
36.33589957100781
 20
200.0411740106233
 30
0.0
 11
36.33589957100781
 21
213.0941740106233
 31
0.0
  0
LINE
  5
2342
330
18
100
AcDbEntity
  8
1
  6
Continuous
100
AcDbLine
 10
48.33589957100781
 20
201.0411740106233
 30
0.0
 11
36.33589957100781
 21
201.0411740106233
 31
0.0
  0
ENDSEC
  0
SECTION
  2
OBJECTS
  0
DICTIONARY
  5
C
330
0
100
AcDbDictionary
281
     1
  3
ACAD_CIP_PREVIOUS_PRODUCT_INFO
350
249C
  3
ACAD_COLOR
350
247F
  3
ACAD_DETAILVIEWSTYLE
350
2498
  3
ACAD_GROUP
350
D
  3
ACAD_LAYOUT
350
94
  3
ACAD_MATERIAL
350
244D
  3
ACAD_MLEADERSTYLE
350
2494
  3
ACAD_MLINESTYLE
350
1B
  3
ACAD_PLOTSETTINGS
350
95
  3
ACAD_PLOTSTYLENAME
350
244B
  3
ACAD_SCALELIST
350
2482
  3
ACAD_SECTIONVIEWSTYLE
350
2496
  3
ACAD_TABLESTYLE
350
2480
  3
ACAD_VISUALSTYLE
350
2466
  3
ACDB_RECOMPOSE_DATA
350
250F
  3
AcDbVariableDictionary
350
24BF
  3
CONTENTDICTIONARY
350
3D
  3
DWGPROPS
350
2510
  0
DICTIONARY
  5
24AF
330
E
100
AcDbDictionary
280
     1
281
     1
  3
ADSK_XREC_LAYER_RECONCILED
360
24B0
  0
DICTIONARY
  5
24B1
330
4E
100
AcDbDictionary
280
     1
281
     1
  3
ADSK_XREC_LAYER_RECONCILED
360
24B2
  0
DICTIONARY
  5
24B3
330
4F
100
AcDbDictionary
280
     1
281
     1
  3
ADSK_XREC_LAYER_RECONCILED
360
24B4
  0
DICTIONARY
  5
24B5
330
50
100
AcDbDictionary
280
     1
281
     1
  3
ADSK_XREC_LAYER_RECONCILED
360
24B6
  0
DICTIONARY
  5
24B7
330
51
100
AcDbDictionary
280
     1
281
     1
  3
ADSK_XREC_LAYER_RECONCILED
360
24B8
  0
DICTIONARY
  5
24B9
330
52
100
AcDbDictionary
280
     1
281
     1
  3
ADSK_XREC_LAYER_RECONCILED
360
24BA
  0
DICTIONARY
  5
24BB
330
53
100
AcDbDictionary
280
     1
281
     1
  3
ADSK_XREC_LAYER_RECONCILED
360
24BC
  0
DICTIONARY
  5
24BD
330
54
100
AcDbDictionary
280
     1
281
     1
  3
ADSK_XREC_LAYER_RECONCILED
360
24BE
  0
DICTIONARY
  5
2446
330
18
100
AcDbDictionary
281
     1
  3
ACAD_LAYOUTSELFREF
350
2447
  0
DICTIONARY
  5
2444
330
15
100
AcDbDictionary
281
     1
  3
ACAD_LAYOUTSELFREF
350
2445
  0
XRECORD
  5
249C
102
{ACAD_REACTORS
330
C
102
}
330
C
100
AcDbXrecord
280
     1
300
ACDLT
300
2014
300
ACDLT_F_S
  0
DICTIONARY
  5
247F
102
{ACAD_REACTORS
330
C
102
}
330
C
100
AcDbDictionary
281
     1
  0
DICTIONARY
  5
2498
102
{ACAD_REACTORS
330
C
102
}
330
C
100
AcDbDictionary
281
     1
  3
Imperial24
350
2499
  0
DICTIONARY
  5
D
102
{ACAD_REACTORS
330
C
102
}
330
C
100
AcDbDictionary
281
     1
  0
DICTIONARY
  5
94
102
{ACAD_REACTORS
330
C
102
}
330
C
100
AcDbDictionary
281
     1
  3
Model
350
249A
  3
レイアウト1
350
249B
  0
DICTIONARY
  5
244D
102
{ACAD_REACTORS
330
C
102
}
330
C
100
AcDbDictionary
281
     1
  3
ByBlock
350
2456
  3
ByLayer
350
244E
  3
Global
350
245E
  0
DICTIONARY
  5
2494
102
{ACAD_REACTORS
330
C
102
}
330
C
100
AcDbDictionary
281
     1
  3
Standard
350
2495
  0
DICTIONARY
  5
1B
102
{ACAD_REACTORS
330
C
102
}
330
C
100
AcDbDictionary
281
     1
  3
STANDARD
350
1C
  0
DICTIONARY
  5
95
102
{ACAD_REACTORS
330
C
102
}
330
C
100
AcDbDictionary
281
     1
  0
ACDBDICTIONARYWDFLT
  5
244B
102
{ACAD_REACTORS
330
C
102
}
330
C
100
AcDbDictionary
281
     1
  3
Normal
350
244C
100
AcDbDictionaryWithDefault
340
244C
  0
DICTIONARY
  5
2482
102
{ACAD_REACTORS
330
C
102
}
330
C
100
AcDbDictionary
281
     1
  3
A0
350
2483
  3
A1
350
2484
  3
A2
350
2485
  3
A3
350
2486
  3
A4
350
2487
  3
A5
350
2488
  3
A6
350
2489
  3
A7
350
248A
  3
A8
350
248B
  3
A9
350
248C
  3
B0
350
248D
  3
B1
350
248E
  3
B2
350
248F
  3
B3
350
2490
  3
B4
350
2491
  3
B5
350
2492
  3
B6
350
2493
  0
DICTIONARY
  5
2496
102
{ACAD_REACTORS
330
C
102
}
330
C
100
AcDbDictionary
281
     1
  3
Imperial24
350
2497
  0
DICTIONARY
  5
2480
102
{ACAD_REACTORS
330
C
102
}
330
C
100
AcDbDictionary
281
     1
  3
Standard
350
2481
  0
DICTIONARY
  5
2466
102
{ACAD_REACTORS
330
C
102
}
330
C
100
AcDbDictionary
281
     1
  3
2dWireframe
350
246C
  3
Basic
350
246B
  3
Brighten
350
2472
  3
ColorChange
350
2476
  3
Conceptual
350
246F
  3
Dim
350
2471
  3
EdgeColorOff
350
247E
  3
Facepattern
350
2475
  3
Flat
350
2467
  3
FlatWithEdges
350
2468
  3
Gouraud
350
2469
  3
GouraudWithEdges
350
246A
  3
Hidden
350
246E
  3
JitterOff
350
247C
  3
Linepattern
350
2474
  3
OverhangOff
350
247D
  3
Realistic
350
2470
  3
Shaded
350
247B
  3
Shaded with edges
350
247A
  3
Shades of Gray
350
2477
  3
Sketchy
350
2478
  3
Thicken
350
2473
  3
Wireframe
350
246D
  3
X-Ray
350
2479
  0
XRECORD
  5
250F
102
{ACAD_REACTORS
330
C
102
}
330
C
100
AcDbXrecord
280
     1
 90
        1
330
2481
  0
DICTIONARY
  5
24BF
102
{ACAD_REACTORS
330
C
102
}
330
C
100
AcDbDictionary
281
     1
  3
CANNOSCALE
350
24C4
  3
CMLEADERSTYLE
350
24C1
  3
CTABLESTYLE
350
24C0
  3
CVIEWDETAILSTYLE
350
24C2
  3
CVIEWSECTIONSTYLE
350
24C3
  3
DIMASSOC
350
24C7
  3
INDEXCTL
350
24C6
  3
SORTENTS
350
24C5
  3
XCLIPFRAME
350
250D
  0
DICTIONARY
  5
3D
102
{ACAD_REACTORS
330
C
102
}
330
C
100
AcDbDictionary
281
     1
  0
XRECORD
  5
2510
102
{ACAD_REACTORS
330
C
102
}
330
C
100
AcDbXrecord
280
     1
  1
DWGPROPS COOKIE
  2

  3

  4

  6

  7

  8
Yoshitsune
  9

300
=
301
=
302
=
303
=
304
=
305
=
306
=
307
=
308
=
309
=
 40
0.1369487384259259
 41
2455056.362580336
 42
2457192.691533634
  1

 90
        0
  0
XRECORD
  5
24B0
102
{ACAD_REACTORS
330
24AF
102
}
330
24AF
100
AcDbXrecord
280
     1
290
     1
  0
XRECORD
  5
24B2
102
{ACAD_REACTORS
330
24B1
102
}
330
24B1
100
AcDbXrecord
280
     1
290
     1
  0
XRECORD
  5
24B4
102
{ACAD_REACTORS
330
24B3
102
}
330
24B3
100
AcDbXrecord
280
     1
290
     1
  0
XRECORD
  5
24B6
102
{ACAD_REACTORS
330
24B5
102
}
330
24B5
100
AcDbXrecord
280
     1
290
     1
  0
XRECORD
  5
24B8
102
{ACAD_REACTORS
330
24B7
102
}
330
24B7
100
AcDbXrecord
280
     1
290
     1
  0
XRECORD
  5
24BA
102
{ACAD_REACTORS
330
24B9
102
}
330
24B9
100
AcDbXrecord
280
     1
290
     1
  0
XRECORD
  5
24BC
102
{ACAD_REACTORS
330
24BB
102
}
330
24BB
100
AcDbXrecord
280
     1
290
     1
  0
XRECORD
  5
24BE
102
{ACAD_REACTORS
330
24BD
102
}
330
24BD
100
AcDbXrecord
280
     1
290
     1
  0
XRECORD
  5
2447
102
{ACAD_REACTORS
330
2446
102
}
330
2446
100
AcDbXrecord
280
     1
340
18
  0
XRECORD
  5
2445
102
{ACAD_REACTORS
330
2444
102
}
330
2444
100
AcDbXrecord
280
     1
340
15
  0
ACDBDETAILVIEWSTYLE
  5
2499
102
{ACAD_XDICTIONARY
360
2544
102
}
102
{ACAD_REACTORS
330
2498
102
}
330
2498
100
AcDbModelDocViewStyle
 70
     0
  3
Imperial24
290
     0
100
AcDbDetailViewStyle
 70
     0
 71
     0
 90
        3
 71
     1
340
F
 40
0.24
340
0
 40
0.24
300

 40
0.36
280
     3
 71
     2
340
14
 90
       25
 71
     3
340
F
 40
0.24
 90
        1
 40
0.75
 90
        1
300
%<\AcVar ViewType \f "%tc1">% %<\AcVar ViewDetailId>%\PSCALE %<\AcVar ViewScale \f "%sn">%
 71
     4
340
14
 90
       25
340
14
 90
       25
280
     0
  0
LAYOUT
  5
249A
102
{ACAD_XDICTIONARY
360
2546
102
}
102
{ACAD_REACTORS
330
94
102
}
330
94
100
AcDbPlotSettings
  1

  2
Canon LBP9100C
  4

  6

 40
0.0
 41
0.0
 42
0.0
 43
0.0
 44
0.0
 45
0.0
 46
0.0
 47
0.0
 48
0.0
 49
0.0
140
0.0
141
0.0
142
1.0
143
1.0
 70
  1712
 72
     0
 73
     0
 74
     0
  7

 75
     0
147
1.0
148
0.0
149
0.0
100
AcDbLayout
  1
Model
 70
     1
 71
     0
 10
0.0
 20
0.0
 11
12.0
 21
9.0
 12
0.0
 22
0.0
 32
0.0
 14
0.0
 24
0.0
 34
0.0
 15
0.0
 25
0.0
 35
0.0
146
0.0
 13
0.0
 23
0.0
 33
0.0
 16
1.0
 26
0.0
 36
0.0
 17
0.0
 27
1.0
 37
0.0
 76
     0
330
18
331
2443
  0
LAYOUT
  5
249B
102
{ACAD_XDICTIONARY
360
2548
102
}
102
{ACAD_REACTORS
330
94
102
}
330
94
100
AcDbPlotSettings
  1

  2
Canon LBP9100C
  4

  6

 40
0.0
 41
0.0
 42
0.0
 43
0.0
 44
0.0
 45
0.0
 46
0.0
 47
0.0
 48
0.0
 49
0.0
140
0.0
141
0.0
142
1.0
143
1.0
 70
   688
 72
     0
 73
     0
 74
     5
  7

 75
    16
147
1.0
148
0.0
149
0.0
100
AcDbLayout
  1
レイアウト1
 70
     1
 71
     1
 10
0.0
 20
0.0
 11
420.0
 21
297.0
 12
0.0
 22
0.0
 32
0.0
 14
1.000000000000000E+20
 24
1.000000000000000E+20
 34
1.000000000000000E+20
 15
-1.000000000000000E+20
 25
-1.000000000000000E+20
 35
-1.000000000000000E+20
146
0.0
 13
0.0
 23
0.0
 33
0.0
 16
1.0
 26
0.0
 36
0.0
 17
0.0
 27
1.0
 37
0.0
 76
     0
330
15
  0
MATERIAL
  5
2456
102
{ACAD_XDICTIONARY
360
2457
102
}
102
{ACAD_REACTORS
330
244D
102
}
330
244D
100
AcDbMaterial
  1
ByBlock
 72
     0
 43
0.0208333333333333
 43
0.0
 43
0.0
 43
0.0
 43
0.0
 43
0.0208333333333333
 43
0.0
 43
0.0
 43
0.0
 43
0.0
 43
1.0
 43
0.0
 43
0.0
 43
0.0
 43
0.0
 43
1.0
 77
     0
 47
0.0208333333333333
 47
0.0
 47
0.0
 47
0.0
 47
0.0
 47
0.0208333333333333
 47
0.0
 47
0.0
 47
0.0
 47
0.0
 47
1.0
 47
0.0
 47
0.0
 47
0.0
 47
0.0
 47
1.0
171
     0
 49
0.0208333333333333
 49
0.0
 49
0.0
 49
0.0
 49
0.0
 49
0.0208333333333333
 49
0.0
 49
0.0
 49
0.0
 49
0.0
 49
1.0
 49
0.0
 49
0.0
 49
0.0
 49
0.0
 49
1.0
175
     0
142
0.0208333333333333
142
0.0
142
0.0
142
0.0
142
0.0
142
0.0208333333333333
142
0.0
142
0.0
142
0.0
142
0.0
142
1.0
142
0.0
142
0.0
142
0.0
142
0.0
142
1.0
179
     0
144
0.0208333333333333
144
0.0
144
0.0
144
0.0
144
0.0
144
0.0208333333333333
144
0.0
144
0.0
144
0.0
144
0.0
144
1.0
144
0.0
144
0.0
144
0.0
144
0.0
144
1.0
147
0.0208333333333333
147
0.0
147
0.0
147
0.0
147
0.0
147
0.0208333333333333
147
0.0
147
0.0
147
0.0
147
0.0
147
1.0
147
0.0
147
0.0
147
0.0
147
0.0
147
1.0
  0
MATERIAL
  5
244E
102
{ACAD_XDICTIONARY
360
244F
102
}
102
{ACAD_REACTORS
330
244D
102
}
330
244D
100
AcDbMaterial
  1
ByLayer
 72
     0
 43
0.0208333333333333
 43
0.0
 43
0.0
 43
0.0
 43
0.0
 43
0.0208333333333333
 43
0.0
 43
0.0
 43
0.0
 43
0.0
 43
1.0
 43
0.0
 43
0.0
 43
0.0
 43
0.0
 43
1.0
 77
     0
 47
0.0208333333333333
 47
0.0
 47
0.0
 47
0.0
 47
0.0
 47
0.0208333333333333
 47
0.0
 47
0.0
 47
0.0
 47
0.0
 47
1.0
 47
0.0
 47
0.0
 47
0.0
 47
0.0
 47
1.0
171
     0
 49
0.0208333333333333
 49
0.0
 49
0.0
 49
0.0
 49
0.0
 49
0.0208333333333333
 49
0.0
 49
0.0
 49
0.0
 49
0.0
 49
1.0
 49
0.0
 49
0.0
 49
0.0
 49
0.0
 49
1.0
175
     0
142
0.0208333333333333
142
0.0
142
0.0
142
0.0
142
0.0
142
0.0208333333333333
142
0.0
142
0.0
142
0.0
142
0.0
142
1.0
142
0.0
142
0.0
142
0.0
142
0.0
142
1.0
179
     0
144
0.0208333333333333
144
0.0
144
0.0
144
0.0
144
0.0
144
0.0208333333333333
144
0.0
144
0.0
144
0.0
144
0.0
144
1.0
144
0.0
144
0.0
144
0.0
144
0.0
144
1.0
147
0.0208333333333333
147
0.0
147
0.0
147
0.0
147
0.0
147
0.0208333333333333
147
0.0
147
0.0
147
0.0
147
0.0
147
1.0
147
0.0
147
0.0
147
0.0
147
0.0
147
1.0
  0
MATERIAL
  5
245E
102
{ACAD_XDICTIONARY
360
245F
102
}
102
{ACAD_REACTORS
330
244D
102
}
330
244D
100
AcDbMaterial
  1
Global
 72
     0
 43
0.0208333333333333
 43
0.0
 43
0.0
 43
0.0
 43
0.0
 43
0.0208333333333333
 43
0.0
 43
0.0
 43
0.0
 43
0.0
 43
1.0
 43
0.0
 43
0.0
 43
0.0
 43
0.0
 43
1.0
 77
     0
 47
0.0208333333333333
 47
0.0
 47
0.0
 47
0.0
 47
0.0
 47
0.0208333333333333
 47
0.0
 47
0.0
 47
0.0
 47
0.0
 47
1.0
 47
0.0
 47
0.0
 47
0.0
 47
0.0
 47
1.0
171
     0
 49
0.0208333333333333
 49
0.0
 49
0.0
 49
0.0
 49
0.0
 49
0.0208333333333333
 49
0.0
 49
0.0
 49
0.0
 49
0.0
 49
1.0
 49
0.0
 49
0.0
 49
0.0
 49
0.0
 49
1.0
175
     0
142
0.0208333333333333
142
0.0
142
0.0
142
0.0
142
0.0
142
0.0208333333333333
142
0.0
142
0.0
142
0.0
142
0.0
142
1.0
142
0.0
142
0.0
142
0.0
142
0.0
142
1.0
179
     0
144
0.0208333333333333
144
0.0
144
0.0
144
0.0
144
0.0
144
0.0208333333333333
144
0.0
144
0.0
144
0.0
144
0.0
144
1.0
144
0.0
144
0.0
144
0.0
144
0.0
144
1.0
147
0.0208333333333333
147
0.0
147
0.0
147
0.0
147
0.0
147
0.0208333333333333
147
0.0
147
0.0
147
0.0
147
0.0
147
1.0
147
0.0
147
0.0
147
0.0
147
0.0
147
1.0
  0
MLEADERSTYLE
  5
2495
102
{ACAD_REACTORS
330
2494
102
}
330
2494
100
AcDbMLeaderStyle
170
     2
171
     1
172
     0
 90
        2
 40
0.0
 41
0.0
173
     1
 91
-1056964608
340
12
 92
       -2
290
     1
 42
0.09
291
     1
 43
0.36
  3
Standard
 44
0.18
300

342
F
174
     1
178
     6
175
     1
176
     0
 93
-1056964608
 45
0.18
292
     0
297
     0
 46
0.18
 94
-1056964608
 47
1.0
 49
1.0
140
1.0
293
     1
141
0.0
294
     1
177
     0
142
1.0
295
     0
296
     0
143
0.125
1001
ACAD_MLEADERVER
1070
     2
  0
MLINESTYLE
  5
1C
102
{ACAD_REACTORS
330
1B
102
}
330
1B
100
AcDbMlineStyle
  2
STANDARD
 70
     0
  3

 62
   256
 51
90.0
 52
90.0
 71
     2
 49
0.5
 62
   256
  6
BYLAYER
 49
-0.5
 62
   256
  6
BYLAYER
  0
ACDBPLACEHOLDER
  5
244C
102
{ACAD_REACTORS
330
244B
102
}
330
244B
  0
SCALE
  5
2483
102
{ACAD_REACTORS
330
2482
102
}
330
2482
100
AcDbScale
 70
     0
300
1:1
140
1.0
141
1.0
290
     1
  0
SCALE
  5
2484
102
{ACAD_REACTORS
330
2482
102
}
330
2482
100
AcDbScale
 70
     0
300
1/128" = 1'-0"
140
0.0078125
141
12.0
290
     0
  0
SCALE
  5
2485
102
{ACAD_REACTORS
330
2482
102
}
330
2482
100
AcDbScale
 70
     0
300
1/64" = 1'-0"
140
0.015625
141
12.0
290
     0
  0
SCALE
  5
2486
102
{ACAD_REACTORS
330
2482
102
}
330
2482
100
AcDbScale
 70
     0
300
1/32" = 1'-0"
140
0.03125
141
12.0
290
     0
  0
SCALE
  5
2487
102
{ACAD_REACTORS
330
2482
102
}
330
2482
100
AcDbScale
 70
     0
300
1/16" = 1'-0"
140
0.0625
141
12.0
290
     0
  0
SCALE
  5
2488
102
{ACAD_REACTORS
330
2482
102
}
330
2482
100
AcDbScale
 70
     0
300
3/32" = 1'-0"
140
0.09375
141
12.0
290
     0
  0
SCALE
  5
2489
102
{ACAD_REACTORS
330
2482
102
}
330
2482
100
AcDbScale
 70
     0
300
1/8" = 1'-0"
140
0.125
141
12.0
290
     0
  0
SCALE
  5
248A
102
{ACAD_REACTORS
330
2482
102
}
330
2482
100
AcDbScale
 70
     0
300
3/16" = 1'-0"
140
0.1875
141
12.0
290
     0
  0
SCALE
  5
248B
102
{ACAD_REACTORS
330
2482
102
}
330
2482
100
AcDbScale
 70
     0
300
1/4" = 1'-0"
140
0.25
141
12.0
290
     0
  0
SCALE
  5
248C
102
{ACAD_REACTORS
330
2482
102
}
330
2482
100
AcDbScale
 70
     0
300
3/8" = 1'-0"
140
0.375
141
12.0
290
     0
  0
SCALE
  5
248D
102
{ACAD_REACTORS
330
2482
102
}
330
2482
100
AcDbScale
 70
     0
300
1/2" = 1'-0"
140
0.5
141
12.0
290
     0
  0
SCALE
  5
248E
102
{ACAD_REACTORS
330
2482
102
}
330
2482
100
AcDbScale
 70
     0
300
3/4" = 1'-0"
140
0.75
141
12.0
290
     0
  0
SCALE
  5
248F
102
{ACAD_REACTORS
330
2482
102
}
330
2482
100
AcDbScale
 70
     0
300
1" = 1'-0"
140
1.0
141
12.0
290
     0
  0
SCALE
  5
2490
102
{ACAD_REACTORS
330
2482
102
}
330
2482
100
AcDbScale
 70
     0
300
1-1/2" = 1'-0"
140
1.5
141
12.0
290
     0
  0
SCALE
  5
2491
102
{ACAD_REACTORS
330
2482
102
}
330
2482
100
AcDbScale
 70
     0
300
3" = 1'-0"
140
3.0
141
12.0
290
     0
  0
SCALE
  5
2492
102
{ACAD_REACTORS
330
2482
102
}
330
2482
100
AcDbScale
 70
     0
300
6" = 1'-0"
140
6.0
141
12.0
290
     0
  0
SCALE
  5
2493
102
{ACAD_REACTORS
330
2482
102
}
330
2482
100
AcDbScale
 70
     0
300
1'-0" = 1'-0"
140
12.0
141
12.0
290
     0
  0
ACDBSECTIONVIEWSTYLE
  5
2497
102
{ACAD_XDICTIONARY
360
2542
102
}
102
{ACAD_REACTORS
330
2496
102
}
330
2496
100
AcDbModelDocViewStyle
 70
     0
  3
Imperial24
290
     0
100
AcDbSectionViewStyle
 70
     0
 71
     0
 90
       78
 71
     1
340
F
 40
0.24
340
0
340
0
 40
0.24
300
I, O, Q, S, X, Z
 40
0.48
 90
        3
 40
0.18
 90
        1
 71
     2
340
14
 90
       25
340
14
 90
       50
 40
0.24
 40
0.0
 40
0.24
 71
     3
340
F
 40
0.24
 90
        1
 40
0.75
 90
        1
300
%<\AcVar ViewType \f "%tc1">% %<\AcVar ViewSectionStartId>%-%<\AcVar ViewSectionEndId>%\PSCALE %<\AcVar ViewScale \f "%sn">%
 71
     4
300
ANSI31
 40
1.0
 90
        0
290
     0
290
     0
 90
        6
 40
0.0
 40
1.570796326794896
 40
0.2617993877991494
 40
1.308996938995747
 40
-0.2617993877991494
 40
1.832595714594045
  0
TABLESTYLE
  5
2481
102
{ACAD_XDICTIONARY
360
24C9
102
}
102
{ACAD_REACTORS
330
2480
102
}
330
2480
100
AcDbTableStyle
  3
Standard
 70
     0
 71
     0
 40
0.06
 41
0.06
280
     0
281
     0
  7
STANDARD
140
0.18
170
     2
 62
     0
 63
     7
283
     0
274
    -2
284
     1
 64
     0
275
    -2
285
     1
 65
     0
276
    -2
286
     1
 66
     0
277
    -2
287
     1
 67
     0
278
    -2
288
     1
 68
     0
279
    -2
289
     1
 69
     0
  7
STANDARD
140
0.25
170
     5
 62
     0
 63
     7
283
     0
274
    -2
284
     1
 64
     0
275
    -2
285
     1
 65
     0
276
    -2
286
     1
 66
     0
277
    -2
287
     1
 67
     0
278
    -2
288
     1
 68
     0
279
    -2
289
     1
 69
     0
  7
STANDARD
140
0.18
170
     5
 62
     0
 63
     7
283
     0
274
    -2
284
     1
 64
     0
275
    -2
285
     1
 65
     0
276
    -2
286
     1
 66
     0
277
    -2
287
     1
 67
     0
278
    -2
288
     1
 68
     0
279
    -2
289
     1
 69
     0
  0
VISUALSTYLE
  5
246C
102
{ACAD_XDICTIONARY
360
251B
102
}
102
{ACAD_REACTORS
330
2466
102
}
330
2466
100
AcDbVisualStyle
  2

 70
     4
 71
     0
 72
     2
 73
     0
 90
        0
 40
-0.6
 41
-30.0
 62
     5
 63
     7
 74
     1
 91
        4
 64
     7
 65
   257
 75
     1
175
     1
 42
1.0
 92
        0
 66
   257
 43
1.0
 76
     1
 77
     6
 78
     2
 67
     7
 79
     5
170
     0
171
     0
290
     0
174
     0
 93
        1
 44
0.0
173
     0
291
     0
 45
0.0
1001
ACAD
1000
AcDbSavedByObjectVersion
1070
     0
  0
VISUALSTYLE
  5
246B
102
{ACAD_XDICTIONARY
360
2519
102
}
102
{ACAD_REACTORS
330
2466
102
}
330
2466
100
AcDbVisualStyle
  2

 70
     7
 71
     1
 72
     0
 73
     1
 90
        0
 40
-0.6
 41
-30.0
 62
     5
 63
     7
 74
     0
 91
        4
 64
     7
 65
   257
 75
     1
175
     1
 42
1.0
 92
        8
 66
     7
 43
1.0
 76
     1
 77
     6
 78
     2
 67
     7
 79
     5
170
     0
171
     0
290
     0
174
     0
 93
        1
 44
0.0
173
     0
291
     1
 45
0.0
1001
ACAD
1000
AcDbSavedByObjectVersion
1070
     0
  0
VISUALSTYLE
  5
2472
102
{ACAD_XDICTIONARY
360
2527
102
}
102
{ACAD_REACTORS
330
2466
102
}
330
2466
100
AcDbVisualStyle
  2

 70
    12
 71
     2
 72
     2
 73
     0
 90
        0
 40
-0.6
 41
-30.0
 62
     5
 63
     7
 74
     1
 91
        4
 64
     7
 65
   257
 75
     1
175
     1
 42
1.0
 92
        8
 66
     7
 43
1.0
 76
     1
 77
     6
 78
     2
 67
     7
 79
     5
170
     0
171
     0
290
     0
174
     0
 93
        1
 44
50.0
173
     0
291
     1
 45
0.0
1001
ACAD
1000
AcDbSavedByObjectVersion
1070
     0
  0
VISUALSTYLE
  5
2476
102
{ACAD_XDICTIONARY
360
252F
102
}
102
{ACAD_REACTORS
330
2466
102
}
330
2466
100
AcDbVisualStyle
  2

 70
    16
 71
     2
 72
     2
 73
     3
 90
        0
 40
-0.6
 41
-30.0
 62
     5
 63
     8
 74
     1
 91
        4
 64
     7
 65
   257
 75
     1
175
     1
 42
1.0
 92
        8
 66
     8
 43
1.0
 76
     1
 77
     6
 78
     2
 67
     7
 79
     5
170
     0
171
     0
290
     0
174
     0
 93
        1
 44
0.0
173
     0
291
     1
 45
0.0
1001
ACAD
1000
AcDbSavedByObjectVersion
1070
     0
  0
VISUALSTYLE
  5
246F
102
{ACAD_XDICTIONARY
360
2521
102
}
102
{ACAD_REACTORS
330
2466
102
}
330
2466
100
AcDbVisualStyle
  2

 70
     9
 71
     3
 72
     2
 73
     0
 90
        0
 40
-0.6
 41
-30.0
 62
     5
 63
     7
 74
     2
 91
        2
 64
     7
 65
   257
 75
     1
175
     1
 42
179.0
 92
        8
 66
     7
 43
1.0
 76
     1
 77
     6
 78
     2
 67
     7
 79
     3
170
     0
171
     0
290
     0
174
     0
 93
        1
 44
0.0
173
     0
291
     0
 45
0.0
1001
ACAD
1000
AcDbSavedByObjectVersion
1070
     0
  0
VISUALSTYLE
  5
2471
102
{ACAD_XDICTIONARY
360
2525
102
}
102
{ACAD_REACTORS
330
2466
102
}
330
2466
100
AcDbVisualStyle
  2

 70
    11
 71
     2
 72
     2
 73
     0
 90
        0
 40
-0.6
 41
-30.0
 62
     5
 63
     7
 74
     1
 91
        4
 64
     7
 65
   257
 75
     1
175
     1
 42
1.0
 92
        8
 66
     7
 43
1.0
 76
     1
 77
     6
 78
     2
 67
     7
 79
     5
170
     0
171
     0
290
     0
174
     0
 93
        1
 44
-50.0
173
     0
291
     1
 45
0.0
1001
ACAD
1000
AcDbSavedByObjectVersion
1070
     0
  0
VISUALSTYLE
  5
247E
102
{ACAD_XDICTIONARY
360
253F
102
}
102
{ACAD_REACTORS
330
2466
102
}
330
2466
100
AcDbVisualStyle
  2

 70
    22
 71
     2
 72
     2
 73
     0
 90
        0
 40
-0.6
 41
-30.0
 62
     5
 63
     7
 74
     1
 91
        4
 64
     7
 65
   257
 75
     1
175
     1
 42
1.0
 92
        8
 66
     7
 43
1.0
 76
     1
 77
     6
 78
     2
 67
     7
 79
     5
170
     0
171
     0
290
     0
174
     0
 93
        1
 44
0.0
173
     0
291
     1
 45
0.0
1001
ACAD
1000
AcDbSavedByObjectVersion
1070
     0
  0
VISUALSTYLE
  5
2475
102
{ACAD_XDICTIONARY
360
252D
102
}
102
{ACAD_REACTORS
330
2466
102
}
330
2466
100
AcDbVisualStyle
  2

 70
    15
 71
     2
 72
     2
 73
     0
 90
        0
 40
-0.6
 41
-30.0
 62
     5
 63
     7
 74
     1
 91
        4
 64
     7
 65
   257
 75
     1
175
     1
 42
1.0
 92
        8
 66
     7
 43
1.0
 76
     1
 77
     6
 78
     2
 67
     7
 79
     5
170
     0
171
     0
290
     0
174
     0
 93
        1
 44
0.0
173
     0
291
     1
 45
0.0
1001
ACAD
1000
AcDbSavedByObjectVersion
1070
     0
  0
VISUALSTYLE
  5
2467
102
{ACAD_XDICTIONARY
360
2511
102
}
102
{ACAD_REACTORS
330
2466
102
}
330
2466
100
AcDbVisualStyle
  2

 70
     0
 71
     2
 72
     1
 73
     1
 90
        2
 40
-0.6
 41
30.0
 62
     5
 63
     7
 74
     0
 91
        0
 64
     7
 65
   257
 75
     1
175
     1
 42
1.0
 92
        8
 66
     7
 43
1.0
 76
     1
 77
     6
 78
     2
 67
     7
 79
     5
170
     0
171
     0
290
     0
174
     0
 93
       13
 44
0.0
173
     0
291
     1
 45
0.0
1001
ACAD
1000
AcDbSavedByObjectVersion
1070
     0
  0
VISUALSTYLE
  5
2468
102
{ACAD_XDICTIONARY
360
2513
102
}
102
{ACAD_REACTORS
330
2466
102
}
330
2466
100
AcDbVisualStyle
  2

 70
     1
 71
     2
 72
     1
 73
     1
 90
        2
 40
-0.6
 41
30.0
 62
     5
 63
     7
 74
     1
 91
        0
 64
     7
 65
   257
 75
     1
175
     1
 42
1.0
 92
        0
 66
   257
 43
1.0
 76
     1
 77
     6
 78
     2
 67
     7
 79
     5
170
     0
171
     0
290
     0
174
     0
 93
       13
 44
0.0
173
     0
291
     1
 45
0.0
1001
ACAD
1000
AcDbSavedByObjectVersion
1070
     0
  0
VISUALSTYLE
  5
2469
102
{ACAD_XDICTIONARY
360
2515
102
}
102
{ACAD_REACTORS
330
2466
102
}
330
2466
100
AcDbVisualStyle
  2

 70
     2
 71
     2
 72
     2
 73
     1
 90
        2
 40
-0.6
 41
30.0
 62
     5
 63
     7
 74
     0
 91
        0
 64
     7
 65
   257
 75
     1
175
     1
 42
1.0
 92
        0
 66
     7
 43
1.0
 76
     1
 77
     6
 78
     2
 67
     7
 79
     5
170
     0
171
     0
290
     0
174
     0
 93
       13
 44
0.0
173
     0
291
     1
 45
0.0
1001
ACAD
1000
AcDbSavedByObjectVersion
1070
     0
  0
VISUALSTYLE
  5
246A
102
{ACAD_XDICTIONARY
360
2517
102
}
102
{ACAD_REACTORS
330
2466
102
}
330
2466
100
AcDbVisualStyle
  2

 70
     3
 71
     2
 72
     2
 73
     1
 90
        2
 40
-0.6
 41
30.0
 62
     5
 63
     7
 74
     1
 91
        0
 64
     7
 65
   257
 75
     1
175
     1
 42
1.0
 92
        0
 66
   257
 43
1.0
 76
     1
 77
     6
 78
     2
 67
     7
 79
     5
170
     0
171
     0
290
     0
174
     0
 93
       13
 44
0.0
173
     0
291
     1
 45
0.0
1001
ACAD
1000
AcDbSavedByObjectVersion
1070
     0
  0
VISUALSTYLE
  5
246E
102
{ACAD_XDICTIONARY
360
251F
102
}
102
{ACAD_REACTORS
330
2466
102
}
330
2466
100
AcDbVisualStyle
  2

 70
     6
 71
     1
 72
     2
 73
     2
 90
        0
 40
-0.6
 41
-30.0
 62
     5
 63
     7
 74
     2
 91
        2
 64
     7
 65
   257
 75
     2
175
     1
 42
40.0
 92
        0
 66
   257
 43
1.0
 76
     1
 77
     6
 78
     2
 67
     7
 79
     3
170
     0
171
     0
290
     0
174
     0
 93
        1
 44
0.0
173
     0
291
     0
 45
0.0
1001
ACAD
1000
AcDbSavedByObjectVersion
1070
     0
  0
VISUALSTYLE
  5
247C
102
{ACAD_XDICTIONARY
360
253B
102
}
102
{ACAD_REACTORS
330
2466
102
}
330
2466
100
AcDbVisualStyle
  2

 70
    20
 71
     2
 72
     2
 73
     0
 90
        0
 40
-0.6
 41
-30.0
 62
     5
 63
     7
 74
     1
 91
        4
 64
     7
 65
   257
 75
     1
175
     1
 42
1.0
 92
       10
 66
     7
 43
1.0
 76
     1
 77
     6
 78
     2
 67
     7
 79
     5
170
     0
171
     0
290
     0
174
     0
 93
        1
 44
0.0
173
     0
291
     1
 45
0.0
1001
ACAD
1000
AcDbSavedByObjectVersion
1070
     0
  0
VISUALSTYLE
  5
2474
102
{ACAD_XDICTIONARY
360
252B
102
}
102
{ACAD_REACTORS
330
2466
102
}
330
2466
100
AcDbVisualStyle
  2

 70
    14
 71
     2
 72
     2
 73
     0
 90
        0
 40
-0.6
 41
-30.0
 62
     5
 63
     7
 74
     1
 91
        4
 64
     7
 65
   257
 75
     7
175
     7
 42
1.0
 92
        8
 66
     7
 43
1.0
 76
     1
 77
     6
 78
     2
 67
     7
 79
     5
170
     0
171
     0
290
     0
174
     0
 93
        1
 44
0.0
173
     0
291
     1
 45
0.0
1001
ACAD
1000
AcDbSavedByObjectVersion
1070
     0
  0
VISUALSTYLE
  5
247D
102
{ACAD_XDICTIONARY
360
253D
102
}
102
{ACAD_REACTORS
330
2466
102
}
330
2466
100
AcDbVisualStyle
  2

 70
    21
 71
     2
 72
     2
 73
     0
 90
        0
 40
-0.6
 41
-30.0
 62
     5
 63
     7
 74
     1
 91
        4
 64
     7
 65
   257
 75
     1
175
     1
 42
1.0
 92
        9
 66
     7
 43
1.0
 76
     1
 77
     6
 78
     2
 67
     7
 79
     5
170
     0
171
     0
290
     0
174
     0
 93
        1
 44
0.0
173
     0
291
     1
 45
0.0
1001
ACAD
1000
AcDbSavedByObjectVersion
1070
     0
  0
VISUALSTYLE
  5
2470
102
{ACAD_XDICTIONARY
360
2523
102
}
102
{ACAD_REACTORS
330
2466
102
}
330
2466
100
AcDbVisualStyle
  2

 70
     8
 71
     2
 72
     3
 73
     0
 90
        2
 40
-0.6
 41
30.0
 62
     5
 63
     7
 74
     0
 91
        0
 64
     7
 65
   257
 75
     1
175
     1
 42
1.0
 92
        8
 66
   257
 43
1.0
 76
     1
 77
     6
 78
     2
 67
     7
 79
     3
170
     0
171
     0
290
     0
174
     0
 93
       13
 44
0.0
173
     0
291
     0
 45
0.0
1001
ACAD
1000
AcDbSavedByObjectVersion
1070
     0
  0
VISUALSTYLE
  5
247B
102
{ACAD_XDICTIONARY
360
2539
102
}
102
{ACAD_REACTORS
330
2466
102
}
330
2466
100
AcDbVisualStyle
  2

 70
    27
 71
     2
 72
     2
 73
     1
 90
        2
 40
-0.6
 41
30.0
 62
     5
 63
     7
 74
     0
 91
        4
 64
     7
 65
   257
 75
     1
175
     1
 42
1.0
 92
        8
 66
   257
 43
1.0
 76
     1
 77
     6
 78
     2
 67
     8
 79
     3
170
     0
171
     0
290
     0
174
     0
 93
        5
 44
0.0
173
     0
291
     0
 45
0.0
1001
ACAD
1000
AcDbSavedByObjectVersion
1070
     0
  0
VISUALSTYLE
  5
247A
102
{ACAD_XDICTIONARY
360
2537
102
}
102
{ACAD_REACTORS
330
2466
102
}
330
2466
100
AcDbVisualStyle
  2

 70
    26
 71
     2
 72
     2
 73
     1
 90
        2
 40
-0.6
 41
30.0
 62
     5
 63
     7
 74
     1
 91
       10
 64
     7
 65
   257
 75
     2
175
     1
 42
1.0
 92
        8
 66
   257
 43
1.0
 76
     1
 77
     6
 78
     2
 67
     7
 79
     3
170
     0
171
     0
290
     0
174
     0
 93
        5
 44
0.0
173
     0
291
     0
 45
0.0
1001
ACAD
1000
AcDbSavedByObjectVersion
1070
     0
  0
VISUALSTYLE
  5
2477
102
{ACAD_XDICTIONARY
360
2531
102
}
102
{ACAD_REACTORS
330
2466
102
}
330
2466
100
AcDbVisualStyle
  2

 70
    23
 71
     2
 72
     2
 73
     3
 90
        0
 40
-0.6
 41
-30.0
 62
     5
 63
     7
 74
     2
 91
        2
 64
     7
 65
     7
 75
     1
175
     1
 42
40.0
 92
        8
 66
     7
 43
1.0
 76
     1
 77
     6
 78
     2
 67
     7
 79
     3
170
     0
171
     0
290
     0
174
     0
 93
        1
 44
0.0
173
     0
291
     0
 45
0.0
1001
ACAD
1000
AcDbSavedByObjectVersion
1070
     0
  0
VISUALSTYLE
  5
2478
102
{ACAD_XDICTIONARY
360
2533
102
}
102
{ACAD_REACTORS
330
2466
102
}
330
2466
100
AcDbVisualStyle
  2

 70
    24
 71
     1
 72
     2
 73
     2
 90
        0
 40
-0.6
 41
-30.0
 62
     5
 63
     7
 74
     2
 91
        2
 64
     7
 65
     7
 75
     1
175
     1
 42
40.0
 92
       11
 66
     7
 43
1.0
 76
     1
 77
     6
 78
     2
 67
     7
 79
     6
170
     0
171
     0
290
     0
174
     0
 93
        1
 44
0.0
173
     0
291
     0
 45
0.0
1001
ACAD
1000
AcDbSavedByObjectVersion
1070
     0
  0
VISUALSTYLE
  5
2473
102
{ACAD_XDICTIONARY
360
2529
102
}
102
{ACAD_REACTORS
330
2466
102
}
330
2466
100
AcDbVisualStyle
  2

 70
    13
 71
     2
 72
     2
 73
     0
 90
        0
 40
-0.6
 41
-30.0
 62
     5
 63
     7
 74
     1
 91
        4
 64
     7
 65
   257
 75
     1
175
     1
 42
1.0
 92
       12
 66
     7
 43
1.0
 76
     1
 77
     6
 78
     2
 67
     7
 79
     5
170
     0
171
     0
290
     0
174
     0
 93
        1
 44
0.0
173
     0
291
     1
 45
0.0
1001
ACAD
1000
AcDbSavedByObjectVersion
1070
     0
  0
VISUALSTYLE
  5
246D
102
{ACAD_XDICTIONARY
360
251D
102
}
102
{ACAD_REACTORS
330
2466
102
}
330
2466
100
AcDbVisualStyle
  2

 70
     5
 71
     0
 72
     2
 73
     0
 90
        0
 40
-0.6
 41
-30.0
 62
     5
 63
     7
 74
     1
 91
        4
 64
     7
 65
   257
 75
     1
175
     1
 42
1.0
 92
        0
 66
   257
 43
1.0
 76
     1
 77
     6
 78
     2
 67
     7
 79
     3
170
     0
171
     0
290
     0
174
     0
 93
        1
 44
0.0
173
     0
291
     0
 45
0.0
1001
ACAD
1000
AcDbSavedByObjectVersion
1070
     0
  0
VISUALSTYLE
  5
2479
102
{ACAD_XDICTIONARY
360
2535
102
}
102
{ACAD_REACTORS
330
2466
102
}
330
2466
100
AcDbVisualStyle
  2

 70
    25
 71
     2
 72
     2
 73
     1
 90
        1
 40
0.5
 41
-30.0
 62
     5
 63
     7
 74
     1
 91
        0
 64
     7
 65
   257
 75
     1
175
     1
 42
1.0
 92
        8
 66
     7
 43
1.0
 76
     1
 77
     6
 78
     2
 67
     7
 79
     3
170
     0
171
     0
290
     0
174
     0
 93
       13
 44
0.0
173
     0
291
     0
 45
0.0
1001
ACAD
1000
AcDbSavedByObjectVersion
1070
     0
  0
DICTIONARYVAR
  5
24C4
102
{ACAD_REACTORS
330
24BF
102
}
330
24BF
100
DictionaryVariables
280
     0
  1
1:1
  0
DICTIONARYVAR
  5
24C1
102
{ACAD_REACTORS
330
24BF
102
}
330
24BF
100
DictionaryVariables
280
     0
  1
STANDARD
  0
DICTIONARYVAR
  5
24C0
102
{ACAD_REACTORS
330
24BF
102
}
330
24BF
100
DictionaryVariables
280
     0
  1
STANDARD
  0
DICTIONARYVAR
  5
24C2
102
{ACAD_REACTORS
330
24BF
102
}
330
24BF
100
DictionaryVariables
280
     0
  1
Imperial24
  0
DICTIONARYVAR
  5
24C3
102
{ACAD_REACTORS
330
24BF
102
}
330
24BF
100
DictionaryVariables
280
     0
  1
Imperial24
  0
DICTIONARYVAR
  5
24C7
102
{ACAD_REACTORS
330
24BF
102
}
330
24BF
100
DictionaryVariables
280
     0
  1
1
  0
DICTIONARYVAR
  5
24C6
102
{ACAD_REACTORS
330
24BF
102
}
330
24BF
100
DictionaryVariables
280
     0
  1
0
  0
DICTIONARYVAR
  5
24C5
102
{ACAD_REACTORS
330
24BF
102
}
330
24BF
100
DictionaryVariables
280
     0
  1
127
  0
DICTIONARYVAR
  5
250D
102
{ACAD_REACTORS
330
24BF
102
}
330
24BF
100
DictionaryVariables
280
     0
  1
2
  0
DICTIONARY
  5
2544
330
2499
100
AcDbDictionary
280
     1
281
     1
  3
ACAD_XREC_ROUNDTRIP
360
2545
  0
DICTIONARY
  5
2546
330
249A
100
AcDbDictionary
280
     1
281
     1
  3
ACAD_XREC_ROUNDTRIP
360
2547
  0
DICTIONARY
  5
2548
330
249B
100
AcDbDictionary
280
     1
281
     1
  3
ACAD_XREC_ROUNDTRIP
360
2549
  0
DICTIONARY
  5
2457
330
2456
100
AcDbDictionary
280
     1
281
     1
  3
ACAD_XREC_ROUNDTRIP
360
24CE
  3
BUMPTILE
360
2459
  3
DIFFUSETILE
360
2458
  3
OPACITYTILE
360
245C
  3
REFLECTIONTILE
360
245B
  3
REFRACTIONTILE
360
245D
  3
SPECULARTILE
360
245A
  0
DICTIONARY
  5
244F
330
244E
100
AcDbDictionary
280
     1
281
     1
  3
ACAD_XREC_ROUNDTRIP
360
24CD
  3
BUMPTILE
360
2451
  3
DIFFUSETILE
360
2450
  3
OPACITYTILE
360
2454
  3
REFLECTIONTILE
360
2453
  3
REFRACTIONTILE
360
2455
  3
SPECULARTILE
360
2452
  0
DICTIONARY
  5
245F
330
245E
100
AcDbDictionary
280
     1
281
     1
  3
ACAD_XREC_ROUNDTRIP
360
24CF
  3
BUMPTILE
360
2461
  3
DIFFUSETILE
360
2460
  3
OPACITYTILE
360
2464
  3
REFLECTIONTILE
360
2463
  3
REFRACTIONTILE
360
2465
  3
SPECULARTILE
360
2462
  0
DICTIONARY
  5
2542
330
2497
100
AcDbDictionary
280
     1
281
     1
  3
ACAD_XREC_ROUNDTRIP
360
2543
  0
DICTIONARY
  5
24C9
330
2481
100
AcDbDictionary
280
     1
281
     1
  3
ACAD_ROUNDTRIP_2008_TABLESTYLE_CELLSTYLEMAP
360
250E
  3
ACAD_XREC_ROUNDTRIP
360
2541
  0
DICTIONARY
  5
251B
330
246C
100
AcDbDictionary
280
     1
281
     1
  3
ACAD_XREC_ROUNDTRIP
360
251C
  0
DICTIONARY
  5
2519
330
246B
100
AcDbDictionary
280
     1
281
     1
  3
ACAD_XREC_ROUNDTRIP
360
251A
  0
DICTIONARY
  5
2527
330
2472
100
AcDbDictionary
280
     1
281
     1
  3
ACAD_XREC_ROUNDTRIP
360
2528
  0
DICTIONARY
  5
252F
330
2476
100
AcDbDictionary
280
     1
281
     1
  3
ACAD_XREC_ROUNDTRIP
360
2530
  0
DICTIONARY
  5
2521
330
246F
100
AcDbDictionary
280
     1
281
     1
  3
ACAD_XREC_ROUNDTRIP
360
2522
  0
DICTIONARY
  5
2525
330
2471
100
AcDbDictionary
280
     1
281
     1
  3
ACAD_XREC_ROUNDTRIP
360
2526
  0
DICTIONARY
  5
253F
330
247E
100
AcDbDictionary
280
     1
281
     1
  3
ACAD_XREC_ROUNDTRIP
360
2540
  0
DICTIONARY
  5
252D
330
2475
100
AcDbDictionary
280
     1
281
     1
  3
ACAD_XREC_ROUNDTRIP
360
252E
  0
DICTIONARY
  5
2511
330
2467
100
AcDbDictionary
280
     1
281
     1
  3
ACAD_XREC_ROUNDTRIP
360
2512
  0
DICTIONARY
  5
2513
330
2468
100
AcDbDictionary
280
     1
281
     1
  3
ACAD_XREC_ROUNDTRIP
360
2514
  0
DICTIONARY
  5
2515
330
2469
100
AcDbDictionary
280
     1
281
     1
  3
ACAD_XREC_ROUNDTRIP
360
2516
  0
DICTIONARY
  5
2517
330
246A
100
AcDbDictionary
280
     1
281
     1
  3
ACAD_XREC_ROUNDTRIP
360
2518
  0
DICTIONARY
  5
251F
330
246E
100
AcDbDictionary
280
     1
281
     1
  3
ACAD_XREC_ROUNDTRIP
360
2520
  0
DICTIONARY
  5
253B
330
247C
100
AcDbDictionary
280
     1
281
     1
  3
ACAD_XREC_ROUNDTRIP
360
253C
  0
DICTIONARY
  5
252B
330
2474
100
AcDbDictionary
280
     1
281
     1
  3
ACAD_XREC_ROUNDTRIP
360
252C
  0
DICTIONARY
  5
253D
330
247D
100
AcDbDictionary
280
     1
281
     1
  3
ACAD_XREC_ROUNDTRIP
360
253E
  0
DICTIONARY
  5
2523
330
2470
100
AcDbDictionary
280
     1
281
     1
  3
ACAD_XREC_ROUNDTRIP
360
2524
  0
DICTIONARY
  5
2539
330
247B
100
AcDbDictionary
280
     1
281
     1
  3
ACAD_XREC_ROUNDTRIP
360
253A
  0
DICTIONARY
  5
2537
330
247A
100
AcDbDictionary
280
     1
281
     1
  3
ACAD_XREC_ROUNDTRIP
360
2538
  0
DICTIONARY
  5
2531
330
2477
100
AcDbDictionary
280
     1
281
     1
  3
ACAD_XREC_ROUNDTRIP
360
2532
  0
DICTIONARY
  5
2533
330
2478
100
AcDbDictionary
280
     1
281
     1
  3
ACAD_XREC_ROUNDTRIP
360
2534
  0
DICTIONARY
  5
2529
330
2473
100
AcDbDictionary
280
     1
281
     1
  3
ACAD_XREC_ROUNDTRIP
360
252A
  0
DICTIONARY
  5
251D
330
246D
100
AcDbDictionary
280
     1
281
     1
  3
ACAD_XREC_ROUNDTRIP
360
251E
  0
DICTIONARY
  5
2535
330
2479
100
AcDbDictionary
280
     1
281
     1
  3
ACAD_XREC_ROUNDTRIP
360
2536
  0
XRECORD
  5
2545
102
{ACAD_REACTORS
330
2544
102
}
330
2544
100
AcDbXrecord
280
     1
102
DISPLAYNAME
  1
Imperial24
102
FLAGS
 90
        0
  0
XRECORD
  5
2547
102
{ACAD_REACTORS
330
2546
102
}
330
2546
100
AcDbXrecord
280
     1
102
SHADEPLOT
 70
     0
102
SHADEPLOTRESLEVEL
 70
     2
102
SHADEPLOTCUSTOMDPI
 70
   300
  0
XRECORD
  5
2549
102
{ACAD_REACTORS
330
2548
102
}
330
2548
100
AcDbXrecord
280
     1
102
SHADEPLOT
 70
     0
102
SHADEPLOTRESLEVEL
 70
     2
102
SHADEPLOTCUSTOMDPI
 70
   300
  0
XRECORD
  5
24CE
102
{ACAD_REACTORS
330
2457
102
}
330
2457
100
AcDbXrecord
280
     1
102
MATERIAL
148
0.0
149
0.0
149
0.0
 93
        0
 94
      127
282
     0
 72
     0
 77
     0
171
     0
175
     0
179
     0
273
     0
  0
XRECORD
  5
2459
102
{ACAD_REACTORS
330
2457
102
}
330
2457
100
AcDbXrecord
280
     1
270
     1
271
     1
  0
XRECORD
  5
2458
102
{ACAD_REACTORS
330
2457
102
}
330
2457
100
AcDbXrecord
280
     1
270
     1
271
     1
  0
XRECORD
  5
245C
102
{ACAD_REACTORS
330
2457
102
}
330
2457
100
AcDbXrecord
280
     1
270
     1
271
     1
  0
XRECORD
  5
245B
102
{ACAD_REACTORS
330
2457
102
}
330
2457
100
AcDbXrecord
280
     1
270
     1
271
     1
  0
XRECORD
  5
245D
102
{ACAD_REACTORS
330
2457
102
}
330
2457
100
AcDbXrecord
280
     1
270
     1
271
     1
  0
XRECORD
  5
245A
102
{ACAD_REACTORS
330
2457
102
}
330
2457
100
AcDbXrecord
280
     1
270
     1
271
     1
  0
XRECORD
  5
24CD
102
{ACAD_REACTORS
330
244F
102
}
330
244F
100
AcDbXrecord
280
     1
102
MATERIAL
148
0.0
149
0.0
149
0.0
 93
        0
 94
      127
282
     0
 72
     0
 77
     0
171
     0
175
     0
179
     0
273
     0
  0
XRECORD
  5
2451
102
{ACAD_REACTORS
330
244F
102
}
330
244F
100
AcDbXrecord
280
     1
270
     1
271
     1
  0
XRECORD
  5
2450
102
{ACAD_REACTORS
330
244F
102
}
330
244F
100
AcDbXrecord
280
     1
270
     1
271
     1
  0
XRECORD
  5
2454
102
{ACAD_REACTORS
330
244F
102
}
330
244F
100
AcDbXrecord
280
     1
270
     1
271
     1
  0
XRECORD
  5
2453
102
{ACAD_REACTORS
330
244F
102
}
330
244F
100
AcDbXrecord
280
     1
270
     1
271
     1
  0
XRECORD
  5
2455
102
{ACAD_REACTORS
330
244F
102
}
330
244F
100
AcDbXrecord
280
     1
270
     1
271
     1
  0
XRECORD
  5
2452
102
{ACAD_REACTORS
330
244F
102
}
330
244F
100
AcDbXrecord
280
     1
270
     1
271
     1
  0
XRECORD
  5
24CF
102
{ACAD_REACTORS
330
245F
102
}
330
245F
100
AcDbXrecord
280
     1
102
MATERIAL
148
0.0
149
0.0
149
0.0
 93
        0
 94
      127
282
     0
 72
     0
 77
     0
171
     0
175
     0
179
     0
273
     0
  0
XRECORD
  5
2461
102
{ACAD_REACTORS
330
245F
102
}
330
245F
100
AcDbXrecord
280
     1
270
     1
271
     1
  0
XRECORD
  5
2460
102
{ACAD_REACTORS
330
245F
102
}
330
245F
100
AcDbXrecord
280
     1
270
     1
271
     1
  0
XRECORD
  5
2464
102
{ACAD_REACTORS
330
245F
102
}
330
245F
100
AcDbXrecord
280
     1
270
     1
271
     1
  0
XRECORD
  5
2463
102
{ACAD_REACTORS
330
245F
102
}
330
245F
100
AcDbXrecord
280
     1
270
     1
271
     1
  0
XRECORD
  5
2465
102
{ACAD_REACTORS
330
245F
102
}
330
245F
100
AcDbXrecord
280
     1
270
     1
271
     1
  0
XRECORD
  5
2462
102
{ACAD_REACTORS
330
245F
102
}
330
245F
100
AcDbXrecord
280
     1
270
     1
271
     1
  0
XRECORD
  5
2543
102
{ACAD_REACTORS
330
2542
102
}
330
2542
100
AcDbXrecord
280
     1
102
DISPLAYNAME
  1
Imperial24
102
FLAGS
 90
        0
  0
CELLSTYLEMAP
  5
250E
102
{ACAD_REACTORS
330
24C9
102
}
330
24C9
100
AcDbCellStyleMap
 90
        3
300
CELLSTYLE
  1
TABLEFORMAT_BEGIN
 90
        5
170
     1
 91
        0
 92
    32768
 62
   257
 93
        1
300
CONTENTFORMAT
  1
CONTENTFORMAT_BEGIN
 90
        0
 91
        0
 92
      512
 93
        0
300

 40
0.0
140
1.0
 94
        5
 62
     0
340
F
144
0.25
309
CONTENTFORMAT_END
171
     1
301
MARGIN
  1
CELLMARGIN_BEGIN
 40
0.06
 40
0.06
 40
0.06
 40
0.06
 40
0.18
 40
0.18
309
CELLMARGIN_END
 94
        6
 95
        1
302
GRIDFORMAT
  1
GRIDFORMAT_BEGIN
 90
        0
 91
        1
 62
     0
 92
       -2
340
0
 93
        0
 40
0.045
309
GRIDFORMAT_END
 95
        2
302
GRIDFORMAT
  1
GRIDFORMAT_BEGIN
 90
        0
 91
        1
 62
     0
 92
       -2
340
0
 93
        0
 40
0.045
309
GRIDFORMAT_END
 95
        4
302
GRIDFORMAT
  1
GRIDFORMAT_BEGIN
 90
        0
 91
        1
 62
     0
 92
       -2
340
0
 93
        0
 40
0.045
309
GRIDFORMAT_END
 95
        8
302
GRIDFORMAT
  1
GRIDFORMAT_BEGIN
 90
        0
 91
        1
 62
     0
 92
       -2
340
0
 93
        0
 40
0.045
309
GRIDFORMAT_END
 95
       16
302
GRIDFORMAT
  1
GRIDFORMAT_BEGIN
 90
        0
 91
        1
 62
     0
 92
       -2
340
0
 93
        0
 40
0.045
309
GRIDFORMAT_END
 95
       32
302
GRIDFORMAT
  1
GRIDFORMAT_BEGIN
 90
        0
 91
        1
 62
     0
 92
       -2
340
0
 93
        0
 40
0.045
309
GRIDFORMAT_END
309
TABLEFORMAT_END
  1
CELLSTYLE_BEGIN
 90
        1
 91
        1
300
_TITLE
309
CELLSTYLE_END
300
CELLSTYLE
  1
TABLEFORMAT_BEGIN
 90
        5
170
     1
 91
        0
 92
        0
 62
   257
 93
        1
300
CONTENTFORMAT
  1
CONTENTFORMAT_BEGIN
 90
        0
 91
        0
 92
      512
 93
        0
300

 40
0.0
140
1.0
 94
        5
 62
     0
340
F
144
0.18
309
CONTENTFORMAT_END
171
     1
301
MARGIN
  1
CELLMARGIN_BEGIN
 40
0.06
 40
0.06
 40
0.06
 40
0.06
 40
0.18
 40
0.18
309
CELLMARGIN_END
 94
        6
 95
        1
302
GRIDFORMAT
  1
GRIDFORMAT_BEGIN
 90
        0
 91
        1
 62
     0
 92
       -2
340
0
 93
        0
 40
0.045
309
GRIDFORMAT_END
 95
        2
302
GRIDFORMAT
  1
GRIDFORMAT_BEGIN
 90
        0
 91
        1
 62
     0
 92
       -2
340
0
 93
        0
 40
0.045
309
GRIDFORMAT_END
 95
        4
302
GRIDFORMAT
  1
GRIDFORMAT_BEGIN
 90
        0
 91
        1
 62
     0
 92
       -2
340
0
 93
        0
 40
0.045
309
GRIDFORMAT_END
 95
        8
302
GRIDFORMAT
  1
GRIDFORMAT_BEGIN
 90
        0
 91
        1
 62
     0
 92
       -2
340
0
 93
        0
 40
0.045
309
GRIDFORMAT_END
 95
       16
302
GRIDFORMAT
  1
GRIDFORMAT_BEGIN
 90
        0
 91
        1
 62
     0
 92
       -2
340
0
 93
        0
 40
0.045
309
GRIDFORMAT_END
 95
       32
302
GRIDFORMAT
  1
GRIDFORMAT_BEGIN
 90
        0
 91
        1
 62
     0
 92
       -2
340
0
 93
        0
 40
0.045
309
GRIDFORMAT_END
309
TABLEFORMAT_END
  1
CELLSTYLE_BEGIN
 90
        2
 91
        1
300
_HEADER
309
CELLSTYLE_END
300
CELLSTYLE
  1
TABLEFORMAT_BEGIN
 90
        5
170
     1
 91
        0
 92
        0
 62
   257
 93
        1
300
CONTENTFORMAT
  1
CONTENTFORMAT_BEGIN
 90
        0
 91
        0
 92
      512
 93
        0
300

 40
0.0
140
1.0
 94
        2
 62
     0
340
F
144
0.18
309
CONTENTFORMAT_END
171
     1
301
MARGIN
  1
CELLMARGIN_BEGIN
 40
0.06
 40
0.06
 40
0.06
 40
0.06
 40
0.18
 40
0.18
309
CELLMARGIN_END
 94
        6
 95
        1
302
GRIDFORMAT
  1
GRIDFORMAT_BEGIN
 90
        0
 91
        1
 62
     0
 92
       -2
340
0
 93
        0
 40
0.045
309
GRIDFORMAT_END
 95
        2
302
GRIDFORMAT
  1
GRIDFORMAT_BEGIN
 90
        0
 91
        1
 62
     0
 92
       -2
340
0
 93
        0
 40
0.045
309
GRIDFORMAT_END
 95
        4
302
GRIDFORMAT
  1
GRIDFORMAT_BEGIN
 90
        0
 91
        1
 62
     0
 92
       -2
340
0
 93
        0
 40
0.045
309
GRIDFORMAT_END
 95
        8
302
GRIDFORMAT
  1
GRIDFORMAT_BEGIN
 90
        0
 91
        1
 62
     0
 92
       -2
340
0
 93
        0
 40
0.045
309
GRIDFORMAT_END
 95
       16
302
GRIDFORMAT
  1
GRIDFORMAT_BEGIN
 90
        0
 91
        1
 62
     0
 92
       -2
340
0
 93
        0
 40
0.045
309
GRIDFORMAT_END
 95
       32
302
GRIDFORMAT
  1
GRIDFORMAT_BEGIN
 90
        0
 91
        1
 62
     0
 92
       -2
340
0
 93
        0
 40
0.045
309
GRIDFORMAT_END
309
TABLEFORMAT_END
  1
CELLSTYLE_BEGIN
 90
        3
 91
        2
300
_DATA
309
CELLSTYLE_END
  0
XRECORD
  5
2541
102
{ACAD_REACTORS
330
24C9
102
}
330
24C9
100
AcDbXrecord
280
     1
102
ACAD_ROUNDTRIP_PRE2007_TABLESTYLE
 90
      512
 91
        0
  1

 92
      512
 93
        0
  2

 94
      512
 95
        0
  3

  0
XRECORD
  5
251C
102
{ACAD_REACTORS
330
251B
102
}
330
251B
100
AcDbXrecord
280
     1
102
RTVSPost2010Prop28
280
     1
102
RTVSPost2010PropOp28
 70
     1
102
RTVSPost2010Prop29
280
     1
102
RTVSPost2010PropOp29
 70
     1
102
RTVSPost2010Prop30
280
     0
102
RTVSPost2010PropOp30
 70
     1
102
RTVSPost2010Prop31
280
     0
102
RTVSPost2010PropOp31
 70
     1
102
RTVSPost2010Prop32
280
     0
102
RTVSPost2010PropOp32
 70
     1
102
RTVSPost2010Prop33
280
     0
102
RTVSPost2010PropOp33
 70
     1
102
RTVSPost2010Prop34
280
     0
102
RTVSPost2010PropOp34
 70
     1
102
RTVSPost2010Prop35
280
     0
102
RTVSPost2010PropOp35
 70
     1
102
RTVSPost2010Prop36
280
     0
102
RTVSPost2010PropOp36
 70
     1
102
RTVSPost2010Prop37
 90
       50
102
RTVSPost2010PropOp37
 70
     1
102
RTVSPost2010Prop38
140
0.0
102
RTVSPost2010PropOp38
 70
     1
102
RTVSPost2010Prop39
140
1.0
102
RTVSPost2010PropOp39
 70
     1
102
RTVSPost2010Prop40
 90
        0
102
RTVSPost2010PropOp40
 70
     1
102
RTVSPost2010Prop41ColorIndex
 90
       18
102
RTVSPost2010Prop41ColorRGB
 90
        0
102
RTVSPost2010PropOp41
 70
     1
102
RTVSPost2010Prop42
 90
       50
102
RTVSPost2010PropOp42
 70
     1
102
RTVSPost2010Prop43
 90
        3
102
RTVSPost2010PropOp43
 70
     1
102
RTVSPost2010Prop44ColorIndex
 90
        5
102
RTVSPost2010Prop44ColorRGB
 90
      255
102
RTVSPost2010PropOp44
 70
     1
102
RTVSPost2010Prop45
280
     0
102
RTVSPost2010PropOp45
 70
     1
102
RTVSPost2010Prop46
 90
       50
102
RTVSPost2010PropOp46
 70
     1
102
RTVSPost2010Prop47
 90
       50
102
RTVSPost2010PropOp47
 70
     1
102
RTVSPost2010Prop48
 90
       50
102
RTVSPost2010PropOp48
 70
     1
102
RTVSPost2010Prop49
280
     0
102
RTVSPost2010PropOp49
 70
     1
102
RTVSPost2010Prop50
 90
       50
102
RTVSPost2010PropOp50
 70
     1
102
RTVSPost2010Prop51ColorIndex
 90
      256
102
RTVSPost2010Prop51ColorRGB
 90
-16777216
102
RTVSPost2010PropOp51
 70
     0
102
RTVSPost2010Prop52
140
1.0
102
RTVSPost2010PropOp52
 70
     0
102
RTVSPost2010Prop53
 90
        2
102
RTVSPost2010PropOp53
 70
     1
102
RTVSPost2010Prop54
  1
strokes_ogs.tif
102
RTVSPost2010PropOp54
 70
     1
102
RTVSPost2010Prop55
280
     0
102
RTVSPost2010PropOp55
 70
     1
102
RTVSPost2010Prop56
140
1.0
102
RTVSPost2010PropOp56
 70
     1
102
RTVSPost2010Prop57
140
1.0
102
RTVSPost2010PropOp57
 70
     1
102
RTVSPropertyOp0
 70
     1
102
RTVSPropertyOp1
 70
     1
102
RTVSPropertyOp2
 70
     1
102
RTVSPropertyOp3
 70
     1
102
RTVSPropertyOp4
 70
     1
102
RTVSPropertyOp5
 70
     1
102
RTVSPropertyOp6
 70
     1
102
RTVSPropertyOp7
 70
     1
102
RTVSPropertyOp8
 70
     1
102
RTVSPropertyOp9
 70
     1
102
RTVSPropertyOp10
 70
     1
102
RTVSPropertyOp11
 70
     1
102
RTVSPropertyOp12
 70
     1
102
RTVSPropertyOp13
 70
     1
102
RTVSPropertyOp14
 70
     1
102
RTVSPropertyOp15
 70
     1
102
RTVSPropertyOp16
 70
     1
102
RTVSPropertyOp17
 70
     1
102
RTVSPropertyOp18
 70
     1
102
RTVSPropertyOp19
 70
     1
102
RTVSPropertyOp20
 70
     1
102
RTVSPropertyOp21
 70
     1
102
RTVSPropertyOp22
 70
     1
102
RTVSPropertyOp23
 70
     1
102
RTVSPropertyOp24
 70
     1
102
RTVSPropertyOp25
 70
     1
102
RTVSPropertyOp26
 70
     1
102
RTVSPropertyOp27
 70
     1
102
RTVSPropertyOp28
 70
     1
102
RTVSPropertyOp29
 70
     1
102
RTVSPropertyOp30
 70
     1
102
RTVSPropertyOp31
 70
     1
102
RTVSPropertyOp32
 70
     1
102
RTVSPropertyOp33
 70
     1
102
RTVSPropertyOp34
 70
     1
102
RTVSPropertyOp35
 70
     1
102
RTVSPropertyOp36
 70
     1
102
RTVSPropertyOp37
 70
     1
102
RTVSPropertyOp38
 70
     1
102
RTVSPropertyOp39
 70
     1
102
RTVSPropertyOp40
 70
     1
102
RTVSPropertyOp41
 70
     1
102
RTVSPropertyOp42
 70
     1
102
RTVSPropertyOp43
 70
     1
102
RTVSPropertyOp44
 70
     1
102
RTVSPropertyOp45
 70
     1
102
RTVSPropertyOp46
 70
     1
102
RTVSPropertyOp47
 70
     1
102
RTVSPropertyOp48
 70
     1
102
RTVSPropertyOp49
 70
     1
102
RTVSPropertyOp50
 70
     1
102
RTVSPropertyOp51
 70
     0
102
RTVSPropertyOp52
 70
     0
102
RTVSPropertyOp53
 70
     1
102
RTVSPropertyOp54
 70
     1
102
RTVSPropertyOp55
 70
     1
102
RTVSPropertyOp56
 70
     1
102
RTVSPropertyOp57
 70
     1
102
RTVSPropertyOp58
 70
     1
102
RTVSPropertyOp59
 70
     1
102
RTVSPropertyOp60
 70
     1
102
RTVSPropertyOp61
 70
     1
102
RTVSPropertyOp62
 70
     1
  0
XRECORD
  5
251A
102
{ACAD_REACTORS
330
2519
102
}
330
2519
100
AcDbXrecord
280
     1
102
RTVSPost2010Prop28
280
     0
102
RTVSPost2010PropOp28
 70
     1
102
RTVSPost2010Prop29
280
     1
102
RTVSPost2010PropOp29
 70
     1
102
RTVSPost2010Prop30
280
     1
102
RTVSPost2010PropOp30
 70
     1
102
RTVSPost2010Prop31
280
     0
102
RTVSPost2010PropOp31
 70
     1
102
RTVSPost2010Prop32
280
     0
102
RTVSPost2010PropOp32
 70
     1
102
RTVSPost2010Prop33
280
     0
102
RTVSPost2010PropOp33
 70
     1
102
RTVSPost2010Prop34
280
     0
102
RTVSPost2010PropOp34
 70
     1
102
RTVSPost2010Prop35
280
     0
102
RTVSPost2010PropOp35
 70
     1
102
RTVSPost2010Prop36
280
     0
102
RTVSPost2010PropOp36
 70
     1
102
RTVSPost2010Prop37
 90
       50
102
RTVSPost2010PropOp37
 70
     1
102
RTVSPost2010Prop38
140
0.0
102
RTVSPost2010PropOp38
 70
     1
102
RTVSPost2010Prop39
140
1.0
102
RTVSPost2010PropOp39
 70
     1
102
RTVSPost2010Prop40
 90
        0
102
RTVSPost2010PropOp40
 70
     1
102
RTVSPost2010Prop41ColorIndex
 90
       18
102
RTVSPost2010Prop41ColorRGB
 90
        0
102
RTVSPost2010PropOp41
 70
     1
102
RTVSPost2010Prop42
 90
       50
102
RTVSPost2010PropOp42
 70
     1
102
RTVSPost2010Prop43
 90
        3
102
RTVSPost2010PropOp43
 70
     1
102
RTVSPost2010Prop44ColorIndex
 90
        5
102
RTVSPost2010Prop44ColorRGB
 90
      255
102
RTVSPost2010PropOp44
 70
     1
102
RTVSPost2010Prop45
280
     0
102
RTVSPost2010PropOp45
 70
     1
102
RTVSPost2010Prop46
 90
       50
102
RTVSPost2010PropOp46
 70
     1
102
RTVSPost2010Prop47
 90
       50
102
RTVSPost2010PropOp47
 70
     1
102
RTVSPost2010Prop48
 90
       50
102
RTVSPost2010PropOp48
 70
     1
102
RTVSPost2010Prop49
280
     0
102
RTVSPost2010PropOp49
 70
     1
102
RTVSPost2010Prop50
 90
       50
102
RTVSPost2010PropOp50
 70
     1
102
RTVSPost2010Prop51ColorIndex
 90
      256
102
RTVSPost2010Prop51ColorRGB
 90
-16777216
102
RTVSPost2010PropOp51
 70
     0
102
RTVSPost2010Prop52
140
1.0
102
RTVSPost2010PropOp52
 70
     0
102
RTVSPost2010Prop53
 90
        2
102
RTVSPost2010PropOp53
 70
     1
102
RTVSPost2010Prop54
  1
strokes_ogs.tif
102
RTVSPost2010PropOp54
 70
     1
102
RTVSPost2010Prop55
280
     0
102
RTVSPost2010PropOp55
 70
     1
102
RTVSPost2010Prop56
140
1.0
102
RTVSPost2010PropOp56
 70
     1
102
RTVSPost2010Prop57
140
1.0
102
RTVSPost2010PropOp57
 70
     1
102
RTVSPropertyOp0
 70
     1
102
RTVSPropertyOp1
 70
     1
102
RTVSPropertyOp2
 70
     1
102
RTVSPropertyOp3
 70
     1
102
RTVSPropertyOp4
 70
     1
102
RTVSPropertyOp5
 70
     1
102
RTVSPropertyOp6
 70
     1
102
RTVSPropertyOp7
 70
     1
102
RTVSPropertyOp8
 70
     1
102
RTVSPropertyOp9
 70
     1
102
RTVSPropertyOp10
 70
     1
102
RTVSPropertyOp11
 70
     1
102
RTVSPropertyOp12
 70
     1
102
RTVSPropertyOp13
 70
     1
102
RTVSPropertyOp14
 70
     1
102
RTVSPropertyOp15
 70
     1
102
RTVSPropertyOp16
 70
     1
102
RTVSPropertyOp17
 70
     1
102
RTVSPropertyOp18
 70
     1
102
RTVSPropertyOp19
 70
     1
102
RTVSPropertyOp20
 70
     1
102
RTVSPropertyOp21
 70
     1
102
RTVSPropertyOp22
 70
     1
102
RTVSPropertyOp23
 70
     1
102
RTVSPropertyOp24
 70
     1
102
RTVSPropertyOp25
 70
     1
102
RTVSPropertyOp26
 70
     1
102
RTVSPropertyOp27
 70
     1
102
RTVSPropertyOp28
 70
     1
102
RTVSPropertyOp29
 70
     1
102
RTVSPropertyOp30
 70
     1
102
RTVSPropertyOp31
 70
     1
102
RTVSPropertyOp32
 70
     1
102
RTVSPropertyOp33
 70
     1
102
RTVSPropertyOp34
 70
     1
102
RTVSPropertyOp35
 70
     1
102
RTVSPropertyOp36
 70
     1
102
RTVSPropertyOp37
 70
     1
102
RTVSPropertyOp38
 70
     1
102
RTVSPropertyOp39
 70
     1
102
RTVSPropertyOp40
 70
     1
102
RTVSPropertyOp41
 70
     1
102
RTVSPropertyOp42
 70
     1
102
RTVSPropertyOp43
 70
     1
102
RTVSPropertyOp44
 70
     1
102
RTVSPropertyOp45
 70
     1
102
RTVSPropertyOp46
 70
     1
102
RTVSPropertyOp47
 70
     1
102
RTVSPropertyOp48
 70
     1
102
RTVSPropertyOp49
 70
     1
102
RTVSPropertyOp50
 70
     1
102
RTVSPropertyOp51
 70
     0
102
RTVSPropertyOp52
 70
     0
102
RTVSPropertyOp53
 70
     1
102
RTVSPropertyOp54
 70
     1
102
RTVSPropertyOp55
 70
     1
102
RTVSPropertyOp56
 70
     1
102
RTVSPropertyOp57
 70
     1
102
RTVSPropertyOp58
 70
     1
102
RTVSPropertyOp59
 70
     1
102
RTVSPropertyOp60
 70
     1
102
RTVSPropertyOp61
 70
     1
102
RTVSPropertyOp62
 70
     1
  0
XRECORD
  5
2528
102
{ACAD_REACTORS
330
2527
102
}
330
2527
100
AcDbXrecord
280
     1
102
RTVSPost2010Prop28
280
     0
102
RTVSPost2010PropOp28
 70
     1
102
RTVSPost2010Prop29
280
     1
102
RTVSPost2010PropOp29
 70
     1
102
RTVSPost2010Prop30
280
     1
102
RTVSPost2010PropOp30
 70
     1
102
RTVSPost2010Prop31
280
     0
102
RTVSPost2010PropOp31
 70
     1
102
RTVSPost2010Prop32
280
     0
102
RTVSPost2010PropOp32
 70
     1
102
RTVSPost2010Prop33
280
     0
102
RTVSPost2010PropOp33
 70
     1
102
RTVSPost2010Prop34
280
     0
102
RTVSPost2010PropOp34
 70
     1
102
RTVSPost2010Prop35
280
     0
102
RTVSPost2010PropOp35
 70
     1
102
RTVSPost2010Prop36
280
     0
102
RTVSPost2010PropOp36
 70
     1
102
RTVSPost2010Prop37
 90
       50
102
RTVSPost2010PropOp37
 70
     1
102
RTVSPost2010Prop38
140
0.0
102
RTVSPost2010PropOp38
 70
     1
102
RTVSPost2010Prop39
140
1.0
102
RTVSPost2010PropOp39
 70
     1
102
RTVSPost2010Prop40
 90
        0
102
RTVSPost2010PropOp40
 70
     1
102
RTVSPost2010Prop41ColorIndex
 90
       18
102
RTVSPost2010Prop41ColorRGB
 90
        0
102
RTVSPost2010PropOp41
 70
     1
102
RTVSPost2010Prop42
 90
       50
102
RTVSPost2010PropOp42
 70
     1
102
RTVSPost2010Prop43
 90
        3
102
RTVSPost2010PropOp43
 70
     1
102
RTVSPost2010Prop44ColorIndex
 90
        5
102
RTVSPost2010Prop44ColorRGB
 90
      255
102
RTVSPost2010PropOp44
 70
     1
102
RTVSPost2010Prop45
280
     0
102
RTVSPost2010PropOp45
 70
     1
102
RTVSPost2010Prop46
 90
       50
102
RTVSPost2010PropOp46
 70
     1
102
RTVSPost2010Prop47
 90
       50
102
RTVSPost2010PropOp47
 70
     1
102
RTVSPost2010Prop48
 90
       50
102
RTVSPost2010PropOp48
 70
     1
102
RTVSPost2010Prop49
280
     0
102
RTVSPost2010PropOp49
 70
     1
102
RTVSPost2010Prop50
 90
       50
102
RTVSPost2010PropOp50
 70
     1
102
RTVSPost2010Prop51ColorIndex
 90
      256
102
RTVSPost2010Prop51ColorRGB
 90
-16777216
102
RTVSPost2010PropOp51
 70
     0
102
RTVSPost2010Prop52
140
1.0
102
RTVSPost2010PropOp52
 70
     0
102
RTVSPost2010Prop53
 90
        2
102
RTVSPost2010PropOp53
 70
     1
102
RTVSPost2010Prop54
  1
strokes_ogs.tif
102
RTVSPost2010PropOp54
 70
     1
102
RTVSPost2010Prop55
280
     0
102
RTVSPost2010PropOp55
 70
     1
102
RTVSPost2010Prop56
140
1.0
102
RTVSPost2010PropOp56
 70
     1
102
RTVSPost2010Prop57
140
1.0
102
RTVSPost2010PropOp57
 70
     1
102
RTVSPropertyOp0
 70
     1
102
RTVSPropertyOp1
 70
     1
102
RTVSPropertyOp2
 70
     1
102
RTVSPropertyOp3
 70
     1
102
RTVSPropertyOp4
 70
     1
102
RTVSPropertyOp5
 70
     1
102
RTVSPropertyOp6
 70
     1
102
RTVSPropertyOp7
 70
     1
102
RTVSPropertyOp8
 70
     1
102
RTVSPropertyOp9
 70
     1
102
RTVSPropertyOp10
 70
     1
102
RTVSPropertyOp11
 70
     1
102
RTVSPropertyOp12
 70
     1
102
RTVSPropertyOp13
 70
     1
102
RTVSPropertyOp14
 70
     1
102
RTVSPropertyOp15
 70
     1
102
RTVSPropertyOp16
 70
     1
102
RTVSPropertyOp17
 70
     1
102
RTVSPropertyOp18
 70
     1
102
RTVSPropertyOp19
 70
     1
102
RTVSPropertyOp20
 70
     1
102
RTVSPropertyOp21
 70
     1
102
RTVSPropertyOp22
 70
     1
102
RTVSPropertyOp23
 70
     1
102
RTVSPropertyOp24
 70
     1
102
RTVSPropertyOp25
 70
     1
102
RTVSPropertyOp26
 70
     1
102
RTVSPropertyOp27
 70
     1
102
RTVSPropertyOp28
 70
     1
102
RTVSPropertyOp29
 70
     1
102
RTVSPropertyOp30
 70
     1
102
RTVSPropertyOp31
 70
     1
102
RTVSPropertyOp32
 70
     1
102
RTVSPropertyOp33
 70
     1
102
RTVSPropertyOp34
 70
     1
102
RTVSPropertyOp35
 70
     1
102
RTVSPropertyOp36
 70
     1
102
RTVSPropertyOp37
 70
     1
102
RTVSPropertyOp38
 70
     1
102
RTVSPropertyOp39
 70
     1
102
RTVSPropertyOp40
 70
     1
102
RTVSPropertyOp41
 70
     1
102
RTVSPropertyOp42
 70
     1
102
RTVSPropertyOp43
 70
     1
102
RTVSPropertyOp44
 70
     1
102
RTVSPropertyOp45
 70
     1
102
RTVSPropertyOp46
 70
     1
102
RTVSPropertyOp47
 70
     1
102
RTVSPropertyOp48
 70
     1
102
RTVSPropertyOp49
 70
     1
102
RTVSPropertyOp50
 70
     1
102
RTVSPropertyOp51
 70
     0
102
RTVSPropertyOp52
 70
     0
102
RTVSPropertyOp53
 70
     1
102
RTVSPropertyOp54
 70
     1
102
RTVSPropertyOp55
 70
     1
102
RTVSPropertyOp56
 70
     1
102
RTVSPropertyOp57
 70
     1
102
RTVSPropertyOp58
 70
     1
102
RTVSPropertyOp59
 70
     1
102
RTVSPropertyOp60
 70
     1
102
RTVSPropertyOp61
 70
     1
102
RTVSPropertyOp62
 70
     1
  0
XRECORD
  5
2530
102
{ACAD_REACTORS
330
252F
102
}
330
252F
100
AcDbXrecord
280
     1
102
RTVSPost2010Prop28
280
     0
102
RTVSPost2010PropOp28
 70
     1
102
RTVSPost2010Prop29
280
     1
102
RTVSPost2010PropOp29
 70
     1
102
RTVSPost2010Prop30
280
     1
102
RTVSPost2010PropOp30
 70
     1
102
RTVSPost2010Prop31
280
     0
102
RTVSPost2010PropOp31
 70
     1
102
RTVSPost2010Prop32
280
     0
102
RTVSPost2010PropOp32
 70
     1
102
RTVSPost2010Prop33
280
     0
102
RTVSPost2010PropOp33
 70
     1
102
RTVSPost2010Prop34
280
     0
102
RTVSPost2010PropOp34
 70
     1
102
RTVSPost2010Prop35
280
     0
102
RTVSPost2010PropOp35
 70
     1
102
RTVSPost2010Prop36
280
     0
102
RTVSPost2010PropOp36
 70
     1
102
RTVSPost2010Prop37
 90
       50
102
RTVSPost2010PropOp37
 70
     1
102
RTVSPost2010Prop38
140
0.0
102
RTVSPost2010PropOp38
 70
     1
102
RTVSPost2010Prop39
140
1.0
102
RTVSPost2010PropOp39
 70
     1
102
RTVSPost2010Prop40
 90
        0
102
RTVSPost2010PropOp40
 70
     1
102
RTVSPost2010Prop41ColorIndex
 90
       18
102
RTVSPost2010Prop41ColorRGB
 90
        0
102
RTVSPost2010PropOp41
 70
     1
102
RTVSPost2010Prop42
 90
       50
102
RTVSPost2010PropOp42
 70
     1
102
RTVSPost2010Prop43
 90
        3
102
RTVSPost2010PropOp43
 70
     1
102
RTVSPost2010Prop44ColorIndex
 90
        5
102
RTVSPost2010Prop44ColorRGB
 90
      255
102
RTVSPost2010PropOp44
 70
     1
102
RTVSPost2010Prop45
280
     0
102
RTVSPost2010PropOp45
 70
     1
102
RTVSPost2010Prop46
 90
       50
102
RTVSPost2010PropOp46
 70
     1
102
RTVSPost2010Prop47
 90
       50
102
RTVSPost2010PropOp47
 70
     1
102
RTVSPost2010Prop48
 90
       50
102
RTVSPost2010PropOp48
 70
     1
102
RTVSPost2010Prop49
280
     0
102
RTVSPost2010PropOp49
 70
     1
102
RTVSPost2010Prop50
 90
       50
102
RTVSPost2010PropOp50
 70
     1
102
RTVSPost2010Prop51ColorIndex
 90
      256
102
RTVSPost2010Prop51ColorRGB
 90
-16777216
102
RTVSPost2010PropOp51
 70
     0
102
RTVSPost2010Prop52
140
1.0
102
RTVSPost2010PropOp52
 70
     0
102
RTVSPost2010Prop53
 90
        2
102
RTVSPost2010PropOp53
 70
     1
102
RTVSPost2010Prop54
  1
strokes_ogs.tif
102
RTVSPost2010PropOp54
 70
     1
102
RTVSPost2010Prop55
280
     0
102
RTVSPost2010PropOp55
 70
     1
102
RTVSPost2010Prop56
140
1.0
102
RTVSPost2010PropOp56
 70
     1
102
RTVSPost2010Prop57
140
1.0
102
RTVSPost2010PropOp57
 70
     1
102
RTVSPropertyOp0
 70
     1
102
RTVSPropertyOp1
 70
     1
102
RTVSPropertyOp2
 70
     1
102
RTVSPropertyOp3
 70
     1
102
RTVSPropertyOp4
 70
     1
102
RTVSPropertyOp5
 70
     1
102
RTVSPropertyOp6
 70
     1
102
RTVSPropertyOp7
 70
     1
102
RTVSPropertyOp8
 70
     1
102
RTVSPropertyOp9
 70
     1
102
RTVSPropertyOp10
 70
     1
102
RTVSPropertyOp11
 70
     1
102
RTVSPropertyOp12
 70
     1
102
RTVSPropertyOp13
 70
     1
102
RTVSPropertyOp14
 70
     1
102
RTVSPropertyOp15
 70
     1
102
RTVSPropertyOp16
 70
     1
102
RTVSPropertyOp17
 70
     1
102
RTVSPropertyOp18
 70
     1
102
RTVSPropertyOp19
 70
     1
102
RTVSPropertyOp20
 70
     1
102
RTVSPropertyOp21
 70
     1
102
RTVSPropertyOp22
 70
     1
102
RTVSPropertyOp23
 70
     1
102
RTVSPropertyOp24
 70
     1
102
RTVSPropertyOp25
 70
     1
102
RTVSPropertyOp26
 70
     1
102
RTVSPropertyOp27
 70
     1
102
RTVSPropertyOp28
 70
     1
102
RTVSPropertyOp29
 70
     1
102
RTVSPropertyOp30
 70
     1
102
RTVSPropertyOp31
 70
     1
102
RTVSPropertyOp32
 70
     1
102
RTVSPropertyOp33
 70
     1
102
RTVSPropertyOp34
 70
     1
102
RTVSPropertyOp35
 70
     1
102
RTVSPropertyOp36
 70
     1
102
RTVSPropertyOp37
 70
     1
102
RTVSPropertyOp38
 70
     1
102
RTVSPropertyOp39
 70
     1
102
RTVSPropertyOp40
 70
     1
102
RTVSPropertyOp41
 70
     1
102
RTVSPropertyOp42
 70
     1
102
RTVSPropertyOp43
 70
     1
102
RTVSPropertyOp44
 70
     1
102
RTVSPropertyOp45
 70
     1
102
RTVSPropertyOp46
 70
     1
102
RTVSPropertyOp47
 70
     1
102
RTVSPropertyOp48
 70
     1
102
RTVSPropertyOp49
 70
     1
102
RTVSPropertyOp50
 70
     1
102
RTVSPropertyOp51
 70
     0
102
RTVSPropertyOp52
 70
     0
102
RTVSPropertyOp53
 70
     1
102
RTVSPropertyOp54
 70
     1
102
RTVSPropertyOp55
 70
     1
102
RTVSPropertyOp56
 70
     1
102
RTVSPropertyOp57
 70
     1
102
RTVSPropertyOp58
 70
     1
102
RTVSPropertyOp59
 70
     1
102
RTVSPropertyOp60
 70
     1
102
RTVSPropertyOp61
 70
     1
102
RTVSPropertyOp62
 70
     1
  0
XRECORD
  5
2522
102
{ACAD_REACTORS
330
2521
102
}
330
2521
100
AcDbXrecord
280
     1
102
RTVSPost2010Prop28
280
     0
102
RTVSPost2010PropOp28
 70
     1
102
RTVSPost2010Prop29
280
     1
102
RTVSPost2010PropOp29
 70
     1
102
RTVSPost2010Prop30
280
     1
102
RTVSPost2010PropOp30
 70
     1
102
RTVSPost2010Prop31
280
     0
102
RTVSPost2010PropOp31
 70
     1
102
RTVSPost2010Prop32
280
     0
102
RTVSPost2010PropOp32
 70
     1
102
RTVSPost2010Prop33
280
     0
102
RTVSPost2010PropOp33
 70
     1
102
RTVSPost2010Prop34
280
     0
102
RTVSPost2010PropOp34
 70
     1
102
RTVSPost2010Prop35
280
     0
102
RTVSPost2010PropOp35
 70
     1
102
RTVSPost2010Prop36
280
     0
102
RTVSPost2010PropOp36
 70
     1
102
RTVSPost2010Prop37
 90
       50
102
RTVSPost2010PropOp37
 70
     1
102
RTVSPost2010Prop38
140
0.0
102
RTVSPost2010PropOp38
 70
     1
102
RTVSPost2010Prop39
140
1.0
102
RTVSPost2010PropOp39
 70
     1
102
RTVSPost2010Prop40
 90
        0
102
RTVSPost2010PropOp40
 70
     1
102
RTVSPost2010Prop41ColorIndex
 90
       18
102
RTVSPost2010Prop41ColorRGB
 90
        0
102
RTVSPost2010PropOp41
 70
     1
102
RTVSPost2010Prop42
 90
       50
102
RTVSPost2010PropOp42
 70
     1
102
RTVSPost2010Prop43
 90
        3
102
RTVSPost2010PropOp43
 70
     1
102
RTVSPost2010Prop44ColorIndex
 90
        5
102
RTVSPost2010Prop44ColorRGB
 90
      255
102
RTVSPost2010PropOp44
 70
     1
102
RTVSPost2010Prop45
280
     0
102
RTVSPost2010PropOp45
 70
     1
102
RTVSPost2010Prop46
 90
       50
102
RTVSPost2010PropOp46
 70
     1
102
RTVSPost2010Prop47
 90
       50
102
RTVSPost2010PropOp47
 70
     1
102
RTVSPost2010Prop48
 90
       50
102
RTVSPost2010PropOp48
 70
     1
102
RTVSPost2010Prop49
280
     0
102
RTVSPost2010PropOp49
 70
     1
102
RTVSPost2010Prop50
 90
       50
102
RTVSPost2010PropOp50
 70
     1
102
RTVSPost2010Prop51ColorIndex
 90
      256
102
RTVSPost2010Prop51ColorRGB
 90
-16777216
102
RTVSPost2010PropOp51
 70
     0
102
RTVSPost2010Prop52
140
1.0
102
RTVSPost2010PropOp52
 70
     0
102
RTVSPost2010Prop53
 90
        2
102
RTVSPost2010PropOp53
 70
     1
102
RTVSPost2010Prop54
  1
strokes_ogs.tif
102
RTVSPost2010PropOp54
 70
     1
102
RTVSPost2010Prop55
280
     0
102
RTVSPost2010PropOp55
 70
     1
102
RTVSPost2010Prop56
140
1.0
102
RTVSPost2010PropOp56
 70
     1
102
RTVSPost2010Prop57
140
1.0
102
RTVSPost2010PropOp57
 70
     1
102
RTVSPropertyOp0
 70
     1
102
RTVSPropertyOp1
 70
     1
102
RTVSPropertyOp2
 70
     1
102
RTVSPropertyOp3
 70
     1
102
RTVSPropertyOp4
 70
     1
102
RTVSPropertyOp5
 70
     1
102
RTVSPropertyOp6
 70
     1
102
RTVSPropertyOp7
 70
     1
102
RTVSPropertyOp8
 70
     1
102
RTVSPropertyOp9
 70
     1
102
RTVSPropertyOp10
 70
     1
102
RTVSPropertyOp11
 70
     1
102
RTVSPropertyOp12
 70
     1
102
RTVSPropertyOp13
 70
     1
102
RTVSPropertyOp14
 70
     1
102
RTVSPropertyOp15
 70
     1
102
RTVSPropertyOp16
 70
     1
102
RTVSPropertyOp17
 70
     1
102
RTVSPropertyOp18
 70
     1
102
RTVSPropertyOp19
 70
     1
102
RTVSPropertyOp20
 70
     1
102
RTVSPropertyOp21
 70
     1
102
RTVSPropertyOp22
 70
     1
102
RTVSPropertyOp23
 70
     1
102
RTVSPropertyOp24
 70
     1
102
RTVSPropertyOp25
 70
     1
102
RTVSPropertyOp26
 70
     1
102
RTVSPropertyOp27
 70
     1
102
RTVSPropertyOp28
 70
     1
102
RTVSPropertyOp29
 70
     1
102
RTVSPropertyOp30
 70
     1
102
RTVSPropertyOp31
 70
     1
102
RTVSPropertyOp32
 70
     1
102
RTVSPropertyOp33
 70
     1
102
RTVSPropertyOp34
 70
     1
102
RTVSPropertyOp35
 70
     1
102
RTVSPropertyOp36
 70
     1
102
RTVSPropertyOp37
 70
     1
102
RTVSPropertyOp38
 70
     1
102
RTVSPropertyOp39
 70
     1
102
RTVSPropertyOp40
 70
     1
102
RTVSPropertyOp41
 70
     1
102
RTVSPropertyOp42
 70
     1
102
RTVSPropertyOp43
 70
     1
102
RTVSPropertyOp44
 70
     1
102
RTVSPropertyOp45
 70
     1
102
RTVSPropertyOp46
 70
     1
102
RTVSPropertyOp47
 70
     1
102
RTVSPropertyOp48
 70
     1
102
RTVSPropertyOp49
 70
     1
102
RTVSPropertyOp50
 70
     1
102
RTVSPropertyOp51
 70
     0
102
RTVSPropertyOp52
 70
     0
102
RTVSPropertyOp53
 70
     1
102
RTVSPropertyOp54
 70
     1
102
RTVSPropertyOp55
 70
     1
102
RTVSPropertyOp56
 70
     1
102
RTVSPropertyOp57
 70
     1
102
RTVSPropertyOp58
 70
     1
102
RTVSPropertyOp59
 70
     1
102
RTVSPropertyOp60
 70
     1
102
RTVSPropertyOp61
 70
     1
102
RTVSPropertyOp62
 70
     1
  0
XRECORD
  5
2526
102
{ACAD_REACTORS
330
2525
102
}
330
2525
100
AcDbXrecord
280
     1
102
RTVSPost2010Prop28
280
     0
102
RTVSPost2010PropOp28
 70
     1
102
RTVSPost2010Prop29
280
     1
102
RTVSPost2010PropOp29
 70
     1
102
RTVSPost2010Prop30
280
     1
102
RTVSPost2010PropOp30
 70
     1
102
RTVSPost2010Prop31
280
     0
102
RTVSPost2010PropOp31
 70
     1
102
RTVSPost2010Prop32
280
     0
102
RTVSPost2010PropOp32
 70
     1
102
RTVSPost2010Prop33
280
     0
102
RTVSPost2010PropOp33
 70
     1
102
RTVSPost2010Prop34
280
     0
102
RTVSPost2010PropOp34
 70
     1
102
RTVSPost2010Prop35
280
     0
102
RTVSPost2010PropOp35
 70
     1
102
RTVSPost2010Prop36
280
     0
102
RTVSPost2010PropOp36
 70
     1
102
RTVSPost2010Prop37
 90
       50
102
RTVSPost2010PropOp37
 70
     1
102
RTVSPost2010Prop38
140
0.0
102
RTVSPost2010PropOp38
 70
     1
102
RTVSPost2010Prop39
140
1.0
102
RTVSPost2010PropOp39
 70
     1
102
RTVSPost2010Prop40
 90
        0
102
RTVSPost2010PropOp40
 70
     1
102
RTVSPost2010Prop41ColorIndex
 90
       18
102
RTVSPost2010Prop41ColorRGB
 90
        0
102
RTVSPost2010PropOp41
 70
     1
102
RTVSPost2010Prop42
 90
       50
102
RTVSPost2010PropOp42
 70
     1
102
RTVSPost2010Prop43
 90
        3
102
RTVSPost2010PropOp43
 70
     1
102
RTVSPost2010Prop44ColorIndex
 90
        5
102
RTVSPost2010Prop44ColorRGB
 90
      255
102
RTVSPost2010PropOp44
 70
     1
102
RTVSPost2010Prop45
280
     0
102
RTVSPost2010PropOp45
 70
     1
102
RTVSPost2010Prop46
 90
       50
102
RTVSPost2010PropOp46
 70
     1
102
RTVSPost2010Prop47
 90
       50
102
RTVSPost2010PropOp47
 70
     1
102
RTVSPost2010Prop48
 90
       50
102
RTVSPost2010PropOp48
 70
     1
102
RTVSPost2010Prop49
280
     0
102
RTVSPost2010PropOp49
 70
     1
102
RTVSPost2010Prop50
 90
       50
102
RTVSPost2010PropOp50
 70
     1
102
RTVSPost2010Prop51ColorIndex
 90
      256
102
RTVSPost2010Prop51ColorRGB
 90
-16777216
102
RTVSPost2010PropOp51
 70
     0
102
RTVSPost2010Prop52
140
1.0
102
RTVSPost2010PropOp52
 70
     0
102
RTVSPost2010Prop53
 90
        2
102
RTVSPost2010PropOp53
 70
     1
102
RTVSPost2010Prop54
  1
strokes_ogs.tif
102
RTVSPost2010PropOp54
 70
     1
102
RTVSPost2010Prop55
280
     0
102
RTVSPost2010PropOp55
 70
     1
102
RTVSPost2010Prop56
140
1.0
102
RTVSPost2010PropOp56
 70
     1
102
RTVSPost2010Prop57
140
1.0
102
RTVSPost2010PropOp57
 70
     1
102
RTVSPropertyOp0
 70
     1
102
RTVSPropertyOp1
 70
     1
102
RTVSPropertyOp2
 70
     1
102
RTVSPropertyOp3
 70
     1
102
RTVSPropertyOp4
 70
     1
102
RTVSPropertyOp5
 70
     1
102
RTVSPropertyOp6
 70
     1
102
RTVSPropertyOp7
 70
     1
102
RTVSPropertyOp8
 70
     1
102
RTVSPropertyOp9
 70
     1
102
RTVSPropertyOp10
 70
     1
102
RTVSPropertyOp11
 70
     1
102
RTVSPropertyOp12
 70
     1
102
RTVSPropertyOp13
 70
     1
102
RTVSPropertyOp14
 70
     1
102
RTVSPropertyOp15
 70
     1
102
RTVSPropertyOp16
 70
     1
102
RTVSPropertyOp17
 70
     1
102
RTVSPropertyOp18
 70
     1
102
RTVSPropertyOp19
 70
     1
102
RTVSPropertyOp20
 70
     1
102
RTVSPropertyOp21
 70
     1
102
RTVSPropertyOp22
 70
     1
102
RTVSPropertyOp23
 70
     1
102
RTVSPropertyOp24
 70
     1
102
RTVSPropertyOp25
 70
     1
102
RTVSPropertyOp26
 70
     1
102
RTVSPropertyOp27
 70
     1
102
RTVSPropertyOp28
 70
     1
102
RTVSPropertyOp29
 70
     1
102
RTVSPropertyOp30
 70
     1
102
RTVSPropertyOp31
 70
     1
102
RTVSPropertyOp32
 70
     1
102
RTVSPropertyOp33
 70
     1
102
RTVSPropertyOp34
 70
     1
102
RTVSPropertyOp35
 70
     1
102
RTVSPropertyOp36
 70
     1
102
RTVSPropertyOp37
 70
     1
102
RTVSPropertyOp38
 70
     1
102
RTVSPropertyOp39
 70
     1
102
RTVSPropertyOp40
 70
     1
102
RTVSPropertyOp41
 70
     1
102
RTVSPropertyOp42
 70
     1
102
RTVSPropertyOp43
 70
     1
102
RTVSPropertyOp44
 70
     1
102
RTVSPropertyOp45
 70
     1
102
RTVSPropertyOp46
 70
     1
102
RTVSPropertyOp47
 70
     1
102
RTVSPropertyOp48
 70
     1
102
RTVSPropertyOp49
 70
     1
102
RTVSPropertyOp50
 70
     1
102
RTVSPropertyOp51
 70
     0
102
RTVSPropertyOp52
 70
     0
102
RTVSPropertyOp53
 70
     1
102
RTVSPropertyOp54
 70
     1
102
RTVSPropertyOp55
 70
     1
102
RTVSPropertyOp56
 70
     1
102
RTVSPropertyOp57
 70
     1
102
RTVSPropertyOp58
 70
     1
102
RTVSPropertyOp59
 70
     1
102
RTVSPropertyOp60
 70
     1
102
RTVSPropertyOp61
 70
     1
102
RTVSPropertyOp62
 70
     1
  0
XRECORD
  5
2540
102
{ACAD_REACTORS
330
253F
102
}
330
253F
100
AcDbXrecord
280
     1
102
RTVSPost2010Prop28
280
     0
102
RTVSPost2010PropOp28
 70
     1
102
RTVSPost2010Prop29
280
     1
102
RTVSPost2010PropOp29
 70
     1
102
RTVSPost2010Prop30
280
     1
102
RTVSPost2010PropOp30
 70
     1
102
RTVSPost2010Prop31
280
     0
102
RTVSPost2010PropOp31
 70
     1
102
RTVSPost2010Prop32
280
     0
102
RTVSPost2010PropOp32
 70
     1
102
RTVSPost2010Prop33
280
     0
102
RTVSPost2010PropOp33
 70
     1
102
RTVSPost2010Prop34
280
     0
102
RTVSPost2010PropOp34
 70
     1
102
RTVSPost2010Prop35
280
     0
102
RTVSPost2010PropOp35
 70
     1
102
RTVSPost2010Prop36
280
     0
102
RTVSPost2010PropOp36
 70
     1
102
RTVSPost2010Prop37
 90
       50
102
RTVSPost2010PropOp37
 70
     0
102
RTVSPost2010Prop38
140
0.0
102
RTVSPost2010PropOp38
 70
     0
102
RTVSPost2010Prop39
140
1.0
102
RTVSPost2010PropOp39
 70
     0
102
RTVSPost2010Prop40
 90
        0
102
RTVSPost2010PropOp40
 70
     0
102
RTVSPost2010Prop41ColorIndex
 90
       18
102
RTVSPost2010Prop41ColorRGB
 90
        0
102
RTVSPost2010PropOp41
 70
     0
102
RTVSPost2010Prop42
 90
       50
102
RTVSPost2010PropOp42
 70
     0
102
RTVSPost2010Prop43
 90
        3
102
RTVSPost2010PropOp43
 70
     0
102
RTVSPost2010Prop44ColorIndex
 90
        5
102
RTVSPost2010Prop44ColorRGB
 90
      255
102
RTVSPost2010PropOp44
 70
     0
102
RTVSPost2010Prop45
280
     0
102
RTVSPost2010PropOp45
 70
     1
102
RTVSPost2010Prop46
 90
       50
102
RTVSPost2010PropOp46
 70
     0
102
RTVSPost2010Prop47
 90
       50
102
RTVSPost2010PropOp47
 70
     0
102
RTVSPost2010Prop48
 90
       50
102
RTVSPost2010PropOp48
 70
     0
102
RTVSPost2010Prop49
280
     0
102
RTVSPost2010PropOp49
 70
     1
102
RTVSPost2010Prop50
 90
       50
102
RTVSPost2010PropOp50
 70
     0
102
RTVSPost2010Prop51ColorIndex
 90
      256
102
RTVSPost2010Prop51ColorRGB
 90
-16777216
102
RTVSPost2010PropOp51
 70
     0
102
RTVSPost2010Prop52
140
1.0
102
RTVSPost2010PropOp52
 70
     0
102
RTVSPost2010Prop53
 90
        2
102
RTVSPost2010PropOp53
 70
     0
102
RTVSPost2010Prop54
  1
strokes_ogs.tif
102
RTVSPost2010PropOp54
 70
     0
102
RTVSPost2010Prop55
280
     0
102
RTVSPost2010PropOp55
 70
     1
102
RTVSPost2010Prop56
140
1.0
102
RTVSPost2010PropOp56
 70
     0
102
RTVSPost2010Prop57
140
1.0
102
RTVSPost2010PropOp57
 70
     0
102
RTVSPropertyOp0
 70
     0
102
RTVSPropertyOp1
 70
     0
102
RTVSPropertyOp2
 70
     0
102
RTVSPropertyOp3
 70
     0
102
RTVSPropertyOp4
 70
     0
102
RTVSPropertyOp5
 70
     0
102
RTVSPropertyOp6
 70
     0
102
RTVSPropertyOp7
 70
     0
102
RTVSPropertyOp8
 70
     0
102
RTVSPropertyOp9
 70
     0
102
RTVSPropertyOp10
 70
     0
102
RTVSPropertyOp11
 70
     0
102
RTVSPropertyOp12
 70
     0
102
RTVSPropertyOp13
 70
     0
102
RTVSPropertyOp14
 70
     2
102
RTVSPropertyOp15
 70
     0
102
RTVSPropertyOp16
 70
     0
102
RTVSPropertyOp17
 70
     0
102
RTVSPropertyOp18
 70
     0
102
RTVSPropertyOp19
 70
     0
102
RTVSPropertyOp20
 70
     0
102
RTVSPropertyOp21
 70
     0
102
RTVSPropertyOp22
 70
     0
102
RTVSPropertyOp23
 70
     0
102
RTVSPropertyOp24
 70
     0
102
RTVSPropertyOp25
 70
     0
102
RTVSPropertyOp26
 70
     0
102
RTVSPropertyOp27
 70
     0
102
RTVSPropertyOp28
 70
     1
102
RTVSPropertyOp29
 70
     1
102
RTVSPropertyOp30
 70
     1
102
RTVSPropertyOp31
 70
     1
102
RTVSPropertyOp32
 70
     1
102
RTVSPropertyOp33
 70
     1
102
RTVSPropertyOp34
 70
     1
102
RTVSPropertyOp35
 70
     1
102
RTVSPropertyOp36
 70
     1
102
RTVSPropertyOp37
 70
     0
102
RTVSPropertyOp38
 70
     0
102
RTVSPropertyOp39
 70
     0
102
RTVSPropertyOp40
 70
     0
102
RTVSPropertyOp41
 70
     0
102
RTVSPropertyOp42
 70
     0
102
RTVSPropertyOp43
 70
     0
102
RTVSPropertyOp44
 70
     0
102
RTVSPropertyOp45
 70
     1
102
RTVSPropertyOp46
 70
     0
102
RTVSPropertyOp47
 70
     0
102
RTVSPropertyOp48
 70
     0
102
RTVSPropertyOp49
 70
     1
102
RTVSPropertyOp50
 70
     0
102
RTVSPropertyOp51
 70
     0
102
RTVSPropertyOp52
 70
     0
102
RTVSPropertyOp53
 70
     0
102
RTVSPropertyOp54
 70
     0
102
RTVSPropertyOp55
 70
     1
102
RTVSPropertyOp56
 70
     0
102
RTVSPropertyOp57
 70
     0
102
RTVSPropertyOp58
 70
     0
102
RTVSPropertyOp59
 70
     0
102
RTVSPropertyOp60
 70
     0
102
RTVSPropertyOp61
 70
     0
102
RTVSPropertyOp62
 70
     0
  0
XRECORD
  5
252E
102
{ACAD_REACTORS
330
252D
102
}
330
252D
100
AcDbXrecord
280
     1
102
RTVSPost2010Prop28
280
     0
102
RTVSPost2010PropOp28
 70
     1
102
RTVSPost2010Prop29
280
     1
102
RTVSPost2010PropOp29
 70
     1
102
RTVSPost2010Prop30
280
     1
102
RTVSPost2010PropOp30
 70
     1
102
RTVSPost2010Prop31
280
     0
102
RTVSPost2010PropOp31
 70
     1
102
RTVSPost2010Prop32
280
     0
102
RTVSPost2010PropOp32
 70
     1
102
RTVSPost2010Prop33
280
     0
102
RTVSPost2010PropOp33
 70
     1
102
RTVSPost2010Prop34
280
     0
102
RTVSPost2010PropOp34
 70
     1
102
RTVSPost2010Prop35
280
     0
102
RTVSPost2010PropOp35
 70
     1
102
RTVSPost2010Prop36
280
     0
102
RTVSPost2010PropOp36
 70
     1
102
RTVSPost2010Prop37
 90
       50
102
RTVSPost2010PropOp37
 70
     1
102
RTVSPost2010Prop38
140
0.0
102
RTVSPost2010PropOp38
 70
     1
102
RTVSPost2010Prop39
140
1.0
102
RTVSPost2010PropOp39
 70
     1
102
RTVSPost2010Prop40
 90
        0
102
RTVSPost2010PropOp40
 70
     1
102
RTVSPost2010Prop41ColorIndex
 90
       18
102
RTVSPost2010Prop41ColorRGB
 90
        0
102
RTVSPost2010PropOp41
 70
     1
102
RTVSPost2010Prop42
 90
       50
102
RTVSPost2010PropOp42
 70
     1
102
RTVSPost2010Prop43
 90
        3
102
RTVSPost2010PropOp43
 70
     1
102
RTVSPost2010Prop44ColorIndex
 90
        5
102
RTVSPost2010Prop44ColorRGB
 90
      255
102
RTVSPost2010PropOp44
 70
     1
102
RTVSPost2010Prop45
280
     0
102
RTVSPost2010PropOp45
 70
     1
102
RTVSPost2010Prop46
 90
       50
102
RTVSPost2010PropOp46
 70
     1
102
RTVSPost2010Prop47
 90
       50
102
RTVSPost2010PropOp47
 70
     1
102
RTVSPost2010Prop48
 90
       50
102
RTVSPost2010PropOp48
 70
     1
102
RTVSPost2010Prop49
280
     0
102
RTVSPost2010PropOp49
 70
     1
102
RTVSPost2010Prop50
 90
       50
102
RTVSPost2010PropOp50
 70
     1
102
RTVSPost2010Prop51ColorIndex
 90
      256
102
RTVSPost2010Prop51ColorRGB
 90
-16777216
102
RTVSPost2010PropOp51
 70
     0
102
RTVSPost2010Prop52
140
1.0
102
RTVSPost2010PropOp52
 70
     0
102
RTVSPost2010Prop53
 90
        2
102
RTVSPost2010PropOp53
 70
     1
102
RTVSPost2010Prop54
  1
strokes_ogs.tif
102
RTVSPost2010PropOp54
 70
     1
102
RTVSPost2010Prop55
280
     0
102
RTVSPost2010PropOp55
 70
     1
102
RTVSPost2010Prop56
140
1.0
102
RTVSPost2010PropOp56
 70
     1
102
RTVSPost2010Prop57
140
1.0
102
RTVSPost2010PropOp57
 70
     1
102
RTVSPropertyOp0
 70
     1
102
RTVSPropertyOp1
 70
     1
102
RTVSPropertyOp2
 70
     1
102
RTVSPropertyOp3
 70
     1
102
RTVSPropertyOp4
 70
     1
102
RTVSPropertyOp5
 70
     1
102
RTVSPropertyOp6
 70
     1
102
RTVSPropertyOp7
 70
     1
102
RTVSPropertyOp8
 70
     1
102
RTVSPropertyOp9
 70
     1
102
RTVSPropertyOp10
 70
     1
102
RTVSPropertyOp11
 70
     1
102
RTVSPropertyOp12
 70
     1
102
RTVSPropertyOp13
 70
     1
102
RTVSPropertyOp14
 70
     1
102
RTVSPropertyOp15
 70
     1
102
RTVSPropertyOp16
 70
     1
102
RTVSPropertyOp17
 70
     1
102
RTVSPropertyOp18
 70
     1
102
RTVSPropertyOp19
 70
     1
102
RTVSPropertyOp20
 70
     1
102
RTVSPropertyOp21
 70
     1
102
RTVSPropertyOp22
 70
     1
102
RTVSPropertyOp23
 70
     1
102
RTVSPropertyOp24
 70
     1
102
RTVSPropertyOp25
 70
     1
102
RTVSPropertyOp26
 70
     1
102
RTVSPropertyOp27
 70
     1
102
RTVSPropertyOp28
 70
     1
102
RTVSPropertyOp29
 70
     1
102
RTVSPropertyOp30
 70
     1
102
RTVSPropertyOp31
 70
     1
102
RTVSPropertyOp32
 70
     1
102
RTVSPropertyOp33
 70
     1
102
RTVSPropertyOp34
 70
     1
102
RTVSPropertyOp35
 70
     1
102
RTVSPropertyOp36
 70
     1
102
RTVSPropertyOp37
 70
     1
102
RTVSPropertyOp38
 70
     1
102
RTVSPropertyOp39
 70
     1
102
RTVSPropertyOp40
 70
     1
102
RTVSPropertyOp41
 70
     1
102
RTVSPropertyOp42
 70
     1
102
RTVSPropertyOp43
 70
     1
102
RTVSPropertyOp44
 70
     1
102
RTVSPropertyOp45
 70
     1
102
RTVSPropertyOp46
 70
     1
102
RTVSPropertyOp47
 70
     1
102
RTVSPropertyOp48
 70
     1
102
RTVSPropertyOp49
 70
     1
102
RTVSPropertyOp50
 70
     1
102
RTVSPropertyOp51
 70
     0
102
RTVSPropertyOp52
 70
     0
102
RTVSPropertyOp53
 70
     1
102
RTVSPropertyOp54
 70
     1
102
RTVSPropertyOp55
 70
     1
102
RTVSPropertyOp56
 70
     1
102
RTVSPropertyOp57
 70
     1
102
RTVSPropertyOp58
 70
     1
102
RTVSPropertyOp59
 70
     1
102
RTVSPropertyOp60
 70
     1
102
RTVSPropertyOp61
 70
     1
102
RTVSPropertyOp62
 70
     1
  0
XRECORD
  5
2512
102
{ACAD_REACTORS
330
2511
102
}
330
2511
100
AcDbXrecord
280
     1
102
RTVSPost2010Prop28
280
     0
102
RTVSPost2010PropOp28
 70
     1
102
RTVSPost2010Prop29
280
     1
102
RTVSPost2010PropOp29
 70
     1
102
RTVSPost2010Prop30
280
     1
102
RTVSPost2010PropOp30
 70
     1
102
RTVSPost2010Prop31
280
     0
102
RTVSPost2010PropOp31
 70
     1
102
RTVSPost2010Prop32
280
     0
102
RTVSPost2010PropOp32
 70
     1
102
RTVSPost2010Prop33
280
     0
102
RTVSPost2010PropOp33
 70
     1
102
RTVSPost2010Prop34
280
     0
102
RTVSPost2010PropOp34
 70
     1
102
RTVSPost2010Prop35
280
     0
102
RTVSPost2010PropOp35
 70
     1
102
RTVSPost2010Prop36
280
     0
102
RTVSPost2010PropOp36
 70
     1
102
RTVSPost2010Prop37
 90
       50
102
RTVSPost2010PropOp37
 70
     1
102
RTVSPost2010Prop38
140
0.0
102
RTVSPost2010PropOp38
 70
     1
102
RTVSPost2010Prop39
140
1.0
102
RTVSPost2010PropOp39
 70
     1
102
RTVSPost2010Prop40
 90
        0
102
RTVSPost2010PropOp40
 70
     1
102
RTVSPost2010Prop41ColorIndex
 90
       18
102
RTVSPost2010Prop41ColorRGB
 90
        0
102
RTVSPost2010PropOp41
 70
     1
102
RTVSPost2010Prop42
 90
       50
102
RTVSPost2010PropOp42
 70
     1
102
RTVSPost2010Prop43
 90
        3
102
RTVSPost2010PropOp43
 70
     1
102
RTVSPost2010Prop44ColorIndex
 90
        5
102
RTVSPost2010Prop44ColorRGB
 90
      255
102
RTVSPost2010PropOp44
 70
     1
102
RTVSPost2010Prop45
280
     0
102
RTVSPost2010PropOp45
 70
     1
102
RTVSPost2010Prop46
 90
       50
102
RTVSPost2010PropOp46
 70
     1
102
RTVSPost2010Prop47
 90
       50
102
RTVSPost2010PropOp47
 70
     1
102
RTVSPost2010Prop48
 90
       50
102
RTVSPost2010PropOp48
 70
     1
102
RTVSPost2010Prop49
280
     0
102
RTVSPost2010PropOp49
 70
     1
102
RTVSPost2010Prop50
 90
       50
102
RTVSPost2010PropOp50
 70
     1
102
RTVSPost2010Prop51ColorIndex
 90
      256
102
RTVSPost2010Prop51ColorRGB
 90
-16777216
102
RTVSPost2010PropOp51
 70
     0
102
RTVSPost2010Prop52
140
1.0
102
RTVSPost2010PropOp52
 70
     0
102
RTVSPost2010Prop53
 90
        2
102
RTVSPost2010PropOp53
 70
     1
102
RTVSPost2010Prop54
  1
strokes_ogs.tif
102
RTVSPost2010PropOp54
 70
     1
102
RTVSPost2010Prop55
280
     0
102
RTVSPost2010PropOp55
 70
     1
102
RTVSPost2010Prop56
140
1.0
102
RTVSPost2010PropOp56
 70
     1
102
RTVSPost2010Prop57
140
1.0
102
RTVSPost2010PropOp57
 70
     1
102
RTVSPropertyOp0
 70
     1
102
RTVSPropertyOp1
 70
     1
102
RTVSPropertyOp2
 70
     1
102
RTVSPropertyOp3
 70
     1
102
RTVSPropertyOp4
 70
     1
102
RTVSPropertyOp5
 70
     1
102
RTVSPropertyOp6
 70
     1
102
RTVSPropertyOp7
 70
     1
102
RTVSPropertyOp8
 70
     1
102
RTVSPropertyOp9
 70
     1
102
RTVSPropertyOp10
 70
     1
102
RTVSPropertyOp11
 70
     1
102
RTVSPropertyOp12
 70
     1
102
RTVSPropertyOp13
 70
     1
102
RTVSPropertyOp14
 70
     1
102
RTVSPropertyOp15
 70
     1
102
RTVSPropertyOp16
 70
     1
102
RTVSPropertyOp17
 70
     1
102
RTVSPropertyOp18
 70
     1
102
RTVSPropertyOp19
 70
     1
102
RTVSPropertyOp20
 70
     1
102
RTVSPropertyOp21
 70
     1
102
RTVSPropertyOp22
 70
     1
102
RTVSPropertyOp23
 70
     1
102
RTVSPropertyOp24
 70
     1
102
RTVSPropertyOp25
 70
     1
102
RTVSPropertyOp26
 70
     1
102
RTVSPropertyOp27
 70
     1
102
RTVSPropertyOp28
 70
     1
102
RTVSPropertyOp29
 70
     1
102
RTVSPropertyOp30
 70
     1
102
RTVSPropertyOp31
 70
     1
102
RTVSPropertyOp32
 70
     1
102
RTVSPropertyOp33
 70
     1
102
RTVSPropertyOp34
 70
     1
102
RTVSPropertyOp35
 70
     1
102
RTVSPropertyOp36
 70
     1
102
RTVSPropertyOp37
 70
     1
102
RTVSPropertyOp38
 70
     1
102
RTVSPropertyOp39
 70
     1
102
RTVSPropertyOp40
 70
     1
102
RTVSPropertyOp41
 70
     1
102
RTVSPropertyOp42
 70
     1
102
RTVSPropertyOp43
 70
     1
102
RTVSPropertyOp44
 70
     1
102
RTVSPropertyOp45
 70
     1
102
RTVSPropertyOp46
 70
     1
102
RTVSPropertyOp47
 70
     1
102
RTVSPropertyOp48
 70
     1
102
RTVSPropertyOp49
 70
     1
102
RTVSPropertyOp50
 70
     1
102
RTVSPropertyOp51
 70
     0
102
RTVSPropertyOp52
 70
     0
102
RTVSPropertyOp53
 70
     1
102
RTVSPropertyOp54
 70
     1
102
RTVSPropertyOp55
 70
     1
102
RTVSPropertyOp56
 70
     1
102
RTVSPropertyOp57
 70
     1
102
RTVSPropertyOp58
 70
     1
102
RTVSPropertyOp59
 70
     1
102
RTVSPropertyOp60
 70
     1
102
RTVSPropertyOp61
 70
     1
102
RTVSPropertyOp62
 70
     1
  0
XRECORD
  5
2514
102
{ACAD_REACTORS
330
2513
102
}
330
2513
100
AcDbXrecord
280
     1
102
RTVSPost2010Prop28
280
     0
102
RTVSPost2010PropOp28
 70
     1
102
RTVSPost2010Prop29
280
     1
102
RTVSPost2010PropOp29
 70
     1
102
RTVSPost2010Prop30
280
     1
102
RTVSPost2010PropOp30
 70
     1
102
RTVSPost2010Prop31
280
     0
102
RTVSPost2010PropOp31
 70
     1
102
RTVSPost2010Prop32
280
     0
102
RTVSPost2010PropOp32
 70
     1
102
RTVSPost2010Prop33
280
     0
102
RTVSPost2010PropOp33
 70
     1
102
RTVSPost2010Prop34
280
     0
102
RTVSPost2010PropOp34
 70
     1
102
RTVSPost2010Prop35
280
     0
102
RTVSPost2010PropOp35
 70
     1
102
RTVSPost2010Prop36
280
     0
102
RTVSPost2010PropOp36
 70
     1
102
RTVSPost2010Prop37
 90
       50
102
RTVSPost2010PropOp37
 70
     1
102
RTVSPost2010Prop38
140
0.0
102
RTVSPost2010PropOp38
 70
     1
102
RTVSPost2010Prop39
140
1.0
102
RTVSPost2010PropOp39
 70
     1
102
RTVSPost2010Prop40
 90
        0
102
RTVSPost2010PropOp40
 70
     1
102
RTVSPost2010Prop41ColorIndex
 90
       18
102
RTVSPost2010Prop41ColorRGB
 90
        0
102
RTVSPost2010PropOp41
 70
     1
102
RTVSPost2010Prop42
 90
       50
102
RTVSPost2010PropOp42
 70
     1
102
RTVSPost2010Prop43
 90
        3
102
RTVSPost2010PropOp43
 70
     1
102
RTVSPost2010Prop44ColorIndex
 90
        5
102
RTVSPost2010Prop44ColorRGB
 90
      255
102
RTVSPost2010PropOp44
 70
     1
102
RTVSPost2010Prop45
280
     0
102
RTVSPost2010PropOp45
 70
     1
102
RTVSPost2010Prop46
 90
       50
102
RTVSPost2010PropOp46
 70
     1
102
RTVSPost2010Prop47
 90
       50
102
RTVSPost2010PropOp47
 70
     1
102
RTVSPost2010Prop48
 90
       50
102
RTVSPost2010PropOp48
 70
     1
102
RTVSPost2010Prop49
280
     0
102
RTVSPost2010PropOp49
 70
     1
102
RTVSPost2010Prop50
 90
       50
102
RTVSPost2010PropOp50
 70
     1
102
RTVSPost2010Prop51ColorIndex
 90
      256
102
RTVSPost2010Prop51ColorRGB
 90
-16777216
102
RTVSPost2010PropOp51
 70
     0
102
RTVSPost2010Prop52
140
1.0
102
RTVSPost2010PropOp52
 70
     0
102
RTVSPost2010Prop53
 90
        2
102
RTVSPost2010PropOp53
 70
     1
102
RTVSPost2010Prop54
  1
strokes_ogs.tif
102
RTVSPost2010PropOp54
 70
     1
102
RTVSPost2010Prop55
280
     0
102
RTVSPost2010PropOp55
 70
     1
102
RTVSPost2010Prop56
140
1.0
102
RTVSPost2010PropOp56
 70
     1
102
RTVSPost2010Prop57
140
1.0
102
RTVSPost2010PropOp57
 70
     1
102
RTVSPropertyOp0
 70
     1
102
RTVSPropertyOp1
 70
     1
102
RTVSPropertyOp2
 70
     1
102
RTVSPropertyOp3
 70
     1
102
RTVSPropertyOp4
 70
     1
102
RTVSPropertyOp5
 70
     1
102
RTVSPropertyOp6
 70
     1
102
RTVSPropertyOp7
 70
     1
102
RTVSPropertyOp8
 70
     1
102
RTVSPropertyOp9
 70
     1
102
RTVSPropertyOp10
 70
     1
102
RTVSPropertyOp11
 70
     1
102
RTVSPropertyOp12
 70
     1
102
RTVSPropertyOp13
 70
     1
102
RTVSPropertyOp14
 70
     1
102
RTVSPropertyOp15
 70
     1
102
RTVSPropertyOp16
 70
     1
102
RTVSPropertyOp17
 70
     1
102
RTVSPropertyOp18
 70
     1
102
RTVSPropertyOp19
 70
     1
102
RTVSPropertyOp20
 70
     1
102
RTVSPropertyOp21
 70
     1
102
RTVSPropertyOp22
 70
     1
102
RTVSPropertyOp23
 70
     1
102
RTVSPropertyOp24
 70
     1
102
RTVSPropertyOp25
 70
     1
102
RTVSPropertyOp26
 70
     1
102
RTVSPropertyOp27
 70
     1
102
RTVSPropertyOp28
 70
     1
102
RTVSPropertyOp29
 70
     1
102
RTVSPropertyOp30
 70
     1
102
RTVSPropertyOp31
 70
     1
102
RTVSPropertyOp32
 70
     1
102
RTVSPropertyOp33
 70
     1
102
RTVSPropertyOp34
 70
     1
102
RTVSPropertyOp35
 70
     1
102
RTVSPropertyOp36
 70
     1
102
RTVSPropertyOp37
 70
     1
102
RTVSPropertyOp38
 70
     1
102
RTVSPropertyOp39
 70
     1
102
RTVSPropertyOp40
 70
     1
102
RTVSPropertyOp41
 70
     1
102
RTVSPropertyOp42
 70
     1
102
RTVSPropertyOp43
 70
     1
102
RTVSPropertyOp44
 70
     1
102
RTVSPropertyOp45
 70
     1
102
RTVSPropertyOp46
 70
     1
102
RTVSPropertyOp47
 70
     1
102
RTVSPropertyOp48
 70
     1
102
RTVSPropertyOp49
 70
     1
102
RTVSPropertyOp50
 70
     1
102
RTVSPropertyOp51
 70
     0
102
RTVSPropertyOp52
 70
     0
102
RTVSPropertyOp53
 70
     1
102
RTVSPropertyOp54
 70
     1
102
RTVSPropertyOp55
 70
     1
102
RTVSPropertyOp56
 70
     1
102
RTVSPropertyOp57
 70
     1
102
RTVSPropertyOp58
 70
     1
102
RTVSPropertyOp59
 70
     1
102
RTVSPropertyOp60
 70
     1
102
RTVSPropertyOp61
 70
     1
102
RTVSPropertyOp62
 70
     1
  0
XRECORD
  5
2516
102
{ACAD_REACTORS
330
2515
102
}
330
2515
100
AcDbXrecord
280
     1
102
RTVSPost2010Prop28
280
     0
102
RTVSPost2010PropOp28
 70
     1
102
RTVSPost2010Prop29
280
     1
102
RTVSPost2010PropOp29
 70
     1
102
RTVSPost2010Prop30
280
     1
102
RTVSPost2010PropOp30
 70
     1
102
RTVSPost2010Prop31
280
     0
102
RTVSPost2010PropOp31
 70
     1
102
RTVSPost2010Prop32
280
     0
102
RTVSPost2010PropOp32
 70
     1
102
RTVSPost2010Prop33
280
     0
102
RTVSPost2010PropOp33
 70
     1
102
RTVSPost2010Prop34
280
     0
102
RTVSPost2010PropOp34
 70
     1
102
RTVSPost2010Prop35
280
     0
102
RTVSPost2010PropOp35
 70
     1
102
RTVSPost2010Prop36
280
     0
102
RTVSPost2010PropOp36
 70
     1
102
RTVSPost2010Prop37
 90
       50
102
RTVSPost2010PropOp37
 70
     1
102
RTVSPost2010Prop38
140
0.0
102
RTVSPost2010PropOp38
 70
     1
102
RTVSPost2010Prop39
140
1.0
102
RTVSPost2010PropOp39
 70
     1
102
RTVSPost2010Prop40
 90
        0
102
RTVSPost2010PropOp40
 70
     1
102
RTVSPost2010Prop41ColorIndex
 90
       18
102
RTVSPost2010Prop41ColorRGB
 90
        0
102
RTVSPost2010PropOp41
 70
     1
102
RTVSPost2010Prop42
 90
       50
102
RTVSPost2010PropOp42
 70
     1
102
RTVSPost2010Prop43
 90
        3
102
RTVSPost2010PropOp43
 70
     1
102
RTVSPost2010Prop44ColorIndex
 90
        5
102
RTVSPost2010Prop44ColorRGB
 90
      255
102
RTVSPost2010PropOp44
 70
     1
102
RTVSPost2010Prop45
280
     0
102
RTVSPost2010PropOp45
 70
     1
102
RTVSPost2010Prop46
 90
       50
102
RTVSPost2010PropOp46
 70
     1
102
RTVSPost2010Prop47
 90
       50
102
RTVSPost2010PropOp47
 70
     1
102
RTVSPost2010Prop48
 90
       50
102
RTVSPost2010PropOp48
 70
     1
102
RTVSPost2010Prop49
280
     0
102
RTVSPost2010PropOp49
 70
     1
102
RTVSPost2010Prop50
 90
       50
102
RTVSPost2010PropOp50
 70
     1
102
RTVSPost2010Prop51ColorIndex
 90
      256
102
RTVSPost2010Prop51ColorRGB
 90
-16777216
102
RTVSPost2010PropOp51
 70
     0
102
RTVSPost2010Prop52
140
1.0
102
RTVSPost2010PropOp52
 70
     0
102
RTVSPost2010Prop53
 90
        2
102
RTVSPost2010PropOp53
 70
     1
102
RTVSPost2010Prop54
  1
strokes_ogs.tif
102
RTVSPost2010PropOp54
 70
     1
102
RTVSPost2010Prop55
280
     0
102
RTVSPost2010PropOp55
 70
     1
102
RTVSPost2010Prop56
140
1.0
102
RTVSPost2010PropOp56
 70
     1
102
RTVSPost2010Prop57
140
1.0
102
RTVSPost2010PropOp57
 70
     1
102
RTVSPropertyOp0
 70
     1
102
RTVSPropertyOp1
 70
     1
102
RTVSPropertyOp2
 70
     1
102
RTVSPropertyOp3
 70
     1
102
RTVSPropertyOp4
 70
     1
102
RTVSPropertyOp5
 70
     1
102
RTVSPropertyOp6
 70
     1
102
RTVSPropertyOp7
 70
     1
102
RTVSPropertyOp8
 70
     1
102
RTVSPropertyOp9
 70
     1
102
RTVSPropertyOp10
 70
     1
102
RTVSPropertyOp11
 70
     1
102
RTVSPropertyOp12
 70
     1
102
RTVSPropertyOp13
 70
     1
102
RTVSPropertyOp14
 70
     1
102
RTVSPropertyOp15
 70
     1
102
RTVSPropertyOp16
 70
     1
102
RTVSPropertyOp17
 70
     1
102
RTVSPropertyOp18
 70
     1
102
RTVSPropertyOp19
 70
     1
102
RTVSPropertyOp20
 70
     1
102
RTVSPropertyOp21
 70
     1
102
RTVSPropertyOp22
 70
     1
102
RTVSPropertyOp23
 70
     1
102
RTVSPropertyOp24
 70
     1
102
RTVSPropertyOp25
 70
     1
102
RTVSPropertyOp26
 70
     1
102
RTVSPropertyOp27
 70
     1
102
RTVSPropertyOp28
 70
     1
102
RTVSPropertyOp29
 70
     1
102
RTVSPropertyOp30
 70
     1
102
RTVSPropertyOp31
 70
     1
102
RTVSPropertyOp32
 70
     1
102
RTVSPropertyOp33
 70
     1
102
RTVSPropertyOp34
 70
     1
102
RTVSPropertyOp35
 70
     1
102
RTVSPropertyOp36
 70
     1
102
RTVSPropertyOp37
 70
     1
102
RTVSPropertyOp38
 70
     1
102
RTVSPropertyOp39
 70
     1
102
RTVSPropertyOp40
 70
     1
102
RTVSPropertyOp41
 70
     1
102
RTVSPropertyOp42
 70
     1
102
RTVSPropertyOp43
 70
     1
102
RTVSPropertyOp44
 70
     1
102
RTVSPropertyOp45
 70
     1
102
RTVSPropertyOp46
 70
     1
102
RTVSPropertyOp47
 70
     1
102
RTVSPropertyOp48
 70
     1
102
RTVSPropertyOp49
 70
     1
102
RTVSPropertyOp50
 70
     1
102
RTVSPropertyOp51
 70
     0
102
RTVSPropertyOp52
 70
     0
102
RTVSPropertyOp53
 70
     1
102
RTVSPropertyOp54
 70
     1
102
RTVSPropertyOp55
 70
     1
102
RTVSPropertyOp56
 70
     1
102
RTVSPropertyOp57
 70
     1
102
RTVSPropertyOp58
 70
     1
102
RTVSPropertyOp59
 70
     1
102
RTVSPropertyOp60
 70
     1
102
RTVSPropertyOp61
 70
     1
102
RTVSPropertyOp62
 70
     1
  0
XRECORD
  5
2518
102
{ACAD_REACTORS
330
2517
102
}
330
2517
100
AcDbXrecord
280
     1
102
RTVSPost2010Prop28
280
     0
102
RTVSPost2010PropOp28
 70
     1
102
RTVSPost2010Prop29
280
     1
102
RTVSPost2010PropOp29
 70
     1
102
RTVSPost2010Prop30
280
     1
102
RTVSPost2010PropOp30
 70
     1
102
RTVSPost2010Prop31
280
     0
102
RTVSPost2010PropOp31
 70
     1
102
RTVSPost2010Prop32
280
     0
102
RTVSPost2010PropOp32
 70
     1
102
RTVSPost2010Prop33
280
     0
102
RTVSPost2010PropOp33
 70
     1
102
RTVSPost2010Prop34
280
     0
102
RTVSPost2010PropOp34
 70
     1
102
RTVSPost2010Prop35
280
     0
102
RTVSPost2010PropOp35
 70
     1
102
RTVSPost2010Prop36
280
     0
102
RTVSPost2010PropOp36
 70
     1
102
RTVSPost2010Prop37
 90
       50
102
RTVSPost2010PropOp37
 70
     1
102
RTVSPost2010Prop38
140
0.0
102
RTVSPost2010PropOp38
 70
     1
102
RTVSPost2010Prop39
140
1.0
102
RTVSPost2010PropOp39
 70
     1
102
RTVSPost2010Prop40
 90
        0
102
RTVSPost2010PropOp40
 70
     1
102
RTVSPost2010Prop41ColorIndex
 90
       18
102
RTVSPost2010Prop41ColorRGB
 90
        0
102
RTVSPost2010PropOp41
 70
     1
102
RTVSPost2010Prop42
 90
       50
102
RTVSPost2010PropOp42
 70
     1
102
RTVSPost2010Prop43
 90
        3
102
RTVSPost2010PropOp43
 70
     1
102
RTVSPost2010Prop44ColorIndex
 90
        5
102
RTVSPost2010Prop44ColorRGB
 90
      255
102
RTVSPost2010PropOp44
 70
     1
102
RTVSPost2010Prop45
280
     0
102
RTVSPost2010PropOp45
 70
     1
102
RTVSPost2010Prop46
 90
       50
102
RTVSPost2010PropOp46
 70
     1
102
RTVSPost2010Prop47
 90
       50
102
RTVSPost2010PropOp47
 70
     1
102
RTVSPost2010Prop48
 90
       50
102
RTVSPost2010PropOp48
 70
     1
102
RTVSPost2010Prop49
280
     0
102
RTVSPost2010PropOp49
 70
     1
102
RTVSPost2010Prop50
 90
       50
102
RTVSPost2010PropOp50
 70
     1
102
RTVSPost2010Prop51ColorIndex
 90
      256
102
RTVSPost2010Prop51ColorRGB
 90
-16777216
102
RTVSPost2010PropOp51
 70
     0
102
RTVSPost2010Prop52
140
1.0
102
RTVSPost2010PropOp52
 70
     0
102
RTVSPost2010Prop53
 90
        2
102
RTVSPost2010PropOp53
 70
     1
102
RTVSPost2010Prop54
  1
strokes_ogs.tif
102
RTVSPost2010PropOp54
 70
     1
102
RTVSPost2010Prop55
280
     0
102
RTVSPost2010PropOp55
 70
     1
102
RTVSPost2010Prop56
140
1.0
102
RTVSPost2010PropOp56
 70
     1
102
RTVSPost2010Prop57
140
1.0
102
RTVSPost2010PropOp57
 70
     1
102
RTVSPropertyOp0
 70
     1
102
RTVSPropertyOp1
 70
     1
102
RTVSPropertyOp2
 70
     1
102
RTVSPropertyOp3
 70
     1
102
RTVSPropertyOp4
 70
     1
102
RTVSPropertyOp5
 70
     1
102
RTVSPropertyOp6
 70
     1
102
RTVSPropertyOp7
 70
     1
102
RTVSPropertyOp8
 70
     1
102
RTVSPropertyOp9
 70
     1
102
RTVSPropertyOp10
 70
     1
102
RTVSPropertyOp11
 70
     1
102
RTVSPropertyOp12
 70
     1
102
RTVSPropertyOp13
 70
     1
102
RTVSPropertyOp14
 70
     1
102
RTVSPropertyOp15
 70
     1
102
RTVSPropertyOp16
 70
     1
102
RTVSPropertyOp17
 70
     1
102
RTVSPropertyOp18
 70
     1
102
RTVSPropertyOp19
 70
     1
102
RTVSPropertyOp20
 70
     1
102
RTVSPropertyOp21
 70
     1
102
RTVSPropertyOp22
 70
     1
102
RTVSPropertyOp23
 70
     1
102
RTVSPropertyOp24
 70
     1
102
RTVSPropertyOp25
 70
     1
102
RTVSPropertyOp26
 70
     1
102
RTVSPropertyOp27
 70
     1
102
RTVSPropertyOp28
 70
     1
102
RTVSPropertyOp29
 70
     1
102
RTVSPropertyOp30
 70
     1
102
RTVSPropertyOp31
 70
     1
102
RTVSPropertyOp32
 70
     1
102
RTVSPropertyOp33
 70
     1
102
RTVSPropertyOp34
 70
     1
102
RTVSPropertyOp35
 70
     1
102
RTVSPropertyOp36
 70
     1
102
RTVSPropertyOp37
 70
     1
102
RTVSPropertyOp38
 70
     1
102
RTVSPropertyOp39
 70
     1
102
RTVSPropertyOp40
 70
     1
102
RTVSPropertyOp41
 70
     1
102
RTVSPropertyOp42
 70
     1
102
RTVSPropertyOp43
 70
     1
102
RTVSPropertyOp44
 70
     1
102
RTVSPropertyOp45
 70
     1
102
RTVSPropertyOp46
 70
     1
102
RTVSPropertyOp47
 70
     1
102
RTVSPropertyOp48
 70
     1
102
RTVSPropertyOp49
 70
     1
102
RTVSPropertyOp50
 70
     1
102
RTVSPropertyOp51
 70
     0
102
RTVSPropertyOp52
 70
     0
102
RTVSPropertyOp53
 70
     1
102
RTVSPropertyOp54
 70
     1
102
RTVSPropertyOp55
 70
     1
102
RTVSPropertyOp56
 70
     1
102
RTVSPropertyOp57
 70
     1
102
RTVSPropertyOp58
 70
     1
102
RTVSPropertyOp59
 70
     1
102
RTVSPropertyOp60
 70
     1
102
RTVSPropertyOp61
 70
     1
102
RTVSPropertyOp62
 70
     1
  0
XRECORD
  5
2520
102
{ACAD_REACTORS
330
251F
102
}
330
251F
100
AcDbXrecord
280
     1
102
RTVSPost2010Prop28
280
     0
102
RTVSPost2010PropOp28
 70
     1
102
RTVSPost2010Prop29
280
     1
102
RTVSPost2010PropOp29
 70
     1
102
RTVSPost2010Prop30
280
     1
102
RTVSPost2010PropOp30
 70
     1
102
RTVSPost2010Prop31
280
     0
102
RTVSPost2010PropOp31
 70
     1
102
RTVSPost2010Prop32
280
     0
102
RTVSPost2010PropOp32
 70
     1
102
RTVSPost2010Prop33
280
     0
102
RTVSPost2010PropOp33
 70
     1
102
RTVSPost2010Prop34
280
     0
102
RTVSPost2010PropOp34
 70
     1
102
RTVSPost2010Prop35
280
     0
102
RTVSPost2010PropOp35
 70
     1
102
RTVSPost2010Prop36
280
     0
102
RTVSPost2010PropOp36
 70
     1
102
RTVSPost2010Prop37
 90
       50
102
RTVSPost2010PropOp37
 70
     1
102
RTVSPost2010Prop38
140
0.0
102
RTVSPost2010PropOp38
 70
     1
102
RTVSPost2010Prop39
140
1.0
102
RTVSPost2010PropOp39
 70
     1
102
RTVSPost2010Prop40
 90
        0
102
RTVSPost2010PropOp40
 70
     1
102
RTVSPost2010Prop41ColorIndex
 90
       18
102
RTVSPost2010Prop41ColorRGB
 90
        0
102
RTVSPost2010PropOp41
 70
     1
102
RTVSPost2010Prop42
 90
       50
102
RTVSPost2010PropOp42
 70
     1
102
RTVSPost2010Prop43
 90
        3
102
RTVSPost2010PropOp43
 70
     1
102
RTVSPost2010Prop44ColorIndex
 90
        5
102
RTVSPost2010Prop44ColorRGB
 90
      255
102
RTVSPost2010PropOp44
 70
     1
102
RTVSPost2010Prop45
280
     0
102
RTVSPost2010PropOp45
 70
     1
102
RTVSPost2010Prop46
 90
       50
102
RTVSPost2010PropOp46
 70
     1
102
RTVSPost2010Prop47
 90
       50
102
RTVSPost2010PropOp47
 70
     1
102
RTVSPost2010Prop48
 90
       50
102
RTVSPost2010PropOp48
 70
     1
102
RTVSPost2010Prop49
280
     0
102
RTVSPost2010PropOp49
 70
     1
102
RTVSPost2010Prop50
 90
       50
102
RTVSPost2010PropOp50
 70
     1
102
RTVSPost2010Prop51ColorIndex
 90
      256
102
RTVSPost2010Prop51ColorRGB
 90
-16777216
102
RTVSPost2010PropOp51
 70
     0
102
RTVSPost2010Prop52
140
1.0
102
RTVSPost2010PropOp52
 70
     0
102
RTVSPost2010Prop53
 90
        2
102
RTVSPost2010PropOp53
 70
     1
102
RTVSPost2010Prop54
  1
strokes_ogs.tif
102
RTVSPost2010PropOp54
 70
     1
102
RTVSPost2010Prop55
280
     0
102
RTVSPost2010PropOp55
 70
     1
102
RTVSPost2010Prop56
140
1.0
102
RTVSPost2010PropOp56
 70
     1
102
RTVSPost2010Prop57
140
1.0
102
RTVSPost2010PropOp57
 70
     1
102
RTVSPropertyOp0
 70
     1
102
RTVSPropertyOp1
 70
     1
102
RTVSPropertyOp2
 70
     1
102
RTVSPropertyOp3
 70
     1
102
RTVSPropertyOp4
 70
     1
102
RTVSPropertyOp5
 70
     1
102
RTVSPropertyOp6
 70
     1
102
RTVSPropertyOp7
 70
     1
102
RTVSPropertyOp8
 70
     1
102
RTVSPropertyOp9
 70
     1
102
RTVSPropertyOp10
 70
     1
102
RTVSPropertyOp11
 70
     1
102
RTVSPropertyOp12
 70
     1
102
RTVSPropertyOp13
 70
     1
102
RTVSPropertyOp14
 70
     1
102
RTVSPropertyOp15
 70
     1
102
RTVSPropertyOp16
 70
     1
102
RTVSPropertyOp17
 70
     1
102
RTVSPropertyOp18
 70
     1
102
RTVSPropertyOp19
 70
     1
102
RTVSPropertyOp20
 70
     1
102
RTVSPropertyOp21
 70
     1
102
RTVSPropertyOp22
 70
     1
102
RTVSPropertyOp23
 70
     1
102
RTVSPropertyOp24
 70
     1
102
RTVSPropertyOp25
 70
     1
102
RTVSPropertyOp26
 70
     1
102
RTVSPropertyOp27
 70
     1
102
RTVSPropertyOp28
 70
     1
102
RTVSPropertyOp29
 70
     1
102
RTVSPropertyOp30
 70
     1
102
RTVSPropertyOp31
 70
     1
102
RTVSPropertyOp32
 70
     1
102
RTVSPropertyOp33
 70
     1
102
RTVSPropertyOp34
 70
     1
102
RTVSPropertyOp35
 70
     1
102
RTVSPropertyOp36
 70
     1
102
RTVSPropertyOp37
 70
     1
102
RTVSPropertyOp38
 70
     1
102
RTVSPropertyOp39
 70
     1
102
RTVSPropertyOp40
 70
     1
102
RTVSPropertyOp41
 70
     1
102
RTVSPropertyOp42
 70
     1
102
RTVSPropertyOp43
 70
     1
102
RTVSPropertyOp44
 70
     1
102
RTVSPropertyOp45
 70
     1
102
RTVSPropertyOp46
 70
     1
102
RTVSPropertyOp47
 70
     1
102
RTVSPropertyOp48
 70
     1
102
RTVSPropertyOp49
 70
     1
102
RTVSPropertyOp50
 70
     1
102
RTVSPropertyOp51
 70
     0
102
RTVSPropertyOp52
 70
     0
102
RTVSPropertyOp53
 70
     1
102
RTVSPropertyOp54
 70
     1
102
RTVSPropertyOp55
 70
     1
102
RTVSPropertyOp56
 70
     1
102
RTVSPropertyOp57
 70
     1
102
RTVSPropertyOp58
 70
     1
102
RTVSPropertyOp59
 70
     1
102
RTVSPropertyOp60
 70
     1
102
RTVSPropertyOp61
 70
     1
102
RTVSPropertyOp62
 70
     1
  0
XRECORD
  5
253C
102
{ACAD_REACTORS
330
253B
102
}
330
253B
100
AcDbXrecord
280
     1
102
RTVSPost2010Prop28
280
     0
102
RTVSPost2010PropOp28
 70
     1
102
RTVSPost2010Prop29
280
     1
102
RTVSPost2010PropOp29
 70
     1
102
RTVSPost2010Prop30
280
     1
102
RTVSPost2010PropOp30
 70
     1
102
RTVSPost2010Prop31
280
     0
102
RTVSPost2010PropOp31
 70
     1
102
RTVSPost2010Prop32
280
     0
102
RTVSPost2010PropOp32
 70
     1
102
RTVSPost2010Prop33
280
     0
102
RTVSPost2010PropOp33
 70
     1
102
RTVSPost2010Prop34
280
     0
102
RTVSPost2010PropOp34
 70
     1
102
RTVSPost2010Prop35
280
     0
102
RTVSPost2010PropOp35
 70
     1
102
RTVSPost2010Prop36
280
     0
102
RTVSPost2010PropOp36
 70
     1
102
RTVSPost2010Prop37
 90
       50
102
RTVSPost2010PropOp37
 70
     0
102
RTVSPost2010Prop38
140
0.0
102
RTVSPost2010PropOp38
 70
     0
102
RTVSPost2010Prop39
140
1.0
102
RTVSPost2010PropOp39
 70
     0
102
RTVSPost2010Prop40
 90
        0
102
RTVSPost2010PropOp40
 70
     0
102
RTVSPost2010Prop41ColorIndex
 90
       18
102
RTVSPost2010Prop41ColorRGB
 90
        0
102
RTVSPost2010PropOp41
 70
     0
102
RTVSPost2010Prop42
 90
       50
102
RTVSPost2010PropOp42
 70
     0
102
RTVSPost2010Prop43
 90
        3
102
RTVSPost2010PropOp43
 70
     0
102
RTVSPost2010Prop44ColorIndex
 90
        5
102
RTVSPost2010Prop44ColorRGB
 90
      255
102
RTVSPost2010PropOp44
 70
     0
102
RTVSPost2010Prop45
280
     0
102
RTVSPost2010PropOp45
 70
     1
102
RTVSPost2010Prop46
 90
       50
102
RTVSPost2010PropOp46
 70
     0
102
RTVSPost2010Prop47
 90
       50
102
RTVSPost2010PropOp47
 70
     0
102
RTVSPost2010Prop48
 90
       50
102
RTVSPost2010PropOp48
 70
     0
102
RTVSPost2010Prop49
280
     0
102
RTVSPost2010PropOp49
 70
     1
102
RTVSPost2010Prop50
 90
       50
102
RTVSPost2010PropOp50
 70
     0
102
RTVSPost2010Prop51ColorIndex
 90
      256
102
RTVSPost2010Prop51ColorRGB
 90
-16777216
102
RTVSPost2010PropOp51
 70
     0
102
RTVSPost2010Prop52
140
1.0
102
RTVSPost2010PropOp52
 70
     0
102
RTVSPost2010Prop53
 90
        2
102
RTVSPost2010PropOp53
 70
     0
102
RTVSPost2010Prop54
  1
strokes_ogs.tif
102
RTVSPost2010PropOp54
 70
     0
102
RTVSPost2010Prop55
280
     0
102
RTVSPost2010PropOp55
 70
     1
102
RTVSPost2010Prop56
140
1.0
102
RTVSPost2010PropOp56
 70
     0
102
RTVSPost2010Prop57
140
1.0
102
RTVSPost2010PropOp57
 70
     0
102
RTVSPropertyOp0
 70
     0
102
RTVSPropertyOp1
 70
     0
102
RTVSPropertyOp2
 70
     0
102
RTVSPropertyOp3
 70
     0
102
RTVSPropertyOp4
 70
     0
102
RTVSPropertyOp5
 70
     0
102
RTVSPropertyOp6
 70
     0
102
RTVSPropertyOp7
 70
     0
102
RTVSPropertyOp8
 70
     0
102
RTVSPropertyOp9
 70
     0
102
RTVSPropertyOp10
 70
     0
102
RTVSPropertyOp11
 70
     0
102
RTVSPropertyOp12
 70
     0
102
RTVSPropertyOp13
 70
     0
102
RTVSPropertyOp14
 70
     2
102
RTVSPropertyOp15
 70
     0
102
RTVSPropertyOp16
 70
     0
102
RTVSPropertyOp17
 70
     0
102
RTVSPropertyOp18
 70
     0
102
RTVSPropertyOp19
 70
     0
102
RTVSPropertyOp20
 70
     0
102
RTVSPropertyOp21
 70
     0
102
RTVSPropertyOp22
 70
     0
102
RTVSPropertyOp23
 70
     0
102
RTVSPropertyOp24
 70
     0
102
RTVSPropertyOp25
 70
     0
102
RTVSPropertyOp26
 70
     0
102
RTVSPropertyOp27
 70
     0
102
RTVSPropertyOp28
 70
     1
102
RTVSPropertyOp29
 70
     1
102
RTVSPropertyOp30
 70
     1
102
RTVSPropertyOp31
 70
     1
102
RTVSPropertyOp32
 70
     1
102
RTVSPropertyOp33
 70
     1
102
RTVSPropertyOp34
 70
     1
102
RTVSPropertyOp35
 70
     1
102
RTVSPropertyOp36
 70
     1
102
RTVSPropertyOp37
 70
     0
102
RTVSPropertyOp38
 70
     0
102
RTVSPropertyOp39
 70
     0
102
RTVSPropertyOp40
 70
     0
102
RTVSPropertyOp41
 70
     0
102
RTVSPropertyOp42
 70
     0
102
RTVSPropertyOp43
 70
     0
102
RTVSPropertyOp44
 70
     0
102
RTVSPropertyOp45
 70
     1
102
RTVSPropertyOp46
 70
     0
102
RTVSPropertyOp47
 70
     0
102
RTVSPropertyOp48
 70
     0
102
RTVSPropertyOp49
 70
     1
102
RTVSPropertyOp50
 70
     0
102
RTVSPropertyOp51
 70
     0
102
RTVSPropertyOp52
 70
     0
102
RTVSPropertyOp53
 70
     0
102
RTVSPropertyOp54
 70
     0
102
RTVSPropertyOp55
 70
     1
102
RTVSPropertyOp56
 70
     0
102
RTVSPropertyOp57
 70
     0
102
RTVSPropertyOp58
 70
     0
102
RTVSPropertyOp59
 70
     0
102
RTVSPropertyOp60
 70
     0
102
RTVSPropertyOp61
 70
     0
102
RTVSPropertyOp62
 70
     0
  0
XRECORD
  5
252C
102
{ACAD_REACTORS
330
252B
102
}
330
252B
100
AcDbXrecord
280
     1
102
RTVSPost2010Prop28
280
     0
102
RTVSPost2010PropOp28
 70
     1
102
RTVSPost2010Prop29
280
     1
102
RTVSPost2010PropOp29
 70
     1
102
RTVSPost2010Prop30
280
     1
102
RTVSPost2010PropOp30
 70
     1
102
RTVSPost2010Prop31
280
     0
102
RTVSPost2010PropOp31
 70
     1
102
RTVSPost2010Prop32
280
     0
102
RTVSPost2010PropOp32
 70
     1
102
RTVSPost2010Prop33
280
     0
102
RTVSPost2010PropOp33
 70
     1
102
RTVSPost2010Prop34
280
     0
102
RTVSPost2010PropOp34
 70
     1
102
RTVSPost2010Prop35
280
     0
102
RTVSPost2010PropOp35
 70
     1
102
RTVSPost2010Prop36
280
     0
102
RTVSPost2010PropOp36
 70
     1
102
RTVSPost2010Prop37
 90
       50
102
RTVSPost2010PropOp37
 70
     1
102
RTVSPost2010Prop38
140
0.0
102
RTVSPost2010PropOp38
 70
     1
102
RTVSPost2010Prop39
140
1.0
102
RTVSPost2010PropOp39
 70
     1
102
RTVSPost2010Prop40
 90
        0
102
RTVSPost2010PropOp40
 70
     1
102
RTVSPost2010Prop41ColorIndex
 90
       18
102
RTVSPost2010Prop41ColorRGB
 90
        0
102
RTVSPost2010PropOp41
 70
     1
102
RTVSPost2010Prop42
 90
       50
102
RTVSPost2010PropOp42
 70
     1
102
RTVSPost2010Prop43
 90
        3
102
RTVSPost2010PropOp43
 70
     1
102
RTVSPost2010Prop44ColorIndex
 90
        5
102
RTVSPost2010Prop44ColorRGB
 90
      255
102
RTVSPost2010PropOp44
 70
     1
102
RTVSPost2010Prop45
280
     0
102
RTVSPost2010PropOp45
 70
     1
102
RTVSPost2010Prop46
 90
       50
102
RTVSPost2010PropOp46
 70
     1
102
RTVSPost2010Prop47
 90
       50
102
RTVSPost2010PropOp47
 70
     1
102
RTVSPost2010Prop48
 90
       50
102
RTVSPost2010PropOp48
 70
     1
102
RTVSPost2010Prop49
280
     0
102
RTVSPost2010PropOp49
 70
     1
102
RTVSPost2010Prop50
 90
       50
102
RTVSPost2010PropOp50
 70
     1
102
RTVSPost2010Prop51ColorIndex
 90
      256
102
RTVSPost2010Prop51ColorRGB
 90
-16777216
102
RTVSPost2010PropOp51
 70
     0
102
RTVSPost2010Prop52
140
1.0
102
RTVSPost2010PropOp52
 70
     0
102
RTVSPost2010Prop53
 90
        2
102
RTVSPost2010PropOp53
 70
     1
102
RTVSPost2010Prop54
  1
strokes_ogs.tif
102
RTVSPost2010PropOp54
 70
     1
102
RTVSPost2010Prop55
280
     0
102
RTVSPost2010PropOp55
 70
     1
102
RTVSPost2010Prop56
140
1.0
102
RTVSPost2010PropOp56
 70
     1
102
RTVSPost2010Prop57
140
1.0
102
RTVSPost2010PropOp57
 70
     1
102
RTVSPropertyOp0
 70
     1
102
RTVSPropertyOp1
 70
     1
102
RTVSPropertyOp2
 70
     1
102
RTVSPropertyOp3
 70
     1
102
RTVSPropertyOp4
 70
     1
102
RTVSPropertyOp5
 70
     1
102
RTVSPropertyOp6
 70
     1
102
RTVSPropertyOp7
 70
     1
102
RTVSPropertyOp8
 70
     1
102
RTVSPropertyOp9
 70
     1
102
RTVSPropertyOp10
 70
     1
102
RTVSPropertyOp11
 70
     1
102
RTVSPropertyOp12
 70
     1
102
RTVSPropertyOp13
 70
     1
102
RTVSPropertyOp14
 70
     1
102
RTVSPropertyOp15
 70
     1
102
RTVSPropertyOp16
 70
     1
102
RTVSPropertyOp17
 70
     1
102
RTVSPropertyOp18
 70
     1
102
RTVSPropertyOp19
 70
     1
102
RTVSPropertyOp20
 70
     1
102
RTVSPropertyOp21
 70
     1
102
RTVSPropertyOp22
 70
     1
102
RTVSPropertyOp23
 70
     1
102
RTVSPropertyOp24
 70
     1
102
RTVSPropertyOp25
 70
     1
102
RTVSPropertyOp26
 70
     1
102
RTVSPropertyOp27
 70
     1
102
RTVSPropertyOp28
 70
     1
102
RTVSPropertyOp29
 70
     1
102
RTVSPropertyOp30
 70
     1
102
RTVSPropertyOp31
 70
     1
102
RTVSPropertyOp32
 70
     1
102
RTVSPropertyOp33
 70
     1
102
RTVSPropertyOp34
 70
     1
102
RTVSPropertyOp35
 70
     1
102
RTVSPropertyOp36
 70
     1
102
RTVSPropertyOp37
 70
     1
102
RTVSPropertyOp38
 70
     1
102
RTVSPropertyOp39
 70
     1
102
RTVSPropertyOp40
 70
     1
102
RTVSPropertyOp41
 70
     1
102
RTVSPropertyOp42
 70
     1
102
RTVSPropertyOp43
 70
     1
102
RTVSPropertyOp44
 70
     1
102
RTVSPropertyOp45
 70
     1
102
RTVSPropertyOp46
 70
     1
102
RTVSPropertyOp47
 70
     1
102
RTVSPropertyOp48
 70
     1
102
RTVSPropertyOp49
 70
     1
102
RTVSPropertyOp50
 70
     1
102
RTVSPropertyOp51
 70
     0
102
RTVSPropertyOp52
 70
     0
102
RTVSPropertyOp53
 70
     1
102
RTVSPropertyOp54
 70
     1
102
RTVSPropertyOp55
 70
     1
102
RTVSPropertyOp56
 70
     1
102
RTVSPropertyOp57
 70
     1
102
RTVSPropertyOp58
 70
     1
102
RTVSPropertyOp59
 70
     1
102
RTVSPropertyOp60
 70
     1
102
RTVSPropertyOp61
 70
     1
102
RTVSPropertyOp62
 70
     1
  0
XRECORD
  5
253E
102
{ACAD_REACTORS
330
253D
102
}
330
253D
100
AcDbXrecord
280
     1
102
RTVSPost2010Prop28
280
     0
102
RTVSPost2010PropOp28
 70
     1
102
RTVSPost2010Prop29
280
     1
102
RTVSPost2010PropOp29
 70
     1
102
RTVSPost2010Prop30
280
     1
102
RTVSPost2010PropOp30
 70
     1
102
RTVSPost2010Prop31
280
     0
102
RTVSPost2010PropOp31
 70
     1
102
RTVSPost2010Prop32
280
     0
102
RTVSPost2010PropOp32
 70
     1
102
RTVSPost2010Prop33
280
     0
102
RTVSPost2010PropOp33
 70
     1
102
RTVSPost2010Prop34
280
     0
102
RTVSPost2010PropOp34
 70
     1
102
RTVSPost2010Prop35
280
     0
102
RTVSPost2010PropOp35
 70
     1
102
RTVSPost2010Prop36
280
     0
102
RTVSPost2010PropOp36
 70
     1
102
RTVSPost2010Prop37
 90
       50
102
RTVSPost2010PropOp37
 70
     0
102
RTVSPost2010Prop38
140
0.0
102
RTVSPost2010PropOp38
 70
     0
102
RTVSPost2010Prop39
140
1.0
102
RTVSPost2010PropOp39
 70
     0
102
RTVSPost2010Prop40
 90
        0
102
RTVSPost2010PropOp40
 70
     0
102
RTVSPost2010Prop41ColorIndex
 90
       18
102
RTVSPost2010Prop41ColorRGB
 90
        0
102
RTVSPost2010PropOp41
 70
     0
102
RTVSPost2010Prop42
 90
       50
102
RTVSPost2010PropOp42
 70
     0
102
RTVSPost2010Prop43
 90
        3
102
RTVSPost2010PropOp43
 70
     0
102
RTVSPost2010Prop44ColorIndex
 90
        5
102
RTVSPost2010Prop44ColorRGB
 90
      255
102
RTVSPost2010PropOp44
 70
     0
102
RTVSPost2010Prop45
280
     0
102
RTVSPost2010PropOp45
 70
     1
102
RTVSPost2010Prop46
 90
       50
102
RTVSPost2010PropOp46
 70
     0
102
RTVSPost2010Prop47
 90
       50
102
RTVSPost2010PropOp47
 70
     0
102
RTVSPost2010Prop48
 90
       50
102
RTVSPost2010PropOp48
 70
     0
102
RTVSPost2010Prop49
280
     0
102
RTVSPost2010PropOp49
 70
     1
102
RTVSPost2010Prop50
 90
       50
102
RTVSPost2010PropOp50
 70
     0
102
RTVSPost2010Prop51ColorIndex
 90
      256
102
RTVSPost2010Prop51ColorRGB
 90
-16777216
102
RTVSPost2010PropOp51
 70
     0
102
RTVSPost2010Prop52
140
1.0
102
RTVSPost2010PropOp52
 70
     0
102
RTVSPost2010Prop53
 90
        2
102
RTVSPost2010PropOp53
 70
     0
102
RTVSPost2010Prop54
  1
strokes_ogs.tif
102
RTVSPost2010PropOp54
 70
     0
102
RTVSPost2010Prop55
280
     0
102
RTVSPost2010PropOp55
 70
     1
102
RTVSPost2010Prop56
140
1.0
102
RTVSPost2010PropOp56
 70
     0
102
RTVSPost2010Prop57
140
1.0
102
RTVSPost2010PropOp57
 70
     0
102
RTVSPropertyOp0
 70
     0
102
RTVSPropertyOp1
 70
     0
102
RTVSPropertyOp2
 70
     0
102
RTVSPropertyOp3
 70
     0
102
RTVSPropertyOp4
 70
     0
102
RTVSPropertyOp5
 70
     0
102
RTVSPropertyOp6
 70
     0
102
RTVSPropertyOp7
 70
     0
102
RTVSPropertyOp8
 70
     0
102
RTVSPropertyOp9
 70
     0
102
RTVSPropertyOp10
 70
     0
102
RTVSPropertyOp11
 70
     0
102
RTVSPropertyOp12
 70
     0
102
RTVSPropertyOp13
 70
     0
102
RTVSPropertyOp14
 70
     2
102
RTVSPropertyOp15
 70
     0
102
RTVSPropertyOp16
 70
     0
102
RTVSPropertyOp17
 70
     0
102
RTVSPropertyOp18
 70
     0
102
RTVSPropertyOp19
 70
     0
102
RTVSPropertyOp20
 70
     0
102
RTVSPropertyOp21
 70
     0
102
RTVSPropertyOp22
 70
     0
102
RTVSPropertyOp23
 70
     0
102
RTVSPropertyOp24
 70
     0
102
RTVSPropertyOp25
 70
     0
102
RTVSPropertyOp26
 70
     0
102
RTVSPropertyOp27
 70
     0
102
RTVSPropertyOp28
 70
     1
102
RTVSPropertyOp29
 70
     1
102
RTVSPropertyOp30
 70
     1
102
RTVSPropertyOp31
 70
     1
102
RTVSPropertyOp32
 70
     1
102
RTVSPropertyOp33
 70
     1
102
RTVSPropertyOp34
 70
     1
102
RTVSPropertyOp35
 70
     1
102
RTVSPropertyOp36
 70
     1
102
RTVSPropertyOp37
 70
     0
102
RTVSPropertyOp38
 70
     0
102
RTVSPropertyOp39
 70
     0
102
RTVSPropertyOp40
 70
     0
102
RTVSPropertyOp41
 70
     0
102
RTVSPropertyOp42
 70
     0
102
RTVSPropertyOp43
 70
     0
102
RTVSPropertyOp44
 70
     0
102
RTVSPropertyOp45
 70
     1
102
RTVSPropertyOp46
 70
     0
102
RTVSPropertyOp47
 70
     0
102
RTVSPropertyOp48
 70
     0
102
RTVSPropertyOp49
 70
     1
102
RTVSPropertyOp50
 70
     0
102
RTVSPropertyOp51
 70
     0
102
RTVSPropertyOp52
 70
     0
102
RTVSPropertyOp53
 70
     0
102
RTVSPropertyOp54
 70
     0
102
RTVSPropertyOp55
 70
     1
102
RTVSPropertyOp56
 70
     0
102
RTVSPropertyOp57
 70
     0
102
RTVSPropertyOp58
 70
     0
102
RTVSPropertyOp59
 70
     0
102
RTVSPropertyOp60
 70
     0
102
RTVSPropertyOp61
 70
     0
102
RTVSPropertyOp62
 70
     0
  0
XRECORD
  5
2524
102
{ACAD_REACTORS
330
2523
102
}
330
2523
100
AcDbXrecord
280
     1
102
RTVSPost2010Prop28
280
     0
102
RTVSPost2010PropOp28
 70
     1
102
RTVSPost2010Prop29
280
     1
102
RTVSPost2010PropOp29
 70
     1
102
RTVSPost2010Prop30
280
     1
102
RTVSPost2010PropOp30
 70
     1
102
RTVSPost2010Prop31
280
     0
102
RTVSPost2010PropOp31
 70
     1
102
RTVSPost2010Prop32
280
     0
102
RTVSPost2010PropOp32
 70
     1
102
RTVSPost2010Prop33
280
     0
102
RTVSPost2010PropOp33
 70
     1
102
RTVSPost2010Prop34
280
     0
102
RTVSPost2010PropOp34
 70
     1
102
RTVSPost2010Prop35
280
     0
102
RTVSPost2010PropOp35
 70
     1
102
RTVSPost2010Prop36
280
     0
102
RTVSPost2010PropOp36
 70
     1
102
RTVSPost2010Prop37
 90
       50
102
RTVSPost2010PropOp37
 70
     1
102
RTVSPost2010Prop38
140
0.0
102
RTVSPost2010PropOp38
 70
     1
102
RTVSPost2010Prop39
140
1.0
102
RTVSPost2010PropOp39
 70
     1
102
RTVSPost2010Prop40
 90
        0
102
RTVSPost2010PropOp40
 70
     1
102
RTVSPost2010Prop41ColorIndex
 90
       18
102
RTVSPost2010Prop41ColorRGB
 90
        0
102
RTVSPost2010PropOp41
 70
     1
102
RTVSPost2010Prop42
 90
       50
102
RTVSPost2010PropOp42
 70
     1
102
RTVSPost2010Prop43
 90
        3
102
RTVSPost2010PropOp43
 70
     1
102
RTVSPost2010Prop44ColorIndex
 90
        5
102
RTVSPost2010Prop44ColorRGB
 90
      255
102
RTVSPost2010PropOp44
 70
     1
102
RTVSPost2010Prop45
280
     0
102
RTVSPost2010PropOp45
 70
     1
102
RTVSPost2010Prop46
 90
       50
102
RTVSPost2010PropOp46
 70
     1
102
RTVSPost2010Prop47
 90
       50
102
RTVSPost2010PropOp47
 70
     1
102
RTVSPost2010Prop48
 90
       50
102
RTVSPost2010PropOp48
 70
     1
102
RTVSPost2010Prop49
280
     0
102
RTVSPost2010PropOp49
 70
     1
102
RTVSPost2010Prop50
 90
       50
102
RTVSPost2010PropOp50
 70
     1
102
RTVSPost2010Prop51ColorIndex
 90
      256
102
RTVSPost2010Prop51ColorRGB
 90
-16777216
102
RTVSPost2010PropOp51
 70
     0
102
RTVSPost2010Prop52
140
1.0
102
RTVSPost2010PropOp52
 70
     0
102
RTVSPost2010Prop53
 90
        2
102
RTVSPost2010PropOp53
 70
     1
102
RTVSPost2010Prop54
  1
strokes_ogs.tif
102
RTVSPost2010PropOp54
 70
     1
102
RTVSPost2010Prop55
280
     0
102
RTVSPost2010PropOp55
 70
     1
102
RTVSPost2010Prop56
140
1.0
102
RTVSPost2010PropOp56
 70
     1
102
RTVSPost2010Prop57
140
1.0
102
RTVSPost2010PropOp57
 70
     1
102
RTVSPropertyOp0
 70
     1
102
RTVSPropertyOp1
 70
     1
102
RTVSPropertyOp2
 70
     1
102
RTVSPropertyOp3
 70
     1
102
RTVSPropertyOp4
 70
     1
102
RTVSPropertyOp5
 70
     1
102
RTVSPropertyOp6
 70
     1
102
RTVSPropertyOp7
 70
     1
102
RTVSPropertyOp8
 70
     1
102
RTVSPropertyOp9
 70
     1
102
RTVSPropertyOp10
 70
     1
102
RTVSPropertyOp11
 70
     1
102
RTVSPropertyOp12
 70
     1
102
RTVSPropertyOp13
 70
     1
102
RTVSPropertyOp14
 70
     1
102
RTVSPropertyOp15
 70
     1
102
RTVSPropertyOp16
 70
     1
102
RTVSPropertyOp17
 70
     1
102
RTVSPropertyOp18
 70
     1
102
RTVSPropertyOp19
 70
     1
102
RTVSPropertyOp20
 70
     1
102
RTVSPropertyOp21
 70
     1
102
RTVSPropertyOp22
 70
     1
102
RTVSPropertyOp23
 70
     1
102
RTVSPropertyOp24
 70
     1
102
RTVSPropertyOp25
 70
     1
102
RTVSPropertyOp26
 70
     1
102
RTVSPropertyOp27
 70
     1
102
RTVSPropertyOp28
 70
     1
102
RTVSPropertyOp29
 70
     1
102
RTVSPropertyOp30
 70
     1
102
RTVSPropertyOp31
 70
     1
102
RTVSPropertyOp32
 70
     1
102
RTVSPropertyOp33
 70
     1
102
RTVSPropertyOp34
 70
     1
102
RTVSPropertyOp35
 70
     1
102
RTVSPropertyOp36
 70
     1
102
RTVSPropertyOp37
 70
     1
102
RTVSPropertyOp38
 70
     1
102
RTVSPropertyOp39
 70
     1
102
RTVSPropertyOp40
 70
     1
102
RTVSPropertyOp41
 70
     1
102
RTVSPropertyOp42
 70
     1
102
RTVSPropertyOp43
 70
     1
102
RTVSPropertyOp44
 70
     1
102
RTVSPropertyOp45
 70
     1
102
RTVSPropertyOp46
 70
     1
102
RTVSPropertyOp47
 70
     1
102
RTVSPropertyOp48
 70
     1
102
RTVSPropertyOp49
 70
     1
102
RTVSPropertyOp50
 70
     1
102
RTVSPropertyOp51
 70
     0
102
RTVSPropertyOp52
 70
     0
102
RTVSPropertyOp53
 70
     1
102
RTVSPropertyOp54
 70
     1
102
RTVSPropertyOp55
 70
     1
102
RTVSPropertyOp56
 70
     1
102
RTVSPropertyOp57
 70
     1
102
RTVSPropertyOp58
 70
     1
102
RTVSPropertyOp59
 70
     1
102
RTVSPropertyOp60
 70
     1
102
RTVSPropertyOp61
 70
     1
102
RTVSPropertyOp62
 70
     1
  0
XRECORD
  5
253A
102
{ACAD_REACTORS
330
2539
102
}
330
2539
100
AcDbXrecord
280
     1
102
RTVSPost2010Prop28
280
     0
102
RTVSPost2010PropOp28
 70
     1
102
RTVSPost2010Prop29
280
     1
102
RTVSPost2010PropOp29
 70
     1
102
RTVSPost2010Prop30
280
     1
102
RTVSPost2010PropOp30
 70
     1
102
RTVSPost2010Prop31
280
     0
102
RTVSPost2010PropOp31
 70
     1
102
RTVSPost2010Prop32
280
     0
102
RTVSPost2010PropOp32
 70
     1
102
RTVSPost2010Prop33
280
     0
102
RTVSPost2010PropOp33
 70
     1
102
RTVSPost2010Prop34
280
     0
102
RTVSPost2010PropOp34
 70
     1
102
RTVSPost2010Prop35
280
     0
102
RTVSPost2010PropOp35
 70
     1
102
RTVSPost2010Prop36
280
     0
102
RTVSPost2010PropOp36
 70
     1
102
RTVSPost2010Prop37
 90
       50
102
RTVSPost2010PropOp37
 70
     1
102
RTVSPost2010Prop38
140
0.0
102
RTVSPost2010PropOp38
 70
     1
102
RTVSPost2010Prop39
140
1.0
102
RTVSPost2010PropOp39
 70
     1
102
RTVSPost2010Prop40
 90
        0
102
RTVSPost2010PropOp40
 70
     1
102
RTVSPost2010Prop41ColorIndex
 90
       18
102
RTVSPost2010Prop41ColorRGB
 90
        0
102
RTVSPost2010PropOp41
 70
     1
102
RTVSPost2010Prop42
 90
       50
102
RTVSPost2010PropOp42
 70
     1
102
RTVSPost2010Prop43
 90
        3
102
RTVSPost2010PropOp43
 70
     1
102
RTVSPost2010Prop44ColorIndex
 90
        5
102
RTVSPost2010Prop44ColorRGB
 90
      255
102
RTVSPost2010PropOp44
 70
     1
102
RTVSPost2010Prop45
280
     0
102
RTVSPost2010PropOp45
 70
     1
102
RTVSPost2010Prop46
 90
       50
102
RTVSPost2010PropOp46
 70
     1
102
RTVSPost2010Prop47
 90
       50
102
RTVSPost2010PropOp47
 70
     1
102
RTVSPost2010Prop48
 90
       50
102
RTVSPost2010PropOp48
 70
     1
102
RTVSPost2010Prop49
280
     0
102
RTVSPost2010PropOp49
 70
     1
102
RTVSPost2010Prop50
 90
       50
102
RTVSPost2010PropOp50
 70
     1
102
RTVSPost2010Prop51ColorIndex
 90
      256
102
RTVSPost2010Prop51ColorRGB
 90
-16777216
102
RTVSPost2010PropOp51
 70
     0
102
RTVSPost2010Prop52
140
1.0
102
RTVSPost2010PropOp52
 70
     0
102
RTVSPost2010Prop53
 90
        2
102
RTVSPost2010PropOp53
 70
     1
102
RTVSPost2010Prop54
  1
strokes_ogs.tif
102
RTVSPost2010PropOp54
 70
     1
102
RTVSPost2010Prop55
280
     0
102
RTVSPost2010PropOp55
 70
     1
102
RTVSPost2010Prop56
140
1.0
102
RTVSPost2010PropOp56
 70
     1
102
RTVSPost2010Prop57
140
1.0
102
RTVSPost2010PropOp57
 70
     1
102
RTVSPropertyOp0
 70
     1
102
RTVSPropertyOp1
 70
     1
102
RTVSPropertyOp2
 70
     1
102
RTVSPropertyOp3
 70
     1
102
RTVSPropertyOp4
 70
     1
102
RTVSPropertyOp5
 70
     1
102
RTVSPropertyOp6
 70
     1
102
RTVSPropertyOp7
 70
     1
102
RTVSPropertyOp8
 70
     1
102
RTVSPropertyOp9
 70
     1
102
RTVSPropertyOp10
 70
     1
102
RTVSPropertyOp11
 70
     1
102
RTVSPropertyOp12
 70
     1
102
RTVSPropertyOp13
 70
     1
102
RTVSPropertyOp14
 70
     1
102
RTVSPropertyOp15
 70
     1
102
RTVSPropertyOp16
 70
     1
102
RTVSPropertyOp17
 70
     1
102
RTVSPropertyOp18
 70
     1
102
RTVSPropertyOp19
 70
     1
102
RTVSPropertyOp20
 70
     1
102
RTVSPropertyOp21
 70
     1
102
RTVSPropertyOp22
 70
     1
102
RTVSPropertyOp23
 70
     1
102
RTVSPropertyOp24
 70
     1
102
RTVSPropertyOp25
 70
     1
102
RTVSPropertyOp26
 70
     1
102
RTVSPropertyOp27
 70
     1
102
RTVSPropertyOp28
 70
     1
102
RTVSPropertyOp29
 70
     1
102
RTVSPropertyOp30
 70
     1
102
RTVSPropertyOp31
 70
     1
102
RTVSPropertyOp32
 70
     1
102
RTVSPropertyOp33
 70
     1
102
RTVSPropertyOp34
 70
     1
102
RTVSPropertyOp35
 70
     1
102
RTVSPropertyOp36
 70
     1
102
RTVSPropertyOp37
 70
     1
102
RTVSPropertyOp38
 70
     1
102
RTVSPropertyOp39
 70
     1
102
RTVSPropertyOp40
 70
     1
102
RTVSPropertyOp41
 70
     1
102
RTVSPropertyOp42
 70
     1
102
RTVSPropertyOp43
 70
     1
102
RTVSPropertyOp44
 70
     1
102
RTVSPropertyOp45
 70
     1
102
RTVSPropertyOp46
 70
     1
102
RTVSPropertyOp47
 70
     1
102
RTVSPropertyOp48
 70
     1
102
RTVSPropertyOp49
 70
     1
102
RTVSPropertyOp50
 70
     1
102
RTVSPropertyOp51
 70
     0
102
RTVSPropertyOp52
 70
     0
102
RTVSPropertyOp53
 70
     1
102
RTVSPropertyOp54
 70
     1
102
RTVSPropertyOp55
 70
     1
102
RTVSPropertyOp56
 70
     1
102
RTVSPropertyOp57
 70
     1
102
RTVSPropertyOp58
 70
     1
102
RTVSPropertyOp59
 70
     1
102
RTVSPropertyOp60
 70
     1
102
RTVSPropertyOp61
 70
     1
102
RTVSPropertyOp62
 70
     1
  0
XRECORD
  5
2538
102
{ACAD_REACTORS
330
2537
102
}
330
2537
100
AcDbXrecord
280
     1
102
RTVSPost2010Prop28
280
     0
102
RTVSPost2010PropOp28
 70
     1
102
RTVSPost2010Prop29
280
     1
102
RTVSPost2010PropOp29
 70
     1
102
RTVSPost2010Prop30
280
     1
102
RTVSPost2010PropOp30
 70
     1
102
RTVSPost2010Prop31
280
     0
102
RTVSPost2010PropOp31
 70
     1
102
RTVSPost2010Prop32
280
     0
102
RTVSPost2010PropOp32
 70
     1
102
RTVSPost2010Prop33
280
     0
102
RTVSPost2010PropOp33
 70
     1
102
RTVSPost2010Prop34
280
     0
102
RTVSPost2010PropOp34
 70
     1
102
RTVSPost2010Prop35
280
     0
102
RTVSPost2010PropOp35
 70
     1
102
RTVSPost2010Prop36
280
     0
102
RTVSPost2010PropOp36
 70
     1
102
RTVSPost2010Prop37
 90
       50
102
RTVSPost2010PropOp37
 70
     1
102
RTVSPost2010Prop38
140
0.0
102
RTVSPost2010PropOp38
 70
     1
102
RTVSPost2010Prop39
140
1.0
102
RTVSPost2010PropOp39
 70
     1
102
RTVSPost2010Prop40
 90
        0
102
RTVSPost2010PropOp40
 70
     1
102
RTVSPost2010Prop41ColorIndex
 90
       18
102
RTVSPost2010Prop41ColorRGB
 90
        0
102
RTVSPost2010PropOp41
 70
     1
102
RTVSPost2010Prop42
 90
       50
102
RTVSPost2010PropOp42
 70
     1
102
RTVSPost2010Prop43
 90
        3
102
RTVSPost2010PropOp43
 70
     1
102
RTVSPost2010Prop44ColorIndex
 90
        5
102
RTVSPost2010Prop44ColorRGB
 90
      255
102
RTVSPost2010PropOp44
 70
     1
102
RTVSPost2010Prop45
280
     0
102
RTVSPost2010PropOp45
 70
     1
102
RTVSPost2010Prop46
 90
       50
102
RTVSPost2010PropOp46
 70
     1
102
RTVSPost2010Prop47
 90
       50
102
RTVSPost2010PropOp47
 70
     1
102
RTVSPost2010Prop48
 90
       50
102
RTVSPost2010PropOp48
 70
     1
102
RTVSPost2010Prop49
280
     0
102
RTVSPost2010PropOp49
 70
     1
102
RTVSPost2010Prop50
 90
       50
102
RTVSPost2010PropOp50
 70
     1
102
RTVSPost2010Prop51ColorIndex
 90
      256
102
RTVSPost2010Prop51ColorRGB
 90
-16777216
102
RTVSPost2010PropOp51
 70
     0
102
RTVSPost2010Prop52
140
1.0
102
RTVSPost2010PropOp52
 70
     0
102
RTVSPost2010Prop53
 90
        2
102
RTVSPost2010PropOp53
 70
     1
102
RTVSPost2010Prop54
  1
strokes_ogs.tif
102
RTVSPost2010PropOp54
 70
     1
102
RTVSPost2010Prop55
280
     0
102
RTVSPost2010PropOp55
 70
     1
102
RTVSPost2010Prop56
140
1.0
102
RTVSPost2010PropOp56
 70
     1
102
RTVSPost2010Prop57
140
1.0
102
RTVSPost2010PropOp57
 70
     1
102
RTVSPropertyOp0
 70
     1
102
RTVSPropertyOp1
 70
     1
102
RTVSPropertyOp2
 70
     1
102
RTVSPropertyOp3
 70
     1
102
RTVSPropertyOp4
 70
     1
102
RTVSPropertyOp5
 70
     1
102
RTVSPropertyOp6
 70
     1
102
RTVSPropertyOp7
 70
     1
102
RTVSPropertyOp8
 70
     1
102
RTVSPropertyOp9
 70
     1
102
RTVSPropertyOp10
 70
     1
102
RTVSPropertyOp11
 70
     1
102
RTVSPropertyOp12
 70
     1
102
RTVSPropertyOp13
 70
     1
102
RTVSPropertyOp14
 70
     1
102
RTVSPropertyOp15
 70
     1
102
RTVSPropertyOp16
 70
     1
102
RTVSPropertyOp17
 70
     1
102
RTVSPropertyOp18
 70
     1
102
RTVSPropertyOp19
 70
     1
102
RTVSPropertyOp20
 70
     1
102
RTVSPropertyOp21
 70
     1
102
RTVSPropertyOp22
 70
     1
102
RTVSPropertyOp23
 70
     1
102
RTVSPropertyOp24
 70
     1
102
RTVSPropertyOp25
 70
     1
102
RTVSPropertyOp26
 70
     1
102
RTVSPropertyOp27
 70
     1
102
RTVSPropertyOp28
 70
     1
102
RTVSPropertyOp29
 70
     1
102
RTVSPropertyOp30
 70
     1
102
RTVSPropertyOp31
 70
     1
102
RTVSPropertyOp32
 70
     1
102
RTVSPropertyOp33
 70
     1
102
RTVSPropertyOp34
 70
     1
102
RTVSPropertyOp35
 70
     1
102
RTVSPropertyOp36
 70
     1
102
RTVSPropertyOp37
 70
     1
102
RTVSPropertyOp38
 70
     1
102
RTVSPropertyOp39
 70
     1
102
RTVSPropertyOp40
 70
     1
102
RTVSPropertyOp41
 70
     1
102
RTVSPropertyOp42
 70
     1
102
RTVSPropertyOp43
 70
     1
102
RTVSPropertyOp44
 70
     1
102
RTVSPropertyOp45
 70
     1
102
RTVSPropertyOp46
 70
     1
102
RTVSPropertyOp47
 70
     1
102
RTVSPropertyOp48
 70
     1
102
RTVSPropertyOp49
 70
     1
102
RTVSPropertyOp50
 70
     1
102
RTVSPropertyOp51
 70
     0
102
RTVSPropertyOp52
 70
     0
102
RTVSPropertyOp53
 70
     1
102
RTVSPropertyOp54
 70
     1
102
RTVSPropertyOp55
 70
     1
102
RTVSPropertyOp56
 70
     1
102
RTVSPropertyOp57
 70
     1
102
RTVSPropertyOp58
 70
     1
102
RTVSPropertyOp59
 70
     1
102
RTVSPropertyOp60
 70
     1
102
RTVSPropertyOp61
 70
     1
102
RTVSPropertyOp62
 70
     1
  0
XRECORD
  5
2532
102
{ACAD_REACTORS
330
2531
102
}
330
2531
100
AcDbXrecord
280
     1
102
RTVSPost2010Prop28
280
     0
102
RTVSPost2010PropOp28
 70
     1
102
RTVSPost2010Prop29
280
     1
102
RTVSPost2010PropOp29
 70
     1
102
RTVSPost2010Prop30
280
     1
102
RTVSPost2010PropOp30
 70
     1
102
RTVSPost2010Prop31
280
     0
102
RTVSPost2010PropOp31
 70
     1
102
RTVSPost2010Prop32
280
     0
102
RTVSPost2010PropOp32
 70
     1
102
RTVSPost2010Prop33
280
     0
102
RTVSPost2010PropOp33
 70
     1
102
RTVSPost2010Prop34
280
     0
102
RTVSPost2010PropOp34
 70
     1
102
RTVSPost2010Prop35
280
     0
102
RTVSPost2010PropOp35
 70
     1
102
RTVSPost2010Prop36
280
     0
102
RTVSPost2010PropOp36
 70
     1
102
RTVSPost2010Prop37
 90
       50
102
RTVSPost2010PropOp37
 70
     1
102
RTVSPost2010Prop38
140
0.0
102
RTVSPost2010PropOp38
 70
     1
102
RTVSPost2010Prop39
140
1.0
102
RTVSPost2010PropOp39
 70
     1
102
RTVSPost2010Prop40
 90
        0
102
RTVSPost2010PropOp40
 70
     1
102
RTVSPost2010Prop41ColorIndex
 90
       18
102
RTVSPost2010Prop41ColorRGB
 90
        0
102
RTVSPost2010PropOp41
 70
     1
102
RTVSPost2010Prop42
 90
       50
102
RTVSPost2010PropOp42
 70
     1
102
RTVSPost2010Prop43
 90
        3
102
RTVSPost2010PropOp43
 70
     1
102
RTVSPost2010Prop44ColorIndex
 90
        5
102
RTVSPost2010Prop44ColorRGB
 90
      255
102
RTVSPost2010PropOp44
 70
     1
102
RTVSPost2010Prop45
280
     0
102
RTVSPost2010PropOp45
 70
     1
102
RTVSPost2010Prop46
 90
       50
102
RTVSPost2010PropOp46
 70
     1
102
RTVSPost2010Prop47
 90
       50
102
RTVSPost2010PropOp47
 70
     1
102
RTVSPost2010Prop48
 90
       50
102
RTVSPost2010PropOp48
 70
     1
102
RTVSPost2010Prop49
280
     0
102
RTVSPost2010PropOp49
 70
     1
102
RTVSPost2010Prop50
 90
       50
102
RTVSPost2010PropOp50
 70
     1
102
RTVSPost2010Prop51ColorIndex
 90
      256
102
RTVSPost2010Prop51ColorRGB
 90
-16777216
102
RTVSPost2010PropOp51
 70
     0
102
RTVSPost2010Prop52
140
1.0
102
RTVSPost2010PropOp52
 70
     0
102
RTVSPost2010Prop53
 90
        2
102
RTVSPost2010PropOp53
 70
     1
102
RTVSPost2010Prop54
  1
strokes_ogs.tif
102
RTVSPost2010PropOp54
 70
     1
102
RTVSPost2010Prop55
280
     0
102
RTVSPost2010PropOp55
 70
     1
102
RTVSPost2010Prop56
140
1.0
102
RTVSPost2010PropOp56
 70
     1
102
RTVSPost2010Prop57
140
1.0
102
RTVSPost2010PropOp57
 70
     1
102
RTVSPropertyOp0
 70
     1
102
RTVSPropertyOp1
 70
     1
102
RTVSPropertyOp2
 70
     1
102
RTVSPropertyOp3
 70
     1
102
RTVSPropertyOp4
 70
     1
102
RTVSPropertyOp5
 70
     1
102
RTVSPropertyOp6
 70
     1
102
RTVSPropertyOp7
 70
     1
102
RTVSPropertyOp8
 70
     1
102
RTVSPropertyOp9
 70
     1
102
RTVSPropertyOp10
 70
     1
102
RTVSPropertyOp11
 70
     1
102
RTVSPropertyOp12
 70
     1
102
RTVSPropertyOp13
 70
     1
102
RTVSPropertyOp14
 70
     1
102
RTVSPropertyOp15
 70
     1
102
RTVSPropertyOp16
 70
     1
102
RTVSPropertyOp17
 70
     1
102
RTVSPropertyOp18
 70
     1
102
RTVSPropertyOp19
 70
     1
102
RTVSPropertyOp20
 70
     1
102
RTVSPropertyOp21
 70
     1
102
RTVSPropertyOp22
 70
     1
102
RTVSPropertyOp23
 70
     1
102
RTVSPropertyOp24
 70
     1
102
RTVSPropertyOp25
 70
     1
102
RTVSPropertyOp26
 70
     1
102
RTVSPropertyOp27
 70
     1
102
RTVSPropertyOp28
 70
     1
102
RTVSPropertyOp29
 70
     1
102
RTVSPropertyOp30
 70
     1
102
RTVSPropertyOp31
 70
     1
102
RTVSPropertyOp32
 70
     1
102
RTVSPropertyOp33
 70
     1
102
RTVSPropertyOp34
 70
     1
102
RTVSPropertyOp35
 70
     1
102
RTVSPropertyOp36
 70
     1
102
RTVSPropertyOp37
 70
     1
102
RTVSPropertyOp38
 70
     1
102
RTVSPropertyOp39
 70
     1
102
RTVSPropertyOp40
 70
     1
102
RTVSPropertyOp41
 70
     1
102
RTVSPropertyOp42
 70
     1
102
RTVSPropertyOp43
 70
     1
102
RTVSPropertyOp44
 70
     1
102
RTVSPropertyOp45
 70
     1
102
RTVSPropertyOp46
 70
     1
102
RTVSPropertyOp47
 70
     1
102
RTVSPropertyOp48
 70
     1
102
RTVSPropertyOp49
 70
     1
102
RTVSPropertyOp50
 70
     1
102
RTVSPropertyOp51
 70
     0
102
RTVSPropertyOp52
 70
     0
102
RTVSPropertyOp53
 70
     1
102
RTVSPropertyOp54
 70
     1
102
RTVSPropertyOp55
 70
     1
102
RTVSPropertyOp56
 70
     1
102
RTVSPropertyOp57
 70
     1
102
RTVSPropertyOp58
 70
     1
102
RTVSPropertyOp59
 70
     1
102
RTVSPropertyOp60
 70
     1
102
RTVSPropertyOp61
 70
     1
102
RTVSPropertyOp62
 70
     1
  0
XRECORD
  5
2534
102
{ACAD_REACTORS
330
2533
102
}
330
2533
100
AcDbXrecord
280
     1
102
RTVSPost2010Prop28
280
     0
102
RTVSPost2010PropOp28
 70
     1
102
RTVSPost2010Prop29
280
     1
102
RTVSPost2010PropOp29
 70
     1
102
RTVSPost2010Prop30
280
     1
102
RTVSPost2010PropOp30
 70
     1
102
RTVSPost2010Prop31
280
     0
102
RTVSPost2010PropOp31
 70
     1
102
RTVSPost2010Prop32
280
     0
102
RTVSPost2010PropOp32
 70
     1
102
RTVSPost2010Prop33
280
     0
102
RTVSPost2010PropOp33
 70
     1
102
RTVSPost2010Prop34
280
     0
102
RTVSPost2010PropOp34
 70
     1
102
RTVSPost2010Prop35
280
     0
102
RTVSPost2010PropOp35
 70
     1
102
RTVSPost2010Prop36
280
     0
102
RTVSPost2010PropOp36
 70
     1
102
RTVSPost2010Prop37
 90
       50
102
RTVSPost2010PropOp37
 70
     1
102
RTVSPost2010Prop38
140
0.0
102
RTVSPost2010PropOp38
 70
     1
102
RTVSPost2010Prop39
140
1.0
102
RTVSPost2010PropOp39
 70
     1
102
RTVSPost2010Prop40
 90
        0
102
RTVSPost2010PropOp40
 70
     1
102
RTVSPost2010Prop41ColorIndex
 90
       18
102
RTVSPost2010Prop41ColorRGB
 90
        0
102
RTVSPost2010PropOp41
 70
     1
102
RTVSPost2010Prop42
 90
       50
102
RTVSPost2010PropOp42
 70
     1
102
RTVSPost2010Prop43
 90
        3
102
RTVSPost2010PropOp43
 70
     1
102
RTVSPost2010Prop44ColorIndex
 90
        5
102
RTVSPost2010Prop44ColorRGB
 90
      255
102
RTVSPost2010PropOp44
 70
     1
102
RTVSPost2010Prop45
280
     0
102
RTVSPost2010PropOp45
 70
     1
102
RTVSPost2010Prop46
 90
       50
102
RTVSPost2010PropOp46
 70
     1
102
RTVSPost2010Prop47
 90
       50
102
RTVSPost2010PropOp47
 70
     1
102
RTVSPost2010Prop48
 90
       50
102
RTVSPost2010PropOp48
 70
     1
102
RTVSPost2010Prop49
280
     0
102
RTVSPost2010PropOp49
 70
     1
102
RTVSPost2010Prop50
 90
       50
102
RTVSPost2010PropOp50
 70
     1
102
RTVSPost2010Prop51ColorIndex
 90
      256
102
RTVSPost2010Prop51ColorRGB
 90
-16777216
102
RTVSPost2010PropOp51
 70
     0
102
RTVSPost2010Prop52
140
1.0
102
RTVSPost2010PropOp52
 70
     0
102
RTVSPost2010Prop53
 90
        2
102
RTVSPost2010PropOp53
 70
     1
102
RTVSPost2010Prop54
  1
strokes_ogs.tif
102
RTVSPost2010PropOp54
 70
     1
102
RTVSPost2010Prop55
280
     0
102
RTVSPost2010PropOp55
 70
     1
102
RTVSPost2010Prop56
140
1.0
102
RTVSPost2010PropOp56
 70
     1
102
RTVSPost2010Prop57
140
1.0
102
RTVSPost2010PropOp57
 70
     1
102
RTVSPropertyOp0
 70
     1
102
RTVSPropertyOp1
 70
     1
102
RTVSPropertyOp2
 70
     1
102
RTVSPropertyOp3
 70
     1
102
RTVSPropertyOp4
 70
     1
102
RTVSPropertyOp5
 70
     1
102
RTVSPropertyOp6
 70
     1
102
RTVSPropertyOp7
 70
     1
102
RTVSPropertyOp8
 70
     1
102
RTVSPropertyOp9
 70
     1
102
RTVSPropertyOp10
 70
     1
102
RTVSPropertyOp11
 70
     1
102
RTVSPropertyOp12
 70
     1
102
RTVSPropertyOp13
 70
     1
102
RTVSPropertyOp14
 70
     1
102
RTVSPropertyOp15
 70
     1
102
RTVSPropertyOp16
 70
     1
102
RTVSPropertyOp17
 70
     1
102
RTVSPropertyOp18
 70
     1
102
RTVSPropertyOp19
 70
     1
102
RTVSPropertyOp20
 70
     1
102
RTVSPropertyOp21
 70
     1
102
RTVSPropertyOp22
 70
     1
102
RTVSPropertyOp23
 70
     1
102
RTVSPropertyOp24
 70
     1
102
RTVSPropertyOp25
 70
     1
102
RTVSPropertyOp26
 70
     1
102
RTVSPropertyOp27
 70
     1
102
RTVSPropertyOp28
 70
     1
102
RTVSPropertyOp29
 70
     1
102
RTVSPropertyOp30
 70
     1
102
RTVSPropertyOp31
 70
     1
102
RTVSPropertyOp32
 70
     1
102
RTVSPropertyOp33
 70
     1
102
RTVSPropertyOp34
 70
     1
102
RTVSPropertyOp35
 70
     1
102
RTVSPropertyOp36
 70
     1
102
RTVSPropertyOp37
 70
     1
102
RTVSPropertyOp38
 70
     1
102
RTVSPropertyOp39
 70
     1
102
RTVSPropertyOp40
 70
     1
102
RTVSPropertyOp41
 70
     1
102
RTVSPropertyOp42
 70
     1
102
RTVSPropertyOp43
 70
     1
102
RTVSPropertyOp44
 70
     1
102
RTVSPropertyOp45
 70
     1
102
RTVSPropertyOp46
 70
     1
102
RTVSPropertyOp47
 70
     1
102
RTVSPropertyOp48
 70
     1
102
RTVSPropertyOp49
 70
     1
102
RTVSPropertyOp50
 70
     1
102
RTVSPropertyOp51
 70
     0
102
RTVSPropertyOp52
 70
     0
102
RTVSPropertyOp53
 70
     1
102
RTVSPropertyOp54
 70
     1
102
RTVSPropertyOp55
 70
     1
102
RTVSPropertyOp56
 70
     1
102
RTVSPropertyOp57
 70
     1
102
RTVSPropertyOp58
 70
     1
102
RTVSPropertyOp59
 70
     1
102
RTVSPropertyOp60
 70
     1
102
RTVSPropertyOp61
 70
     1
102
RTVSPropertyOp62
 70
     1
  0
XRECORD
  5
252A
102
{ACAD_REACTORS
330
2529
102
}
330
2529
100
AcDbXrecord
280
     1
102
RTVSPost2010Prop28
280
     0
102
RTVSPost2010PropOp28
 70
     1
102
RTVSPost2010Prop29
280
     1
102
RTVSPost2010PropOp29
 70
     1
102
RTVSPost2010Prop30
280
     1
102
RTVSPost2010PropOp30
 70
     1
102
RTVSPost2010Prop31
280
     0
102
RTVSPost2010PropOp31
 70
     1
102
RTVSPost2010Prop32
280
     0
102
RTVSPost2010PropOp32
 70
     1
102
RTVSPost2010Prop33
280
     0
102
RTVSPost2010PropOp33
 70
     1
102
RTVSPost2010Prop34
280
     0
102
RTVSPost2010PropOp34
 70
     1
102
RTVSPost2010Prop35
280
     0
102
RTVSPost2010PropOp35
 70
     1
102
RTVSPost2010Prop36
280
     0
102
RTVSPost2010PropOp36
 70
     1
102
RTVSPost2010Prop37
 90
       50
102
RTVSPost2010PropOp37
 70
     1
102
RTVSPost2010Prop38
140
0.0
102
RTVSPost2010PropOp38
 70
     1
102
RTVSPost2010Prop39
140
1.0
102
RTVSPost2010PropOp39
 70
     1
102
RTVSPost2010Prop40
 90
        0
102
RTVSPost2010PropOp40
 70
     1
102
RTVSPost2010Prop41ColorIndex
 90
       18
102
RTVSPost2010Prop41ColorRGB
 90
        0
102
RTVSPost2010PropOp41
 70
     1
102
RTVSPost2010Prop42
 90
       50
102
RTVSPost2010PropOp42
 70
     1
102
RTVSPost2010Prop43
 90
        3
102
RTVSPost2010PropOp43
 70
     1
102
RTVSPost2010Prop44ColorIndex
 90
        5
102
RTVSPost2010Prop44ColorRGB
 90
      255
102
RTVSPost2010PropOp44
 70
     1
102
RTVSPost2010Prop45
280
     0
102
RTVSPost2010PropOp45
 70
     1
102
RTVSPost2010Prop46
 90
       50
102
RTVSPost2010PropOp46
 70
     1
102
RTVSPost2010Prop47
 90
       50
102
RTVSPost2010PropOp47
 70
     1
102
RTVSPost2010Prop48
 90
       50
102
RTVSPost2010PropOp48
 70
     1
102
RTVSPost2010Prop49
280
     0
102
RTVSPost2010PropOp49
 70
     1
102
RTVSPost2010Prop50
 90
       50
102
RTVSPost2010PropOp50
 70
     1
102
RTVSPost2010Prop51ColorIndex
 90
      256
102
RTVSPost2010Prop51ColorRGB
 90
-16777216
102
RTVSPost2010PropOp51
 70
     0
102
RTVSPost2010Prop52
140
1.0
102
RTVSPost2010PropOp52
 70
     0
102
RTVSPost2010Prop53
 90
        2
102
RTVSPost2010PropOp53
 70
     1
102
RTVSPost2010Prop54
  1
strokes_ogs.tif
102
RTVSPost2010PropOp54
 70
     1
102
RTVSPost2010Prop55
280
     0
102
RTVSPost2010PropOp55
 70
     1
102
RTVSPost2010Prop56
140
1.0
102
RTVSPost2010PropOp56
 70
     1
102
RTVSPost2010Prop57
140
1.0
102
RTVSPost2010PropOp57
 70
     1
102
RTVSPropertyOp0
 70
     1
102
RTVSPropertyOp1
 70
     1
102
RTVSPropertyOp2
 70
     1
102
RTVSPropertyOp3
 70
     1
102
RTVSPropertyOp4
 70
     1
102
RTVSPropertyOp5
 70
     1
102
RTVSPropertyOp6
 70
     1
102
RTVSPropertyOp7
 70
     1
102
RTVSPropertyOp8
 70
     1
102
RTVSPropertyOp9
 70
     1
102
RTVSPropertyOp10
 70
     1
102
RTVSPropertyOp11
 70
     1
102
RTVSPropertyOp12
 70
     1
102
RTVSPropertyOp13
 70
     1
102
RTVSPropertyOp14
 70
     1
102
RTVSPropertyOp15
 70
     1
102
RTVSPropertyOp16
 70
     1
102
RTVSPropertyOp17
 70
     1
102
RTVSPropertyOp18
 70
     1
102
RTVSPropertyOp19
 70
     1
102
RTVSPropertyOp20
 70
     1
102
RTVSPropertyOp21
 70
     1
102
RTVSPropertyOp22
 70
     1
102
RTVSPropertyOp23
 70
     1
102
RTVSPropertyOp24
 70
     1
102
RTVSPropertyOp25
 70
     1
102
RTVSPropertyOp26
 70
     1
102
RTVSPropertyOp27
 70
     1
102
RTVSPropertyOp28
 70
     1
102
RTVSPropertyOp29
 70
     1
102
RTVSPropertyOp30
 70
     1
102
RTVSPropertyOp31
 70
     1
102
RTVSPropertyOp32
 70
     1
102
RTVSPropertyOp33
 70
     1
102
RTVSPropertyOp34
 70
     1
102
RTVSPropertyOp35
 70
     1
102
RTVSPropertyOp36
 70
     1
102
RTVSPropertyOp37
 70
     1
102
RTVSPropertyOp38
 70
     1
102
RTVSPropertyOp39
 70
     1
102
RTVSPropertyOp40
 70
     1
102
RTVSPropertyOp41
 70
     1
102
RTVSPropertyOp42
 70
     1
102
RTVSPropertyOp43
 70
     1
102
RTVSPropertyOp44
 70
     1
102
RTVSPropertyOp45
 70
     1
102
RTVSPropertyOp46
 70
     1
102
RTVSPropertyOp47
 70
     1
102
RTVSPropertyOp48
 70
     1
102
RTVSPropertyOp49
 70
     1
102
RTVSPropertyOp50
 70
     1
102
RTVSPropertyOp51
 70
     0
102
RTVSPropertyOp52
 70
     0
102
RTVSPropertyOp53
 70
     1
102
RTVSPropertyOp54
 70
     1
102
RTVSPropertyOp55
 70
     1
102
RTVSPropertyOp56
 70
     1
102
RTVSPropertyOp57
 70
     1
102
RTVSPropertyOp58
 70
     1
102
RTVSPropertyOp59
 70
     1
102
RTVSPropertyOp60
 70
     1
102
RTVSPropertyOp61
 70
     1
102
RTVSPropertyOp62
 70
     1
  0
XRECORD
  5
251E
102
{ACAD_REACTORS
330
251D
102
}
330
251D
100
AcDbXrecord
280
     1
102
RTVSPost2010Prop28
280
     0
102
RTVSPost2010PropOp28
 70
     1
102
RTVSPost2010Prop29
280
     1
102
RTVSPost2010PropOp29
 70
     1
102
RTVSPost2010Prop30
280
     1
102
RTVSPost2010PropOp30
 70
     1
102
RTVSPost2010Prop31
280
     0
102
RTVSPost2010PropOp31
 70
     1
102
RTVSPost2010Prop32
280
     0
102
RTVSPost2010PropOp32
 70
     1
102
RTVSPost2010Prop33
280
     0
102
RTVSPost2010PropOp33
 70
     1
102
RTVSPost2010Prop34
280
     0
102
RTVSPost2010PropOp34
 70
     1
102
RTVSPost2010Prop35
280
     0
102
RTVSPost2010PropOp35
 70
     1
102
RTVSPost2010Prop36
280
     0
102
RTVSPost2010PropOp36
 70
     1
102
RTVSPost2010Prop37
 90
       50
102
RTVSPost2010PropOp37
 70
     1
102
RTVSPost2010Prop38
140
0.0
102
RTVSPost2010PropOp38
 70
     1
102
RTVSPost2010Prop39
140
1.0
102
RTVSPost2010PropOp39
 70
     1
102
RTVSPost2010Prop40
 90
        0
102
RTVSPost2010PropOp40
 70
     1
102
RTVSPost2010Prop41ColorIndex
 90
       18
102
RTVSPost2010Prop41ColorRGB
 90
        0
102
RTVSPost2010PropOp41
 70
     1
102
RTVSPost2010Prop42
 90
       50
102
RTVSPost2010PropOp42
 70
     1
102
RTVSPost2010Prop43
 90
        3
102
RTVSPost2010PropOp43
 70
     1
102
RTVSPost2010Prop44ColorIndex
 90
        5
102
RTVSPost2010Prop44ColorRGB
 90
      255
102
RTVSPost2010PropOp44
 70
     1
102
RTVSPost2010Prop45
280
     0
102
RTVSPost2010PropOp45
 70
     1
102
RTVSPost2010Prop46
 90
       50
102
RTVSPost2010PropOp46
 70
     1
102
RTVSPost2010Prop47
 90
       50
102
RTVSPost2010PropOp47
 70
     1
102
RTVSPost2010Prop48
 90
       50
102
RTVSPost2010PropOp48
 70
     1
102
RTVSPost2010Prop49
280
     0
102
RTVSPost2010PropOp49
 70
     1
102
RTVSPost2010Prop50
 90
       50
102
RTVSPost2010PropOp50
 70
     1
102
RTVSPost2010Prop51ColorIndex
 90
      256
102
RTVSPost2010Prop51ColorRGB
 90
-16777216
102
RTVSPost2010PropOp51
 70
     0
102
RTVSPost2010Prop52
140
1.0
102
RTVSPost2010PropOp52
 70
     0
102
RTVSPost2010Prop53
 90
        2
102
RTVSPost2010PropOp53
 70
     1
102
RTVSPost2010Prop54
  1
strokes_ogs.tif
102
RTVSPost2010PropOp54
 70
     1
102
RTVSPost2010Prop55
280
     0
102
RTVSPost2010PropOp55
 70
     1
102
RTVSPost2010Prop56
140
1.0
102
RTVSPost2010PropOp56
 70
     1
102
RTVSPost2010Prop57
140
1.0
102
RTVSPost2010PropOp57
 70
     1
102
RTVSPropertyOp0
 70
     1
102
RTVSPropertyOp1
 70
     1
102
RTVSPropertyOp2
 70
     1
102
RTVSPropertyOp3
 70
     1
102
RTVSPropertyOp4
 70
     1
102
RTVSPropertyOp5
 70
     1
102
RTVSPropertyOp6
 70
     1
102
RTVSPropertyOp7
 70
     1
102
RTVSPropertyOp8
 70
     1
102
RTVSPropertyOp9
 70
     1
102
RTVSPropertyOp10
 70
     1
102
RTVSPropertyOp11
 70
     1
102
RTVSPropertyOp12
 70
     1
102
RTVSPropertyOp13
 70
     1
102
RTVSPropertyOp14
 70
     1
102
RTVSPropertyOp15
 70
     1
102
RTVSPropertyOp16
 70
     1
102
RTVSPropertyOp17
 70
     1
102
RTVSPropertyOp18
 70
     1
102
RTVSPropertyOp19
 70
     1
102
RTVSPropertyOp20
 70
     1
102
RTVSPropertyOp21
 70
     1
102
RTVSPropertyOp22
 70
     1
102
RTVSPropertyOp23
 70
     1
102
RTVSPropertyOp24
 70
     1
102
RTVSPropertyOp25
 70
     1
102
RTVSPropertyOp26
 70
     1
102
RTVSPropertyOp27
 70
     1
102
RTVSPropertyOp28
 70
     1
102
RTVSPropertyOp29
 70
     1
102
RTVSPropertyOp30
 70
     1
102
RTVSPropertyOp31
 70
     1
102
RTVSPropertyOp32
 70
     1
102
RTVSPropertyOp33
 70
     1
102
RTVSPropertyOp34
 70
     1
102
RTVSPropertyOp35
 70
     1
102
RTVSPropertyOp36
 70
     1
102
RTVSPropertyOp37
 70
     1
102
RTVSPropertyOp38
 70
     1
102
RTVSPropertyOp39
 70
     1
102
RTVSPropertyOp40
 70
     1
102
RTVSPropertyOp41
 70
     1
102
RTVSPropertyOp42
 70
     1
102
RTVSPropertyOp43
 70
     1
102
RTVSPropertyOp44
 70
     1
102
RTVSPropertyOp45
 70
     1
102
RTVSPropertyOp46
 70
     1
102
RTVSPropertyOp47
 70
     1
102
RTVSPropertyOp48
 70
     1
102
RTVSPropertyOp49
 70
     1
102
RTVSPropertyOp50
 70
     1
102
RTVSPropertyOp51
 70
     0
102
RTVSPropertyOp52
 70
     0
102
RTVSPropertyOp53
 70
     1
102
RTVSPropertyOp54
 70
     1
102
RTVSPropertyOp55
 70
     1
102
RTVSPropertyOp56
 70
     1
102
RTVSPropertyOp57
 70
     1
102
RTVSPropertyOp58
 70
     1
102
RTVSPropertyOp59
 70
     1
102
RTVSPropertyOp60
 70
     1
102
RTVSPropertyOp61
 70
     1
102
RTVSPropertyOp62
 70
     1
  0
XRECORD
  5
2536
102
{ACAD_REACTORS
330
2535
102
}
330
2535
100
AcDbXrecord
280
     1
102
RTVSPost2010Prop28
280
     0
102
RTVSPost2010PropOp28
 70
     1
102
RTVSPost2010Prop29
280
     1
102
RTVSPost2010PropOp29
 70
     1
102
RTVSPost2010Prop30
280
     1
102
RTVSPost2010PropOp30
 70
     1
102
RTVSPost2010Prop31
280
     0
102
RTVSPost2010PropOp31
 70
     1
102
RTVSPost2010Prop32
280
     0
102
RTVSPost2010PropOp32
 70
     1
102
RTVSPost2010Prop33
280
     0
102
RTVSPost2010PropOp33
 70
     1
102
RTVSPost2010Prop34
280
     0
102
RTVSPost2010PropOp34
 70
     1
102
RTVSPost2010Prop35
280
     0
102
RTVSPost2010PropOp35
 70
     1
102
RTVSPost2010Prop36
280
     0
102
RTVSPost2010PropOp36
 70
     1
102
RTVSPost2010Prop37
 90
       50
102
RTVSPost2010PropOp37
 70
     1
102
RTVSPost2010Prop38
140
0.0
102
RTVSPost2010PropOp38
 70
     1
102
RTVSPost2010Prop39
140
1.0
102
RTVSPost2010PropOp39
 70
     1
102
RTVSPost2010Prop40
 90
        0
102
RTVSPost2010PropOp40
 70
     1
102
RTVSPost2010Prop41ColorIndex
 90
       18
102
RTVSPost2010Prop41ColorRGB
 90
        0
102
RTVSPost2010PropOp41
 70
     1
102
RTVSPost2010Prop42
 90
       50
102
RTVSPost2010PropOp42
 70
     1
102
RTVSPost2010Prop43
 90
        3
102
RTVSPost2010PropOp43
 70
     1
102
RTVSPost2010Prop44ColorIndex
 90
        5
102
RTVSPost2010Prop44ColorRGB
 90
      255
102
RTVSPost2010PropOp44
 70
     1
102
RTVSPost2010Prop45
280
     0
102
RTVSPost2010PropOp45
 70
     1
102
RTVSPost2010Prop46
 90
       50
102
RTVSPost2010PropOp46
 70
     1
102
RTVSPost2010Prop47
 90
       50
102
RTVSPost2010PropOp47
 70
     1
102
RTVSPost2010Prop48
 90
       50
102
RTVSPost2010PropOp48
 70
     1
102
RTVSPost2010Prop49
280
     0
102
RTVSPost2010PropOp49
 70
     1
102
RTVSPost2010Prop50
 90
       50
102
RTVSPost2010PropOp50
 70
     1
102
RTVSPost2010Prop51ColorIndex
 90
      256
102
RTVSPost2010Prop51ColorRGB
 90
-16777216
102
RTVSPost2010PropOp51
 70
     0
102
RTVSPost2010Prop52
140
1.0
102
RTVSPost2010PropOp52
 70
     0
102
RTVSPost2010Prop53
 90
        2
102
RTVSPost2010PropOp53
 70
     1
102
RTVSPost2010Prop54
  1
strokes_ogs.tif
102
RTVSPost2010PropOp54
 70
     1
102
RTVSPost2010Prop55
280
     0
102
RTVSPost2010PropOp55
 70
     1
102
RTVSPost2010Prop56
140
1.0
102
RTVSPost2010PropOp56
 70
     1
102
RTVSPost2010Prop57
140
1.0
102
RTVSPost2010PropOp57
 70
     1
102
RTVSPropertyOp0
 70
     1
102
RTVSPropertyOp1
 70
     1
102
RTVSPropertyOp2
 70
     1
102
RTVSPropertyOp3
 70
     1
102
RTVSPropertyOp4
 70
     1
102
RTVSPropertyOp5
 70
     1
102
RTVSPropertyOp6
 70
     1
102
RTVSPropertyOp7
 70
     1
102
RTVSPropertyOp8
 70
     1
102
RTVSPropertyOp9
 70
     1
102
RTVSPropertyOp10
 70
     1
102
RTVSPropertyOp11
 70
     1
102
RTVSPropertyOp12
 70
     1
102
RTVSPropertyOp13
 70
     1
102
RTVSPropertyOp14
 70
     1
102
RTVSPropertyOp15
 70
     1
102
RTVSPropertyOp16
 70
     1
102
RTVSPropertyOp17
 70
     1
102
RTVSPropertyOp18
 70
     1
102
RTVSPropertyOp19
 70
     1
102
RTVSPropertyOp20
 70
     1
102
RTVSPropertyOp21
 70
     1
102
RTVSPropertyOp22
 70
     1
102
RTVSPropertyOp23
 70
     1
102
RTVSPropertyOp24
 70
     1
102
RTVSPropertyOp25
 70
     1
102
RTVSPropertyOp26
 70
     1
102
RTVSPropertyOp27
 70
     1
102
RTVSPropertyOp28
 70
     1
102
RTVSPropertyOp29
 70
     1
102
RTVSPropertyOp30
 70
     1
102
RTVSPropertyOp31
 70
     1
102
RTVSPropertyOp32
 70
     1
102
RTVSPropertyOp33
 70
     1
102
RTVSPropertyOp34
 70
     1
102
RTVSPropertyOp35
 70
     1
102
RTVSPropertyOp36
 70
     1
102
RTVSPropertyOp37
 70
     1
102
RTVSPropertyOp38
 70
     1
102
RTVSPropertyOp39
 70
     1
102
RTVSPropertyOp40
 70
     1
102
RTVSPropertyOp41
 70
     1
102
RTVSPropertyOp42
 70
     1
102
RTVSPropertyOp43
 70
     1
102
RTVSPropertyOp44
 70
     1
102
RTVSPropertyOp45
 70
     1
102
RTVSPropertyOp46
 70
     1
102
RTVSPropertyOp47
 70
     1
102
RTVSPropertyOp48
 70
     1
102
RTVSPropertyOp49
 70
     1
102
RTVSPropertyOp50
 70
     1
102
RTVSPropertyOp51
 70
     0
102
RTVSPropertyOp52
 70
     0
102
RTVSPropertyOp53
 70
     1
102
RTVSPropertyOp54
 70
     1
102
RTVSPropertyOp55
 70
     1
102
RTVSPropertyOp56
 70
     1
102
RTVSPropertyOp57
 70
     1
102
RTVSPropertyOp58
 70
     1
102
RTVSPropertyOp59
 70
     1
102
RTVSPropertyOp60
 70
     1
102
RTVSPropertyOp61
 70
     1
102
RTVSPropertyOp62
 70
     1
  0
ENDSEC
  0
EOF
