  0
SECTION
  2
HEADER
  9
$ACADVER
  1
AC1015
  9
$ACADMAINTVER
 70
    20
  9
$DWGCODEPAGE
  3
ANSI_932
  9
$INSBASE
 10
0.0
 20
0.0
 30
0.0
  9
$EXTMIN
 10
9.9999975266385
 20
10.0
 30
0.0
  9
$EXTMAX
 10
537.8831909118035
 20
419.6509495562922
 30
0.0
  9
$LIMMIN
 10
0.0000015376081137
 20
-0.0000001931532552
  9
$LIMMAX
 10
655.0000015376085
 20
451.5530301098769
  9
$ORTHOMODE
 70
     1
  9
$REGENMODE
 70
     1
  9
$FILLMODE
 70
     1
  9
$QTEXTMODE
 70
     0
  9
$MIRRTEXT
 70
     1
  9
$LTSCALE
 40
1.0
  9
$ATTMODE
 70
     1
  9
$TEXTSIZE
 40
2.5
  9
$TRACEWID
 40
1.0
  9
$TEXTSTYLE
  7
STANDARD
  9
$CLAYER
  8
0
  9
$CELTYPE
  6
BYLAYER
  9
$CECOLOR
 62
   256
  9
$CELTSCALE
 40
1.0
  9
$DISPSILH
 70
     0
  9
$DIMSCALE
 40
1.0
  9
$DIMASZ
 40
3.0
  9
$DIMEXO
 40
1.0
  9
$DIMDLI
 40
10.0
  9
$DIMRND
 40
0.0
  9
$DIMDLE
 40
0.0
  9
$DIMEXE
 40
1.0
  9
$DIMTP
 40
0.0
  9
$DIMTM
 40
0.0
  9
$DIMTXT
 40
3.2
  9
$DIMCEN
 40
0.0
  9
$DIMTSZ
 40
0.0
  9
$DIMTOL
 70
     0
  9
$DIMLIM
 70
     0
  9
$DIMTIH
 70
     0
  9
$DIMTOH
 70
     0
  9
$DIMSE1
 70
     0
  9
$DIMSE2
 70
     0
  9
$DIMTAD
 70
     3
  9
$DIMZIN
 70
     8
  9
$DIMBLK
  1

  9
$DIMASO
 70
     1
  9
$DIMSHO
 70
     1
  9
$DIMPOST
  1

  9
$DIMAPOST
  1

  9
$DIMALT
 70
     0
  9
$DIMALTD
 70
     2
  9
$DIMALTF
 40
25.4
  9
$DIMLFAC
 40
1.0
  9
$DIMTOFL
 70
     1
  9
$DIMTVP
 40
0.0
  9
$DIMTIX
 70
     0
  9
$DIMSOXD
 70
     0
  9
$DIMSAH
 70
     1
  9
$DIMBLK1
  1
OPEN
  9
$DIMBLK2
  1
OPEN
  9
$DIMSTYLE
  2
STANDARD
  9
$DIMCLRD
 70
     0
  9
$DIMCLRE
 70
     0
  9
$DIMCLRT
 70
     0
  9
$DIMTFAC
 40
1.0
  9
$DIMGAP
 40
1.0
  9
$DIMJUST
 70
     0
  9
$DIMSD1
 70
     0
  9
$DIMSD2
 70
     0
  9
$DIMTOLJ
 70
     1
  9
$DIMTZIN
 70
     0
  9
$DIMALTZ
 70
     0
  9
$DIMALTTZ
 70
     0
  9
$DIMUPT
 70
     0
  9
$DIMDEC
 70
     4
  9
$DIMTDEC
 70
     4
  9
$DIMALTU
 70
     2
  9
$DIMALTTD
 70
     2
  9
$DIMTXSTY
  7
STANDARD
  9
$DIMAUNIT
 70
     0
  9
$DIMADEC
 70
     0
  9
$DIMALTRND
 40
0.0
  9
$DIMAZIN
 70
     0
  9
$DIMDSEP
 70
    46
  9
$DIMATFIT
 70
     3
  9
$DIMFRAC
 70
     0
  9
$DIMLDRBLK
  1
OPEN
  9
$DIMLUNIT
 70
     2
  9
$DIMLWD
 70
    -2
  9
$DIMLWE
 70
    -2
  9
$DIMTMOVE
 70
     0
  9
$LUNITS
 70
     2
  9
$LUPREC
 70
     4
  9
$SKETCHINC
 40
1.0
  9
$FILLETRAD
 40
0.0
  9
$AUNITS
 70
     0
  9
$AUPREC
 70
     0
  9
$MENU
  1
.
  9
$ELEVATION
 40
0.0
  9
$PELEVATION
 40
0.0
  9
$THICKNESS
 40
0.0
  9
$LIMCHECK
 70
     0
  9
$CHAMFERA
 40
10.0
  9
$CHAMFERB
 40
10.0
  9
$CHAMFERC
 40
20.0
  9
$CHAMFERD
 40
0.0
  9
$SKPOLY
 70
     0
  9
$TDCREATE
 40
2454525.614958576
  9
$TDUCREATE
 40
2454525.239958577
  9
$TDUPDATE
 40
2457192.691717812
  9
$TDUUPDATE
 40
2457192.316717812
  9
$TDINDWG
 40
0.2800929861
  9
$TDUSRTIMER
 40
0.2800929630
  9
$USRTIMER
 70
     1
  9
$ANGBASE
 50
0.0
  9
$ANGDIR
 70
     0
  9
$PDMODE
 70
     0
  9
$PDSIZE
 40
0.0
  9
$PLINEWID
 40
0.0
  9
$SPLFRAME
 70
     0
  9
$SPLINETYPE
 70
     6
  9
$SPLINESEGS
 70
     8
  9
$HANDSEED
  5
341D
  9
$SURFTAB1
 70
     6
  9
$SURFTAB2
 70
     6
  9
$SURFTYPE
 70
     6
  9
$SURFU
 70
     6
  9
$SURFV
 70
     6
  9
$UCSBASE
  2

  9
$UCSNAME
  2

  9
$UCSORG
 10
0.0
 20
0.0
 30
0.0
  9
$UCSXDIR
 10
1.0
 20
0.0
 30
0.0
  9
$UCSYDIR
 10
0.0
 20
1.0
 30
0.0
  9
$UCSORTHOREF
  2

  9
$UCSORTHOVIEW
 70
     0
  9
$UCSORGTOP
 10
0.0
 20
0.0
 30
0.0
  9
$UCSORGBOTTOM
 10
0.0
 20
0.0
 30
0.0
  9
$UCSORGLEFT
 10
0.0
 20
0.0
 30
0.0
  9
$UCSORGRIGHT
 10
0.0
 20
0.0
 30
0.0
  9
$UCSORGFRONT
 10
0.0
 20
0.0
 30
0.0
  9
$UCSORGBACK
 10
0.0
 20
0.0
 30
0.0
  9
$PUCSBASE
  2

  9
$PUCSNAME
  2

  9
$PUCSORG
 10
0.0
 20
0.0
 30
0.0
  9
$PUCSXDIR
 10
1.0
 20
0.0
 30
0.0
  9
$PUCSYDIR
 10
0.0
 20
1.0
 30
0.0
  9
$PUCSORTHOREF
  2

  9
$PUCSORTHOVIEW
 70
     0
  9
$PUCSORGTOP
 10
0.0
 20
0.0
 30
0.0
  9
$PUCSORGBOTTOM
 10
0.0
 20
0.0
 30
0.0
  9
$PUCSORGLEFT
 10
0.0
 20
0.0
 30
0.0
  9
$PUCSORGRIGHT
 10
0.0
 20
0.0
 30
0.0
  9
$PUCSORGFRONT
 10
0.0
 20
0.0
 30
0.0
  9
$PUCSORGBACK
 10
0.0
 20
0.0
 30
0.0
  9
$USERI1
 70
     0
  9
$USERI2
 70
     0
  9
$USERI3
 70
     0
  9
$USERI4
 70
     0
  9
$USERI5
 70
     0
  9
$USERR1
 40
0.0
  9
$USERR2
 40
0.0
  9
$USERR3
 40
0.0
  9
$USERR4
 40
0.0
  9
$USERR5
 40
0.0
  9
$WORLDVIEW
 70
     1
  9
$SHADEDGE
 70
     3
  9
$SHADEDIF
 70
    70
  9
$TILEMODE
 70
     1
  9
$MAXACTVP
 70
    48
  9
$PINSBASE
 10
0.0
 20
0.0
 30
0.0
  9
$PLIMCHECK
 70
     0
  9
$PEXTMIN
 10
1.000000000000000E+20
 20
1.000000000000000E+20
 30
1.000000000000000E+20
  9
$PEXTMAX
 10
-1.000000000000000E+20
 20
-1.000000000000000E+20
 30
-1.000000000000000E+20
  9
$PLIMMIN
 10
0.0
 20
0.0
  9
$PLIMMAX
 10
420.0
 20
297.0
  9
$UNITMODE
 70
     0
  9
$VISRETAIN
 70
     1
  9
$PLINEGEN
 70
     0
  9
$PSLTSCALE
 70
     1
  9
$TREEDEPTH
 70
  3020
  9
$CMLSTYLE
  2
STANDARD
  9
$CMLJUST
 70
     0
  9
$CMLSCALE
 40
20.0
  9
$PROXYGRAPHICS
 70
     1
  9
$MEASUREMENT
 70
     0
  9
$CELWEIGHT
370
    -1
  9
$ENDCAPS
280
     0
  9
$JOINSTYLE
280
     0
  9
$LWDISPLAY
290
     0
  9
$INSUNITS
 70
     0
  9
$HYPERLINKBASE
  1

  9
$STYLESHEET
  1

  9
$XEDIT
290
     1
  9
$CEPSNTYPE
380
     0
  9
$PSTYLEMODE
290
     1
  9
$FINGERPRINTGUID
  2
{A19467F4-12F3-478B-B22C-FE51AD1585E7}
  9
$VERSIONGUID
  2
{4AC3D08D-6D08-41F3-9AFA-8E1672582F0B}
  9
$EXTNAMES
290
     1
  9
$PSVPSCALE
 40
0.0
  9
$OLESTARTUP
290
     0
  0
ENDSEC
  0
SECTION
  2
CLASSES
  0
CLASS
  1
ACDBDICTIONARYWDFLT
  2
AcDbDictionaryWithDefault
  3
ObjectDBX Classes
 90
        0
280
     0
281
     0
  0
CLASS
  1
ACDBPLACEHOLDER
  2
AcDbPlaceHolder
  3
ObjectDBX Classes
 90
        0
280
     0
281
     0
  0
CLASS
  1
LAYOUT
  2
AcDbLayout
  3
ObjectDBX Classes
 90
        0
280
     0
281
     0
  0
CLASS
  1
DICTIONARYVAR
  2
AcDbDictionaryVar
  3
ObjectDBX Classes
 90
        0
280
     0
281
     0
  0
CLASS
  1
MATERIAL
  2
AcDbMaterial
  3
ObjectDBX Classes
 90
     1153
280
     0
281
     0
  0
CLASS
  1
VISUALSTYLE
  2
AcDbVisualStyle
  3
ObjectDBX Classes
 90
     4095
280
     0
281
     0
  0
CLASS
  1
TABLESTYLE
  2
AcDbTableStyle
  3
ObjectDBX Classes
 90
     4095
280
     0
281
     0
  0
CLASS
  1
SCALE
  2
AcDbScale
  3
ObjectDBX Classes
 90
     1153
280
     0
281
     0
  0
CLASS
  1
MLEADERSTYLE
  2
AcDbMLeaderStyle
  3
ACDB_MLEADERSTYLE_CLASS
 90
     4095
280
     0
281
     0
  0
CLASS
  1
ACDBSECTIONVIEWSTYLE
  2
AcDbSectionViewStyle
  3
ObjectDBX Classes
 90
     1025
280
     0
281
     0
  0
CLASS
  1
ACDBDETAILVIEWSTYLE
  2
AcDbDetailViewStyle
  3
ObjectDBX Classes
 90
     1025
280
     0
281
     0
  0
CLASS
  1
CELLSTYLEMAP
  2
AcDbCellStyleMap
  3
ObjectDBX Classes
 90
     1152
280
     0
281
     0
  0
ENDSEC
  0
SECTION
  2
TABLES
  0
TABLE
  2
VPORT
  5
8
330
0
100
AcDbSymbolTable
 70
     1
  0
VPORT
  5
3325
330
8
100
AcDbSymbolTableRecord
100
AcDbViewportTableRecord
  2
*ACTIVE
 70
     0
 10
0.0
 20
0.0
 11
1.0
 21
1.0
 12
358.7482455331878
 22
225.7765149583619
 13
0.0
 23
0.0
 14
10.0
 24
10.0
 15
10.0
 25
10.0
 16
0.0
 26
0.0
 36
1.0
 17
0.0
 27
0.0
 37
0.0
 40
454.9186429512515
 41
2.35006605019815
 42
50.0
 43
0.0
 44
0.0
 50
0.0
 51
0.0
 71
     0
 72
   100
 73
     1
 74
     0
 75
     0
 76
     0
 77
     0
 78
     0
281
     0
 65
     1
110
0.0
120
0.0
130
0.0
111
1.0
121
0.0
131
0.0
112
0.0
122
1.0
132
0.0
 79
     0
146
0.0
1001
ACAD_NAV_VCDISPLAY
1070
     3
  0
ENDTAB
  0
TABLE
  2
LTYPE
  5
5
330
0
100
AcDbSymbolTable
 70
     4
  0
LTYPE
  5
12
330
5
100
AcDbSymbolTableRecord
100
AcDbLinetypeTableRecord
  2
BYBLOCK
 70
     0
  3

 72
    65
 73
     0
 40
0.0
  0
LTYPE
  5
13
330
5
100
AcDbSymbolTableRecord
100
AcDbLinetypeTableRecord
  2
BYLAYER
 70
     0
  3

 72
    65
 73
     0
 40
0.0
  0
LTYPE
  5
14
330
5
100
AcDbSymbolTableRecord
100
AcDbLinetypeTableRecord
  2
CONTINUOUS
 70
     0
  3
Solid line
 72
    65
 73
     0
 40
0.0
  0
LTYPE
  5
4B
330
5
100
AcDbSymbolTableRecord
100
AcDbLinetypeTableRecord
  2
DASHED
 70
     0
  3
Dashed __ __ __ __ __ __ __ __ __ __ __ __ __ _
 72
    65
 73
     2
 40
19.04999999999999
 49
12.7
 74
     0
 49
-6.349999999999997
 74
     0
  0
LTYPE
  5
4C
330
5
100
AcDbSymbolTableRecord
100
AcDbLinetypeTableRecord
  2
CENTER
 70
     0
  3
Center ____ _ ____ _ ____ _ ____ _ ____ _ ____
 72
    65
 73
     4
 40
50.8
 49
31.75
 74
     0
 49
-6.349999999999997
 74
     0
 49
6.349999999999997
 74
     0
 49
-6.349999999999997
 74
     0
  0
LTYPE
  5
4D
330
5
100
AcDbSymbolTableRecord
100
AcDbLinetypeTableRecord
  2
PHANTOM
 70
     0
  3
Phantom ______  __  __  ______  __  __  ______
 72
    65
 73
     6
 40
63.5
 49
31.75
 74
     0
 49
-6.349999999999997
 74
     0
 49
6.349999999999997
 74
     0
 49
-6.349999999999997
 74
     0
 49
6.349999999999997
 74
     0
 49
-6.349999999999997
 74
     0
  0
ENDTAB
  0
TABLE
  2
LAYER
  5
2
330
0
100
AcDbSymbolTable
 70
     8
  0
LAYER
  5
E
102
{ACAD_XDICTIONARY
360
3381
102
}
330
2
100
AcDbSymbolTableRecord
100
AcDbLayerTableRecord
  2
0
 70
     0
 62
     7
  6
CONTINUOUS
370
    -3
390
332E
  0
LAYER
  5
4E
102
{ACAD_XDICTIONARY
360
3383
102
}
330
2
100
AcDbSymbolTableRecord
100
AcDbLayerTableRecord
  2
4
 70
     0
 62
     1
  6
CENTER
370
    -3
390
332E
  0
LAYER
  5
4F
102
{ACAD_XDICTIONARY
360
3385
102
}
330
2
100
AcDbSymbolTableRecord
100
AcDbLayerTableRecord
  2
5
 70
     0
 62
     6
  6
PHANTOM
370
    -3
390
332E
  0
LAYER
  5
50
102
{ACAD_XDICTIONARY
360
3387
102
}
330
2
100
AcDbSymbolTableRecord
100
AcDbLayerTableRecord
  2
1
 70
     0
 62
     7
  6
CONTINUOUS
370
    -3
390
332E
  0
LAYER
  5
51
102
{ACAD_XDICTIONARY
360
3389
102
}
330
2
100
AcDbSymbolTableRecord
100
AcDbLayerTableRecord
  2
2
 70
     0
 62
     4
  6
CONTINUOUS
370
    -3
390
332E
  0
LAYER
  5
52
102
{ACAD_XDICTIONARY
360
338B
102
}
330
2
100
AcDbSymbolTableRecord
100
AcDbLayerTableRecord
  2
3
 70
     0
 62
     2
  6
DASHED
370
    -3
390
332E
  0
LAYER
  5
53
102
{ACAD_XDICTIONARY
360
338D
102
}
330
2
100
AcDbSymbolTableRecord
100
AcDbLayerTableRecord
  2
6
 70
     0
 62
     5
  6
CONTINUOUS
370
    -3
390
332E
  0
LAYER
  5
54
102
{ACAD_XDICTIONARY
360
338F
102
}
330
2
100
AcDbSymbolTableRecord
100
AcDbLayerTableRecord
  2
7
 70
     0
 62
     3
  6
CONTINUOUS
370
    -3
390
332E
  0
ENDTAB
  0
TABLE
  2
STYLE
  5
3
330
0
100
AcDbSymbolTable
 70
     1
  0
STYLE
  5
F
330
3
100
AcDbSymbolTableRecord
100
AcDbTextStyleTableRecord
  2
STANDARD
 70
     0
 40
0.0
 41
1.0
 50
0.0
 71
     0
 42
2.5
  3
simplex.shx
  4

  0
ENDTAB
  0
TABLE
  2
VIEW
  5
6
330
0
100
AcDbSymbolTable
 70
     0
  0
ENDTAB
  0
TABLE
  2
UCS
  5
7
330
0
100
AcDbSymbolTable
 70
     0
  0
ENDTAB
  0
TABLE
  2
APPID
  5
9
330
0
100
AcDbSymbolTable
 70
     6
  0
APPID
  5
10
330
9
100
AcDbSymbolTableRecord
100
AcDbRegAppTableRecord
  2
ACAD
 70
     0
  0
APPID
  5
3E
330
9
100
AcDbSymbolTableRecord
100
AcDbRegAppTableRecord
  2
CONTENTTABDATA
 70
     0
  0
APPID
  5
3F
330
9
100
AcDbSymbolTableRecord
100
AcDbRegAppTableRecord
  2
CONTENTCURRENTTAB
 70
     0
  0
APPID
  5
337F
330
9
100
AcDbSymbolTableRecord
100
AcDbRegAppTableRecord
  2
ACAD_EXEMPT_FROM_CAD_STANDARDS
 70
     0
  0
APPID
  5
339B
330
9
100
AcDbSymbolTableRecord
100
AcDbRegAppTableRecord
  2
ACAD_NAV_VCDISPLAY
 70
     0
  0
APPID
  5
33D4
330
9
100
AcDbSymbolTableRecord
100
AcDbRegAppTableRecord
  2
ACAD_MLEADERVER
 70
     0
  0
ENDTAB
  0
TABLE
  2
DIMSTYLE
  5
A
330
0
100
AcDbSymbolTable
 70
     1
100
AcDbDimStyleTable
 71
     0
  0
DIMSTYLE
105
1D
330
A
100
AcDbSymbolTableRecord
100
AcDbDimStyleTableRecord
  2
STANDARD
 70
     0
 41
3.0
 42
1.0
 43
10.0
 44
1.0
 73
     0
 74
     0
 77
     3
 78
     8
140
3.2
141
0.0
147
1.0
172
     1
173
     1
340
F
341
2E
343
2E
344
2E
  0
ENDTAB
  0
TABLE
  2
BLOCK_RECORD
  5
1
330
0
100
AcDbSymbolTable
 70
     1
  0
BLOCK_RECORD
  5
18
102
{ACAD_XDICTIONARY
360
3328
102
}
330
1
100
AcDbSymbolTableRecord
100
AcDbBlockTableRecord
  2
*MODEL_SPACE
340
337C
  0
BLOCK_RECORD
  5
15
102
{ACAD_XDICTIONARY
360
3326
102
}
330
1
100
AcDbSymbolTableRecord
100
AcDbBlockTableRecord
  2
*PAPER_SPACE
340
337D
  0
BLOCK_RECORD
  5
2E
330
1
100
AcDbSymbolTableRecord
100
AcDbBlockTableRecord
  2
_OPEN
340
0
  0
ENDTAB
  0
ENDSEC
  0
SECTION
  2
BLOCKS
  0
BLOCK
  5
19
330
18
100
AcDbEntity
  8
0
100
AcDbBlockBegin
  2
*MODEL_SPACE
 70
     0
 10
0.0
 20
0.0
 30
0.0
  3
*MODEL_SPACE
  1

  0
ENDBLK
  5
1A
330
18
100
AcDbEntity
  8
0
100
AcDbBlockEnd
  0
BLOCK
  5
16
330
15
100
AcDbEntity
 67
     1
  8
0
100
AcDbBlockBegin
  2
*PAPER_SPACE
 70
     0
 10
0.0
 20
0.0
 30
0.0
  3
*PAPER_SPACE
  1

  0
ENDBLK
  5
17
330
15
100
AcDbEntity
 67
     1
  8
0
100
AcDbBlockEnd
  0
BLOCK
  5
2F
330
2E
100
AcDbEntity
  8
0
100
AcDbBlockBegin
  2
_OPEN
 70
     0
 10
0.0
 20
0.0
 30
0.0
  3
_OPEN
  1

  0
LINE
  5
30
330
2E
100
AcDbEntity
  8
0
  6
ByBlock
 62
     0
100
AcDbLine
 10
-1.0
 20
0.1666666666666666
 30
0.0
 11
0.0
 21
0.0
 31
0.0
  0
LINE
  5
31
330
2E
100
AcDbEntity
  8
0
  6
ByBlock
 62
     0
100
AcDbLine
 10
0.0
 20
0.0
 30
0.0
 11
-1.0
 21
-0.1666666666666666
 31
0.0
  0
LINE
  5
32
330
2E
100
AcDbEntity
  8
0
  6
ByBlock
 62
     0
100
AcDbLine
 10
0.0
 20
0.0
 30
0.0
 11
-1.0
 21
0.0
 31
0.0
  0
ENDBLK
  5
33
330
2E
100
AcDbEntity
  8
0
100
AcDbBlockEnd
  0
ENDSEC
  0
SECTION
  2
ENTITIES
  0
TEXT
  5
63
330
18
100
AcDbEntity
  8
4
  6
CENTER
 48
0.25
100
AcDbText
 10
23.97950852663849
 20
10.0
 30
0.0
 40
1.399999999999999
  1
4
100
AcDbText
  0
TEXT
  5
64
330
18
100
AcDbEntity
  8
7
  6
Continuous
 48
0.25
100
AcDbText
 10
9.999997526638502
 20
26.0000007607689
 30
0.0
 40
3.0
  1
CODE No.19284
100
AcDbText
  0
TEXT
  5
65
330
18
100
AcDbEntity
  8
7
  6
Continuous
 48
0.25
100
AcDbText
 10
9.999997526638502
 20
18.00000076076889
 30
0.0
 40
3.0
  1
TYPE No.TCA-F100S (F100S)
100
AcDbText
  0
TEXT
  5
66
330
18
100
AcDbEntity
  8
1
  6
Continuous
 48
0.25
100
AcDbText
 10
9.999997526638502
 20
10.00000076076889
 30
0.0
 40
1.399999999999999
  1
LAYER
100
AcDbText
  0
TEXT
  5
67
330
18
100
AcDbEntity
  8
2
  6
Continuous
 48
0.25
100
AcDbText
 10
19.9795085266385
 20
10.0
 30
0.0
 40
1.399999999999999
  1
2
100
AcDbText
  0
TEXT
  5
68
330
18
100
AcDbEntity
  8
3
  6
DASHED
 48
0.25
100
AcDbText
 10
21.9795085266385
 20
10.0
 30
0.0
 40
1.399999999999999
  1
3
100
AcDbText
  0
TEXT
  5
69
330
18
100
AcDbEntity
  8
1
  6
Continuous
 48
0.25
100
AcDbText
 10
17.9795085266385
 20
10.0
 30
0.0
 40
1.399999999999999
  1
1
100
AcDbText
  0
TEXT
  5
6A
330
18
100
AcDbEntity
  8
5
  6
PHANTOM
 48
0.25
100
AcDbText
 10
25.9795085266385
 20
10.0
 30
0.0
 40
1.399999999999999
  1
5
100
AcDbText
  0
TEXT
  5
6B
330
18
100
AcDbEntity
  8
6
  6
Continuous
 48
0.25
100
AcDbText
 10
27.9795085266385
 20
10.0
 30
0.0
 40
1.399999999999999
  1
6
100
AcDbText
  0
TEXT
  5
6C
330
18
100
AcDbEntity
  8
7
  6
Continuous
 48
0.25
100
AcDbText
 10
29.9795085266385
 20
10.0
 30
0.0
 40
1.399999999999999
  1
7
100
AcDbText
  0
CIRCLE
  5
8EB
330
18
100
AcDbEntity
  8
1
  6
Continuous
100
AcDbCircle
 10
218.1980084800914
 20
64.21220875784825
 30
0.0
 40
5.5
  0
ARC
  5
1683
330
18
100
AcDbEntity
  8
1
  6
Continuous
100
AcDbCircle
 10
158.8695161224496
 20
235.6844240459794
 30
0.0
 40
15.5
100
AcDbArc
 50
104.3748622936544
 51
125.7242293422012
  0
ARC
  5
1684
330
18
100
AcDbEntity
  8
1
  6
Continuous
100
AcDbCircle
 10
186.9101937403438
 20
269.8947624761355
 30
0.0
 40
47.49999999999997
100
AcDbArc
 50
197.5162006000762
 51
215.0355284981364
  0
ARC
  5
1685
330
18
100
AcDbEntity
  8
1
  6
Continuous
100
AcDbCircle
 10
186.9101937403438
 20
269.8947624761355
 30
0.0
 40
50.49999999999995
100
AcDbArc
 50
196.3636683487178
 51
213.3618932672617
  0
CIRCLE
  5
1686
330
18
100
AcDbEntity
  8
1
  6
Continuous
100
AcDbCircle
 10
194.1980084800914
 20
219.6315791570703
 30
0.0
 40
42.0
  0
CIRCLE
  5
1688
330
18
100
AcDbEntity
  8
1
  6
Continuous
100
AcDbCircle
 10
194.1980084800914
 20
219.6315791570703
 30
0.0
 40
44.0
  0
CIRCLE
  5
1689
330
18
100
AcDbEntity
  8
1
  6
Continuous
100
AcDbCircle
 10
194.1980084800914
 20
219.6315791570702
 30
0.0
 40
50.0
  0
ARC
  5
168A
330
18
100
AcDbEntity
  8
5
  6
PHANTOM
 48
0.3
100
AcDbCircle
 10
194.1980084800914
 20
219.6315791570704
 30
0.0
 40
50.49999999999995
100
AcDbArc
 50
125.8636683487183
 51
142.8618932672613
  0
LINE
  5
168B
330
18
100
AcDbEntity
  8
4
  6
CENTER
 48
0.5
100
AcDbLine
 10
218.1980084800914
 20
292.1315791570703
 30
0.0
 11
218.1980084800916
 21
200.4315791570703
 31
0.0
  0
LINE
  5
168C
330
18
100
AcDbEntity
  8
4
  6
CENTER
 48
0.5
100
AcDbLine
 10
194.1980084800914
 20
274.6315791570702
 30
0.0
 11
194.1980084800914
 21
164.6315791570702
 31
0.0
  0
LINE
  5
168D
330
18
100
AcDbEntity
  8
4
  6
CENTER
 48
0.5
100
AcDbLine
 10
249.1980084800914
 20
219.6315791570704
 30
0.0
 11
139.1980084800914
 21
219.6315791570702
 31
0.0
  0
ARC
  5
168E
330
18
100
AcDbEntity
  8
1
  6
Continuous
100
AcDbCircle
 10
147.4837669195045
 20
251.5152394099346
 30
0.0
 40
4.0
100
AcDbArc
 50
204.9936472905872
 51
305.7242293422012
  0
LINE
  5
168F
330
18
100
AcDbEntity
  8
1
  6
Continuous
100
AcDbLine
 10
148.4908708954574
 20
240.1900170553365
 30
0.0
 11
140.938173632366
 21
218.8618579330508
 31
0.0
  0
ARC
  5
1690
330
18
100
AcDbEntity
  8
5
  6
PHANTOM
 48
0.3
100
AcDbCircle
 10
140.0036792704934
 20
237.9315791570703
 30
0.0
 40
7.999999999999997
100
AcDbArc
 50
14.01121413799489
 51
90.0
  0
LINE
  5
1691
330
18
100
AcDbEntity
  8
5
  6
PHANTOM
 48
0.3
100
AcDbLine
 10
130.7464996019557
 20
248.9315791570704
 30
0.0
 11
151.5487411944743
 21
248.9315791570701
 31
0.0
  0
LINE
  5
1692
330
18
100
AcDbEntity
  8
5
  6
PHANTOM
 48
0.3
100
AcDbLine
 10
151.6737800920301
 20
245.9315791570702
 30
0.0
 11
130.7464996019573
 21
245.9315791570702
 31
0.0
  0
ARC
  5
1693
330
18
100
AcDbEntity
  8
1
  6
Continuous
100
AcDbCircle
 10
145.5609847196631
 20
240.9035066674603
 30
0.0
 40
2.999999999999998
100
AcDbArc
 50
346.3438146947193
 51
35.03552849813643
  0
ARC
  5
1694
330
18
100
AcDbEntity
  8
5
  6
PHANTOM
 48
0.3
100
AcDbCircle
 10
153.5871562805281
 20
241.3211443678107
 30
0.0
 40
5.999999999999997
100
AcDbArc
 50
194.0112141379949
 51
203.3417471229434
  0
ARC
  5
1695
330
18
100
AcDbEntity
  8
5
  6
PHANTOM
 48
0.3
100
AcDbCircle
 10
151.5487411944743
 20
251.9315791570702
 30
0.0
 40
2.999999999999998
100
AcDbArc
 50
270.0
 51
322.8618932672613
  0
LINE
  5
1696
330
18
100
AcDbEntity
  8
1
  6
Continuous
100
AcDbLine
 10
138.1102491590887
 20
219.8632785107507
 30
0.0
 11
145.0541800901095
 21
239.4723345435821
 31
0.0
  0
ARC
  5
1697
330
18
100
AcDbEntity
  8
1
  6
Continuous
100
AcDbCircle
 10
138.5815699046348
 20
219.6963750811338
 30
0.0
 40
0.5
100
AcDbArc
 50
160.4999999999914
 51
244.4576715809427
  0
ARC
  5
1698
330
18
100
AcDbEntity
  8
1
  6
Continuous
100
AcDbCircle
 10
140.4668528868199
 20
219.0287613626678
 30
0.0
 40
0.5
100
AcDbArc
 50
256.5423284190528
 51
340.4999999999956
  0
ARC
  5
1699
330
18
100
AcDbEntity
  8
1
  6
Continuous
100
AcDbCircle
 10
142.6777588378921
 20
228.2679114791834
 30
0.0
 40
9.999999999999998
100
AcDbArc
 50
244.4576715809471
 51
256.5423284190559
  0
ARC
  5
169A
330
18
100
AcDbEntity
  8
1
  6
Continuous
100
AcDbCircle
 10
151.5694156316201
 20
224.9176047052376
 30
0.0
 40
7.999999999999997
100
AcDbArc
 50
142.2150752478312
 51
160.5000000000017
  0
ARC
  5
169B
330
18
100
AcDbEntity
  8
1
  6
Continuous
100
AcDbCircle
 10
142.2262556168332
 20
240.4737551212834
 30
0.0
 40
2.999999999999998
100
AcDbArc
 50
340.4999999999986
 51
33.36189326726163
  0
ARC
  5
169C
330
18
100
AcDbEntity
  8
5
  6
PHANTOM
 48
0.3
100
AcDbCircle
 10
130.7464996019574
 20
246.4315791570701
 30
0.0
 40
0.5
100
AcDbArc
 50
186.0423284190543
 51
269.9999999999967
  0
ARC
  5
169D
330
18
100
AcDbEntity
  8
5
  6
PHANTOM
 48
0.3
100
AcDbCircle
 10
130.7464996019556
 20
248.4315791570704
 30
0.0
 40
0.5
100
AcDbArc
 50
89.99999999999024
 51
173.9576715809424
  0
ARC
  5
169E
330
18
100
AcDbEntity
  8
5
  6
PHANTOM
 48
0.3
100
AcDbCircle
 10
140.1937214158027
 20
247.4315791570702
 30
0.0
 40
9.999999999999998
100
AcDbArc
 50
173.9576715809457
 51
186.0423284190543
  0
CIRCLE
  5
16A1
330
18
100
AcDbEntity
  8
1
  6
Continuous
100
AcDbCircle
 10
218.1980084800914
 20
384.6509495562922
 30
0.0
 40
10.0
  0
CIRCLE
  5
16A2
330
18
100
AcDbEntity
  8
1
  6
Continuous
100
AcDbCircle
 10
218.1980084800914
 20
384.6509495562922
 30
0.0
 40
7.5
  0
LINE
  5
16A3
330
18
100
AcDbEntity
  8
1
  6
Continuous
100
AcDbLine
 10
243.1980084800914
 20
409.6509495562923
 30
0.0
 11
243.1980084800914
 21
359.6509495562922
 31
0.0
  0
LINE
  5
16A4
330
18
100
AcDbEntity
  8
1
  6
Continuous
100
AcDbLine
 10
193.1980084800914
 20
359.6509495562922
 30
0.0
 11
193.1980084800914
 21
409.6509495562923
 31
0.0
  0
LINE
  5
16A8
330
18
100
AcDbEntity
  8
1
  6
Continuous
100
AcDbLine
 10
166.1980084800914
 20
394.1509495562921
 30
0.0
 11
166.1980084800914
 21
375.1509495562921
 31
0.0
  0
LINE
  5
16AB
330
18
100
AcDbEntity
  8
4
  6
CENTER
 48
0.5
100
AcDbLine
 10
218.1980084800914
 20
349.6509495562921
 30
0.0
 11
218.1980084800914
 21
419.6509495562922
 31
0.0
  0
LINE
  5
16AC
330
18
100
AcDbEntity
  8
4
  6
CENTER
 48
0.5
100
AcDbLine
 10
194.1980084800914
 20
413.2478903670262
 30
0.0
 11
194.1980084800914
 21
356.0540087455582
 31
0.0
  0
LINE
  5
16AF
330
18
100
AcDbEntity
  8
1
  6
Continuous
100
AcDbLine
 10
147.1980084800915
 20
363.1509495562923
 30
0.0
 11
193.1980084800914
 21
363.1509495562923
 31
0.0
  0
LINE
  5
16B0
330
18
100
AcDbEntity
  8
1
  6
Continuous
100
AcDbLine
 10
144.6980084800915
 20
373.6509495562921
 30
0.0
 11
193.1980084800914
 21
373.6509495562921
 31
0.0
  0
LINE
  5
16B1
330
18
100
AcDbEntity
  8
1
  6
Continuous
100
AcDbLine
 10
193.1980084800914
 20
375.1509495562921
 30
0.0
 11
156.295466769643
 21
375.1509495562924
 31
0.0
  0
LINE
  5
16B3
330
18
100
AcDbEntity
  8
1
  6
Continuous
100
AcDbLine
 10
243.1980084800914
 20
287.1315791570702
 30
0.0
 11
193.1980084800914
 21
287.1315791570702
 31
0.0
  0
LINE
  5
16B4
330
18
100
AcDbEntity
  8
1
  6
Continuous
100
AcDbLine
 10
243.1980084800914
 20
284.1315791570703
 30
0.0
 11
193.1980084800914
 21
284.1315791570703
 31
0.0
  0
LINE
  5
16B7
330
18
100
AcDbEntity
  8
1
  6
Continuous
100
AcDbLine
 10
229.6980084800913
 20
273.1315791570703
 30
0.0
 11
206.6980084800913
 21
273.1315791570703
 31
0.0
  0
ARC
  5
16B8
330
18
100
AcDbEntity
  8
1
  6
Continuous
100
AcDbCircle
 10
194.1980084800914
 20
219.6315791570703
 30
0.0
 40
51.99999999999999
100
AcDbArc
 50
51.07037372175366
 51
72.85975923353287
  0
LINE
  5
16BA
330
18
100
AcDbEntity
  8
1
  6
Continuous
100
AcDbLine
 10
230.6980084800914
 20
272.1315791570703
 30
0.0
 11
230.6980084800914
 21
255.7252074036181
 31
0.0
  0
ARC
  5
16BB
330
18
100
AcDbEntity
  8
1
  6
Continuous
100
AcDbCircle
 10
235.6980084800913
 20
255.7252074036181
 30
0.0
 40
5.0
100
AcDbArc
 50
180.0
 51
221.0143315701197
  0
LINE
  5
16BC
330
18
100
AcDbEntity
  8
1
  6
Continuous
100
AcDbLine
 10
226.8730084800914
 20
260.0833327751293
 30
0.0
 11
226.8730084800914
 21
257.4779048842555
 31
0.0
  0
ARC
  5
16BD
330
18
100
AcDbEntity
  8
1
  6
Continuous
100
AcDbCircle
 10
229.6980084800913
 20
272.1315791570703
 30
0.0
 40
1.0
100
AcDbArc
 50
0.000000000000007
 51
90.0
  0
LINE
  5
16C2
330
18
100
AcDbEntity
  8
1
  6
Continuous
100
AcDbLine
 10
243.1980084800914
 20
284.1315791570703
 30
0.0
 11
243.1980084800914
 21
287.1315791570702
 31
0.0
  0
LINE
  5
16C7
330
18
100
AcDbEntity
  8
1
  6
Continuous
100
AcDbLine
 10
209.5230084800914
 20
269.3220648642101
 30
0.0
 11
209.5230084800914
 21
267.2251120685909
 31
0.0
  0
ARC
  5
16CB
330
18
100
AcDbEntity
  8
1
  6
Continuous
100
AcDbCircle
 10
202.6980084800913
 20
271.9455352299959
 30
0.0
 40
3.0
100
AcDbArc
 50
260.7711998716339
 51
0.000000000000007
  0
ARC
  5
16CC
330
18
100
AcDbEntity
  8
1
  6
Continuous
100
AcDbCircle
 10
206.6980084800913
 20
272.1315791570703
 30
0.0
 40
1.0
100
AcDbArc
 50
90.0
 51
180.0
  0
LINE
  5
16CD
330
18
100
AcDbEntity
  8
1
  6
Continuous
100
AcDbLine
 10
205.6980084800914
 20
272.1315791570703
 30
0.0
 11
205.6980084800914
 21
271.9455352299959
 31
0.0
  0
LINE
  5
16D2
330
18
100
AcDbEntity
  8
1
  6
Continuous
100
AcDbLine
 10
193.1980084800914
 20
284.1315791570703
 30
0.0
 11
193.1980084800914
 21
287.1315791570702
 31
0.0
  0
LINE
  5
16D4
330
18
100
AcDbEntity
  8
1
  6
Continuous
100
AcDbLine
 10
198.1980084800914
 20
354.6509495562923
 30
0.0
 11
238.1980084800914
 21
354.6509495562923
 31
0.0
  0
CIRCLE
  5
16D6
330
18
100
AcDbEntity
  8
1
  6
Continuous
100
AcDbCircle
 10
235.6980084800913
 20
361.6509495562922
 30
0.0
 40
3.2
  0
ARC
  5
16D7
330
18
100
AcDbEntity
  8
1
  6
Continuous
100
AcDbCircle
 10
238.1980084800914
 20
359.6509495562922
 30
0.0
 40
5.0
100
AcDbArc
 50
270.0000000000521
 51
0.0000000000358328
  0
LINE
  5
16DA
330
18
100
AcDbEntity
  8
1
  6
Continuous
100
AcDbLine
 10
244.1980084800913
 20
366.1509495562922
 30
0.0
 11
244.1980084800913
 21
373.1509495562921
 31
0.0
  0
ARC
  5
16DB
330
18
100
AcDbEntity
  8
1
  6
Continuous
100
AcDbCircle
 10
241.1980084800914
 20
366.1509495562922
 30
0.0
 40
3.0
100
AcDbArc
 50
311.8103148957796
 51
0.000000000000007
  0
LINE
  5
16DE
330
18
100
AcDbEntity
  8
1
  6
Continuous
100
AcDbLine
 10
243.1980084800914
 20
373.6509495562921
 30
0.0
 11
243.6980084800913
 21
373.6509495562921
 31
0.0
  0
ARC
  5
16E0
330
18
100
AcDbEntity
  8
1
  6
Continuous
100
AcDbCircle
 10
243.6980084800913
 20
373.1509495562921
 30
0.0
 40
0.5
100
AcDbArc
 50
0.000000000000007
 51
90.0
  0
CIRCLE
  5
16E2
330
18
100
AcDbEntity
  8
1
  6
Continuous
100
AcDbCircle
 10
200.6980084800914
 20
361.6509495562922
 30
0.0
 40
3.2
  0
ARC
  5
16E3
330
18
100
AcDbEntity
  8
1
  6
Continuous
100
AcDbCircle
 10
198.1980084800914
 20
359.6509495562922
 30
0.0
 40
5.0
100
AcDbArc
 50
180.0000000000684
 51
270.0000000000521
  0
LINE
  5
16E6
330
18
100
AcDbEntity
  8
1
  6
Continuous
100
AcDbLine
 10
183.1980084800914
 20
374.5356893285318
 30
0.0
 11
183.1980084800914
 21
375.1509495562924
 31
0.0
  0
ARC
  5
16E7
330
18
100
AcDbEntity
  8
1
  6
Continuous
100
AcDbCircle
 10
181.1980084800913
 20
374.5356893285318
 30
0.0
 40
2.0
100
AcDbArc
 50
333.7448127687698
 51
0.000000000000007
  0
ARC
  5
16E8
330
18
100
AcDbEntity
  8
5
  6
PHANTOM
 48
0.3
100
AcDbCircle
 10
165.1980084800916
 20
259.7470375241389
 30
0.0
 40
1.0
100
AcDbArc
 50
65.36371326611082
 51
125.8636683487183
  0
LINE
  5
16E9
330
18
100
AcDbEntity
  8
1
  6
Continuous
100
AcDbLine
 10
139.7491061908186
 20
256.8916158897891
 30
0.0
 11
140.6829415704319
 21
256.5609274381817
 31
0.0
  0
ARC
  5
16EA
330
18
100
AcDbEntity
  8
1
  6
Continuous
100
AcDbCircle
 10
139.4152993315849
 20
255.9489743986969
 30
0.0
 40
1.0
100
AcDbArc
 50
70.50000000000179
 51
196.3636683487178
  0
ARC
  5
16EB
330
18
100
AcDbEntity
  8
1
  6
Continuous
100
AcDbCircle
 10
140.1822312815812
 20
255.1469652015435
 30
0.0
 40
1.5
100
AcDbArc
 50
17.51620060007626
 51
70.49999999999871
  0
ARC
  5
16ED
330
18
100
AcDbEntity
  8
1
  6
Continuous
100
AcDbCircle
 10
147.1980084800915
 20
366.1509495562922
 30
0.0
 40
3.0
100
AcDbArc
 50
180.0
 51
270.0
  0
LINE
  5
16F1
330
18
100
AcDbEntity
  8
1
  6
Continuous
100
AcDbLine
 10
144.1980084800915
 20
366.1509495562922
 30
0.0
 11
144.1980084800915
 21
373.1509495562921
 31
0.0
  0
ARC
  5
16F2
330
18
100
AcDbEntity
  8
1
  6
Continuous
100
AcDbCircle
 10
144.6980084800915
 20
373.1509495562921
 30
0.0
 40
0.5
100
AcDbArc
 50
90.0
 51
180.0
  0
LINE
  5
16F4
330
18
100
AcDbEntity
  8
1
  6
Continuous
100
AcDbLine
 10
147.1980084800915
 20
406.1509495562923
 30
0.0
 11
193.1980084800914
 21
406.1509495562923
 31
0.0
  0
LINE
  5
16F6
330
18
100
AcDbEntity
  8
1
  6
Continuous
100
AcDbLine
 10
144.6980084800915
 20
395.6509495562924
 30
0.0
 11
193.1980084800914
 21
395.6509495562924
 31
0.0
  0
LINE
  5
16F7
330
18
100
AcDbEntity
  8
1
  6
Continuous
100
AcDbLine
 10
138.5815699046348
 20
394.1509495562921
 30
0.0
 11
148.0609847196631
 21
394.1509495562921
 31
0.0
  0
LINE
  5
16F8
330
18
100
AcDbEntity
  8
4
  6
CENTER
 48
0.5
100
AcDbLine
 10
249.1980084800914
 20
384.6509495562921
 30
0.0
 11
133.0815699046348
 21
384.6509495562924
 31
0.0
  0
LINE
  5
16F9
330
18
100
AcDbEntity
  8
1
  6
Continuous
100
AcDbLine
 10
198.1980084800914
 20
414.6509495562923
 30
0.0
 11
238.1980084800914
 21
414.6509495562923
 31
0.0
  0
CIRCLE
  5
16FB
330
18
100
AcDbEntity
  8
1
  6
Continuous
100
AcDbCircle
 10
235.6980084800913
 20
407.6509495562921
 30
0.0
 40
3.2
  0
LINE
  5
1700
330
18
100
AcDbEntity
  8
1
  6
Continuous
100
AcDbLine
 10
244.1980084800913
 20
403.1509495562922
 30
0.0
 11
244.1980084800913
 21
396.1509495562923
 31
0.0
  0
LINE
  5
1701
330
18
100
AcDbEntity
  8
1
  6
Continuous
100
AcDbLine
 10
243.1980084800914
 20
395.6509495562924
 30
0.0
 11
243.6980084800913
 21
395.6509495562924
 31
0.0
  0
ARC
  5
1702
330
18
100
AcDbEntity
  8
1
  6
Continuous
100
AcDbCircle
 10
243.6980084800913
 20
396.1509495562923
 30
0.0
 40
0.5
100
AcDbArc
 50
270.0
 51
0.000000000000007
  0
ARC
  5
1703
330
18
100
AcDbEntity
  8
1
  6
Continuous
100
AcDbCircle
 10
241.1980084800914
 20
403.1509495562922
 30
0.0
 40
3.0
100
AcDbArc
 50
0.000000000000007
 51
48.1896851042228
  0
ARC
  5
1706
330
18
100
AcDbEntity
  8
1
  6
Continuous
100
AcDbCircle
 10
238.1980084800914
 20
409.6509495562923
 30
0.0
 40
5.0
100
AcDbArc
 50
0.0000000000358328
 51
90.00000000001952
  0
CIRCLE
  5
1707
330
18
100
AcDbEntity
  8
1
  6
Continuous
100
AcDbCircle
 10
200.6980084800914
 20
407.6509495562921
 30
0.0
 40
3.2
  0
LINE
  5
1709
330
18
100
AcDbEntity
  8
1
  6
Continuous
100
AcDbLine
 10
183.1980084800914
 20
394.7662097840527
 30
0.0
 11
183.1980084800914
 21
394.1509495562923
 31
0.0
  0
ARC
  5
170A
330
18
100
AcDbEntity
  8
1
  6
Continuous
100
AcDbCircle
 10
181.1980084800913
 20
394.7662097840527
 30
0.0
 40
2.0
100
AcDbArc
 50
0.000000000000007
 51
26.25518723123012
  0
ARC
  5
170C
330
18
100
AcDbEntity
  8
1
  6
Continuous
100
AcDbCircle
 10
198.1980084800914
 20
409.6509495562923
 30
0.0
 40
5.0
100
AcDbArc
 50
90.00000000001952
 51
180.0
  0
ARC
  5
170E
330
18
100
AcDbEntity
  8
1
  6
Continuous
100
AcDbCircle
 10
147.1980084800915
 20
403.1509495562922
 30
0.0
 40
3.0
100
AcDbArc
 50
90.0
 51
180.0
  0
LINE
  5
1713
330
18
100
AcDbEntity
  8
1
  6
Continuous
100
AcDbLine
 10
144.1980084800915
 20
403.1509495562922
 30
0.0
 11
144.1980084800915
 21
396.1509495562923
 31
0.0
  0
ARC
  5
1714
330
18
100
AcDbEntity
  8
1
  6
Continuous
100
AcDbCircle
 10
144.6980084800915
 20
396.1509495562923
 30
0.0
 40
0.5
100
AcDbArc
 50
180.0
 51
270.0
  0
LINE
  5
1716
330
18
100
AcDbEntity
  8
1
  6
Continuous
100
AcDbLine
 10
37.24112222092299
 20
269.1315791570702
 30
0.0
 11
37.24112222092299
 21
170.1315791570703
 31
0.0
  0
LINE
  5
1717
330
18
100
AcDbEntity
  8
1
  6
Continuous
100
AcDbLine
 10
26.74112222092321
 20
266.6315791570702
 30
0.0
 11
26.74112222092321
 21
172.6315791570703
 31
0.0
  0
LINE
  5
1719
330
18
100
AcDbEntity
  8
1
  6
Continuous
100
AcDbLine
 10
59.24112222092333
 20
269.1315791570702
 30
0.0
 11
59.24112222092333
 21
170.1315791570703
 31
0.0
  0
LINE
  5
171A
330
18
100
AcDbEntity
  8
1
  6
Continuous
100
AcDbLine
 10
69.74112222092322
 20
266.6315791570702
 30
0.0
 11
69.74112222092322
 21
172.6315791570703
 31
0.0
  0
LINE
  5
171B
330
18
100
AcDbEntity
  8
1
  6
Continuous
100
AcDbLine
 10
38.74112222092321
 20
206.6315791570703
 30
0.0
 11
38.74112222092321
 21
269.3220649164187
 31
0.0
  0
LINE
  5
171C
330
18
100
AcDbEntity
  8
1
  6
Continuous
100
AcDbLine
 10
57.74112222092321
 20
269.3220649164187
 30
0.0
 11
57.74112222092321
 21
206.6315791570703
 31
0.0
  0
LINE
  5
171D
330
18
100
AcDbEntity
  8
4
  6
CENTER
 48
0.5
100
AcDbLine
 10
48.24112222092321
 20
292.1315791570703
 30
0.0
 11
48.24112222092321
 21
200.4315791570703
 31
0.0
  0
LINE
  5
171E
330
18
100
AcDbEntity
  8
4
  6
CENTER
 48
0.5
100
AcDbLine
 10
76.83806303165727
 20
219.6315791570703
 30
0.0
 11
19.64418141018916
 21
219.6315791570702
 31
0.0
  0
LINE
  5
1722
330
18
100
AcDbEntity
  8
1
  6
Continuous
100
AcDbLine
 10
66.74112222092322
 20
169.6315791570703
 30
0.0
 11
59.74112222092333
 21
169.6315791570703
 31
0.0
  0
ARC
  5
1723
330
18
100
AcDbEntity
  8
1
  6
Continuous
100
AcDbCircle
 10
66.74112222092322
 20
172.6315791570703
 30
0.0
 40
3.0
100
AcDbArc
 50
270.0
 51
0.000000000000007
  0
ARC
  5
1726
330
18
100
AcDbEntity
  8
1
  6
Continuous
100
AcDbCircle
 10
59.74112222092333
 20
170.1315791570703
 30
0.0
 40
0.5
100
AcDbArc
 50
180.0
 51
270.0
  0
LINE
  5
1728
330
18
100
AcDbEntity
  8
1
  6
Continuous
100
AcDbLine
 10
29.74112222092321
 20
169.6315791570703
 30
0.0
 11
36.74112222092299
 21
169.6315791570703
 31
0.0
  0
ARC
  5
1729
330
18
100
AcDbEntity
  8
1
  6
Continuous
100
AcDbCircle
 10
36.74112222092299
 20
170.1315791570703
 30
0.0
 40
0.5
100
AcDbArc
 50
270.0
 51
0.000000000000007
  0
ARC
  5
172A
330
18
100
AcDbEntity
  8
1
  6
Continuous
100
AcDbCircle
 10
29.74112222092321
 20
172.6315791570703
 30
0.0
 40
3.0
100
AcDbArc
 50
180.0
 51
270.0
  0
ARC
  5
1731
330
18
100
AcDbEntity
  8
1
  6
Continuous
100
AcDbCircle
 10
56.74112222092322
 20
206.6315791570703
 30
0.0
 40
1.0
100
AcDbArc
 50
270.0
 51
0.000000000000007
  0
ARC
  5
1732
330
18
100
AcDbEntity
  8
1
  6
Continuous
100
AcDbCircle
 10
58.35638244868369
 20
206.6315791570703
 30
0.0
 40
2.0
100
AcDbArc
 50
63.7448127687699
 51
90.0
  0
LINE
  5
1733
330
18
100
AcDbEntity
  8
1
  6
Continuous
100
AcDbLine
 10
58.35638244868369
 20
208.6315791570703
 30
0.0
 11
57.74112222092321
 21
208.6315791570703
 31
0.0
  0
ARC
  5
1734
330
18
100
AcDbEntity
  8
1
  6
Continuous
100
AcDbCircle
 10
58.35638244868369
 20
232.6315791570703
 30
0.0
 40
2.0
100
AcDbArc
 50
270.0
 51
296.2551872312301
  0
LINE
  5
1735
330
18
100
AcDbEntity
  8
1
  6
Continuous
100
AcDbLine
 10
58.35638244868369
 20
230.6315791570703
 30
0.0
 11
57.74112222092321
 21
230.6315791570703
 31
0.0
  0
LINE
  5
1736
330
18
100
AcDbEntity
  8
1
  6
Continuous
100
AcDbLine
 10
56.74112222092322
 20
205.6315791570702
 30
0.0
 11
39.74112222092321
 21
205.6315791570702
 31
0.0
  0
ARC
  5
1737
330
18
100
AcDbEntity
  8
1
  6
Continuous
100
AcDbCircle
 10
38.12586199316275
 20
206.6315791570703
 30
0.0
 40
2.0
100
AcDbArc
 50
90.0
 51
116.2551872312301
  0
LINE
  5
1738
330
18
100
AcDbEntity
  8
1
  6
Continuous
100
AcDbLine
 10
38.12586199316275
 20
208.6315791570703
 30
0.0
 11
38.74112222092321
 21
208.6315791570703
 31
0.0
  0
ARC
  5
1739
330
18
100
AcDbEntity
  8
1
  6
Continuous
100
AcDbCircle
 10
39.74112222092321
 20
206.6315791570703
 30
0.0
 40
1.0
100
AcDbArc
 50
180.0
 51
270.0
  0
ARC
  5
1753
330
18
100
AcDbEntity
  8
1
  6
Continuous
100
AcDbCircle
 10
38.12586199316275
 20
232.6315791570703
 30
0.0
 40
2.0
100
AcDbArc
 50
243.7448127687698
 51
270.0
  0
LINE
  5
1754
330
18
100
AcDbEntity
  8
1
  6
Continuous
100
AcDbLine
 10
38.12586199316275
 20
230.6315791570703
 30
0.0
 11
38.74112222092321
 21
230.6315791570703
 31
0.0
  0
LINE
  5
175D
330
18
100
AcDbEntity
  8
1
  6
Continuous
100
AcDbLine
 10
78.2411222209232
 20
284.1315791570703
 30
0.0
 11
18.24112222092321
 21
284.1315791570703
 31
0.0
  0
LINE
  5
1760
330
18
100
AcDbEntity
  8
1
  6
Continuous
100
AcDbLine
 10
57.74112222092321
 20
261.0562095114863
 30
0.0
 11
38.74112222092321
 21
261.0562095114863
 31
0.0
  0
LINE
  5
1761
330
18
100
AcDbEntity
  8
1
  6
Continuous
100
AcDbLine
 10
59.74112222092323
 20
273.1315791570703
 30
0.0
 11
36.74112222092321
 21
273.1315791570703
 31
0.0
  0
ARC
  5
1762
330
18
100
AcDbEntity
  8
1
  6
Continuous
100
AcDbCircle
 10
57.24112222092323
 20
269.1315791570703
 30
0.0
 40
0.5
100
AcDbArc
 50
0.000000000000007
 51
90.0
  0
ARC
  5
1764
330
18
100
AcDbEntity
  8
1
  6
Continuous
100
AcDbCircle
 10
55.68469844534774
 20
264.7026988718782
 30
0.0
 40
5.056423775575506
100
AcDbArc
 50
293.997406960844
 51
314.6962072442618
  0
LINE
  5
1765
330
18
100
AcDbEntity
  8
1
  6
Continuous
100
AcDbLine
 10
66.74112222092322
 20
269.6315791570702
 30
0.0
 11
59.74112222092333
 21
269.6315791570702
 31
0.0
  0
ARC
  5
1766
330
18
100
AcDbEntity
  8
1
  6
Continuous
100
AcDbCircle
 10
66.74112222092322
 20
266.6315791570702
 30
0.0
 40
3.0
100
AcDbArc
 50
0.000000000000007
 51
90.0
  0
ARC
  5
1768
330
18
100
AcDbEntity
  8
1
  6
Continuous
100
AcDbCircle
 10
55.68469844534774
 20
264.7026988718782
 30
0.0
 40
5.056423775575506
100
AcDbArc
 50
45.30379275574047
 51
66.00259303915892
  0
ARC
  5
1769
330
18
100
AcDbEntity
  8
1
  6
Continuous
100
AcDbCircle
 10
59.74112222092333
 20
269.1315791570702
 30
0.0
 40
0.5
100
AcDbArc
 50
90.0
 51
180.0
  0
ARC
  5
176A
330
18
100
AcDbEntity
  8
1
  6
Continuous
100
AcDbCircle
 10
59.74112222092323
 20
272.1315791570703
 30
0.0
 40
1.0
100
AcDbArc
 50
0.000000000000007
 51
90.0
  0
LINE
  5
176B
330
18
100
AcDbEntity
  8
1
  6
Continuous
100
AcDbLine
 10
60.74112222092321
 20
272.1315791570703
 30
0.0
 11
60.74112222092321
 21
269.6315791570702
 31
0.0
  0
LINE
  5
176C
330
18
100
AcDbEntity
  8
1
  6
Continuous
100
AcDbLine
 10
78.2411222209232
 20
287.1315791570702
 30
0.0
 11
18.24112222092321
 21
287.1315791570702
 31
0.0
  0
LINE
  5
176D
330
18
100
AcDbEntity
  8
1
  6
Continuous
100
AcDbLine
 10
78.2411222209232
 20
287.1315791570702
 30
0.0
 11
78.2411222209232
 21
284.1315791570703
 31
0.0
  0
LINE
  5
1774
330
18
100
AcDbEntity
  8
1
  6
Continuous
100
AcDbLine
 10
57.24112222092323
 20
269.6315791570703
 30
0.0
 11
39.24112222092321
 21
269.6315791570703
 31
0.0
  0
ARC
  5
1779
330
18
100
AcDbEntity
  8
1
  6
Continuous
100
AcDbCircle
 10
40.79754599649866
 20
264.7026988718782
 30
0.0
 40
5.056423775575506
100
AcDbArc
 50
225.3037927557405
 51
246.0025930391589
  0
LINE
  5
177B
330
18
100
AcDbEntity
  8
1
  6
Continuous
100
AcDbLine
 10
29.74112222092321
 20
269.6315791570702
 30
0.0
 11
36.74112222092299
 21
269.6315791570702
 31
0.0
  0
ARC
  5
177C
330
18
100
AcDbEntity
  8
1
  6
Continuous
100
AcDbCircle
 10
40.79754599649866
 20
264.7026988718782
 30
0.0
 40
5.056423775575506
100
AcDbArc
 50
113.997406960841
 51
134.6962072442617
  0
ARC
  5
177D
330
18
100
AcDbEntity
  8
1
  6
Continuous
100
AcDbCircle
 10
36.74112222092321
 20
272.1315791570703
 30
0.0
 40
1.0
100
AcDbArc
 50
90.0
 51
180.0
  0
ARC
  5
177F
330
18
100
AcDbEntity
  8
1
  6
Continuous
100
AcDbCircle
 10
36.74112222092299
 20
269.1315791570702
 30
0.0
 40
0.5
100
AcDbArc
 50
0.000000000000007
 51
90.0
  0
ARC
  5
1782
330
18
100
AcDbEntity
  8
1
  6
Continuous
100
AcDbCircle
 10
39.24112222092321
 20
269.1315791570703
 30
0.0
 40
0.5
100
AcDbArc
 50
90.0
 51
180.0
  0
LINE
  5
1783
330
18
100
AcDbEntity
  8
1
  6
Continuous
100
AcDbLine
 10
35.74112222092321
 20
272.1315791570703
 30
0.0
 11
35.74112222092321
 21
269.6315791570702
 31
0.0
  0
ARC
  5
1784
330
18
100
AcDbEntity
  8
1
  6
Continuous
100
AcDbCircle
 10
29.74112222092321
 20
266.6315791570702
 30
0.0
 40
3.0
100
AcDbArc
 50
90.0
 51
180.0
  0
LINE
  5
178C
330
18
100
AcDbEntity
  8
1
  6
Continuous
100
AcDbLine
 10
18.24112222092321
 20
287.1315791570702
 30
0.0
 11
18.24112222092321
 21
284.1315791570703
 31
0.0
  0
LINE
  5
178E
330
18
100
AcDbEntity
  8
4
  6
CENTER
 48
0.2
100
AcDbLine
 10
235.6980084800913
 20
401.4509495562921
 30
0.0
 11
235.6980084800913
 21
413.8509495562921
 31
0.0
  0
LINE
  5
178F
330
18
100
AcDbEntity
  8
4
  6
CENTER
 48
0.2
100
AcDbLine
 10
241.8980084800914
 20
407.6509495562921
 30
0.0
 11
229.4980084800914
 21
407.6509495562921
 31
0.0
  0
LINE
  5
1790
330
18
100
AcDbEntity
  8
4
  6
CENTER
 48
0.2
100
AcDbLine
 10
241.8980084800914
 20
361.6509495562922
 30
0.0
 11
229.4980084800914
 21
361.6509495562922
 31
0.0
  0
LINE
  5
1791
330
18
100
AcDbEntity
  8
4
  6
CENTER
 48
0.2
100
AcDbLine
 10
235.6980084800913
 20
355.4509495562922
 30
0.0
 11
235.6980084800913
 21
367.850949556292
 31
0.0
  0
LINE
  5
1792
330
18
100
AcDbEntity
  8
4
  6
CENTER
 48
0.2
100
AcDbLine
 10
206.8980084800914
 20
361.6509495562922
 30
0.0
 11
194.4980084800914
 21
361.6509495562922
 31
0.0
  0
LINE
  5
1793
330
18
100
AcDbEntity
  8
4
  6
CENTER
 48
0.2
100
AcDbLine
 10
200.6980084800914
 20
355.4509495562922
 30
0.0
 11
200.6980084800914
 21
367.850949556292
 31
0.0
  0
LINE
  5
1794
330
18
100
AcDbEntity
  8
4
  6
CENTER
 48
0.2
100
AcDbLine
 10
206.8980084800914
 20
407.6509495562921
 30
0.0
 11
194.4980084800914
 21
407.6509495562921
 31
0.0
  0
LINE
  5
1795
330
18
100
AcDbEntity
  8
4
  6
CENTER
 48
0.2
100
AcDbLine
 10
200.6980084800914
 20
401.4509495562921
 30
0.0
 11
200.6980084800914
 21
413.8509495562921
 31
0.0
  0
LINE
  5
1796
330
18
100
AcDbEntity
  8
4
  6
CENTER
 48
0.2
100
AcDbLine
 10
235.6980084800913
 20
281.4315791570702
 30
0.0
 11
235.6980084800913
 21
289.8315791570702
 31
0.0
  0
LINE
  5
1797
330
18
100
AcDbEntity
  8
4
  6
CENTER
 48
0.2
100
AcDbLine
 10
200.6980084800914
 20
281.4315791570702
 30
0.0
 11
200.6980084800914
 21
289.8315791570702
 31
0.0
  0
LINE
  5
1798
330
18
100
AcDbEntity
  8
4
  6
CENTER
 48
0.2
100
AcDbLine
 10
25.24112222092321
 20
281.4315791570702
 30
0.0
 11
25.24112222092321
 21
289.8315791570701
 31
0.0
  0
LINE
  5
1799
330
18
100
AcDbEntity
  8
4
  6
CENTER
 48
0.2
100
AcDbLine
 10
71.2411222209232
 20
281.4315791570702
 30
0.0
 11
71.2411222209232
 21
289.8315791570701
 31
0.0
  0
LINE
  5
18AD
330
18
100
AcDbEntity
  8
1
  6
Continuous
100
AcDbLine
 10
193.1980084800914
 20
361.1509495562921
 30
0.0
 11
152.1980084800913
 21
361.1509495562921
 31
0.0
  0
LINE
  5
18AE
330
18
100
AcDbEntity
  8
1
  6
Continuous
100
AcDbLine
 10
193.1980084800914
 20
408.150949556292
 30
0.0
 11
152.1980084800913
 21
408.150949556292
 31
0.0
  0
LINE
  5
18B0
330
18
100
AcDbEntity
  8
1
  6
Continuous
100
AcDbLine
 10
71.74112222092309
 20
261.6315791570711
 30
0.0
 11
71.74112222092322
 21
177.6315791570703
 31
0.0
  0
LINE
  5
18B1
330
18
100
AcDbEntity
  8
1
  6
Continuous
100
AcDbLine
 10
24.74112222092321
 20
261.6315791570703
 30
0.0
 11
24.74112222092321
 21
177.6315791570702
 31
0.0
  0
ARC
  5
18B3
330
18
100
AcDbEntity
  8
1
  6
Continuous
100
AcDbCircle
 10
24.54948469214196
 20
175.439941628289
 30
0.0
 40
2.199999999999988
100
AcDbArc
 50
4.997252236935863
 51
85.00274776305737
  0
ARC
  5
18B4
330
18
100
AcDbEntity
  8
1
  6
Continuous
100
AcDbCircle
 10
71.93275974970446
 20
175.439941628289
 30
0.0
 40
2.199999999999988
100
AcDbArc
 50
94.99725223694261
 51
175.0027477630576
  0
ARC
  5
18B5
330
18
100
AcDbEntity
  8
1
  6
Continuous
100
AcDbCircle
 10
150.00637095131
 20
360.9593120275109
 30
0.0
 40
2.199999999999988
100
AcDbArc
 50
4.997252236942351
 51
85.00274776306062
  0
ARC
  5
18B6
330
18
100
AcDbEntity
  8
1
  6
Continuous
100
AcDbCircle
 10
24.54948469214196
 20
263.8232166858508
 30
0.0
 40
2.199999999999988
100
AcDbArc
 50
274.9972522369458
 51
355.0027477630576
  0
ARC
  5
18B7
330
18
100
AcDbEntity
  8
1
  6
Continuous
100
AcDbCircle
 10
71.93275974970446
 20
263.8232166858516
 30
0.0
 40
2.199999999999988
100
AcDbArc
 50
184.9972522369358
 51
265.0027477630541
  0
ARC
  5
18B8
330
18
100
AcDbEntity
  8
1
  6
Continuous
100
AcDbCircle
 10
150.00637095131
 20
408.3425870850732
 30
0.0
 40
2.199999999999988
100
AcDbArc
 50
274.9972522369394
 51
355.0027477630576
  0
LINE
  5
22A2
330
18
100
AcDbEntity
  8
1
  6
Continuous
100
AcDbLine
 10
156.295466769643
 20
375.1509495562924
 30
0.0
 11
156.295466769643
 21
379.3009495562923
 31
0.0
  0
LINE
  5
22A3
330
18
100
AcDbEntity
  8
1
  6
Continuous
100
AcDbLine
 10
138.0815699046348
 20
375.6509495562923
 30
0.0
 11
138.0815699046348
 21
393.6509495562921
 31
0.0
  0
LINE
  5
22A4
330
18
100
AcDbEntity
  8
1
  6
Continuous
100
AcDbLine
 10
138.4152993315849
 20
393.6509495562921
 30
0.0
 11
138.4152993315849
 21
375.6509495562923
 31
0.0
  0
LINE
  5
22A5
330
18
100
AcDbEntity
  8
1
  6
Continuous
100
AcDbLine
 10
141.3945324253532
 20
393.6509495562921
 30
0.0
 11
141.3945324253532
 21
375.6509495562923
 31
0.0
  0
ARC
  5
22A6
330
18
100
AcDbEntity
  8
1
  6
Continuous
100
AcDbCircle
 10
138.9152993315851
 20
393.6509495562916
 30
0.0
 40
0.5
100
AcDbArc
 50
90.00000000002605
 51
179.9999999999479
  0
ARC
  5
22A7
330
18
100
AcDbEntity
  8
1
  6
Continuous
100
AcDbCircle
 10
138.9152993315851
 20
375.6509495562923
 30
0.0
 40
0.5
100
AcDbArc
 50
180.000000000013
 51
269.9999999999739
  0
ARC
  5
22A8
330
18
100
AcDbEntity
  8
1
  6
Continuous
100
AcDbCircle
 10
138.5815699046351
 20
375.6509495562923
 30
0.0
 40
0.5
100
AcDbArc
 50
180.000000000013
 51
269.9999999999739
  0
ARC
  5
22A9
330
18
100
AcDbEntity
  8
1
  6
Continuous
100
AcDbCircle
 10
138.5815699046352
 20
393.6509495562916
 30
0.0
 40
0.5
100
AcDbArc
 50
90.00000000003906
 51
179.9999999999479
  0
LINE
  5
22AA
330
18
100
AcDbEntity
  8
1
  6
Continuous
100
AcDbLine
 10
156.295466769643
 20
394.1509495562923
 30
0.0
 11
193.1980084800914
 21
394.1509495562921
 31
0.0
  0
LINE
  5
22AB
330
18
100
AcDbEntity
  8
1
  6
Continuous
100
AcDbLine
 10
148.0609847196632
 20
375.1509495562924
 30
0.0
 11
138.5815699046348
 21
375.1509495562924
 31
0.0
  0
ARC
  5
22AC
330
18
100
AcDbEntity
  8
1
  6
Continuous
100
AcDbCircle
 10
140.8945324253529
 20
393.6509495562918
 30
0.0
 40
0.5
100
AcDbArc
 50
0.0000000000390827
 51
89.99999999997395
  0
ARC
  5
22AD
330
18
100
AcDbEntity
  8
1
  6
Continuous
100
AcDbCircle
 10
140.894532425353
 20
375.6509495562923
 30
0.0
 40
0.5
100
AcDbArc
 50
270.0
 51
0.0
  0
LINE
  5
22AE
330
18
100
AcDbEntity
  8
1
  6
Continuous
100
AcDbLine
 10
148.5609847196628
 20
390.0009495562922
 30
0.0
 11
156.295466769643
 21
390.0009495562922
 31
0.0
  0
LINE
  5
22AF
330
18
100
AcDbEntity
  8
1
  6
Continuous
100
AcDbLine
 10
156.295466769643
 20
379.3009495562922
 30
0.0
 11
148.5609847196647
 21
379.3009495562922
 31
0.0
  0
LINE
  5
22B0
330
18
100
AcDbEntity
  8
1
  6
Continuous
100
AcDbLine
 10
144.8583483612666
 20
390.1509495562923
 30
0.0
 11
156.295466769643
 21
390.1509495562925
 31
0.0
  0
LINE
  5
22B1
330
18
100
AcDbEntity
  8
1
  6
Continuous
100
AcDbLine
 10
156.295466769643
 20
393.1509495562925
 30
0.0
 11
144.3583483612667
 21
393.1509495562925
 31
0.0
  0
LINE
  5
22B2
330
18
100
AcDbEntity
  8
1
  6
Continuous
100
AcDbLine
 10
156.295466769643
 20
379.1509495562924
 30
0.0
 11
144.8583483612666
 21
379.1509495562924
 31
0.0
  0
LINE
  5
22B3
330
18
100
AcDbEntity
  8
1
  6
Continuous
100
AcDbLine
 10
156.295466769643
 20
376.1509495562922
 30
0.0
 11
144.3583483612667
 21
376.1509495562922
 31
0.0
  0
LINE
  5
22B4
330
18
100
AcDbEntity
  8
1
  6
Continuous
100
AcDbLine
 10
148.5609847196631
 20
375.6509495562923
 30
0.0
 11
148.5609847196633
 21
376.1509495562922
 31
0.0
  0
ARC
  5
22B5
330
18
100
AcDbEntity
  8
1
  6
Continuous
100
AcDbCircle
 10
148.0609847196631
 20
393.6509495562921
 30
0.0
 40
0.5
100
AcDbArc
 50
0.0
 51
90.0
  0
ARC
  5
22B6
330
18
100
AcDbEntity
  8
1
  6
Continuous
100
AcDbCircle
 10
148.0609847196632
 20
375.6509495562923
 30
0.0
 40
0.5
100
AcDbArc
 50
270.0
 51
0.0
  0
LINE
  5
22B7
330
18
100
AcDbEntity
  8
1
  6
Continuous
100
AcDbLine
 10
148.5609847196631
 20
393.1509495562926
 30
0.0
 11
148.5609847196631
 21
393.6509495562921
 31
0.0
  0
LINE
  5
22B8
330
18
100
AcDbEntity
  8
1
  6
Continuous
100
AcDbLine
 10
148.5609847196647
 20
379.3009495562922
 30
0.0
 11
148.5609847196628
 21
390.0009495562922
 31
0.0
  0
ARC
  5
22BA
330
18
100
AcDbEntity
  8
1
  6
Continuous
100
AcDbCircle
 10
144.8583483612666
 20
389.1509495562922
 30
0.0
 40
1.0
100
AcDbArc
 50
90.0
 51
180.0
  0
ARC
  5
22BC
330
18
100
AcDbEntity
  8
1
  6
Continuous
100
AcDbCircle
 10
144.3583483612667
 20
393.6509495562925
 30
0.0
 40
0.5
100
AcDbArc
 50
180.0
 51
270.0
  0
ARC
  5
22BF
330
18
100
AcDbEntity
  8
1
  6
Continuous
100
AcDbCircle
 10
144.8583483612666
 20
380.1509495562923
 30
0.0
 40
1.0
100
AcDbArc
 50
180.0
 51
270.0
  0
ARC
  5
22C0
330
18
100
AcDbEntity
  8
1
  6
Continuous
100
AcDbCircle
 10
144.3583483612667
 20
375.6509495562921
 30
0.0
 40
0.5
100
AcDbArc
 50
90.00000000000005
 51
180.0
  0
LINE
  5
22C1
330
18
100
AcDbEntity
  8
1
  6
Continuous
100
AcDbLine
 10
156.295466769643
 20
390.0009495562922
 30
0.0
 11
156.295466769643
 21
394.1509495562923
 31
0.0
  0
ARC
  5
22C6
330
18
100
AcDbEntity
  8
1
  6
Continuous
100
AcDbCircle
 10
48.24112222092299
 20
248.5287613626677
 30
0.0
 40
30.0
100
AcDbArc
 50
252.9561533849015
 51
287.0438466150993
  0
ARC
  5
22C7
330
18
100
AcDbEntity
  8
1
  6
Continuous
100
AcDbCircle
 10
56.74112222092276
 20
220.8024200966442
 30
0.0
 40
1.0
100
AcDbArc
 50
287.0438466150993
 51
0.0
  0
ARC
  5
22C8
330
18
100
AcDbEntity
  8
1
  6
Continuous
100
AcDbCircle
 10
39.74112222092275
 20
220.8024200966443
 30
0.0
 40
1.0
100
AcDbArc
 50
180.0
 51
252.9561533849006
  0
ARC
  5
22CB
330
18
100
AcDbEntity
  8
1
  6
Continuous
100
AcDbCircle
 10
39.74112222092321
 20
255.9489743986969
 30
0.0
 40
1.0
100
AcDbArc
 50
90.00000000000005
 51
180.0
  0
LINE
  5
22CC
330
18
100
AcDbEntity
  8
1
  6
Continuous
100
AcDbLine
 10
39.74112222092321
 20
256.9489743986968
 30
0.0
 11
56.74112222092322
 21
256.9489743986968
 31
0.0
  0
ARC
  5
22CD
330
18
100
AcDbEntity
  8
1
  6
Continuous
100
AcDbCircle
 10
56.74112222092322
 20
255.9489743986969
 30
0.0
 40
1.0
100
AcDbArc
 50
0.0
 51
90.00000000000005
  0
LINE
  5
22D0
330
18
100
AcDbEntity
  8
1
  6
Continuous
100
AcDbLine
 10
40.7411222209232
 20
240.4737551212834
 30
0.0
 11
55.74112222092321
 21
240.4737551212834
 31
0.0
  0
ARC
  5
22D1
330
18
100
AcDbEntity
  8
1
  6
Continuous
100
AcDbCircle
 10
48.24112222092299
 20
249.4488573468585
 30
0.0
 40
30.0
100
AcDbArc
 50
252.9561533849015
 51
287.0438466150993
  0
ARC
  5
22D2
330
18
100
AcDbEntity
  8
1
  6
Continuous
100
AcDbCircle
 10
39.74112222092275
 20
221.722516080835
 30
0.0
 40
1.0
100
AcDbArc
 50
180.0
 51
252.9561533849006
  0
ARC
  5
22D3
330
18
100
AcDbEntity
  8
1
  6
Continuous
100
AcDbCircle
 10
56.74112222092276
 20
221.7225160808349
 30
0.0
 40
1.0
100
AcDbArc
 50
287.0438466150993
 51
0.0
  0
LINE
  5
23BA
330
18
100
AcDbEntity
  8
1
  6
Continuous
100
AcDbLine
 10
343.5384561638031
 20
226.6315791570704
 30
0.0
 11
343.5384561638031
 21
260.0833328273377
 31
0.0
  0
LINE
  5
23BB
330
18
100
AcDbEntity
  8
1
  6
Continuous
100
AcDbLine
 10
324.538456163803
 20
260.0833328273378
 30
0.0
 11
324.538456163803
 21
226.6315791570702
 31
0.0
  0
LINE
  5
23BC
330
18
100
AcDbEntity
  8
1
  6
Continuous
100
AcDbLine
 10
345.0384561638033
 20
261.108360083349
 30
0.0
 11
345.0384561638033
 21
170.1315791570703
 31
0.0
  0
LINE
  5
23BD
330
18
100
AcDbEntity
  8
1
  6
Continuous
100
AcDbLine
 10
355.5384561638031
 20
266.6315791570702
 30
0.0
 11
355.5384561638031
 21
172.6315791570703
 31
0.0
  0
LINE
  5
23BE
330
18
100
AcDbEntity
  8
1
  6
Continuous
100
AcDbLine
 10
323.038456163803
 20
261.1083600833489
 30
0.0
 11
323.038456163803
 21
170.1315791570703
 31
0.0
  0
LINE
  5
23BF
330
18
100
AcDbEntity
  8
1
  6
Continuous
100
AcDbLine
 10
312.5384561638032
 20
266.6315791570702
 30
0.0
 11
312.5384561638032
 21
172.6315791570703
 31
0.0
  0
LINE
  5
23C1
330
18
100
AcDbEntity
  8
4
  6
CENTER
 48
0.5
100
AcDbLine
 10
334.0384561638031
 20
292.1315791570703
 30
0.0
 11
334.0384561638031
 21
200.6315791570703
 31
0.0
  0
LINE
  5
23C2
330
18
100
AcDbEntity
  8
4
  6
CENTER
 48
0.5
100
AcDbLine
 10
305.4415153530691
 20
219.6315791570703
 30
0.0
 11
362.6353969745372
 21
219.6315791570702
 31
0.0
  0
ARC
  5
23C3
330
18
100
AcDbEntity
  8
1
  6
Continuous
100
AcDbCircle
 10
352.5384561638031
 20
172.6315791570703
 30
0.0
 40
3.0
100
AcDbArc
 50
270.0
 51
0.000000000000007
  0
LINE
  5
23C6
330
18
100
AcDbEntity
  8
1
  6
Continuous
100
AcDbLine
 10
357.5384561638031
 20
261.6315791570703
 30
0.0
 11
357.5384561638031
 21
177.6315791570702
 31
0.0
  0
ARC
  5
23C7
330
18
100
AcDbEntity
  8
1
  6
Continuous
100
AcDbCircle
 10
357.7300936925844
 20
175.439941628289
 30
0.0
 40
2.199999999999988
100
AcDbArc
 50
94.99725223694261
 51
175.0027477630641
  0
ARC
  5
23C8
330
18
100
AcDbEntity
  8
1
  6
Continuous
100
AcDbCircle
 10
357.7300936925844
 20
263.8232166858508
 30
0.0
 40
2.199999999999988
100
AcDbArc
 50
184.9972522369423
 51
265.0027477630541
  0
ARC
  5
23C9
330
18
100
AcDbEntity
  8
1
  6
Continuous
100
AcDbCircle
 10
322.538456163803
 20
170.1315791570703
 30
0.0
 40
0.5
100
AcDbArc
 50
270.0
 51
0.000000000000007
  0
LINE
  5
23CC
330
18
100
AcDbEntity
  8
1
  6
Continuous
100
AcDbLine
 10
352.5384561638031
 20
169.6315791570703
 30
0.0
 11
345.5384561638034
 21
169.6315791570703
 31
0.0
  0
ARC
  5
23CD
330
18
100
AcDbEntity
  8
1
  6
Continuous
100
AcDbCircle
 10
345.5384561638034
 20
170.1315791570703
 30
0.0
 40
0.5
100
AcDbArc
 50
180.0
 51
270.0
  0
LINE
  5
23D3
330
18
100
AcDbEntity
  8
1
  6
Continuous
100
AcDbLine
 10
325.5384561638031
 20
205.6315791570702
 30
0.0
 11
342.5384561638031
 21
205.6315791570702
 31
0.0
  0
ARC
  5
23D6
330
18
100
AcDbEntity
  8
1
  6
Continuous
100
AcDbCircle
 10
344.1537163915636
 20
232.6315791570703
 30
0.0
 40
2.0
100
AcDbArc
 50
270.0
 51
296.2551872312301
  0
LINE
  5
23D7
330
18
100
AcDbEntity
  8
1
  6
Continuous
100
AcDbLine
 10
344.1537163915636
 20
230.6315791570703
 30
0.0
 11
343.5384561638031
 21
230.6315791570703
 31
0.0
  0
ARC
  5
23D8
330
18
100
AcDbEntity
  8
1
  6
Continuous
100
AcDbCircle
 10
344.1537163915636
 20
206.6315791570703
 30
0.0
 40
2.0
100
AcDbArc
 50
63.7448127687699
 51
90.0
  0
LINE
  5
23D9
330
18
100
AcDbEntity
  8
1
  6
Continuous
100
AcDbLine
 10
344.1537163915636
 20
208.6315791570703
 30
0.0
 11
342.038456163803
 21
208.6315791570704
 31
0.0
  0
ARC
  5
23DA
330
18
100
AcDbEntity
  8
1
  6
Continuous
100
AcDbCircle
 10
342.5384561638031
 20
206.6315791570703
 30
0.0
 40
1.0
100
AcDbArc
 50
270.0
 51
0.000000000000007
  0
ARC
  5
23DC
330
18
100
AcDbEntity
  8
1
  6
Continuous
100
AcDbCircle
 10
341.4820323882277
 20
264.7026988718782
 30
0.0
 40
5.056423775575506
100
AcDbArc
 50
293.997406960841
 51
0.0
  0
ARC
  5
23DF
330
18
100
AcDbEntity
  8
1
  6
Continuous
100
AcDbCircle
 10
323.9231959360426
 20
232.6315791570703
 30
0.0
 40
2.0
100
AcDbArc
 50
243.7448127687698
 51
270.0
  0
LINE
  5
23E0
330
18
100
AcDbEntity
  8
1
  6
Continuous
100
AcDbLine
 10
323.9231959360426
 20
230.6315791570703
 30
0.0
 11
324.5384561638031
 21
230.6315791570703
 31
0.0
  0
ARC
  5
23E1
330
18
100
AcDbEntity
  8
1
  6
Continuous
100
AcDbCircle
 10
325.5384561638031
 20
206.6315791570703
 30
0.0
 40
1.0
100
AcDbArc
 50
180.0
 51
270.0
  0
ARC
  5
23E2
330
18
100
AcDbEntity
  8
1
  6
Continuous
100
AcDbCircle
 10
323.9231959360426
 20
206.6315791570703
 30
0.0
 40
2.0
100
AcDbArc
 50
90.0
 51
116.2551872312301
  0
LINE
  5
23E3
330
18
100
AcDbEntity
  8
1
  6
Continuous
100
AcDbLine
 10
323.9231959360426
 20
208.6315791570703
 30
0.0
 11
326.0384561638031
 21
208.6315791570703
 31
0.0
  0
ARC
  5
23E5
330
18
100
AcDbEntity
  8
1
  6
Continuous
100
AcDbCircle
 10
326.5948799393787
 20
264.7026988718782
 30
0.0
 40
5.056423775575506
100
AcDbArc
 50
180.0
 51
246.002593039156
  0
LINE
  5
23E6
330
18
100
AcDbEntity
  8
1
  6
Continuous
100
AcDbLine
 10
310.5384561638032
 20
261.6315791570711
 30
0.0
 11
310.5384561638032
 21
177.6315791570703
 31
0.0
  0
ARC
  5
23E7
330
18
100
AcDbEntity
  8
1
  6
Continuous
100
AcDbCircle
 10
315.5384561638031
 20
172.6315791570703
 30
0.0
 40
3.0
100
AcDbArc
 50
180.0
 51
270.0
  0
LINE
  5
23E8
330
18
100
AcDbEntity
  8
1
  6
Continuous
100
AcDbLine
 10
315.5384561638031
 20
169.6315791570703
 30
0.0
 11
322.538456163803
 21
169.6315791570703
 31
0.0
  0
ARC
  5
23E9
330
18
100
AcDbEntity
  8
1
  6
Continuous
100
AcDbCircle
 10
310.3468186350219
 20
175.439941628289
 30
0.0
 40
2.199999999999988
100
AcDbArc
 50
4.997252236942366
 51
85.00274776305737
  0
ARC
  5
23EA
330
18
100
AcDbEntity
  8
1
  6
Continuous
100
AcDbCircle
 10
310.3468186350219
 20
263.8232166858516
 30
0.0
 40
2.199999999999988
100
AcDbArc
 50
274.9972522369458
 51
355.0027477630641
  0
LINE
  5
23EB
330
18
100
AcDbEntity
  8
1
  6
Continuous
100
AcDbLine
 10
304.0384561638031
 20
284.1315791570703
 30
0.0
 11
364.0384561638031
 21
284.1315791570703
 31
0.0
  0
LINE
  5
23EC
330
18
100
AcDbEntity
  8
1
  6
Continuous
100
AcDbLine
 10
304.0384561638031
 20
287.1315791570702
 30
0.0
 11
364.0384561638031
 21
287.1315791570702
 31
0.0
  0
ARC
  5
23EF
330
18
100
AcDbEntity
  8
1
  6
Continuous
100
AcDbCircle
 10
352.5384561638031
 20
266.6315791570702
 30
0.0
 40
3.0
100
AcDbArc
 50
0.000000000000007
 51
90.0
  0
LINE
  5
23F0
330
18
100
AcDbEntity
  8
1
  6
Continuous
100
AcDbLine
 10
364.0384561638031
 20
287.1315791570702
 30
0.0
 11
364.0384561638031
 21
284.1315791570703
 31
0.0
  0
LINE
  5
23F1
330
18
100
AcDbEntity
  8
4
  6
CENTER
 48
0.2
100
AcDbLine
 10
357.0384561638031
 20
281.4315791570702
 30
0.0
 11
357.0384561638031
 21
289.8315791570701
 31
0.0
  0
LINE
  5
23F3
330
18
100
AcDbEntity
  8
1
  6
Continuous
100
AcDbLine
 10
322.5384561638031
 20
273.1315791570703
 30
0.0
 11
345.5384561638031
 21
273.1315791570703
 31
0.0
  0
ARC
  5
23F9
330
18
100
AcDbEntity
  8
1
  6
Continuous
100
AcDbCircle
 10
345.5384561638031
 20
272.1315791570703
 30
0.0
 40
1.0
100
AcDbArc
 50
0.000000000000007
 51
90.0
  0
LINE
  5
23FA
330
18
100
AcDbEntity
  8
1
  6
Continuous
100
AcDbLine
 10
352.5384561638031
 20
269.6315791570702
 30
0.0
 11
346.5384561638032
 21
269.6315791570702
 31
0.0
  0
LINE
  5
23FD
330
18
100
AcDbEntity
  8
1
  6
Continuous
100
AcDbLine
 10
346.5384561638031
 20
272.1315791570703
 30
0.0
 11
346.5384561638031
 21
264.7026988718782
 31
0.0
  0
ARC
  5
240D
330
18
100
AcDbEntity
  8
1
  6
Continuous
100
AcDbCircle
 10
315.5384561638031
 20
266.6315791570702
 30
0.0
 40
3.0
100
AcDbArc
 50
90.0
 51
180.0
  0
ARC
  5
240F
330
18
100
AcDbEntity
  8
1
  6
Continuous
100
AcDbCircle
 10
322.5384561638031
 20
272.1315791570703
 30
0.0
 40
1.0
100
AcDbArc
 50
90.0
 51
180.0
  0
LINE
  5
2411
330
18
100
AcDbEntity
  8
1
  6
Continuous
100
AcDbLine
 10
315.5384561638031
 20
269.6315791570702
 30
0.0
 11
321.5384561638031
 21
269.6315791570702
 31
0.0
  0
LINE
  5
2412
330
18
100
AcDbEntity
  8
1
  6
Continuous
100
AcDbLine
 10
321.5384561638031
 20
272.1315791570703
 30
0.0
 11
321.538456163803
 21
264.7026988718782
 31
0.0
  0
LINE
  5
2413
330
18
100
AcDbEntity
  8
4
  6
CENTER
 48
0.2
100
AcDbLine
 10
311.0384561638031
 20
281.4315791570702
 30
0.0
 11
311.0384561638031
 21
289.8315791570701
 31
0.0
  0
LINE
  5
2414
330
18
100
AcDbEntity
  8
1
  6
Continuous
100
AcDbLine
 10
304.0384561638031
 20
287.1315791570702
 30
0.0
 11
304.0384561638031
 21
284.1315791570703
 31
0.0
  0
CIRCLE
  5
24DD
330
18
100
AcDbEntity
  8
1
  6
Continuous
100
AcDbCircle
 10
473.8789038475148
 20
219.6315791570703
 30
0.0
 40
42.0
  0
CIRCLE
  5
24DE
330
18
100
AcDbEntity
  8
1
  6
Continuous
100
AcDbCircle
 10
473.8789038475148
 20
219.6315791570703
 30
0.0
 40
44.0
  0
CIRCLE
  5
24DF
330
18
100
AcDbEntity
  8
1
  6
Continuous
100
AcDbCircle
 10
473.8789038475148
 20
219.6315791570702
 30
0.0
 40
50.0
  0
LINE
  5
24E0
330
18
100
AcDbEntity
  8
4
  6
CENTER
 48
0.5
100
AcDbLine
 10
418.8789038475149
 20
219.6315791570704
 30
0.0
 11
528.8789038475148
 21
219.6315791570702
 31
0.0
  0
LINE
  5
24E1
330
18
100
AcDbEntity
  8
1
  6
Continuous
100
AcDbLine
 10
424.8789038475147
 20
287.1315791570702
 30
0.0
 11
474.8789038475147
 21
287.1315791570702
 31
0.0
  0
LINE
  5
24E2
330
18
100
AcDbEntity
  8
1
  6
Continuous
100
AcDbLine
 10
424.8789038475147
 20
284.1315791570703
 30
0.0
 11
474.8789038475147
 21
284.1315791570703
 31
0.0
  0
LINE
  5
24E5
330
18
100
AcDbEntity
  8
1
  6
Continuous
100
AcDbLine
 10
438.3789038475149
 20
273.1315791570703
 30
0.0
 11
461.3789038475148
 21
273.1315791570703
 31
0.0
  0
ARC
  5
24E6
330
18
100
AcDbEntity
  8
1
  6
Continuous
100
AcDbCircle
 10
473.8789038475148
 20
219.6315791570703
 30
0.0
 40
51.99999999999999
100
AcDbArc
 50
107.1402407664671
 51
128.9296262782462
  0
LINE
  5
24EB
330
18
100
AcDbEntity
  8
4
  6
CENTER
 48
0.5
100
AcDbLine
 10
473.8789038475148
 20
274.6315791570702
 30
0.0
 11
473.8789038475148
 21
164.6315791570702
 31
0.0
  0
ARC
  5
24EC
330
18
100
AcDbEntity
  8
1
  6
Continuous
100
AcDbCircle
 10
509.2073962051566
 20
235.6844240459794
 30
0.0
 40
15.5
100
AcDbArc
 50
54.27577065779877
 51
75.62513770634559
  0
ARC
  5
24ED
330
18
100
AcDbEntity
  8
5
  6
PHANTOM
 48
0.3
100
AcDbCircle
 10
516.528171133132
 20
251.9315791570702
 30
0.0
 40
2.999999999999998
100
AcDbArc
 50
217.1381067327386
 51
270.0
  0
LINE
  5
24EF
330
18
100
AcDbEntity
  8
5
  6
PHANTOM
 48
0.3
100
AcDbLine
 10
537.3304127256504
 20
248.9315791570704
 30
0.0
 11
516.528171133132
 21
248.9315791570701
 31
0.0
  0
LINE
  5
24F0
330
18
100
AcDbEntity
  8
5
  6
PHANTOM
 48
0.3
100
AcDbLine
 10
516.4031322355762
 20
245.9315791570702
 30
0.0
 11
537.3304127256488
 21
245.9315791570702
 31
0.0
  0
ARC
  5
24F1
330
18
100
AcDbEntity
  8
5
  6
PHANTOM
 48
0.3
100
AcDbCircle
 10
537.3304127256507
 20
248.4315791570704
 30
0.0
 40
0.5
100
AcDbArc
 50
6.042328419057525
 51
90.00000000000976
  0
ARC
  5
24F2
330
18
100
AcDbEntity
  8
5
  6
PHANTOM
 48
0.3
100
AcDbCircle
 10
537.3304127256488
 20
246.4315791570701
 30
0.0
 40
0.5
100
AcDbArc
 50
270.0000000000032
 51
353.9576715809456
  0
ARC
  5
24F3
330
18
100
AcDbEntity
  8
5
  6
PHANTOM
 48
0.3
100
AcDbCircle
 10
527.8831909118036
 20
247.4315791570702
 30
0.0
 40
9.999999999999998
100
AcDbArc
 50
353.9576715809456
 51
6.042328419054292
  0
LINE
  5
24F4
330
18
100
AcDbEntity
  8
1
  6
Continuous
100
AcDbLine
 10
519.5860414321489
 20
240.1900170553365
 30
0.0
 11
527.1387386952401
 21
218.8618579330508
 31
0.0
  0
LINE
  5
24F5
330
18
100
AcDbEntity
  8
1
  6
Continuous
100
AcDbLine
 10
529.9666631685176
 20
219.8632785107507
 30
0.0
 11
523.0227322374966
 21
239.4723345435821
 31
0.0
  0
ARC
  5
24F6
330
18
100
AcDbEntity
  8
1
  6
Continuous
100
AcDbCircle
 10
516.5074966959862
 20
224.9176047052376
 30
0.0
 40
7.999999999999997
100
AcDbArc
 50
19.49999999999826
 51
37.7849247521688
  0
ARC
  5
24F7
330
18
100
AcDbEntity
  8
1
  6
Continuous
100
AcDbCircle
 10
529.4953424229714
 20
219.6963750811338
 30
0.0
 40
0.5
100
AcDbArc
 50
295.5423284190572
 51
19.50000000000856
  0
ARC
  5
24F8
330
18
100
AcDbEntity
  8
1
  6
Continuous
100
AcDbCircle
 10
527.6100594407862
 20
219.0287613626678
 30
0.0
 40
0.5
100
AcDbArc
 50
199.5000000000043
 51
283.4576715809471
  0
ARC
  5
24F9
330
18
100
AcDbEntity
  8
1
  6
Continuous
100
AcDbCircle
 10
525.3991534897138
 20
228.2679114791834
 30
0.0
 40
9.999999999999998
100
AcDbArc
 50
283.457671580944
 51
295.5423284190528
  0
ARC
  5
24FA
330
18
100
AcDbEntity
  8
1
  6
Continuous
100
AcDbCircle
 10
520.5931454081016
 20
251.5152394099346
 30
0.0
 40
4.0
100
AcDbArc
 50
234.2757706577987
 51
335.0063527094127
  0
ARC
  5
24FB
330
18
100
AcDbEntity
  8
1
  6
Continuous
100
AcDbCircle
 10
525.8506567107731
 20
240.4737551212834
 30
0.0
 40
2.999999999999998
100
AcDbArc
 50
146.6381067327383
 51
199.5000000000012
  0
ARC
  5
24FC
330
18
100
AcDbEntity
  8
1
  6
Continuous
100
AcDbCircle
 10
481.1667185872622
 20
269.8947624761355
 30
0.0
 40
47.49999999999997
100
AcDbArc
 50
324.9644715018635
 51
342.4837993999237
  0
ARC
  5
24FD
330
18
100
AcDbEntity
  8
5
  6
PHANTOM
 48
0.3
100
AcDbCircle
 10
528.0732330571129
 20
237.9315791570703
 30
0.0
 40
7.999999999999997
100
AcDbArc
 50
90.0
 51
165.988785862005
  0
LINE
  5
24FE
330
18
100
AcDbEntity
  8
1
  6
Continuous
100
AcDbLine
 10
528.3278061367877
 20
256.8916158897891
 30
0.0
 11
527.3939707571744
 21
256.5609274381817
 31
0.0
  0
ARC
  5
24FF
330
18
100
AcDbEntity
  8
1
  6
Continuous
100
AcDbCircle
 10
528.6616129960214
 20
255.9489743986969
 30
0.0
 40
1.0
100
AcDbArc
 50
343.6363316512822
 51
109.4999999999982
  0
ARC
  5
2500
330
18
100
AcDbEntity
  8
1
  6
Continuous
100
AcDbCircle
 10
527.8946810460252
 20
255.1469652015435
 30
0.0
 40
1.5
100
AcDbArc
 50
109.5000000000012
 51
162.4837993999237
  0
ARC
  5
2501
330
18
100
AcDbEntity
  8
1
  6
Continuous
100
AcDbCircle
 10
481.1667185872622
 20
269.8947624761355
 30
0.0
 40
50.49999999999995
100
AcDbArc
 50
326.6381067327383
 51
343.6363316512822
  0
ARC
  5
2502
330
18
100
AcDbEntity
  8
1
  6
Continuous
100
AcDbCircle
 10
522.5159276079432
 20
240.9035066674603
 30
0.0
 40
2.999999999999998
100
AcDbArc
 50
144.9644715018635
 51
193.6561853052806
  0
ARC
  5
2503
330
18
100
AcDbEntity
  8
5
  6
PHANTOM
 48
0.3
100
AcDbCircle
 10
514.4897560470781
 20
241.3211443678107
 30
0.0
 40
5.999999999999997
100
AcDbArc
 50
336.6582528770565
 51
345.988785862005
  0
ARC
  5
2504
330
18
100
AcDbEntity
  8
5
  6
PHANTOM
 48
0.3
100
AcDbCircle
 10
473.8789038475148
 20
219.6315791570704
 30
0.0
 40
50.49999999999995
100
AcDbArc
 50
37.13810673273868
 51
54.13633165128164
  0
ARC
  5
2505
330
18
100
AcDbEntity
  8
5
  6
PHANTOM
 48
0.3
100
AcDbCircle
 10
502.8789038475147
 20
259.7470375241389
 30
0.0
 40
1.0
100
AcDbArc
 50
54.13633165128164
 51
114.6362867338891
  0
LINE
  5
2506
330
18
100
AcDbEntity
  8
1
  6
Continuous
100
AcDbLine
 10
474.8789038475147
 20
284.1315791570703
 30
0.0
 11
474.8789038475147
 21
287.1315791570702
 31
0.0
  0
ARC
  5
2508
330
18
100
AcDbEntity
  8
1
  6
Continuous
100
AcDbCircle
 10
461.3789038475148
 20
272.1315791570703
 30
0.0
 40
1.0
100
AcDbArc
 50
0.000000000000007
 51
90.0
  0
LINE
  5
250A
330
18
100
AcDbEntity
  8
1
  6
Continuous
100
AcDbLine
 10
462.3789038475147
 20
272.1315791570703
 30
0.0
 11
462.3789038475147
 21
271.9455352299959
 31
0.0
  0
LINE
  5
250C
330
18
100
AcDbEntity
  8
4
  6
CENTER
 48
0.2
100
AcDbLine
 10
467.3789038475147
 20
281.4315791570702
 30
0.0
 11
467.3789038475147
 21
289.8315791570702
 31
0.0
  0
ARC
  5
250D
330
18
100
AcDbEntity
  8
1
  6
Continuous
100
AcDbCircle
 10
465.3789038475149
 20
271.9455352299959
 30
0.0
 40
3.0
100
AcDbArc
 50
180.0
 51
279.228800128366
  0
LINE
  5
2513
330
18
100
AcDbEntity
  8
1
  6
Continuous
100
AcDbLine
 10
458.5539038475149
 20
269.3220648642101
 30
0.0
 11
458.5539038475149
 21
267.2251120685909
 31
0.0
  0
LINE
  5
2514
330
18
100
AcDbEntity
  8
1
  6
Continuous
100
AcDbLine
 10
437.3789038475147
 20
272.1315791570703
 30
0.0
 11
437.3789038475147
 21
255.7252074036181
 31
0.0
  0
LINE
  5
2515
330
18
100
AcDbEntity
  8
4
  6
CENTER
 48
0.5
100
AcDbLine
 10
449.8789038475147
 20
292.1315791570703
 30
0.0
 11
449.8789038475146
 21
200.4315791570703
 31
0.0
  0
LINE
  5
2516
330
18
100
AcDbEntity
  8
1
  6
Continuous
100
AcDbLine
 10
441.2039038475149
 20
260.0833327751293
 30
0.0
 11
441.2039038475149
 21
257.4779048842555
 31
0.0
  0
ARC
  5
2517
330
18
100
AcDbEntity
  8
1
  6
Continuous
100
AcDbCircle
 10
432.3789038475148
 20
255.7252074036181
 30
0.0
 40
5.0
100
AcDbArc
 50
318.9856684298802
 51
0.000000000000007
  0
ARC
  5
251A
330
18
100
AcDbEntity
  8
1
  6
Continuous
100
AcDbCircle
 10
438.3789038475149
 20
272.1315791570703
 30
0.0
 40
1.0
100
AcDbArc
 50
90.0
 51
180.0
  0
LINE
  5
2522
330
18
100
AcDbEntity
  8
4
  6
CENTER
 48
0.2
100
AcDbLine
 10
432.3789038475148
 20
281.4315791570702
 30
0.0
 11
432.3789038475148
 21
289.8315791570702
 31
0.0
  0
LINE
  5
2523
330
18
100
AcDbEntity
  8
1
  6
Continuous
100
AcDbLine
 10
424.8789038475147
 20
284.1315791570703
 30
0.0
 11
424.8789038475147
 21
287.1315791570702
 31
0.0
  0
ARC
  5
260C
330
18
100
AcDbEntity
  8
1
  6
Continuous
100
AcDbCircle
 10
335.5855853665848
 20
266.8448227743823
 30
0.0
 40
14.48372236012795
100
AcDbArc
 50
220.2947834703561
 51
263.8680529068003
  0
ARC
  5
260D
330
18
100
AcDbEntity
  8
1
  6
Continuous
100
AcDbCircle
 10
332.4913269610215
 20
266.8448227743823
 30
0.0
 40
14.48372236012795
100
AcDbArc
 50
276.1319470931995
 51
319.7052165296438
  0
LINE
  5
260F
330
18
100
AcDbEntity
  8
1
  6
Continuous
100
AcDbLine
 10
325.5384561638031
 20
233.3315791570703
 30
0.0
 11
342.5384561638031
 21
233.3315791570703
 31
0.0
  0
ARC
  5
2610
330
18
100
AcDbEntity
  8
1
  6
Continuous
100
AcDbCircle
 10
325.5384561638031
 20
234.3315791570702
 30
0.0
 40
1.0
100
AcDbArc
 50
180.0
 51
270.0
  0
ARC
  5
2611
330
18
100
AcDbEntity
  8
1
  6
Continuous
100
AcDbCircle
 10
342.5384561638031
 20
234.3315791570702
 30
0.0
 40
1.0
100
AcDbArc
 50
270.0
 51
0.000000000000007
  0
LINE
  5
2612
330
18
100
AcDbEntity
  8
1
  6
Continuous
100
AcDbLine
 10
324.538456163803
 20
226.6315791570702
 30
0.0
 11
326.0384561638029
 21
226.6315791570702
 31
0.0
  0
LINE
  5
2614
330
18
100
AcDbEntity
  8
1
  6
Continuous
100
AcDbLine
 10
342.0384561638029
 20
205.6315791570703
 30
0.0
 11
342.0384561638031
 21
226.6315791570704
 31
0.0
  0
LINE
  5
2615
330
18
100
AcDbEntity
  8
1
  6
Continuous
100
AcDbLine
 10
326.0384561638029
 20
226.6315791570702
 30
0.0
 11
326.0384561638031
 21
205.6315791570703
 31
0.0
  0
LINE
  5
2616
330
18
100
AcDbEntity
  8
1
  6
Continuous
100
AcDbLine
 10
326.0384561638034
 20
206.6315791570703
 30
0.0
 11
342.038456163803
 21
206.6315791570703
 31
0.0
  0
LINE
  5
2617
330
18
100
AcDbEntity
  8
1
  6
Continuous
100
AcDbLine
 10
343.5384561638032
 20
206.6315791570705
 30
0.0
 11
343.5384561638031
 21
208.6315791570703
 31
0.0
  0
LINE
  5
2618
330
18
100
AcDbEntity
  8
1
  6
Continuous
100
AcDbLine
 10
324.5384561638031
 20
208.6315791570703
 30
0.0
 11
324.5384561638031
 21
206.6315791570703
 31
0.0
  0
LINE
  5
2619
330
18
100
AcDbEntity
  8
1
  6
Continuous
100
AcDbLine
 10
342.0384561638031
 20
226.6315791570704
 30
0.0
 11
343.5384561638031
 21
226.6315791570704
 31
0.0
  0
LINE
  5
27E6
330
18
100
AcDbEntity
  8
1
  6
Continuous
100
AcDbLine
 10
198.1980084800914
 20
94.2122087578482
 30
0.0
 11
238.1980084800914
 21
94.2122087578482
 31
0.0
  0
LINE
  5
27E7
330
18
100
AcDbEntity
  8
1
  6
Continuous
100
AcDbLine
 10
198.1980084800914
 20
34.21220875784821
 30
0.0
 11
238.1980084800914
 21
34.21220875784821
 31
0.0
  0
LINE
  5
27ED
330
18
100
AcDbEntity
  8
4
  6
CENTER
 48
0.5
100
AcDbLine
 10
249.1980084800914
 20
64.21220875784832
 30
0.0
 11
133.0815699046348
 21
64.21220875784809
 31
0.0
  0
LINE
  5
27F4
330
18
100
AcDbEntity
  8
1
  6
Continuous
100
AcDbLine
 10
147.1980084800915
 20
42.7122087578482
 30
0.0
 11
241.1980084800914
 21
42.7122087578482
 31
0.0
  0
LINE
  5
27F5
330
18
100
AcDbEntity
  8
1
  6
Continuous
100
AcDbLine
 10
144.6980084800915
 20
53.21220875784809
 30
0.0
 11
243.6980084800913
 21
53.21220875784809
 31
0.0
  0
LINE
  5
27F6
330
18
100
AcDbEntity
  8
1
  6
Continuous
100
AcDbLine
 10
236.1980084800915
 20
40.71220875784829
 30
0.0
 11
152.1980084800913
 21
40.71220875784843
 31
0.0
  0
ARC
  5
27F7
330
18
100
AcDbEntity
  8
1
  6
Continuous
100
AcDbCircle
 10
150.00637095131
 20
40.52057122906705
 30
0.0
 40
2.199999999999988
100
AcDbArc
 50
4.997252236942347
 51
85.00274776306062
  0
LINE
  5
27F8
330
18
100
AcDbEntity
  8
1
  6
Continuous
100
AcDbLine
 10
147.1980084800915
 20
85.7122087578482
 30
0.0
 11
241.1980084800914
 21
85.7122087578482
 31
0.0
  0
LINE
  5
27F9
330
18
100
AcDbEntity
  8
1
  6
Continuous
100
AcDbLine
 10
144.6980084800915
 20
75.21220875784843
 30
0.0
 11
243.6980084800913
 21
75.21220875784843
 31
0.0
  0
LINE
  5
27FB
330
18
100
AcDbEntity
  8
1
  6
Continuous
100
AcDbLine
 10
236.1980084800915
 20
87.71220875784838
 30
0.0
 11
152.1980084800913
 21
87.71220875784832
 31
0.0
  0
ARC
  5
27FC
330
18
100
AcDbEntity
  8
1
  6
Continuous
100
AcDbCircle
 10
150.00637095131
 20
87.90384628662954
 30
0.0
 40
2.199999999999988
100
AcDbArc
 50
274.9972522369394
 51
355.0027477630576
  0
LINE
  5
2801
330
18
100
AcDbEntity
  8
1
  6
Continuous
100
AcDbLine
 10
140.7914194013815
 20
55.2122087578483
 30
0.0
 11
140.7914194013815
 21
73.2122087578482
 31
0.0
  0
LINE
  5
2803
330
18
100
AcDbEntity
  8
1
  6
Continuous
100
AcDbLine
 10
138.0815699046348
 20
73.2122087578482
 30
0.0
 11
138.0815699046348
 21
55.2122087578483
 31
0.0
  0
ARC
  5
2805
330
18
100
AcDbEntity
  8
1
  6
Continuous
100
AcDbCircle
 10
147.1980084800915
 20
82.7122087578482
 30
0.0
 40
3.0
100
AcDbArc
 50
90.00000000000005
 51
180.0
  0
LINE
  5
2807
330
18
100
AcDbEntity
  8
1
  6
Continuous
100
AcDbLine
 10
183.1980084800914
 20
73.71220875784762
 30
0.0
 11
138.5815699046348
 21
73.7122087578482
 31
0.0
  0
ARC
  5
2809
330
18
100
AcDbEntity
  8
1
  6
Continuous
100
AcDbCircle
 10
140.2914194013815
 20
73.2122087578482
 30
0.0
 40
0.5
100
AcDbArc
 50
0.0
 51
90.00000000000005
  0
ARC
  5
280A
330
18
100
AcDbEntity
  8
1
  6
Continuous
100
AcDbCircle
 10
138.5815699046351
 20
73.21220875784809
 30
0.0
 40
0.5
100
AcDbArc
 50
90.00000000002605
 51
179.9999999999869
  0
LINE
  5
280C
330
18
100
AcDbEntity
  8
1
  6
Continuous
100
AcDbLine
 10
144.1980084800915
 20
82.7122087578482
 30
0.0
 11
144.1980084800915
 21
75.71220875784843
 31
0.0
  0
ARC
  5
280D
330
18
100
AcDbEntity
  8
1
  6
Continuous
100
AcDbCircle
 10
144.6980084800915
 20
75.71220875784843
 30
0.0
 40
0.5
100
AcDbArc
 50
180.0
 51
270.0
  0
LINE
  5
2811
330
18
100
AcDbEntity
  8
1
  6
Continuous
100
AcDbLine
 10
138.5815699046348
 20
54.71220875784831
 30
0.0
 11
183.1980084800914
 21
54.71220875784831
 31
0.0
  0
ARC
  5
2812
330
18
100
AcDbEntity
  8
1
  6
Continuous
100
AcDbCircle
 10
147.1980084800915
 20
45.7122087578482
 30
0.0
 40
3.0
100
AcDbArc
 50
180.0
 51
270.0
  0
ARC
  5
2813
330
18
100
AcDbEntity
  8
1
  6
Continuous
100
AcDbCircle
 10
140.2914194013813
 20
55.21220875784866
 30
0.0
 40
0.5
100
AcDbArc
 50
270.000000000026
 51
359.9999999999608
  0
ARC
  5
2814
330
18
100
AcDbEntity
  8
1
  6
Continuous
100
AcDbCircle
 10
138.5815699046352
 20
55.21220875784877
 30
0.0
 40
0.5
100
AcDbArc
 50
180.0000000000521
 51
269.9999999999608
  0
ARC
  5
2817
330
18
100
AcDbEntity
  8
1
  6
Continuous
100
AcDbCircle
 10
144.6980084800915
 20
52.71220875784809
 30
0.0
 40
0.5
100
AcDbArc
 50
90.00000000000005
 51
180.0
  0
LINE
  5
2818
330
18
100
AcDbEntity
  8
1
  6
Continuous
100
AcDbLine
 10
144.1980084800915
 20
45.7122087578482
 30
0.0
 11
144.1980084800915
 21
52.71220875784809
 31
0.0
  0
LINE
  5
281B
330
18
100
AcDbEntity
  8
1
  6
Continuous
100
AcDbLine
 10
205.1980084800913
 20
54.71220875784825
 30
0.0
 11
241.784493067759
 21
54.71220875784837
 31
0.0
  0
LINE
  5
281C
330
18
100
AcDbEntity
  8
1
  6
Continuous
100
AcDbLine
 10
241.784493067759
 20
73.71220875784842
 30
0.0
 11
205.1980084800914
 21
73.71220875784832
 31
0.0
  0
LINE
  5
281F
330
18
100
AcDbEntity
  8
1
  6
Continuous
100
AcDbLine
 10
183.1980084800914
 20
74.32746898560869
 30
0.0
 11
183.1980084800914
 21
72.21220875784826
 31
0.0
  0
ARC
  5
2820
330
18
100
AcDbEntity
  8
1
  6
Continuous
100
AcDbCircle
 10
181.1980084800913
 20
74.32746898560869
 30
0.0
 40
2.0
100
AcDbArc
 50
0.0
 51
26.25518723123013
  0
LINE
  5
2822
330
18
100
AcDbEntity
  8
1
  6
Continuous
100
AcDbLine
 10
183.1980084800914
 20
54.09694853008784
 30
0.0
 11
183.1980084800914
 21
56.21220875784842
 31
0.0
  0
ARC
  5
2823
330
18
100
AcDbEntity
  8
1
  6
Continuous
100
AcDbCircle
 10
181.1980084800913
 20
54.09694853008784
 30
0.0
 40
2.0
100
AcDbArc
 50
333.7448127687698
 51
0.0
  0
LINE
  5
2824
330
18
100
AcDbEntity
  8
1
  6
Continuous
100
AcDbLine
 10
193.1980084800914
 20
89.2122087578482
 30
0.0
 11
193.1980084800913
 21
87.71220875784832
 31
0.0
  0
LINE
  5
2825
330
18
100
AcDbEntity
  8
4
  6
CENTER
 48
0.5
100
AcDbLine
 10
194.1980084800914
 20
35.61526794711426
 30
0.0
 11
194.1980084800914
 21
92.80914956858223
 31
0.0
  0
ARC
  5
2826
330
18
100
AcDbEntity
  8
1
  6
Continuous
100
AcDbCircle
 10
200.6980084800914
 20
87.21220875784821
 30
0.0
 40
3.2
100
AcDbArc
 50
8.9892993451649
 51
171.0107006548351
  0
LINE
  5
2827
330
18
100
AcDbEntity
  8
4
  6
CENTER
 48
0.2
100
AcDbLine
 10
206.8980084800914
 20
87.21220875784821
 30
0.0
 11
194.4980084800914
 21
87.21220875784821
 31
0.0
  0
ARC
  5
2828
330
18
100
AcDbEntity
  8
1
  6
Continuous
100
AcDbCircle
 10
198.1980084800914
 20
89.2122087578482
 30
0.0
 40
5.0
100
AcDbArc
 50
89.99999999994789
 51
179.9999999999315
  0
LINE
  5
2829
330
18
100
AcDbEntity
  8
4
  6
CENTER
 48
0.2
100
AcDbLine
 10
200.6980084800914
 20
93.41220875784825
 30
0.0
 11
200.6980084800914
 21
81.01220875784838
 31
0.0
  0
ARC
  5
282A
330
18
100
AcDbEntity
  8
1
  6
Continuous
100
AcDbCircle
 10
200.6980084800914
 20
41.2122087578482
 30
0.0
 40
3.2
100
AcDbArc
 50
188.9892993451598
 51
351.0107006548401
  0
LINE
  5
282B
330
18
100
AcDbEntity
  8
4
  6
CENTER
 48
0.2
100
AcDbLine
 10
206.8980084800914
 20
41.2122087578482
 30
0.0
 11
194.4980084800914
 21
41.2122087578482
 31
0.0
  0
ARC
  5
282C
330
18
100
AcDbEntity
  8
1
  6
Continuous
100
AcDbCircle
 10
198.1980084800914
 20
39.2122087578482
 30
0.0
 40
5.0
100
AcDbArc
 50
180.0
 51
269.9999999999804
  0
LINE
  5
282D
330
18
100
AcDbEntity
  8
4
  6
CENTER
 48
0.2
100
AcDbLine
 10
200.6980084800914
 20
47.41220875784825
 30
0.0
 11
200.6980084800914
 21
35.01220875784827
 31
0.0
  0
LINE
  5
2832
330
18
100
AcDbEntity
  8
1
  6
Continuous
100
AcDbLine
 10
243.1980084800914
 20
39.2122087578482
 30
0.0
 11
243.1980084800914
 21
43.47614078034836
 31
0.0
  0
LINE
  5
2833
330
18
100
AcDbEntity
  8
4
  6
CENTER
 48
0.5
100
AcDbLine
 10
218.1980084800914
 20
99.21220875784833
 30
0.0
 11
218.1980084800914
 21
29.2122087578482
 31
0.0
  0
LINE
  5
2834
330
18
100
AcDbEntity
  8
1
  6
Continuous
100
AcDbLine
 10
242.284493067759
 20
55.2122087578483
 30
0.0
 11
242.284493067759
 21
73.21220875784831
 31
0.0
  0
LINE
  5
2835
330
18
100
AcDbEntity
  8
4
  6
CENTER
 48
0.2
100
AcDbLine
 10
241.8980084800914
 20
87.21220875784821
 30
0.0
 11
229.4980084800914
 21
87.21220875784821
 31
0.0
  0
ARC
  5
2836
330
18
100
AcDbEntity
  8
1
  6
Continuous
100
AcDbCircle
 10
235.6980084800913
 20
87.21220875784821
 30
0.0
 40
3.2
100
AcDbArc
 50
332.0468131166047
 51
171.0107006548351
  0
LINE
  5
2837
330
18
100
AcDbEntity
  8
4
  6
CENTER
 48
0.2
100
AcDbLine
 10
235.6980084800913
 20
93.41220875784825
 30
0.0
 11
235.6980084800913
 21
81.01220875784838
 31
0.0
  0
ARC
  5
2838
330
18
100
AcDbEntity
  8
1
  6
Continuous
100
AcDbCircle
 10
241.784493067759
 20
73.21220875784831
 30
0.0
 40
0.5
100
AcDbArc
 50
0.0
 51
90.00000000000005
  0
LINE
  5
283A
330
18
100
AcDbEntity
  8
1
  6
Continuous
100
AcDbLine
 10
244.1980084800913
 20
82.7122087578482
 30
0.0
 11
244.1980084800913
 21
75.71220875784843
 31
0.0
  0
ARC
  5
283C
330
18
100
AcDbEntity
  8
1
  6
Continuous
100
AcDbCircle
 10
243.6980084800913
 20
75.71220875784843
 30
0.0
 40
0.5
100
AcDbArc
 50
270.0
 51
0.0
  0
ARC
  5
283D
330
18
100
AcDbEntity
  8
1
  6
Continuous
100
AcDbCircle
 10
241.1980084800914
 20
82.7122087578482
 30
0.0
 40
3.0
100
AcDbArc
 50
0.0
 51
90.0
  0
ARC
  5
283E
330
18
100
AcDbEntity
  8
1
  6
Continuous
100
AcDbCircle
 10
238.1980084800914
 20
89.2122087578482
 30
0.0
 40
5.0
100
AcDbArc
 50
359.9999999999643
 51
89.99999999994789
  0
LINE
  5
283F
330
18
100
AcDbEntity
  8
4
  6
CENTER
 48
0.2
100
AcDbLine
 10
241.8980084800914
 20
41.2122087578482
 30
0.0
 11
229.4980084800914
 21
41.2122087578482
 31
0.0
  0
ARC
  5
2840
330
18
100
AcDbEntity
  8
1
  6
Continuous
100
AcDbCircle
 10
238.1980084800914
 20
39.2122087578482
 30
0.0
 40
5.0
100
AcDbArc
 50
269.9999999999804
 51
359.9999999999643
  0
LINE
  5
2841
330
18
100
AcDbEntity
  8
4
  6
CENTER
 48
0.2
100
AcDbLine
 10
235.6980084800913
 20
47.41220875784825
 30
0.0
 11
235.6980084800913
 21
35.01220875784827
 31
0.0
  0
ARC
  5
2842
330
18
100
AcDbEntity
  8
1
  6
Continuous
100
AcDbCircle
 10
235.6980084800913
 20
41.2122087578482
 30
0.0
 40
3.2
100
AcDbArc
 50
188.9892993451608
 51
27.9531868833952
  0
ARC
  5
2843
330
18
100
AcDbEntity
  8
1
  6
Continuous
100
AcDbCircle
 10
241.784493067759
 20
55.2122087578483
 30
0.0
 40
0.5
100
AcDbArc
 50
270.0
 51
0.0
  0
ARC
  5
2845
330
18
100
AcDbEntity
  8
1
  6
Continuous
100
AcDbCircle
 10
241.1980084800914
 20
45.7122087578482
 30
0.0
 40
3.0
100
AcDbArc
 50
270.0
 51
0.0
  0
ARC
  5
2847
330
18
100
AcDbEntity
  8
1
  6
Continuous
100
AcDbCircle
 10
243.6980084800913
 20
52.71220875784809
 30
0.0
 40
0.5
100
AcDbArc
 50
0.0
 51
90.00000000000005
  0
LINE
  5
2848
330
18
100
AcDbEntity
  8
1
  6
Continuous
100
AcDbLine
 10
244.1980084800913
 20
45.7122087578482
 30
0.0
 11
244.1980084800913
 21
52.71220875784809
 31
0.0
  0
LINE
  5
2A63
330
18
100
AcDbEntity
  8
1
  6
Continuous
100
AcDbLine
 10
193.1980084800914
 20
40.71220875784829
 30
0.0
 11
193.1980084800914
 21
39.2122087578482
 31
0.0
  0
LINE
  5
2A64
330
18
100
AcDbEntity
  8
1
  6
Continuous
100
AcDbLine
 10
205.1980084800914
 20
54.09694853008784
 30
0.0
 11
205.1980084800914
 21
56.21220875784814
 31
0.0
  0
ARC
  5
2A65
330
18
100
AcDbEntity
  8
1
  6
Continuous
100
AcDbCircle
 10
207.1980084800914
 20
54.09694853008784
 30
0.0
 40
2.0
100
AcDbArc
 50
180.0
 51
206.2551872312301
  0
LINE
  5
2A66
330
18
100
AcDbEntity
  8
1
  6
Continuous
100
AcDbLine
 10
205.1980084800914
 20
74.32746898560869
 30
0.0
 11
205.1980084800914
 21
72.21220875784855
 31
0.0
  0
ARC
  5
2A67
330
18
100
AcDbEntity
  8
1
  6
Continuous
100
AcDbCircle
 10
207.1980084800914
 20
74.32746898560869
 30
0.0
 40
2.0
100
AcDbArc
 50
153.7448127687698
 51
180.0
  0
ARC
  5
2A68
330
18
100
AcDbEntity
  8
1
  6
Continuous
100
AcDbCircle
 10
238.3896460088727
 20
87.90384628662954
 30
0.0
 40
2.199999999999988
100
AcDbArc
 50
184.9972522369423
 51
265.0027477630605
  0
ARC
  5
2A69
330
18
100
AcDbEntity
  8
1
  6
Continuous
100
AcDbCircle
 10
238.3896460088727
 20
40.52057122906705
 30
0.0
 40
2.199999999999988
100
AcDbArc
 50
94.99725223693941
 51
175.0027477630576
  0
LINE
  5
2A6A
330
18
100
AcDbEntity
  8
1
  6
Continuous
100
AcDbLine
 10
243.1980084800914
 20
84.94827673534798
 30
0.0
 11
243.1980084800914
 21
89.2122087578482
 31
0.0
  0
LINE
  5
2A6C
330
18
100
AcDbEntity
  8
1
  6
Continuous
100
AcDbLine
 10
243.1980084800914
 20
53.21220875784813
 30
0.0
 11
243.1980084800915
 21
75.21220875784843
 31
0.0
  0
LINE
  5
2A70
330
18
100
AcDbEntity
  8
1
  6
Continuous
100
AcDbLine
 10
240.284493067759
 20
55.2122087578483
 30
0.0
 11
240.284493067759
 21
63.21220875784831
 31
0.0
  0
ARC
  5
2A71
330
18
100
AcDbEntity
  8
1
  6
Continuous
100
AcDbCircle
 10
240.784493067759
 20
55.2122087578483
 30
0.0
 40
0.5
100
AcDbArc
 50
180.0
 51
270.0
  0
ARC
  5
2A72
330
18
100
AcDbEntity
  8
1
  6
Continuous
100
AcDbCircle
 10
240.784493067759
 20
73.21220875784831
 30
0.0
 40
0.5
100
AcDbArc
 50
89.99999999999998
 51
180.0
  0
LINE
  5
2A73
330
18
100
AcDbEntity
  8
1
  6
Continuous
100
AcDbLine
 10
240.284493067759
 20
65.21220875784831
 30
0.0
 11
232.284493067759
 21
65.21220875784831
 31
0.0
  0
LINE
  5
2A74
330
18
100
AcDbEntity
  8
1
  6
Continuous
100
AcDbLine
 10
240.284493067759
 20
63.21220875784831
 30
0.0
 11
232.284493067759
 21
63.21220875784836
 31
0.0
  0
LINE
  5
2A75
330
18
100
AcDbEntity
  8
1
  6
Continuous
100
AcDbLine
 10
240.284493067759
 20
65.21220875784831
 30
0.0
 11
240.284493067759
 21
73.21220875784831
 31
0.0
  0
LINE
  5
2A76
330
18
100
AcDbEntity
  8
1
  6
Continuous
100
AcDbLine
 10
232.284493067759
 20
63.21220875784836
 30
0.0
 11
232.284493067759
 21
65.21220875784831
 31
0.0
  0
LINE
  5
2A77
330
18
100
AcDbEntity
  8
1
  6
Continuous
100
AcDbLine
 10
237.784493067759
 20
63.21220875784836
 30
0.0
 11
237.784493067759
 21
65.21220875784831
 31
0.0
  0
LINE
  5
2A79
330
18
100
AcDbEntity
  8
1
  6
Continuous
100
AcDbLine
 10
144.1980084800914
 20
73.21220875784814
 30
0.0
 11
144.1980084800914
 21
55.2122087578482
 31
0.0
  0
ARC
  5
2A97
330
18
100
AcDbEntity
  8
1
  6
Continuous
100
AcDbCircle
 10
144.6980084800913
 20
73.21220875784814
 30
0.0
 40
0.5
100
AcDbArc
 50
90.00000000000017
 51
180.0
  0
ARC
  5
2A98
330
18
100
AcDbEntity
  8
1
  6
Continuous
100
AcDbCircle
 10
144.6980084800913
 20
55.2122087578482
 30
0.0
 40
0.5
100
AcDbArc
 50
180.0
 51
270.0000000000001
  0
LINE
  5
2A9B
330
18
100
AcDbEntity
  8
1
  6
Continuous
100
AcDbLine
 10
146.1980084800914
 20
73.21220875784814
 30
0.0
 11
146.1980084800914
 21
55.2122087578482
 31
0.0
  0
ARC
  5
2A9C
330
18
100
AcDbEntity
  8
1
  6
Continuous
100
AcDbCircle
 10
146.6980084800914
 20
55.2122087578482
 30
0.0
 40
0.5
100
AcDbArc
 50
180.0
 51
270.0000000000001
  0
ARC
  5
2A9D
330
18
100
AcDbEntity
  8
1
  6
Continuous
100
AcDbCircle
 10
146.6980084800914
 20
73.21220875784814
 30
0.0
 40
0.5
100
AcDbArc
 50
90.00000000000017
 51
180.0
  0
LINE
  5
2A9E
330
18
100
AcDbEntity
  8
1
  6
Continuous
100
AcDbLine
 10
147.6980084800914
 20
73.21220875784814
 30
0.0
 11
147.6980084800914
 21
72.21220875784779
 31
0.0
  0
ARC
  5
2A9F
330
18
100
AcDbEntity
  8
1
  6
Continuous
100
AcDbCircle
 10
147.1980084800914
 20
55.2122087578482
 30
0.0
 40
0.5
100
AcDbArc
 50
269.9999999999998
 51
0.000000000000007
  0
ARC
  5
2AA0
330
18
100
AcDbEntity
  8
1
  6
Continuous
100
AcDbCircle
 10
147.1980084800914
 20
73.21220875784814
 30
0.0
 40
0.5
100
AcDbArc
 50
0.000000000000007
 51
89.99999999999984
  0
LINE
  5
2AA1
330
18
100
AcDbEntity
  8
1
  6
Continuous
100
AcDbLine
 10
147.6980084800914
 20
56.21220875784882
 30
0.0
 11
207.1980084800915
 21
56.21220875784814
 31
0.0
  0
LINE
  5
2AA2
330
18
100
AcDbEntity
  8
1
  6
Continuous
100
AcDbLine
 10
207.1980084800914
 20
72.21220875784855
 30
0.0
 11
147.6980084800914
 21
72.21220875784779
 31
0.0
  0
LINE
  5
2AA4
330
18
100
AcDbEntity
  8
1
  6
Continuous
100
AcDbLine
 10
147.6980084800914
 20
55.21220875784803
 30
0.0
 11
147.6980084800914
 21
56.21220875784835
 31
0.0
  0
LINE
  5
2AA5
330
18
100
AcDbEntity
  8
1
  6
Continuous
100
AcDbLine
 10
207.1980084800914
 20
54.71220875784825
 30
0.0
 11
207.1980084800914
 21
73.71220875784837
 31
0.0
  0
LINE
  5
2AA7
330
18
100
AcDbEntity
  8
1
  6
Continuous
100
AcDbLine
 10
177.1980084800913
 20
56.21220875784853
 30
0.0
 11
177.1980084800913
 21
72.21220875784826
 31
0.0
  0
LINE
  5
31C9
330
18
100
AcDbEntity
  8
1
  6
Continuous
100
AcDbLine
 10
458.378903847515
 20
273.6315791570703
 30
0.0
 11
458.878903847515
 21
274.1315791570703
 31
0.0
  0
ARC
  5
31CA
330
18
100
AcDbEntity
  8
1
  6
Continuous
100
AcDbCircle
 10
457.4071120864813
 20
286.6315791570702
 30
0.0
 40
6.0
100
AcDbArc
 50
270.0
 51
306.3843518158335
  0
LINE
  5
31CB
330
18
100
AcDbEntity
  8
1
  6
Continuous
100
AcDbLine
 10
458.878903847515
 20
280.1315791570702
 30
0.0
 11
458.378903847515
 21
280.6315791570702
 31
0.0
  0
LINE
  5
31D3
330
18
100
AcDbEntity
  8
1
  6
Continuous
100
AcDbLine
 10
441.378903847515
 20
273.6315791570703
 30
0.0
 11
458.378903847515
 21
273.6315791570703
 31
0.0
  0
ARC
  5
31D4
330
18
100
AcDbEntity
  8
1
  6
Continuous
100
AcDbCircle
 10
442.3506956085486
 20
286.6315791570702
 30
0.0
 40
6.0
100
AcDbArc
 50
233.6156481841638
 51
270.0
  0
LINE
  5
31D6
330
18
100
AcDbEntity
  8
1
  6
Continuous
100
AcDbLine
 10
441.378903847515
 20
280.6315791570702
 30
0.0
 11
458.378903847515
 21
280.6315791570702
 31
0.0
  0
ARC
  5
31D7
330
18
100
AcDbEntity
  8
1
  6
Continuous
100
AcDbCircle
 10
441.6789038475148
 20
273.3315791570702
 30
0.0
 40
0.3
100
AcDbArc
 50
90.0
 51
180.0
  0
LINE
  5
31D8
330
18
100
AcDbEntity
  8
1
  6
Continuous
100
AcDbLine
 10
438.7915013802494
 20
281.80124413295
 30
0.0
 11
436.15803800327
 21
283.741690831777
 31
0.0
  0
LINE
  5
31D9
330
18
100
AcDbEntity
  8
1
  6
Continuous
100
AcDbLine
 10
440.8789038475148
 20
280.1315791570702
 30
0.0
 11
440.8789038475148
 21
274.1315791570703
 31
0.0
  0
LINE
  5
31DB
330
18
100
AcDbEntity
  8
1
  6
Continuous
100
AcDbLine
 10
440.8789038475148
 20
274.1315791570703
 30
0.0
 11
441.378903847515
 21
273.6315791570703
 31
0.0
  0
LINE
  5
31DD
330
18
100
AcDbEntity
  8
1
  6
Continuous
100
AcDbLine
 10
441.378903847515
 20
273.3315791570702
 30
0.0
 11
441.378903847515
 21
273.1315791570703
 31
0.0
  0
LINE
  5
31DE
330
18
100
AcDbEntity
  8
1
  6
Continuous
100
AcDbLine
 10
440.8789038475148
 20
280.1315791570702
 30
0.0
 11
441.378903847515
 21
280.6315791570702
 31
0.0
  0
ARC
  5
31E0
330
18
100
AcDbEntity
  8
1
  6
Continuous
100
AcDbCircle
 10
434.9716399271703
 20
282.1315791570702
 30
0.0
 40
2.0
100
AcDbArc
 50
53.61564818416383
 51
90.0
  0
ARC
  5
31E5
330
18
100
AcDbEntity
  8
1
  6
Continuous
100
AcDbCircle
 10
458.0789038475148
 20
273.3315791570702
 30
0.0
 40
0.3
100
AcDbArc
 50
0.0
 51
89.99999999999673
  0
LINE
  5
31E6
330
18
100
AcDbEntity
  8
1
  6
Continuous
100
AcDbLine
 10
458.378903847515
 20
273.3315791570702
 30
0.0
 11
458.378903847515
 21
273.1315791570703
 31
0.0
  0
LINE
  5
31E8
330
18
100
AcDbEntity
  8
1
  6
Continuous
100
AcDbLine
 10
460.9663063147803
 20
281.80124413295
 30
0.0
 11
463.5997696917597
 21
283.741690831777
 31
0.0
  0
LINE
  5
31E9
330
18
100
AcDbEntity
  8
1
  6
Continuous
100
AcDbLine
 10
458.878903847515
 20
274.1315791570703
 30
0.0
 11
458.878903847515
 21
280.1315791570702
 31
0.0
  0
ARC
  5
31ED
330
18
100
AcDbEntity
  8
1
  6
Continuous
100
AcDbCircle
 10
464.7861677678593
 20
282.1315791570702
 30
0.0
 40
2.0
100
AcDbArc
 50
90.0
 51
126.384351815836
  0
LINE
  5
3223
330
18
100
AcDbEntity
  8
1
  6
Continuous
100
AcDbLine
 10
325.5384561638031
 20
273.6315791570703
 30
0.0
 11
342.5384561638031
 21
273.6315791570703
 31
0.0
  0
LINE
  5
3228
330
18
100
AcDbEntity
  8
1
  6
Continuous
100
AcDbLine
 10
325.5384561638031
 20
280.6315791570703
 30
0.0
 11
342.5384561638031
 21
280.6315791570703
 31
0.0
  0
LINE
  5
3235
330
18
100
AcDbEntity
  8
1
  6
Continuous
100
AcDbLine
 10
322.9510536965377
 20
281.80124413295
 30
0.0
 11
320.3175903195583
 21
283.741690831777
 31
0.0
  0
LINE
  5
3236
330
18
100
AcDbEntity
  8
1
  6
Continuous
100
AcDbLine
 10
325.0384561638032
 20
280.1315791570703
 30
0.0
 11
325.0384561638032
 21
274.1315791570703
 31
0.0
  0
LINE
  5
3238
330
18
100
AcDbEntity
  8
1
  6
Continuous
100
AcDbLine
 10
325.0384561638032
 20
274.1315791570703
 30
0.0
 11
325.5384561638031
 21
273.6315791570703
 31
0.0
  0
ARC
  5
3239
330
18
100
AcDbEntity
  8
1
  6
Continuous
100
AcDbCircle
 10
325.8384561638032
 20
273.3315791570703
 30
0.0
 40
0.3
100
AcDbArc
 50
90.0
 51
180.0
  0
LINE
  5
323A
330
18
100
AcDbEntity
  8
1
  6
Continuous
100
AcDbLine
 10
325.5384561638031
 20
273.3315791570703
 30
0.0
 11
325.5384561638031
 21
273.1315791570703
 31
0.0
  0
ARC
  5
323B
330
18
100
AcDbEntity
  8
1
  6
Continuous
100
AcDbCircle
 10
326.5102479248367
 20
286.6315791570703
 30
0.0
 40
6.0
100
AcDbArc
 50
233.6156481841619
 51
270.0
  0
LINE
  5
323C
330
18
100
AcDbEntity
  8
1
  6
Continuous
100
AcDbLine
 10
325.0384561638032
 20
280.1315791570703
 30
0.0
 11
325.5384561638031
 21
280.6315791570703
 31
0.0
  0
ARC
  5
323D
330
18
100
AcDbEntity
  8
1
  6
Continuous
100
AcDbCircle
 10
319.1311922434587
 20
282.1315791570703
 30
0.0
 40
2.0
100
AcDbArc
 50
53.61564818416383
 51
90.0
  0
LINE
  5
3245
330
18
100
AcDbEntity
  8
1
  6
Continuous
100
AcDbLine
 10
345.1258586310685
 20
281.80124413295
 30
0.0
 11
347.759322008048
 21
283.741690831777
 31
0.0
  0
LINE
  5
3247
330
18
100
AcDbEntity
  8
1
  6
Continuous
100
AcDbLine
 10
343.0384561638031
 20
274.1315791570703
 30
0.0
 11
343.0384561638031
 21
280.1315791570703
 31
0.0
  0
LINE
  5
3248
330
18
100
AcDbEntity
  8
1
  6
Continuous
100
AcDbLine
 10
342.5384561638031
 20
273.6315791570703
 30
0.0
 11
343.0384561638031
 21
274.1315791570703
 31
0.0
  0
ARC
  5
3249
330
18
100
AcDbEntity
  8
1
  6
Continuous
100
AcDbCircle
 10
342.2384561638032
 20
273.3315791570703
 30
0.0
 40
0.3
100
AcDbArc
 50
0.0
 51
90.0
  0
LINE
  5
324A
330
18
100
AcDbEntity
  8
1
  6
Continuous
100
AcDbLine
 10
342.5384561638031
 20
273.3315791570703
 30
0.0
 11
342.5384561638031
 21
273.1315791570703
 31
0.0
  0
ARC
  5
324B
330
18
100
AcDbEntity
  8
1
  6
Continuous
100
AcDbCircle
 10
341.5666644027694
 20
286.6315791570703
 30
0.0
 40
6.0
100
AcDbArc
 50
270.0
 51
306.3843518158362
  0
LINE
  5
324C
330
18
100
AcDbEntity
  8
1
  6
Continuous
100
AcDbLine
 10
343.0384561638031
 20
280.1315791570703
 30
0.0
 11
342.5384561638031
 21
280.6315791570703
 31
0.0
  0
ARC
  5
324D
330
18
100
AcDbEntity
  8
1
  6
Continuous
100
AcDbCircle
 10
348.9457200841477
 20
282.1315791570703
 30
0.0
 40
2.0
100
AcDbArc
 50
90.0
 51
126.384351815836
  0
ARC
  5
3250
330
18
100
AcDbEntity
  8
1
  6
Continuous
100
AcDbCircle
 10
225.7262167190577
 20
286.6315791570702
 30
0.0
 40
6.0
100
AcDbArc
 50
270.0
 51
306.3843518158335
  0
LINE
  5
3251
330
18
100
AcDbEntity
  8
1
  6
Continuous
100
AcDbLine
 10
209.6980084800914
 20
280.6315791570702
 30
0.0
 11
226.6980084800914
 21
280.6315791570702
 31
0.0
  0
LINE
  5
3252
330
18
100
AcDbEntity
  8
1
  6
Continuous
100
AcDbLine
 10
207.1106060128259
 20
281.80124413295
 30
0.0
 11
204.4771426358465
 21
283.741690831777
 31
0.0
  0
ARC
  5
3253
330
18
100
AcDbEntity
  8
1
  6
Continuous
100
AcDbCircle
 10
210.669800241125
 20
286.6315791570702
 30
0.0
 40
6.0
100
AcDbArc
 50
233.6156481841638
 51
270.0
  0
LINE
  5
3254
330
18
100
AcDbEntity
  8
1
  6
Continuous
100
AcDbLine
 10
209.1980084800914
 20
280.1315791570702
 30
0.0
 11
209.6980084800914
 21
280.6315791570702
 31
0.0
  0
ARC
  5
3255
330
18
100
AcDbEntity
  8
1
  6
Continuous
100
AcDbCircle
 10
203.2907445597468
 20
282.1315791570702
 30
0.0
 40
2.0
100
AcDbArc
 50
53.61564818416383
 51
90.0
  0
LINE
  5
3256
330
18
100
AcDbEntity
  8
1
  6
Continuous
100
AcDbLine
 10
229.2854109473568
 20
281.80124413295
 30
0.0
 11
231.9188743243362
 21
283.741690831777
 31
0.0
  0
LINE
  5
3257
330
18
100
AcDbEntity
  8
1
  6
Continuous
100
AcDbLine
 10
227.1980084800914
 20
280.1315791570702
 30
0.0
 11
226.6980084800914
 21
280.6315791570702
 31
0.0
  0
ARC
  5
3258
330
18
100
AcDbEntity
  8
1
  6
Continuous
100
AcDbCircle
 10
233.1052724004359
 20
282.1315791570702
 30
0.0
 40
2.0
100
AcDbArc
 50
90.0
 51
126.384351815836
  0
LINE
  5
3259
330
18
100
AcDbEntity
  8
1
  6
Continuous
100
AcDbLine
 10
227.1980084800914
 20
274.1315791570703
 30
0.0
 11
227.1980084800914
 21
280.1315791570702
 31
0.0
  0
LINE
  5
325A
330
18
100
AcDbEntity
  8
1
  6
Continuous
100
AcDbLine
 10
209.1980084800914
 20
280.1315791570702
 30
0.0
 11
209.1980084800914
 21
274.1315791570703
 31
0.0
  0
LINE
  5
325B
330
18
100
AcDbEntity
  8
1
  6
Continuous
100
AcDbLine
 10
209.6980084800914
 20
273.6315791570703
 30
0.0
 11
226.6980084800914
 21
273.6315791570703
 31
0.0
  0
ARC
  5
325C
330
18
100
AcDbEntity
  8
1
  6
Continuous
100
AcDbCircle
 10
209.9980084800914
 20
273.3315791570702
 30
0.0
 40
0.3
100
AcDbArc
 50
90.0
 51
180.0
  0
LINE
  5
325D
330
18
100
AcDbEntity
  8
1
  6
Continuous
100
AcDbLine
 10
209.1980084800914
 20
274.1315791570703
 30
0.0
 11
209.6980084800914
 21
273.6315791570703
 31
0.0
  0
LINE
  5
325E
330
18
100
AcDbEntity
  8
1
  6
Continuous
100
AcDbLine
 10
209.6980084800914
 20
273.3315791570702
 30
0.0
 11
209.6980084800914
 21
273.1315791570703
 31
0.0
  0
LINE
  5
325F
330
18
100
AcDbEntity
  8
1
  6
Continuous
100
AcDbLine
 10
226.6980084800914
 20
273.6315791570703
 30
0.0
 11
227.1980084800914
 21
274.1315791570703
 31
0.0
  0
ARC
  5
3260
330
18
100
AcDbEntity
  8
1
  6
Continuous
100
AcDbCircle
 10
226.3980084800913
 20
273.3315791570702
 30
0.0
 40
0.3
100
AcDbArc
 50
0.0
 51
89.99999999999673
  0
LINE
  5
3261
330
18
100
AcDbEntity
  8
1
  6
Continuous
100
AcDbLine
 10
226.6980084800914
 20
273.3315791570702
 30
0.0
 11
226.6980084800914
 21
273.1315791570703
 31
0.0
  0
LINE
  5
3262
330
18
100
AcDbEntity
  8
1
  6
Continuous
100
AcDbLine
 10
39.74112222092321
 20
280.6315791570703
 30
0.0
 11
56.74112222092322
 21
280.6315791570703
 31
0.0
  0
LINE
  5
3263
330
18
100
AcDbEntity
  8
1
  6
Continuous
100
AcDbLine
 10
37.15371975365781
 20
281.80124413295
 30
0.0
 11
34.52025637667839
 21
283.741690831777
 31
0.0
  0
ARC
  5
3264
330
18
100
AcDbEntity
  8
1
  6
Continuous
100
AcDbCircle
 10
40.71291398195683
 20
286.6315791570703
 30
0.0
 40
6.0
100
AcDbArc
 50
233.6156481841619
 51
270.0
  0
LINE
  5
3265
330
18
100
AcDbEntity
  8
1
  6
Continuous
100
AcDbLine
 10
39.24112222092321
 20
280.1315791570703
 30
0.0
 11
39.74112222092321
 21
280.6315791570703
 31
0.0
  0
ARC
  5
3266
330
18
100
AcDbEntity
  8
1
  6
Continuous
100
AcDbCircle
 10
33.33385830057864
 20
282.1315791570703
 30
0.0
 40
2.0
100
AcDbArc
 50
53.61564818416383
 51
90.0
  0
LINE
  5
3267
330
18
100
AcDbEntity
  8
1
  6
Continuous
100
AcDbLine
 10
59.32852468818862
 20
281.80124413295
 30
0.0
 11
61.96198806516804
 21
283.741690831777
 31
0.0
  0
ARC
  5
3268
330
18
100
AcDbEntity
  8
1
  6
Continuous
100
AcDbCircle
 10
55.76933045988949
 20
286.6315791570703
 30
0.0
 40
6.0
100
AcDbArc
 50
270.0
 51
306.3843518158362
  0
LINE
  5
3269
330
18
100
AcDbEntity
  8
1
  6
Continuous
100
AcDbLine
 10
57.24112222092323
 20
280.1315791570703
 30
0.0
 11
56.74112222092322
 21
280.6315791570703
 31
0.0
  0
ARC
  5
326A
330
18
100
AcDbEntity
  8
1
  6
Continuous
100
AcDbCircle
 10
63.14838614126777
 20
282.1315791570703
 30
0.0
 40
2.0
100
AcDbArc
 50
90.0
 51
126.384351815836
  0
LINE
  5
326B
330
18
100
AcDbEntity
  8
1
  6
Continuous
100
AcDbLine
 10
57.24112222092323
 20
274.1315791570703
 30
0.0
 11
57.24112222092323
 21
280.1315791570703
 31
0.0
  0
LINE
  5
326C
330
18
100
AcDbEntity
  8
1
  6
Continuous
100
AcDbLine
 10
39.74112222092321
 20
273.6315791570703
 30
0.0
 11
56.74112222092322
 21
273.6315791570703
 31
0.0
  0
LINE
  5
326D
330
18
100
AcDbEntity
  8
1
  6
Continuous
100
AcDbLine
 10
39.24112222092321
 20
274.1315791570703
 30
0.0
 11
39.74112222092321
 21
273.6315791570703
 31
0.0
  0
ARC
  5
326E
330
18
100
AcDbEntity
  8
1
  6
Continuous
100
AcDbCircle
 10
40.04112222092317
 20
273.3315791570703
 30
0.0
 40
0.3
100
AcDbArc
 50
90.0
 51
180.0
  0
LINE
  5
326F
330
18
100
AcDbEntity
  8
1
  6
Continuous
100
AcDbLine
 10
39.74112222092321
 20
273.3315791570703
 30
0.0
 11
39.74112222092321
 21
273.1315791570703
 31
0.0
  0
LINE
  5
3270
330
18
100
AcDbEntity
  8
1
  6
Continuous
100
AcDbLine
 10
56.74112222092322
 20
273.6315791570703
 30
0.0
 11
57.24112222092323
 21
274.1315791570703
 31
0.0
  0
ARC
  5
3271
330
18
100
AcDbEntity
  8
1
  6
Continuous
100
AcDbCircle
 10
56.44112222092326
 20
273.3315791570703
 30
0.0
 40
0.3
100
AcDbArc
 50
0.0
 51
90.0
  0
LINE
  5
3272
330
18
100
AcDbEntity
  8
1
  6
Continuous
100
AcDbLine
 10
56.74112222092322
 20
273.3315791570703
 30
0.0
 11
56.74112222092322
 21
273.1315791570703
 31
0.0
  0
LINE
  5
3273
330
18
100
AcDbEntity
  8
1
  6
Continuous
100
AcDbLine
 10
39.24112222092321
 20
280.1315791570703
 30
0.0
 11
39.24112222092321
 21
274.1315791570703
 31
0.0
  0
ENDSEC
  0
SECTION
  2
OBJECTS
  0
DICTIONARY
  5
C
330
0
100
AcDbDictionary
281
     1
  3
ACAD_CIP_PREVIOUS_PRODUCT_INFO
350
337E
  3
ACAD_COLOR
350
3361
  3
ACAD_DETAILVIEWSTYLE
350
337A
  3
ACAD_GROUP
350
D
  3
ACAD_LAYOUT
350
94
  3
ACAD_MATERIAL
350
332F
  3
ACAD_MLEADERSTYLE
350
3376
  3
ACAD_MLINESTYLE
350
1B
  3
ACAD_PLOTSETTINGS
350
95
  3
ACAD_PLOTSTYLENAME
350
332D
  3
ACAD_SCALELIST
350
3364
  3
ACAD_SECTIONVIEWSTYLE
350
3378
  3
ACAD_TABLESTYLE
350
3362
  3
ACAD_VISUALSTYLE
350
3348
  3
ACDB_RECOMPOSE_DATA
350
33E2
  3
AcDbVariableDictionary
350
3391
  3
CONTENTDICTIONARY
350
3D
  3
DWGPROPS
350
33E3
  0
DICTIONARY
  5
3381
330
E
100
AcDbDictionary
280
     1
281
     1
  3
ADSK_XREC_LAYER_RECONCILED
360
3382
  0
DICTIONARY
  5
3383
330
4E
100
AcDbDictionary
280
     1
281
     1
  3
ADSK_XREC_LAYER_RECONCILED
360
3384
  0
DICTIONARY
  5
3385
330
4F
100
AcDbDictionary
280
     1
281
     1
  3
ADSK_XREC_LAYER_RECONCILED
360
3386
  0
DICTIONARY
  5
3387
330
50
100
AcDbDictionary
280
     1
281
     1
  3
ADSK_XREC_LAYER_RECONCILED
360
3388
  0
DICTIONARY
  5
3389
330
51
100
AcDbDictionary
280
     1
281
     1
  3
ADSK_XREC_LAYER_RECONCILED
360
338A
  0
DICTIONARY
  5
338B
330
52
100
AcDbDictionary
280
     1
281
     1
  3
ADSK_XREC_LAYER_RECONCILED
360
338C
  0
DICTIONARY
  5
338D
330
53
100
AcDbDictionary
280
     1
281
     1
  3
ADSK_XREC_LAYER_RECONCILED
360
338E
  0
DICTIONARY
  5
338F
330
54
100
AcDbDictionary
280
     1
281
     1
  3
ADSK_XREC_LAYER_RECONCILED
360
3390
  0
DICTIONARY
  5
3328
330
18
100
AcDbDictionary
281
     1
  3
ACAD_LAYOUTSELFREF
350
3329
  0
DICTIONARY
  5
3326
330
15
100
AcDbDictionary
281
     1
  3
ACAD_LAYOUTSELFREF
350
3327
  0
XRECORD
  5
337E
102
{ACAD_REACTORS
330
C
102
}
330
C
100
AcDbXrecord
280
     1
300
ACDLT
300
2014
300
ACDLT_F_S
  0
DICTIONARY
  5
3361
102
{ACAD_REACTORS
330
C
102
}
330
C
100
AcDbDictionary
281
     1
  0
DICTIONARY
  5
337A
102
{ACAD_REACTORS
330
C
102
}
330
C
100
AcDbDictionary
281
     1
  3
Imperial24
350
337B
  0
DICTIONARY
  5
D
102
{ACAD_REACTORS
330
C
102
}
330
C
100
AcDbDictionary
281
     1
  0
DICTIONARY
  5
94
102
{ACAD_REACTORS
330
C
102
}
330
C
100
AcDbDictionary
281
     1
  3
Model
350
337C
  3
レイアウト1
350
337D
  0
DICTIONARY
  5
332F
102
{ACAD_REACTORS
330
C
102
}
330
C
100
AcDbDictionary
281
     1
  3
ByBlock
350
3338
  3
ByLayer
350
3330
  3
Global
350
3340
  0
DICTIONARY
  5
3376
102
{ACAD_REACTORS
330
C
102
}
330
C
100
AcDbDictionary
281
     1
  3
Standard
350
3377
  0
DICTIONARY
  5
1B
102
{ACAD_REACTORS
330
C
102
}
330
C
100
AcDbDictionary
281
     1
  3
STANDARD
350
1C
  0
DICTIONARY
  5
95
102
{ACAD_REACTORS
330
C
102
}
330
C
100
AcDbDictionary
281
     1
  0
ACDBDICTIONARYWDFLT
  5
332D
102
{ACAD_REACTORS
330
C
102
}
330
C
100
AcDbDictionary
281
     1
  3
Normal
350
332E
100
AcDbDictionaryWithDefault
340
332E
  0
DICTIONARY
  5
3364
102
{ACAD_REACTORS
330
C
102
}
330
C
100
AcDbDictionary
281
     1
  3
A0
350
3365
  3
A1
350
3366
  3
A2
350
3367
  3
A3
350
3368
  3
A4
350
3369
  3
A5
350
336A
  3
A6
350
336B
  3
A7
350
336C
  3
A8
350
336D
  3
A9
350
336E
  3
B0
350
336F
  3
B1
350
3370
  3
B2
350
3371
  3
B3
350
3372
  3
B4
350
3373
  3
B5
350
3374
  3
B6
350
3375
  0
DICTIONARY
  5
3378
102
{ACAD_REACTORS
330
C
102
}
330
C
100
AcDbDictionary
281
     1
  3
Imperial24
350
3379
  0
DICTIONARY
  5
3362
102
{ACAD_REACTORS
330
C
102
}
330
C
100
AcDbDictionary
281
     1
  3
Standard
350
3363
  0
DICTIONARY
  5
3348
102
{ACAD_REACTORS
330
C
102
}
330
C
100
AcDbDictionary
281
     1
  3
2dWireframe
350
334E
  3
Basic
350
334D
  3
Brighten
350
3354
  3
ColorChange
350
3358
  3
Conceptual
350
3351
  3
Dim
350
3353
  3
EdgeColorOff
350
3360
  3
Facepattern
350
3357
  3
Flat
350
3349
  3
FlatWithEdges
350
334A
  3
Gouraud
350
334B
  3
GouraudWithEdges
350
334C
  3
Hidden
350
3350
  3
JitterOff
350
335E
  3
Linepattern
350
3356
  3
OverhangOff
350
335F
  3
Realistic
350
3352
  3
Shaded
350
335D
  3
Shaded with edges
350
335C
  3
Shades of Gray
350
3359
  3
Sketchy
350
335A
  3
Thicken
350
3355
  3
Wireframe
350
334F
  3
X-Ray
350
335B
  0
XRECORD
  5
33E2
102
{ACAD_REACTORS
330
C
102
}
330
C
100
AcDbXrecord
280
     1
 90
        1
330
3363
  0
DICTIONARY
  5
3391
102
{ACAD_REACTORS
330
C
102
}
330
C
100
AcDbDictionary
281
     1
  3
CANNOSCALE
350
3396
  3
CMLEADERSTYLE
350
3393
  3
CTABLESTYLE
350
3392
  3
CVIEWDETAILSTYLE
350
3394
  3
CVIEWSECTIONSTYLE
350
3395
  3
DIMASSOC
350
3399
  3
INDEXCTL
350
3398
  3
SORTENTS
350
3397
  3
XCLIPFRAME
350
33E0
  0
DICTIONARY
  5
3D
102
{ACAD_REACTORS
330
C
102
}
330
C
100
AcDbDictionary
281
     1
  0
XRECORD
  5
33E3
102
{ACAD_REACTORS
330
C
102
}
330
C
100
AcDbXrecord
280
     1
  1
DWGPROPS COOKIE
  2

  3

  4

  6

  7

  8
Yoshitsune
  9

300
=
301
=
302
=
303
=
304
=
305
=
306
=
307
=
308
=
309
=
 40
0.2800922916666666
 41
2454525.614958576
 42
2457192.691717812
  1

 90
        0
  0
XRECORD
  5
3382
102
{ACAD_REACTORS
330
3381
102
}
330
3381
100
AcDbXrecord
280
     1
290
     1
  0
XRECORD
  5
3384
102
{ACAD_REACTORS
330
3383
102
}
330
3383
100
AcDbXrecord
280
     1
290
     1
  0
XRECORD
  5
3386
102
{ACAD_REACTORS
330
3385
102
}
330
3385
100
AcDbXrecord
280
     1
290
     1
  0
XRECORD
  5
3388
102
{ACAD_REACTORS
330
3387
102
}
330
3387
100
AcDbXrecord
280
     1
290
     1
  0
XRECORD
  5
338A
102
{ACAD_REACTORS
330
3389
102
}
330
3389
100
AcDbXrecord
280
     1
290
     1
  0
XRECORD
  5
338C
102
{ACAD_REACTORS
330
338B
102
}
330
338B
100
AcDbXrecord
280
     1
290
     1
  0
XRECORD
  5
338E
102
{ACAD_REACTORS
330
338D
102
}
330
338D
100
AcDbXrecord
280
     1
290
     1
  0
XRECORD
  5
3390
102
{ACAD_REACTORS
330
338F
102
}
330
338F
100
AcDbXrecord
280
     1
290
     1
  0
XRECORD
  5
3329
102
{ACAD_REACTORS
330
3328
102
}
330
3328
100
AcDbXrecord
280
     1
340
18
  0
XRECORD
  5
3327
102
{ACAD_REACTORS
330
3326
102
}
330
3326
100
AcDbXrecord
280
     1
340
15
  0
ACDBDETAILVIEWSTYLE
  5
337B
102
{ACAD_XDICTIONARY
360
3417
102
}
102
{ACAD_REACTORS
330
337A
102
}
330
337A
100
AcDbModelDocViewStyle
 70
     0
  3
Imperial24
290
     0
100
AcDbDetailViewStyle
 70
     0
 71
     0
 90
        3
 71
     1
340
F
 40
0.24
340
0
 40
0.24
300

 40
0.36
280
     3
 71
     2
340
14
 90
       25
 71
     3
340
F
 40
0.24
 90
        1
 40
0.75
 90
        1
300
%<\AcVar ViewType \f "%tc1">% %<\AcVar ViewDetailId>%\PSCALE %<\AcVar ViewScale \f "%sn">%
 71
     4
340
14
 90
       25
340
14
 90
       25
280
     0
  0
LAYOUT
  5
337C
102
{ACAD_XDICTIONARY
360
3419
102
}
102
{ACAD_REACTORS
330
94
102
}
330
94
100
AcDbPlotSettings
  1

  2
Canon LBP9100C
  4

  6

 40
0.0
 41
0.0
 42
0.0
 43
0.0
 44
0.0
 45
0.0
 46
0.0
 47
0.0
 48
0.0
 49
0.0
140
0.0
141
0.0
142
1.0
143
1.0
 70
  1712
 72
     0
 73
     0
 74
     0
  7

 75
     0
147
1.0
148
0.0
149
0.0
100
AcDbLayout
  1
Model
 70
     1
 71
     0
 10
0.0
 20
0.0
 11
12.0
 21
9.0
 12
0.0
 22
0.0
 32
0.0
 14
0.0
 24
0.0
 34
0.0
 15
0.0
 25
0.0
 35
0.0
146
0.0
 13
0.0
 23
0.0
 33
0.0
 16
1.0
 26
0.0
 36
0.0
 17
0.0
 27
1.0
 37
0.0
 76
     0
330
18
331
3325
  0
LAYOUT
  5
337D
102
{ACAD_XDICTIONARY
360
341B
102
}
102
{ACAD_REACTORS
330
94
102
}
330
94
100
AcDbPlotSettings
  1

  2
Canon LBP9100C
  4

  6

 40
0.0
 41
0.0
 42
0.0
 43
0.0
 44
0.0
 45
0.0
 46
0.0
 47
0.0
 48
0.0
 49
0.0
140
0.0
141
0.0
142
1.0
143
1.0
 70
   688
 72
     0
 73
     0
 74
     5
  7

 75
    16
147
1.0
148
0.0
149
0.0
100
AcDbLayout
  1
レイアウト1
 70
     1
 71
     1
 10
0.0
 20
0.0
 11
420.0
 21
297.0
 12
0.0
 22
0.0
 32
0.0
 14
1.000000000000000E+20
 24
1.000000000000000E+20
 34
1.000000000000000E+20
 15
-1.000000000000000E+20
 25
-1.000000000000000E+20
 35
-1.000000000000000E+20
146
0.0
 13
0.0
 23
0.0
 33
0.0
 16
1.0
 26
0.0
 36
0.0
 17
0.0
 27
1.0
 37
0.0
 76
     0
330
15
  0
MATERIAL
  5
3338
102
{ACAD_XDICTIONARY
360
3339
102
}
102
{ACAD_REACTORS
330
332F
102
}
330
332F
100
AcDbMaterial
  1
ByBlock
 72
     0
 43
0.0208333333333333
 43
0.0
 43
0.0
 43
0.0
 43
0.0
 43
0.0208333333333333
 43
0.0
 43
0.0
 43
0.0
 43
0.0
 43
1.0
 43
0.0
 43
0.0
 43
0.0
 43
0.0
 43
1.0
 77
     0
 47
0.0208333333333333
 47
0.0
 47
0.0
 47
0.0
 47
0.0
 47
0.0208333333333333
 47
0.0
 47
0.0
 47
0.0
 47
0.0
 47
1.0
 47
0.0
 47
0.0
 47
0.0
 47
0.0
 47
1.0
171
     0
 49
0.0208333333333333
 49
0.0
 49
0.0
 49
0.0
 49
0.0
 49
0.0208333333333333
 49
0.0
 49
0.0
 49
0.0
 49
0.0
 49
1.0
 49
0.0
 49
0.0
 49
0.0
 49
0.0
 49
1.0
175
     0
142
0.0208333333333333
142
0.0
142
0.0
142
0.0
142
0.0
142
0.0208333333333333
142
0.0
142
0.0
142
0.0
142
0.0
142
1.0
142
0.0
142
0.0
142
0.0
142
0.0
142
1.0
179
     0
144
0.0208333333333333
144
0.0
144
0.0
144
0.0
144
0.0
144
0.0208333333333333
144
0.0
144
0.0
144
0.0
144
0.0
144
1.0
144
0.0
144
0.0
144
0.0
144
0.0
144
1.0
147
0.0208333333333333
147
0.0
147
0.0
147
0.0
147
0.0
147
0.0208333333333333
147
0.0
147
0.0
147
0.0
147
0.0
147
1.0
147
0.0
147
0.0
147
0.0
147
0.0
147
1.0
  0
MATERIAL
  5
3330
102
{ACAD_XDICTIONARY
360
3331
102
}
102
{ACAD_REACTORS
330
332F
102
}
330
332F
100
AcDbMaterial
  1
ByLayer
 72
     0
 43
0.0208333333333333
 43
0.0
 43
0.0
 43
0.0
 43
0.0
 43
0.0208333333333333
 43
0.0
 43
0.0
 43
0.0
 43
0.0
 43
1.0
 43
0.0
 43
0.0
 43
0.0
 43
0.0
 43
1.0
 77
     0
 47
0.0208333333333333
 47
0.0
 47
0.0
 47
0.0
 47
0.0
 47
0.0208333333333333
 47
0.0
 47
0.0
 47
0.0
 47
0.0
 47
1.0
 47
0.0
 47
0.0
 47
0.0
 47
0.0
 47
1.0
171
     0
 49
0.0208333333333333
 49
0.0
 49
0.0
 49
0.0
 49
0.0
 49
0.0208333333333333
 49
0.0
 49
0.0
 49
0.0
 49
0.0
 49
1.0
 49
0.0
 49
0.0
 49
0.0
 49
0.0
 49
1.0
175
     0
142
0.0208333333333333
142
0.0
142
0.0
142
0.0
142
0.0
142
0.0208333333333333
142
0.0
142
0.0
142
0.0
142
0.0
142
1.0
142
0.0
142
0.0
142
0.0
142
0.0
142
1.0
179
     0
144
0.0208333333333333
144
0.0
144
0.0
144
0.0
144
0.0
144
0.0208333333333333
144
0.0
144
0.0
144
0.0
144
0.0
144
1.0
144
0.0
144
0.0
144
0.0
144
0.0
144
1.0
147
0.0208333333333333
147
0.0
147
0.0
147
0.0
147
0.0
147
0.0208333333333333
147
0.0
147
0.0
147
0.0
147
0.0
147
1.0
147
0.0
147
0.0
147
0.0
147
0.0
147
1.0
  0
MATERIAL
  5
3340
102
{ACAD_XDICTIONARY
360
3341
102
}
102
{ACAD_REACTORS
330
332F
102
}
330
332F
100
AcDbMaterial
  1
Global
 72
     0
 43
0.0208333333333333
 43
0.0
 43
0.0
 43
0.0
 43
0.0
 43
0.0208333333333333
 43
0.0
 43
0.0
 43
0.0
 43
0.0
 43
1.0
 43
0.0
 43
0.0
 43
0.0
 43
0.0
 43
1.0
 77
     0
 47
0.0208333333333333
 47
0.0
 47
0.0
 47
0.0
 47
0.0
 47
0.0208333333333333
 47
0.0
 47
0.0
 47
0.0
 47
0.0
 47
1.0
 47
0.0
 47
0.0
 47
0.0
 47
0.0
 47
1.0
171
     0
 49
0.0208333333333333
 49
0.0
 49
0.0
 49
0.0
 49
0.0
 49
0.0208333333333333
 49
0.0
 49
0.0
 49
0.0
 49
0.0
 49
1.0
 49
0.0
 49
0.0
 49
0.0
 49
0.0
 49
1.0
175
     0
142
0.0208333333333333
142
0.0
142
0.0
142
0.0
142
0.0
142
0.0208333333333333
142
0.0
142
0.0
142
0.0
142
0.0
142
1.0
142
0.0
142
0.0
142
0.0
142
0.0
142
1.0
179
     0
144
0.0208333333333333
144
0.0
144
0.0
144
0.0
144
0.0
144
0.0208333333333333
144
0.0
144
0.0
144
0.0
144
0.0
144
1.0
144
0.0
144
0.0
144
0.0
144
0.0
144
1.0
147
0.0208333333333333
147
0.0
147
0.0
147
0.0
147
0.0
147
0.0208333333333333
147
0.0
147
0.0
147
0.0
147
0.0
147
1.0
147
0.0
147
0.0
147
0.0
147
0.0
147
1.0
  0
MLEADERSTYLE
  5
3377
102
{ACAD_REACTORS
330
3376
102
}
330
3376
100
AcDbMLeaderStyle
170
     2
171
     1
172
     0
 90
        2
 40
0.0
 41
0.0
173
     1
 91
-1056964608
340
12
 92
       -2
290
     1
 42
0.09
291
     1
 43
0.36
  3
Standard
 44
0.18
300

342
F
174
     1
178
     6
175
     1
176
     0
 93
-1056964608
 45
0.18
292
     0
297
     0
 46
0.18
 94
-1056964608
 47
1.0
 49
1.0
140
1.0
293
     1
141
0.0
294
     1
177
     0
142
1.0
295
     0
296
     0
143
0.125
1001
ACAD_MLEADERVER
1070
     2
  0
MLINESTYLE
  5
1C
102
{ACAD_REACTORS
330
1B
102
}
330
1B
100
AcDbMlineStyle
  2
STANDARD
 70
     0
  3

 62
   256
 51
90.0
 52
90.0
 71
     2
 49
0.5
 62
   256
  6
BYLAYER
 49
-0.5
 62
   256
  6
BYLAYER
  0
ACDBPLACEHOLDER
  5
332E
102
{ACAD_REACTORS
330
332D
102
}
330
332D
  0
SCALE
  5
3365
102
{ACAD_REACTORS
330
3364
102
}
330
3364
100
AcDbScale
 70
     0
300
1:1
140
1.0
141
1.0
290
     1
  0
SCALE
  5
3366
102
{ACAD_REACTORS
330
3364
102
}
330
3364
100
AcDbScale
 70
     0
300
1/128" = 1'-0"
140
0.0078125
141
12.0
290
     0
  0
SCALE
  5
3367
102
{ACAD_REACTORS
330
3364
102
}
330
3364
100
AcDbScale
 70
     0
300
1/64" = 1'-0"
140
0.015625
141
12.0
290
     0
  0
SCALE
  5
3368
102
{ACAD_REACTORS
330
3364
102
}
330
3364
100
AcDbScale
 70
     0
300
1/32" = 1'-0"
140
0.03125
141
12.0
290
     0
  0
SCALE
  5
3369
102
{ACAD_REACTORS
330
3364
102
}
330
3364
100
AcDbScale
 70
     0
300
1/16" = 1'-0"
140
0.0625
141
12.0
290
     0
  0
SCALE
  5
336A
102
{ACAD_REACTORS
330
3364
102
}
330
3364
100
AcDbScale
 70
     0
300
3/32" = 1'-0"
140
0.09375
141
12.0
290
     0
  0
SCALE
  5
336B
102
{ACAD_REACTORS
330
3364
102
}
330
3364
100
AcDbScale
 70
     0
300
1/8" = 1'-0"
140
0.125
141
12.0
290
     0
  0
SCALE
  5
336C
102
{ACAD_REACTORS
330
3364
102
}
330
3364
100
AcDbScale
 70
     0
300
3/16" = 1'-0"
140
0.1875
141
12.0
290
     0
  0
SCALE
  5
336D
102
{ACAD_REACTORS
330
3364
102
}
330
3364
100
AcDbScale
 70
     0
300
1/4" = 1'-0"
140
0.25
141
12.0
290
     0
  0
SCALE
  5
336E
102
{ACAD_REACTORS
330
3364
102
}
330
3364
100
AcDbScale
 70
     0
300
3/8" = 1'-0"
140
0.375
141
12.0
290
     0
  0
SCALE
  5
336F
102
{ACAD_REACTORS
330
3364
102
}
330
3364
100
AcDbScale
 70
     0
300
1/2" = 1'-0"
140
0.5
141
12.0
290
     0
  0
SCALE
  5
3370
102
{ACAD_REACTORS
330
3364
102
}
330
3364
100
AcDbScale
 70
     0
300
3/4" = 1'-0"
140
0.75
141
12.0
290
     0
  0
SCALE
  5
3371
102
{ACAD_REACTORS
330
3364
102
}
330
3364
100
AcDbScale
 70
     0
300
1" = 1'-0"
140
1.0
141
12.0
290
     0
  0
SCALE
  5
3372
102
{ACAD_REACTORS
330
3364
102
}
330
3364
100
AcDbScale
 70
     0
300
1-1/2" = 1'-0"
140
1.5
141
12.0
290
     0
  0
SCALE
  5
3373
102
{ACAD_REACTORS
330
3364
102
}
330
3364
100
AcDbScale
 70
     0
300
3" = 1'-0"
140
3.0
141
12.0
290
     0
  0
SCALE
  5
3374
102
{ACAD_REACTORS
330
3364
102
}
330
3364
100
AcDbScale
 70
     0
300
6" = 1'-0"
140
6.0
141
12.0
290
     0
  0
SCALE
  5
3375
102
{ACAD_REACTORS
330
3364
102
}
330
3364
100
AcDbScale
 70
     0
300
1'-0" = 1'-0"
140
12.0
141
12.0
290
     0
  0
ACDBSECTIONVIEWSTYLE
  5
3379
102
{ACAD_XDICTIONARY
360
3415
102
}
102
{ACAD_REACTORS
330
3378
102
}
330
3378
100
AcDbModelDocViewStyle
 70
     0
  3
Imperial24
290
     0
100
AcDbSectionViewStyle
 70
     0
 71
     0
 90
       78
 71
     1
340
F
 40
0.24
340
0
340
0
 40
0.24
300
I, O, Q, S, X, Z
 40
0.48
 90
        3
 40
0.18
 90
        1
 71
     2
340
14
 90
       25
340
14
 90
       50
 40
0.24
 40
0.0
 40
0.24
 71
     3
340
F
 40
0.24
 90
        1
 40
0.75
 90
        1
300
%<\AcVar ViewType \f "%tc1">% %<\AcVar ViewSectionStartId>%-%<\AcVar ViewSectionEndId>%\PSCALE %<\AcVar ViewScale \f "%sn">%
 71
     4
300
ANSI31
 40
1.0
 90
        0
290
     0
290
     0
 90
        6
 40
0.0
 40
1.570796326794896
 40
0.2617993877991494
 40
1.308996938995747
 40
-0.2617993877991494
 40
1.832595714594045
  0
TABLESTYLE
  5
3363
102
{ACAD_XDICTIONARY
360
339C
102
}
102
{ACAD_REACTORS
330
3362
102
}
330
3362
100
AcDbTableStyle
  3
Standard
 70
     0
 71
     0
 40
0.06
 41
0.06
280
     0
281
     0
  7
STANDARD
140
0.18
170
     2
 62
     0
 63
     7
283
     0
274
    -2
284
     1
 64
     0
275
    -2
285
     1
 65
     0
276
    -2
286
     1
 66
     0
277
    -2
287
     1
 67
     0
278
    -2
288
     1
 68
     0
279
    -2
289
     1
 69
     0
  7
STANDARD
140
0.25
170
     5
 62
     0
 63
     7
283
     0
274
    -2
284
     1
 64
     0
275
    -2
285
     1
 65
     0
276
    -2
286
     1
 66
     0
277
    -2
287
     1
 67
     0
278
    -2
288
     1
 68
     0
279
    -2
289
     1
 69
     0
  7
STANDARD
140
0.18
170
     5
 62
     0
 63
     7
283
     0
274
    -2
284
     1
 64
     0
275
    -2
285
     1
 65
     0
276
    -2
286
     1
 66
     0
277
    -2
287
     1
 67
     0
278
    -2
288
     1
 68
     0
279
    -2
289
     1
 69
     0
  0
VISUALSTYLE
  5
334E
102
{ACAD_XDICTIONARY
360
33EE
102
}
102
{ACAD_REACTORS
330
3348
102
}
330
3348
100
AcDbVisualStyle
  2

 70
     4
 71
     0
 72
     2
 73
     0
 90
        0
 40
-0.6
 41
-30.0
 62
     5
 63
     7
 74
     1
 91
        4
 64
     7
 65
   257
 75
     1
175
     1
 42
1.0
 92
        0
 66
   257
 43
1.0
 76
     1
 77
     6
 78
     2
 67
     7
 79
     5
170
     0
171
     0
290
     0
174
     0
 93
        1
 44
0.0
173
     0
291
     0
 45
0.0
1001
ACAD
1000
AcDbSavedByObjectVersion
1070
     0
  0
VISUALSTYLE
  5
334D
102
{ACAD_XDICTIONARY
360
33EC
102
}
102
{ACAD_REACTORS
330
3348
102
}
330
3348
100
AcDbVisualStyle
  2

 70
     7
 71
     1
 72
     0
 73
     1
 90
        0
 40
-0.6
 41
-30.0
 62
     5
 63
     7
 74
     0
 91
        4
 64
     7
 65
   257
 75
     1
175
     1
 42
1.0
 92
        8
 66
     7
 43
1.0
 76
     1
 77
     6
 78
     2
 67
     7
 79
     5
170
     0
171
     0
290
     0
174
     0
 93
        1
 44
0.0
173
     0
291
     1
 45
0.0
1001
ACAD
1000
AcDbSavedByObjectVersion
1070
     0
  0
VISUALSTYLE
  5
3354
102
{ACAD_XDICTIONARY
360
33FA
102
}
102
{ACAD_REACTORS
330
3348
102
}
330
3348
100
AcDbVisualStyle
  2

 70
    12
 71
     2
 72
     2
 73
     0
 90
        0
 40
-0.6
 41
-30.0
 62
     5
 63
     7
 74
     1
 91
        4
 64
     7
 65
   257
 75
     1
175
     1
 42
1.0
 92
        8
 66
     7
 43
1.0
 76
     1
 77
     6
 78
     2
 67
     7
 79
     5
170
     0
171
     0
290
     0
174
     0
 93
        1
 44
50.0
173
     0
291
     1
 45
0.0
1001
ACAD
1000
AcDbSavedByObjectVersion
1070
     0
  0
VISUALSTYLE
  5
3358
102
{ACAD_XDICTIONARY
360
3402
102
}
102
{ACAD_REACTORS
330
3348
102
}
330
3348
100
AcDbVisualStyle
  2

 70
    16
 71
     2
 72
     2
 73
     3
 90
        0
 40
-0.6
 41
-30.0
 62
     5
 63
     8
 74
     1
 91
        4
 64
     7
 65
   257
 75
     1
175
     1
 42
1.0
 92
        8
 66
     8
 43
1.0
 76
     1
 77
     6
 78
     2
 67
     7
 79
     5
170
     0
171
     0
290
     0
174
     0
 93
        1
 44
0.0
173
     0
291
     1
 45
0.0
1001
ACAD
1000
AcDbSavedByObjectVersion
1070
     0
  0
VISUALSTYLE
  5
3351
102
{ACAD_XDICTIONARY
360
33F4
102
}
102
{ACAD_REACTORS
330
3348
102
}
330
3348
100
AcDbVisualStyle
  2

 70
     9
 71
     3
 72
     2
 73
     0
 90
        0
 40
-0.6
 41
-30.0
 62
     5
 63
     7
 74
     2
 91
        2
 64
     7
 65
   257
 75
     1
175
     1
 42
179.0
 92
        8
 66
     7
 43
1.0
 76
     1
 77
     6
 78
     2
 67
     7
 79
     3
170
     0
171
     0
290
     0
174
     0
 93
        1
 44
0.0
173
     0
291
     0
 45
0.0
1001
ACAD
1000
AcDbSavedByObjectVersion
1070
     0
  0
VISUALSTYLE
  5
3353
102
{ACAD_XDICTIONARY
360
33F8
102
}
102
{ACAD_REACTORS
330
3348
102
}
330
3348
100
AcDbVisualStyle
  2

 70
    11
 71
     2
 72
     2
 73
     0
 90
        0
 40
-0.6
 41
-30.0
 62
     5
 63
     7
 74
     1
 91
        4
 64
     7
 65
   257
 75
     1
175
     1
 42
1.0
 92
        8
 66
     7
 43
1.0
 76
     1
 77
     6
 78
     2
 67
     7
 79
     5
170
     0
171
     0
290
     0
174
     0
 93
        1
 44
-50.0
173
     0
291
     1
 45
0.0
1001
ACAD
1000
AcDbSavedByObjectVersion
1070
     0
  0
VISUALSTYLE
  5
3360
102
{ACAD_XDICTIONARY
360
3412
102
}
102
{ACAD_REACTORS
330
3348
102
}
330
3348
100
AcDbVisualStyle
  2

 70
    22
 71
     2
 72
     2
 73
     0
 90
        0
 40
-0.6
 41
-30.0
 62
     5
 63
     7
 74
     1
 91
        4
 64
     7
 65
   257
 75
     1
175
     1
 42
1.0
 92
        8
 66
     7
 43
1.0
 76
     1
 77
     6
 78
     2
 67
     7
 79
     5
170
     0
171
     0
290
     0
174
     0
 93
        1
 44
0.0
173
     0
291
     1
 45
0.0
1001
ACAD
1000
AcDbSavedByObjectVersion
1070
     0
  0
VISUALSTYLE
  5
3357
102
{ACAD_XDICTIONARY
360
3400
102
}
102
{ACAD_REACTORS
330
3348
102
}
330
3348
100
AcDbVisualStyle
  2

 70
    15
 71
     2
 72
     2
 73
     0
 90
        0
 40
-0.6
 41
-30.0
 62
     5
 63
     7
 74
     1
 91
        4
 64
     7
 65
   257
 75
     1
175
     1
 42
1.0
 92
        8
 66
     7
 43
1.0
 76
     1
 77
     6
 78
     2
 67
     7
 79
     5
170
     0
171
     0
290
     0
174
     0
 93
        1
 44
0.0
173
     0
291
     1
 45
0.0
1001
ACAD
1000
AcDbSavedByObjectVersion
1070
     0
  0
VISUALSTYLE
  5
3349
102
{ACAD_XDICTIONARY
360
33E4
102
}
102
{ACAD_REACTORS
330
3348
102
}
330
3348
100
AcDbVisualStyle
  2

 70
     0
 71
     2
 72
     1
 73
     1
 90
        2
 40
-0.6
 41
30.0
 62
     5
 63
     7
 74
     0
 91
        0
 64
     7
 65
   257
 75
     1
175
     1
 42
1.0
 92
        8
 66
     7
 43
1.0
 76
     1
 77
     6
 78
     2
 67
     7
 79
     5
170
     0
171
     0
290
     0
174
     0
 93
       13
 44
0.0
173
     0
291
     1
 45
0.0
1001
ACAD
1000
AcDbSavedByObjectVersion
1070
     0
  0
VISUALSTYLE
  5
334A
102
{ACAD_XDICTIONARY
360
33E6
102
}
102
{ACAD_REACTORS
330
3348
102
}
330
3348
100
AcDbVisualStyle
  2

 70
     1
 71
     2
 72
     1
 73
     1
 90
        2
 40
-0.6
 41
30.0
 62
     5
 63
     7
 74
     1
 91
        0
 64
     7
 65
   257
 75
     1
175
     1
 42
1.0
 92
        0
 66
   257
 43
1.0
 76
     1
 77
     6
 78
     2
 67
     7
 79
     5
170
     0
171
     0
290
     0
174
     0
 93
       13
 44
0.0
173
     0
291
     1
 45
0.0
1001
ACAD
1000
AcDbSavedByObjectVersion
1070
     0
  0
VISUALSTYLE
  5
334B
102
{ACAD_XDICTIONARY
360
33E8
102
}
102
{ACAD_REACTORS
330
3348
102
}
330
3348
100
AcDbVisualStyle
  2

 70
     2
 71
     2
 72
     2
 73
     1
 90
        2
 40
-0.6
 41
30.0
 62
     5
 63
     7
 74
     0
 91
        0
 64
     7
 65
   257
 75
     1
175
     1
 42
1.0
 92
        0
 66
     7
 43
1.0
 76
     1
 77
     6
 78
     2
 67
     7
 79
     5
170
     0
171
     0
290
     0
174
     0
 93
       13
 44
0.0
173
     0
291
     1
 45
0.0
1001
ACAD
1000
AcDbSavedByObjectVersion
1070
     0
  0
VISUALSTYLE
  5
334C
102
{ACAD_XDICTIONARY
360
33EA
102
}
102
{ACAD_REACTORS
330
3348
102
}
330
3348
100
AcDbVisualStyle
  2

 70
     3
 71
     2
 72
     2
 73
     1
 90
        2
 40
-0.6
 41
30.0
 62
     5
 63
     7
 74
     1
 91
        0
 64
     7
 65
   257
 75
     1
175
     1
 42
1.0
 92
        0
 66
   257
 43
1.0
 76
     1
 77
     6
 78
     2
 67
     7
 79
     5
170
     0
171
     0
290
     0
174
     0
 93
       13
 44
0.0
173
     0
291
     1
 45
0.0
1001
ACAD
1000
AcDbSavedByObjectVersion
1070
     0
  0
VISUALSTYLE
  5
3350
102
{ACAD_XDICTIONARY
360
33F2
102
}
102
{ACAD_REACTORS
330
3348
102
}
330
3348
100
AcDbVisualStyle
  2

 70
     6
 71
     1
 72
     2
 73
     2
 90
        0
 40
-0.6
 41
-30.0
 62
     5
 63
     7
 74
     2
 91
        2
 64
     7
 65
   257
 75
     2
175
     1
 42
40.0
 92
        0
 66
   257
 43
1.0
 76
     1
 77
     6
 78
     2
 67
     7
 79
     3
170
     0
171
     0
290
     0
174
     0
 93
        1
 44
0.0
173
     0
291
     0
 45
0.0
1001
ACAD
1000
AcDbSavedByObjectVersion
1070
     0
  0
VISUALSTYLE
  5
335E
102
{ACAD_XDICTIONARY
360
340E
102
}
102
{ACAD_REACTORS
330
3348
102
}
330
3348
100
AcDbVisualStyle
  2

 70
    20
 71
     2
 72
     2
 73
     0
 90
        0
 40
-0.6
 41
-30.0
 62
     5
 63
     7
 74
     1
 91
        4
 64
     7
 65
   257
 75
     1
175
     1
 42
1.0
 92
       10
 66
     7
 43
1.0
 76
     1
 77
     6
 78
     2
 67
     7
 79
     5
170
     0
171
     0
290
     0
174
     0
 93
        1
 44
0.0
173
     0
291
     1
 45
0.0
1001
ACAD
1000
AcDbSavedByObjectVersion
1070
     0
  0
VISUALSTYLE
  5
3356
102
{ACAD_XDICTIONARY
360
33FE
102
}
102
{ACAD_REACTORS
330
3348
102
}
330
3348
100
AcDbVisualStyle
  2

 70
    14
 71
     2
 72
     2
 73
     0
 90
        0
 40
-0.6
 41
-30.0
 62
     5
 63
     7
 74
     1
 91
        4
 64
     7
 65
   257
 75
     7
175
     7
 42
1.0
 92
        8
 66
     7
 43
1.0
 76
     1
 77
     6
 78
     2
 67
     7
 79
     5
170
     0
171
     0
290
     0
174
     0
 93
        1
 44
0.0
173
     0
291
     1
 45
0.0
1001
ACAD
1000
AcDbSavedByObjectVersion
1070
     0
  0
VISUALSTYLE
  5
335F
102
{ACAD_XDICTIONARY
360
3410
102
}
102
{ACAD_REACTORS
330
3348
102
}
330
3348
100
AcDbVisualStyle
  2

 70
    21
 71
     2
 72
     2
 73
     0
 90
        0
 40
-0.6
 41
-30.0
 62
     5
 63
     7
 74
     1
 91
        4
 64
     7
 65
   257
 75
     1
175
     1
 42
1.0
 92
        9
 66
     7
 43
1.0
 76
     1
 77
     6
 78
     2
 67
     7
 79
     5
170
     0
171
     0
290
     0
174
     0
 93
        1
 44
0.0
173
     0
291
     1
 45
0.0
1001
ACAD
1000
AcDbSavedByObjectVersion
1070
     0
  0
VISUALSTYLE
  5
3352
102
{ACAD_XDICTIONARY
360
33F6
102
}
102
{ACAD_REACTORS
330
3348
102
}
330
3348
100
AcDbVisualStyle
  2

 70
     8
 71
     2
 72
     3
 73
     0
 90
        2
 40
-0.6
 41
30.0
 62
     5
 63
     7
 74
     0
 91
        0
 64
     7
 65
   257
 75
     1
175
     1
 42
1.0
 92
        8
 66
   257
 43
1.0
 76
     1
 77
     6
 78
     2
 67
     7
 79
     3
170
     0
171
     0
290
     0
174
     0
 93
       13
 44
0.0
173
     0
291
     0
 45
0.0
1001
ACAD
1000
AcDbSavedByObjectVersion
1070
     0
  0
VISUALSTYLE
  5
335D
102
{ACAD_XDICTIONARY
360
340C
102
}
102
{ACAD_REACTORS
330
3348
102
}
330
3348
100
AcDbVisualStyle
  2

 70
    27
 71
     2
 72
     2
 73
     1
 90
        2
 40
-0.6
 41
30.0
 62
     5
 63
     7
 74
     0
 91
        4
 64
     7
 65
   257
 75
     1
175
     1
 42
1.0
 92
        8
 66
   257
 43
1.0
 76
     1
 77
     6
 78
     2
 67
     8
 79
     3
170
     0
171
     0
290
     0
174
     0
 93
        5
 44
0.0
173
     0
291
     0
 45
0.0
1001
ACAD
1000
AcDbSavedByObjectVersion
1070
     0
  0
VISUALSTYLE
  5
335C
102
{ACAD_XDICTIONARY
360
340A
102
}
102
{ACAD_REACTORS
330
3348
102
}
330
3348
100
AcDbVisualStyle
  2

 70
    26
 71
     2
 72
     2
 73
     1
 90
        2
 40
-0.6
 41
30.0
 62
     5
 63
     7
 74
     1
 91
       10
 64
     7
 65
   257
 75
     2
175
     1
 42
1.0
 92
        8
 66
   257
 43
1.0
 76
     1
 77
     6
 78
     2
 67
     7
 79
     3
170
     0
171
     0
290
     0
174
     0
 93
        5
 44
0.0
173
     0
291
     0
 45
0.0
1001
ACAD
1000
AcDbSavedByObjectVersion
1070
     0
  0
VISUALSTYLE
  5
3359
102
{ACAD_XDICTIONARY
360
3404
102
}
102
{ACAD_REACTORS
330
3348
102
}
330
3348
100
AcDbVisualStyle
  2

 70
    23
 71
     2
 72
     2
 73
     3
 90
        0
 40
-0.6
 41
-30.0
 62
     5
 63
     7
 74
     2
 91
        2
 64
     7
 65
     7
 75
     1
175
     1
 42
40.0
 92
        8
 66
     7
 43
1.0
 76
     1
 77
     6
 78
     2
 67
     7
 79
     3
170
     0
171
     0
290
     0
174
     0
 93
        1
 44
0.0
173
     0
291
     0
 45
0.0
1001
ACAD
1000
AcDbSavedByObjectVersion
1070
     0
  0
VISUALSTYLE
  5
335A
102
{ACAD_XDICTIONARY
360
3406
102
}
102
{ACAD_REACTORS
330
3348
102
}
330
3348
100
AcDbVisualStyle
  2

 70
    24
 71
     1
 72
     2
 73
     2
 90
        0
 40
-0.6
 41
-30.0
 62
     5
 63
     7
 74
     2
 91
        2
 64
     7
 65
     7
 75
     1
175
     1
 42
40.0
 92
       11
 66
     7
 43
1.0
 76
     1
 77
     6
 78
     2
 67
     7
 79
     6
170
     0
171
     0
290
     0
174
     0
 93
        1
 44
0.0
173
     0
291
     0
 45
0.0
1001
ACAD
1000
AcDbSavedByObjectVersion
1070
     0
  0
VISUALSTYLE
  5
3355
102
{ACAD_XDICTIONARY
360
33FC
102
}
102
{ACAD_REACTORS
330
3348
102
}
330
3348
100
AcDbVisualStyle
  2

 70
    13
 71
     2
 72
     2
 73
     0
 90
        0
 40
-0.6
 41
-30.0
 62
     5
 63
     7
 74
     1
 91
        4
 64
     7
 65
   257
 75
     1
175
     1
 42
1.0
 92
       12
 66
     7
 43
1.0
 76
     1
 77
     6
 78
     2
 67
     7
 79
     5
170
     0
171
     0
290
     0
174
     0
 93
        1
 44
0.0
173
     0
291
     1
 45
0.0
1001
ACAD
1000
AcDbSavedByObjectVersion
1070
     0
  0
VISUALSTYLE
  5
334F
102
{ACAD_XDICTIONARY
360
33F0
102
}
102
{ACAD_REACTORS
330
3348
102
}
330
3348
100
AcDbVisualStyle
  2

 70
     5
 71
     0
 72
     2
 73
     0
 90
        0
 40
-0.6
 41
-30.0
 62
     5
 63
     7
 74
     1
 91
        4
 64
     7
 65
   257
 75
     1
175
     1
 42
1.0
 92
        0
 66
   257
 43
1.0
 76
     1
 77
     6
 78
     2
 67
     7
 79
     3
170
     0
171
     0
290
     0
174
     0
 93
        1
 44
0.0
173
     0
291
     0
 45
0.0
1001
ACAD
1000
AcDbSavedByObjectVersion
1070
     0
  0
VISUALSTYLE
  5
335B
102
{ACAD_XDICTIONARY
360
3408
102
}
102
{ACAD_REACTORS
330
3348
102
}
330
3348
100
AcDbVisualStyle
  2

 70
    25
 71
     2
 72
     2
 73
     1
 90
        1
 40
0.5
 41
-30.0
 62
     5
 63
     7
 74
     1
 91
        0
 64
     7
 65
   257
 75
     1
175
     1
 42
1.0
 92
        8
 66
     7
 43
1.0
 76
     1
 77
     6
 78
     2
 67
     7
 79
     3
170
     0
171
     0
290
     0
174
     0
 93
       13
 44
0.0
173
     0
291
     0
 45
0.0
1001
ACAD
1000
AcDbSavedByObjectVersion
1070
     0
  0
DICTIONARYVAR
  5
3396
102
{ACAD_REACTORS
330
3391
102
}
330
3391
100
DictionaryVariables
280
     0
  1
1:1
  0
DICTIONARYVAR
  5
3393
102
{ACAD_REACTORS
330
3391
102
}
330
3391
100
DictionaryVariables
280
     0
  1
STANDARD
  0
DICTIONARYVAR
  5
3392
102
{ACAD_REACTORS
330
3391
102
}
330
3391
100
DictionaryVariables
280
     0
  1
STANDARD
  0
DICTIONARYVAR
  5
3394
102
{ACAD_REACTORS
330
3391
102
}
330
3391
100
DictionaryVariables
280
     0
  1
Imperial24
  0
DICTIONARYVAR
  5
3395
102
{ACAD_REACTORS
330
3391
102
}
330
3391
100
DictionaryVariables
280
     0
  1
Imperial24
  0
DICTIONARYVAR
  5
3399
102
{ACAD_REACTORS
330
3391
102
}
330
3391
100
DictionaryVariables
280
     0
  1
1
  0
DICTIONARYVAR
  5
3398
102
{ACAD_REACTORS
330
3391
102
}
330
3391
100
DictionaryVariables
280
     0
  1
0
  0
DICTIONARYVAR
  5
3397
102
{ACAD_REACTORS
330
3391
102
}
330
3391
100
DictionaryVariables
280
     0
  1
127
  0
DICTIONARYVAR
  5
33E0
102
{ACAD_REACTORS
330
3391
102
}
330
3391
100
DictionaryVariables
280
     0
  1
2
  0
DICTIONARY
  5
3417
330
337B
100
AcDbDictionary
280
     1
281
     1
  3
ACAD_XREC_ROUNDTRIP
360
3418
  0
DICTIONARY
  5
3419
330
337C
100
AcDbDictionary
280
     1
281
     1
  3
ACAD_XREC_ROUNDTRIP
360
341A
  0
DICTIONARY
  5
341B
330
337D
100
AcDbDictionary
280
     1
281
     1
  3
ACAD_XREC_ROUNDTRIP
360
341C
  0
DICTIONARY
  5
3339
330
3338
100
AcDbDictionary
280
     1
281
     1
  3
ACAD_XREC_ROUNDTRIP
360
33A1
  3
BUMPTILE
360
333B
  3
DIFFUSETILE
360
333A
  3
OPACITYTILE
360
333E
  3
REFLECTIONTILE
360
333D
  3
REFRACTIONTILE
360
333F
  3
SPECULARTILE
360
333C
  0
DICTIONARY
  5
3331
330
3330
100
AcDbDictionary
280
     1
281
     1
  3
ACAD_XREC_ROUNDTRIP
360
33A0
  3
BUMPTILE
360
3333
  3
DIFFUSETILE
360
3332
  3
OPACITYTILE
360
3336
  3
REFLECTIONTILE
360
3335
  3
REFRACTIONTILE
360
3337
  3
SPECULARTILE
360
3334
  0
DICTIONARY
  5
3341
330
3340
100
AcDbDictionary
280
     1
281
     1
  3
ACAD_XREC_ROUNDTRIP
360
33A2
  3
BUMPTILE
360
3343
  3
DIFFUSETILE
360
3342
  3
OPACITYTILE
360
3346
  3
REFLECTIONTILE
360
3345
  3
REFRACTIONTILE
360
3347
  3
SPECULARTILE
360
3344
  0
DICTIONARY
  5
3415
330
3379
100
AcDbDictionary
280
     1
281
     1
  3
ACAD_XREC_ROUNDTRIP
360
3416
  0
DICTIONARY
  5
339C
330
3363
100
AcDbDictionary
280
     1
281
     1
  3
ACAD_ROUNDTRIP_2008_TABLESTYLE_CELLSTYLEMAP
360
33E1
  3
ACAD_XREC_ROUNDTRIP
360
3414
  0
DICTIONARY
  5
33EE
330
334E
100
AcDbDictionary
280
     1
281
     1
  3
ACAD_XREC_ROUNDTRIP
360
33EF
  0
DICTIONARY
  5
33EC
330
334D
100
AcDbDictionary
280
     1
281
     1
  3
ACAD_XREC_ROUNDTRIP
360
33ED
  0
DICTIONARY
  5
33FA
330
3354
100
AcDbDictionary
280
     1
281
     1
  3
ACAD_XREC_ROUNDTRIP
360
33FB
  0
DICTIONARY
  5
3402
330
3358
100
AcDbDictionary
280
     1
281
     1
  3
ACAD_XREC_ROUNDTRIP
360
3403
  0
DICTIONARY
  5
33F4
330
3351
100
AcDbDictionary
280
     1
281
     1
  3
ACAD_XREC_ROUNDTRIP
360
33F5
  0
DICTIONARY
  5
33F8
330
3353
100
AcDbDictionary
280
     1
281
     1
  3
ACAD_XREC_ROUNDTRIP
360
33F9
  0
DICTIONARY
  5
3412
330
3360
100
AcDbDictionary
280
     1
281
     1
  3
ACAD_XREC_ROUNDTRIP
360
3413
  0
DICTIONARY
  5
3400
330
3357
100
AcDbDictionary
280
     1
281
     1
  3
ACAD_XREC_ROUNDTRIP
360
3401
  0
DICTIONARY
  5
33E4
330
3349
100
AcDbDictionary
280
     1
281
     1
  3
ACAD_XREC_ROUNDTRIP
360
33E5
  0
DICTIONARY
  5
33E6
330
334A
100
AcDbDictionary
280
     1
281
     1
  3
ACAD_XREC_ROUNDTRIP
360
33E7
  0
DICTIONARY
  5
33E8
330
334B
100
AcDbDictionary
280
     1
281
     1
  3
ACAD_XREC_ROUNDTRIP
360
33E9
  0
DICTIONARY
  5
33EA
330
334C
100
AcDbDictionary
280
     1
281
     1
  3
ACAD_XREC_ROUNDTRIP
360
33EB
  0
DICTIONARY
  5
33F2
330
3350
100
AcDbDictionary
280
     1
281
     1
  3
ACAD_XREC_ROUNDTRIP
360
33F3
  0
DICTIONARY
  5
340E
330
335E
100
AcDbDictionary
280
     1
281
     1
  3
ACAD_XREC_ROUNDTRIP
360
340F
  0
DICTIONARY
  5
33FE
330
3356
100
AcDbDictionary
280
     1
281
     1
  3
ACAD_XREC_ROUNDTRIP
360
33FF
  0
DICTIONARY
  5
3410
330
335F
100
AcDbDictionary
280
     1
281
     1
  3
ACAD_XREC_ROUNDTRIP
360
3411
  0
DICTIONARY
  5
33F6
330
3352
100
AcDbDictionary
280
     1
281
     1
  3
ACAD_XREC_ROUNDTRIP
360
33F7
  0
DICTIONARY
  5
340C
330
335D
100
AcDbDictionary
280
     1
281
     1
  3
ACAD_XREC_ROUNDTRIP
360
340D
  0
DICTIONARY
  5
340A
330
335C
100
AcDbDictionary
280
     1
281
     1
  3
ACAD_XREC_ROUNDTRIP
360
340B
  0
DICTIONARY
  5
3404
330
3359
100
AcDbDictionary
280
     1
281
     1
  3
ACAD_XREC_ROUNDTRIP
360
3405
  0
DICTIONARY
  5
3406
330
335A
100
AcDbDictionary
280
     1
281
     1
  3
ACAD_XREC_ROUNDTRIP
360
3407
  0
DICTIONARY
  5
33FC
330
3355
100
AcDbDictionary
280
     1
281
     1
  3
ACAD_XREC_ROUNDTRIP
360
33FD
  0
DICTIONARY
  5
33F0
330
334F
100
AcDbDictionary
280
     1
281
     1
  3
ACAD_XREC_ROUNDTRIP
360
33F1
  0
DICTIONARY
  5
3408
330
335B
100
AcDbDictionary
280
     1
281
     1
  3
ACAD_XREC_ROUNDTRIP
360
3409
  0
XRECORD
  5
3418
102
{ACAD_REACTORS
330
3417
102
}
330
3417
100
AcDbXrecord
280
     1
102
DISPLAYNAME
  1
Imperial24
102
FLAGS
 90
        0
  0
XRECORD
  5
341A
102
{ACAD_REACTORS
330
3419
102
}
330
3419
100
AcDbXrecord
280
     1
102
SHADEPLOT
 70
     0
102
SHADEPLOTRESLEVEL
 70
     2
102
SHADEPLOTCUSTOMDPI
 70
   300
  0
XRECORD
  5
341C
102
{ACAD_REACTORS
330
341B
102
}
330
341B
100
AcDbXrecord
280
     1
102
SHADEPLOT
 70
     0
102
SHADEPLOTRESLEVEL
 70
     2
102
SHADEPLOTCUSTOMDPI
 70
   300
  0
XRECORD
  5
33A1
102
{ACAD_REACTORS
330
3339
102
}
330
3339
100
AcDbXrecord
280
     1
102
MATERIAL
148
0.0
149
0.0
149
0.0
 93
        0
 94
      127
282
     0
 72
     0
 77
     0
171
     0
175
     0
179
     0
273
     0
  0
XRECORD
  5
333B
102
{ACAD_REACTORS
330
3339
102
}
330
3339
100
AcDbXrecord
280
     1
270
     1
271
     1
  0
XRECORD
  5
333A
102
{ACAD_REACTORS
330
3339
102
}
330
3339
100
AcDbXrecord
280
     1
270
     1
271
     1
  0
XRECORD
  5
333E
102
{ACAD_REACTORS
330
3339
102
}
330
3339
100
AcDbXrecord
280
     1
270
     1
271
     1
  0
XRECORD
  5
333D
102
{ACAD_REACTORS
330
3339
102
}
330
3339
100
AcDbXrecord
280
     1
270
     1
271
     1
  0
XRECORD
  5
333F
102
{ACAD_REACTORS
330
3339
102
}
330
3339
100
AcDbXrecord
280
     1
270
     1
271
     1
  0
XRECORD
  5
333C
102
{ACAD_REACTORS
330
3339
102
}
330
3339
100
AcDbXrecord
280
     1
270
     1
271
     1
  0
XRECORD
  5
33A0
102
{ACAD_REACTORS
330
3331
102
}
330
3331
100
AcDbXrecord
280
     1
102
MATERIAL
148
0.0
149
0.0
149
0.0
 93
        0
 94
      127
282
     0
 72
     0
 77
     0
171
     0
175
     0
179
     0
273
     0
  0
XRECORD
  5
3333
102
{ACAD_REACTORS
330
3331
102
}
330
3331
100
AcDbXrecord
280
     1
270
     1
271
     1
  0
XRECORD
  5
3332
102
{ACAD_REACTORS
330
3331
102
}
330
3331
100
AcDbXrecord
280
     1
270
     1
271
     1
  0
XRECORD
  5
3336
102
{ACAD_REACTORS
330
3331
102
}
330
3331
100
AcDbXrecord
280
     1
270
     1
271
     1
  0
XRECORD
  5
3335
102
{ACAD_REACTORS
330
3331
102
}
330
3331
100
AcDbXrecord
280
     1
270
     1
271
     1
  0
XRECORD
  5
3337
102
{ACAD_REACTORS
330
3331
102
}
330
3331
100
AcDbXrecord
280
     1
270
     1
271
     1
  0
XRECORD
  5
3334
102
{ACAD_REACTORS
330
3331
102
}
330
3331
100
AcDbXrecord
280
     1
270
     1
271
     1
  0
XRECORD
  5
33A2
102
{ACAD_REACTORS
330
3341
102
}
330
3341
100
AcDbXrecord
280
     1
102
MATERIAL
148
0.0
149
0.0
149
0.0
 93
        0
 94
      127
282
     0
 72
     0
 77
     0
171
     0
175
     0
179
     0
273
     0
  0
XRECORD
  5
3343
102
{ACAD_REACTORS
330
3341
102
}
330
3341
100
AcDbXrecord
280
     1
270
     1
271
     1
  0
XRECORD
  5
3342
102
{ACAD_REACTORS
330
3341
102
}
330
3341
100
AcDbXrecord
280
     1
270
     1
271
     1
  0
XRECORD
  5
3346
102
{ACAD_REACTORS
330
3341
102
}
330
3341
100
AcDbXrecord
280
     1
270
     1
271
     1
  0
XRECORD
  5
3345
102
{ACAD_REACTORS
330
3341
102
}
330
3341
100
AcDbXrecord
280
     1
270
     1
271
     1
  0
XRECORD
  5
3347
102
{ACAD_REACTORS
330
3341
102
}
330
3341
100
AcDbXrecord
280
     1
270
     1
271
     1
  0
XRECORD
  5
3344
102
{ACAD_REACTORS
330
3341
102
}
330
3341
100
AcDbXrecord
280
     1
270
     1
271
     1
  0
XRECORD
  5
3416
102
{ACAD_REACTORS
330
3415
102
}
330
3415
100
AcDbXrecord
280
     1
102
DISPLAYNAME
  1
Imperial24
102
FLAGS
 90
        0
  0
CELLSTYLEMAP
  5
33E1
102
{ACAD_REACTORS
330
339C
102
}
330
339C
100
AcDbCellStyleMap
 90
        3
300
CELLSTYLE
  1
TABLEFORMAT_BEGIN
 90
        5
170
     1
 91
        0
 92
    32768
 62
   257
 93
        1
300
CONTENTFORMAT
  1
CONTENTFORMAT_BEGIN
 90
        0
 91
        0
 92
      512
 93
        0
300

 40
0.0
140
1.0
 94
        5
 62
     0
340
F
144
0.25
309
CONTENTFORMAT_END
171
     1
301
MARGIN
  1
CELLMARGIN_BEGIN
 40
0.06
 40
0.06
 40
0.06
 40
0.06
 40
0.18
 40
0.18
309
CELLMARGIN_END
 94
        6
 95
        1
302
GRIDFORMAT
  1
GRIDFORMAT_BEGIN
 90
        0
 91
        1
 62
     0
 92
       -2
340
0
 93
        0
 40
0.045
309
GRIDFORMAT_END
 95
        2
302
GRIDFORMAT
  1
GRIDFORMAT_BEGIN
 90
        0
 91
        1
 62
     0
 92
       -2
340
0
 93
        0
 40
0.045
309
GRIDFORMAT_END
 95
        4
302
GRIDFORMAT
  1
GRIDFORMAT_BEGIN
 90
        0
 91
        1
 62
     0
 92
       -2
340
0
 93
        0
 40
0.045
309
GRIDFORMAT_END
 95
        8
302
GRIDFORMAT
  1
GRIDFORMAT_BEGIN
 90
        0
 91
        1
 62
     0
 92
       -2
340
0
 93
        0
 40
0.045
309
GRIDFORMAT_END
 95
       16
302
GRIDFORMAT
  1
GRIDFORMAT_BEGIN
 90
        0
 91
        1
 62
     0
 92
       -2
340
0
 93
        0
 40
0.045
309
GRIDFORMAT_END
 95
       32
302
GRIDFORMAT
  1
GRIDFORMAT_BEGIN
 90
        0
 91
        1
 62
     0
 92
       -2
340
0
 93
        0
 40
0.045
309
GRIDFORMAT_END
309
TABLEFORMAT_END
  1
CELLSTYLE_BEGIN
 90
        1
 91
        1
300
_TITLE
309
CELLSTYLE_END
300
CELLSTYLE
  1
TABLEFORMAT_BEGIN
 90
        5
170
     1
 91
        0
 92
        0
 62
   257
 93
        1
300
CONTENTFORMAT
  1
CONTENTFORMAT_BEGIN
 90
        0
 91
        0
 92
      512
 93
        0
300

 40
0.0
140
1.0
 94
        5
 62
     0
340
F
144
0.18
309
CONTENTFORMAT_END
171
     1
301
MARGIN
  1
CELLMARGIN_BEGIN
 40
0.06
 40
0.06
 40
0.06
 40
0.06
 40
0.18
 40
0.18
309
CELLMARGIN_END
 94
        6
 95
        1
302
GRIDFORMAT
  1
GRIDFORMAT_BEGIN
 90
        0
 91
        1
 62
     0
 92
       -2
340
0
 93
        0
 40
0.045
309
GRIDFORMAT_END
 95
        2
302
GRIDFORMAT
  1
GRIDFORMAT_BEGIN
 90
        0
 91
        1
 62
     0
 92
       -2
340
0
 93
        0
 40
0.045
309
GRIDFORMAT_END
 95
        4
302
GRIDFORMAT
  1
GRIDFORMAT_BEGIN
 90
        0
 91
        1
 62
     0
 92
       -2
340
0
 93
        0
 40
0.045
309
GRIDFORMAT_END
 95
        8
302
GRIDFORMAT
  1
GRIDFORMAT_BEGIN
 90
        0
 91
        1
 62
     0
 92
       -2
340
0
 93
        0
 40
0.045
309
GRIDFORMAT_END
 95
       16
302
GRIDFORMAT
  1
GRIDFORMAT_BEGIN
 90
        0
 91
        1
 62
     0
 92
       -2
340
0
 93
        0
 40
0.045
309
GRIDFORMAT_END
 95
       32
302
GRIDFORMAT
  1
GRIDFORMAT_BEGIN
 90
        0
 91
        1
 62
     0
 92
       -2
340
0
 93
        0
 40
0.045
309
GRIDFORMAT_END
309
TABLEFORMAT_END
  1
CELLSTYLE_BEGIN
 90
        2
 91
        1
300
_HEADER
309
CELLSTYLE_END
300
CELLSTYLE
  1
TABLEFORMAT_BEGIN
 90
        5
170
     1
 91
        0
 92
        0
 62
   257
 93
        1
300
CONTENTFORMAT
  1
CONTENTFORMAT_BEGIN
 90
        0
 91
        0
 92
      512
 93
        0
300

 40
0.0
140
1.0
 94
        2
 62
     0
340
F
144
0.18
309
CONTENTFORMAT_END
171
     1
301
MARGIN
  1
CELLMARGIN_BEGIN
 40
0.06
 40
0.06
 40
0.06
 40
0.06
 40
0.18
 40
0.18
309
CELLMARGIN_END
 94
        6
 95
        1
302
GRIDFORMAT
  1
GRIDFORMAT_BEGIN
 90
        0
 91
        1
 62
     0
 92
       -2
340
0
 93
        0
 40
0.045
309
GRIDFORMAT_END
 95
        2
302
GRIDFORMAT
  1
GRIDFORMAT_BEGIN
 90
        0
 91
        1
 62
     0
 92
       -2
340
0
 93
        0
 40
0.045
309
GRIDFORMAT_END
 95
        4
302
GRIDFORMAT
  1
GRIDFORMAT_BEGIN
 90
        0
 91
        1
 62
     0
 92
       -2
340
0
 93
        0
 40
0.045
309
GRIDFORMAT_END
 95
        8
302
GRIDFORMAT
  1
GRIDFORMAT_BEGIN
 90
        0
 91
        1
 62
     0
 92
       -2
340
0
 93
        0
 40
0.045
309
GRIDFORMAT_END
 95
       16
302
GRIDFORMAT
  1
GRIDFORMAT_BEGIN
 90
        0
 91
        1
 62
     0
 92
       -2
340
0
 93
        0
 40
0.045
309
GRIDFORMAT_END
 95
       32
302
GRIDFORMAT
  1
GRIDFORMAT_BEGIN
 90
        0
 91
        1
 62
     0
 92
       -2
340
0
 93
        0
 40
0.045
309
GRIDFORMAT_END
309
TABLEFORMAT_END
  1
CELLSTYLE_BEGIN
 90
        3
 91
        2
300
_DATA
309
CELLSTYLE_END
  0
XRECORD
  5
3414
102
{ACAD_REACTORS
330
339C
102
}
330
339C
100
AcDbXrecord
280
     1
102
ACAD_ROUNDTRIP_PRE2007_TABLESTYLE
 90
      512
 91
        0
  1

 92
      512
 93
        0
  2

 94
      512
 95
        0
  3

  0
XRECORD
  5
33EF
102
{ACAD_REACTORS
330
33EE
102
}
330
33EE
100
AcDbXrecord
280
     1
102
RTVSPost2010Prop28
280
     1
102
RTVSPost2010PropOp28
 70
     1
102
RTVSPost2010Prop29
280
     1
102
RTVSPost2010PropOp29
 70
     1
102
RTVSPost2010Prop30
280
     0
102
RTVSPost2010PropOp30
 70
     1
102
RTVSPost2010Prop31
280
     0
102
RTVSPost2010PropOp31
 70
     1
102
RTVSPost2010Prop32
280
     0
102
RTVSPost2010PropOp32
 70
     1
102
RTVSPost2010Prop33
280
     0
102
RTVSPost2010PropOp33
 70
     1
102
RTVSPost2010Prop34
280
     0
102
RTVSPost2010PropOp34
 70
     1
102
RTVSPost2010Prop35
280
     0
102
RTVSPost2010PropOp35
 70
     1
102
RTVSPost2010Prop36
280
     0
102
RTVSPost2010PropOp36
 70
     1
102
RTVSPost2010Prop37
 90
       50
102
RTVSPost2010PropOp37
 70
     1
102
RTVSPost2010Prop38
140
0.0
102
RTVSPost2010PropOp38
 70
     1
102
RTVSPost2010Prop39
140
1.0
102
RTVSPost2010PropOp39
 70
     1
102
RTVSPost2010Prop40
 90
        0
102
RTVSPost2010PropOp40
 70
     1
102
RTVSPost2010Prop41ColorIndex
 90
       18
102
RTVSPost2010Prop41ColorRGB
 90
        0
102
RTVSPost2010PropOp41
 70
     1
102
RTVSPost2010Prop42
 90
       50
102
RTVSPost2010PropOp42
 70
     1
102
RTVSPost2010Prop43
 90
        3
102
RTVSPost2010PropOp43
 70
     1
102
RTVSPost2010Prop44ColorIndex
 90
        5
102
RTVSPost2010Prop44ColorRGB
 90
      255
102
RTVSPost2010PropOp44
 70
     1
102
RTVSPost2010Prop45
280
     0
102
RTVSPost2010PropOp45
 70
     1
102
RTVSPost2010Prop46
 90
       50
102
RTVSPost2010PropOp46
 70
     1
102
RTVSPost2010Prop47
 90
       50
102
RTVSPost2010PropOp47
 70
     1
102
RTVSPost2010Prop48
 90
       50
102
RTVSPost2010PropOp48
 70
     1
102
RTVSPost2010Prop49
280
     0
102
RTVSPost2010PropOp49
 70
     1
102
RTVSPost2010Prop50
 90
       50
102
RTVSPost2010PropOp50
 70
     1
102
RTVSPost2010Prop51ColorIndex
 90
      256
102
RTVSPost2010Prop51ColorRGB
 90
-16777216
102
RTVSPost2010PropOp51
 70
     0
102
RTVSPost2010Prop52
140
1.0
102
RTVSPost2010PropOp52
 70
     0
102
RTVSPost2010Prop53
 90
        2
102
RTVSPost2010PropOp53
 70
     1
102
RTVSPost2010Prop54
  1
strokes_ogs.tif
102
RTVSPost2010PropOp54
 70
     1
102
RTVSPost2010Prop55
280
     0
102
RTVSPost2010PropOp55
 70
     1
102
RTVSPost2010Prop56
140
1.0
102
RTVSPost2010PropOp56
 70
     1
102
RTVSPost2010Prop57
140
1.0
102
RTVSPost2010PropOp57
 70
     1
102
RTVSPropertyOp0
 70
     1
102
RTVSPropertyOp1
 70
     1
102
RTVSPropertyOp2
 70
     1
102
RTVSPropertyOp3
 70
     1
102
RTVSPropertyOp4
 70
     1
102
RTVSPropertyOp5
 70
     1
102
RTVSPropertyOp6
 70
     1
102
RTVSPropertyOp7
 70
     1
102
RTVSPropertyOp8
 70
     1
102
RTVSPropertyOp9
 70
     1
102
RTVSPropertyOp10
 70
     1
102
RTVSPropertyOp11
 70
     1
102
RTVSPropertyOp12
 70
     1
102
RTVSPropertyOp13
 70
     1
102
RTVSPropertyOp14
 70
     1
102
RTVSPropertyOp15
 70
     1
102
RTVSPropertyOp16
 70
     1
102
RTVSPropertyOp17
 70
     1
102
RTVSPropertyOp18
 70
     1
102
RTVSPropertyOp19
 70
     1
102
RTVSPropertyOp20
 70
     1
102
RTVSPropertyOp21
 70
     1
102
RTVSPropertyOp22
 70
     1
102
RTVSPropertyOp23
 70
     1
102
RTVSPropertyOp24
 70
     1
102
RTVSPropertyOp25
 70
     1
102
RTVSPropertyOp26
 70
     1
102
RTVSPropertyOp27
 70
     1
102
RTVSPropertyOp28
 70
     1
102
RTVSPropertyOp29
 70
     1
102
RTVSPropertyOp30
 70
     1
102
RTVSPropertyOp31
 70
     1
102
RTVSPropertyOp32
 70
     1
102
RTVSPropertyOp33
 70
     1
102
RTVSPropertyOp34
 70
     1
102
RTVSPropertyOp35
 70
     1
102
RTVSPropertyOp36
 70
     1
102
RTVSPropertyOp37
 70
     1
102
RTVSPropertyOp38
 70
     1
102
RTVSPropertyOp39
 70
     1
102
RTVSPropertyOp40
 70
     1
102
RTVSPropertyOp41
 70
     1
102
RTVSPropertyOp42
 70
     1
102
RTVSPropertyOp43
 70
     1
102
RTVSPropertyOp44
 70
     1
102
RTVSPropertyOp45
 70
     1
102
RTVSPropertyOp46
 70
     1
102
RTVSPropertyOp47
 70
     1
102
RTVSPropertyOp48
 70
     1
102
RTVSPropertyOp49
 70
     1
102
RTVSPropertyOp50
 70
     1
102
RTVSPropertyOp51
 70
     0
102
RTVSPropertyOp52
 70
     0
102
RTVSPropertyOp53
 70
     1
102
RTVSPropertyOp54
 70
     1
102
RTVSPropertyOp55
 70
     1
102
RTVSPropertyOp56
 70
     1
102
RTVSPropertyOp57
 70
     1
102
RTVSPropertyOp58
 70
     1
102
RTVSPropertyOp59
 70
     1
102
RTVSPropertyOp60
 70
     1
102
RTVSPropertyOp61
 70
     1
102
RTVSPropertyOp62
 70
     1
  0
XRECORD
  5
33ED
102
{ACAD_REACTORS
330
33EC
102
}
330
33EC
100
AcDbXrecord
280
     1
102
RTVSPost2010Prop28
280
     0
102
RTVSPost2010PropOp28
 70
     1
102
RTVSPost2010Prop29
280
     1
102
RTVSPost2010PropOp29
 70
     1
102
RTVSPost2010Prop30
280
     1
102
RTVSPost2010PropOp30
 70
     1
102
RTVSPost2010Prop31
280
     0
102
RTVSPost2010PropOp31
 70
     1
102
RTVSPost2010Prop32
280
     0
102
RTVSPost2010PropOp32
 70
     1
102
RTVSPost2010Prop33
280
     0
102
RTVSPost2010PropOp33
 70
     1
102
RTVSPost2010Prop34
280
     0
102
RTVSPost2010PropOp34
 70
     1
102
RTVSPost2010Prop35
280
     0
102
RTVSPost2010PropOp35
 70
     1
102
RTVSPost2010Prop36
280
     0
102
RTVSPost2010PropOp36
 70
     1
102
RTVSPost2010Prop37
 90
       50
102
RTVSPost2010PropOp37
 70
     1
102
RTVSPost2010Prop38
140
0.0
102
RTVSPost2010PropOp38
 70
     1
102
RTVSPost2010Prop39
140
1.0
102
RTVSPost2010PropOp39
 70
     1
102
RTVSPost2010Prop40
 90
        0
102
RTVSPost2010PropOp40
 70
     1
102
RTVSPost2010Prop41ColorIndex
 90
       18
102
RTVSPost2010Prop41ColorRGB
 90
        0
102
RTVSPost2010PropOp41
 70
     1
102
RTVSPost2010Prop42
 90
       50
102
RTVSPost2010PropOp42
 70
     1
102
RTVSPost2010Prop43
 90
        3
102
RTVSPost2010PropOp43
 70
     1
102
RTVSPost2010Prop44ColorIndex
 90
        5
102
RTVSPost2010Prop44ColorRGB
 90
      255
102
RTVSPost2010PropOp44
 70
     1
102
RTVSPost2010Prop45
280
     0
102
RTVSPost2010PropOp45
 70
     1
102
RTVSPost2010Prop46
 90
       50
102
RTVSPost2010PropOp46
 70
     1
102
RTVSPost2010Prop47
 90
       50
102
RTVSPost2010PropOp47
 70
     1
102
RTVSPost2010Prop48
 90
       50
102
RTVSPost2010PropOp48
 70
     1
102
RTVSPost2010Prop49
280
     0
102
RTVSPost2010PropOp49
 70
     1
102
RTVSPost2010Prop50
 90
       50
102
RTVSPost2010PropOp50
 70
     1
102
RTVSPost2010Prop51ColorIndex
 90
      256
102
RTVSPost2010Prop51ColorRGB
 90
-16777216
102
RTVSPost2010PropOp51
 70
     0
102
RTVSPost2010Prop52
140
1.0
102
RTVSPost2010PropOp52
 70
     0
102
RTVSPost2010Prop53
 90
        2
102
RTVSPost2010PropOp53
 70
     1
102
RTVSPost2010Prop54
  1
strokes_ogs.tif
102
RTVSPost2010PropOp54
 70
     1
102
RTVSPost2010Prop55
280
     0
102
RTVSPost2010PropOp55
 70
     1
102
RTVSPost2010Prop56
140
1.0
102
RTVSPost2010PropOp56
 70
     1
102
RTVSPost2010Prop57
140
1.0
102
RTVSPost2010PropOp57
 70
     1
102
RTVSPropertyOp0
 70
     1
102
RTVSPropertyOp1
 70
     1
102
RTVSPropertyOp2
 70
     1
102
RTVSPropertyOp3
 70
     1
102
RTVSPropertyOp4
 70
     1
102
RTVSPropertyOp5
 70
     1
102
RTVSPropertyOp6
 70
     1
102
RTVSPropertyOp7
 70
     1
102
RTVSPropertyOp8
 70
     1
102
RTVSPropertyOp9
 70
     1
102
RTVSPropertyOp10
 70
     1
102
RTVSPropertyOp11
 70
     1
102
RTVSPropertyOp12
 70
     1
102
RTVSPropertyOp13
 70
     1
102
RTVSPropertyOp14
 70
     1
102
RTVSPropertyOp15
 70
     1
102
RTVSPropertyOp16
 70
     1
102
RTVSPropertyOp17
 70
     1
102
RTVSPropertyOp18
 70
     1
102
RTVSPropertyOp19
 70
     1
102
RTVSPropertyOp20
 70
     1
102
RTVSPropertyOp21
 70
     1
102
RTVSPropertyOp22
 70
     1
102
RTVSPropertyOp23
 70
     1
102
RTVSPropertyOp24
 70
     1
102
RTVSPropertyOp25
 70
     1
102
RTVSPropertyOp26
 70
     1
102
RTVSPropertyOp27
 70
     1
102
RTVSPropertyOp28
 70
     1
102
RTVSPropertyOp29
 70
     1
102
RTVSPropertyOp30
 70
     1
102
RTVSPropertyOp31
 70
     1
102
RTVSPropertyOp32
 70
     1
102
RTVSPropertyOp33
 70
     1
102
RTVSPropertyOp34
 70
     1
102
RTVSPropertyOp35
 70
     1
102
RTVSPropertyOp36
 70
     1
102
RTVSPropertyOp37
 70
     1
102
RTVSPropertyOp38
 70
     1
102
RTVSPropertyOp39
 70
     1
102
RTVSPropertyOp40
 70
     1
102
RTVSPropertyOp41
 70
     1
102
RTVSPropertyOp42
 70
     1
102
RTVSPropertyOp43
 70
     1
102
RTVSPropertyOp44
 70
     1
102
RTVSPropertyOp45
 70
     1
102
RTVSPropertyOp46
 70
     1
102
RTVSPropertyOp47
 70
     1
102
RTVSPropertyOp48
 70
     1
102
RTVSPropertyOp49
 70
     1
102
RTVSPropertyOp50
 70
     1
102
RTVSPropertyOp51
 70
     0
102
RTVSPropertyOp52
 70
     0
102
RTVSPropertyOp53
 70
     1
102
RTVSPropertyOp54
 70
     1
102
RTVSPropertyOp55
 70
     1
102
RTVSPropertyOp56
 70
     1
102
RTVSPropertyOp57
 70
     1
102
RTVSPropertyOp58
 70
     1
102
RTVSPropertyOp59
 70
     1
102
RTVSPropertyOp60
 70
     1
102
RTVSPropertyOp61
 70
     1
102
RTVSPropertyOp62
 70
     1
  0
XRECORD
  5
33FB
102
{ACAD_REACTORS
330
33FA
102
}
330
33FA
100
AcDbXrecord
280
     1
102
RTVSPost2010Prop28
280
     0
102
RTVSPost2010PropOp28
 70
     1
102
RTVSPost2010Prop29
280
     1
102
RTVSPost2010PropOp29
 70
     1
102
RTVSPost2010Prop30
280
     1
102
RTVSPost2010PropOp30
 70
     1
102
RTVSPost2010Prop31
280
     0
102
RTVSPost2010PropOp31
 70
     1
102
RTVSPost2010Prop32
280
     0
102
RTVSPost2010PropOp32
 70
     1
102
RTVSPost2010Prop33
280
     0
102
RTVSPost2010PropOp33
 70
     1
102
RTVSPost2010Prop34
280
     0
102
RTVSPost2010PropOp34
 70
     1
102
RTVSPost2010Prop35
280
     0
102
RTVSPost2010PropOp35
 70
     1
102
RTVSPost2010Prop36
280
     0
102
RTVSPost2010PropOp36
 70
     1
102
RTVSPost2010Prop37
 90
       50
102
RTVSPost2010PropOp37
 70
     1
102
RTVSPost2010Prop38
140
0.0
102
RTVSPost2010PropOp38
 70
     1
102
RTVSPost2010Prop39
140
1.0
102
RTVSPost2010PropOp39
 70
     1
102
RTVSPost2010Prop40
 90
        0
102
RTVSPost2010PropOp40
 70
     1
102
RTVSPost2010Prop41ColorIndex
 90
       18
102
RTVSPost2010Prop41ColorRGB
 90
        0
102
RTVSPost2010PropOp41
 70
     1
102
RTVSPost2010Prop42
 90
       50
102
RTVSPost2010PropOp42
 70
     1
102
RTVSPost2010Prop43
 90
        3
102
RTVSPost2010PropOp43
 70
     1
102
RTVSPost2010Prop44ColorIndex
 90
        5
102
RTVSPost2010Prop44ColorRGB
 90
      255
102
RTVSPost2010PropOp44
 70
     1
102
RTVSPost2010Prop45
280
     0
102
RTVSPost2010PropOp45
 70
     1
102
RTVSPost2010Prop46
 90
       50
102
RTVSPost2010PropOp46
 70
     1
102
RTVSPost2010Prop47
 90
       50
102
RTVSPost2010PropOp47
 70
     1
102
RTVSPost2010Prop48
 90
       50
102
RTVSPost2010PropOp48
 70
     1
102
RTVSPost2010Prop49
280
     0
102
RTVSPost2010PropOp49
 70
     1
102
RTVSPost2010Prop50
 90
       50
102
RTVSPost2010PropOp50
 70
     1
102
RTVSPost2010Prop51ColorIndex
 90
      256
102
RTVSPost2010Prop51ColorRGB
 90
-16777216
102
RTVSPost2010PropOp51
 70
     0
102
RTVSPost2010Prop52
140
1.0
102
RTVSPost2010PropOp52
 70
     0
102
RTVSPost2010Prop53
 90
        2
102
RTVSPost2010PropOp53
 70
     1
102
RTVSPost2010Prop54
  1
strokes_ogs.tif
102
RTVSPost2010PropOp54
 70
     1
102
RTVSPost2010Prop55
280
     0
102
RTVSPost2010PropOp55
 70
     1
102
RTVSPost2010Prop56
140
1.0
102
RTVSPost2010PropOp56
 70
     1
102
RTVSPost2010Prop57
140
1.0
102
RTVSPost2010PropOp57
 70
     1
102
RTVSPropertyOp0
 70
     1
102
RTVSPropertyOp1
 70
     1
102
RTVSPropertyOp2
 70
     1
102
RTVSPropertyOp3
 70
     1
102
RTVSPropertyOp4
 70
     1
102
RTVSPropertyOp5
 70
     1
102
RTVSPropertyOp6
 70
     1
102
RTVSPropertyOp7
 70
     1
102
RTVSPropertyOp8
 70
     1
102
RTVSPropertyOp9
 70
     1
102
RTVSPropertyOp10
 70
     1
102
RTVSPropertyOp11
 70
     1
102
RTVSPropertyOp12
 70
     1
102
RTVSPropertyOp13
 70
     1
102
RTVSPropertyOp14
 70
     1
102
RTVSPropertyOp15
 70
     1
102
RTVSPropertyOp16
 70
     1
102
RTVSPropertyOp17
 70
     1
102
RTVSPropertyOp18
 70
     1
102
RTVSPropertyOp19
 70
     1
102
RTVSPropertyOp20
 70
     1
102
RTVSPropertyOp21
 70
     1
102
RTVSPropertyOp22
 70
     1
102
RTVSPropertyOp23
 70
     1
102
RTVSPropertyOp24
 70
     1
102
RTVSPropertyOp25
 70
     1
102
RTVSPropertyOp26
 70
     1
102
RTVSPropertyOp27
 70
     1
102
RTVSPropertyOp28
 70
     1
102
RTVSPropertyOp29
 70
     1
102
RTVSPropertyOp30
 70
     1
102
RTVSPropertyOp31
 70
     1
102
RTVSPropertyOp32
 70
     1
102
RTVSPropertyOp33
 70
     1
102
RTVSPropertyOp34
 70
     1
102
RTVSPropertyOp35
 70
     1
102
RTVSPropertyOp36
 70
     1
102
RTVSPropertyOp37
 70
     1
102
RTVSPropertyOp38
 70
     1
102
RTVSPropertyOp39
 70
     1
102
RTVSPropertyOp40
 70
     1
102
RTVSPropertyOp41
 70
     1
102
RTVSPropertyOp42
 70
     1
102
RTVSPropertyOp43
 70
     1
102
RTVSPropertyOp44
 70
     1
102
RTVSPropertyOp45
 70
     1
102
RTVSPropertyOp46
 70
     1
102
RTVSPropertyOp47
 70
     1
102
RTVSPropertyOp48
 70
     1
102
RTVSPropertyOp49
 70
     1
102
RTVSPropertyOp50
 70
     1
102
RTVSPropertyOp51
 70
     0
102
RTVSPropertyOp52
 70
     0
102
RTVSPropertyOp53
 70
     1
102
RTVSPropertyOp54
 70
     1
102
RTVSPropertyOp55
 70
     1
102
RTVSPropertyOp56
 70
     1
102
RTVSPropertyOp57
 70
     1
102
RTVSPropertyOp58
 70
     1
102
RTVSPropertyOp59
 70
     1
102
RTVSPropertyOp60
 70
     1
102
RTVSPropertyOp61
 70
     1
102
RTVSPropertyOp62
 70
     1
  0
XRECORD
  5
3403
102
{ACAD_REACTORS
330
3402
102
}
330
3402
100
AcDbXrecord
280
     1
102
RTVSPost2010Prop28
280
     0
102
RTVSPost2010PropOp28
 70
     1
102
RTVSPost2010Prop29
280
     1
102
RTVSPost2010PropOp29
 70
     1
102
RTVSPost2010Prop30
280
     1
102
RTVSPost2010PropOp30
 70
     1
102
RTVSPost2010Prop31
280
     0
102
RTVSPost2010PropOp31
 70
     1
102
RTVSPost2010Prop32
280
     0
102
RTVSPost2010PropOp32
 70
     1
102
RTVSPost2010Prop33
280
     0
102
RTVSPost2010PropOp33
 70
     1
102
RTVSPost2010Prop34
280
     0
102
RTVSPost2010PropOp34
 70
     1
102
RTVSPost2010Prop35
280
     0
102
RTVSPost2010PropOp35
 70
     1
102
RTVSPost2010Prop36
280
     0
102
RTVSPost2010PropOp36
 70
     1
102
RTVSPost2010Prop37
 90
       50
102
RTVSPost2010PropOp37
 70
     1
102
RTVSPost2010Prop38
140
0.0
102
RTVSPost2010PropOp38
 70
     1
102
RTVSPost2010Prop39
140
1.0
102
RTVSPost2010PropOp39
 70
     1
102
RTVSPost2010Prop40
 90
        0
102
RTVSPost2010PropOp40
 70
     1
102
RTVSPost2010Prop41ColorIndex
 90
       18
102
RTVSPost2010Prop41ColorRGB
 90
        0
102
RTVSPost2010PropOp41
 70
     1
102
RTVSPost2010Prop42
 90
       50
102
RTVSPost2010PropOp42
 70
     1
102
RTVSPost2010Prop43
 90
        3
102
RTVSPost2010PropOp43
 70
     1
102
RTVSPost2010Prop44ColorIndex
 90
        5
102
RTVSPost2010Prop44ColorRGB
 90
      255
102
RTVSPost2010PropOp44
 70
     1
102
RTVSPost2010Prop45
280
     0
102
RTVSPost2010PropOp45
 70
     1
102
RTVSPost2010Prop46
 90
       50
102
RTVSPost2010PropOp46
 70
     1
102
RTVSPost2010Prop47
 90
       50
102
RTVSPost2010PropOp47
 70
     1
102
RTVSPost2010Prop48
 90
       50
102
RTVSPost2010PropOp48
 70
     1
102
RTVSPost2010Prop49
280
     0
102
RTVSPost2010PropOp49
 70
     1
102
RTVSPost2010Prop50
 90
       50
102
RTVSPost2010PropOp50
 70
     1
102
RTVSPost2010Prop51ColorIndex
 90
      256
102
RTVSPost2010Prop51ColorRGB
 90
-16777216
102
RTVSPost2010PropOp51
 70
     0
102
RTVSPost2010Prop52
140
1.0
102
RTVSPost2010PropOp52
 70
     0
102
RTVSPost2010Prop53
 90
        2
102
RTVSPost2010PropOp53
 70
     1
102
RTVSPost2010Prop54
  1
strokes_ogs.tif
102
RTVSPost2010PropOp54
 70
     1
102
RTVSPost2010Prop55
280
     0
102
RTVSPost2010PropOp55
 70
     1
102
RTVSPost2010Prop56
140
1.0
102
RTVSPost2010PropOp56
 70
     1
102
RTVSPost2010Prop57
140
1.0
102
RTVSPost2010PropOp57
 70
     1
102
RTVSPropertyOp0
 70
     1
102
RTVSPropertyOp1
 70
     1
102
RTVSPropertyOp2
 70
     1
102
RTVSPropertyOp3
 70
     1
102
RTVSPropertyOp4
 70
     1
102
RTVSPropertyOp5
 70
     1
102
RTVSPropertyOp6
 70
     1
102
RTVSPropertyOp7
 70
     1
102
RTVSPropertyOp8
 70
     1
102
RTVSPropertyOp9
 70
     1
102
RTVSPropertyOp10
 70
     1
102
RTVSPropertyOp11
 70
     1
102
RTVSPropertyOp12
 70
     1
102
RTVSPropertyOp13
 70
     1
102
RTVSPropertyOp14
 70
     1
102
RTVSPropertyOp15
 70
     1
102
RTVSPropertyOp16
 70
     1
102
RTVSPropertyOp17
 70
     1
102
RTVSPropertyOp18
 70
     1
102
RTVSPropertyOp19
 70
     1
102
RTVSPropertyOp20
 70
     1
102
RTVSPropertyOp21
 70
     1
102
RTVSPropertyOp22
 70
     1
102
RTVSPropertyOp23
 70
     1
102
RTVSPropertyOp24
 70
     1
102
RTVSPropertyOp25
 70
     1
102
RTVSPropertyOp26
 70
     1
102
RTVSPropertyOp27
 70
     1
102
RTVSPropertyOp28
 70
     1
102
RTVSPropertyOp29
 70
     1
102
RTVSPropertyOp30
 70
     1
102
RTVSPropertyOp31
 70
     1
102
RTVSPropertyOp32
 70
     1
102
RTVSPropertyOp33
 70
     1
102
RTVSPropertyOp34
 70
     1
102
RTVSPropertyOp35
 70
     1
102
RTVSPropertyOp36
 70
     1
102
RTVSPropertyOp37
 70
     1
102
RTVSPropertyOp38
 70
     1
102
RTVSPropertyOp39
 70
     1
102
RTVSPropertyOp40
 70
     1
102
RTVSPropertyOp41
 70
     1
102
RTVSPropertyOp42
 70
     1
102
RTVSPropertyOp43
 70
     1
102
RTVSPropertyOp44
 70
     1
102
RTVSPropertyOp45
 70
     1
102
RTVSPropertyOp46
 70
     1
102
RTVSPropertyOp47
 70
     1
102
RTVSPropertyOp48
 70
     1
102
RTVSPropertyOp49
 70
     1
102
RTVSPropertyOp50
 70
     1
102
RTVSPropertyOp51
 70
     0
102
RTVSPropertyOp52
 70
     0
102
RTVSPropertyOp53
 70
     1
102
RTVSPropertyOp54
 70
     1
102
RTVSPropertyOp55
 70
     1
102
RTVSPropertyOp56
 70
     1
102
RTVSPropertyOp57
 70
     1
102
RTVSPropertyOp58
 70
     1
102
RTVSPropertyOp59
 70
     1
102
RTVSPropertyOp60
 70
     1
102
RTVSPropertyOp61
 70
     1
102
RTVSPropertyOp62
 70
     1
  0
XRECORD
  5
33F5
102
{ACAD_REACTORS
330
33F4
102
}
330
33F4
100
AcDbXrecord
280
     1
102
RTVSPost2010Prop28
280
     0
102
RTVSPost2010PropOp28
 70
     1
102
RTVSPost2010Prop29
280
     1
102
RTVSPost2010PropOp29
 70
     1
102
RTVSPost2010Prop30
280
     1
102
RTVSPost2010PropOp30
 70
     1
102
RTVSPost2010Prop31
280
     0
102
RTVSPost2010PropOp31
 70
     1
102
RTVSPost2010Prop32
280
     0
102
RTVSPost2010PropOp32
 70
     1
102
RTVSPost2010Prop33
280
     0
102
RTVSPost2010PropOp33
 70
     1
102
RTVSPost2010Prop34
280
     0
102
RTVSPost2010PropOp34
 70
     1
102
RTVSPost2010Prop35
280
     0
102
RTVSPost2010PropOp35
 70
     1
102
RTVSPost2010Prop36
280
     0
102
RTVSPost2010PropOp36
 70
     1
102
RTVSPost2010Prop37
 90
       50
102
RTVSPost2010PropOp37
 70
     1
102
RTVSPost2010Prop38
140
0.0
102
RTVSPost2010PropOp38
 70
     1
102
RTVSPost2010Prop39
140
1.0
102
RTVSPost2010PropOp39
 70
     1
102
RTVSPost2010Prop40
 90
        0
102
RTVSPost2010PropOp40
 70
     1
102
RTVSPost2010Prop41ColorIndex
 90
       18
102
RTVSPost2010Prop41ColorRGB
 90
        0
102
RTVSPost2010PropOp41
 70
     1
102
RTVSPost2010Prop42
 90
       50
102
RTVSPost2010PropOp42
 70
     1
102
RTVSPost2010Prop43
 90
        3
102
RTVSPost2010PropOp43
 70
     1
102
RTVSPost2010Prop44ColorIndex
 90
        5
102
RTVSPost2010Prop44ColorRGB
 90
      255
102
RTVSPost2010PropOp44
 70
     1
102
RTVSPost2010Prop45
280
     0
102
RTVSPost2010PropOp45
 70
     1
102
RTVSPost2010Prop46
 90
       50
102
RTVSPost2010PropOp46
 70
     1
102
RTVSPost2010Prop47
 90
       50
102
RTVSPost2010PropOp47
 70
     1
102
RTVSPost2010Prop48
 90
       50
102
RTVSPost2010PropOp48
 70
     1
102
RTVSPost2010Prop49
280
     0
102
RTVSPost2010PropOp49
 70
     1
102
RTVSPost2010Prop50
 90
       50
102
RTVSPost2010PropOp50
 70
     1
102
RTVSPost2010Prop51ColorIndex
 90
      256
102
RTVSPost2010Prop51ColorRGB
 90
-16777216
102
RTVSPost2010PropOp51
 70
     0
102
RTVSPost2010Prop52
140
1.0
102
RTVSPost2010PropOp52
 70
     0
102
RTVSPost2010Prop53
 90
        2
102
RTVSPost2010PropOp53
 70
     1
102
RTVSPost2010Prop54
  1
strokes_ogs.tif
102
RTVSPost2010PropOp54
 70
     1
102
RTVSPost2010Prop55
280
     0
102
RTVSPost2010PropOp55
 70
     1
102
RTVSPost2010Prop56
140
1.0
102
RTVSPost2010PropOp56
 70
     1
102
RTVSPost2010Prop57
140
1.0
102
RTVSPost2010PropOp57
 70
     1
102
RTVSPropertyOp0
 70
     1
102
RTVSPropertyOp1
 70
     1
102
RTVSPropertyOp2
 70
     1
102
RTVSPropertyOp3
 70
     1
102
RTVSPropertyOp4
 70
     1
102
RTVSPropertyOp5
 70
     1
102
RTVSPropertyOp6
 70
     1
102
RTVSPropertyOp7
 70
     1
102
RTVSPropertyOp8
 70
     1
102
RTVSPropertyOp9
 70
     1
102
RTVSPropertyOp10
 70
     1
102
RTVSPropertyOp11
 70
     1
102
RTVSPropertyOp12
 70
     1
102
RTVSPropertyOp13
 70
     1
102
RTVSPropertyOp14
 70
     1
102
RTVSPropertyOp15
 70
     1
102
RTVSPropertyOp16
 70
     1
102
RTVSPropertyOp17
 70
     1
102
RTVSPropertyOp18
 70
     1
102
RTVSPropertyOp19
 70
     1
102
RTVSPropertyOp20
 70
     1
102
RTVSPropertyOp21
 70
     1
102
RTVSPropertyOp22
 70
     1
102
RTVSPropertyOp23
 70
     1
102
RTVSPropertyOp24
 70
     1
102
RTVSPropertyOp25
 70
     1
102
RTVSPropertyOp26
 70
     1
102
RTVSPropertyOp27
 70
     1
102
RTVSPropertyOp28
 70
     1
102
RTVSPropertyOp29
 70
     1
102
RTVSPropertyOp30
 70
     1
102
RTVSPropertyOp31
 70
     1
102
RTVSPropertyOp32
 70
     1
102
RTVSPropertyOp33
 70
     1
102
RTVSPropertyOp34
 70
     1
102
RTVSPropertyOp35
 70
     1
102
RTVSPropertyOp36
 70
     1
102
RTVSPropertyOp37
 70
     1
102
RTVSPropertyOp38
 70
     1
102
RTVSPropertyOp39
 70
     1
102
RTVSPropertyOp40
 70
     1
102
RTVSPropertyOp41
 70
     1
102
RTVSPropertyOp42
 70
     1
102
RTVSPropertyOp43
 70
     1
102
RTVSPropertyOp44
 70
     1
102
RTVSPropertyOp45
 70
     1
102
RTVSPropertyOp46
 70
     1
102
RTVSPropertyOp47
 70
     1
102
RTVSPropertyOp48
 70
     1
102
RTVSPropertyOp49
 70
     1
102
RTVSPropertyOp50
 70
     1
102
RTVSPropertyOp51
 70
     0
102
RTVSPropertyOp52
 70
     0
102
RTVSPropertyOp53
 70
     1
102
RTVSPropertyOp54
 70
     1
102
RTVSPropertyOp55
 70
     1
102
RTVSPropertyOp56
 70
     1
102
RTVSPropertyOp57
 70
     1
102
RTVSPropertyOp58
 70
     1
102
RTVSPropertyOp59
 70
     1
102
RTVSPropertyOp60
 70
     1
102
RTVSPropertyOp61
 70
     1
102
RTVSPropertyOp62
 70
     1
  0
XRECORD
  5
33F9
102
{ACAD_REACTORS
330
33F8
102
}
330
33F8
100
AcDbXrecord
280
     1
102
RTVSPost2010Prop28
280
     0
102
RTVSPost2010PropOp28
 70
     1
102
RTVSPost2010Prop29
280
     1
102
RTVSPost2010PropOp29
 70
     1
102
RTVSPost2010Prop30
280
     1
102
RTVSPost2010PropOp30
 70
     1
102
RTVSPost2010Prop31
280
     0
102
RTVSPost2010PropOp31
 70
     1
102
RTVSPost2010Prop32
280
     0
102
RTVSPost2010PropOp32
 70
     1
102
RTVSPost2010Prop33
280
     0
102
RTVSPost2010PropOp33
 70
     1
102
RTVSPost2010Prop34
280
     0
102
RTVSPost2010PropOp34
 70
     1
102
RTVSPost2010Prop35
280
     0
102
RTVSPost2010PropOp35
 70
     1
102
RTVSPost2010Prop36
280
     0
102
RTVSPost2010PropOp36
 70
     1
102
RTVSPost2010Prop37
 90
       50
102
RTVSPost2010PropOp37
 70
     1
102
RTVSPost2010Prop38
140
0.0
102
RTVSPost2010PropOp38
 70
     1
102
RTVSPost2010Prop39
140
1.0
102
RTVSPost2010PropOp39
 70
     1
102
RTVSPost2010Prop40
 90
        0
102
RTVSPost2010PropOp40
 70
     1
102
RTVSPost2010Prop41ColorIndex
 90
       18
102
RTVSPost2010Prop41ColorRGB
 90
        0
102
RTVSPost2010PropOp41
 70
     1
102
RTVSPost2010Prop42
 90
       50
102
RTVSPost2010PropOp42
 70
     1
102
RTVSPost2010Prop43
 90
        3
102
RTVSPost2010PropOp43
 70
     1
102
RTVSPost2010Prop44ColorIndex
 90
        5
102
RTVSPost2010Prop44ColorRGB
 90
      255
102
RTVSPost2010PropOp44
 70
     1
102
RTVSPost2010Prop45
280
     0
102
RTVSPost2010PropOp45
 70
     1
102
RTVSPost2010Prop46
 90
       50
102
RTVSPost2010PropOp46
 70
     1
102
RTVSPost2010Prop47
 90
       50
102
RTVSPost2010PropOp47
 70
     1
102
RTVSPost2010Prop48
 90
       50
102
RTVSPost2010PropOp48
 70
     1
102
RTVSPost2010Prop49
280
     0
102
RTVSPost2010PropOp49
 70
     1
102
RTVSPost2010Prop50
 90
       50
102
RTVSPost2010PropOp50
 70
     1
102
RTVSPost2010Prop51ColorIndex
 90
      256
102
RTVSPost2010Prop51ColorRGB
 90
-16777216
102
RTVSPost2010PropOp51
 70
     0
102
RTVSPost2010Prop52
140
1.0
102
RTVSPost2010PropOp52
 70
     0
102
RTVSPost2010Prop53
 90
        2
102
RTVSPost2010PropOp53
 70
     1
102
RTVSPost2010Prop54
  1
strokes_ogs.tif
102
RTVSPost2010PropOp54
 70
     1
102
RTVSPost2010Prop55
280
     0
102
RTVSPost2010PropOp55
 70
     1
102
RTVSPost2010Prop56
140
1.0
102
RTVSPost2010PropOp56
 70
     1
102
RTVSPost2010Prop57
140
1.0
102
RTVSPost2010PropOp57
 70
     1
102
RTVSPropertyOp0
 70
     1
102
RTVSPropertyOp1
 70
     1
102
RTVSPropertyOp2
 70
     1
102
RTVSPropertyOp3
 70
     1
102
RTVSPropertyOp4
 70
     1
102
RTVSPropertyOp5
 70
     1
102
RTVSPropertyOp6
 70
     1
102
RTVSPropertyOp7
 70
     1
102
RTVSPropertyOp8
 70
     1
102
RTVSPropertyOp9
 70
     1
102
RTVSPropertyOp10
 70
     1
102
RTVSPropertyOp11
 70
     1
102
RTVSPropertyOp12
 70
     1
102
RTVSPropertyOp13
 70
     1
102
RTVSPropertyOp14
 70
     1
102
RTVSPropertyOp15
 70
     1
102
RTVSPropertyOp16
 70
     1
102
RTVSPropertyOp17
 70
     1
102
RTVSPropertyOp18
 70
     1
102
RTVSPropertyOp19
 70
     1
102
RTVSPropertyOp20
 70
     1
102
RTVSPropertyOp21
 70
     1
102
RTVSPropertyOp22
 70
     1
102
RTVSPropertyOp23
 70
     1
102
RTVSPropertyOp24
 70
     1
102
RTVSPropertyOp25
 70
     1
102
RTVSPropertyOp26
 70
     1
102
RTVSPropertyOp27
 70
     1
102
RTVSPropertyOp28
 70
     1
102
RTVSPropertyOp29
 70
     1
102
RTVSPropertyOp30
 70
     1
102
RTVSPropertyOp31
 70
     1
102
RTVSPropertyOp32
 70
     1
102
RTVSPropertyOp33
 70
     1
102
RTVSPropertyOp34
 70
     1
102
RTVSPropertyOp35
 70
     1
102
RTVSPropertyOp36
 70
     1
102
RTVSPropertyOp37
 70
     1
102
RTVSPropertyOp38
 70
     1
102
RTVSPropertyOp39
 70
     1
102
RTVSPropertyOp40
 70
     1
102
RTVSPropertyOp41
 70
     1
102
RTVSPropertyOp42
 70
     1
102
RTVSPropertyOp43
 70
     1
102
RTVSPropertyOp44
 70
     1
102
RTVSPropertyOp45
 70
     1
102
RTVSPropertyOp46
 70
     1
102
RTVSPropertyOp47
 70
     1
102
RTVSPropertyOp48
 70
     1
102
RTVSPropertyOp49
 70
     1
102
RTVSPropertyOp50
 70
     1
102
RTVSPropertyOp51
 70
     0
102
RTVSPropertyOp52
 70
     0
102
RTVSPropertyOp53
 70
     1
102
RTVSPropertyOp54
 70
     1
102
RTVSPropertyOp55
 70
     1
102
RTVSPropertyOp56
 70
     1
102
RTVSPropertyOp57
 70
     1
102
RTVSPropertyOp58
 70
     1
102
RTVSPropertyOp59
 70
     1
102
RTVSPropertyOp60
 70
     1
102
RTVSPropertyOp61
 70
     1
102
RTVSPropertyOp62
 70
     1
  0
XRECORD
  5
3413
102
{ACAD_REACTORS
330
3412
102
}
330
3412
100
AcDbXrecord
280
     1
102
RTVSPost2010Prop28
280
     0
102
RTVSPost2010PropOp28
 70
     1
102
RTVSPost2010Prop29
280
     1
102
RTVSPost2010PropOp29
 70
     1
102
RTVSPost2010Prop30
280
     1
102
RTVSPost2010PropOp30
 70
     1
102
RTVSPost2010Prop31
280
     0
102
RTVSPost2010PropOp31
 70
     1
102
RTVSPost2010Prop32
280
     0
102
RTVSPost2010PropOp32
 70
     1
102
RTVSPost2010Prop33
280
     0
102
RTVSPost2010PropOp33
 70
     1
102
RTVSPost2010Prop34
280
     0
102
RTVSPost2010PropOp34
 70
     1
102
RTVSPost2010Prop35
280
     0
102
RTVSPost2010PropOp35
 70
     1
102
RTVSPost2010Prop36
280
     0
102
RTVSPost2010PropOp36
 70
     1
102
RTVSPost2010Prop37
 90
       50
102
RTVSPost2010PropOp37
 70
     0
102
RTVSPost2010Prop38
140
0.0
102
RTVSPost2010PropOp38
 70
     0
102
RTVSPost2010Prop39
140
1.0
102
RTVSPost2010PropOp39
 70
     0
102
RTVSPost2010Prop40
 90
        0
102
RTVSPost2010PropOp40
 70
     0
102
RTVSPost2010Prop41ColorIndex
 90
       18
102
RTVSPost2010Prop41ColorRGB
 90
        0
102
RTVSPost2010PropOp41
 70
     0
102
RTVSPost2010Prop42
 90
       50
102
RTVSPost2010PropOp42
 70
     0
102
RTVSPost2010Prop43
 90
        3
102
RTVSPost2010PropOp43
 70
     0
102
RTVSPost2010Prop44ColorIndex
 90
        5
102
RTVSPost2010Prop44ColorRGB
 90
      255
102
RTVSPost2010PropOp44
 70
     0
102
RTVSPost2010Prop45
280
     0
102
RTVSPost2010PropOp45
 70
     1
102
RTVSPost2010Prop46
 90
       50
102
RTVSPost2010PropOp46
 70
     0
102
RTVSPost2010Prop47
 90
       50
102
RTVSPost2010PropOp47
 70
     0
102
RTVSPost2010Prop48
 90
       50
102
RTVSPost2010PropOp48
 70
     0
102
RTVSPost2010Prop49
280
     0
102
RTVSPost2010PropOp49
 70
     1
102
RTVSPost2010Prop50
 90
       50
102
RTVSPost2010PropOp50
 70
     0
102
RTVSPost2010Prop51ColorIndex
 90
      256
102
RTVSPost2010Prop51ColorRGB
 90
-16777216
102
RTVSPost2010PropOp51
 70
     0
102
RTVSPost2010Prop52
140
1.0
102
RTVSPost2010PropOp52
 70
     0
102
RTVSPost2010Prop53
 90
        2
102
RTVSPost2010PropOp53
 70
     0
102
RTVSPost2010Prop54
  1
strokes_ogs.tif
102
RTVSPost2010PropOp54
 70
     0
102
RTVSPost2010Prop55
280
     0
102
RTVSPost2010PropOp55
 70
     1
102
RTVSPost2010Prop56
140
1.0
102
RTVSPost2010PropOp56
 70
     0
102
RTVSPost2010Prop57
140
1.0
102
RTVSPost2010PropOp57
 70
     0
102
RTVSPropertyOp0
 70
     0
102
RTVSPropertyOp1
 70
     0
102
RTVSPropertyOp2
 70
     0
102
RTVSPropertyOp3
 70
     0
102
RTVSPropertyOp4
 70
     0
102
RTVSPropertyOp5
 70
     0
102
RTVSPropertyOp6
 70
     0
102
RTVSPropertyOp7
 70
     0
102
RTVSPropertyOp8
 70
     0
102
RTVSPropertyOp9
 70
     0
102
RTVSPropertyOp10
 70
     0
102
RTVSPropertyOp11
 70
     0
102
RTVSPropertyOp12
 70
     0
102
RTVSPropertyOp13
 70
     0
102
RTVSPropertyOp14
 70
     2
102
RTVSPropertyOp15
 70
     0
102
RTVSPropertyOp16
 70
     0
102
RTVSPropertyOp17
 70
     0
102
RTVSPropertyOp18
 70
     0
102
RTVSPropertyOp19
 70
     0
102
RTVSPropertyOp20
 70
     0
102
RTVSPropertyOp21
 70
     0
102
RTVSPropertyOp22
 70
     0
102
RTVSPropertyOp23
 70
     0
102
RTVSPropertyOp24
 70
     0
102
RTVSPropertyOp25
 70
     0
102
RTVSPropertyOp26
 70
     0
102
RTVSPropertyOp27
 70
     0
102
RTVSPropertyOp28
 70
     1
102
RTVSPropertyOp29
 70
     1
102
RTVSPropertyOp30
 70
     1
102
RTVSPropertyOp31
 70
     1
102
RTVSPropertyOp32
 70
     1
102
RTVSPropertyOp33
 70
     1
102
RTVSPropertyOp34
 70
     1
102
RTVSPropertyOp35
 70
     1
102
RTVSPropertyOp36
 70
     1
102
RTVSPropertyOp37
 70
     0
102
RTVSPropertyOp38
 70
     0
102
RTVSPropertyOp39
 70
     0
102
RTVSPropertyOp40
 70
     0
102
RTVSPropertyOp41
 70
     0
102
RTVSPropertyOp42
 70
     0
102
RTVSPropertyOp43
 70
     0
102
RTVSPropertyOp44
 70
     0
102
RTVSPropertyOp45
 70
     1
102
RTVSPropertyOp46
 70
     0
102
RTVSPropertyOp47
 70
     0
102
RTVSPropertyOp48
 70
     0
102
RTVSPropertyOp49
 70
     1
102
RTVSPropertyOp50
 70
     0
102
RTVSPropertyOp51
 70
     0
102
RTVSPropertyOp52
 70
     0
102
RTVSPropertyOp53
 70
     0
102
RTVSPropertyOp54
 70
     0
102
RTVSPropertyOp55
 70
     1
102
RTVSPropertyOp56
 70
     0
102
RTVSPropertyOp57
 70
     0
102
RTVSPropertyOp58
 70
     0
102
RTVSPropertyOp59
 70
     0
102
RTVSPropertyOp60
 70
     0
102
RTVSPropertyOp61
 70
     0
102
RTVSPropertyOp62
 70
     0
  0
XRECORD
  5
3401
102
{ACAD_REACTORS
330
3400
102
}
330
3400
100
AcDbXrecord
280
     1
102
RTVSPost2010Prop28
280
     0
102
RTVSPost2010PropOp28
 70
     1
102
RTVSPost2010Prop29
280
     1
102
RTVSPost2010PropOp29
 70
     1
102
RTVSPost2010Prop30
280
     1
102
RTVSPost2010PropOp30
 70
     1
102
RTVSPost2010Prop31
280
     0
102
RTVSPost2010PropOp31
 70
     1
102
RTVSPost2010Prop32
280
     0
102
RTVSPost2010PropOp32
 70
     1
102
RTVSPost2010Prop33
280
     0
102
RTVSPost2010PropOp33
 70
     1
102
RTVSPost2010Prop34
280
     0
102
RTVSPost2010PropOp34
 70
     1
102
RTVSPost2010Prop35
280
     0
102
RTVSPost2010PropOp35
 70
     1
102
RTVSPost2010Prop36
280
     0
102
RTVSPost2010PropOp36
 70
     1
102
RTVSPost2010Prop37
 90
       50
102
RTVSPost2010PropOp37
 70
     1
102
RTVSPost2010Prop38
140
0.0
102
RTVSPost2010PropOp38
 70
     1
102
RTVSPost2010Prop39
140
1.0
102
RTVSPost2010PropOp39
 70
     1
102
RTVSPost2010Prop40
 90
        0
102
RTVSPost2010PropOp40
 70
     1
102
RTVSPost2010Prop41ColorIndex
 90
       18
102
RTVSPost2010Prop41ColorRGB
 90
        0
102
RTVSPost2010PropOp41
 70
     1
102
RTVSPost2010Prop42
 90
       50
102
RTVSPost2010PropOp42
 70
     1
102
RTVSPost2010Prop43
 90
        3
102
RTVSPost2010PropOp43
 70
     1
102
RTVSPost2010Prop44ColorIndex
 90
        5
102
RTVSPost2010Prop44ColorRGB
 90
      255
102
RTVSPost2010PropOp44
 70
     1
102
RTVSPost2010Prop45
280
     0
102
RTVSPost2010PropOp45
 70
     1
102
RTVSPost2010Prop46
 90
       50
102
RTVSPost2010PropOp46
 70
     1
102
RTVSPost2010Prop47
 90
       50
102
RTVSPost2010PropOp47
 70
     1
102
RTVSPost2010Prop48
 90
       50
102
RTVSPost2010PropOp48
 70
     1
102
RTVSPost2010Prop49
280
     0
102
RTVSPost2010PropOp49
 70
     1
102
RTVSPost2010Prop50
 90
       50
102
RTVSPost2010PropOp50
 70
     1
102
RTVSPost2010Prop51ColorIndex
 90
      256
102
RTVSPost2010Prop51ColorRGB
 90
-16777216
102
RTVSPost2010PropOp51
 70
     0
102
RTVSPost2010Prop52
140
1.0
102
RTVSPost2010PropOp52
 70
     0
102
RTVSPost2010Prop53
 90
        2
102
RTVSPost2010PropOp53
 70
     1
102
RTVSPost2010Prop54
  1
strokes_ogs.tif
102
RTVSPost2010PropOp54
 70
     1
102
RTVSPost2010Prop55
280
     0
102
RTVSPost2010PropOp55
 70
     1
102
RTVSPost2010Prop56
140
1.0
102
RTVSPost2010PropOp56
 70
     1
102
RTVSPost2010Prop57
140
1.0
102
RTVSPost2010PropOp57
 70
     1
102
RTVSPropertyOp0
 70
     1
102
RTVSPropertyOp1
 70
     1
102
RTVSPropertyOp2
 70
     1
102
RTVSPropertyOp3
 70
     1
102
RTVSPropertyOp4
 70
     1
102
RTVSPropertyOp5
 70
     1
102
RTVSPropertyOp6
 70
     1
102
RTVSPropertyOp7
 70
     1
102
RTVSPropertyOp8
 70
     1
102
RTVSPropertyOp9
 70
     1
102
RTVSPropertyOp10
 70
     1
102
RTVSPropertyOp11
 70
     1
102
RTVSPropertyOp12
 70
     1
102
RTVSPropertyOp13
 70
     1
102
RTVSPropertyOp14
 70
     1
102
RTVSPropertyOp15
 70
     1
102
RTVSPropertyOp16
 70
     1
102
RTVSPropertyOp17
 70
     1
102
RTVSPropertyOp18
 70
     1
102
RTVSPropertyOp19
 70
     1
102
RTVSPropertyOp20
 70
     1
102
RTVSPropertyOp21
 70
     1
102
RTVSPropertyOp22
 70
     1
102
RTVSPropertyOp23
 70
     1
102
RTVSPropertyOp24
 70
     1
102
RTVSPropertyOp25
 70
     1
102
RTVSPropertyOp26
 70
     1
102
RTVSPropertyOp27
 70
     1
102
RTVSPropertyOp28
 70
     1
102
RTVSPropertyOp29
 70
     1
102
RTVSPropertyOp30
 70
     1
102
RTVSPropertyOp31
 70
     1
102
RTVSPropertyOp32
 70
     1
102
RTVSPropertyOp33
 70
     1
102
RTVSPropertyOp34
 70
     1
102
RTVSPropertyOp35
 70
     1
102
RTVSPropertyOp36
 70
     1
102
RTVSPropertyOp37
 70
     1
102
RTVSPropertyOp38
 70
     1
102
RTVSPropertyOp39
 70
     1
102
RTVSPropertyOp40
 70
     1
102
RTVSPropertyOp41
 70
     1
102
RTVSPropertyOp42
 70
     1
102
RTVSPropertyOp43
 70
     1
102
RTVSPropertyOp44
 70
     1
102
RTVSPropertyOp45
 70
     1
102
RTVSPropertyOp46
 70
     1
102
RTVSPropertyOp47
 70
     1
102
RTVSPropertyOp48
 70
     1
102
RTVSPropertyOp49
 70
     1
102
RTVSPropertyOp50
 70
     1
102
RTVSPropertyOp51
 70
     0
102
RTVSPropertyOp52
 70
     0
102
RTVSPropertyOp53
 70
     1
102
RTVSPropertyOp54
 70
     1
102
RTVSPropertyOp55
 70
     1
102
RTVSPropertyOp56
 70
     1
102
RTVSPropertyOp57
 70
     1
102
RTVSPropertyOp58
 70
     1
102
RTVSPropertyOp59
 70
     1
102
RTVSPropertyOp60
 70
     1
102
RTVSPropertyOp61
 70
     1
102
RTVSPropertyOp62
 70
     1
  0
XRECORD
  5
33E5
102
{ACAD_REACTORS
330
33E4
102
}
330
33E4
100
AcDbXrecord
280
     1
102
RTVSPost2010Prop28
280
     0
102
RTVSPost2010PropOp28
 70
     1
102
RTVSPost2010Prop29
280
     1
102
RTVSPost2010PropOp29
 70
     1
102
RTVSPost2010Prop30
280
     1
102
RTVSPost2010PropOp30
 70
     1
102
RTVSPost2010Prop31
280
     0
102
RTVSPost2010PropOp31
 70
     1
102
RTVSPost2010Prop32
280
     0
102
RTVSPost2010PropOp32
 70
     1
102
RTVSPost2010Prop33
280
     0
102
RTVSPost2010PropOp33
 70
     1
102
RTVSPost2010Prop34
280
     0
102
RTVSPost2010PropOp34
 70
     1
102
RTVSPost2010Prop35
280
     0
102
RTVSPost2010PropOp35
 70
     1
102
RTVSPost2010Prop36
280
     0
102
RTVSPost2010PropOp36
 70
     1
102
RTVSPost2010Prop37
 90
       50
102
RTVSPost2010PropOp37
 70
     1
102
RTVSPost2010Prop38
140
0.0
102
RTVSPost2010PropOp38
 70
     1
102
RTVSPost2010Prop39
140
1.0
102
RTVSPost2010PropOp39
 70
     1
102
RTVSPost2010Prop40
 90
        0
102
RTVSPost2010PropOp40
 70
     1
102
RTVSPost2010Prop41ColorIndex
 90
       18
102
RTVSPost2010Prop41ColorRGB
 90
        0
102
RTVSPost2010PropOp41
 70
     1
102
RTVSPost2010Prop42
 90
       50
102
RTVSPost2010PropOp42
 70
     1
102
RTVSPost2010Prop43
 90
        3
102
RTVSPost2010PropOp43
 70
     1
102
RTVSPost2010Prop44ColorIndex
 90
        5
102
RTVSPost2010Prop44ColorRGB
 90
      255
102
RTVSPost2010PropOp44
 70
     1
102
RTVSPost2010Prop45
280
     0
102
RTVSPost2010PropOp45
 70
     1
102
RTVSPost2010Prop46
 90
       50
102
RTVSPost2010PropOp46
 70
     1
102
RTVSPost2010Prop47
 90
       50
102
RTVSPost2010PropOp47
 70
     1
102
RTVSPost2010Prop48
 90
       50
102
RTVSPost2010PropOp48
 70
     1
102
RTVSPost2010Prop49
280
     0
102
RTVSPost2010PropOp49
 70
     1
102
RTVSPost2010Prop50
 90
       50
102
RTVSPost2010PropOp50
 70
     1
102
RTVSPost2010Prop51ColorIndex
 90
      256
102
RTVSPost2010Prop51ColorRGB
 90
-16777216
102
RTVSPost2010PropOp51
 70
     0
102
RTVSPost2010Prop52
140
1.0
102
RTVSPost2010PropOp52
 70
     0
102
RTVSPost2010Prop53
 90
        2
102
RTVSPost2010PropOp53
 70
     1
102
RTVSPost2010Prop54
  1
strokes_ogs.tif
102
RTVSPost2010PropOp54
 70
     1
102
RTVSPost2010Prop55
280
     0
102
RTVSPost2010PropOp55
 70
     1
102
RTVSPost2010Prop56
140
1.0
102
RTVSPost2010PropOp56
 70
     1
102
RTVSPost2010Prop57
140
1.0
102
RTVSPost2010PropOp57
 70
     1
102
RTVSPropertyOp0
 70
     1
102
RTVSPropertyOp1
 70
     1
102
RTVSPropertyOp2
 70
     1
102
RTVSPropertyOp3
 70
     1
102
RTVSPropertyOp4
 70
     1
102
RTVSPropertyOp5
 70
     1
102
RTVSPropertyOp6
 70
     1
102
RTVSPropertyOp7
 70
     1
102
RTVSPropertyOp8
 70
     1
102
RTVSPropertyOp9
 70
     1
102
RTVSPropertyOp10
 70
     1
102
RTVSPropertyOp11
 70
     1
102
RTVSPropertyOp12
 70
     1
102
RTVSPropertyOp13
 70
     1
102
RTVSPropertyOp14
 70
     1
102
RTVSPropertyOp15
 70
     1
102
RTVSPropertyOp16
 70
     1
102
RTVSPropertyOp17
 70
     1
102
RTVSPropertyOp18
 70
     1
102
RTVSPropertyOp19
 70
     1
102
RTVSPropertyOp20
 70
     1
102
RTVSPropertyOp21
 70
     1
102
RTVSPropertyOp22
 70
     1
102
RTVSPropertyOp23
 70
     1
102
RTVSPropertyOp24
 70
     1
102
RTVSPropertyOp25
 70
     1
102
RTVSPropertyOp26
 70
     1
102
RTVSPropertyOp27
 70
     1
102
RTVSPropertyOp28
 70
     1
102
RTVSPropertyOp29
 70
     1
102
RTVSPropertyOp30
 70
     1
102
RTVSPropertyOp31
 70
     1
102
RTVSPropertyOp32
 70
     1
102
RTVSPropertyOp33
 70
     1
102
RTVSPropertyOp34
 70
     1
102
RTVSPropertyOp35
 70
     1
102
RTVSPropertyOp36
 70
     1
102
RTVSPropertyOp37
 70
     1
102
RTVSPropertyOp38
 70
     1
102
RTVSPropertyOp39
 70
     1
102
RTVSPropertyOp40
 70
     1
102
RTVSPropertyOp41
 70
     1
102
RTVSPropertyOp42
 70
     1
102
RTVSPropertyOp43
 70
     1
102
RTVSPropertyOp44
 70
     1
102
RTVSPropertyOp45
 70
     1
102
RTVSPropertyOp46
 70
     1
102
RTVSPropertyOp47
 70
     1
102
RTVSPropertyOp48
 70
     1
102
RTVSPropertyOp49
 70
     1
102
RTVSPropertyOp50
 70
     1
102
RTVSPropertyOp51
 70
     0
102
RTVSPropertyOp52
 70
     0
102
RTVSPropertyOp53
 70
     1
102
RTVSPropertyOp54
 70
     1
102
RTVSPropertyOp55
 70
     1
102
RTVSPropertyOp56
 70
     1
102
RTVSPropertyOp57
 70
     1
102
RTVSPropertyOp58
 70
     1
102
RTVSPropertyOp59
 70
     1
102
RTVSPropertyOp60
 70
     1
102
RTVSPropertyOp61
 70
     1
102
RTVSPropertyOp62
 70
     1
  0
XRECORD
  5
33E7
102
{ACAD_REACTORS
330
33E6
102
}
330
33E6
100
AcDbXrecord
280
     1
102
RTVSPost2010Prop28
280
     0
102
RTVSPost2010PropOp28
 70
     1
102
RTVSPost2010Prop29
280
     1
102
RTVSPost2010PropOp29
 70
     1
102
RTVSPost2010Prop30
280
     1
102
RTVSPost2010PropOp30
 70
     1
102
RTVSPost2010Prop31
280
     0
102
RTVSPost2010PropOp31
 70
     1
102
RTVSPost2010Prop32
280
     0
102
RTVSPost2010PropOp32
 70
     1
102
RTVSPost2010Prop33
280
     0
102
RTVSPost2010PropOp33
 70
     1
102
RTVSPost2010Prop34
280
     0
102
RTVSPost2010PropOp34
 70
     1
102
RTVSPost2010Prop35
280
     0
102
RTVSPost2010PropOp35
 70
     1
102
RTVSPost2010Prop36
280
     0
102
RTVSPost2010PropOp36
 70
     1
102
RTVSPost2010Prop37
 90
       50
102
RTVSPost2010PropOp37
 70
     1
102
RTVSPost2010Prop38
140
0.0
102
RTVSPost2010PropOp38
 70
     1
102
RTVSPost2010Prop39
140
1.0
102
RTVSPost2010PropOp39
 70
     1
102
RTVSPost2010Prop40
 90
        0
102
RTVSPost2010PropOp40
 70
     1
102
RTVSPost2010Prop41ColorIndex
 90
       18
102
RTVSPost2010Prop41ColorRGB
 90
        0
102
RTVSPost2010PropOp41
 70
     1
102
RTVSPost2010Prop42
 90
       50
102
RTVSPost2010PropOp42
 70
     1
102
RTVSPost2010Prop43
 90
        3
102
RTVSPost2010PropOp43
 70
     1
102
RTVSPost2010Prop44ColorIndex
 90
        5
102
RTVSPost2010Prop44ColorRGB
 90
      255
102
RTVSPost2010PropOp44
 70
     1
102
RTVSPost2010Prop45
280
     0
102
RTVSPost2010PropOp45
 70
     1
102
RTVSPost2010Prop46
 90
       50
102
RTVSPost2010PropOp46
 70
     1
102
RTVSPost2010Prop47
 90
       50
102
RTVSPost2010PropOp47
 70
     1
102
RTVSPost2010Prop48
 90
       50
102
RTVSPost2010PropOp48
 70
     1
102
RTVSPost2010Prop49
280
     0
102
RTVSPost2010PropOp49
 70
     1
102
RTVSPost2010Prop50
 90
       50
102
RTVSPost2010PropOp50
 70
     1
102
RTVSPost2010Prop51ColorIndex
 90
      256
102
RTVSPost2010Prop51ColorRGB
 90
-16777216
102
RTVSPost2010PropOp51
 70
     0
102
RTVSPost2010Prop52
140
1.0
102
RTVSPost2010PropOp52
 70
     0
102
RTVSPost2010Prop53
 90
        2
102
RTVSPost2010PropOp53
 70
     1
102
RTVSPost2010Prop54
  1
strokes_ogs.tif
102
RTVSPost2010PropOp54
 70
     1
102
RTVSPost2010Prop55
280
     0
102
RTVSPost2010PropOp55
 70
     1
102
RTVSPost2010Prop56
140
1.0
102
RTVSPost2010PropOp56
 70
     1
102
RTVSPost2010Prop57
140
1.0
102
RTVSPost2010PropOp57
 70
     1
102
RTVSPropertyOp0
 70
     1
102
RTVSPropertyOp1
 70
     1
102
RTVSPropertyOp2
 70
     1
102
RTVSPropertyOp3
 70
     1
102
RTVSPropertyOp4
 70
     1
102
RTVSPropertyOp5
 70
     1
102
RTVSPropertyOp6
 70
     1
102
RTVSPropertyOp7
 70
     1
102
RTVSPropertyOp8
 70
     1
102
RTVSPropertyOp9
 70
     1
102
RTVSPropertyOp10
 70
     1
102
RTVSPropertyOp11
 70
     1
102
RTVSPropertyOp12
 70
     1
102
RTVSPropertyOp13
 70
     1
102
RTVSPropertyOp14
 70
     1
102
RTVSPropertyOp15
 70
     1
102
RTVSPropertyOp16
 70
     1
102
RTVSPropertyOp17
 70
     1
102
RTVSPropertyOp18
 70
     1
102
RTVSPropertyOp19
 70
     1
102
RTVSPropertyOp20
 70
     1
102
RTVSPropertyOp21
 70
     1
102
RTVSPropertyOp22
 70
     1
102
RTVSPropertyOp23
 70
     1
102
RTVSPropertyOp24
 70
     1
102
RTVSPropertyOp25
 70
     1
102
RTVSPropertyOp26
 70
     1
102
RTVSPropertyOp27
 70
     1
102
RTVSPropertyOp28
 70
     1
102
RTVSPropertyOp29
 70
     1
102
RTVSPropertyOp30
 70
     1
102
RTVSPropertyOp31
 70
     1
102
RTVSPropertyOp32
 70
     1
102
RTVSPropertyOp33
 70
     1
102
RTVSPropertyOp34
 70
     1
102
RTVSPropertyOp35
 70
     1
102
RTVSPropertyOp36
 70
     1
102
RTVSPropertyOp37
 70
     1
102
RTVSPropertyOp38
 70
     1
102
RTVSPropertyOp39
 70
     1
102
RTVSPropertyOp40
 70
     1
102
RTVSPropertyOp41
 70
     1
102
RTVSPropertyOp42
 70
     1
102
RTVSPropertyOp43
 70
     1
102
RTVSPropertyOp44
 70
     1
102
RTVSPropertyOp45
 70
     1
102
RTVSPropertyOp46
 70
     1
102
RTVSPropertyOp47
 70
     1
102
RTVSPropertyOp48
 70
     1
102
RTVSPropertyOp49
 70
     1
102
RTVSPropertyOp50
 70
     1
102
RTVSPropertyOp51
 70
     0
102
RTVSPropertyOp52
 70
     0
102
RTVSPropertyOp53
 70
     1
102
RTVSPropertyOp54
 70
     1
102
RTVSPropertyOp55
 70
     1
102
RTVSPropertyOp56
 70
     1
102
RTVSPropertyOp57
 70
     1
102
RTVSPropertyOp58
 70
     1
102
RTVSPropertyOp59
 70
     1
102
RTVSPropertyOp60
 70
     1
102
RTVSPropertyOp61
 70
     1
102
RTVSPropertyOp62
 70
     1
  0
XRECORD
  5
33E9
102
{ACAD_REACTORS
330
33E8
102
}
330
33E8
100
AcDbXrecord
280
     1
102
RTVSPost2010Prop28
280
     0
102
RTVSPost2010PropOp28
 70
     1
102
RTVSPost2010Prop29
280
     1
102
RTVSPost2010PropOp29
 70
     1
102
RTVSPost2010Prop30
280
     1
102
RTVSPost2010PropOp30
 70
     1
102
RTVSPost2010Prop31
280
     0
102
RTVSPost2010PropOp31
 70
     1
102
RTVSPost2010Prop32
280
     0
102
RTVSPost2010PropOp32
 70
     1
102
RTVSPost2010Prop33
280
     0
102
RTVSPost2010PropOp33
 70
     1
102
RTVSPost2010Prop34
280
     0
102
RTVSPost2010PropOp34
 70
     1
102
RTVSPost2010Prop35
280
     0
102
RTVSPost2010PropOp35
 70
     1
102
RTVSPost2010Prop36
280
     0
102
RTVSPost2010PropOp36
 70
     1
102
RTVSPost2010Prop37
 90
       50
102
RTVSPost2010PropOp37
 70
     1
102
RTVSPost2010Prop38
140
0.0
102
RTVSPost2010PropOp38
 70
     1
102
RTVSPost2010Prop39
140
1.0
102
RTVSPost2010PropOp39
 70
     1
102
RTVSPost2010Prop40
 90
        0
102
RTVSPost2010PropOp40
 70
     1
102
RTVSPost2010Prop41ColorIndex
 90
       18
102
RTVSPost2010Prop41ColorRGB
 90
        0
102
RTVSPost2010PropOp41
 70
     1
102
RTVSPost2010Prop42
 90
       50
102
RTVSPost2010PropOp42
 70
     1
102
RTVSPost2010Prop43
 90
        3
102
RTVSPost2010PropOp43
 70
     1
102
RTVSPost2010Prop44ColorIndex
 90
        5
102
RTVSPost2010Prop44ColorRGB
 90
      255
102
RTVSPost2010PropOp44
 70
     1
102
RTVSPost2010Prop45
280
     0
102
RTVSPost2010PropOp45
 70
     1
102
RTVSPost2010Prop46
 90
       50
102
RTVSPost2010PropOp46
 70
     1
102
RTVSPost2010Prop47
 90
       50
102
RTVSPost2010PropOp47
 70
     1
102
RTVSPost2010Prop48
 90
       50
102
RTVSPost2010PropOp48
 70
     1
102
RTVSPost2010Prop49
280
     0
102
RTVSPost2010PropOp49
 70
     1
102
RTVSPost2010Prop50
 90
       50
102
RTVSPost2010PropOp50
 70
     1
102
RTVSPost2010Prop51ColorIndex
 90
      256
102
RTVSPost2010Prop51ColorRGB
 90
-16777216
102
RTVSPost2010PropOp51
 70
     0
102
RTVSPost2010Prop52
140
1.0
102
RTVSPost2010PropOp52
 70
     0
102
RTVSPost2010Prop53
 90
        2
102
RTVSPost2010PropOp53
 70
     1
102
RTVSPost2010Prop54
  1
strokes_ogs.tif
102
RTVSPost2010PropOp54
 70
     1
102
RTVSPost2010Prop55
280
     0
102
RTVSPost2010PropOp55
 70
     1
102
RTVSPost2010Prop56
140
1.0
102
RTVSPost2010PropOp56
 70
     1
102
RTVSPost2010Prop57
140
1.0
102
RTVSPost2010PropOp57
 70
     1
102
RTVSPropertyOp0
 70
     1
102
RTVSPropertyOp1
 70
     1
102
RTVSPropertyOp2
 70
     1
102
RTVSPropertyOp3
 70
     1
102
RTVSPropertyOp4
 70
     1
102
RTVSPropertyOp5
 70
     1
102
RTVSPropertyOp6
 70
     1
102
RTVSPropertyOp7
 70
     1
102
RTVSPropertyOp8
 70
     1
102
RTVSPropertyOp9
 70
     1
102
RTVSPropertyOp10
 70
     1
102
RTVSPropertyOp11
 70
     1
102
RTVSPropertyOp12
 70
     1
102
RTVSPropertyOp13
 70
     1
102
RTVSPropertyOp14
 70
     1
102
RTVSPropertyOp15
 70
     1
102
RTVSPropertyOp16
 70
     1
102
RTVSPropertyOp17
 70
     1
102
RTVSPropertyOp18
 70
     1
102
RTVSPropertyOp19
 70
     1
102
RTVSPropertyOp20
 70
     1
102
RTVSPropertyOp21
 70
     1
102
RTVSPropertyOp22
 70
     1
102
RTVSPropertyOp23
 70
     1
102
RTVSPropertyOp24
 70
     1
102
RTVSPropertyOp25
 70
     1
102
RTVSPropertyOp26
 70
     1
102
RTVSPropertyOp27
 70
     1
102
RTVSPropertyOp28
 70
     1
102
RTVSPropertyOp29
 70
     1
102
RTVSPropertyOp30
 70
     1
102
RTVSPropertyOp31
 70
     1
102
RTVSPropertyOp32
 70
     1
102
RTVSPropertyOp33
 70
     1
102
RTVSPropertyOp34
 70
     1
102
RTVSPropertyOp35
 70
     1
102
RTVSPropertyOp36
 70
     1
102
RTVSPropertyOp37
 70
     1
102
RTVSPropertyOp38
 70
     1
102
RTVSPropertyOp39
 70
     1
102
RTVSPropertyOp40
 70
     1
102
RTVSPropertyOp41
 70
     1
102
RTVSPropertyOp42
 70
     1
102
RTVSPropertyOp43
 70
     1
102
RTVSPropertyOp44
 70
     1
102
RTVSPropertyOp45
 70
     1
102
RTVSPropertyOp46
 70
     1
102
RTVSPropertyOp47
 70
     1
102
RTVSPropertyOp48
 70
     1
102
RTVSPropertyOp49
 70
     1
102
RTVSPropertyOp50
 70
     1
102
RTVSPropertyOp51
 70
     0
102
RTVSPropertyOp52
 70
     0
102
RTVSPropertyOp53
 70
     1
102
RTVSPropertyOp54
 70
     1
102
RTVSPropertyOp55
 70
     1
102
RTVSPropertyOp56
 70
     1
102
RTVSPropertyOp57
 70
     1
102
RTVSPropertyOp58
 70
     1
102
RTVSPropertyOp59
 70
     1
102
RTVSPropertyOp60
 70
     1
102
RTVSPropertyOp61
 70
     1
102
RTVSPropertyOp62
 70
     1
  0
XRECORD
  5
33EB
102
{ACAD_REACTORS
330
33EA
102
}
330
33EA
100
AcDbXrecord
280
     1
102
RTVSPost2010Prop28
280
     0
102
RTVSPost2010PropOp28
 70
     1
102
RTVSPost2010Prop29
280
     1
102
RTVSPost2010PropOp29
 70
     1
102
RTVSPost2010Prop30
280
     1
102
RTVSPost2010PropOp30
 70
     1
102
RTVSPost2010Prop31
280
     0
102
RTVSPost2010PropOp31
 70
     1
102
RTVSPost2010Prop32
280
     0
102
RTVSPost2010PropOp32
 70
     1
102
RTVSPost2010Prop33
280
     0
102
RTVSPost2010PropOp33
 70
     1
102
RTVSPost2010Prop34
280
     0
102
RTVSPost2010PropOp34
 70
     1
102
RTVSPost2010Prop35
280
     0
102
RTVSPost2010PropOp35
 70
     1
102
RTVSPost2010Prop36
280
     0
102
RTVSPost2010PropOp36
 70
     1
102
RTVSPost2010Prop37
 90
       50
102
RTVSPost2010PropOp37
 70
     1
102
RTVSPost2010Prop38
140
0.0
102
RTVSPost2010PropOp38
 70
     1
102
RTVSPost2010Prop39
140
1.0
102
RTVSPost2010PropOp39
 70
     1
102
RTVSPost2010Prop40
 90
        0
102
RTVSPost2010PropOp40
 70
     1
102
RTVSPost2010Prop41ColorIndex
 90
       18
102
RTVSPost2010Prop41ColorRGB
 90
        0
102
RTVSPost2010PropOp41
 70
     1
102
RTVSPost2010Prop42
 90
       50
102
RTVSPost2010PropOp42
 70
     1
102
RTVSPost2010Prop43
 90
        3
102
RTVSPost2010PropOp43
 70
     1
102
RTVSPost2010Prop44ColorIndex
 90
        5
102
RTVSPost2010Prop44ColorRGB
 90
      255
102
RTVSPost2010PropOp44
 70
     1
102
RTVSPost2010Prop45
280
     0
102
RTVSPost2010PropOp45
 70
     1
102
RTVSPost2010Prop46
 90
       50
102
RTVSPost2010PropOp46
 70
     1
102
RTVSPost2010Prop47
 90
       50
102
RTVSPost2010PropOp47
 70
     1
102
RTVSPost2010Prop48
 90
       50
102
RTVSPost2010PropOp48
 70
     1
102
RTVSPost2010Prop49
280
     0
102
RTVSPost2010PropOp49
 70
     1
102
RTVSPost2010Prop50
 90
       50
102
RTVSPost2010PropOp50
 70
     1
102
RTVSPost2010Prop51ColorIndex
 90
      256
102
RTVSPost2010Prop51ColorRGB
 90
-16777216
102
RTVSPost2010PropOp51
 70
     0
102
RTVSPost2010Prop52
140
1.0
102
RTVSPost2010PropOp52
 70
     0
102
RTVSPost2010Prop53
 90
        2
102
RTVSPost2010PropOp53
 70
     1
102
RTVSPost2010Prop54
  1
strokes_ogs.tif
102
RTVSPost2010PropOp54
 70
     1
102
RTVSPost2010Prop55
280
     0
102
RTVSPost2010PropOp55
 70
     1
102
RTVSPost2010Prop56
140
1.0
102
RTVSPost2010PropOp56
 70
     1
102
RTVSPost2010Prop57
140
1.0
102
RTVSPost2010PropOp57
 70
     1
102
RTVSPropertyOp0
 70
     1
102
RTVSPropertyOp1
 70
     1
102
RTVSPropertyOp2
 70
     1
102
RTVSPropertyOp3
 70
     1
102
RTVSPropertyOp4
 70
     1
102
RTVSPropertyOp5
 70
     1
102
RTVSPropertyOp6
 70
     1
102
RTVSPropertyOp7
 70
     1
102
RTVSPropertyOp8
 70
     1
102
RTVSPropertyOp9
 70
     1
102
RTVSPropertyOp10
 70
     1
102
RTVSPropertyOp11
 70
     1
102
RTVSPropertyOp12
 70
     1
102
RTVSPropertyOp13
 70
     1
102
RTVSPropertyOp14
 70
     1
102
RTVSPropertyOp15
 70
     1
102
RTVSPropertyOp16
 70
     1
102
RTVSPropertyOp17
 70
     1
102
RTVSPropertyOp18
 70
     1
102
RTVSPropertyOp19
 70
     1
102
RTVSPropertyOp20
 70
     1
102
RTVSPropertyOp21
 70
     1
102
RTVSPropertyOp22
 70
     1
102
RTVSPropertyOp23
 70
     1
102
RTVSPropertyOp24
 70
     1
102
RTVSPropertyOp25
 70
     1
102
RTVSPropertyOp26
 70
     1
102
RTVSPropertyOp27
 70
     1
102
RTVSPropertyOp28
 70
     1
102
RTVSPropertyOp29
 70
     1
102
RTVSPropertyOp30
 70
     1
102
RTVSPropertyOp31
 70
     1
102
RTVSPropertyOp32
 70
     1
102
RTVSPropertyOp33
 70
     1
102
RTVSPropertyOp34
 70
     1
102
RTVSPropertyOp35
 70
     1
102
RTVSPropertyOp36
 70
     1
102
RTVSPropertyOp37
 70
     1
102
RTVSPropertyOp38
 70
     1
102
RTVSPropertyOp39
 70
     1
102
RTVSPropertyOp40
 70
     1
102
RTVSPropertyOp41
 70
     1
102
RTVSPropertyOp42
 70
     1
102
RTVSPropertyOp43
 70
     1
102
RTVSPropertyOp44
 70
     1
102
RTVSPropertyOp45
 70
     1
102
RTVSPropertyOp46
 70
     1
102
RTVSPropertyOp47
 70
     1
102
RTVSPropertyOp48
 70
     1
102
RTVSPropertyOp49
 70
     1
102
RTVSPropertyOp50
 70
     1
102
RTVSPropertyOp51
 70
     0
102
RTVSPropertyOp52
 70
     0
102
RTVSPropertyOp53
 70
     1
102
RTVSPropertyOp54
 70
     1
102
RTVSPropertyOp55
 70
     1
102
RTVSPropertyOp56
 70
     1
102
RTVSPropertyOp57
 70
     1
102
RTVSPropertyOp58
 70
     1
102
RTVSPropertyOp59
 70
     1
102
RTVSPropertyOp60
 70
     1
102
RTVSPropertyOp61
 70
     1
102
RTVSPropertyOp62
 70
     1
  0
XRECORD
  5
33F3
102
{ACAD_REACTORS
330
33F2
102
}
330
33F2
100
AcDbXrecord
280
     1
102
RTVSPost2010Prop28
280
     0
102
RTVSPost2010PropOp28
 70
     1
102
RTVSPost2010Prop29
280
     1
102
RTVSPost2010PropOp29
 70
     1
102
RTVSPost2010Prop30
280
     1
102
RTVSPost2010PropOp30
 70
     1
102
RTVSPost2010Prop31
280
     0
102
RTVSPost2010PropOp31
 70
     1
102
RTVSPost2010Prop32
280
     0
102
RTVSPost2010PropOp32
 70
     1
102
RTVSPost2010Prop33
280
     0
102
RTVSPost2010PropOp33
 70
     1
102
RTVSPost2010Prop34
280
     0
102
RTVSPost2010PropOp34
 70
     1
102
RTVSPost2010Prop35
280
     0
102
RTVSPost2010PropOp35
 70
     1
102
RTVSPost2010Prop36
280
     0
102
RTVSPost2010PropOp36
 70
     1
102
RTVSPost2010Prop37
 90
       50
102
RTVSPost2010PropOp37
 70
     1
102
RTVSPost2010Prop38
140
0.0
102
RTVSPost2010PropOp38
 70
     1
102
RTVSPost2010Prop39
140
1.0
102
RTVSPost2010PropOp39
 70
     1
102
RTVSPost2010Prop40
 90
        0
102
RTVSPost2010PropOp40
 70
     1
102
RTVSPost2010Prop41ColorIndex
 90
       18
102
RTVSPost2010Prop41ColorRGB
 90
        0
102
RTVSPost2010PropOp41
 70
     1
102
RTVSPost2010Prop42
 90
       50
102
RTVSPost2010PropOp42
 70
     1
102
RTVSPost2010Prop43
 90
        3
102
RTVSPost2010PropOp43
 70
     1
102
RTVSPost2010Prop44ColorIndex
 90
        5
102
RTVSPost2010Prop44ColorRGB
 90
      255
102
RTVSPost2010PropOp44
 70
     1
102
RTVSPost2010Prop45
280
     0
102
RTVSPost2010PropOp45
 70
     1
102
RTVSPost2010Prop46
 90
       50
102
RTVSPost2010PropOp46
 70
     1
102
RTVSPost2010Prop47
 90
       50
102
RTVSPost2010PropOp47
 70
     1
102
RTVSPost2010Prop48
 90
       50
102
RTVSPost2010PropOp48
 70
     1
102
RTVSPost2010Prop49
280
     0
102
RTVSPost2010PropOp49
 70
     1
102
RTVSPost2010Prop50
 90
       50
102
RTVSPost2010PropOp50
 70
     1
102
RTVSPost2010Prop51ColorIndex
 90
      256
102
RTVSPost2010Prop51ColorRGB
 90
-16777216
102
RTVSPost2010PropOp51
 70
     0
102
RTVSPost2010Prop52
140
1.0
102
RTVSPost2010PropOp52
 70
     0
102
RTVSPost2010Prop53
 90
        2
102
RTVSPost2010PropOp53
 70
     1
102
RTVSPost2010Prop54
  1
strokes_ogs.tif
102
RTVSPost2010PropOp54
 70
     1
102
RTVSPost2010Prop55
280
     0
102
RTVSPost2010PropOp55
 70
     1
102
RTVSPost2010Prop56
140
1.0
102
RTVSPost2010PropOp56
 70
     1
102
RTVSPost2010Prop57
140
1.0
102
RTVSPost2010PropOp57
 70
     1
102
RTVSPropertyOp0
 70
     1
102
RTVSPropertyOp1
 70
     1
102
RTVSPropertyOp2
 70
     1
102
RTVSPropertyOp3
 70
     1
102
RTVSPropertyOp4
 70
     1
102
RTVSPropertyOp5
 70
     1
102
RTVSPropertyOp6
 70
     1
102
RTVSPropertyOp7
 70
     1
102
RTVSPropertyOp8
 70
     1
102
RTVSPropertyOp9
 70
     1
102
RTVSPropertyOp10
 70
     1
102
RTVSPropertyOp11
 70
     1
102
RTVSPropertyOp12
 70
     1
102
RTVSPropertyOp13
 70
     1
102
RTVSPropertyOp14
 70
     1
102
RTVSPropertyOp15
 70
     1
102
RTVSPropertyOp16
 70
     1
102
RTVSPropertyOp17
 70
     1
102
RTVSPropertyOp18
 70
     1
102
RTVSPropertyOp19
 70
     1
102
RTVSPropertyOp20
 70
     1
102
RTVSPropertyOp21
 70
     1
102
RTVSPropertyOp22
 70
     1
102
RTVSPropertyOp23
 70
     1
102
RTVSPropertyOp24
 70
     1
102
RTVSPropertyOp25
 70
     1
102
RTVSPropertyOp26
 70
     1
102
RTVSPropertyOp27
 70
     1
102
RTVSPropertyOp28
 70
     1
102
RTVSPropertyOp29
 70
     1
102
RTVSPropertyOp30
 70
     1
102
RTVSPropertyOp31
 70
     1
102
RTVSPropertyOp32
 70
     1
102
RTVSPropertyOp33
 70
     1
102
RTVSPropertyOp34
 70
     1
102
RTVSPropertyOp35
 70
     1
102
RTVSPropertyOp36
 70
     1
102
RTVSPropertyOp37
 70
     1
102
RTVSPropertyOp38
 70
     1
102
RTVSPropertyOp39
 70
     1
102
RTVSPropertyOp40
 70
     1
102
RTVSPropertyOp41
 70
     1
102
RTVSPropertyOp42
 70
     1
102
RTVSPropertyOp43
 70
     1
102
RTVSPropertyOp44
 70
     1
102
RTVSPropertyOp45
 70
     1
102
RTVSPropertyOp46
 70
     1
102
RTVSPropertyOp47
 70
     1
102
RTVSPropertyOp48
 70
     1
102
RTVSPropertyOp49
 70
     1
102
RTVSPropertyOp50
 70
     1
102
RTVSPropertyOp51
 70
     0
102
RTVSPropertyOp52
 70
     0
102
RTVSPropertyOp53
 70
     1
102
RTVSPropertyOp54
 70
     1
102
RTVSPropertyOp55
 70
     1
102
RTVSPropertyOp56
 70
     1
102
RTVSPropertyOp57
 70
     1
102
RTVSPropertyOp58
 70
     1
102
RTVSPropertyOp59
 70
     1
102
RTVSPropertyOp60
 70
     1
102
RTVSPropertyOp61
 70
     1
102
RTVSPropertyOp62
 70
     1
  0
XRECORD
  5
340F
102
{ACAD_REACTORS
330
340E
102
}
330
340E
100
AcDbXrecord
280
     1
102
RTVSPost2010Prop28
280
     0
102
RTVSPost2010PropOp28
 70
     1
102
RTVSPost2010Prop29
280
     1
102
RTVSPost2010PropOp29
 70
     1
102
RTVSPost2010Prop30
280
     1
102
RTVSPost2010PropOp30
 70
     1
102
RTVSPost2010Prop31
280
     0
102
RTVSPost2010PropOp31
 70
     1
102
RTVSPost2010Prop32
280
     0
102
RTVSPost2010PropOp32
 70
     1
102
RTVSPost2010Prop33
280
     0
102
RTVSPost2010PropOp33
 70
     1
102
RTVSPost2010Prop34
280
     0
102
RTVSPost2010PropOp34
 70
     1
102
RTVSPost2010Prop35
280
     0
102
RTVSPost2010PropOp35
 70
     1
102
RTVSPost2010Prop36
280
     0
102
RTVSPost2010PropOp36
 70
     1
102
RTVSPost2010Prop37
 90
       50
102
RTVSPost2010PropOp37
 70
     0
102
RTVSPost2010Prop38
140
0.0
102
RTVSPost2010PropOp38
 70
     0
102
RTVSPost2010Prop39
140
1.0
102
RTVSPost2010PropOp39
 70
     0
102
RTVSPost2010Prop40
 90
        0
102
RTVSPost2010PropOp40
 70
     0
102
RTVSPost2010Prop41ColorIndex
 90
       18
102
RTVSPost2010Prop41ColorRGB
 90
        0
102
RTVSPost2010PropOp41
 70
     0
102
RTVSPost2010Prop42
 90
       50
102
RTVSPost2010PropOp42
 70
     0
102
RTVSPost2010Prop43
 90
        3
102
RTVSPost2010PropOp43
 70
     0
102
RTVSPost2010Prop44ColorIndex
 90
        5
102
RTVSPost2010Prop44ColorRGB
 90
      255
102
RTVSPost2010PropOp44
 70
     0
102
RTVSPost2010Prop45
280
     0
102
RTVSPost2010PropOp45
 70
     1
102
RTVSPost2010Prop46
 90
       50
102
RTVSPost2010PropOp46
 70
     0
102
RTVSPost2010Prop47
 90
       50
102
RTVSPost2010PropOp47
 70
     0
102
RTVSPost2010Prop48
 90
       50
102
RTVSPost2010PropOp48
 70
     0
102
RTVSPost2010Prop49
280
     0
102
RTVSPost2010PropOp49
 70
     1
102
RTVSPost2010Prop50
 90
       50
102
RTVSPost2010PropOp50
 70
     0
102
RTVSPost2010Prop51ColorIndex
 90
      256
102
RTVSPost2010Prop51ColorRGB
 90
-16777216
102
RTVSPost2010PropOp51
 70
     0
102
RTVSPost2010Prop52
140
1.0
102
RTVSPost2010PropOp52
 70
     0
102
RTVSPost2010Prop53
 90
        2
102
RTVSPost2010PropOp53
 70
     0
102
RTVSPost2010Prop54
  1
strokes_ogs.tif
102
RTVSPost2010PropOp54
 70
     0
102
RTVSPost2010Prop55
280
     0
102
RTVSPost2010PropOp55
 70
     1
102
RTVSPost2010Prop56
140
1.0
102
RTVSPost2010PropOp56
 70
     0
102
RTVSPost2010Prop57
140
1.0
102
RTVSPost2010PropOp57
 70
     0
102
RTVSPropertyOp0
 70
     0
102
RTVSPropertyOp1
 70
     0
102
RTVSPropertyOp2
 70
     0
102
RTVSPropertyOp3
 70
     0
102
RTVSPropertyOp4
 70
     0
102
RTVSPropertyOp5
 70
     0
102
RTVSPropertyOp6
 70
     0
102
RTVSPropertyOp7
 70
     0
102
RTVSPropertyOp8
 70
     0
102
RTVSPropertyOp9
 70
     0
102
RTVSPropertyOp10
 70
     0
102
RTVSPropertyOp11
 70
     0
102
RTVSPropertyOp12
 70
     0
102
RTVSPropertyOp13
 70
     0
102
RTVSPropertyOp14
 70
     2
102
RTVSPropertyOp15
 70
     0
102
RTVSPropertyOp16
 70
     0
102
RTVSPropertyOp17
 70
     0
102
RTVSPropertyOp18
 70
     0
102
RTVSPropertyOp19
 70
     0
102
RTVSPropertyOp20
 70
     0
102
RTVSPropertyOp21
 70
     0
102
RTVSPropertyOp22
 70
     0
102
RTVSPropertyOp23
 70
     0
102
RTVSPropertyOp24
 70
     0
102
RTVSPropertyOp25
 70
     0
102
RTVSPropertyOp26
 70
     0
102
RTVSPropertyOp27
 70
     0
102
RTVSPropertyOp28
 70
     1
102
RTVSPropertyOp29
 70
     1
102
RTVSPropertyOp30
 70
     1
102
RTVSPropertyOp31
 70
     1
102
RTVSPropertyOp32
 70
     1
102
RTVSPropertyOp33
 70
     1
102
RTVSPropertyOp34
 70
     1
102
RTVSPropertyOp35
 70
     1
102
RTVSPropertyOp36
 70
     1
102
RTVSPropertyOp37
 70
     0
102
RTVSPropertyOp38
 70
     0
102
RTVSPropertyOp39
 70
     0
102
RTVSPropertyOp40
 70
     0
102
RTVSPropertyOp41
 70
     0
102
RTVSPropertyOp42
 70
     0
102
RTVSPropertyOp43
 70
     0
102
RTVSPropertyOp44
 70
     0
102
RTVSPropertyOp45
 70
     1
102
RTVSPropertyOp46
 70
     0
102
RTVSPropertyOp47
 70
     0
102
RTVSPropertyOp48
 70
     0
102
RTVSPropertyOp49
 70
     1
102
RTVSPropertyOp50
 70
     0
102
RTVSPropertyOp51
 70
     0
102
RTVSPropertyOp52
 70
     0
102
RTVSPropertyOp53
 70
     0
102
RTVSPropertyOp54
 70
     0
102
RTVSPropertyOp55
 70
     1
102
RTVSPropertyOp56
 70
     0
102
RTVSPropertyOp57
 70
     0
102
RTVSPropertyOp58
 70
     0
102
RTVSPropertyOp59
 70
     0
102
RTVSPropertyOp60
 70
     0
102
RTVSPropertyOp61
 70
     0
102
RTVSPropertyOp62
 70
     0
  0
XRECORD
  5
33FF
102
{ACAD_REACTORS
330
33FE
102
}
330
33FE
100
AcDbXrecord
280
     1
102
RTVSPost2010Prop28
280
     0
102
RTVSPost2010PropOp28
 70
     1
102
RTVSPost2010Prop29
280
     1
102
RTVSPost2010PropOp29
 70
     1
102
RTVSPost2010Prop30
280
     1
102
RTVSPost2010PropOp30
 70
     1
102
RTVSPost2010Prop31
280
     0
102
RTVSPost2010PropOp31
 70
     1
102
RTVSPost2010Prop32
280
     0
102
RTVSPost2010PropOp32
 70
     1
102
RTVSPost2010Prop33
280
     0
102
RTVSPost2010PropOp33
 70
     1
102
RTVSPost2010Prop34
280
     0
102
RTVSPost2010PropOp34
 70
     1
102
RTVSPost2010Prop35
280
     0
102
RTVSPost2010PropOp35
 70
     1
102
RTVSPost2010Prop36
280
     0
102
RTVSPost2010PropOp36
 70
     1
102
RTVSPost2010Prop37
 90
       50
102
RTVSPost2010PropOp37
 70
     1
102
RTVSPost2010Prop38
140
0.0
102
RTVSPost2010PropOp38
 70
     1
102
RTVSPost2010Prop39
140
1.0
102
RTVSPost2010PropOp39
 70
     1
102
RTVSPost2010Prop40
 90
        0
102
RTVSPost2010PropOp40
 70
     1
102
RTVSPost2010Prop41ColorIndex
 90
       18
102
RTVSPost2010Prop41ColorRGB
 90
        0
102
RTVSPost2010PropOp41
 70
     1
102
RTVSPost2010Prop42
 90
       50
102
RTVSPost2010PropOp42
 70
     1
102
RTVSPost2010Prop43
 90
        3
102
RTVSPost2010PropOp43
 70
     1
102
RTVSPost2010Prop44ColorIndex
 90
        5
102
RTVSPost2010Prop44ColorRGB
 90
      255
102
RTVSPost2010PropOp44
 70
     1
102
RTVSPost2010Prop45
280
     0
102
RTVSPost2010PropOp45
 70
     1
102
RTVSPost2010Prop46
 90
       50
102
RTVSPost2010PropOp46
 70
     1
102
RTVSPost2010Prop47
 90
       50
102
RTVSPost2010PropOp47
 70
     1
102
RTVSPost2010Prop48
 90
       50
102
RTVSPost2010PropOp48
 70
     1
102
RTVSPost2010Prop49
280
     0
102
RTVSPost2010PropOp49
 70
     1
102
RTVSPost2010Prop50
 90
       50
102
RTVSPost2010PropOp50
 70
     1
102
RTVSPost2010Prop51ColorIndex
 90
      256
102
RTVSPost2010Prop51ColorRGB
 90
-16777216
102
RTVSPost2010PropOp51
 70
     0
102
RTVSPost2010Prop52
140
1.0
102
RTVSPost2010PropOp52
 70
     0
102
RTVSPost2010Prop53
 90
        2
102
RTVSPost2010PropOp53
 70
     1
102
RTVSPost2010Prop54
  1
strokes_ogs.tif
102
RTVSPost2010PropOp54
 70
     1
102
RTVSPost2010Prop55
280
     0
102
RTVSPost2010PropOp55
 70
     1
102
RTVSPost2010Prop56
140
1.0
102
RTVSPost2010PropOp56
 70
     1
102
RTVSPost2010Prop57
140
1.0
102
RTVSPost2010PropOp57
 70
     1
102
RTVSPropertyOp0
 70
     1
102
RTVSPropertyOp1
 70
     1
102
RTVSPropertyOp2
 70
     1
102
RTVSPropertyOp3
 70
     1
102
RTVSPropertyOp4
 70
     1
102
RTVSPropertyOp5
 70
     1
102
RTVSPropertyOp6
 70
     1
102
RTVSPropertyOp7
 70
     1
102
RTVSPropertyOp8
 70
     1
102
RTVSPropertyOp9
 70
     1
102
RTVSPropertyOp10
 70
     1
102
RTVSPropertyOp11
 70
     1
102
RTVSPropertyOp12
 70
     1
102
RTVSPropertyOp13
 70
     1
102
RTVSPropertyOp14
 70
     1
102
RTVSPropertyOp15
 70
     1
102
RTVSPropertyOp16
 70
     1
102
RTVSPropertyOp17
 70
     1
102
RTVSPropertyOp18
 70
     1
102
RTVSPropertyOp19
 70
     1
102
RTVSPropertyOp20
 70
     1
102
RTVSPropertyOp21
 70
     1
102
RTVSPropertyOp22
 70
     1
102
RTVSPropertyOp23
 70
     1
102
RTVSPropertyOp24
 70
     1
102
RTVSPropertyOp25
 70
     1
102
RTVSPropertyOp26
 70
     1
102
RTVSPropertyOp27
 70
     1
102
RTVSPropertyOp28
 70
     1
102
RTVSPropertyOp29
 70
     1
102
RTVSPropertyOp30
 70
     1
102
RTVSPropertyOp31
 70
     1
102
RTVSPropertyOp32
 70
     1
102
RTVSPropertyOp33
 70
     1
102
RTVSPropertyOp34
 70
     1
102
RTVSPropertyOp35
 70
     1
102
RTVSPropertyOp36
 70
     1
102
RTVSPropertyOp37
 70
     1
102
RTVSPropertyOp38
 70
     1
102
RTVSPropertyOp39
 70
     1
102
RTVSPropertyOp40
 70
     1
102
RTVSPropertyOp41
 70
     1
102
RTVSPropertyOp42
 70
     1
102
RTVSPropertyOp43
 70
     1
102
RTVSPropertyOp44
 70
     1
102
RTVSPropertyOp45
 70
     1
102
RTVSPropertyOp46
 70
     1
102
RTVSPropertyOp47
 70
     1
102
RTVSPropertyOp48
 70
     1
102
RTVSPropertyOp49
 70
     1
102
RTVSPropertyOp50
 70
     1
102
RTVSPropertyOp51
 70
     0
102
RTVSPropertyOp52
 70
     0
102
RTVSPropertyOp53
 70
     1
102
RTVSPropertyOp54
 70
     1
102
RTVSPropertyOp55
 70
     1
102
RTVSPropertyOp56
 70
     1
102
RTVSPropertyOp57
 70
     1
102
RTVSPropertyOp58
 70
     1
102
RTVSPropertyOp59
 70
     1
102
RTVSPropertyOp60
 70
     1
102
RTVSPropertyOp61
 70
     1
102
RTVSPropertyOp62
 70
     1
  0
XRECORD
  5
3411
102
{ACAD_REACTORS
330
3410
102
}
330
3410
100
AcDbXrecord
280
     1
102
RTVSPost2010Prop28
280
     0
102
RTVSPost2010PropOp28
 70
     1
102
RTVSPost2010Prop29
280
     1
102
RTVSPost2010PropOp29
 70
     1
102
RTVSPost2010Prop30
280
     1
102
RTVSPost2010PropOp30
 70
     1
102
RTVSPost2010Prop31
280
     0
102
RTVSPost2010PropOp31
 70
     1
102
RTVSPost2010Prop32
280
     0
102
RTVSPost2010PropOp32
 70
     1
102
RTVSPost2010Prop33
280
     0
102
RTVSPost2010PropOp33
 70
     1
102
RTVSPost2010Prop34
280
     0
102
RTVSPost2010PropOp34
 70
     1
102
RTVSPost2010Prop35
280
     0
102
RTVSPost2010PropOp35
 70
     1
102
RTVSPost2010Prop36
280
     0
102
RTVSPost2010PropOp36
 70
     1
102
RTVSPost2010Prop37
 90
       50
102
RTVSPost2010PropOp37
 70
     0
102
RTVSPost2010Prop38
140
0.0
102
RTVSPost2010PropOp38
 70
     0
102
RTVSPost2010Prop39
140
1.0
102
RTVSPost2010PropOp39
 70
     0
102
RTVSPost2010Prop40
 90
        0
102
RTVSPost2010PropOp40
 70
     0
102
RTVSPost2010Prop41ColorIndex
 90
       18
102
RTVSPost2010Prop41ColorRGB
 90
        0
102
RTVSPost2010PropOp41
 70
     0
102
RTVSPost2010Prop42
 90
       50
102
RTVSPost2010PropOp42
 70
     0
102
RTVSPost2010Prop43
 90
        3
102
RTVSPost2010PropOp43
 70
     0
102
RTVSPost2010Prop44ColorIndex
 90
        5
102
RTVSPost2010Prop44ColorRGB
 90
      255
102
RTVSPost2010PropOp44
 70
     0
102
RTVSPost2010Prop45
280
     0
102
RTVSPost2010PropOp45
 70
     1
102
RTVSPost2010Prop46
 90
       50
102
RTVSPost2010PropOp46
 70
     0
102
RTVSPost2010Prop47
 90
       50
102
RTVSPost2010PropOp47
 70
     0
102
RTVSPost2010Prop48
 90
       50
102
RTVSPost2010PropOp48
 70
     0
102
RTVSPost2010Prop49
280
     0
102
RTVSPost2010PropOp49
 70
     1
102
RTVSPost2010Prop50
 90
       50
102
RTVSPost2010PropOp50
 70
     0
102
RTVSPost2010Prop51ColorIndex
 90
      256
102
RTVSPost2010Prop51ColorRGB
 90
-16777216
102
RTVSPost2010PropOp51
 70
     0
102
RTVSPost2010Prop52
140
1.0
102
RTVSPost2010PropOp52
 70
     0
102
RTVSPost2010Prop53
 90
        2
102
RTVSPost2010PropOp53
 70
     0
102
RTVSPost2010Prop54
  1
strokes_ogs.tif
102
RTVSPost2010PropOp54
 70
     0
102
RTVSPost2010Prop55
280
     0
102
RTVSPost2010PropOp55
 70
     1
102
RTVSPost2010Prop56
140
1.0
102
RTVSPost2010PropOp56
 70
     0
102
RTVSPost2010Prop57
140
1.0
102
RTVSPost2010PropOp57
 70
     0
102
RTVSPropertyOp0
 70
     0
102
RTVSPropertyOp1
 70
     0
102
RTVSPropertyOp2
 70
     0
102
RTVSPropertyOp3
 70
     0
102
RTVSPropertyOp4
 70
     0
102
RTVSPropertyOp5
 70
     0
102
RTVSPropertyOp6
 70
     0
102
RTVSPropertyOp7
 70
     0
102
RTVSPropertyOp8
 70
     0
102
RTVSPropertyOp9
 70
     0
102
RTVSPropertyOp10
 70
     0
102
RTVSPropertyOp11
 70
     0
102
RTVSPropertyOp12
 70
     0
102
RTVSPropertyOp13
 70
     0
102
RTVSPropertyOp14
 70
     2
102
RTVSPropertyOp15
 70
     0
102
RTVSPropertyOp16
 70
     0
102
RTVSPropertyOp17
 70
     0
102
RTVSPropertyOp18
 70
     0
102
RTVSPropertyOp19
 70
     0
102
RTVSPropertyOp20
 70
     0
102
RTVSPropertyOp21
 70
     0
102
RTVSPropertyOp22
 70
     0
102
RTVSPropertyOp23
 70
     0
102
RTVSPropertyOp24
 70
     0
102
RTVSPropertyOp25
 70
     0
102
RTVSPropertyOp26
 70
     0
102
RTVSPropertyOp27
 70
     0
102
RTVSPropertyOp28
 70
     1
102
RTVSPropertyOp29
 70
     1
102
RTVSPropertyOp30
 70
     1
102
RTVSPropertyOp31
 70
     1
102
RTVSPropertyOp32
 70
     1
102
RTVSPropertyOp33
 70
     1
102
RTVSPropertyOp34
 70
     1
102
RTVSPropertyOp35
 70
     1
102
RTVSPropertyOp36
 70
     1
102
RTVSPropertyOp37
 70
     0
102
RTVSPropertyOp38
 70
     0
102
RTVSPropertyOp39
 70
     0
102
RTVSPropertyOp40
 70
     0
102
RTVSPropertyOp41
 70
     0
102
RTVSPropertyOp42
 70
     0
102
RTVSPropertyOp43
 70
     0
102
RTVSPropertyOp44
 70
     0
102
RTVSPropertyOp45
 70
     1
102
RTVSPropertyOp46
 70
     0
102
RTVSPropertyOp47
 70
     0
102
RTVSPropertyOp48
 70
     0
102
RTVSPropertyOp49
 70
     1
102
RTVSPropertyOp50
 70
     0
102
RTVSPropertyOp51
 70
     0
102
RTVSPropertyOp52
 70
     0
102
RTVSPropertyOp53
 70
     0
102
RTVSPropertyOp54
 70
     0
102
RTVSPropertyOp55
 70
     1
102
RTVSPropertyOp56
 70
     0
102
RTVSPropertyOp57
 70
     0
102
RTVSPropertyOp58
 70
     0
102
RTVSPropertyOp59
 70
     0
102
RTVSPropertyOp60
 70
     0
102
RTVSPropertyOp61
 70
     0
102
RTVSPropertyOp62
 70
     0
  0
XRECORD
  5
33F7
102
{ACAD_REACTORS
330
33F6
102
}
330
33F6
100
AcDbXrecord
280
     1
102
RTVSPost2010Prop28
280
     0
102
RTVSPost2010PropOp28
 70
     1
102
RTVSPost2010Prop29
280
     1
102
RTVSPost2010PropOp29
 70
     1
102
RTVSPost2010Prop30
280
     1
102
RTVSPost2010PropOp30
 70
     1
102
RTVSPost2010Prop31
280
     0
102
RTVSPost2010PropOp31
 70
     1
102
RTVSPost2010Prop32
280
     0
102
RTVSPost2010PropOp32
 70
     1
102
RTVSPost2010Prop33
280
     0
102
RTVSPost2010PropOp33
 70
     1
102
RTVSPost2010Prop34
280
     0
102
RTVSPost2010PropOp34
 70
     1
102
RTVSPost2010Prop35
280
     0
102
RTVSPost2010PropOp35
 70
     1
102
RTVSPost2010Prop36
280
     0
102
RTVSPost2010PropOp36
 70
     1
102
RTVSPost2010Prop37
 90
       50
102
RTVSPost2010PropOp37
 70
     1
102
RTVSPost2010Prop38
140
0.0
102
RTVSPost2010PropOp38
 70
     1
102
RTVSPost2010Prop39
140
1.0
102
RTVSPost2010PropOp39
 70
     1
102
RTVSPost2010Prop40
 90
        0
102
RTVSPost2010PropOp40
 70
     1
102
RTVSPost2010Prop41ColorIndex
 90
       18
102
RTVSPost2010Prop41ColorRGB
 90
        0
102
RTVSPost2010PropOp41
 70
     1
102
RTVSPost2010Prop42
 90
       50
102
RTVSPost2010PropOp42
 70
     1
102
RTVSPost2010Prop43
 90
        3
102
RTVSPost2010PropOp43
 70
     1
102
RTVSPost2010Prop44ColorIndex
 90
        5
102
RTVSPost2010Prop44ColorRGB
 90
      255
102
RTVSPost2010PropOp44
 70
     1
102
RTVSPost2010Prop45
280
     0
102
RTVSPost2010PropOp45
 70
     1
102
RTVSPost2010Prop46
 90
       50
102
RTVSPost2010PropOp46
 70
     1
102
RTVSPost2010Prop47
 90
       50
102
RTVSPost2010PropOp47
 70
     1
102
RTVSPost2010Prop48
 90
       50
102
RTVSPost2010PropOp48
 70
     1
102
RTVSPost2010Prop49
280
     0
102
RTVSPost2010PropOp49
 70
     1
102
RTVSPost2010Prop50
 90
       50
102
RTVSPost2010PropOp50
 70
     1
102
RTVSPost2010Prop51ColorIndex
 90
      256
102
RTVSPost2010Prop51ColorRGB
 90
-16777216
102
RTVSPost2010PropOp51
 70
     0
102
RTVSPost2010Prop52
140
1.0
102
RTVSPost2010PropOp52
 70
     0
102
RTVSPost2010Prop53
 90
        2
102
RTVSPost2010PropOp53
 70
     1
102
RTVSPost2010Prop54
  1
strokes_ogs.tif
102
RTVSPost2010PropOp54
 70
     1
102
RTVSPost2010Prop55
280
     0
102
RTVSPost2010PropOp55
 70
     1
102
RTVSPost2010Prop56
140
1.0
102
RTVSPost2010PropOp56
 70
     1
102
RTVSPost2010Prop57
140
1.0
102
RTVSPost2010PropOp57
 70
     1
102
RTVSPropertyOp0
 70
     1
102
RTVSPropertyOp1
 70
     1
102
RTVSPropertyOp2
 70
     1
102
RTVSPropertyOp3
 70
     1
102
RTVSPropertyOp4
 70
     1
102
RTVSPropertyOp5
 70
     1
102
RTVSPropertyOp6
 70
     1
102
RTVSPropertyOp7
 70
     1
102
RTVSPropertyOp8
 70
     1
102
RTVSPropertyOp9
 70
     1
102
RTVSPropertyOp10
 70
     1
102
RTVSPropertyOp11
 70
     1
102
RTVSPropertyOp12
 70
     1
102
RTVSPropertyOp13
 70
     1
102
RTVSPropertyOp14
 70
     1
102
RTVSPropertyOp15
 70
     1
102
RTVSPropertyOp16
 70
     1
102
RTVSPropertyOp17
 70
     1
102
RTVSPropertyOp18
 70
     1
102
RTVSPropertyOp19
 70
     1
102
RTVSPropertyOp20
 70
     1
102
RTVSPropertyOp21
 70
     1
102
RTVSPropertyOp22
 70
     1
102
RTVSPropertyOp23
 70
     1
102
RTVSPropertyOp24
 70
     1
102
RTVSPropertyOp25
 70
     1
102
RTVSPropertyOp26
 70
     1
102
RTVSPropertyOp27
 70
     1
102
RTVSPropertyOp28
 70
     1
102
RTVSPropertyOp29
 70
     1
102
RTVSPropertyOp30
 70
     1
102
RTVSPropertyOp31
 70
     1
102
RTVSPropertyOp32
 70
     1
102
RTVSPropertyOp33
 70
     1
102
RTVSPropertyOp34
 70
     1
102
RTVSPropertyOp35
 70
     1
102
RTVSPropertyOp36
 70
     1
102
RTVSPropertyOp37
 70
     1
102
RTVSPropertyOp38
 70
     1
102
RTVSPropertyOp39
 70
     1
102
RTVSPropertyOp40
 70
     1
102
RTVSPropertyOp41
 70
     1
102
RTVSPropertyOp42
 70
     1
102
RTVSPropertyOp43
 70
     1
102
RTVSPropertyOp44
 70
     1
102
RTVSPropertyOp45
 70
     1
102
RTVSPropertyOp46
 70
     1
102
RTVSPropertyOp47
 70
     1
102
RTVSPropertyOp48
 70
     1
102
RTVSPropertyOp49
 70
     1
102
RTVSPropertyOp50
 70
     1
102
RTVSPropertyOp51
 70
     0
102
RTVSPropertyOp52
 70
     0
102
RTVSPropertyOp53
 70
     1
102
RTVSPropertyOp54
 70
     1
102
RTVSPropertyOp55
 70
     1
102
RTVSPropertyOp56
 70
     1
102
RTVSPropertyOp57
 70
     1
102
RTVSPropertyOp58
 70
     1
102
RTVSPropertyOp59
 70
     1
102
RTVSPropertyOp60
 70
     1
102
RTVSPropertyOp61
 70
     1
102
RTVSPropertyOp62
 70
     1
  0
XRECORD
  5
340D
102
{ACAD_REACTORS
330
340C
102
}
330
340C
100
AcDbXrecord
280
     1
102
RTVSPost2010Prop28
280
     0
102
RTVSPost2010PropOp28
 70
     1
102
RTVSPost2010Prop29
280
     1
102
RTVSPost2010PropOp29
 70
     1
102
RTVSPost2010Prop30
280
     1
102
RTVSPost2010PropOp30
 70
     1
102
RTVSPost2010Prop31
280
     0
102
RTVSPost2010PropOp31
 70
     1
102
RTVSPost2010Prop32
280
     0
102
RTVSPost2010PropOp32
 70
     1
102
RTVSPost2010Prop33
280
     0
102
RTVSPost2010PropOp33
 70
     1
102
RTVSPost2010Prop34
280
     0
102
RTVSPost2010PropOp34
 70
     1
102
RTVSPost2010Prop35
280
     0
102
RTVSPost2010PropOp35
 70
     1
102
RTVSPost2010Prop36
280
     0
102
RTVSPost2010PropOp36
 70
     1
102
RTVSPost2010Prop37
 90
       50
102
RTVSPost2010PropOp37
 70
     1
102
RTVSPost2010Prop38
140
0.0
102
RTVSPost2010PropOp38
 70
     1
102
RTVSPost2010Prop39
140
1.0
102
RTVSPost2010PropOp39
 70
     1
102
RTVSPost2010Prop40
 90
        0
102
RTVSPost2010PropOp40
 70
     1
102
RTVSPost2010Prop41ColorIndex
 90
       18
102
RTVSPost2010Prop41ColorRGB
 90
        0
102
RTVSPost2010PropOp41
 70
     1
102
RTVSPost2010Prop42
 90
       50
102
RTVSPost2010PropOp42
 70
     1
102
RTVSPost2010Prop43
 90
        3
102
RTVSPost2010PropOp43
 70
     1
102
RTVSPost2010Prop44ColorIndex
 90
        5
102
RTVSPost2010Prop44ColorRGB
 90
      255
102
RTVSPost2010PropOp44
 70
     1
102
RTVSPost2010Prop45
280
     0
102
RTVSPost2010PropOp45
 70
     1
102
RTVSPost2010Prop46
 90
       50
102
RTVSPost2010PropOp46
 70
     1
102
RTVSPost2010Prop47
 90
       50
102
RTVSPost2010PropOp47
 70
     1
102
RTVSPost2010Prop48
 90
       50
102
RTVSPost2010PropOp48
 70
     1
102
RTVSPost2010Prop49
280
     0
102
RTVSPost2010PropOp49
 70
     1
102
RTVSPost2010Prop50
 90
       50
102
RTVSPost2010PropOp50
 70
     1
102
RTVSPost2010Prop51ColorIndex
 90
      256
102
RTVSPost2010Prop51ColorRGB
 90
-16777216
102
RTVSPost2010PropOp51
 70
     0
102
RTVSPost2010Prop52
140
1.0
102
RTVSPost2010PropOp52
 70
     0
102
RTVSPost2010Prop53
 90
        2
102
RTVSPost2010PropOp53
 70
     1
102
RTVSPost2010Prop54
  1
strokes_ogs.tif
102
RTVSPost2010PropOp54
 70
     1
102
RTVSPost2010Prop55
280
     0
102
RTVSPost2010PropOp55
 70
     1
102
RTVSPost2010Prop56
140
1.0
102
RTVSPost2010PropOp56
 70
     1
102
RTVSPost2010Prop57
140
1.0
102
RTVSPost2010PropOp57
 70
     1
102
RTVSPropertyOp0
 70
     1
102
RTVSPropertyOp1
 70
     1
102
RTVSPropertyOp2
 70
     1
102
RTVSPropertyOp3
 70
     1
102
RTVSPropertyOp4
 70
     1
102
RTVSPropertyOp5
 70
     1
102
RTVSPropertyOp6
 70
     1
102
RTVSPropertyOp7
 70
     1
102
RTVSPropertyOp8
 70
     1
102
RTVSPropertyOp9
 70
     1
102
RTVSPropertyOp10
 70
     1
102
RTVSPropertyOp11
 70
     1
102
RTVSPropertyOp12
 70
     1
102
RTVSPropertyOp13
 70
     1
102
RTVSPropertyOp14
 70
     1
102
RTVSPropertyOp15
 70
     1
102
RTVSPropertyOp16
 70
     1
102
RTVSPropertyOp17
 70
     1
102
RTVSPropertyOp18
 70
     1
102
RTVSPropertyOp19
 70
     1
102
RTVSPropertyOp20
 70
     1
102
RTVSPropertyOp21
 70
     1
102
RTVSPropertyOp22
 70
     1
102
RTVSPropertyOp23
 70
     1
102
RTVSPropertyOp24
 70
     1
102
RTVSPropertyOp25
 70
     1
102
RTVSPropertyOp26
 70
     1
102
RTVSPropertyOp27
 70
     1
102
RTVSPropertyOp28
 70
     1
102
RTVSPropertyOp29
 70
     1
102
RTVSPropertyOp30
 70
     1
102
RTVSPropertyOp31
 70
     1
102
RTVSPropertyOp32
 70
     1
102
RTVSPropertyOp33
 70
     1
102
RTVSPropertyOp34
 70
     1
102
RTVSPropertyOp35
 70
     1
102
RTVSPropertyOp36
 70
     1
102
RTVSPropertyOp37
 70
     1
102
RTVSPropertyOp38
 70
     1
102
RTVSPropertyOp39
 70
     1
102
RTVSPropertyOp40
 70
     1
102
RTVSPropertyOp41
 70
     1
102
RTVSPropertyOp42
 70
     1
102
RTVSPropertyOp43
 70
     1
102
RTVSPropertyOp44
 70
     1
102
RTVSPropertyOp45
 70
     1
102
RTVSPropertyOp46
 70
     1
102
RTVSPropertyOp47
 70
     1
102
RTVSPropertyOp48
 70
     1
102
RTVSPropertyOp49
 70
     1
102
RTVSPropertyOp50
 70
     1
102
RTVSPropertyOp51
 70
     0
102
RTVSPropertyOp52
 70
     0
102
RTVSPropertyOp53
 70
     1
102
RTVSPropertyOp54
 70
     1
102
RTVSPropertyOp55
 70
     1
102
RTVSPropertyOp56
 70
     1
102
RTVSPropertyOp57
 70
     1
102
RTVSPropertyOp58
 70
     1
102
RTVSPropertyOp59
 70
     1
102
RTVSPropertyOp60
 70
     1
102
RTVSPropertyOp61
 70
     1
102
RTVSPropertyOp62
 70
     1
  0
XRECORD
  5
340B
102
{ACAD_REACTORS
330
340A
102
}
330
340A
100
AcDbXrecord
280
     1
102
RTVSPost2010Prop28
280
     0
102
RTVSPost2010PropOp28
 70
     1
102
RTVSPost2010Prop29
280
     1
102
RTVSPost2010PropOp29
 70
     1
102
RTVSPost2010Prop30
280
     1
102
RTVSPost2010PropOp30
 70
     1
102
RTVSPost2010Prop31
280
     0
102
RTVSPost2010PropOp31
 70
     1
102
RTVSPost2010Prop32
280
     0
102
RTVSPost2010PropOp32
 70
     1
102
RTVSPost2010Prop33
280
     0
102
RTVSPost2010PropOp33
 70
     1
102
RTVSPost2010Prop34
280
     0
102
RTVSPost2010PropOp34
 70
     1
102
RTVSPost2010Prop35
280
     0
102
RTVSPost2010PropOp35
 70
     1
102
RTVSPost2010Prop36
280
     0
102
RTVSPost2010PropOp36
 70
     1
102
RTVSPost2010Prop37
 90
       50
102
RTVSPost2010PropOp37
 70
     1
102
RTVSPost2010Prop38
140
0.0
102
RTVSPost2010PropOp38
 70
     1
102
RTVSPost2010Prop39
140
1.0
102
RTVSPost2010PropOp39
 70
     1
102
RTVSPost2010Prop40
 90
        0
102
RTVSPost2010PropOp40
 70
     1
102
RTVSPost2010Prop41ColorIndex
 90
       18
102
RTVSPost2010Prop41ColorRGB
 90
        0
102
RTVSPost2010PropOp41
 70
     1
102
RTVSPost2010Prop42
 90
       50
102
RTVSPost2010PropOp42
 70
     1
102
RTVSPost2010Prop43
 90
        3
102
RTVSPost2010PropOp43
 70
     1
102
RTVSPost2010Prop44ColorIndex
 90
        5
102
RTVSPost2010Prop44ColorRGB
 90
      255
102
RTVSPost2010PropOp44
 70
     1
102
RTVSPost2010Prop45
280
     0
102
RTVSPost2010PropOp45
 70
     1
102
RTVSPost2010Prop46
 90
       50
102
RTVSPost2010PropOp46
 70
     1
102
RTVSPost2010Prop47
 90
       50
102
RTVSPost2010PropOp47
 70
     1
102
RTVSPost2010Prop48
 90
       50
102
RTVSPost2010PropOp48
 70
     1
102
RTVSPost2010Prop49
280
     0
102
RTVSPost2010PropOp49
 70
     1
102
RTVSPost2010Prop50
 90
       50
102
RTVSPost2010PropOp50
 70
     1
102
RTVSPost2010Prop51ColorIndex
 90
      256
102
RTVSPost2010Prop51ColorRGB
 90
-16777216
102
RTVSPost2010PropOp51
 70
     0
102
RTVSPost2010Prop52
140
1.0
102
RTVSPost2010PropOp52
 70
     0
102
RTVSPost2010Prop53
 90
        2
102
RTVSPost2010PropOp53
 70
     1
102
RTVSPost2010Prop54
  1
strokes_ogs.tif
102
RTVSPost2010PropOp54
 70
     1
102
RTVSPost2010Prop55
280
     0
102
RTVSPost2010PropOp55
 70
     1
102
RTVSPost2010Prop56
140
1.0
102
RTVSPost2010PropOp56
 70
     1
102
RTVSPost2010Prop57
140
1.0
102
RTVSPost2010PropOp57
 70
     1
102
RTVSPropertyOp0
 70
     1
102
RTVSPropertyOp1
 70
     1
102
RTVSPropertyOp2
 70
     1
102
RTVSPropertyOp3
 70
     1
102
RTVSPropertyOp4
 70
     1
102
RTVSPropertyOp5
 70
     1
102
RTVSPropertyOp6
 70
     1
102
RTVSPropertyOp7
 70
     1
102
RTVSPropertyOp8
 70
     1
102
RTVSPropertyOp9
 70
     1
102
RTVSPropertyOp10
 70
     1
102
RTVSPropertyOp11
 70
     1
102
RTVSPropertyOp12
 70
     1
102
RTVSPropertyOp13
 70
     1
102
RTVSPropertyOp14
 70
     1
102
RTVSPropertyOp15
 70
     1
102
RTVSPropertyOp16
 70
     1
102
RTVSPropertyOp17
 70
     1
102
RTVSPropertyOp18
 70
     1
102
RTVSPropertyOp19
 70
     1
102
RTVSPropertyOp20
 70
     1
102
RTVSPropertyOp21
 70
     1
102
RTVSPropertyOp22
 70
     1
102
RTVSPropertyOp23
 70
     1
102
RTVSPropertyOp24
 70
     1
102
RTVSPropertyOp25
 70
     1
102
RTVSPropertyOp26
 70
     1
102
RTVSPropertyOp27
 70
     1
102
RTVSPropertyOp28
 70
     1
102
RTVSPropertyOp29
 70
     1
102
RTVSPropertyOp30
 70
     1
102
RTVSPropertyOp31
 70
     1
102
RTVSPropertyOp32
 70
     1
102
RTVSPropertyOp33
 70
     1
102
RTVSPropertyOp34
 70
     1
102
RTVSPropertyOp35
 70
     1
102
RTVSPropertyOp36
 70
     1
102
RTVSPropertyOp37
 70
     1
102
RTVSPropertyOp38
 70
     1
102
RTVSPropertyOp39
 70
     1
102
RTVSPropertyOp40
 70
     1
102
RTVSPropertyOp41
 70
     1
102
RTVSPropertyOp42
 70
     1
102
RTVSPropertyOp43
 70
     1
102
RTVSPropertyOp44
 70
     1
102
RTVSPropertyOp45
 70
     1
102
RTVSPropertyOp46
 70
     1
102
RTVSPropertyOp47
 70
     1
102
RTVSPropertyOp48
 70
     1
102
RTVSPropertyOp49
 70
     1
102
RTVSPropertyOp50
 70
     1
102
RTVSPropertyOp51
 70
     0
102
RTVSPropertyOp52
 70
     0
102
RTVSPropertyOp53
 70
     1
102
RTVSPropertyOp54
 70
     1
102
RTVSPropertyOp55
 70
     1
102
RTVSPropertyOp56
 70
     1
102
RTVSPropertyOp57
 70
     1
102
RTVSPropertyOp58
 70
     1
102
RTVSPropertyOp59
 70
     1
102
RTVSPropertyOp60
 70
     1
102
RTVSPropertyOp61
 70
     1
102
RTVSPropertyOp62
 70
     1
  0
XRECORD
  5
3405
102
{ACAD_REACTORS
330
3404
102
}
330
3404
100
AcDbXrecord
280
     1
102
RTVSPost2010Prop28
280
     0
102
RTVSPost2010PropOp28
 70
     1
102
RTVSPost2010Prop29
280
     1
102
RTVSPost2010PropOp29
 70
     1
102
RTVSPost2010Prop30
280
     1
102
RTVSPost2010PropOp30
 70
     1
102
RTVSPost2010Prop31
280
     0
102
RTVSPost2010PropOp31
 70
     1
102
RTVSPost2010Prop32
280
     0
102
RTVSPost2010PropOp32
 70
     1
102
RTVSPost2010Prop33
280
     0
102
RTVSPost2010PropOp33
 70
     1
102
RTVSPost2010Prop34
280
     0
102
RTVSPost2010PropOp34
 70
     1
102
RTVSPost2010Prop35
280
     0
102
RTVSPost2010PropOp35
 70
     1
102
RTVSPost2010Prop36
280
     0
102
RTVSPost2010PropOp36
 70
     1
102
RTVSPost2010Prop37
 90
       50
102
RTVSPost2010PropOp37
 70
     1
102
RTVSPost2010Prop38
140
0.0
102
RTVSPost2010PropOp38
 70
     1
102
RTVSPost2010Prop39
140
1.0
102
RTVSPost2010PropOp39
 70
     1
102
RTVSPost2010Prop40
 90
        0
102
RTVSPost2010PropOp40
 70
     1
102
RTVSPost2010Prop41ColorIndex
 90
       18
102
RTVSPost2010Prop41ColorRGB
 90
        0
102
RTVSPost2010PropOp41
 70
     1
102
RTVSPost2010Prop42
 90
       50
102
RTVSPost2010PropOp42
 70
     1
102
RTVSPost2010Prop43
 90
        3
102
RTVSPost2010PropOp43
 70
     1
102
RTVSPost2010Prop44ColorIndex
 90
        5
102
RTVSPost2010Prop44ColorRGB
 90
      255
102
RTVSPost2010PropOp44
 70
     1
102
RTVSPost2010Prop45
280
     0
102
RTVSPost2010PropOp45
 70
     1
102
RTVSPost2010Prop46
 90
       50
102
RTVSPost2010PropOp46
 70
     1
102
RTVSPost2010Prop47
 90
       50
102
RTVSPost2010PropOp47
 70
     1
102
RTVSPost2010Prop48
 90
       50
102
RTVSPost2010PropOp48
 70
     1
102
RTVSPost2010Prop49
280
     0
102
RTVSPost2010PropOp49
 70
     1
102
RTVSPost2010Prop50
 90
       50
102
RTVSPost2010PropOp50
 70
     1
102
RTVSPost2010Prop51ColorIndex
 90
      256
102
RTVSPost2010Prop51ColorRGB
 90
-16777216
102
RTVSPost2010PropOp51
 70
     0
102
RTVSPost2010Prop52
140
1.0
102
RTVSPost2010PropOp52
 70
     0
102
RTVSPost2010Prop53
 90
        2
102
RTVSPost2010PropOp53
 70
     1
102
RTVSPost2010Prop54
  1
strokes_ogs.tif
102
RTVSPost2010PropOp54
 70
     1
102
RTVSPost2010Prop55
280
     0
102
RTVSPost2010PropOp55
 70
     1
102
RTVSPost2010Prop56
140
1.0
102
RTVSPost2010PropOp56
 70
     1
102
RTVSPost2010Prop57
140
1.0
102
RTVSPost2010PropOp57
 70
     1
102
RTVSPropertyOp0
 70
     1
102
RTVSPropertyOp1
 70
     1
102
RTVSPropertyOp2
 70
     1
102
RTVSPropertyOp3
 70
     1
102
RTVSPropertyOp4
 70
     1
102
RTVSPropertyOp5
 70
     1
102
RTVSPropertyOp6
 70
     1
102
RTVSPropertyOp7
 70
     1
102
RTVSPropertyOp8
 70
     1
102
RTVSPropertyOp9
 70
     1
102
RTVSPropertyOp10
 70
     1
102
RTVSPropertyOp11
 70
     1
102
RTVSPropertyOp12
 70
     1
102
RTVSPropertyOp13
 70
     1
102
RTVSPropertyOp14
 70
     1
102
RTVSPropertyOp15
 70
     1
102
RTVSPropertyOp16
 70
     1
102
RTVSPropertyOp17
 70
     1
102
RTVSPropertyOp18
 70
     1
102
RTVSPropertyOp19
 70
     1
102
RTVSPropertyOp20
 70
     1
102
RTVSPropertyOp21
 70
     1
102
RTVSPropertyOp22
 70
     1
102
RTVSPropertyOp23
 70
     1
102
RTVSPropertyOp24
 70
     1
102
RTVSPropertyOp25
 70
     1
102
RTVSPropertyOp26
 70
     1
102
RTVSPropertyOp27
 70
     1
102
RTVSPropertyOp28
 70
     1
102
RTVSPropertyOp29
 70
     1
102
RTVSPropertyOp30
 70
     1
102
RTVSPropertyOp31
 70
     1
102
RTVSPropertyOp32
 70
     1
102
RTVSPropertyOp33
 70
     1
102
RTVSPropertyOp34
 70
     1
102
RTVSPropertyOp35
 70
     1
102
RTVSPropertyOp36
 70
     1
102
RTVSPropertyOp37
 70
     1
102
RTVSPropertyOp38
 70
     1
102
RTVSPropertyOp39
 70
     1
102
RTVSPropertyOp40
 70
     1
102
RTVSPropertyOp41
 70
     1
102
RTVSPropertyOp42
 70
     1
102
RTVSPropertyOp43
 70
     1
102
RTVSPropertyOp44
 70
     1
102
RTVSPropertyOp45
 70
     1
102
RTVSPropertyOp46
 70
     1
102
RTVSPropertyOp47
 70
     1
102
RTVSPropertyOp48
 70
     1
102
RTVSPropertyOp49
 70
     1
102
RTVSPropertyOp50
 70
     1
102
RTVSPropertyOp51
 70
     0
102
RTVSPropertyOp52
 70
     0
102
RTVSPropertyOp53
 70
     1
102
RTVSPropertyOp54
 70
     1
102
RTVSPropertyOp55
 70
     1
102
RTVSPropertyOp56
 70
     1
102
RTVSPropertyOp57
 70
     1
102
RTVSPropertyOp58
 70
     1
102
RTVSPropertyOp59
 70
     1
102
RTVSPropertyOp60
 70
     1
102
RTVSPropertyOp61
 70
     1
102
RTVSPropertyOp62
 70
     1
  0
XRECORD
  5
3407
102
{ACAD_REACTORS
330
3406
102
}
330
3406
100
AcDbXrecord
280
     1
102
RTVSPost2010Prop28
280
     0
102
RTVSPost2010PropOp28
 70
     1
102
RTVSPost2010Prop29
280
     1
102
RTVSPost2010PropOp29
 70
     1
102
RTVSPost2010Prop30
280
     1
102
RTVSPost2010PropOp30
 70
     1
102
RTVSPost2010Prop31
280
     0
102
RTVSPost2010PropOp31
 70
     1
102
RTVSPost2010Prop32
280
     0
102
RTVSPost2010PropOp32
 70
     1
102
RTVSPost2010Prop33
280
     0
102
RTVSPost2010PropOp33
 70
     1
102
RTVSPost2010Prop34
280
     0
102
RTVSPost2010PropOp34
 70
     1
102
RTVSPost2010Prop35
280
     0
102
RTVSPost2010PropOp35
 70
     1
102
RTVSPost2010Prop36
280
     0
102
RTVSPost2010PropOp36
 70
     1
102
RTVSPost2010Prop37
 90
       50
102
RTVSPost2010PropOp37
 70
     1
102
RTVSPost2010Prop38
140
0.0
102
RTVSPost2010PropOp38
 70
     1
102
RTVSPost2010Prop39
140
1.0
102
RTVSPost2010PropOp39
 70
     1
102
RTVSPost2010Prop40
 90
        0
102
RTVSPost2010PropOp40
 70
     1
102
RTVSPost2010Prop41ColorIndex
 90
       18
102
RTVSPost2010Prop41ColorRGB
 90
        0
102
RTVSPost2010PropOp41
 70
     1
102
RTVSPost2010Prop42
 90
       50
102
RTVSPost2010PropOp42
 70
     1
102
RTVSPost2010Prop43
 90
        3
102
RTVSPost2010PropOp43
 70
     1
102
RTVSPost2010Prop44ColorIndex
 90
        5
102
RTVSPost2010Prop44ColorRGB
 90
      255
102
RTVSPost2010PropOp44
 70
     1
102
RTVSPost2010Prop45
280
     0
102
RTVSPost2010PropOp45
 70
     1
102
RTVSPost2010Prop46
 90
       50
102
RTVSPost2010PropOp46
 70
     1
102
RTVSPost2010Prop47
 90
       50
102
RTVSPost2010PropOp47
 70
     1
102
RTVSPost2010Prop48
 90
       50
102
RTVSPost2010PropOp48
 70
     1
102
RTVSPost2010Prop49
280
     0
102
RTVSPost2010PropOp49
 70
     1
102
RTVSPost2010Prop50
 90
       50
102
RTVSPost2010PropOp50
 70
     1
102
RTVSPost2010Prop51ColorIndex
 90
      256
102
RTVSPost2010Prop51ColorRGB
 90
-16777216
102
RTVSPost2010PropOp51
 70
     0
102
RTVSPost2010Prop52
140
1.0
102
RTVSPost2010PropOp52
 70
     0
102
RTVSPost2010Prop53
 90
        2
102
RTVSPost2010PropOp53
 70
     1
102
RTVSPost2010Prop54
  1
strokes_ogs.tif
102
RTVSPost2010PropOp54
 70
     1
102
RTVSPost2010Prop55
280
     0
102
RTVSPost2010PropOp55
 70
     1
102
RTVSPost2010Prop56
140
1.0
102
RTVSPost2010PropOp56
 70
     1
102
RTVSPost2010Prop57
140
1.0
102
RTVSPost2010PropOp57
 70
     1
102
RTVSPropertyOp0
 70
     1
102
RTVSPropertyOp1
 70
     1
102
RTVSPropertyOp2
 70
     1
102
RTVSPropertyOp3
 70
     1
102
RTVSPropertyOp4
 70
     1
102
RTVSPropertyOp5
 70
     1
102
RTVSPropertyOp6
 70
     1
102
RTVSPropertyOp7
 70
     1
102
RTVSPropertyOp8
 70
     1
102
RTVSPropertyOp9
 70
     1
102
RTVSPropertyOp10
 70
     1
102
RTVSPropertyOp11
 70
     1
102
RTVSPropertyOp12
 70
     1
102
RTVSPropertyOp13
 70
     1
102
RTVSPropertyOp14
 70
     1
102
RTVSPropertyOp15
 70
     1
102
RTVSPropertyOp16
 70
     1
102
RTVSPropertyOp17
 70
     1
102
RTVSPropertyOp18
 70
     1
102
RTVSPropertyOp19
 70
     1
102
RTVSPropertyOp20
 70
     1
102
RTVSPropertyOp21
 70
     1
102
RTVSPropertyOp22
 70
     1
102
RTVSPropertyOp23
 70
     1
102
RTVSPropertyOp24
 70
     1
102
RTVSPropertyOp25
 70
     1
102
RTVSPropertyOp26
 70
     1
102
RTVSPropertyOp27
 70
     1
102
RTVSPropertyOp28
 70
     1
102
RTVSPropertyOp29
 70
     1
102
RTVSPropertyOp30
 70
     1
102
RTVSPropertyOp31
 70
     1
102
RTVSPropertyOp32
 70
     1
102
RTVSPropertyOp33
 70
     1
102
RTVSPropertyOp34
 70
     1
102
RTVSPropertyOp35
 70
     1
102
RTVSPropertyOp36
 70
     1
102
RTVSPropertyOp37
 70
     1
102
RTVSPropertyOp38
 70
     1
102
RTVSPropertyOp39
 70
     1
102
RTVSPropertyOp40
 70
     1
102
RTVSPropertyOp41
 70
     1
102
RTVSPropertyOp42
 70
     1
102
RTVSPropertyOp43
 70
     1
102
RTVSPropertyOp44
 70
     1
102
RTVSPropertyOp45
 70
     1
102
RTVSPropertyOp46
 70
     1
102
RTVSPropertyOp47
 70
     1
102
RTVSPropertyOp48
 70
     1
102
RTVSPropertyOp49
 70
     1
102
RTVSPropertyOp50
 70
     1
102
RTVSPropertyOp51
 70
     0
102
RTVSPropertyOp52
 70
     0
102
RTVSPropertyOp53
 70
     1
102
RTVSPropertyOp54
 70
     1
102
RTVSPropertyOp55
 70
     1
102
RTVSPropertyOp56
 70
     1
102
RTVSPropertyOp57
 70
     1
102
RTVSPropertyOp58
 70
     1
102
RTVSPropertyOp59
 70
     1
102
RTVSPropertyOp60
 70
     1
102
RTVSPropertyOp61
 70
     1
102
RTVSPropertyOp62
 70
     1
  0
XRECORD
  5
33FD
102
{ACAD_REACTORS
330
33FC
102
}
330
33FC
100
AcDbXrecord
280
     1
102
RTVSPost2010Prop28
280
     0
102
RTVSPost2010PropOp28
 70
     1
102
RTVSPost2010Prop29
280
     1
102
RTVSPost2010PropOp29
 70
     1
102
RTVSPost2010Prop30
280
     1
102
RTVSPost2010PropOp30
 70
     1
102
RTVSPost2010Prop31
280
     0
102
RTVSPost2010PropOp31
 70
     1
102
RTVSPost2010Prop32
280
     0
102
RTVSPost2010PropOp32
 70
     1
102
RTVSPost2010Prop33
280
     0
102
RTVSPost2010PropOp33
 70
     1
102
RTVSPost2010Prop34
280
     0
102
RTVSPost2010PropOp34
 70
     1
102
RTVSPost2010Prop35
280
     0
102
RTVSPost2010PropOp35
 70
     1
102
RTVSPost2010Prop36
280
     0
102
RTVSPost2010PropOp36
 70
     1
102
RTVSPost2010Prop37
 90
       50
102
RTVSPost2010PropOp37
 70
     1
102
RTVSPost2010Prop38
140
0.0
102
RTVSPost2010PropOp38
 70
     1
102
RTVSPost2010Prop39
140
1.0
102
RTVSPost2010PropOp39
 70
     1
102
RTVSPost2010Prop40
 90
        0
102
RTVSPost2010PropOp40
 70
     1
102
RTVSPost2010Prop41ColorIndex
 90
       18
102
RTVSPost2010Prop41ColorRGB
 90
        0
102
RTVSPost2010PropOp41
 70
     1
102
RTVSPost2010Prop42
 90
       50
102
RTVSPost2010PropOp42
 70
     1
102
RTVSPost2010Prop43
 90
        3
102
RTVSPost2010PropOp43
 70
     1
102
RTVSPost2010Prop44ColorIndex
 90
        5
102
RTVSPost2010Prop44ColorRGB
 90
      255
102
RTVSPost2010PropOp44
 70
     1
102
RTVSPost2010Prop45
280
     0
102
RTVSPost2010PropOp45
 70
     1
102
RTVSPost2010Prop46
 90
       50
102
RTVSPost2010PropOp46
 70
     1
102
RTVSPost2010Prop47
 90
       50
102
RTVSPost2010PropOp47
 70
     1
102
RTVSPost2010Prop48
 90
       50
102
RTVSPost2010PropOp48
 70
     1
102
RTVSPost2010Prop49
280
     0
102
RTVSPost2010PropOp49
 70
     1
102
RTVSPost2010Prop50
 90
       50
102
RTVSPost2010PropOp50
 70
     1
102
RTVSPost2010Prop51ColorIndex
 90
      256
102
RTVSPost2010Prop51ColorRGB
 90
-16777216
102
RTVSPost2010PropOp51
 70
     0
102
RTVSPost2010Prop52
140
1.0
102
RTVSPost2010PropOp52
 70
     0
102
RTVSPost2010Prop53
 90
        2
102
RTVSPost2010PropOp53
 70
     1
102
RTVSPost2010Prop54
  1
strokes_ogs.tif
102
RTVSPost2010PropOp54
 70
     1
102
RTVSPost2010Prop55
280
     0
102
RTVSPost2010PropOp55
 70
     1
102
RTVSPost2010Prop56
140
1.0
102
RTVSPost2010PropOp56
 70
     1
102
RTVSPost2010Prop57
140
1.0
102
RTVSPost2010PropOp57
 70
     1
102
RTVSPropertyOp0
 70
     1
102
RTVSPropertyOp1
 70
     1
102
RTVSPropertyOp2
 70
     1
102
RTVSPropertyOp3
 70
     1
102
RTVSPropertyOp4
 70
     1
102
RTVSPropertyOp5
 70
     1
102
RTVSPropertyOp6
 70
     1
102
RTVSPropertyOp7
 70
     1
102
RTVSPropertyOp8
 70
     1
102
RTVSPropertyOp9
 70
     1
102
RTVSPropertyOp10
 70
     1
102
RTVSPropertyOp11
 70
     1
102
RTVSPropertyOp12
 70
     1
102
RTVSPropertyOp13
 70
     1
102
RTVSPropertyOp14
 70
     1
102
RTVSPropertyOp15
 70
     1
102
RTVSPropertyOp16
 70
     1
102
RTVSPropertyOp17
 70
     1
102
RTVSPropertyOp18
 70
     1
102
RTVSPropertyOp19
 70
     1
102
RTVSPropertyOp20
 70
     1
102
RTVSPropertyOp21
 70
     1
102
RTVSPropertyOp22
 70
     1
102
RTVSPropertyOp23
 70
     1
102
RTVSPropertyOp24
 70
     1
102
RTVSPropertyOp25
 70
     1
102
RTVSPropertyOp26
 70
     1
102
RTVSPropertyOp27
 70
     1
102
RTVSPropertyOp28
 70
     1
102
RTVSPropertyOp29
 70
     1
102
RTVSPropertyOp30
 70
     1
102
RTVSPropertyOp31
 70
     1
102
RTVSPropertyOp32
 70
     1
102
RTVSPropertyOp33
 70
     1
102
RTVSPropertyOp34
 70
     1
102
RTVSPropertyOp35
 70
     1
102
RTVSPropertyOp36
 70
     1
102
RTVSPropertyOp37
 70
     1
102
RTVSPropertyOp38
 70
     1
102
RTVSPropertyOp39
 70
     1
102
RTVSPropertyOp40
 70
     1
102
RTVSPropertyOp41
 70
     1
102
RTVSPropertyOp42
 70
     1
102
RTVSPropertyOp43
 70
     1
102
RTVSPropertyOp44
 70
     1
102
RTVSPropertyOp45
 70
     1
102
RTVSPropertyOp46
 70
     1
102
RTVSPropertyOp47
 70
     1
102
RTVSPropertyOp48
 70
     1
102
RTVSPropertyOp49
 70
     1
102
RTVSPropertyOp50
 70
     1
102
RTVSPropertyOp51
 70
     0
102
RTVSPropertyOp52
 70
     0
102
RTVSPropertyOp53
 70
     1
102
RTVSPropertyOp54
 70
     1
102
RTVSPropertyOp55
 70
     1
102
RTVSPropertyOp56
 70
     1
102
RTVSPropertyOp57
 70
     1
102
RTVSPropertyOp58
 70
     1
102
RTVSPropertyOp59
 70
     1
102
RTVSPropertyOp60
 70
     1
102
RTVSPropertyOp61
 70
     1
102
RTVSPropertyOp62
 70
     1
  0
XRECORD
  5
33F1
102
{ACAD_REACTORS
330
33F0
102
}
330
33F0
100
AcDbXrecord
280
     1
102
RTVSPost2010Prop28
280
     0
102
RTVSPost2010PropOp28
 70
     1
102
RTVSPost2010Prop29
280
     1
102
RTVSPost2010PropOp29
 70
     1
102
RTVSPost2010Prop30
280
     1
102
RTVSPost2010PropOp30
 70
     1
102
RTVSPost2010Prop31
280
     0
102
RTVSPost2010PropOp31
 70
     1
102
RTVSPost2010Prop32
280
     0
102
RTVSPost2010PropOp32
 70
     1
102
RTVSPost2010Prop33
280
     0
102
RTVSPost2010PropOp33
 70
     1
102
RTVSPost2010Prop34
280
     0
102
RTVSPost2010PropOp34
 70
     1
102
RTVSPost2010Prop35
280
     0
102
RTVSPost2010PropOp35
 70
     1
102
RTVSPost2010Prop36
280
     0
102
RTVSPost2010PropOp36
 70
     1
102
RTVSPost2010Prop37
 90
       50
102
RTVSPost2010PropOp37
 70
     1
102
RTVSPost2010Prop38
140
0.0
102
RTVSPost2010PropOp38
 70
     1
102
RTVSPost2010Prop39
140
1.0
102
RTVSPost2010PropOp39
 70
     1
102
RTVSPost2010Prop40
 90
        0
102
RTVSPost2010PropOp40
 70
     1
102
RTVSPost2010Prop41ColorIndex
 90
       18
102
RTVSPost2010Prop41ColorRGB
 90
        0
102
RTVSPost2010PropOp41
 70
     1
102
RTVSPost2010Prop42
 90
       50
102
RTVSPost2010PropOp42
 70
     1
102
RTVSPost2010Prop43
 90
        3
102
RTVSPost2010PropOp43
 70
     1
102
RTVSPost2010Prop44ColorIndex
 90
        5
102
RTVSPost2010Prop44ColorRGB
 90
      255
102
RTVSPost2010PropOp44
 70
     1
102
RTVSPost2010Prop45
280
     0
102
RTVSPost2010PropOp45
 70
     1
102
RTVSPost2010Prop46
 90
       50
102
RTVSPost2010PropOp46
 70
     1
102
RTVSPost2010Prop47
 90
       50
102
RTVSPost2010PropOp47
 70
     1
102
RTVSPost2010Prop48
 90
       50
102
RTVSPost2010PropOp48
 70
     1
102
RTVSPost2010Prop49
280
     0
102
RTVSPost2010PropOp49
 70
     1
102
RTVSPost2010Prop50
 90
       50
102
RTVSPost2010PropOp50
 70
     1
102
RTVSPost2010Prop51ColorIndex
 90
      256
102
RTVSPost2010Prop51ColorRGB
 90
-16777216
102
RTVSPost2010PropOp51
 70
     0
102
RTVSPost2010Prop52
140
1.0
102
RTVSPost2010PropOp52
 70
     0
102
RTVSPost2010Prop53
 90
        2
102
RTVSPost2010PropOp53
 70
     1
102
RTVSPost2010Prop54
  1
strokes_ogs.tif
102
RTVSPost2010PropOp54
 70
     1
102
RTVSPost2010Prop55
280
     0
102
RTVSPost2010PropOp55
 70
     1
102
RTVSPost2010Prop56
140
1.0
102
RTVSPost2010PropOp56
 70
     1
102
RTVSPost2010Prop57
140
1.0
102
RTVSPost2010PropOp57
 70
     1
102
RTVSPropertyOp0
 70
     1
102
RTVSPropertyOp1
 70
     1
102
RTVSPropertyOp2
 70
     1
102
RTVSPropertyOp3
 70
     1
102
RTVSPropertyOp4
 70
     1
102
RTVSPropertyOp5
 70
     1
102
RTVSPropertyOp6
 70
     1
102
RTVSPropertyOp7
 70
     1
102
RTVSPropertyOp8
 70
     1
102
RTVSPropertyOp9
 70
     1
102
RTVSPropertyOp10
 70
     1
102
RTVSPropertyOp11
 70
     1
102
RTVSPropertyOp12
 70
     1
102
RTVSPropertyOp13
 70
     1
102
RTVSPropertyOp14
 70
     1
102
RTVSPropertyOp15
 70
     1
102
RTVSPropertyOp16
 70
     1
102
RTVSPropertyOp17
 70
     1
102
RTVSPropertyOp18
 70
     1
102
RTVSPropertyOp19
 70
     1
102
RTVSPropertyOp20
 70
     1
102
RTVSPropertyOp21
 70
     1
102
RTVSPropertyOp22
 70
     1
102
RTVSPropertyOp23
 70
     1
102
RTVSPropertyOp24
 70
     1
102
RTVSPropertyOp25
 70
     1
102
RTVSPropertyOp26
 70
     1
102
RTVSPropertyOp27
 70
     1
102
RTVSPropertyOp28
 70
     1
102
RTVSPropertyOp29
 70
     1
102
RTVSPropertyOp30
 70
     1
102
RTVSPropertyOp31
 70
     1
102
RTVSPropertyOp32
 70
     1
102
RTVSPropertyOp33
 70
     1
102
RTVSPropertyOp34
 70
     1
102
RTVSPropertyOp35
 70
     1
102
RTVSPropertyOp36
 70
     1
102
RTVSPropertyOp37
 70
     1
102
RTVSPropertyOp38
 70
     1
102
RTVSPropertyOp39
 70
     1
102
RTVSPropertyOp40
 70
     1
102
RTVSPropertyOp41
 70
     1
102
RTVSPropertyOp42
 70
     1
102
RTVSPropertyOp43
 70
     1
102
RTVSPropertyOp44
 70
     1
102
RTVSPropertyOp45
 70
     1
102
RTVSPropertyOp46
 70
     1
102
RTVSPropertyOp47
 70
     1
102
RTVSPropertyOp48
 70
     1
102
RTVSPropertyOp49
 70
     1
102
RTVSPropertyOp50
 70
     1
102
RTVSPropertyOp51
 70
     0
102
RTVSPropertyOp52
 70
     0
102
RTVSPropertyOp53
 70
     1
102
RTVSPropertyOp54
 70
     1
102
RTVSPropertyOp55
 70
     1
102
RTVSPropertyOp56
 70
     1
102
RTVSPropertyOp57
 70
     1
102
RTVSPropertyOp58
 70
     1
102
RTVSPropertyOp59
 70
     1
102
RTVSPropertyOp60
 70
     1
102
RTVSPropertyOp61
 70
     1
102
RTVSPropertyOp62
 70
     1
  0
XRECORD
  5
3409
102
{ACAD_REACTORS
330
3408
102
}
330
3408
100
AcDbXrecord
280
     1
102
RTVSPost2010Prop28
280
     0
102
RTVSPost2010PropOp28
 70
     1
102
RTVSPost2010Prop29
280
     1
102
RTVSPost2010PropOp29
 70
     1
102
RTVSPost2010Prop30
280
     1
102
RTVSPost2010PropOp30
 70
     1
102
RTVSPost2010Prop31
280
     0
102
RTVSPost2010PropOp31
 70
     1
102
RTVSPost2010Prop32
280
     0
102
RTVSPost2010PropOp32
 70
     1
102
RTVSPost2010Prop33
280
     0
102
RTVSPost2010PropOp33
 70
     1
102
RTVSPost2010Prop34
280
     0
102
RTVSPost2010PropOp34
 70
     1
102
RTVSPost2010Prop35
280
     0
102
RTVSPost2010PropOp35
 70
     1
102
RTVSPost2010Prop36
280
     0
102
RTVSPost2010PropOp36
 70
     1
102
RTVSPost2010Prop37
 90
       50
102
RTVSPost2010PropOp37
 70
     1
102
RTVSPost2010Prop38
140
0.0
102
RTVSPost2010PropOp38
 70
     1
102
RTVSPost2010Prop39
140
1.0
102
RTVSPost2010PropOp39
 70
     1
102
RTVSPost2010Prop40
 90
        0
102
RTVSPost2010PropOp40
 70
     1
102
RTVSPost2010Prop41ColorIndex
 90
       18
102
RTVSPost2010Prop41ColorRGB
 90
        0
102
RTVSPost2010PropOp41
 70
     1
102
RTVSPost2010Prop42
 90
       50
102
RTVSPost2010PropOp42
 70
     1
102
RTVSPost2010Prop43
 90
        3
102
RTVSPost2010PropOp43
 70
     1
102
RTVSPost2010Prop44ColorIndex
 90
        5
102
RTVSPost2010Prop44ColorRGB
 90
      255
102
RTVSPost2010PropOp44
 70
     1
102
RTVSPost2010Prop45
280
     0
102
RTVSPost2010PropOp45
 70
     1
102
RTVSPost2010Prop46
 90
       50
102
RTVSPost2010PropOp46
 70
     1
102
RTVSPost2010Prop47
 90
       50
102
RTVSPost2010PropOp47
 70
     1
102
RTVSPost2010Prop48
 90
       50
102
RTVSPost2010PropOp48
 70
     1
102
RTVSPost2010Prop49
280
     0
102
RTVSPost2010PropOp49
 70
     1
102
RTVSPost2010Prop50
 90
       50
102
RTVSPost2010PropOp50
 70
     1
102
RTVSPost2010Prop51ColorIndex
 90
      256
102
RTVSPost2010Prop51ColorRGB
 90
-16777216
102
RTVSPost2010PropOp51
 70
     0
102
RTVSPost2010Prop52
140
1.0
102
RTVSPost2010PropOp52
 70
     0
102
RTVSPost2010Prop53
 90
        2
102
RTVSPost2010PropOp53
 70
     1
102
RTVSPost2010Prop54
  1
strokes_ogs.tif
102
RTVSPost2010PropOp54
 70
     1
102
RTVSPost2010Prop55
280
     0
102
RTVSPost2010PropOp55
 70
     1
102
RTVSPost2010Prop56
140
1.0
102
RTVSPost2010PropOp56
 70
     1
102
RTVSPost2010Prop57
140
1.0
102
RTVSPost2010PropOp57
 70
     1
102
RTVSPropertyOp0
 70
     1
102
RTVSPropertyOp1
 70
     1
102
RTVSPropertyOp2
 70
     1
102
RTVSPropertyOp3
 70
     1
102
RTVSPropertyOp4
 70
     1
102
RTVSPropertyOp5
 70
     1
102
RTVSPropertyOp6
 70
     1
102
RTVSPropertyOp7
 70
     1
102
RTVSPropertyOp8
 70
     1
102
RTVSPropertyOp9
 70
     1
102
RTVSPropertyOp10
 70
     1
102
RTVSPropertyOp11
 70
     1
102
RTVSPropertyOp12
 70
     1
102
RTVSPropertyOp13
 70
     1
102
RTVSPropertyOp14
 70
     1
102
RTVSPropertyOp15
 70
     1
102
RTVSPropertyOp16
 70
     1
102
RTVSPropertyOp17
 70
     1
102
RTVSPropertyOp18
 70
     1
102
RTVSPropertyOp19
 70
     1
102
RTVSPropertyOp20
 70
     1
102
RTVSPropertyOp21
 70
     1
102
RTVSPropertyOp22
 70
     1
102
RTVSPropertyOp23
 70
     1
102
RTVSPropertyOp24
 70
     1
102
RTVSPropertyOp25
 70
     1
102
RTVSPropertyOp26
 70
     1
102
RTVSPropertyOp27
 70
     1
102
RTVSPropertyOp28
 70
     1
102
RTVSPropertyOp29
 70
     1
102
RTVSPropertyOp30
 70
     1
102
RTVSPropertyOp31
 70
     1
102
RTVSPropertyOp32
 70
     1
102
RTVSPropertyOp33
 70
     1
102
RTVSPropertyOp34
 70
     1
102
RTVSPropertyOp35
 70
     1
102
RTVSPropertyOp36
 70
     1
102
RTVSPropertyOp37
 70
     1
102
RTVSPropertyOp38
 70
     1
102
RTVSPropertyOp39
 70
     1
102
RTVSPropertyOp40
 70
     1
102
RTVSPropertyOp41
 70
     1
102
RTVSPropertyOp42
 70
     1
102
RTVSPropertyOp43
 70
     1
102
RTVSPropertyOp44
 70
     1
102
RTVSPropertyOp45
 70
     1
102
RTVSPropertyOp46
 70
     1
102
RTVSPropertyOp47
 70
     1
102
RTVSPropertyOp48
 70
     1
102
RTVSPropertyOp49
 70
     1
102
RTVSPropertyOp50
 70
     1
102
RTVSPropertyOp51
 70
     0
102
RTVSPropertyOp52
 70
     0
102
RTVSPropertyOp53
 70
     1
102
RTVSPropertyOp54
 70
     1
102
RTVSPropertyOp55
 70
     1
102
RTVSPropertyOp56
 70
     1
102
RTVSPropertyOp57
 70
     1
102
RTVSPropertyOp58
 70
     1
102
RTVSPropertyOp59
 70
     1
102
RTVSPropertyOp60
 70
     1
102
RTVSPropertyOp61
 70
     1
102
RTVSPropertyOp62
 70
     1
  0
ENDSEC
  0
EOF
